0
SECTION
2
HEADER
9
$ACADVER
1
AC1015
9
$DWGCODEPAGE
3
ANSI_1252
9
$EXTMAX
10
297.0000000000
20
210.0000000000
30
0.0000000000
9
$EXTMIN
10
0.0000000000
20
0.0000000000
30
0.0000000000
9
$LIMMIN
10
0.0000000000
20
0.0000000000
9
$LIMMAX
10
297.0000000000
20
210.0000000000
9
$VIEWCTR
10
148.5000000000
20
105.0000000000
9
$VIEWSIZE
40
210.0000000000
9
$CLAYER
8
0
9
$LTSCALE
40
16.3350000000
9
$CELTYPE
6
BYLAYER
9
$DIMSCALE
40
1
9
$DIMASZ
40
3.0000000000
9
$DIMEXO
40
1.8562500000
9
$DIMDLI
40
11.2860000000
9
$DIMEXE
40
5.3460000000
9
$DIMCEN
40
2.6730000000
9
$DIMLFAC
40
1.0000000000
9
$DIMBLK
1
_FILLED
9
$DIMTXT
40
3.0000000000
9
$DIMTOL
70
1
9
$DIMLIM
70
0
9
$DIMTFAC
40
1.0000000000
9
$DIMTP
40
0.0100000000
9
$DIMTM
40
0.0100000000
9
$PDMODE
70
3
9
$PDSIZE
40
3.0000000000
9
$HANDSEED
5
3D1
9
$MEASUREMENT
70
1
9
$INSUNITS
70
4
0
ENDSEC
0
SECTION
2
CLASSES
0
CLASS
1
ACDBDICTIONARYWDFLT
2
AcDbDictionaryWithDefault
3
AutoCAD 2000
90
0
280
0
281
0
0
CLASS
1
ACDBPLACEHOLDER
2
AcDbPlaceHolder
3
AutoCAD 2000
90
0
280
0
281
0
0
CLASS
1
LAYOUT
2
AcDbLayout
3
AutoCAD 2000
90
0
280
0
281
0
0
ENDSEC
0
SECTION
2
TABLES
0
TABLE
2
VPORT
5
8
100
AcDbSymbolTable
70
2
0
VPORT
5
1F4
100
AcDbSymbolTableRecord
100
AcDbViewportTableRecord
2
*ACTIVE
70
0
10
0.0
20
0.0
11
1.0
21
1.0
12
148.5000000000
22
105.0000000000
13
0.0
23
0.0
14
1.0
24
1.0
15
0.0
25
0.0
16
0.0
26
0.0
36
1.0
17
0.0
27
0.0
37
0.0
40
210.0000000000
41
1.4142857143
42
50.0
43
0.0
44
0.0
50
0.0
51
0.0
71
0
72
100
73
1
74
1
75
0
76
0
77
0
78
0
0
ENDTAB
0
TABLE
2
LTYPE
5
5
100
AcDbSymbolTable
70
6
0
LTYPE
5
14
100
AcDbSymbolTableRecord
100
AcDbLinetypeTableRecord
2
BYBLOCK
70
0
3

72
65
73
0
40
0.0
0
LTYPE
5
15
100
AcDbSymbolTableRecord
100
AcDbLinetypeTableRecord
2
BYLAYER
70
0
3

72
65
73
0
40
0.0
0
LTYPE
5
16
100
AcDbSymbolTableRecord
100
AcDbLinetypeTableRecord
2
CONTINUOUS
70
64
3
Solid line
72
65
73
0
40
0
0
LTYPE
5
1F5
100
AcDbSymbolTableRecord
100
AcDbLinetypeTableRecord
2
CENTER
70
64
3
____ _ ____ _ ____ _ ____ _ ____ _ ____ _ ____
72
65
73
4
40
0.6
49
0.375
74
0
49
-0.075
74
0
49
0.075
74
0
49
-0.075
74
0
0
LTYPE
5
1F6
100
AcDbSymbolTableRecord
100
AcDbLinetypeTableRecord
2
HIDDEN
70
64
3
- - - - - - - - - - - - - - - - - - - -
72
65
73
2
40
0.2
49
0.1
74
0
49
-0.1
74
0
0
LTYPE
5
1F7
100
AcDbSymbolTableRecord
100
AcDbLinetypeTableRecord
2
PHANTOM
70
64
3
_____ _ _ _____ _ _ _____ _ _ _____
72
65
73
6
40
0.8
49
0.45
74
0
49
-0.05
74
0
49
0.1
74
0
49
-0.05
74
0
49
0.1
74
0
49
-0.05
74
0
0
LTYPE
5
1F8
100
AcDbSymbolTableRecord
100
AcDbLinetypeTableRecord
2
DOT
70
64
3
. . . . . . . . . . . . . . . . . . . .
72
65
73
2
40
0.2
49
0.1
74
0
49
-0.1
74
0
0
LTYPE
5
1F9
100
AcDbSymbolTableRecord
100
AcDbLinetypeTableRecord
2
DASHED
70
64
3
- - - - - - - - - - - - - - - - - - - -
72
65
73
2
40
0.2
49
0.1
74
0
49
-0.1
74
0
0
ENDTAB
0
TABLE
2
LAYER
5
2
100
AcDbSymbolTable
70
36
0
LAYER
5
10
100
AcDbSymbolTableRecord
100
AcDbLayerTableRecord
2
0
70
0
62
7
6
CONTINUOUS
370
-3
390
F
0
LAYER
5
1FA
100
AcDbSymbolTableRecord
100
AcDbLayerTableRecord
2
DEFAULT_1
70
0
62
7
6
CENTER
370
-3
390
F
0
LAYER
5
1FB
100
AcDbSymbolTableRecord
100
AcDbLayerTableRecord
2
DEFAULT_2
70
0
62
8
6
HIDDEN
370
-3
390
F
0
LAYER
5
1FC
100
AcDbSymbolTableRecord
100
AcDbLayerTableRecord
2
DEFAULT_3
70
0
62
7
6
PHANTOM
370
-3
390
F
0
LAYER
5
1FD
100
AcDbSymbolTableRecord
100
AcDbLayerTableRecord
2
_2D_DELETED_OBJS
70
0
62
7
6
CONTINUOUS
370
-3
390
F
0
LAYER
5
1FE
100
AcDbSymbolTableRecord
100
AcDbLayerTableRecord
2
_BLACK_HOLE
70
0
62
7
6
CONTINUOUS
370
-3
390
F
0
LAYER
5
1FF
100
AcDbSymbolTableRecord
100
AcDbLayerTableRecord
2
ASSI
70
0
62
7
6
CONTINUOUS
370
-3
390
F
0
LAYER
5
200
100
AcDbSymbolTableRecord
100
AcDbLayerTableRecord
2
COORDINATE
70
0
62
7
6
CONTINUOUS
370
-3
390
F
0
LAYER
5
201
100
AcDbSymbolTableRecord
100
AcDbLayerTableRecord
2
COORD_ORIGINE
70
0
62
7
6
CONTINUOUS
370
-3
390
F
0
LAYER
5
202
100
AcDbSymbolTableRecord
100
AcDbLayerTableRecord
2
COSMETICHE
70
0
62
7
6
CONTINUOUS
370
-3
390
F
0
LAYER
5
203
100
AcDbSymbolTableRecord
100
AcDbLayerTableRecord
2
COSMETICI
70
0
62
7
6
CONTINUOUS
370
-3
390
F
0
LAYER
5
204
100
AcDbSymbolTableRecord
100
AcDbLayerTableRecord
2
CURVE
70
0
62
7
6
CONTINUOUS
370
-3
390
F
0
LAYER
5
205
100
AcDbSymbolTableRecord
100
AcDbLayerTableRecord
2
DRAFT
70
0
62
7
6
CONTINUOUS
370
-3
390
F
0
LAYER
5
206
100
AcDbSymbolTableRecord
100
AcDbLayerTableRecord
2
IMPORT
70
0
62
7
6
CONTINUOUS
370
-3
390
F
0
LAYER
5
207
100
AcDbSymbolTableRecord
100
AcDbLayerTableRecord
2
INCISIONI
70
0
62
7
6
CONTINUOUS
370
-3
390
F
0
LAYER
5
208
100
AcDbSymbolTableRecord
100
AcDbLayerTableRecord
2
LAY0001
70
0
62
7
6
CONTINUOUS
370
-3
390
F
0
LAYER
5
209
100
AcDbSymbolTableRecord
100
AcDbLayerTableRecord
2
NOTE
70
0
62
7
6
CONTINUOUS
370
-3
390
F
0
LAYER
5
20A
100
AcDbSymbolTableRecord
100
AcDbLayerTableRecord
2
PIANI
70
0
62
7
6
CONTINUOUS
370
-3
390
F
0
LAYER
5
20B
100
AcDbSymbolTableRecord
100
AcDbLayerTableRecord
2
PIANI_DI_RIFERIMENTO
70
0
62
7
6
CONTINUOUS
370
-3
390
F
0
LAYER
5
20C
100
AcDbSymbolTableRecord
100
AcDbLayerTableRecord
2
PIANI_ORIGINE
70
0
62
7
6
CONTINUOUS
370
-3
390
F
0
LAYER
5
20D
100
AcDbSymbolTableRecord
100
AcDbLayerTableRecord
2
PUNTI
70
0
62
7
6
CONTINUOUS
370
-3
390
F
0
LAYER
5
20E
100
AcDbSymbolTableRecord
100
AcDbLayerTableRecord
2
RACCORDO
70
0
62
7
6
CONTINUOUS
370
-3
390
F
0
LAYER
5
20F
100
AcDbSymbolTableRecord
100
AcDbLayerTableRecord
2
RIFERIMENTI
70
0
62
7
6
CONTINUOUS
370
-3
390
F
0
LAYER
5
210
100
AcDbSymbolTableRecord
100
AcDbLayerTableRecord
2
SMUSSO
70
0
62
7
6
CONTINUOUS
370
-3
390
F
0
LAYER
5
211
100
AcDbSymbolTableRecord
100
AcDbLayerTableRecord
2
SNAPLINE
70
0
62
7
6
CONTINUOUS
370
-3
390
F
0
LAYER
5
212
100
AcDbSymbolTableRecord
100
AcDbLayerTableRecord
2
SUPERFICI
70
0
62
7
6
CONTINUOUS
370
-3
390
F
0
LAYER
5
213
100
AcDbSymbolTableRecord
100
AcDbLayerTableRecord
2
TRASH
70
0
62
7
6
CONTINUOUS
370
-3
390
F
0
LAYER
5
214
100
AcDbSymbolTableRecord
100
AcDbLayerTableRecord
2
XSEC_DATUMS
70
0
62
7
6
CONTINUOUS
370
-3
390
F
0
ENDTAB
0
TABLE
2
STYLE
5
3
100
AcDbSymbolTable
70
1
0
STYLE
5
11
100
AcDbSymbolTableRecord
100
AcDbTextStyleTableRecord
2
STANDARD
70
0
40
0.0
41
0.8000000000
50
0.0
71
0
42
0.2
3
txt
4

0
ENDTAB
0
TABLE
2
VIEW
5
6
100
AcDbSymbolTable
70
0
0
ENDTAB
0
TABLE
2
UCS
5
7
100
AcDbSymbolTable
70
0
0
ENDTAB
0
TABLE
2
APPID
5
9
100
AcDbSymbolTable
70
1
0
APPID
5
215
100
AcDbSymbolTableRecord
100
AcDbRegAppTableRecord
2
ACAD
70
0
0
ENDTAB
0
TABLE
2
BLOCK_RECORD
5
1
100
AcDbSymbolTable
70
0
0
BLOCK_RECORD
5
1F
100
AcDbSymbolTableRecord
100
AcDbBlockTableRecord
2
*MODEL_SPACE
0
BLOCK_RECORD
5
1B
100
AcDbSymbolTableRecord
100
AcDbBlockTableRecord
2
*PAPER_SPACE
0
ENDTAB
0
TABLE
2
DIMSTYLE
5
A
100
AcDbSymbolTable
70
1
100
AcDbDimStyleTable
71
0
0
DIMSTYLE
105
216
100
AcDbSymbolTableRecord
100
AcDbDimStyleTableRecord
2
STANDARD
70
0
3

4

40
1.0
41
3.0000000000
42
0.0625
43
0.38
44
0.18
45
0.0
46
0.0
47
0.0100000000
48
0.0100000000
140
3.0000000000
141
0.09
142
0.0
143
25.4
144
1.0000000000
145
0.0
146
1.0000000000
147
0.09
71
1
72
0
73
0
74
0
75
0
76
0
77
1
78
8
170
0
171
2
172
0
173
0
174
0
175
0
176
0
177
0
178
0
270
2
271
2
272
2
273
2
274
2
275
0
280
0
281
0
282
0
283
1
284
8
285
0
286
0
287
3
288
0
340
11
0
ENDTAB
0
ENDSEC
0
SECTION
2
BLOCKS
0
BLOCK
5
20
100
AcDbEntity
8
0
100
AcDbBlockBegin
2
*MODEL_SPACE
70
0
10
0.0
20
0.0
30
0.0
3
*MODEL_SPACE
1

0
ENDBLK
5
21
100
AcDbEntity
8
0
100
AcDbBlockEnd
0
BLOCK
5
1C
100
AcDbEntity
8
0
100
AcDbBlockBegin
2
*PAPER_SPACE
70
0
10
0.0
20
0.0
30
0.0
3
*PAPER_SPACE
1

0
ENDBLK
5
1D
100
AcDbEntity
8
0
100
AcDbBlockEnd
0
ENDSEC
0
SECTION
2
ENTITIES
0
LWPOLYLINE
5
217
100
AcDbEntity
8
0
100
AcDbPolyline
62
7
6
CONTINUOUS
90
22
70
0
10
-37.3097241989
20
46.1723116558
10
-37.3172313053
20
46.1681767090
10
-37.3282091273
20
46.1615018954
10
-37.3388395887
20
46.1542646933
10
-37.3490937049
20
46.1464825003
10
-37.3589502722
20
46.1381680268
10
-37.3683819009
20
46.1293397288
10
-37.3773595122
20
46.1200200106
10
-37.3858593978
20
46.1102281506
10
-37.3938561456
20
46.0999871509
10
-37.4013241386
20
46.0893231793
10
-37.4082404357
20
46.0782618786
10
-37.4145825501
20
46.0668313627
10
-37.4203294395
20
46.0550610286
10
-37.4254620682
20
46.0429802243
10
-37.4299628717
20
46.0306188399
10
-37.4338144289
20
46.0180117130
10
-37.4370008768
20
46.0051974491
10
-37.4395097551
20
45.9922119488
10
-37.4413307924
20
45.9790905306
10
-37.4424553194
20
45.9658724343
10
-37.4428805796
20
45.9512964650
0
LWPOLYLINE
5
218
100
AcDbEntity
8
0
100
AcDbPolyline
62
7
6
CONTINUOUS
90
24
70
0
10
-33.6894787776
20
49.4312696647
10
-33.7086282174
20
49.4208577260
10
-33.7383734921
20
49.4034629807
10
-33.7664434490
20
49.3855200403
10
-33.7928426807
20
49.3670902020
10
-33.8176377476
20
49.3481936900
10
-33.8409332298
20
49.3288060251
10
-33.8627541080
20
49.3089539209
10
-33.8831216595
20
49.2886671069
10
-33.9021054352
20
49.2679169328
10
-33.9197164989
20
49.2467234265
10
-33.9359568952
20
49.2251195928
10
-33.9508561502
20
49.2030970872
10
-33.9644154400
20
49.1806773844
10
-33.9766232757
20
49.1579062180
10
-33.9874766643
20
49.1348219278
10
-33.9969737554
20
49.1114623126
10
-34.0051079263
20
49.0878821885
10
-34.0118726113
20
49.0641592825
10
-34.0172757663
20
49.0403485440
10
-34.0213280518
20
49.0165078173
10
-34.0240409457
20
48.9927283944
10
-34.0254386963
20
48.9690801713
10
-34.0256590826
20
48.9551147941
0
LINE
5
219
100
AcDbEntity
8
0
100
AcDbLine
62
7
6
CONTINUOUS
10
-32.2695788763
20
50.1818903222
11
-33.6894757943
21
49.4312714423
0
LINE
5
21A
100
AcDbEntity
8
0
100
AcDbLine
62
9
6
CONTINUOUS
10
-32.1558671552
20
50.1757620982
11
-33.5741792087
21
49.4259810462
0
LINE
5
21B
100
AcDbEntity
8
0
100
AcDbLine
62
9
6
CONTINUOUS
10
-32.5468038768
20
48.9168044090
11
-31.0952002533
21
49.6454286473
0
LINE
5
21C
100
AcDbEntity
8
0
100
AcDbLine
62
9
6
CONTINUOUS
10
-25.4613673591
20
52.3765111076
11
-31.1305623235
21
49.6631096824
0
LINE
5
21D
100
AcDbEntity
8
0
100
AcDbLine
62
7
6
CONTINUOUS
10
-32.2650587171
20
50.1841421788
11
-26.4956478058
21
52.8486473294
0
LINE
5
21E
100
AcDbEntity
8
0
100
AcDbLine
62
9
6
CONTINUOUS
10
-32.1558940802
20
50.1757755607
11
-26.3877429495
21
52.8396989028
0
LWPOLYLINE
5
21F
100
AcDbEntity
8
0
100
AcDbPolyline
62
7
6
CONTINUOUS
90
18
70
0
10
-20.3010106760
20
-1.1104703321
10
-20.2888660256
20
-1.1161409447
10
-20.2763086508
20
-1.1211995085
10
-20.2633765099
20
-1.1256080105
10
-20.2500925530
20
-1.1293361783
10
-20.2365219220
20
-1.1323453550
10
-20.2227706475
20
-1.1346002901
10
-20.2089119402
20
-1.1360857768
10
-20.1949747425
20
-1.1367969979
10
-20.1809961384
20
-1.1367286524
10
-20.1670340595
20
-1.1358782896
10
-20.1531295729
20
-1.1342466361
10
-20.1392879193
20
-1.1318289558
10
-20.1255028478
20
-1.1286108100
10
-20.1118752997
20
-1.1246023938
10
-20.0985524314
20
-1.1198478663
10
-20.0855711703
20
-1.1143708028
10
-20.0824264801
20
-1.1129118948
0
LINE
5
220
100
AcDbEntity
8
0
100
AcDbLine
62
7
6
CONTINUOUS
10
-20.3010106760
20
-1.1104703321
11
-37.3046839785
21
7.3913663191
0
LINE
5
221
100
AcDbEntity
8
0
100
AcDbLine
62
9
6
CONTINUOUS
10
-20.3659839725
20
-0.9752518820
11
-37.3696572749
21
7.5265847692
0
LWPOLYLINE
5
222
100
AcDbEntity
8
0
100
AcDbPolyline
62
7
6
CONTINUOUS
90
22
70
0
10
-37.3046839785
20
7.3913663191
10
-37.3163021369
20
7.3975630953
10
-37.3276205313
20
7.4043902488
10
-37.3385963106
20
7.4118304927
10
-37.3491921623
20
7.4198662511
10
-37.3593638563
20
7.4284702522
10
-37.3690625301
20
7.4376036710
10
-37.3782149301
20
7.4471899874
10
-37.3868353144
20
7.4572342165
10
-37.3949921685
20
7.4678306497
10
-37.4026837344
20
7.4790222576
10
-37.4098133674
20
7.4907146544
10
-37.4163027955
20
7.5028013136
10
-37.4221154036
20
7.5152164361
10
-37.4272412626
20
7.5279382376
10
-37.4316615341
20
7.5409214065
10
-37.4353602221
20
7.5541157189
10
-37.4383281951
20
7.5674813496
10
-37.4405607253
20
7.5809945144
10
-37.4420510975
20
7.5946248270
10
-37.4427920284
20
7.6083197177
10
-37.4428805793
20
7.6149664253
0
LWPOLYLINE
5
223
100
AcDbEntity
8
0
100
AcDbPolyline
62
7
6
CONTINUOUS
90
16
70
0
10
-39.4396012927
20
40.9901847730
10
-39.4496151513
20
40.9827038725
10
-39.5134924360
20
40.9303551306
10
-39.5741098600
20
40.8726548642
10
-39.6312603263
20
40.8100782598
10
-39.6847828546
20
40.7430729985
10
-39.7344146575
20
40.6721305718
10
-39.7799370284
20
40.5977108712
10
-39.8210989885
20
40.5202817191
10
-39.8575566451
20
40.4404586848
10
-39.8890906055
20
40.3587289106
10
-39.9154375467
20
40.2755765422
10
-39.9363097653
20
40.1915962058
10
-39.9514705869
20
40.1072346759
10
-39.9606370901
20
40.0229002807
10
-39.9630193453
20
39.9769485369
0
LINE
5
224
100
AcDbEntity
8
0
100
AcDbLine
62
7
6
CONTINUOUS
10
-39.4397438200
20
40.9900943517
11
-37.1250698155
21
42.6972988449
0
LINE
5
225
100
AcDbEntity
8
0
100
AcDbLine
62
9
6
CONTINUOUS
10
-39.2985085739
20
40.9861024644
11
-36.9754740849
21
42.6994732932
0
LINE
5
226
100
AcDbEntity
8
0
100
AcDbLine
62
7
6
CONTINUOUS
10
-37.3097198131
20
46.1723139744
11
-34.0256596591
21
47.9084101115
0
LINE
5
227
100
AcDbEntity
8
0
100
AcDbLine
62
9
6
CONTINUOUS
10
-34.0250638340
20
47.8424839359
11
-37.1944232278
21
46.1670235782
0
LINE
5
228
100
AcDbEntity
8
0
100
AcDbLine
62
7
6
CONTINUOUS
10
-24.9080226491
20
50.2156721576
11
-27.7960538774
21
48.7150916255
0
LINE
5
229
100
AcDbEntity
8
0
100
AcDbLine
62
7
6
CONTINUOUS
10
-29.0150447302
20
48.0817210703
11
-31.4184365436
21
46.8329523830
0
LINE
5
22A
100
AcDbEntity
8
0
100
AcDbLine
62
9
6
CONTINUOUS
10
-32.3700339126
20
48.6119213199
11
-30.9184302891
21
49.3405455581
0
LINE
5
22B
100
AcDbEntity
8
0
100
AcDbLine
62
7
6
CONTINUOUS
10
-26.5674368768
20
50.3958602186
11
-32.3700339126
21
47.4832794171
0
LINE
5
22C
100
AcDbEntity
8
0
100
AcDbLine
62
7
6
CONTINUOUS
10
-28.6556885894
20
48.4514835398
11
-28.2921204567
21
48.6332676061
0
LINE
5
22D
100
AcDbEntity
8
0
100
AcDbLine
62
7
6
CONTINUOUS
10
-25.2059849781
20
51.0503821840
11
-26.5674368768
21
50.3958602186
0
LINE
5
22E
100
AcDbEntity
8
0
100
AcDbLine
62
7
6
CONTINUOUS
10
-23.3733427247
20
50.9534740009
11
-24.9080226491
21
50.2156721576
0
LINE
5
22F
100
AcDbEntity
8
0
100
AcDbLine
62
9
6
CONTINUOUS
10
-25.2876758425
20
52.0701067946
11
-30.9204659780
21
49.3741295214
0
LWPOLYLINE
5
230
100
AcDbEntity
8
0
100
AcDbPolyline
62
7
6
CONTINUOUS
90
8
70
0
10
-22.7883727302
20
1.9133153635
10
-22.7586963352
20
1.8994248935
10
-22.6967384401
20
1.8766855730
10
-22.6311368150
20
1.8608688540
10
-22.5626532934
20
1.8524754240
10
-22.4923475459
20
1.8518254802
10
-22.4209097806
20
1.8590291529
10
-22.3438132617
20
1.8754158290
0
LINE
5
231
100
AcDbEntity
8
0
100
AcDbLine
62
7
6
CONTINUOUS
10
-39.6189986492
20
10.3286090949
11
-22.7869945225
21
1.9126070316
0
LINE
5
232
100
AcDbEntity
8
0
100
AcDbLine
62
9
6
CONTINUOUS
10
-39.8751443753
20
10.8339972461
11
-23.0495344226
21
2.4211922697
0
LWPOLYLINE
5
233
100
AcDbEntity
8
0
100
AcDbPolyline
62
7
6
CONTINUOUS
90
11
70
0
10
-39.9565509213
20
10.8552745045
10
-39.9447180161
20
10.7825089979
10
-39.9271944177
20
10.7130491992
10
-39.9041052733
20
10.6472955465
10
-39.8757851732
20
10.5859869779
10
-39.8426065424
20
10.5295766509
10
-39.8047983738
20
10.4781048698
10
-39.7626719016
20
10.4317896257
10
-39.7166754389
20
10.3909670737
10
-39.6672855608
20
10.3558714349
10
-39.6189055396
20
10.3285781431
0
LWPOLYLINE
5
234
100
AcDbEntity
8
0
100
AcDbPolyline
62
7
6
CONTINUOUS
90
3
70
0
10
-39.9630112814
20
10.9406017839
10
-39.9626632619
20
10.9311941503
10
-39.9565509213
20
10.8552745045
0
LWPOLYLINE
5
235
100
AcDbEntity
8
0
100
AcDbPolyline
62
7
6
CONTINUOUS
90
10
70
0
10
-39.9630319133
20
39.9770237538
10
-40.0525850766
20
36.7553460728
10
-40.1212932675
20
33.4788056439
10
-40.1670958226
20
30.2134729042
10
-40.1899872621
20
26.9596350115
10
-40.1899664655
20
23.7175296535
10
-40.1670331398
20
20.4873760095
10
-40.1211878524
20
17.2694111833
10
-40.0524355278
20
14.0639172566
10
-39.9630220549
20
10.9405747041
0
LINE
5
236
100
AcDbEntity
8
0
100
AcDbLine
62
7
6
CONTINUOUS
10
-22.1403837854
20
50.3369945312
11
-23.3523278165
21
49.7226757444
0
LINE
5
237
100
AcDbEntity
8
0
100
AcDbLine
62
7
6
CONTINUOUS
10
-30.2602757533
20
46.2538719879
11
-28.6245511922
21
47.0749146906
0
LINE
5
238
100
AcDbEntity
8
0
100
AcDbLine
62
7
6
CONTINUOUS
10
-24.7344037746
20
49.0275522102
11
-23.6352304429
21
49.5792760545
0
LINE
5
239
100
AcDbEntity
8
0
100
AcDbLine
62
7
6
CONTINUOUS
10
-30.2602757533
20
45.6043529351
11
-27.9762925815
21
46.7507853852
0
LINE
5
23A
100
AcDbEntity
8
0
100
AcDbLine
62
7
6
CONTINUOUS
10
-26.0175059541
20
47.7339872670
11
-25.6178890967
21
47.9345726911
0
LINE
5
23B
100
AcDbEntity
8
0
100
AcDbLine
62
7
6
CONTINUOUS
10
-22.0606690289
20
48.7919953475
11
-21.7752533064
21
48.9341384893
0
LINE
5
23C
100
AcDbEntity
8
0
100
AcDbLine
62
7
6
CONTINUOUS
10
-12.4038181209
20
55.1318792747
11
-22.2574347327
21
50.5811525858
0
LINE
5
23D
100
AcDbEntity
8
0
100
AcDbLine
62
9
6
CONTINUOUS
10
-12.1880084084
20
55.1139824216
11
-22.1352046645
21
50.5200375517
0
LINE
5
23E
100
AcDbEntity
8
0
100
AcDbLine
62
9
6
CONTINUOUS
10
-22.2133991624
20
2.0571816907
11
-19.8415390141
21
2.6989920379
0
LINE
5
23F
100
AcDbEntity
8
0
100
AcDbLine
62
7
6
CONTINUOUS
10
-19.9418474742
20
2.5253520898
11
-22.3438082858
21
1.8753972477
0
LINE
5
240
100
AcDbEntity
8
0
100
AcDbLine
62
7
6
CONTINUOUS
10
-21.0134731608
20
2.2353769602
11
-20.3659839725
21
1.9116323660
0
LINE
5
241
100
AcDbEntity
8
0
100
AcDbLine
62
7
6
CONTINUOUS
10
-20.0537033621
20
2.2822505321
11
-20.3298982881
21
2.4203479951
0
LINE
5
242
100
AcDbEntity
8
0
100
AcDbLine
62
7
6
CONTINUOUS
10
-37.4428805796
20
7.6149731169
11
-37.4428805796
21
9.2405500602
0
LINE
5
243
100
AcDbEntity
8
0
100
AcDbLine
62
7
6
CONTINUOUS
10
-37.4428805796
20
43.0644125472
11
-37.4428805796
21
45.9512967952
0
LINE
5
244
100
AcDbEntity
8
0
100
AcDbLine
62
9
6
CONTINUOUS
10
-37.3696572749
20
7.5265847692
11
-37.3696572749
21
9.2039384078
0
LINE
5
245
100
AcDbEntity
8
0
100
AcDbLine
62
9
6
CONTINUOUS
10
-37.3696572749
20
42.9760241995
11
-37.3696572749
21
45.8629084475
0
LINE
5
246
100
AcDbEntity
8
0
100
AcDbLine
62
7
6
CONTINUOUS
10
-37.1869954522
20
42.6516251453
11
-37.1869954522
21
42.8052339768
0
LINE
5
247
100
AcDbEntity
8
0
100
AcDbLine
62
7
6
CONTINUOUS
10
-23.5001316637
20
47.3945516929
11
-24.1814748259
21
47.0405353392
0
LINE
5
248
100
AcDbEntity
8
0
100
AcDbLine
62
7
6
CONTINUOUS
10
-27.4759625824
20
45.3287656942
11
-27.8784374454
21
45.1196453987
0
LINE
5
249
100
AcDbEntity
8
0
100
AcDbLine
62
7
6
CONTINUOUS
10
-9.2456074458
20
53.1502646133
11
-13.4882481329
21
51.0289442697
0
LINE
5
24A
100
AcDbEntity
8
0
100
AcDbLine
62
7
6
CONTINUOUS
10
-12.4086497411
20
51.1357307637
11
-9.2456074458
21
52.7172519114
0
LINE
5
24B
100
AcDbEntity
8
0
100
AcDbLine
62
7
6
CONTINUOUS
10
-12.4086497411
20
51.1492129361
11
-13.4882481329
21
50.6163369971
0
LINE
5
24C
100
AcDbEntity
8
0
100
AcDbLine
62
7
6
CONTINUOUS
10
-9.9889233057
20
54.0144398702
11
-13.9234361449
21
52.1697114588
0
LINE
5
24D
100
AcDbEntity
8
0
100
AcDbLine
62
7
6
CONTINUOUS
10
-18.4026402621
20
5.1726011979
11
-15.8755697420
21
3.9090659379
0
LINE
5
24E
100
AcDbEntity
8
0
100
AcDbLine
62
7
6
CONTINUOUS
10
-12.9154916401
20
50.0042572718
11
-12.4205168933
21
50.2517446452
0
LINE
5
24F
100
AcDbEntity
8
0
100
AcDbLine
62
7
6
CONTINUOUS
10
-10.0069841670
20
50.3342112263
11
-11.1293273977
21
49.7730396110
0
LINE
5
250
100
AcDbEntity
8
0
100
AcDbLine
62
7
6
CONTINUOUS
10
-11.9580815716
20
49.3586625240
11
-11.9963412637
21
49.3395326779
0
LINE
5
251
100
AcDbEntity
8
0
100
AcDbLine
62
9
6
CONTINUOUS
10
-22.2676666275
20
43.7383631449
11
-22.1095573642
21
43.8174177766
0
LINE
5
252
100
AcDbEntity
8
0
100
AcDbLine
62
7
6
CONTINUOUS
10
-9.2998144722
20
49.9806892925
11
-10.4222206165
21
49.4194862204
0
LINE
5
253
100
AcDbEntity
8
0
100
AcDbLine
62
7
6
CONTINUOUS
10
-5.3079703556
20
51.6739633952
11
-9.1639728244
21
49.7899797986
0
LINE
5
254
100
AcDbEntity
8
0
100
AcDbLine
62
7
6
CONTINUOUS
10
-16.1512266209
20
46.1221251466
11
-16.4416677702
21
45.9824947181
0
LINE
5
255
100
AcDbEntity
8
0
100
AcDbLine
62
7
6
CONTINUOUS
10
-13.6766120871
20
49.7074218698
11
-13.2861471878
21
49.8934946358
0
LINE
5
256
100
AcDbEntity
8
0
100
AcDbLine
62
7
6
CONTINUOUS
10
-34.0256596591
20
47.8252803230
11
-34.0256596591
21
48.9552407388
0
LINE
5
257
100
AcDbEntity
8
0
100
AcDbLine
62
9
6
CONTINUOUS
10
-32.3700339126
20
47.4832794171
11
-32.3700339126
21
48.6119213199
0
LINE
5
258
100
AcDbEntity
8
0
100
AcDbLine
62
7
6
CONTINUOUS
10
-14.8671063562
20
45.1952140111
11
-21.3775202507
21
41.8124942366
0
LINE
5
259
100
AcDbEntity
8
0
100
AcDbLine
62
7
6
CONTINUOUS
10
-18.7721993474
20
44.1631785060
11
-20.3825392495
21
43.3548774895
0
LINE
5
25A
100
AcDbEntity
8
0
100
AcDbLine
62
7
6
CONTINUOUS
10
-20.7827299088
20
43.1540040489
11
-22.3618719214
21
42.3613626367
0
LINE
5
25B
100
AcDbEntity
8
0
100
AcDbLine
62
7
6
CONTINUOUS
10
-20.1704072151
20
44.2088428527
11
-19.8068390825
21
44.3906269190
0
LINE
5
25C
100
AcDbEntity
8
0
100
AcDbLine
62
3
6
CONTINUOUS
10
-20.1704072151
20
43.8624326911
11
-19.8068390825
21
44.0442167575
0
LINE
5
25D
100
AcDbEntity
8
0
100
AcDbLine
62
9
6
CONTINUOUS
10
-20.2891594481
20
43.7581431797
11
-19.6603769865
21
44.0725344105
0
LINE
5
25E
100
AcDbEntity
8
0
100
AcDbLine
62
9
6
CONTINUOUS
10
-20.3825392495
20
43.4965590528
11
-20.6653819619
21
43.3551376966
0
LINE
5
25F
100
AcDbEntity
8
0
100
AcDbLine
62
7
6
CONTINUOUS
10
-20.3825392495
20
43.2367514317
11
-20.6653819619
21
43.0953300755
0
LINE
5
260
100
AcDbEntity
8
0
100
AcDbLine
62
7
6
CONTINUOUS
10
-13.3191473279
20
45.9263763025
11
-14.5741521107
21
45.3335878915
0
LINE
5
261
100
AcDbEntity
8
0
100
AcDbLine
62
7
6
CONTINUOUS
10
-31.6532771229
20
45.8921031701
11
-31.6532771229
21
46.5416222230
0
LINE
5
262
100
AcDbEntity
8
0
100
AcDbLine
62
7
6
CONTINUOUS
10
-30.9184302891
20
48.2119036554
11
-30.9184302891
21
49.3405455581
0
LINE
5
263
100
AcDbEntity
8
0
100
AcDbLine
62
9
6
CONTINUOUS
10
-30.2602757533
20
45.6043529351
11
-30.2602757533
21
46.2538719879
0
LWPOLYLINE
5
264
100
AcDbEntity
8
CURVE
100
AcDbPolyline
62
7
6
CONTINUOUS
90
6
70
0
10
-31.6845490630
20
24.2830593273
10
-31.6919742486
20
22.9946050222
10
-31.6957377402
20
21.7079576473
10
-31.6958394920
20
20.4231328801
10
-31.6922795028
20
19.1401463756
10
-31.6845490605
20
17.7878684601
0
LINE
5
265
100
AcDbEntity
8
0
100
AcDbLine
62
9
6
CONTINUOUS
10
-26.7534219340
20
48.1829216459
11
-26.7701069675
21
48.1116869457
0
LINE
5
266
100
AcDbEntity
8
0
100
AcDbLine
62
7
6
CONTINUOUS
10
-11.9251510940
20
49.3890743722
11
-11.9580815716
21
49.3586625240
0
LWPOLYLINE
5
267
100
AcDbEntity
8
0
100
AcDbPolyline
62
7
6
CONTINUOUS
90
24
70
0
10
-17.5740516150
20
41.3796792222
10
-17.5936320428
20
41.3692104630
10
-17.6238558474
20
41.3518154215
10
-17.6523923731
20
41.3338489367
10
-17.6792470462
20
41.3153704921
10
-17.7044830114
20
41.2964017713
10
-17.7281981857
20
41.2769234002
10
-17.7504175629
20
41.2569621022
10
-17.7711618833
20
41.2365477081
10
-17.7904952097
20
41.2156576651
10
-17.8084293054
20
41.1943124258
10
-17.8249665652
20
41.1725454423
10
-17.8401323666
20
41.1503556820
10
-17.8539276378
20
41.1277681464
10
-17.8663440021
20
41.1048273809
10
-17.8773795607
20
41.0815727515
10
-17.8870329848
20
41.0580444384
10
-17.8952993697
20
41.0342974805
10
-17.9021745122
20
41.0104076527
10
-17.9076669774
20
40.9864313648
10
-17.9117881951
20
40.9624275797
10
-17.9145508871
20
40.9384851351
10
-17.9159802495
20
40.9146739451
10
-17.9162109514
20
40.9003832841
0
LINE
5
268
100
AcDbEntity
8
0
100
AcDbLine
62
7
6
CONTINUOUS
10
-16.1469446181
20
42.1211842063
11
-17.5740494165
21
41.3796805631
0
LINE
5
269
100
AcDbEntity
8
0
100
AcDbLine
62
9
6
CONTINUOUS
10
-16.0338392763
20
42.1147481588
11
-17.4603261842
21
41.3735655627
0
LINE
5
26A
100
AcDbEntity
8
0
100
AcDbLine
62
7
6
CONTINUOUS
10
-20.2193594604
20
41.2334138415
11
-13.5943141501
21
44.5588179081
0
LINE
5
26B
100
AcDbEntity
8
0
100
AcDbLine
62
7
6
CONTINUOUS
10
-13.5943141501
20
43.9092988552
11
-20.2193594604
21
40.5838947886
0
LINE
5
26C
100
AcDbEntity
8
0
100
AcDbLine
62
7
6
CONTINUOUS
10
-13.5943141501
20
44.5588179081
11
-12.0861883886
21
45.3098968328
0
LINE
5
26D
100
AcDbEntity
8
0
100
AcDbLine
62
7
6
CONTINUOUS
10
-11.5615998841
20
44.9216340890
11
-13.5943141501
21
43.9092988552
0
LINE
5
26E
100
AcDbEntity
8
0
100
AcDbLine
62
9
6
CONTINUOUS
10
-14.9731454494
20
41.5844012453
11
-9.4029066512
21
44.3472807536
0
LINE
5
26F
100
AcDbEntity
8
0
100
AcDbLine
62
9
6
CONTINUOUS
10
-16.4418775002
20
40.8598301920
11
-14.9731723744
21
41.5844147078
0
LINE
5
270
100
AcDbEntity
8
0
100
AcDbLine
62
7
6
CONTINUOUS
10
-10.4402975659
20
44.8179544321
11
-16.0636468815
21
42.1264957430
0
LINE
5
271
100
AcDbEntity
8
0
100
AcDbLine
62
9
6
CONTINUOUS
10
-10.3292822417
20
44.8104685489
11
-15.9984772061
21
42.0970671237
0
LINE
5
272
100
AcDbEntity
8
0
100
AcDbLine
62
7
6
CONTINUOUS
10
-29.1506633362
20
47.3379707626
11
-29.1506633362
21
47.5977783837
0
LINE
5
273
100
AcDbEntity
8
0
100
AcDbLine
62
9
6
CONTINUOUS
10
-24.8031762493
20
48.3819564430
11
-24.8905794542
21
48.0087991992
0
LINE
5
274
100
AcDbEntity
8
0
100
AcDbLine
62
9
6
CONTINUOUS
10
-24.5272551907
20
48.3249723026
11
-24.6146583956
21
47.9518150588
0
LINE
5
275
100
AcDbEntity
8
0
100
AcDbLine
62
9
6
CONTINUOUS
10
-20.9812499758
20
43.2532640824
11
-21.1439143322
21
42.9727095679
0
LINE
5
276
100
AcDbEntity
8
0
100
AcDbLine
62
7
6
CONTINUOUS
10
-10.4377830845
20
49.4051140202
11
-10.4222206165
21
49.4194862204
0
LINE
5
277
100
AcDbEntity
8
0
100
AcDbLine
62
9
6
CONTINUOUS
10
-14.7963956781
20
41.2795529837
11
-9.2261568799
21
44.0424324920
0
LINE
5
278
100
AcDbEntity
8
0
100
AcDbLine
62
9
6
CONTINUOUS
10
-16.2666702595
20
40.5541859339
11
-14.7963956781
21
41.2795447395
0
LINE
5
279
100
AcDbEntity
8
0
100
AcDbLine
62
9
6
CONTINUOUS
10
-16.9087821977
20
39.2843431178
11
-20.1907499253
21
37.6651869269
0
LINE
5
27A
100
AcDbEntity
8
0
100
AcDbLine
62
9
6
CONTINUOUS
10
-16.2666702595
20
39.2090459241
11
-20.0155426846
21
37.3595426689
0
LINE
5
27B
100
AcDbEntity
8
0
100
AcDbLine
62
7
6
CONTINUOUS
10
-27.5483786706
20
46.3787191665
11
-27.4466490086
21
44.9037511803
0
LINE
5
27C
100
AcDbEntity
8
0
100
AcDbLine
62
9
6
CONTINUOUS
10
-24.7666012928
20
51.1725896090
11
-24.7666012928
21
51.6812239415
0
LINE
5
27D
100
AcDbEntity
8
0
100
AcDbLine
62
9
6
CONTINUOUS
10
-22.4766455252
20
47.2996674699
11
-22.4970767848
21
47.2124387178
0
LINE
5
27E
100
AcDbEntity
8
0
100
AcDbLine
62
9
6
CONTINUOUS
10
-22.7229132812
20
46.1676673195
11
-22.7395983147
21
46.0964326193
0
LINE
5
27F
100
AcDbEntity
8
0
100
AcDbLine
62
9
6
CONTINUOUS
10
-20.7726675965
20
46.3667021166
11
-20.8600708014
21
45.9935448728
0
LINE
5
280
100
AcDbEntity
8
0
100
AcDbLine
62
9
6
CONTINUOUS
10
-20.4967465379
20
46.3097179762
11
-20.5841497428
21
45.9365607324
0
LINE
5
281
100
AcDbEntity
8
0
100
AcDbLine
62
9
6
CONTINUOUS
10
-20.0530603814
20
34.2382664414
11
-22.4586330147
21
32.5661646848
0
LINE
5
282
100
AcDbEntity
8
0
100
AcDbLine
62
9
6
CONTINUOUS
10
-8.6440126704
20
40.7861211701
11
3.9621825590
21
47.0388869379
0
LINE
5
283
100
AcDbEntity
8
0
100
AcDbLine
62
9
6
CONTINUOUS
10
-8.7141777203
20
39.9662838855
11
4.3156821017
21
46.4291904146
0
LINE
5
284
100
AcDbEntity
8
0
100
AcDbLine
62
7
6
CONTINUOUS
10
-20.0155426846
20
34.4726584209
11
-15.8755697420
21
36.4716211202
0
LINE
5
285
100
AcDbEntity
8
0
100
AcDbLine
62
9
6
CONTINUOUS
10
-18.4026402621
20
34.8272699442
11
-19.8415390141
21
34.1325057578
0
LWPOLYLINE
5
286
100
AcDbEntity
8
0
100
AcDbPolyline
62
7
6
CONTINUOUS
90
37
70
0
10
-24.6933779881
20
51.7696122891
10
-24.6936784979
20
51.7945629795
10
-24.6945791396
20
51.8192540212
10
-24.6960786948
20
51.8436748127
10
-24.6981766785
20
51.8678207457
10
-24.7008718059
20
51.8916749203
10
-24.7041605232
20
51.9152092432
10
-24.7080429369
20
51.9384260463
10
-24.7125154599
20
51.9613029840
10
-24.7175636401
20
51.9837779152
10
-24.7231807685
20
52.0058407205
10
-24.7293611949
20
52.0274857208
10
-24.7360841714
20
52.0486612637
10
-24.7433375241
20
52.0693551600
10
-24.7511131285
20
52.0895677274
10
-24.7593901437
20
52.1092686634
10
-24.7681530092
20
52.1284468339
10
-24.7773915606
20
52.1471040266
10
-24.7870896105
20
52.1652299487
10
-24.7972302248
20
52.1828152520
10
-24.8078017040
20
52.1998607789
10
-24.8187947324
20
52.2163702355
10
-24.8301957873
20
52.2323402695
10
-24.8419889410
20
52.2477649164
10
-24.8541607894
20
52.2626423499
10
-24.8666877796
20
52.2769597189
10
-24.8795609469
20
52.2907223317
10
-24.8927900679
20
52.3039523286
10
-24.9063595157
20
52.3166430989
10
-24.9202548440
20
52.3287901197
10
-24.9344911388
20
52.3404128447
10
-24.9490591449
20
52.3515071291
10
-24.9639399566
20
52.3620621664
10
-24.9791365608
20
52.3720828808
10
-24.9946406764
20
52.3815650967
10
-25.0104317008
20
52.3904977458
10
-25.0264944785
20
52.3988744372
0
LINE
5
287
100
AcDbEntity
8
0
100
AcDbLine
62
7
6
CONTINUOUS
10
-24.6933779881
20
51.1805450859
11
-24.6933779881
21
51.7696122891
0
LINE
5
288
100
AcDbEntity
8
0
100
AcDbLine
62
7
6
CONTINUOUS
10
-23.6352304429
20
49.1397297388
11
-23.6352304429
21
49.5792760545
0
LINE
5
289
100
AcDbEntity
8
0
100
AcDbLine
62
7
6
CONTINUOUS
10
-22.3693962895
20
42.3651248207
11
-22.2676666275
21
43.7383631449
0
LINE
5
28A
100
AcDbEntity
8
0
100
AcDbLine
62
3
6
CONTINUOUS
10
-22.0870913225
20
42.4992872060
11
-21.9937341485
21
43.7595061687
0
LINE
5
28B
100
AcDbEntity
8
0
100
AcDbLine
62
9
6
CONTINUOUS
10
-19.7412866788
20
44.0642770692
11
-19.6538834740
21
44.4374343131
0
LINE
5
28C
100
AcDbEntity
8
0
100
AcDbLine
62
9
6
CONTINUOUS
10
-18.4461368725
20
45.2844131435
11
-18.4665681320
21
45.1971843914
0
LINE
5
28D
100
AcDbEntity
8
0
100
AcDbLine
62
9
6
CONTINUOUS
10
-19.8415390141
20
33.8694896991
11
-22.2133991624
21
32.2208213258
0
LINE
5
28E
100
AcDbEntity
8
0
100
AcDbLine
62
9
6
CONTINUOUS
10
-18.4026402621
20
34.1333398440
11
-17.6601512174
21
34.5060280254
0
LINE
5
28F
100
AcDbEntity
8
0
100
AcDbLine
62
9
6
CONTINUOUS
10
-18.4026402621
20
32.5588927478
11
-16.9530713607
21
33.2864956688
0
LINE
5
290
100
AcDbEntity
8
0
100
AcDbLine
62
7
6
CONTINUOUS
10
-22.0606690289
20
48.4375926458
11
-22.0606690289
21
48.7919953475
0
LINE
5
291
100
AcDbEntity
8
0
100
AcDbLine
62
7
6
CONTINUOUS
10
-21.6204143023
20
49.9523923289
11
-21.6204143023
21
49.6860685276
0
LINE
5
292
100
AcDbEntity
8
0
100
AcDbLine
62
7
6
CONTINUOUS
10
-21.6123608301
20
40.8716450237
11
-21.6123608301
21
41.5211640766
0
LINE
5
293
100
AcDbEntity
8
0
100
AcDbLine
62
9
6
CONTINUOUS
10
-20.7227739742
20
48.4790985203
11
-20.7227739742
21
48.9963490576
0
LINE
5
294
100
AcDbEntity
8
0
100
AcDbLine
62
7
6
CONTINUOUS
10
-20.6653819619
20
43.0953300755
11
-20.6653819619
21
43.3551376966
0
LINE
5
295
100
AcDbEntity
8
0
100
AcDbLine
62
7
6
CONTINUOUS
10
-20.4360244234
20
48.5086340700
11
-20.4360244234
21
49.0927346329
0
LINE
5
296
100
AcDbEntity
8
0
100
AcDbLine
62
3
6
CONTINUOUS
10
-20.3825392495
20
43.2367514317
11
-20.3825392495
21
43.4965590528
0
LINE
5
297
100
AcDbEntity
8
0
100
AcDbLine
62
9
6
CONTINUOUS
10
-20.3659839725
20
37.3610717963
11
-20.3659839725
21
34.4741875483
0
LINE
5
298
100
AcDbEntity
8
0
100
AcDbLine
62
9
6
CONTINUOUS
10
-20.3659839725
20
1.9116323660
11
-20.3659839725
21
-0.9752518820
0
LINE
5
299
100
AcDbEntity
8
0
100
AcDbLine
62
9
6
CONTINUOUS
10
-20.2193594604
20
40.5838947886
11
-20.2193594604
21
41.2334138415
0
LINE
5
29A
100
AcDbEntity
8
0
100
AcDbLine
62
9
6
CONTINUOUS
10
-20.1704072151
20
43.8624326911
11
-20.1704072151
21
44.2088428527
0
LINE
5
29B
100
AcDbEntity
8
0
100
AcDbLine
62
9
6
CONTINUOUS
10
-20.0155426846
20
37.3595426689
11
-20.0155426846
21
34.4726584209
0
LINE
5
29C
100
AcDbEntity
8
0
100
AcDbLine
62
9
6
CONTINUOUS
10
-20.0155426846
20
1.9101032386
11
-20.0155426846
21
-0.9767810094
0
LINE
5
29D
100
AcDbEntity
8
0
100
AcDbLine
62
9
6
CONTINUOUS
10
-16.4650182677
20
45.7207436542
11
-16.4817033012
21
45.6495089539
0
LWPOLYLINE
5
29E
100
AcDbEntity
8
0
100
AcDbPolyline
62
7
6
CONTINUOUS
90
60
70
0
10
-17.9162109831
20
-0.1972049426
10
-17.9160001650
20
-0.2107382076
10
-17.9146537504
20
-0.2337696135
10
-17.9120351393
20
-0.2569447598
10
-17.9081201674
20
-0.2801877040
10
-17.9029027219
20
-0.3033851649
10
-17.8963753876
20
-0.3264815784
10
-17.8885330741
20
-0.3494253336
10
-17.8793945458
20
-0.3721196792
10
-17.8689772908
20
-0.3945041664
10
-17.8572850873
20
-0.4165557315
10
-17.8443219133
20
-0.4382478868
10
-17.8301167434
20
-0.4595195959
10
-17.8146607526
20
-0.4803741078
10
-17.7978758094
20
-0.5008858837
10
-17.7797528164
20
-0.5210212619
10
-17.7602741504
20
-0.5407584474
10
-17.7393022832
20
-0.5601806648
10
-17.7167209111
20
-0.5793153984
10
-17.6925598968
20
-0.5980594682
10
-17.6668875043
20
-0.6163030453
10
-17.6395177983
20
-0.6341155255
10
-17.6105657328
20
-0.6513596294
10
-17.5806362130
20
-0.6676729243
10
-17.5499350758
20
-0.6829919415
10
-17.5183467956
20
-0.6974184089
10
-17.4860866319
20
-0.7108924287
10
-17.4532825801
20
-0.7234067474
10
-17.4199167745
20
-0.7350113345
10
-17.3860108452
20
-0.7457313697
10
-17.3516155681
20
-0.7555785668
10
-17.3167805989
20
-0.7645648338
10
-17.2815339150
20
-0.7727041937
10
-17.2459299547
20
-0.7800031205
10
-17.2100129509
20
-0.7864700815
10
-17.1738019913
20
-0.7921148996
10
-17.1373467361
20
-0.7969417426
10
-17.1006944107
20
-0.8009545493
10
-17.0638648076
20
-0.8041582642
10
-17.0269063409
20
-0.8065550074
10
-16.9898665541
20
-0.8081460273
10
-16.9527663539
20
-0.8089326345
10
-16.9156528679
20
-0.8089151713
10
-16.8785746156
20
-0.8080928120
10
-16.8415547061
20
-0.8064638947
10
-16.8046400556
20
-0.8040269555
10
-16.7678795673
20
-0.8007794089
10
-16.7312969255
20
-0.7967166586
10
-16.6949395960
20
-0.7918350823
10
-16.6588565469
20
-0.7861300650
10
-16.6230687294
20
-0.7795926531
10
-16.5876229831
20
-0.7722156045
10
-16.5525700077
20
-0.7639915347
10
-16.5179298249
20
-0.7549054085
10
-16.4837531842
20
-0.7449458624
10
-16.4500890432
20
-0.7340999930
10
-16.4169461665
20
-0.7223388680
10
-16.3843599096
20
-0.7096352804
10
-16.3524029949
20
-0.6959753765
10
-16.3335413750
20
-0.6873049600
0
LINE
5
29F
100
AcDbEntity
8
0
100
AcDbLine
62
7
6
CONTINUOUS
10
-19.8415390141
20
2.4359759793
11
-19.8415390141
21
2.6989920379
0
LINE
5
2A0
100
AcDbEntity
8
0
100
AcDbLine
62
7
6
CONTINUOUS
10
-19.8415390141
20
33.8694896991
11
-19.8415390141
21
34.1325057578
0
LINE
5
2A1
100
AcDbEntity
8
0
100
AcDbLine
62
9
6
CONTINUOUS
10
-19.8068390825
20
44.0442167575
11
-19.8068390825
21
44.3906269190
0
LINE
5
2A2
100
AcDbEntity
8
0
100
AcDbLine
62
7
6
CONTINUOUS
10
-18.4026402621
20
34.8272699442
11
-18.4026402621
21
3.1307401657
0
LINE
5
2A3
100
AcDbEntity
8
0
100
AcDbLine
62
7
6
CONTINUOUS
10
-17.9162115304
20
-0.0897228721
11
-17.9162115304
21
-0.1973224525
0
LINE
5
2A4
100
AcDbEntity
8
0
100
AcDbLine
62
7
6
CONTINUOUS
10
-17.9162115305
20
39.7705576770
11
-17.9162115305
21
40.9005168569
0
LINE
5
2A5
100
AcDbEntity
8
0
100
AcDbLine
62
7
6
CONTINUOUS
10
-16.9530713607
20
8.1716930079
11
-16.9530713607
21
33.2864956688
0
LINE
5
2A6
100
AcDbEntity
8
0
100
AcDbLine
62
7
6
CONTINUOUS
10
-16.4416677702
20
45.6280920165
11
-16.4416677702
21
45.9824947181
0
LINE
5
2A7
100
AcDbEntity
8
0
100
AcDbLine
62
9
6
CONTINUOUS
10
-16.2666702595
20
0.7939597544
11
-16.2666702595
21
-0.5511802554
0
LINE
5
2A8
100
AcDbEntity
8
0
100
AcDbLine
62
9
6
CONTINUOUS
10
-16.2666702595
20
39.2090459241
11
-16.2666702595
21
40.5541859339
0
LINE
5
2A9
100
AcDbEntity
8
0
100
AcDbLine
62
7
6
CONTINUOUS
10
-15.8755697420
20
36.4716211202
11
-15.8755697420
21
3.9090659379
0
LINE
5
2AA
100
AcDbEntity
8
0
100
AcDbLine
62
9
6
CONTINUOUS
10
-39.8751443753
20
39.8719455206
11
-23.0495344226
21
31.4591405442
0
LINE
5
2AB
100
AcDbEntity
8
0
100
AcDbLine
62
7
6
CONTINUOUS
10
-14.7963956781
20
41.2795447395
11
-14.7963956781
21
0.1432885982
0
LINE
5
2AC
100
AcDbEntity
8
0
100
AcDbLine
62
7
6
CONTINUOUS
10
-13.5943141501
20
43.9092988552
11
-13.5943141501
21
44.5588179081
0
LINE
5
2AD
100
AcDbEntity
8
0
100
AcDbLine
62
9
6
CONTINUOUS
10
-13.4882481329
20
51.0289442697
11
-13.4882481329
21
50.6163369971
0
LINE
5
2AE
100
AcDbEntity
8
0
100
AcDbLine
62
9
6
CONTINUOUS
10
-12.7816411407
20
50.2184538831
11
-12.7816411407
21
50.9651091584
0
LINE
5
2AF
100
AcDbEntity
8
0
100
AcDbLine
62
9
6
CONTINUOUS
10
-39.2985085739
20
40.9861024644
11
-22.4586330147
21
32.5661646848
0
LINE
5
2B0
100
AcDbEntity
8
0
100
AcDbLine
62
7
6
CONTINUOUS
10
-12.4086497411
20
51.1357307637
11
-12.4086497411
21
51.1492129361
0
LINE
5
2B1
100
AcDbEntity
8
0
100
AcDbLine
62
7
6
CONTINUOUS
10
-11.9580815716
20
49.3586625240
11
-11.9580815716
21
49.3368385459
0
LINE
5
2B2
100
AcDbEntity
8
0
100
AcDbLine
62
7
6
CONTINUOUS
10
-11.9251510940
20
49.3890743722
11
-11.9251510940
21
49.3346790347
0
LINE
5
2B3
100
AcDbEntity
8
0
100
AcDbLine
62
7
6
CONTINUOUS
10
-11.7135479532
20
49.8982601752
11
-11.7135479532
21
49.3246528381
0
LINE
5
2B4
100
AcDbEntity
8
0
100
AcDbLine
62
7
6
CONTINUOUS
10
-11.5615998841
20
44.9216340890
11
-11.5615998841
21
44.9229851198
0
LINE
5
2B5
100
AcDbEntity
8
0
100
AcDbLine
62
7
6
CONTINUOUS
10
-11.1901510940
20
49.7565743722
11
-11.1901510940
21
49.3279459702
0
LINE
5
2B6
100
AcDbEntity
8
0
100
AcDbLine
62
7
6
CONTINUOUS
10
-11.1293273977
20
49.7730396110
11
-11.1293273977
21
49.3309351732
0
LINE
5
2B7
100
AcDbEntity
8
0
100
AcDbLine
62
7
6
CONTINUOUS
10
-20.0530603814
20
34.2382664414
11
-36.9754740849
21
42.6994732932
0
LINE
5
2B8
100
AcDbEntity
8
0
100
AcDbLine
62
7
6
CONTINUOUS
10
-37.3696572749
20
42.9760241995
11
-20.3659839725
21
34.4741875483
0
LINE
5
2B9
100
AcDbEntity
8
0
100
AcDbLine
62
7
6
CONTINUOUS
10
-17.6601512174
20
34.5060280254
11
-18.4067909921
21
34.8793479127
0
LWPOLYLINE
5
2BA
100
AcDbEntity
8
0
100
AcDbPolyline
62
7
6
CONTINUOUS
90
36
70
0
10
-8.6440127011
20
43.7449278767
10
-8.6441835742
20
43.7638839201
10
-8.6449769426
20
43.7897383396
10
-8.6464192190
20
43.8153434058
10
-8.6485151578
20
43.8407052672
10
-8.6512663747
20
43.8657895518
10
-8.6546667076
20
43.8905219219
10
-8.6587144188
20
43.9148916844
10
-8.6634077587
20
43.9388873528
10
-8.6687312241
20
43.9624382339
10
-8.6746767725
20
43.9855297605
10
-8.6812393111
20
44.0081591752
10
-8.6883993132
20
44.0302779696
10
-8.6961458557
20
44.0518766761
10
-8.7044696741
20
44.0729505280
10
-8.7133467860
20
44.0934610218
10
-8.7227630722
20
44.1134012169
10
-8.7327053594
20
44.1327666338
10
-8.7431445222
20
44.1515248698
10
-8.7540552163
20
44.1696587842
10
-8.7654272296
20
44.1871782734
10
-8.7772511865
20
44.2040910526
10
-8.7895065437
20
44.2203884430
10
-8.8021779038
20
44.2360702886
10
-8.8152650808
20
44.2511528643
10
-8.8287508337
20
44.2656300191
10
-8.8426170898
20
44.2794963938
10
-8.8568646360
20
44.2927644638
10
-8.8714754035
20
44.3054268236
10
-8.8864318421
20
44.3174778998
10
-8.9017374062
20
44.3289284987
10
-8.9173745021
20
44.3397714689
10
-8.9333248784
20
44.3500001249
10
-8.9495927956
20
44.3596219961
10
-8.9661681354
20
44.3686339956
10
-8.9737756256
20
44.3725149632
0
LINE
5
2BB
100
AcDbEntity
8
0
100
AcDbLine
62
7
6
CONTINUOUS
10
-9.2456074458
20
52.7172519114
11
-9.2456074458
21
53.1502646133
0
LINE
5
2BC
100
AcDbEntity
8
0
100
AcDbLine
62
9
6
CONTINUOUS
10
-8.7141777203
20
4.0630570742
11
-8.7141777203
21
7.7548705226
0
LINE
5
2BD
100
AcDbEntity
8
0
100
AcDbLine
62
9
6
CONTINUOUS
10
-8.7141777203
20
39.9662838855
11
-8.7141777203
21
43.6580973339
0
LINE
5
2BE
100
AcDbEntity
8
0
100
AcDbLine
62
7
6
CONTINUOUS
10
-8.6440126704
20
43.7449296302
11
-8.6440126704
21
40.2716099059
0
LINE
5
2BF
100
AcDbEntity
8
0
100
AcDbLine
62
7
6
CONTINUOUS
10
-8.6440126704
20
7.6232090948
11
-8.6440126704
21
4.1498893705
0
LINE
5
2C0
100
AcDbEntity
8
0
100
AcDbLine
62
9
6
CONTINUOUS
10
-20.3659839725
20
37.3610717963
11
-37.3696572749
21
45.8629084475
0
LINE
5
2C1
100
AcDbEntity
8
0
100
AcDbLine
62
9
6
CONTINUOUS
10
-20.1907499253
20
37.6651869269
11
-37.1944232278
21
46.1670235782
0
LINE
5
2C2
100
AcDbEntity
8
0
100
AcDbLine
62
7
6
CONTINUOUS
10
-27.8784374454
20
45.1196453987
11
-22.3618719214
21
42.3613626367
0
LINE
5
2C3
100
AcDbEntity
8
0
100
AcDbLine
62
7
6
CONTINUOUS
10
-20.4362861367
20
49.0940042935
11
-20.4360112535
21
49.0935924283
0
LINE
5
2C4
100
AcDbEntity
8
0
100
AcDbLine
62
7
6
CONTINUOUS
10
-20.6653819619
20
43.0953300755
11
-22.1267834222
21
43.8260308056
0
LINE
5
2C5
100
AcDbEntity
8
0
100
AcDbLine
62
7
6
CONTINUOUS
10
-27.6892618759
20
46.6072700324
11
-29.1506633362
21
47.3379707626
0
LINE
5
2C6
100
AcDbEntity
8
0
100
AcDbLine
62
9
6
CONTINUOUS
10
-20.6653819619
20
43.3551376966
11
-29.1506633362
21
47.5977783837
0
LINE
5
2C7
100
AcDbEntity
8
0
100
AcDbLine
62
7
6
CONTINUOUS
10
-14.9731454494
20
41.5844012453
11
-16.0338392763
21
42.1147481588
0
LINE
5
2C8
100
AcDbEntity
8
0
100
AcDbLine
62
7
6
CONTINUOUS
10
-31.0952002533
20
49.6454286473
11
-32.1558671552
21
50.1757620982
0
LINE
5
2C9
100
AcDbEntity
8
0
100
AcDbLine
62
9
6
CONTINUOUS
10
-20.1704072151
20
44.2088428527
11
-28.6556885894
21
48.4514835398
0
LINE
5
2CA
100
AcDbEntity
8
0
100
AcDbLine
62
9
6
CONTINUOUS
10
-19.8068390825
20
44.3906269190
11
-28.2921204567
21
48.6332676061
0
LINE
5
2CB
100
AcDbEntity
8
0
100
AcDbLine
62
9
6
CONTINUOUS
10
-13.9234361449
20
52.1697114588
11
-13.4882481329
21
51.0289442697
0
LINE
5
2CC
100
AcDbEntity
8
0
100
AcDbLine
62
7
6
CONTINUOUS
10
-12.2190175354
20
49.6560202194
11
-12.4205168933
21
50.2517446452
0
LINE
5
2CD
100
AcDbEntity
8
0
100
AcDbLine
62
9
6
CONTINUOUS
10
-19.6538834740
20
44.4374343131
11
-28.1391648482
21
48.6800750002
0
LINE
5
2CE
100
AcDbEntity
8
0
100
AcDbLine
62
7
6
CONTINUOUS
10
-20.6653819619
20
45.0579252710
11
-22.7159916274
21
46.0832301037
0
LINE
5
2CF
100
AcDbEntity
8
0
100
AcDbLine
62
7
6
CONTINUOUS
10
-24.6958906147
20
47.0731795974
11
-26.7465002801
21
48.0984844301
0
LINE
5
2D0
100
AcDbEntity
8
0
100
AcDbLine
62
3
6
CONTINUOUS
10
-24.6146583956
20
47.9518150588
11
-23.0276160070
21
47.1582938645
0
LINE
5
2D1
100
AcDbEntity
8
0
100
AcDbLine
62
3
6
CONTINUOUS
10
-20.5841497428
20
45.9365607324
11
-18.9971073543
21
45.1430395381
0
LINE
5
2D2
100
AcDbEntity
8
0
100
AcDbLine
62
7
6
CONTINUOUS
10
-24.5272551907
20
48.3249723026
11
-22.4766455252
21
47.2996674699
0
LINE
5
2D3
100
AcDbEntity
8
0
100
AcDbLine
62
7
6
CONTINUOUS
10
-20.4967465379
20
46.3097179762
11
-18.4461368725
21
45.2844131435
0
LINE
5
2D4
100
AcDbEntity
8
0
100
AcDbLine
62
7
6
CONTINUOUS
10
-26.5674368768
20
50.3958602186
11
-25.5450646117
21
49.8846740860
0
LINE
5
2D5
100
AcDbEntity
8
0
100
AcDbLine
62
7
6
CONTINUOUS
10
-13.5943141501
20
43.9092988552
11
-12.9802607714
21
43.6022721659
0
LINE
5
2D6
100
AcDbEntity
8
0
100
AcDbLine
62
9
6
CONTINUOUS
10
-18.4026402621
20
7.4748085368
11
-16.9530713607
21
8.1716930079
0
LINE
5
2D7
100
AcDbEntity
8
0
100
AcDbLine
62
7
6
CONTINUOUS
10
-18.4026402621
20
7.0588379454
11
-17.2181744673
21
7.6282733259
0
LINE
5
2D8
100
AcDbEntity
8
0
100
AcDbLine
62
3
6
CONTINUOUS
10
-19.7412866788
20
44.0642770692
11
-16.3843547606
21
44.4068730141
0
LINE
5
2D9
100
AcDbEntity
8
0
100
AcDbLine
62
7
6
CONTINUOUS
10
-19.6538834740
20
44.4374343131
11
-15.5119924112
21
44.8601402592
0
LINE
5
2DA
100
AcDbEntity
8
0
100
AcDbLine
62
7
6
CONTINUOUS
10
-18.4392152186
20
45.1999759277
11
-20.3894609033
21
45.0009411306
0
LINE
5
2DB
100
AcDbEntity
8
0
100
AcDbLine
62
7
6
CONTINUOUS
10
-16.4416677702
20
45.7231267188
11
-16.4650182677
21
45.7207436542
0
LINE
5
2DC
100
AcDbEntity
8
0
100
AcDbLine
62
3
6
CONTINUOUS
10
-22.2524243505
20
45.8514464652
11
-20.8600708014
21
45.9935448728
0
LINE
5
2DD
100
AcDbEntity
8
0
100
AcDbLine
62
7
6
CONTINUOUS
10
-16.1512266209
20
46.1221251466
11
-15.0802158715
21
46.1750700062
0
LINE
5
2DE
100
AcDbEntity
8
0
100
AcDbLine
62
7
6
CONTINUOUS
10
-23.4938090867
20
49.1541626747
11
-22.0442401853
21
48.4293782240
0
LINE
5
2DF
100
AcDbEntity
8
0
100
AcDbLine
62
7
6
CONTINUOUS
10
-15.2147010751
20
45.0146086689
11
-16.4580966139
21
45.6363064383
0
LINE
5
2E0
100
AcDbEntity
8
0
100
AcDbLine
62
7
6
CONTINUOUS
10
-24.9080226491
20
50.2156721576
11
-22.0606690289
21
48.7919953475
0
LINE
5
2E1
100
AcDbEntity
8
0
100
AcDbLine
62
7
6
CONTINUOUS
10
-16.4416677702
20
45.9824947181
11
-13.5943141501
21
44.5588179081
0
LINE
5
2E2
100
AcDbEntity
8
0
100
AcDbLine
62
7
6
CONTINUOUS
10
-23.3523278165
20
49.7226757444
11
-21.7752533064
21
48.9341384893
0
LINE
5
2E3
100
AcDbEntity
8
0
100
AcDbLine
62
7
6
CONTINUOUS
10
-16.1512266209
20
46.1221251466
11
-14.5741521107
21
45.3335878915
0
LINE
5
2E4
100
AcDbEntity
8
0
100
AcDbLine
62
9
6
CONTINUOUS
10
-15.7045172555
20
46.1442079918
11
-20.4333694119
21
48.5086340700
0
LINE
5
2E5
100
AcDbEntity
8
0
100
AcDbLine
62
7
6
CONTINUOUS
10
-20.2275343869
20
48.4740147432
11
-15.5802109221
21
46.1503530108
0
LINE
5
2E6
100
AcDbEntity
8
0
100
AcDbLine
62
9
6
CONTINUOUS
10
-21.9655556364
20
49.8115335783
11
-20.4691403906
21
49.0633259554
0
LINE
5
2E7
100
AcDbEntity
8
0
100
AcDbLine
62
9
6
CONTINUOUS
10
-14.6345227257
20
46.1460171229
11
-13.7696554579
21
45.7135834891
0
LINE
5
2E8
100
AcDbEntity
8
0
100
AcDbLine
62
7
6
CONTINUOUS
10
-21.8132005354
20
49.7824616441
11
-20.4368928346
21
49.0943077937
0
LINE
5
2E9
100
AcDbEntity
8
0
100
AcDbLine
62
7
6
CONTINUOUS
10
-14.3566633440
20
46.0541930484
11
-13.7212098140
21
45.7364662834
0
LINE
5
2EA
100
AcDbEntity
8
0
100
AcDbLine
62
7
6
CONTINUOUS
10
-10.9072516122
20
44.5944599531
11
-11.5615998841
21
44.9216340890
0
LINE
5
2EB
100
AcDbEntity
8
0
100
AcDbLine
62
7
6
CONTINUOUS
10
-23.5017833237
20
50.8917258088
11
-23.7979689327
21
51.0398186133
0
LINE
5
2EC
100
AcDbEntity
8
0
100
AcDbLine
62
9
6
CONTINUOUS
10
-12.0861883886
20
45.3098968328
11
-13.3191473279
21
45.9263763025
0
LINE
5
2ED
100
AcDbEntity
8
0
100
AcDbLine
62
9
6
CONTINUOUS
10
-22.1403837854
20
50.3369945312
11
-23.3733427247
21
50.9534740009
0
LINE
5
2EE
100
AcDbEntity
8
0
100
AcDbLine
62
7
6
CONTINUOUS
10
-11.7561028470
20
45.3304866430
11
-12.9803555595
21
45.9426129992
0
LINE
5
2EF
100
AcDbEntity
8
0
100
AcDbLine
62
7
6
CONTINUOUS
10
-21.8132006192
20
50.3590355290
11
-23.0374533316
21
50.9711618853
0
LINE
5
2F0
100
AcDbEntity
8
0
100
AcDbLine
62
9
6
CONTINUOUS
10
-26.3877429495
20
52.8396989028
11
-25.4613673591
21
52.3765111076
0
LINE
5
2F1
100
AcDbEntity
8
0
100
AcDbLine
62
9
6
CONTINUOUS
10
-10.3292822417
20
44.8104685489
11
-9.4029066512
21
44.3472807536
0
LINE
5
2F2
100
AcDbEntity
8
0
100
AcDbLine
62
7
6
CONTINUOUS
10
-9.2456074458
20
53.1502646133
11
-9.4374472164
21
53.6531381068
0
LWPOLYLINE
5
2F3
100
AcDbEntity
8
0
100
AcDbPolyline
62
7
6
CONTINUOUS
90
35
70
0
10
4.1934261948
20
14.5184041045
10
4.2073086172
20
14.5261817923
10
4.2209702865
20
14.5344184014
10
4.2343807882
20
14.5430990651
10
4.2475196324
20
14.5522126717
10
4.2603692177
20
14.5617485628
10
4.2729128945
20
14.5716954999
10
4.2851399009
20
14.5820460763
10
4.2970417104
20
14.5927948499
10
4.3086053483
20
14.6039323828
10
4.3198171618
20
14.6154478611
10
4.3306673346
20
14.6273338705
10
4.3411444523
20
14.6395811428
10
4.3512344589
20
14.6521765926
10
4.3609239115
20
14.6651065669
10
4.3702002876
20
14.6783573056
10
4.3790532754
20
14.6919171515
10
4.3874732777
20
14.7057749779
10
4.3954501659
20
14.7199182069
10
4.4029730798
20
14.7343318965
10
4.4100318250
20
14.7490008668
10
4.4166167993
20
14.7639096030
10
4.4227195339
20
14.7790436784
10
4.4283321736
20
14.7943890229
10
4.4334470247
20
14.8099308254
10
4.4380562390
20
14.8256520537
10
4.4421524926
20
14.8415348307
10
4.4457297185
20
14.8575635196
10
4.4487818717
20
14.8737200303
10
4.4513030975
20
14.8899822712
10
4.4532892097
20
14.9063322168
10
4.4547367393
20
14.9227525864
10
4.4556426022
20
14.9392220050
10
4.4560047837
20
14.9557198606
10
4.4560122015
20
46.6028550072
0
LINE
5
2F4
100
AcDbEntity
8
0
100
AcDbLine
62
9
6
CONTINUOUS
10
4.3156821017
20
14.7847788235
11
-8.7141777203
21
7.7548705226
0
LINE
5
2F5
100
AcDbEntity
8
0
100
AcDbLine
62
7
6
CONTINUOUS
10
4.1934241117
20
14.5184029806
11
-8.6440126704
21
7.5923113242
0
LINE
5
2F6
100
AcDbEntity
8
0
100
AcDbLine
62
9
6
CONTINUOUS
10
-19.8415390141
20
2.4359759793
11
-18.4026402621
21
3.1307401657
0
LINE
5
2F7
100
AcDbEntity
8
0
100
AcDbLine
62
7
6
CONTINUOUS
10
-19.9209181803
20
2.2730323974
11
-18.4820194284
21
2.9677965838
0
LINE
5
2F8
100
AcDbEntity
8
0
100
AcDbLine
62
7
6
CONTINUOUS
10
-15.8755697420
20
3.9090659379
11
-20.0155426846
21
1.9101032386
0
LINE
5
2F9
100
AcDbEntity
8
0
100
AcDbLine
62
7
6
CONTINUOUS
10
-11.1293273977
20
49.7730396110
11
-11.1901510940
21
49.7565743722
0
LINE
5
2FA
100
AcDbEntity
8
0
100
AcDbLine
62
7
6
CONTINUOUS
10
-22.7229132812
20
46.1676673195
11
-20.7726675965
21
46.3667021166
0
LINE
5
2FB
100
AcDbEntity
8
0
100
AcDbLine
62
7
6
CONTINUOUS
10
-22.4697238714
20
47.2152302541
11
-24.4199695561
21
47.0161954570
0
LINE
5
2FC
100
AcDbEntity
8
0
100
AcDbLine
62
3
6
CONTINUOUS
10
-26.2829330032
20
47.8667007916
11
-24.8905794542
21
48.0087991992
0
LINE
5
2FD
100
AcDbEntity
8
0
100
AcDbLine
62
7
6
CONTINUOUS
10
-20.4333694119
20
48.5086340700
11
-21.7683191266
21
48.3723940836
0
LWPOLYLINE
5
2FE
100
AcDbEntity
8
0
100
AcDbPolyline
62
7
6
CONTINUOUS
90
28
70
0
10
-9.8944093611
20
44.8328318785
10
-9.9113994833
20
44.8409538118
10
-9.9287138495
20
44.8484884977
10
-9.9463373924
20
44.8554245000
10
-9.9642440541
20
44.8617476762
10
-9.9824280419
20
44.8674524381
10
-10.0009055387
20
44.8725381714
10
-10.0196616487
20
44.8769935502
10
-10.0386802795
20
44.8808078530
10
-10.0579782162
20
44.8839761104
10
-10.0775426720
20
44.8864862992
10
-10.0973561573
20
44.8883265268
10
-10.1174306974
20
44.8894872011
10
-10.1377565102
20
44.8899555833
10
-10.1583138259
20
44.8897192353
10
-10.1791017736
20
44.8887658887
10
-10.2001120162
20
44.8870827398
10
-10.2213240845
20
44.8846583215
10
-10.2427208627
20
44.8814819854
10
-10.2642961947
20
44.8775417831
10
-10.2860284704
20
44.8728287455
10
-10.3078793464
20
44.8673398490
10
-10.3298430424
20
44.8610659522
10
-10.3518990616
20
44.8540021207
10
-10.3739890381
20
44.8461587784
10
-10.3960859434
20
44.8375401297
10
-10.4181928279
20
44.8281392564
10
-10.4402975659
20
44.8179544321
0
LWPOLYLINE
5
2FF
100
AcDbEntity
8
0
100
AcDbPolyline
62
7
6
CONTINUOUS
90
30
70
0
10
-25.9471478595
20
52.8592010700
10
-25.9538771199
20
52.8625081744
10
-25.9704933889
20
52.8701881669
10
-25.9874259218
20
52.8773295133
10
-26.0046637141
20
52.8839212708
10
-26.0221992215
20
52.8899539502
10
-26.0400191501
20
52.8954162183
10
-26.0581099450
20
52.9002977612
10
-26.0764641220
20
52.9045903927
10
-26.0950686487
20
52.9082845625
10
-26.1139088071
20
52.9113709889
10
-26.1329753651
20
52.9138421766
10
-26.1522543141
20
52.9156902385
10
-26.1717319329
20
52.9169077355
10
-26.1914006547
20
52.9174879782
10
-26.2112462022
20
52.9174245227
10
-26.2312561523
20
52.9167113032
10
-26.2514272506
20
52.9153416932
10
-26.2717473525
20
52.9133096503
10
-26.2922036193
20
52.9106096694
10
-26.3127934052
20
52.9072345866
10
-26.3335049719
20
52.9031784057
10
-26.3543265035
20
52.8984357930
10
-26.3752566608
20
52.8929985398
10
-26.3962836152
20
52.8868604385
10
-26.4173969687
20
52.8800154291
10
-26.4385985195
20
52.8724527718
10
-26.4598815284
20
52.8641634351
10
-26.4812288215
20
52.8551429952
10
-26.4956460609
20
52.8486480758
0
LINE
5
300
100
AcDbEntity
8
0
100
AcDbLine
62
7
6
CONTINUOUS
10
-25.9471770471
20
52.8592157215
11
-25.9471453838
21
52.8591998880
0
LINE
5
301
100
AcDbEntity
8
0
100
AcDbLine
62
7
6
CONTINUOUS
10
-25.9471797274
20
52.8592170616
11
-25.0264944785
21
52.3988744372
0
LINE
5
302
100
AcDbEntity
8
0
100
AcDbLine
62
7
6
CONTINUOUS
10
-9.8944093611
20
44.8328318785
11
-8.9737241129
21
44.3724892544
0
LINE
5
303
100
AcDbEntity
8
0
100
AcDbLine
62
7
6
CONTINUOUS
10
-12.2085227000
20
49.6507728018
11
-11.9251510940
21
49.3890743722
0
LINE
5
304
100
AcDbEntity
8
0
100
AcDbLine
62
9
6
CONTINUOUS
10
4.3156821017
20
46.4291904146
11
4.3156821017
21
14.7847788235
0
LINE
5
305
100
AcDbEntity
8
0
100
AcDbLine
62
7
6
CONTINUOUS
10
-26.7534219340
20
48.1829216459
11
-24.8031762493
21
48.3819564430
0
LINE
5
306
100
AcDbEntity
8
0
100
AcDbLine
62
7
6
CONTINUOUS
10
-28.1391648482
20
48.6800750002
11
-23.4938090867
21
49.1541626747
0
LINE
5
307
100
AcDbEntity
8
0
100
AcDbLine
62
7
6
CONTINUOUS
10
-23.3523278165
20
49.7226757444
11
-21.9655556364
21
49.8115335783
0
LINE
5
308
100
AcDbEntity
8
0
100
AcDbLine
62
7
6
CONTINUOUS
10
-21.7752533064
20
48.9341384893
11
-20.7227739742
21
48.9963490576
0
LINE
5
309
100
AcDbEntity
8
0
100
AcDbLine
62
7
6
CONTINUOUS
10
-11.1901510940
20
49.7565743722
11
-11.7135479532
21
49.8982601752
0
LINE
5
30A
100
AcDbEntity
8
0
100
AcDbLine
62
7
6
CONTINUOUS
10
-12.2085227000
20
49.6507728018
11
-12.9154916401
21
50.0042572718
0
LINE
5
30B
100
AcDbEntity
8
0
100
AcDbLine
62
7
6
CONTINUOUS
10
-11.7135479532
20
49.8982601752
11
-12.4205168933
21
50.2517446452
0
LWPOLYLINE
5
30C
100
AcDbEntity
8
0
100
AcDbPolyline
62
7
6
CONTINUOUS
90
4
70
0
10
-9.0470493505
20
49.8471068125
10
-9.0770148529
20
49.8774413746
10
-9.1366629761
20
49.9312671185
10
-9.1948518880
20
49.9785618089
0
LWPOLYLINE
5
30D
100
AcDbEntity
8
0
100
AcDbPolyline
62
7
6
CONTINUOUS
90
52
70
0
10
-9.2872881517
20
3.0153628607
10
-9.2716144237
20
3.0240288440
10
-9.2499817912
20
3.0366839857
10
-9.2285615159
20
3.0500211418
10
-9.2073595704
20
3.0640281615
10
-9.1863863712
20
3.0786896706
10
-9.1656593810
20
3.0939852535
10
-9.1451858297
20
3.1099012418
10
-9.1249736785
20
3.1264236106
10
-9.1050427083
20
3.1435287581
10
-9.0854007269
20
3.1612018662
10
-9.0660553088
20
3.1794287418
10
-9.0470264487
20
3.1981832717
10
-9.0283217321
20
3.2174499274
10
-9.0099490321
20
3.2372136125
10
-8.9919288170
20
3.2574448463
10
-8.9742703006
20
3.2781250164
10
-8.9569791957
20
3.2992402665
10
-8.9400703875
20
3.3207647958
10
-8.9235540201
20
3.3426779095
10
-8.9074344372
20
3.3649668918
10
-8.8917180123
20
3.3876161259
10
-8.8764125363
20
3.4106086793
10
-8.8615251414
20
3.4339284786
10
-8.8470620117
20
3.4575607582
10
-8.8330312681
20
3.4814884381
10
-8.8194398757
20
3.5056957314
10
-8.8062933250
20
3.5301699617
10
-8.7935998238
20
3.5548941807
10
-8.7813664875
20
3.5798526683
10
-8.7695983669
20
3.6050350711
10
-8.7583034110
20
3.6304253641
10
-8.7474894825
20
3.6560071551
10
-8.7371624501
20
3.6817700822
10
-8.7273297006
20
3.7077000832
10
-8.7180002906
20
3.7337789669
10
-8.7091826430
20
3.7599906880
10
-8.7008843589
20
3.7863205983
10
-8.6931143433
20
3.8127510785
10
-8.6858819257
20
3.8392623148
10
-8.6791949801
20
3.8658383660
10
-8.6730619099
20
3.8924629553
10
-8.6674914170
20
3.9191169597
10
-8.6624914859
20
3.9457845696
10
-8.6580704896
20
3.9724497327
10
-8.6542367110
20
3.9990944503
10
-8.6509985226
20
4.0257024162
10
-8.6483643452
20
4.0522583232
10
-8.6463425193
20
4.0787478301
10
-8.6449420511
20
4.1051564731
10
-8.6441718937
20
4.1314663445
10
-8.6440127011
20
4.1498918629
0
LINE
5
30E
100
AcDbEntity
8
0
100
AcDbLine
62
9
6
CONTINUOUS
10
-9.2261568799
20
3.1485519764
11
-14.7963956781
21
0.1432803540
0
LINE
5
30F
100
AcDbEntity
8
0
100
AcDbLine
62
7
6
CONTINUOUS
10
-9.2872858748
20
3.0153640549
11
-14.8587608613
21
0.0094254807
0
LINE
5
310
100
AcDbEntity
8
0
100
AcDbLine
62
9
6
CONTINUOUS
10
-20.0155426846
20
-0.9767810094
11
-16.2666702595
21
0.7939597544
0
LINE
5
311
100
AcDbEntity
8
0
100
AcDbLine
62
7
6
CONTINUOUS
10
-20.0824340126
20
-1.1129154531
11
-16.6328922076
21
0.5164396164
0
LINE
5
312
100
AcDbEntity
8
0
100
AcDbLine
62
9
6
CONTINUOUS
10
-14.7963956781
20
0.1432885982
11
-16.2666702595
21
-0.5511802554
0
LINE
5
313
100
AcDbEntity
8
0
100
AcDbLine
62
7
6
CONTINUOUS
10
-14.8632529457
20
0.0071702426
11
-16.3335615878
21
-0.6873146992
0
LWPOLYLINE
5
314
100
AcDbEntity
8
0
100
AcDbPolyline
62
7
6
CONTINUOUS
90
35
70
0
10
-9.9255654937
20
50.3445449030
10
-10.0218680738
20
50.3738363543
10
-10.1366959749
20
50.4048371827
10
-10.2542900767
20
50.4325067877
10
-10.3743134328
20
50.4568005578
10
-10.4964382124
20
50.4776827195
10
-10.6203371841
20
50.4951234198
10
-10.7456415538
20
50.5090943095
10
-10.8720294524
20
50.5195803474
10
-10.9992332141
20
50.5265732900
10
-11.1269090253
20
50.5300624893
10
-11.2547052624
20
50.5300444853
10
-11.3823404111
20
50.5265208375
10
-11.5094661807
20
50.5194979462
10
-11.6357372574
20
50.5089895891
10
-11.7608796952
20
50.4950080550
10
-11.8845502922
20
50.4775757771
10
-12.0064087119
20
50.4567222029
10
-12.1261939360
20
50.4324670292
10
-12.2435770920
20
50.4048445356
10
-12.3582200313
20
50.3738980262
10
-12.4698638866
20
50.3396532128
10
-12.5782178504
20
50.3021437772
10
-12.6829275718
20
50.2614301274
10
-12.7836736823
20
50.2175689895
10
-12.8802537306
20
50.1705643757
10
-12.9722642503
20
50.1205166217
10
-13.0591801996
20
50.0676333791
10
-13.1409097681
20
50.0118866038
10
-13.2170646668
20
49.9534395480
10
-13.2869022766
20
49.8928394233
10
-13.3503577263
20
49.8301896353
10
-13.4073362862
20
49.7656204690
10
-13.4573602375
20
49.6998176839
10
-13.4963765780
20
49.6393708637
0
LWPOLYLINE
5
315
100
AcDbEntity
8
0
100
AcDbPolyline
62
7
6
CONTINUOUS
90
29
70
0
10
-11.9705721207
20
55.1251641627
10
-11.9851722239
20
55.1321709940
10
-11.9997651398
20
55.1386058306
10
-12.0145627684
20
55.1445746367
10
-12.0295536902
20
55.1500718571
10
-12.0447289010
20
55.1550927526
10
-12.0600740750
20
55.1596308122
10
-12.0755733080
20
55.1636795773
10
-12.0912151487
20
55.1672341444
10
-12.1069860975
20
55.1702892346
10
-12.1228681478
20
55.1728391609
10
-12.1388427963
20
55.1748789872
10
-12.1548921631
20
55.1764046641
10
-12.1710012617
20
55.1774130053
10
-12.1871556400
20
55.1779011642
10
-12.2033396029
20
55.1778665629
10
-12.2195350680
20
55.1773071349
10
-12.2357238097
20
55.1762215108
10
-12.2518878845
20
55.1746089828
10
-12.2680108063
20
55.1724692770
10
-12.2840764044
20
55.1698025160
10
-12.3000682600
20
55.1666092829
10
-12.3159679803
20
55.1628910927
10
-12.3317564124
20
55.1586503881
10
-12.3474172982
20
55.1538895124
10
-12.3629321651
20
55.1486120362
10
-12.3782788023
20
55.1428237818
10
-12.3934398063
20
55.1365298600
10
-12.4038182339
20
55.1318792226
0
LWPOLYLINE
5
316
100
AcDbEntity
8
0
100
AcDbPolyline
62
7
6
CONTINUOUS
90
12
70
0
10
-9.1371635862
20
52.9035232397
10
-9.1395748351
20
52.9047153822
10
-9.1495535996
20
52.9093685270
10
-9.1597096359
20
52.9136576775
10
-9.1700275360
20
52.9175747660
10
-9.1804920675
20
52.9211127220
10
-9.1910911463
20
52.9242661879
10
-9.2018136637
20
52.9270303221
10
-9.2126458299
20
52.9293998517
10
-9.2235727961
20
52.9313698232
10
-9.2345816242
20
52.9329361337
10
-9.2456074458
20
52.9340895582
0
LINE
5
317
100
AcDbEntity
8
0
100
AcDbLine
62
7
6
CONTINUOUS
10
-9.2456074458
20
52.7172519114
11
-6.2441876373
21
51.2165420071
0
LINE
5
318
100
AcDbEntity
8
0
100
AcDbLine
62
9
6
CONTINUOUS
10
-9.2456074458
20
52.8832497483
11
-6.0762729951
21
51.2985825229
0
LINE
5
319
100
AcDbEntity
8
0
100
AcDbLine
62
7
6
CONTINUOUS
10
-9.1371636091
20
52.9035232511
11
-6.0009173626
21
51.3354001279
0
LINE
5
31A
100
AcDbEntity
8
0
100
AcDbLine
62
9
6
CONTINUOUS
10
-12.1880084084
20
55.1139824216
11
-9.9889233057
21
54.0144398702
0
LINE
5
31B
100
AcDbEntity
8
0
100
AcDbLine
62
9
6
CONTINUOUS
10
-5.3079703556
20
51.6739633952
11
3.9621825590
21
47.0388869379
0
LINE
5
31C
100
AcDbEntity
8
0
100
AcDbLine
62
7
6
CONTINUOUS
10
-11.9705719681
20
55.1251640864
11
-9.7253545082
21
54.0025553565
0
LINE
5
31D
100
AcDbEntity
8
0
100
AcDbLine
62
7
6
CONTINUOUS
10
-5.1366662725
20
51.7082112386
11
4.1796189992
21
47.0500686027
0
LWPOLYLINE
5
31E
100
AcDbEntity
8
0
100
AcDbPolyline
62
7
6
CONTINUOUS
90
34
70
0
10
4.1796189992
20
47.0500686027
10
4.1942541596
20
47.0424466006
10
4.2086535393
20
47.0343319523
10
4.2227964854
20
47.0257334127
10
4.2366555710
20
47.0166657117
10
4.2502186677
20
47.0071353001
10
4.2634873097
20
46.9971379740
10
4.2764512244
20
46.9866763622
10
4.2890802785
20
46.9757700861
10
4.3013463740
20
46.9644408329
10
4.3132342134
20
46.9527013081
10
4.3247247210
20
46.9405694990
10
4.3357879695
20
46.9280785704
10
4.3463557721
20
46.9153160398
10
4.3564759003
20
46.9022357445
10
4.3662758428
20
46.8886586892
10
4.3758260376
20
46.8744361975
10
4.3849828253
20
46.8597289138
10
4.3935624375
20
46.8448256479
10
4.4014651871
20
46.8299489031
10
4.4088060947
20
46.8149344500
10
4.4157227409
20
46.7994922875
10
4.4222661109
20
46.7834298995
10
4.4283118252
20
46.7669679728
10
4.4337365568
20
46.7504335976
10
4.4384936853
20
46.7340480624
10
4.4426579810
20
46.7176412653
10
4.4462943208
20
46.7009541587
10
4.4494141020
20
46.6838152706
10
4.4519529067
20
46.6664381566
10
4.4538655640
20
46.6491370707
10
4.4551546375
20
46.6321266396
10
4.4558590869
20
46.6152279959
10
4.4560122014
20
46.6028598406
0
SPLINE
5
31F
100
AcDbEntity
8
0
100
AcDbSpline
62
7
6
CONTINUOUS
70
0
71
3
72
9
73
5
74
3
42
0.0000001000
43
0.0000001000
44
0.0000000001
12
0.5667064976
22
-0.1169359420
32
0.0000000000
13
0.5508524181
23
-0.1773328632
33
0.0000000000
40
0.0000000000
40
0.0000000000
40
0.0000000000
40
0.0000000000
40
0.2976573275
40
1.0000000000
40
1.0000000000
40
1.0000000000
40
1.0000000000
10
-9.8551024924
20
50.1407402423
30
0.0000000000
10
-9.7988743785
20
50.1291379623
30
0.0000000000
10
-9.6105441354
20
50.0873905861
30
0.0000000000
10
-9.4244759562
20
50.0359887108
30
0.0000000000
10
-9.2955135697
20
49.9944725651
30
0.0000000000
11
-9.8551024924
21
50.1407402423
31
0.0000000000
11
-9.6869590434
21
50.1034297500
31
0.0000000000
11
-9.2955135697
21
49.9944725651
31
0.0000000000
0
SPLINE
5
320
100
AcDbEntity
8
0
100
AcDbSpline
62
7
6
CONTINUOUS
70
0
71
3
72
8
73
4
74
2
42
0.0000001000
43
0.0000001000
44
0.0000000001
12
0.0163794565
22
-0.0052729476
32
0.0000000000
13
0.0163608080
23
-0.0053313242
33
0.0000000000
40
0.0000000000
40
0.0000000000
40
0.0000000000
40
0.0000000000
40
1.0000000000
40
1.0000000000
40
1.0000000000
40
1.0000000000
10
-9.2955135697
20
49.9944725651
30
0.0000000000
10
-9.2900537509
20
49.9927149160
30
0.0000000000
10
-9.2845970172
20
49.9909475621
30
0.0000000000
10
-9.2791434145
20
49.9891704540
30
0.0000000000
11
-9.2955135697
21
49.9944725651
31
0.0000000000
11
-9.2791434145
21
49.9891704540
31
0.0000000000
0
SPLINE
5
321
100
AcDbEntity
8
0
100
AcDbSpline
62
7
6
CONTINUOUS
70
0
71
3
72
8
73
4
74
2
42
0.0000001000
43
0.0000001000
44
0.0000000001
12
0.1769290670
22
-0.0631824506
32
0.0000000000
13
0.1739945033
23
-0.0708519434
33
0.0000000000
40
0.0000000000
40
0.0000000000
40
0.0000000000
40
0.0000000000
40
1.0000000000
40
1.0000000000
40
1.0000000000
40
1.0000000000
10
-9.1557172014
20
49.9470536383
30
0.0000000000
10
-9.0967408457
20
49.9259928215
30
0.0000000000
10
-9.0382042765
20
49.9037028527
30
0.0000000000
10
-8.9802061087
20
49.8800855382
30
0.0000000000
11
-9.1557172014
21
49.9470536383
31
0.0000000000
11
-8.9802061087
21
49.8800855382
31
0.0000000000
0
SPLINE
5
322
100
AcDbEntity
8
0
100
AcDbSpline
62
7
6
CONTINUOUS
70
0
71
3
72
10
73
6
74
4
42
0.0000001000
43
0.0000001000
44
0.0000000001
12
-0.0400360840
22
0.5289710138
32
0.0000000000
13
-0.0400764444
23
0.5289679575
33
0.0000000000
40
0.0000000000
40
0.0000000000
40
0.0000000000
40
0.0000000000
40
0.1423196865
40
0.5721454796
40
1.0000000000
40
1.0000000000
40
1.0000000000
40
1.0000000000
10
-9.8232415526
20
49.7189757532
30
0.0000000000
10
-9.8251408602
20
49.7440700828
30
0.0000000000
10
-9.8327768770
20
49.8449528343
30
0.0000000000
10
-9.8461269139
20
50.0212761516
30
0.0000000000
10
-9.8575819494
20
50.1725048132
30
0.0000000000
10
-9.8632975787
20
50.2479452571
30
0.0000000000
11
-9.8232415526
21
49.7189757532
31
0.0000000000
11
-9.8289398713
21
49.7942587121
31
0.0000000000
11
-9.8461544791
21
50.0216236384
31
0.0000000000
11
-9.8632975787
21
50.2479452571
31
0.0000000000
0
SPLINE
5
323
100
AcDbEntity
8
0
100
AcDbSpline
62
7
6
CONTINUOUS
70
0
71
3
72
11
73
7
74
5
42
0.0000001000
43
0.0000001000
44
0.0000000001
12
-0.0091885354
22
0.1212792417
32
0.0000000000
13
-0.1166311412
23
0.0374801228
33
0.0000000000
40
0.0000000000
40
0.0000000000
40
0.0000000000
40
0.0000000000
40
0.3124963062
40
0.5969197086
40
0.8533740225
40
1.0000000000
40
1.0000000000
40
1.0000000000
40
1.0000000000
10
-9.8632975787
20
50.2479452571
30
0.0000000000
10
-9.8642547065
20
50.2605783622
30
0.0000000000
10
-9.8685401945
20
50.2846636835
30
0.0000000000
10
-9.8839234171
20
50.3163059140
30
0.0000000000
10
-9.9047676868
20
50.3359077853
30
0.0000000000
10
-9.9198719901
20
50.3426903351
30
0.0000000000
10
-9.9255723751
20
50.3445221883
30
0.0000000000
11
-9.8632975787
21
50.2479452571
31
0.0000000000
11
-9.8705162727
21
50.2852613847
31
0.0000000000
11
-9.8862661204
21
50.3160616044
31
0.0000000000
11
-9.9092647391
21
50.3371326063
31
0.0000000000
11
-9.9255723751
21
50.3445221883
31
0.0000000000
0
SPLINE
5
324
100
AcDbEntity
8
0
100
AcDbSpline
62
7
6
CONTINUOUS
70
0
71
3
72
11
73
7
74
5
42
0.0000001000
43
0.0000001000
44
0.0000000001
12
0.0993321102
22
0.0496660551
32
0.0000000000
13
0.0881859082
23
-0.0685184743
33
0.0000000000
40
0.0000000000
40
0.0000000000
40
0.0000000000
40
0.0000000000
40
0.3385146280
40
0.6433013196
40
0.9205542270
40
1.0000000000
40
1.0000000000
40
1.0000000000
40
1.0000000000
10
-9.3004444358
20
49.9803743107
30
0.0000000000
10
-9.2892359784
20
49.9859785394
30
0.0000000000
10
-9.2666214868
20
49.9943786428
30
0.0000000000
10
-9.2319052069
20
49.9962165508
30
0.0000000000
10
-9.2081301488
20
49.9879184921
30
0.0000000000
10
-9.1971923015
20
49.9803687099
30
0.0000000000
10
-9.1948569689
20
49.9785542089
30
0.0000000000
11
-9.3004444358
21
49.9803743107
31
0.0000000000
11
-9.2649800616
21
49.9928486942
31
0.0000000000
11
-9.2311494096
21
49.9939507268
31
0.0000000000
11
-9.2021579579
21
49.9835792157
31
0.0000000000
11
-9.1948569689
21
49.9785542089
31
0.0000000000
0
SPLINE
5
325
100
AcDbEntity
8
0
100
AcDbSpline
62
7
6
CONTINUOUS
70
0
71
3
72
10
73
6
74
4
42
0.0000001000
43
0.0000001000
44
0.0000000001
12
-0.0809334070
22
0.0260084400
32
0.0000000000
13
-0.0754896910
23
-0.0377448455
33
0.0000000000
40
0.0000000000
40
0.0000000000
40
0.0000000000
40
0.0000000000
40
0.1535204784
40
0.5545700099
40
1.0000000000
40
1.0000000000
40
1.0000000000
40
1.0000000000
10
-9.9255723751
20
50.3445221883
30
0.0000000000
10
-9.9297140202
20
50.3458531310
30
0.0000000000
10
-9.9450678981
20
50.3494493366
30
0.0000000000
10
-9.9737282680
20
50.3479320334
30
0.0000000000
10
-9.9963427596
20
50.3395319300
30
0.0000000000
10
-10.0075512170
20
50.3339277013
30
0.0000000000
11
-9.9255723751
21
50.3445221883
31
0.0000000000
11
-9.9382561907
21
50.3475041174
31
0.0000000000
11
-9.9720868428
21
50.3464020848
31
0.0000000000
11
-10.0075512170
21
50.3339277013
31
0.0000000000
0
SPLINE
5
326
100
AcDbEntity
8
0
100
AcDbSpline
62
9
6
CONTINUOUS
70
0
71
3
72
21
73
17
74
15
42
0.0000001000
43
0.0000001000
44
0.0000000001
12
1.3250468162
22
3.4479288928
32
0.0000000000
13
3.5135480447
23
-1.0994091246
33
0.0000000000
40
0.0000000000
40
0.0000000000
40
0.0000000000
40
0.0000000000
40
0.0028703598
40
0.0535708208
40
0.1100109194
40
0.1731725769
40
0.2432669652
40
0.3199041793
40
0.4021385145
40
0.4886790863
40
0.5784748099
40
0.6706555115
40
0.7629512525
40
0.8511609699
40
0.9312383677
40
1.0000000000
40
1.0000000000
40
1.0000000000
40
1.0000000000
10
-13.3791853050
20
49.5998066953
30
0.0000000000
10
-13.3779175179
20
49.6031056274
30
0.0000000000
10
-13.3537540962
20
49.6644728186
30
0.0000000000
10
-13.2852169539
20
49.7823969281
30
0.0000000000
10
-13.1419229733
20
49.9363853754
30
0.0000000000
10
-12.9551129522
20
50.0768808655
30
0.0000000000
10
-12.7288569356
20
50.2014385263
30
0.0000000000
10
-12.4680889073
20
50.3075248640
30
0.0000000000
10
-12.1787923740
20
50.3927939944
30
0.0000000000
10
-11.8673475727
20
50.4554497737
30
0.0000000000
10
-11.5397783339
20
50.4942146882
30
0.0000000000
10
-11.2031494031
20
50.5079796931
30
0.0000000000
10
-10.8684030380
20
50.4962307143
30
0.0000000000
10
-10.5502499614
20
50.4608524073
30
0.0000000000
10
-10.2642503279
20
50.4063275449
30
0.0000000000
10
-10.0875165999
20
50.3594102816
30
0.0000000000
10
-10.0069841670
20
50.3342112263
30
0.0000000000
11
-13.3791853050
21
49.5998066953
31
0.0000000000
11
-13.3753016891
21
49.6096704964
31
0.0000000000
11
-13.2835527066
21
49.7722203666
31
0.0000000000
11
-13.1437598804
21
49.9259510883
31
0.0000000000
11
-12.9591508401
21
50.0673393687
31
0.0000000000
11
-12.7338693866
21
50.1931992935
31
0.0000000000
11
-12.4729874711
21
50.3006478132
31
0.0000000000
11
-12.1828402164
21
50.3870851474
31
0.0000000000
11
-11.8706128718
21
50.4505009467
31
0.0000000000
11
-11.5423584348
21
50.4896973449
31
0.0000000000
11
-11.2032797823
21
50.5036775932
31
0.0000000000
11
-10.8637013725
21
50.4916808639
31
0.0000000000
11
-10.5409880430
21
50.4553905843
31
0.0000000000
11
-10.2514201243
21
50.4000538341
31
0.0000000000
11
-10.0069841670
21
50.3342112263
31
0.0000000000
0
SPLINE
5
327
100
AcDbEntity
8
0
100
AcDbSpline
62
9
6
CONTINUOUS
70
0
71
3
72
9
73
5
74
3
42
0.0000001000
43
0.0000001000
44
0.0000000001
12
0.1913841321
22
-0.1529088053
32
0.0000000000
13
0.1548719100
23
-0.1904742122
33
0.0000000000
40
0.0000000000
40
0.0000000000
40
0.0000000000
40
0.0000000000
40
0.7758880787
40
1.0000000000
40
1.0000000000
40
1.0000000000
40
1.0000000000
10
-9.2998144722
20
49.9806892925
30
0.0000000000
10
-9.2503169167
20
49.9411425861
30
0.0000000000
10
-9.1902545475
20
49.8852877569
30
0.0000000000
10
-9.1368343796
20
49.8232370066
30
0.0000000000
10
-9.1252648325
20
49.8090078261
30
0.0000000000
11
-9.2998144722
21
49.9806892925
31
0.0000000000
11
-9.1611121847
21
49.8507384351
31
0.0000000000
11
-9.1252648325
21
49.8090078261
31
0.0000000000
0
SPLINE
5
328
100
AcDbEntity
8
0
100
AcDbSpline
62
7
6
CONTINUOUS
70
0
71
3
72
11
73
7
74
5
42
0.0000001000
43
0.0000001000
44
0.0000000001
12
0.0832820003
22
0.0415822957
32
0.0000000000
13
0.0829422948
23
-0.0414711474
33
0.0000000000
40
0.0000000000
40
0.0000000000
40
0.0000000000
40
0.0000000000
40
0.1698017477
40
0.4239833087
40
0.6985785075
40
1.0000000000
40
1.0000000000
40
1.0000000000
40
1.0000000000
10
-22.2162335711
20
43.8317021051
30
0.0000000000
10
-22.2115197614
20
43.8340556873
30
0.0000000000
10
-22.1991296355
20
43.8387041404
30
0.0000000000
10
-22.1773591449
20
43.8409482358
30
0.0000000000
10
-22.1517898036
20
43.8368191704
30
0.0000000000
10
-22.1351169523
20
43.8301975707
30
0.0000000000
10
-22.1267834222
20
43.8260308056
30
0.0000000000
11
-22.2162335711
21
43.8317021051
31
0.0000000000
11
-22.2014634938
21
43.8372518931
31
0.0000000000
11
-22.1780399011
21
43.8398824626
31
0.0000000000
11
-22.1528587229
21
43.8360988534
31
0.0000000000
11
-22.1267834222
21
43.8260308056
31
0.0000000000
0
SPLINE
5
329
100
AcDbEntity
8
0
100
AcDbSpline
62
7
6
CONTINUOUS
70
0
71
3
72
11
73
7
74
5
42
0.0000001000
43
0.0000001000
44
0.0000000001
12
-0.0145939321
22
-0.0613302985
32
0.0000000000
13
-0.0614548224
23
-0.0062718499
33
0.0000000000
40
0.0000000000
40
0.0000000000
40
0.0000000000
40
0.0000000000
40
0.0966540175
40
0.3156819854
40
0.6136554429
40
1.0000000000
40
1.0000000000
40
1.0000000000
40
1.0000000000
10
-18.3860135494
20
45.2251023264
30
0.0000000000
10
-18.3864837368
20
45.2231263865
30
0.0000000000
10
-18.3890457449
20
45.2169019255
30
0.0000000000
10
-18.3996746489
20
45.2090333832
30
0.0000000000
10
-18.4172897214
20
45.2029577439
30
0.0000000000
10
-18.4313009732
20
45.2007836260
30
0.0000000000
10
-18.4392152186
20
45.1999759277
30
0.0000000000
11
-18.3860135494
21
45.2251023264
31
0.0000000000
11
-18.3883249836
21
45.2195188814
31
0.0000000000
11
-18.3985094706
21
45.2106113761
31
0.0000000000
11
-18.4156930001
21
45.2040125282
31
0.0000000000
11
-18.4392152186
21
45.1999759277
31
0.0000000000
0
SPLINE
5
32A
100
AcDbEntity
8
0
100
AcDbSpline
62
7
6
CONTINUOUS
70
0
71
3
72
11
73
7
74
5
42
0.0000001000
43
0.0000001000
44
0.0000000001
12
-0.0145939321
22
-0.0613302985
32
0.0000000000
13
-0.0614548224
23
-0.0062718499
33
0.0000000000
40
0.0000000000
40
0.0000000000
40
0.0000000000
40
0.0000000000
40
0.0966540175
40
0.3156819854
40
0.6136554429
40
1.0000000000
40
1.0000000000
40
1.0000000000
40
1.0000000000
10
-22.4165222021
20
47.2403566528
30
0.0000000000
10
-22.4169923895
20
47.2383807129
30
0.0000000000
10
-22.4195543977
20
47.2321562519
30
0.0000000000
10
-22.4301833017
20
47.2242877096
30
0.0000000000
10
-22.4477983742
20
47.2182120703
30
0.0000000000
10
-22.4618096260
20
47.2160379524
30
0.0000000000
10
-22.4697238714
20
47.2152302541
30
0.0000000000
11
-22.4165222021
21
47.2403566528
31
0.0000000000
11
-22.4188336364
21
47.2347732078
31
0.0000000000
11
-22.4290181234
21
47.2258657025
31
0.0000000000
11
-22.4462016528
21
47.2192668546
31
0.0000000000
11
-22.4697238714
21
47.2152302541
31
0.0000000000
0
SPLINE
5
32B
100
AcDbEntity
8
0
100
AcDbSpline
62
7
6
CONTINUOUS
70
0
71
3
72
9
73
5
74
3
42
0.0000001000
43
0.0000001000
44
0.0000000001
12
-0.1119495102
22
0.0560459254
32
0.0000000000
13
-0.1239910689
23
0.0133468475
33
0.0000000000
40
0.0000000000
40
0.0000000000
40
0.0000000000
40
0.0000000000
40
0.1736013343
40
1.0000000000
40
1.0000000000
40
1.0000000000
40
1.0000000000
10
-20.2276010512
20
48.4740363165
30
0.0000000000
10
-20.2340792460
20
48.4772795323
30
0.0000000000
10
-20.2719998177
20
48.4947603326
30
0.0000000000
10
-20.3130285591
20
48.5049870241
30
0.0000000000
10
-20.3471839104
20
48.5086636298
30
0.0000000000
11
-20.2276010512
21
48.4740363165
31
0.0000000000
11
-20.2473390419
21
48.4831302927
31
0.0000000000
11
-20.3471839104
21
48.5086636298
31
0.0000000000
0
SPLINE
5
32C
100
AcDbEntity
8
0
100
AcDbSpline
62
7
6
CONTINUOUS
70
0
71
3
72
9
73
5
74
3
42
0.0000001000
43
0.0000001000
44
0.0000000001
12
-0.0858076653
22
0.0092366477
32
0.0000000000
13
-0.0858574017
23
-0.0087622860
33
0.0000000000
40
0.0000000000
40
0.0000000000
40
0.0000000000
40
0.0000000000
40
0.4913326222
40
1.0000000000
40
1.0000000000
40
1.0000000000
40
1.0000000000
10
-20.3471839104
20
48.5086636298
30
0.0000000000
10
-20.3612372788
20
48.5101763852
30
0.0000000000
10
-20.3900302813
20
48.5116577598
30
0.0000000000
10
-20.4188117921
20
48.5101197664
30
0.0000000000
10
-20.4333694119
20
48.5086340700
30
0.0000000000
11
-20.3471839104
21
48.5086636298
31
0.0000000000
11
-20.3895283875
21
48.5109031817
31
0.0000000000
11
-20.4333694119
21
48.5086340700
31
0.0000000000
0
SPLINE
5
32D
100
AcDbEntity
8
0
100
AcDbSpline
62
7
6
CONTINUOUS
70
0
71
3
72
15
73
11
74
9
42
0.0000001000
43
0.0000001000
44
0.0000000001
12
-0.2830840723
22
-0.0288905041
32
0.0000000000
13
-0.2545132660
23
0.1272566330
33
0.0000000000
40
0.0000000000
40
0.0000000000
40
0.0000000000
40
0.0000000000
40
0.1018680046
40
0.2189296968
40
0.3474096568
40
0.4829133080
40
0.6206942281
40
0.7558954912
40
0.8837854688
40
1.0000000000
40
1.0000000000
40
1.0000000000
40
1.0000000000
10
-21.7683191266
20
48.3723940836
30
0.0000000000
10
-21.7779315298
20
48.3714130776
30
0.0000000000
10
-21.7987275125
20
48.3706385268
30
0.0000000000
10
-21.8316677211
20
48.3722134836
30
0.0000000000
10
-21.8675917348
20
48.3764123705
30
0.0000000000
10
-21.9051311166
20
48.3830880371
30
0.0000000000
10
-21.9428595340
20
48.3919938064
30
0.0000000000
10
-21.9793406118
20
48.4027901681
30
0.0000000000
10
-22.0131844275
20
48.4150595443
30
0.0000000000
10
-22.0343808053
20
48.4244485340
30
0.0000000000
10
-22.0442401853
20
48.4293782240
30
0.0000000000
11
-21.7683191266
21
48.3723940836
31
0.0000000000
11
-21.7972760886
21
48.3710748548
31
0.0000000000
11
-21.8305549941
21
48.3725236949
31
0.0000000000
11
-21.8668769536
21
48.3766849258
31
0.0000000000
11
-21.9048461345
21
48.3833986338
31
0.0000000000
11
-21.9430034024
21
48.3924068148
31
0.0000000000
11
-21.9798823950
21
48.4033632895
31
0.0000000000
11
-22.0140658733
21
48.4158470066
31
0.0000000000
11
-22.0442401853
21
48.4293782240
31
0.0000000000
0
SPLINE
5
32E
100
AcDbEntity
8
0
100
AcDbSpline
62
7
6
CONTINUOUS
70
0
71
3
72
10
73
6
74
4
42
0.0000001000
43
0.0000001000
44
0.0000000001
12
0.1437626329
22
0.0718813165
32
0.0000000000
13
0.1599009443
23
0.0163188937
33
0.0000000000
40
0.0000000000
40
0.0000000000
40
0.0000000000
40
0.0000000000
40
0.3511381091
40
0.6840818606
40
1.0000000000
40
1.0000000000
40
1.0000000000
40
1.0000000000
10
-28.2921204567
20
48.6332676061
30
0.0000000000
10
-28.2752936104
20
48.6416810293
30
0.0000000000
10
-28.2416586202
20
48.6564535645
30
0.0000000000
10
-28.1903681810
20
48.6723318899
30
0.0000000000
10
-28.1560033845
20
48.6783565220
30
0.0000000000
10
-28.1391648482
20
48.6800750002
30
0.0000000000
11
-28.2921204567
21
48.6332676061
31
0.0000000000
11
-28.2403815071
21
48.6558161565
31
0.0000000000
11
-28.1892094202
21
48.6714758113
31
0.0000000000
11
-28.1391648482
21
48.6800750002
31
0.0000000000
0
SPLINE
5
32F
100
AcDbEntity
8
0
100
AcDbSpline
62
7
6
CONTINUOUS
70
0
71
3
72
12
73
8
74
6
42
0.0000001000
43
0.0000001000
44
0.0000000001
12
-0.0794482303
22
0.0397241152
32
0.0000000000
13
0.0209848366
23
0.0881877676
33
0.0000000000
40
0.0000000000
40
0.0000000000
40
0.0000000000
40
0.0000000000
40
0.3229543341
40
0.5878371421
40
0.7912834233
40
0.9408237800
40
1.0000000000
40
1.0000000000
40
1.0000000000
40
1.0000000000
10
-16.4580966139
20
45.6363064383
30
0.0000000000
10
-16.4666493307
20
45.6405827967
30
0.0000000000
10
-16.4819150504
20
45.6489879454
30
0.0000000000
10
-16.5010327849
20
45.6627409920
30
0.0000000000
10
-16.5137375177
20
45.6759640478
30
0.0000000000
10
-16.5192348446
20
45.6875505013
30
0.0000000000
10
-16.5186338714
20
45.6938777158
30
0.0000000000
10
-16.5182199370
20
45.6956172554
30
0.0000000000
11
-16.4580966139
21
45.6363064383
31
0.0000000000
11
-16.4831021777
21
45.6503651589
31
0.0000000000
11
-16.5019780437
21
45.6644111138
31
0.0000000000
11
-16.5139988227
21
45.6779045250
31
0.0000000000
11
-16.5187025631
21
45.6903268481
31
0.0000000000
11
-16.5182199370
21
45.6956172554
31
0.0000000000
0
SPLINE
5
330
100
AcDbEntity
8
0
100
AcDbSpline
62
7
6
CONTINUOUS
70
0
71
3
72
13
73
9
74
7
42
0.0000001000
43
0.0000001000
44
0.0000000001
12
0.0000000000
22
1.0295482093
32
0.0000000000
13
0.9208559129
23
0.4604279564
33
0.0000000000
40
0.0000000000
40
0.0000000000
40
0.0000000000
40
0.0000000000
40
0.1614219316
40
0.3342559043
40
0.5116973510
40
0.6862432064
40
0.8508246292
40
1.0000000000
40
1.0000000000
40
1.0000000000
40
1.0000000000
10
-29.1506633362
20
47.5977783837
30
0.0000000000
10
-29.1506633362
20
47.6531756039
30
0.0000000000
10
-29.1379757584
20
47.7680483038
30
0.0000000000
10
-29.0882834400
20
47.9372436305
30
0.0000000000
10
-29.0103519833
20
48.1004651414
30
0.0000000000
10
-28.9091983342
20
48.2470338098
30
0.0000000000
10
-28.7914512986
20
48.3674335581
30
0.0000000000
10
-28.7014782634
20
48.4285887027
30
0.0000000000
10
-28.6556885894
20
48.4514835398
30
0.0000000000
11
-29.1506633362
21
47.5977783837
31
0.0000000000
11
-29.1337974807
21
47.7631120191
31
0.0000000000
11
-29.0843492943
21
47.9340442960
31
0.0000000000
11
-29.0056885894
21
48.0989264621
31
0.0000000000
11
-28.9031759628
21
48.2465220704
31
0.0000000000
11
-28.7837974807
21
48.3667727241
31
0.0000000000
11
-28.6556885894
21
48.4514835398
31
0.0000000000
0
SPLINE
5
331
100
AcDbEntity
8
0
100
AcDbSpline
62
7
6
CONTINUOUS
70
0
71
3
72
15
73
11
74
9
42
0.0000001000
43
0.0000001000
44
0.0000000001
12
0.2495447045
22
-0.1247723523
32
0.0000000000
13
0.0191971987
23
-0.2783382241
33
0.0000000000
40
0.0000000000
40
0.0000000000
40
0.0000000000
40
0.0000000000
40
0.1096655338
40
0.2281053033
40
0.3536807021
40
0.4841159681
40
0.6167482564
40
0.7487500837
40
0.8773406044
40
1.0000000000
40
1.0000000000
40
1.0000000000
40
1.0000000000
10
-27.6892618759
20
46.6072700324
30
0.0000000000
10
-27.6801397248
20
46.6027089569
30
0.0000000000
10
-27.6620385064
20
46.5914230853
30
0.0000000000
10
-27.6370030112
20
46.5699366462
30
0.0000000000
10
-27.6137364036
20
46.5438995395
30
0.0000000000
10
-27.5930167556
20
46.5141850529
30
0.0000000000
10
-27.5755287572
20
46.4817841110
30
0.0000000000
10
-27.5618580161
20
46.4477785807
30
0.0000000000
10
-27.5524630745
20
46.4133145843
30
0.0000000000
10
-27.5491635762
20
46.3900994326
30
0.0000000000
10
-27.5483786706
20
46.3787191665
30
0.0000000000
11
-27.6892618759
21
46.6072700324
31
0.0000000000
11
-27.6631865752
21
46.5912627795
31
0.0000000000
11
-27.6380053970
21
46.5698652105
31
0.0000000000
11
-27.6145818043
21
46.5438110483
31
0.0000000000
11
-27.5937189925
21
46.5139936906
31
0.0000000000
11
-27.5761323478
21
46.4814355752
31
0.0000000000
11
-27.5624249164
21
46.4472531203
31
0.0000000000
11
-27.5530667266
21
46.4126184428
31
0.0000000000
11
-27.5483786706
21
46.3787191665
31
0.0000000000
0
SPLINE
5
332
100
AcDbEntity
8
0
100
AcDbSpline
62
7
6
CONTINUOUS
70
0
71
3
72
15
73
11
74
9
42
0.0000001000
43
0.0000001000
44
0.0000000001
12
-0.2830840723
22
-0.0288905041
32
0.0000000000
13
-0.2545132660
23
0.1272566330
33
0.0000000000
40
0.0000000000
40
0.0000000000
40
0.0000000000
40
0.0000000000
40
0.1018680046
40
0.2189296968
40
0.3474096568
40
0.4829133080
40
0.6206942281
40
0.7558954912
40
0.8837854688
40
1.0000000000
40
1.0000000000
40
1.0000000000
40
1.0000000000
10
-20.3894609033
20
45.0009411306
30
0.0000000000
10
-20.3990733065
20
44.9999601246
30
0.0000000000
10
-20.4198692892
20
44.9991855737
30
0.0000000000
10
-20.4528094978
20
45.0007605306
30
0.0000000000
10
-20.4887335115
20
45.0049594175
30
0.0000000000
10
-20.5262728933
20
45.0116350840
30
0.0000000000
10
-20.5640013107
20
45.0205408534
30
0.0000000000
10
-20.6004823885
20
45.0313372151
30
0.0000000000
10
-20.6343262042
20
45.0436065913
30
0.0000000000
10
-20.6555225820
20
45.0529955810
30
0.0000000000
10
-20.6653819619
20
45.0579252710
30
0.0000000000
11
-20.3894609033
21
45.0009411306
31
0.0000000000
11
-20.4184178653
21
44.9996219018
31
0.0000000000
11
-20.4516967708
21
45.0010707419
31
0.0000000000
11
-20.4880187303
21
45.0052319728
31
0.0000000000
11
-20.5259879112
21
45.0119456808
31
0.0000000000
11
-20.5641451791
21
45.0209538618
31
0.0000000000
11
-20.6010241717
21
45.0319103364
31
0.0000000000
11
-20.6352076499
21
45.0443940536
31
0.0000000000
11
-20.6653819619
21
45.0579252710
31
0.0000000000
0
SPLINE
5
333
100
AcDbEntity
8
0
100
AcDbSpline
62
7
6
CONTINUOUS
70
0
71
3
72
15
73
11
74
9
42
0.0000001000
43
0.0000001000
44
0.0000000001
12
-0.2830840723
22
-0.0288905041
32
0.0000000000
13
-0.2545132660
23
0.1272566330
33
0.0000000000
40
0.0000000000
40
0.0000000000
40
0.0000000000
40
0.0000000000
40
0.1018680046
40
0.2189296968
40
0.3474096568
40
0.4829133080
40
0.6206942281
40
0.7558954912
40
0.8837854688
40
1.0000000000
40
1.0000000000
40
1.0000000000
40
1.0000000000
10
-24.4199695561
20
47.0161954570
30
0.0000000000
10
-24.4295819593
20
47.0152144510
30
0.0000000000
10
-24.4503779419
20
47.0144399001
30
0.0000000000
10
-24.4833181505
20
47.0160148570
30
0.0000000000
10
-24.5192421642
20
47.0202137439
30
0.0000000000
10
-24.5567815460
20
47.0268894104
30
0.0000000000
10
-24.5945099634
20
47.0357951798
30
0.0000000000
10
-24.6309910412
20
47.0465915415
30
0.0000000000
10
-24.6648348569
20
47.0588609177
30
0.0000000000
10
-24.6860312347
20
47.0682499074
30
0.0000000000
10
-24.6958906147
20
47.0731795974
30
0.0000000000
11
-24.4199695561
21
47.0161954570
31
0.0000000000
11
-24.4489265180
21
47.0148762282
31
0.0000000000
11
-24.4822054236
21
47.0163250683
31
0.0000000000
11
-24.5185273831
21
47.0204862992
31
0.0000000000
11
-24.5564965639
21
47.0272000072
31
0.0000000000
11
-24.5946538319
21
47.0362081882
31
0.0000000000
11
-24.6315328245
21
47.0471646628
31
0.0000000000
11
-24.6657163027
21
47.0596483800
31
0.0000000000
11
-24.6958906147
21
47.0731795974
31
0.0000000000
0
SPLINE
5
334
100
AcDbEntity
8
0
100
AcDbSpline
62
7
6
CONTINUOUS
70
0
71
3
72
12
73
8
74
6
42
0.0000001000
43
0.0000001000
44
0.0000000001
12
-0.0794482303
22
0.0397241152
32
0.0000000000
13
0.0209848366
23
0.0881877676
33
0.0000000000
40
0.0000000000
40
0.0000000000
40
0.0000000000
40
0.0000000000
40
0.3229543341
40
0.5878371421
40
0.7912834233
40
0.9408237800
40
1.0000000000
40
1.0000000000
40
1.0000000000
40
1.0000000000
10
-22.7159916274
20
46.0832301037
30
0.0000000000
10
-22.7245443442
20
46.0875064621
30
0.0000000000
10
-22.7398100639
20
46.0959116108
30
0.0000000000
10
-22.7589277984
20
46.1096646574
30
0.0000000000
10
-22.7716325312
20
46.1228877132
30
0.0000000000
10
-22.7771298581
20
46.1344741667
30
0.0000000000
10
-22.7765288849
20
46.1408013812
30
0.0000000000
10
-22.7761149505
20
46.1425409208
30
0.0000000000
11
-22.7159916274
21
46.0832301037
31
0.0000000000
11
-22.7409971912
21
46.0972888242
31
0.0000000000
11
-22.7598730572
21
46.1113347792
31
0.0000000000
11
-22.7718938362
21
46.1248281903
31
0.0000000000
11
-22.7765975766
21
46.1372505135
31
0.0000000000
11
-22.7761149505
21
46.1425409208
31
0.0000000000
0
SPLINE
5
335
100
AcDbEntity
8
0
100
AcDbSpline
62
7
6
CONTINUOUS
70
0
71
3
72
12
73
8
74
6
42
0.0000001000
43
0.0000001000
44
0.0000000001
12
-0.0794482303
22
0.0397241152
32
0.0000000000
13
0.0209848366
23
0.0881877676
33
0.0000000000
40
0.0000000000
40
0.0000000000
40
0.0000000000
40
0.0000000000
40
0.3229543341
40
0.5878371421
40
0.7912834233
40
0.9408237800
40
1.0000000000
40
1.0000000000
40
1.0000000000
40
1.0000000000
10
-26.7465002801
20
48.0984844301
30
0.0000000000
10
-26.7550529969
20
48.1027607885
30
0.0000000000
10
-26.7703187167
20
48.1111659372
30
0.0000000000
10
-26.7894364512
20
48.1249189837
30
0.0000000000
10
-26.8021411839
20
48.1381420395
30
0.0000000000
10
-26.8076385109
20
48.1497284931
30
0.0000000000
10
-26.8070375377
20
48.1560557076
30
0.0000000000
10
-26.8066236032
20
48.1577952472
30
0.0000000000
11
-26.7465002801
21
48.0984844301
31
0.0000000000
11
-26.7715058440
21
48.1125431506
31
0.0000000000
11
-26.7903817099
21
48.1265891056
31
0.0000000000
11
-26.8024024890
21
48.1400825167
31
0.0000000000
11
-26.8071062294
21
48.1525048399
31
0.0000000000
11
-26.8066236032
21
48.1577952472
31
0.0000000000
0
SPLINE
5
336
100
AcDbEntity
8
0
100
AcDbSpline
62
7
6
CONTINUOUS
70
0
71
3
72
11
73
7
74
5
42
0.0000001000
43
0.0000001000
44
0.0000000001
12
0.0145939321
22
0.0613302985
32
0.0000000000
13
0.0614548224
23
0.0062718499
33
0.0000000000
40
0.0000000000
40
0.0000000000
40
0.0000000000
40
0.0000000000
40
0.0966540175
40
0.3156819854
40
0.6136554429
40
1.0000000000
40
1.0000000000
40
1.0000000000
40
1.0000000000
10
-16.5182199370
20
45.6956172554
30
0.0000000000
10
-16.5177497496
20
45.6975931953
30
0.0000000000
10
-16.5151877414
20
45.7038176563
30
0.0000000000
10
-16.5045588375
20
45.7116861986
30
0.0000000000
10
-16.4869437649
20
45.7177618380
30
0.0000000000
10
-16.4729325131
20
45.7199359558
30
0.0000000000
10
-16.4650182677
20
45.7207436542
30
0.0000000000
11
-16.5182199370
21
45.6956172554
31
0.0000000000
11
-16.5159085027
21
45.7012007004
31
0.0000000000
11
-16.5057240157
21
45.7101082057
31
0.0000000000
11
-16.4885404863
21
45.7167070536
31
0.0000000000
11
-16.4650182677
21
45.7207436542
31
0.0000000000
0
SPLINE
5
337
100
AcDbEntity
8
0
100
AcDbSpline
62
7
6
CONTINUOUS
70
0
71
3
72
11
73
7
74
5
42
0.0000001000
43
0.0000001000
44
0.0000000001
12
0.0145939321
22
0.0613302985
32
0.0000000000
13
0.0614548224
23
0.0062718499
33
0.0000000000
40
0.0000000000
40
0.0000000000
40
0.0000000000
40
0.0000000000
40
0.0966540175
40
0.3156819854
40
0.6136554429
40
1.0000000000
40
1.0000000000
40
1.0000000000
40
1.0000000000
10
-26.8066236032
20
48.1577952472
30
0.0000000000
10
-26.8061534158
20
48.1597711871
30
0.0000000000
10
-26.8035914077
20
48.1659956481
30
0.0000000000
10
-26.7929625037
20
48.1738641904
30
0.0000000000
10
-26.7753474312
20
48.1799398297
30
0.0000000000
10
-26.7613361794
20
48.1821139476
30
0.0000000000
10
-26.7534219340
20
48.1829216459
30
0.0000000000
11
-26.8066236032
21
48.1577952472
31
0.0000000000
11
-26.8043121690
21
48.1633786922
31
0.0000000000
11
-26.7941276820
21
48.1722861975
31
0.0000000000
11
-26.7769441525
21
48.1788850454
31
0.0000000000
11
-26.7534219340
21
48.1829216459
31
0.0000000000
0
SPLINE
5
338
100
AcDbEntity
8
0
100
AcDbSpline
62
7
6
CONTINUOUS
70
0
71
3
72
12
73
8
74
6
42
0.0000001000
43
0.0000001000
44
0.0000000001
12
0.0794482303
22
-0.0397241152
32
0.0000000000
13
-0.0209848366
23
-0.0881877676
33
0.0000000000
40
0.0000000000
40
0.0000000000
40
0.0000000000
40
0.0000000000
40
0.3229543341
40
0.5878371421
40
0.7912834233
40
0.9408237800
40
1.0000000000
40
1.0000000000
40
1.0000000000
40
1.0000000000
10
-18.4461368725
20
45.2844131435
30
0.0000000000
10
-18.4375841557
20
45.2801367851
30
0.0000000000
10
-18.4223184359
20
45.2717316364
30
0.0000000000
10
-18.4032007014
20
45.2579785899
30
0.0000000000
10
-18.3904959687
20
45.2447555341
30
0.0000000000
10
-18.3849986417
20
45.2331690805
30
0.0000000000
10
-18.3855996149
20
45.2268418660
30
0.0000000000
10
-18.3860135494
20
45.2251023264
30
0.0000000000
11
-18.4461368725
21
45.2844131435
31
0.0000000000
11
-18.4211313086
21
45.2703544230
31
0.0000000000
11
-18.4022554427
21
45.2563084681
31
0.0000000000
11
-18.3902346636
21
45.2428150569
31
0.0000000000
11
-18.3855309232
21
45.2303927337
31
0.0000000000
11
-18.3860135494
21
45.2251023264
31
0.0000000000
0
SPLINE
5
339
100
AcDbEntity
8
0
100
AcDbSpline
62
7
6
CONTINUOUS
70
0
71
3
72
12
73
8
74
6
42
0.0000001000
43
0.0000001000
44
0.0000000001
12
0.0794482303
22
-0.0397241152
32
0.0000000000
13
-0.0209848366
23
-0.0881877676
33
0.0000000000
40
0.0000000000
40
0.0000000000
40
0.0000000000
40
0.0000000000
40
0.3229543341
40
0.5878371421
40
0.7912834233
40
0.9408237800
40
1.0000000000
40
1.0000000000
40
1.0000000000
40
1.0000000000
10
-22.4766455252
20
47.2996674699
30
0.0000000000
10
-22.4680928085
20
47.2953911115
30
0.0000000000
10
-22.4528270887
20
47.2869859628
30
0.0000000000
10
-22.4337093542
20
47.2732329162
30
0.0000000000
10
-22.4210046214
20
47.2600098605
30
0.0000000000
10
-22.4155072945
20
47.2484234069
30
0.0000000000
10
-22.4161082677
20
47.2420961924
30
0.0000000000
10
-22.4165222021
20
47.2403566528
30
0.0000000000
11
-22.4766455252
21
47.2996674699
31
0.0000000000
11
-22.4516399614
21
47.2856087494
31
0.0000000000
11
-22.4327640954
21
47.2715627944
31
0.0000000000
11
-22.4207433164
21
47.2580693833
31
0.0000000000
11
-22.4160395760
21
47.2456470601
31
0.0000000000
11
-22.4165222021
21
47.2403566528
31
0.0000000000
0
SPLINE
5
33A
100
AcDbEntity
8
0
100
AcDbSpline
62
7
6
CONTINUOUS
70
0
71
3
72
15
73
11
74
9
42
0.0000001000
43
0.0000001000
44
0.0000000001
12
0.2830840723
22
0.0288905041
32
0.0000000000
13
0.2545132660
23
-0.1272566330
33
0.0000000000
40
0.0000000000
40
0.0000000000
40
0.0000000000
40
0.0000000000
40
0.1018680046
40
0.2189296968
40
0.3474096568
40
0.4829133080
40
0.6206942281
40
0.7558954912
40
0.8837854688
40
1.0000000000
40
1.0000000000
40
1.0000000000
40
1.0000000000
10
-20.7726675965
20
46.3667021166
30
0.0000000000
10
-20.7630551933
20
46.3676831226
30
0.0000000000
10
-20.7422592107
20
46.3684576735
30
0.0000000000
10
-20.7093190021
20
46.3668827166
30
0.0000000000
10
-20.6733949884
20
46.3626838297
30
0.0000000000
10
-20.6358556066
20
46.3560081632
30
0.0000000000
10
-20.5981271892
20
46.3471023938
30
0.0000000000
10
-20.5616461114
20
46.3363060321
30
0.0000000000
10
-20.5278022957
20
46.3240366559
30
0.0000000000
10
-20.5066059179
20
46.3146476662
30
0.0000000000
10
-20.4967465379
20
46.3097179762
30
0.0000000000
11
-20.7726675965
21
46.3667021166
31
0.0000000000
11
-20.7437106346
21
46.3680213454
31
0.0000000000
11
-20.7104317290
21
46.3665725053
31
0.0000000000
11
-20.6741097695
21
46.3624112744
31
0.0000000000
11
-20.6361405887
21
46.3556975664
31
0.0000000000
11
-20.5979833207
21
46.3466893854
31
0.0000000000
11
-20.5611043281
21
46.3357329108
31
0.0000000000
11
-20.5269208499
21
46.3232491936
31
0.0000000000
11
-20.4967465379
21
46.3097179762
31
0.0000000000
0
SPLINE
5
33B
100
AcDbEntity
8
0
100
AcDbSpline
62
7
6
CONTINUOUS
70
0
71
3
72
15
73
11
74
9
42
0.0000001000
43
0.0000001000
44
0.0000000001
12
0.2830840723
22
0.0288905041
32
0.0000000000
13
0.2545132660
23
-0.1272566330
33
0.0000000000
40
0.0000000000
40
0.0000000000
40
0.0000000000
40
0.0000000000
40
0.1018680046
40
0.2189296968
40
0.3474096568
40
0.4829133080
40
0.6206942281
40
0.7558954912
40
0.8837854688
40
1.0000000000
40
1.0000000000
40
1.0000000000
40
1.0000000000
10
-24.8031762493
20
48.3819564430
30
0.0000000000
10
-24.7935638461
20
48.3829374490
30
0.0000000000
10
-24.7727678634
20
48.3837119999
30
0.0000000000
10
-24.7398276548
20
48.3821370430
30
0.0000000000
10
-24.7039036411
20
48.3779381561
30
0.0000000000
10
-24.6663642593
20
48.3712624896
30
0.0000000000
10
-24.6286358419
20
48.3623567202
30
0.0000000000
10
-24.5921547642
20
48.3515603585
30
0.0000000000
10
-24.5583109484
20
48.3392909823
30
0.0000000000
10
-24.5371145706
20
48.3299019926
30
0.0000000000
10
-24.5272551907
20
48.3249723026
30
0.0000000000
11
-24.8031762493
21
48.3819564430
31
0.0000000000
11
-24.7742192873
21
48.3832756718
31
0.0000000000
11
-24.7409403818
21
48.3818268317
31
0.0000000000
11
-24.7046184223
21
48.3776656008
31
0.0000000000
11
-24.6666492414
21
48.3709518928
31
0.0000000000
11
-24.6284919735
21
48.3619437118
31
0.0000000000
11
-24.5916129809
21
48.3509872372
31
0.0000000000
11
-24.5574295027
21
48.3385035200
31
0.0000000000
11
-24.5272551907
21
48.3249723026
31
0.0000000000
0
SPLINE
5
33C
100
AcDbEntity
8
0
100
AcDbSpline
62
7
6
CONTINUOUS
70
0
71
3
72
10
73
6
74
4
42
0.0000001000
43
0.0000001000
44
0.0000000001
12
0.1437626329
22
0.0718813165
32
0.0000000000
13
0.1599009443
23
0.0163188937
33
0.0000000000
40
0.0000000000
40
0.0000000000
40
0.0000000000
40
0.0000000000
40
0.3511381091
40
0.6840818606
40
1.0000000000
40
1.0000000000
40
1.0000000000
40
1.0000000000
10
-19.8068390825
20
44.3906269190
30
0.0000000000
10
-19.7900122361
20
44.3990403421
30
0.0000000000
10
-19.7563772459
20
44.4138128774
30
0.0000000000
10
-19.7050868067
20
44.4296912027
30
0.0000000000
10
-19.6707220102
20
44.4357158349
30
0.0000000000
10
-19.6538834740
20
44.4374343131
30
0.0000000000
11
-19.8068390825
21
44.3906269190
31
0.0000000000
11
-19.7551001329
21
44.4131754693
31
0.0000000000
11
-19.7039280460
21
44.4288351242
31
0.0000000000
11
-19.6538834740
21
44.4374343131
31
0.0000000000
0
SPLINE
5
33D
100
AcDbEntity
8
0
100
AcDbSpline
62
7
6
CONTINUOUS
70
0
71
3
72
11
73
7
74
5
42
0.0000001000
43
0.0000001000
44
0.0000000001
12
0.0145939321
22
0.0613302985
32
0.0000000000
13
0.0614548224
23
0.0062718499
33
0.0000000000
40
0.0000000000
40
0.0000000000
40
0.0000000000
40
0.0000000000
40
0.0966540175
40
0.3156819854
40
0.6136554429
40
1.0000000000
40
1.0000000000
40
1.0000000000
40
1.0000000000
10
-22.7761149505
20
46.1425409208
30
0.0000000000
10
-22.7756447631
20
46.1445168607
30
0.0000000000
10
-22.7730827549
20
46.1507413217
30
0.0000000000
10
-22.7624538510
20
46.1586098640
30
0.0000000000
10
-22.7448387784
20
46.1646855033
30
0.0000000000
10
-22.7308275266
20
46.1668596212
30
0.0000000000
10
-22.7229132812
20
46.1676673195
30
0.0000000000
11
-22.7761149505
21
46.1425409208
31
0.0000000000
11
-22.7738035162
21
46.1481243658
31
0.0000000000
11
-22.7636190292
21
46.1570318711
31
0.0000000000
11
-22.7464354998
21
46.1636307190
31
0.0000000000
11
-22.7229132812
21
46.1676673195
31
0.0000000000
0
SPLINE
5
33E
100
AcDbEntity
8
0
100
AcDbSpline
62
7
6
CONTINUOUS
70
0
71
3
72
13
73
9
74
7
42
0.0000001000
43
0.0000001000
44
0.0000000001
12
0.0000000000
22
1.0295482093
32
0.0000000000
13
0.9208559129
23
0.4604279564
33
0.0000000000
40
0.0000000000
40
0.0000000000
40
0.0000000000
40
0.0000000000
40
0.1614219316
40
0.3342559043
40
0.5116973510
40
0.6862432064
40
0.8508246292
40
1.0000000000
40
1.0000000000
40
1.0000000000
40
1.0000000000
10
-20.6653819619
20
43.3551376966
30
0.0000000000
10
-20.6653819619
20
43.4105349168
30
0.0000000000
10
-20.6526943841
20
43.5254076167
30
0.0000000000
10
-20.6030020657
20
43.6946029434
30
0.0000000000
10
-20.5250706091
20
43.8578244543
30
0.0000000000
10
-20.4239169599
20
44.0043931227
30
0.0000000000
10
-20.3061699243
20
44.1247928710
30
0.0000000000
10
-20.2161968892
20
44.1859480156
30
0.0000000000
10
-20.1704072151
20
44.2088428527
30
0.0000000000
11
-20.6653819619
21
43.3551376966
31
0.0000000000
11
-20.6485161064
21
43.5204713320
31
0.0000000000
11
-20.5990679201
21
43.6914036088
31
0.0000000000
11
-20.5204072151
21
43.8562857750
31
0.0000000000
11
-20.4178945885
21
44.0038813833
31
0.0000000000
11
-20.2985161064
21
44.1241320370
31
0.0000000000
11
-20.1704072151
21
44.2088428527
31
0.0000000000
0
SPLINE
5
33F
100
AcDbEntity
8
0
100
AcDbSpline
62
7
6
CONTINUOUS
70
0
71
3
72
12
73
8
74
6
42
0.0000001000
43
0.0000001000
44
0.0000000001
12
0.0082175243
22
0.1109275219
32
0.0000000000
13
0.0998959363
23
0.0498775528
33
0.0000000000
40
0.0000000000
40
0.0000000000
40
0.0000000000
40
0.0000000000
40
0.2659770126
40
0.5082935587
40
0.7298118726
40
0.9374528333
40
1.0000000000
40
1.0000000000
40
1.0000000000
40
1.0000000000
10
-22.2676666275
20
43.7383631449
30
0.0000000000
10
-22.2669380700
20
43.7481978686
30
0.0000000000
10
-22.2640849076
20
43.7669412876
30
0.0000000000
10
-22.2548834493
20
43.7925978619
30
0.0000000000
10
-22.2411087210
20
43.8136672647
30
0.0000000000
10
-22.2271037874
20
43.8257552643
30
0.0000000000
10
-22.2183163071
20
43.8306622052
30
0.0000000000
10
-22.2162335711
20
43.8317021051
30
0.0000000000
11
-22.2676666275
21
43.7383631449
31
0.0000000000
11
-22.2629785716
21
43.7675743653
31
0.0000000000
11
-22.2536203817
21
43.7928508529
31
0.0000000000
11
-22.2399129504
21
43.8133258765
31
0.0000000000
11
-22.2223263056
21
43.8282973472
31
0.0000000000
11
-22.2162335711
21
43.8317021051
31
0.0000000000
0
SPLINE
5
340
100
AcDbEntity
8
0
100
AcDbSpline
62
9
6
CONTINUOUS
70
0
71
3
72
8
73
4
74
2
42
0.0000001000
43
0.0000001000
44
0.0000000001
12
-0.0177240980
22
0.0088991910
32
0.0000000000
13
-0.0172332740
23
0.0098369267
33
0.0000000000
40
0.0000000000
40
0.0000000000
40
0.0000000000
40
0.0000000000
40
1.0000000000
40
1.0000000000
40
1.0000000000
40
1.0000000000
10
-39.6189189140
20
10.3286304621
30
0.0000000000
10
-39.6248269466
20
10.3315968591
30
0.0000000000
10
-39.6306569648
20
10.3347230273
30
0.0000000000
10
-39.6364013895
20
10.3380020029
30
0.0000000000
11
-39.6189189140
21
10.3286304621
31
0.0000000000
11
-39.6364013895
21
10.3380020029
31
0.0000000000
0
SPLINE
5
341
100
AcDbEntity
8
0
100
AcDbSpline
62
7
6
CONTINUOUS
70
0
71
3
72
8
73
4
74
2
42
0.0000001000
43
0.0000001000
44
0.0000000001
12
-0.0218458567
22
-0.0723828435
32
0.0000000000
13
0.0000000000
23
-0.0750578515
33
0.0000000000
40
0.0000000000
40
0.0000000000
40
0.0000000000
40
0.0000000000
40
1.0000000000
40
1.0000000000
40
1.0000000000
40
1.0000000000
10
-37.1768310112
20
42.8796039731
30
0.0000000000
10
-37.1841129635
20
42.8554763586
30
0.0000000000
10
-37.1869954522
20
42.8302532607
30
0.0000000000
10
-37.1869954522
20
42.8052339768
30
0.0000000000
11
-37.1768310112
21
42.8796039731
31
0.0000000000
11
-37.1869954522
21
42.8052339768
31
0.0000000000
0
SPLINE
5
342
100
AcDbEntity
8
0
100
AcDbSpline
62
7
6
CONTINUOUS
70
0
71
3
72
10
73
6
74
4
42
0.0000001000
43
0.0000001000
44
0.0000000001
12
0.0000000000
22
-0.1898618032
32
0.0000000000
13
-0.1718415122
23
-0.0839506804
33
0.0000000000
40
0.0000000000
40
0.0000000000
40
0.0000000000
40
0.0000000000
40
0.3989307140
40
0.7406042821
40
1.0000000000
40
1.0000000000
40
1.0000000000
40
1.0000000000
10
-18.4026402621
20
3.1307401657
30
0.0000000000
10
-18.4026402621
20
3.1054929308
30
0.0000000000
10
-18.4080894810
20
3.0582368075
30
0.0000000000
10
-18.4363609933
20
2.9996766708
30
0.0000000000
10
-18.4672218727
20
2.9750647759
30
0.0000000000
10
-18.4820801901
20
2.9678059602
30
0.0000000000
11
-18.4026402621
21
3.1307401657
31
0.0000000000
11
-18.4130048378
21
3.0557109620
31
0.0000000000
11
-18.4431681589
21
2.9982793546
31
0.0000000000
11
-18.4820801901
21
2.9678059602
31
0.0000000000
0
SPLINE
5
343
100
AcDbEntity
8
0
100
AcDbSpline
62
7
6
CONTINUOUS
70
0
71
3
72
10
73
6
74
4
42
0.0000001000
43
0.0000001000
44
0.0000000001
12
0.1224135994
22
-0.0612067997
32
0.0000000000
13
0.1238725731
23
0.0605161504
33
0.0000000000
40
0.0000000000
40
0.0000000000
40
0.0000000000
40
0.0000000000
40
0.5001726944
40
0.9372637284
40
1.0000000000
40
1.0000000000
40
1.0000000000
40
1.0000000000
10
-20.0537033621
20
2.2822505321
30
0.0000000000
10
-20.0332940488
20
2.2720458755
30
0.0000000000
10
-19.9918607178
20
2.2578809273
30
0.0000000000
10
-19.9445806260
20
2.2625080148
30
0.0000000000
10
-19.9235693765
20
2.2717762546
30
0.0000000000
10
-19.9209789421
20
2.2730417738
30
0.0000000000
11
-20.0537033621
21
2.2822505321
31
0.0000000000
11
-19.9882517404
21
2.2621965800
31
0.0000000000
11
-19.9288851541
21
2.2695592103
31
0.0000000000
11
-19.9209789421
21
2.2730417738
31
0.0000000000
0
SPLINE
5
344
100
AcDbEntity
8
0
100
AcDbSpline
62
7
6
CONTINUOUS
70
0
71
3
72
12
73
8
74
6
42
0.0000001000
43
0.0000001000
44
0.0000000001
12
0.3185957208
22
-0.2344733337
32
0.0000000000
13
0.0000000000
23
-0.3939489553
33
0.0000000000
40
0.0000000000
40
0.0000000000
40
0.0000000000
40
0.0000000000
40
0.0827741901
40
0.3094915316
40
0.5464810336
40
0.7816456346
40
1.0000000000
40
1.0000000000
40
1.0000000000
40
1.0000000000
10
-18.5747285140
20
35.1684558837
30
0.0000000000
10
-18.5659380131
20
35.1619864370
30
0.0000000000
10
-18.5343009625
20
35.1360427922
30
0.0000000000
10
-18.4867761503
20
35.0816674548
30
0.0000000000
10
-18.4406064732
20
35.0016840371
30
0.0000000000
10
-18.4105594357
20
34.9155958923
30
0.0000000000
10
-18.4026402621
20
34.8559434356
30
0.0000000000
10
-18.4026402621
20
34.8272699442
30
0.0000000000
11
-18.5747285140
21
35.1684558837
31
0.0000000000
11
-18.5493529885
21
35.1477620698
31
0.0000000000
11
-18.4899864022
21
35.0810328532
31
0.0000000000
11
-18.4431681589
21
35.0002586520
31
0.0000000000
11
-18.4130048378
21
34.9126637235
31
0.0000000000
11
-18.4026402621
21
34.8272699442
31
0.0000000000
0
SPLINE
5
345
100
AcDbEntity
8
0
100
AcDbSpline
62
7
6
CONTINUOUS
70
0
71
3
72
12
73
8
74
6
42
0.0000001000
43
0.0000001000
44
0.0000000001
12
0.0000000000
22
0.3949244514
32
0.0000000000
13
-0.3200997502
23
0.2340299288
33
0.0000000000
40
0.0000000000
40
0.0000000000
40
0.0000000000
40
0.0000000000
40
0.2178150120
40
0.4523987370
40
0.6888028552
40
0.9149601862
40
1.0000000000
40
1.0000000000
40
1.0000000000
40
1.0000000000
10
-19.8415390141
20
34.1325057578
30
0.0000000000
10
-19.8415390141
20
34.1611792492
30
0.0000000000
10
-19.8494581876
20
34.2208317059
30
0.0000000000
10
-19.8795052251
20
34.3069198507
30
0.0000000000
10
-19.9256749022
20
34.3869032684
30
0.0000000000
10
-19.9734150575
20
34.4415249897
30
0.0000000000
10
-20.0053433147
20
34.4676370831
30
0.0000000000
10
-20.0144170557
20
34.4742710370
30
0.0000000000
11
-19.8415390141
21
34.1325057578
31
0.0000000000
11
-19.8519035897
21
34.2178995371
31
0.0000000000
11
-19.8820669108
21
34.3054944656
31
0.0000000000
11
-19.9288851541
21
34.3862686668
31
0.0000000000
11
-19.9882517404
21
34.4529978834
31
0.0000000000
11
-20.0144170557
21
34.4742710370
31
0.0000000000
0
SPLINE
5
346
100
AcDbEntity
8
0
100
AcDbSpline
62
9
6
CONTINUOUS
70
0
71
3
72
8
73
4
74
2
42
0.0000001000
43
0.0000001000
44
0.0000000001
12
-0.0177240980
22
0.0088991910
32
0.0000000000
13
-0.0172332740
23
0.0098369267
33
0.0000000000
40
0.0000000000
40
0.0000000000
40
0.0000000000
40
0.0000000000
40
1.0000000000
40
1.0000000000
40
1.0000000000
40
1.0000000000
10
-39.6189189140
20
10.3286304621
30
0.0000000000
10
-39.6248269466
20
10.3315968591
30
0.0000000000
10
-39.6306569648
20
10.3347230273
30
0.0000000000
10
-39.6364013895
20
10.3380020029
30
0.0000000000
11
-39.6189189140
21
10.3286304621
31
0.0000000000
11
-39.6364013895
21
10.3380020029
31
0.0000000000
0
SPLINE
5
347
100
AcDbEntity
8
0
100
AcDbSpline
62
9
6
CONTINUOUS
70
0
71
3
72
11
73
7
74
5
42
0.0000001000
43
0.0000001000
44
0.0000000001
12
-0.5006127860
22
0.2857548300
32
0.0000000000
13
-0.0185923097
23
0.5726984615
33
0.0000000000
40
0.0000000000
40
0.0000000000
40
0.0000000000
40
0.0000000000
40
0.1438199503
40
0.3989402652
40
0.6821929509
40
1.0000000000
40
1.0000000000
40
1.0000000000
40
1.0000000000
10
-39.6364013895
20
10.3380020029
30
0.0000000000
10
-39.6604007582
20
10.3517010847
30
0.0000000000
10
-39.7228281317
20
10.3970992143
30
0.0000000000
10
-39.8026503521
20
10.5031423568
30
0.0000000000
10
-39.8593364155
20
10.6584206253
30
0.0000000000
10
-39.8731747862
20
10.7733280434
30
0.0000000000
10
-39.8751443753
20
10.8339972461
30
0.0000000000
11
-39.6364013895
21
10.3380020029
31
0.0000000000
11
-39.7033648372
21
10.3865929293
31
0.0000000000
11
-39.7932171677
21
10.5019025832
31
0.0000000000
11
-39.8512841371
21
10.6534636703
31
0.0000000000
11
-39.8751443753
21
10.8339972461
31
0.0000000000
0
SPLINE
5
348
100
AcDbEntity
8
0
100
AcDbSpline
62
9
6
CONTINUOUS
70
0
71
3
72
8
73
4
74
2
42
0.0000001000
43
0.0000001000
44
0.0000000001
12
-0.0035092812
22
0.1089861056
32
0.0000000000
13
-0.0034820504
23
0.1089870606
33
0.0000000000
40
0.0000000000
40
0.0000000000
40
0.0000000000
40
0.0000000000
40
1.0000000000
40
1.0000000000
40
1.0000000000
40
1.0000000000
10
-39.8751443753
20
10.8339972461
30
0.0000000000
10
-39.8763141357
20
10.8703259479
30
0.0000000000
10
-39.8774793567
20
10.9066548096
30
0.0000000000
10
-39.8786400402
20
10.9429838298
30
0.0000000000
11
-39.8751443753
21
10.8339972461
31
0.0000000000
11
-39.8786400402
21
10.9429838298
31
0.0000000000
0
SPLINE
5
349
100
AcDbEntity
8
0
100
AcDbSpline
62
9
6
CONTINUOUS
70
0
71
3
72
10
73
6
74
4
42
0.0000001000
43
0.0000001000
44
0.0000000001
12
-0.9239226999
22
28.9184839943
32
0.0000000000
13
0.9011325195
23
28.9191814747
33
0.0000000000
40
0.0000000000
40
0.0000000000
40
0.0000000000
40
0.0000000000
40
0.3271521954
40
0.6617692709
40
1.0000000000
40
1.0000000000
40
1.0000000000
40
1.0000000000
10
-39.8786400402
20
10.9429838298
30
0.0000000000
10
-39.9793944868
20
14.0965656722
30
0.0000000000
10
-40.1140376065
20
20.4781028966
30
0.0000000000
10
-40.1129255796
20
30.1231523055
30
0.0000000000
10
-39.9767412783
20
36.6114935755
30
0.0000000000
10
-39.8751443753
20
39.8719455206
30
0.0000000000
11
-39.8786400402
21
10.9429838298
31
0.0000000000
11
-40.0794332946
21
20.4064259294
31
0.0000000000
11
-40.0794332946
21
30.0879746810
31
0.0000000000
11
-39.8751443753
21
39.8719455206
31
0.0000000000
0
SPLINE
5
34A
100
AcDbEntity
8
0
100
AcDbSpline
62
9
6
CONTINUOUS
70
0
71
3
72
13
73
9
74
7
42
0.0000001000
43
0.0000001000
44
0.0000000001
12
0.0363802218
22
1.1596963618
32
0.0000000000
13
0.8510147856
23
0.7916872327
33
0.0000000000
40
0.0000000000
40
0.0000000000
40
0.0000000000
40
0.0000000000
40
0.1778411476
40
0.3666354406
40
0.5614762159
40
0.7551854642
40
0.9407393907
40
1.0000000000
40
1.0000000000
40
1.0000000000
40
1.0000000000
10
-39.8751443753
20
39.8719455206
30
0.0000000000
10
-39.8729877418
20
39.9406927645
30
0.0000000000
10
-39.8556790395
20
40.0821823508
30
0.0000000000
10
-39.7972322551
20
40.2920275780
30
0.0000000000
10
-39.7080229435
20
40.4974895281
30
0.0000000000
10
-39.5924979014
20
40.6879443581
30
0.0000000000
10
-39.4846822871
20
40.8195918748
30
0.0000000000
10
-39.4170460056
20
40.8861751803
30
0.0000000000
10
-39.4002354540
20
40.9018138029
30
0.0000000000
11
-39.8751443753
21
39.8719455206
31
0.0000000000
11
-39.8512889756
21
40.0769051056
31
0.0000000000
11
-39.7931770061
21
40.2881080239
31
0.0000000000
11
-39.7032843412
21
40.4955344685
31
0.0000000000
11
-39.5864408993
21
40.6875296754
31
0.0000000000
11
-39.4493542248
21
40.8535354562
31
0.0000000000
11
-39.4002354540
21
40.9018138029
31
0.0000000000
0
SPLINE
5
34B
100
AcDbEntity
8
0
100
AcDbSpline
62
9
6
CONTINUOUS
70
0
71
3
72
8
73
4
74
2
42
0.0000001000
43
0.0000001000
44
0.0000000001
12
0.0968622701
22
0.0901096243
32
0.0000000000
13
0.1066055931
23
0.0779449987
33
0.0000000000
40
0.0000000000
40
0.0000000000
40
0.0000000000
40
0.0000000000
40
1.0000000000
40
1.0000000000
40
1.0000000000
40
1.0000000000
10
-39.4002354540
20
40.9018138029
30
0.0000000000
10
-39.3679480307
20
40.9318503443
30
0.0000000000
10
-39.3340437716
20
40.9601207981
30
0.0000000000
10
-39.2985085739
20
40.9861024644
30
0.0000000000
11
-39.4002354540
21
40.9018138029
31
0.0000000000
11
-39.2985085739
21
40.9861024644
31
0.0000000000
0
SPLINE
5
34C
100
AcDbEntity
8
0
100
AcDbSpline
62
9
6
CONTINUOUS
70
0
71
3
72
9
73
5
74
3
42
0.0000001000
43
0.0000001000
44
0.0000000001
12
0.0050623277
22
-0.1426079820
32
0.0000000000
13
0.1279682056
23
-0.0640884600
33
0.0000000000
40
0.0000000000
40
0.0000000000
40
0.0000000000
40
0.0000000000
40
0.4342809748
40
1.0000000000
40
1.0000000000
40
1.0000000000
40
1.0000000000
10
-39.9630192098
20
10.9405748051
30
0.0000000000
10
-39.9622863856
20
10.9199308273
30
0.0000000000
10
-39.9404794582
20
10.8728730582
30
0.0000000000
10
-39.8992757223
20
10.8460826011
30
0.0000000000
10
-39.8751443728
20
10.8339972474
30
0.0000000000
11
-39.9630192098
21
10.9405748051
31
0.0000000000
11
-39.9396874808
21
10.8828806539
31
0.0000000000
11
-39.8751443728
21
10.8339972474
31
0.0000000000
0
SPLINE
5
34D
100
AcDbEntity
8
0
100
AcDbSpline
62
7
6
CONTINUOUS
70
0
71
3
72
12
73
8
74
6
42
0.0000001000
43
0.0000001000
44
0.0000000001
12
0.3964704662
22
-0.1982352331
32
0.0000000000
13
-0.0000000000
23
-0.4432674568
33
0.0000000000
40
0.0000000000
40
0.0000000000
40
0.0000000000
40
0.0000000000
40
0.1785754041
40
0.3798272698
40
0.5913709734
40
0.8025311286
40
1.0000000000
40
1.0000000000
40
1.0000000000
40
1.0000000000
10
-20.0530603814
20
34.2382664414
30
0.0000000000
10
-20.0294604234
20
34.2264664625
30
0.0000000000
10
-19.9832965956
20
34.1931495987
30
0.0000000000
10
-19.9256343594
20
34.1267554212
30
0.0000000000
10
-19.8795477104
20
34.0462369220
30
0.0000000000
10
-19.8494636684
20
33.9591458447
30
0.0000000000
10
-19.8415390141
20
33.8986668739
30
0.0000000000
10
-19.8415390141
20
33.8694896991
30
0.0000000000
11
-20.0530603814
21
34.2382664414
31
0.0000000000
11
-19.9880704075
21
34.1930770516
31
0.0000000000
11
-19.9289577550
21
34.1262651260
31
0.0000000000
11
-19.8822034388
21
34.0449821066
31
0.0000000000
11
-19.8519765684
21
33.9563966910
31
0.0000000000
11
-19.8415390141
21
33.8694896991
31
0.0000000000
0
SPLINE
5
34E
100
AcDbEntity
8
0
100
AcDbSpline
62
9
6
CONTINUOUS
70
0
71
3
72
11
73
7
74
5
42
0.0000001000
43
0.0000001000
44
0.0000000001
12
-0.0677840201
22
0.4301538112
32
0.0000000000
13
-0.3862004660
23
0.2011869149
33
0.0000000000
40
0.0000000000
40
0.0000000000
40
0.0000000000
40
0.0000000000
40
0.2376369871
40
0.5028452753
40
0.7665218010
40
1.0000000000
40
1.0000000000
40
1.0000000000
40
1.0000000000
10
-22.2133991624
20
32.2208213258
30
0.0000000000
10
-22.2187684925
20
32.2548948110
30
0.0000000000
10
-22.2417103213
20
32.3251719103
30
0.0000000000
10
-22.2975710784
20
32.4221033045
30
0.0000000000
10
-22.3702262804
20
32.5063701250
30
0.0000000000
10
-22.4285765487
20
32.5505071007
30
0.0000000000
10
-22.4586330117
20
32.5661646869
30
0.0000000000
11
-22.2133991624
21
32.2208213258
31
0.0000000000
11
-22.2435128599
21
32.3198246294
31
0.0000000000
11
-22.3006652335
21
32.4201795105
31
0.0000000000
11
-22.3761900829
21
32.5066657600
31
0.0000000000
11
-22.4586330117
21
32.5661646869
31
0.0000000000
0
SPLINE
5
34F
100
AcDbEntity
8
0
100
AcDbSpline
62
9
6
CONTINUOUS
70
0
71
3
72
13
73
9
74
7
42
0.0000001000
43
0.0000001000
44
0.0000000001
12
-1.0597537354
22
-0.7433341848
32
0.0000000000
13
-0.0416110831
23
-1.2937898623
33
0.0000000000
40
0.0000000000
40
0.0000000000
40
0.0000000000
40
0.0000000000
40
0.1563801507
40
0.3233808737
40
0.4972339195
40
0.6717817502
40
0.8407680109
40
1.0000000000
40
1.0000000000
40
1.0000000000
40
1.0000000000
10
-22.4586330147
20
32.5661646848
30
0.0000000000
10
-22.5138744977
20
32.5274171142
30
0.0000000000
10
-22.6204546747
20
32.4360716877
30
0.0000000000
10
-22.7597163859
20
32.2718936768
30
0.0000000000
10
-22.8781841230
20
32.0828021511
30
0.0000000000
10
-22.9696645625
20
31.8783505591
30
0.0000000000
10
-23.0295985953
20
31.6691112780
30
0.0000000000
10
-23.0473258174
20
31.5278114553
30
0.0000000000
10
-23.0495344226
20
31.4591405442
30
0.0000000000
11
-22.4586330147
21
32.5661646848
31
0.0000000000
11
-22.6132104264
21
32.4354635570
31
0.0000000000
11
-22.7536883435
21
32.2711533975
31
0.0000000000
11
-22.8734227883
21
32.0806036921
31
0.0000000000
11
-22.9655392215
21
31.8742891316
31
0.0000000000
11
-23.0250888804
21
31.6638050580
31
0.0000000000
11
-23.0495344226
21
31.4591405442
31
0.0000000000
0
SPLINE
5
350
100
AcDbEntity
8
0
100
AcDbSpline
62
9
6
CONTINUOUS
70
0
71
3
72
13
73
9
74
7
42
0.0000001000
43
0.0000001000
44
0.0000000001
12
-0.7442072050
22
-0.5175206671
32
0.0000000000
13
-0.0293279996
23
-0.9059866849
33
0.0000000000
40
0.0000000000
40
0.0000000000
40
0.0000000000
40
0.0000000000
40
0.1559374251
40
0.3233529078
40
0.4976738233
40
0.6724916377
40
0.8415661286
40
1.0000000000
40
1.0000000000
40
1.0000000000
40
1.0000000000
10
-22.2133991624
20
32.2208213258
30
0.0000000000
10
-22.2520824141
20
32.1939210457
30
0.0000000000
10
-22.3270019416
20
32.1303085697
30
0.0000000000
10
-22.4250813312
20
32.0156306644
30
0.0000000000
10
-22.5086515763
20
31.8831801850
30
0.0000000000
10
-22.5731154508
20
31.7399088192
30
0.0000000000
10
-22.6152127865
20
31.5935522914
30
0.0000000000
10
-22.6276211393
20
31.4948206738
30
0.0000000000
10
-22.6291699888
20
31.4469743479
30
0.0000000000
11
-22.2133991624
21
32.2208213258
31
0.0000000000
11
-22.3217390471
21
32.1300323358
31
0.0000000000
11
-22.4208259557
21
32.0150907795
31
0.0000000000
11
-22.5053170996
21
31.8815616217
31
0.0000000000
11
-22.5702225720
21
31.7369980779
31
0.0000000000
11
-22.6120966531
21
31.5895700343
31
0.0000000000
11
-22.6291699888
21
31.4469743479
31
0.0000000000
0
SPLINE
5
351
100
AcDbEntity
8
0
100
AcDbSpline
62
9
6
CONTINUOUS
70
0
71
3
72
11
73
7
74
5
42
0.0000001000
43
0.0000001000
44
0.0000000001
12
-0.3950088942
22
-0.1719509121
32
0.0000000000
13
-0.3851960179
23
0.1929330724
33
0.0000000000
40
0.0000000000
40
0.0000000000
40
0.0000000000
40
0.0000000000
40
0.2344095303
40
0.4989539291
40
0.7640588620
40
1.0000000000
40
1.0000000000
40
1.0000000000
40
1.0000000000
10
-22.6291699888
20
31.4469743479
30
0.0000000000
10
-22.6600346053
20
31.4335387037
30
0.0000000000
10
-22.7302005706
20
31.4152654536
30
0.0000000000
10
-22.8402474136
20
31.4087675887
30
0.0000000000
10
-22.9499531094
20
31.4216675324
30
0.0000000000
10
-23.0192398898
20
31.4439669298
30
0.0000000000
10
-23.0495344187
20
31.4591405460
30
0.0000000000
11
-22.6291699888
21
31.4469743479
31
0.0000000000
11
-22.7263375940
21
31.4194656900
31
0.0000000000
11
-22.8400697297
21
31.4121224451
31
0.0000000000
11
-22.9534292292
21
31.4260381810
31
0.0000000000
11
-23.0495344187
21
31.4591405460
31
0.0000000000
0
SPLINE
5
352
100
AcDbEntity
8
0
100
AcDbSpline
62
9
6
CONTINUOUS
70
0
71
3
72
10
73
6
74
4
42
0.0000001000
43
0.0000001000
44
0.0000000001
12
-0.9371388295
22
-29.0274484150
32
0.0000000000
13
0.9672640125
23
-29.0264601872
33
0.0000000000
40
0.0000000000
40
0.0000000000
40
0.0000000000
40
0.0000000000
40
0.3368376498
40
0.6701947898
40
1.0000000000
40
1.0000000000
40
1.0000000000
40
1.0000000000
10
-23.0495344226
20
31.4591405442
30
0.0000000000
10
-23.1547556362
20
28.1999613761
30
0.0000000000
10
-23.2957779334
20
21.7128402196
30
0.0000000000
10
-23.2968942466
20
12.0312902284
30
0.0000000000
10
-23.1558706596
20
5.6122182045
30
0.0000000000
10
-23.0495344226
20
2.4211922697
30
0.0000000000
11
-23.0495344226
21
31.4591405442
31
0.0000000000
11
-23.2610765770
21
21.6787963222
31
0.0000000000
11
-23.2610765769
21
11.9972475705
31
0.0000000000
11
-23.0495344226
21
2.4211922697
31
0.0000000000
0
SPLINE
5
353
100
AcDbEntity
8
0
100
AcDbSpline
62
9
6
CONTINUOUS
70
0
71
3
72
10
73
6
74
4
42
0.0000001000
43
0.0000001000
44
0.0000000001
12
-0.9364881123
22
-29.0069582151
32
0.0000000000
13
0.9665920649
23
-29.0059706726
33
0.0000000000
40
0.0000000000
40
0.0000000000
40
0.0000000000
40
0.0000000000
40
0.3368371140
40
0.6701949007
40
1.0000000000
40
1.0000000000
40
1.0000000000
40
1.0000000000
10
-22.6291699888
20
31.4469743479
30
0.0000000000
10
-22.7343179732
20
28.1901009844
30
0.0000000000
10
-22.8752426877
20
21.7075579059
30
0.0000000000
10
-22.8763583063
20
12.0328418888
30
0.0000000000
10
-22.7354323195
20
5.6182957949
30
0.0000000000
10
-22.6291699888
20
2.4295234486
30
0.0000000000
11
-22.6291699888
21
31.4469743479
31
0.0000000000
11
-22.8405652323
21
21.6735494676
31
0.0000000000
11
-22.8405653323
21
11.9988159430
31
0.0000000000
11
-22.6291699888
21
2.4295234486
31
0.0000000000
0
SPLINE
5
354
100
AcDbEntity
8
0
100
AcDbSpline
62
9
6
CONTINUOUS
70
0
71
3
72
10
73
6
74
4
42
0.0000001000
43
0.0000001000
44
0.0000000001
12
-0.0061035834
22
-0.1412445230
32
0.0000000000
13
0.1275722218
23
-0.0636749258
33
0.0000000000
40
0.0000000000
40
0.0000000000
40
0.0000000000
40
0.0000000000
40
0.0235854641
40
0.4391169601
40
1.0000000000
40
1.0000000000
40
1.0000000000
40
1.0000000000
10
-39.9629856384
20
39.9769470803
30
0.0000000000
10
-39.9630336237
20
39.9758366411
30
0.0000000000
10
-39.9633599045
20
39.9551616119
30
0.0000000000
10
-39.9391395779
20
39.9087048489
30
0.0000000000
10
-39.8989787748
20
39.8838577590
30
0.0000000000
10
-39.8751277430
20
39.8719530303
30
0.0000000000
11
-39.9629856384
21
39.9769470803
31
0.0000000000
11
-39.9630370499
21
39.9736164767
31
0.0000000000
11
-39.9396696222
21
39.9191726703
31
0.0000000000
11
-39.8751277430
21
39.8719530303
31
0.0000000000
0
SPLINE
5
355
100
AcDbEntity
8
0
100
AcDbSpline
62
9
6
CONTINUOUS
70
0
71
3
72
11
73
7
74
5
42
0.0000001000
43
0.0000001000
44
0.0000000001
12
-0.3823680691
22
-0.2027826608
32
0.0000000000
13
-0.3872447718
23
0.1933070989
33
0.0000000000
40
0.0000000000
40
0.0000000000
40
0.0000000000
40
0.0000000000
40
0.2388306015
40
0.5035659939
40
0.7663787582
40
1.0000000000
40
1.0000000000
40
1.0000000000
40
1.0000000000
10
-22.6291699891
20
2.4295234487
30
0.0000000000
10
-22.6596103877
20
2.4133798804
30
0.0000000000
10
-22.7292618443
20
2.3896055938
30
0.0000000000
10
-22.8397130462
20
2.3766111050
30
0.0000000000
10
-22.9498417149
20
2.3850766450
30
0.0000000000
10
-23.0193657462
20
2.4061455658
30
0.0000000000
10
-23.0495219477
20
2.4211991139
30
0.0000000000
11
-22.6291699891
21
2.4295234487
31
0.0000000000
11
-22.7263362706
21
2.3942557904
31
0.0000000000
11
-22.8400648804
21
2.3803085985
31
0.0000000000
11
-22.9534201349
21
2.3897587930
31
0.0000000000
11
-23.0495219477
21
2.4211991139
31
0.0000000000
0
SPLINE
5
356
100
AcDbEntity
8
0
100
AcDbSpline
62
9
6
CONTINUOUS
70
0
71
3
72
11
73
7
74
5
42
0.0000001000
43
0.0000001000
44
0.0000000001
12
0.0198546999
22
-0.5969575331
32
0.0000000000
13
0.5355777613
23
-0.2715355177
33
0.0000000000
40
0.0000000000
40
0.0000000000
40
0.0000000000
40
0.0000000000
40
0.3055047555
40
0.5792289862
40
0.8277375600
40
1.0000000000
40
1.0000000000
40
1.0000000000
40
1.0000000000
10
-23.0495344226
20
2.4211922697
30
0.0000000000
10
-23.0475125208
20
2.3604011480
30
0.0000000000
10
-23.0332452643
20
2.2449757679
30
0.0000000000
10
-22.9749537836
20
2.0888690364
30
0.0000000000
10
-22.8892682229
20
1.9771121583
30
0.0000000000
10
-22.8191321317
20
1.9289552769
30
0.0000000000
10
-22.7883788210
20
1.9133634866
30
0.0000000000
11
-23.0495344226
21
2.4211922697
31
0.0000000000
11
-23.0250839705
21
2.2403635870
31
0.0000000000
11
-22.9655804795
21
2.0880842391
31
0.0000000000
11
-22.8735050207
21
1.9716630211
31
0.0000000000
11
-22.7883788210
21
1.9133634866
31
0.0000000000
0
SPLINE
5
357
100
AcDbEntity
8
0
100
AcDbSpline
62
9
6
CONTINUOUS
70
0
71
3
72
13
73
9
74
7
42
0.0000001000
43
0.0000001000
44
0.0000000001
12
0.0219853404
22
-0.6556092499
32
0.0000000000
13
0.6332265272
23
0.1712629820
33
0.0000000000
40
0.0000000000
40
0.0000000000
40
0.0000000000
40
0.0000000000
40
0.1940604335
40
0.3692188056
40
0.5285739975
40
0.6796882657
40
0.8335544487
40
1.0000000000
40
1.0000000000
40
1.0000000000
40
1.0000000000
10
-22.6291699888
20
2.4295234486
30
0.0000000000
10
-22.6277478273
20
2.3871141768
30
0.0000000000
10
-22.6177415198
20
2.3063128455
30
0.0000000000
10
-22.5767719479
20
2.1968521710
30
0.0000000000
10
-22.5108309268
20
2.1111233622
30
0.0000000000
10
-22.4224417840
20
2.0564564927
30
0.0000000000
10
-22.3189765194
20
2.0375368339
30
0.0000000000
10
-22.2485317419
20
2.0476797035
30
0.0000000000
10
-22.2133991624
20
2.0571816907
30
0.0000000000
11
-22.6291699888
21
2.4295234486
31
0.0000000000
11
-22.6120877181
21
2.3033754565
31
0.0000000000
11
-22.5702022199
21
2.1963819291
31
0.0000000000
11
-22.5052484289
21
2.1144780205
31
0.0000000000
11
-22.4207854950
21
2.0625906981
31
0.0000000000
11
-22.3217038898
21
2.0433484288
31
0.0000000000
11
-22.2133991624
21
2.0571816907
31
0.0000000000
0
SPLINE
5
358
100
AcDbEntity
8
0
100
AcDbSpline
62
7
6
CONTINUOUS
70
0
71
3
72
11
73
7
74
5
42
0.0000001000
43
0.0000001000
44
0.0000000001
12
0.0000000000
22
-0.2141347202
32
0.0000000000
13
-0.2081382720
23
-0.0558807042
33
0.0000000000
40
0.0000000000
40
0.0000000000
40
0.0000000000
40
0.0000000000
40
0.3604201954
40
0.6673392075
40
0.9387676928
40
1.0000000000
40
1.0000000000
40
1.0000000000
40
1.0000000000
10
-19.8415390141
20
2.6989920379
30
0.0000000000
10
-19.8415390141
20
2.6732658787
30
0.0000000000
10
-19.8470119678
20
2.6252508618
30
0.0000000000
10
-19.8765374781
20
2.5631134840
30
0.0000000000
10
-19.9145189144
20
2.5341293279
30
0.0000000000
10
-19.9372125507
20
2.5266118105
30
0.0000000000
10
-19.9414608129
20
2.5254712424
30
0.0000000000
11
-19.8415390141
21
2.6989920379
31
0.0000000000
11
-19.8519765684
21
2.6225226004
31
0.0000000000
11
-19.8822034388
21
2.5641640552
31
0.0000000000
11
-19.9289577550
21
2.5296353520
31
0.0000000000
11
-19.9414608129
21
2.5254712424
31
0.0000000000
0
SPLINE
5
359
100
AcDbEntity
8
0
100
AcDbSpline
62
9
6
CONTINUOUS
70
0
71
3
72
10
73
6
74
4
42
0.0000001000
43
0.0000001000
44
0.0000000001
12
-0.0317950604
22
-0.2324739395
32
0.0000000000
13
-0.2295813391
23
-0.0629510580
33
0.0000000000
40
0.0000000000
40
0.0000000000
40
0.0000000000
40
0.0000000000
40
0.4306837969
40
0.8010691471
40
1.0000000000
40
1.0000000000
40
1.0000000000
40
1.0000000000
10
-22.2133991624
20
2.0571816907
30
0.0000000000
10
-22.2179637015
20
2.0238074377
30
0.0000000000
10
-22.2353830641
20
1.9622110059
30
0.0000000000
10
-22.2865818639
20
1.8988959489
30
0.0000000000
10
-22.3282708416
20
1.8798821800
30
0.0000000000
10
-22.3434944454
20
1.8757078775
30
0.0000000000
11
-22.2133991624
21
2.0571816907
31
0.0000000000
11
-22.2435142925
21
1.9607184285
31
0.0000000000
11
-22.3006680109
21
1.8952493701
31
0.0000000000
11
-22.3434944454
21
1.8757078775
31
0.0000000000
0
SPLINE
5
35A
100
AcDbEntity
8
0
100
AcDbSpline
62
9
6
CONTINUOUS
70
0
71
3
72
9
73
5
74
3
42
0.0000001000
43
0.0000001000
44
0.0000000001
12
0.1176853659
22
0.0861967630
32
0.0000000000
13
0.1319448242
23
-0.0633016081
33
0.0000000000
40
0.0000000000
40
0.0000000000
40
0.0000000000
40
0.0000000000
40
0.4365635412
40
1.0000000000
40
1.0000000000
40
1.0000000000
40
1.0000000000
10
-39.4396079339
20
40.9901937839
30
0.0000000000
10
-39.4224822206
20
41.0027372386
30
0.0000000000
10
-39.3707056579
20
41.0145103602
30
0.0000000000
10
-39.3232894154
20
40.9979912757
30
0.0000000000
10
-39.2985085739
20
40.9861024644
30
0.0000000000
11
-39.4396079339
21
40.9901937839
31
0.0000000000
11
-39.3781057250
21
41.0076245227
31
0.0000000000
11
-39.2985085739
21
40.9861024644
31
0.0000000000
0
SPLINE
5
35B
100
AcDbEntity
8
0
100
AcDbSpline
62
7
6
CONTINUOUS
70
0
71
3
72
10
73
6
74
4
42
0.0000001000
43
0.0000001000
44
0.0000000001
12
0.1270387931
22
0.0938904962
32
0.0000000000
13
0.1396793706
23
-0.0698396853
33
0.0000000000
40
0.0000000000
40
0.0000000000
40
0.0000000000
40
0.0000000000
40
0.1832338605
40
0.5649548556
40
1.0000000000
40
1.0000000000
40
1.0000000000
40
1.0000000000
10
-37.1246594074
20
42.6974631257
30
0.0000000000
10
-37.1169001379
20
42.7031977651
30
0.0000000000
10
-37.0909249665
20
42.7179918018
30
0.0000000000
10
-37.0369685377
20
42.7236565624
30
0.0000000000
10
-36.9957296955
20
42.7096010985
30
0.0000000000
10
-36.9754740849
20
42.6994732932
30
0.0000000000
11
-37.1246594074
21
42.6974631257
31
0.0000000000
11
-37.0995767112
21
42.7115746041
31
0.0000000000
11
-37.0404640587
21
42.7192738772
31
0.0000000000
11
-36.9754740849
21
42.6994732932
31
0.0000000000
0
SPLINE
5
35C
100
AcDbEntity
8
0
100
AcDbSpline
62
7
6
CONTINUOUS
70
0
71
3
72
10
73
6
74
4
42
0.0000001000
43
0.0000001000
44
0.0000000001
12
0.1718415122
22
0.0839506804
32
0.0000000000
13
0.0000000000
23
0.1898618032
33
0.0000000000
40
0.0000000000
40
0.0000000000
40
0.0000000000
40
0.0000000000
40
0.2593957179
40
0.6010692860
40
1.0000000000
40
1.0000000000
40
1.0000000000
40
1.0000000000
10
-19.9209789421
20
2.2730417738
30
0.0000000000
10
-19.9061206246
20
2.2803005895
30
0.0000000000
10
-19.8752597452
20
2.3049124844
30
0.0000000000
10
-19.8469882329
20
2.3634726211
30
0.0000000000
10
-19.8415390141
20
2.4107287444
30
0.0000000000
10
-19.8415390141
20
2.4359759793
30
0.0000000000
11
-19.9209789421
21
2.2730417738
31
0.0000000000
11
-19.8820669108
21
2.3035151682
31
0.0000000000
11
-19.8519035897
21
2.3609467756
31
0.0000000000
11
-19.8415390141
21
2.4359759793
31
0.0000000000
0
SPLINE
5
35D
100
AcDbEntity
8
0
100
AcDbSpline
62
7
6
CONTINUOUS
70
0
71
3
72
20
73
16
74
14
42
0.0000001000
43
0.0000001000
44
0.0000000001
12
-1.2954973800
22
0.6477486900
32
0.0000000000
13
-1.3053914356
23
-0.6275707345
33
0.0000000000
40
0.0000000000
40
0.0000000000
40
0.0000000000
40
0.0000000000
40
0.0678755011
40
0.1400594807
40
0.2159566933
40
0.2948557695
40
0.3759597299
40
0.4584125759
40
0.5413235956
40
0.6237904769
40
0.7049220621
40
0.7838614721
40
0.8598104078
40
0.9320557413
40
1.0000000000
40
1.0000000000
40
1.0000000000
40
1.0000000000
10
-23.7979689327
20
51.0398186133
30
0.0000000000
10
-23.8272797773
20
51.0544740356
30
0.0000000000
10
-23.8892639655
20
51.0817680212
30
0.0000000000
10
-23.9879169907
20
51.1158106104
30
0.0000000000
10
-24.0939543533
20
51.1438417042
30
0.0000000000
10
-24.2058595819
20
51.1654567439
30
0.0000000000
10
-24.3220424722
20
51.1803476181
30
0.0000000000
10
-24.4408431174
20
51.1882996194
30
0.0000000000
10
-24.5605631839
20
51.1891982190
30
0.0000000000
10
-24.6794899216
20
51.1830304405
30
0.0000000000
10
-24.7959229997
20
51.1698850801
30
0.0000000000
10
-24.9081985647
20
51.1499517267
30
0.0000000000
10
-25.0147206440
20
51.1235145036
30
0.0000000000
10
-25.1139652632
20
51.0909551596
30
0.0000000000
10
-25.1764203604
20
51.0645954601
30
0.0000000000
10
-25.2059849781
20
51.0503821840
30
0.0000000000
11
-23.7979689327
21
51.0398186133
31
0.0000000000
11
-23.8878263651
21
51.0797035096
31
0.0000000000
11
-23.9865847963
21
51.1140239717
31
0.0000000000
11
-24.0928202765
21
51.1422850983
31
0.0000000000
11
-24.2050010367
21
51.1640793269
31
0.0000000000
11
-24.3215095473
21
51.1790923123
31
0.0000000000
11
-24.4406658135
21
51.1871074662
31
0.0000000000
11
-24.5607515873
21
51.1880090927
31
0.0000000000
11
-24.6800351300
21
51.1817840702
31
0.0000000000
11
-24.7967961849
21
51.1685220566
31
0.0000000000
11
-24.9093508005
21
51.1484142099
31
0.0000000000
11
-25.0160756285
21
51.1217504445
31
0.0000000000
11
-25.1154313649
21
51.0889152571
31
0.0000000000
11
-25.2059849781
21
51.0503821840
31
0.0000000000
0
SPLINE
5
35E
100
AcDbEntity
8
0
100
AcDbSpline
62
7
6
CONTINUOUS
70
0
71
3
72
12
73
8
74
6
42
0.0000001000
43
0.0000001000
44
0.0000000001
12
-0.4423672027
22
0.0662395763
32
0.0000000000
13
-0.4467534836
23
-0.0220850262
33
0.0000000000
40
0.0000000000
40
0.0000000000
40
0.0000000000
40
0.0000000000
40
0.2207752940
40
0.4334772826
40
0.6357204040
40
0.8252010151
40
1.0000000000
40
1.0000000000
40
1.0000000000
40
1.0000000000
10
-14.6345227257
20
46.1460171229
30
0.0000000000
10
-14.6670773088
20
46.1508918103
30
0.0000000000
10
-14.7311406719
20
46.1595312522
30
0.0000000000
10
-14.8254498450
20
46.1691905640
30
0.0000000000
10
-14.9153911898
20
46.1751974504
30
0.0000000000
10
-14.9998531103
20
46.1774445730
30
0.0000000000
10
-15.0541851864
20
46.1763568196
30
0.0000000000
10
-15.0802158715
20
46.1750700062
30
0.0000000000
11
-14.6345227257
21
46.1460171229
31
0.0000000000
11
-14.7323968620
21
46.1591595939
31
0.0000000000
11
-14.8270509789
21
46.1687763973
31
0.0000000000
11
-14.9173199324
21
46.1747007495
31
0.0000000000
11
-15.0020479873
21
46.1768175733
31
0.0000000000
11
-15.0802158715
21
46.1750700062
31
0.0000000000
0
SPLINE
5
35F
100
AcDbEntity
8
0
100
AcDbSpline
62
7
6
CONTINUOUS
70
0
71
3
72
8
73
4
74
2
42
0.0000001000
43
0.0000001000
44
0.0000000001
12
0.0011691118
22
0.0006182895
32
0.0000000000
13
0.0011776228
23
0.0006018650
33
0.0000000000
40
0.0000000000
40
0.0000000000
40
0.0000000000
40
0.0000000000
40
1.0000000000
40
1.0000000000
40
1.0000000000
40
1.0000000000
10
-32.2695698583
20
50.1818908188
30
0.0000000000
10
-32.2691801544
20
50.1820969153
30
0.0000000000
10
-32.2687890130
20
50.1823002865
30
0.0000000000
10
-32.2683964721
20
50.1825009082
30
0.0000000000
11
-32.2695698583
21
50.1818908188
31
0.0000000000
11
-32.2683964721
21
50.1825009082
31
0.0000000000
0
SPLINE
5
360
100
AcDbEntity
8
0
100
AcDbSpline
62
7
6
CONTINUOUS
70
0
71
3
72
8
73
4
74
2
42
0.0000001000
43
0.0000001000
44
0.0000000001
12
0.0033023929
22
0.0016878025
32
0.0000000000
13
0.0033659107
23
0.0015564551
33
0.0000000000
40
0.0000000000
40
0.0000000000
40
0.0000000000
40
0.0000000000
40
1.0000000000
40
1.0000000000
40
1.0000000000
40
1.0000000000
10
-32.2683964721
20
50.1825009082
30
0.0000000000
10
-32.2672956744
20
50.1830635090
30
0.0000000000
10
-32.2661838712
20
50.1836044871
30
0.0000000000
10
-32.2650619010
20
50.1841233054
30
0.0000000000
11
-32.2683964721
21
50.1825009082
31
0.0000000000
11
-32.2650619010
21
50.1841233054
31
0.0000000000
0
SPLINE
5
361
100
AcDbEntity
8
0
100
AcDbSpline
62
7
6
CONTINUOUS
70
0
71
3
72
9
73
5
74
3
42
0.0000001000
43
0.0000001000
44
0.0000000001
12
0.0125241516
22
0.0057913834
32
0.0000000000
13
0.0132321779
23
0.0039039379
33
0.0000000000
40
0.0000000000
40
0.0000000000
40
0.0000000000
40
0.0000000000
40
0.4147352146
40
1.0000000000
40
1.0000000000
40
1.0000000000
40
1.0000000000
10
-32.2650619010
20
50.1841233054
30
0.0000000000
10
-32.2633304987
20
50.1849239356
30
0.0000000000
10
-32.2590974026
20
50.1867271561
30
0.0000000000
10
-32.2547414602
20
50.1882121061
30
0.0000000000
10
-32.2521600176
20
50.1889737186
30
0.0000000000
11
-32.2650619010
21
50.1841233054
31
0.0000000000
11
-32.2597981404
21
50.1863649095
31
0.0000000000
11
-32.2521600176
21
50.1889737186
31
0.0000000000
0
SPLINE
5
362
100
AcDbEntity
8
0
100
AcDbSpline
62
7
6
CONTINUOUS
70
0
71
3
72
11
73
7
74
5
42
0.0000001000
43
0.0000001000
44
0.0000000001
12
0.0955254197
22
0.0281832143
32
0.0000000000
13
0.0888557857
23
-0.0444278929
33
0.0000000000
40
0.0000000000
40
0.0000000000
40
0.0000000000
40
0.0000000000
40
0.1649422236
40
0.4221284249
40
0.6999958925
40
1.0000000000
40
1.0000000000
40
1.0000000000
40
1.0000000000
10
-32.2521600176
20
50.1889737186
30
0.0000000000
10
-32.2469079593
20
50.1905232526
30
0.0000000000
10
-32.2331269632
20
50.1933503262
30
0.0000000000
10
-32.2097492602
20
50.1933474310
30
0.0000000000
10
-32.1825425190
20
50.1875256623
30
0.0000000000
10
-32.1647528554
20
50.1802049483
30
0.0000000000
10
-32.1558671552
20
50.1757620982
30
0.0000000000
11
-32.2521600176
21
50.1889737186
31
0.0000000000
11
-32.2360900352
21
50.1923006543
31
0.0000000000
11
-32.2105408571
21
50.1924861684
31
0.0000000000
11
-32.1835036938
21
50.1869188453
31
0.0000000000
11
-32.1558671552
21
50.1757620982
31
0.0000000000
0
SPLINE
5
363
100
AcDbEntity
8
0
100
AcDbSpline
62
7
6
CONTINUOUS
70
0
71
3
72
11
73
7
74
5
42
0.0000001000
43
0.0000001000
44
0.0000000001
12
0.0759798059
22
0.0394986591
32
0.0000000000
13
0.0821455227
23
-0.0238739401
33
0.0000000000
40
0.0000000000
40
0.0000000000
40
0.0000000000
40
0.0000000000
40
0.1177475728
40
0.4039438776
40
0.7031249222
40
1.0000000000
40
1.0000000000
40
1.0000000000
40
1.0000000000
10
-16.1469376526
20
42.1211836988
30
0.0000000000
10
-16.1439555067
20
42.1227339892
30
0.0000000000
10
-16.1334421592
20
42.1275065182
30
0.0000000000
10
-16.1137983579
20
42.1323329532
30
0.0000000000
10
-16.0884714133
20
42.1323306789
30
0.0000000000
10
-16.0717607821
20
42.1289101753
30
0.0000000000
10
-16.0636317959
20
42.1265476494
30
0.0000000000
11
-16.1469376526
21
42.1211836988
31
0.0000000000
11
-16.1377607384
21
42.1253464073
31
0.0000000000
11
-16.1140534820
21
42.1312829867
31
0.0000000000
11
-16.0885061006
21
42.1314693049
31
0.0000000000
11
-16.0636317959
21
42.1265476494
31
0.0000000000
0
SPLINE
5
364
100
AcDbEntity
8
0
100
AcDbSpline
62
7
6
CONTINUOUS
70
0
71
3
72
9
73
5
74
3
42
0.0000001000
43
0.0000001000
44
0.0000000001
12
0.0308304319
22
-0.0089602435
32
0.0000000000
13
0.0286658334
23
-0.0143329167
33
0.0000000000
40
0.0000000000
40
0.0000000000
40
0.0000000000
40
0.0000000000
40
0.0702132084
40
1.0000000000
40
1.0000000000
40
1.0000000000
40
1.0000000000
10
-16.0636317959
20
42.1265476494
30
0.0000000000
10
-16.0629102281
20
42.1263379402
30
0.0000000000
10
-16.0526551883
20
42.1232772530
30
0.0000000000
10
-16.0427236474
20
42.1191903443
30
0.0000000000
10
-16.0338392763
20
42.1147481588
30
0.0000000000
11
-16.0636317959
21
42.1265476494
31
0.0000000000
11
-16.0614717444
21
42.1259030797
31
0.0000000000
11
-16.0338392763
21
42.1147481588
31
0.0000000000
0
SPLINE
5
365
100
AcDbEntity
8
0
100
AcDbSpline
62
7
6
CONTINUOUS
70
0
71
3
72
17
73
13
74
11
42
0.0000001000
43
0.0000001000
44
0.0000000001
12
0.3291618791
22
-0.1645809396
32
0.0000000000
13
0.0000000000
23
-0.3680141687
33
0.0000000000
40
0.0000000000
40
0.0000000000
40
0.0000000000
40
0.0000000000
40
0.0874216143
40
0.1812265486
40
0.2797592751
40
0.3829013717
40
0.4883481126
40
0.5948407190
40
0.7010776257
40
0.8045511578
40
0.9049038658
40
1.0000000000
40
1.0000000000
40
1.0000000000
40
1.0000000000
10
-31.0952002533
20
49.6454286473
30
0.0000000000
10
-31.0856082990
20
49.6406326701
30
0.0000000000
10
-31.0664952227
20
49.6291022500
30
0.0000000000
10
-31.0396395957
20
49.6076057830
30
0.0000000000
10
-31.0141165863
20
49.5817618677
30
0.0000000000
10
-30.9905948147
20
49.5522473252
30
0.0000000000
10
-30.9695985131
20
49.5197229712
30
0.0000000000
10
-30.9516466223
20
49.4849982357
30
0.0000000000
10
-30.9371894288
20
49.4489388005
30
0.0000000000
10
-30.9265497375
20
49.4123533647
30
0.0000000000
10
-30.9200055861
20
49.3762048740
30
0.0000000000
10
-30.9184302891
20
49.3522111331
30
0.0000000000
10
-30.9184302891
20
49.3405455581
30
0.0000000000
11
-31.0952002533
21
49.6454286473
31
0.0000000000
11
-31.0675677852
21
49.6289511001
31
0.0000000000
11
-31.0405334290
21
49.6074829691
31
0.0000000000
11
-31.0149860476
21
49.5817492696
31
0.0000000000
11
-30.9912787912
21
49.5521054338
31
0.0000000000
11
-30.9702041964
21
49.5195207914
31
0.0000000000
11
-30.9522026147
21
49.4847089986
31
0.0000000000
11
-30.9376769710
21
49.4484108361
31
0.0000000000
11
-30.9270951680
21
49.4118309103
31
0.0000000000
11
-30.9206032422
21
49.3754747583
31
0.0000000000
11
-30.9184302891
21
49.3405455581
31
0.0000000000
0
SPLINE
5
366
100
AcDbEntity
8
0
100
AcDbSpline
62
7
6
CONTINUOUS
70
0
71
3
72
17
73
13
74
11
42
0.0000001000
43
0.0000001000
44
0.0000000001
12
0.3291550651
22
-0.1645775325
32
0.0000000000
13
0.0000000000
23
-0.3680065503
33
0.0000000000
40
0.0000000000
40
0.0000000000
40
0.0000000000
40
0.0000000000
40
0.0874360479
40
0.1812517855
40
0.2797919058
40
0.3829376087
40
0.4883833074
40
0.5948718901
40
0.7011015536
40
0.8045665252
40
0.9049109428
40
1.0000000000
40
1.0000000000
40
1.0000000000
40
1.0000000000
10
-14.9731723744
20
41.5844147078
30
0.0000000000
10
-14.9635790351
20
41.5796180382
30
0.0000000000
10
-14.9444636267
20
41.5680863805
30
0.0000000000
10
-14.9176051426
20
41.5465882128
30
0.0000000000
10
-14.8920803392
20
41.5207433638
30
0.0000000000
10
-14.8685577538
20
41.4912289042
30
0.0000000000
10
-14.8475614057
20
41.4587057464
30
0.0000000000
10
-14.8296100251
20
41.4239833568
30
0.0000000000
10
-14.8151535616
20
41.3879271161
30
0.0000000000
10
-14.8045145567
20
41.3513453809
30
0.0000000000
10
-14.7979708530
20
41.3152005648
30
0.0000000000
10
-14.7963956781
20
41.2912092048
30
0.0000000000
10
-14.7963956781
20
41.2795447395
30
0.0000000000
11
-14.9731723744
21
41.5844147078
31
0.0000000000
11
-14.9455358358
21
41.5679349162
31
0.0000000000
11
-14.9184986726
21
41.5464650762
31
0.0000000000
11
-14.8929494945
21
41.5207303840
31
0.0000000000
11
-14.8692413892
21
41.4910865339
31
0.0000000000
11
-14.8481668866
21
41.4585032453
31
0.0000000000
11
-14.8301658239
21
41.4236937645
31
0.0000000000
11
-14.8156410102
21
41.3873990126
31
0.0000000000
11
-14.8050599515
21
41.3508229717
31
0.0000000000
11
-14.7985684852
21
41.3144706134
31
0.0000000000
11
-14.7963956781
21
41.2795447395
31
0.0000000000
0
SPLINE
5
367
100
AcDbEntity
8
0
100
AcDbSpline
62
7
6
CONTINUOUS
70
0
71
3
72
12
73
8
74
6
42
0.0000001000
43
0.0000001000
44
0.0000000001
12
0.0000000000
22
-0.1422484178
32
0.0000000000
13
-0.1154786432
23
-0.0836593383
33
0.0000000000
40
0.0000000000
40
0.0000000000
40
0.0000000000
40
0.0000000000
40
0.2307586907
40
0.4455824355
40
0.6428848502
40
0.8268630108
40
1.0000000000
40
1.0000000000
40
1.0000000000
40
1.0000000000
10
-14.7963956781
20
0.1432885982
30
0.0000000000
10
-14.7963956781
20
0.1323469120
30
0.0000000000
10
-14.7976972335
20
0.1111832885
30
0.0000000000
10
-14.8040116489
20
0.0812353785
30
0.0000000000
10
-14.8145309790
20
0.0548266299
30
0.0000000000
10
-14.8290655696
20
0.0326720268
30
0.0000000000
10
-14.8415023451
20
0.0209294762
30
0.0000000000
10
-14.8481668866
20
0.0161013008
30
0.0000000000
11
-14.7963956781
21
0.1432885982
31
0.0000000000
11
-14.7985684852
21
0.1105355314
31
0.0000000000
11
-14.8050599515
21
0.0806746394
31
0.0000000000
11
-14.8156410102
21
0.0546796572
31
0.0000000000
11
-14.8301658239
21
0.0329097189
31
0.0000000000
11
-14.8481668866
21
0.0161013008
31
0.0000000000
0
SPLINE
5
368
100
AcDbEntity
8
0
100
AcDbSpline
62
7
6
CONTINUOUS
70
0
71
3
72
8
73
4
74
2
42
0.0000001000
43
0.0000001000
44
0.0000000001
12
-0.0130040662
22
-0.0094208898
32
0.0000000000
13
-0.0144112359
23
-0.0070948185
33
0.0000000000
40
0.0000000000
40
0.0000000000
40
0.0000000000
40
0.0000000000
40
1.0000000000
40
1.0000000000
40
1.0000000000
40
1.0000000000
10
-14.8481668866
20
0.0161013008
30
0.0000000000
10
-14.8525015753
20
0.0129610043
30
0.0000000000
10
-14.8571048607
20
0.0101865737
30
0.0000000000
10
-14.8619086061
20
0.0078216342
30
0.0000000000
11
-14.8481668866
21
0.0161013008
31
0.0000000000
11
-14.8619086061
21
0.0078216342
31
0.0000000000
0
SPLINE
5
369
100
AcDbEntity
8
0
100
AcDbSpline
62
7
6
CONTINUOUS
70
0
71
3
72
8
73
4
74
2
42
0.0000001000
43
0.0000001000
44
0.0000000001
12
-0.0013356688
22
-0.0006575652
32
0.0000000000
13
-0.0013458378
23
-0.0006363558
33
0.0000000000
40
0.0000000000
40
0.0000000000
40
0.0000000000
40
0.0000000000
40
1.0000000000
40
1.0000000000
40
1.0000000000
40
1.0000000000
10
-14.8619086061
20
0.0078216342
30
0.0000000000
10
-14.8623538290
20
0.0076024458
30
0.0000000000
10
-14.8628007739
20
0.0073867749
30
0.0000000000
10
-14.8632493865
20
0.0071746563
30
0.0000000000
11
-14.8619086061
21
0.0078216342
31
0.0000000000
11
-14.8632493865
21
0.0071746563
31
0.0000000000
0
SPLINE
5
36A
100
AcDbEntity
8
0
100
AcDbSpline
62
7
6
CONTINUOUS
70
0
71
3
72
10
73
6
74
4
42
0.0000001000
43
0.0000001000
44
0.0000000001
12
0.2903122116
22
-0.0434710299
32
0.0000000000
13
0.2626013871
23
-0.1314649531
33
0.0000000000
40
0.0000000000
40
0.0000000000
40
0.0000000000
40
0.0000000000
40
0.3751615196
40
0.7536716443
40
1.0000000000
40
1.0000000000
40
1.0000000000
40
1.0000000000
10
-14.6345227257
20
46.1460171229
30
0.0000000000
10
-14.5982180688
20
46.1405809037
30
0.0000000000
10
-14.5260363324
20
46.1241694772
30
0.0000000000
10
-14.4338663842
20
46.0907534107
30
0.0000000000
10
-14.3783367925
20
46.0650438346
30
0.0000000000
10
-14.3567747365
20
46.0542493193
30
0.0000000000
11
-14.6345227257
21
46.1460171229
31
0.0000000000
11
-14.5270299849
21
46.1220685121
31
0.0000000000
11
-14.4224397743
21
46.0845640211
31
0.0000000000
11
-14.3567747365
21
46.0542493193
31
0.0000000000
0
SPLINE
5
36B
100
AcDbEntity
8
0
100
AcDbSpline
62
7
6
CONTINUOUS
70
0
71
3
72
13
73
9
74
7
42
0.0000001000
43
0.0000001000
44
0.0000000001
12
0.3171590659
22
0.1498067747
32
0.0000000000
13
0.3142605827
23
-0.1571998322
33
0.0000000000
40
0.0000000000
40
0.0000000000
40
0.0000000000
40
0.0000000000
40
0.2159307119
40
0.4185320938
40
0.6092434410
40
0.7906538864
40
0.9664479745
40
1.0000000000
40
1.0000000000
40
1.0000000000
40
1.0000000000
10
-13.3191473279
20
45.9263763025
30
0.0000000000
10
-13.2963192003
20
45.9371589303
30
0.0000000000
10
-13.2507038699
20
45.9553538507
30
0.0000000000
10
-13.1811565639
20
45.9719762270
30
0.0000000000
10
-13.1137796925
20
45.9766907501
30
0.0000000000
10
-13.0497429401
20
45.9692705509
30
0.0000000000
10
-13.0060275486
20
45.9549007662
30
0.0000000000
10
-12.9838777302
20
45.9443727508
30
0.0000000000
10
-12.9803630372
20
45.9426146265
30
0.0000000000
11
-13.3191473279
21
45.9263763025
31
0.0000000000
11
-13.2486757531
21
45.9541297423
31
0.0000000000
11
-13.1794778306
21
45.9703093293
31
0.0000000000
11
-13.1127245277
21
45.9746416424
31
0.0000000000
11
-13.0495471582
21
45.9670541244
31
0.0000000000
11
-12.9910102944
21
45.9476747338
31
0.0000000000
11
-12.9803630372
21
45.9426146265
31
0.0000000000
0
SPLINE
5
36C
100
AcDbEntity
8
0
100
AcDbSpline
62
7
6
CONTINUOUS
70
0
71
3
72
14
73
10
74
8
42
0.0000001000
43
0.0000001000
44
0.0000000001
12
0.0000000000
22
0.4747966814
32
0.0000000000
13
-0.4254209443
23
0.2128156155
33
0.0000000000
40
0.0000000000
40
0.0000000000
40
0.0000000000
40
0.0000000000
40
0.1742099370
40
0.3380582125
40
0.4913783989
40
0.6347524487
40
0.7696420707
40
0.8984003609
40
1.0000000000
40
1.0000000000
40
1.0000000000
40
1.0000000000
10
-11.5615998841
20
44.9229851198
30
0.0000000000
10
-11.5615998841
20
44.9505565531
30
0.0000000000
10
-11.5643296760
20
45.0041179562
30
0.0000000000
10
-11.5774035501
20
45.0809778482
30
0.0000000000
10
-11.5991732361
20
45.1508008222
30
0.0000000000
10
-11.6293652107
20
45.2124115118
30
0.0000000000
10
-11.6675909835
20
45.2647238462
30
0.0000000000
10
-11.7104641256
20
45.3041033197
30
0.0000000000
10
-11.7417145392
20
45.3232867143
30
0.0000000000
10
-11.7561220774
20
45.3304940442
30
0.0000000000
11
-11.5615998841
21
44.9229851198
31
0.0000000000
11
-11.5660770171
21
45.0055781625
31
0.0000000000
11
-11.5794326659
21
45.0822177681
31
0.0000000000
11
-11.6014408425
21
45.1516071441
31
0.0000000000
11
-11.6317287070
21
45.2125714763
31
0.0000000000
11
-11.6697862299
21
45.2640826939
31
0.0000000000
11
-11.7149675773
21
45.3052653709
31
0.0000000000
11
-11.7561220774
21
45.3304940442
31
0.0000000000
0
SPLINE
5
36D
100
AcDbEntity
8
0
100
AcDbSpline
62
7
6
CONTINUOUS
70
0
71
3
72
14
73
10
74
8
42
0.0000001000
43
0.0000001000
44
0.0000000001
12
0.0000000000
22
0.4731426844
32
0.0000000000
13
-0.4239490414
23
0.2120833323
33
0.0000000000
40
0.0000000000
40
0.0000000000
40
0.0000000000
40
0.0000000000
40
0.1747614924
40
0.3390087406
40
0.4925395255
40
0.6359084147
40
0.7705624555
40
0.8988668590
40
1.0000000000
40
1.0000000000
40
1.0000000000
40
1.0000000000
10
-21.6204143023
20
49.9523923289
30
0.0000000000
10
-21.6204143023
20
49.9799547028
30
0.0000000000
10
-21.6231168936
20
50.0334787011
30
0.0000000000
10
-21.6360680885
20
50.1102672975
30
0.0000000000
10
-21.6576345364
20
50.1799840679
30
0.0000000000
10
-21.6875466346
20
50.2414585514
30
0.0000000000
10
-21.7254241226
20
50.2936101703
30
0.0000000000
10
-21.7679277115
20
50.3328267623
30
0.0000000000
10
-21.7989318839
20
50.3518952525
30
0.0000000000
10
-21.8132236499
20
50.3590448037
30
0.0000000000
11
-21.6204143023
21
49.9523923289
31
0.0000000000
11
-21.6248514201
21
50.0349603134
31
0.0000000000
11
-21.6380878272
21
50.1115371516
31
0.0000000000
11
-21.6598997359
21
50.1808270940
31
0.0000000000
11
-21.6899181310
21
50.2416575100
31
0.0000000000
11
-21.7276377704
21
50.2930020919
31
0.0000000000
11
-21.7724193005
21
50.3339882870
31
0.0000000000
11
-21.8132236499
21
50.3590448037
31
0.0000000000
0
SPLINE
5
36E
100
AcDbEntity
8
0
100
AcDbSpline
62
7
6
CONTINUOUS
70
0
71
3
72
13
73
9
74
7
42
0.0000001000
43
0.0000001000
44
0.0000000001
12
0.3136557282
22
0.1507909048
32
0.0000000000
13
0.3118135091
23
-0.1559783031
33
0.0000000000
40
0.0000000000
40
0.0000000000
40
0.0000000000
40
0.0000000000
40
0.2163229872
40
0.4190449857
40
0.6096623291
40
0.7908570664
40
0.9664344461
40
1.0000000000
40
1.0000000000
40
1.0000000000
40
1.0000000000
10
-23.3733427247
20
50.9534740009
30
0.0000000000
10
-23.3507257433
20
50.9643471805
30
0.0000000000
10
-23.3055338364
20
50.9827293892
30
0.0000000000
10
-23.2365820174
20
50.9996583623
30
0.0000000000
10
-23.1697722313
20
51.0046704000
30
0.0000000000
10
-23.1062645461
20
50.9975280441
30
0.0000000000
10
-23.0629116844
20
50.9833423548
30
0.0000000000
10
-23.0409535110
20
50.9729106265
30
0.0000000000
10
-23.0374647799
20
50.9711654604
30
0.0000000000
11
-23.3733427247
21
50.9534740009
31
0.0000000000
11
-23.3034803824
21
50.9815281995
31
0.0000000000
11
-23.2348800446
21
50.9980047456
31
0.0000000000
11
-23.1687025129
21
51.0026249825
31
0.0000000000
11
-23.1060687269
21
50.9953111400
31
0.0000000000
11
-23.0480344078
21
50.9761861030
31
0.0000000000
11
-23.0374647799
21
50.9711654604
31
0.0000000000
0
SPLINE
5
36F
100
AcDbEntity
8
0
100
AcDbSpline
62
7
6
CONTINUOUS
70
0
71
3
72
17
73
13
74
11
42
0.0000001000
43
0.0000001000
44
0.0000000001
12
-0.3246555108
22
-0.1567580912
32
0.0000000000
13
-0.3224584312
23
0.1612292156
33
0.0000000000
40
0.0000000000
40
0.0000000000
40
0.0000000000
40
0.0000000000
40
0.0896953651
40
0.1864678386
40
0.2880741138
40
0.3939089633
40
0.5012438388
40
0.6084696740
40
0.7139807303
40
0.8150660635
40
0.9111395651
40
1.0000000000
40
1.0000000000
40
1.0000000000
40
1.0000000000
10
-20.0155426846
20
34.4726584209
30
0.0000000000
10
-20.0252493827
20
34.4679715961
30
0.0000000000
10
-20.0460514100
20
34.4594913629
30
0.0000000000
10
-20.0793203283
20
34.4497459351
30
0.0000000000
10
-20.1152306400
20
34.4426532238
30
0.0000000000
10
-20.1528590409
20
34.4384005084
30
0.0000000000
10
-20.1913779364
20
34.4370836530
30
0.0000000000
10
-20.2298451808
20
34.4387334100
30
0.0000000000
10
-20.2673203543
20
34.4433107782
30
0.0000000000
10
-20.3029794722
20
34.4507128187
30
0.0000000000
10
-20.3359062109
20
34.4607442575
30
0.0000000000
10
-20.3564327070
20
34.4694119155
30
0.0000000000
10
-20.3659839725
20
34.4741875483
30
0.0000000000
11
-20.0155426846
21
34.4726584209
31
0.0000000000
11
-20.0454314233
21
34.4603158062
31
0.0000000000
11
-20.0788827341
21
34.4504058295
31
0.0000000000
11
-20.1148059961
21
34.4432397642
31
0.0000000000
11
-20.1527155994
21
34.4389147081
31
0.0000000000
11
-20.1913889110
21
34.4375806555
31
0.0000000000
11
-20.2300097677
21
34.4392519761
31
0.0000000000
11
-20.2677626319
21
34.4439071803
31
0.0000000000
11
-20.3034302924
21
34.4513856279
31
0.0000000000
11
-20.3365306026
21
34.4615859982
31
0.0000000000
11
-20.3659839725
21
34.4741875483
31
0.0000000000
0
SPLINE
5
370
100
AcDbEntity
8
0
100
AcDbSpline
62
7
6
CONTINUOUS
70
0
71
3
72
13
73
9
74
7
42
0.0000001000
43
0.0000001000
44
0.0000000001
12
-0.1077465571
22
0.0538732786
32
0.0000000000
13
0.0000503939
23
0.1208718268
33
0.0000000000
40
0.0000000000
40
0.0000000000
40
0.0000000000
40
0.0000000000
40
0.2423146176
40
0.4603851217
40
0.6536009682
40
0.8283219726
40
0.9910058303
40
1.0000000000
40
1.0000000000
40
1.0000000000
40
1.0000000000
10
-37.3696572749
20
42.9760241995
30
0.0000000000
10
-37.3783601302
20
42.9803756271
30
0.0000000000
10
-37.3944421790
20
42.9896235860
30
0.0000000000
10
-37.4150766385
20
43.0060341305
30
0.0000000000
10
-37.4305352327
20
43.0240056876
30
0.0000000000
10
-37.4403223321
20
43.0432176442
30
0.0000000000
10
-37.4428219489
20
43.0571295612
30
0.0000000000
10
-37.4428804275
20
43.0640464143
30
0.0000000000
10
-37.4428802764
20
43.0644087949
30
0.0000000000
11
-37.3696572749
21
42.9760241995
31
0.0000000000
11
-37.3948603751
21
42.9907508845
31
0.0000000000
11
-37.4152611156
21
43.0073010395
31
0.0000000000
11
-37.4302180108
21
43.0251348698
31
0.0000000000
11
-37.4395284192
21
43.0440113019
31
0.0000000000
11
-37.4428710604
21
43.0633217302
31
0.0000000000
11
-37.4428802764
21
43.0644087949
31
0.0000000000
0
SPLINE
5
371
100
AcDbEntity
8
0
100
AcDbSpline
62
7
6
CONTINUOUS
70
0
71
3
72
14
73
10
74
8
42
0.0000001000
43
0.0000001000
44
0.0000000001
12
-0.3482968733
22
-0.1809701718
32
0.0000000000
13
0.0001568198
23
-0.3934762984
33
0.0000000000
40
0.0000000000
40
0.0000000000
40
0.0000000000
40
0.0000000000
40
0.1980561359
40
0.3800662272
40
0.5462696099
40
0.6980345314
40
0.8384447165
40
0.9716600234
40
1.0000000000
40
1.0000000000
40
1.0000000000
40
1.0000000000
10
-31.4184365436
20
46.8329523830
30
0.0000000000
10
-31.4414306545
20
46.8210049654
30
0.0000000000
10
-31.4844971754
20
46.7959202968
30
0.0000000000
10
-31.5417579606
20
46.7528348720
30
0.0000000000
10
-31.5881940616
20
46.7063948754
30
0.0000000000
10
-31.6230477229
20
46.6571712645
30
0.0000000000
10
-31.6455921177
20
46.6057990331
30
0.0000000000
10
-31.6527184728
20
46.5665376567
30
0.0000000000
10
-31.6532746702
20
46.5453498450
30
0.0000000000
10
-31.6532731888
20
46.5416328087
30
0.0000000000
11
-31.4184365436
21
46.8329523830
31
0.0000000000
11
-31.4854389818
21
46.7935328116
31
0.0000000000
11
-31.5422784177
21
46.7502551246
31
0.0000000000
11
-31.5880721287
21
46.7037938757
31
0.0000000000
11
-31.6220948316
21
46.6548972726
31
0.0000000000
11
-31.6438553343
21
46.6042633457
31
0.0000000000
11
-31.6529793253
21
46.5527777479
31
0.0000000000
11
-31.6532731888
21
46.5416328087
31
0.0000000000
0
SPLINE
5
372
100
AcDbEntity
8
0
100
AcDbSpline
62
7
6
CONTINUOUS
70
0
71
3
72
14
73
10
74
8
42
0.0000001000
43
0.0000001000
44
0.0000000001
12
-0.3482968733
22
-0.1809701718
32
0.0000000000
13
0.0001568198
23
-0.3934762984
33
0.0000000000
40
0.0000000000
40
0.0000000000
40
0.0000000000
40
0.0000000000
40
0.1980561359
40
0.3800662272
40
0.5462696099
40
0.6980345314
40
0.8384447165
40
0.9716600234
40
1.0000000000
40
1.0000000000
40
1.0000000000
40
1.0000000000
10
-21.3775202507
20
41.8124942366
30
0.0000000000
10
-21.4005143617
20
41.8005468190
30
0.0000000000
10
-21.4435808826
20
41.7754621504
30
0.0000000000
10
-21.5008416677
20
41.7323767256
30
0.0000000000
10
-21.5472777687
20
41.6859367290
30
0.0000000000
10
-21.5821314301
20
41.6367131180
30
0.0000000000
10
-21.6046758249
20
41.5853408867
30
0.0000000000
10
-21.6118021799
20
41.5460795102
30
0.0000000000
10
-21.6123583773
20
41.5248916986
30
0.0000000000
10
-21.6123568959
20
41.5211746622
30
0.0000000000
11
-21.3775202507
21
41.8124942366
31
0.0000000000
11
-21.4445226889
21
41.7730746651
31
0.0000000000
11
-21.5013621249
21
41.7297969782
31
0.0000000000
11
-21.5471558359
21
41.6833357293
31
0.0000000000
11
-21.5811785388
21
41.6344391262
31
0.0000000000
11
-21.6029390414
21
41.5838051993
31
0.0000000000
11
-21.6120630324
21
41.5323196015
31
0.0000000000
11
-21.6123568959
21
41.5211746622
31
0.0000000000
0
SPLINE
5
373
100
AcDbEntity
8
0
100
AcDbSpline
62
9
6
CONTINUOUS
70
0
71
3
72
27
73
23
74
21
42
0.0000001000
43
0.0000001000
44
0.0000000001
12
0.0012743128
22
-1.8864997519
32
0.0000000000
13
1.6837882326
23
0.8405615301
33
0.0000000000
40
0.0000000000
40
0.0000000000
40
0.0000000000
40
0.0000000000
40
0.0183942949
40
0.0503476994
40
0.0842095818
40
0.1208726383
40
0.1609022486
40
0.2045651964
40
0.2518838808
40
0.3026890669
40
0.3566633817
40
0.4133755906
40
0.4723076284
40
0.5328769289
40
0.5944568624
40
0.6563955428
40
0.7180308627
40
0.7787062545
40
0.8377934525
40
0.8947085469
40
0.9489204651
40
1.0000000000
40
1.0000000000
40
1.0000000000
40
1.0000000000
10
-34.0256516217
20
48.9551135372
30
0.0000000000
10
-34.0256438084
20
48.9435465929
30
0.0000000000
10
-34.0234182665
20
48.9118851258
30
0.0000000000
10
-34.0096920490
20
48.8603923094
30
0.0000000000
10
-33.9799110919
20
48.8029247519
30
0.0000000000
10
-33.9368828345
20
48.7481026689
30
0.0000000000
10
-33.8813623219
20
48.6965589657
30
0.0000000000
10
-33.8141683551
20
48.6488950739
30
0.0000000000
10
-33.7362368714
20
48.6057040910
30
0.0000000000
10
-33.6486456408
20
48.5675541138
30
0.0000000000
10
-33.5526136929
20
48.5349655445
30
0.0000000000
10
-33.4494875982
20
48.5083928090
30
0.0000000000
10
-33.3407220790
20
48.4882113179
30
0.0000000000
10
-33.2278576343
20
48.4747083226
30
0.0000000000
10
-33.1124962229
20
48.4680767704
30
0.0000000000
10
-32.9962773035
20
48.4684117817
30
0.0000000000
10
-32.8808547908
20
48.4757087423
30
0.0000000000
10
-32.7678702276
20
48.4898632512
30
0.0000000000
10
-32.6589279263
20
48.5106725827
30
0.0000000000
10
-32.5555696284
20
48.5378419355
30
0.0000000000
10
-32.4592621621
20
48.5709821555
30
0.0000000000
10
-32.3987029525
20
48.5976094892
30
0.0000000000
10
-32.3700339126
20
48.6119213199
30
0.0000000000
11
-34.0256516217
21
48.9551135372
31
0.0000000000
11
-34.0232192766
21
48.9205286031
31
0.0000000000
11
-34.0080235166
21
48.8623459439
31
0.0000000000
11
-33.9791221056
21
48.8055506794
31
0.0000000000
11
-33.9369294250
21
48.7509572653
31
0.0000000000
11
-33.8820507887
21
48.6993488706
31
0.0000000000
11
-33.8152732365
21
48.6514654976
31
0.0000000000
11
-33.7375542492
21
48.6079936661
31
0.0000000000
11
-33.6500083252
21
48.5695567665
31
0.0000000000
11
-33.5538908861
21
48.5367059913
31
0.0000000000
11
-33.4505800044
21
48.5099123691
31
0.0000000000
11
-33.3415570166
21
48.4895601584
31
0.0000000000
11
-33.2283859019
21
48.4759413440
31
0.0000000000
11
-33.1126896205
21
48.4692511935
31
0.0000000000
11
-32.9961254121
21
48.4695856700
31
0.0000000000
11
-32.8803650235
21
48.4769402663
31
0.0000000000
11
-32.7670727925
21
48.4912091292
31
0.0000000000
11
-32.6578712183
21
48.5121875836
31
0.0000000000
11
-32.5543214615
21
48.5395761215
31
0.0000000000
11
-32.4579208511
21
48.5729781925
31
0.0000000000
11
-32.3700339126
21
48.6119213199
31
0.0000000000
0
SPLINE
5
374
100
AcDbEntity
8
0
100
AcDbSpline
62
9
6
CONTINUOUS
70
0
71
3
72
27
73
23
74
21
42
0.0000001000
43
0.0000001000
44
0.0000000001
12
0.0010158263
22
-1.8797227889
32
0.0000000000
13
1.6834393874
23
0.8259576922
33
0.0000000000
40
0.0000000000
40
0.0000000000
40
0.0000000000
40
0.0000000000
40
0.0161675314
40
0.0481404690
40
0.0819513237
40
0.1185193364
40
0.1584354729
40
0.2019875759
40
0.2492141030
40
0.2999576111
40
0.3539091490
40
0.4106432609
40
0.4696455361
40
0.5303352893
40
0.5920862363
40
0.6542454639
40
0.7161485652
40
0.7771354534
40
0.8365731766
40
0.8938719510
40
0.9484934786
40
1.0000000000
40
1.0000000000
40
1.0000000000
40
1.0000000000
10
-17.9162029740
20
40.9003846229
30
0.0000000000
10
-17.9161974995
20
40.8902544638
30
0.0000000000
10
-17.9143435871
20
40.8600915642
30
0.0000000000
10
-17.9018754425
20
40.8099374453
30
0.0000000000
10
-17.8730880589
20
40.7523047667
30
0.0000000000
10
-17.8309994680
20
40.6972678187
30
0.0000000000
10
-17.7763622325
20
40.6454649694
30
0.0000000000
10
-17.7099884592
20
40.5974983383
30
0.0000000000
10
-17.6328043350
20
40.5539619821
30
0.0000000000
10
-17.5458770945
20
40.5154266123
30
0.0000000000
10
-17.4504158369
20
40.4824167887
30
0.0000000000
10
-17.3477584575
20
40.4553922409
30
0.0000000000
10
-17.2393525463
20
40.4347344858
30
0.0000000000
10
-17.1267331488
20
40.4207374304
30
0.0000000000
10
-17.0114985204
20
40.4136010335
30
0.0000000000
10
-16.8952862062
20
40.4134276301
30
0.0000000000
10
-16.7797500156
20
40.4202198954
30
0.0000000000
10
-16.6665332042
20
40.4338806463
30
0.0000000000
10
-16.5572435649
20
40.4542141887
30
0.0000000000
10
-16.4534281593
20
40.4809323413
30
0.0000000000
10
-16.3565605693
20
40.5136522551
30
0.0000000000
10
-16.2955729618
20
40.5400051981
30
0.0000000000
10
-16.2666702595
20
40.5541859339
30
0.0000000000
11
-17.9162029740
21
40.9003846229
31
0.0000000000
11
-17.9143352801
21
40.8700736654
31
0.0000000000
11
-17.9001485886
21
40.8118223751
31
0.0000000000
11
-17.8722336820
21
40.7548982446
31
0.0000000000
11
-17.8309907969
21
40.7001175781
31
0.0000000000
11
-17.7770116236
21
40.6482662313
31
0.0000000000
11
-17.7110703069
21
40.6000876912
31
0.0000000000
11
-17.6341123403
21
40.5562727093
31
0.0000000000
11
-17.5472413110
21
40.5174495963
31
0.0000000000
11
-17.4517029634
21
40.4841750821
31
0.0000000000
11
-17.3488670678
21
40.4569262696
31
0.0000000000
11
-17.2402081481
21
40.4360939430
31
0.0000000000
11
-17.1272849594
21
40.4219769735
31
0.0000000000
11
-17.0117169058
21
40.4147777720
31
0.0000000000
11
-16.8951593857
21
40.4145995929
31
0.0000000000
11
-16.7792840428
21
40.4214452813
31
0.0000000000
11
-16.6657568676
21
40.4352163012
31
0.0000000000
11
-16.5562037280
21
40.4557151079
31
0.0000000000
11
-16.4521908025
21
40.4826490517
31
0.0000000000
11
-16.3552221258
21
40.5156281565
31
0.0000000000
11
-16.2666702595
21
40.5541859339
31
0.0000000000
0
SPLINE
5
375
100
AcDbEntity
8
0
100
AcDbSpline
62
9
6
CONTINUOUS
70
0
71
3
72
13
73
9
74
7
42
0.0000001000
43
0.0000001000
44
0.0000000001
12
0.1447527022
22
0.0683032172
32
0.0000000000
13
0.0011522780
23
0.1595432997
33
0.0000000000
40
0.0000000000
40
0.0000000000
40
0.0000000000
40
0.0000000000
40
0.0254671973
40
0.1927969361
40
0.3694731774
40
0.5613431628
40
0.7713973689
40
1.0000000000
40
1.0000000000
40
1.0000000000
40
1.0000000000
10
-16.3335420227
20
-0.6873035872
30
0.0000000000
10
-16.3323132075
20
-0.6867237567
30
0.0000000000
10
-16.3231093631
20
-0.6821270197
30
0.0000000000
10
-16.3070549636
20
-0.6703349191
30
0.0000000000
10
-16.2893001781
20
-0.6476507902
30
0.0000000000
10
-16.2763697771
20
-0.6194709476
30
0.0000000000
10
-16.2684880287
20
-0.5867036985
30
0.0000000000
10
-16.2667580641
20
-0.5633375947
30
0.0000000000
10
-16.2666702595
20
-0.5511802554
30
0.0000000000
11
-16.3335420227
21
-0.6873035872
31
0.0000000000
11
-16.3298960935
21
-0.6854821997
31
0.0000000000
11
-16.3083010413
21
-0.6697855314
31
0.0000000000
11
-16.2907169922
21
-0.6477542262
31
0.0000000000
11
-16.2776781275
21
-0.6200575632
31
0.0000000000
11
-16.2695805517
21
-0.5875369286
31
0.0000000000
11
-16.2666702595
21
-0.5511802554
31
0.0000000000
0
SPLINE
5
376
100
AcDbEntity
8
0
100
AcDbSpline
62
7
6
CONTINUOUS
70
0
71
3
72
13
73
9
74
7
42
0.0000001000
43
0.0000001000
44
0.0000000001
12
-0.3069427780
22
0.1535472503
32
0.0000000000
13
-0.3066440394
23
-0.1527152982
33
0.0000000000
40
0.0000000000
40
0.0000000000
40
0.0000000000
40
0.0000000000
40
0.0335023088
40
0.2086321100
40
0.3893890677
40
0.5798317027
40
0.7828310166
40
1.0000000000
40
1.0000000000
40
1.0000000000
40
1.0000000000
10
-11.7561220774
20
45.3304940442
30
0.0000000000
10
-11.7595498413
20
45.3322087733
30
0.0000000000
10
-11.7811160141
20
45.3424452106
30
0.0000000000
10
-11.8237357980
20
45.3562647800
30
0.0000000000
10
-11.8861898268
20
45.3628562191
30
0.0000000000
10
-11.9518715995
20
45.3572514395
30
0.0000000000
10
-12.0196401109
20
45.3397090264
30
0.0000000000
10
-12.0639905305
20
45.3209518415
30
0.0000000000
10
-12.0861883886
20
45.3098968328
30
0.0000000000
11
-11.7561220774
21
45.3304940442
31
0.0000000000
11
-11.7665087959
21
45.3354232971
31
0.0000000000
11
-11.8235389625
21
45.3540462578
31
0.0000000000
11
-11.8850890126
21
45.3608182324
31
0.0000000000
11
-11.9501214919
21
45.3556254692
31
0.0000000000
11
-12.0175348560
21
45.3385554364
31
0.0000000000
11
-12.0861883886
21
45.3098968328
31
0.0000000000
0
SPLINE
5
377
100
AcDbEntity
8
0
100
AcDbSpline
62
7
6
CONTINUOUS
70
0
71
3
72
13
73
9
74
7
42
0.0000001000
43
0.0000001000
44
0.0000000001
12
-0.3045186997
22
0.1523375082
32
0.0000000000
13
-0.3031350194
23
-0.1536552288
33
0.0000000000
40
0.0000000000
40
0.0000000000
40
0.0000000000
40
0.0000000000
40
0.0334256084
40
0.2083240183
40
0.3888584174
40
0.5792201750
40
0.7823764887
40
1.0000000000
40
1.0000000000
40
1.0000000000
40
1.0000000000
10
-21.8132236499
20
50.3590448037
30
0.0000000000
10
-21.8166165575
20
50.3607421283
30
0.0000000000
10
-21.8379824668
20
50.3708796047
30
0.0000000000
10
-21.8802317374
20
50.3845171697
30
0.0000000000
10
-21.9421609720
20
50.3908354018
30
0.0000000000
10
-22.0072815336
20
50.3849352324
30
0.0000000000
10
-22.0744618874
20
50.3670858114
30
0.0000000000
10
-22.1183940163
20
50.3481408614
30
0.0000000000
10
-22.1403837854
20
50.3369945312
30
0.0000000000
11
-21.8132236499
21
50.3590448037
31
0.0000000000
11
-21.8235055356
21
50.3639223544
31
0.0000000000
11
-21.8800339279
21
50.3822975092
31
0.0000000000
11
-21.9410436044
21
50.3888011807
31
0.0000000000
11
-22.0055065197
21
50.3833236739
31
0.0000000000
11
-22.0723301767
21
50.3659569541
31
0.0000000000
11
-22.1403837854
21
50.3369945312
31
0.0000000000
0
SPLINE
5
378
100
AcDbEntity
8
0
100
AcDbSpline
62
7
6
CONTINUOUS
70
0
71
3
72
10
73
6
74
4
42
0.0000001000
43
0.0000001000
44
0.0000000001
12
0.0160450846
22
-0.0425145629
32
0.0000000000
13
-0.0341318606
23
-0.0282257220
33
0.0000000000
40
0.0000000000
40
0.0000000000
40
0.0000000000
40
0.0000000000
40
0.0289128813
40
0.3452255176
40
1.0000000000
40
1.0000000000
40
1.0000000000
40
1.0000000000
10
-20.4372785194
20
49.0931141595
30
0.0000000000
10
-20.4371238829
20
49.0927044200
30
0.0000000000
10
-20.4357900696
20
49.0873165500
30
0.0000000000
10
-20.4544847210
20
49.0798599645
30
0.0000000000
10
-20.4616908335
20
49.0694864496
30
0.0000000000
10
-20.4691403906
20
49.0633259554
30
0.0000000000
11
-20.4372785194
21
49.0931141595
31
0.0000000000
11
-20.4369550915
21
49.0918216797
31
0.0000000000
11
-20.4469957061
21
49.0820513727
31
0.0000000000
11
-20.4691403906
21
49.0633259554
31
0.0000000000
0
SPLINE
5
379
100
AcDbEntity
8
0
100
AcDbSpline
62
7
6
CONTINUOUS
70
0
71
3
72
26
73
22
74
20
42
0.0000001000
43
0.0000001000
44
0.0000000001
12
0.0006328832
22
-1.5879667369
32
0.0000000000
13
1.4157151913
23
0.7106102424
33
0.0000000000
40
0.0000000000
40
0.0000000000
40
0.0000000000
40
0.0000000000
40
0.0256745007
40
0.0594138095
40
0.0955672731
40
0.1349121286
40
0.1781209068
40
0.2252199295
40
0.2763261065
40
0.3309617749
40
0.3889144471
40
0.4494151079
40
0.5120552289
40
0.5759218393
40
0.6404934464
40
0.7048324325
40
0.7683592065
40
0.8302336362
40
0.8898649629
40
0.9466215865
40
1.0000000000
40
1.0000000000
40
1.0000000000
40
1.0000000000
10
-31.6532731888
20
46.5416328087
30
0.0000000000
10
-31.6532677725
20
46.5280427243
30
0.0000000000
10
-31.6501912444
20
46.4965850994
30
0.0000000000
10
-31.6343258050
20
46.4482008747
30
0.0000000000
10
-31.6046808084
20
46.3982658763
30
0.0000000000
10
-31.5631100032
20
46.3509619996
30
0.0000000000
10
-31.5104032307
20
46.3069255944
30
0.0000000000
10
-31.4473174986
20
46.2666634530
30
0.0000000000
10
-31.3748794486
20
46.2307831040
30
0.0000000000
10
-31.2940892961
20
46.1997574315
30
0.0000000000
10
-31.2062762845
20
46.1740921137
30
0.0000000000
10
-31.1126767903
20
46.1541453757
30
0.0000000000
10
-31.0148419876
20
46.1402485800
30
0.0000000000
10
-30.9141705650
20
46.1325998535
30
0.0000000000
10
-30.8123215343
20
46.1313251569
30
0.0000000000
10
-30.7107727087
20
46.1364422296
30
0.0000000000
10
-30.6111690209
20
46.1478667352
30
0.0000000000
10
-30.5149836077
20
46.1654289119
30
0.0000000000
10
-30.4237292441
20
46.1888522208
30
0.0000000000
10
-30.3387905456
20
46.2177812163
30
0.0000000000
10
-30.2854652969
20
46.2412282388
30
0.0000000000
10
-30.2602757533
20
46.2538719879
30
0.0000000000
11
-31.6532731888
21
46.5416328087
31
0.0000000000
11
-31.6493414789
21
46.5011123446
31
0.0000000000
11
-31.6330104702
21
46.4502238195
31
0.0000000000
11
-31.6041823864
21
46.4007397772
31
0.0000000000
11
-31.5634069212
21
46.3536051535
31
0.0000000000
11
-31.5111663581
21
46.3093826832
31
0.0000000000
11
-31.4484763075
21
46.2689327467
31
0.0000000000
11
-31.3760681580
21
46.2327286719
31
0.0000000000
11
-31.2953608568
21
46.2014799325
31
0.0000000000
11
-31.2072987831
21
46.1755510845
31
0.0000000000
11
-31.1135952409
21
46.1554462044
31
0.0000000000
11
-31.0153688977
21
46.1414030333
31
0.0000000000
11
-30.9144954529
21
46.1336893316
31
0.0000000000
11
-30.8122189150
21
46.1323975428
31
0.0000000000
11
-30.7104331437
21
46.1375522504
31
0.0000000000
11
-30.6104663341
21
46.1490830239
31
0.0000000000
11
-30.5140671019
21
46.1667913623
31
0.0000000000
11
-30.4226115499
21
46.1904216906
31
0.0000000000
11
-30.3375725986
21
46.2195996200
31
0.0000000000
11
-30.2602757533
21
46.2538719879
31
0.0000000000
0
SPLINE
5
37A
100
AcDbEntity
8
0
100
AcDbSpline
62
7
6
CONTINUOUS
70
0
71
3
72
26
73
22
74
20
42
0.0000001000
43
0.0000001000
44
0.0000000001
12
0.0006328832
22
-1.5879667369
32
0.0000000000
13
1.4157151913
23
0.7106102424
33
0.0000000000
40
0.0000000000
40
0.0000000000
40
0.0000000000
40
0.0000000000
40
0.0256745007
40
0.0594138095
40
0.0955672731
40
0.1349121286
40
0.1781209068
40
0.2252199295
40
0.2763261065
40
0.3309617749
40
0.3889144471
40
0.4494151079
40
0.5120552289
40
0.5759218393
40
0.6404934464
40
0.7048324325
40
0.7683592065
40
0.8302336362
40
0.8898649629
40
0.9466215865
40
1.0000000000
40
1.0000000000
40
1.0000000000
40
1.0000000000
10
-21.6123568959
20
41.5211746622
30
0.0000000000
10
-21.6123514796
20
41.5075845779
30
0.0000000000
10
-21.6092749515
20
41.4761269529
30
0.0000000000
10
-21.5934095122
20
41.4277427283
30
0.0000000000
10
-21.5637645155
20
41.3778077299
30
0.0000000000
10
-21.5221937104
20
41.3305038532
30
0.0000000000
10
-21.4694869378
20
41.2864674480
30
0.0000000000
10
-21.4064012057
20
41.2462053066
30
0.0000000000
10
-21.3339631558
20
41.2103249576
30
0.0000000000
10
-21.2531730032
20
41.1792992851
30
0.0000000000
10
-21.1653599916
20
41.1536339673
30
0.0000000000
10
-21.0717604975
20
41.1336872292
30
0.0000000000
10
-20.9739256947
20
41.1197904336
30
0.0000000000
10
-20.8732542722
20
41.1121417071
30
0.0000000000
10
-20.7714052415
20
41.1108670105
30
0.0000000000
10
-20.6698564159
20
41.1159840832
30
0.0000000000
10
-20.5702527280
20
41.1274085888
30
0.0000000000
10
-20.4740673149
20
41.1449707654
30
0.0000000000
10
-20.3828129513
20
41.1683940744
30
0.0000000000
10
-20.2978742528
20
41.1973230699
30
0.0000000000
10
-20.2445490041
20
41.2207700924
30
0.0000000000
10
-20.2193594604
20
41.2334138415
30
0.0000000000
11
-21.6123568959
21
41.5211746622
31
0.0000000000
11
-21.6084251861
21
41.4806541982
31
0.0000000000
11
-21.5920941774
21
41.4297656731
31
0.0000000000
11
-21.5632660936
21
41.3802816308
31
0.0000000000
11
-21.5224906283
21
41.3331470071
31
0.0000000000
11
-21.4702500652
21
41.2889245368
31
0.0000000000
11
-21.4075600146
21
41.2484746003
31
0.0000000000
11
-21.3351518651
21
41.2122705255
31
0.0000000000
11
-21.2544445639
21
41.1810217861
31
0.0000000000
11
-21.1663824903
21
41.1550929380
31
0.0000000000
11
-21.0726789480
21
41.1349880580
31
0.0000000000
11
-20.9744526049
21
41.1209448869
31
0.0000000000
11
-20.8735791600
21
41.1132311852
31
0.0000000000
11
-20.7713026222
21
41.1119393964
31
0.0000000000
11
-20.6695168508
21
41.1170941040
31
0.0000000000
11
-20.5695500412
21
41.1286248774
31
0.0000000000
11
-20.4731508091
21
41.1463332159
31
0.0000000000
11
-20.3816952570
21
41.1699635442
31
0.0000000000
11
-20.2966563057
21
41.1991414735
31
0.0000000000
11
-20.2193594604
21
41.2334138415
31
0.0000000000
0
SPLINE
5
37B
100
AcDbEntity
8
0
100
AcDbSpline
62
9
6
CONTINUOUS
70
0
71
3
72
12
73
8
74
6
42
0.0000001000
43
0.0000001000
44
0.0000000001
12
0.1060091641
22
0.0560571960
32
0.0000000000
13
0.1076976153
23
-0.0519815812
33
0.0000000000
40
0.0000000000
40
0.0000000000
40
0.0000000000
40
0.0000000000
40
0.0910923237
40
0.2976163847
40
0.5149062506
40
0.7482431700
40
1.0000000000
40
1.0000000000
40
1.0000000000
40
1.0000000000
10
-37.3097180628
20
46.1723106892
30
0.0000000000
10
-37.3064991891
20
46.1740128159
30
0.0000000000
10
-37.2956681886
20
46.1789784780
30
0.0000000000
10
-37.2755434278
20
46.1839778228
30
0.0000000000
10
-37.2491314608
20
46.1841514871
30
0.0000000000
10
-37.2215314700
20
46.1785438668
30
0.0000000000
10
-37.2034610978
20
46.1713858175
30
0.0000000000
10
-37.1944232278
20
46.1670235782
30
0.0000000000
11
-37.3097180628
21
46.1723106892
31
0.0000000000
11
-37.2997939859
21
46.1768580412
31
0.0000000000
11
-37.2758527630
21
46.1829227638
31
0.0000000000
11
-37.2498703898
21
46.1832830569
31
0.0000000000
11
-37.2224846298
21
46.1779308128
31
0.0000000000
11
-37.1944232278
21
46.1670235782
31
0.0000000000
0
SPLINE
5
37C
100
AcDbEntity
8
0
100
AcDbSpline
62
9
6
CONTINUOUS
70
0
71
3
72
13
73
9
74
7
42
0.0000001000
43
0.0000001000
44
0.0000000001
12
-0.0000582539
22
-0.1208763376
32
0.0000000000
13
0.1077496245
23
-0.0538748122
33
0.0000000000
40
0.0000000000
40
0.0000000000
40
0.0000000000
40
0.0000000000
40
0.0091898010
40
0.1720315981
40
0.3463942723
40
0.5402482835
40
0.7578960355
40
1.0000000000
40
1.0000000000
40
1.0000000000
40
1.0000000000
10
-37.4428802627
20
45.9512964649
30
0.0000000000
10
-37.4428804411
20
45.9509261884
30
0.0000000000
10
-37.4428209581
20
45.9439948343
30
0.0000000000
10
-37.4403144001
20
45.9300835230
30
0.0000000000
10
-37.4305157614
20
45.9108584619
30
0.0000000000
10
-37.4150527442
20
45.8928954985
30
0.0000000000
10
-37.3944136423
20
45.8764909895
30
0.0000000000
10
-37.3783528120
20
45.8672562161
30
0.0000000000
10
-37.3696572749
20
45.8629084475
30
0.0000000000
11
-37.4428802627
21
45.9512964649
31
0.0000000000
11
-37.4428707035
21
45.9501857170
31
0.0000000000
11
-37.4395158289
21
45.9308575326
31
0.0000000000
11
-37.4302196266
21
45.9120215587
31
0.0000000000
11
-37.4152073477
21
45.8941329775
31
0.0000000000
11
-37.3948400757
21
45.8776212193
31
0.0000000000
11
-37.3696572749
21
45.8629084475
31
0.0000000000
0
SPLINE
5
37D
100
AcDbEntity
8
0
100
AcDbSpline
62
7
6
CONTINUOUS
70
0
71
3
72
13
73
9
74
7
42
0.0000001000
43
0.0000001000
44
0.0000000001
12
0.4178920004
22
0.1976607926
32
0.0000000000
13
0.3135822959
23
0.3394521838
33
0.0000000000
40
0.0000000000
40
0.0000000000
40
0.0000000000
40
0.0000000000
40
0.1109088436
40
0.2917684763
40
0.4717121032
40
0.6502357387
40
0.8266242828
40
1.0000000000
40
1.0000000000
40
1.0000000000
40
1.0000000000
10
-16.6328693818
20
0.5164496467
30
0.0000000000
10
-16.6174200756
20
0.5237570900
30
0.0000000000
10
-16.5773186059
20
0.5441235749
30
0.0000000000
10
-16.5148376971
20
0.5813666605
30
0.0000000000
10
-16.4467664807
20
0.6291133738
30
0.0000000000
10
-16.3825828407
20
0.6808626573
30
0.0000000000
10
-16.3224530373
20
0.7357655786
30
0.0000000000
10
-16.2847927780
20
0.7743421658
30
0.0000000000
10
-16.2666702595
20
0.7939597544
30
0.0000000000
11
-16.6328693818
21
0.5164496467
31
0.0000000000
11
-16.5871430929
21
0.5396264928
31
0.0000000000
11
-16.5152821237
21
0.5823072443
31
0.0000000000
11
-16.4471484990
21
0.6299819016
31
0.0000000000
11
-16.3828817282
21
0.6817133108
31
0.0000000000
11
-16.3226569062
21
0.7366450572
31
0.0000000000
11
-16.2666702595
21
0.7939597544
31
0.0000000000
0
SPLINE
5
37E
100
AcDbEntity
8
0
100
AcDbSpline
62
9
6
CONTINUOUS
70
0
71
3
72
13
73
9
74
7
42
0.0000001000
43
0.0000001000
44
0.0000000001
12
-0.1413958111
22
0.0707627252
32
0.0000000000
13
-0.0000000000
23
0.1576832329
33
0.0000000000
40
0.0000000000
40
0.0000000000
40
0.0000000000
40
0.0000000000
40
0.1020159017
40
0.2576529903
40
0.4225562005
40
0.6003332410
40
0.7927666905
40
1.0000000000
40
1.0000000000
40
1.0000000000
40
1.0000000000
10
-20.3010093519
20
-1.1104676863
30
0.0000000000
10
-20.3058175590
20
-1.1080613785
30
0.0000000000
10
-20.3174439169
20
-1.1009441246
30
0.0000000000
10
-20.3336574630
20
-1.0854426593
30
0.0000000000
10
-20.3480468860
20
-1.0633147736
30
0.0000000000
10
-20.3584473295
20
-1.0370102173
30
0.0000000000
10
-20.3646956917
20
-1.0071865981
30
0.0000000000
10
-20.3659839725
20
-0.9861442881
30
0.0000000000
10
-20.3659839725
20
-0.9752518820
30
0.0000000000
11
-20.3010093519
21
-1.1104676863
31
0.0000000000
11
-20.3147515009
21
-1.1020593052
31
0.0000000000
11
-20.3325844588
21
-1.0851991768
31
0.0000000000
11
-20.3469260329
21
-1.0635093690
31
0.0000000000
11
-20.3574269912
21
-1.0375180511
31
0.0000000000
11
-20.3638316242
21
-1.0078581389
31
0.0000000000
11
-20.3659839725
21
-0.9752518820
31
0.0000000000
0
SPLINE
5
37F
100
AcDbEntity
8
0
100
AcDbSpline
62
9
6
CONTINUOUS
70
0
71
3
72
13
73
9
74
7
42
0.0000001000
43
0.0000001000
44
0.0000000001
12
-0.0000457033
22
-0.1208699431
32
0.0000000000
13
0.1077439539
23
-0.0538719769
33
0.0000000000
40
0.0000000000
40
0.0000000000
40
0.0000000000
40
0.0000000000
40
0.0091376543
40
0.1719880218
40
0.3463598728
40
0.5402240866
40
0.7578832935
40
1.0000000000
40
1.0000000000
40
1.0000000000
40
1.0000000000
10
-37.4428802654
20
7.6149664252
30
0.0000000000
10
-37.4428804046
20
7.6145982692
30
0.0000000000
10
-37.4428205772
20
7.6076690425
30
0.0000000000
10
-37.4403144001
20
7.5937598447
30
0.0000000000
10
-37.4305157614
20
7.5745347836
30
0.0000000000
10
-37.4150527442
20
7.5565718203
30
0.0000000000
10
-37.3944136423
20
7.5401673112
30
0.0000000000
10
-37.3783528120
20
7.5309325378
30
0.0000000000
10
-37.3696572749
20
7.5265847692
30
0.0000000000
11
-37.4428802654
21
7.6149664252
31
0.0000000000
11
-37.4428707035
21
7.6138620387
31
0.0000000000
11
-37.4395158289
21
7.5945338543
31
0.0000000000
11
-37.4302196266
21
7.5756978804
31
0.0000000000
11
-37.4152073477
21
7.5578092992
31
0.0000000000
11
-37.3948400757
21
7.5412975410
31
0.0000000000
11
-37.3696572749
21
7.5265847692
31
0.0000000000
0
SPLINE
5
380
100
AcDbEntity
8
0
100
AcDbSpline
62
9
6
CONTINUOUS
70
0
71
3
72
13
73
9
74
7
42
0.0000001000
43
0.0000001000
44
0.0000000001
12
-0.1413958111
22
0.0707627252
32
0.0000000000
13
-0.0000000000
23
0.1576832329
33
0.0000000000
40
0.0000000000
40
0.0000000000
40
0.0000000000
40
0.0000000000
40
0.1020159017
40
0.2576529903
40
0.4225562005
40
0.6003332410
40
0.7927666905
40
1.0000000000
40
1.0000000000
40
1.0000000000
40
1.0000000000
10
-37.3046826544
20
7.3913689650
30
0.0000000000
10
-37.3094908614
20
7.3937752727
30
0.0000000000
10
-37.3211172194
20
7.4008925267
30
0.0000000000
10
-37.3373307654
20
7.4163939920
30
0.0000000000
10
-37.3517201885
20
7.4385218776
30
0.0000000000
10
-37.3621206319
20
7.4648264339
30
0.0000000000
10
-37.3683689941
20
7.4946500532
30
0.0000000000
10
-37.3696572749
20
7.5156923632
30
0.0000000000
10
-37.3696572749
20
7.5265847692
30
0.0000000000
11
-37.3046826544
21
7.3913689650
31
0.0000000000
11
-37.3184248034
21
7.3997773460
31
0.0000000000
11
-37.3362577612
21
7.4166374744
31
0.0000000000
11
-37.3505993354
21
7.4383272823
31
0.0000000000
11
-37.3611002936
21
7.4643186001
31
0.0000000000
11
-37.3675049266
21
7.4939785124
31
0.0000000000
11
-37.3696572749
21
7.5265847692
31
0.0000000000
0
SPLINE
5
381
100
AcDbEntity
8
0
100
AcDbSpline
62
7
6
CONTINUOUS
70
0
71
3
72
12
73
8
74
6
42
0.0000001000
43
0.0000001000
44
0.0000000001
12
0.2653206135
22
0.0156827271
32
0.0000000000
13
0.2048211250
23
0.1693791092
33
0.0000000000
40
0.0000000000
40
0.0000000000
40
0.0000000000
40
0.0000000000
40
0.2613363565
40
0.4920808070
40
0.6914874616
40
0.8599646941
40
1.0000000000
40
1.0000000000
40
1.0000000000
40
1.0000000000
10
-20.7227738932
20
48.9963490624
30
0.0000000000
10
-20.6996612524
20
48.9977152179
30
0.0000000000
10
-20.6561928686
20
49.0014799006
30
0.0000000000
10
-20.5956356845
20
49.0111447735
30
0.0000000000
10
-20.5441600489
20
49.0243585253
30
0.0000000000
10
-20.5021858517
20
49.0409326537
30
0.0000000000
10
-20.4787011202
20
49.0554196036
30
0.0000000000
10
-20.4691403906
20
49.0633259554
30
0.0000000000
11
-20.7227738932
21
48.9963490624
31
0.0000000000
11
-20.6535960738
21
49.0025919956
31
0.0000000000
11
-20.5930875728
21
49.0125849376
31
0.0000000000
11
-20.5418625138
21
49.0261824168
31
0.0000000000
11
-20.5004350246
21
49.0431788109
31
0.0000000000
11
-20.4691403906
21
49.0633259554
31
0.0000000000
0
SPLINE
5
382
100
AcDbEntity
8
0
100
AcDbSpline
62
7
6
CONTINUOUS
70
0
71
3
72
15
73
11
74
9
42
0.0000001000
43
0.0000001000
44
0.0000000001
12
0.0000000000
22
-0.6370087536
32
0.0000000000
13
-0.5748751518
23
-0.2763915720
33
0.0000000000
40
0.0000000000
40
0.0000000000
40
0.0000000000
40
0.0000000000
40
0.1484659489
40
0.2902564778
40
0.4241439513
40
0.5500311298
40
0.6698475543
40
0.7841815657
40
0.8939521494
40
1.0000000000
40
1.0000000000
40
1.0000000000
40
1.0000000000
10
-16.9530713607
20
8.1716930079
30
0.0000000000
10
-16.9530713607
20
8.1401683049
30
0.0000000000
10
-16.9558125172
20
8.0784880048
30
0.0000000000
10
-16.9688426216
20
7.9892095658
30
0.0000000000
10
-16.9905765117
20
7.9065508603
30
0.0000000000
10
-17.0207527375
20
7.8315586990
30
0.0000000000
10
-17.0590981906
20
7.7650947550
30
0.0000000000
10
-17.1052579826
20
7.7080793224
30
0.0000000000
10
-17.1583008819
20
7.6616858989
30
0.0000000000
10
-17.1978517512
20
7.6380442075
30
0.0000000000
10
-17.2181731759
20
7.6282739635
30
0.0000000000
11
-16.9530713607
21
8.1716930079
31
0.0000000000
11
-16.9574913419
21
8.0772222406
31
0.0000000000
11
-16.9707920640
21
7.9878851273
31
0.0000000000
11
-16.9927604353
21
7.9054754977
31
0.0000000000
11
-17.0229772833
21
7.8311951086
31
0.0000000000
11
-17.0613811520
21
7.7652366912
31
0.0000000000
11
-17.1074130685
21
7.7087962020
31
0.0000000000
11
-17.1601606798
21
7.6628922769
31
0.0000000000
11
-17.2181731759
21
7.6282739635
31
0.0000000000
0
SPLINE
5
383
100
AcDbEntity
8
0
100
AcDbSpline
62
7
6
CONTINUOUS
70
0
71
3
72
21
73
17
74
15
42
0.0000001000
43
0.0000001000
44
0.0000000001
12
1.3169762118
22
-0.6584881059
32
0.0000000000
13
0.0000000000
23
-1.4724241671
33
0.0000000000
40
0.0000000000
40
0.0000000000
40
0.0000000000
40
0.0000000000
40
0.0616718704
40
0.1268848430
40
0.1949503031
40
0.2652983616
40
0.3382126849
40
0.4129102940
40
0.4883522511
40
0.5643296841
40
0.6406255670
40
0.7161475284
40
0.7900237420
40
0.8624721127
40
0.9327664831
40
1.0000000000
40
1.0000000000
40
1.0000000000
40
1.0000000000
10
-17.6601512174
20
34.5060280254
30
0.0000000000
10
-17.6330777553
20
34.4924912943
30
0.0000000000
10
-17.5789082650
20
34.4614966462
30
0.0000000000
10
-17.5008292185
20
34.4059622059
30
0.0000000000
10
-17.4248055680
20
34.3408945947
30
0.0000000000
10
-17.3517452623
20
34.2671200025
30
0.0000000000
10
-17.2824771166
20
34.1854653188
30
0.0000000000
10
-17.2179063561
20
34.0969418422
30
0.0000000000
10
-17.1589347146
20
34.0028211138
30
0.0000000000
10
-17.1062038558
20
33.9041789086
30
0.0000000000
10
-17.0603360073
20
33.8021199235
30
0.0000000000
10
-17.0220025255
20
33.6980949197
30
0.0000000000
10
-16.9916521133
20
33.5934291995
30
0.0000000000
10
-16.9696217110
20
33.4893121354
30
0.0000000000
10
-16.9562143144
20
33.3870235983
30
0.0000000000
10
-16.9530713607
20
33.3194944206
30
0.0000000000
10
-16.9530713607
20
33.2864956688
30
0.0000000000
11
-17.6601512174
21
34.5060280254
31
0.0000000000
11
-17.5812117092
21
34.4611449220
31
0.0000000000
11
-17.5028382646
21
34.4056682085
31
0.0000000000
11
-17.4265825337
21
34.3406346930
31
0.0000000000
11
-17.3535968734
21
34.2671339332
31
0.0000000000
11
-17.2840637374
21
34.1853324239
31
0.0000000000
11
-17.2191878197
21
34.0965171114
31
0.0000000000
11
-17.1601732997
21
34.0024074851
31
0.0000000000
11
-17.1074228103
21
33.9037540087
31
0.0000000000
11
-17.0613882845
21
33.8012792509
31
0.0000000000
11
-17.0229843270
21
33.6969209434
31
0.0000000000
11
-16.9927662115
21
33.5924253557
31
0.0000000000
11
-16.9707943928
21
33.4880379159
31
0.0000000000
11
-16.9574919347
21
33.3853931767
31
0.0000000000
11
-16.9530713607
21
33.2864956688
31
0.0000000000
0
SPLINE
5
384
100
AcDbEntity
8
0
100
AcDbSpline
62
9
6
CONTINUOUS
70
0
71
3
72
11
73
7
74
5
42
0.0000001000
43
0.0000001000
44
0.0000000001
12
-0.1076506193
22
0.0519588976
32
0.0000000000
13
-0.1059878822
23
-0.0560330261
33
0.0000000000
40
0.0000000000
40
0.0000000000
40
0.0000000000
40
0.0000000000
40
0.2790527059
40
0.5350373353
40
0.7724435048
40
1.0000000000
40
1.0000000000
40
1.0000000000
40
1.0000000000
10
-33.5741792087
20
49.4259810462
30
0.0000000000
10
-33.5841926075
20
49.4308141365
30
0.0000000000
10
-33.6042009302
20
49.4385629316
30
0.0000000000
10
-33.6347705253
20
49.4437972743
30
0.0000000000
10
-33.6637460114
20
49.4418150206
30
0.0000000000
10
-33.6814363834
20
49.4355216676
30
0.0000000000
10
-33.6894757937
20
49.4312714412
30
0.0000000000
11
-33.5741792087
21
49.4259810462
31
0.0000000000
11
-33.6053807318
21
49.4377754187
31
0.0000000000
11
-33.6355875390
21
49.4426580220
31
0.0000000000
11
-33.6638819891
21
49.4404805255
31
0.0000000000
11
-33.6894757937
21
49.4312714412
31
0.0000000000
0
SPLINE
5
385
100
AcDbEntity
8
0
100
AcDbSpline
62
9
6
CONTINUOUS
70
0
71
3
72
33
73
29
74
27
42
0.0000001000
43
0.0000001000
44
0.0000000001
12
-1.5391058896
22
-0.8136845678
32
0.0000000000
13
1.5559657970
23
0.7809609170
33
0.0000000000
40
0.0000000000
40
0.0000000000
40
0.0000000000
40
0.0000000000
40
0.0376424759
40
0.0723725786
40
0.1042107348
40
0.1333958924
40
0.1604167484
40
0.1860216876
40
0.2111696859
40
0.2368976128
40
0.2641457549
40
0.2936314275
40
0.3258104617
40
0.3608992778
40
0.3989180461
40
0.4397328471
40
0.4830905266
40
0.5286462423
40
0.5759852085
40
0.6246406653
40
0.6741103212
40
0.7238714804
40
0.7733931352
40
0.8221486381
40
0.8696340123
40
0.9153807743
40
0.9589629900
40
1.0000000000
40
1.0000000000
40
1.0000000000
40
1.0000000000
10
-33.5741792087
20
49.4259810462
30
0.0000000000
10
-33.5934911275
20
49.4157713456
30
0.0000000000
10
-33.6297398907
20
49.3943827676
30
0.0000000000
10
-33.6781299685
20
49.3578652502
30
0.0000000000
10
-33.7177433151
20
49.3186127181
30
0.0000000000
10
-33.7479661436
20
49.2770930341
30
0.0000000000
10
-33.7682477508
20
49.2337947232
30
0.0000000000
10
-33.7780718136
20
49.1893287651
30
0.0000000000
10
-33.7770934212
20
49.1445253343
30
0.0000000000
10
-33.7653449920
20
49.1003252380
30
0.0000000000
10
-33.7432158126
20
49.0575263889
30
0.0000000000
10
-33.7112380117
20
49.0167108911
30
0.0000000000
10
-33.6699735452
20
48.9783514769
30
0.0000000000
10
-33.6200319522
20
48.9428962244
30
0.0000000000
10
-33.5621095420
20
48.9107862840
30
0.0000000000
10
-33.4970077337
20
48.8824438178
30
0.0000000000
10
-33.4256327680
20
48.8582552742
30
0.0000000000
10
-33.3489856109
20
48.8385578289
30
0.0000000000
10
-33.2681475828
20
48.8236296861
30
0.0000000000
10
-33.1842637422
20
48.8136832800
30
0.0000000000
10
-33.0985248155
20
48.8088607072
30
0.0000000000
10
-33.0121493901
20
48.8092311364
30
0.0000000000
10
-32.9263667772
20
48.8147893592
30
0.0000000000
10
-32.8423970919
20
48.8254559243
30
0.0000000000
10
-32.7614327072
20
48.8410778428
30
0.0000000000
10
-32.6846196457
20
48.8614343500
30
0.0000000000
10
-32.6130675432
20
48.8862258336
30
0.0000000000
10
-32.5680879381
20
48.9061216421
30
0.0000000000
10
-32.5468038768
20
48.9168044090
30
0.0000000000
11
-33.5741792087
21
49.4259810462
31
0.0000000000
11
-33.6304836791
21
49.3924474758
31
0.0000000000
11
-33.6785551497
21
49.3557735016
31
0.0000000000
11
-33.7176708957
21
49.3165011799
31
0.0000000000
11
-33.7472639381
21
49.2751984311
31
0.0000000000
11
-33.7669118041
21
49.2324559020
31
0.0000000000
11
-33.7763325661
21
49.1888856626
31
0.0000000000
11
-33.7753905160
21
49.1451142277
31
0.0000000000
11
-33.7640995257
21
49.1017695019
31
0.0000000000
11
-33.7426214963
21
49.0594724338
31
0.0000000000
11
-33.7112643558
21
49.0188296649
31
0.0000000000
11
-33.6704779770
21
48.9804243365
31
0.0000000000
11
-33.6208474891
21
48.9448073333
31
0.0000000000
11
-33.5630847124
21
48.9124894097
31
0.0000000000
11
-33.4980181362
21
48.8839340514
31
0.0000000000
11
-33.4265809944
21
48.8595507798
31
0.0000000000
11
-33.3497976798
21
48.8396892337
31
0.0000000000
11
-33.2687693299
21
48.8246342659
31
0.0000000000
11
-33.1846584958
21
48.8146018637
31
0.0000000000
11
-33.0986715507
21
48.8097358613
31
0.0000000000
11
-33.0120403281
21
48.8101060405
31
0.0000000000
11
-32.9260074252
21
48.8157072772
31
0.0000000000
11
-32.8418099096
21
48.8264589314
31
0.0000000000
11
-32.7606536925
21
48.8422067076
31
0.0000000000
11
-32.6836992073
21
48.8627258249
31
0.0000000000
11
-32.6120589760
21
48.8877188969
31
0.0000000000
11
-32.5468038768
21
48.9168044090
31
0.0000000000
0
SPLINE
5
386
100
AcDbEntity
8
0
100
AcDbSpline
62
9
6
CONTINUOUS
70
0
71
3
72
16
73
12
74
10
42
0.0000001000
43
0.0000001000
44
0.0000000001
12
0.3275250762
22
-0.1666765642
32
0.0000000000
13
0.0026505236
23
-0.3674870437
33
0.0000000000
40
0.0000000000
40
0.0000000000
40
0.0000000000
40
0.0000000000
40
0.0973220016
40
0.2022456767
40
0.3134859283
40
0.4292578872
40
0.5474575713
40
0.6658211863
40
0.7820743991
40
0.8940809736
40
1.0000000000
40
1.0000000000
40
1.0000000000
40
1.0000000000
10
-32.5468038768
20
48.9168044090
30
0.0000000000
10
-32.5361787448
20
48.9113973101
30
0.0000000000
10
-32.5150663169
20
48.8982040202
30
0.0000000000
10
-32.4856490957
20
48.8733596085
30
0.0000000000
10
-32.4580232670
20
48.8433905870
30
0.0000000000
10
-32.4330095720
20
48.8091900275
30
0.0000000000
10
-32.4113424833
20
48.7717697831
30
0.0000000000
10
-32.3936667208
20
48.7322438220
30
0.0000000000
10
-32.3805077135
20
48.6917835589
30
0.0000000000
10
-32.3722577724
20
48.6515992324
30
0.0000000000
10
-32.3701274929
20
48.6248959432
30
0.0000000000
10
-32.3700339126
20
48.6119213199
30
0.0000000000
11
-32.5468038768
21
48.9168044090
31
0.0000000000
11
-32.5163539783
21
48.8980434117
31
0.0000000000
11
-32.4867823271
21
48.8732982873
31
0.0000000000
11
-32.4589873558
21
48.8433208314
31
0.0000000000
11
-32.4338135190
21
48.8090218057
31
0.0000000000
11
-32.4120256369
21
48.7714432679
31
0.0000000000
11
-32.3942856594
21
48.7317269124
31
0.0000000000
11
-32.3811325545
21
48.6910793840
31
0.0000000000
11
-32.3729659340
21
48.6507356177
31
0.0000000000
11
-32.3700339126
21
48.6119213199
31
0.0000000000
0
SPLINE
5
387
100
AcDbEntity
8
0
100
AcDbSpline
62
9
6
CONTINUOUS
70
0
71
3
72
11
73
7
74
5
42
0.0000001000
43
0.0000001000
44
0.0000000001
12
-0.1058594426
22
0.0520041733
32
0.0000000000
13
-0.1049805800
23
-0.0545292777
33
0.0000000000
40
0.0000000000
40
0.0000000000
40
0.0000000000
40
0.0000000000
40
0.2811544449
40
0.5386430113
40
0.7771474675
40
1.0000000000
40
1.0000000000
40
1.0000000000
40
1.0000000000
10
-17.4603261842
20
41.3735655627
30
0.0000000000
10
-17.4702471351
20
41.3784392976
30
0.0000000000
10
-17.4900693846
20
41.3862738483
30
0.0000000000
10
-17.5203875672
20
41.3916506208
30
0.0000000000
10
-17.5489076297
20
41.3898134726
30
0.0000000000
10
-17.5662510017
20
41.3837311897
30
0.0000000000
10
-17.5740493977
20
41.3796805271
30
0.0000000000
11
-17.4603261842
21
41.3735655627
31
0.0000000000
11
-17.4912648853
21
41.3854988693
31
0.0000000000
11
-17.5212167591
21
41.3905155170
31
0.0000000000
11
-17.5492718210
21
41.3884630886
31
0.0000000000
11
-17.5740493977
21
41.3796805271
31
0.0000000000
0
SPLINE
5
388
100
AcDbEntity
8
0
100
AcDbSpline
62
9
6
CONTINUOUS
70
0
71
3
72
33
73
29
74
27
42
0.0000001000
43
0.0000001000
44
0.0000000001
12
-1.5447799043
22
-0.8026919917
32
0.0000000000
13
1.5612391401
23
0.7701894143
33
0.0000000000
40
0.0000000000
40
0.0000000000
40
0.0000000000
40
0.0000000000
40
0.0378549717
40
0.0728012271
40
0.1048461377
40
0.1342124138
40
0.1613699352
40
0.1870487493
40
0.2121960281
40
0.2378490107
40
0.2649603380
40
0.2942658707
40
0.3262402285
40
0.3611159059
40
0.3989258705
40
0.4395461417
40
0.4827312319
40
0.5281421738
40
0.5753686032
40
0.6239469440
40
0.6733769847
40
0.7231370816
40
0.7726962888
40
0.8215270282
40
0.8691233762
40
0.9150138258
40
0.9587681846
40
1.0000000000
40
1.0000000000
40
1.0000000000
40
1.0000000000
10
-17.4603261842
20
41.3735655627
30
0.0000000000
10
-17.4798187174
20
41.3634369352
30
0.0000000000
10
-17.5164407147
20
41.3422003302
30
0.0000000000
10
-17.5654459000
20
41.3058988231
30
0.0000000000
10
-17.6057205876
20
41.2668293153
30
0.0000000000
10
-17.6366461352
20
41.2254589373
30
0.0000000000
10
-17.6576699165
20
41.1822717774
30
0.0000000000
10
-17.6682706160
20
41.1378654971
30
0.0000000000
10
-17.6680830469
20
41.0930546826
30
0.0000000000
10
-17.6571089150
20
41.0487808800
30
0.0000000000
10
-17.6357183358
20
41.0058581889
30
0.0000000000
10
-17.6044390568
20
40.9648816575
30
0.0000000000
10
-17.5638311317
20
40.9263281840
30
0.0000000000
10
-17.5144991401
20
40.8906464305
30
0.0000000000
10
-17.4571321690
20
40.8582782971
30
0.0000000000
10
-17.3925238228
20
40.8296479100
30
0.0000000000
10
-17.3215729693
20
40.8051448245
30
0.0000000000
10
-17.2452741298
20
40.7851101752
30
0.0000000000
10
-17.1647033249
20
40.7698267227
30
0.0000000000
10
-17.0810015606
20
40.7595118654
30
0.0000000000
10
-16.9953568112
20
40.7543129281
30
0.0000000000
10
-16.9089862424
20
40.7543044577
30
0.0000000000
10
-16.8231190880
20
40.7594866781
30
0.0000000000
10
-16.7389767365
20
40.7697855147
30
0.0000000000
10
-16.6577541494
20
40.7850532156
30
0.0000000000
10
-16.5806012999
20
40.8050739420
30
0.0000000000
10
-16.5086329921
20
40.8295528546
30
0.0000000000
10
-16.4633350749
20
40.8492447560
30
0.0000000000
10
-16.4418775002
20
40.8598301920
30
0.0000000000
11
-17.4603261842
21
41.3735655627
31
0.0000000000
11
-17.5172023908
21
41.3402784986
31
0.0000000000
11
-17.5659009027
21
41.3038145474
31
0.0000000000
11
-17.6056897272
21
41.2647126073
31
0.0000000000
11
-17.6359921503
21
41.2235381292
31
0.0000000000
11
-17.6563755534
21
41.1808799290
31
0.0000000000
11
-17.6665474748
21
41.1373488673
31
0.0000000000
11
-17.6663614050
21
41.0935708954
31
0.0000000000
11
-17.6558203710
21
41.0501740137
31
0.0000000000
11
-17.6350755309
21
41.0077799197
31
0.0000000000
11
-17.6044242980
21
40.9669966465
31
0.0000000000
11
-17.5643064183
21
40.9284093516
31
0.0000000000
11
-17.5152974336
21
40.8925715301
31
0.0000000000
11
-17.4581002533
21
40.8599971034
31
0.0000000000
11
-17.3935352566
21
40.8311532357
31
0.0000000000
11
-17.3225284850
21
40.8064535859
31
0.0000000000
11
-17.2460981605
21
40.7862523285
31
0.0000000000
11
-17.1653403577
21
40.7708391876
31
0.0000000000
11
-17.0814137458
21
40.7604352883
31
0.0000000000
11
-16.9955220553
21
40.7551897927
31
0.0000000000
11
-16.9088957527
21
40.7551779189
31
0.0000000000
11
-16.8227773594
21
40.7604000225
31
0.0000000000
11
-16.7384051727
21
40.7707809157
31
0.0000000000
11
-16.6569876095
21
40.7861716135
31
0.0000000000
11
-16.5796888326
21
40.8063524415
31
0.0000000000
11
-16.5076263538
21
40.8310309048
31
0.0000000000
11
-16.4418775002
21
40.8598301920
31
0.0000000000
0
SPLINE
5
389
100
AcDbEntity
8
0
100
AcDbSpline
62
9
6
CONTINUOUS
70
0
71
3
72
16
73
12
74
10
42
0.0000001000
43
0.0000001000
44
0.0000000001
12
0.3259962259
22
-0.1688509327
32
0.0000000000
13
0.0026700914
23
-0.3671199359
33
0.0000000000
40
0.0000000000
40
0.0000000000
40
0.0000000000
40
0.0000000000
40
0.0969806246
40
0.2016854279
40
0.3128213504
40
0.4285889661
40
0.5468649282
40
0.6653621243
40
0.7817793518
40
0.8939501239
40
1.0000000000
40
1.0000000000
40
1.0000000000
40
1.0000000000
10
-16.4418775002
20
40.8598301920
30
0.0000000000
10
-16.4313390610
20
40.8543717690
30
0.0000000000
10
-16.4104032016
20
40.8410741150
30
0.0000000000
10
-16.3812539676
20
40.8161010974
30
0.0000000000
10
-16.3538790170
20
40.7860133788
30
0.0000000000
10
-16.3290915616
20
40.7517070802
30
0.0000000000
10
-16.3076194312
20
40.7141968965
30
0.0000000000
10
-16.2901016222
20
40.6745994536
30
0.0000000000
10
-16.2770588346
20
40.6340884981
30
0.0000000000
10
-16.2688797366
20
40.5938758485
30
0.0000000000
10
-16.2667646471
20
40.5671636085
30
0.0000000000
10
-16.2666702595
20
40.5541859339
30
0.0000000000
11
-16.4418775002
21
40.8598301920
31
0.0000000000
11
-16.4117003814
21
40.8409352392
31
0.0000000000
11
-16.3823931382
21
40.8160608077
31
0.0000000000
11
-16.3548460842
21
40.7859625481
31
0.0000000000
11
-16.3298960607
21
40.7515548040
31
0.0000000000
11
-16.3083010150
21
40.7138828352
31
0.0000000000
11
-16.2907169747
21
40.6740910638
31
0.0000000000
11
-16.2776781187
21
40.6333883090
31
0.0000000000
11
-16.2695805493
21
40.5930110641
31
0.0000000000
11
-16.2666702595
21
40.5541859339
31
0.0000000000
0
SPLINE
5
38A
100
AcDbEntity
8
0
100
AcDbSpline
62
9
6
CONTINUOUS
70
0
71
3
72
27
73
23
74
21
42
0.0000001000
43
0.0000001000
44
0.0000000001
12
-1.6903384881
22
-0.8029534638
32
0.0000000000
13
-0.0000856672
23
1.8760765996
33
0.0000000000
40
0.0000000000
40
0.0000000000
40
0.0000000000
40
0.0000000000
40
0.0513367508
40
0.1058517198
40
0.1631035055
40
0.2225482860
40
0.2835899000
40
0.3455885457
40
0.4078763425
40
0.4697802720
40
0.5306381535
40
0.5898136495
40
0.6467151019
40
0.7008161358
40
0.7516782278
40
0.7989781364
40
0.8425429588
40
0.8823951214
40
0.9188077295
40
0.9523625046
40
0.9839817059
40
1.0000000000
40
1.0000000000
40
1.0000000000
40
1.0000000000
10
-16.2666702595
20
-0.5511802554
30
0.0000000000
10
-16.2955957547
20
-0.5649205960
30
0.0000000000
10
-16.3566241324
20
-0.5903898578
30
0.0000000000
10
-16.4534855971
20
-0.6218236959
30
0.0000000000
10
-16.5572943778
20
-0.6472969938
30
0.0000000000
10
-16.6665774118
20
-0.6664445088
30
0.0000000000
10
-16.7797876693
20
-0.6789944827
30
0.0000000000
10
-16.8953173100
20
-0.6847668434
30
0.0000000000
10
-17.0115229912
20
-0.6836787847
30
0.0000000000
10
-17.1267506545
20
-0.6757459717
30
0.0000000000
10
-17.2393624897
20
-0.6610821354
30
0.0000000000
10
-17.3477599909
20
-0.6398969045
30
0.0000000000
10
-17.4504078308
20
-0.6124920486
30
0.0000000000
10
-17.5458581618
20
-0.5792551235
30
0.0000000000
10
-17.6327730373
20
-0.5406501112
30
0.0000000000
10
-17.7099438710
20
-0.4972040851
30
0.0000000000
10
-17.7763052104
20
-0.4494883747
30
0.0000000000
10
-17.8309349814
20
-0.3980947826
30
0.0000000000
10
-17.8730278692
20
-0.3436174595
30
0.0000000000
10
-17.9018367315
20
-0.2866767026
30
0.0000000000
10
-17.9143489257
20
-0.2371239339
30
0.0000000000
10
-17.9162021348
20
-0.2073328257
30
0.0000000000
10
-17.9162025922
20
-0.1973156435
30
0.0000000000
11
-16.2666702595
21
-0.5511802554
31
0.0000000000
11
-16.3552229486
21
-0.5884328038
31
0.0000000000
11
-16.4521914455
21
-0.6201278643
31
0.0000000000
11
-16.5562044590
21
-0.6458175963
31
0.0000000000
11
-16.6657576913
21
-0.6651299595
31
0.0000000000
11
-16.7792847373
21
-0.6777892246
31
0.0000000000
11
-16.8951600633
21
-0.6836138241
31
0.0000000000
11
-17.0117176585
21
-0.6825198814
31
0.0000000000
11
-17.1272857127
21
-0.6745233694
31
0.0000000000
11
-17.2402088513
21
-0.6597389686
31
0.0000000000
11
-17.3488677338
21
-0.6383786555
31
0.0000000000
11
-17.4517035957
21
-0.6107488736
31
0.0000000000
11
-17.5472418934
21
-0.5772458733
31
0.0000000000
11
-17.6341128620
21
-0.5383500325
31
0.0000000000
11
-17.7110707632
21
-0.4946191215
31
0.0000000000
11
-17.7770120059
21
-0.4466802480
31
0.0000000000
11
-17.8309910968
21
-0.3952207305
31
0.0000000000
11
-17.8722339015
21
-0.3409784282
31
0.0000000000
11
-17.9001487274
21
-0.2847314694
31
0.0000000000
11
-17.9143353270
21
-0.2272864780
31
0.0000000000
11
-17.9162025922
21
-0.1973156435
31
0.0000000000
0
SPLINE
5
38B
100
AcDbEntity
8
0
100
AcDbSpline
62
7
6
CONTINUOUS
70
0
71
3
72
27
73
23
74
21
42
0.0000001000
43
0.0000001000
44
0.0000000001
12
-1.6826197764
22
-0.8445814911
32
0.0000000000
13
-0.0012281682
23
1.8863715440
33
0.0000000000
40
0.0000000000
40
0.0000000000
40
0.0000000000
40
0.0000000000
40
0.0507994454
40
0.1046944525
40
0.1612425488
40
0.2199393758
40
0.2802173441
40
0.3414435447
40
0.4030048849
40
0.4642209495
40
0.5244793501
40
0.5831433028
40
0.6396460188
40
0.6934811007
40
0.7442027362
40
0.7915156594
40
0.8352197927
40
0.8753422909
40
0.9121125666
40
0.9460620658
40
0.9780403684
40
1.0000000000
40
1.0000000000
40
1.0000000000
40
1.0000000000
10
-32.3700339126
20
47.4832794171
30
0.0000000000
10
-32.3985259631
20
47.4689779934
30
0.0000000000
10
-32.4587003656
20
47.4423447086
30
0.0000000000
10
-32.5543816102
20
47.4091232567
30
0.0000000000
10
-32.6570467527
20
47.3818066057
30
0.0000000000
10
-32.7652535717
20
47.3607803311
30
0.0000000000
10
-32.8774896915
20
47.3463387499
30
0.0000000000
10
-32.9921900912
20
47.3386847982
30
0.0000000000
10
-33.1077308676
20
47.3379280475
30
0.0000000000
10
-33.2225030770
20
47.3440796563
30
0.0000000000
10
-33.3348788901
20
47.3570521287
30
0.0000000000
10
-33.4432894658
20
47.3766637490
30
0.0000000000
10
-33.5462111026
20
47.4026374172
30
0.0000000000
10
-33.6422046195
20
47.4346093717
30
0.0000000000
10
-33.7299450928
20
47.4721400523
30
0.0000000000
10
-33.8082147392
20
47.5147172670
30
0.0000000000
10
-33.8759538709
20
47.5617903880
30
0.0000000000
10
-33.9322243525
20
47.6127716004
30
0.0000000000
10
-33.9762188318
20
47.6670699451
30
0.0000000000
10
-34.0071917591
20
47.7240770723
30
0.0000000000
10
-34.0228083434
20
47.7774406432
30
0.0000000000
10
-34.0256442303
20
47.8114159053
30
0.0000000000
10
-34.0256532203
20
47.8252239133
30
0.0000000000
11
-32.3700339126
21
47.4832794171
31
0.0000000000
11
-32.4573805418
21
47.4443241177
31
0.0000000000
11
-32.5531645296
21
47.4108410498
31
0.0000000000
11
-32.6560060815
21
47.3833109845
31
0.0000000000
11
-32.7644628807
21
47.3621179593
31
0.0000000000
11
-32.8770101985
21
47.3475610026
31
0.0000000000
11
-32.9920220206
21
47.3398496890
31
0.0000000000
11
-33.1079205480
21
47.3390909847
31
0.0000000000
11
-33.2230043204
21
47.3452966153
31
0.0000000000
11
-33.3356951675
21
47.3583815889
31
0.0000000000
11
-33.4443564269
21
47.3781572554
31
0.0000000000
11
-33.5474599878
21
47.4043442864
31
0.0000000000
11
-33.6435536366
21
47.4365749589
31
0.0000000000
11
-33.7312445950
21
47.4743803204
31
0.0000000000
11
-33.8093303049
21
47.5172416210
31
0.0000000000
11
-33.8766659576
21
47.5645294475
31
0.0000000000
11
-33.9323294997
21
47.6155941385
31
0.0000000000
11
-33.9755160837
21
47.6696987429
31
0.0000000000
11
-34.0056201385
21
47.7260818636
31
0.0000000000
11
-34.0222165486
21
47.7839544361
31
0.0000000000
11
-34.0256532203
21
47.8252239133
31
0.0000000000
0
SPLINE
5
38C
100
AcDbEntity
8
0
100
AcDbSpline
62
7
6
CONTINUOUS
70
0
71
3
72
21
73
17
74
15
42
0.0000001000
43
0.0000001000
44
0.0000000001
12
-1.2133899134
22
-0.0279489759
32
0.0000000000
13
0.0000494538
23
1.2166209846
33
0.0000000000
40
0.0000000000
40
0.0000000000
40
0.0000000000
40
0.0000000000
40
0.0954543715
40
0.1901719037
40
0.2831449795
40
0.3734475064
40
0.4602186194
40
0.5426681323
40
0.6202028703
40
0.6923338852
40
0.7588782843
40
0.8198974654
40
0.8758652273
40
0.9277143001
40
0.9768464761
40
1.0000000000
40
1.0000000000
40
1.0000000000
40
1.0000000000
10
-16.9087821977
20
39.2843431178
30
0.0000000000
10
-16.9473899882
20
39.2834538338
30
0.0000000000
10
-17.0243808838
20
39.2839925919
30
0.0000000000
10
-17.1387411567
20
39.2916982930
30
0.0000000000
10
-17.2503476885
20
39.3061907264
30
0.0000000000
10
-17.3576317400
20
39.3272645726
30
0.0000000000
10
-17.4590949785
20
39.3546239257
30
0.0000000000
10
-17.5533322442
20
39.3878901264
30
0.0000000000
10
-17.6390287618
20
39.4266030749
30
0.0000000000
10
-17.7150168399
20
39.4702489873
30
0.0000000000
10
-17.7802467130
20
39.5182583587
30
0.0000000000
10
-17.8338203071
20
39.5700497536
30
0.0000000000
10
-17.8749408995
20
39.6250243897
30
0.0000000000
10
-17.9028705478
20
39.6825441827
30
0.0000000000
10
-17.9145581646
20
39.7318433512
30
0.0000000000
10
-17.9162036882
20
39.7611575646
30
0.0000000000
10
-17.9162033066
20
39.7705472523
30
0.0000000000
11
-16.9087821977
21
39.2843431178
31
0.0000000000
11
-17.0246333904
21
39.2851628570
31
0.0000000000
11
-17.1393300220
21
39.2929368053
31
0.0000000000
11
-17.2512220977
21
39.3075517499
31
0.0000000000
11
-17.3587436820
21
39.3288012297
31
0.0000000000
11
-17.4603816804
21
39.3563873089
31
0.0000000000
11
-17.5546692662
21
39.3899111016
31
0.0000000000
11
-17.6403111060
21
39.4289135759
31
0.0000000000
11
-17.7160495795
21
39.4728229303
31
0.0000000000
11
-17.7808454411
21
39.5210370130
31
0.0000000000
11
-17.8337559756
21
39.5728570297
31
0.0000000000
11
-17.8740381569
21
39.6275530836
31
0.0000000000
11
-17.9011230763
21
39.6843559932
31
0.0000000000
11
-17.9146201153
21
39.7424407684
31
0.0000000000
11
-17.9162033066
21
39.7705472523
31
0.0000000000
0
SPLINE
5
38D
100
AcDbEntity
8
0
100
AcDbSpline
62
7
6
CONTINUOUS
70
0
71
3
72
16
73
12
74
10
42
0.0000001000
43
0.0000001000
44
0.0000000001
12
-0.6428674395
22
0.0750927976
32
0.0000000000
13
-0.6470667136
23
-0.0149044028
33
0.0000000000
40
0.0000000000
40
0.0000000000
40
0.0000000000
40
0.0000000000
40
0.0872281161
40
0.1813038636
40
0.2818428221
40
0.3884582506
40
0.5007947671
40
0.6185112362
40
0.7412583003
40
0.8686446601
40
1.0000000000
40
1.0000000000
40
1.0000000000
40
1.0000000000
10
-16.2666702595
20
39.2090459241
30
0.0000000000
10
-16.2853622980
20
39.2112293252
30
0.0000000000
10
-16.3241456291
20
39.2163517391
30
0.0000000000
10
-16.3842749328
20
39.2254096716
30
0.0000000000
10
-16.4484455276
20
39.2356946692
30
0.0000000000
10
-16.5164893753
20
39.2467044074
30
0.0000000000
10
-16.5882642635
20
39.2578568045
30
0.0000000000
10
-16.6636441523
20
39.2684411359
30
0.0000000000
10
-16.7424969566
20
39.2775371844
30
0.0000000000
10
-16.8245799924
20
39.2838698661
30
0.0000000000
10
-16.8804503084
20
39.2849957087
30
0.0000000000
10
-16.9087821977
20
39.2843431178
30
0.0000000000
11
-16.2666702595
21
39.2090459241
31
0.0000000000
11
-16.3226569062
21
39.2163213145
31
0.0000000000
11
-16.3828817282
21
39.2252931379
31
0.0000000000
11
-16.4471484990
21
39.2355026631
31
0.0000000000
11
-16.5152821237
21
39.2464379772
31
0.0000000000
11
-16.5871430929
21
39.2575071781
31
0.0000000000
11
-16.6626096208
21
39.2679863279
31
0.0000000000
11
-16.7415508791
21
39.2769328924
31
0.0000000000
11
-16.8237740371
21
39.2830357903
31
0.0000000000
11
-16.9087821977
21
39.2843431178
31
0.0000000000
0
SPLINE
5
38E
100
AcDbEntity
8
0
100
AcDbSpline
62
7
6
CONTINUOUS
70
0
71
3
72
10
73
6
74
4
42
0.0000001000
43
0.0000001000
44
0.0000000001
12
0.1563858816
22
0.0100204712
32
0.0000000000
13
0.1404187504
23
-0.0701778732
33
0.0000000000
40
0.0000000000
40
0.0000000000
40
0.0000000000
40
0.0000000000
40
0.3749418734
40
0.7352662036
40
1.0000000000
40
1.0000000000
40
1.0000000000
40
1.0000000000
10
-21.9655556364
20
49.8115335783
30
0.0000000000
10
-21.9460104312
20
49.8127859431
30
0.0000000000
10
-21.9073645894
20
49.8120249376
30
0.0000000000
10
-21.8559587588
20
49.8010531059
30
0.0000000000
10
-21.8255892977
20
49.7886503795
30
0.0000000000
10
-21.8131981014
20
49.7824575613
30
0.0000000000
11
-21.9655556364
21
49.8115335783
31
0.0000000000
11
-21.9068170263
21
49.8101099075
31
0.0000000000
11
-21.8516304391
21
49.7981617329
31
0.0000000000
11
-21.8131981014
21
49.7824575613
31
0.0000000000
0
SPLINE
5
38F
100
AcDbEntity
8
0
100
AcDbSpline
62
9
6
CONTINUOUS
70
0
71
3
72
17
73
13
74
11
42
0.0000001000
43
0.0000001000
44
0.0000000001
12
-0.3246555244
22
-0.1567580978
32
0.0000000000
13
-0.3224584448
23
0.1612292224
33
0.0000000000
40
0.0000000000
40
0.0000000000
40
0.0000000000
40
0.0000000000
40
0.0897868363
40
0.1863617335
40
0.2883016186
40
0.3939180738
40
0.5013561160
40
0.6086810915
40
0.7139669757
40
0.8153653372
40
0.9112216049
40
1.0000000000
40
1.0000000000
40
1.0000000000
40
1.0000000000
10
-20.0155426846
20
-0.9767810094
30
0.0000000000
10
-20.0252592820
20
-0.9814726140
30
0.0000000000
10
-20.0460501230
20
-0.9899467830
30
0.0000000000
10
-20.0793448575
20
-0.9997003652
30
0.0000000000
10
-20.1152462854
20
-1.0067890586
30
0.0000000000
10
-20.1529008887
20
-1.0110414563
30
0.0000000000
10
-20.1914180187
20
-1.0123565337
30
0.0000000000
10
-20.2298824345
20
-1.0107024241
30
0.0000000000
10
-20.2673793139
20
-1.0061193733
30
0.0000000000
10
-20.3030227657
20
-0.9987164110
30
0.0000000000
10
-20.3359488184
20
-0.9886779033
30
0.0000000000
10
-20.3564415247
20
-0.9800231059
30
0.0000000000
10
-20.3659839725
20
-0.9752518820
30
0.0000000000
11
-20.0155426846
21
-0.9767810094
31
0.0000000000
11
-20.0454625812
21
-0.9891345742
31
0.0000000000
11
-20.0788455561
21
-0.9990244573
31
0.0000000000
11
-20.1148871175
21
-1.0062123025
31
0.0000000000
11
-20.1527188901
21
-1.0105249649
31
0.0000000000
11
-20.1914294335
21
-1.0118585963
31
0.0000000000
11
-20.2300858023
21
-1.0101811590
31
0.0000000000
11
-20.2677577501
21
-1.0055330578
31
0.0000000000
11
-20.3035349125
21
-0.9980269184
31
0.0000000000
11
-20.3365584290
21
-0.9878432824
31
0.0000000000
11
-20.3659839725
21
-0.9752518820
31
0.0000000000
0
SPLINE
5
390
100
AcDbEntity
8
0
100
AcDbSpline
62
7
6
CONTINUOUS
70
0
71
3
72
17
73
13
74
11
42
0.0000001000
43
0.0000001000
44
0.0000000001
12
0.3224584312
22
-0.1612292156
32
0.0000000000
13
0.3246555108
23
0.1567580912
33
0.0000000000
40
0.0000000000
40
0.0000000000
40
0.0000000000
40
0.0000000000
40
0.0888604349
40
0.1849339365
40
0.2860192697
40
0.3915303260
40
0.4987561612
40
0.6060910367
40
0.7119258862
40
0.8135321614
40
0.9103046349
40
1.0000000000
40
1.0000000000
40
1.0000000000
40
1.0000000000
10
-20.3659839725
20
1.9116323660
30
0.0000000000
10
-20.3564327070
20
1.9068567332
30
0.0000000000
10
-20.3359062109
20
1.8981890752
30
0.0000000000
10
-20.3029794722
20
1.8881576364
30
0.0000000000
10
-20.2673203543
20
1.8807555959
30
0.0000000000
10
-20.2298451808
20
1.8761782277
30
0.0000000000
10
-20.1913779364
20
1.8745284707
30
0.0000000000
10
-20.1528590409
20
1.8758453261
30
0.0000000000
10
-20.1152306400
20
1.8800980415
30
0.0000000000
10
-20.0793203283
20
1.8871907528
30
0.0000000000
10
-20.0460514100
20
1.8969361807
30
0.0000000000
10
-20.0252493827
20
1.9054164139
30
0.0000000000
10
-20.0155426846
20
1.9101032386
30
0.0000000000
11
-20.3659839725
21
1.9116323660
31
0.0000000000
11
-20.3365306026
21
1.8990308159
31
0.0000000000
11
-20.3034302924
21
1.8888304456
31
0.0000000000
11
-20.2677626319
21
1.8813519980
31
0.0000000000
11
-20.2300097677
21
1.8766967938
31
0.0000000000
11
-20.1913889110
21
1.8750254733
31
0.0000000000
11
-20.1527155994
21
1.8763595259
31
0.0000000000
11
-20.1148059961
21
1.8806845819
31
0.0000000000
11
-20.0788827341
21
1.8878506472
31
0.0000000000
11
-20.0454314233
21
1.8977606239
31
0.0000000000
11
-20.0155426846
21
1.9101032386
31
0.0000000000
0
SPLINE
5
391
100
AcDbEntity
8
0
100
AcDbSpline
62
9
6
CONTINUOUS
70
0
71
3
72
13
73
9
74
7
42
0.0000001000
43
0.0000001000
44
0.0000000001
12
-0.0011527943
22
-0.1596148378
32
0.0000000000
13
-0.1446912503
23
-0.0684409335
33
0.0000000000
40
0.0000000000
40
0.0000000000
40
0.0000000000
40
0.0000000000
40
0.2065517484
40
0.3981343085
40
0.5747514889
40
0.7380698965
40
0.8916421035
40
1.0000000000
40
1.0000000000
40
1.0000000000
40
1.0000000000
10
-20.0155426846
20
-0.9767810094
30
0.0000000000
10
-20.0156220551
20
-0.9877705840
30
0.0000000000
10
-20.0170583024
20
-1.0089789535
30
0.0000000000
10
-20.0235003856
20
-1.0389944918
30
0.0000000000
10
-20.0340511090
20
-1.0654039438
30
0.0000000000
10
-20.0485433700
20
-1.0875439467
30
0.0000000000
10
-20.0651273977
20
-1.1032711306
30
0.0000000000
10
-20.0772014239
20
-1.1104375511
30
0.0000000000
10
-20.0824275704
20
-1.1129095896
30
0.0000000000
11
-20.0155426846
21
-0.9767810094
31
0.0000000000
11
-20.0179268200
21
-1.0096642779
31
0.0000000000
11
-20.0245295696
21
-1.0395231686
31
0.0000000000
11
-20.0351882801
21
-1.0656220227
31
0.0000000000
11
-20.0496403593
21
-1.0873180044
31
0.0000000000
11
-20.0675297891
21
-1.1040768093
31
0.0000000000
11
-20.0824275704
21
-1.1129095896
31
0.0000000000
0
SPLINE
5
392
100
AcDbEntity
8
0
100
AcDbSpline
62
9
6
CONTINUOUS
70
0
71
3
72
17
73
13
74
11
42
0.0000001000
43
0.0000001000
44
0.0000000001
12
-0.0026703981
22
0.3671620972
32
0.0000000000
13
-0.3260336644
23
0.1688703241
33
0.0000000000
40
0.0000000000
40
0.0000000000
40
0.0000000000
40
0.0000000000
40
0.0951659677
40
0.1954296792
40
0.2994632883
40
0.4057259925
40
0.5125588696
40
0.6182724342
40
0.7212391821
40
0.8199679821
40
0.9132330288
40
1.0000000000
40
1.0000000000
40
1.0000000000
40
1.0000000000
10
-20.0155426846
20
37.3595426689
30
0.0000000000
10
-20.0156273949
20
37.3711897810
30
0.0000000000
10
-20.0173471198
20
37.3951135117
30
0.0000000000
10
-20.0240182453
20
37.4312171015
30
0.0000000000
10
-20.0346937437
20
37.4677620162
30
0.0000000000
10
-20.0491145453
20
37.5038588448
30
0.0000000000
10
-20.0669312888
20
37.5386366270
30
0.0000000000
10
-20.0877129156
20
37.5712530698
30
0.0000000000
10
-20.1109560953
20
37.6009184205
30
0.0000000000
10
-20.1361057207
20
37.6269191034
30
0.0000000000
10
-20.1625390314
20
37.6486124284
30
0.0000000000
10
-20.1813202741
20
37.6603028047
30
0.0000000000
10
-20.1907499253
20
37.6651869269
30
0.0000000000
11
-20.0155426846
21
37.3595426689
31
0.0000000000
11
-20.0179268200
21
37.3944034988
31
0.0000000000
11
-20.0245295696
21
37.4306205514
31
0.0000000000
11
-20.0351882801
21
37.4673015412
31
0.0000000000
11
-20.0496403593
21
37.5035429248
31
0.0000000000
11
-20.0675297891
21
37.5384520782
31
0.0000000000
11
-20.0884156436
21
37.5711688701
31
0.0000000000
11
-20.1117840127
21
37.6008883886
31
0.0000000000
11
-20.1370569369
21
37.6268763305
31
0.0000000000
11
-20.1636140776
21
37.6484955367
31
0.0000000000
11
-20.1907499253
21
37.6651869269
31
0.0000000000
0
SPLINE
5
393
100
AcDbEntity
8
0
100
AcDbSpline
62
9
6
CONTINUOUS
70
0
71
3
72
17
73
13
74
11
42
0.0000001000
43
0.0000001000
44
0.0000000001
12
-0.3246555244
22
-0.1567580978
32
0.0000000000
13
-0.3224584448
23
0.1612292224
33
0.0000000000
40
0.0000000000
40
0.0000000000
40
0.0000000000
40
0.0000000000
40
0.0897868363
40
0.1863617335
40
0.2883016186
40
0.3939180738
40
0.5013561160
40
0.6086810915
40
0.7139669757
40
0.8153653372
40
0.9112216049
40
1.0000000000
40
1.0000000000
40
1.0000000000
40
1.0000000000
10
-20.0155426846
20
37.3595426689
30
0.0000000000
10
-20.0252592820
20
37.3548510643
30
0.0000000000
10
-20.0460501230
20
37.3463768952
30
0.0000000000
10
-20.0793448575
20
37.3366233131
30
0.0000000000
10
-20.1152462854
20
37.3295346197
30
0.0000000000
10
-20.1529008887
20
37.3252822220
30
0.0000000000
10
-20.1914180187
20
37.3239671446
30
0.0000000000
10
-20.2298824345
20
37.3256212542
30
0.0000000000
10
-20.2673793139
20
37.3302043050
30
0.0000000000
10
-20.3030227657
20
37.3376072673
30
0.0000000000
10
-20.3359488184
20
37.3476457750
30
0.0000000000
10
-20.3564415247
20
37.3563005724
30
0.0000000000
10
-20.3659839725
20
37.3610717963
30
0.0000000000
11
-20.0155426846
21
37.3595426689
31
0.0000000000
11
-20.0454625812
21
37.3471891041
31
0.0000000000
11
-20.0788455561
21
37.3372992210
31
0.0000000000
11
-20.1148871175
21
37.3301113757
31
0.0000000000
11
-20.1527188901
21
37.3257987134
31
0.0000000000
11
-20.1914294335
21
37.3244650820
31
0.0000000000
11
-20.2300858023
21
37.3261425193
31
0.0000000000
11
-20.2677577501
21
37.3307906205
31
0.0000000000
11
-20.3035349125
21
37.3382967599
31
0.0000000000
11
-20.3365584290
21
37.3484803959
31
0.0000000000
11
-20.3659839725
21
37.3610717963
31
0.0000000000
0
SPLINE
5
394
100
AcDbEntity
8
0
100
AcDbSpline
62
9
6
CONTINUOUS
70
0
71
3
72
17
73
13
74
11
42
0.0000001000
43
0.0000001000
44
0.0000000001
12
0.0000000000
22
0.3663029287
32
0.0000000000
13
0.3262247248
23
0.1665991131
33
0.0000000000
40
0.0000000000
40
0.0000000000
40
0.0000000000
40
0.0000000000
40
0.0950720793
40
0.1950680693
40
0.2987339076
40
0.4046044268
40
0.5110955413
40
0.6165906554
40
0.7195255489
40
0.8184757287
40
0.9122506543
40
1.0000000000
40
1.0000000000
40
1.0000000000
40
1.0000000000
10
-37.3696572749
20
45.8629084475
30
0.0000000000
10
-37.3696572749
20
45.8745168412
30
0.0000000000
10
-37.3680999127
20
45.8983524093
30
0.0000000000
10
-37.3616255357
20
45.9343153972
30
0.0000000000
10
-37.3511043076
20
45.9706830769
30
0.0000000000
10
-37.3367889671
20
46.0065804628
30
0.0000000000
10
-37.3190224257
20
46.0411516902
30
0.0000000000
10
-37.2982295879
20
46.0735688370
30
0.0000000000
10
-37.2749075852
20
46.1030564032
30
0.0000000000
10
-37.2496070566
20
46.1289120455
30
0.0000000000
10
-37.2229327362
20
46.1505145672
30
0.0000000000
10
-37.2039652298
20
46.1621505904
30
0.0000000000
10
-37.1944232278
20
46.1670235782
30
0.0000000000
11
-37.3696572749
21
45.8629084475
31
0.0000000000
11
-37.3675049266
21
45.8976670527
31
0.0000000000
11
-37.3611002936
21
45.9337315979
31
0.0000000000
11
-37.3505993354
21
45.9702238740
31
0.0000000000
11
-37.3362577612
21
46.0062552560
31
0.0000000000
11
-37.3184248034
21
46.0409483423
31
0.0000000000
11
-37.2975347130
21
46.0734583200
31
0.0000000000
11
-37.2740961854
21
46.1029935374
31
0.0000000000
11
-37.2486799733
21
46.1288347811
31
0.0000000000
11
-37.2219049878
21
46.1503527900
31
0.0000000000
11
-37.1944232278
21
46.1670235782
31
0.0000000000
0
SPLINE
5
395
100
AcDbEntity
8
0
100
AcDbSpline
62
9
6
CONTINUOUS
70
0
71
3
72
17
73
13
74
11
42
0.0000001000
43
0.0000001000
44
0.0000000001
12
0.0000000000
22
0.3663029287
32
0.0000000000
13
0.3262247248
23
0.1665991131
33
0.0000000000
40
0.0000000000
40
0.0000000000
40
0.0000000000
40
0.0000000000
40
0.0950720793
40
0.1950680693
40
0.2987339076
40
0.4046044268
40
0.5110955413
40
0.6165906554
40
0.7195255489
40
0.8184757287
40
0.9122506543
40
1.0000000000
40
1.0000000000
40
1.0000000000
40
1.0000000000
10
-20.3659839725
20
37.3610717963
30
0.0000000000
10
-20.3659839725
20
37.3726801900
30
0.0000000000
10
-20.3644266102
20
37.3965157581
30
0.0000000000
10
-20.3579522332
20
37.4324787460
30
0.0000000000
10
-20.3474310051
20
37.4688464257
30
0.0000000000
10
-20.3331156646
20
37.5047438116
30
0.0000000000
10
-20.3153491233
20
37.5393150390
30
0.0000000000
10
-20.2945562855
20
37.5717321858
30
0.0000000000
10
-20.2712342828
20
37.6012197520
30
0.0000000000
10
-20.2459337541
20
37.6270753943
30
0.0000000000
10
-20.2192594338
20
37.6486779160
30
0.0000000000
10
-20.2002919273
20
37.6603139392
30
0.0000000000
10
-20.1907499253
20
37.6651869269
30
0.0000000000
11
-20.3659839725
21
37.3610717963
31
0.0000000000
11
-20.3638316242
21
37.3958304014
31
0.0000000000
11
-20.3574269912
21
37.4318949467
31
0.0000000000
11
-20.3469260329
21
37.4683872228
31
0.0000000000
11
-20.3325844588
21
37.5044186048
31
0.0000000000
11
-20.3147515009
21
37.5391116911
31
0.0000000000
11
-20.2938614105
21
37.5716216688
31
0.0000000000
11
-20.2704228829
21
37.6011568862
31
0.0000000000
11
-20.2450066708
21
37.6269981299
31
0.0000000000
11
-20.2182316853
21
37.6485161388
31
0.0000000000
11
-20.1907499253
21
37.6651869269
31
0.0000000000
0
SPLINE
5
396
100
AcDbEntity
8
0
100
AcDbSpline
62
7
6
CONTINUOUS
70
0
71
3
72
26
73
22
74
20
42
0.0000001000
43
0.0000001000
44
0.0000000001
12
-1.4157151913
22
-0.7106102424
32
0.0000000000
13
-0.0006328832
23
1.5879667369
33
0.0000000000
40
0.0000000000
40
0.0000000000
40
0.0000000000
40
0.0000000000
40
0.0533784135
40
0.1101350371
40
0.1697663638
40
0.2316407935
40
0.2951675675
40
0.3595065536
40
0.4240781607
40
0.4879447711
40
0.5505848921
40
0.6110855529
40
0.6690382251
40
0.7236738935
40
0.7747800705
40
0.8218790932
40
0.8650878714
40
0.9044327269
40
0.9405861905
40
0.9743254993
40
1.0000000000
40
1.0000000000
40
1.0000000000
40
1.0000000000
10
-30.2602757533
20
45.6043529351
30
0.0000000000
10
-30.2854652969
20
45.5917091859
30
0.0000000000
10
-30.3387905456
20
45.5682621634
30
0.0000000000
10
-30.4237292441
20
45.5393331680
30
0.0000000000
10
-30.5149836077
20
45.5159098590
30
0.0000000000
10
-30.6111690209
20
45.4983476823
30
0.0000000000
10
-30.7107727087
20
45.4869231768
30
0.0000000000
10
-30.8123215343
20
45.4818061041
30
0.0000000000
10
-30.9141705650
20
45.4830808007
30
0.0000000000
10
-31.0148419876
20
45.4907295272
30
0.0000000000
10
-31.1126767903
20
45.5046263228
30
0.0000000000
10
-31.2062762845
20
45.5245730609
30
0.0000000000
10
-31.2940892961
20
45.5502383787
30
0.0000000000
10
-31.3748794486
20
45.5812640512
30
0.0000000000
10
-31.4473174986
20
45.6171444001
30
0.0000000000
10
-31.5104032307
20
45.6574065416
30
0.0000000000
10
-31.5631100032
20
45.7014429468
30
0.0000000000
10
-31.6046808084
20
45.7487468235
30
0.0000000000
10
-31.6343258050
20
45.7986818219
30
0.0000000000
10
-31.6501912444
20
45.8470660465
30
0.0000000000
10
-31.6532677725
20
45.8785236715
30
0.0000000000
10
-31.6532731888
20
45.8921137558
30
0.0000000000
11
-30.2602757533
21
45.6043529351
31
0.0000000000
11
-30.3375725986
21
45.5700805671
31
0.0000000000
11
-30.4226115499
21
45.5409026378
31
0.0000000000
11
-30.5140671019
21
45.5172723095
31
0.0000000000
11
-30.6104663341
21
45.4995639710
31
0.0000000000
11
-30.7104331437
21
45.4880331976
31
0.0000000000
11
-30.8122189150
21
45.4828784900
31
0.0000000000
11
-30.9144954529
21
45.4841702788
31
0.0000000000
11
-31.0153688977
21
45.4918839804
31
0.0000000000
11
-31.1135952409
21
45.5059271516
31
0.0000000000
11
-31.2072987831
21
45.5260320316
31
0.0000000000
11
-31.2953608568
21
45.5519608797
31
0.0000000000
11
-31.3760681580
21
45.5832096191
31
0.0000000000
11
-31.4484763075
21
45.6194136939
31
0.0000000000
11
-31.5111663581
21
45.6598636303
31
0.0000000000
11
-31.5634069212
21
45.7040861007
31
0.0000000000
11
-31.6041823864
21
45.7512207244
31
0.0000000000
11
-31.6330104702
21
45.8007047667
31
0.0000000000
11
-31.6493414789
21
45.8515932918
31
0.0000000000
11
-31.6532731888
21
45.8921137558
31
0.0000000000
0
SPLINE
5
397
100
AcDbEntity
8
0
100
AcDbSpline
62
7
6
CONTINUOUS
70
0
71
3
72
26
73
22
74
20
42
0.0000001000
43
0.0000001000
44
0.0000000001
12
-1.4157151913
22
-0.7106102424
32
0.0000000000
13
-0.0006328832
23
1.5879667369
33
0.0000000000
40
0.0000000000
40
0.0000000000
40
0.0000000000
40
0.0000000000
40
0.0533784135
40
0.1101350371
40
0.1697663638
40
0.2316407935
40
0.2951675675
40
0.3595065536
40
0.4240781607
40
0.4879447711
40
0.5505848921
40
0.6110855529
40
0.6690382251
40
0.7236738935
40
0.7747800705
40
0.8218790932
40
0.8650878714
40
0.9044327269
40
0.9405861905
40
0.9743254993
40
1.0000000000
40
1.0000000000
40
1.0000000000
40
1.0000000000
10
-20.2193594604
20
40.5838947886
30
0.0000000000
10
-20.2445490041
20
40.5712510395
30
0.0000000000
10
-20.2978742528
20
40.5478040170
30
0.0000000000
10
-20.3828129513
20
40.5188750215
30
0.0000000000
10
-20.4740673149
20
40.4954517126
30
0.0000000000
10
-20.5702527280
20
40.4778895359
30
0.0000000000
10
-20.6698564159
20
40.4664650304
30
0.0000000000
10
-20.7714052415
20
40.4613479576
30
0.0000000000
10
-20.8732542722
20
40.4626226542
30
0.0000000000
10
-20.9739256947
20
40.4702713808
30
0.0000000000
10
-21.0717604975
20
40.4841681764
30
0.0000000000
10
-21.1653599916
20
40.5041149145
30
0.0000000000
10
-21.2531730032
20
40.5297802322
30
0.0000000000
10
-21.3339631558
20
40.5608059047
30
0.0000000000
10
-21.4064012057
20
40.5966862537
30
0.0000000000
10
-21.4694869378
20
40.6369483952
30
0.0000000000
10
-21.5221937104
20
40.6809848004
30
0.0000000000
10
-21.5637645155
20
40.7282886770
30
0.0000000000
10
-21.5934095122
20
40.7782236755
30
0.0000000000
10
-21.6092749515
20
40.8266079001
30
0.0000000000
10
-21.6123514796
20
40.8580655251
30
0.0000000000
10
-21.6123568959
20
40.8716556094
30
0.0000000000
11
-20.2193594604
21
40.5838947886
31
0.0000000000
11
-20.2966563057
21
40.5496224207
31
0.0000000000
11
-20.3816952570
21
40.5204444914
31
0.0000000000
11
-20.4731508091
21
40.4968141630
31
0.0000000000
11
-20.5695500412
21
40.4791058246
31
0.0000000000
11
-20.6695168508
21
40.4675750511
31
0.0000000000
11
-20.7713026222
21
40.4624203435
31
0.0000000000
11
-20.8735791600
21
40.4637121324
31
0.0000000000
11
-20.9744526049
21
40.4714258340
31
0.0000000000
11
-21.0726789480
21
40.4854690051
31
0.0000000000
11
-21.1663824903
21
40.5055738852
31
0.0000000000
11
-21.2544445639
21
40.5315027333
31
0.0000000000
11
-21.3351518651
21
40.5627514727
31
0.0000000000
11
-21.4075600146
21
40.5989555474
31
0.0000000000
11
-21.4702500652
21
40.6394054839
31
0.0000000000
11
-21.5224906283
21
40.6836279542
31
0.0000000000
11
-21.5632660936
21
40.7307625779
31
0.0000000000
11
-21.5920941774
21
40.7802466203
31
0.0000000000
11
-21.6084251861
21
40.8311351454
31
0.0000000000
11
-21.6123568959
21
40.8716556094
31
0.0000000000
0
SPLINE
5
398
100
AcDbEntity
8
0
100
AcDbSpline
62
7
6
CONTINUOUS
70
0
71
3
72
8
73
4
74
2
42
0.0000001000
43
0.0000001000
44
0.0000000001
12
-0.0033688058
22
-0.0015557853
32
0.0000000000
13
-0.0033047777
23
-0.0016872811
33
0.0000000000
40
0.0000000000
40
0.0000000000
40
0.0000000000
40
0.0000000000
40
1.0000000000
40
1.0000000000
40
1.0000000000
40
1.0000000000
10
-32.2650666353
20
50.1841371505
30
0.0000000000
10
-32.2661895706
20
50.1836185554
30
0.0000000000
10
-32.2673022951
20
50.1830778667
30
0.0000000000
10
-32.2684038876
20
50.1825154397
30
0.0000000000
11
-32.2650666353
21
50.1841371505
31
0.0000000000
11
-32.2684038876
21
50.1825154397
31
0.0000000000
0
SPLINE
5
399
100
AcDbEntity
8
0
100
AcDbSpline
62
7
6
CONTINUOUS
70
0
71
3
72
8
73
4
74
2
42
0.0000001000
43
0.0000001000
44
0.0000000001
12
-0.0000000000
22
-0.0253845252
32
0.0000000000
13
0.0009380185
23
-0.0253674353
33
0.0000000000
40
0.0000000000
40
0.0000000000
40
0.0000000000
40
0.0000000000
40
1.0000000000
40
1.0000000000
40
1.0000000000
40
1.0000000000
10
-14.2937044846
20
50.0566724456
30
0.0000000000
10
-14.2937044847
20
50.0482109372
30
0.0000000000
10
-14.2935475332
20
50.0397494288
30
0.0000000000
10
-14.2932348603
20
50.0312936170
30
0.0000000000
11
-14.2937044846
21
50.0566724456
31
0.0000000000
11
-14.2932348603
21
50.0312936170
31
0.0000000000
0
SPLINE
5
39A
100
AcDbEntity
8
0
100
AcDbSpline
62
7
6
CONTINUOUS
70
0
71
3
72
40
73
36
74
34
42
0.0000001000
43
0.0000001000
44
0.0000000001
12
3.4364986026
22
-4.8598695530
32
0.0000000000
13
5.3457747301
23
2.6118634478
33
0.0000000000
40
0.0000000000
40
0.0000000000
40
0.0000000000
40
0.0000000000
40
0.0023668523
40
0.0233643738
40
0.0454105453
40
0.0685654456
40
0.0928612366
40
0.1183115493
40
0.1449088172
40
0.1726307749
40
0.2014400651
40
0.2312869257
40
0.2621118467
40
0.2938439536
40
0.3264073457
40
0.3597150130
40
0.3936791585
40
0.4282007472
40
0.4631837696
40
0.4985207885
40
0.5341107601
40
0.5698412261
40
0.6056089840
40
0.6412998500
40
0.6768111803
40
0.7120303843
40
0.7468580558
40
0.7811866321
40
0.8149227091
40
0.8479674089
40
0.8802363406
40
0.9116433451
40
0.9421165291
40
0.9715871078
40
1.0000000000
40
1.0000000000
40
1.0000000000
40
1.0000000000
10
-14.7457945470
20
50.4601117046
30
0.0000000000
10
-14.7430833188
20
50.4562775068
30
0.0000000000
10
-14.7161107376
20
50.4185764152
30
0.0000000000
10
-14.6597865281
20
50.3481485757
30
0.0000000000
10
-14.5692456928
20
50.2528770121
30
0.0000000000
10
-14.4667708084
20
50.1605191344
30
0.0000000000
10
-14.3527697189
20
50.0714222403
30
0.0000000000
10
-14.2276966693
20
49.9859284740
30
0.0000000000
10
-14.0920445320
20
49.9043667269
30
0.0000000000
10
-13.9463502732
20
49.8270550299
30
0.0000000000
10
-13.7911896125
20
49.7542961310
30
0.0000000000
10
-13.6271762229
20
49.6863763336
30
0.0000000000
10
-13.4549615363
20
49.6235648052
30
0.0000000000
10
-13.2752265174
20
49.5661097933
30
0.0000000000
10
-13.0886884620
20
49.5142408293
30
0.0000000000
10
-12.8960845422
20
49.4681632660
30
0.0000000000
10
-12.6981864681
20
49.4280622354
30
0.0000000000
10
-12.4957756124
20
49.3940965786
30
0.0000000000
10
-12.2896655639
20
49.3664033672
30
0.0000000000
10
-12.0806693279
20
49.3450923259
30
0.0000000000
10
-11.8696290322
20
49.3302498010
30
0.0000000000
10
-11.6573764066
20
49.3219346885
30
0.0000000000
10
-11.4447681924
20
49.3201809070
30
0.0000000000
10
-11.2326417716
20
49.3249956448
30
0.0000000000
10
-11.0218542025
20
49.3363596598
30
0.0000000000
10
-10.8132354476
20
49.3542283557
30
0.0000000000
10
-10.6076284384
20
49.3785295952
30
0.0000000000
10
-10.4058428096
20
49.4091677092
30
0.0000000000
10
-10.2086930101
20
49.4460189749
30
0.0000000000
10
-10.0169557820
20
49.4889381426
30
0.0000000000
10
-9.8314029877
20
49.5377523660
30
0.0000000000
10
-9.6527667440
20
49.5922689678
30
0.0000000000
10
-9.4817616275
20
49.6522702493
30
0.0000000000
10
-9.3190684927
20
49.7175170689
30
0.0000000000
10
-9.2146024647
20
49.7652429338
30
0.0000000000
10
-9.1639728244
20
49.7899797986
30
0.0000000000
11
-14.7457945470
21
50.4601117046
31
0.0000000000
11
-14.7375979824
21
50.4486541661
31
0.0000000000
11
-14.6597824302
21
50.3509194484
31
0.0000000000
11
-14.5696136228
21
50.2556579165
31
0.0000000000
11
-14.4674445911
21
50.1632419229
31
0.0000000000
11
-14.3536909236
21
50.0740471938
31
0.0000000000
11
-14.2288009810
21
49.9884249077
31
0.0000000000
11
-14.0932787651
21
49.9067205726
31
0.0000000000
11
-13.9476624798
21
49.8292584482
31
0.0000000000
11
-13.7925348984
21
49.7563486392
31
0.0000000000
11
-13.6285170485
21
49.6882829415
31
0.0000000000
11
-13.4562598593
21
49.6253316616
31
0.0000000000
11
-13.2764584320
21
49.5677488434
31
0.0000000000
11
-13.0898206722
21
49.5157614412
31
0.0000000000
11
-12.8971053693
21
49.4695809180
31
0.0000000000
11
-12.6990657844
21
49.4293880671
31
0.0000000000
11
-12.4965125396
21
49.3953475778
31
0.0000000000
11
-12.2902323612
21
49.3675919837
31
0.0000000000
11
-12.0810745500
21
49.3462357812
31
0.0000000000
11
-11.8698473146
21
49.3313618253
31
0.0000000000
11
-11.6574243980
21
49.3230318975
31
0.0000000000
11
-11.4446235680
21
49.3212783950
31
0.0000000000
11
-11.2323279467
21
49.3261088711
31
0.0000000000
11
-11.0213531338
21
49.3375050765
31
0.0000000000
11
-10.8125760334
21
49.3554199278
31
0.0000000000
11
-10.6067986653
21
49.3797848737
31
0.0000000000
11
-10.4048759100
21
49.4104989730
31
0.0000000000
11
-10.2075852074
21
49.4474441778
31
0.0000000000
11
-10.0157437603
21
49.4904677233
31
0.0000000000
11
-9.8300939045
21
49.5394032478
31
0.0000000000
11
-9.6514000492
21
49.5940495061
31
0.0000000000
11
-9.4803594241
21
49.6541932768
31
0.0000000000
11
-9.3176694941
21
49.7195895269
31
0.0000000000
11
-9.1639728244
21
49.7899797986
31
0.0000000000
0
SPLINE
5
39B
100
AcDbEntity
8
0
100
AcDbSpline
62
7
6
CONTINUOUS
70
0
71
3
72
16
73
12
74
10
42
0.0000001000
43
0.0000001000
44
0.0000000001
12
-0.8807069959
22
-0.4347056933
32
0.0000000000
13
-0.4367749270
23
-0.8803242065
33
0.0000000000
40
0.0000000000
40
0.0000000000
40
0.0000000000
40
0.0000000000
40
0.1445412451
40
0.2829216482
40
0.4150147187
40
0.5408491270
40
0.6605021750
40
0.7742785390
40
0.8825340406
40
0.9859121069
40
1.0000000000
40
1.0000000000
40
1.0000000000
40
1.0000000000
10
-13.4882481329
20
50.6163369971
30
0.0000000000
10
-13.5306809615
20
50.5953926964
30
0.0000000000
10
-13.6126897960
20
50.5522185288
30
0.0000000000
10
-13.7291171764
20
50.4820287276
30
0.0000000000
10
-13.8358441714
20
50.4080837703
30
0.0000000000
10
-13.9323868788
20
50.3307081452
30
0.0000000000
10
-14.0183272617
20
50.2502211801
30
0.0000000000
10
-14.0932668455
20
50.1669709061
30
0.0000000000
10
-14.1568703885
20
50.0812907356
30
0.0000000000
10
-14.1945938020
20
50.0175778216
30
0.0000000000
10
-14.2119729302
20
49.9832465207
30
0.0000000000
10
-14.2140240097
20
49.9791125496
30
0.0000000000
11
-13.4882481329
21
50.6163369971
31
0.0000000000
11
-13.6137869183
21
50.5500581059
31
0.0000000000
11
-13.7300856098
21
50.4797293339
31
0.0000000000
11
-13.8366085717
21
50.4056753005
31
0.0000000000
11
-13.9329046980
21
50.3282089237
31
0.0000000000
11
-14.0185132038
21
50.2477016731
31
0.0000000000
11
-14.0930861914
21
50.1644799531
31
0.0000000000
11
-14.1562547733
21
50.0789563618
31
0.0000000000
11
-14.2077719181
21
49.9914644437
31
0.0000000000
11
-14.2140240097
21
49.9791125496
31
0.0000000000
0
SPLINE
5
39C
100
AcDbEntity
8
0
100
AcDbSpline
62
7
6
CONTINUOUS
70
0
71
3
72
21
73
17
74
15
42
0.0000001000
43
0.0000001000
44
0.0000000001
12
2.2372436596
22
-0.0005443764
32
0.0000000000
13
1.9259418449
23
-1.1388071834
33
0.0000000000
40
0.0000000000
40
0.0000000000
40
0.0000000000
40
0.0000000000
40
0.0390828474
40
0.1216812552
40
0.2039514133
40
0.2855465542
40
0.3662840897
40
0.4458245615
40
0.5240050956
40
0.6005051623
40
0.6751882968
40
0.7477654798
40
0.8181348190
40
0.8860529660
40
0.9514633526
40
1.0000000000
40
1.0000000000
40
1.0000000000
40
1.0000000000
10
-10.8532995924
20
50.5181096327
30
0.0000000000
10
-10.8241536416
20
50.5181025408
30
0.0000000000
10
-10.7334102701
20
50.5173762806
30
0.0000000000
10
-10.5813719764
20
50.5124867944
30
0.0000000000
10
-10.3979365446
20
50.5005212970
30
0.0000000000
10
-10.2163830668
20
50.4825746806
30
0.0000000000
10
-10.0375616929
20
50.4587312233
30
0.0000000000
10
-9.8621903902
20
50.4290868393
30
0.0000000000
10
-9.6910937365
20
50.3937812845
30
0.0000000000
10
-9.5249546789
20
50.3529556325
30
0.0000000000
10
-9.3645562921
20
50.3068026986
30
0.0000000000
10
-9.2105355581
20
50.2555056726
30
0.0000000000
10
-9.0636188747
20
50.1993065933
30
0.0000000000
10
-8.9243870628
20
50.1384267957
30
0.0000000000
10
-8.8029664613
20
50.0778750186
30
0.0000000000
10
-8.7288263905
20
50.0362936019
30
0.0000000000
10
-8.6976668038
20
50.0178689744
30
0.0000000000
11
-10.8532995924
21
50.5181096327
31
0.0000000000
11
-10.7658654027
21
50.5174099849
31
0.0000000000
11
-10.5811766774
21
50.5114619789
31
0.0000000000
11
-10.3975180690
21
50.4994632766
31
0.0000000000
11
-10.2158662368
21
50.4814779026
31
0.0000000000
11
-10.0368345448
21
50.4575664325
31
0.0000000000
11
-9.8613886065
21
50.4278580145
31
0.0000000000
11
-9.6901089721
21
50.3924508315
31
0.0000000000
11
-9.5239295506
21
50.3515380857
31
0.0000000000
11
-9.3633917885
21
50.3052529879
31
0.0000000000
11
-9.2093778094
21
50.2538499683
31
0.0000000000
11
-9.0623841901
21
50.1974947035
31
0.0000000000
11
-8.9232223846
21
50.1364983496
31
0.0000000000
11
-8.7923386961
21
50.0710565054
31
0.0000000000
11
-8.6976668038
21
50.0178689744
31
0.0000000000
0
SPLINE
5
39D
100
AcDbEntity
8
0
100
AcDbSpline
62
7
6
CONTINUOUS
70
0
71
3
72
8
73
4
74
2
42
0.0000001000
43
0.0000001000
44
0.0000000001
12
0.0004752569
22
0.0002342405
32
0.0000000000
13
0.0004739273
23
0.0002369123
33
0.0000000000
40
0.0000000000
40
0.0000000000
40
0.0000000000
40
0.0000000000
40
1.0000000000
40
1.0000000000
40
1.0000000000
40
1.0000000000
10
-14.8618231924
20
0.0078462130
30
0.0000000000
10
-14.8616647734
20
0.0079242932
30
0.0000000000
10
-14.8615065747
20
0.0080028191
30
0.0000000000
10
-14.8613485989
20
0.0080817899
30
0.0000000000
11
-14.8618231924
21
0.0078462130
31
0.0000000000
11
-14.8613485989
21
0.0080817899
31
0.0000000000
0
SPLINE
5
39E
100
AcDbEntity
8
0
100
AcDbSpline
62
7
6
CONTINUOUS
70
0
71
3
72
8
73
4
74
2
42
0.0000001000
43
0.0000001000
44
0.0000000001
12
0.0026092757
22
0.0013043550
32
0.0000000000
13
0.0025673882
23
0.0013847321
33
0.0000000000
40
0.0000000000
40
0.0000000000
40
0.0000000000
40
0.0000000000
40
1.0000000000
40
1.0000000000
40
1.0000000000
40
1.0000000000
10
-14.8613485989
20
0.0080817899
30
0.0000000000
10
-14.8604788404
20
0.0085165749
30
0.0000000000
10
-14.8596158393
20
0.0089648424
30
0.0000000000
10
-14.8587600432
20
0.0094264197
30
0.0000000000
11
-14.8613485989
21
0.0080817899
31
0.0000000000
11
-14.8587600432
21
0.0094264197
31
0.0000000000
0
SPLINE
5
39F
100
AcDbEntity
8
0
100
AcDbSpline
62
7
6
CONTINUOUS
70
0
71
3
72
16
73
12
74
10
42
0.0000001000
43
0.0000001000
44
0.0000000001
12
-0.1650023427
22
0.4325239976
32
0.0000000000
13
-0.4142810627
23
0.2070363780
33
0.0000000000
40
0.0000000000
40
0.0000000000
40
0.0000000000
40
0.0000000000
40
0.1301434561
40
0.2580706594
40
0.3828813277
40
0.5034733553
40
0.6193060382
40
0.7297478653
40
0.8347194480
40
0.9340952828
40
1.0000000000
40
1.0000000000
40
1.0000000000
40
1.0000000000
10
-9.4374472164
20
53.6531381068
30
0.0000000000
10
-9.4446052081
20
53.6719014961
30
0.0000000000
10
-9.4601483070
20
53.7086112617
30
0.0000000000
10
-9.4871555077
20
53.7612184607
30
0.0000000000
10
-9.5172995159
20
53.8103786053
30
0.0000000000
10
-9.5501073315
20
53.8555166763
30
0.0000000000
10
-9.5850502109
20
53.8961444779
30
0.0000000000
10
-9.6216282211
20
53.9319425025
30
0.0000000000
10
-9.6593298856
20
53.9626826569
30
0.0000000000
10
-9.6940834070
20
53.9858548844
30
0.0000000000
10
-9.7164787685
20
53.9981198533
30
0.0000000000
10
-9.7255797939
20
54.0026680779
30
0.0000000000
11
-9.4374472164
21
53.6531381068
31
0.0000000000
11
-9.4609583510
21
53.7086082894
31
0.0000000000
11
-9.4880362574
21
53.7612764122
31
0.0000000000
11
-9.5182798474
21
53.8105071986
31
0.0000000000
11
-9.5511496059
21
53.8556299612
31
0.0000000000
11
-9.5861676686
21
53.8962388371
31
0.0000000000
11
-9.6227612762
21
53.9319437951
31
0.0000000000
11
-9.6604761473
21
53.9625868687
31
0.0000000000
11
-9.6988001020
21
53.9880355177
31
0.0000000000
11
-9.7255797939
21
54.0026680779
31
0.0000000000
0
SPLINE
5
3A0
100
AcDbEntity
8
0
100
AcDbSpline
62
7
6
CONTINUOUS
70
0
71
3
72
15
73
11
74
9
42
0.0000001000
43
0.0000001000
44
0.0000000001
12
0.1612786881
22
0.0787982905
32
0.0000000000
13
0.1613126016
23
-0.0805819185
33
0.0000000000
40
0.0000000000
40
0.0000000000
40
0.0000000000
40
0.0000000000
40
0.1853235570
40
0.3557279472
40
0.5101933337
40
0.6489895160
40
0.7716557093
40
0.8792252294
40
0.9733567035
40
1.0000000000
40
1.0000000000
40
1.0000000000
40
1.0000000000
10
-5.3079703556
20
51.6739633952
30
0.0000000000
10
-5.2980074422
20
51.6788311217
30
0.0000000000
10
-5.2786680311
20
51.6877452474
30
0.0000000000
10
-5.2502626685
20
51.6989749288
30
0.0000000000
10
-5.2238116504
20
51.7074258339
30
0.0000000000
10
-5.1995170286
20
51.7129887727
30
0.0000000000
10
-5.1775288972
20
51.7155525824
30
0.0000000000
10
-5.1580375373
20
51.7149679033
30
0.0000000000
10
-5.1446166026
20
51.7118119433
30
0.0000000000
10
-5.1379747351
20
51.7088614231
30
0.0000000000
10
-5.1365421020
20
51.7081457671
30
0.0000000000
11
-5.3079703556
21
51.6739633952
31
0.0000000000
11
-5.2777304667
21
51.6878248077
31
0.0000000000
11
-5.2492526306
21
51.6989875011
31
0.0000000000
11
-5.2228068592
21
51.7073167100
31
0.0000000000
11
-5.1984884682
21
51.7127309425
31
0.0000000000
11
-5.1765962441
21
51.7150856165
31
0.0000000000
11
-5.1573055028
21
51.7142542003
31
0.0000000000
11
-5.1409273932
21
51.7101008566
31
0.0000000000
11
-5.1365421020
21
51.7081457671
31
0.0000000000
0
SPLINE
5
3A1
100
AcDbEntity
8
0
100
AcDbSpline
62
7
6
CONTINUOUS
70
0
71
3
72
15
73
11
74
9
42
0.0000001000
43
0.0000001000
44
0.0000000001
12
-0.2442114613
22
0.1220443340
32
0.0000000000
13
-0.2470788504
23
-0.1158449327
33
0.0000000000
40
0.0000000000
40
0.0000000000
40
0.0000000000
40
0.0000000000
40
0.0478789752
40
0.1991388419
40
0.3432147175
40
0.4809726682
40
0.6141911217
40
0.7439034090
40
0.8721338264
40
1.0000000000
40
1.0000000000
40
1.0000000000
40
1.0000000000
10
-9.7255797939
20
54.0026680779
30
0.0000000000
10
-9.7294773254
20
54.0046158638
30
0.0000000000
10
-9.7458184245
20
54.0124559643
30
0.0000000000
10
-9.7748929035
20
54.0240044626
30
0.0000000000
10
-9.8130142672
20
54.0342958076
30
0.0000000000
10
-9.8504756894
20
54.0397014832
30
0.0000000000
10
-9.8870164309
20
54.0403523407
30
0.0000000000
10
-9.9224779045
20
54.0363815737
30
0.0000000000
10
-9.9566368162
20
54.0279207753
30
0.0000000000
10
-9.9783922966
20
54.0193774197
30
0.0000000000
10
-9.9889233057
20
54.0144398702
30
0.0000000000
11
-9.7255797939
21
54.0026680779
31
0.0000000000
11
-9.7373656548
21
54.0083199874
31
0.0000000000
11
-9.7757578099
21
54.0234803539
31
0.0000000000
11
-9.8137350699
21
54.0336550294
31
0.0000000000
11
-9.8509510828
21
54.0389622498
31
0.0000000000
11
-9.8872998682
21
54.0395632144
31
0.0000000000
11
-9.9224740584
21
54.0355982150
31
0.0000000000
11
-9.9564386845
21
54.0271789166
31
0.0000000000
11
-9.9889233057
21
54.0144398702
31
0.0000000000
0
SPLINE
5
3A2
100
AcDbEntity
8
0
100
AcDbSpline
62
9
6
CONTINUOUS
70
0
71
3
72
14
73
10
74
8
42
0.0000001000
43
0.0000001000
44
0.0000000001
12
-0.2018057108
22
0.1008814564
32
0.0000000000
13
-0.2032987406
23
-0.0973032496
33
0.0000000000
40
0.0000000000
40
0.0000000000
40
0.0000000000
40
0.0000000000
40
0.1152393861
40
0.2490058774
40
0.3864553819
40
0.5292100351
40
0.6785324245
40
0.8352969879
40
1.0000000000
40
1.0000000000
40
1.0000000000
40
1.0000000000
10
-11.9705722053
20
55.1251639935
30
0.0000000000
10
-11.9783241940
20
55.1290391659
30
0.0000000000
10
-11.9956568911
20
55.1362490678
30
0.0000000000
10
-12.0239258155
20
55.1433608488
30
0.0000000000
10
-12.0549957941
20
55.1463346883
30
0.0000000000
10
-12.0873299875
20
55.1448564971
30
0.0000000000
10
-12.1206194534
20
55.1389637563
30
0.0000000000
10
-12.1545514433
20
55.1287332921
30
0.0000000000
10
-12.1768471034
20
55.1193244677
30
0.0000000000
10
-12.1880084084
20
55.1139824216
30
0.0000000000
11
-11.9705722053
21
55.1251639935
31
0.0000000000
11
-11.9945561506
21
55.1351498470
31
0.0000000000
11
-12.0237820434
21
55.1425529052
31
0.0000000000
11
-12.0546128012
21
55.1455801928
31
0.0000000000
11
-12.0867580480
21
55.1442031920
31
0.0000000000
11
-12.1199150244
21
55.1384348684
31
0.0000000000
11
-12.1537714457
21
55.1283295486
31
0.0000000000
11
-12.1880084084
21
55.1139824216
31
0.0000000000
0
SPLINE
5
3A3
100
AcDbEntity
8
0
100
AcDbSpline
62
9
6
CONTINUOUS
70
0
71
3
72
15
73
11
74
9
42
0.0000001000
43
0.0000001000
44
0.0000000001
12
-0.0000346086
22
-0.2347181927
32
0.0000000000
13
-0.2081240940
23
-0.1077594042
33
0.0000000000
40
0.0000000000
40
0.0000000000
40
0.0000000000
40
0.0000000000
40
0.0944525332
40
0.2008261832
40
0.3123824603
40
0.4311826138
40
0.5586920645
40
0.6958041549
40
0.8429135391
40
1.0000000000
40
1.0000000000
40
1.0000000000
40
1.0000000000
10
4.4560120173
20
14.9584433153
30
0.0000000000
10
4.4560109277
20
14.9510534060
30
0.0000000000
10
4.4546075626
20
14.9353396847
30
0.0000000000
10
4.4480052890
20
14.9117005368
30
0.0000000000
10
4.4365180471
20
14.8878982088
30
0.0000000000
10
4.4205066359
20
14.8648571790
30
0.0000000000
10
4.4001556274
20
14.8427686093
30
0.0000000000
10
4.3756686013
20
14.8218118203
30
0.0000000000
10
4.3472784821
20
14.8021629404
30
0.0000000000
10
4.3265799274
20
14.7904213380
30
0.0000000000
10
4.3156821017
20
14.7847788235
30
0.0000000000
11
4.4560120173
21
14.9584433153
31
0.0000000000
11
4.4540624043
21
14.9363866970
31
0.0000000000
11
4.4474409364
21
14.9123516639
31
0.0000000000
11
4.4361910360
21
14.8887507213
31
0.0000000000
11
4.4204186524
21
14.8658061554
31
0.0000000000
11
4.4002723312
21
14.8437340691
31
0.0000000000
11
4.3759418173
21
14.8227423497
31
0.0000000000
11
4.3476562630
21
14.8030287056
31
0.0000000000
11
4.3156821017
21
14.7847788235
31
0.0000000000
0
SPLINE
5
3A4
100
AcDbEntity
8
0
100
AcDbSpline
62
9
6
CONTINUOUS
70
0
71
3
72
16
73
12
74
10
42
0.0000001000
43
0.0000001000
44
0.0000000001
12
0.2712575978
22
0.1463879948
32
0.0000000000
13
-0.0043415233
23
0.3078838213
33
0.0000000000
40
0.0000000000
40
0.0000000000
40
0.0000000000
40
0.0000000000
40
0.0814068383
40
0.1806193508
40
0.2825418628
40
0.3883989268
40
0.4991431215
40
0.6154324578
40
0.7376378251
40
0.8658677017
40
1.0000000000
40
1.0000000000
40
1.0000000000
40
1.0000000000
10
4.1934260450
20
14.5184043821
30
0.0000000000
10
4.2007867861
20
14.5223767101
30
0.0000000000
10
4.2165320187
20
14.5322781820
30
0.0000000000
10
4.2386676056
20
14.5511953405
30
0.0000000000
10
4.2593075846
20
14.5751548978
30
0.0000000000
10
4.2769652159
20
14.6027898070
30
0.0000000000
10
4.2914876979
20
14.6338148811
30
0.0000000000
10
4.3027546850
20
14.6679233601
30
0.0000000000
10
4.3106744558
20
14.7047881075
30
0.0000000000
10
4.3151831615
20
14.7440558205
30
0.0000000000
10
4.3158762145
20
14.7710131020
30
0.0000000000
10
4.3156821017
20
14.7847788235
30
0.0000000000
11
4.1934260450
21
14.5184043821
31
0.0000000000
11
4.2146558871
21
14.5317472864
31
0.0000000000
11
4.2379115181
21
14.5515567499
31
0.0000000000
11
4.2584532425
21
14.5752834463
31
0.0000000000
11
4.2760832884
21
14.6026989552
31
0.0000000000
11
4.2906319179
21
14.6335393402
31
0.0000000000
11
4.3019590611
21
14.6675076913
31
0.0000000000
11
4.3099556635
21
14.7042769806
31
0.0000000000
11
4.3145447374
21
14.7434932168
31
0.0000000000
11
4.3156821017
21
14.7847788235
31
0.0000000000
0
SPLINE
5
3A5
100
AcDbEntity
8
0
100
AcDbSpline
62
7
6
CONTINUOUS
70
0
71
3
72
25
73
21
74
19
42
0.0000001000
43
0.0000001000
44
0.0000000001
12
-2.0003991571
22
-0.9379034483
32
0.0000000000
13
1.2761031570
23
-1.8046551436
33
0.0000000000
40
0.0000000000
40
0.0000000000
40
0.0000000000
40
0.0000000000
40
0.0745016927
40
0.1459678480
40
0.2143423182
40
0.2796048389
40
0.3417978649
40
0.4010087676
40
0.4574061321
40
0.5112164884
40
0.5627618522
40
0.6124296705
40
0.6607006945
40
0.7081051712
40
0.7552319306
40
0.8026698810
40
0.8510055301
40
0.9007665366
40
0.9524278962
40
1.0000000000
40
1.0000000000
40
1.0000000000
40
1.0000000000
10
-13.9234361449
20
52.1697114588
30
0.0000000000
10
-13.9731138527
20
52.1464196607
30
0.0000000000
10
-14.0693567068
20
52.0984067400
30
0.0000000000
10
-14.2066874116
20
52.0204138351
30
0.0000000000
10
-14.3335210997
20
51.9382088163
30
0.0000000000
10
-14.4493543982
20
51.8521092107
30
0.0000000000
10
-14.5537254270
20
51.7624461438
30
0.0000000000
10
-14.6462202001
20
51.6695554070
30
0.0000000000
10
-14.7264583492
20
51.5737889266
30
0.0000000000
10
-14.7941057394
20
51.4755002731
30
0.0000000000
10
-14.8488587868
20
51.3750654603
30
0.0000000000
10
-14.8904579744
20
51.2728701897
30
0.0000000000
10
-14.9186833473
20
51.1693373022
30
0.0000000000
10
-14.9333753590
20
51.0649098662
30
0.0000000000
10
-14.9344452596
20
50.9600674340
30
0.0000000000
10
-14.9218894709
20
50.8552896081
30
0.0000000000
10
-14.8957892187
20
50.7510567323
30
0.0000000000
10
-14.8562966188
20
50.6478148336
30
0.0000000000
10
-14.8057842041
20
50.5501670936
30
0.0000000000
10
-14.7660301843
20
50.4887287852
30
0.0000000000
10
-14.7457945470
20
50.4601117046
30
0.0000000000
11
-13.9234361449
21
52.1697114588
31
0.0000000000
11
-14.0706495440
21
52.0960795519
31
0.0000000000
11
-14.2078531692
21
52.0179401493
31
0.0000000000
11
-14.3345047755
21
51.9356018692
31
0.0000000000
11
-14.4500883554
21
51.8494004733
31
0.0000000000
11
-14.5541529196
21
51.7596723030
31
0.0000000000
11
-14.6462704867
21
51.6667868175
31
0.0000000000
11
-14.7260848487
21
51.5711034424
31
0.0000000000
11
-14.7932659500
21
51.4730185160
31
0.0000000000
11
-14.8475555538
21
51.3729096880
31
0.0000000000
11
-14.8887286930
21
51.2711928561
31
0.0000000000
11
-14.9166277497
21
51.1682587726
31
0.0000000000
11
-14.9311373439
21
51.0645352830
31
0.0000000000
11
-14.9322023634
21
50.9604208802
31
0.0000000000
11
-14.9198189527
21
50.8563476443
31
0.0000000000
11
-14.8940354573
21
50.7527162349
31
0.0000000000
11
-14.8549590528
21
50.6499553295
31
0.0000000000
11
-14.8027414138
21
50.5484620149
31
0.0000000000
11
-14.7457945470
21
50.4601117046
31
0.0000000000
0
SPLINE
5
3A6
100
AcDbEntity
8
0
100
AcDbSpline
62
9
6
CONTINUOUS
70
0
71
3
72
15
73
11
74
9
42
0.0000001000
43
0.0000001000
44
0.0000000001
12
-0.0000344164
22
-0.2347182944
32
0.0000000000
13
-0.2081241843
23
-0.1077594509
33
0.0000000000
40
0.0000000000
40
0.0000000000
40
0.0000000000
40
0.0000000000
40
0.0944529259
40
0.2008265299
40
0.3123827586
40
0.4311828606
40
0.5586922559
40
0.6958042868
40
0.8429136073
40
1.0000000000
40
1.0000000000
40
1.0000000000
40
1.0000000000
10
4.4560120173
20
46.6028550082
30
0.0000000000
10
4.4560109338
20
46.5954650650
30
0.0000000000
10
4.4546075718
20
46.5797513085
30
0.0000000000
10
4.4480052890
20
46.5561121279
30
0.0000000000
10
4.4365180471
20
46.5323097998
30
0.0000000000
10
4.4205066359
20
46.5092687701
30
0.0000000000
10
4.4001556274
20
46.4871802004
30
0.0000000000
10
4.3756686013
20
46.4662234113
30
0.0000000000
10
4.3472784821
20
46.4465745314
30
0.0000000000
10
4.3265799274
20
46.4348329291
30
0.0000000000
10
4.3156821017
20
46.4291904146
30
0.0000000000
11
4.4560120173
21
46.6028550082
31
0.0000000000
11
4.4540624043
21
46.5807982880
31
0.0000000000
11
4.4474409364
21
46.5567632550
31
0.0000000000
11
4.4361910360
21
46.5331623124
31
0.0000000000
11
4.4204186524
21
46.5102177464
31
0.0000000000
11
4.4002723312
21
46.4881456602
31
0.0000000000
11
4.3759418173
21
46.4671539407
31
0.0000000000
11
4.3476562630
21
46.4474402966
31
0.0000000000
11
4.3156821017
21
46.4291904146
31
0.0000000000
0
SPLINE
5
3A7
100
AcDbEntity
8
0
100
AcDbSpline
62
9
6
CONTINUOUS
70
0
71
3
72
14
73
10
74
8
42
0.0000001000
43
0.0000001000
44
0.0000000001
12
-0.2018057597
22
0.1008817261
32
0.0000000000
13
-0.2032989012
23
-0.0973033265
33
0.0000000000
40
0.0000000000
40
0.0000000000
40
0.0000000000
40
0.0000000000
40
0.1152584065
40
0.2490221461
40
0.3864688696
40
0.5292205775
40
0.6785397592
40
0.8353007723
40
1.0000000000
40
1.0000000000
40
1.0000000000
40
1.0000000000
10
4.1796189149
20
47.0500684339
30
0.0000000000
10
4.1718656448
20
47.0539442563
30
0.0000000000
10
4.1545317110
20
47.0611544531
30
0.0000000000
10
4.1262616442
20
47.0682659308
30
0.0000000000
10
4.0951922389
20
47.0712392388
30
0.0000000000
10
4.0628587146
20
47.0697607251
30
0.0000000000
10
4.0295699884
20
47.0638678738
30
0.0000000000
10
3.9956387734
20
47.0536375049
30
0.0000000000
10
3.9733436163
20
47.0442288655
30
0.0000000000
10
3.9621825590
20
47.0388869379
30
0.0000000000
11
4.1796189149
21
47.0500684339
31
0.0000000000
11
4.1556308945
21
47.0600556884
31
0.0000000000
11
4.1264054348
21
47.0674580274
31
0.0000000000
11
4.0955752303
21
47.0704847860
31
0.0000000000
11
4.0634306365
21
47.0691074585
31
0.0000000000
11
4.0302743875
21
47.0633390164
31
0.0000000000
11
3.9964187454
21
47.0532337862
31
0.0000000000
11
3.9621825590
21
47.0388869379
31
0.0000000000
0
SPLINE
5
3A8
100
AcDbEntity
8
0
100
AcDbSpline
62
9
6
CONTINUOUS
70
0
71
3
72
16
73
12
74
10
42
0.0000001000
43
0.0000001000
44
0.0000000001
12
-0.4035520309
22
0.2018036008
32
0.0000000000
13
-0.4066845390
23
-0.1946481669
33
0.0000000000
40
0.0000000000
40
0.0000000000
40
0.0000000000
40
0.0000000000
40
0.0179524527
40
0.1292325199
40
0.2419266263
40
0.3571683350
40
0.4759510680
40
0.5990963561
40
0.7272306644
40
0.8607808724
40
1.0000000000
40
1.0000000000
40
1.0000000000
40
1.0000000000
10
-25.0264946029
20
52.3988741884
30
0.0000000000
10
-25.0289095191
20
52.4000818116
30
0.0000000000
10
-25.0463874296
20
52.4085870685
30
0.0000000000
10
-25.0803208170
20
52.4219420044
30
0.0000000000
10
-25.1299446817
20
52.4342358521
30
0.0000000000
10
-25.1818386704
20
52.4402545851
30
0.0000000000
10
-25.2356384908
20
52.4399758439
30
0.0000000000
10
-25.2909768281
20
52.4334222764
30
0.0000000000
10
-25.3474855996
20
52.4206558395
30
0.0000000000
10
-25.4047893958
20
52.4017783045
30
0.0000000000
10
-25.4424946035
20
52.3855440235
30
0.0000000000
10
-25.4613673591
20
52.3765111076
30
0.0000000000
11
-25.0264946029
21
52.3988741884
31
0.0000000000
11
-25.0337779561
21
52.4024183796
31
0.0000000000
11
-25.0804556929
21
52.4208156455
31
0.0000000000
11
-25.1297604221
21
52.4330914225
31
0.0000000000
11
-25.1813629516
21
52.4391637149
31
0.0000000000
11
-25.2349177815
21
52.4389919458
31
0.0000000000
11
-25.2900680199
21
52.4325773209
31
0.0000000000
11
-25.3464453594
21
52.4199625757
31
0.0000000000
11
-25.4036714216
21
52.4012325368
31
0.0000000000
11
-25.4613673591
21
52.3765111076
31
0.0000000000
0
SPLINE
5
3A9
100
AcDbEntity
8
0
100
AcDbSpline
62
9
6
CONTINUOUS
70
0
71
3
72
16
73
12
74
10
42
0.0000001000
43
0.0000001000
44
0.0000000001
12
-0.4035520309
22
0.2018036007
32
0.0000000000
13
-0.4066845389
23
-0.1946481669
33
0.0000000000
40
0.0000000000
40
0.0000000000
40
0.0000000000
40
0.0000000000
40
0.0179523354
40
0.1292324001
40
0.2419264980
40
0.3571681786
40
0.4759508798
40
0.5990961835
40
0.7272304446
40
0.8607806259
40
1.0000000000
40
1.0000000000
40
1.0000000000
40
1.0000000000
10
-9.8944094855
20
44.8328316297
30
0.0000000000
10
-9.8968243860
20
44.8340392451
30
0.0000000000
10
-9.9143022796
20
44.8425444953
30
0.0000000000
10
-9.9482356471
20
44.8558994289
30
0.0000000000
10
-9.9978595043
20
44.8681932823
30
0.0000000000
10
-10.0497534818
20
44.8742120221
30
0.0000000000
10
-10.1035532955
20
44.8739332900
30
0.0000000000
10
-10.1588916245
20
44.8673797324
30
0.0000000000
10
-10.2154003894
20
44.8546133062
30
0.0000000000
10
-10.2727042133
20
44.8357357724
30
0.0000000000
10
-10.3104094527
20
44.8195014808
30
0.0000000000
10
-10.3292822417
20
44.8104685489
30
0.0000000000
11
-9.8944094855
21
44.8328316297
31
0.0000000000
11
-9.9016927908
21
44.8363757982
31
0.0000000000
11
-9.9483705240
21
44.8547730703
31
0.0000000000
11
-9.9976752478
21
44.8670488534
31
0.0000000000
11
-10.0492777638
21
44.8731211522
31
0.0000000000
11
-10.1028325793
21
44.8729493922
31
0.0000000000
11
-10.1579828257
21
44.8665347753
31
0.0000000000
11
-10.2143601464
21
44.8539200434
31
0.0000000000
11
-10.2715862001
21
44.8351900175
31
0.0000000000
11
-10.3292822417
21
44.8104685489
31
0.0000000000
0
SPLINE
5
3AA
100
AcDbEntity
8
0
100
AcDbSpline
62
7
6
CONTINUOUS
70
0
71
3
72
8
73
4
74
2
42
0.0000001000
43
0.0000001000
44
0.0000000001
12
0.0040148323
22
0.0013619830
32
0.0000000000
13
0.0040163940
23
0.0013574457
33
0.0000000000
40
0.0000000000
40
0.0000000000
40
0.0000000000
40
0.0000000000
40
1.0000000000
40
1.0000000000
40
1.0000000000
40
1.0000000000
10
-12.4086497411
20
51.1357307637
30
0.0000000000
10
-12.4073114636
20
51.1361847581
30
0.0000000000
10
-12.4059729252
20
51.1366379955
30
0.0000000000
10
-12.4046341272
20
51.1370904774
30
0.0000000000
11
-12.4086497411
21
51.1357307637
31
0.0000000000
11
-12.4046341272
21
51.1370904774
31
0.0000000000
0
SPLINE
5
3AB
100
AcDbEntity
8
0
100
AcDbSpline
62
7
6
CONTINUOUS
70
0
71
3
72
37
73
33
74
31
42
0.0000001000
43
0.0000001000
44
0.0000000001
12
4.4012826069
22
1.4875288728
32
0.0000000000
13
2.0075823212
23
-4.1925483496
33
0.0000000000
40
0.0000000000
40
0.0000000000
40
0.0000000000
40
0.0000000000
40
0.0342364150
40
0.0703383574
40
0.1072821302
40
0.1449801119
40
0.1832931868
40
0.2221351460
40
0.2613463263
40
0.3008430506
40
0.3404528250
40
0.3800947193
40
0.4195913871
40
0.4588644138
40
0.4977397198
40
0.5361411720
40
0.5739060732
40
0.6109607900
40
0.6471620167
40
0.6824397781
40
0.7166780714
40
0.7498132335
40
0.7817645827
40
0.8124795739
40
0.8419208015
40
0.8700564997
40
0.8968994662
40
0.9224537575
40
0.9467903268
40
0.9699663672
40
0.9921208103
40
1.0000000000
40
1.0000000000
40
1.0000000000
40
1.0000000000
10
-12.4046341272
20
51.1370904774
30
0.0000000000
10
-12.3544060813
20
51.1540663627
30
0.0000000000
10
-12.2504625407
20
51.1867581929
30
0.0000000000
10
-12.0900674125
20
51.2302200568
30
0.0000000000
10
-11.9228876854
20
51.2686530130
30
0.0000000000
10
-11.7510398096
20
51.3015137332
30
0.0000000000
10
-11.5752250607
20
51.3286682400
30
0.0000000000
10
-11.3962495307
20
51.3499916270
30
0.0000000000
10
-11.2148293080
20
51.3653985513
30
0.0000000000
10
-11.0318098172
20
51.3748169759
30
0.0000000000
10
-10.8479128243
20
51.3782097485
30
0.0000000000
10
-10.6640036655
20
51.3755608420
30
0.0000000000
10
-10.4808021966
20
51.3668806578
30
0.0000000000
10
-10.2991731709
20
51.3522102933
30
0.0000000000
10
-10.1198273239
20
51.3316072237
30
0.0000000000
10
-9.9436082840
20
51.3051686570
30
0.0000000000
10
-9.7712103991
20
51.2729988384
30
0.0000000000
10
-9.6034364027
20
51.2352479505
30
0.0000000000
10
-9.4409565702
20
51.1920667964
30
0.0000000000
10
-9.2845145314
20
51.1436533167
30
0.0000000000
10
-9.1347480898
20
51.0902045605
30
0.0000000000
10
-8.9923259117
20
51.0319589670
30
0.0000000000
10
-8.8578440658
20
50.9691590941
30
0.0000000000
10
-8.7318845221
20
50.9020750540
30
0.0000000000
10
-8.6149898873
20
50.8309924218
30
0.0000000000
10
-8.5076494530
20
50.7562032478
30
0.0000000000
10
-8.4103395897
20
50.6780304702
30
0.0000000000
10
-8.3234586010
20
50.5967793042
30
0.0000000000
10
-8.2474076347
20
50.5128025316
30
0.0000000000
10
-8.1825034402
20
50.4264146300
30
0.0000000000
10
-8.1398055808
20
50.3557605440
30
0.0000000000
10
-8.1188317999
20
50.3142066283
30
0.0000000000
10
-8.1135590926
20
50.3031953337
30
0.0000000000
11
-12.4046341272
21
51.1370904774
31
0.0000000000
11
-12.2529308427
21
51.1848969131
31
0.0000000000
11
-12.0910667270
21
51.2288428188
31
0.0000000000
11
-11.9238109119
21
51.2673650090
31
0.0000000000
11
-11.7517999577
21
51.3003160057
31
0.0000000000
11
-11.5758966107
21
51.3275313492
31
0.0000000000
11
-11.3967147677
21
51.3489154411
31
0.0000000000
11
-11.2152016060
21
51.3643557986
31
0.0000000000
11
-11.0319496064
21
51.3738016236
31
0.0000000000
11
-10.8479605232
21
51.3772016062
31
0.0000000000
11
-10.6638099672
21
51.3745449129
31
0.0000000000
11
-10.4805212366
21
51.3658464147
31
0.0000000000
11
-10.2986594407
21
51.3511329305
31
0.0000000000
11
-10.1192351996
21
51.3304861147
31
0.0000000000
11
-9.9428097697
21
51.3039707543
31
0.0000000000
11
-9.7703477095
21
51.2717314762
31
0.0000000000
11
-9.6024118064
21
51.2338739051
31
0.0000000000
11
-9.4398899992
21
51.1905976147
31
0.0000000000
11
-9.2833492510
21
51.1420542441
31
0.0000000000
11
-9.1335750206
21
51.0884864739
31
0.0000000000
11
-8.9911370084
21
51.0300990282
31
0.0000000000
11
-8.8566987161
21
50.9671626279
31
0.0000000000
11
-8.7308259155
21
50.8999434818
31
0.0000000000
11
-8.6140510242
21
50.8287244757
31
0.0000000000
11
-8.5069154837
21
50.7538373605
31
0.0000000000
11
-8.4098287427
21
50.6755669864
31
0.0000000000
11
-8.3232761618
21
50.5943060828
31
0.0000000000
11
-8.2475610196
21
50.5103381313
31
0.0000000000
11
-8.1830824633
21
50.4241071011
31
0.0000000000
11
-8.1300517426
21
50.3358943862
31
0.0000000000
11
-8.1135590926
21
50.3031953337
31
0.0000000000
0
SPLINE
5
3AC
100
AcDbEntity
8
0
100
AcDbSpline
62
7
6
CONTINUOUS
70
0
71
3
72
19
73
15
74
13
42
0.0000001000
43
0.0000001000
44
0.0000000001
12
-1.1871891308
22
-0.5935945654
32
0.0000000000
13
-0.0000000023
23
-1.3282444222
33
0.0000000000
40
0.0000000000
40
0.0000000000
40
0.0000000000
40
0.0000000000
40
0.1050557157
40
0.2057867271
40
0.3020595790
40
0.3939528159
40
0.4814383689
40
0.5647936869
40
0.6441754948
40
0.7200746053
40
0.7928972038
40
0.8633487533
40
0.9320978495
40
1.0000000000
40
1.0000000000
40
1.0000000000
40
1.0000000000
10
-13.4882481329
20
51.0289442697
30
0.0000000000
10
-13.5298218009
20
51.0081574357
30
0.0000000000
10
-13.6102354028
20
50.9653440571
30
0.0000000000
10
-13.7245182841
20
50.8959186359
30
0.0000000000
10
-13.8295254696
20
50.8228828140
30
0.0000000000
10
-13.9247809931
20
50.7465584544
30
0.0000000000
10
-14.0099120936
20
50.6672304137
30
0.0000000000
10
-14.0845188087
20
50.5852504128
30
0.0000000000
10
-14.1483027263
20
50.5009126061
30
0.0000000000
10
-14.2009440533
20
50.4145920675
30
0.0000000000
10
-14.2422049782
20
50.3266075439
30
0.0000000000
10
-14.2718514523
20
50.2373641641
30
0.0000000000
10
-14.2897171702
20
50.1472380819
30
0.0000000000
10
-14.2937044846
20
50.0867359965
30
0.0000000000
10
-14.2937044846
20
50.0566724456
30
0.0000000000
11
-13.4882481329
21
51.0289442697
31
0.0000000000
11
-13.6112594215
21
50.9632755262
31
0.0000000000
11
-13.7254391554
21
50.8937109492
31
0.0000000000
11
-13.8302351057
21
50.8205896072
31
0.0000000000
11
-13.9252898949
21
50.7441589788
31
0.0000000000
11
-14.0100918949
21
50.6648321989
31
0.0000000000
11
-14.0843852892
21
50.5828475707
31
0.0000000000
11
-14.1477521093
21
50.4986667805
31
0.0000000000
11
-14.2000070069
21
50.4125365032
31
0.0000000000
11
-14.2408587416
21
50.3249348704
31
0.0000000000
11
-14.2701796780
21
50.2361390303
31
0.0000000000
11
-14.2878157570
21
50.1466075956
31
0.0000000000
11
-14.2937044846
21
50.0566724456
31
0.0000000000
0
SPLINE
5
3AD
100
AcDbEntity
8
0
100
AcDbSpline
62
9
6
CONTINUOUS
70
0
71
3
72
13
73
9
74
7
42
0.0000001000
43
0.0000001000
44
0.0000000001
12
-0.0997418279
22
0.0498825848
32
0.0000000000
13
-0.1051863764
23
-0.0368626321
33
0.0000000000
40
0.0000000000
40
0.0000000000
40
0.0000000000
40
0.0000000000
40
0.0139987194
40
0.1990089977
40
0.3880483190
40
0.5844340780
40
0.7907887532
40
1.0000000000
40
1.0000000000
40
1.0000000000
40
1.0000000000
10
-9.1371636445
20
52.9035231774
30
0.0000000000
10
-9.1376290638
20
52.9037559415
30
0.0000000000
10
-9.1442686125
20
52.9070188244
30
0.0000000000
10
-9.1578383269
20
52.9120892773
30
0.0000000000
10
-9.1787868200
20
52.9158560184
30
0.0000000000
10
-9.2008500353
20
52.9160614808
30
0.0000000000
10
-9.2234113235
20
52.9127798989
30
0.0000000000
10
-9.2382780684
20
52.9085146847
30
0.0000000000
10
-9.2456134594
20
52.9059439923
30
0.0000000000
11
-9.1371636445
21
52.9035231774
31
0.0000000000
11
-9.1385647255
21
52.9042116997
31
0.0000000000
11
-9.1578579921
21
52.9114451854
31
0.0000000000
11
-9.1785688724
21
52.9152274563
31
0.0000000000
11
-9.2004386195
21
52.9155112474
31
0.0000000000
11
-9.2231940039
21
52.9122930064
31
0.0000000000
11
-9.2456134594
21
52.9059439923
31
0.0000000000
0
SPLINE
5
3AE
100
AcDbEntity
8
0
100
AcDbSpline
62
9
6
CONTINUOUS
70
0
71
3
72
13
73
9
74
7
42
0.0000001000
43
0.0000001000
44
0.0000000001
12
0.1018858258
22
0.0470504875
32
0.0000000000
13
0.0995086283
23
-0.0514837726
33
0.0000000000
40
0.0000000000
40
0.0000000000
40
0.0000000000
40
0.0000000000
40
0.0837885243
40
0.2502236785
40
0.4224416624
40
0.6035151149
40
0.7956207994
40
1.0000000000
40
1.0000000000
40
1.0000000000
40
1.0000000000
10
-26.4956455609
20
52.8486469932
30
0.0000000000
10
-26.4927999399
20
52.8499610902
30
0.0000000000
10
-26.4841046509
20
52.8534585074
30
0.0000000000
10
-26.4686535589
20
52.8571088799
30
0.0000000000
10
-26.4491557799
20
52.8579495375
30
0.0000000000
10
-26.4288677943
20
52.8553063215
30
0.0000000000
10
-26.4080892932
20
52.8492539220
30
0.0000000000
10
-26.3945221142
20
52.8432063069
30
0.0000000000
10
-26.3877429495
20
52.8396989028
30
0.0000000000
11
-26.4956455609
21
52.8486469932
31
0.0000000000
11
-26.4869254054
21
52.8521536290
31
0.0000000000
11
-26.4687881998
21
52.8564844011
31
0.0000000000
11
-26.4495146006
21
52.8573925649
31
0.0000000000
11
-26.4293855515
21
52.8548648821
31
0.0000000000
11
-26.4086944659
21
52.8489381978
31
0.0000000000
11
-26.3877429495
21
52.8396989028
31
0.0000000000
0
SPLINE
5
3AF
100
AcDbEntity
8
0
100
AcDbSpline
62
9
6
CONTINUOUS
70
0
71
3
72
14
73
10
74
8
42
0.0000001000
43
0.0000001000
44
0.0000000001
12
0.0000189033
22
-0.1174232386
32
0.0000000000
13
-0.1040197854
23
-0.0538578205
33
0.0000000000
40
0.0000000000
40
0.0000000000
40
0.0000000000
40
0.0000000000
40
0.0543855585
40
0.1841342949
40
0.3211633716
40
0.4693507872
40
0.6312194725
40
0.8080293864
40
1.0000000000
40
1.0000000000
40
1.0000000000
40
1.0000000000
10
-8.6440147928
20
4.1498893701
30
0.0000000000
10
-8.6440144501
20
4.1477606606
30
0.0000000000
10
-8.6443784078
20
4.1405537759
30
0.0000000000
10
-8.6471825406
20
4.1282141921
30
0.0000000000
10
-8.6542179515
20
4.1134898731
30
0.0000000000
10
-8.6646667945
20
4.0993938845
30
0.0000000000
10
-8.6783395749
20
4.0860884724
30
0.0000000000
10
-8.6950304166
20
4.0737274607
30
0.0000000000
10
-8.7075214729
20
4.0665034471
30
0.0000000000
10
-8.7141777203
20
4.0630570742
30
0.0000000000
11
-8.6440147928
21
4.1498893701
31
0.0000000000
11
-8.6443379462
21
4.1435149665
31
0.0000000000
11
-8.6476378814
21
4.1286793294
31
0.0000000000
11
-8.6544512159
21
4.1141461560
31
0.0000000000
11
-8.6646807886
21
4.1001226949
31
0.0000000000
11
-8.6781807217
21
4.0868089259
31
0.0000000000
11
-8.6947585008
21
4.0743947085
31
0.0000000000
11
-8.7141777203
21
4.0630570742
31
0.0000000000
0
SPLINE
5
3B0
100
AcDbEntity
8
0
100
AcDbSpline
62
7
6
CONTINUOUS
70
0
71
3
72
16
73
12
74
10
42
0.0000001000
43
0.0000001000
44
0.0000000001
12
-0.0000735587
22
0.1519036893
32
0.0000000000
13
-0.0959171941
23
0.1173868224
33
0.0000000000
40
0.0000000000
40
0.0000000000
40
0.0000000000
40
0.0000000000
40
0.0195980981
40
0.1084277517
40
0.2061147316
40
0.3136800342
40
0.4314777037
40
0.5594401355
40
0.6972385316
40
0.8443322939
40
1.0000000000
40
1.0000000000
40
1.0000000000
40
1.0000000000
10
-8.6440129873
20
7.6231207607
30
0.0000000000
10
-8.6440134679
20
7.6241131018
30
0.0000000000
10
-8.6441454069
20
7.6296030263
30
0.0000000000
10
-8.6456565476
20
7.6399554692
30
0.0000000000
10
-8.6499109742
20
7.6542335397
30
0.0000000000
10
-8.6562614227
20
7.6692978217
30
0.0000000000
10
-8.6645521456
20
7.6851275260
30
0.0000000000
10
-8.6746420372
20
7.7016875887
30
0.0000000000
10
-8.6863952226
20
7.7189320054
30
0.0000000000
10
-8.6996750556
20
7.7368048430
30
0.0000000000
10
-8.7092006504
20
7.7487794101
30
0.0000000000
10
-8.7141777203
20
7.7548705226
30
0.0000000000
11
-8.6440129873
21
7.6231207607
31
0.0000000000
11
-8.6440828236
21
7.6260962511
31
0.0000000000
11
-8.6458934713
21
7.6394397224
31
0.0000000000
11
-8.6500094096
21
7.6536646724
31
0.0000000000
11
-8.6562557333
21
7.6687267503
31
0.0000000000
11
-8.6644740512
21
7.6845802447
31
0.0000000000
11
-8.6745165059
21
7.7011762909
31
0.0000000000
11
-8.6862422409
21
7.7184637498
31
0.0000000000
11
-8.6995108924
21
7.7363843104
31
0.0000000000
11
-8.7141777203
21
7.7548705226
31
0.0000000000
0
SPLINE
5
3B1
100
AcDbEntity
8
0
100
AcDbSpline
62
7
6
CONTINUOUS
70
0
71
3
72
8
73
4
74
2
42
0.0000001000
43
0.0000001000
44
0.0000000001
12
0.0028624123
22
0.0015438547
32
0.0000000000
13
0.0028068151
23
0.0016424047
33
0.0000000000
40
0.0000000000
40
0.0000000000
40
0.0000000000
40
0.0000000000
40
1.0000000000
40
1.0000000000
40
1.0000000000
40
1.0000000000
10
-14.8587600432
20
0.0094264197
30
0.0000000000
10
-14.8578059058
20
0.0099410380
30
0.0000000000
10
-14.8568607244
20
0.0104722008
30
0.0000000000
10
-14.8559251194
20
0.0110196690
30
0.0000000000
11
-14.8587600432
21
0.0094264197
31
0.0000000000
11
-14.8559251194
21
0.0110196690
31
0.0000000000
0
SPLINE
5
3B2
100
AcDbEntity
8
0
100
AcDbSpline
62
7
6
CONTINUOUS
70
0
71
3
72
8
73
4
74
2
42
0.0000001000
43
0.0000001000
44
0.0000000001
12
0.0008309121
22
0.0004862073
32
0.0000000000
13
0.0008258460
23
0.0004947398
33
0.0000000000
40
0.0000000000
40
0.0000000000
40
0.0000000000
40
0.0000000000
40
1.0000000000
40
1.0000000000
40
1.0000000000
40
1.0000000000
10
-14.8559251194
20
0.0110196690
30
0.0000000000
10
-14.8556481487
20
0.0111817381
30
0.0000000000
10
-14.8553720172
20
0.0113452361
30
0.0000000000
10
-14.8550967352
20
0.0115101494
30
0.0000000000
11
-14.8559251194
21
0.0110196690
31
0.0000000000
11
-14.8550967352
21
0.0115101494
31
0.0000000000
0
SPLINE
5
3B3
100
AcDbEntity
8
0
100
AcDbSpline
62
7
6
CONTINUOUS
70
0
71
3
72
8
73
4
74
2
42
0.0000001000
43
0.0000001000
44
0.0000000001
12
0.0044711326
22
0.0026785225
32
0.0000000000
13
0.0043168654
23
0.0029208838
33
0.0000000000
40
0.0000000000
40
0.0000000000
40
0.0000000000
40
0.0000000000
40
1.0000000000
40
1.0000000000
40
1.0000000000
40
1.0000000000
10
-14.8550967352
20
0.0115101494
30
0.0000000000
10
-14.8536063577
20
0.0124029902
30
0.0000000000
10
-14.8521408792
20
0.0133373132
30
0.0000000000
10
-14.8507019241
20
0.0143109411
30
0.0000000000
11
-14.8550967352
21
0.0115101494
31
0.0000000000
11
-14.8507019241
21
0.0143109411
31
0.0000000000
0
SPLINE
5
3B4
100
AcDbEntity
8
0
100
AcDbSpline
62
7
6
CONTINUOUS
70
0
71
3
72
14
73
10
74
8
42
0.0000001000
43
0.0000001000
44
0.0000000001
12
0.1121920999
22
0.0759115841
32
0.0000000000
13
0.0053495133
23
0.1352083256
33
0.0000000000
40
0.0000000000
40
0.0000000000
40
0.0000000000
40
0.0000000000
40
0.0920500925
40
0.2342529548
40
0.3830345620
40
0.5409410886
40
0.7085820785
40
0.8868595700
40
1.0000000000
40
1.0000000000
40
1.0000000000
40
1.0000000000
10
-14.8507019241
20
0.0143109411
30
0.0000000000
10
-14.8472594930
20
0.0166401639
30
0.0000000000
10
-14.8388853490
20
0.0231401272
30
0.0000000000
10
-14.8270354523
20
0.0358348556
30
0.0000000000
10
-14.8159692991
20
0.0528898636
30
0.0000000000
10
-14.8072474701
20
0.0725000044
30
0.0000000000
10
-14.8009612805
20
0.0943942435
30
0.0000000000
10
-14.7977193308
20
0.1148796872
30
0.0000000000
10
-14.7967966099
20
0.1280001697
30
0.0000000000
10
-14.7965948611
20
0.1330993457
30
0.0000000000
11
-14.8507019241
21
0.0143109411
31
0.0000000000
11
-14.8408522597
21
0.0219436467
31
0.0000000000
11
-14.8276757254
21
0.0359539441
31
0.0000000000
11
-14.8166464034
21
0.0527849147
31
0.0000000000
11
-14.8078791859
21
0.0722594040
31
0.0000000000
11
-14.8015339039
21
0.0940269827
31
0.0000000000
11
-14.7976842146
21
0.1178298314
31
0.0000000000
11
-14.7965948611
21
0.1330993457
31
0.0000000000
0
SPLINE
5
3B5
100
AcDbEntity
8
0
100
AcDbSpline
62
7
6
CONTINUOUS
70
0
71
3
72
8
73
4
74
2
42
0.0000001000
43
0.0000001000
44
0.0000000001
12
0.0004026771
22
0.0101776156
32
0.0000000000
13
0.0000000000
23
0.0101808024
33
0.0000000000
40
0.0000000000
40
0.0000000000
40
0.0000000000
40
0.0000000000
40
1.0000000000
40
1.0000000000
40
1.0000000000
40
1.0000000000
10
-14.7965948611
20
0.1330993457
30
0.0000000000
10
-14.7964606354
20
0.1364918843
30
0.0000000000
10
-14.7963956781
20
0.1398867532
30
0.0000000000
10
-14.7963956781
20
0.1432803540
30
0.0000000000
11
-14.7965948611
21
0.1330993457
31
0.0000000000
11
-14.7963956781
21
0.1432803540
31
0.0000000000
0
SPLINE
5
3B6
100
AcDbEntity
8
0
100
AcDbSpline
62
9
6
CONTINUOUS
70
0
71
3
72
15
73
11
74
9
42
0.0000001000
43
0.0000001000
44
0.0000000001
12
0.1356788345
22
0.0731688242
32
0.0000000000
13
-0.0021700727
23
0.1538930522
33
0.0000000000
40
0.0000000000
40
0.0000000000
40
0.0000000000
40
0.0000000000
40
0.0211107157
40
0.1422115825
40
0.2666072505
40
0.3966945280
40
0.5342682473
40
0.6804508641
40
0.8357224768
40
1.0000000000
40
1.0000000000
40
1.0000000000
40
1.0000000000
10
-9.2872860652
20
3.0153644079
30
0.0000000000
10
-9.2863313061
20
3.0158792900
30
0.0000000000
10
-9.2799596744
20
3.0194588295
30
0.0000000000
10
-9.2688264708
20
3.0275549167
30
0.0000000000
10
-9.2556159579
20
3.0417334673
30
0.0000000000
10
-9.2446712122
20
3.0587224884
30
0.0000000000
10
-9.2361279739
20
3.0782464349
30
0.0000000000
10
-9.2300837950
20
3.1000129697
30
0.0000000000
10
-9.2266056853
20
3.1237055597
30
0.0000000000
10
-9.2260380485
20
3.1401249199
30
0.0000000000
10
-9.2261568799
20
3.1485519764
30
0.0000000000
11
-9.2872860652
21
3.0153644079
31
0.0000000000
11
-9.2844491645
21
3.0169583104
31
0.0000000000
11
-9.2693574635
21
3.0278959433
31
0.0000000000
11
-9.2562574276
21
3.0418580514
31
0.0000000000
11
-9.2453400108
21
3.0586411146
31
0.0000000000
11
-9.2367643519
21
3.0780004929
31
0.0000000000
11
-9.2306554550
21
3.0996539922
31
0.0000000000
11
-9.2271023670
21
3.1232859780
31
0.0000000000
11
-9.2261568799
21
3.1485519764
31
0.0000000000
0
SPLINE
5
3B7
100
AcDbEntity
8
0
100
AcDbSpline
62
9
6
CONTINUOUS
70
0
71
3
72
14
73
10
74
8
42
0.0000001000
43
0.0000001000
44
0.0000000001
12
0.0000156365
22
-0.1174214821
32
0.0000000000
13
-0.1040182321
23
-0.0538570163
33
0.0000000000
40
0.0000000000
40
0.0000000000
40
0.0000000000
40
0.0000000000
40
0.0543713911
40
0.1841220644
40
0.3211531882
40
0.4693428203
40
0.6312139308
40
0.8080264989
40
1.0000000000
40
1.0000000000
40
1.0000000000
40
1.0000000000
10
-8.6440147925
20
43.7449278764
30
0.0000000000
10
-8.6440145091
20
43.7427997533
30
0.0000000000
10
-8.6443785378
20
43.7355934655
30
0.0000000000
10
-8.6471825388
20
43.7232544570
30
0.0000000000
10
-8.6542179487
20
43.7085301374
30
0.0000000000
10
-8.6646667913
20
43.6944341479
30
0.0000000000
10
-8.6783395719
20
43.6811287345
30
0.0000000000
10
-8.6950304147
20
43.6687677215
30
0.0000000000
10
-8.7075214722
20
43.6615437072
30
0.0000000000
10
-8.7141777203
20
43.6580973339
30
0.0000000000
11
-8.6440147925
21
43.7449278764
31
0.0000000000
11
-8.6443379456
21
43.7385552317
31
0.0000000000
11
-8.6476378796
21
43.7237195944
31
0.0000000000
11
-8.6544512131
21
43.7091864204
31
0.0000000000
11
-8.6646807853
21
43.6951629584
31
0.0000000000
11
-8.6781807186
21
43.6818491883
31
0.0000000000
11
-8.6947584988
21
43.6694349696
31
0.0000000000
11
-8.7141777203
21
43.6580973339
31
0.0000000000
0
SPLINE
5
3B8
100
AcDbEntity
8
0
100
AcDbSpline
62
9
6
CONTINUOUS
70
0
71
3
72
16
73
12
74
10
42
0.0000001000
43
0.0000001000
44
0.0000000001
12
0.3997738496
22
0.1965281548
32
0.0000000000
13
0.3987561224
23
-0.1993357673
33
0.0000000000
40
0.0000000000
40
0.0000000000
40
0.0000000000
40
0.0000000000
40
0.1396962373
40
0.2735406927
40
0.4018022929
40
0.5249319005
40
0.6435887583
40
0.7586363270
40
0.8711175224
40
0.9822198568
40
1.0000000000
40
1.0000000000
40
1.0000000000
40
1.0000000000
10
-9.4029066512
20
44.3472807536
30
0.0000000000
10
-9.3842910170
20
44.3564321682
30
0.0000000000
10
-9.3471010274
20
44.3729060092
30
0.0000000000
10
-9.2905438993
20
44.3921628986
30
0.0000000000
10
-9.2347694198
20
44.4053032953
30
0.0000000000
10
-9.1801475886
20
44.4122222444
30
0.0000000000
10
-9.1270415933
20
44.4128544655
30
0.0000000000
10
-9.0758145681
20
44.4071738501
30
0.0000000000
10
-9.0268275349
20
44.3951996731
30
0.0000000000
10
-8.9933604393
20
44.3820724769
30
0.0000000000
10
-8.9761366063
20
44.3736949323
30
0.0000000000
10
-8.9737732927
20
44.3725135262
30
0.0000000000
11
-9.4029066512
21
44.3472807536
31
0.0000000000
11
-9.3459629314
21
44.3723810483
31
0.0000000000
11
-9.2894832004
21
44.3914861550
31
0.0000000000
11
-9.2338413946
21
44.4044697481
31
0.0000000000
11
-9.1794109995
21
44.4112445708
31
0.0000000000
11
-9.1265556397
21
44.4117655569
31
0.0000000000
11
-9.0756275715
21
44.4060292870
31
0.0000000000
11
-9.0269677926
21
44.3940742217
31
0.0000000000
11
-8.9809011870
21
44.3759803672
31
0.0000000000
11
-8.9737732927
21
44.3725135262
31
0.0000000000
0
SPLINE
5
3B9
100
AcDbEntity
8
0
100
AcDbSpline
62
9
6
CONTINUOUS
70
0
71
3
72
26
73
22
74
20
42
0.0000001000
43
0.0000001000
44
0.0000000001
12
0.7194776500
22
0.3568588126
32
0.0000000000
13
0.0000054831
23
-0.8031166172
33
0.0000000000
40
0.0000000000
40
0.0000000000
40
0.0000000000
40
0.0000000000
40
0.0579336083
40
0.1134325235
40
0.1665946974
40
0.2176102147
40
0.2667568436
40
0.3143982453
40
0.3609735466
40
0.4069824449
40
0.4529579493
40
0.4994356809
40
0.5469202119
40
0.5958601789
40
0.6466281643
40
0.6995125409
40
0.7547146316
40
0.8123551398
40
0.8724783876
40
0.9350591356
40
1.0000000000
40
1.0000000000
40
1.0000000000
40
1.0000000000
10
-9.2261568799
20
44.0424324920
30
0.0000000000
10
-9.2122629011
20
44.0493238649
30
0.0000000000
10
-9.1845027035
20
44.0617379300
30
0.0000000000
10
-9.1422749851
20
44.0762752944
30
0.0000000000
10
-9.1006270947
20
44.0862253867
30
0.0000000000
10
-9.0598390772
20
44.0915071201
30
0.0000000000
10
-9.0201821241
20
44.0920707318
30
0.0000000000
10
-8.9819275374
20
44.0878956845
30
0.0000000000
10
-8.9453452984
20
44.0789956099
30
0.0000000000
10
-8.9107013832
20
44.0654231647
30
0.0000000000
10
-8.8782504050
20
44.0472731756
30
0.0000000000
10
-8.8482278129
20
44.0246817391
30
0.0000000000
10
-8.8208431747
20
43.9978205947
30
0.0000000000
10
-8.7962782953
20
43.9668900052
30
0.0000000000
10
-8.7746885380
20
43.9321125311
30
0.0000000000
10
-8.7562060915
20
43.8937302884
30
0.0000000000
10
-8.7409420636
20
43.8520033435
30
0.0000000000
10
-8.7289877887
20
43.8072101545
30
0.0000000000
10
-8.7204151505
20
43.7596465934
30
0.0000000000
10
-8.7152757091
20
43.7096335953
30
0.0000000000
10
-8.7141778390
20
43.6754823630
30
0.0000000000
10
-8.7141777203
20
43.6580973339
30
0.0000000000
11
-9.2261568799
21
44.0424324920
31
0.0000000000
11
-9.1836480522
21
44.0613481618
31
0.0000000000
11
-9.1414743124
21
44.0757720262
31
0.0000000000
11
-9.0999261756
21
44.0856031845
31
0.0000000000
11
-9.0592825582
21
44.0907754928
31
0.0000000000
11
-9.0198149912
21
44.0912545534
31
0.0000000000
11
-8.9817865276
21
44.0870371968
31
0.0000000000
11
-8.9454518103
21
44.0781516943
31
0.0000000000
11
-8.9110534516
21
44.0646575043
31
0.0000000000
11
-8.8788213605
21
44.0466449725
31
0.0000000000
11
-8.8489705226
21
44.0242343659
31
0.0000000000
11
-8.8217006587
21
43.9975757891
31
0.0000000000
11
-8.7971935864
21
43.9668471837
31
0.0000000000
11
-8.7756130580
21
43.9322540234
31
0.0000000000
11
-8.7571030935
21
43.8940273401
31
0.0000000000
11
-8.7417874853
21
43.8524231269
31
0.0000000000
11
-8.7297681722
21
43.8077186528
31
0.0000000000
11
-8.7211254476
21
43.7602124520
31
0.0000000000
11
-8.7159171055
21
43.7102234087
31
0.0000000000
11
-8.7141777203
21
43.6580973339
31
0.0000000000
0
SPLINE
5
3BA
100
AcDbEntity
8
0
100
AcDbSpline
62
9
6
CONTINUOUS
70
0
71
3
72
20
73
16
74
14
42
0.0000001000
43
0.0000001000
44
0.0000000001
12
0.3322394383
22
-0.1605434675
32
0.0000000000
13
-0.0051278808
23
-0.3689592853
33
0.0000000000
40
0.0000000000
40
0.0000000000
40
0.0000000000
40
0.0000000000
40
0.0671635453
40
0.1378410624
40
0.2117421459
40
0.2884366226
40
0.3673852815
40
0.4479677359
40
0.5295080614
40
0.6112989377
40
0.6926249654
40
0.7727857772
40
0.8511195352
40
0.9270274481
40
1.0000000000
40
1.0000000000
40
1.0000000000
40
1.0000000000
10
-9.4029066512
20
44.3472807536
30
0.0000000000
10
-9.3954685250
20
44.3436865308
30
0.0000000000
10
-9.3806447865
20
44.3353695177
30
0.0000000000
10
-9.3593878207
20
44.3202498656
30
0.0000000000
10
-9.3388129625
20
44.3023729565
30
0.0000000000
10
-9.3192169498
20
44.2819989037
30
0.0000000000
10
-9.3008782706
20
44.2594204893
30
0.0000000000
10
-9.2840603433
20
44.2349631612
30
0.0000000000
10
-9.2690049871
20
44.2089794447
30
0.0000000000
10
-9.2559291857
20
44.1818441388
30
0.0000000000
10
-9.2450215527
20
44.1539485269
30
0.0000000000
10
-9.2364395562
20
44.1256949934
30
0.0000000000
10
-9.2303073077
20
44.0974891376
30
0.0000000000
10
-9.2267139615
20
44.0697399794
30
0.0000000000
10
-9.2260321483
20
44.0514071255
30
0.0000000000
10
-9.2261568799
20
44.0424324920
30
0.0000000000
11
-9.4029066512
21
44.3472807536
31
0.0000000000
11
-9.3812567228
21
44.3352193263
31
0.0000000000
11
-9.3599673483
21
44.3201557810
31
0.0000000000
11
-9.3393488546
21
44.3023096930
31
0.0000000000
11
-9.3197017895
21
44.2819411979
31
0.0000000000
11
-9.3013125404
21
44.2593471992
31
0.0000000000
11
-9.2844491601
21
44.2348570409
31
0.0000000000
11
-9.2693574595
21
44.2088277064
31
0.0000000000
11
-9.2562574242
21
44.1816386151
31
0.0000000000
11
-9.2453400082
21
44.1536860918
31
0.0000000000
11
-9.2367643503
21
44.1253775892
31
0.0000000000
11
-9.2306554542
21
44.0971257493
31
0.0000000000
11
-9.2271023668
21
44.0693423879
31
0.0000000000
11
-9.2261568799
21
44.0424324920
31
0.0000000000
0
SPLINE
5
3BB
100
AcDbEntity
8
0
100
AcDbSpline
62
7
6
CONTINUOUS
70
0
71
3
72
8
73
4
74
2
42
0.0000001000
43
0.0000001000
44
0.0000000001
12
0.0000000000
22
0.0104031098
32
0.0000000000
13
-0.0003966262
23
0.0103993160
33
0.0000000000
40
0.0000000000
40
0.0000000000
40
0.0000000000
40
0.0000000000
40
1.0000000000
40
1.0000000000
40
1.0000000000
40
1.0000000000
10
-14.7963956781
20
41.2795529837
30
0.0000000000
10
-14.7963956781
20
41.2830206870
30
0.0000000000
10
-14.7964635163
20
41.2864890572
30
0.0000000000
10
-14.7965957250
20
41.2899554959
30
0.0000000000
11
-14.7963956781
21
41.2795529837
31
0.0000000000
11
-14.7965957250
21
41.2899554959
31
0.0000000000
0
SPLINE
5
3BC
100
AcDbEntity
8
0
100
AcDbSpline
62
7
6
CONTINUOUS
70
0
71
3
72
20
73
16
74
14
42
0.0000001000
43
0.0000001000
44
0.0000000001
12
-0.0132720126
22
0.3479847179
32
0.0000000000
13
-0.3040840016
23
0.1698155202
33
0.0000000000
40
0.0000000000
40
0.0000000000
40
0.0000000000
40
0.0000000000
40
0.0470164592
40
0.1272183735
40
0.2100080560
40
0.2949556185
40
0.3810314725
40
0.4678187611
40
0.5541427903
40
0.6396217744
40
0.7231278411
40
0.8043177538
40
0.8823030696
40
0.9568185777
40
1.0000000000
40
1.0000000000
40
1.0000000000
40
1.0000000000
10
-14.7965957250
20
41.2899554959
30
0.0000000000
10
-14.7968037260
20
41.2954091656
30
0.0000000000
10
-14.7977976601
20
41.3101529122
30
0.0000000000
10
-14.8012008862
20
41.3343113352
30
0.0000000000
10
-14.8075744822
20
41.3623992569
30
0.0000000000
10
-14.8163362737
20
41.3905478749
30
0.0000000000
10
-14.8273690046
20
41.4183846455
30
0.0000000000
10
-14.8404995440
20
41.4454727060
30
0.0000000000
10
-14.8555566483
20
41.4714592094
30
0.0000000000
10
-14.8723019527
20
41.4959327298
30
0.0000000000
10
-14.8905181817
20
41.5185745490
30
0.0000000000
10
-14.9099201905
20
41.5390297678
30
0.0000000000
10
-14.9302544056
20
41.5570272628
30
0.0000000000
10
-14.9486368426
20
41.5704160164
30
0.0000000000
10
-14.9603388962
20
41.5774960720
30
0.0000000000
10
-14.9647158228
20
41.5799403639
30
0.0000000000
11
-14.7965957250
21
41.2899554959
31
0.0000000000
11
-14.7976842146
21
41.3062920427
31
0.0000000000
11
-14.8015339039
21
41.3339445808
31
0.0000000000
11
-14.8078791859
21
41.3620574415
31
0.0000000000
11
-14.8166464034
21
41.3902991483
31
0.0000000000
11
-14.8276757254
21
41.4181594409
31
0.0000000000
11
-14.8408522597
21
41.4453462726
31
0.0000000000
11
-14.8559251194
21
41.4713431100
31
0.0000000000
11
-14.8727437769
21
41.4958903316
31
0.0000000000
11
-14.8909889087
21
41.5185210030
31
0.0000000000
11
-14.9104689641
21
41.5389986354
31
0.0000000000
11
-14.9308325683
21
41.5569517890
31
0.0000000000
11
-14.9518391420
21
41.5721699632
31
0.0000000000
11
-14.9647158228
21
41.5799403639
31
0.0000000000
0
SPLINE
5
3BD
100
AcDbEntity
8
0
100
AcDbSpline
62
7
6
CONTINUOUS
70
0
71
3
72
8
73
4
74
2
42
0.0000001000
43
0.0000001000
44
0.0000000001
12
-0.0083295453
22
0.0046516294
32
0.0000000000
13
-0.0085288662
23
0.0042644331
33
0.0000000000
40
0.0000000000
40
0.0000000000
40
0.0000000000
40
0.0000000000
40
1.0000000000
40
1.0000000000
40
1.0000000000
40
1.0000000000
10
-14.9647158228
20
41.5799403639
30
0.0000000000
10
-14.9674923379
20
41.5814909071
30
0.0000000000
10
-14.9703024941
20
41.5829797676
30
0.0000000000
10
-14.9731454494
20
41.5844012453
30
0.0000000000
11
-14.9647158228
21
41.5799403639
31
0.0000000000
11
-14.9731454494
21
41.5844012453
31
0.0000000000
0
SPLINE
5
3BE
100
AcDbEntity
8
0
100
AcDbSpline
62
9
6
CONTINUOUS
70
0
71
3
72
26
73
22
74
20
42
0.0000001000
43
0.0000001000
44
0.0000000001
12
-0.0000074564
22
-1.0921423890
32
0.0000000000
13
-0.9611694906
23
-0.5185828845
33
0.0000000000
40
0.0000000000
40
0.0000000000
40
0.0000000000
40
0.0000000000
40
0.0494031781
40
0.1003368343
40
0.1526319573
40
0.2061057953
40
0.2605583794
40
0.3157757882
40
0.3715311641
40
0.4275909024
40
0.4837166820
40
0.5396700395
40
0.5952136641
40
0.6501172398
40
0.7041589243
40
0.7571300954
40
0.8088377921
40
0.8591112964
40
0.9078039230
40
0.9547972215
40
1.0000000000
40
1.0000000000
40
1.0000000000
40
1.0000000000
10
-8.7141777203
20
4.0630570742
30
0.0000000000
10
-8.7141778431
20
4.0450719725
30
0.0000000000
10
-8.7153931915
20
4.0085356260
30
0.0000000000
10
-8.7206457235
20
3.9531881298
30
0.0000000000
10
-8.7293217762
20
3.8967732493
30
0.0000000000
10
-8.7413632178
20
3.8396725614
30
0.0000000000
10
-8.7566897218
20
3.7822641587
30
0.0000000000
10
-8.7751994553
20
3.7249294090
30
0.0000000000
10
-8.7967694478
20
3.6680490600
30
0.0000000000
10
-8.8212562390
20
3.6120014998
30
0.0000000000
10
-8.8484971413
20
3.5571592112
30
0.0000000000
10
-8.8783110401
20
3.5038870129
30
0.0000000000
10
-8.9104998710
20
3.4525390364
30
0.0000000000
10
-8.9448497010
20
3.4034568206
30
0.0000000000
10
-8.9811325569
20
3.3569665040
30
0.0000000000
10
-9.0191075194
20
3.3133772734
30
0.0000000000
10
-9.0585231134
20
3.2729785557
30
0.0000000000
10
-9.0991183127
20
3.2360387406
30
0.0000000000
10
-9.1406262239
20
3.2028028358
30
0.0000000000
10
-9.1827665257
20
3.1734958235
30
0.0000000000
10
-9.2116743693
20
3.1563657721
30
0.0000000000
10
-9.2261568799
20
3.1485519764
30
0.0000000000
11
-8.7141777203
21
4.0630570742
31
0.0000000000
11
-8.7159171055
21
4.0091298132
31
0.0000000000
11
-8.7211254476
21
3.9537473738
31
0.0000000000
11
-8.7297681722
21
3.8972913697
31
0.0000000000
11
-8.7417874853
21
3.8401405326
31
0.0000000000
11
-8.7571030935
21
3.7826765429
31
0.0000000000
11
-8.7756130580
21
3.7252822301
31
0.0000000000
11
-8.7971935864
21
3.6683417785
31
0.0000000000
11
-8.8217006587
21
3.6122353569
31
0.0000000000
11
-8.8489705226
21
3.5573380093
31
0.0000000000
11
-8.8788213605
21
3.5040159551
31
0.0000000000
11
-8.9110534516
21
3.4526261159
31
0.0000000000
11
-8.9454518103
21
3.4035113828
31
0.0000000000
11
-8.9817865276
21
3.3570001791
31
0.0000000000
11
-9.0198149912
21
3.3134031957
31
0.0000000000
11
-9.0592825582
21
3.2730123943
31
0.0000000000
11
-9.0999261756
21
3.2360970046
31
0.0000000000
11
-9.1414743124
21
3.2029038078
31
0.0000000000
11
-9.1836480522
21
3.1736554862
31
0.0000000000
11
-9.2261568799
21
3.1485519764
31
0.0000000000
0
SPLINE
5
3BF
100
AcDbEntity
8
0
100
AcDbSpline
62
9
6
CONTINUOUS
70
0
71
3
72
14
73
10
74
8
42
0.0000001000
43
0.0000001000
44
0.0000000001
12
-0.1958624713
22
0.1013353223
32
0.0000000000
13
-0.2022018689
23
-0.0886032905
33
0.0000000000
40
0.0000000000
40
0.0000000000
40
0.0000000000
40
0.0000000000
40
0.1697485047
40
0.3311643910
40
0.4847849812
40
0.6315553065
40
0.7728382305
40
0.9103810214
40
1.0000000000
40
1.0000000000
40
1.0000000000
40
1.0000000000
10
-12.1880084084
20
55.1139824216
30
0.0000000000
10
-12.1990908622
20
55.1197162614
30
0.0000000000
10
-12.2212649289
20
55.1298818769
30
0.0000000000
10
-12.2551400075
20
55.1411794371
30
0.0000000000
10
-12.2884811848
20
55.1480230238
30
0.0000000000
10
-12.3209689573
20
55.1503238508
30
0.0000000000
10
-12.3522860161
20
55.1480342797
30
0.0000000000
10
-12.3787855129
20
55.1419196030
30
0.0000000000
10
-12.3944523412
20
55.1360216735
30
0.0000000000
10
-12.4004927162
20
55.1333748280
30
0.0000000000
11
-12.1880084084
21
55.1139824216
31
0.0000000000
11
-12.2220768119
21
55.1294944559
31
0.0000000000
11
-12.2558766523
21
55.1406593394
31
0.0000000000
11
-12.2890825037
21
55.1473695731
31
0.0000000000
11
-12.3213746807
21
55.1495605565
31
0.0000000000
11
-12.3524422914
21
55.1472111996
31
0.0000000000
11
-12.3819862358
21
55.1403441260
31
0.0000000000
11
-12.4004927162
21
55.1333748280
31
0.0000000000
0
SPLINE
5
3C0
100
AcDbEntity
8
0
100
AcDbSpline
62
9
6
CONTINUOUS
70
0
71
3
72
8
73
4
74
2
42
0.0000001000
43
0.0000001000
44
0.0000000001
12
-0.0033397420
22
-0.0014634490
32
0.0000000000
13
-0.0033104444
23
-0.0015284589
33
0.0000000000
40
0.0000000000
40
0.0000000000
40
0.0000000000
40
0.0000000000
40
1.0000000000
40
1.0000000000
40
1.0000000000
40
1.0000000000
10
-12.4004927162
20
55.1333748280
30
0.0000000000
10
-12.4016059636
20
55.1328870116
30
0.0000000000
10
-12.4027144405
20
55.1323883253
30
0.0000000000
10
-12.4038179220
20
55.1318788390
30
0.0000000000
11
-12.4004927162
21
55.1333748280
31
0.0000000000
11
-12.4038179220
21
55.1318788390
31
0.0000000000
0
SPLINE
5
3C1
100
AcDbEntity
8
0
100
AcDbSpline
62
7
6
CONTINUOUS
70
0
71
3
72
16
73
12
74
10
42
0.0000001000
43
0.0000001000
44
0.0000000001
12
0.1276853186
22
0.2884877841
32
0.0000000000
13
0.0000586241
23
0.3155448393
33
0.0000000000
40
0.0000000000
40
0.0000000000
40
0.0000000000
40
0.0000000000
40
0.1205428002
40
0.2419999906
40
0.3639809720
40
0.4861555104
40
0.6082534783
40
0.7300405066
40
0.8513367197
40
0.9720176578
40
1.0000000000
40
1.0000000000
40
1.0000000000
40
1.0000000000
10
-8.7141777203
20
39.9662838855
30
0.0000000000
10
-8.7090472050
20
39.9778755940
30
0.0000000000
10
-8.6992253429
20
40.0013620896
30
0.0000000000
10
-8.6859587503
20
40.0372779359
30
0.0000000000
10
-8.6742279139
20
40.0739063701
30
0.0000000000
10
-8.6641735911
20
40.1111010506
30
0.0000000000
10
-8.6559370987
20
40.1487209907
30
0.0000000000
10
-8.6496657391
20
40.1866265858
30
0.0000000000
10
-8.6455178390
20
40.2246759186
30
0.0000000000
10
-8.6441385071
20
40.2530500639
30
0.0000000000
10
-8.6440131690
20
40.2686866482
30
0.0000000000
10
-8.6440126222
20
40.2716298761
30
0.0000000000
11
-8.7141777203
21
39.9662838855
31
0.0000000000
11
-8.6995108924
21
40.0013708231
31
0.0000000000
11
-8.6862422409
21
40.0373176709
31
0.0000000000
11
-8.6745165059
21
40.0739705168
31
0.0000000000
11
-8.6644740512
21
40.1111831034
31
0.0000000000
11
-8.6562557333
21
40.1488158704
31
0.0000000000
11
-8.6500094096
21
40.1867263140
31
0.0000000000
11
-8.6458934713
21
40.2247710597
31
0.0000000000
11
-8.6440828236
21
40.2628006152
31
0.0000000000
11
-8.6440126222
21
40.2716298761
31
0.0000000000
0
SPLINE
5
3C2
100
AcDbEntity
8
0
100
AcDbSpline
62
9
6
CONTINUOUS
70
0
71
3
72
23
73
19
74
17
42
0.0000001000
43
0.0000001000
44
0.0000000001
12
0.6645504574
22
-0.3211215242
32
0.0000000000
13
-0.0102568662
23
-0.7379980626
33
0.0000000000
40
0.0000000000
40
0.0000000000
40
0.0000000000
40
0.0000000000
40
0.0542820669
40
0.1109283097
40
0.1697882079
40
0.2306642718
40
0.2933025424
40
0.3574058016
40
0.4226419851
40
0.4886535514
40
0.5550659997
40
0.6214962598
40
0.6875608781
40
0.7528842102
40
0.8171067401
40
0.8798936721
40
0.9409439773
40
1.0000000000
40
1.0000000000
40
1.0000000000
40
1.0000000000
10
3.9621825590
20
47.0388869379
30
0.0000000000
10
3.9742069498
20
47.0330765579
30
0.0000000000
10
3.9982029318
20
47.0199789488
30
0.0000000000
10
4.0329903063
20
46.9967698791
30
0.0000000000
10
4.0670355790
20
46.9697893964
30
0.0000000000
10
4.1000086723
20
46.9393007083
30
0.0000000000
10
4.1315985794
20
46.9055944304
30
0.0000000000
10
4.1615045868
20
46.8689927802
30
0.0000000000
10
4.1894419846
20
46.8298453015
30
0.0000000000
10
4.2151442013
20
46.7885261053
30
0.0000000000
10
4.2383657565
20
46.7454301644
30
0.0000000000
10
4.2588846870
20
46.7009695046
30
0.0000000000
10
4.2765047752
20
46.6555691886
30
0.0000000000
10
4.2910574519
20
46.6096629901
30
0.0000000000
10
4.3024033882
20
46.5636896137
30
0.0000000000
10
4.3104337041
20
46.5180864862
30
0.0000000000
10
4.3150708902
20
46.4732921321
30
0.0000000000
10
4.3158840116
20
46.4437181581
30
0.0000000000
10
4.3156821017
20
46.4291904146
30
0.0000000000
11
3.9621825590
21
47.0388869379
31
0.0000000000
11
3.9973878276
21
47.0197634583
31
0.0000000000
11
4.0322070887
21
46.9966204380
31
0.0000000000
11
4.0662928174
21
46.9696866290
31
0.0000000000
11
4.0993172649
21
46.9392209320
31
0.0000000000
11
4.1309619972
21
46.9055170443
31
0.0000000000
11
4.1609224745
21
46.8688993349
31
0.0000000000
11
4.1889102487
21
46.8297203354
31
0.0000000000
11
4.2146558871
21
46.7883572005
31
0.0000000000
11
4.2379115181
21
46.7452081437
31
0.0000000000
11
4.2584532425
21
46.7006885752
31
0.0000000000
11
4.2760832884
21
46.6552271047
31
0.0000000000
11
4.2906319179
21
46.6092614104
31
0.0000000000
11
4.3019590611
21
46.5632340241
31
0.0000000000
11
4.3099556635
21
46.5175880742
31
0.0000000000
11
4.3145447374
21
46.4727630124
31
0.0000000000
11
4.3156821017
21
46.4291904146
31
0.0000000000
0
SPLINE
5
3C3
100
AcDbEntity
8
0
100
AcDbSpline
62
9
6
CONTINUOUS
70
0
71
3
72
16
73
12
74
10
42
0.0000001000
43
0.0000001000
44
0.0000000001
12
0.4135437834
22
0.1926994668
32
0.0000000000
13
0.4083520875
23
-0.2042026763
33
0.0000000000
40
0.0000000000
40
0.0000000000
40
0.0000000000
40
0.0000000000
40
0.1387905005
40
0.2720865684
40
0.4001252947
40
0.5233099530
40
0.6422350025
40
0.7576815931
40
0.8705957048
40
0.9820592504
40
1.0000000000
40
1.0000000000
40
1.0000000000
40
1.0000000000
10
-26.3877429495
20
52.8396989028
30
0.0000000000
10
-26.3686109667
20
52.8486138546
30
0.0000000000
10
-26.3303868511
20
52.8646097275
30
0.0000000000
10
-26.2723308007
20
52.8831088674
30
0.0000000000
10
-26.2150827738
20
52.8955011673
30
0.0000000000
10
-26.1590236704
20
52.9016879789
30
0.0000000000
10
-26.1045266226
20
52.9016108142
30
0.0000000000
10
-26.0519632586
20
52.8952506304
30
0.0000000000
10
-26.0017012667
20
52.8826330946
30
0.0000000000
10
-25.9673271164
20
52.8690572810
30
0.0000000000
10
-25.9496192157
20
52.8604366625
30
0.0000000000
10
-25.9471771681
20
52.8592154794
30
0.0000000000
11
-26.3877429495
21
52.8396989028
31
0.0000000000
11
-26.3292886245
21
52.8640438015
31
0.0000000000
11
-26.2713104925
21
52.8823997249
31
0.0000000000
11
-26.2141924908
21
52.8946452430
31
0.0000000000
11
-26.1583180714
21
52.9006980579
31
0.0000000000
11
-26.1040604480
21
52.9005179288
31
0.0000000000
11
-26.0517812485
21
52.8941061067
31
0.0000000000
11
-26.0018305237
21
52.8815055776
31
0.0000000000
11
-25.9545417707
21
52.8628006577
31
0.0000000000
11
-25.9471771681
21
52.8592154794
31
0.0000000000
0
SPLINE
5
3C4
100
AcDbEntity
8
0
100
AcDbSpline
62
7
6
CONTINUOUS
70
0
71
3
72
8
73
4
74
2
42
0.0000001000
43
0.0000001000
44
0.0000000001
12
-0.0083097987
22
0.0041548994
32
0.0000000000
13
-0.0085043914
23
0.0037564343
33
0.0000000000
40
0.0000000000
40
0.0000000000
40
0.0000000000
40
0.0000000000
40
1.0000000000
40
1.0000000000
40
1.0000000000
40
1.0000000000
10
-32.1558940802
20
50.1757755607
30
0.0000000000
10
-32.1586640131
20
50.1771605272
30
0.0000000000
10
-32.1614673347
20
50.1784826374
30
0.0000000000
10
-32.1643021318
20
50.1797347821
30
0.0000000000
11
-32.1558940802
21
50.1757755607
31
0.0000000000
11
-32.1643021318
21
50.1797347821
31
0.0000000000
0
SPLINE
5
3C5
100
AcDbEntity
8
0
100
AcDbSpline
62
7
6
CONTINUOUS
70
0
71
3
72
12
73
8
74
6
42
0.0000001000
43
0.0000001000
44
0.0000000001
12
-0.0824766476
22
0.0364303682
32
0.0000000000
13
-0.0865434443
23
-0.0255452065
33
0.0000000000
40
0.0000000000
40
0.0000000000
40
0.0000000000
40
0.0000000000
40
0.1539130276
40
0.3957449998
40
0.6233295794
40
0.8398134961
40
1.0000000000
40
1.0000000000
40
1.0000000000
40
1.0000000000
10
-32.1643021318
20
50.1797347821
30
0.0000000000
10
-32.1685335420
20
50.1816038182
30
0.0000000000
10
-32.1795937672
20
50.1860087098
30
0.0000000000
10
-32.1976785067
20
50.1910772829
30
0.0000000000
10
-32.2182122623
20
50.1936038121
30
0.0000000000
10
-32.2364364140
20
50.1927457337
30
0.0000000000
10
-32.2475432684
20
50.1903522224
30
0.0000000000
10
-32.2521642990
20
50.1889882233
30
0.0000000000
11
-32.1643021318
21
50.1797347821
31
0.0000000000
11
-32.1772003877
21
50.1848505860
31
0.0000000000
11
-32.1982069613
21
50.1906389856
31
0.0000000000
11
-32.2185705655
21
50.1930494360
31
0.0000000000
11
-32.2380506209
21
50.1920518591
31
0.0000000000
11
-32.2521642990
21
50.1889882233
31
0.0000000000
0
SPLINE
5
3C6
100
AcDbEntity
8
0
100
AcDbSpline
62
7
6
CONTINUOUS
70
0
71
3
72
8
73
4
74
2
42
0.0000001000
43
0.0000001000
44
0.0000000001
12
-0.0042269745
22
-0.0014595616
32
0.0000000000
13
-0.0041536016
23
-0.0016581636
33
0.0000000000
40
0.0000000000
40
0.0000000000
40
0.0000000000
40
0.0000000000
40
1.0000000000
40
1.0000000000
40
1.0000000000
40
1.0000000000
10
-32.2562957527
20
50.1876663195
30
0.0000000000
10
-32.2577047442
20
50.1871797990
30
0.0000000000
10
-32.2591023134
20
50.1866598671
30
0.0000000000
10
-32.2604868472
20
50.1861071460
30
0.0000000000
11
-32.2562957527
21
50.1876663195
31
0.0000000000
11
-32.2604868472
21
50.1861071460
31
0.0000000000
0
SPLINE
5
3C7
100
AcDbEntity
8
0
100
AcDbSpline
62
7
6
CONTINUOUS
70
0
71
3
72
8
73
4
74
2
42
0.0000001000
43
0.0000001000
44
0.0000000001
12
-0.0046306270
22
-0.0018485974
32
0.0000000000
13
-0.0045267142
23
-0.0020905317
33
0.0000000000
40
0.0000000000
40
0.0000000000
40
0.0000000000
40
0.0000000000
40
1.0000000000
40
1.0000000000
40
1.0000000000
40
1.0000000000
10
-32.2604868472
20
50.1861071460
30
0.0000000000
10
-32.2620303896
20
50.1854909468
30
0.0000000000
10
-32.2635577306
20
50.1848339944
30
0.0000000000
10
-32.2650666353
20
50.1841371505
30
0.0000000000
11
-32.2604868472
21
50.1861071460
31
0.0000000000
11
-32.2650666353
21
50.1841371505
31
0.0000000000
0
SPLINE
5
3C8
100
AcDbEntity
8
0
100
AcDbSpline
62
7
6
CONTINUOUS
70
0
71
3
72
8
73
4
74
2
42
0.0000001000
43
0.0000001000
44
0.0000000001
12
-0.0207108756
22
0.0103554378
32
0.0000000000
13
-0.0218667060
23
0.0076818072
33
0.0000000000
40
0.0000000000
40
0.0000000000
40
0.0000000000
40
0.0000000000
40
1.0000000000
40
1.0000000000
40
1.0000000000
40
1.0000000000
10
-15.9984772061
20
42.0970671237
30
0.0000000000
10
-16.0053808313
20
42.1005189363
30
0.0000000000
10
-16.0124919238
20
42.1035801783
30
0.0000000000
10
-16.0197808258
20
42.1061407807
30
0.0000000000
11
-15.9984772061
21
42.0970671237
31
0.0000000000
11
-16.0197808258
21
42.1061407807
31
0.0000000000
0
SPLINE
5
3C9
100
AcDbEntity
8
0
100
AcDbSpline
62
9
6
CONTINUOUS
70
0
71
3
72
13
73
9
74
7
42
0.0000001000
43
0.0000001000
44
0.0000000001
12
-0.1029838951
22
0.0514919475
32
0.0000000000
13
-0.1040270973
23
-0.0497800649
33
0.0000000000
40
0.0000000000
40
0.0000000000
40
0.0000000000
40
0.0000000000
40
0.2012920126
40
0.3909404391
40
0.5700839692
40
0.7407334938
40
0.9057358130
40
1.0000000000
40
1.0000000000
40
1.0000000000
40
1.0000000000
10
-10.3292822417
20
44.8104685489
30
0.0000000000
10
-10.3361921868
20
44.8139235214
30
0.0000000000
10
-10.3500219820
20
44.8198628466
30
0.0000000000
10
-10.3711732979
20
44.8257365306
30
0.0000000000
10
-10.3918197857
20
44.8282044529
30
0.0000000000
10
-10.4116560918
20
44.8271968086
30
0.0000000000
10
-10.4277964597
20
44.8233152408
30
0.0000000000
10
-10.4370284055
20
44.8195175801
30
0.0000000000
10
-10.4402970821
20
44.8179534210
30
0.0000000000
11
-10.3292822417
21
44.8104685489
31
0.0000000000
11
-10.3506128121
21
44.8195330050
31
0.0000000000
11
-10.3716773236
21
44.8252861173
31
0.0000000000
11
-10.3921686083
21
44.8276439923
31
0.0000000000
11
-10.4117878569
21
44.8265722470
31
0.0000000000
11
-10.4302489767
21
44.8220865098
31
0.0000000000
11
-10.4402970821
21
44.8179534210
31
0.0000000000
0
SPLINE
5
3CA
100
AcDbEntity
8
0
100
AcDbSpline
62
9
6
CONTINUOUS
70
0
71
3
72
20
73
16
74
14
42
0.0000001000
43
0.0000001000
44
0.0000000001
12
0.0052118998
22
0.3683019604
32
0.0000000000
13
-0.3294522702
23
0.1647261351
33
0.0000000000
40
0.0000000000
40
0.0000000000
40
0.0000000000
40
0.0000000000
40
0.0731364203
40
0.1492529220
40
0.2278167493
40
0.3082070175
40
0.3897411223
40
0.4716993802
40
0.5533486450
40
0.6339655630
40
0.7128600905
40
0.7893999260
40
0.8630365871
40
0.9333339477
40
1.0000000000
40
1.0000000000
40
1.0000000000
40
1.0000000000
10
-25.2876758425
20
52.0701067946
30
0.0000000000
10
-25.2875487826
20
52.0790855569
30
0.0000000000
10
-25.2882112934
20
52.0974311868
30
0.0000000000
10
-25.2917322237
20
52.1252128884
30
0.0000000000
10
-25.2977496038
20
52.1534737055
30
0.0000000000
10
-25.3061760361
20
52.1818036883
30
0.0000000000
10
-25.3168896796
20
52.2097958419
30
0.0000000000
10
-25.3297358271
20
52.2370461559
30
0.0000000000
10
-25.3445290964
20
52.2631614774
30
0.0000000000
10
-25.3610561727
20
52.2877649478
30
0.0000000000
10
-25.3790793069
20
52.3105018366
30
0.0000000000
10
-25.3983395160
20
52.3310443825
30
0.0000000000
10
-25.4185630916
20
52.3490974719
30
0.0000000000
10
-25.4394584236
20
52.3643985440
30
0.0000000000
10
-25.4540462650
20
52.3728505605
30
0.0000000000
10
-25.4613673591
20
52.3765111076
30
0.0000000000
11
-25.2876758425
21
52.0701067946
31
0.0000000000
11
-25.2885928664
21
52.0970301658
31
0.0000000000
11
-25.2920743204
21
52.1248498349
31
0.0000000000
11
-25.2980694369
21
52.1531601283
31
0.0000000000
11
-25.3064907937
21
52.1815482182
31
0.0000000000
11
-25.3172155884
21
52.2096001423
31
0.0000000000
11
-25.3300874294
21
52.2369068405
31
0.0000000000
11
-25.3449186163
21
52.2630701195
31
0.0000000000
11
-25.3614928768
21
52.2877084599
31
0.0000000000
11
-25.3795685211
21
52.3104625791
31
0.0000000000
11
-25.3988819655
21
52.3310006709
31
0.0000000000
11
-25.4191515765
21
52.3490232437
31
0.0000000000
11
-25.4400817775
21
52.3642674877
31
0.0000000000
11
-25.4613673591
21
52.3765111076
31
0.0000000000
0
SPLINE
5
3CB
100
AcDbEntity
8
0
100
AcDbSpline
62
9
6
CONTINUOUS
70
0
71
3
72
26
73
22
74
20
42
0.0000001000
43
0.0000001000
44
0.0000000001
12
0.0000000000
22
0.8117470846
32
0.0000000000
13
-0.7322018725
23
-0.3504479237
33
0.0000000000
40
0.0000000000
40
0.0000000000
40
0.0000000000
40
0.0000000000
40
0.0642749692
40
0.1262621820
40
0.1858761359
40
0.2431018766
40
0.2979925920
40
0.3506756962
40
0.4013560103
40
0.4503210194
40
0.4979367762
40
0.5446390605
40
0.5909133171
40
0.6372708954
40
0.6842175849
40
0.7322256325
40
0.7817088944
40
0.8330096034
40
0.8863887402
40
0.9420240745
40
1.0000000000
40
1.0000000000
40
1.0000000000
40
1.0000000000
10
-24.7666012928
20
51.6812239415
30
0.0000000000
10
-24.7666012928
20
51.6986156144
30
0.0000000000
10
-24.7677202604
20
51.7327933571
30
0.0000000000
10
-24.7729537600
20
51.7828595783
30
0.0000000000
10
-24.7816828261
20
51.8305062201
30
0.0000000000
10
-24.7938548750
20
51.8754114784
30
0.0000000000
10
-24.8093965999
20
51.9172782371
30
0.0000000000
10
-24.8282145429
20
51.9558264587
30
0.0000000000
10
-24.8501947107
20
51.9907943553
30
0.0000000000
10
-24.8752011942
20
52.0219382025
30
0.0000000000
10
-24.9030742724
20
52.0490343267
30
0.0000000000
10
-24.9336276368
20
52.0718820831
30
0.0000000000
10
-24.9666477411
20
52.0903098907
30
0.0000000000
10
-25.0018960475
20
52.1041816522
30
0.0000000000
10
-25.0391154920
20
52.1134016024
30
0.0000000000
10
-25.0780375564
20
52.1179148961
30
0.0000000000
10
-25.1183889881
20
52.1177047643
30
0.0000000000
10
-25.1598942830
20
52.1127882655
30
0.0000000000
10
-25.2022773154
20
52.1032117746
30
0.0000000000
10
-25.2452511651
20
52.0890536622
30
0.0000000000
10
-25.2735258154
20
52.0768793088
30
0.0000000000
10
-25.2876758425
20
52.0701067946
30
0.0000000000
11
-24.7666012928
21
51.6812239415
31
0.0000000000
11
-24.7683718172
21
51.7333689109
31
0.0000000000
11
-24.7736733141
21
51.7834067880
31
0.0000000000
11
-24.7824705629
21
51.8309918819
31
0.0000000000
11
-24.7947046827
21
51.8758047322
31
0.0000000000
11
-24.8102938827
21
51.9175460403
31
0.0000000000
11
-24.8291343292
21
51.9559376184
31
0.0000000000
11
-24.8510999284
21
51.9907223695
31
0.0000000000
11
-24.8760439997
21
52.0216680233
31
0.0000000000
11
-24.9037997438
21
52.0485676895
31
0.0000000000
11
-24.9341819965
21
52.0712419132
31
0.0000000000
11
-24.9669874266
21
52.0895389673
31
0.0000000000
11
-25.0019971885
21
52.1033368228
31
0.0000000000
11
-25.0389772594
21
52.1125432290
31
0.0000000000
11
-25.0776807139
21
52.1170967023
31
0.0000000000
11
-25.1178483974
21
52.1169668226
31
0.0000000000
11
-25.1592126088
21
52.1121545255
31
0.0000000000
11
-25.2014970947
21
52.1026918495
31
0.0000000000
11
-25.2444180318
21
52.0886425370
31
0.0000000000
11
-25.2876758425
21
52.0701067946
31
0.0000000000
0
SPLINE
5
3CC
100
AcDbEntity
8
0
100
AcDbSpline
62
9
6
CONTINUOUS
70
0
71
3
72
14
73
10
74
8
42
0.0000001000
43
0.0000001000
44
0.0000000001
12
0.1078342580
22
0.0539171291
32
0.0000000000
13
0.0000000002
23
0.1208667642
33
0.0000000000
40
0.0000000000
40
0.0000000000
40
0.0000000000
40
0.0000000000
40
0.1906685815
40
0.3663125693
40
0.5270349420
40
0.6739662646
40
0.8094977668
40
0.9373990610
40
1.0000000000
40
1.0000000000
40
1.0000000000
40
1.0000000000
10
-24.7666012928
20
51.6812239415
30
0.0000000000
10
-24.7597477578
20
51.6846507090
30
0.0000000000
10
-24.7468717116
20
51.6918492370
30
0.0000000000
10
-24.7296129069
20
51.7042132043
30
0.0000000000
10
-24.7154114680
20
51.7175629842
30
0.0000000000
10
-24.7044831680
20
51.7317406410
30
0.0000000000
10
-24.6970257026
20
51.7465815002
30
0.0000000000
10
-24.6938406226
20
51.7594150353
30
0.0000000000
10
-24.6933803225
20
51.7670901648
30
0.0000000000
10
-24.6933803225
20
51.7696122891
30
0.0000000000
11
-24.7666012928
21
51.6812239415
31
0.0000000000
11
-24.7465821199
21
51.6925224288
31
0.0000000000
11
-24.7294326731
21
51.7049450599
31
0.0000000000
11
-24.7154030298
21
51.7183106849
31
0.0000000000
11
-24.7046977742
21
51.7324244030
31
0.0000000000
11
-24.6974730132
21
51.7470804045
31
0.0000000000
11
-24.6938341002
21
51.7620649718
31
0.0000000000
11
-24.6933803225
21
51.7696122891
31
0.0000000000
0
SPLINE
5
3CD
100
AcDbEntity
8
0
100
AcDbSpline
62
3
6
CONTINUOUS
70
0
71
3
72
10
73
6
74
4
42
0.0000001000
43
0.0000001000
44
0.0000000001
12
0.0616125570
22
0.0308062785
32
0.0000000000
13
0.0685289761
23
0.0069938116
33
0.0000000000
40
0.0000000000
40
0.0000000000
40
0.0000000000
40
0.0000000000
40
0.3511381091
40
0.6840818606
40
1.0000000000
40
1.0000000000
40
1.0000000000
40
1.0000000000
10
-19.8068390825
20
44.0442167575
30
0.0000000000
10
-19.7996275769
20
44.0478225102
30
0.0000000000
10
-19.7852125811
20
44.0541535968
30
0.0000000000
10
-19.7632309643
20
44.0609585934
30
0.0000000000
10
-19.7485031944
20
44.0635405786
30
0.0000000000
10
-19.7412866788
20
44.0642770692
30
0.0000000000
11
-19.8068390825
21
44.0442167575
31
0.0000000000
11
-19.7846652469
21
44.0538804219
31
0.0000000000
11
-19.7627343526
21
44.0605917026
31
0.0000000000
11
-19.7412866788
21
44.0642770692
31
0.0000000000
0
SPLINE
5
3CE
100
AcDbEntity
8
0
100
AcDbSpline
62
3
6
CONTINUOUS
70
0
71
3
72
12
73
8
74
6
42
0.0000001000
43
0.0000001000
44
0.0000000001
12
0.0000000000
22
0.4409628938
32
0.0000000000
13
0.3944092024
23
0.1972046012
33
0.0000000000
40
0.0000000000
40
0.0000000000
40
0.0000000000
40
0.0000000000
40
0.1952646443
40
0.4051116665
40
0.6172925625
40
0.8190521716
40
1.0000000000
40
1.0000000000
40
1.0000000000
40
1.0000000000
10
-20.3825392495
20
43.4965590528
30
0.0000000000
10
-20.3825392495
20
43.5252605404
30
0.0000000000
10
-20.3746148307
20
43.5849053953
30
0.0000000000
10
-20.3445473524
20
43.6710467911
30
0.0000000000
10
-20.2984085219
20
43.7509555953
30
0.0000000000
10
-20.2405011125
20
43.8172032834
30
0.0000000000
10
-20.1941963780
20
43.8505381097
30
0.0000000000
10
-20.1704072151
20
43.8624326911
30
0.0000000000
11
-20.3825392495
21
43.4965590528
31
0.0000000000
11
-20.3721567687
21
43.5820352634
31
0.0000000000
11
-20.3420256360
21
43.6695269477
31
0.0000000000
11
-20.2950952964
21
43.7504698101
31
0.0000000000
11
-20.2359596188
21
43.8169405992
31
0.0000000000
11
-20.1704072151
21
43.8624326911
31
0.0000000000
0
SPLINE
5
3CF
100
AcDbEntity
8
0
100
AcDbSpline
62
3
6
CONTINUOUS
70
0
71
3
72
15
73
11
74
9
42
0.0000001000
43
0.0000001000
44
0.0000000001
12
-0.2545132660
22
0.1272566330
32
0.0000000000
13
-0.2830840723
23
-0.0288905041
33
0.0000000000
40
0.0000000000
40
0.0000000000
40
0.0000000000
40
0.0000000000
40
0.1162145312
40
0.2441045088
40
0.3793057719
40
0.5170866920
40
0.6525903432
40
0.7810703032
40
0.8981319954
40
1.0000000000
40
1.0000000000
40
1.0000000000
40
1.0000000000
10
-20.5841497428
20
45.9365607324
30
0.0000000000
10
-20.5940091228
20
45.9414904224
30
0.0000000000
10
-20.6152055006
20
45.9508794121
30
0.0000000000
10
-20.6490493163
20
45.9631487883
30
0.0000000000
10
-20.6855303941
20
45.9739451500
30
0.0000000000
10
-20.7232588115
20
45.9828509193
30
0.0000000000
10
-20.7607981933
20
45.9895265859
30
0.0000000000
10
-20.7967222070
20
45.9937254728
30
0.0000000000
10
-20.8296624156
20
45.9953004296
30
0.0000000000
10
-20.8504583982
20
45.9945258788
30
0.0000000000
10
-20.8600708014
20
45.9935448728
30
0.0000000000
11
-20.5841497428
21
45.9365607324
31
0.0000000000
11
-20.6143240548
21
45.9500919498
31
0.0000000000
11
-20.6485075330
21
45.9625756669
31
0.0000000000
11
-20.6853865256
21
45.9735321416
31
0.0000000000
11
-20.7235437936
21
45.9825403226
31
0.0000000000
11
-20.7615129744
21
45.9892540305
31
0.0000000000
11
-20.7978349339
21
45.9934152615
31
0.0000000000
11
-20.8311138395
21
45.9948641016
31
0.0000000000
11
-20.8600708014
21
45.9935448728
31
0.0000000000
0
SPLINE
5
3D0
100
AcDbEntity
8
0
100
AcDbSpline
62
3
6
CONTINUOUS
70
0
71
3
72
15
73
11
74
9
42
0.0000001000
43
0.0000001000
44
0.0000000001
12
-0.2545132660
22
0.1272566330
32
0.0000000000
13
-0.2830840723
23
-0.0288905041
33
0.0000000000
40
0.0000000000
40
0.0000000000
40
0.0000000000
40
0.0000000000
40
0.1162145312
40
0.2441045088
40
0.3793057719
40
0.5170866920
40
0.6525903432
40
0.7810703032
40
0.8981319954
40
1.0000000000
40
1.0000000000
40
1.0000000000
40
1.0000000000
10
-24.6146583956
20
47.9518150588
30
0.0000000000
10
-24.6245177755
20
47.9567447487
30
0.0000000000
10
-24.6457141533
20
47.9661337384
30
0.0000000000
10
-24.6795579690
20
47.9784031146
30
0.0000000000
10
-24.7160390468
20
47.9891994763
30
0.0000000000
10
-24.7537674642
20
47.9981052457
30
0.0000000000
10
-24.7913068460
20
48.0047809122
30
0.0000000000
10
-24.8272308597
20
48.0089797991
30
0.0000000000
10
-24.8601710683
20
48.0105547560
30
0.0000000000
10
-24.8809670510
20
48.0097802052
30
0.0000000000
10
-24.8905794542
20
48.0087991992
30
0.0000000000
11
-24.6146583956
21
47.9518150588
31
0.0000000000
11
-24.6448327076
21
47.9653462762
31
0.0000000000
11
-24.6790161858
21
47.9778299933
31
0.0000000000
11
-24.7158951784
21
47.9887864680
31
0.0000000000
11
-24.7540524463
21
47.9977946489
31
0.0000000000
11
-24.7920216272
21
48.0045083569
31
0.0000000000
11
-24.8283435867
21
48.0086695879
31
0.0000000000
11
-24.8616224922
21
48.0101184280
31
0.0000000000
11
-24.8905794542
21
48.0087991992
31
0.0000000000
0
ENDSEC
0
SECTION
2
OBJECTS
0
DICTIONARY
5
C
100
AcDbDictionary
280
0
281
1
3
ACAD_GROUP
350
D
3
ACAD_MLINESTYLE
350
17
3
ACAD_LAYOUT
350
1A
3
ACAD_PLOTSETTINGS
350
19
3
ACAD_PLOTSTYLENAME
350
E
0
DICTIONARY
5
D
102
{ACAD_REACTORS
330
C
102
}
100
AcDbDictionary
280
0
281
1
0
ACDBDICTIONARYWDFLT
5
E
102
{ACAD_REACTORS
330
C
102
}
100
AcDbDictionary
281
1
3
Normal
350
F
100
AcDbDictionaryWithDefault
340
F
0
DICTIONARY
5
17
102
{ACAD_REACTORS
330
C
102
}
100
AcDbDictionary
280
0
281
1
3
Standard
350
18
0
DICTIONARY
5
19
102
{ACAD_REACTORS
330
C
102
}
100
AcDbDictionary
281
1
0
DICTIONARY
5
1A
102
{ACAD_REACTORS
330
C
102
}
100
AcDbDictionary
281
1
3
Layout1
350
1E
3
Model
350
22
0
ACDBPLACEHOLDER
5
F
102
{ACAD_REACTORS
330
E
102
}
0
MLINESTYLE
5
18
102
{ACAD_REACTORS
330
17
102
}
100
AcDbMlineStyle
2
STANDARD
70
0
3

62
256
51
90.0
52
90.0
71
2
49
0.5
62
256
6
BYLAYER
49
-0.5
62
256
6
BYLAYER
0
LAYOUT
5
1E
102
{ACAD_REACTORS
330
1A
102
}
100
AcDbPlotSettings
1

2

4

6

40
0.0
41
0.0
42
0.0
43
0.0
44
0.0
45
0.0
46
0.0
47
0.0
48
0.0
49
0.0
140
0.0
141
0.0
142
1.0
143
1.0
70
0
72
0
73
0
74
0
7

75
0
147
1.0
148
0.0
149
0.0
100
AcDbLayout
1
Layout1
70
0
71
0
10
0.0
20
0.0
11
0.0
21
0.0
12
0.0
22
0.0
32
0.0
14
0.0
24
0.0
34
0.0
15
0.0
25
0.0
35
0.0
146
0.0
13
0.0
23
0.0
33
0.0
16
0.0
26
0.0
36
0.0
17
0.0
27
0.0
37
0.0
76
0
330
1B
331
0
345
0
346
0
0
LAYOUT
5
22
102
{ACAD_REACTORS
330
1A
102
}
100
AcDbPlotSettings
1

2

4

6

40
0.0
41
0.0
42
0.0
43
0.0
44
0.0
45
0.0
46
0.0
47
0.0
48
0.0
49
0.0
140
0.0
141
0.0
142
1.0
143
1.0
70
0
72
0
73
0
74
0
7

75
0
147
1.0
148
0.0
149
0.0
100
AcDbLayout
1
Model
70
0
71
0
10
0.0
20
0.0
11
0.0
21
0.0
12
0.0
22
0.0
32
0.0
14
0.0
24
0.0
34
0.0
15
0.0
25
0.0
35
0.0
146
0.0
13
0.0
23
0.0
33
0.0
16
0.0
26
0.0
36
0.0
17
0.0
27
0.0
37
0.0
76
0
330
1F
331
0
345
0
346
0
0
ENDSEC
0
EOF
