  0
SECTION
  2
HEADER
  9
$ACADVER
  1
AC1024
  9
$DWGCODEPAGE
  3
ANSI_1252
  9
$EXTMAX
 10
297.0
 20
210.0
 30
0.0
  9
$EXTMIN
 10
0.0
 20
0.0
 30
0.0
  9
$LIMMIN
 10
0.0
 20
0.0
  9
$LIMMAX
 10
297.0
 20
210.0
  9
$VIEWCTR
 10
148.5
 20
105.0
  9
$VIEWSIZE
 40
210.0
  9
$CLAYER
  8
0
  9
$LTSCALE
 40
16.335
  9
$CELTYPE
  6
BYLAYER
  9
$DIMSCALE
 40
1.0
  9
$DIMASZ
 40
3.0
  9
$DIMEXO
 40
0.5
  9
$DIMDLI
 40
11.286
  9
$DIMEXE
 40
1.5
  9
$DIMCEN
 40
2.673
  9
$DIMLFAC
 40
1.0
  9
$DIMBLK
  1
_FILLED
  9
$DIMALT
 70
0
  9
$DIMALTF
 40
0.0393700787
  9
$DIMTXT
 40
3.0
  9
$DIMTOL
 70
1
  9
$DIMLIM
 70
0
  9
$DIMTFAC
 40
1.0
  9
$DIMTP
 40
0.01
  9
$DIMTM
 40
0.01
  9
$DIMGAP
 40
0.625
  9
$DIMDSEP
 70
44
  9
$AUNITS
 70
0
  9
$PDMODE
 70
3
  9
$PDSIZE
 40
3.0
  9
$HANDSEED
  5
4BF
  9
$TILEMODE
 70
1
  9
$MEASUREMENT
 70
1
  9
$INSUNITS
 70
4
  0
ENDSEC
  0
SECTION
  2
CLASSES
  0
CLASS
  1
ACDBDICTIONARYWDFLT
  2
AcDbDictionaryWithDefault
  3
AutoCAD 2000
 90
0
 91
1
280
0
281
0
  0
CLASS
  1
ACDBPLACEHOLDER
  2
AcDbPlaceHolder
  3
AutoCAD 2000
 90
0
 91
1
280
0
281
0
  0
CLASS
  1
LAYOUT
  2
AcDbLayout
  3
AutoCAD 2000
 90
0
 91
0
280
0
281
0
  0
ENDSEC
  0
SECTION
  2
TABLES
  0
TABLE
  2
VPORT
  5
8
100
AcDbSymbolTable
 70
2
  0
VPORT
  5
1F4
100
AcDbSymbolTableRecord
100
AcDbViewportTableRecord
  2
*ACTIVE
 70
0
 10
0.0
 20
0.0
 11
1.0
 21
1.0
 12
148.5
 22
105.0
 13
0.0
 23
0.0
 14
1.0
 24
1.0
 15
0.0
 25
0.0
 16
0.0
 26
0.0
 36
1.0
 17
0.0
 27
0.0
 37
0.0
 40
210.0
 41
1.4142857143
 42
50.0
 43
0.0
 44
0.0
 50
0.0
 51
0.0
 71
0
 72
100
 73
1
 74
1
 75
0
 76
0
 77
0
 78
0
  0
ENDTAB
  0
TABLE
  2
LTYPE
  5
5
100
AcDbSymbolTable
 70
6
  0
LTYPE
  5
14
100
AcDbSymbolTableRecord
100
AcDbLinetypeTableRecord
  2
BYBLOCK
 70
0
  3

 72
65
 73
0
 40
0.0
  0
LTYPE
  5
15
100
AcDbSymbolTableRecord
100
AcDbLinetypeTableRecord
  2
BYLAYER
 70
0
  3

 72
65
 73
0
 40
0.0
  0
LTYPE
  5
16
100
AcDbSymbolTableRecord
100
AcDbLinetypeTableRecord
  2
CONTINUOUS
 70
64
  3
Solid line
 72
65
 73
0
 40
0.0
  0
LTYPE
  5
1F5
100
AcDbSymbolTableRecord
100
AcDbLinetypeTableRecord
  2
CENTER
 70
64
  3
____ _ ____ _ ____ _ ____ _ ____ _ ____ _ ____
 72
65
 73
4
 40
0.6
 49
0.375
 74
0
 49
-0.075
 74
0
 49
0.075
 74
0
 49
-0.075
 74
0
  0
LTYPE
  5
1F6
100
AcDbSymbolTableRecord
100
AcDbLinetypeTableRecord
  2
HIDDEN
 70
64
  3
- - - - - - - - - - - - - - - - - - - -
 72
65
 73
2
 40
0.2
 49
0.1
 74
0
 49
-0.1
 74
0
  0
LTYPE
  5
1F7
100
AcDbSymbolTableRecord
100
AcDbLinetypeTableRecord
  2
PHANTOM
 70
64
  3
_____ _ _ _____ _ _ _____ _ _ _____
 72
65
 73
6
 40
0.8
 49
0.45
 74
0
 49
-0.05
 74
0
 49
0.1
 74
0
 49
-0.05
 74
0
 49
0.1
 74
0
 49
-0.05
 74
0
  0
LTYPE
  5
1F8
100
AcDbSymbolTableRecord
100
AcDbLinetypeTableRecord
  2
DOT
 70
64
  3
. . . . . . . . . . . . . . . . . . . .
 72
65
 73
2
 40
0.2
 49
0.1
 74
0
 49
-0.1
 74
0
  0
LTYPE
  5
1F9
100
AcDbSymbolTableRecord
100
AcDbLinetypeTableRecord
  2
DASHED
 70
64
  3
- - - - - - - - - - - - - - - - - - - -
 72
65
 73
2
 40
0.2
 49
0.1
 74
0
 49
-0.1
 74
0
  0
ENDTAB
  0
TABLE
  2
LAYER
  5
2
100
AcDbSymbolTable
 70
36
  0
LAYER
  5
10
100
AcDbSymbolTableRecord
100
AcDbLayerTableRecord
  2
0
 70
0
 62
7
  6
CONTINUOUS
370
-3
390
F
  0
LAYER
  5
1FA
100
AcDbSymbolTableRecord
100
AcDbLayerTableRecord
  2
DEFAULT_1
 70
0
 62
7
  6
CENTER
370
-3
390
F
  0
LAYER
  5
1FB
100
AcDbSymbolTableRecord
100
AcDbLayerTableRecord
  2
DEFAULT_2
 70
0
 62
7
  6
HIDDEN
370
-3
390
F
  0
LAYER
  5
1FC
100
AcDbSymbolTableRecord
100
AcDbLayerTableRecord
  2
DEFAULT_3
 70
0
 62
7
  6
PHANTOM
370
-3
390
F
  0
LAYER
  5
1FD
100
AcDbSymbolTableRecord
100
AcDbLayerTableRecord
  2
ASSI
 70
0
 62
7
  6
CONTINUOUS
370
-3
390
F
  0
LAYER
  5
1FE
100
AcDbSymbolTableRecord
100
AcDbLayerTableRecord
  2
COORDINATE
 70
0
 62
7
  6
CONTINUOUS
370
-3
390
F
  0
LAYER
  5
1FF
100
AcDbSymbolTableRecord
100
AcDbLayerTableRecord
  2
COORD_ORIGINE
 70
0
 62
7
  6
CONTINUOUS
370
-3
390
F
  0
LAYER
  5
200
100
AcDbSymbolTableRecord
100
AcDbLayerTableRecord
  2
COSMETICHE
 70
0
 62
7
  6
CONTINUOUS
370
-3
390
F
  0
LAYER
  5
201
100
AcDbSymbolTableRecord
100
AcDbLayerTableRecord
  2
CURVE
 70
0
 62
7
  6
CONTINUOUS
370
-3
390
F
  0
LAYER
  5
202
100
AcDbSymbolTableRecord
100
AcDbLayerTableRecord
  2
DRAFT
 70
0
 62
7
  6
CONTINUOUS
370
-3
390
F
  0
LAYER
  5
203
100
AcDbSymbolTableRecord
100
AcDbLayerTableRecord
  2
IGS
 70
0
 62
7
  6
CONTINUOUS
370
-3
390
F
  0
LAYER
  5
204
100
AcDbSymbolTableRecord
100
AcDbLayerTableRecord
  2
NOTE
 70
0
 62
7
  6
CONTINUOUS
370
-3
390
F
  0
LAYER
  5
205
100
AcDbSymbolTableRecord
100
AcDbLayerTableRecord
  2
PIANI
 70
0
 62
7
  6
CONTINUOUS
370
-3
390
F
  0
LAYER
  5
206
100
AcDbSymbolTableRecord
100
AcDbLayerTableRecord
  2
PIANI_ORIGINE
 70
0
 62
7
  6
CONTINUOUS
370
-3
390
F
  0
LAYER
  5
207
100
AcDbSymbolTableRecord
100
AcDbLayerTableRecord
  2
PUNTI
 70
0
 62
7
  6
CONTINUOUS
370
-3
390
F
  0
LAYER
  5
208
100
AcDbSymbolTableRecord
100
AcDbLayerTableRecord
  2
RACCORDO
 70
0
 62
7
  6
CONTINUOUS
370
-3
390
F
  0
LAYER
  5
209
100
AcDbSymbolTableRecord
100
AcDbLayerTableRecord
  2
SMUSSO
 70
0
 62
7
  6
CONTINUOUS
370
-3
390
F
  0
LAYER
  5
20A
100
AcDbSymbolTableRecord
100
AcDbLayerTableRecord
  2
SNAPLINE
 70
0
 62
7
  6
CONTINUOUS
370
-3
390
F
  0
LAYER
  5
20B
100
AcDbSymbolTableRecord
100
AcDbLayerTableRecord
  2
SUPERFICI
 70
0
 62
7
  6
CONTINUOUS
370
-3
390
F
  0
LAYER
  5
20C
100
AcDbSymbolTableRecord
100
AcDbLayerTableRecord
  2
TESTO
 70
0
 62
7
  6
CONTINUOUS
370
-3
390
F
  0
LAYER
  5
20D
100
AcDbSymbolTableRecord
100
AcDbLayerTableRecord
  2
TRASH
 70
0
 62
7
  6
CONTINUOUS
370
-3
390
F
  0
LAYER
  5
20E
100
AcDbSymbolTableRecord
100
AcDbLayerTableRecord
  2
XSEC_DATUMS
 70
0
 62
7
  6
CONTINUOUS
370
-3
390
F
  0
ENDTAB
  0
TABLE
  2
STYLE
  5
3
100
AcDbSymbolTable
 70
1
  0
STYLE
  5
11
100
AcDbSymbolTableRecord
100
AcDbTextStyleTableRecord
  2
STANDARD
 70
0
 40
0.0
 41
0.8
 50
0.0
 71
0
 42
0.2
  3
txt
  4

  0
STYLE
  5
20F
100
AcDbSymbolTableRecord
100
AcDbTextStyleTableRecord
  2
TEXTSTYLE_1
 70
0
 40
0.0
 41
0.8
 50
0.0
 71
0
 42
0.2
  3
gdt
  4

  0
ENDTAB
  0
TABLE
  2
VIEW
  5
6
100
AcDbSymbolTable
 70
0
  0
ENDTAB
  0
TABLE
  2
UCS
  5
7
100
AcDbSymbolTable
 70
0
  0
ENDTAB
  0
TABLE
  2
APPID
  5
9
100
AcDbSymbolTable
 70
1
  0
APPID
  5
210
100
AcDbSymbolTableRecord
100
AcDbRegAppTableRecord
  2
ACAD
 70
0
  0
ENDTAB
  0
TABLE
  2
BLOCK_RECORD
  5
1
100
AcDbSymbolTable
 70
0
  0
BLOCK_RECORD
  5
211
100
AcDbSymbolTableRecord
100
AcDbBlockTableRecord
  2
*Model_Space
  0
BLOCK_RECORD
  5
212
100
AcDbSymbolTableRecord
100
AcDbBlockTableRecord
  2
*Paper_Space
  0
BLOCK_RECORD
  5
213
100
AcDbSymbolTableRecord
100
AcDbBlockTableRecord
  2
_FILLED
  0
ENDTAB
  0
TABLE
  2
DIMSTYLE
  5
A
100
AcDbSymbolTable
 70
1
100
AcDbDimStyleTable
 71
0
  0
DIMSTYLE
105
214
100
AcDbSymbolTableRecord
100
AcDbDimStyleTableRecord
  2
STANDARD
 70
0
  3

  4

 40
1.0
 41
3.0
 42
0.5
 43
0.38
 44
1.5
 45
0.0
 46
0.0
 47
0.01
 48
0.01
140
3.0
141
0.09
142
0.0
143
25.4
144
1.0
145
0.0
146
1.0
147
0.625
 71
1
 72
0
 73
0
 74
0
 75
0
 76
0
 77
1
 78
8
 79
2
170
0
171
1
172
0
173
0
174
0
175
0
176
0
177
0
178
0
270
2
179
2
271
2
272
2
273
2
274
2
275
0
280
0
281
0
282
0
283
1
284
8
285
0
286
0
287
3
288
0
340
11
278
44
341
213
342
213
343
213
344
213
  0
ENDTAB
  0
ENDSEC
  0
SECTION
  2
BLOCKS
  0
BLOCK
  5
20
100
AcDbEntity
  8
0
100
AcDbBlockBegin
  2
*Model_Space
 70
0
 10
0.0
 20
0.0
 30
0.0
  3
*Model_Space
  1

  0
ENDBLK
  5
21
100
AcDbEntity
  8
0
100
AcDbBlockEnd
  0
BLOCK
  5
1C
100
AcDbEntity
  8
0
100
AcDbBlockBegin
  2
*Paper_Space
 70
0
 10
0.0
 20
0.0
 30
0.0
  3
*Paper_Space
  1

  0
ENDBLK
  5
1D
100
AcDbEntity
  8
0
100
AcDbBlockEnd
  0
BLOCK
  5
215
100
AcDbEntity
  8
0
100
AcDbBlockBegin
  2
_FILLED
 70
64
 10
0.0
 20
0.0
  3
_FILLED
  1

  0
SOLID
  5
216
100
AcDbEntity
  8
0
  6
BYBLOCK
 62
0
100
AcDbTrace
 10
0.0
 20
0.0
 11
-1.0
 21
0.3166666667
 12
-1.0
 22
-0.3166666667
 13
-1.0
 23
-0.3166666667
  0
ENDBLK
  5
217
100
AcDbEntity
  8
0
  6
BYBLOCK
 62
0
100
AcDbBlockEnd
  0
ENDSEC
  0
SECTION
  2
ENTITIES
  0
LWPOLYLINE
  5
218
100
AcDbEntity
  8
RACCORDO
100
AcDbPolyline
 62
7
  6
CONTINUOUS
 90
11
 70
0
 10
-39.8851538095
 20
46.2853095666
 10
-40.0250801354
 20
46.1700590139
 10
-40.1450543145
 20
46.0478928023
 10
-40.2547447591
 20
45.9111910495
 10
-40.3527925881
 20
45.760961981
 10
-40.4384902357
 20
45.5977123389
 10
-40.5114094631
 20
45.4217231248
 10
-40.5712606049
 20
45.2330676724
 10
-40.6178379172
 20
45.0312969526
 10
-40.6508721387
 20
44.8161050152
 10
-40.6615612166
 20
44.7111996791
  0
LWPOLYLINE
  5
219
100
AcDbEntity
  8
RACCORDO
100
AcDbPolyline
 62
7
  6
CONTINUOUS
 90
37
 70
0
 10
-34.9280852941
 20
50.0801845147
 10
-34.930146612
 20
50.0786396746
 10
-34.9448149672
 20
50.06611425
 10
-34.9569541006
 20
50.0532510924
 10
-34.9671001887
 20
50.040095057
 10
-34.9752653697
 20
50.0272204158
 10
-34.9816865199
 20
50.0149610559
 10
-34.9866835938
 20
50.0034254067
 10
-34.9904686751
 20
49.992862818
 10
-34.9932088085
 20
49.9836572048
 10
-34.995203122
 20
49.9756525078
 10
-34.9967476424
 20
49.9682609046
 10
-34.9979376176
 20
49.9614413317
 10
-34.9988299097
 20
49.955298699
 10
-34.9995351193
 20
49.9494245856
 10
-35.0000891742
 20
49.9437440472
 10
-35.0005076664
 20
49.9383455536
 10
-35.0008236575
 20
49.9330475836
 10
-35.0010505875
 20
49.9278193372
 10
-35.0011976729
 20
49.9226926479
 10
-35.0012759887
 20
49.9175745503
 10
-35.0012913851
 20
49.9124499251
 10
-35.001249004
 20
49.9073316146
 10
-35.001152607
 20
49.9021675844
 10
-35.001005229
 20
49.8969549833
 10
-35.0008097522
 20
49.8916941809
 10
-35.0005664732
 20
49.8863366969
 10
-35.000276237
 20
49.880872382
 10
-34.9999404707
 20
49.8753052723
 10
-34.9995583657
 20
49.8696064564
 10
-34.9991300743
 20
49.8637694747
 10
-34.9986560773
 20
49.8577936209
 10
-34.9981350564
 20
49.8516581515
 10
-34.9975666127
 20
49.8453569571
 10
-34.9969507109
 20
49.8388885727
 10
-34.9962860526
 20
49.832239154
 10
-34.9948083735
 20
49.8183794655
  0
LINE
  5
21A
100
AcDbEntity
  8
DRAFT
100
AcDbLine
 62
7
  6
CONTINUOUS
 10
-28.8792816908
 20
54.5428619659
 11
-34.9280816552
 21
50.0801872087
  0
LINE
  5
21B
100
AcDbEntity
  8
0
100
AcDbLine
 62
7
  6
CONTINUOUS
 10
-35.1791656062
 20
49.7572942591
 11
-39.8873966074
 21
46.2836625034
  0
LINE
  5
21C
100
AcDbEntity
  8
RACCORDO
100
AcDbLine
 62
7
  6
CONTINUOUS
 10
-39.8850759468
 20
46.285368896
 11
-39.8873849131
 21
46.2836711312
  0
LINE
  5
21D
100
AcDbEntity
  8
0
100
AcDbLine
 62
7
  6
CONTINUOUS
 10
-34.4272866894
 20
48.8178391743
 11
-34.731071243
 21
48.5976777584
  0
LINE
  5
21E
100
AcDbEntity
  8
DRAFT
100
AcDbLine
 62
250
  6
CONTINUOUS
 10
-26.5535410951
 20
54.1171053275
 11
-33.7660302632
 21
48.8912108608
  0
LINE
  5
21F
100
AcDbEntity
  8
0
100
AcDbLine
 62
250
  6
CONTINUOUS
 10
-37.8929262301
 20
45.8153286563
 11
-34.39492463
 21
48.3498471533
  0
LINE
  5
220
100
AcDbEntity
  8
0
100
AcDbLine
 62
7
  6
CONTINUOUS
 10
-33.2528183045
 20
48.3725918208
 11
-33.5872741702
 21
48.1300455102
  0
LINE
  5
221
100
AcDbEntity
  8
RACCORDO
100
AcDbLine
 62
7
  6
CONTINUOUS
 10
26.4103918663
 20
-50.2914472156
 11
26.5019600792
 21
-50.2728387345
  0
LWPOLYLINE
  5
222
100
AcDbEntity
  8
RACCORDO
100
AcDbPolyline
 62
250
  6
CONTINUOUS
 90
13
 70
0
 10
-38.6493182992
 20
44.8682931375
 10
-38.6238059113
 20
44.9557522801
 10
-38.5894402493
 20
45.0451327735
 10
-38.5466306802
 20
45.1353699106
 10
-38.4958871552
 20
45.22538878
 10
-38.4378141355
 20
45.3141170701
 10
-38.3731033919
 20
45.4004978428
 10
-38.3025257638
 20
45.4835021239
 10
-38.2269219779
 20
45.5621411601
 10
-38.1471926327
 20
45.6354781973
 10
-38.0642874704
 20
45.702639639
 10
-37.9791940641
 20
45.7628254532
 10
-37.8929260532
 20
45.8153187017
  0
LWPOLYLINE
  5
223
100
AcDbEntity
  8
RACCORDO
100
AcDbPolyline
 62
250
  6
CONTINUOUS
 90
34
 70
0
 10
-40.8826971622
 20
-10.4192198917
 10
-40.8791326734
 20
-10.5150423056
 10
-40.8713058498
 20
-10.6224193852
 10
-40.8583745485
 20
-10.7419241503
 10
-40.8390721221
 20
-10.8765124164
 10
-40.8127131053
 20
-11.0241339212
 10
-40.7802179242
 20
-11.1768597517
 10
-40.7419118609
 20
-11.3329278297
 10
-40.697705
 20
-11.4925861469
 10
-40.6493888703
 20
-11.6498651883
 10
-40.5981433075
 20
-11.8023096399
 10
-40.544129985
 20
-11.9507494669
 10
-40.4881354496
 20
-12.0940657711
 10
-40.4308698531
 20
-12.2314493449
 10
-40.3727509734
 20
-12.3628598473
 10
-40.3140673294
 20
-12.4884738998
 10
-40.2553233457
 20
-12.6079387065
 10
-40.1968434309
 20
-12.7212837783
 10
-40.1385135444
 20
-12.8293188209
 10
-40.0806275009
 20
-12.9319845106
 10
-40.0234448441
 20
-13.0292775453
 10
-39.9666836658
 20
-13.1220711967
 10
-39.9104247559
 20
-13.2105427067
 10
-39.8549491385
 20
-13.2945414182
 10
-39.8002095642
 20
-13.3744182457
 10
-39.7462428801
 20
-13.4503625375
 10
-39.6932731979
 20
-13.5222880371
 10
-39.6415100042
 20
-13.5901475008
 10
-39.5910151129
 20
-13.6540933739
 10
-39.5419197067
 20
-13.7141801267
 10
-39.4945249412
 20
-13.7702664064
 10
-39.4489733301
 20
-13.8224201912
 10
-39.405246278
 20
-13.870886395
 10
-39.3633889343
 20
-13.915822785
  0
LWPOLYLINE
  5
224
100
AcDbEntity
  8
RACCORDO
100
AcDbPolyline
 62
7
  6
CONTINUOUS
 90
22
 70
0
 10
-41.0114792711
 20
-10.075725995
 10
-41.0091920753
 20
-10.1601535071
 10
-40.9953262088
 20
-10.3709732942
 10
-40.9705260958
 20
-10.5847609098
 10
-40.9357765278
 20
-10.8001868181
 10
-40.8917509256
 20
-11.0170652157
 10
-40.8387758334
 20
-11.2357278823
 10
-40.7774224336
 20
-11.4550437031
 10
-40.7081435145
 20
-11.6741338865
 10
-40.6310177828
 20
-11.8931116682
 10
-40.546447351
 20
-12.1109852178
 10
-40.4547865349
 20
-12.3268442109
 10
-40.3559646223
 20
-12.5407611425
 10
-40.2502994211
 20
-12.751766046
 10
-40.1381307928
 20
-12.9589311179
 10
-40.0192376562
 20
-13.1622809243
 10
-39.8939050439
 20
-13.3608481256
 10
-39.7625070699
 20
-13.5535458127
 10
-39.6247164641
 20
-13.7402562103
 10
-39.4805141051
 20
-13.9202075101
 10
-39.3304405442
 20
-14.0918663677
 10
-39.2579855185
 20
-14.1693085667
  0
LINE
  5
225
100
AcDbEntity
  8
RACCORDO
100
AcDbLine
 62
7
  6
CONTINUOUS
 10
-41.0114558645
 20
-10.0773408653
 11
-41.0114792711
 21
-10.075725995
  0
LINE
  5
226
100
AcDbEntity
  8
RACCORDO
100
AcDbLine
 62
250
  6
CONTINUOUS
 10
-40.8926737308
 20
-9.8063861016
 11
-40.8826966541
 21
-10.419219683
  0
LINE
  5
227
100
AcDbEntity
  8
RACCORDO
100
AcDbLine
 62
250
  6
CONTINUOUS
 10
-40.9025566734
 20
-8.9393894089
 11
-40.8926737308
 21
-9.8063861016
  0
LINE
  5
228
100
AcDbEntity
  8
RACCORDO
100
AcDbLine
 62
250
  6
CONTINUOUS
 10
-40.9117384896
 20
-7.5093744943
 11
-40.9025566734
 21
-8.9393894089
  0
LWPOLYLINE
  5
229
100
AcDbEntity
  8
RACCORDO
100
AcDbPolyline
 62
7
  6
CONTINUOUS
 90
4
 70
0
 10
-41.0639675937
 20
13.8010795333
 10
-41.0437790928
 20
7.2417436324
 10
-41.0372070065
 20
4.1024463317
 10
-41.0345177805
 20
1.0553621629
  0
LINE
  5
22A
100
AcDbEntity
  8
RACCORDO
100
AcDbLine
 62
250
  6
CONTINUOUS
 10
-40.9318972257
 20
6.0960032091
 11
-40.9246162401
 21
3.2406473567
  0
LINE
  5
22B
100
AcDbEntity
  8
RACCORDO
100
AcDbLine
 62
7
  6
CONTINUOUS
 10
-41.0687901977
 20
17.1137778063
 11
-41.0639675937
 21
13.8010795333
  0
LINE
  5
22C
100
AcDbEntity
  8
RACCORDO
100
AcDbLine
 62
250
  6
CONTINUOUS
 10
-40.9632198113
 20
15.969768184
 11
-40.9318972257
 21
6.0960032091
  0
LINE
  5
22D
100
AcDbEntity
  8
RACCORDO
100
AcDbLine
 62
250
  6
CONTINUOUS
 10
-40.9246162401
 20
3.2406473567
 11
-40.9208110254
 21
0.823436364
  0
LWPOLYLINE
  5
22E
100
AcDbEntity
  8
RACCORDO
100
AcDbPolyline
 62
250
  6
CONTINUOUS
 90
3
 70
0
 10
-40.9208110254
 20
0.823436364
 10
-40.9184642367
 20
-2.8760914796
 10
-40.9117384896
 20
-7.5093744943
  0
LWPOLYLINE
  5
22F
100
AcDbEntity
  8
RACCORDO
100
AcDbPolyline
 62
7
  6
CONTINUOUS
 90
4
 70
0
 10
-41.0345177805
 20
1.0553621629
 10
-41.0365777642
 20
-4.7606261208
 10
-41.0330529978
 20
-7.5242530366
 10
-41.0114597128
 20
-10.0773409221
  0
LWPOLYLINE
  5
230
100
AcDbEntity
  8
RACCORDO
100
AcDbPolyline
 62
7
  6
CONTINUOUS
 90
4
 70
0
 10
-40.941618693
 20
31.8140561769
 10
-40.9540670708
 20
30.2660364263
 10
-40.9682709551
 20
28.693192636
 10
-40.9842604152
 20
27.0951951667
  0
LINE
  5
231
100
AcDbEntity
  8
RACCORDO
100
AcDbLine
 62
250
  6
CONTINUOUS
 10
-40.8423104093
 20
31.2302784978
 11
-40.8588621573
 21
29.2492306091
  0
LWPOLYLINE
  5
232
100
AcDbEntity
  8
RACCORDO
100
AcDbPolyline
 62
250
  6
CONTINUOUS
 90
5
 70
0
 10
-40.9395409716
 20
21.3823783574
 10
-40.9501228383
 20
20.1913078838
 10
-40.958247676
 20
19.0371748664
 10
-40.9630407961
 20
17.9057222757
 10
-40.9632198113
 20
15.969768184
  0
LWPOLYLINE
  5
233
100
AcDbEntity
  8
RACCORDO
100
AcDbPolyline
 62
7
  6
CONTINUOUS
 90
4
 70
0
 10
-41.0386727215
 20
22.1525309619
 10
-41.0548464997
 20
20.4576143294
 10
-41.0661844633
 20
18.7415336575
 10
-41.0687917105
 20
17.1127045731
  0
LINE
  5
234
100
AcDbEntity
  8
RACCORDO
100
AcDbLine
 62
250
  6
CONTINUOUS
 10
-40.8588621573
 20
29.2492306091
 11
-40.878703056
 21
27.1583253501
  0
LWPOLYLINE
  5
235
100
AcDbEntity
  8
RACCORDO
100
AcDbPolyline
 62
250
  6
CONTINUOUS
 90
3
 70
0
 10
-40.878703056
 20
27.1583253501
 10
-40.9145149421
 20
23.7836565375
 10
-40.9395409716
 20
21.3823783574
  0
LINE
  5
236
100
AcDbEntity
  8
RACCORDO
100
AcDbLine
 62
7
  6
CONTINUOUS
 10
-40.9842604152
 20
27.0951951667
 11
-41.0386727215
 21
22.1525309619
  0
LWPOLYLINE
  5
237
100
AcDbEntity
  8
RACCORDO
100
AcDbPolyline
 62
7
  6
CONTINUOUS
 90
8
 70
0
 10
-40.6615849961
 20
44.7111441513
 10
-40.7520285842
 20
43.427703664
 10
-40.8153200683
 20
42.0256245281
 10
-40.854805938
 20
40.6191017952
 10
-40.880104602
 20
39.2013707131
 10
-40.8970637822
 20
37.7676571787
 10
-40.9095994148
 20
36.3138610425
 10
-40.941618693
 20
31.8140561769
  0
LINE
  5
238
100
AcDbEntity
  8
RACCORDO
100
AcDbLine
 62
7
  6
CONTINUOUS
 10
-40.6615849961
 20
44.7111441513
 11
-40.6615800394
 21
44.7112013105
  0
LWPOLYLINE
  5
239
100
AcDbEntity
  8
RACCORDO
100
AcDbPolyline
 62
250
  6
CONTINUOUS
 90
13
 70
0
 10
-40.5306010411
 20
44.3395894841
 10
-40.5844630859
 20
43.7291275198
 10
-40.629587314
 20
43.101122773
 10
-40.6669957876
 20
42.4549637409
 10
-40.6977751521
 20
41.7895609941
 10
-40.72275063
 20
41.1046638406
 10
-40.7430532806
 20
40.4005378044
 10
-40.7596653357
 20
39.6766518812
 10
-40.7731284377
 20
38.9322555764
 10
-40.7842141446
 20
38.1670285198
 10
-40.7935754631
 20
37.3807981385
 10
-40.8015703552
 20
36.5728764565
 10
-40.8423104093
 20
31.2302784978
  0
LWPOLYLINE
  5
23A
100
AcDbEntity
  8
RACCORDO
100
AcDbPolyline
 62
250
  6
CONTINUOUS
 90
13
 70
0
 10
19.7519064552
 20
-53.2943587169
 10
19.8475299205
 20
-53.3274458569
 10
19.947653791
 20
-53.3530211691
 10
20.0511379805
 20
-53.3707934337
 10
20.1568041396
 20
-53.3805602822
 10
20.2634490734
 20
-53.3822105019
 10
20.3698584421
 20
-53.3757253021
 10
20.4748205879
 20
-53.3611785283
 10
20.5771403324
 20
-53.3387358209
 10
20.6756525855
 20
-53.3086527298
 10
20.7692356122
 20
-53.2712718036
 10
20.8568238051
 20
-53.22701869
 10
20.9374198189
 20
-53.1763972884
  0
LWPOLYLINE
  5
23B
100
AcDbEntity
  8
RACCORDO
100
AcDbPolyline
 62
250
  6
CONTINUOUS
 90
31
 70
0
 10
17.4607378404
 20
-54.0965480322
 10
17.5372903515
 20
-54.1315451741
 10
17.6166007
 20
-54.1655152821
 10
17.6985609027
 20
-54.1981551135
 10
17.7829536224
 20
-54.2291203042
 10
17.869737505
 20
-54.2581261622
 10
17.9590379528
 20
-54.2849113621
 10
18.0506113475
 20
-54.3090793087
 10
18.1442747265
 20
-54.3302437774
 10
18.2401779628
 20
-54.3480515522
 10
18.3380073578
 20
-54.3620180258
 10
18.437397678
 20
-54.3716479247
 10
18.538318153
 20
-54.3764336291
 10
18.6403145218
 20
-54.3757880695
 10
18.7427972849
 20
-54.3691269141
 10
18.8453910946
 20
-54.3558125487
 10
18.9476485823
 20
-54.3351269083
 10
19.0484722273
 20
-54.3064773557
 10
19.1464478392
 20
-54.2694734831
 10
19.2411112648
 20
-54.223407703
 10
19.3310619803
 20
-54.1680232236
 10
19.4138622359
 20
-54.1042002171
 10
19.488989207
 20
-54.0319478672
 10
19.5557601267
 20
-53.9515169116
 10
19.6124878814
 20
-53.8651368934
 10
19.6592993654
 20
-53.7733904631
 10
19.6962605325
 20
-53.677087283
 10
19.7230023556
 20
-53.5797290567
 10
19.7403806869
 20
-53.4833309253
 10
19.7496707183
 20
-53.3879269746
 10
19.7519060873
 20
-53.2943591866
  0
LWPOLYLINE
  5
23C
100
AcDbEntity
  8
RACCORDO
100
AcDbPolyline
 62
7
  6
CONTINUOUS
 90
15
 70
0
 10
17.5862776906
 20
-54.3693407696
 10
17.6859857834
 20
-54.4156617845
 10
17.9206793306
 20
-54.5130947942
 10
18.1564738319
 20
-54.5945396337
 10
18.3942915134
 20
-54.6597338491
 10
18.631918955
 20
-54.7074018659
 10
18.8641148975
 20
-54.7364073654
 10
19.0891199743
 20
-54.7470424429
 10
19.3074116096
 20
-54.7397990438
 10
19.5171483762
 20
-54.7152083446
 10
19.7170113455
 20
-54.6740808102
 10
19.9068860684
 20
-54.6171547608
 10
20.0864934724
 20
-54.5450790679
 10
20.2550235714
 20
-54.4586793021
 10
20.3816766411
 20
-54.3796911901
  0
LINE
  5
23D
100
AcDbEntity
  8
RACCORDO
100
AcDbLine
 62
250
  6
CONTINUOUS
 10
17.2542216138
 20
-53.9986480051
 11
17.4607377655
 21
-54.0965481166
  0
LINE
  5
23E
100
AcDbEntity
  8
RACCORDO
100
AcDbLine
 62
7
  6
CONTINUOUS
 10
17.5862776906
 20
-54.3693407696
 11
17.5864295172
 21
-54.3694136199
  0
LINE
  5
23F
100
AcDbEntity
  8
RACCORDO
100
AcDbLine
 62
250
  6
CONTINUOUS
 10
17.0357262649
 20
-53.893817819
 11
17.2542216138
 21
-53.9986480051
  0
LINE
  5
240
100
AcDbEntity
  8
RACCORDO
100
AcDbLine
 62
250
  6
CONTINUOUS
 10
16.8049087413
 20
-53.7816878347
 11
17.0357262649
 21
-53.893817819
  0
LINE
  5
241
100
AcDbEntity
  8
RACCORDO
100
AcDbLine
 62
250
  6
CONTINUOUS
 10
16.5602664487
 20
-53.6612862307
 11
16.8049087413
 21
-53.7816878347
  0
LWPOLYLINE
  5
242
100
AcDbEntity
  8
RACCORDO
100
AcDbPolyline
 62
250
  6
CONTINUOUS
 90
3
 70
0
 10
16.1649578908
 20
-53.4634147474
 10
16.3005687611
 20
-53.5317503629
 10
16.5602664487
 20
-53.6612862307
  0
LWPOLYLINE
  5
243
100
AcDbEntity
  8
RACCORDO
100
AcDbPolyline
 62
250
  6
CONTINUOUS
 90
6
 70
0
 10
-39.3633889138
 20
-13.9158227741
 10
-39.3540250669
 20
-13.9815013608
 10
-39.3365743954
 20
-14.0422001893
 10
-39.3112093658
 20
-14.0973193678
 10
-39.2781806628
 20
-14.1463141488
 10
-39.2584422097
 20
-14.1688320317
  0
LWPOLYLINE
  5
244
100
AcDbEntity
  8
0
100
AcDbPolyline
 62
7
  6
CONTINUOUS
 90
4
 70
0
 10
5.1085089767
 20
-39.6453243113
 10
5.0914289567
 20
-39.6408104127
 10
5.0626960796
 20
-39.6292772469
 10
5.0333639768
 20
-39.6138228666
  0
LINE
  5
245
100
AcDbEntity
  8
RACCORDO
100
AcDbLine
 62
250
  6
CONTINUOUS
 10
15.8809572755
 20
-53.3187684229
 11
16.1649578908
 21
-53.4634147474
  0
LINE
  5
246
100
AcDbEntity
  8
RACCORDO
100
AcDbLine
 62
250
  6
CONTINUOUS
 10
15.5796850889
 20
-53.163097601
 11
15.8809572755
 21
-53.3187684229
  0
LINE
  5
247
100
AcDbEntity
  8
RACCORDO
100
AcDbLine
 62
250
  6
CONTINUOUS
 10
15.2600539542
 20
-52.9954817661
 11
15.5796850889
 21
-53.163097601
  0
LINE
  5
248
100
AcDbEntity
  8
RACCORDO
100
AcDbLine
 62
250
  6
CONTINUOUS
 10
14.9211320102
 20
-52.815059421
 11
15.2600539542
 21
-52.9954817661
  0
LINE
  5
249
100
AcDbEntity
  8
RACCORDO
100
AcDbLine
 62
250
  6
CONTINUOUS
 10
14.5621435083
 20
-52.6210695732
 11
14.9211320102
 21
-52.815059421
  0
LINE
  5
24A
100
AcDbEntity
  8
RACCORDO
100
AcDbLine
 62
250
  6
CONTINUOUS
 10
14.1815840035
 20
-52.4123256935
 11
14.5621435083
 21
-52.6210695732
  0
LINE
  5
24B
100
AcDbEntity
  8
RACCORDO
100
AcDbLine
 62
250
  6
CONTINUOUS
 10
13.7772600213
 20
-52.1871630732
 11
14.1815840035
 21
-52.4123256935
  0
LINE
  5
24C
100
AcDbEntity
  8
RACCORDO
100
AcDbLine
 62
250
  6
CONTINUOUS
 10
13.3479004798
 20
-51.9443862907
 11
13.7772600213
 21
-52.1871630732
  0
LINE
  5
24D
100
AcDbEntity
  8
RACCORDO
100
AcDbLine
 62
250
  6
CONTINUOUS
 10
12.8917045648
 20
-51.6824378765
 11
13.3479004798
 21
-51.9443862907
  0
LINE
  5
24E
100
AcDbEntity
  8
RACCORDO
100
AcDbLine
 62
250
  6
CONTINUOUS
 10
12.4047039585
 20
-51.3984380018
 11
12.8917045648
 21
-51.6824378765
  0
LWPOLYLINE
  5
24F
100
AcDbEntity
  8
RACCORDO
100
AcDbPolyline
 62
250
  6
CONTINUOUS
 90
16
 70
0
 10
7.5747784983
 20
-48.3519666756
 10
7.8719406268
 20
-48.551025542
 10
8.1752470746
 20
-48.7527080527
 10
8.4852197969
 20
-48.9572399692
 10
8.8015293038
 20
-49.1642780594
 10
9.1204263034
 20
-49.3712597592
 10
9.4426254446
 20
-49.5785788984
 10
9.7674521337
 20
-49.7857450537
 10
10.0889350016
 20
-49.9889485171
 10
10.4068164835
 20
-50.1880851214
 10
10.7212730388
 20
-50.3833249859
 10
11.0268604473
 20
-50.5713846734
 10
11.3218669797
 20
-50.7513489121
 10
11.607790956
 20
-50.9242777773
 10
11.8839365827
 20
-51.0898946805
 10
12.4047039585
 20
-51.3984380018
  0
LWPOLYLINE
  5
250
100
AcDbEntity
  8
RACCORDO
100
AcDbPolyline
 62
250
  6
CONTINUOUS
 90
12
 70
0
 10
-34.1731380453
 20
-18.6289780781
 10
-33.9258055686
 20
-18.8288189295
 10
-33.6709117114
 20
-19.0331075597
 10
-33.4095404492
 20
-19.2408822472
 10
-33.1412357306
 20
-19.4524221463
 10
-32.866344309
 20
-19.6673669701
 10
-32.5872049934
 20
-19.8838237374
 10
-32.302845824
 20
-20.1024992932
 10
-32.0142259771
 20
-20.3226389866
 10
-31.7266791694
 20
-20.5402289892
 10
-31.440342803
 20
-20.7552550721
 10
-30.8765132238
 20
-21.174112675
  0
LINE
  5
251
100
AcDbEntity
  8
RACCORDO
100
AcDbLine
 62
250
  6
CONTINUOUS
 10
-34.6446313704
 20
-18.2434468674
 11
-34.1731380453
 21
-18.6289780781
  0
LINE
  5
252
100
AcDbEntity
  8
RACCORDO
100
AcDbLine
 62
250
  6
CONTINUOUS
 10
-35.0864381238
 20
-17.8764931061
 11
-34.6446313704
 21
-18.2434468674
  0
LINE
  5
253
100
AcDbEntity
  8
RACCORDO
100
AcDbLine
 62
250
  6
CONTINUOUS
 10
-35.5000112846
 20
-17.5276932377
 11
-35.0864381238
 21
-17.8764931061
  0
LINE
  5
254
100
AcDbEntity
  8
RACCORDO
100
AcDbLine
 62
250
  6
CONTINUOUS
 10
-35.8890108961
 20
-17.1946649797
 11
-35.5000112846
 21
-17.5276932377
  0
LINE
  5
255
100
AcDbEntity
  8
RACCORDO
100
AcDbLine
 62
250
  6
CONTINUOUS
 10
-36.2559492914
 20
-16.8758059015
 11
-35.8890108961
 21
-17.1946649797
  0
LINE
  5
256
100
AcDbEntity
  8
RACCORDO
100
AcDbLine
 62
250
  6
CONTINUOUS
 10
-36.60196695
 20
-16.5705955121
 11
-36.2559492914
 21
-16.8758059015
  0
LINE
  5
257
100
AcDbEntity
  8
RACCORDO
100
AcDbLine
 62
250
  6
CONTINUOUS
 10
-36.9275964432
 20
-16.2789962497
 11
-36.60196695
 21
-16.5705955121
  0
LINE
  5
258
100
AcDbEntity
  8
RACCORDO
100
AcDbLine
 62
250
  6
CONTINUOUS
 10
-37.2331860261
 20
-16.0011801626
 11
-36.9275964432
 21
-16.2789962497
  0
LINE
  5
259
100
AcDbEntity
  8
RACCORDO
100
AcDbLine
 62
250
  6
CONTINUOUS
 10
-37.5191993508
 20
-15.7371978968
 11
-37.2331860261
 21
-16.0011801626
  0
LINE
  5
25A
100
AcDbEntity
  8
RACCORDO
100
AcDbLine
 62
250
  6
CONTINUOUS
 10
-37.7862361844
 20
-15.4869551409
 11
-37.5191993508
 21
-15.7371978968
  0
LINE
  5
25B
100
AcDbEntity
  8
RACCORDO
100
AcDbLine
 62
250
  6
CONTINUOUS
 10
-38.0354068782
 20
-15.2498802608
 11
-37.7862361844
 21
-15.4869551409
  0
LINE
  5
25C
100
AcDbEntity
  8
RACCORDO
100
AcDbLine
 62
250
  6
CONTINUOUS
 10
-38.2675134266
 20
-15.0256696878
 11
-38.0354068782
 21
-15.2498802608
  0
LINE
  5
25D
100
AcDbEntity
  8
RACCORDO
100
AcDbLine
 62
250
  6
CONTINUOUS
 10
-38.4836994176
 20
-14.81371623
 11
-38.2675134266
 21
-15.0256696878
  0
LINE
  5
25E
100
AcDbEntity
  8
RACCORDO
100
AcDbLine
 62
250
  6
CONTINUOUS
 10
-38.6851341931
 20
-14.6133439534
 11
-38.4836994176
 21
-14.81371623
  0
LWPOLYLINE
  5
25F
100
AcDbEntity
  8
RACCORDO
100
AcDbPolyline
 62
7
  6
CONTINUOUS
 90
9
 70
0
 10
-39.2584422097
 20
-14.1688320317
 10
-38.2531154735
 20
-15.1801969873
 10
-37.0628530184
 20
-16.2958003398
 10
-35.7865134898
 20
-17.4223885168
 10
-34.4282850353
 20
-18.5622109767
 10
-32.9889192487
 20
-19.7156566065
 10
-31.4682543433
 20
-20.8820891215
 10
-29.8685270455
 20
-22.061434173
 10
-28.1976762638
 20
-23.2565298165
  0
LINE
  5
260
100
AcDbEntity
  8
RACCORDO
100
AcDbLine
 62
250
  6
CONTINUOUS
 10
-38.8726807408
 20
-14.4241313698
 11
-38.6851341931
 21
-14.6133439534
  0
LINE
  5
261
100
AcDbEntity
  8
RACCORDO
100
AcDbLine
 62
250
  6
CONTINUOUS
 10
-39.0474835926
 20
-14.245328121
 11
-38.8726807408
 21
-14.4241313698
  0
LINE
  5
262
100
AcDbEntity
  8
RACCORDO
100
AcDbLine
 62
250
  6
CONTINUOUS
 10
-39.2108776661
 20
-14.075958506
 11
-39.0474835926
 21
-14.245328121
  0
LINE
  5
263
100
AcDbEntity
  8
RACCORDO
100
AcDbLine
 62
7
  6
CONTINUOUS
 10
-39.2584422097
 20
-14.1688320317
 11
-39.2579856699
 21
-14.1693087119
  0
LINE
  5
264
100
AcDbEntity
  8
RACCORDO
100
AcDbLine
 62
250
  6
CONTINUOUS
 10
-39.3633889138
 20
-13.9158227741
 11
-39.2108776661
 21
-14.075958506
  0
LWPOLYLINE
  5
265
100
AcDbEntity
  8
RACCORDO
100
AcDbPolyline
 62
250
  6
CONTINUOUS
 90
6
 70
0
 10
-40.8826971622
 20
-10.4192198917
 10
-40.9300521611
 20
-10.3512054289
 10
-40.9669488297
 20
-10.279892124
 10
-40.9929670373
 20
-10.2060919993
 10
-41.0078105228
 20
-10.1306453939
 10
-41.0114558645
 20
-10.0773408653
  0
LWPOLYLINE
  5
266
100
AcDbEntity
  8
RACCORDO
100
AcDbPolyline
 62
250
  6
CONTINUOUS
 90
28
 70
0
 10
-31.9991451489
 20
-7.6511794629
 10
-31.9940053005
 20
-7.8508120811
 10
-31.9789127171
 20
-8.0662730658
 10
-31.9525832646
 20
-8.2978562635
 10
-31.913553
 20
-8.5463147517
 10
-31.8606444345
 20
-8.8109912329
 10
-31.7932705095
 20
-9.0896809388
 10
-31.7097331481
 20
-9.3842109063
 10
-31.6096113241
 20
-9.6913463343
 10
-31.4958990494
 20
-10.0005435918
 10
-31.369451927
 20
-10.3099518786
 10
-31.2304388956
 20
-10.6190489666
 10
-31.0831342226
 20
-10.9191008797
 10
-30.9306534856
 20
-11.2064737437
 10
-30.7726827978
 20
-11.4839202474
 10
-30.6090688895
 20
-11.7524565723
 10
-30.4433240613
 20
-12.0080968557
 10
-30.2744156111
 20
-12.2539155383
 10
-30.0942350933
 20
-12.5007808886
 10
-29.8996643477
 20
-12.7516052609
 10
-29.6944502353
 20
-13.000311914
 10
-29.4802410894
 20
-13.2434940576
 10
-29.2584056516
 20
-13.4785143003
 10
-29.0292002427
 20
-13.704987532
 10
-28.7926798079
 20
-13.9229626659
 10
-28.5489634869
 20
-14.1316934874
 10
-28.2988057412
 20
-14.3294845982
 10
-28.0433481025
 20
-14.5148286042
  0
LWPOLYLINE
  5
267
100
AcDbEntity
  8
RACCORDO
100
AcDbPolyline
 62
250
  6
CONTINUOUS
 90
6
 70
0
 10
-31.2219218696
 20
-8.8251032355
 10
-31.2187022005
 20
-8.9613939351
 10
-31.2083406123
 20
-9.1086442027
 10
-31.1899376584
 20
-9.2670400019
 10
-31.1625191387
 20
-9.4370332689
 10
-31.1444794019
 20
-9.5295387799
  0
LINE
  5
268
100
AcDbEntity
  8
RACCORDO
100
AcDbLine
 62
250
  6
CONTINUOUS
 10
-32.0113473569
 20
-4.8867463491
 11
-32.0041677797
 21
-6.2239747739
  0
LINE
  5
269
100
AcDbEntity
  8
RACCORDO
100
AcDbLine
 62
250
  6
CONTINUOUS
 10
-32.0605028895
 20
3.4682952808
 11
-32.0113473569
 21
-4.8867463491
  0
LINE
  5
26A
100
AcDbEntity
  8
RACCORDO
100
AcDbLine
 62
250
  6
CONTINUOUS
 10
-32.0041677797
 20
-6.2239747739
 11
-31.9991369533
 21
-7.6511740497
  0
LWPOLYLINE
  5
26B
100
AcDbEntity
  8
RACCORDO
100
AcDbPolyline
 62
250
  6
CONTINUOUS
 90
3
 70
0
 10
-32.0689863116
 20
8.0646016975
 10
-32.0691114046
 20
7.7716267228
 10
-32.0605028895
 20
3.4682952808
  0
LINE
  5
26C
100
AcDbEntity
  8
RACCORDO
100
AcDbLine
 62
250
  6
CONTINUOUS
 10
-32.053273357
 20
21.6409383531
 11
-32.0689848685
 21
8.0646013847
  0
LINE
  5
26D
100
AcDbEntity
  8
RACCORDO
100
AcDbLine
 62
250
  6
CONTINUOUS
 10
-32.0424428623
 20
23.7454013348
 11
-32.053273357
 21
21.6409383531
  0
LWPOLYLINE
  5
26E
100
AcDbEntity
  8
RACCORDO
100
AcDbPolyline
 62
250
  6
CONTINUOUS
 90
13
 70
0
 10
-28.4615469836
 20
23.3729622147
 10
-28.5032783639
 20
23.2815954471
 10
-28.5382587327
 20
23.1909492499
 10
-28.5660985853
 20
23.102033041
 10
-28.5864879269
 20
23.015837009
 10
-28.599199757
 20
22.9333209535
 10
-28.6040925571
 20
22.8554036179
 10
-28.6011118386
 20
22.7829526346
 10
-28.5902907895
 20
22.7167748414
 10
-28.5717499105
 20
22.6576071783
 10
-28.5456956682
 20
22.6061085222
 10
-28.5124181966
 20
22.5628523498
 10
-28.4743942486
 20
22.5297934664
  0
LINE
  5
26F
100
AcDbEntity
  8
0
100
AcDbLine
 62
7
  6
CONTINUOUS
 10
-29.7224444103
 20
21.9026257799
 11
-28.9434523988
 21
22.4773493624
  0
LINE
  5
270
100
AcDbEntity
  8
RACCORDO
100
AcDbLine
 62
250
  6
CONTINUOUS
 10
-29.7222514473
 20
21.9027680636
 11
-29.7224444531
 21
21.9026257483
  0
LINE
  5
271
100
AcDbEntity
  8
RACCORDO
100
AcDbLine
 62
250
  6
CONTINUOUS
 10
-28.6872021536
 20
21.7131114101
 11
-28.0116547884
 21
22.2025872562
  0
LINE
  5
272
100
AcDbEntity
  8
RACCORDO
100
AcDbLine
 62
250
  6
CONTINUOUS
 10
-29.6018242613
 20
22.1129415903
 11
-29.5233895761
 21
22.1628376695
  0
LWPOLYLINE
  5
273
100
AcDbEntity
  8
DRAFT
100
AcDbPolyline
 62
7
  6
CONTINUOUS
 90
5
 70
0
 10
-28.9434523677
 20
22.4773493202
 10
-28.8717928086
 20
22.520370706
 10
-28.7970439794
 20
22.5492337725
 10
-28.7153255088
 20
22.5661989171
 10
-28.6267922036
 20
22.571530411
  0
LWPOLYLINE
  5
274
100
AcDbEntity
  8
0
100
AcDbPolyline
 62
7
  6
CONTINUOUS
 90
15
 70
0
 10
-29.2492078848
 20
22.8764686659
 10
-29.2556024301
 20
22.8736093922
 10
-29.2674442221
 20
22.8694664999
 10
-29.2655734791
 20
22.8696409193
 10
-29.2511460766
 20
22.8706308135
 10
-29.2233891262
 20
22.8700204687
 10
-29.1822008096
 20
22.8655562572
 10
-29.1286956527
 20
22.8554341212
 10
-29.0638457508
 20
22.838258542
 10
-28.9880720232
 20
22.8127355362
 10
-28.9022500093
 20
22.7778679108
 10
-28.8071990665
 20
22.7328170506
 10
-28.703585982
 20
22.676796655
 10
-28.5923143325
 20
22.609245779
 10
-28.4743942486
 20
22.5297934664
  0
LWPOLYLINE
  5
275
100
AcDbEntity
  8
RACCORDO
100
AcDbPolyline
 62
250
  6
CONTINUOUS
 90
15
 70
0
 10
5.7012764042
 20
-34.933747118
 10
5.5971541631
 20
-34.9200429084
 10
5.4956658397
 20
-34.8986288281
 10
5.3979498093
 20
-34.8697451262
 10
5.305102184
 20
-34.8337158624
 10
5.2181643237
 20
-34.7909451988
 10
5.1381112
 20
-34.7419128205
 10
5.06584071
 20
-34.6871686765
 10
5.0021635596
 20
-34.6273268566
 10
4.947794007
 20
-34.5630585982
 10
4.9033419082
 20
-34.4950847898
 10
4.8693058764
 20
-34.4241678847
 10
4.8460676892
 20
-34.3511033483
 10
4.8338880064
 20
-34.2767107356
 10
4.8319494832
 20
-34.2327034152
  0
LINE
  5
276
100
AcDbEntity
  8
RACCORDO
100
AcDbLine
 62
250
  6
CONTINUOUS
 10
7.0066919526
 20
-47.9675360997
 11
7.5747784983
 21
-48.3519666756
  0
LINE
  5
277
100
AcDbEntity
  8
RACCORDO
100
AcDbLine
 62
250
  6
CONTINUOUS
 10
6.4733806017
 20
-47.6021971954
 11
7.0066919526
 21
-47.9675360997
  0
LINE
  5
278
100
AcDbEntity
  8
RACCORDO
100
AcDbLine
 62
250
  6
CONTINUOUS
 10
5.7393395841
 20
-47.0932272271
 11
6.4733806017
 21
-47.6021971954
  0
LINE
  5
279
100
AcDbEntity
  8
RACCORDO
100
AcDbLine
 62
250
  6
CONTINUOUS
 10
4.8702835623
 20
-46.4832516927
 11
5.7393395841
 21
-47.0932272271
  0
LINE
  5
27A
100
AcDbEntity
  8
RACCORDO
100
AcDbLine
 62
7
  6
CONTINUOUS
 10
-28.1976762638
 20
-23.2565298165
 11
3.1243138595
 21
-45.403228258
  0
LWPOLYLINE
  5
27B
100
AcDbEntity
  8
RACCORDO
100
AcDbPolyline
 62
7
  6
CONTINUOUS
 90
10
 70
0
 10
3.1243138595
 20
-45.403228258
 10
4.7342658891
 20
-46.5429368646
 10
6.4234085074
 20
-47.7239024795
 10
8.0904538562
 20
-48.8548605335
 10
9.7394750503
 20
-49.9302056465
 10
11.3701850635
 20
-50.9482467404
 10
12.9813440459
 20
-51.9089363447
 10
14.5731374471
 20
-52.8116274772
 10
16.1483430944
 20
-53.6532852238
 10
17.5864289551
 20
-54.3694147927
  0
LINE
  5
27C
100
AcDbEntity
  8
RACCORDO
100
AcDbLine
 62
250
  6
CONTINUOUS
 10
-29.3661797787
 20
-22.2705156079
 11
4.8702835623
 21
-46.4832516927
  0
LINE
  5
27D
100
AcDbEntity
  8
RACCORDO
100
AcDbLine
 62
250
  6
CONTINUOUS
 10
-29.8378208407
 20
-21.9315539079
 11
-29.3661797787
 21
-22.2705156079
  0
LINE
  5
27E
100
AcDbEntity
  8
RACCORDO
100
AcDbLine
 62
250
  6
CONTINUOUS
 10
-30.3417112574
 20
-21.5661919573
 11
-29.8378208407
 21
-21.9315539079
  0
LINE
  5
27F
100
AcDbEntity
  8
RACCORDO
100
AcDbLine
 62
250
  6
CONTINUOUS
 10
-30.8765132238
 20
-21.174112675
 11
-30.3417112574
 21
-21.5661919573
  0
LWPOLYLINE
  5
280
100
AcDbEntity
  8
RACCORDO
100
AcDbPolyline
 62
250
  6
CONTINUOUS
 90
15
 70
0
 10
-31.2219218696
 20
-8.8251032355
 10
-31.2025411551
 20
-8.8987288818
 10
-31.1722570206
 20
-8.9704920324
 10
-31.1314092436
 20
-9.0395877349
 10
-31.0804561345
 20
-9.1052409147
 10
-31.0199692727
 20
-9.166715233
 10
-30.9506270162
 20
-9.2233213083
 10
-30.8732070997
 20
-9.2744242389
 10
-30.7885779851
 20
-9.3194507615
 10
-30.6976889457
 20
-9.3578958197
 10
-30.6015594712
 20
-9.3893281808
 10
-30.5012678328
 20
-9.4133952721
 10
-30.397938988
 20
-9.4298271365
 10
-30.2927319623
 20
-9.4384394599
 10
-30.2268622972
 20
-9.4388724616
  0
LINE
  5
281
100
AcDbEntity
  8
RACCORDO
100
AcDbLine
 62
7
  6
CONTINUOUS
 10
-31.1444794019
 20
-9.5295387799
 11
-31.1441625445
 21
-9.5310721084
  0
LWPOLYLINE
  5
282
100
AcDbEntity
  8
RACCORDO
100
AcDbPolyline
 62
250
  6
CONTINUOUS
 90
6
 70
0
 10
-29.3819682199
 20
-11.9847042737
 10
-29.3760523208
 20
-12.0717973131
 10
-29.3584036125
 20
-12.1490667071
 10
-29.3293174053
 20
-12.2152195308
 10
-29.2892803897
 20
-12.2691488696
 10
-29.2522117078
 20
-12.3012008547
  0
LWPOLYLINE
  5
283
100
AcDbEntity
  8
RACCORDO
100
AcDbPolyline
 62
250
  6
CONTINUOUS
 90
22
 70
0
 10
-29.9339690784
 20
-11.042379865
 10
-29.9323806484
 20
-11.0849433972
 10
-29.9278020771
 20
-11.1289718817
 10
-29.9202333646
 20
-11.1744653186
 10
-29.9096092629
 20
-11.2216821783
 10
-29.8959950199
 20
-11.2703639903
 10
-29.8795863796
 20
-11.3197353432
 10
-29.8603239184
 20
-11.3698375146
 10
-29.8382670599
 20
-11.420629227
 10
-29.8137898186
 20
-11.471211236
 10
-29.7868554259
 20
-11.521561653
 10
-29.7575006503
 20
-11.5717023665
 10
-29.7262098125
 20
-11.620799798
 10
-29.6929403724
 20
-11.6688470325
 10
-29.6577348699
 20
-11.7158509849
 10
-29.6212052462
 20
-11.7609988209
 10
-29.5833138749
 20
-11.8042632049
 10
-29.5440983823
 20
-11.8456714723
 10
-29.5042835885
 20
-11.8844927957
 10
-29.4641111001
 20
-11.9204835658
 10
-29.4233393106
 20
-11.9538873918
 10
-29.3819682199
 20
-11.9847042737
  0
LWPOLYLINE
  5
284
100
AcDbEntity
  8
RACCORDO
100
AcDbPolyline
 62
250
  6
CONTINUOUS
 90
10
 70
0
 10
-27.1669434384
 20
-15.1294748707
 10
-27.1723819524
 20
-14.9817488368
 10
-27.1886328691
 20
-14.8424427164
 10
-27.2156132409
 20
-14.712268306
 10
-27.2531852915
 20
-14.5918907386
 10
-27.3011571207
 20
-14.4819250847
 10
-27.3592836846
 20
-14.3829332089
 10
-27.4272680481
 20
-14.2954208992
 10
-27.5047629017
 20
-14.2198352821
 10
-27.5277966619
 20
-14.2019979467
  0
LWPOLYLINE
  5
285
100
AcDbEntity
  8
RACCORDO
100
AcDbPolyline
 62
250
  6
CONTINUOUS
 90
8
 70
0
 10
-28.0433452662
 20
-14.5148265975
 10
-28.0480514336
 20
-14.3667180151
 10
-28.063614292
 20
-14.2270677222
 10
-28.0899538676
 20
-14.0965933689
 10
-28.1269348056
 20
-13.9759654513
 10
-28.1743670664
 20
-13.865803865
 10
-28.2320069016
 20
-13.7666747202
 10
-28.2995581071
 20
-13.6790874321
  0
LINE
  5
286
100
AcDbEntity
  8
RACCORDO
100
AcDbLine
 62
7
  6
CONTINUOUS
 10
-30.2268622972
 20
20.8531612197
 11
-30.2268622972
 21
-10.5423798138
  0
LINE
  5
287
100
AcDbEntity
  8
RACCORDO
100
AcDbLine
 62
250
  6
CONTINUOUS
 10
-29.9339690784
 20
20.3531612197
 11
-29.9339690784
 21
-11.042379865
  0
LINE
  5
288
100
AcDbEntity
  8
0
100
AcDbLine
 62
7
  6
CONTINUOUS
 10
-29.5233895761
 20
22.0494841632
 11
-29.5233895761
 21
22.1628376695
  0
LINE
  5
289
100
AcDbEntity
  8
RACCORDO
100
AcDbLine
 62
250
  6
CONTINUOUS
 10
-31.2207731916
 20
22.5644715387
 11
-31.2212991557
 21
-5.294224594
  0
LINE
  5
28A
100
AcDbEntity
  8
RACCORDO
100
AcDbLine
 62
250
  6
CONTINUOUS
 10
-31.2212991557
 20
-5.294224594
 11
-31.2219218696
 21
-8.8251032355
  0
LWPOLYLINE
  5
28B
100
AcDbEntity
  8
RACCORDO
100
AcDbPolyline
 62
250
  6
CONTINUOUS
 90
10
 70
0
 10
-27.1673297423
 20
-15.1292189564
 10
-27.1681100284
 20
-16.1583792176
 10
-27.1571635186
 20
-17.1823338151
 10
-27.133333271
 20
-18.2015862973
 10
-27.0943668303
 20
-19.219788538
 10
-27.0399337648
 20
-20.2344446267
 10
-26.972913889
 20
-21.2363893742
 10
-26.8947754931
 20
-22.2224126562
 10
-26.8042864674
 20
-23.1957734788
 10
-26.7014401045
 20
-24.1565506917
  0
LWPOLYLINE
  5
28C
100
AcDbEntity
  8
0
100
AcDbPolyline
 62
7
  6
CONTINUOUS
 90
9
 70
0
 10
-29.5233895761
 20
22.1628376695
 10
-29.5186317369
 20
22.2821216799
 10
-29.5050397771
 20
22.3931426933
 10
-29.4826136965
 20
22.4959007096
 10
-29.4511301067
 20
22.590876177
 10
-29.4108123961
 20
22.6775886474
 10
-29.3623307305
 20
22.7545967762
 10
-29.3055486514
 20
22.8217383579
 10
-29.2502858531
 20
22.8706118981
  0
LWPOLYLINE
  5
28D
100
AcDbEntity
  8
RACCORDO
100
AcDbPolyline
 62
7
  6
CONTINUOUS
 90
11
 70
0
 10
-30.2268622972
 20
20.8531612199
 10
-30.2200365931
 20
20.9968737859
 10
-30.1999158039
 20
21.1348673069
 10
-30.1671857948
 20
21.2661179138
 10
-30.1230626078
 20
21.3889191402
 10
-30.0683339595
 20
21.5035085704
 10
-30.0026241559
 20
21.6113937599
 10
-29.926459238
 20
21.7115919591
 10
-29.8407616632
 20
21.802896406
 10
-29.7449821006
 20
21.8855829347
 10
-29.7222514047
 20
21.902768095
  0
LWPOLYLINE
  5
28E
100
AcDbEntity
  8
RACCORDO
100
AcDbPolyline
 62
250
  6
CONTINUOUS
 90
10
 70
0
 10
-28.0305312763
 20
24.9233530006
 10
-28.0380211702
 20
24.7694108287
 10
-28.0559960951
 20
24.6089487241
 10
-28.0843670268
 20
24.4427614063
 10
-28.1229934529
 20
24.2716719501
 10
-28.1716840687
 20
24.0965277092
 10
-28.2301977244
 20
23.9181961191
 10
-28.2982446201
 20
23.7375604017
 10
-28.3754877404
 20
23.5555151901
 10
-28.461544524
 20
23.3729620985
  0
LWPOLYLINE
  5
28F
100
AcDbEntity
  8
RACCORDO
100
AcDbPolyline
 62
250
  6
CONTINUOUS
 90
13
 70
0
 10
-29.3819682199
 20
20.514838528
 10
-29.3760525702
 20
20.6102956794
 10
-29.3584045322
 20
20.7125220793
 10
-29.3293192426
 20
20.8198073439
 10
-29.2892832102
 20
20.9303564207
 10
-29.2389661975
 20
21.0423195763
 10
-29.1792100323
 20
21.1538233455
 10
-29.1110144741
 20
21.2630019779
 10
-29.035520543
 20
21.3680285485
 10
-28.9539914786
 20
21.4671454992
 10
-28.8677914911
 20
21.5586942139
 10
-28.7783629144
 20
21.6411427568
 10
-28.6872021549
 20
21.713111411
  0
LWPOLYLINE
  5
290
100
AcDbEntity
  8
RACCORDO
100
AcDbPolyline
 62
250
  6
CONTINUOUS
 90
4
 70
0
 10
-29.8752445154
 20
22.0018550188
 10
-29.7787363562
 20
22.0319997737
 10
-29.6872568448
 20
22.0691665349
 10
-29.6018242613
 20
22.1129415903
  0
LWPOLYLINE
  5
291
100
AcDbEntity
  8
RACCORDO
100
AcDbPolyline
 62
250
  6
CONTINUOUS
 90
27
 70
0
 10
3.1426367557
 20
-35.8807943453
 10
3.2752465811
 20
-35.9611906297
 10
3.4415456483
 20
-36.0527593231
 10
3.6038658633
 20
-36.1319500781
 10
3.7616046581
 20
-36.1988881868
 10
3.9139872399
 20
-36.2536933487
 10
4.0606886383
 20
-36.2967317859
 10
4.2013568929
 20
-36.3283871322
 10
4.3352940815
 20
-36.3490196685
 10
4.4602726795
 20
-36.3590743362
 10
4.5783819982
 20
-36.3595588075
 10
4.6949036039
 20
-36.350493219
 10
4.8104580557
 20
-36.3308964489
 10
4.9228525169
 20
-36.3001240842
 10
5.0323129967
 20
-36.2571189227
 10
5.1390176241
 20
-36.2002714797
 10
5.2404649849
 20
-36.1290744104
 10
5.3332351415
 20
-36.0448089686
 10
5.4171280132
 20
-35.9472164151
 10
5.4912478996
 20
-35.8367929666
 10
5.5528933451
 20
-35.7182551421
 10
5.6022044346
 20
-35.5945060083
 10
5.6406714336
 20
-35.4657477747
 10
5.6689036725
 20
-35.3339473165
 10
5.6877733509
 20
-35.2006608419
 10
5.6982617417
 20
-35.0668929585
 10
5.7012764042
 20
-34.933747118
  0
LWPOLYLINE
  5
292
100
AcDbEntity
  8
RACCORDO
100
AcDbPolyline
 62
250
  6
CONTINUOUS
 90
13
 70
0
 10
2.5655737233
 20
-34.0230269655
 10
2.6627658341
 20
-34.0833858214
 10
2.7701634577
 20
-34.1343683667
 10
2.8859695429
 20
-34.1751215262
 10
3.0082463425
 20
-34.2049633899
 10
3.1349478368
 20
-34.2233946233
 10
3.263953969
 20
-34.2301068222
 10
3.3931061197
 20
-34.2249876735
 10
3.5202432259
 20
-34.2081228343
 10
3.643237942
 20
-34.1797944988
 10
3.7600322356
 20
-34.1404766761
 10
3.8686718241
 20
-34.0908272591
 10
3.967338875
 20
-34.0316770163
  0
LINE
  5
293
100
AcDbEntity
  8
RACCORDO
100
AcDbLine
 62
7
  6
CONTINUOUS
 10
3.1378457052
 20
-35.8777686811
 11
3.1426367557
 21
-35.8807943453
  0
LINE
  5
294
100
AcDbEntity
  8
0
100
AcDbLine
 62
7
  6
CONTINUOUS
 10
5.0333639768
 20
-39.6138228666
 11
5.003870166
 21
-39.5947886958
  0
LWPOLYLINE
  5
295
100
AcDbEntity
  8
0
100
AcDbPolyline
 62
7
  6
CONTINUOUS
 90
9
 70
0
 10
4.8624295639
 20
-39.6948023046
 10
4.8917639497
 20
-39.7137411478
 10
4.9211079765
 20
-39.7292208179
 10
4.950012962
 20
-39.7408319635
 10
4.9781202631
 20
-39.7482267255
 10
5.0047956252
 20
-39.7510185094
 10
5.0292260715
 20
-39.7490020368
 10
5.0509371915
 20
-39.7422112007
 10
5.0653338865
 20
-39.7339836469
  0
LINE
  5
296
100
AcDbEntity
  8
0
100
AcDbLine
 62
7
  6
CONTINUOUS
 10
3.1423678223
 20
-35.8806240746
 11
2.9211468361
 21
-35.7326523741
  0
LWPOLYLINE
  5
297
100
AcDbEntity
  8
RACCORDO
100
AcDbPolyline
 62
250
  6
CONTINUOUS
 90
22
 70
0
 10
2.0135728648
 20
-34.1847042737
 10
2.0550132074
 20
-34.212418591
 10
2.0958041532
 20
-34.2366835741
 10
2.1359457021
 20
-34.2574992231
 10
2.1756501874
 20
-34.2749504321
 10
2.2147052759
 20
-34.288952307
 10
2.252473968
 20
-34.299250165
 10
2.2889555225
 20
-34.3057840585
 10
2.3241506807
 20
-34.308613935
 10
2.3574246663
 20
-34.3076649546
 10
2.3887295916
 20
-34.3028664867
 10
2.4181133443
 20
-34.294289162
 10
2.4450848121
 20
-34.282070032
 10
2.4696069999
 20
-34.2661403971
 10
2.4917169028
 20
-34.246568957
 10
2.5110343942
 20
-34.2236988624
 10
2.5275055325
 20
-34.1974543447
 10
2.5411842592
 20
-34.1679111725
 10
2.5518522719
 20
-34.1356398028
 10
2.5594368031
 20
-34.1008303878
 10
2.5640106202
 20
-34.0632927754
 10
2.5655737233
 20
-34.0230269655
  0
LWPOLYLINE
  5
298
100
AcDbEntity
  8
RACCORDO
100
AcDbPolyline
 62
250
  6
CONTINUOUS
 90
19
 70
0
 10
3.3601054607
 20
-36.7204376118
 10
3.6122402272
 20
-36.8941548954
 10
3.8598627442
 20
-37.0487063998
 10
4.1020596223
 20
-37.1840729863
 10
4.3383281462
 20
-37.3009517107
 10
4.5682099717
 20
-37.3995434336
 10
4.7910102762
 20
-37.4793410598
 10
5.0060588427
 20
-37.5402792501
 10
5.2120837084
 20
-37.5830825168
 10
5.4073673882
 20
-37.6086602125
 10
5.5883660675
 20
-37.6176088844
 10
5.7580937088
 20
-37.611524305
 10
5.9241775884
 20
-37.5913143228
 10
6.0874080815
 20
-37.5558701841
 10
6.2451328026
 20
-37.5043901371
 10
6.3986517229
 20
-37.4358375652
 10
6.5485945892
 20
-37.3478142065
 10
6.6914857321
 20
-37.2395368393
 10
6.8229072897
 20
-37.112977673
  0
LINE
  5
299
100
AcDbEntity
  8
0
100
AcDbLine
 62
7
  6
CONTINUOUS
 10
5.6323989097
 20
-41.3658188782
 11
5.2707029243
 21
-41.1142440296
  0
LINE
  5
29A
100
AcDbEntity
  8
0
100
AcDbLine
 62
7
  6
CONTINUOUS
 10
5.2707029243
 20
-41.1142440296
 11
5.1669681811
 21
-41.0416280524
  0
LINE
  5
29B
100
AcDbEntity
  8
RACCORDO
100
AcDbLine
 62
250
  6
CONTINUOUS
 10
-28.0433452662
 20
-14.5148265975
 11
-27.4499816936
 21
-14.9298338275
  0
LINE
  5
29C
100
AcDbEntity
  8
0
100
AcDbLine
 62
7
  6
CONTINUOUS
 10
5.051834001
 20
-38.7629736225
 11
4.6290839437
 21
-38.4653067076
  0
LINE
  5
29D
100
AcDbEntity
  8
0
100
AcDbLine
 62
7
  6
CONTINUOUS
 10
1.9981236809
 20
-38.7857721438
 11
2.4082609891
 21
-39.0757776151
  0
LINE
  5
29E
100
AcDbEntity
  8
0
100
AcDbLine
 62
7
  6
CONTINUOUS
 10
0.5166713348
 20
-37.7382271438
 11
0.9267980363
 21
-38.0282251151
  0
LINE
  5
29F
100
AcDbEntity
  8
0
100
AcDbLine
 62
7
  6
CONTINUOUS
 10
-1.1014907566
 20
-36.5940184814
 11
-0.6913534258
 21
-36.8840246438
  0
LINE
  5
2A0
100
AcDbEntity
  8
0
100
AcDbLine
 62
7
  6
CONTINUOUS
 10
-2.4434761897
 20
-35.6450914814
 11
-2.0333233025
 21
-35.9351086438
  0
LINE
  5
2A1
100
AcDbEntity
  8
0
100
AcDbLine
 62
7
  6
CONTINUOUS
 10
-0.2812265429
 20
-37.1740281438
 11
0.1289109465
 21
-37.4640391438
  0
LINE
  5
2A2
100
AcDbEntity
  8
0
100
AcDbLine
 62
7
  6
CONTINUOUS
 10
1.3145635556
 20
-38.3024221438
 11
1.7247003379
 21
-38.5924326438
  0
LINE
  5
2A3
100
AcDbEntity
  8
0
100
AcDbLine
 62
7
  6
CONTINUOUS
 10
-3.1443398971
 20
-33.1588377154
 11
-2.7341974579
 21
-33.4488522154
  0
LINE
  5
2A4
100
AcDbEntity
  8
0
100
AcDbLine
 62
7
  6
CONTINUOUS
 10
-1.827504838
 20
-34.0899807154
 11
-1.4173623988
 21
-34.3799952154
  0
LINE
  5
2A5
100
AcDbEntity
  8
0
100
AcDbLine
 62
7
  6
CONTINUOUS
 10
-1.1439390558
 20
-34.5733347154
 11
-0.7338022734
 21
-34.8633452154
  0
LINE
  5
2A6
100
AcDbEntity
  8
0
100
AcDbLine
 62
7
  6
CONTINUOUS
 10
-0.3236803403
 20
-35.1533452154
 11
0.2963370484
 21
-35.5917637154
  0
LINE
  5
2A7
100
AcDbEntity
  8
0
100
AcDbLine
 62
7
  6
CONTINUOUS
 10
1.0622298589
 20
-36.1333317154
 11
1.6822465405
 21
-36.5717497154
  0
LINE
  5
2A8
100
AcDbEntity
  8
0
100
AcDbLine
 62
7
  6
CONTINUOUS
 10
-3.0029123265
 20
-33.0588333212
 11
-2.5927698873
 21
-33.3488478212
  0
LINE
  5
2A9
100
AcDbEntity
  8
0
100
AcDbLine
 62
7
  6
CONTINUOUS
 10
-1.6860772674
 20
-33.9899763212
 11
-1.2759348282
 21
-34.2799908212
  0
LINE
  5
2AA
100
AcDbEntity
  8
0
100
AcDbLine
 62
7
  6
CONTINUOUS
 10
-1.0025114852
 20
-34.4733303212
 11
-0.5923747028
 21
-34.7633408212
  0
LINE
  5
2AB
100
AcDbEntity
  8
0
100
AcDbLine
 62
7
  6
CONTINUOUS
 10
-0.1822527698
 20
-35.0533408212
 11
0.4377646189
 21
-35.4917593212
  0
LINE
  5
2AC
100
AcDbEntity
  8
0
100
AcDbLine
 62
7
  6
CONTINUOUS
 10
1.2036574295
 20
-36.0333273212
 11
1.8236741111
 21
-36.4717453212
  0
LINE
  5
2AD
100
AcDbEntity
  8
RACCORDO
100
AcDbLine
 62
250
  6
CONTINUOUS
 10
-27.4499816936
 20
-14.9298338275
 11
2.4855423432
 21
-36.0969486459
  0
LINE
  5
2AE
100
AcDbEntity
  8
0
100
AcDbLine
 62
7
  6
CONTINUOUS
 10
2.9211468361
 20
-35.7326523741
 11
-28.4743942486
 21
-13.5326523741
  0
LINE
  5
2AF
100
AcDbEntity
  8
RACCORDO
100
AcDbLine
 62
7
  6
CONTINUOUS
 10
-29.2522117079
 20
-12.3012008547
 11
2.1433293279
 21
-34.5012008201
  0
LINE
  5
2B0
100
AcDbEntity
  8
0
100
AcDbLine
 62
7
  6
CONTINUOUS
 10
4.3787791865
 20
-38.4882633903
 11
4.9104098871
 21
-38.8629755725
  0
LWPOLYLINE
  5
2B1
100
AcDbEntity
  8
0
100
AcDbPolyline
 62
7
  6
CONTINUOUS
 90
3
 70
0
 10
4.8559489352
 20
-39.2003576253
 10
4.4113708101
 20
-38.8866241271
 10
4.3565886076
 20
-38.8477756992
  0
LWPOLYLINE
  5
2B2
100
AcDbEntity
  8
0
100
AcDbPolyline
 62
7
  6
CONTINUOUS
 90
3
 70
0
 10
5.0038701891
 20
-39.5947872652
 10
4.5872505796
 20
-39.3004065857
 10
4.5049182525
 20
-39.2419235631
  0
LWPOLYLINE
  5
2B3
100
AcDbEntity
  8
0
100
AcDbPolyline
 62
7
  6
CONTINUOUS
 90
3
 70
0
 10
4.3634756519
 20
-39.3419385851
 10
4.4183464563
 20
-39.380921142
 10
4.862429587
 20
-39.6948008741
  0
LINE
  5
2B4
100
AcDbEntity
  8
0
100
AcDbLine
 62
7
  6
CONTINUOUS
 10
4.7340830384
 20
-39.9735558832
 11
4.3766160637
 21
-39.7200872553
  0
LINE
  5
2B5
100
AcDbEntity
  8
0
100
AcDbLine
 62
7
  6
CONTINUOUS
 10
3.9501378127
 20
-38.1837764681
 11
4.3787791865
 21
-38.4882633903
  0
LINE
  5
2B6
100
AcDbEntity
  8
0
100
AcDbLine
 62
7
  6
CONTINUOUS
 10
4.6290839437
 20
-38.4653067076
 11
4.0915626766
 21
-38.0837739878
  0
LINE
  5
2B7
100
AcDbEntity
  8
0
100
AcDbLine
 62
7
  6
CONTINUOUS
 10
2.9655236911
 20
-38.5092784319
 11
2.782027832
 21
-38.3786053569
  0
LINE
  5
2B8
100
AcDbEntity
  8
0
100
AcDbLine
 62
7
  6
CONTINUOUS
 10
2.6138261129
 20
-37.2308225328
 11
3.0226265026
 21
-37.5218080051
  0
LINE
  5
2B9
100
AcDbEntity
  8
0
100
AcDbLine
 62
7
  6
CONTINUOUS
 10
3.164054268
 20
-37.4218034731
 11
2.7552537048
 21
-37.1308181235
  0
LINE
  5
2BA
100
AcDbEntity
  8
RACCORDO
100
AcDbLine
 62
250
  6
CONTINUOUS
 10
2.4852007691
 20
-36.096723894
 11
2.9628857214
 21
-36.4360714666
  0
LINE
  5
2BB
100
AcDbEntity
  8
0
100
AcDbLine
 62
7
  6
CONTINUOUS
 10
2.6405674518
 20
-38.478632951
 11
3.0363644862
 21
-38.7609561839
  0
LINE
  5
2BC
100
AcDbEntity
  8
0
100
AcDbLine
 62
7
  6
CONTINUOUS
 10
4.3980295199
 20
-40.497799794
 11
3.9900249002
 21
-40.2062736274
  0
LINE
  5
2BD
100
AcDbEntity
  8
0
100
AcDbLine
 62
7
  6
CONTINUOUS
 10
3.1706069441
 20
-39.2325928244
 11
2.5256345352
 21
-38.7726121884
  0
LINE
  5
2BE
100
AcDbEntity
  8
RACCORDO
100
AcDbLine
 62
250
  6
CONTINUOUS
 10
2.9628857214
 20
-36.4360714666
 11
3.3601177353
 21
-36.7204289938
  0
LINE
  5
2BF
100
AcDbEntity
  8
0
100
AcDbLine
 62
7
  6
CONTINUOUS
 10
3.7184438992
 20
-40.0116370517
 11
3.311254288
 21
-39.7195289301
  0
LWPOLYLINE
  5
2C0
100
AcDbEntity
  8
0
100
AcDbPolyline
 62
7
  6
CONTINUOUS
 90
28
 70
0
 10
4.9104098932
 20
-38.8629742338
 10
4.960081792
 20
-38.8997087452
 10
5.0092234888
 20
-38.9398515378
 10
5.0575431429
 20
-38.9830988515
 10
5.1045702314
 20
-39.0289374856
 10
5.1502431829
 20
-39.0772185127
 10
5.1948574283
 20
-39.1282676246
 10
5.2381833703
 20
-39.1819124037
 10
5.2798517102
 20
-39.2377892441
 10
5.3198506952
 20
-39.2960345442
 10
5.3579147882
 20
-39.3564810533
 10
5.3935812234
 20
-39.4186381404
 10
5.4264830579
 20
-39.4821376438
 10
5.456361782
 20
-39.5467895028
 10
5.4827200088
 20
-39.6118785351
 10
5.5049707233
 20
-39.6762155986
 10
5.5228932151
 20
-39.7392016613
 10
5.5363690611
 20
-39.8004691433
 10
5.5452160027
 20
-39.8592372959
 10
5.5494072146
 20
-39.9149549187
 10
5.5489860315
 20
-39.9673844026
 10
5.5439742696
 20
-40.0162713012
 10
5.534422131
 20
-40.0612758401
 10
5.5204173506
 20
-40.1020695707
 10
5.5020401367
 20
-40.1384210123
 10
5.47941044
 20
-40.1700684031
 10
5.4526967921
 20
-40.1967557689
 10
5.43832285
 20
-40.2078527253
  0
LWPOLYLINE
  5
2C1
100
AcDbEntity
  8
0
100
AcDbPolyline
 62
7
  6
CONTINUOUS
 90
19
 70
0
 10
-28.4743942486
 20
-13.5326523741
 10
-28.6902939506
 20
-13.3718256575
 10
-28.9009537241
 20
-13.1988483434
 10
-29.1057753305
 20
-13.0148323113
 10
-29.3040662564
 20
-12.8209739288
 10
-29.4954809744
 20
-12.6181169215
 10
-29.6798693514
 20
-12.4067937164
 10
-29.8565856668
 20
-12.1880207668
 10
-30.0251024749
 20
-11.9626791145
 10
-30.185271221
 20
-11.731067951
 10
-30.3364632221
 20
-11.4940665505
 10
-30.4780417223
 20
-11.2525784571
 10
-30.6097279675
 20
-11.0068243827
 10
-30.7308672418
 20
-10.7575621866
 10
-30.8406964571
 20
-10.5057557523
 10
-30.9387029231
 20
-10.2517085572
 10
-31.0242930402
 20
-9.9955632833
 10
-31.0963423328
 20
-9.7388386921
 10
-31.1444855103
 20
-9.5295092433
  0
LWPOLYLINE
  5
2C2
100
AcDbEntity
  8
RACCORDO
100
AcDbPolyline
 62
7
  6
CONTINUOUS
 90
13
 70
0
 10
-29.2522117078
 20
-12.3012008547
 10
-29.3950661006
 20
-12.1905592604
 10
-29.5264488595
 20
-12.0704513797
 10
-29.6468423382
 20
-11.9425905755
 10
-29.7567007797
 20
-11.8081103701
 10
-29.8565476131
 20
-11.6673594889
 10
-29.9466826145
 20
-11.5201021128
 10
-30.0276296138
 20
-11.3643335036
 10
-30.0972087477
 20
-11.2019998513
 10
-30.1525023623
 20
-11.0383888276
 10
-30.192863316
 20
-10.8748319673
 10
-30.2180947214
 20
-10.7094160994
 10
-30.2268622972
 20
-10.5423797893
  0
LWPOLYLINE
  5
2C3
100
AcDbEntity
  8
RACCORDO
100
AcDbPolyline
 62
250
  6
CONTINUOUS
 90
7
 70
0
 10
-29.9339690784
 20
-11.042379865
 10
-30.0193276214
 20
-10.9736562747
 10
-30.0914269667
 20
-10.8977162494
 10
-30.1490605602
 20
-10.8158303377
 10
-30.191263872
 20
-10.7293685928
 10
-30.2173305246
 20
-10.6397776859
 10
-30.2268622972
 20
-10.5423798138
  0
LINE
  5
2C4
100
AcDbEntity
  8
RACCORDO
100
AcDbLine
 62
250
  6
CONTINUOUS
 10
-28.4743942486
 20
-13.5326523741
 11
-28.5044258333
 21
-13.5076993997
  0
LWPOLYLINE
  5
2C5
100
AcDbEntity
  8
RACCORDO
100
AcDbPolyline
 62
250
  6
CONTINUOUS
 90
11
 70
0
 10
-28.5044258333
 20
-13.5076993997
 10
-28.539151033
 20
-13.4663334239
 10
-28.5667470494
 20
-13.4166386381
 10
-28.5869075467
 20
-13.3591669253
 10
-28.5994087973
 20
-13.2945563883
 10
-28.6041120828
 20
-13.2235241919
 10
-28.6009651777
 20
-13.1468588831
 10
-28.5900030112
 20
-13.0654117078
 10
-28.5713472905
 20
-12.9800869306
 10
-28.5452051401
 20
-12.8918318668
 10
-28.5186286837
 20
-12.8199223856
  0
LWPOLYLINE
  5
2C6
100
AcDbEntity
  8
RACCORDO
100
AcDbPolyline
 62
250
  6
CONTINUOUS
 90
7
 70
0
 10
-26.7015143355
 20
-24.1564982248
 10
-26.6911463094
 20
-24.2166676168
 10
-26.6743151494
 20
-24.2709519549
 10
-26.6511778444
 20
-24.3188449046
 10
-26.6219502037
 20
-24.3598997473
 10
-26.5869048441
 20
-24.3937335466
 10
-26.575686478
 20
-24.4021565789
  0
LINE
  5
2C7
100
AcDbEntity
  8
RACCORDO
100
AcDbLine
 62
7
  6
CONTINUOUS
 10
-34.9783069128
 20
49.6964545469
 11
-34.9749571062
 21
49.6749095884
  0
LINE
  5
2C8
100
AcDbEntity
  8
RACCORDO
100
AcDbLine
 62
7
  6
CONTINUOUS
 10
-34.981388224
 20
49.7168780017
 11
-34.9783069128
 21
49.6964545469
  0
LINE
  5
2C9
100
AcDbEntity
  8
RACCORDO
100
AcDbLine
 62
7
  6
CONTINUOUS
 10
-34.9842115848
 20
49.7362217124
 11
-34.981388224
 21
49.7168780017
  0
LINE
  5
2CA
100
AcDbEntity
  8
RACCORDO
100
AcDbLine
 62
7
  6
CONTINUOUS
 10
-34.9867876348
 20
49.7545333938
 11
-34.9842115848
 21
49.7362217124
  0
LWPOLYLINE
  5
2CB
100
AcDbEntity
  8
RACCORDO
100
AcDbPolyline
 62
250
  6
CONTINUOUS
 90
12
 70
0
 10
-34.9195946985
 20
49.6816062933
 10
-34.9225826437
 20
49.7033030512
 10
-34.9251120498
 20
49.723329134
 10
-34.9271969146
 20
49.7416612217
 10
-34.9288446777
 20
49.7582688862
 10
-34.9300006868
 20
49.7730782135
 10
-34.9306779224
 20
49.786065527
 10
-34.9308827606
 20
49.7971997052
 10
-34.9305490721
 20
49.8063967255
 10
-34.9296878199
 20
49.8136333749
 10
-34.9283035763
 20
49.8188792361
 10
-34.928284957
 20
49.8189088919
  0
LINE
  5
2CC
100
AcDbEntity
  8
RACCORDO
100
AcDbLine
 62
7
  6
CONTINUOUS
 10
-34.9891262104
 20
49.7718586456
 11
-34.9867876348
 21
49.7545333938
  0
LINE
  5
2CD
100
AcDbEntity
  8
RACCORDO
100
AcDbLine
 62
7
  6
CONTINUOUS
 10
-34.9912364016
 20
49.7882409067
 11
-34.9891262104
 21
49.7718586456
  0
LINE
  5
2CE
100
AcDbEntity
  8
RACCORDO
100
AcDbLine
 62
7
  6
CONTINUOUS
 10
-34.9931274048
 20
49.8037287861
 11
-34.9912364016
 21
49.7882409067
  0
LINE
  5
2CF
100
AcDbEntity
  8
RACCORDO
100
AcDbLine
 62
7
  6
CONTINUOUS
 10
-34.9948083735
 20
49.8183794655
 11
-34.9931274048
 21
49.8037287861
  0
LWPOLYLINE
  5
2D0
100
AcDbEntity
  8
RACCORDO
100
AcDbPolyline
 62
250
  6
CONTINUOUS
 90
10
 70
0
 10
7.3520079311
 20
-35.4766356087
 10
7.1964560423
 20
-35.3818529273
 10
7.0320099365
 20
-35.2948702454
 10
6.8594446348
 20
-35.2160975054
 10
6.6795734235
 20
-35.1459059569
 10
6.493244021
 20
-35.084626407
 10
6.3013345827
 20
-35.0325476612
 10
6.1047495623
 20
-34.9899151626
 10
5.9044154489
 20
-34.9569298347
 10
5.7012764011
 20
-34.9337471347
  0
LINE
  5
2D1
100
AcDbEntity
  8
RACCORDO
100
AcDbLine
 62
250
  6
CONTINUOUS
 10
-29.3819682199
 20
-11.9847042737
 11
2.0135728648
 21
-34.1847042737
  0
LWPOLYLINE
  5
2D2
100
AcDbEntity
  8
RACCORDO
100
AcDbPolyline
 62
250
  6
CONTINUOUS
 90
10
 70
0
 10
-31.9991451489
 20
-7.6511794629
 10
-31.8641655179
 20
-7.7618312738
 10
-31.7401766218
 20
-7.8788007334
 10
-31.6277628163
 20
-8.001536569
 10
-31.5274539039
 20
-8.1294603311
 10
-31.4397226373
 20
-8.2619691199
 10
-31.3649824909
 20
-8.3984384264
 10
-31.3035857127
 20
-8.5382250759
 10
-31.2558216637
 20
-8.6806702592
 10
-31.2219154543
 20
-8.8251026376
  0
LINE
  5
2D3
100
AcDbEntity
  8
RACCORDO
100
AcDbLine
 62
250
  6
CONTINUOUS
 10
2.9211468361
 20
-35.7326523741
 11
2.8911149806
 21
-35.7076991369
  0
LINE
  5
2D4
100
AcDbEntity
  8
RACCORDO
100
AcDbLine
 62
250
  6
CONTINUOUS
 10
3.0978723143
 20
-35.8804064979
 11
3.0198204594
 21
-35.8041448841
  0
LWPOLYLINE
  5
2D5
100
AcDbEntity
  8
RACCORDO
100
AcDbPolyline
 62
250
  6
CONTINUOUS
 90
10
 70
0
 10
-40.9635199971
 20
16.7973637834
 10
-40.1779071177
 20
15.7326223136
 10
-39.3389736923
 20
14.6885950205
 10
-38.4477495645
 20
13.666543113
 10
-37.5052573111
 20
12.6676433773
 10
-36.5126945743
 20
11.6931838174
 10
-35.4714630358
 20
10.7445429692
 10
-34.3829082349
 20
9.8229349658
 10
-33.2482899695
 20
8.929426556
 10
-32.0689860991
 20
8.0651173213
  0
LWPOLYLINE
  5
2D6
100
AcDbEntity
  8
RACCORDO
100
AcDbPolyline
 62
250
  6
CONTINUOUS
 90
6
 70
0
 10
-40.9635202825
 20
16.7976916426
 10
-41.0045482995
 20
16.8641525446
 10
-41.0357390073
 20
16.9332325167
 10
-41.0567645081
 20
17.0042056318
 10
-41.0674037679
 20
17.0763260603
 10
-41.0687895275
 20
17.1127047772
  0
LWPOLYLINE
  5
2D7
100
AcDbEntity
  8
RACCORDO
100
AcDbPolyline
 62
250
  6
CONTINUOUS
 90
18
 70
0
 10
-31.2207731916
 20
22.5644715387
 10
-31.2006048609
 20
22.4912429562
 10
-31.1696378113
 20
22.4199247947
 10
-31.1282168872
 20
22.3513109048
 10
-31.0768033706
 20
22.2861651066
 10
-31.0159696321
 20
22.2252124105
 10
-30.9463926288
 20
22.1691310114
 10
-30.8688467225
 20
22.1185450959
 10
-30.7841951869
 20
22.0740178302
 10
-30.6933802981
 20
22.0360448579
 10
-30.5974129384
 20
22.005048865
 10
-30.4973613432
 20
21.9813748754
 10
-30.3943392104
 20
21.9652864099
 10
-30.289493304
 20
21.9569625529
 10
-30.1839906886
 20
21.9564959594
 10
-30.0790057388
 20
21.963891823
 10
-29.9757070671
 20
21.9790678187
 10
-29.8752445154
 20
22.0018550188
  0
LWPOLYLINE
  5
2D8
100
AcDbEntity
  8
RACCORDO
100
AcDbPolyline
 62
250
  6
CONTINUOUS
 90
6
 70
0
 10
-34.901066245
 20
49.5652088282
 10
-34.9034479874
 20
49.5790320395
 10
-34.9081088661
 20
49.6069774969
 10
-34.9123689604
 20
49.6334178108
 10
-34.916192779
 20
49.6583015566
 10
-34.9195946985
 20
49.6816062933
  0
LINE
  5
2D9
100
AcDbEntity
  8
RACCORDO
100
AcDbLine
 62
7
  6
CONTINUOUS
 10
-34.9694044751
 20
49.6403966409
 11
-34.9643354049
 21
49.6099468802
  0
LINE
  5
2DA
100
AcDbEntity
  8
RACCORDO
100
AcDbLine
 62
7
  6
CONTINUOUS
 10
-34.9749571062
 20
49.6749095884
 11
-34.9694044751
 21
49.6403966409
  0
LWPOLYLINE
  5
2DB
100
AcDbEntity
  8
RACCORDO
100
AcDbPolyline
 62
250
  6
CONTINUOUS
 90
13
 70
0
 10
-10.5987608854
 20
24.6563851557
 10
-10.5708044993
 20
24.7407172394
 10
-10.5365695457
 20
24.8263900377
 10
-10.4963949913
 20
24.9125553994
 10
-10.4506786056
 20
24.9983602967
 10
-10.3998730235
 20
25.0829552706
 10
-10.3444812636
 20
25.1655028405
 10
-10.2850517487
 20
25.2451857957
 10
-10.2221728759
 20
25.3212152853
 10
-10.1564671916
 20
25.3928386286
 10
-10.088585228
 20
25.4593467664
 10
-10.0191990631
 20
25.520081281
 10
-9.9489956666
 20
25.5744409145
  0
LWPOLYLINE
  5
2DC
100
AcDbEntity
  8
RACCORDO
100
AcDbPolyline
 62
250
  6
CONTINUOUS
 90
13
 70
0
 10
19.7369157008
 20
-26.1246554748
 10
19.830880589
 20
-26.1536491907
 10
19.9285526865
 20
-26.1756759711
 10
20.0289051967
 20
-26.1905045394
 10
20.1308831446
 20
-26.197979292
 10
20.2334144673
 20
-26.1980219336
 10
20.3354212846
 20
-26.1906323007
 10
20.4358312304
 20
-26.1758883632
 10
20.5335887256
 20
-26.1539454045
 10
20.627666076
 20
-26.1250343894
 10
20.7170742753
 20
-26.0894595361
 10
20.8008734027
 20
-26.0475951176
 10
20.8781825039
 20
-25.9998815275
  0
LWPOLYLINE
  5
2DD
100
AcDbEntity
  8
RACCORDO
100
AcDbPolyline
 62
250
  6
CONTINUOUS
 90
14
 70
0
 10
2.8911149806
 20
-35.7076991369
 10
2.8563896708
 20
-35.6663328672
 10
2.8287936687
 20
-35.6166378155
 10
2.8086332796
 20
-35.5591659592
 10
2.7961321642
 20
-35.4945554177
 10
2.7914289919
 20
-35.423523247
 10
2.7945759913
 20
-35.3468579391
 10
2.8055382377
 20
-35.2654107832
 10
2.8241940235
 20
-35.1800860422
 10
2.8503362237
 20
-35.0918310296
 10
2.8836745959
 20
-35.0016255918
 10
2.9238390027
 20
-34.9104712302
 10
2.9703835208
 20
-34.819379981
 10
2.9785525155
 20
-34.8053487536
  0
LWPOLYLINE
  5
2DE
100
AcDbEntity
  8
RACCORDO
100
AcDbPolyline
 62
250
  6
CONTINUOUS
 90
3
 70
0
 10
-34.850370534
 20
49.8382669002
 10
-34.8390040351
 20
49.8012254222
 10
-34.8133825832
 20
49.7197686575
  0
LINE
  5
2DF
100
AcDbEntity
  8
RACCORDO
100
AcDbLine
 62
250
  6
CONTINUOUS
 10
-34.9057693591
 20
50.0241352048
 11
-34.8937970956
 21
49.9845405425
  0
LWPOLYLINE
  5
2E0
100
AcDbEntity
  8
RACCORDO
100
AcDbPolyline
 62
250
  6
CONTINUOUS
 90
3
 70
0
 10
-34.8937970956
 20
49.9845405425
 10
-34.8789156834
 20
49.9340687441
 10
-34.850370534
 20
49.8382669002
  0
LWPOLYLINE
  5
2E1
100
AcDbEntity
  8
RACCORDO
100
AcDbPolyline
 62
250
  6
CONTINUOUS
 90
16
 70
0
 10
-10.5996561656
 20
24.6570182928
 10
-10.8501757343
 20
23.7776525296
 10
-11.0800656671
 20
22.9179784225
 10
-11.2892078849
 20
22.0779099344
 10
-11.4773875305
 20
21.2550469377
 10
-11.6446659609
 20
20.4515638125
 10
-11.7916834514
 20
19.6740009645
 10
-11.9182724753
 20
18.9230849139
 10
-12.0254817116
 20
18.1972864173
 10
-12.1158868701
 20
17.4992521435
 10
-12.1896729068
 20
16.8296614664
 10
-12.2473952701
 20
16.1863653765
 10
-12.2914115293
 20
15.5672430204
 10
-12.3221687493
 20
14.9708487051
 10
-12.3389136116
 20
14.3966932554
 10
-12.3416962808
 20
13.8438838707
  0
LWPOLYLINE
  5
2E2
100
AcDbEntity
  8
RACCORDO
100
AcDbPolyline
 62
250
  6
CONTINUOUS
 90
5
 70
0
 10
-34.7670338365
 20
49.5825960529
 10
-34.7493982093
 20
49.5338127858
 10
-34.7306047041
 20
49.4841055704
 10
-34.7107884146
 20
49.4333739606
 10
-34.6900114146
 20
49.3817050629
  0
LWPOLYLINE
  5
2E3
100
AcDbEntity
  8
RACCORDO
100
AcDbPolyline
 62
250
  6
CONTINUOUS
 90
4
 70
0
 10
-34.8133825832
 20
49.7197686575
 10
-34.7989786059
 20
49.6759094364
 10
-34.78351055
 20
49.6301691793
 10
-34.7670338365
 20
49.5825960529
  0
LWPOLYLINE
  5
2E4
100
AcDbEntity
  8
RACCORDO
100
AcDbPolyline
 62
250
  6
CONTINUOUS
 90
10
 70
0
 10
-12.3434355692
 20
13.8451132999
 10
-12.348885455
 20
13.6897550029
 10
-12.3651443502
 20
13.527530457
 10
-12.3921291508
 20
13.3592682893
 10
-12.4297019637
 20
13.185827968
 10
-12.4776708107
 20
13.0080954117
 10
-12.5357906093
 20
12.8269784643
 10
-12.603764425
 20
12.6434022579
 10
-12.6812449874
 20
12.4583044864
 10
-12.7678364645
 20
12.2726306163
  0
LWPOLYLINE
  5
2E5
100
AcDbEntity
  8
RACCORDO
100
AcDbPolyline
 62
250
  6
CONTINUOUS
 90
10
 70
0
 10
7.3876551215
 20
-19.8344262769
 10
7.2306850173
 20
-19.7311980409
 10
7.0636763025
 20
-19.6361708996
 10
6.887482457
 20
-19.5498301864
 10
6.7030039
 20
-19.4726168434
 10
6.5111833889
 20
-19.4049251683
 10
6.3130012015
 20
-19.3471007995
 10
6.1094701263
 20
-19.2994389494
 10
5.9016302864
 20
-19.2621828961
 10
5.6905438248
 20
-19.23552274
  0
LWPOLYLINE
  5
2E6
100
AcDbEntity
  8
RACCORDO
100
AcDbPolyline
 62
250
  6
CONTINUOUS
 90
13
 70
0
 10
7.3876551014
 20
-19.8349412344
 10
8.300442934
 20
-20.463271748
 10
9.2366899902
 20
-21.0739795813
 10
10.1957477921
 20
-21.6666470494
 10
11.1769869922
 20
-22.2408852828
 10
12.1797025225
 20
-22.7962815225
 10
13.2031134044
 20
-23.3324038427
 10
14.2465117957
 20
-23.8488846179
 10
15.3091855144
 20
-24.345371048
 10
16.3903175407
 20
-24.8214809188
 10
17.4891351509
 20
-25.2768765171
 10
18.6049219572
 20
-25.711258557
 10
19.7369182643
 20
-26.1243272009
  0
LWPOLYLINE
  5
2E7
100
AcDbEntity
  8
RACCORDO
100
AcDbPolyline
 62
250
  6
CONTINUOUS
 90
10
 70
0
 10
-32.0689863116
 20
8.0646016975
 10
-31.9228565964
 20
7.9535931109
 10
-31.788314423
 20
7.8354881909
 10
-31.6660473544
 20
7.7108902067
 10
-31.5566802229
 20
7.5804356096
 10
-31.4607719373
 20
7.4447907806
 10
-31.3788126263
 20
7.3046486249
 10
-31.311221134
 20
7.1607250306
 10
-31.2583428793
 20
7.0137552108
 10
-31.2204480907
 20
6.8644899456
  0
LINE
  5
2E8
100
AcDbEntity
  8
0
100
AcDbLine
 62
7
  6
CONTINUOUS
 10
5.7738941525
 20
-41.2657666326
 11
5.5655002797
 21
-40.7583651756
  0
LINE
  5
2E9
100
AcDbEntity
  8
0
100
AcDbLine
 62
7
  6
CONTINUOUS
 10
5.4240189807
 20
-40.85838441
 11
5.6323989097
 21
-41.3658188782
  0
LINE
  5
2EA
100
AcDbEntity
  8
0
100
AcDbLine
 62
7
  6
CONTINUOUS
 10
5.1669681811
 20
-41.0416280524
 11
4.9712260249
 21
-40.5622625676
  0
LINE
  5
2EB
100
AcDbEntity
  8
0
100
AcDbLine
 62
7
  6
CONTINUOUS
 10
5.5655002797
 20
-40.7583651756
 11
5.3622803847
 21
-40.2569525615
  0
LWPOLYLINE
  5
2EC
100
AcDbEntity
  8
0
100
AcDbPolyline
 62
7
  6
CONTINUOUS
 90
3
 70
0
 10
5.1708239347
 20
-40.2325644625
 10
5.2208209461
 20
-40.3569702788
 10
5.4240189807
 20
-40.85838441
  0
LWPOLYLINE
  5
2ED
100
AcDbEntity
  8
0
100
AcDbPolyline
 62
7
  6
CONTINUOUS
 90
3
 70
0
 10
4.9712260249
 20
-40.5622625676
 10
4.7808482683
 20
-40.0903581778
 10
4.7340830384
 20
-39.9735558832
  0
LINE
  5
2EE
100
AcDbEntity
  8
0
100
AcDbLine
 62
7
  6
CONTINUOUS
 10
-2.4434761897
 20
-35.6450914814
 11
-2.6031949103
 21
-35.0955998939
  0
LINE
  5
2EF
100
AcDbEntity
  8
0
100
AcDbLine
 62
7
  6
CONTINUOUS
 10
-2.6031949103
 20
-35.0955998939
 11
-2.7606466121
 21
-34.5443812228
  0
LINE
  5
2F0
100
AcDbEntity
  8
0
100
AcDbLine
 62
7
  6
CONTINUOUS
 10
-2.4182224134
 20
-34.5943119335
 11
-2.2566035542
 21
-35.1642937374
  0
LINE
  5
2F1
100
AcDbEntity
  8
0
100
AcDbLine
 62
7
  6
CONTINUOUS
 10
-2.1580227283
 20
-34.9139532253
 11
-2.2767733524
 21
-34.4942924297
  0
LINE
  5
2F2
100
AcDbEntity
  8
0
100
AcDbLine
 62
7
  6
CONTINUOUS
 10
-2.7606466121
 20
-34.5443812228
 11
-2.9158297671
 21
-33.9914405574
  0
LINE
  5
2F3
100
AcDbEntity
  8
0
100
AcDbLine
 62
7
  6
CONTINUOUS
 10
-2.2767733524
 20
-34.4942924297
 11
-2.4359856266
 21
-33.9224821225
  0
LINE
  5
2F4
100
AcDbEntity
  8
0
100
AcDbLine
 62
7
  6
CONTINUOUS
 10
-2.5774219926
 20
-34.0224928332
 11
-2.4182224134
 21
-34.5943119335
  0
LWPOLYLINE
  5
2F5
100
AcDbEntity
  8
0
100
AcDbPolyline
 62
7
  6
CONTINUOUS
 90
3
 70
0
 10
-2.9158297671
 20
-33.9914405574
 10
-3.0687382637
 20
-33.4367982538
 10
-3.1443398971
 20
-33.1588377154
  0
LINE
  5
2F6
100
AcDbEntity
  8
0
100
AcDbLine
 62
7
  6
CONTINUOUS
 10
-2.7341974579
 20
-33.4488522154
 11
-2.5774219926
 21
-34.0224928332
  0
LINE
  5
2F7
100
AcDbEntity
  8
0
100
AcDbLine
 62
7
  6
CONTINUOUS
 10
-2.4359856266
 20
-33.9224821225
 11
-2.5927698873
 21
-33.3488478212
  0
LINE
  5
2F8
100
AcDbEntity
  8
0
100
AcDbLine
 62
7
  6
CONTINUOUS
 10
0.5166713348
 20
-37.7382271438
 11
0.3741210797
 21
-37.2055698411
  0
LINE
  5
2F9
100
AcDbEntity
  8
0
100
AcDbLine
 62
7
  6
CONTINUOUS
 10
0.3741210797
 20
-37.2055698411
 11
0.2337941731
 21
-36.67123145
  0
LWPOLYLINE
  5
2FA
100
AcDbEntity
  8
0
100
AcDbPolyline
 62
7
  6
CONTINUOUS
 90
3
 70
0
 10
0.5191009532
 20
-36.4771685814
 10
0.5643770251
 20
-36.6537060197
 10
0.7016495363
 20
-37.182223164
  0
LINE
  5
2FB
100
AcDbEntity
  8
0
100
AcDbLine
 62
7
  6
CONTINUOUS
 10
0.2337941731
 20
-36.67123145
 11
0.095694367
 21
-36.1352261056
  0
LINE
  5
2FC
100
AcDbEntity
  8
0
100
AcDbLine
 62
7
  6
CONTINUOUS
 10
-5.9767337626
 20
28.6064451558
 11
-5.9767337626
 21
28.4992387971
  0
LWPOLYLINE
  5
2FD
100
AcDbEntity
  8
RACCORDO
100
AcDbPolyline
 62
250
  6
CONTINUOUS
 90
7
 70
0
 10
-40.5306010411
 20
44.3395894841
 10
-40.578840878
 20
44.4049177302
 10
-40.6165798316
 20
44.4727775794
 10
-40.6433841094
 20
44.5423890109
 10
-40.6589456082
 20
44.6129518703
 10
-40.6630854557
 20
44.6836550669
 10
-40.6615849961
 20
44.7111441513
  0
LINE
  5
2FE
100
AcDbEntity
  8
RACCORDO
100
AcDbLine
 62
7
  6
CONTINUOUS
 10
-34.7093232531
 20
49.4135797419
 11
-34.6975964017
 21
49.3941329694
  0
LINE
  5
2FF
100
AcDbEntity
  8
RACCORDO
100
AcDbLine
 62
7
  6
CONTINUOUS
 10
-34.7206261782
 20
49.4325942307
 11
-34.7093232531
 21
49.4135797419
  0
LWPOLYLINE
  5
300
100
AcDbEntity
  8
0
100
AcDbPolyline
 62
7
  6
CONTINUOUS
 90
6
 70
0
 10
-35.086903942
 20
49.6277674342
 10
-35.1140660365
 20
49.6737078924
 10
-35.1364857036
 20
49.7107047197
 10
-35.1547445618
 20
49.7379811174
 10
-35.1682829249
 20
49.7539212526
 10
-35.1707121628
 20
49.7558772848
  0
LINE
  5
301
100
AcDbEntity
  8
RACCORDO
100
AcDbLine
 62
7
  6
CONTINUOUS
 10
-34.7315211326
 20
49.4511764597
 11
-34.7206261782
 21
49.4325942307
  0
LINE
  5
302
100
AcDbEntity
  8
RACCORDO
100
AcDbLine
 62
7
  6
CONTINUOUS
 10
-34.7420240438
 20
49.4693270028
 11
-34.7315211326
 21
49.4511764597
  0
LINE
  5
303
100
AcDbEntity
  8
RACCORDO
100
AcDbLine
 62
7
  6
CONTINUOUS
 10
-34.9331080917
 20
49.8273780095
 11
-34.9306481518
 21
49.8230963304
  0
LINE
  5
304
100
AcDbEntity
  8
RACCORDO
100
AcDbLine
 62
7
  6
CONTINUOUS
 10
-34.7521501777
 20
49.4870459013
 11
-34.7420240438
 21
49.4693270028
  0
LINE
  5
305
100
AcDbEntity
  8
RACCORDO
100
AcDbLine
 62
7
  6
CONTINUOUS
 10
-34.7619146132
 20
49.5043334757
 11
-34.7521501777
 21
49.4870459013
  0
LINE
  5
306
100
AcDbEntity
  8
RACCORDO
100
AcDbLine
 62
7
  6
CONTINUOUS
 10
-34.9306481518
 20
49.8230963304
 11
-34.9279720958
 21
49.818351861
  0
LINE
  5
307
100
AcDbEntity
  8
RACCORDO
100
AcDbLine
 62
7
  6
CONTINUOUS
 10
-34.7713319187
 20
49.5211906848
 11
-34.7619146132
 21
49.5043334757
  0
LINE
  5
308
100
AcDbEntity
  8
RACCORDO
100
AcDbLine
 62
7
  6
CONTINUOUS
 10
-34.9279720958
 20
49.818351861
 11
-34.9250894292
 21
49.8131576161
  0
LINE
  5
309
100
AcDbEntity
  8
RACCORDO
100
AcDbLine
 62
7
  6
CONTINUOUS
 10
-34.7848336215
 20
49.5456721891
 11
-34.7713319187
 21
49.5211906848
  0
LINE
  5
30A
100
AcDbEntity
  8
RACCORDO
100
AcDbLine
 62
7
  6
CONTINUOUS
 10
-34.9250894292
 20
49.8131576161
 11
-34.9220053807
 21
49.8075209011
  0
LINE
  5
30B
100
AcDbEntity
  8
RACCORDO
100
AcDbLine
 62
7
  6
CONTINUOUS
 10
-34.7976182835
 20
49.5691885099
 11
-34.7848336215
 21
49.5456721891
  0
LINE
  5
30C
100
AcDbEntity
  8
RACCORDO
100
AcDbLine
 62
7
  6
CONTINUOUS
 10
-34.9220053807
 20
49.8075209011
 11
-34.9187255195
 21
49.8014511749
  0
LINE
  5
30D
100
AcDbEntity
  8
RACCORDO
100
AcDbLine
 62
7
  6
CONTINUOUS
 10
-34.8097206866
 20
49.591739564
 11
-34.7976182835
 21
49.5691885099
  0
LINE
  5
30E
100
AcDbEntity
  8
RACCORDO
100
AcDbLine
 62
7
  6
CONTINUOUS
 10
-34.9187255195
 20
49.8014511749
 11
-34.9134445875
 21
49.7915470839
  0
LINE
  5
30F
100
AcDbEntity
  8
RACCORDO
100
AcDbLine
 62
7
  6
CONTINUOUS
 10
-34.8248533906
 20
49.620305835
 11
-34.8097206866
 21
49.591739564
  0
LINE
  5
310
100
AcDbEntity
  8
RACCORDO
100
AcDbLine
 62
7
  6
CONTINUOUS
 10
-34.9134445875
 20
49.7915470839
 11
-34.9077329505
 21
49.7806936829
  0
LINE
  5
311
100
AcDbEntity
  8
RACCORDO
100
AcDbLine
 62
7
  6
CONTINUOUS
 10
-34.8389087292
 20
49.6471649854
 11
-34.8248533906
 21
49.620305835
  0
LINE
  5
312
100
AcDbEntity
  8
RACCORDO
100
AcDbLine
 62
7
  6
CONTINUOUS
 10
-34.9077329505
 20
49.7806936829
 11
-34.8972436634
 21
49.7605028801
  0
LINE
  5
313
100
AcDbEntity
  8
RACCORDO
100
AcDbLine
 62
7
  6
CONTINUOUS
 10
-34.8581073011
 20
49.6842762493
 11
-34.8389087292
 21
49.6471649854
  0
LINE
  5
314
100
AcDbEntity
  8
RACCORDO
100
AcDbLine
 62
7
  6
CONTINUOUS
 10
-34.8972436634
 20
49.7605028801
 11
-34.8581073011
 21
49.6842762493
  0
LINE
  5
315
100
AcDbEntity
  8
0
100
AcDbLine
 62
7
  6
CONTINUOUS
 10
3.311254288
 20
-39.7195289301
 11
3.1706069441
 21
-39.2325928244
  0
LINE
  5
316
100
AcDbEntity
  8
0
100
AcDbLine
 62
7
  6
CONTINUOUS
 10
3.5527928236
 20
-39.4368038306
 11
3.7184438992
 21
-40.0116370517
  0
LINE
  5
317
100
AcDbEntity
  8
0
100
AcDbLine
 62
7
  6
CONTINUOUS
 10
3.8599419191
 20
-39.9115828423
 11
3.6942926366
 21
-39.3368515656
  0
LWPOLYLINE
  5
318
100
AcDbEntity
  8
RACCORDO
100
AcDbPolyline
 62
7
  6
CONTINUOUS
 90
3
 70
0
 10
-18.9489916516
 20
37.7792166764
 10
-18.9443758053
 20
37.7629842678
 10
-18.9338386021
 20
37.7445013602
  0
LINE
  5
319
100
AcDbEntity
  8
0
100
AcDbLine
 62
7
  6
CONTINUOUS
 10
3.3935620506
 20
-38.8741831
 11
3.5527928236
 21
-39.4368038306
  0
LINE
  5
31A
100
AcDbEntity
  8
0
100
AcDbLine
 62
7
  6
CONTINUOUS
 10
3.6942926366
 20
-39.3368515656
 11
3.5350534557
 21
-38.7742810294
  0
LINE
  5
31B
100
AcDbEntity
  8
0
100
AcDbLine
 62
7
  6
CONTINUOUS
 10
3.0363644862
 20
-38.7609561839
 11
2.8950552468
 21
-38.2570014097
  0
LINE
  5
31C
100
AcDbEntity
  8
0
100
AcDbLine
 62
7
  6
CONTINUOUS
 10
3.2406700801
 20
-38.3238391252
 11
3.3935620506
 21
-38.8741831
  0
LINE
  5
31D
100
AcDbEntity
  8
0
100
AcDbLine
 62
7
  6
CONTINUOUS
 10
3.5350534557
 20
-38.7742810294
 11
3.3821430492
 21
-38.2239353665
  0
LINE
  5
31E
100
AcDbEntity
  8
0
100
AcDbLine
 62
7
  6
CONTINUOUS
 10
2.8950552468
 20
-38.2570014097
 11
2.8263700587
 21
-38.0092411036
  0
LWPOLYLINE
  5
31F
100
AcDbEntity
  8
0
100
AcDbPolyline
 62
7
  6
CONTINUOUS
 90
3
 70
0
 10
3.3821430492
 20
-38.2239353665
 10
3.2352361076
 20
-37.6860711085
 10
3.164054268
 20
-37.4218034731
  0
LWPOLYLINE
  5
320
100
AcDbEntity
  8
0
100
AcDbPolyline
 62
7
  6
CONTINUOUS
 90
3
 70
0
 10
3.0226265026
 20
-37.5218080051
 10
3.0937909113
 20
-37.7860289683
 10
3.2406700801
 20
-38.3238391252
  0
LINE
  5
321
100
AcDbEntity
  8
0
100
AcDbLine
 62
7
  6
CONTINUOUS
 10
0.7962422046
 20
-36.9028731398
 11
0.6605441464
 21
-36.3771530533
  0
LINE
  5
322
100
AcDbEntity
  8
0
100
AcDbLine
 62
7
  6
CONTINUOUS
 10
0.3847188679
 20
-35.9464675965
 11
0.5191009532
 21
-36.4771685814
  0
LINE
  5
323
100
AcDbEntity
  8
0
100
AcDbLine
 62
7
  6
CONTINUOUS
 10
0.6605441464
 20
-36.3771530533
 11
0.5261515163
 21
-35.8464594463
  0
LINE
  5
324
100
AcDbEntity
  8
0
100
AcDbLine
 62
7
  6
CONTINUOUS
 10
0.2963370484
 20
-35.5917637154
 11
0.3847188679
 21
-35.9464675965
  0
LINE
  5
325
100
AcDbEntity
  8
0
100
AcDbLine
 62
7
  6
CONTINUOUS
 10
0.5261515163
 20
-35.8464594463
 11
0.4377646189
 21
-35.4917593212
  0
LWPOLYLINE
  5
326
100
AcDbEntity
  8
RACCORDO
100
AcDbPolyline
 62
250
  6
CONTINUOUS
 90
7
 70
0
 10
2.9983745621
 20
-45.1574910648
 10
3.0087477319
 20
-45.2176641012
 10
3.0255824313
 20
-45.2719509442
 10
3.0487216704
 20
-45.3198452601
 10
3.0779491614
 20
-45.3608999931
 10
3.1129927638
 20
-45.3947325464
 10
3.1243138595
 20
-45.403228258
  0
LWPOLYLINE
  5
327
100
AcDbEntity
  8
RACCORDO
100
AcDbPolyline
 62
250
  6
CONTINUOUS
 90
6
 70
0
 10
2.0135728648
 20
-34.1847042737
 10
2.0194884836
 20
-34.271795455
 10
2.0371364962
 20
-34.3490637782
 10
2.0662217659
 20
-34.4152162459
 10
2.1062577839
 20
-34.4691458329
 10
2.1433293209
 20
-34.5012008151
  0
LINE
  5
328
100
AcDbEntity
  8
0
100
AcDbLine
 62
7
  6
CONTINUOUS
 10
0.1155944876
 20
-37.0228199444
 11
0.1289109465
 21
-37.4640391438
  0
LINE
  5
329
100
AcDbEntity
  8
0
100
AcDbLine
 62
7
  6
CONTINUOUS
 10
1.3012452115
 20
-37.8612016115
 11
1.3145635556
 21
-38.3024221438
  0
LWPOLYLINE
  5
32A
100
AcDbEntity
  8
0
100
AcDbPolyline
 62
7
  6
CONTINUOUS
 90
3
 70
0
 10
0.2523125429
 20
-36.7421946467
 10
0.2570676864
 20
-36.9227835135
 10
0.2704050034
 20
-37.3639877367
  0
LINE
  5
32B
100
AcDbEntity
  8
0
100
AcDbLine
 62
7
  6
CONTINUOUS
 10
0.1045222944
 20
-36.579882265
 11
0.1155944876
 21
-37.0228199444
  0
LINE
  5
32C
100
AcDbEntity
  8
0
100
AcDbLine
 62
7
  6
CONTINUOUS
 10
1.2901711328
 20
-37.4182625987
 11
1.3012452115
 21
-37.8612016115
  0
LINE
  5
32D
100
AcDbEntity
  8
0
100
AcDbLine
 62
7
  6
CONTINUOUS
 10
0.095694367
 20
-36.1352261056
 11
0.1045222944
 21
-36.579882265
  0
LINE
  5
32E
100
AcDbEntity
  8
0
100
AcDbLine
 62
7
  6
CONTINUOUS
 10
1.2813413192
 20
-36.9736051056
 11
1.2901711328
 21
-37.4182625987
  0
LWPOLYLINE
  5
32F
100
AcDbEntity
  8
0
100
AcDbPolyline
 62
7
  6
CONTINUOUS
 90
7
 70
0
 10
-1.1439390558
 20
-34.5733347154
 10
-1.1400896863
 20
-34.9125849767
 10
-1.134950178
 20
-35.2508473846
 10
-1.1285205309
 20
-35.588121939
 10
-1.120800745
 20
-35.9244086399
 10
-1.1117908202
 20
-36.2597074874
 10
-1.1014907566
 20
-36.5940184814
  0
LWPOLYLINE
  5
330
100
AcDbEntity
  8
0
100
AcDbPolyline
 62
7
  6
CONTINUOUS
 90
7
 70
0
 10
-0.7338022734
 20
-34.8633452154
 10
-0.7299527969
 20
-35.2025947419
 10
-0.7248131878
 20
-35.5408564197
 10
-0.7183834462
 20
-35.8781302488
 10
-0.7106635719
 20
-36.2144162292
 10
-0.7016535651
 20
-36.5497143608
 10
-0.6913534258
 20
-36.8840246438
  0
LWPOLYLINE
  5
331
100
AcDbEntity
  8
0
100
AcDbPolyline
 62
7
  6
CONTINUOUS
 90
7
 70
0
 10
-0.5923747028
 20
-34.7633408212
 10
-0.5885191956
 20
-35.1025864099
 10
-0.5833715357
 20
-35.4408425909
 10
-0.5769317231
 20
-35.778109364
 10
-0.5691997577
 20
-36.1143867294
 10
-0.5601756397
 20
-36.4496746869
 10
-0.5498593689
 20
-36.7839732367
  0
LWPOLYLINE
  5
332
100
AcDbEntity
  8
0
100
AcDbPolyline
 62
7
  6
CONTINUOUS
 90
7
 70
0
 10
-0.3236803403
 20
-35.1533452154
 10
-0.3198300384
 20
-35.4925953256
 10
-0.3146896041
 20
-35.8308575869
 10
-0.3082590374
 20
-36.1681319994
 10
-0.3005383383
 20
-36.504418563
 10
-0.2915275068
 20
-36.8397172778
 10
-0.2812265429
 20
-37.1740281438
  0
LWPOLYLINE
  5
333
100
AcDbEntity
  8
RACCORDO
100
AcDbPolyline
 62
250
  6
CONTINUOUS
 90
15
 70
0
 10
5.6928387671
 20
-3.5373937954
 10
5.5892773917
 20
-3.5231325398
 10
5.4884179342
 20
-3.5012353969
 10
5.3913830667
 20
-3.4719462436
 10
5.2992530246
 20
-3.4355913083
 10
5.2130530579
 20
-3.3925753366
 10
5.1337421399
 20
-3.3433769617
 10
5.0622029682
 20
-3.2885437117
 10
4.9992320171
 20
-3.2286860346
 10
4.9455302305
 20
-3.1644702195
 10
4.9016953748
 20
-3.0966110671
 10
4.8682153857
 20
-3.0258639327
 10
4.8454629365
 20
-2.9530163186
 10
4.8336912897
 20
-2.8788791079
 10
4.8319494832
 20
-2.8371623305
  0
LWPOLYLINE
  5
334
100
AcDbEntity
  8
RACCORDO
100
AcDbPolyline
 62
250
  6
CONTINUOUS
 90
13
 70
0
 10
2.5655737233
 20
-2.6274858808
 10
2.6627635349
 20
-2.6878435009
 10
2.7701589307
 20
-2.7388254496
 10
2.8859630835
 20
-2.7795785642
 10
3.0082384456
 20
-2.8094208194
 10
3.1349391149
 20
-2.8278527307
 10
3.2639450602
 20
-2.8345657337
 10
3.3930977085
 20
-2.8294473598
 10
3.5202359376
 20
-2.8125831113
 10
3.6432321954
 20
-2.7842550726
 10
3.7600282977
 20
-2.7449371727
 10
3.8686698589
 20
-2.6952872202
 10
3.9673388749
 20
-2.6361359303
  0
LWPOLYLINE
  5
335
100
AcDbEntity
  8
RACCORDO
100
AcDbPolyline
 62
250
  6
CONTINUOUS
 90
10
 70
0
 10
7.3685894499
 20
-4.1224322148
 10
7.2124818335
 20
-4.0218380136
 10
7.0468073604
 20
-3.9292262793
 10
6.8723842922
 20
-3.8450544205
 10
6.6900740992
 20
-3.7697381614
 10
6.5007772062
 20
-3.703649489
 10
6.3054285449
 20
-3.6471148156
 10
6.1049929368
 20
-3.6004133666
 10
5.9004603273
 20
-3.5637758015
 10
5.6928408972
 20
-3.5373830748
  0
LINE
  5
336
100
AcDbEntity
  8
RACCORDO
100
AcDbLine
 62
250
  6
CONTINUOUS
 10
2.0135728648
 20
-1.685161472
 11
-29.3819682199
 21
20.514838528
  0
LWPOLYLINE
  5
337
100
AcDbEntity
  8
RACCORDO
100
AcDbPolyline
 62
250
  6
CONTINUOUS
 90
10
 70
0
 10
-32.0424428623
 20
23.7454013348
 10
-31.9007434541
 20
23.6354089146
 10
-31.7703582744
 20
23.5186698292
 10
-31.6519312772
 20
23.3957606369
 10
-31.5460473563
 20
23.2672883691
 10
-31.4532294571
 20
23.1338875326
 10
-31.373935994
 20
22.9962169756
 10
-31.3085585859
 20
22.8549566339
 10
-31.2574201225
 20
22.7108041727
 10
-31.2207731693
 20
22.564471541
  0
LWPOLYLINE
  5
338
100
AcDbEntity
  8
RACCORDO
100
AcDbPolyline
 62
250
  6
CONTINUOUS
 90
7
 70
0
 10
-29.9339690784
 20
20.3531612197
 10
-30.019329391
 20
20.4218864204
 10
-30.091429598
 20
20.4978280082
 10
-30.1490632688
 20
20.5797152764
 10
-30.1912660373
 20
20.6661780306
 10
-30.2173317375
 20
20.7557695164
 10
-30.2268622972
 20
20.8531612199
  0
LWPOLYLINE
  5
339
100
AcDbEntity
  8
0
100
AcDbPolyline
 62
7
  6
CONTINUOUS
 90
5
 70
0
 10
-34.9263658755
 20
49.3749721333
 10
-34.9746672962
 20
49.4464211107
 10
-35.017205388
 20
49.5128331323
 10
-35.0544581561
 20
49.5735554228
 10
-35.086903942
 20
49.6277674342
  0
LINE
  5
33A
100
AcDbEntity
  8
RACCORDO
100
AcDbLine
 62
7
  6
CONTINUOUS
 10
-34.6975964017
 20
49.3941329694
 11
-34.6915686139
 21
49.3842469647
  0
LWPOLYLINE
  5
33B
100
AcDbEntity
  8
0
100
AcDbPolyline
 62
250
  6
CONTINUOUS
 90
10
 70
0
 10
2.5512048251
 20
-38.9719760897
 10
2.5795192091
 20
-39.6836664503
 10
2.6133882258
 20
-40.389622742
 10
2.6526522446
 20
-41.0897291284
 10
2.6969846832
 20
-41.7840588875
 10
2.7463760798
 20
-42.4722912389
 10
2.8012208999
 20
-43.1538092416
 10
2.8616315384
 20
-43.8284316235
 10
2.9273515909
 20
-44.4963148681
 10
2.9983003782
 20
-45.1574385861
  0
LWPOLYLINE
  5
33C
100
AcDbEntity
  8
RACCORDO
100
AcDbPolyline
 62
250
  6
CONTINUOUS
 90
10
 70
0
 10
2.4855423432
 20
-36.0969486459
 10
2.4800214873
 20
-35.9491665217
 10
2.4637279573
 20
-35.8098312487
 10
2.4367445244
 20
-35.679654743
 10
2.3992214127
 20
-35.5593110448
 10
2.3513376911
 20
-35.4494066653
 10
2.2933004911
 20
-35.3504772382
 10
2.2253941986
 20
-35.2630197235
 10
2.1479787408
 20
-35.1874900274
 10
2.1249643556
 20
-35.169666343
  0
LWPOLYLINE
  5
33D
100
AcDbEntity
  8
RACCORDO
100
AcDbPolyline
 62
250
  6
CONTINUOUS
 90
22
 70
0
 10
2.5655737233
 20
-2.6274858808
 10
2.5639852933
 20
-2.5849223486
 10
2.5594067221
 20
-2.540893864
 10
2.5518380096
 20
-2.4954004271
 10
2.5412139078
 20
-2.4481835675
 10
2.5275996649
 20
-2.3995017555
 10
2.5111910246
 20
-2.3501304026
 10
2.4919285634
 20
-2.3000282311
 10
2.4698717049
 20
-2.2492365187
 10
2.4453944636
 20
-2.1986545098
 10
2.4184600708
 20
-2.1483040928
 10
2.3891052953
 20
-2.0981633793
 10
2.3578144575
 20
-2.0490659478
 10
2.3245450173
 20
-2.0010187133
 10
2.2893395149
 20
-1.9540147608
 10
2.2528098912
 20
-1.9088669248
 10
2.2149185199
 20
-1.8656025409
 10
2.1757030273
 20
-1.8241942734
 10
2.1358882334
 20
-1.7853729501
 10
2.0957157451
 20
-1.74938218
 10
2.0549439556
 20
-1.715978354
 10
2.0135728648
 20
-1.685161472
  0
LWPOLYLINE
  5
33E
100
AcDbEntity
  8
RACCORDO
100
AcDbPolyline
 62
250
  6
CONTINUOUS
 90
8
 70
0
 10
3.3601054607
 20
-36.7204376118
 10
3.3546280206
 20
-36.5717782606
 10
3.3382571306
 20
-36.4315512779
 10
3.3110769111
 20
-36.3004772863
 10
3.2732270314
 20
-36.1792298706
 10
3.2249019918
 20
-36.068432116
 10
3.1663501237
 20
-35.9686534064
 10
3.0978723143
 20
-35.8804064979
  0
LWPOLYLINE
  5
33F
100
AcDbEntity
  8
RACCORDO
100
AcDbPolyline
 62
250
  6
CONTINUOUS
 90
22
 70
0
 10
3.967338875
 20
-2.6361359316
 10
3.9638133018
 20
-2.5394889415
 10
3.9532670402
 20
-2.438476263
 10
3.9357751157
 20
-2.3336723034
 10
3.9114677178
 20
-2.2257364563
 10
3.8804873464
 20
-2.1152145116
 10
3.8429478529
 20
-2.0025209088
 10
3.7989903561
 20
-1.8881607418
 10
3.7488763854
 20
-1.7728846782
 10
3.6929419478
 20
-1.6574822923
 10
3.6315387098
 20
-1.5426619202
 10
3.5649850953
 20
-1.4290031278
 10
3.4936297974
 20
-1.3171003257
 10
3.4178548535
 20
-1.2075594588
 10
3.338096036
 20
-1.1010168434
 10
3.2548169628
 20
-0.9980925969
 10
3.1684945207
 20
-0.8993729598
 10
3.0796032364
 20
-0.8053977074
 10
2.9886301064
 20
-0.7166814823
 10
2.8960803109
 20
-0.6337183994
 10
2.8024752891
 20
-0.5569772734
 10
2.7083389311
 20
-0.4868885899
  0
LINE
  5
340
100
AcDbEntity
  8
0
100
AcDbLine
 62
250
  6
CONTINUOUS
 10
2.3945522591
 20
-38.6613370407
 11
2.4096651525
 21
-39.0721454888
  0
LINE
  5
341
100
AcDbEntity
  8
0
100
AcDbLine
 62
250
  6
CONTINUOUS
 10
2.3816568384
 20
-38.248794004
 11
2.3945522591
 21
-38.6613370407
  0
LINE
  5
342
100
AcDbEntity
  8
0
100
AcDbLine
 62
7
  6
CONTINUOUS
 10
4.3874078166
 20
-40.1475819719
 11
4.3980295199
 21
-40.497799794
  0
LINE
  5
343
100
AcDbEntity
  8
0
100
AcDbLine
 62
7
  6
CONTINUOUS
 10
4.5395242366
 20
-40.3977479203
 11
4.5289016719
 21
-40.0481715474
  0
LINE
  5
344
100
AcDbEntity
  8
0
100
AcDbLine
 62
7
  6
CONTINUOUS
 10
3.9900249002
 20
-40.2062736274
 11
3.9759704316
 21
-39.7346848031
  0
LINE
  5
345
100
AcDbEntity
  8
0
100
AcDbLine
 62
7
  6
CONTINUOUS
 10
4.5289016719
 20
-40.0481715474
 11
4.5229414157
 21
-39.824060328
  0
LINE
  5
346
100
AcDbEntity
  8
0
100
AcDbLine
 62
250
  6
CONTINUOUS
 10
2.3709907949
 20
-37.8345240154
 11
2.3816568384
 21
-38.248794004
  0
LWPOLYLINE
  5
347
100
AcDbEntity
  8
0
100
AcDbPolyline
 62
7
  6
CONTINUOUS
 90
3
 70
0
 10
4.3766160637
 20
-39.7200872553
 10
4.378557523
 20
-39.8046691351
 10
4.3874078166
 20
-40.1475819719
  0
LINE
  5
348
100
AcDbEntity
  8
0
100
AcDbLine
 62
7
  6
CONTINUOUS
 10
3.9759704316
 20
-39.7346848031
 11
3.9649555393
 21
-39.2756869275
  0
LINE
  5
349
100
AcDbEntity
  8
0
100
AcDbLine
 62
250
  6
CONTINUOUS
 10
2.4997998654
 20
-37.1896409107
 11
2.5065139398
 21
-37.4961319232
  0
LINE
  5
34A
100
AcDbEntity
  8
0
100
AcDbLine
 62
7
  6
CONTINUOUS
 10
3.9649555393
 20
-39.2756869275
 11
3.9569304476
 21
-38.8293229105
  0
LINE
  5
34B
100
AcDbEntity
  8
0
100
AcDbLine
 62
250
  6
CONTINUOUS
 10
2.4909299481
 20
-36.6438896526
 11
2.4997998654
 21
-37.1896409107
  0
LINE
  5
34C
100
AcDbEntity
  8
0
100
AcDbLine
 62
7
  6
CONTINUOUS
 10
4.5049182525
 20
-39.2419235631
 11
4.5004335191
 21
-38.9496897657
  0
LINE
  5
34D
100
AcDbEntity
  8
0
100
AcDbLine
 62
7
  6
CONTINUOUS
 10
4.3584766291
 20
-39.0104067187
 11
4.3634756519
 21
-39.3419385851
  0
LWPOLYLINE
  5
34E
100
AcDbEntity
  8
0
100
AcDbPolyline
 62
7
  6
CONTINUOUS
 90
7
 70
0
 10
1.6822465405
 20
-36.5717497154
 10
1.6860968424
 20
-36.9109998256
 10
1.6912372767
 20
-37.2492620869
 10
1.6976678434
 20
-37.5865364994
 10
1.7053885425
 20
-37.922823063
 10
1.714399374
 20
-38.2581217778
 10
1.7247003379
 20
-38.5924326438
  0
LWPOLYLINE
  5
34F
100
AcDbEntity
  8
0
100
AcDbPolyline
 62
7
  6
CONTINUOUS
 90
7
 70
0
 10
1.8236741111
 20
-36.4717453212
 10
1.8275304437
 20
-36.8109914936
 10
1.8326789289
 20
-37.1492482581
 10
1.8391195665
 20
-37.4865156146
 10
1.8468523568
 20
-37.8227935632
 10
1.8558772995
 20
-38.1580821039
 10
1.8661943948
 20
-38.4923812367
  0
LINE
  5
350
100
AcDbEntity
  8
0
100
AcDbLine
 62
7
  6
CONTINUOUS
 10
4.3565886076
 20
-38.8477756992
 11
4.3584766291
 21
-39.0104067187
  0
LWPOLYLINE
  5
351
100
AcDbEntity
  8
0
100
AcDbPolyline
 62
7
  6
CONTINUOUS
 90
3
 70
0
 10
3.9569304476
 20
-38.8293229105
 10
3.9516960539
 20
-38.3957643925
 10
3.9501378127
 20
-38.1837764681
  0
LINE
  5
352
100
AcDbEntity
  8
0
100
AcDbLine
 62
250
  6
CONTINUOUS
 10
2.4859164438
 20
-36.0972304225
 11
2.4909299481
 21
-36.6438896526
  0
LINE
  5
353
100
AcDbEntity
  8
RACCORDO
100
AcDbLine
 62
250
  6
CONTINUOUS
 10
2.5655737233
 20
-34.0230269655
 11
2.5655737233
 21
-2.6274858808
  0
LINE
  5
354
100
AcDbEntity
  8
RACCORDO
100
AcDbLine
 62
250
  6
CONTINUOUS
 10
3.967338875
 20
-34.0316770163
 11
3.967338875
 21
-2.6361359316
  0
LINE
  5
355
100
AcDbEntity
  8
DRAFT
100
AcDbLine
 62
7
  6
CONTINUOUS
 10
4.7712893115
 20
-2.3756113443
 11
4.7712893115
 21
-33.4827034152
  0
LINE
  5
356
100
AcDbEntity
  8
0
100
AcDbLine
 62
7
  6
CONTINUOUS
 10
4.8319494832
 20
-2.8371623305
 11
4.8319494832
 21
-34.2327034152
  0
LWPOLYLINE
  5
357
100
AcDbEntity
  8
RACCORDO
100
AcDbPolyline
 62
250
  6
CONTINUOUS
 90
10
 70
0
 10
3.3582443015
 20
2.7281433842
 10
3.3514184092
 20
2.5737303483
 10
3.3341377755
 20
2.4127760752
 10
3.3064879857
 20
2.2460777168
 10
3.2686059802
 20
2.0744608737
 10
3.2206793758
 20
1.8987755059
 10
3.162945537
 20
1.7198917233
 10
3.0956904002
 20
1.5386954768
 10
3.0192470575
 20
1.3560841698
 10
2.9339941072
 20
1.1729622145
  0
LWPOLYLINE
  5
358
100
AcDbEntity
  8
RACCORDO
100
AcDbPolyline
 62
250
  6
CONTINUOUS
 90
13
 70
0
 10
2.0135728648
 20
-1.685161472
 10
2.0194887639
 20
-1.5897020879
 10
2.0371374722
 20
-1.4874736514
 10
2.0662236794
 20
-1.380186719
 10
2.1062606949
 20
-1.2696364898
 10
2.156578592
 20
-1.1576727663
 10
2.2163354167
 20
-1.0461690028
 10
2.2845312768
 20
-0.9369909572
 10
2.3600250721
 20
-0.8319654716
 10
2.4415535883
 20
-0.732849905
 10
2.5277526342
 20
-0.6413027274
 10
2.6171798678
 20
-0.5588557692
 10
2.7083389311
 20
-0.4868885899
  0
LWPOLYLINE
  5
359
100
AcDbEntity
  8
RACCORDO
100
AcDbPolyline
 62
250
  6
CONTINUOUS
 90
13
 70
0
 10
2.9339941011
 20
1.1729622147
 10
2.8922627388
 20
1.0815954899
 10
2.8572823774
 20
0.9909493225
 10
2.8294425239
 20
0.9020331299
 10
2.8090531751
 20
0.8158370973
 10
2.796341336
 20
0.7333210294
 10
2.7914485284
 20
0.6554036815
 10
2.7944292407
 20
0.5829526893
 10
2.8052502844
 20
0.5167748873
 10
2.8237911591
 20
0.4576072157
 10
2.849845398
 20
0.4061085516
 10
2.8831228674
 20
0.3628523717
 10
2.9211468361
 20
0.3297934664
  0
LINE
  5
35A
100
AcDbEntity
  8
RACCORDO
100
AcDbLine
 62
250
  6
CONTINUOUS
 10
3.348062192
 20
-0.0233695229
 11
2.7083389311
 21
-0.4868885899
  0
LINE
  5
35B
100
AcDbEntity
  8
RACCORDO
100
AcDbLine
 62
250
  6
CONTINUOUS
 10
4.7043243503
 20
-2.1328890249
 11
3.967338875
 21
-2.6361359316
  0
LWPOLYLINE
  5
35C
100
AcDbEntity
  8
RACCORDO
100
AcDbPolyline
 62
250
  6
CONTINUOUS
 90
22
 70
0
 10
-29.3819682199
 20
20.514838528
 10
-29.4234085625
 20
20.5425528452
 10
-29.4641995082
 20
20.5668178283
 10
-29.5043410572
 20
20.5876334773
 10
-29.5440455425
 20
20.6050846864
 10
-29.5831006309
 20
20.6190865613
 10
-29.620869323
 20
20.6293844193
 10
-29.6573508775
 20
20.6359183127
 10
-29.6925460357
 20
20.6387481892
 10
-29.7258200214
 20
20.6377992088
 10
-29.7571249466
 20
20.6330007409
 10
-29.7865086993
 20
20.6244234162
 10
-29.8134801671
 20
20.6122042862
 10
-29.8380023549
 20
20.5962746513
 10
-29.8601122579
 20
20.5767032112
 10
-29.8794297492
 20
20.5538331166
 10
-29.8959008875
 20
20.5275885989
 10
-29.9095796142
 20
20.4980454267
 10
-29.9202476269
 20
20.465774057
 10
-29.9278321581
 20
20.4309646421
 10
-29.9324059752
 20
20.3934270297
 10
-29.9339690784
 20
20.3531612197
  0
LWPOLYLINE
  5
35D
100
AcDbEntity
  8
RACCORDO
100
AcDbPolyline
 62
250
  6
CONTINUOUS
 90
14
 70
0
 10
-28.6872021536
 20
21.7131114101
 10
-28.7813561709
 20
21.7761627838
 10
-28.8749115726
 20
21.8317701715
 10
-28.9673470021
 20
21.879639944
 10
-29.0580952099
 20
21.9195011701
 10
-29.1467110826
 20
21.9511816217
 10
-29.2328604289
 20
21.9745588852
 10
-29.3161377672
 20
21.9894873908
 10
-29.3959775326
 20
21.995828723
 10
-29.4718280083
 20
21.9935287209
 10
-29.5432296211
 20
21.982614067
 10
-29.6098278675
 20
21.9631525299
 10
-29.6712748725
 20
21.9352468228
 10
-29.7222514473
 20
21.9027680636
  0
LINE
  5
35E
100
AcDbEntity
  8
RACCORDO
100
AcDbLine
 62
250
  6
CONTINUOUS
 10
-28.0305312763
 20
24.9233530006
 11
-28.2049356663
 21
25.0425864573
  0
LWPOLYLINE
  5
35F
100
AcDbEntity
  8
RACCORDO
100
AcDbPolyline
 62
250
  6
CONTINUOUS
 90
28
 70
0
 10
-28.4615469836
 20
23.3729622147
 10
-28.5810985811
 20
23.4550837965
 10
-28.7056203305
 20
23.5350267023
 10
-28.8348069083
 20
23.6118894868
 10
-28.9682075138
 20
23.6846690447
 10
-29.1054545787
 20
23.7524019383
 10
-29.2462507852
 20
23.8141224795
 10
-29.3906857999
 20
23.8689067148
 10
-29.537305977
 20
23.9152073163
 10
-29.683481807
 20
23.95142394
 10
-29.8285297726
 20
23.9767257209
 10
-29.9715849871
 20
23.9902640116
 10
-30.1100082599
 20
23.9913333088
 10
-30.242678507
 20
23.9797382456
 10
-30.3694903182
 20
23.955273901
 10
-30.4895858673
 20
23.9178594573
 10
-30.6026140399
 20
23.8673385224
 10
-30.7077593906
 20
23.803772747
 10
-30.8037421574
 20
23.7278715715
 10
-30.8899352061
 20
23.6404438062
 10
-30.9665038231
 20
23.541642537
 10
-31.0335033633
 20
23.4314183841
 10
-31.090841592
 20
23.3096759385
 10
-31.137984048
 20
23.177256888
 10
-31.1744774672
 20
23.0356685931
 10
-31.200318791
 20
22.8860046701
 10
-31.2157054507
 20
22.7286887309
 10
-31.2207731916
 20
22.5644715387
  0
LINE
  5
360
100
AcDbEntity
  8
RACCORDO
100
AcDbLine
 62
250
  6
CONTINUOUS
 10
2.9339941011
 20
1.1729622147
 11
-12.7678364645
 21
12.2726306163
  0
LINE
  5
361
100
AcDbEntity
  8
RACCORDO
100
AcDbLine
 62
250
  6
CONTINUOUS
 10
2.7083389311
 20
-0.4868885899
 11
-28.6872021536
 21
21.7131114101
  0
LINE
  5
362
100
AcDbEntity
  8
0
100
AcDbLine
 62
7
  6
CONTINUOUS
 10
-28.4743942486
 20
22.5297934664
 11
2.9211468361
 21
0.3297934664
  0
LINE
  5
363
100
AcDbEntity
  8
RACCORDO
100
AcDbLine
 62
250
  6
CONTINUOUS
 10
-12.7678364645
 20
12.2726306163
 11
-28.4615469836
 21
23.3729622147
  0
LINE
  5
364
100
AcDbEntity
  8
RACCORDO
100
AcDbLine
 62
250
  6
CONTINUOUS
 10
-10.7284123103
 20
12.7026851037
 11
-28.0305265522
 21
24.9233562702
  0
LINE
  5
365
100
AcDbEntity
  8
RACCORDO
100
AcDbLine
 62
250
  6
CONTINUOUS
 10
3.3582443015
 20
2.7281433842
 11
-10.7284123103
 21
12.7026851037
  0
LWPOLYLINE
  5
366
100
AcDbEntity
  8
0
100
AcDbPolyline
 62
7
  6
CONTINUOUS
 90
4
 70
0
 10
2.9211468361
 20
0.3297934664
 10
3.0380892097
 20
0.2433104225
 10
3.1580048673
 20
0.1468262095
 10
3.280013963
 20
0.04055711
  0
LINE
  5
367
100
AcDbEntity
  8
0
100
AcDbLine
 62
7
  6
CONTINUOUS
 10
3.280013963
 20
0.04055711
 11
3.4033668772
 21
-0.0753244724
  0
LWPOLYLINE
  5
368
100
AcDbEntity
  8
0
100
AcDbPolyline
 62
7
  6
CONTINUOUS
 90
14
 70
0
 10
3.4033668772
 20
-0.0753244724
 10
3.5269441915
 20
-0.2002175151
 10
3.6493394184
 20
-0.3330510352
 10
3.7696786751
 20
-0.4731463537
 10
3.8870764875
 20
-0.6197135197
 10
4.0002540273
 20
-0.7713051859
 10
4.1084580075
 20
-0.9269650009
 10
4.2109898228
 20
-1.0857018005
 10
4.3068448236
 20
-1.2458635695
 10
4.3955190225
 20
-1.4063880752
 10
4.4765671907
 20
-1.5661828138
 10
4.549317769
 20
-1.7234626964
 10
4.6136040113
 20
-1.8772040387
 10
4.6693200061
 20
-2.0263490524
  0
LWPOLYLINE
  5
369
100
AcDbEntity
  8
0
100
AcDbPolyline
 62
7
  6
CONTINUOUS
 90
4
 70
0
 10
-34.7483114134
 20
49.1431907839
 10
-34.8135458315
 20
49.2227216495
 10
-34.8727464732
 20
49.3001189883
 10
-34.9263658755
 20
49.3749721333
  0
LWPOLYLINE
  5
36A
100
AcDbEntity
  8
RACCORDO
100
AcDbPolyline
 62
7
  6
CONTINUOUS
 90
15
 70
0
 10
-34.9424008283
 20
49.842380842
 10
-34.9423647015
 20
49.8423307949
 10
-34.9422014851
 20
49.8421005013
 10
-34.9419141872
 20
49.8416860288
 10
-34.941524791
 20
49.8411122486
 10
-34.9410376067
 20
49.8403800865
 10
-34.9404533852
 20
49.8394856348
 10
-34.9397869532
 20
49.8384473714
 10
-34.9390409903
 20
49.8372661013
 10
-34.9382160291
 20
49.8359395515
 10
-34.9373226983
 20
49.834482226
 10
-34.9363633052
 20
49.8328958634
 10
-34.9353377037
 20
49.8311783646
 10
-34.9342522311
 20
49.8293387926
 10
-34.9331080917
 20
49.8273780095
  0
LINE
  5
36B
100
AcDbEntity
  8
0
100
AcDbLine
 62
7
  6
CONTINUOUS
 10
4.6693200061
 20
-2.0263490524
 11
4.7162030976
 21
-2.1690434349
  0
LWPOLYLINE
  5
36C
100
AcDbEntity
  8
0
100
AcDbPolyline
 62
7
  6
CONTINUOUS
 90
7
 70
0
 10
4.7162030976
 20
-2.1690434349
 10
4.7544696186
 20
-2.304337314
 10
4.784474028
 20
-2.4314820369
 10
4.8065204599
 20
-2.548965576
 10
4.8212302719
 20
-2.6558920681
 10
4.829422003
 20
-2.7520621727
 10
4.8319494832
 20
-2.8371623305
  0
LWPOLYLINE
  5
36D
100
AcDbEntity
  8
RACCORDO
100
AcDbPolyline
 62
250
  6
CONTINUOUS
 90
28
 70
0
 10
7.3685894499
 20
-4.1224322148
 10
7.3609206114
 20
-3.8721040974
 10
7.3386183131
 20
-3.6111296521
 10
7.3014313767
 20
-3.3404443073
 10
7.2493024627
 20
-3.0602342207
 10
7.1822250784
 20
-2.7720082687
 10
7.1005695694
 20
-2.478889875
 10
7.0053098255
 20
-2.1834039141
 10
6.8966254105
 20
-1.8852530578
 10
6.7738721278
 20
-1.5835538089
 10
6.636676748
 20
-1.2780119919
 10
6.4860803655
 20
-0.9712154417
 10
6.32366083
 20
-0.6667261685
 10
6.1504567496
 20
-0.3663681121
 10
5.967119212
 20
-0.0707112334
 10
5.7749538129
 20
0.2186013584
 10
5.5741234605
 20
0.5014007559
 10
5.366198312
 20
0.7757793741
 10
5.1548011361
 20
1.0378942018
 10
4.9407060486
 20
1.2875510133
 10
4.7251868579
 20
1.5239950681
 10
4.5129171772
 20
1.7434611423
 10
4.3063735309
 20
1.9449091556
 10
4.105030903
 20
2.1302116697
 10
3.9090217806
 20
2.3005530745
 10
3.7187560086
 20
2.4566774068
 10
3.5349944365
 20
2.598977738
 10
3.3582403495
 20
2.7281406315
  0
LWPOLYLINE
  5
36E
100
AcDbEntity
  8
RACCORDO
100
AcDbPolyline
 62
250
  6
CONTINUOUS
 90
28
 70
0
 10
5.6928387671
 20
-3.5373937954
 10
5.6879778939
 20
-3.3664330088
 10
5.6727834163
 20
-3.1878964194
 10
5.6471433094
 20
-3.0023527258
 10
5.610864616
 20
-2.8099233039
 10
5.5639896917
 20
-2.6117376976
 10
5.5070544146
 20
-2.4100343637
 10
5.4406726553
 20
-2.2065590585
 10
5.3649220324
 20
-2.0011918961
 10
5.279640398
 20
-1.7934254414
 10
5.1845888492
 20
-1.5830520225
 10
5.0803971472
 20
-1.3718550787
 10
4.9682930018
 20
-1.1622922653
 10
4.8490513632
 20
-0.9555589431
 10
4.7229961033
 20
-0.7520109163
 10
4.59094946
 20
-0.5527818701
 10
4.4530590869
 20
-0.3579109321
 10
4.3103629452
 20
-0.1687178948
 10
4.165264129
 20
0.0119896037
 10
4.0183631444
 20
0.1840597584
 10
3.8705522914
 20
0.3470113214
 10
3.7249678238
 20
0.4981312433
 10
3.5833528476
 20
0.6366682307
 10
3.4453822956
 20
0.7639656661
 10
3.311095776
 20
0.8808157837
 10
3.1807759838
 20
0.9877197494
 10
3.0549711232
 20
1.0849493994
 10
2.9339941011
 20
1.1729622147
  0
LWPOLYLINE
  5
36F
100
AcDbEntity
  8
RACCORDO
100
AcDbPolyline
 62
250
  6
CONTINUOUS
 90
3
 70
0
 10
7.3520079311
 20
-35.4766356087
 10
7.3498856021
 20
-34.7035261927
 10
7.349594408
 20
-33.9579583082
  0
LINE
  5
370
100
AcDbEntity
  8
RACCORDO
100
AcDbLine
 62
250
  6
CONTINUOUS
 10
5.7012764042
 20
-34.933747118
 11
5.6905438247
 21
-19.2355227402
  0
LINE
  5
371
100
AcDbEntity
  8
RACCORDO
100
AcDbLine
 62
250
  6
CONTINUOUS
 10
5.6905438247
 20
-19.2355227402
 11
5.6928387671
 21
-3.5373937954
  0
LINE
  5
372
100
AcDbEntity
  8
RACCORDO
100
AcDbLine
 62
250
  6
CONTINUOUS
 10
7.3876551215
 20
-19.8344262769
 11
7.3686076009
 21
-4.122419072
  0
LINE
  5
373
100
AcDbEntity
  8
RACCORDO
100
AcDbLine
 62
250
  6
CONTINUOUS
 10
7.349594408
 20
-33.9579583082
 11
7.3522656253
 21
-32.5503806119
  0
LINE
  5
374
100
AcDbEntity
  8
RACCORDO
100
AcDbLine
 62
250
  6
CONTINUOUS
 10
7.3803377771
 20
-25.0299926322
 11
7.387655203
 21
-19.8344256219
  0
LWPOLYLINE
  5
375
100
AcDbEntity
  8
RACCORDO
100
AcDbPolyline
 62
250
  6
CONTINUOUS
 90
3
 70
0
 10
7.3522656253
 20
-32.5503806119
 10
7.3618866753
 20
-30.0353026026
 10
7.3803377771
 20
-25.0299926322
  0
LWPOLYLINE
  5
376
100
AcDbEntity
  8
0
100
AcDbPolyline
 62
7
  6
CONTINUOUS
 90
7
 70
0
 10
4.8319494832
 20
-34.2327034152
 10
4.8295934515
 20
-34.3089412535
 10
4.8233499204
 20
-34.3724562014
 10
4.8146742816
 20
-34.4226469895
 10
4.8052331803
 20
-34.4594442039
 10
4.7968822661
 20
-34.4831155696
 10
4.7947143133
 20
-34.4881305796
  0
LWPOLYLINE
  5
377
100
AcDbEntity
  8
DRAFT
100
AcDbPolyline
 62
7
  6
CONTINUOUS
 90
9
 70
0
 10
4.7712893115
 20
-33.4827034152
 10
4.7661421013
 20
-33.5913658118
 10
4.7516856537
 20
-33.6909511808
 10
4.7279199687
 20
-33.7814595223
 10
4.6945241119
 20
-33.8634387057
 10
4.6518190177
 20
-33.9363408616
 10
4.6007674896
 20
-33.9985223817
 10
4.541179929
 20
-34.0497397347
 10
4.5301519529
 20
-34.0576385722
  0
LINE
  5
378
100
AcDbEntity
  8
0
100
AcDbLine
 62
7
  6
CONTINUOUS
 10
22.5445780331
 20
8.0976777584
 11
22.8483625867
 21
8.3178391743
  0
LINE
  5
379
100
AcDbEntity
  8
DRAFT
100
AcDbLine
 62
250
  6
CONTINUOUS
 10
22.8025122317
 20
8.8912108608
 11
30.0150013998
 21
14.1171053275
  0
LINE
  5
37A
100
AcDbEntity
  8
0
100
AcDbLine
 62
250
  6
CONTINUOUS
 10
18.6614741292
 20
5.8253286563
 11
22.1594757293
 21
8.3598471533
  0
LWPOLYLINE
  5
37B
100
AcDbEntity
  8
RACCORDO
100
AcDbPolyline
 62
250
  6
CONTINUOUS
 90
13
 70
0
 10
20.1081593303
 20
1.4615151306
 10
20.20384852
 20
1.4250711972
 10
20.3041067285
 20
1.3953530303
 10
20.4077815574
 20
1.3727022205
 10
20.5136813362
 20
1.3573791239
 10
20.6205888204
 20
1.3495598694
 10
20.7272751826
 20
1.3493343346
 10
20.8325141368
 20
1.3567051124
 10
20.9350960343
 20
1.3715874812
 10
21.0338417671
 20
1.3938103792
 10
21.1276163215
 20
1.4231183697
 10
21.2153418239
 20
1.4591745782
 10
21.2960099305
 20
1.5015645636
  0
LWPOLYLINE
  5
37C
100
AcDbEntity
  8
RACCORDO
100
AcDbPolyline
 62
250
  6
CONTINUOUS
 90
4
 70
0
 10
-28.3865928009
 20
25.1589078973
 10
-28.5750654117
 20
25.2709763336
 10
-28.7697348416
 20
25.3773929507
 10
-28.9700699764
 20
25.4767209722
  0
LINE
  5
37D
100
AcDbEntity
  8
RACCORDO
100
AcDbLine
 62
250
  6
CONTINUOUS
 10
-28.2049356663
 20
25.0425864573
 11
-28.3865928009
 21
25.1589078973
  0
LWPOLYLINE
  5
37E
100
AcDbEntity
  8
RACCORDO
100
AcDbPolyline
 62
250
  6
CONTINUOUS
 90
25
 70
0
 10
-38.6493182992
 20
44.8682931375
 10
-38.7479715247
 20
44.9513317449
 10
-38.8499679927
 20
45.0284990321
 10
-38.9548377154
 20
45.0989635599
 10
-39.062394243
 20
45.1621222097
 10
-39.1717352392
 20
45.2170071305
 10
-39.2812439356
 20
45.2625005569
 10
-39.3902672597
 20
45.2981389506
 10
-39.4981472423
 20
45.3235204642
 10
-39.6032945016
 20
45.3381620236
 10
-39.7049990494
 20
45.3419574991
 10
-39.8028308825
 20
45.3348759684
 10
-39.8957531354
 20
45.3170089807
 10
-39.9831257025
 20
45.2885911271
 10
-40.0648681497
 20
45.2497760368
 10
-40.1408364764
 20
45.2006563097
 10
-40.2108094151
 20
45.1412929197
 10
-40.2744605708
 20
45.0719449344
 10
-40.3315076682
 20
44.9930092725
 10
-40.3817987202
 20
44.9048035753
 10
-40.4252695753
 20
44.8076532155
 10
-40.4618622735
 20
44.7020753931
 10
-40.4915718909
 20
44.5885330203
 10
-40.514451722
 20
44.4674891226
 10
-40.5305974378
 20
44.3395906733
  0
LINE
  5
37F
100
AcDbEntity
  8
RACCORDO
100
AcDbLine
 62
7
  6
CONTINUOUS
 10
-18.9338386021
 20
37.7445013602
 11
-18.9174910096
 21
37.7234942543
  0
LWPOLYLINE
  5
380
100
AcDbEntity
  8
RACCORDO
100
AcDbPolyline
 62
250
  6
CONTINUOUS
 90
8
 70
0
 10
17.4607378404
 20
-54.0965480322
 10
17.4666494203
 20
-54.1597852218
 10
17.4780162023
 20
-54.2161818309
 10
17.4947258476
 20
-54.2651804884
 10
17.5166132138
 20
-54.3062969373
 10
17.5434619867
 20
-54.3391248212
 10
17.5750068183
 20
-54.3633396999
 10
17.5862776906
 20
-54.3693407696
  0
LINE
  5
381
100
AcDbEntity
  8
0
100
AcDbLine
 62
7
  6
CONTINUOUS
 10
1.0682920929
 20
-37.9281737082
 11
1.184185573
 21
-37.5782950041
  0
LINE
  5
382
100
AcDbEntity
  8
0
100
AcDbLine
 62
7
  6
CONTINUOUS
 10
1.0427123771
 20
-37.6783316725
 11
0.9267980363
 21
-38.0282251151
  0
LINE
  5
383
100
AcDbEntity
  8
0
100
AcDbLine
 62
7
  6
CONTINUOUS
 10
1.1608945039
 20
-37.3267885723
 11
1.0427123771
 21
-37.6783316725
  0
LINE
  5
384
100
AcDbEntity
  8
0
100
AcDbLine
 62
7
  6
CONTINUOUS
 10
1.184185573
 20
-37.5782950041
 11
1.2870787002
 21
-37.2719776142
  0
LINE
  5
385
100
AcDbEntity
  8
0
100
AcDbLine
 62
7
  6
CONTINUOUS
 10
0.7016495363
 20
-37.182223164
 11
0.8594519722
 21
-36.7178328637
  0
LINE
  5
386
100
AcDbEntity
  8
0
100
AcDbLine
 62
7
  6
CONTINUOUS
 10
1.2813413192
 20
-36.9736051056
 11
1.1608945039
 21
-37.3267885723
  0
LWPOLYLINE
  5
387
100
AcDbEntity
  8
0
100
AcDbPolyline
 62
7
  6
CONTINUOUS
 90
3
 70
0
 10
0.8594519722
 20
-36.7178328637
 10
1.0211835788
 20
-36.2505874376
 10
1.0622298589
 20
-36.1333317154
  0
LINE
  5
388
100
AcDbEntity
  8
0
100
AcDbLine
 62
7
  6
CONTINUOUS
 10
-1.8332226932
 20
-35.4205247598
 11
-2.0333233025
 21
-35.9351086438
  0
LINE
  5
389
100
AcDbEntity
  8
0
100
AcDbLine
 62
7
  6
CONTINUOUS
 10
-1.8918292456
 20
-35.8350572367
 11
-1.6917587333
 21
-35.3204943364
  0
LINE
  5
38A
100
AcDbEntity
  8
0
100
AcDbLine
 62
7
  6
CONTINUOUS
 10
-2.2566035542
 20
-35.1642937374
 11
-2.0686414007
 21
-34.6888139073
  0
LINE
  5
38B
100
AcDbEntity
  8
0
100
AcDbLine
 62
7
  6
CONTINUOUS
 10
-1.6278988057
 20
-34.9021441321
 11
-1.8332226932
 21
-35.4205247598
  0
LINE
  5
38C
100
AcDbEntity
  8
0
100
AcDbLine
 62
7
  6
CONTINUOUS
 10
-1.6917587333
 20
-35.3204943364
 11
-1.4864569102
 21
-34.8021291466
  0
LWPOLYLINE
  5
38D
100
AcDbEntity
  8
0
100
AcDbPolyline
 62
7
  6
CONTINUOUS
 90
3
 70
0
 10
-2.0686414007
 20
-34.6888139073
 10
-1.8762813147
 20
-34.2101445012
 10
-1.827504838
 20
-34.0899807154
  0
LINE
  5
38E
100
AcDbEntity
  8
0
100
AcDbLine
 62
7
  6
CONTINUOUS
 10
-1.4173623988
 20
-34.3799952154
 11
-1.6278988057
 21
-34.9021441321
  0
LINE
  5
38F
100
AcDbEntity
  8
0
100
AcDbLine
 62
7
  6
CONTINUOUS
 10
-1.4864569102
 20
-34.8021291466
 11
-1.2759348282
 21
-34.2799908212
  0
LWPOLYLINE
  5
390
100
AcDbEntity
  8
RACCORDO
100
AcDbPolyline
 62
250
  6
CONTINUOUS
 90
12
 70
0
 10
27.2109715845
 20
5.442582658
 10
27.1860441399
 20
5.4229428399
 10
27.1585121612
 20
5.4059356875
 10
27.1288375481
 20
5.3918465271
 10
27.0975181469
 20
5.3809117301
 10
27.0650793979
 20
5.3733147481
 10
27.0320655208
 20
5.3691830347
 10
26.9990303841
 20
5.3685859074
 10
26.966528213
 20
5.3715333838
 10
26.9351042912
 20
5.3779760141
 10
26.9052858128
 20
5.3878057113
 10
26.8775730375
 20
5.4008575642
  0
LINE
  5
391
100
AcDbEntity
  8
ASSI
100
AcDbLine
 62
250
  6
CONTINUOUS
 10
21.2960243083
 20
1.501554039
 11
26.8060488483
 21
5.264047271
  0
LINE
  5
392
100
AcDbEntity
  8
RACCORDO
100
AcDbLine
 62
250
  6
CONTINUOUS
 10
27.2109715777
 20
5.4425826817
 11
32.8434285246
 21
9.2886782028
  0
LWPOLYLINE
  5
393
100
AcDbEntity
  8
RACCORDO
100
AcDbPolyline
 62
250
  6
CONTINUOUS
 90
12
 70
0
 10
27.2994394316
 20
4.7958857393
 10
27.2699163396
 20
4.7771709989
 10
27.2374014798
 20
4.7614586132
 10
27.2024400457
 20
4.7490120399
 10
27.1656182538
 20
4.7400399769
 10
27.1275535141
 20
4.7346928637
 10
27.088884078
 20
4.7330603595
 10
27.050258336
 20
4.7351698379
 10
27.012323946
 20
4.7409859276
 10
26.9757169737
 20
4.7504111064
 10
26.9410512273
 20
4.7632873372
 10
26.9089079654
 20
4.7793987179
  0
LWPOLYLINE
  5
394
100
AcDbEntity
  8
0
100
AcDbPolyline
 62
7
  6
CONTINUOUS
 90
3
 70
0
 10
34.6111954775
 20
-3.266071703
 10
34.8227825634
 20
-3.1940832216
 10
34.9235506386
 20
-3.1382624579
  0
LWPOLYLINE
  5
395
100
AcDbEntity
  8
RACCORDO
100
AcDbPolyline
 62
250
  6
CONTINUOUS
 90
22
 70
0
 10
-29.1755962179
 20
25.567449838
 10
-29.3864533016
 20
25.6483844286
 10
-29.6005334494
 20
25.7172439963
 10
-29.8139133845
 20
25.7713641375
 10
-30.0256053434
 20
25.8096469029
 10
-30.2343798451
 20
25.8309057154
 10
-30.4362611138
 20
25.8336712087
 10
-30.6295551106
 20
25.8175975239
 10
-30.8141179816
 20
25.7825283693
 10
-30.9885892028
 20
25.7281427704
 10
-31.1523216247
 20
25.6540562783
 10
-31.3041985737
 20
25.5605762075
 10
-31.4425288786
 20
25.4489742105
 10
-31.5663279621
 20
25.3202846843
 10
-31.6759137143
 20
25.1748288767
 10
-31.771758774
 20
25.0129343748
 10
-31.8537423538
 20
24.8342920422
 10
-31.921081566
 20
24.6400833198
 10
-31.9734869211
 20
24.4328874031
 10
-32.0110729922
 20
24.214263734
 10
-32.0339955545
 20
23.9846751571
 10
-32.0424548475
 20
23.7453931021
  0
LINE
  5
396
100
AcDbEntity
  8
RACCORDO
100
AcDbLine
 62
250
  6
CONTINUOUS
 10
-28.9700699764
 20
25.4767209722
 11
-29.1755962179
 21
25.567449838
  0
LWPOLYLINE
  5
397
100
AcDbEntity
  8
RACCORDO
100
AcDbPolyline
 62
250
  6
CONTINUOUS
 90
17
 70
0
 10
18.6614741292
 20
5.8253286563
 10
18.2301483375
 20
6.064783479
 10
17.8164853436
 20
6.2991111329
 10
17.4204851475
 20
6.5283116179
 10
17.0466532485
 20
6.7503645333
 10
16.6904841475
 20
6.9672902797
 10
16.3384613463
 20
7.1851500596
 10
15.9888356985
 20
7.4044996947
 10
15.6433563507
 20
7.6247833632
 10
15.2937542441
 20
7.8503948018
 10
14.9393702286
 20
8.081542441
 10
14.5808634543
 20
8.3180178503
 10
14.2119423128
 20
8.5635894749
 10
13.8315741798
 20
8.8188724152
 10
13.4407916796
 20
9.0832515708
 10
13.0364010771
 20
9.3586500863
 10
12.6170679234
 20
9.6459922228
  0
LWPOLYLINE
  5
398
100
AcDbEntity
  8
0
100
AcDbPolyline
 62
7
  6
CONTINUOUS
 90
10
 70
0
 10
33.9747993745
 20
-6.7007968647
 10
33.9039375492
 20
-6.6601273754
 10
33.8292229265
 20
-6.6296252584
 10
33.7506555064
 20
-6.6092905138
 10
33.6656667572
 20
-6.5991231414
 10
33.5768252105
 20
-6.5991231414
 10
33.4918364613
 20
-6.6092905138
 10
33.4132690412
 20
-6.6296252584
 10
33.3385544185
 20
-6.6601273754
 10
33.2676925933
 20
-6.7007968647
  0
LWPOLYLINE
  5
399
100
AcDbEntity
  8
0
100
AcDbPolyline
 62
7
  6
CONTINUOUS
 90
10
 70
0
 10
33.9747993745
 20
-5.9936900835
 10
33.9039375492
 20
-5.9530205942
 10
33.8292229265
 20
-5.9225184772
 10
33.7506555064
 20
-5.9021837326
 10
33.6656667572
 20
-5.8920163602
 10
33.5768252105
 20
-5.8920163602
 10
33.4918364613
 20
-5.9021837326
 10
33.4132690412
 20
-5.9225184772
 10
33.3385544185
 20
-5.9530205942
 10
33.2676925933
 20
-5.9936900835
  0
LWPOLYLINE
  5
39A
100
AcDbEntity
  8
RACCORDO
100
AcDbPolyline
 62
250
  6
CONTINUOUS
 90
15
 70
0
 10
18.0812796892
 20
4.7537029351
 10
17.639394725
 20
5.0083570125
 10
17.2177618575
 20
5.2578079553
 10
16.8155690417
 20
5.5012404639
 10
16.4361783645
 20
5.7353135501
 10
16.0746054659
 20
5.9620259118
 10
15.7179748954
 20
6.1889230866
 10
15.3645398565
 20
6.416718109
 10
15.0154446778
 20
6.6442391123
 10
14.6626757972
 20
6.8765344239
 10
14.3055752753
 20
7.1138730236
 10
13.9445430813
 20
7.3557937526
 10
13.5733862743
 20
7.6063808988
 10
13.1910509675
 20
7.8662694012
 10
12.7984784442
 20
8.134738912
  0
LINE
  5
39B
100
AcDbEntity
  8
RACCORDO
100
AcDbLine
 62
250
  6
CONTINUOUS
 10
12.7984784442
 20
8.134738912
 11
11.9718526422
 21
8.7045814368
  0
LINE
  5
39C
100
AcDbEntity
  8
RACCORDO
100
AcDbLine
 62
250
  6
CONTINUOUS
 10
11.9718526422
 20
8.7045814368
 11
11.0909684204
 21
9.3170737429
  0
LINE
  5
39D
100
AcDbEntity
  8
RACCORDO
100
AcDbLine
 62
250
  6
CONTINUOUS
 10
11.0909684204
 20
9.3170737429
 11
10.1601617752
 21
9.9684665336
  0
LINE
  5
39E
100
AcDbEntity
  8
RACCORDO
100
AcDbLine
 62
250
  6
CONTINUOUS
 10
10.1601617752
 20
9.9684665336
 11
9.1792101798
 21
10.6583432725
  0
LINE
  5
39F
100
AcDbEntity
  8
RACCORDO
100
AcDbLine
 62
250
  6
CONTINUOUS
 10
-18.5863199868
 20
30.304085379
 11
-28.9390772499
 21
37.6105543503
  0
LINE
  5
3A0
100
AcDbEntity
  8
RACCORDO
100
AcDbLine
 62
250
  6
CONTINUOUS
 10
9.1792101798
 20
10.6583432725
 11
7.6024284334
 21
11.7718337586
  0
LINE
  5
3A1
100
AcDbEntity
  8
0
100
AcDbLine
 62
7
  6
CONTINUOUS
 10
34.8233275119
 20
-7.3007968647
 11
33.9747993745
 21
-6.7007968647
  0
LINE
  5
3A2
100
AcDbEntity
  8
RACCORDO
100
AcDbLine
 62
250
  6
CONTINUOUS
 10
-28.9390772499
 20
37.6105543503
 11
-30.0113988672
 21
38.3695065585
  0
LINE
  5
3A3
100
AcDbEntity
  8
RACCORDO
100
AcDbLine
 62
250
  6
CONTINUOUS
 10
7.6024284334
 20
11.7718337586
 11
-18.5863199868
 21
30.304085379
  0
LINE
  5
3A4
100
AcDbEntity
  8
RACCORDO
100
AcDbLine
 62
250
  6
CONTINUOUS
 10
-30.0113988672
 20
38.3695065585
 11
-31.0104514523
 21
39.0787779462
  0
LINE
  5
3A5
100
AcDbEntity
  8
RACCORDO
100
AcDbLine
 62
250
  6
CONTINUOUS
 10
-31.0104514523
 20
39.0787779462
 11
-31.9508629864
 21
39.7493591148
  0
LINE
  5
3A6
100
AcDbEntity
  8
RACCORDO
100
AcDbLine
 62
250
  6
CONTINUOUS
 10
-31.9508629864
 20
39.7493591148
 11
-32.8314722067
 21
40.3809697426
  0
LWPOLYLINE
  5
3A7
100
AcDbEntity
  8
RACCORDO
100
AcDbPolyline
 62
250
  6
CONTINUOUS
 90
17
 70
0
 10
-32.8314722067
 20
40.3809697426
 10
-33.6515902829
 20
40.9738210892
 10
-34.0364837707
 20
41.2540781261
 10
-34.4054935043
 20
41.5242930142
 10
-34.7621718043
 20
41.7871068848
 10
-35.1056977022
 20
42.0419891103
 10
-35.436788536
 20
42.289536149
 10
-35.7612343652
 20
42.534149248
 10
-36.0784151101
 20
42.7755595304
 10
-36.3886984144
 20
43.0142078947
 10
-36.6991628192
 20
43.2557344767
 10
-37.0083512038
 20
43.4994762897
 10
-37.3170917283
 20
43.7465222886
 10
-37.6354276086
 20
44.0055137874
 10
-37.9659997666
 20
44.2798200574
 10
-38.304334232
 20
44.5672234353
 10
-38.6493166843
 20
44.8682936601
  0
LWPOLYLINE
  5
3A8
100
AcDbEntity
  8
RACCORDO
100
AcDbPolyline
 62
250
  6
CONTINUOUS
 90
16
 70
0
 10
-37.8929262301
 20
45.8153286563
 10
-38.0296737925
 20
45.9271271393
 10
-38.1702421467
 20
46.0311893161
 10
-38.3140195649
 20
46.1265028854
 10
-38.4607972727
 20
46.212274078
 10
-38.6093179801
 20
46.2871354067
 10
-38.7573645996
 20
46.3495337394
 10
-38.9041368639
 20
46.3987496219
 10
-39.0488076294
 20
46.4341632454
 10
-39.1892827348
 20
46.4551127295
 10
-39.3246840262
 20
46.461410817
 10
-39.4544898319
 20
46.4529298082
 10
-39.5774046361
 20
46.4297531572
 10
-39.692577148
 20
46.392229682
 10
-39.7998921753
 20
46.3405441045
 10
-39.8850759468
 20
46.285368896
  0
LWPOLYLINE
  5
3A9
100
AcDbEntity
  8
0
100
AcDbPolyline
 62
7
  6
CONTINUOUS
 90
5
 70
0
 10
-34.4272866894
 20
48.8178391743
 10
-34.516984869
 20
48.8994969277
 10
-34.6002499015
 20
48.9811468543
 10
-34.6772397483
 20
49.0624646357
 10
-34.7483114134
 20
49.1431907839
  0
LWPOLYLINE
  5
3AA
100
AcDbEntity
  8
RACCORDO
100
AcDbPolyline
 62
7
  6
CONTINUOUS
 90
3
 70
0
 10
-18.9174910096
 20
37.7234942543
 10
-18.8955091256
 20
37.6993896922
 10
-18.8680463857
 20
37.6722306663
  0
LWPOLYLINE
  5
3AB
100
AcDbEntity
  8
RACCORDO
100
AcDbPolyline
 62
250
  6
CONTINUOUS
 90
13
 70
0
 10
18.0812796892
 20
4.7537029351
 10
18.1006249621
 20
4.845522911
 10
18.1267981929
 20
4.9406965711
 10
18.159487601
 20
5.0380901865
 10
18.1983037834
 20
5.1365435835
 10
18.242784354
 20
5.2348839643
 10
18.2923994512
 20
5.331939877
 10
18.3465580498
 20
5.4265551708
 10
18.4046150014
 20
5.5176027682
 10
18.4658787198
 20
5.6039980905
 10
18.5296194191
 20
5.6847119781
 10
18.5950778068
 20
5.7587829498
 10
18.6614741292
 20
5.8253286563
  0
LINE
  5
3AC
100
AcDbEntity
  8
0
100
AcDbLine
 62
7
  6
CONTINUOUS
 10
2.5497545783
 20
-38.9757265387
 11
2.606124107
 21
-38.8297426552
  0
LINE
  5
3AD
100
AcDbEntity
  8
0
100
AcDbLine
 62
7
  6
CONTINUOUS
 10
2.5256345352
 20
-38.7726121884
 11
2.4082605209
 21
-39.0757779462
  0
LINE
  5
3AE
100
AcDbEntity
  8
0
100
AcDbLine
 62
7
  6
CONTINUOUS
 10
1.9981236809
 20
-38.7857721438
 11
2.1827326053
 21
-38.310675215
  0
LINE
  5
3AF
100
AcDbEntity
  8
0
100
AcDbLine
 62
7
  6
CONTINUOUS
 10
2.782027832
 20
-38.3786053569
 11
2.8654010822
 21
-38.16705196
  0
LINE
  5
3B0
100
AcDbEntity
  8
0
100
AcDbLine
 62
7
  6
CONTINUOUS
 10
2.1827326053
 20
-38.310675215
 11
2.3711910889
 21
-37.833871348
  0
LWPOLYLINE
  5
3B1
100
AcDbEntity
  8
0
100
AcDbPolyline
 62
7
  6
CONTINUOUS
 90
3
 70
0
 10
2.8263700587
 20
-38.0092411036
 10
2.8060471123
 20
-38.0602208636
 10
2.6405674518
 20
-38.478632951
  0
LINE
  5
3B2
100
AcDbEntity
  8
0
100
AcDbLine
 62
7
  6
CONTINUOUS
 10
2.3711910889
 20
-37.833871348
 11
2.5337446648
 21
-37.428561662
  0
LINE
  5
3B3
100
AcDbEntity
  8
0
100
AcDbLine
 62
7
  6
CONTINUOUS
 10
2.5337446648
 20
-37.428561662
 11
2.6138261129
 21
-37.2308225328
  0
LINE
  5
3B4
100
AcDbEntity
  8
DRAFT
100
AcDbLine
 62
7
  6
CONTINUOUS
 10
32.8434285246
 20
1.9769009296
 11
34.0813474687
 21
2.8616562561
  0
LINE
  5
3B5
100
AcDbEntity
  8
0
100
AcDbLine
 62
7
  6
CONTINUOUS
 10
34.9224628623
 20
2.6784699306
 11
37.5832147646
 21
4.5599056437
  0
LINE
  5
3B6
100
AcDbEntity
  8
0
100
AcDbLine
 62
7
  6
CONTINUOUS
 10
32.8434285246
 20
1.1309311189
 11
33.2676925933
 21
1.4309311189
  0
LINE
  5
3B7
100
AcDbEntity
  8
0
100
AcDbLine
 62
7
  6
CONTINUOUS
 10
34.5404847994
 20
2.3309311189
 11
34.6111954775
 21
2.3809311189
  0
LINE
  5
3B8
100
AcDbEntity
  8
0
100
AcDbLine
 62
7
  6
CONTINUOUS
 10
35.2327515088
 20
2.4470963146
 11
38.055973311
 21
4.4434155957
  0
LINE
  5
3B9
100
AcDbEntity
  8
0
100
AcDbLine
 62
7
  6
CONTINUOUS
 10
38.3876389298
 20
4.5163469902
 11
39.4049405343
 21
5.2356878533
  0
LINE
  5
3BA
100
AcDbEntity
  8
0
100
AcDbLine
 62
250
  6
CONTINUOUS
 10
35.3183022587
 20
2.1738243378
 11
34.9647488681
 21
1.9238243378
  0
LINE
  5
3BB
100
AcDbEntity
  8
0
100
AcDbLine
 62
7
  6
CONTINUOUS
 10
32.8434285246
 20
0.4238243378
 11
33.2676925933
 21
0.7238243378
  0
LWPOLYLINE
  5
3BC
100
AcDbEntity
  8
0
100
AcDbPolyline
 62
7
  6
CONTINUOUS
 90
11
 70
0
 10
37.5832147646
 20
4.5599056437
 10
37.5924702807
 20
4.5662736383
 10
37.6456460999
 20
4.5967346008
 10
37.7034401468
 20
4.62005483
 10
37.7655708545
 20
4.6361207123
 10
37.8317355284
 20
4.6448539762
 10
37.9016118211
 20
4.6462120741
 10
37.9748593021
 20
4.6401883896
 10
38.0511211172
 20
4.6268122694
 10
38.1300257263
 20
4.6061488806
 10
38.18109878
 20
4.5893699605
  0
LINE
  5
3BD
100
AcDbEntity
  8
DRAFT
100
AcDbLine
 62
7
  6
CONTINUOUS
 10
33.008189616
 20
5.2942099908
 11
32.8434285246
 21
5.1811475473
  0
LWPOLYLINE
  5
3BE
100
AcDbEntity
  8
0
100
AcDbPolyline
 62
7
  6
CONTINUOUS
 90
31
 70
0
 10
39.4049405343
 20
5.2356878533
 10
39.4536706373
 20
5.2658051472
 10
39.5072691273
 20
5.2903431996
 10
39.565477092
 20
5.3086618191
 10
39.6280789992
 20
5.3201897946
 10
39.6946720033
 20
5.3243847865
 10
39.7647972035
 20
5.3208168221
 10
39.838977772
 20
5.3089733507
 10
39.9164059109
 20
5.2884727721
 10
39.9946258242
 20
5.2598763205
 10
40.0729529801
 20
5.2236967886
 10
40.1515700775
 20
5.1800481262
 10
40.2290733204
 20
5.1299391497
 10
40.3046744372
 20
5.0742679104
 10
40.3784812886
 20
5.0132983298
 10
40.4502387421
 20
4.9474747285
 10
40.5195160595
 20
4.8773943727
 10
40.5860275743
 20
4.8035261175
 10
40.6496263408
 20
4.7261516744
 10
40.7099549459
 20
4.6457721701
 10
40.7666581888
 20
4.5629083341
 10
40.8195365659
 20
4.4778488695
 10
40.8682474162
 20
4.3910803287
 10
40.9124356811
 20
4.3031362992
 10
40.9518605932
 20
4.2143199777
 10
40.9862106969
 20
4.1250267541
 10
41.0150892153
 20
4.0358738437
 10
41.0381576762
 20
3.9473595266
 10
41.0550895801
 20
3.859898444
 10
41.0655261317
 20
3.7739616361
 10
41.069090491
 20
3.6900671271
  0
LWPOLYLINE
  5
3BF
100
AcDbEntity
  8
0
100
AcDbPolyline
 62
7
  6
CONTINUOUS
 90
7
 70
0
 10
34.6111954775
 20
2.3809311189
 10
34.7395726461
 20
2.4583610035
 10
34.8574237763
 20
2.5101162217
 10
34.9647488681
 20
2.5361967734
 10
35.0641164532
 20
2.5358503533
 10
35.1529579998
 20
2.5098292667
 10
35.1876144813
 20
2.4909762465
  0
LWPOLYLINE
  5
3C0
100
AcDbEntity
  8
0
100
AcDbPolyline
 62
7
  6
CONTINUOUS
 90
10
 70
0
 10
33.2676925933
 20
1.4309311189
 10
33.3385544185
 20
1.4716006082
 10
33.4132690412
 20
1.5021027252
 10
33.4918364613
 20
1.5224374699
 10
33.5768252105
 20
1.5326048422
 10
33.6656667572
 20
1.5326048422
 10
33.7506555064
 20
1.5224374699
 10
33.8292229265
 20
1.5021027252
 10
33.9039375492
 20
1.4716006082
 10
33.9747993745
 20
1.4309311189
  0
LWPOLYLINE
  5
3C1
100
AcDbEntity
  8
0
100
AcDbPolyline
 62
7
  6
CONTINUOUS
 90
10
 70
0
 10
33.2676925933
 20
0.7238243378
 10
33.3385544185
 20
0.7644938271
 10
33.4132690412
 20
0.794995944
 10
33.4918364613
 20
0.8153306887
 10
33.5768252105
 20
0.825498061
 10
33.6656667572
 20
0.825498061
 10
33.7506555064
 20
0.8153306887
 10
33.8292229265
 20
0.794995944
 10
33.9039375492
 20
0.7644938271
 10
33.9747993745
 20
0.7238243378
  0
LINE
  5
3C2
100
AcDbEntity
  8
0
100
AcDbLine
 62
7
  6
CONTINUOUS
 10
38.5281100186
 20
4.4666829605
 11
38.18109878
 21
4.5893699605
  0
LINE
  5
3C3
100
AcDbEntity
  8
0
100
AcDbLine
 62
7
  6
CONTINUOUS
 10
38.5281100186
 20
4.4666829605
 11
38.5395572345
 21
4.4625560986
  0
LWPOLYLINE
  5
3C4
100
AcDbEntity
  8
0
100
AcDbPolyline
 62
7
  6
CONTINUOUS
 90
6
 70
0
 10
38.18109878
 20
4.5893699605
 10
38.2111887143
 20
4.5782988931
 10
38.2942146631
 20
4.5433979894
 10
38.3786990787
 20
4.5016162031
 10
38.4642303616
 20
4.4531570909
 10
38.5503918118
 20
4.3982567407
  0
LWPOLYLINE
  5
3C5
100
AcDbEntity
  8
0
100
AcDbPolyline
 62
7
  6
CONTINUOUS
 90
6
 70
0
 10
23.5702851015
 20
8.1816947912
 10
23.4387573652
 20
8.2316052111
 10
23.3007239019
 20
8.2702077462
 10
23.1564425238
 20
8.2973927736
 10
23.0056554187
 20
8.3132699163
 10
22.8483625867
 20
8.3178391743
  0
LWPOLYLINE
  5
3C6
100
AcDbEntity
  8
RACCORDO
100
AcDbPolyline
 62
250
  6
CONTINUOUS
 90
3
 70
0
 10
23.7264933831
 20
8.0749983872
 10
23.8278348763
 20
8.036454575
 10
23.9308064375
 20
7.9967325662
  0
LWPOLYLINE
  5
3C7
100
AcDbEntity
  8
RACCORDO
100
AcDbPolyline
 62
250
  6
CONTINUOUS
 90
10
 70
0
 10
23.9308064375
 20
7.9967325662
 10
24.141709098
 20
7.9137081021
 10
24.2495013747
 20
7.8703962012
 10
24.3576862865
 20
7.8259594064
 10
24.4662391131
 20
7.7804185311
 10
24.5750610193
 20
7.7338098501
 10
24.6830357199
 20
7.6862730542
 10
24.790012258
 20
7.6378967379
 10
24.8960553566
 20
7.5887041042
 10
25.0004051713
 20
7.5387694443
  0
LINE
  5
3C8
100
AcDbEntity
  8
RACCORDO
100
AcDbLine
 62
7
  6
CONTINUOUS
 10
23.7325241722
 20
8.0721083781
 11
23.922194485
 21
7.9807863673
  0
LWPOLYLINE
  5
3C9
100
AcDbEntity
  8
RACCORDO
100
AcDbPolyline
 62
7
  6
CONTINUOUS
 90
18
 70
0
 10
23.922194485
 20
7.9807863673
 10
24.1230116083
 20
7.8826134087
 10
24.2252305092
 20
7.8317757456
 10
24.3275068103
 20
7.7801801983
 10
24.4298077914
 20
7.7277469394
 10
24.532056633
 20
7.6743951698
 10
24.6331963987
 20
7.62057212
 10
24.7330763034
 20
7.5662963088
 10
24.8317677311
 20
7.5114543433
 10
24.928581778
 20
7.4563569848
 10
25.0234044122
 20
7.4010376297
 10
25.1162994106
 20
7.345423572
 10
25.2068733861
 20
7.289713961
 10
25.2950505199
 20
7.2339488177
 10
25.3808806195
 20
7.1780895087
 10
25.4641797414
 20
7.1222495491
 10
25.5449066297
 20
7.0664675238
 10
25.5641097257
 20
7.0529403593
  0
LWPOLYLINE
  5
3CA
100
AcDbEntity
  8
RACCORDO
100
AcDbPolyline
 62
250
  6
CONTINUOUS
 90
5
 70
0
 10
25.0004051713
 20
7.5387694443
 10
25.1029436945
 20
7.4881765783
 10
25.2037356326
 20
7.4369741234
 10
25.3023185774
 20
7.3851977625
 10
25.3986107005
 20
7.3329236708
  0
LWPOLYLINE
  5
3CB
100
AcDbEntity
  8
0
100
AcDbPolyline
 62
7
  6
CONTINUOUS
 90
6
 70
0
 10
23.5874672182
 20
7.9189091512
 10
23.4364428555
 20
7.9961659849
 10
23.2866408253
 20
8.074446657
 10
23.1390012242
 20
8.1539139735
 10
22.9928726165
 20
8.234971776
 10
22.8483625867
 20
8.3178391743
  0
LWPOLYLINE
  5
3CC
100
AcDbEntity
  8
RACCORDO
100
AcDbPolyline
 62
250
  6
CONTINUOUS
 90
3
 70
0
 10
25.3986107005
 20
7.3329236708
 10
25.4926667427
 20
7.2802090065
 10
25.5842431704
 20
7.2270643961
  0
LINE
  5
3CD
100
AcDbEntity
  8
RACCORDO
100
AcDbLine
 62
250
  6
CONTINUOUS
 10
26.9089079654
 20
4.7793987179
 11
26.8798261507
 21
4.7984751005
  0
LINE
  5
3CE
100
AcDbEntity
  8
RACCORDO
100
AcDbLine
 62
250
  6
CONTINUOUS
 10
12.6170679234
 20
9.6459922228
 11
11.738386921
 21
10.2528849363
  0
LINE
  5
3CF
100
AcDbEntity
  8
RACCORDO
100
AcDbLine
 62
250
  6
CONTINUOUS
 10
11.738386921
 20
10.2528849363
 11
10.8091867048
 21
10.8999988768
  0
LINE
  5
3D0
100
AcDbEntity
  8
RACCORDO
100
AcDbLine
 62
250
  6
CONTINUOUS
 10
10.8091867048
 20
10.8999988768
 11
9.8292865456
 21
11.5865133294
  0
LINE
  5
3D1
100
AcDbEntity
  8
RACCORDO
100
AcDbLine
 62
250
  6
CONTINUOUS
 10
9.8292865456
 20
11.5865133294
 11
8.7949767924
 21
12.3144686963
  0
LINE
  5
3D2
100
AcDbEntity
  8
RACCORDO
100
AcDbLine
 62
250
  6
CONTINUOUS
 10
8.7949767924
 20
12.3144686963
 11
7.1161939582
 21
13.5001812269
  0
LINE
  5
3D3
100
AcDbEntity
  8
0
100
AcDbLine
 62
7
  6
CONTINUOUS
 10
34.8233275119
 20
-6.5936900835
 11
33.9747993745
 21
-5.9936900835
  0
LINE
  5
3D4
100
AcDbEntity
  8
0
100
AcDbLine
 62
7
  6
CONTINUOUS
 10
34.5404847994
 20
-5.0936900835
 11
34.9647488681
 21
-5.3936900835
  0
LINE
  5
3D5
100
AcDbEntity
  8
0
100
AcDbLine
 62
7
  6
CONTINUOUS
 10
32.8434285246
 20
-3.7936900835
 11
34.6111954775
 21
-5.0436900835
  0
LINE
  5
3D6
100
AcDbEntity
  8
RACCORDO
100
AcDbLine
 62
250
  6
CONTINUOUS
 10
-10.9006099061
 20
26.2475500865
 11
-26.5134778271
 21
37.2801000574
  0
LINE
  5
3D7
100
AcDbEntity
  8
RACCORDO
100
AcDbLine
 62
250
  6
CONTINUOUS
 10
-26.5134778271
 20
37.2801000574
 11
-28.2869593745
 21
38.5345976649
  0
LINE
  5
3D8
100
AcDbEntity
  8
RACCORDO
100
AcDbLine
 62
250
  6
CONTINUOUS
 10
7.1161939582
 20
13.5001812269
 11
-10.9006099061
 21
26.2475500865
  0
LINE
  5
3D9
100
AcDbEntity
  8
RACCORDO
100
AcDbLine
 62
250
  6
CONTINUOUS
 10
-28.2869593745
 20
38.5345976649
 11
-29.3577339729
 21
39.2943885256
  0
LINE
  5
3DA
100
AcDbEntity
  8
RACCORDO
100
AcDbLine
 62
250
  6
CONTINUOUS
 10
-29.3577339729
 20
39.2943885256
 11
-30.3547213314
 21
40.0045308305
  0
LINE
  5
3DB
100
AcDbEntity
  8
RACCORDO
100
AcDbLine
 62
250
  6
CONTINUOUS
 10
-30.3547213314
 20
40.0045308305
 11
-31.2923952135
 21
40.6760565831
  0
LWPOLYLINE
  5
3DC
100
AcDbEntity
  8
RACCORDO
100
AcDbPolyline
 62
250
  6
CONTINUOUS
 90
19
 70
0
 10
-31.2923952135
 20
40.6760565831
 10
-32.1692701486
 20
41.3088254817
 10
-32.5850484307
 20
41.6108871303
 10
-32.9847077495
 20
41.9029206462
 10
-33.3668192301
 20
42.1838901939
 10
-33.7328117473
 20
42.454831609
 10
-34.086085204
 20
42.718467556
 10
-34.4259408565
 20
42.9741886389
 10
-34.7530774484
 20
43.2226042537
 10
-35.072991113
 20
43.4682652523
 10
-35.3853755713
 20
43.7106929127
 10
-35.6905371022
 20
43.9503659569
 10
-35.9948906761
 20
44.1932714026
 10
-36.2977579026
 20
44.4382652886
 10
-36.5998171721
 20
44.6864915761
 10
-36.9095186255
 20
44.9473691664
 10
-37.2296789765
 20
45.2240376935
 10
-37.5574815113
 20
45.5133575234
 10
-37.8929262301
 20
45.8153286563
  0
LWPOLYLINE
  5
3DD
100
AcDbEntity
  8
RACCORDO
100
AcDbPolyline
 62
7
  6
CONTINUOUS
 90
5
 70
0
 10
-18.8680463857
 20
37.6722306663
 10
-18.8353539138
 20
37.6430306344
 10
-18.7978034811
 20
37.6123924274
 10
-18.7557666097
 20
37.5801585743
 10
-18.709604733
 20
37.5465633957
  0
LINE
  5
3DE
100
AcDbEntity
  8
RACCORDO
100
AcDbLine
 62
250
  6
CONTINUOUS
 10
20.9374198189
 20
-53.1763972884
 11
20.9296703357
 21
-52.6257062567
  0
LINE
  5
3DF
100
AcDbEntity
  8
RACCORDO
100
AcDbLine
 62
250
  6
CONTINUOUS
 10
20.9296703357
 20
-52.6257062567
 11
20.9230482974
 21
-51.9793404018
  0
LINE
  5
3E0
100
AcDbEntity
  8
RACCORDO
100
AcDbLine
 62
250
  6
CONTINUOUS
 10
19.7519064552
 20
-53.2943587169
 11
19.7461943325
 21
-52.6208862179
  0
LINE
  5
3E1
100
AcDbEntity
  8
RACCORDO
100
AcDbLine
 62
250
  6
CONTINUOUS
 10
20.9230482974
 20
-51.9793404018
 11
20.9178204163
 21
-51.2202801776
  0
LINE
  5
3E2
100
AcDbEntity
  8
RACCORDO
100
AcDbLine
 62
250
  6
CONTINUOUS
 10
19.7461943325
 20
-52.6208862179
 11
19.7421315361
 21
-51.8051230542
  0
LINE
  5
3E3
100
AcDbEntity
  8
RACCORDO
100
AcDbLine
 62
250
  6
CONTINUOUS
 10
20.9178204163
 20
-51.2202801776
 11
20.9141710383
 21
-50.331609069
  0
LINE
  5
3E4
100
AcDbEntity
  8
RACCORDO
100
AcDbLine
 62
250
  6
CONTINUOUS
 10
19.7421315361
 20
-51.8051230542
 11
19.7401036858
 21
-50.8176741335
  0
LINE
  5
3E5
100
AcDbEntity
  8
RACCORDO
100
AcDbLine
 62
250
  6
CONTINUOUS
 10
20.9141710383
 20
-50.331609069
 11
20.9118985936
 21
-49.0702872236
  0
LINE
  5
3E6
100
AcDbEntity
  8
RACCORDO
100
AcDbLine
 62
250
  6
CONTINUOUS
 10
19.7393175912
 20
-28.8859390221
 11
19.7369148672
 21
-26.9800778682
  0
LINE
  5
3E7
100
AcDbEntity
  8
RACCORDO
100
AcDbLine
 62
250
  6
CONTINUOUS
 10
19.7574950239
 20
-39.487660968
 11
19.7393175912
 21
-28.8859390221
  0
LINE
  5
3E8
100
AcDbEntity
  8
RACCORDO
100
AcDbLine
 62
250
  6
CONTINUOUS
 10
20.8788895577
 20
-27.3070616486
 11
20.8781825039
 21
-25.9998815275
  0
LINE
  5
3E9
100
AcDbEntity
  8
RACCORDO
100
AcDbLine
 62
250
  6
CONTINUOUS
 10
20.9137173001
 20
-43.3176469861
 11
20.8788895577
 21
-27.3070616486
  0
LINE
  5
3EA
100
AcDbEntity
  8
RACCORDO
100
AcDbLine
 62
250
  6
CONTINUOUS
 10
20.9118985936
 20
-49.0702872236
 11
20.9116100949
 21
-47.5673541292
  0
LINE
  5
3EB
100
AcDbEntity
  8
RACCORDO
100
AcDbLine
 62
250
  6
CONTINUOUS
 10
20.9116100949
 20
-47.5673541292
 11
20.9118411869
 21
-47.0070106576
  0
LINE
  5
3EC
100
AcDbEntity
  8
RACCORDO
100
AcDbLine
 62
250
  6
CONTINUOUS
 10
20.9131871079
 20
-44.7872108555
 11
20.9137173001
 21
-43.3176469861
  0
LINE
  5
3ED
100
AcDbEntity
  8
RACCORDO
100
AcDbLine
 62
250
  6
CONTINUOUS
 10
20.9118411869
 20
-47.0070106576
 11
20.9131871079
 21
-44.7872108555
  0
LWPOLYLINE
  5
3EE
100
AcDbEntity
  8
RACCORDO
100
AcDbPolyline
 62
250
  6
CONTINUOUS
 90
5
 70
0
 10
19.7369148672
 20
-26.9800778682
 10
19.7379403936
 20
-25.0826520137
 10
19.7433193985
 20
-23.9990720447
 10
19.7523616541
 20
-22.8744370547
 10
19.7644834143
 20
-21.6966036945
  0
LINE
  5
3EF
100
AcDbEntity
  8
RACCORDO
100
AcDbLine
 62
250
  6
CONTINUOUS
 10
19.7401036858
 20
-50.8176741335
 11
19.7405739177
 21
-49.4100203637
  0
LWPOLYLINE
  5
3F0
100
AcDbEntity
  8
RACCORDO
100
AcDbPolyline
 62
250
  6
CONTINUOUS
 90
5
 70
0
 10
20.8781825039
 20
-25.9998815275
 10
20.8799635346
 20
-24.9596490279
 10
20.884498806
 20
-23.8782810638
 10
20.8917883183
 20
-22.7557776353
 10
20.9026533811
 20
-21.5789029828
  0
LINE
  5
3F1
100
AcDbEntity
  8
RACCORDO
100
AcDbLine
 62
250
  6
CONTINUOUS
 10
19.7522098542
 20
-44.1887297899
 11
19.7574950239
 21
-39.487660968
  0
LINE
  5
3F2
100
AcDbEntity
  8
RACCORDO
100
AcDbLine
 62
250
  6
CONTINUOUS
 10
19.7405739177
 20
-49.4100203637
 11
19.7432589369
 21
-47.94996848
  0
LINE
  5
3F3
100
AcDbEntity
  8
RACCORDO
100
AcDbLine
 62
250
  6
CONTINUOUS
 10
19.7506558236
 20
-44.9032997717
 11
19.7522098542
 21
-44.1887297899
  0
LINE
  5
3F4
100
AcDbEntity
  8
RACCORDO
100
AcDbLine
 62
250
  6
CONTINUOUS
 10
19.7432589369
 20
-47.94996848
 11
19.7506558236
 21
-44.9032997717
  0
LINE
  5
3F5
100
AcDbEntity
  8
RACCORDO
100
AcDbLine
 62
250
  6
CONTINUOUS
 10
19.8769046671
 20
-11.363198181
 11
19.9122997481
 21
-6.0547977111
  0
LINE
  5
3F6
100
AcDbEntity
  8
RACCORDO
100
AcDbLine
 62
250
  6
CONTINUOUS
 10
21.0022208007
 20
-12.2471753065
 11
21.0369644702
 21
-7.5818003486
  0
LWPOLYLINE
  5
3F7
100
AcDbEntity
  8
RACCORDO
100
AcDbPolyline
 62
250
  6
CONTINUOUS
 90
13
 70
0
 10
21.0369644702
 20
-7.5818003486
 10
21.050483943
 20
-5.9356214174
 10
21.0579298145
 20
-5.1544871443
 10
21.067073081
 20
-4.3964035071
 10
21.0777396444
 20
-3.6607747659
 10
21.0901036028
 20
-2.9481966605
 10
21.1058881403
 20
-2.2554841185
 10
21.1249213401
 20
-1.5820039522
 10
21.1473751191
 20
-0.9283893493
 10
21.1754884119
 20
-0.2933547997
 10
21.2100075301
 20
0.3235281999
 10
21.2501861623
 20
0.9218311461
 10
21.2960243083
 20
1.501554039
  0
LINE
  5
3F8
100
AcDbEntity
  8
RACCORDO
100
AcDbLine
 62
250
  6
CONTINUOUS
 10
19.85969364
 20
-13.4163629759
 11
19.8769046671
 21
-11.363198181
  0
LWPOLYLINE
  5
3F9
100
AcDbEntity
  8
RACCORDO
100
AcDbPolyline
 62
250
  6
CONTINUOUS
 90
11
 70
0
 10
19.9122997481
 20
-6.0547977111
 10
19.9254776021
 20
-4.5116993473
 10
19.9337384095
 20
-3.7732848202
 10
19.9437757615
 20
-3.0568437733
 10
19.9558860715
 20
-2.3595460501
 10
19.970647784
 20
-1.6802987207
 10
19.9888679828
 20
-1.0190962924
 10
20.0109633512
 20
-0.3749054427
 10
20.0374702325
 20
0.2529201851
 10
20.0695475086
 20
0.8648799874
 10
20.108153155
 20
1.4615082613
  0
LINE
  5
3FA
100
AcDbEntity
  8
RACCORDO
100
AcDbLine
 62
250
  6
CONTINUOUS
 10
20.9825973598
 20
-14.385042322
 11
21.0022208007
 21
-12.2471753065
  0
LINE
  5
3FB
100
AcDbEntity
  8
RACCORDO
100
AcDbLine
 62
250
  6
CONTINUOUS
 10
19.8373157992
 20
-15.6337017682
 11
19.85969364
 21
-13.4163629759
  0
LWPOLYLINE
  5
3FC
100
AcDbEntity
  8
RACCORDO
100
AcDbPolyline
 62
250
  6
CONTINUOUS
 90
3
 70
0
 10
20.9026533811
 20
-21.5789029828
 10
20.9581622779
 20
-16.6971406282
 10
20.9825973598
 20
-14.385042322
  0
LINE
  5
3FD
100
AcDbEntity
  8
RACCORDO
100
AcDbLine
 62
250
  6
CONTINUOUS
 10
19.8091297843
 20
-18.0379485327
 11
19.8373157992
 21
-15.6337017682
  0
LINE
  5
3FE
100
AcDbEntity
  8
RACCORDO
100
AcDbLine
 62
250
  6
CONTINUOUS
 10
19.7644834143
 20
-21.6966036945
 11
19.8091297843
 21
-18.0379485327
  0
LWPOLYLINE
  5
3FF
100
AcDbEntity
  8
RACCORDO
100
AcDbPolyline
 62
250
  6
CONTINUOUS
 90
25
 70
0
 10
21.2960243083
 20
1.501554039
 10
21.3011153608
 20
1.6818439062
 10
21.2935053342
 20
1.8684894728
 10
21.273221946
 20
2.0607255761
 10
21.2402624393
 20
2.2576740355
 10
21.1948372737
 20
2.4585806074
 10
21.1373588047
 20
2.6628239609
 10
21.0679899949
 20
2.8696783784
 10
20.9870376492
 20
3.0780896321
 10
20.8952510169
 20
3.286907015
 10
20.7932475916
 20
3.4948997508
 10
20.6813126267
 20
3.7014335784
 10
20.5597447993
 20
3.906236336
 10
20.4287138916
 20
4.1089300611
 10
20.2889951822
 20
4.3079909761
 10
20.1419003822
 20
4.5014776781
 10
19.9879636799
 20
4.6887659779
 10
19.8280383705
 20
4.8688021951
 10
19.6641845434
 20
5.0392853742
 10
19.497127081
 20
5.1997393353
 10
19.327768761
 20
5.3496645016
 10
19.1586124559
 20
5.4872640569
 10
18.9910172516
 20
5.612081982
 10
18.8251007059
 20
5.7247128737
 10
18.6614741292
 20
5.8253286563
  0
LWPOLYLINE
  5
400
100
AcDbEntity
  8
RACCORDO
100
AcDbPolyline
 62
250
  6
CONTINUOUS
 90
25
 70
0
 10
20.1081593303
 20
1.4615151306
 10
20.1125603579
 20
1.5984138696
 10
20.1068712028
 20
1.7401230291
 10
20.0911318893
 20
1.8860411982
 10
20.0654767991
 20
2.0355524183
 10
20.030137608
 20
2.1881289577
 10
19.9853250523
 20
2.343308082
 10
19.9312481398
 20
2.5006467602
 10
19.8682784044
 20
2.6593781065
 10
19.7969179701
 20
2.8185372912
 10
19.7176952719
 20
2.9772449254
 10
19.6309494522
 20
3.1350623185
 10
19.536902669
 20
3.2916703434
 10
19.4356806705
 20
3.4467777095
 10
19.3279325827
 20
3.599224093
 10
19.2147282926
 20
3.7474164237
 10
19.0964516775
 20
3.890802464
 10
18.9737203224
 20
4.0285374908
 10
18.8481644772
 20
4.1588139301
 10
18.7203287093
 20
4.281185795
 10
18.590802505
 20
4.3952124977
 10
18.4614481054
 20
4.4995496455
 10
18.3332764843
 20
4.5938443525
 10
18.2063762564
 20
4.6785118311
 10
18.0812791779
 20
4.753702613
  0
LINE
  5
401
100
AcDbEntity
  8
0
100
AcDbLine
 62
7
  6
CONTINUOUS
 10
34.8233275119
 20
0.8309311189
 11
34.9647488681
 21
0.9309311189
  0
LINE
  5
402
100
AcDbEntity
  8
0
100
AcDbLine
 62
7
  6
CONTINUOUS
 10
34.8233275119
 20
0.1238243378
 11
34.9647488681
 21
0.2238243378
  0
LINE
  5
403
100
AcDbEntity
  8
0
100
AcDbLine
 62
7
  6
CONTINUOUS
 10
34.6111954775
 20
-0.1037940428
 11
35.3183022587
 21
0.3962059572
  0
LINE
  5
404
100
AcDbEntity
  8
0
100
AcDbLine
 62
7
  6
CONTINUOUS
 10
39.8310146027
 20
2.4751055379
 11
40.8483162073
 21
3.194446401
  0
LINE
  5
405
100
AcDbEntity
  8
0
100
AcDbLine
 62
7
  6
CONTINUOUS
 10
32.8434285246
 20
-2.6274555757
 11
34.5213105526
 21
-1.4410138157
  0
LINE
  5
406
100
AcDbEntity
  8
0
100
AcDbLine
 62
7
  6
CONTINUOUS
 10
36.1324633226
 20
-0.3017567664
 11
39.6516990183
 21
2.1867186586
  0
LINE
  5
407
100
AcDbEntity
  8
0
100
AcDbLine
 62
7
  6
CONTINUOUS
 10
32.8434285246
 20
-3.0782363978
 11
34.3487662425
 21
-2.0138018895
  0
LINE
  5
408
100
AcDbEntity
  8
0
100
AcDbLine
 62
7
  6
CONTINUOUS
 10
36.1940468398
 20
-0.7089914659
 11
39.6039407067
 21
1.7021676105
  0
LINE
  5
409
100
AcDbEntity
  8
0
100
AcDbLine
 62
250
  6
CONTINUOUS
 10
35.9308496107
 20
-1.0017964865
 11
36.2021857352
 21
-0.8099328729
  0
LINE
  5
40A
100
AcDbEntity
  8
0
100
AcDbLine
 62
7
  6
CONTINUOUS
 10
35.6361395039
 20
-2.6344226157
 11
34.9290327227
 21
-3.1344226157
  0
LWPOLYLINE
  5
40B
100
AcDbEntity
  8
DRAFT
100
AcDbPolyline
 62
7
  6
CONTINUOUS
 90
3
 70
0
 10
-28.6267922036
 20
22.571530411
 10
-28.5334400824
 20
22.5651080537
 10
-28.524246146
 20
22.563382728
  0
LWPOLYLINE
  5
40C
100
AcDbEntity
  8
0
100
AcDbPolyline
 62
7
  6
CONTINUOUS
 90
10
 70
0
 10
38.5395572344
 20
4.4625560986
 10
38.7320257024
 20
4.3707566849
 10
38.9294700669
 20
4.2358328797
 10
39.1238248243
 20
4.0632962532
 10
39.3071506798
 20
3.8601948404
 10
39.4719588636
 20
3.6348252326
 10
39.6115170437
 20
3.3963936659
 10
39.7201243381
 20
3.1546399506
 10
39.7933441931
 20
2.9194396054
 10
39.8284169813
 20
2.6971378753
  0
LWPOLYLINE
  5
40D
100
AcDbEntity
  8
RACCORDO
100
AcDbPolyline
 62
7
  6
CONTINUOUS
 90
5
 70
0
 10
-18.0108162965
 20
37.0738208289
 10
-17.9461910283
 20
37.0366850683
 10
-17.8819426184
 20
37.0007011901
 10
-17.8175769641
 20
36.966218508
 10
-17.7532132151
 20
36.9336736351
  0
LWPOLYLINE
  5
40E
100
AcDbEntity
  8
RACCORDO
100
AcDbPolyline
 62
250
  6
CONTINUOUS
 90
4
 70
0
 10
25.5842431704
 20
7.2270643961
 10
25.6732923948
 20
7.1735550098
 10
25.7598531242
 20
7.1197397488
 10
25.843817951
 20
7.0656183288
  0
LWPOLYLINE
  5
40F
100
AcDbEntity
  8
0
100
AcDbPolyline
 62
7
  6
CONTINUOUS
 90
10
 70
0
 10
25.3269910279
 20
6.9706459544
 10
25.1743434358
 20
7.0674548939
 10
25.0243068048
 20
7.1583631703
 10
24.8787648809
 20
7.243116301
 10
24.7367211783
 20
7.3231986318
 10
24.5954907446
 20
7.4005676002
 10
24.4554457127
 20
7.4753411763
 10
24.316633169
 20
7.548013728
 10
24.1756595055
 20
7.620759667
 10
23.5874672182
 20
7.9189091512
  0
LWPOLYLINE
  5
410
100
AcDbEntity
  8
RACCORDO
100
AcDbPolyline
 62
7
  6
CONTINUOUS
 90
4
 70
0
 10
-18.1940555506
 20
37.1854807927
 10
-18.136404691
 20
37.1488011966
 10
-18.0749800058
 20
37.1114505654
 10
-18.0108162965
 20
37.0738208289
  0
LINE
  5
411
100
AcDbEntity
  8
RACCORDO
100
AcDbLine
 62
250
  6
CONTINUOUS
 10
26.8775730375
 20
5.4008575642
 11
26.852430898
 21
5.416912604
  0
LINE
  5
412
100
AcDbEntity
  8
0
100
AcDbLine
 62
7
  6
CONTINUOUS
 10
25.4803851782
 20
6.8682732076
 11
25.3269910279
 21
6.9706459544
  0
LWPOLYLINE
  5
413
100
AcDbEntity
  8
RACCORDO
100
AcDbPolyline
 62
250
  6
CONTINUOUS
 90
31
 70
0
 10
25.843817951
 20
7.0656183288
 10
25.9251621674
 20
7.0112467289
 10
26.0039136402
 20
6.9566802573
 10
26.080045679
 20
6.9019145578
 10
26.1535477467
 20
6.8469982583
 10
26.2244410834
 20
6.7919809798
 10
26.2927454758
 20
6.7368568251
 10
26.3584588353
 20
6.6816685601
 10
26.4215982533
 20
6.626459837
 10
26.4822091695
 20
6.5712237535
 10
26.5402943126
 20
6.5159984371
 10
26.5958678828
 20
6.4608221359
 10
26.6489881538
 20
6.4056867285
 10
26.6996603775
 20
6.3506267097
 10
26.7478963791
 20
6.2956758839
 10
26.7937590665
 20
6.2408246886
 10
26.8372547117
 20
6.1861048478
 10
26.8783929251
 20
6.1315468237
 10
26.9172358107
 20
6.0771397341
 10
26.9537895517
 20
6.0229134331
 10
26.9880616649
 20
5.9688960118
 10
27.0201100344
 20
5.9150754521
 10
27.0499400535
 20
5.8614803987
 10
27.0775571007
 20
5.8081376756
 10
27.1030125456
 20
5.7550349217
 10
27.1263106493
 20
5.7021997667
 10
27.1474544768
 20
5.6496592103
 10
27.1664870786
 20
5.5974030746
 10
27.1834224457
 20
5.5454473338
 10
27.1982496419
 20
5.4938316447
 10
27.2109715777
 20
5.4425826817
  0
LWPOLYLINE
  5
414
100
AcDbEntity
  8
RACCORDO
100
AcDbPolyline
 62
7
  6
CONTINUOUS
 90
3
 70
0
 10
-18.2986314807
 20
37.2559614221
 10
-18.2482476633
 20
37.2212905919
 10
-18.1940555506
 20
37.1854807927
  0
LINE
  5
415
100
AcDbEntity
  8
0
100
AcDbLine
 62
7
  6
CONTINUOUS
 10
25.5563317866
 20
6.8153727015
 11
25.4803851782
 21
6.8682732076
  0
LINE
  5
416
100
AcDbEntity
  8
RACCORDO
100
AcDbLine
 62
250
  6
CONTINUOUS
 10
26.8798261507
 20
4.7984751005
 11
26.8625827017
 21
4.8106680602
  0
LINE
  5
417
100
AcDbEntity
  8
0
100
AcDbLine
 62
7
  6
CONTINUOUS
 10
22.1594757293
 20
8.3598471533
 11
-34.39492463
 21
48.3498471533
  0
LINE
  5
418
100
AcDbEntity
  8
0
100
AcDbLine
 62
7
  6
CONTINUOUS
 10
-6.2355528077
 20
28.682251499
 11
-4.8213392453
 21
27.682251499
  0
LINE
  5
419
100
AcDbEntity
  8
RACCORDO
100
AcDbLine
 62
7
  6
CONTINUOUS
 10
-18.709604733
 20
37.5465633957
 11
-18.2986314807
 21
37.2559614221
  0
LINE
  5
41A
100
AcDbEntity
  8
RACCORDO
100
AcDbLine
 62
7
  6
CONTINUOUS
 10
-33.9074516194
 20
48.3564451558
 11
-5.9767337626
 21
28.6064451558
  0
LINE
  5
41B
100
AcDbEntity
  8
0
100
AcDbLine
 62
7
  6
CONTINUOUS
 10
22.7828417032
 20
8.2703543198
 11
-4.5625202002
 21
27.6064451558
  0
LINE
  5
41C
100
AcDbEntity
  8
0
100
AcDbLine
 62
7
  6
CONTINUOUS
 10
33.9747993745
 20
0.7238243378
 11
34.8233275119
 21
0.1238243378
  0
LINE
  5
41D
100
AcDbEntity
  8
RACCORDO
100
AcDbLine
 62
7
  6
CONTINUOUS
 10
-34.6900114146
 20
49.3817050629
 11
23.7264933831
 21
8.0749983872
  0
LINE
  5
41E
100
AcDbEntity
  8
ASSI
100
AcDbLine
 62
7
  6
CONTINUOUS
 10
-35.1708035731
 20
49.755941922
 11
-34.7256868867
 21
49.4411968946
  0
LINE
  5
41F
100
AcDbEntity
  8
ASSI
100
AcDbLine
 62
7
  6
CONTINUOUS
 10
23.8780596954
 20
8.0020902835
 11
25.1693932495
 21
7.0889795706
  0
LINE
  5
420
100
AcDbEntity
  8
DRAFT
100
AcDbLine
 62
7
  6
CONTINUOUS
 10
-33.7660302632
 20
48.8912108608
 11
22.8025122317
 21
8.8912108608
  0
LINE
  5
421
100
AcDbEntity
  8
0
100
AcDbLine
 62
7
  6
CONTINUOUS
 10
33.9747993745
 20
1.4309311189
 11
34.8233275119
 21
0.8309311189
  0
LINE
  5
422
100
AcDbEntity
  8
0
100
AcDbLine
 62
7
  6
CONTINUOUS
 10
34.9647488681
 20
2.0309311189
 11
34.5404847994
 21
2.3309311189
  0
LINE
  5
423
100
AcDbEntity
  8
0
100
AcDbLine
 62
250
  6
CONTINUOUS
 10
34.6111954775
 20
2.3809311189
 11
34.0067486306
 21
2.8083395833
  0
LINE
  5
424
100
AcDbEntity
  8
0
100
AcDbLine
 62
7
  6
CONTINUOUS
 10
35.1885457467
 20
2.4903209187
 11
33.9908025683
 21
3.3372532423
  0
LINE
  5
425
100
AcDbEntity
  8
DRAFT
100
AcDbLine
 62
7
  6
CONTINUOUS
 10
33.008189616
 20
5.2942099908
 11
33.6571812283
 21
4.8353036208
  0
LINE
  5
426
100
AcDbEntity
  8
RACCORDO
100
AcDbLine
 62
7
  6
CONTINUOUS
 10
25.5641097257
 20
7.0529403593
 11
25.6230941412
 21
7.0107320057
  0
LWPOLYLINE
  5
427
100
AcDbEntity
  8
RACCORDO
100
AcDbPolyline
 62
7
  6
CONTINUOUS
 90
9
 70
0
 10
22.8025122317
 20
8.8912108608
 10
22.9075269138
 20
8.8148977945
 10
23.0120700089
 20
8.73488798
 10
23.1161415169
 20
8.6511814174
 10
23.2198960252
 20
8.5636415119
 10
23.3231789465
 20
8.4724048582
 10
23.4255265191
 20
8.3778812405
 10
23.5267841558
 20
8.2802072534
 10
23.6271064438
 20
8.1792463024
  0
LWPOLYLINE
  5
428
100
AcDbEntity
  8
RACCORDO
100
AcDbPolyline
 62
7
  6
CONTINUOUS
 90
3
 70
0
 10
25.6230941412
 20
7.0107320057
 10
25.6986834555
 20
6.9551014141
 10
25.7410488565
 20
6.9231106571
  0
LINE
  5
429
100
AcDbEntity
  8
0
100
AcDbLine
 62
7
  6
CONTINUOUS
 10
33.4007825309
 20
0.5837091238
 11
33.3540529836
 21
0.6183863075
  0
LWPOLYLINE
  5
42A
100
AcDbEntity
  8
RACCORDO
100
AcDbPolyline
 62
250
  6
CONTINUOUS
 90
31
 70
0
 10
25.7410488565
 20
6.9231106571
 10
25.7716559417
 20
6.8996120673
 10
25.8420339738
 20
6.8442697499
 10
25.909828967
 20
6.7890984712
 10
25.9750361097
 20
6.7341322199
 10
26.0376719933
 20
6.6793868106
 10
26.0977852229
 20
6.6248648707
 10
26.1553792131
 20
6.5705980277
 10
26.2104674004
 20
6.5166075085
 10
26.2631160302
 20
6.4628827564
 10
26.3133333293
 20
6.4094529831
 10
26.3611308795
 20
6.3563419813
 10
26.4065808945
 20
6.3035313487
 10
26.4496943632
 20
6.2510478012
 10
26.4904815634
 20
6.1989160225
 10
26.5290134616
 20
6.1471135694
 10
26.5653025462
 20
6.0956646165
 10
26.59935801
 20
6.0445937917
 10
26.6312449817
 20
5.9938776313
 10
26.6609765874
 20
5.9435379072
 10
26.6885611126
 20
5.8935985855
 10
26.7140551077
 20
5.8440374643
 10
26.7374718697
 20
5.7948739467
 10
26.7588188147
 20
5.7461311639
 10
26.7781421578
 20
5.6977904083
 10
26.7954550959
 20
5.6498685176
 10
26.810764237
 20
5.6023880815
 10
26.8241044562
 20
5.555337104
 10
26.8354933924
 20
5.5087235203
 10
26.8449323028
 20
5.4625759958
 10
26.852430898
 20
5.416912604
  0
LWPOLYLINE
  5
42B
100
AcDbEntity
  8
0
100
AcDbPolyline
 62
250
  6
CONTINUOUS
 90
5
 70
0
 10
34.8586828509
 20
-1.8599328729
 10
34.7530207647
 20
-1.7733246578
 10
34.666464064
 20
-1.6766955216
 10
34.6008845514
 20
-1.5721350849
 10
34.5577003941
 20
-1.4619044837
  0
LINE
  5
42C
100
AcDbEntity
  8
0
100
AcDbLine
 62
7
  6
CONTINUOUS
 10
33.5323315352
 20
0.4755194877
 11
33.4007825309
 21
0.5837091238
  0
LWPOLYLINE
  5
42D
100
AcDbEntity
  8
0
100
AcDbPolyline
 62
250
  6
CONTINUOUS
 90
8
 70
0
 10
33.4252197209
 20
0.7980890076
 10
33.6280900333
 20
0.6142846199
 10
33.8328873328
 20
0.4006255778
 10
34.0263819999
 20
0.1676717351
 10
34.2091199074
 20
-0.0836450447
 10
34.3719819152
 20
-0.3407833408
 10
34.5139593812
 20
-0.6040385775
 10
34.6360609473
 20
-0.8731153305
  0
LINE
  5
42E
100
AcDbEntity
  8
ASSI
100
AcDbLine
 62
7
  6
CONTINUOUS
 10
25.4188604762
 20
7.115241459
 11
25.2938660661
 21
7.2346978922
  0
LINE
  5
42F
100
AcDbEntity
  8
RACCORDO
100
AcDbLine
 62
7
  6
CONTINUOUS
 10
23.6271064438
 20
8.1792463024
 11
23.7264933831
 21
8.0749983872
  0
LWPOLYLINE
  5
430
100
AcDbEntity
  8
RACCORDO
100
AcDbPolyline
 62
250
  6
CONTINUOUS
 90
4
 70
0
 10
26.873816397
 20
5.2215847169
 10
26.8782642517
 20
5.1539983481
 10
26.8813534216
 20
5.0852038962
 10
26.8830634367
 20
5.0152339088
  0
LWPOLYLINE
  5
431
100
AcDbEntity
  8
RACCORDO
100
AcDbPolyline
 62
250
  6
CONTINUOUS
 90
5
 70
0
 10
27.2994394316
 20
4.7958857393
 10
27.3594213204
 20
3.2920551083
 10
27.4145240042
 20
1.7467697921
 10
27.4647474829
 20
0.1600297906
 10
27.5101392718
 20
-1.4633331746
  0
LWPOLYLINE
  5
432
100
AcDbEntity
  8
RACCORDO
100
AcDbPolyline
 62
250
  6
CONTINUOUS
 90
3
 70
0
 10
27.5101392718
 20
-1.4633331746
 10
27.5506518556
 20
-3.128150825
 10
27.5861426888
 20
-4.8489183249
  0
LWPOLYLINE
  5
433
100
AcDbEntity
  8
RACCORDO
100
AcDbPolyline
 62
250
  6
CONTINUOUS
 90
3
 70
0
 10
27.5861426888
 20
-4.8489183249
 10
27.6166604422
 20
-6.6227104617
 10
27.642156445
 20
-8.4524524479
  0
LWPOLYLINE
  5
434
100
AcDbEntity
  8
RACCORDO
100
AcDbPolyline
 62
250
  6
CONTINUOUS
 90
3
 70
0
 10
27.642156445
 20
-8.4524524479
 10
27.6623421398
 20
-10.3614150855
 10
27.6772230585
 20
-12.3514910935
  0
LWPOLYLINE
  5
435
100
AcDbEntity
  8
RACCORDO
100
AcDbPolyline
 62
250
  6
CONTINUOUS
 90
3
 70
0
 10
27.6772230585
 20
-12.3514910935
 10
27.6867936691
 20
-14.4207877529
 10
27.6907488181
 20
-16.5868977092
  0
LWPOLYLINE
  5
436
100
AcDbEntity
  8
RACCORDO
100
AcDbPolyline
 62
250
  6
CONTINUOUS
 90
4
 70
0
 10
26.8830634367
 20
5.0152339088
 10
26.883382214
 20
4.944111993
 10
26.8823056184
 20
4.8718524611
 10
26.8798261507
 20
4.7984751005
  0
LINE
  5
437
100
AcDbEntity
  8
ASSI
100
AcDbLine
 62
7
  6
CONTINUOUS
 10
26.8683762235
 20
-49.1264728808
 11
26.8683762235
 21
4.6065714216
  0
LWPOLYLINE
  5
438
100
AcDbEntity
  8
RACCORDO
100
AcDbPolyline
 62
250
  6
CONTINUOUS
 90
3
 70
0
 10
27.6907488181
 20
-16.5868977092
 10
27.6887671458
 20
-18.8554484844
 10
27.6811700118
 20
-21.2208125564
  0
LINE
  5
439
100
AcDbEntity
  8
RACCORDO
100
AcDbLine
 62
250
  6
CONTINUOUS
 10
27.6811700118
 20
-21.2208125564
 11
27.6686163423
 21
-23.6837000046
  0
LINE
  5
43A
100
AcDbEntity
  8
RACCORDO
100
AcDbLine
 62
250
  6
CONTINUOUS
 10
27.6686163423
 20
-23.6837000046
 11
27.6482578067
 21
-26.50221917
  0
LINE
  5
43B
100
AcDbEntity
  8
RACCORDO
100
AcDbLine
 62
250
  6
CONTINUOUS
 10
27.6482578067
 20
-26.50221917
 11
27.6135413813
 21
-30.4000003733
  0
LINE
  5
43C
100
AcDbEntity
  8
RACCORDO
100
AcDbLine
 62
250
  6
CONTINUOUS
 10
27.6135413813
 20
-30.4000003733
 11
27.5732566884
 21
-34.5160735512
  0
LWPOLYLINE
  5
43D
100
AcDbEntity
  8
RACCORDO
100
AcDbPolyline
 62
250
  6
CONTINUOUS
 90
6
 70
0
 10
27.5732566884
 20
-34.5160735512
 10
27.5423063307
 20
-37.4557217057
 10
27.5141457432
 20
-40.368810964
 10
27.4904821829
 20
-43.2192259311
 10
27.469608393
 20
-46.0430820019
 10
27.4515243733
 20
-48.8403791765
  0
LINE
  5
43E
100
AcDbEntity
  8
RACCORDO
100
AcDbLine
 62
250
  6
CONTINUOUS
 10
26.8798261507
 20
4.7984751005
 11
26.8722923357
 21
4.6064178046
  0
LWPOLYLINE
  5
43F
100
AcDbEntity
  8
RACCORDO
100
AcDbPolyline
 62
250
  6
CONTINUOUS
 90
9
 70
0
 10
6.9425328286
 20
-36.9675245223
 10
7.0487113992
 20
-36.8037379942
 10
7.1374241853
 20
-36.6285309094
 10
7.2087264796
 20
-36.4460885695
 10
7.2645006025
 20
-36.2566007682
 10
7.3054149726
 20
-36.0629416798
 10
7.3326493854
 20
-35.8673969779
 10
7.3477030021
 20
-35.671416428
 10
7.352001847
 20
-35.4766402554
  0
LWPOLYLINE
  5
440
100
AcDbEntity
  8
0
100
AcDbPolyline
 62
7
  6
CONTINUOUS
 90
7
 70
0
 10
37.9785659458
 20
4.3684645441
 10
38.0399234876
 20
4.4313525901
 10
38.1163502358
 20
4.4776351657
 10
38.2050617852
 20
4.5045520604
 10
38.3045804074
 20
4.5116549014
 10
38.4102064372
 20
4.4994330794
 10
38.528110027
 20
4.4666829575
  0
LWPOLYLINE
  5
441
100
AcDbEntity
  8
0
100
AcDbPolyline
 62
7
  6
CONTINUOUS
 90
5
 70
0
 10
36.0072701741
 20
-1.4264661666
 10
36.0446281688
 20
-1.3888276512
 10
36.1286927937
 20
-1.2333601982
 10
36.1812119825
 20
-1.0403952721
 10
36.2021857352
 20
-0.8099328729
  0
LWPOLYLINE
  5
442
100
AcDbEntity
  8
0
100
AcDbPolyline
 62
7
  6
CONTINUOUS
 90
12
 70
0
 10
34.9235506386
 20
-3.1382624579
 10
34.9968752669
 20
-3.0788142107
 10
35.1334735883
 20
-2.9202646704
 10
35.2337704125
 20
-2.7136887654
 10
35.2965728546
 20
-2.463832331
 10
35.3183022587
 20
-2.1849328729
 10
35.2965728546
 20
-1.8753033968
 10
35.2337704125
 20
-1.536630897
 10
35.1334735883
 20
-1.1882138629
 10
34.9968752669
 20
-0.836485124
 10
34.8227825634
 20
-0.4750118506
 10
34.6111954775
 20
-0.1037940428
  0
LWPOLYLINE
  5
443
100
AcDbEntity
  8
0
100
AcDbPolyline
 62
7
  6
CONTINUOUS
 90
6
 70
0
 10
35.6306574198
 20
-2.6382624579
 10
35.7039820481
 20
-2.5788142107
 10
35.8405803694
 20
-2.4202646704
 10
35.9408771937
 20
-2.2136887654
 10
36.0036796358
 20
-1.963832331
 10
36.0254090399
 20
-1.6849328729
  0
LINE
  5
444
100
AcDbEntity
  8
0
100
AcDbLine
 62
250
  6
CONTINUOUS
 10
35.3183022587
 20
-4.5436900835
 11
34.6111954775
 21
-5.0436900835
  0
LINE
  5
445
100
AcDbEntity
  8
0
100
AcDbLine
 62
7
  6
CONTINUOUS
 10
34.6111954775
 20
-5.0436900835
 11
34.5404847994
 21
-5.0936900835
  0
LINE
  5
446
100
AcDbEntity
  8
0
100
AcDbLine
 62
7
  6
CONTINUOUS
 10
33.2676925933
 20
-5.9936900835
 11
32.8434285246
 21
-6.2936900835
  0
LINE
  5
447
100
AcDbEntity
  8
0
100
AcDbLine
 62
7
  6
CONTINUOUS
 10
33.2676925933
 20
-6.7007968647
 11
32.8434285246
 21
-7.0007968647
  0
LINE
  5
448
100
AcDbEntity
  8
0
100
AcDbLine
 62
7
  6
CONTINUOUS
 10
-3.1443398971
 20
-33.1588377154
 11
-3.0029123265
 21
-33.0588333212
  0
LINE
  5
449
100
AcDbEntity
  8
0
100
AcDbLine
 62
7
  6
CONTINUOUS
 10
34.9647488681
 20
-6.4936900835
 11
34.8233275119
 21
-6.5936900835
  0
LINE
  5
44A
100
AcDbEntity
  8
0
100
AcDbLine
 62
7
  6
CONTINUOUS
 10
-2.7341974579
 20
-33.4488522154
 11
-2.5927698873
 21
-33.3488478212
  0
LINE
  5
44B
100
AcDbEntity
  8
0
100
AcDbLine
 62
7
  6
CONTINUOUS
 10
34.9647488681
 20
-7.2007968647
 11
34.8233275119
 21
-7.3007968647
  0
LINE
  5
44C
100
AcDbEntity
  8
0
100
AcDbLine
 62
7
  6
CONTINUOUS
 10
-1.827504838
 20
-34.0899807154
 11
-1.6860772674
 21
-33.9899763212
  0
LINE
  5
44D
100
AcDbEntity
  8
0
100
AcDbLine
 62
7
  6
CONTINUOUS
 10
-1.4173623988
 20
-34.3799952154
 11
-1.2759348282
 21
-34.2799908212
  0
LINE
  5
44E
100
AcDbEntity
  8
0
100
AcDbLine
 62
7
  6
CONTINUOUS
 10
-1.1439390558
 20
-34.5733347154
 11
-1.0025114852
 21
-34.4733303212
  0
LINE
  5
44F
100
AcDbEntity
  8
0
100
AcDbLine
 62
7
  6
CONTINUOUS
 10
-4.5625202002
 20
27.6064451558
 11
-4.8213392453
 21
27.682251499
  0
LINE
  5
450
100
AcDbEntity
  8
0
100
AcDbLine
 62
7
  6
CONTINUOUS
 10
-5.9767337626
 20
28.6064451558
 11
-6.2355528077
 21
28.682251499
  0
LWPOLYLINE
  5
451
100
AcDbEntity
  8
RACCORDO
100
AcDbPolyline
 62
7
  6
CONTINUOUS
 90
6
 70
0
 10
-34.286696978
 20
49.2087387877
 10
-34.1834140567
 20
49.1539113334
 10
-34.0796595484
 20
49.0947202061
 10
-33.9755880404
 20
49.0312474306
 10
-33.8710449453
 20
48.9634109822
 10
-33.7660302632
 20
48.8912108608
  0
LWPOLYLINE
  5
452
100
AcDbEntity
  8
0
100
AcDbPolyline
 62
7
  6
CONTINUOUS
 90
20
 70
0
 10
38.5503918118
 20
4.3982567407
 10
38.6367636595
 20
4.3371826215
 10
38.7229251098
 20
4.2702322802
 10
38.8084563926
 20
4.1977318922
 10
38.8929408082
 20
4.1200346721
 10
38.975966757
 20
4.037519153
 10
39.057129745
 20
3.9505873421
 10
39.1360343542
 20
3.8596627625
 10
39.2122961692
 20
3.7651883896
 10
39.2855436502
 20
3.6676244931
 10
39.3554199429
 20
3.5674463944
 10
39.4215846169
 20
3.4651421512
 10
39.4837153246
 20
3.3612101795
 10
39.5415093714
 20
3.2561568253
 10
39.5946851906
 20
3.1504938981
 10
39.6429837149
 20
3.0447361771
 10
39.6861696388
 20
2.9393989032
 10
39.7240325647
 20
2.834995269
 10
39.7563880283
 20
2.7320339186
 10
39.7830783971
 20
2.6310164692
  0
LWPOLYLINE
  5
453
100
AcDbEntity
  8
0
100
AcDbPolyline
 62
7
  6
CONTINUOUS
 90
5
 70
0
 10
35.1876144813
 20
2.4909762465
 10
35.2235679132
 20
2.4603904302
 10
35.2733776617
 20
2.3882861493
 10
35.3049557768
 20
2.2927641185
 10
35.3183022587
 20
2.1738243378
  0
LINE
  5
454
100
AcDbEntity
  8
ASSI
100
AcDbLine
 62
7
  6
CONTINUOUS
 10
25.5409850667
 20
6.966178937
 11
25.4188604762
 21
7.115241459
  0
LINE
  5
455
100
AcDbEntity
  8
ASSI
100
AcDbLine
 62
7
  6
CONTINUOUS
 10
25.6474491187
 20
6.7997343421
 11
25.5409850667
 21
6.966178937
  0
LINE
  5
456
100
AcDbEntity
  8
ASSI
100
AcDbLine
 62
7
  6
CONTINUOUS
 10
25.6870897512
 20
6.7194215966
 11
25.6474491187
 21
6.7997343421
  0
LWPOLYLINE
  5
457
100
AcDbEntity
  8
0
100
AcDbPolyline
 62
7
  6
CONTINUOUS
 90
13
 70
0
 10
26.8060488654
 20
5.2640472065
 10
26.7690174794
 20
5.4056370574
 10
26.7158598066
 20
5.5482897514
 10
26.6466008155
 20
5.6917523694
 10
26.5600107659
 20
5.837410202
 10
26.4572847237
 20
5.9832675105
 10
26.3426359207
 20
6.1245893131
 10
26.216871939
 20
6.261323607
 10
26.0803888107
 20
6.3943654131
 10
25.9374621035
 20
6.5212232873
 10
25.7887065332
 20
6.6425556316
 10
25.6348082659
 20
6.7589688716
 10
25.5563317866
 20
6.8153727015
  0
LWPOLYLINE
  5
458
100
AcDbEntity
  8
RACCORDO
100
AcDbPolyline
 62
250
  6
CONTINUOUS
 90
10
 70
0
 10
27.2109715777
 20
5.4425826817
 10
27.2265674671
 20
5.3762333028
 10
27.2407290799
 20
5.3084911088
 10
27.253456416
 20
5.2393560996
 10
27.2647591492
 20
5.1688064673
 10
27.2746276057
 20
5.0968640198
 10
27.2830327644
 20
5.0235941809
 10
27.2899649513
 20
4.9490187585
 10
27.2954338404
 20
4.8731159446
 10
27.2994394316
 20
4.7958857393
  0
LWPOLYLINE
  5
459
100
AcDbEntity
  8
RACCORDO
100
AcDbPolyline
 62
250
  6
CONTINUOUS
 90
4
 70
0
 10
26.852430898
 20
5.416912604
 10
26.8608914337
 20
5.3530556765
 10
26.8680234027
 20
5.2879410579
 10
26.873816397
 20
5.2215847169
  0
LWPOLYLINE
  5
45A
100
AcDbEntity
  8
RACCORDO
100
AcDbPolyline
 62
250
  6
CONTINUOUS
 90
28
 70
0
 10
27.4515243733
 20
-48.8403791765
 10
27.4504540846
 20
-48.9051360789
 10
27.4478380122
 20
-48.968774495
 10
27.4436762547
 20
-49.0312575793
 10
27.4379691541
 20
-49.0925549588
 10
27.4307189091
 20
-49.152624912
 10
27.4219310657
 20
-49.2114156046
 10
27.4116104637
 20
-49.2688945828
 10
27.3997630125
 20
-49.3250287118
 10
27.3864000089
 20
-49.3797686807
 10
27.3715321503
 20
-49.4330794186
 10
27.3551679937
 20
-49.4849382365
 10
27.3373184179
 20
-49.5353170443
 10
27.3179967858
 20
-49.5841847307
 10
27.2972139639
 20
-49.6315199702
 10
27.2749771892
 20
-49.6773095332
 10
27.251299747
 20
-49.7215273599
 10
27.226194932
 20
-49.7641498644
 10
27.1996687092
 20
-49.8051661647
 10
27.1717339712
 20
-49.8445535541
 10
27.1424064239
 20
-49.8822872698
 10
27.1116952759
 20
-49.9183521508
 10
27.079612386
 20
-49.9527295121
 10
27.0461774797
 20
-49.9853936685
 10
27.0114124646
 20
-50.0163199913
 10
26.9753328965
 20
-50.0454917602
 10
26.9379607375
 20
-50.0728884468
 10
26.9270534123
 20
-50.080384198
  0
LINE
  5
45B
100
AcDbEntity
  8
0
100
AcDbLine
 62
7
  6
CONTINUOUS
 10
34.9705764898
 20
-5.397800701
 11
35.0641164532
 21
-5.2651891126
  0
LINE
  5
45C
100
AcDbEntity
  8
RACCORDO
100
AcDbLine
 62
250
  6
CONTINUOUS
 10
6.8229072897
 20
-37.112977673
 11
6.9425328286
 21
-36.9675245223
  0
LWPOLYLINE
  5
45D
100
AcDbEntity
  8
RACCORDO
100
AcDbPolyline
 62
250
  6
CONTINUOUS
 90
10
 70
0
 10
3.728930542
 20
-34.6003035022
 10
3.7483715464
 20
-34.5863597741
 10
3.7985161879
 20
-34.5420587289
 10
3.8425532505
 20
-34.4899186393
 10
3.880233689
 20
-34.4302402072
 10
3.9113532837
 20
-34.3633536375
 10
3.9357417711
 20
-34.2896256526
 10
3.9532622595
 20
-34.2094646755
 10
3.9638146406
 20
-34.1233213181
 10
3.967338875
 20
-34.0316770163
  0
LINE
  5
45E
100
AcDbEntity
  8
0
100
AcDbLine
 62
7
  6
CONTINUOUS
 10
-0.7338022734
 20
-34.8633452154
 11
-0.5923747028
 21
-34.7633408212
  0
LINE
  5
45F
100
AcDbEntity
  8
0
100
AcDbLine
 62
7
  6
CONTINUOUS
 10
-2.0333233025
 20
-35.9351086438
 11
-1.8918292456
 21
-35.8350572367
  0
LINE
  5
460
100
AcDbEntity
  8
0
100
AcDbLine
 62
7
  6
CONTINUOUS
 10
-0.3236803403
 20
-35.1533452154
 11
-0.1822527698
 21
-35.0533408212
  0
LINE
  5
461
100
AcDbEntity
  8
0
100
AcDbLine
 62
7
  6
CONTINUOUS
 10
0.2963370484
 20
-35.5917637154
 11
0.4377646189
 21
-35.4917593212
  0
LINE
  5
462
100
AcDbEntity
  8
0
100
AcDbLine
 62
7
  6
CONTINUOUS
 10
-0.6913534258
 20
-36.8840246438
 11
-0.5498593689
 21
-36.7839732367
  0
LINE
  5
463
100
AcDbEntity
  8
0
100
AcDbLine
 62
7
  6
CONTINUOUS
 10
1.0622298589
 20
-36.1333317154
 11
1.2036574295
 21
-36.0333273212
  0
LINE
  5
464
100
AcDbEntity
  8
0
100
AcDbLine
 62
7
  6
CONTINUOUS
 10
0.1289109465
 20
-37.4640391438
 11
0.2704050034
 21
-37.3639877367
  0
LINE
  5
465
100
AcDbEntity
  8
0
100
AcDbLine
 62
7
  6
CONTINUOUS
 10
1.6822465405
 20
-36.5717497154
 11
1.8236741111
 21
-36.4717453212
  0
LINE
  5
466
100
AcDbEntity
  8
0
100
AcDbLine
 62
7
  6
CONTINUOUS
 10
0.9267980363
 20
-38.0282251151
 11
1.0682920929
 21
-37.9281737082
  0
LINE
  5
467
100
AcDbEntity
  8
0
100
AcDbLine
 62
7
  6
CONTINUOUS
 10
2.6138261129
 20
-37.2308225328
 11
2.7552537048
 21
-37.1308181235
  0
LINE
  5
468
100
AcDbEntity
  8
0
100
AcDbLine
 62
7
  6
CONTINUOUS
 10
3.0226265026
 20
-37.5218080051
 11
3.164054268
 21
-37.4218034731
  0
LINE
  5
469
100
AcDbEntity
  8
0
100
AcDbLine
 62
7
  6
CONTINUOUS
 10
1.7247003379
 20
-38.5924326438
 11
1.8661943948
 21
-38.4923812367
  0
LINE
  5
46A
100
AcDbEntity
  8
RACCORDO
100
AcDbLine
 62
250
  6
CONTINUOUS
 10
4.7712893115
 20
-33.4827034152
 11
3.967338875
 21
-34.0316770163
  0
LINE
  5
46B
100
AcDbEntity
  8
0
100
AcDbLine
 62
7
  6
CONTINUOUS
 10
3.7289305706
 20
-34.6003034828
 11
4.5301519654
 21
-34.0576385907
  0
LWPOLYLINE
  5
46C
100
AcDbEntity
  8
RACCORDO
100
AcDbPolyline
 62
7
  6
CONTINUOUS
 90
13
 70
0
 10
3.7286441112
 20
-34.6004973387
 10
3.6856219351
 20
-34.6282930271
 10
3.5721691942
 20
-34.690013057
 10
3.4501924707
 20
-34.7400998263
 10
3.3207209967
 20
-34.7772987878
 10
3.185312483
 20
-34.8004535244
 10
3.0442016145
 20
-34.8087546844
 10
2.8983015943
 20
-34.8011852678
 10
2.7496324887
 20
-34.7769911979
 10
2.5991452361
 20
-34.7355835032
 10
2.4473002726
 20
-34.6762191033
 10
2.2950429421
 20
-34.5982824316
 10
2.1433293204
 20
-34.5012008147
  0
LINE
  5
46D
100
AcDbEntity
  8
0
100
AcDbLine
 62
7
  6
CONTINUOUS
 10
4.7986997205
 20
-34.4779638428
 11
4.7700252942
 21
-34.4958195139
  0
LWPOLYLINE
  5
46E
100
AcDbEntity
  8
0
100
AcDbPolyline
 62
7
  6
CONTINUOUS
 90
7
 70
0
 10
-33.6880427645
 20
48.6732062359
 10
-33.7053641746
 20
48.6816947912
 10
-33.8368919109
 20
48.7316052111
 10
-33.9749253743
 20
48.7702077462
 10
-34.1192067523
 20
48.7973927736
 10
-34.2699938574
 20
48.8132699163
 10
-34.4272866894
 20
48.8178391743
  0
LWPOLYLINE
  5
46F
100
AcDbEntity
  8
DRAFT
100
AcDbPolyline
 62
7
  6
CONTINUOUS
 90
14
 70
0
 10
-26.5535410951
 20
54.1171053275
 10
-26.7663638719
 20
54.2594664532
 10
-26.9759613068
 20
54.3840810429
 10
-27.1823334
 20
54.4909490968
 10
-27.3868497294
 20
54.5805284942
 10
-27.5881407169
 20
54.6523613557
 10
-27.7820976288
 20
54.7050740429
 10
-27.968009034
 20
54.7382737935
 10
-28.1465863635
 20
54.7523533698
 10
-28.3158551764
 20
54.7471174203
 10
-28.4762989572
 20
54.722166452
 10
-28.6274342215
 20
54.677899958
 10
-28.7658360752
 20
54.6153210665
 10
-28.8795365845
 20
54.5426738485
  0
LINE
  5
470
100
AcDbEntity
  8
DRAFT
100
AcDbLine
 62
7
  6
CONTINUOUS
 10
30.0150013998
 20
14.1171053275
 11
-26.5535410951
 21
54.1171053275
  0
LINE
  5
471
100
AcDbEntity
  8
0
100
AcDbLine
 62
250
  6
CONTINUOUS
 10
34.6360609473
 20
-0.8731153305
 11
34.7321933989
 21
-1.1345859059
  0
LWPOLYLINE
  5
472
100
AcDbEntity
  8
0
100
AcDbPolyline
 62
7
  6
CONTINUOUS
 90
9
 70
0
 10
36.2021857352
 20
-0.8099328729
 10
36.1812119825
 20
-0.5498091081
 10
36.1286927937
 20
-0.2825708329
 10
36.0446281688
 20
-0.0082180474
 10
35.925779669
 20
0.2796000448
 10
35.775385733
 20
0.5745326474
 10
35.603161678
 20
0.8575273718
 10
35.407666263
 20
1.1277960701
 10
35.3183022587
 20
1.2340213999
  0
LINE
  5
473
100
AcDbEntity
  8
0
100
AcDbLine
 62
7
  6
CONTINUOUS
 10
36.0254090399
 20
-1.6849328729
 11
36.0036796358
 21
-1.3753033968
  0
LINE
  5
474
100
AcDbEntity
  8
0
100
AcDbLine
 62
7
  6
CONTINUOUS
 10
34.5365003102
 20
-1.3099328729
 11
34.5328810558
 21
-1.2395516968
  0
LWPOLYLINE
  5
475
100
AcDbEntity
  8
DRAFT
100
AcDbPolyline
 62
7
  6
CONTINUOUS
 90
22
 70
0
 10
32.8434285246
 20
9.2886782028
 10
32.8353012216
 20
9.5072478506
 10
32.8117080437
 20
9.7335281817
 10
32.772648991
 20
9.9675191959
 10
32.7176135051
 20
10.2109514905
 10
32.6471121443
 20
10.4620944684
 10
32.5626765839
 20
10.7157563376
 10
32.4644171192
 20
10.9711476766
 10
32.3522234548
 20
11.2290579069
 10
32.2272963799
 20
11.4866635017
 10
32.0888945262
 20
11.7449721718
 10
31.9377592619
 20
12.0029762063
 10
31.7773154811
 20
12.2548289454
 10
31.6080466682
 20
12.4994471458
 10
31.4294693387
 20
12.7379140508
 10
31.2435579335
 20
12.9676327308
 10
31.0496010216
 20
13.1892165389
 10
30.8483100341
 20
13.402052122
 10
30.6437937047
 20
13.6017024912
 10
30.4374216116
 20
13.7866886505
 10
30.2278241766
 20
13.9584895959
 10
30.0150013998
 20
14.1171053275
  0
LINE
  5
476
100
AcDbEntity
  8
0
100
AcDbLine
 62
250
  6
CONTINUOUS
 10
34.5378454565
 20
-1.3483874723
 11
34.5365003102
 21
-1.3099328729
  0
LINE
  5
477
100
AcDbEntity
  8
DRAFT
100
AcDbLine
 62
7
  6
CONTINUOUS
 10
32.8434285246
 20
-45.1585439486
 11
32.8434285246
 21
9.2886782028
  0
LINE
  5
478
100
AcDbEntity
  8
0
100
AcDbLine
 62
250
  6
CONTINUOUS
 10
33.2676925933
 20
1.4309311189
 11
33.2676925933
 21
0.7238243378
  0
LINE
  5
479
100
AcDbEntity
  8
0
100
AcDbLine
 62
250
  6
CONTINUOUS
 10
33.2676925933
 20
-6.7007968647
 11
33.2676925933
 21
-5.9936900835
  0
LINE
  5
47A
100
AcDbEntity
  8
0
100
AcDbLine
 62
250
  6
CONTINUOUS
 10
33.9747993745
 20
1.4309311189
 11
33.9747993745
 21
0.7238243378
  0
LINE
  5
47B
100
AcDbEntity
  8
0
100
AcDbLine
 62
250
  6
CONTINUOUS
 10
33.9747993745
 20
-6.7007968647
 11
33.9747993745
 21
-5.9936900835
  0
LINE
  5
47C
100
AcDbEntity
  8
0
100
AcDbLine
 62
250
  6
CONTINUOUS
 10
34.6111954775
 20
2.3809311189
 11
34.6111954775
 21
2.2809311189
  0
LINE
  5
47D
100
AcDbEntity
  8
0
100
AcDbLine
 62
250
  6
CONTINUOUS
 10
34.6111954775
 20
-5.1436900835
 11
34.6111954775
 21
-5.0436900835
  0
LINE
  5
47E
100
AcDbEntity
  8
0
100
AcDbLine
 62
7
  6
CONTINUOUS
 10
34.6111954775
 20
-5.0436900835
 11
34.6111954775
 21
-3.266071703
  0
LINE
  5
47F
100
AcDbEntity
  8
0
100
AcDbLine
 62
7
  6
CONTINUOUS
 10
34.6111954775
 20
-0.1037940428
 11
34.6111954775
 21
0.2738243378
  0
LINE
  5
480
100
AcDbEntity
  8
0
100
AcDbLine
 62
7
  6
CONTINUOUS
 10
34.8233275119
 20
0.8309311189
 11
34.8233275119
 21
0.1238243378
  0
LINE
  5
481
100
AcDbEntity
  8
0
100
AcDbLine
 62
7
  6
CONTINUOUS
 10
34.8233275119
 20
-7.3007968647
 11
34.8233275119
 21
-6.5936900835
  0
LINE
  5
482
100
AcDbEntity
  8
0
100
AcDbLine
 62
7
  6
CONTINUOUS
 10
34.9647488681
 20
-5.3936900835
 11
34.9647488681
 21
-6.4936900835
  0
LINE
  5
483
100
AcDbEntity
  8
0
100
AcDbLine
 62
7
  6
CONTINUOUS
 10
34.9647488681
 20
-7.2007968647
 11
34.9647488681
 21
-6.4936900835
  0
LINE
  5
484
100
AcDbEntity
  8
0
100
AcDbLine
 62
7
  6
CONTINUOUS
 10
34.9647488681
 20
0.2238243378
 11
34.9647488681
 21
2.0309311189
  0
LINE
  5
485
100
AcDbEntity
  8
0
100
AcDbLine
 62
7
  6
CONTINUOUS
 10
35.3183022587
 20
-4.5436900835
 11
35.3183022587
 21
-2.8591674871
  0
LINE
  5
486
100
AcDbEntity
  8
0
100
AcDbLine
 62
7
  6
CONTINUOUS
 10
35.3183022587
 20
0.3962059572
 11
35.3183022587
 21
2.1738243378
  0
LWPOLYLINE
  5
487
100
AcDbEntity
  8
0
100
AcDbPolyline
 62
250
  6
CONTINUOUS
 90
12
 70
0
 10
34.8586828509
 20
-1.8599328729
 10
34.8424888149
 20
-2.0712071922
 10
34.8003256642
 20
-2.253361815
 10
34.7321933989
 20
-2.4063967413
 10
34.6360609473
 20
-2.5319154999
 10
34.5139593812
 20
-2.6283145621
 10
34.3719819152
 20
-2.6907833408
 10
34.2091199074
 20
-2.7175999767
 10
34.0263819999
 20
-2.7104863293
 10
33.8328873328
 20
-2.6697973896
 10
33.6280900333
 20
-2.5938293132
 10
33.5701353555
 20
-2.5643770697
  0
LWPOLYLINE
  5
488
100
AcDbEntity
  8
DRAFT
100
AcDbPolyline
 62
7
  6
CONTINUOUS
 90
3
 70
0
 10
33.743698921
 20
-6.6187896829
 10
33.711294446
 20
-6.710107159
 10
33.6571812283
 20
-6.8559894766
  0
LWPOLYLINE
  5
489
100
AcDbEntity
  8
0
100
AcDbPolyline
 62
7
  6
CONTINUOUS
 90
6
 70
0
 10
35.0641164532
 20
-5.2651891126
 10
35.1529579998
 20
-5.1135271058
 10
35.2235679132
 20
-4.9642307722
 10
35.2733776617
 20
-4.8216848695
 10
35.3049557768
 20
-4.6815046399
 10
35.3183022587
 20
-4.5436900835
  0
LWPOLYLINE
  5
48A
100
AcDbEntity
  8
0
100
AcDbPolyline
 62
7
  6
CONTINUOUS
 90
26
 70
0
 10
5.5797704698
 20
-40.1078341542
 10
5.5914277495
 20
-40.0989849892
 10
5.6229584468
 20
-40.0675310177
 10
5.6488823468
 20
-40.0290220548
 10
5.668793325
 20
-39.9839983742
 10
5.6825283325
 20
-39.9327765294
 10
5.689889996
 20
-39.8760276103
 10
5.6908617505
 20
-39.8152289302
 10
5.6857264527
 20
-39.7513686966
 10
5.6748132766
 20
-39.6850845729
 10
5.6586334322
 20
-39.6175846935
 10
5.6377572709
 20
-39.5498305967
 10
5.612659484
 20
-39.4823254754
 10
5.5838192169
 20
-39.4155466794
 10
5.5518181748
 20
-39.3502052562
 10
5.5170741322
 20
-39.2866184043
 10
5.4796879356
 20
-39.2245822734
 10
5.4401143683
 20
-39.164596837
 10
5.3986535053
 20
-39.1068862763
 10
5.354958479
 20
-39.0508638863
 10
5.3093306519
 20
-38.9969428341
 10
5.262018762
 20
-38.9454375398
 10
5.2124250342
 20
-38.8958248468
 10
5.1605037579
 20
-38.848355707
 10
5.1068544172
 20
-38.8038849268
 10
5.0518340071
 20
-38.7629722838
  0
LWPOLYLINE
  5
48B
100
AcDbEntity
  8
0
100
AcDbPolyline
 62
7
  6
CONTINUOUS
 90
21
 70
0
 10
5.0653338865
 20
-39.7339836469
 10
5.069647528
 20
-39.7307241615
 10
5.0850000793
 20
-39.7147499307
 10
5.0968086537
 20
-39.6944472888
 10
5.1048058148
 20
-39.6702297659
 10
5.1088477342
 20
-39.6430460126
 10
5.1091120814
 20
-39.6137696989
 10
5.1058653139
 20
-39.5827871929
 10
5.0993414352
 20
-39.5504783731
 10
5.0897645462
 20
-39.5172916631
 10
5.0774174329
 20
-39.483781405
 10
5.0626160124
 20
-39.4504151959
 10
5.0457790772
 20
-39.4178009409
 10
5.0271460101
 20
-39.3861225476
 10
5.0066752485
 20
-39.3551766705
 10
4.9845482296
 20
-39.3252400426
 10
4.9610597934
 20
-39.2967121979
 10
4.9362193511
 20
-39.2696269691
 10
4.9101901411
 20
-39.2442567643
 10
4.8833325843
 20
-39.221053709
 10
4.8559489284
 20
-39.2003583372
  0
LINE
  5
48C
100
AcDbEntity
  8
0
100
AcDbLine
 62
7
  6
CONTINUOUS
 10
2.6405674518
 20
-38.478632951
 11
2.782027832
 21
-38.3786053569
  0
LINE
  5
48D
100
AcDbEntity
  8
0
100
AcDbLine
 62
7
  6
CONTINUOUS
 10
2.4082609891
 20
-39.0757776151
 11
2.5497550457
 21
-38.9757262082
  0
LINE
  5
48E
100
AcDbEntity
  8
0
100
AcDbLine
 62
7
  6
CONTINUOUS
 10
3.9501378127
 20
-38.1837764681
 11
4.0915626766
 21
-38.0837739878
  0
LINE
  5
48F
100
AcDbEntity
  8
0
100
AcDbLine
 62
7
  6
CONTINUOUS
 10
4.9104098871
 20
-38.8629755725
 11
5.051834001
 21
-38.7629736225
  0
LINE
  5
490
100
AcDbEntity
  8
0
100
AcDbLine
 62
7
  6
CONTINUOUS
 10
4.3634756519
 20
-39.3419385851
 11
4.5049182525
 21
-39.2419235631
  0
LINE
  5
491
100
AcDbEntity
  8
0
100
AcDbLine
 62
7
  6
CONTINUOUS
 10
3.7184438992
 20
-40.0116370517
 11
3.8599419191
 21
-39.9115828423
  0
LINE
  5
492
100
AcDbEntity
  8
0
100
AcDbLine
 62
7
  6
CONTINUOUS
 10
4.862429587
 20
-39.6948008741
 11
5.0038701891
 21
-39.5947872652
  0
LINE
  5
493
100
AcDbEntity
  8
0
100
AcDbLine
 62
7
  6
CONTINUOUS
 10
4.3980295199
 20
-40.497799794
 11
4.5395242366
 21
-40.3977479203
  0
LINE
  5
494
100
AcDbEntity
  8
0
100
AcDbLine
 62
7
  6
CONTINUOUS
 10
5.4383221743
 20
-40.2078532031
 11
5.5797712346
 21
-40.1078336134
  0
LINE
  5
495
100
AcDbEntity
  8
0
100
AcDbLine
 62
7
  6
CONTINUOUS
 10
5.6323989097
 20
-41.3658188782
 11
5.7738941525
 21
-41.2657666326
  0
LWPOLYLINE
  5
496
100
AcDbEntity
  8
0
100
AcDbPolyline
 62
7
  6
CONTINUOUS
 90
8
 70
0
 10
5.43832285
 20
-40.2078527253
 10
5.422076122
 20
-40.2182875969
 10
5.3877456003
 20
-40.234499521
 10
5.3499662767
 20
-40.2452446224
 10
5.3090624265
 20
-40.2504301333
 10
5.2653593314
 20
-40.2500295677
 10
5.2191658306
 20
-40.2440568681
 10
5.1708239347
 20
-40.2325644625
  0
LWPOLYLINE
  5
497
100
AcDbEntity
  8
0
100
AcDbPolyline
 62
7
  6
CONTINUOUS
 90
10
 70
0
 10
4.7700252942
 20
-34.4958195139
 10
4.6907920165
 20
-34.5317604507
 10
4.6044743239
 20
-34.5570423175
 10
4.5125069992
 20
-34.5712448763
 10
4.4147956101
 20
-34.5741829394
 10
4.3114345888
 20
-34.5660416945
 10
4.2041420139
 20
-34.5469564663
 10
4.0928521706
 20
-34.5167443291
 10
3.9776307737
 20
-34.4755882085
 10
3.9384424512
 20
-34.4584017028
  0
LINE
  5
498
100
AcDbEntity
  8
0
100
AcDbLine
 62
7
  6
CONTINUOUS
 10
-34.731071243
 20
48.5976777584
 11
-33.9074516194
 21
48.3564451558
  0
LWPOLYLINE
  5
499
100
AcDbEntity
  8
RACCORDO
100
AcDbPolyline
 62
7
  6
CONTINUOUS
 90
5
 70
0
 10
-34.6900114146
 20
49.3817050629
 10
-34.5906244753
 20
49.3453986205
 10
-34.4903021873
 20
49.3044824313
 10
-34.3890445506
 20
49.2589564952
 10
-34.286696978
 20
49.2087387877
  0
LWPOLYLINE
  5
49A
100
AcDbEntity
  8
0
100
AcDbPolyline
 62
7
  6
CONTINUOUS
 90
10
 70
0
 10
34.4920970621
 20
-1.0215585181
 10
34.4477762264
 20
-0.8759670213
 10
34.3843473687
 20
-0.7107407907
 10
34.3022194541
 20
-0.5334236512
 10
34.2015687857
 20
-0.3483341695
 10
34.0837864303
 20
-0.1608623882
 10
33.9539426276
 20
0.0198491739
 10
33.8154262464
 20
0.1893541944
 10
33.6722299796
 20
0.3434810011
 10
33.5323315352
 20
0.4755194877
  0
LWPOLYLINE
  5
49B
100
AcDbEntity
  8
0
100
AcDbPolyline
 62
250
  6
CONTINUOUS
 90
4
 70
0
 10
34.7321933989
 20
-1.1345859059
 10
34.8003256642
 20
-1.3839744058
 10
34.8424888149
 20
-1.6257567281
 10
34.8586828509
 20
-1.8599328729
  0
LWPOLYLINE
  5
49C
100
AcDbEntity
  8
DRAFT
100
AcDbPolyline
 62
7
  6
CONTINUOUS
 90
10
 70
0
 10
33.6571812283
 20
4.8353036208
 10
33.711294446
 20
4.6128936569
 10
33.7636648812
 20
4.3912480989
 10
33.8142925339
 20
4.170366947
 10
33.8631815728
 20
3.9502308049
 10
33.9103278291
 20
3.7308590688
 10
33.9557187975
 20
3.512309927
 10
33.9993503093
 20
3.2946027757
 10
34.041226533
 20
3.0777182188
 10
34.0813474687
 20
2.8616562561
  0
LWPOLYLINE
  5
49D
100
AcDbEntity
  8
0
100
AcDbPolyline
 62
7
  6
CONTINUOUS
 90
6
 70
0
 10
36.0036796358
 20
-1.3753033968
 10
35.9408771937
 20
-1.036630897
 10
35.8405803694
 20
-0.6882138629
 10
35.7039820481
 20
-0.336485124
 10
35.5298893445
 20
0.0249881494
 10
35.3183022587
 20
0.3962059572
  0
LINE
  5
49E
100
AcDbEntity
  8
0
100
AcDbLine
 62
250
  6
CONTINUOUS
 10
34.5577003941
 20
-1.4619044837
 11
34.5378454565
 21
-1.3483874723
  0
LWPOLYLINE
  5
49F
100
AcDbEntity
  8
0
100
AcDbPolyline
 62
7
  6
CONTINUOUS
 90
3
 70
0
 10
34.5328810558
 20
-1.2395516968
 10
34.5193136068
 20
-1.1430842597
 10
34.4920970621
 20
-1.0215585181
  0
LWPOLYLINE
  5
4A0
100
AcDbEntity
  8
0
100
AcDbPolyline
 62
7
  6
CONTINUOUS
 90
7
 70
0
 10
39.8284169834
 20
2.697137845
 10
39.8291091734
 20
2.6864388887
 10
39.8296944137
 20
2.6758088685
 10
39.8303082588
 20
2.6617447561
 10
39.8306437205
 20
2.651280107
 10
39.8309243703
 20
2.6374406703
 10
39.8310146027
 20
2.6240976257
  0
LWPOLYLINE
  5
4A1
100
AcDbEntity
  8
0
100
AcDbPolyline
 62
250
  6
CONTINUOUS
 90
30
 70
0
 10
41.0105118473
 20
3.5900671271
 10
41.0071484038
 20
3.6694809617
 10
40.9970836712
 20
3.7530470364
 10
40.9803942481
 20
3.8401293631
 10
40.9572071513
 20
3.9300651924
 10
40.9276988484
 20
4.0221700586
 10
40.8920939154
 20
4.115742988
 10
40.8506633275
 20
4.210071834
 10
40.8037223963
 20
4.3044386973
 10
40.7516283708
 20
4.3981253889
 10
40.6947777179
 20
4.4904188966
 10
40.6336031054
 20
4.5806168111
 10
40.568570109
 20
4.6680326717
 10
40.5001736692
 20
4.7520011911
 10
40.4289343241
 20
4.831883318
 10
40.3553942481
 20
4.9070711013
 10
40.2801131257
 20
4.9769923165
 10
40.2036638917
 20
5.0411148209
 10
40.1266283708
 20
5.0989506036
 10
40.0495928499
 20
5.1500594993
 10
39.9731436158
 20
5.1940525386
 10
39.8978624934
 20
5.2305949077
 10
39.8243224175
 20
5.2594084972
 10
39.7530830724
 20
5.2802740183
 10
39.6846866325
 20
5.2930326717
 10
39.6196536362
 20
5.2975873565
 10
39.5584790237
 20
5.2939034087
 10
39.5016283708
 20
5.2820088654
 10
39.4495343453
 20
5.2619942512
 10
39.4049405343
 20
5.2356878533
  0
LWPOLYLINE
  5
4A2
100
AcDbEntity
  8
0
100
AcDbPolyline
 62
7
  6
CONTINUOUS
 90
27
 70
0
 10
39.8310146027
 20
2.6240976271
 10
39.8281558882
 20
2.6998114279
 10
39.8199892536
 20
2.7780669968
 10
39.8065146991
 20
2.8588643338
 10
39.7875980032
 20
2.9426819306
 10
39.7633733873
 20
3.0290412956
 10
39.7342435157
 20
3.1165069534
 10
39.7001263986
 20
3.2050973956
 10
39.6611040257
 20
3.2947941307
 10
39.6178250315
 20
3.3841062093
 10
39.5702182678
 20
3.4730272021
 10
39.5183548827
 20
3.5615635385
 10
39.4630969554
 20
3.6482435574
 10
39.404387747
 20
3.7330362309
 10
39.3422839964
 20
3.8159725869
 10
39.2778179991
 20
3.8956740479
 10
39.210950271
 20
3.9720865435
 10
39.1417202962
 20
4.045264144
 10
39.0712788233
 20
4.1139904831
 10
38.9996056025
 20
4.1781911591
 10
38.9267208836
 20
4.2379405737
 10
38.8538361646
 20
4.2922455652
 10
38.7809514457
 20
4.3410151317
 10
38.7080667268
 20
4.3843402751
 10
38.636393506
 20
4.4215008401
 10
38.5659520331
 20
4.4523937873
 10
38.5281225324
 20
4.4666785361
  0
LINE
  5
4A3
100
AcDbEntity
  8
0
100
AcDbLine
 62
7
  6
CONTINUOUS
 10
39.8310146027
 20
2.2560366271
 11
39.8310146027
 21
2.6240976271
  0
LWPOLYLINE
  5
4A4
100
AcDbEntity
  8
0
100
AcDbPolyline
 62
7
  6
CONTINUOUS
 90
10
 70
0
 10
39.8310146027
 20
2.2560366271
 10
39.8280002687
 20
2.1718488508
 10
39.8189719522
 20
2.0923341409
 10
39.8039736382
 20
2.0178798852
 10
39.7830783971
 20
1.9488488171
 10
39.7563880283
 20
1.8855772493
 10
39.7240325647
 20
1.8283734343
 10
39.6861696388
 20
1.7775160635
 10
39.6429837149
 20
1.7332529088
 10
39.6039407067
 20
1.7021676105
  0
LWPOLYLINE
  5
4A5
100
AcDbEntity
  8
0
100
AcDbPolyline
 62
7
  6
CONTINUOUS
 90
10
 70
0
 10
41.069090491
 20
3.6900671271
 10
41.06579702
 20
3.6131584378
 10
41.0562003495
 20
3.5417193054
 10
41.0407229929
 20
3.4757543063
 10
41.0198111574
 20
3.415312879
 10
40.9938658755
 20
3.3602938349
 10
40.9632524505
 20
3.3106099983
 10
40.9284260026
 20
3.2663474526
 10
40.8899291518
 20
3.2276168825
 10
40.8483162073
 20
3.194446401
  0
LWPOLYLINE
  5
4A6
100
AcDbEntity
  8
0
100
AcDbPolyline
 62
250
  6
CONTINUOUS
 90
8
 70
0
 10
41.0105118473
 20
3.5900671271
 10
41.0071484038
 20
3.5154099199
 10
40.9970836712
 20
3.4460775265
 10
40.9803942481
 20
3.3825976083
 10
40.9572071513
 20
3.3254532858
 10
40.9276988484
 20
3.2750794618
 10
40.8920939154
 20
3.2318595115
 10
40.8483162073
 20
3.194446401
  0
LWPOLYLINE
  5
4A7
100
AcDbEntity
  8
0
100
AcDbPolyline
 62
7
  6
CONTINUOUS
 90
7
 70
0
 10
39.8310146027
 20
2.6240976271
 10
39.8233092589
 20
2.5070731946
 10
39.8003147452
 20
2.4027913091
 10
39.7623936989
 20
2.3128965581
 10
39.7101441575
 20
2.2388066358
 10
39.6443901276
 20
2.1816899843
 10
39.5661685833
 20
2.1424473652
  0
LWPOLYLINE
  5
4A8
100
AcDbEntity
  8
RACCORDO
100
AcDbPolyline
 62
250
  6
CONTINUOUS
 90
8
 70
0
 10
-34.9280824143
 20
50.0801866487
 10
-34.9265212193
 20
50.0797665372
 10
-34.9245122192
 20
50.0768492392
 10
-34.9219358478
 20
50.0714580623
 10
-34.9188003829
 20
50.0635274971
 10
-34.9150947402
 20
50.0530099404
 10
-34.9107453165
 20
50.0399028142
 10
-34.9057693591
 20
50.0241352048
  0
LWPOLYLINE
  5
4A9
100
AcDbEntity
  8
0
100
AcDbPolyline
 62
7
  6
CONTINUOUS
 90
3
 70
0
 10
-35.1707121628
 20
49.7558772848
 10
-35.1774619022
 20
49.7578631466
 10
-35.178947538
 20
49.7571339619
  0
LWPOLYLINE
  5
4AA
100
AcDbEntity
  8
0
100
AcDbPolyline
 62
7
  6
CONTINUOUS
 90
5
 70
0
 10
39.7830783971
 20
2.6310164692
 10
39.8039736382
 20
2.5324350678
 10
39.8189719522
 20
2.436769993
 10
39.8280002687
 20
2.3444873155
 10
39.8310146027
 20
2.2560366271
  0
LWPOLYLINE
  5
4AB
100
AcDbEntity
  8
0
100
AcDbPolyline
 62
7
  6
CONTINUOUS
 90
9
 70
0
 10
26.3646670745
 20
-50.327448542
 10
26.3877032924
 20
-50.3109487473
 10
26.5121750855
 20
-50.2039613874
 10
26.6188160553
 20
-50.0740711007
 10
26.7080222519
 20
-49.9217865968
 10
26.7777824861
 20
-49.7505411913
 10
26.8274263611
 20
-49.5614793227
 10
26.8576242736
 20
-49.3534565525
 10
26.8683762235
 20
-49.1264728808
  0
LWPOLYLINE
  5
4AC
100
AcDbEntity
  8
DRAFT
100
AcDbPolyline
 62
7
  6
CONTINUOUS
 90
10
 70
0
 10
32.3081293159
 20
-46.4357972488
 10
32.3522234548
 20
-46.4042547811
 10
32.4644171192
 20
-46.3050103525
 10
32.5626765839
 20
-46.1885788812
 10
32.6471121443
 20
-46.0543269267
 10
32.7176135051
 20
-45.9028879294
 10
32.772648991
 20
-45.7372875653
 10
32.8117080437
 20
-45.5585343932
 10
32.8353012216
 20
-45.3656198543
 10
32.8434285246
 20
-45.1585439486
  0
LWPOLYLINE
  5
4AD
100
AcDbEntity
  8
RACCORDO
100
AcDbPolyline
 62
250
  6
CONTINUOUS
 90
12
 70
0
 10
20.3818927994
 20
-54.3795640035
 10
20.4055706998
 20
-54.3631132331
 10
20.510682141
 20
-54.2788604947
 10
20.6058646176
 20
-54.1826891797
 10
20.6905114533
 20
-54.0747380182
 10
20.7623161172
 20
-53.958095207
 10
20.8213269481
 20
-53.8336702925
 10
20.8678795995
 20
-53.702439611
 10
20.9016428315
 20
-53.569146686
 10
20.9236070819
 20
-53.4367136092
 10
20.9351702017
 20
-53.3053722044
 10
20.9374198189
 20
-53.1763972884
  0
LINE
  5
4AE
100
AcDbEntity
  8
RACCORDO
100
AcDbLine
 62
250
  6
CONTINUOUS
 10
26.8683762235
 20
-49.1264728808
 11
20.9374198189
 21
-53.1763972884
  0
LINE
  5
4AF
100
AcDbEntity
  8
RACCORDO
100
AcDbLine
 62
250
  6
CONTINUOUS
 10
32.8434285246
 20
-45.1585439486
 11
27.4515243733
 21
-48.8403791765
  0
LINE
  5
4B0
100
AcDbEntity
  8
0
100
AcDbLine
 62
7
  6
CONTINUOUS
 10
26.3649121153
 20
-50.3272826328
 11
20.3818923019
 21
-54.3795643404
  0
LINE
  5
4B1
100
AcDbEntity
  8
DRAFT
100
AcDbLine
 62
7
  6
CONTINUOUS
 10
32.3078284094
 20
-46.4360011316
 11
26.9270534242
 21
-50.0803841899
  0
LINE
  5
4B2
100
AcDbEntity
  8
RACCORDO
100
AcDbLine
 62
7
  6
CONTINUOUS
 10
20.3816796456
 20
-54.379708339
 11
20.3818927994
 21
-54.3795640035
  0
LINE
  5
4B3
100
AcDbEntity
  8
RACCORDO
100
AcDbLine
 62
7
  6
CONTINUOUS
 10
26.9270534123
 20
-50.080384198
 11
26.9268236928
 21
-50.0805397388
  0
LWPOLYLINE
  5
4B4
100
AcDbEntity
  8
RACCORDO
100
AcDbPolyline
 62
250
  6
CONTINUOUS
 90
11
 70
0
 10
27.4515240814
 20
-48.8403789628
 10
27.4007611003
 20
-48.8705836658
 10
27.3448671429
 20
-48.8959363225
 10
27.2847774951
 20
-48.9160126974
 10
27.2214976498
 20
-48.9304769181
 10
27.1560864851
 20
-48.9390868747
 10
27.0896385462
 20
-48.9416982781
 10
27.0232657231
 20
-48.9382672934
 10
26.9580786488
 20
-48.9288514818
 10
26.8951681185
 20
-48.9136086132
 10
26.8683762235
 20
-48.9042488298
  0
LWPOLYLINE
  5
4B5
100
AcDbEntity
  8
RACCORDO
100
AcDbPolyline
 62
7
  6
CONTINUOUS
 90
4
 70
0
 10
26.5019600792
 20
-50.2728387345
 10
26.6682364405
 20
-50.2177057498
 10
26.8238811701
 20
-50.1437440756
 10
26.9268282102
 20
-50.0805364532
  0
ELLIPSE
  5
4B6
100
AcDbEntity
  8
ASSI
100
AcDbEllipse
 62
7
  6
CONTINUOUS
 10
22.7675147805
 20
1.8063183567
 30
0.0
 11
3.3682703149
 21
4.5990686389
 31
0.0
 40
0.5086230016
 41
-0.6070107954
 42
-0.4324412617
  0
ELLIPSE
  5
4B7
100
AcDbEntity
  8
RACCORDO
100
AcDbEllipse
 62
7
  6
CONTINUOUS
 10
-18.1630731285
 20
37.3904370373
 30
0.0
 11
0.783671494
 21
-0.4090811723
 31
0.0
 40
0.1667511318
 41
-3.0120895131
 42
-2.2520725727
  0
ELLIPSE
  5
4B8
100
AcDbEntity
  8
RACCORDO
100
AcDbEllipse
 62
7
  6
CONTINUOUS
 10
-17.7330322123
 20
37.0863521894
 30
0.0
 11
0.7971929389
 21
-0.4150627014
 31
0.0
 40
0.1613210025
 41
-2.2722462517
 42
-1.5122293112
  0
ELLIPSE
  5
4B9
100
AcDbEntity
  8
0
100
AcDbEllipse
 62
7
  6
CONTINUOUS
 10
-31.7253922798
 20
47.5679592305
 30
0.0
 11
3.7613863488
 21
-1.9469157351
 31
0.0
 40
0.1645289017
 41
-2.4068385871
 42
-2.2713145262
  0
ELLIPSE
  5
4BA
100
AcDbEntity
  8
0
100
AcDbEllipse
 62
7
  6
CONTINUOUS
 10
24.8290080795
 20
7.5779592305
 30
0.0
 11
3.7613863488
 21
-1.9469157351
 31
0.0
 40
0.1645289017
 41
-2.2713145262
 42
-2.1357904653
  0
ELLIPSE
  5
4BB
100
AcDbEntity
  8
DRAFT
100
AcDbEllipse
 62
7
  6
CONTINUOUS
 10
-1131.4918051203
 20
-813.0873914285
 30
0.0
 11
3025.8255388383
 21
2165.9192111544
 31
0.0
 40
0.0065684823
 41
-1.1805124306
 42
-1.1802210503
  0
ELLIPSE
  5
4BC
100
AcDbEntity
  8
DRAFT
100
AcDbEllipse
 62
7
  6
CONTINUOUS
 10
-1131.4918051203
 20
-781.4011528867
 30
0.0
 11
3025.826887071
 21
2113.1061917787
 31
0.0
 40
0.0065955529
 41
-1.1804166887
 42
-1.1801253084
  0
ENDSEC
  0
SECTION
  2
OBJECTS
  0
DICTIONARY
  5
C
100
AcDbDictionary
280
0
281
1
  3
ACAD_GROUP
350
D
  3
ACAD_MLINESTYLE
350
17
  3
ACAD_LAYOUT
350
1A
  3
ACAD_PLOTSETTINGS
350
19
  3
ACAD_PLOTSTYLENAME
350
E
  0
DICTIONARY
  5
D
102
{ACAD_REACTORS
330
C
102
}
100
AcDbDictionary
280
0
281
1
  0
ACDBDICTIONARYWDFLT
  5
E
102
{ACAD_REACTORS
330
C
102
}
100
AcDbDictionary
281
1
  3
Normal
350
F
100
AcDbDictionaryWithDefault
340
F
  0
DICTIONARY
  5
17
102
{ACAD_REACTORS
330
C
102
}
100
AcDbDictionary
280
0
281
1
  3
Standard
350
18
  0
DICTIONARY
  5
19
102
{ACAD_REACTORS
330
C
102
}
100
AcDbDictionary
281
1
  0
DICTIONARY
  5
1A
102
{ACAD_REACTORS
330
C
102
}
100
AcDbDictionary
281
1
  3
Model
350
4BD
  3
Layout1
350
4BE
  0
ACDBPLACEHOLDER
  5
F
102
{ACAD_REACTORS
330
E
102
}
  0
MLINESTYLE
  5
18
102
{ACAD_REACTORS
330
17
102
}
100
AcDbMlineStyle
  2
STANDARD
 70
0
  3

 62
256
 51
90.0
 52
90.0
 71
2
 49
0.5
 62
256
  6
BYLAYER
 49
-0.5
 62
256
  6
BYLAYER
  0
LAYOUT
  5
4BD
102
{ACAD_REACTORS
330
1A
102
}
100
AcDbPlotSettings
  1

  2
none_device
  4
ISO_A4_(297.00_x_210.00_MM)
  6

 40
0.0
 41
0.0
 42
0.0
 43
0.0
 44
297.0
 45
210.0
 46
0.0
 47
0.0
 48
0.0
 49
0.0
140
0.0
141
0.0
142
1.0
143
1.0
 70
1024
 72
1
 73
0
 74
0
  7

 75
0
147
1.0
148
0.0
149
0.0
100
AcDbLayout
  1
Model
 70
0
 71
0
 10
0.0
 20
0.0
 11
297.0
 21
210.0
 12
0.0
 22
0.0
 32
0.0
 14
0.0
 24
0.0
 34
0.0
 15
0.0
 25
0.0
 35
0.0
146
0.0
 13
0.0
 23
0.0
 33
0.0
 16
1.0
 26
0.0
 36
0.0
 17
0.0
 27
1.0
 37
0.0
 76
0
330
211
345
0
346
0
  0
LAYOUT
  5
4BE
102
{ACAD_REACTORS
330
1A
102
}
100
AcDbPlotSettings
  1

  2
none_device
  4
ISO_A4_(297.00_x_210.00_MM)
  6

 40
0.0
 41
0.0
 42
0.0
 43
0.0
 44
297.0
 45
210.0
 46
0.0
 47
0.0
 48
0.0
 49
0.0
140
0.0
141
0.0
142
1.0
143
1.0
 70
0
 72
1
 73
0
 74
0
  7

 75
0
147
1.0
148
0.0
149
0.0
100
AcDbLayout
  1
Layout1
 70
0
 71
1
 10
0.0
 20
0.0
 11
297.0
 21
210.0
 12
0.0
 22
0.0
 32
0.0
 14
0.0
 24
0.0
 34
0.0
 15
0.0
 25
0.0
 35
0.0
146
0.0
 13
0.0
 23
0.0
 33
0.0
 16
1.0
 26
0.0
 36
0.0
 17
0.0
 27
1.0
 37
0.0
 76
0
330
212
345
0
346
0
  0
ENDSEC
  0
EOF
