  0
SECTION
  2
HEADER
  9
$ACADVER
  1
AC1015
  9
$DWGCODEPAGE
  3
ANSI_1252
  9
$EXTMAX
 10
297.0
 20
210.0
 30
0.0
  9
$EXTMIN
 10
0.0
 20
0.0
 30
0.0
  9
$LIMMIN
 10
0.0
 20
0.0
  9
$LIMMAX
 10
297.0
 20
210.0
  9
$VIEWCTR
 10
148.5
 20
105.0
  9
$VIEWSIZE
 40
210.0
  9
$CLAYER
  8
0
  9
$LTSCALE
 40
16.335
  9
$CELTYPE
  6
BYLAYER
  9
$DIMSCALE
 40
1.0
  9
$DIMASZ
 40
3.0
  9
$DIMEXO
 40
1.85625
  9
$DIMDLI
 40
11.286
  9
$DIMEXE
 40
5.346
  9
$DIMCEN
 40
2.673
  9
$DIMLFAC
 40
1.0
  9
$DIMBLK
  1
_FILLED
  9
$DIMTXT
 40
3.0
  9
$DIMTOL
 70
1
  9
$DIMLIM
 70
0
  9
$DIMTFAC
 40
1.0
  9
$DIMTP
 40
0.01
  9
$DIMTM
 40
0.01
  9
$PDMODE
 70
3
  9
$PDSIZE
 40
3.0
  9
$HANDSEED
  5
2B3
  9
$TILEMODE
 70
1
  9
$MEASUREMENT
 70
1
  9
$INSUNITS
 70
4
  0
ENDSEC
  0
SECTION
  2
CLASSES
  0
CLASS
  1
ACDBDICTIONARYWDFLT
  2
AcDbDictionaryWithDefault
  3
AutoCAD 2000
 90
0
280
0
281
0
  0
CLASS
  1
ACDBPLACEHOLDER
  2
AcDbPlaceHolder
  3
AutoCAD 2000
 90
0
280
0
281
0
  0
CLASS
  1
LAYOUT
  2
AcDbLayout
  3
AutoCAD 2000
 90
0
280
0
281
0
  0
ENDSEC
  0
SECTION
  2
TABLES
  0
TABLE
  2
VPORT
  5
8
100
AcDbSymbolTable
 70
2
  0
VPORT
  5
1F4
100
AcDbSymbolTableRecord
100
AcDbViewportTableRecord
  2
*ACTIVE
 70
0
 10
0.0
 20
0.0
 11
1.0
 21
1.0
 12
148.5
 22
105.0
 13
0.0
 23
0.0
 14
1.0
 24
1.0
 15
0.0
 25
0.0
 16
0.0
 26
0.0
 36
1.0
 17
0.0
 27
0.0
 37
0.0
 40
210.0
 41
1.4142857143
 42
50.0
 43
0.0
 44
0.0
 50
0.0
 51
0.0
 71
0
 72
100
 73
1
 74
1
 75
0
 76
0
 77
0
 78
0
  0
ENDTAB
  0
TABLE
  2
LTYPE
  5
5
100
AcDbSymbolTable
 70
6
  0
LTYPE
  5
14
100
AcDbSymbolTableRecord
100
AcDbLinetypeTableRecord
  2
BYBLOCK
 70
0
  3

 72
65
 73
0
 40
0.0
  0
LTYPE
  5
15
100
AcDbSymbolTableRecord
100
AcDbLinetypeTableRecord
  2
BYLAYER
 70
0
  3

 72
65
 73
0
 40
0.0
  0
LTYPE
  5
16
100
AcDbSymbolTableRecord
100
AcDbLinetypeTableRecord
  2
CONTINUOUS
 70
64
  3
Solid line
 72
65
 73
0
 40
0.0
  0
LTYPE
  5
1F5
100
AcDbSymbolTableRecord
100
AcDbLinetypeTableRecord
  2
CENTER
 70
64
  3
____ _ ____ _ ____ _ ____ _ ____ _ ____ _ ____
 72
65
 73
4
 40
0.6
 49
0.375
 74
0
 49
-0.075
 74
0
 49
0.075
 74
0
 49
-0.075
 74
0
  0
LTYPE
  5
1F6
100
AcDbSymbolTableRecord
100
AcDbLinetypeTableRecord
  2
HIDDEN
 70
64
  3
- - - - - - - - - - - - - - - - - - - -
 72
65
 73
2
 40
0.2
 49
0.1
 74
0
 49
-0.1
 74
0
  0
LTYPE
  5
1F7
100
AcDbSymbolTableRecord
100
AcDbLinetypeTableRecord
  2
PHANTOM
 70
64
  3
_____ _ _ _____ _ _ _____ _ _ _____
 72
65
 73
6
 40
0.8
 49
0.45
 74
0
 49
-0.05
 74
0
 49
0.1
 74
0
 49
-0.05
 74
0
 49
0.1
 74
0
 49
-0.05
 74
0
  0
LTYPE
  5
1F8
100
AcDbSymbolTableRecord
100
AcDbLinetypeTableRecord
  2
DOT
 70
64
  3
. . . . . . . . . . . . . . . . . . . .
 72
65
 73
2
 40
0.2
 49
0.1
 74
0
 49
-0.1
 74
0
  0
LTYPE
  5
1F9
100
AcDbSymbolTableRecord
100
AcDbLinetypeTableRecord
  2
DASHED
 70
64
  3
- - - - - - - - - - - - - - - - - - - -
 72
65
 73
2
 40
0.2
 49
0.1
 74
0
 49
-0.1
 74
0
  0
ENDTAB
  0
TABLE
  2
LAYER
  5
2
100
AcDbSymbolTable
 70
36
  0
LAYER
  5
10
100
AcDbSymbolTableRecord
100
AcDbLayerTableRecord
  2
0
 70
0
 62
7
  6
CONTINUOUS
370
-3
390
F
  0
LAYER
  5
1FA
100
AcDbSymbolTableRecord
100
AcDbLayerTableRecord
  2
DEFAULT_1
 70
0
 62
7
  6
CENTER
370
-3
390
F
  0
LAYER
  5
1FB
100
AcDbSymbolTableRecord
100
AcDbLayerTableRecord
  2
DEFAULT_2
 70
0
 62
7
  6
HIDDEN
370
-3
390
F
  0
LAYER
  5
1FC
100
AcDbSymbolTableRecord
100
AcDbLayerTableRecord
  2
DEFAULT_3
 70
0
 62
7
  6
PHANTOM
370
-3
390
F
  0
LAYER
  5
1FD
100
AcDbSymbolTableRecord
100
AcDbLayerTableRecord
  2
ASSI
 70
0
 62
7
  6
CONTINUOUS
370
-3
390
F
  0
LAYER
  5
1FE
100
AcDbSymbolTableRecord
100
AcDbLayerTableRecord
  2
COORDINATE
 70
0
 62
7
  6
CONTINUOUS
370
-3
390
F
  0
LAYER
  5
1FF
100
AcDbSymbolTableRecord
100
AcDbLayerTableRecord
  2
COORD_ORIGINE
 70
0
 62
7
  6
CONTINUOUS
370
-3
390
F
  0
LAYER
  5
200
100
AcDbSymbolTableRecord
100
AcDbLayerTableRecord
  2
COPY_PUBLISH
 70
0
 62
7
  6
CONTINUOUS
370
-3
390
F
  0
LAYER
  5
201
100
AcDbSymbolTableRecord
100
AcDbLayerTableRecord
  2
COSMETIC
 70
0
 62
7
  6
CONTINUOUS
370
-3
390
F
  0
LAYER
  5
202
100
AcDbSymbolTableRecord
100
AcDbLayerTableRecord
  2
CURVE
 70
0
 62
7
  6
CONTINUOUS
370
-3
390
F
  0
LAYER
  5
203
100
AcDbSymbolTableRecord
100
AcDbLayerTableRecord
  2
DRAFT
 70
0
 62
7
  6
CONTINUOUS
370
-3
390
F
  0
LAYER
  5
204
100
AcDbSymbolTableRecord
100
AcDbLayerTableRecord
  2
IGES
 70
0
 62
7
  6
CONTINUOUS
370
-3
390
F
  0
LAYER
  5
205
100
AcDbSymbolTableRecord
100
AcDbLayerTableRecord
  2
IMPORT_IGES
 70
0
 62
7
  6
CONTINUOUS
370
-3
390
F
  0
LAYER
  5
206
100
AcDbSymbolTableRecord
100
AcDbLayerTableRecord
  2
INTF_6
 70
0
 62
7
  6
CONTINUOUS
370
-3
390
F
  0
LAYER
  5
207
100
AcDbSymbolTableRecord
100
AcDbLayerTableRecord
  2
NOTE
 70
0
 62
7
  6
CONTINUOUS
370
-3
390
F
  0
LAYER
  5
208
100
AcDbSymbolTableRecord
100
AcDbLayerTableRecord
  2
PIANI
 70
0
 62
7
  6
CONTINUOUS
370
-3
390
F
  0
LAYER
  5
209
100
AcDbSymbolTableRecord
100
AcDbLayerTableRecord
  2
PIANI_ORIGINE
 70
0
 62
7
  6
CONTINUOUS
370
-3
390
F
  0
LAYER
  5
20A
100
AcDbSymbolTableRecord
100
AcDbLayerTableRecord
  2
PIANI_RIFERIMENTO
 70
0
 62
7
  6
CONTINUOUS
370
-3
390
F
  0
LAYER
  5
20B
100
AcDbSymbolTableRecord
100
AcDbLayerTableRecord
  2
PUNTI
 70
0
 62
7
  6
CONTINUOUS
370
-3
390
F
  0
LAYER
  5
20C
100
AcDbSymbolTableRecord
100
AcDbLayerTableRecord
  2
RACCORDO
 70
0
 62
7
  6
CONTINUOUS
370
-3
390
F
  0
LAYER
  5
20D
100
AcDbSymbolTableRecord
100
AcDbLayerTableRecord
  2
SMUSSO
 70
0
 62
7
  6
CONTINUOUS
370
-3
390
F
  0
LAYER
  5
20E
100
AcDbSymbolTableRecord
100
AcDbLayerTableRecord
  2
SUPERFICI
 70
0
 62
7
  6
CONTINUOUS
370
-3
390
F
  0
LAYER
  5
20F
100
AcDbSymbolTableRecord
100
AcDbLayerTableRecord
  2
TRASH
 70
0
 62
7
  6
CONTINUOUS
370
-3
390
F
  0
ENDTAB
  0
TABLE
  2
STYLE
  5
3
100
AcDbSymbolTable
 70
1
  0
STYLE
  5
11
100
AcDbSymbolTableRecord
100
AcDbTextStyleTableRecord
  2
STANDARD
 70
0
 40
0.0
 41
0.8
 50
0.0
 71
0
 42
0.2
  3
txt
  4

  0
STYLE
  5
210
100
AcDbSymbolTableRecord
100
AcDbTextStyleTableRecord
  2
TEXTSTYLE_1
 70
0
 40
0.0
 41
0.8
 50
0.0
 71
0
 42
0.2
  3
gdt
  4

  0
ENDTAB
  0
TABLE
  2
VIEW
  5
6
100
AcDbSymbolTable
 70
0
  0
ENDTAB
  0
TABLE
  2
UCS
  5
7
100
AcDbSymbolTable
 70
0
  0
ENDTAB
  0
TABLE
  2
APPID
  5
9
100
AcDbSymbolTable
 70
1
  0
APPID
  5
211
100
AcDbSymbolTableRecord
100
AcDbRegAppTableRecord
  2
ACAD
 70
0
  0
ENDTAB
  0
TABLE
  2
BLOCK_RECORD
  5
1
100
AcDbSymbolTable
 70
0
  0
BLOCK_RECORD
  5
212
100
AcDbSymbolTableRecord
100
AcDbBlockTableRecord
  2
*Model_Space
  0
BLOCK_RECORD
  5
213
100
AcDbSymbolTableRecord
100
AcDbBlockTableRecord
  2
*Paper_Space
  0
ENDTAB
  0
TABLE
  2
DIMSTYLE
  5
A
100
AcDbSymbolTable
 70
1
100
AcDbDimStyleTable
 71
0
  0
DIMSTYLE
105
214
100
AcDbSymbolTableRecord
100
AcDbDimStyleTableRecord
  2
STANDARD
 70
0
  3

  4

 40
1.0
 41
3.0
 42
0.0625
 43
0.38
 44
0.18
 45
0.0
 46
0.0
 47
0.01
 48
0.01
140
3.0
141
0.09
142
0.0
143
25.4
144
1.0
145
0.0
146
1.0
147
0.09
 71
1.0
 72
0.0
 73
0
 74
0
 75
0
 76
0
 77
1
 78
8
170
0
171
2
172
0
173
0
174
0
175
0
176
0
177
0
178
0
270
2
271
2
272
2
273
2
274
2
275
0
280
0
281
0
282
0
283
1
284
8
285
0
286
0
287
3
288
0
340
11
  0
ENDTAB
  0
ENDSEC
  0
SECTION
  2
BLOCKS
  0
BLOCK
  5
20
100
AcDbEntity
  8
0
100
AcDbBlockBegin
  2
*Model_Space
 70
0
 10
0.0
 20
0.0
 30
0.0
  3
*Model_Space
  1

  0
ENDBLK
  5
21
100
AcDbEntity
  8
0
100
AcDbBlockEnd
  0
BLOCK
  5
1C
100
AcDbEntity
  8
0
100
AcDbBlockBegin
  2
*Paper_Space
 70
0
 10
0.0
 20
0.0
 30
0.0
  3
*Paper_Space
  1

  0
ENDBLK
  5
1D
100
AcDbEntity
  8
0
100
AcDbBlockEnd
  0
ENDSEC
  0
SECTION
  2
ENTITIES
  0
LWPOLYLINE
  5
215
100
AcDbEntity
  8
RACCORDO
100
AcDbPolyline
 62
7
  6
CONTINUOUS
 90
19
 70
0
 10
-17.5763233262
 20
16.0232173975
 10
-17.5947602979
 20
16.0124863268
 10
-17.6121265221
 20
16.0012635492
 10
-17.6284244105
 20
15.9895902723
 10
-17.643693659
 20
15.9774827511
 10
-17.6579890981
 20
15.9649339339
 10
-17.6713209257
 20
15.9519654685
 10
-17.6836933007
 20
15.9386062852
 10
-17.6951273438
 20
15.9248639244
 10
-17.7056189652
 20
15.9107710093
 10
-17.715167725
 20
15.8963595127
 10
-17.7237842975
 20
15.881645571
 10
-17.7314596763
 20
15.8666775605
 10
-17.7381954815
 20
15.8514896444
 10
-17.7440055348
 20
15.8360842485
 10
-17.7488845063
 20
15.8205094219
 10
-17.7528317044
 20
15.8048102187
 10
-17.7558562898
 20
15.7889880706
 10
-17.7579315993
 20
15.7732659588
  0
LWPOLYLINE
  5
216
100
AcDbEntity
  8
ASSI
100
AcDbPolyline
 62
7
  6
CONTINUOUS
 90
11
 70
0
 10
-17.5686419949
 20
16.0273664873
 10
-17.5817036749
 20
16.0202020065
 10
-17.6142609587
 20
15.99980133
 10
-17.6439927075
 20
15.977232953
 10
-17.6707649042
 20
15.9525338165
 10
-17.6942907334
 20
15.9259219116
 10
-17.7144384986
 20
15.8975233601
 10
-17.7310494391
 20
15.8675326655
 10
-17.7438478329
 20
15.8365402673
 10
-17.752777293
 20
15.805053154
 10
-17.7579270962
 20
15.7733536771
  0
LINE
  5
217
100
AcDbEntity
  8
RACCORDO
100
AcDbLine
 62
7
  6
CONTINUOUS
 10
-17.5686972668
 20
16.0273372806
 11
-17.5763233262
 21
16.0232173975
  0
LINE
  5
218
100
AcDbEntity
  8
RACCORDO
100
AcDbLine
 62
7
  6
CONTINUOUS
 10
-17.5686819457
 20
16.0273457792
 11
-13.9498656207
 21
17.9404084966
  0
LINE
  5
219
100
AcDbEntity
  8
ASSI
100
AcDbLine
 62
7
  6
CONTINUOUS
 10
-17.5686819457
 20
16.0273457792
 11
-13.9498656207
 21
17.9404084966
  0
LINE
  5
21A
100
AcDbEntity
  8
RACCORDO
100
AcDbLine
 62
253
  6
CONTINUOUS
 10
-17.4764446774
 20
16.0231134622
 11
-13.8589037253
 21
17.9355019624
  0
LINE
  5
21B
100
AcDbEntity
  8
ASSI
100
AcDbLine
 62
253
  6
CONTINUOUS
 10
-17.4764446774
 20
16.0231134622
 11
-13.8589037253
 21
17.9355019624
  0
LINE
  5
21C
100
AcDbEntity
  8
DRAFT
100
AcDbLine
 62
7
  6
CONTINUOUS
 10
-12.1706622378
 20
16.1666815374
 11
-13.237647654
 21
15.4808805156
  0
LINE
  5
21D
100
AcDbEntity
  8
ASSI
100
AcDbLine
 62
7
  6
CONTINUOUS
 10
-12.1706622378
 20
16.1666815374
 11
-13.237647654
 21
15.4808805156
  0
LINE
  5
21E
100
AcDbEntity
  8
DRAFT
100
AcDbLine
 62
7
  6
CONTINUOUS
 10
-12.1706622378
 20
17.0913812186
 11
-14.1063910996
 21
15.9152522383
  0
LINE
  5
21F
100
AcDbEntity
  8
ASSI
100
AcDbLine
 62
7
  6
CONTINUOUS
 10
-12.1706622378
 20
17.0913812186
 11
-14.1063910996
 21
15.9152522383
  0
LINE
  5
220
100
AcDbEntity
  8
ASSI
100
AcDbLine
 62
7
  6
CONTINUOUS
 10
-17.7579270962
 20
15.7733536771
 11
-17.7594070726
 21
15.7445244479
  0
LWPOLYLINE
  5
221
100
AcDbEntity
  8
RACCORDO
100
AcDbPolyline
 62
7
  6
CONTINUOUS
 90
3
 70
0
 10
-17.757956633
 20
15.7730763086
 10
-17.7591307204
 20
15.7571395367
 10
-17.7594071438
 20
15.7445933974
  0
LWPOLYLINE
  5
222
100
AcDbEntity
  8
ASSI
100
AcDbPolyline
 62
7
  6
CONTINUOUS
 90
13
 70
0
 10
-17.46562135
 20
-1.6091756232
 10
-17.4637994863
 20
-1.6482685653
 10
-17.4538036115
 20
-1.7523168976
 10
-17.4366691552
 20
-1.851828762
 10
-17.4126586362
 20
-1.9465232818
 10
-17.3819938696
 20
-2.0362666137
 10
-17.3448396572
 20
-2.1209701911
 10
-17.3014422992
 20
-2.2003075376
 10
-17.2520806376
 20
-2.2739614325
 10
-17.1970218807
 20
-2.3416667223
 10
-17.1366764264
 20
-2.4030296863
 10
-17.0715338426
 20
-2.4576828844
 10
-17.0021272161
 20
-2.5053194486
  0
LWPOLYLINE
  5
223
100
AcDbEntity
  8
RACCORDO
100
AcDbPolyline
 62
7
  6
CONTINUOUS
 90
24
 70
0
 10
-17.4656223077
 20
-1.6091471995
 10
-17.4638589537
 20
-1.6472670356
 10
-17.4599486918
 20
-1.6983348861
 10
-17.4543101275
 20
-1.7484859991
 10
-17.4469542977
 20
-1.7977142629
 10
-17.4378992762
 20
-1.8459645755
 10
-17.4271780199
 20
-1.893127244
 10
-17.4148122146
 20
-1.9391792271
 10
-17.4008255623
 20
-1.9840873292
 10
-17.3852745955
 20
-2.0277289647
 10
-17.3681947719
 20
-2.0700771238
 10
-17.3496224993
 20
-2.1111045075
 10
-17.3296425128
 20
-2.1506921189
 10
-17.3083242263
 20
-2.1887869936
 10
-17.2857075097
 20
-2.2253967982
 10
-17.2618523576
 20
-2.2604925779
 10
-17.2368417692
 20
-2.2940230024
 10
-17.210720538
 20
-2.3259978124
 10
-17.1834912683
 20
-2.3564660104
 10
-17.1552175761
 20
-2.3853975561
 10
-17.1259613859
 20
-2.4127719893
 10
-17.0957127414
 20
-2.438631719
 10
-17.0645352382
 20
-2.4629460184
 10
-17.0324910651
 20
-2.4856906257
  0
LWPOLYLINE
  5
224
100
AcDbEntity
  8
RACCORDO
100
AcDbPolyline
 62
7
  6
CONTINUOUS
 90
3
 70
0
 10
-17.5537712211
 20
1.2524064495
 10
-17.5114440976
 20
-0.1863424623
 10
-17.4656224748
 20
-1.6091477029
  0
LWPOLYLINE
  5
225
100
AcDbEntity
  8
RACCORDO
100
AcDbPolyline
 62
7
  6
CONTINUOUS
 90
10
 70
0
 10
-17.7566603065
 20
14.298727199
 10
-17.7499471718
 20
12.8406569024
 10
-17.7392761356
 20
11.3846672718
 10
-17.724647276
 20
9.9307766601
 10
-17.7060607669
 20
8.4790013143
 10
-17.6835167931
 20
7.0293567881
 10
-17.6570155658
 20
5.5818592104
 10
-17.6265573668
 20
4.1365245752
 10
-17.5921424761
 20
2.6933682379
 10
-17.5537712211
 20
1.2524064495
  0
LWPOLYLINE
  5
226
100
AcDbEntity
  8
ASSI
100
AcDbPolyline
 62
7
  6
CONTINUOUS
 90
10
 70
0
 10
-17.759407741
 20
15.7446162617
 10
-17.7550238376
 20
13.8517221717
 10
-17.743484904
 20
11.8970891767
 10
-17.7248236012
 20
9.9462211857
 10
-17.6990402939
 20
7.9991591699
 10
-17.666135448
 20
6.0559416612
 10
-17.6261096422
 20
4.1166064789
 10
-17.5789635779
 20
2.1811920407
 10
-17.5246981662
 20
0.2497393878
 10
-17.4656224747
 20
-1.6091477057
  0
LINE
  5
227
100
AcDbEntity
  8
RACCORDO
100
AcDbLine
 62
7
  6
CONTINUOUS
 10
-17.759407741
 20
15.7446162594
 11
-17.7566603065
 21
14.298727199
  0
LINE
  5
228
100
AcDbEntity
  8
DRAFT
100
AcDbLine
 62
7
  6
CONTINUOUS
 10
-13.151796945
 20
15.5360607487
 11
-13.151796945
 21
15.437955161
  0
LINE
  5
229
100
AcDbEntity
  8
ASSI
100
AcDbLine
 62
7
  6
CONTINUOUS
 10
-13.151796945
 20
15.5360607487
 11
-13.151796945
 21
15.437955161
  0
LINE
  5
22A
100
AcDbEntity
  8
DRAFT
100
AcDbLine
 62
7
  6
CONTINUOUS
 10
-12.1706622378
 20
17.0913812186
 11
-12.1706622378
 21
16.1666815374
  0
LINE
  5
22B
100
AcDbEntity
  8
ASSI
100
AcDbLine
 62
7
  6
CONTINUOUS
 10
-12.1706622378
 20
17.0913812186
 11
-12.1706622378
 21
16.1666815374
  0
LWPOLYLINE
  5
22C
100
AcDbEntity
  8
RACCORDO
100
AcDbPolyline
 62
7
  6
CONTINUOUS
 90
19
 70
0
 10
13.8887669948
 20
-17.9538359705
 10
13.9260664282
 20
-17.9696537125
 10
13.9642372094
 20
-17.9838277543
 10
14.0032347136
 20
-17.9963182379
 10
14.0430466967
 20
-18.0070950004
 10
14.0836151654
 20
-18.0161155797
 10
14.1248727342
 20
-18.0233393132
 10
14.1667978375
 20
-18.0287347063
 10
14.2093296347
 20
-18.0322655923
 10
14.2524024549
 20
-18.0339002798
 10
14.2959956999
 20
-18.0336090914
 10
14.3400464691
 20
-18.0313616154
 10
14.3844968895
 20
-18.0271326075
 10
14.4293447279
 20
-18.0208898695
 10
14.4745388236
 20
-18.0126031827
 10
14.5200200388
 20
-18.0022475646
 10
14.5657852705
 20
-17.9897841067
 10
14.6118019229
 20
-17.9751756398
 10
14.6579961002
 20
-17.958401246
  0
LWPOLYLINE
  5
22D
100
AcDbEntity
  8
ASSI
100
AcDbPolyline
 62
7
  6
CONTINUOUS
 90
10
 70
0
 10
13.8558005733
 20
-17.9381382404
 10
13.912743011
 20
-17.9642325518
 10
13.9876893244
 20
-17.9915738585
 10
14.0656375774
 20
-18.0123571052
 10
14.1461831488
 20
-18.0263228915
 10
14.2291112986
 20
-18.0332560928
 10
14.3139698143
 20
-18.0329273514
 10
14.400288688
 20
-18.0251600271
 10
14.4879490925
 20
-18.0097599654
 10
14.5766924859
 20
-17.9865101661
  0
LINE
  5
22E
100
AcDbEntity
  8
RACCORDO
100
AcDbLine
 62
7
  6
CONTINUOUS
 10
13.856703694
 20
-17.9385910836
 11
13.8887669948
 21
-17.9538359705
  0
LINE
  5
22F
100
AcDbEntity
  8
RACCORDO
100
AcDbLine
 62
7
  6
CONTINUOUS
 10
-16.9657707032
 20
-2.526556956
 11
-16.9346201154
 21
-2.5429291804
  0
LINE
  5
230
100
AcDbEntity
  8
ASSI
100
AcDbLine
 62
7
  6
CONTINUOUS
 10
-17.0021272161
 20
-2.5053194486
 11
-16.9338153423
 21
-2.5433304883
  0
LWPOLYLINE
  5
231
100
AcDbEntity
  8
RACCORDO
100
AcDbPolyline
 62
7
  6
CONTINUOUS
 90
3
 70
0
 10
-17.0324910651
 20
-2.4856906257
 10
-16.9995588284
 20
-2.5068986827
 10
-16.9657707032
 20
-2.526556956
  0
LINE
  5
232
100
AcDbEntity
  8
RACCORDO
100
AcDbLine
 62
7
  6
CONTINUOUS
 10
13.8568370032
 20
-17.9386577601
 11
-16.9347425185
 21
-2.5428679993
  0
LINE
  5
233
100
AcDbEntity
  8
ASSI
100
AcDbLine
 62
7
  6
CONTINUOUS
 10
13.8568370032
 20
-17.9386577601
 11
-16.9347425185
 21
-2.5428679993
  0
LINE
  5
234
100
AcDbEntity
  8
RACCORDO
100
AcDbLine
 62
7
  6
CONTINUOUS
 10
13.856704401
 20
-17.9385914378
 11
13.8568366777
 21
-17.9386575974
  0
LINE
  5
235
100
AcDbEntity
  8
RACCORDO
100
AcDbLine
 62
253
  6
CONTINUOUS
 10
13.4633678037
 20
-17.1780464462
 11
-17.3191590612
 21
-1.7867830139
  0
LINE
  5
236
100
AcDbEntity
  8
ASSI
100
AcDbLine
 62
253
  6
CONTINUOUS
 10
13.4633678037
 20
-17.1780464462
 11
-17.3191590612
 21
-1.7867830139
  0
LINE
  5
237
100
AcDbEntity
  8
DRAFT
100
AcDbLine
 62
7
  6
CONTINUOUS
 10
-2.4211973682
 20
5.5353606968
 11
-2.5915279016
 21
5.4454415831
  0
LINE
  5
238
100
AcDbEntity
  8
ASSI
100
AcDbLine
 62
7
  6
CONTINUOUS
 10
-2.7306516128
 20
5.5032497797
 11
-2.7302389835
 21
5.5034450649
  0
LINE
  5
239
100
AcDbEntity
  8
RACCORDO
100
AcDbLine
 62
7
  6
CONTINUOUS
 10
-2.7302867423
 20
5.5034224861
 11
-2.7302389835
 21
5.5034450649
  0
LWPOLYLINE
  5
23A
100
AcDbEntity
  8
ASSI
100
AcDbPolyline
 62
7
  6
CONTINUOUS
 90
28
 70
0
 10
-2.7306555998
 20
5.5032478717
 10
-2.7214268893
 20
5.5074887184
 10
-2.662017748
 20
5.5288950908
 10
-2.5987602369
 20
5.5419283233
 10
-2.531642063
 20
5.5464882929
 10
-2.4608932501
 20
5.5423536476
 10
-2.3872287106
 20
5.5293766718
 10
-2.3115608306
 20
5.5076307332
 10
-2.2347485908
 20
5.4773721846
 10
-2.1573419345
 20
5.4388528483
 10
-2.0798019752
 20
5.3923018119
 10
-2.0028581655
 20
5.3381539596
 10
-1.9270719475
 20
5.2768214837
 10
-1.8525753759
 20
5.208357286
 10
-1.77979665
 20
5.1330018736
 10
-1.7095262251
 20
5.0514290114
 10
-1.6423962748
 20
4.964283569
 10
-1.5789356756
 20
4.872181992
 10
-1.5196628976
 20
4.7758147685
 10
-1.4651107529
 20
4.6760176712
 10
-1.4156987169
 20
4.5735649372
 10
-1.3717857646
 20
4.4692230299
 10
-1.3337174246
 20
4.3638669322
 10
-1.3017495063
 20
4.258306624
 10
-1.2760818436
 20
4.1533489467
 10
-1.2568727824
 20
4.0498888347
 10
-1.2441957069
 20
3.9487504171
 10
-1.2380508558
 20
3.8506548098
  0
LINE
  5
23B
100
AcDbEntity
  8
RACCORDO
100
AcDbLine
 62
7
  6
CONTINUOUS
 10
-2.7302909034
 20
5.5034204919
 11
-2.7235976079
 21
5.5064912134
  0
LWPOLYLINE
  5
23C
100
AcDbEntity
  8
RACCORDO
100
AcDbPolyline
 62
7
  6
CONTINUOUS
 90
61
 70
0
 10
-2.7235976079
 20
5.5064912134
 10
-2.6977879967
 20
5.5171817873
 10
-2.6707409914
 20
5.5263485143
 10
-2.6430126874
 20
5.5337870654
 10
-2.6146282827
 20
5.5395097868
 10
-2.5856378491
 20
5.5435252224
 10
-2.5560139634
 20
5.545847299
 10
-2.5257916384
 20
5.5464785053
 10
-2.4950267658
 20
5.5454229594
 10
-2.4637249205
 20
5.5426816651
 10
-2.4319348009
 20
5.5382588019
 10
-2.3997146251
 20
5.5321626951
 10
-2.3670845925
 20
5.5243941808
 10
-2.3340989919
 20
5.5149634995
 10
-2.3008182098
 20
5.5038856539
 10
-2.2672690807
 20
5.4911646964
 10
-2.2335079239
 20
5.4768177869
 10
-2.1995943716
 20
5.4608665648
 10
-2.1655564756
 20
5.4433179348
 10
-2.1314502694
 20
5.424195096
 10
-2.0973337044
 20
5.4035254433
 10
-2.063234204
 20
5.381317738
 10
-2.0292063533
 20
5.3575999626
 10
-1.9953067328
 20
5.3324047264
 10
-1.961563298
 20
5.305743094
 10
-1.9280234761
 20
5.2776423743
 10
-1.8947486099
 20
5.2481447136
 10
-1.8617857834
 20
5.2172813342
 10
-1.829183528
 20
5.1850879251
 10
-1.7969986225
 20
5.1516119555
 10
-1.7652884545
 20
5.1169038707
 10
-1.7341033131
 20
5.0810112302
 10
-1.7034924748
 20
5.0439847173
 10
-1.6735094296
 20
5.0058818964
 10
-1.64420101
 20
4.9667566143
 10
-1.6156127832
 20
4.9266658253
 10
-1.5877940468
 20
4.8856736512
 10
-1.5607875829
 20
4.843839379
 10
-1.5346343842
 20
4.8012249658
 10
-1.509378819
 20
4.7579000455
 10
-1.4850591099
 20
4.7139286374
 10
-1.4617107785
 20
4.6693761642
 10
-1.4393719946
 20
4.6243155207
 10
-1.4180762818
 20
4.5788154234
 10
-1.3978526399
 20
4.5329423722
 10
-1.3787307789
 20
4.4867667165
 10
-1.3607382589
 20
4.4403583761
 10
-1.3438986501
 20
4.3937859935
 10
-1.3282346658
 20
4.3471186436
 10
-1.3137674847
 20
4.3004253666
 10
-1.3005153546
 20
4.2537769433
 10
-1.2884956286
 20
4.207245882
 10
-1.2777227778
 20
4.1608995136
 10
-1.2682088327
 20
4.1148103833
 10
-1.2599655282
 20
4.0690597289
 10
-1.253000288
 20
4.0237161414
 10
-1.2473168015
 20
3.9788461742
 10
-1.2429181159
 20
3.9345286251
 10
-1.2398038418
 20
3.8908336703
 10
-1.2379686679
 20
3.8478258186
 10
-1.2374406885
 20
3.8180607596
  0
LWPOLYLINE
  5
23D
100
AcDbEntity
  8
RACCORDO
100
AcDbPolyline
 62
7
  6
CONTINUOUS
 90
3
 70
0
 10
-1.4850128837
 20
3.179405511
 10
-1.507790128
 20
3.1640801914
 10
-1.5315817242
 20
3.1502074256
  0
LINE
  5
23E
100
AcDbEntity
  8
RACCORDO
100
AcDbLine
 62
7
  6
CONTINUOUS
 10
-1.5315817242
 20
3.1502074256
 11
-1.535190885
 21
3.1482795738
  0
LINE
  5
23F
100
AcDbEntity
  8
ASSI
100
AcDbLine
 62
7
  6
CONTINUOUS
 10
-1.534402764
 20
3.1486963389
 11
-1.5351941666
 21
3.1482776125
  0
LINE
  5
240
100
AcDbEntity
  8
DRAFT
100
AcDbLine
 62
7
  6
CONTINUOUS
 10
-1.325784791
 20
3.3748670387
 11
-1.512184952
 21
3.286755682
  0
LWPOLYLINE
  5
241
100
AcDbEntity
  8
ASSI
100
AcDbPolyline
 62
7
  6
CONTINUOUS
 90
12
 70
0
 10
-1.238725243
 20
3.7481142254
 10
-1.2452771138
 20
3.664735791
 10
-1.2572127691
 20
3.5856564234
 10
-1.274377638
 20
3.5113577078
 10
-1.2965553963
 20
3.4423481073
 10
-1.3234427044
 20
3.3791415534
 10
-1.3546749978
 20
3.3221398619
 10
-1.3899383041
 20
3.2714996344
 10
-1.4289969721
 20
3.2272515242
 10
-1.4714863931
 20
3.1895495563
 10
-1.5172106411
 20
3.1583388949
 10
-1.534411446
 20
3.1486920033
  0
LINE
  5
242
100
AcDbEntity
  8
CURVE
100
AcDbLine
 62
253
  6
CONTINUOUS
 10
-4.616300634
 20
-0.0704148615
 11
0.3334468343
 21
-2.5452885957
  0
LINE
  5
243
100
AcDbEntity
  8
ASSI
100
AcDbLine
 62
7
  6
CONTINUOUS
 10
-1.2380508558
 20
3.8506548098
 11
-1.2374409039
 21
3.8180936773
  0
LWPOLYLINE
  5
244
100
AcDbEntity
  8
RACCORDO
100
AcDbPolyline
 62
7
  6
CONTINUOUS
 90
23
 70
0
 10
-1.2374405627
 20
3.8180565626
 10
-1.2374950195
 20
3.792105561
 10
-1.238512779
 20
3.7530789362
 10
-1.2406586332
 20
3.7147387761
 10
-1.2439294349
 20
3.6771586861
 10
-1.2483200148
 20
3.6403830598
 10
-1.2538275649
 20
3.6044352283
 10
-1.2604458606
 20
3.5693703063
 10
-1.2681653889
 20
3.5352429694
 10
-1.2769806505
 20
3.5020830854
 10
-1.2868803213
 20
3.469946943
 10
-1.2978502428
 20
3.4388882947
 10
-1.3098810973
 20
3.4089382482
 10
-1.3229559947
 20
3.3801490048
 10
-1.3370561859
 20
3.3525694785
 10
-1.3521695226
 20
3.3262280508
 10
-1.3682720722
 20
3.3011746032
 10
-1.3853452294
 20
3.2774454064
 10
-1.4033884023
 20
3.255049246
 10
-1.422376595
 20
3.2340303651
 10
-1.4422975188
 20
3.2144156397
 10
-1.4631813717
 20
3.1961937594
 10
-1.4850128837
 20
3.179405511
  0
LINE
  5
245
100
AcDbEntity
  8
ASSI
100
AcDbLine
 62
7
  6
CONTINUOUS
 10
-1.2374404528
 20
3.8180421632
 11
-1.238725243
 21
3.7481142254
  0
LINE
  5
246
100
AcDbEntity
  8
DRAFT
100
AcDbLine
 62
7
  6
CONTINUOUS
 10
15.777685192
 20
3.1172075037
 11
13.4707733667
 21
2.1266700052
  0
LINE
  5
247
100
AcDbEntity
  8
ASSI
100
AcDbLine
 62
7
  6
CONTINUOUS
 10
15.777685192
 20
3.1172075037
 11
13.4707733667
 21
2.1266700052
  0
LINE
  5
248
100
AcDbEntity
  8
RACCORDO
100
AcDbLine
 62
253
  6
CONTINUOUS
 10
17.4659266796
 20
2.2730867599
 11
13.7198533623
 21
0.4249644423
  0
LINE
  5
249
100
AcDbEntity
  8
ASSI
100
AcDbLine
 62
253
  6
CONTINUOUS
 10
17.4659266796
 20
2.2730867599
 11
13.7198533623
 21
0.4249644423
  0
LINE
  5
24A
100
AcDbEntity
  8
RACCORDO
100
AcDbLine
 62
253
  6
CONTINUOUS
 10
17.6073480366
 20
2.0291907853
 11
13.8600191549
 21
0.1804490359
  0
LINE
  5
24B
100
AcDbEntity
  8
ASSI
100
AcDbLine
 62
253
  6
CONTINUOUS
 10
17.6073480366
 20
2.0291907853
 11
13.8600191549
 21
0.1804490359
  0
LINE
  5
24C
100
AcDbEntity
  8
RACCORDO
100
AcDbLine
 62
253
  6
CONTINUOUS
 10
13.159129017
 20
0.1811639903
 11
-17.6129519599
 21
15.5672044788
  0
LINE
  5
24D
100
AcDbEntity
  8
ASSI
100
AcDbLine
 62
253
  6
CONTINUOUS
 10
13.159129017
 20
0.1811639903
 11
-17.6129519599
 21
15.5672044788
  0
LINE
  5
24E
100
AcDbEntity
  8
RACCORDO
100
AcDbLine
 62
253
  6
CONTINUOUS
 10
13.2993250473
 20
0.4245722663
 11
-17.4727735816
 21
15.8106215808
  0
LINE
  5
24F
100
AcDbEntity
  8
ASSI
100
AcDbLine
 62
253
  6
CONTINUOUS
 10
13.2993250473
 20
0.4245722663
 11
-17.4727735816
 21
15.8106215808
  0
LINE
  5
250
100
AcDbEntity
  8
DRAFT
100
AcDbLine
 62
7
  6
CONTINUOUS
 10
-14.1063910996
 20
15.9152522383
 11
13.4707733667
 21
2.1266700052
  0
LINE
  5
251
100
AcDbEntity
  8
ASSI
100
AcDbLine
 62
7
  6
CONTINUOUS
 10
-14.1063910996
 20
15.9152522383
 11
13.4707733667
 21
2.1266700052
  0
LINE
  5
252
100
AcDbEntity
  8
RACCORDO
100
AcDbLine
 62
7
  6
CONTINUOUS
 10
-13.8589037253
 20
17.9355019624
 11
-12.1706622378
 21
17.0913812186
  0
LINE
  5
253
100
AcDbEntity
  8
ASSI
100
AcDbLine
 62
7
  6
CONTINUOUS
 10
-13.8589037253
 20
17.9355019624
 11
-12.1706622378
 21
17.0913812186
  0
LINE
  5
254
100
AcDbEntity
  8
RACCORDO
100
AcDbLine
 62
7
  6
CONTINUOUS
 10
15.777685192
 20
3.1172075037
 11
17.4659266796
 21
2.2730867599
  0
LINE
  5
255
100
AcDbEntity
  8
ASSI
100
AcDbLine
 62
7
  6
CONTINUOUS
 10
15.777685192
 20
3.1172075037
 11
17.4659266796
 21
2.2730867599
  0
LINE
  5
256
100
AcDbEntity
  8
RACCORDO
100
AcDbLine
 62
7
  6
CONTINUOUS
 10
17.6073480366
 20
2.0291907853
 11
17.6073480366
 21
-9.0559541678
  0
LINE
  5
257
100
AcDbEntity
  8
ASSI
100
AcDbLine
 62
7
  6
CONTINUOUS
 10
17.6073480366
 20
2.0291907853
 11
17.6073480366
 21
-9.0559541678
  0
LINE
  5
258
100
AcDbEntity
  8
RACCORDO
100
AcDbLine
 62
7
  6
CONTINUOUS
 10
17.6073480366
 20
-9.0559541678
 11
17.068464227
 21
-16.7305124848
  0
LINE
  5
259
100
AcDbEntity
  8
ASSI
100
AcDbLine
 62
7
  6
CONTINUOUS
 10
17.6073480366
 20
-9.0559541678
 11
17.068464227
 21
-16.7305124848
  0
LINE
  5
25A
100
AcDbEntity
  8
RACCORDO
100
AcDbLine
 62
253
  6
CONTINUOUS
 10
14.8451393459
 20
-17.6637739615
 11
17.068464227
 21
-16.7305124848
  0
LINE
  5
25B
100
AcDbEntity
  8
ASSI
100
AcDbLine
 62
253
  6
CONTINUOUS
 10
14.8451393459
 20
-17.6637739615
 11
17.068464227
 21
-16.7305124848
  0
LWPOLYLINE
  5
25C
100
AcDbEntity
  8
ASSI
100
AcDbPolyline
 62
7
  6
CONTINUOUS
 90
3
 70
0
 10
14.5766924859
 20
-17.9865101661
 10
14.6660166283
 20
-17.9552716465
 10
14.6911478592
 20
-17.9450467481
  0
LINE
  5
25D
100
AcDbEntity
  8
RACCORDO
100
AcDbLine
 62
7
  6
CONTINUOUS
 10
14.6913321004
 20
-17.9449696598
 11
16.90214079
 21
-17.0169619719
  0
LINE
  5
25E
100
AcDbEntity
  8
ASSI
100
AcDbLine
 62
7
  6
CONTINUOUS
 10
14.6913321004
 20
-17.9449696598
 11
16.90214079
 21
-17.0169619719
  0
LINE
  5
25F
100
AcDbEntity
  8
RACCORDO
100
AcDbLine
 62
7
  6
CONTINUOUS
 10
14.6579961002
 20
-17.958401246
 11
14.6913180314
 21
-17.9449754262
  0
ARC
  5
260
100
AcDbEntity
  8
RACCORDO
100
AcDbCircle
 62
253
  6
CONTINUOUS
 10
531.6929609522
 20
0.4796512922
 40
518.5339178454
100
AcDbArc
 50
180.0329815717
 51
180.338577645
  0
ARC
  5
261
100
AcDbEntity
  8
ASSI
100
AcDbCircle
 62
253
  6
CONTINUOUS
 10
531.6929609522
 20
0.4796512922
 40
518.5339178454
100
AcDbArc
 50
180.0329815717
 51
180.338577645
  0
ARC
  5
262
100
AcDbEntity
  8
RACCORDO
100
AcDbCircle
 62
253
  6
CONTINUOUS
 10
524.5668893296
 20
0.4274951628
 40
510.7068844478
100
AcDbArc
 50
180.0277158976
 51
181.2619465208
  0
ARC
  5
263
100
AcDbEntity
  8
ASSI
100
AcDbCircle
 62
253
  6
CONTINUOUS
 10
524.5668893296
 20
0.4274951628
 40
510.7068844478
100
AcDbArc
 50
180.0277158976
 51
181.2619465208
  0
ARC
  5
264
100
AcDbEntity
  8
RACCORDO
100
AcDbCircle
 62
253
  6
CONTINUOUS
 10
514.0403248647
 20
0.2025317379
 40
500.1779344108
100
AcDbArc
 50
181.2627393564
 51
181.9896878284
  0
ARC
  5
265
100
AcDbEntity
  8
ASSI
100
AcDbCircle
 62
253
  6
CONTINUOUS
 10
514.0403248647
 20
0.2025317379
 40
500.1779344108
100
AcDbArc
 50
181.2627393564
 51
181.9896878284
  0
ARC
  5
266
100
AcDbEntity
  8
RACCORDO
100
AcDbCircle
 62
253
  6
CONTINUOUS
 10
-2.8095697842
 20
3.7692218967
 40
1.6014957667
100
AcDbArc
 50
1.7691524398
 51
3.7642664723
  0
ARC
  5
267
100
AcDbEntity
  8
ASSI
100
AcDbCircle
 62
253
  6
CONTINUOUS
 10
-2.8095697842
 20
3.7692218967
 40
1.6014957667
100
AcDbArc
 50
1.7691524398
 51
3.7642664723
  0
ARC
  5
268
100
AcDbEntity
  8
RACCORDO
100
AcDbCircle
 62
253
  6
CONTINUOUS
 10
-2.7435113834
 20
3.7713945557
 40
1.5354017841
100
AcDbArc
 50
0.4200341242
 51
1.7642182
  0
ARC
  5
269
100
AcDbEntity
  8
ASSI
100
AcDbCircle
 62
253
  6
CONTINUOUS
 10
-2.7435113834
 20
3.7713945557
 40
1.5354017841
100
AcDbArc
 50
0.4200341242
 51
1.7642182
  0
ARC
  5
26A
100
AcDbEntity
  8
ASSI
100
AcDbCircle
 62
253
  6
CONTINUOUS
 10
-2.6807557375
 20
3.7718103814
 40
1.4726447768
100
AcDbArc
 50
358.6776129422
 51
0.4217554206
  0
ARC
  5
26B
100
AcDbEntity
  8
RACCORDO
100
AcDbCircle
 62
7
  6
CONTINUOUS
 10
-1.5911269738
 20
4.3060668313
 40
1.1007054639
100
AcDbArc
 50
237.1726665364
 51
240.9484598453
  0
ARC
  5
26C
100
AcDbEntity
  8
RACCORDO
100
AcDbCircle
 62
7
  6
CONTINUOUS
 10
-1.6245341653
 20
4.2465201933
 40
1.0324284262
100
AcDbArc
 50
240.9644641986
 51
243.4252663163
  0
ARC
  5
26D
100
AcDbEntity
  8
RACCORDO
100
AcDbCircle
 62
253
  6
CONTINUOUS
 10
-16.6848708106
 20
-2.0443886142
 40
0.5576173384
100
AcDbArc
 50
236.7290897213
 51
238.815240269
  0
ARC
  5
26E
100
AcDbEntity
  8
RACCORDO
100
AcDbCircle
 62
253
  6
CONTINUOUS
 10
-16.6865047176
 20
-2.0470742847
 40
0.5544737057
100
AcDbArc
 50
238.8159813801
 51
240.0279649063
  0
ARC
  5
26F
100
AcDbEntity
  8
ASSI
100
AcDbCircle
 62
253
  6
CONTINUOUS
 10
-16.6883837377
 20
-2.0503015518
 40
0.5507398195
100
AcDbArc
 50
238.809372773
 51
243.4279550194
  0
ARC
  5
270
100
AcDbEntity
  8
RACCORDO
100
AcDbCircle
 62
253
  6
CONTINUOUS
 10
-16.6890326416
 20
-2.0515263199
 40
0.5493541519
100
AcDbArc
 50
240.0243904081
 51
243.4313441623
  0
ARC
  5
271
100
AcDbEntity
  8
RACCORDO
100
AcDbCircle
 62
253
  6
CONTINUOUS
 10
-1.7612650031
 20
3.5763308816
 40
0.4840821
100
AcDbArc
 50
291.9782690748
 51
297.840198885
  0
SPLINE
  5
272
100
AcDbEntity
  8
RACCORDO
100
AcDbSpline
 62
7
  6
CONTINUOUS
 70
0
 71
3
 72
14
 73
10
 74
8
 42
0.0000001
 43
0.0000001
 44
0.0000000001
 12
-2.1334127319
 22
-1.1262489471
 32
0.0
 13
2.0328953942
 23
-1.3102034695
 33
0.0
 40
0.0
 40
0.0
 40
0.0
 40
0.0
 40
0.1126354234
 40
0.2431064815
 40
0.3946442942
 40
0.5607875776
 40
0.7319683022
 40
0.897607205
 40
1.0
 40
1.0
 40
1.0
 40
1.0
 10
-2.5915277428
 20
5.4454416669
 30
0.0
 10
-2.6716270249
 20
5.4031564913
 30
0.0
 10
-2.8204101423
 20
5.2617170885
 30
0.0
 10
-2.9282005304
 20
4.9543068205
 30
0.0
 10
-2.9295042109
 20
4.5891116463
 30
0.0
 10
-2.8322513928
 20
4.2046886649
 30
0.0
 10
-2.650026969
 20
3.8401062269
 30
0.0
 10
-2.426853488
 20
3.5629372838
 30
0.0
 10
-2.2572140893
 20
3.4258536002
 30
0.0
 10
-2.1878294755
 20
3.3811351351
 30
0.0
 11
-2.5915277428
 21
5.4454416669
 31
0.0
 11
-2.7918100824
 21
5.261805142
 31
0.0
 11
-2.9061351683
 21
4.9685477184
 31
0.0
 11
-2.9148711845
 21
4.6030756547
 31
0.0
 11
-2.8198852181
 21
4.2136820319
 31
0.0
 11
-2.6353330135
 21
3.8442505087
 31
0.0
 11
-2.3819434129
 21
3.5352690983
 31
0.0
 11
-2.1878294755
 21
3.3811351351
 31
0.0
  0
SPLINE
  5
273
100
AcDbEntity
  8
RACCORDO
100
AcDbSpline
 62
7
  6
CONTINUOUS
 70
0
 71
3
 72
10
 73
6
 74
4
 42
0.0000001
 43
0.0000001
 44
0.0000000001
 12
0.5309507646
 22
-0.2654753776
 32
0.0
 13
0.5366819963
 23
0.2536896016
 33
0.0
 40
0.0
 40
0.0
 40
0.0
 40
0.0
 40
0.3683960887
 40
0.69741576
 40
1.0
 40
1.0
 40
1.0
 40
1.0
 10
-2.0864062395
 20
3.3231661755
 30
0.0
 10
-2.0212061778
 20
3.2905661452
 30
0.0
 10
-1.8901209249
 20
3.2419865187
 30
0.0
 10
-1.6897732553
 20
3.2277841077
 30
0.0
 10
-1.5663153346
 20
3.2611682479
 30
0.0
 10
-1.5121848299
 20
3.2867557397
 30
0.0
 11
-2.0864062395
 21
3.3231661755
 31
0.0
 11
-1.8803088928
 21
3.2500349664
 31
0.0
 11
-1.6853134481
 21
3.2389021803
 31
0.0
 11
-1.5121848299
 21
3.2867557397
 31
0.0
  0
SPLINE
  5
274
100
AcDbEntity
  8
RACCORDO
100
AcDbSpline
 62
253
  6
CONTINUOUS
 70
0
 71
3
 72
9
 73
5
 74
3
 42
0.0000001
 43
0.0000001
 44
0.0000000001
 12
0.3391227322
 22
0.1616815324
 32
0.0
 13
0.1507748204
 23
0.3442739141
 33
0.0
 40
0.0
 40
0.0
 40
0.0
 40
0.0
 40
0.6219775114
 40
1.0
 40
1.0
 40
1.0
 40
1.0
 10
-1.5121926757
 20
3.286785983
 30
0.0
 10
-1.4418837713
 20
3.3203067421
 30
0.0
 10
-1.3430130452
 20
3.4051838741
 30
0.0
 10
-1.2810707032
 20
3.5145806518
 30
0.0
 10
-1.2620719456
 20
3.5579617457
 30
0.0
 11
-1.5121926757
 21
3.286785983
 31
0.0
 11
-1.3331790028
 21
3.4353756494
 31
0.0
 11
-1.2620719456
 21
3.5579617457
 31
0.0
  0
SPLINE
  5
275
100
AcDbEntity
  8
RACCORDO
100
AcDbSpline
 62
253
  6
CONTINUOUS
 70
0
 71
3
 72
22
 73
18
 74
16
 42
0.0000001
 43
0.0000001
 44
0.0000000001
 12
-2.5607350466
 22
1.2803675233
 32
0.0
 13
2.5607350466
 23
-1.2803675233
 33
0.0
 40
0.0
 40
0.0
 40
0.0
 40
0.0
 40
0.0926031929
 40
0.1728708975
 40
0.252045775
 40
0.3369516027
 40
0.4238704212
 40
0.5094903106
 40
0.590787205
 40
0.6657976871
 40
0.733551015
 40
0.7939124321
 40
0.8471061098
 40
0.8936521728
 40
0.9341960337
 40
0.9693929376
 40
1.0
 40
1.0
 40
1.0
 40
1.0
 10
-2.1119522217
 20
5.304308821
 30
0.0
 10
-2.1909963021
 20
5.3438308613
 30
0.0
 10
-2.3515478174
 20
5.3979660389
 30
0.0
 10
-2.6010711173
 20
5.3659293506
 30
0.0
 10
-2.7885457133
 20
5.2084834415
 30
0.0
 10
-2.8846623049
 20
4.9826979895
 30
0.0
 10
-2.9110354809
 20
4.7362254018
 30
0.0
 10
-2.8869191904
 20
4.4938839377
 30
0.0
 10
-2.8285072491
 20
4.2697573982
 30
0.0
 10
-2.7484397079
 20
4.0709434979
 30
0.0
 10
-2.6562870263
 20
3.8999888528
 30
0.0
 10
-2.558969524
 20
3.756583481
 30
0.0
 10
-2.4612825241
 20
3.6388074777
 30
0.0
 10
-2.3664738061
 20
3.5440190327
 30
0.0
 10
-2.2766193698
 20
3.4692942388
 30
0.0
 10
-2.1929092578
 20
3.4116761999
 30
0.0
 10
-2.1380777475
 20
3.3808554121
 30
0.0
 10
-2.1119522217
 20
3.3677926492
 30
0.0
 11
-2.1119522217
 21
5.304308821
 31
0.0
 11
-2.3660428459
 21
5.3799895952
 31
0.0
 11
-2.5931519566
 21
5.3448891911
 31
0.0
 11
-2.769466309
 21
5.2024265087
 31
0.0
 11
-2.8721232102
 21
4.9820822253
 31
0.0
 11
-2.9025228984
 21
4.735098441
 31
0.0
 11
-2.8800771659
 21
4.4909994634
 31
0.0
 11
-2.8220886616
 21
4.2655867903
 31
0.0
 11
-2.7420499776
 21
4.0663051722
 31
0.0
 11
-2.6499567562
 21
3.8955834017
 31
0.0
 11
-2.5527669177
 21
3.7526889111
 31
0.0
 11
-2.455363174
 21
3.6356178241
 31
0.0
 11
-2.3609508474
 21
3.541571193
 31
0.0
 11
-2.2715543367
 21
3.4675303547
 31
0.0
 11
-2.1884281747
 21
3.410571598
 31
0.0
 11
-2.1119522217
 21
3.3677926492
 31
0.0
  0
SPLINE
  5
276
100
AcDbEntity
  8
RACCORDO
100
AcDbSpline
 62
253
  6
CONTINUOUS
 70
0
 71
3
 72
10
 73
6
 74
4
 42
0.0000001
 43
0.0000001
 44
0.0000000001
 12
-0.3309011026
 22
0.0559207195
 32
0.0
 13
-0.2957943124
 23
-0.1580556585
 33
0.0
 40
0.0
 40
0.0
 40
0.0
 40
0.0
 40
0.158594754
 40
0.9032710887
 40
1.0
 40
1.0
 40
1.0
 40
1.0
 10
-2.2643223588
 20
5.4908034451
 30
0.0
 10
-2.2818154184
 20
5.4937596894
 30
0.0
 10
-2.3822348385
 20
5.5064600739
 30
0.0
 10
-2.4974217888
 20
5.4916802933
 30
0.0
 10
-2.5819358388
 20
5.4504354815
 30
0.0
 10
-2.591473126
 20
5.4453392976
 30
0.0
 11
-2.2643223588
 21
5.4908034451
 31
0.0
 11
-2.3171901195
 21
5.4974164333
 31
0.0
 11
-2.5623402313
 21
5.4595378412
 31
0.0
 11
-2.591473126
 21
5.4453392976
 31
0.0
  0
SPLINE
  5
277
100
AcDbEntity
  8
RACCORDO
100
AcDbSpline
 62
253
  6
CONTINUOUS
 70
0
 71
3
 72
8
 73
4
 74
2
 42
0.0000001
 43
0.0000001
 44
0.0000000001
 12
0.0835988337
 22
-0.0417994168
 32
0.0
 13
0.0882735387
 23
-0.032464483
 33
0.0
 40
0.0
 40
0.0
 40
0.0
 40
0.0
 40
1.0
 40
1.0
 40
1.0
 40
1.0
 10
-2.1119522217
 20
3.3677926492
 30
0.0
 10
-2.0840859438
 20
3.3538595103
 30
0.0
 10
-2.0553546364
 20
3.3412343061
 30
0.0
 10
-2.0259301235
 20
3.3304128118
 30
0.0
 11
-2.1119522217
 21
3.3677926492
 31
0.0
 11
-2.0259301235
 21
3.3304128118
 31
0.0
  0
SPLINE
  5
278
100
AcDbEntity
  8
RACCORDO
100
AcDbSpline
 62
253
  6
CONTINUOUS
 70
0
 71
3
 72
10
 73
6
 74
4
 42
0.0000001
 43
0.0000001
 44
0.0000000001
 12
0.4497329471
 22
-0.165398916
 32
0.0
 13
0.3975809252
 23
0.2706053485
 33
0.0
 40
0.0
 40
0.0
 40
0.0
 40
0.0
 40
0.3604798126
 40
0.8430695357
 40
1.0
 40
1.0
 40
1.0
 40
1.0
 10
-2.0259301235
 20
3.3304128118
 30
0.0
 10
-1.9718902407
 20
3.3105384883
 30
0.0
 10
-1.8400365285
 20
3.278286067
 30
0.0
 10
-1.6753753294
 20
3.2994262941
 30
0.0
 10
-1.5858778051
 20
3.349650957
 30
0.0
 10
-1.5650802854
 20
3.3638063647
 30
0.0
 11
-2.0259301235
 21
3.3304128118
 31
0.0
 11
-1.8578604124
 21
3.2921124675
 31
0.0
 11
-1.6307528093
 21
3.3272121179
 31
0.0
 11
-1.5650802854
 21
3.3638063647
 31
0.0
  0
SPLINE
  5
279
100
AcDbEntity
  8
RACCORDO
100
AcDbSpline
 62
253
  6
CONTINUOUS
 70
0
 71
3
 72
20
 73
16
 74
14
 42
0.0000001
 43
0.0000001
 44
0.0000000001
 12
1.9147547356
 22
1.3032387614
 32
0.0
 13
-2.0512188492
 23
1.0256094246
 33
0.0
 40
0.0
 40
0.0
 40
0.0
 40
0.0
 40
0.0662565476
 40
0.172252553
 40
0.2807617212
 40
0.3876493116
 40
0.4891401078
 40
0.5827829581
 40
0.667365994
 40
0.7427209878
 40
0.8091277958
 40
0.8672357412
 40
0.9178505631
 40
0.9617902467
 40
1.0
 40
1.0
 40
1.0
 40
1.0
 10
-1.5650802854
 20
3.3638063647
 30
0.0
 10
-1.5227919393
 20
3.392589065
 30
0.0
 10
-1.4253638279
 20
3.4870974215
 30
0.0
 10
-1.3392428875
 20
3.6894032692
 30
0.0
 10
-1.3128696264
 20
3.9358757196
 30
0.0
 10
-1.3369860478
 20
4.1782171693
 30
0.0
 10
-1.395397779
 20
4.402343764
 30
0.0
 10
-1.4754652377
 20
4.6011577144
 30
0.0
 10
-1.5676177762
 20
4.7721124312
 30
0.0
 10
-1.6649351891
 20
4.9155178508
 30
0.0
 10
-1.762622113
 20
5.0332938886
 30
0.0
 10
-1.8574307493
 20
5.1280823941
 30
0.0
 10
-1.947285179
 20
5.2028071531
 30
0.0
 10
-2.0309952049
 20
5.2604252771
 30
0.0
 10
-2.0858266996
 20
5.29124606
 30
0.0
 10
-2.1119522217
 20
5.304308821
 30
0.0
 11
-1.5650802854
 21
3.3638063647
 31
0.0
 11
-1.4544383979
 21
3.4696748297
 31
0.0
 11
-1.3517819108
 21
3.6900189061
 31
0.0
 11
-1.3213822473
 21
3.9370026781
 31
0.0
 11
-1.3438280109
 21
4.1811016401
 31
0.0
 11
-1.4018163843
 21
4.4065143787
 31
0.0
 11
-1.4818549552
 21
4.6057960533
 31
0.0
 11
-1.5739480515
 21
4.7765178864
 31
0.0
 11
-1.671137795
 21
4.9194124245
 31
0.0
 11
-1.7685414585
 21
5.0364835516
 31
0.0
 11
-1.8629537161
 21
5.1305302172
 31
0.0
 11
-1.9523502048
 21
5.2045710664
 31
0.0
 11
-2.0354762885
 21
5.2615298622
 31
0.0
 11
-2.1119522217
 21
5.304308821
 31
0.0
  0
SPLINE
  5
27A
100
AcDbEntity
  8
RACCORDO
100
AcDbSpline
 62
253
  6
CONTINUOUS
 70
0
 71
3
 72
11
 73
7
 74
5
 42
0.0000001
 43
0.0000001
 44
0.0000000001
 12
0.0848731424
 22
0.0448360671
 32
0.0
 13
0.0860674104
 23
-0.0415414962
 33
0.0
 40
0.0
 40
0.0
 40
0.0
 40
0.0
 40
0.1417261052
 40
0.4040385915
 40
0.6876714638
 40
1.0
 40
1.0
 40
1.0
 40
1.0
 10
-17.5686781227
 20
16.0273385424
 30
0.0
 10
-17.5646685428
 20
16.0294566895
 30
0.0
 10
-17.5527070601
 20
16.0344948718
 30
0.0
 10
-17.530710274
 20
16.0377824783
 30
0.0
 10
-17.5033193586
 20
16.0341862961
 30
0.0
 10
-17.4854051135
 20
16.0274383271
 30
0.0
 10
-17.4764446774
 20
16.0231134622
 30
0.0
 11
-17.5686781227
 21
16.0273385424
 31
0.0
 11
-17.5561585507
 21
16.0326089748
 31
0.0
 11
-17.5314015064
 21
16.036549922
 31
0.0
 11
-17.5044854928
 21
16.0333436878
 31
0.0
 11
-17.4764446774
 21
16.0231134622
 31
0.0
  0
SPLINE
  5
27B
100
AcDbEntity
  8
RACCORDO
100
AcDbSpline
 62
253
  6
CONTINUOUS
 70
0
 71
3
 72
11
 73
7
 74
5
 42
0.0000001
 43
0.0000001
 44
0.0000000001
 12
0.0863010479
 22
-14.5967938161
 32
0.0
 13
0.5071845942
 23
-14.5881783618
 33
0.0
 40
0.0
 40
0.0
 40
0.0
 40
0.0
 40
0.1097567126
 40
0.4077354704
 40
0.7044796212
 40
1.0
 40
1.0
 40
1.0
 40
1.0
 10
13.1680966214
 20
-2.5845005963
 30
0.0
 10
13.1712539945
 20
-3.1185326307
 30
0.0
 10
13.1860583731
 20
-5.1023920763
 30
0.0
 10
13.2314503845
 20
-8.529892624
 30
0.0
 10
13.3258138696
 20
-12.8605406153
 30
0.0
 10
13.4134066804
 20
-15.7410117833
 30
0.0
 10
13.4633678082
 20
-17.1780464485
 30
0.0
 11
13.1680966214
 21
-2.5845005963
 31
0.0
 11
13.1800552007
 21
-4.186579607
 31
0.0
 11
13.2377353875
 21
-8.5357907739
 31
0.0
 11
13.3321728249
 21
-12.8663332663
 31
0.0
 11
13.4633678082
 21
-17.1780464485
 31
0.0
  0
SPLINE
  5
27C
100
AcDbEntity
  8
RACCORDO
100
AcDbSpline
 62
253
  6
CONTINUOUS
 70
0
 71
3
 72
18
 73
14
 74
12
 42
0.0000001
 43
0.0000001
 44
0.0000000001
 12
-0.3882309728
 22
-0.191513095
 32
0.0
 13
-0.3872041051
 23
0.1935808226
 33
0.0
 40
0.0
 40
0.0
 40
0.0
 40
0.0
 40
0.0815058463
 40
0.1686857655
 40
0.2604735908
 40
0.3556364595
 40
0.4528302513
 40
0.5506259444
 40
0.6475681924
 40
0.7422356527
 40
0.8333027824
 40
0.9195656467
 40
1.0
 40
1.0
 40
1.0
 40
1.0
 10
13.7198533623
 20
0.4249644423
 30
0.0
 10
13.7093056643
 20
0.4197612967
 30
0.0
 10
13.6868510804
 20
0.4102335148
 30
0.0
 10
13.6509742877
 20
0.3988760026
 30
0.0
 10
13.6123490554
 20
0.3901412438
 30
0.0
 10
13.5717405876
 20
0.3842065239
 30
0.0
 10
13.5299445346
 20
0.3811882479
 30
0.0
 10
13.4877836653
 20
0.3811469759
 30
0.0
 10
13.4460895585
 20
0.3840835006
 30
0.0
 10
13.4056829687
 20
0.3899388135
 30
0.0
 10
13.3673551711
 20
0.3985980895
 30
0.0
 10
13.3318649234
 20
0.4098856777
 30
0.0
 10
13.3097065513
 20
0.4193820836
 30
0.0
 10
13.2993250473
 20
0.4245722663
 30
0.0
 11
13.7198533623
 21
0.4249644423
 31
0.0
 11
13.6874243635
 21
0.411061207
 31
0.0
 11
13.6514745957
 21
0.3995754852
 31
0.0
 11
13.6127338393
 21
0.390743477
 31
0.0
 11
13.5719774589
 21
0.3847425142
 31
0.0
 11
13.5300132319
 21
0.381691623
 31
0.0
 11
13.4876777045
 21
0.3816521272
 31
0.0
 11
13.4458170346
 21
0.3846248601
 31
0.0
 11
13.4052662951
 21
0.3905500438
 31
0.0
 11
13.366829131
 21
0.3993101141
 31
0.0
 11
13.3312748648
 21
0.4107291541
 31
0.0
 11
13.2993250473
 21
0.4245722663
 31
0.0
  0
SPLINE
  5
27D
100
AcDbEntity
  8
RACCORDO
100
AcDbSpline
 62
253
  6
CONTINUOUS
 70
0
 71
3
 72
15
 73
11
 74
9
 42
0.0000001
 43
0.0000001
 44
0.0000000001
 12
-0.1789959988
 22
0.0895078148
 32
0.0
 13
0.1157339158
 23
0.1637428384
 33
0.0
 40
0.0
 40
0.0
 40
0.0
 40
0.0
 40
0.1599713654
 40
0.3053224785
 40
0.4364228428
 40
0.5551938112
 40
0.6653586915
 40
0.7722663983
 40
0.8819989458
 40
1.0
 40
1.0
 40
1.0
 40
1.0
 10
-17.4727735816
 20
15.8106215808
 30
0.0
 10
-17.4823183264
 20
15.8153944766
 30
0.0
 10
-17.5000706277
 20
15.8255010358
 30
0.0
 10
-17.52328045
 20
15.843248631
 30
0.0
 10
-17.5413984999
 20
15.8626060279
 30
0.0
 10
-17.5540044137
 20
15.8832899722
 30
0.0
 10
-17.5606776562
 20
15.9049567547
 30
0.0
 10
-17.5610662755
 20
15.9270520285
 30
0.0
 10
-17.5551501571
 20
15.9488584932
 30
0.0
 10
-17.5475822595
 20
15.9621847964
 30
0.0
 10
-17.5430300181
 20
15.9686254056
 30
0.0
 11
-17.4727735816
 21
15.8106215808
 31
0.0
 11
-17.5005048941
 21
15.8266190335
 31
0.0
 11
-17.5234774498
 21
15.8444634045
 31
0.0
 11
-17.5412187913
 21
15.8637925869
 31
0.0
 11
-17.5533726697
 21
15.8842197122
 31
0.0
 11
-17.5596979445
 21
15.9053399516
 31
0.0
 11
-17.5600674932
 21
15.9267319854
 31
0.0
 11
-17.5544740164
 21
15.9479682517
 31
0.0
 11
-17.5430300181
 21
15.9686254056
 31
0.0
  0
SPLINE
  5
27E
100
AcDbEntity
  8
RACCORDO
100
AcDbSpline
 62
253
  6
CONTINUOUS
 70
0
 71
3
 72
10
 73
6
 74
4
 42
0.0000001
 43
0.0000001
 44
0.0000000001
 12
0.0501513692
 22
0.070955238
 32
0.0
 13
0.0766665532
 23
0.0405335632
 33
0.0
 40
0.0
 40
0.0
 40
0.0
 40
0.0
 40
0.300285628
 40
0.633260842
 40
1.0
 40
1.0
 40
1.0
 40
1.0
 10
-17.5430300181
 20
15.9686254056
 30
0.0
 10
-17.5380101063
 20
15.975727685
 30
0.0
 10
-17.5258058978
 20
15.9895143201
 30
0.0
 10
-17.5032092663
 20
16.0077132824
 30
0.0
 10
-17.4858168865
 20
16.0181583806
 30
0.0
 10
-17.4764446774
 20
16.0231134622
 30
0.0
 11
-17.5430300181
 21
15.9686254056
 31
0.0
 11
-17.5259624912
 21
15.9882940285
 31
0.0
 11
-17.5036141486
 21
16.0065804629
 31
0.0
 11
-17.4764446774
 21
16.0231134622
 31
0.0
  0
SPLINE
  5
27F
100
AcDbEntity
  8
RACCORDO
100
AcDbSpline
 62
253
  6
CONTINUOUS
 70
0
 71
3
 72
12
 73
8
 74
6
 42
0.0000001
 43
0.0000001
 44
0.0000000001
 12
0.0082126279
 22
-0.2416880773
 32
0.0
 13
0.2155430831
 23
-0.1079545116
 33
0.0
 40
0.0
 40
0.0
 40
0.0
 40
0.0
 40
0.1608842159
 40
0.340588146
 40
0.5377905622
 40
0.7570801002
 40
1.0
 40
1.0
 40
1.0
 40
1.0
 10
-17.4656219797
 20
-1.6091476861
 30
0.0
 10
-17.4651815523
 20
-1.6221089517
 30
0.0
 10
-17.4603098056
 20
-1.6494234633
 30
0.0
 10
-17.4411164228
 20
-1.6887020565
 30
0.0
 10
-17.4101965743
 20
-1.7257816582
 30
0.0
 10
-17.368862394
 20
-1.7593434553
 30
0.0
 10
-17.3366119079
 20
-1.7780532314
 30
0.0
 10
-17.3191586732
 20
-1.7867946644
 30
0.0
 11
-17.4656219797
 21
-1.6091476861
 31
0.0
 11
-17.4589537715
 21
-1.6473699354
 31
0.0
 11
-17.4403552591
 21
-1.6864949601
 31
0.0
 11
-17.4103316255
 21
-1.7233531443
 31
0.0
 11
-17.3696058616
 21
-1.7570569162
 31
0.0
 11
-17.3191586732
 21
-1.7867946644
 31
0.0
  0
SPLINE
  5
280
100
AcDbEntity
  8
RACCORDO
100
AcDbSpline
 62
253
  6
CONTINUOUS
 70
0
 71
3
 72
15
 73
11
 74
9
 42
0.0000001
 43
0.0000001
 44
0.0000000001
 12
-0.6906319167
 22
0.4531392479
 32
0.0
 13
-0.0278627905
 23
0.8244969658
 33
0.0
 40
0.0
 40
0.0
 40
0.0
 40
0.0
 40
0.038959054
 40
0.1576959601
 40
0.2807100257
 40
0.4095877143
 40
0.5454719305
 40
0.6890542008
 40
0.8405963456
 40
1.0
 40
1.0
 40
1.0
 40
1.0
 10
-16.9907787893
 20
-2.5106046636
 30
0.0
 10
-16.999747578
 20
-2.5047200381
 30
0.0
 10
-17.0353653382
 20
-2.4798566348
 30
0.0
 10
-17.0934259316
 20
-2.4284412377
 30
0.0
 10
-17.158080916
 20
-2.3491237988
 30
0.0
 10
-17.2126431675
 20
-2.2570927634
 30
0.0
 10
-17.2565917416
 20
-2.1534334437
 30
0.0
 10
-17.2895189111
 20
-2.0393096479
 30
0.0
 10
-17.3111205453
 20
-1.9159890077
 30
0.0
 10
-17.3176785843
 20
-1.8305922904
 30
0.0
 10
-17.3191590612
 20
-1.7867830139
 30
0.0
 11
-16.9907787893
 21
-2.5106046636
 31
0.0
 11
-17.0171632844
 21
-2.4921895571
 31
0.0
 11
-17.0906524622
 21
-2.4274257778
 31
0.0
 11
-17.1550310147
 21
-2.34897755
 31
0.0
 11
-17.2095821274
 21
-2.2577191168
 31
0.0
 11
-17.2536997979
 21
-2.154665447
 31
0.0
 11
-17.2868940883
 21
-2.0409609474
 31
0.0
 11
-17.3087945719
 21
-1.9178767895
 31
0.0
 11
-17.3191590612
 21
-1.7867830139
 31
0.0
  0
SPLINE
  5
281
100
AcDbEntity
  8
RACCORDO
100
AcDbSpline
 62
253
  6
CONTINUOUS
 70
0
 71
3
 72
27
 73
23
 74
21
 42
0.0000001
 43
0.0000001
 44
0.0000000001
 12
-2.3359061049
 22
-0.9433573678
 32
0.0
 13
-0.0203407198
 23
2.5155944729
 33
0.0
 40
0.0
 40
0.0
 40
0.0
 40
0.0
 40
0.0239838824
 40
0.0607372915
 40
0.0990134258
 40
0.1393347281
 40
0.1820412699
 40
0.2273093506
 40
0.2751736607
 40
0.3255438967
 40
0.3782190701
 40
0.432910899
 40
0.4892860073
 40
0.5469672895
 40
0.6054966056
 40
0.6643481779
 40
0.7230885256
 40
0.7814073547
 40
0.8388829676
 40
0.8948702966
 40
0.9487481548
 40
1.0
 40
1.0
 40
1.0
 40
1.0
 10
-1.5800949014
 20
3.1274290284
 30
0.0
 10
-1.5987696005
 20
3.1198872377
 30
0.0
 10
-1.6472411147
 20
3.1036998192
 30
0.0
 10
-1.7294874333
 20
3.0895357507
 30
0.0
 10
-1.8266364029
 20
3.0894092293
 30
0.0
 10
-1.9275338401
 20
3.1048847051
 30
0.0
 10
-2.0309351547
 20
3.1356533275
 30
0.0
 10
-2.1355902763
 20
3.1812544127
 30
0.0
 10
-2.2402430897
 20
3.2410805128
 30
0.0
 10
-2.3436274151
 20
3.3143714199
 30
0.0
 10
-2.4444742741
 20
3.4002066186
 30
0.0
 10
-2.541543558
 20
3.4975193054
 30
0.0
 10
-2.6336461737
 20
3.6051182918
 30
0.0
 10
-2.7196341607
 20
3.7216775931
 30
0.0
 10
-2.7983931796
 20
3.8456995885
 30
0.0
 10
-2.8689187689
 20
3.9755903203
 30
0.0
 10
-2.9303825611
 20
4.1098126645
 30
0.0
 10
-2.9820660657
 20
4.2468679591
 30
0.0
 10
-3.0232594964
 20
4.3850319678
 30
0.0
 10
-3.0533306904
 20
4.5222381132
 30
0.0
 10
-3.0718851767
 20
4.656202757
 30
0.0
 10
-3.0766724798
 20
4.7443620474
 30
0.0
 10
-3.0770199797
 20
4.7873383336
 30
0.0
 11
-1.5800949014
 21
3.1274290284
 31
0.0
 11
-1.6373591744
 21
3.1082723816
 31
0.0
 11
-1.7284304399
 21
3.0923093047
 31
0.0
 11
-1.8247195247
 21
3.0918099444
 31
0.0
 11
-1.9250443838
 21
3.1067784145
 31
0.0
 11
-2.0281341898
 21
3.1370266258
 31
0.0
 11
-2.132684384
 21
3.1821694941
 31
0.0
 11
-2.2373847519
 21
3.2416394297
 31
0.0
 11
-2.3409221749
 21
3.3146925022
 31
0.0
 11
-2.4419828377
 21
3.4004049569
 31
0.0
 11
-2.5392793874
 21
3.4976857515
 31
0.0
 11
-2.6316078644
 21
3.6053370565
 31
0.0
 11
-2.7178276065
 21
3.7220517962
 31
0.0
 11
-2.796804919
 21
3.8463194439
 31
0.0
 11
-2.8674601579
 21
3.9764236047
 31
0.0
 11
-2.9289593112
 21
4.1107900319
 31
0.0
 11
-2.9806615265
 21
4.2480893121
 31
0.0
 11
-3.021866573
 21
4.3866837916
 31
0.0
 11
-3.0518683972
 21
4.524297351
 31
0.0
 11
-3.0702651343
 21
4.6585823262
 31
0.0
 11
-3.0770199797
 21
4.7873383336
 31
0.0
  0
SPLINE
  5
282
100
AcDbEntity
  8
RACCORDO
100
AcDbSpline
 62
253
  6
CONTINUOUS
 70
0
 71
3
 72
11
 73
7
 74
5
 42
0.0000001
 43
0.0000001
 44
0.0000000001
 12
-0.5827888803
 22
17.3474269095
 32
0.0
 13
-0.0096986814
 23
17.3572108702
 33
0.0
 40
0.0
 40
0.0
 40
0.0
 40
0.0
 40
0.2483881815
 40
0.4978455333
 40
0.74837995
 40
1.0
 40
1.0
 40
1.0
 40
1.0
 10
-17.3191590657
 20
-1.7867830117
 30
0.0
 10
-17.3674116891
 20
-0.350484404
 30
0.0
 10
-17.4520074291
 20
2.5287164756
 30
0.0
 10
-17.5431305117
 20
6.857735453
 30
0.0
 10
-17.5987634752
 20
11.2060558811
 30
0.0
 10
-17.612138499
 20
14.1113970563
 30
0.0
 10
-17.6129519599
 20
15.5672044788
 30
0.0
 11
-17.3191590657
 21
-1.7867830117
 31
0.0
 11
-17.445857011
 21
2.5226816517
 31
0.0
 11
-17.5370573689
 21
6.8516056043
 31
0.0
 11
-17.5927604229
 21
11.1998282049
 31
0.0
 11
-17.6129519599
 21
15.5672044788
 31
0.0
  0
SPLINE
  5
283
100
AcDbEntity
  8
RACCORDO
100
AcDbSpline
 62
253
  6
CONTINUOUS
 70
0
 71
3
 72
35
 73
31
 74
29
 42
0.0000001
 43
0.0000001
 44
0.0000000001
 12
-0.0265786962
 22
3.5497544195
 32
0.0
 13
0.2326267247
 23
-3.5437530382
 33
0.0
 40
0.0
 40
0.0
 40
0.0
 40
0.0
 40
0.0373186322
 40
0.073137791
 40
0.1072027341
 40
0.139393471
 40
0.1697606819
 40
0.1986287705
 40
0.2264981959
 40
0.2539054553
 40
0.2813928778
 40
0.3095133377
 40
0.338772947
 40
0.3695685413
 40
0.4021606344
 40
0.4366868582
 40
0.4731779546
 40
0.511569755
 40
0.5517136246
 40
0.5933939517
 40
0.6363601138
 40
0.6803273425
 40
0.7249482001
 40
0.7698226914
 40
0.8146202157
 40
0.8591032323
 40
0.9029482898
 40
0.9456605011
 40
0.9867626688
 40
1.0
 40
1.0
 40
1.0
 40
1.0
 10
-3.2171936298
 20
4.7871718383
 30
0.0
 10
-3.2175242567
 20
4.8313291648
 30
0.0
 10
-3.2143578587
 20
4.9179648643
 30
0.0
 10
-3.197060419
 20
5.0438622182
 30
0.0
 10
-3.1672357602
 20
5.1612032206
 30
0.0
 10
-3.1251694901
 20
5.2678848769
 30
0.0
 10
-3.0714125672
 20
5.3622347793
 30
0.0
 10
-3.0066233957
 20
5.4430003099
 30
0.0
 10
-2.931503788
 20
5.5091544007
 30
0.0
 10
-2.8469713874
 20
5.5597096288
 30
0.0
 10
-2.7542703211
 20
5.5938508266
 30
0.0
 10
-2.6548207026
 20
5.6111245567
 30
0.0
 10
-2.5500303355
 20
5.6114270968
 30
0.0
 10
-2.4412644862
 20
5.5948986945
 30
0.0
 10
-2.3298753251
 20
5.5618653979
 30
0.0
 10
-2.2172170438
 20
5.5128206129
 30
0.0
 10
-2.1046455711
 20
5.4484186199
 30
0.0
 10
-1.9935230117
 20
5.3694803554
 30
0.0
 10
-1.8852101752
 20
5.2770011964
 30
0.0
 10
-1.7810329312
 20
5.1721355865
 30
0.0
 10
-1.6822589785
 20
5.056173146
 30
0.0
 10
-1.590109053
 20
4.9305495636
 30
0.0
 10
-1.5057655707
 20
4.7968859771
 30
0.0
 10
-1.4302915845
 20
4.6569073182
 30
0.0
 10
-1.3645608269
 20
4.5122768114
 30
0.0
 10
-1.3093298879
 20
4.3646156313
 30
0.0
 10
-1.265346445
 20
4.215787485
 30
0.0
 10
-1.2332772132
 20
4.0680233665
 30
0.0
 10
-1.2176873551
 20
3.9541301948
 30
0.0
 10
-1.2125555254
 20
3.8899992526
 30
0.0
 10
-1.2115290731
 20
3.8743626418
 30
0.0
 11
-3.2171936298
 21
4.7871718383
 31
0.0
 11
-3.2120448769
 21
4.9195474386
 31
0.0
 11
-3.1943754152
 21
5.0454665393
 31
0.0
 11
-3.1641804309
 21
5.1625616155
 31
0.0
 11
-3.1218475568
 21
5.2687035592
 31
0.0
 11
-3.0681052438
 21
5.3621509954
 31
0.0
 11
-3.0036930148
 21
5.4418548361
 31
0.0
 11
-2.9292838819
 21
5.5070537515
 31
0.0
 11
-2.8457490621
 21
5.5569298162
 31
0.0
 11
-2.7542279405
 21
5.5907680406
 31
0.0
 11
-2.6559267477
 21
5.6081350093
 31
0.0
 11
-2.552061732
 21
5.6088296906
 31
0.0
 11
-2.4439174443
 21
5.5928407862
 31
0.0
 11
-2.3328715038
 21
5.560365656
 31
0.0
 11
-2.2203343378
 21
5.5118158072
 31
0.0
 11
-2.1077187613
 21
5.4478014234
 31
0.0
 11
-1.9964368813
 21
5.3691247332
 31
0.0
 11
-1.8878976652
 21
5.2767836405
 31
0.0
 11
-1.7834779362
 21
5.1719580361
 31
0.0
 11
-1.6844615857
 21
5.0559441983
 31
0.0
 11
-1.5920618289
 21
4.9301571179
 31
0.0
 11
-1.5074821202
 21
4.7962315819
 31
0.0
 11
-1.4318663011
 21
4.6560243592
 31
0.0
 11
-1.3660944153
 21
4.511238642
 31
0.0
 11
-1.3108401387
 21
4.3633130931
 31
0.0
 11
-1.2668415507
 21
4.2140179538
 31
0.0
 11
-1.2348442359
 21
4.0658105437
 31
0.0
 11
-1.2152692513
 21
3.9212229146
 31
0.0
 11
-1.2115290731
 21
3.8743626418
 31
0.0
  0
SPLINE
  5
284
100
AcDbEntity
  8
RACCORDO
100
AcDbSpline
 62
253
  6
CONTINUOUS
 70
0
 71
3
 72
35
 73
31
 74
29
 42
0.0000001
 43
0.0000001
 44
0.0000000001
 12
0.0263151292
 22
-3.6381979046
 32
0.0
 13
-0.0273795849
 23
3.6381900496
 33
0.0
 40
0.0
 40
0.0
 40
0.0
 40
0.0
 40
0.036394611
 40
0.0713135783
 40
0.1045056511
 40
0.1358523689
 40
0.1654036856
 40
0.1934785284
 40
0.220569828
 40
0.2472079486
 40
0.2739299579
 40
0.3012821942
 40
0.3297629887
 40
0.3597612802
 40
0.3915305824
 40
0.4252027557
 40
0.4608043668
 40
0.4982689741
 40
0.5374477412
 40
0.5781268262
 40
0.6200587643
 40
0.6629634695
 40
0.7065004883
 40
0.7502790032
 40
0.7939768102
 40
0.8373632117
 40
0.8801244777
 40
0.9217806371
 40
0.9618695396
 40
1.0
 40
1.0
 40
1.0
 40
1.0
 10
-1.2081508578
 20
3.7826504523
 30
0.0
 10
-1.2078316149
 20
3.7385135198
 30
0.0
 10
-1.2109958914
 20
3.6519357674
 30
0.0
 10
-1.2282147439
 20
3.5261415688
 30
0.0
 10
-1.2578884902
 20
3.408934582
 30
0.0
 10
-1.2997405933
 20
3.3024104176
 30
0.0
 10
-1.3532340656
 20
3.2082336238
 30
0.0
 10
-1.4177271916
 20
3.1276499215
 30
0.0
 10
-1.4925352441
 20
3.0616813633
 30
0.0
 10
-1.576755671
 20
3.011311374
 30
0.0
 10
-1.6691561175
 20
2.9773490703
 30
0.0
 10
-1.7683270734
 20
2.9602378054
 30
0.0
 10
-1.8728729265
 20
2.9600695503
 30
0.0
 10
-1.9814418186
 20
2.9766943986
 30
0.0
 10
-2.0926936381
 20
3.0097804775
 30
0.0
 10
-2.205282807
 20
3.0588321622
 30
0.0
 10
-2.3178577231
 20
3.1231957469
 30
0.0
 10
-2.4290563216
 20
3.202053068
 30
0.0
 10
-2.5375138245
 20
3.2944133939
 30
0.0
 10
-2.6418967698
 20
3.3991285111
 30
0.0
 10
-2.7409267866
 20
3.5149162878
 30
0.0
 10
-2.8333699339
 20
3.6403494603
 30
0.0
 10
-2.9180286549
 20
3.7738160178
 30
0.0
 10
-2.9938237638
 20
3.9136003215
 30
0.0
 10
-3.0598655668
 20
4.0580479
 30
0.0
 10
-3.1153823249
 20
4.2055455904
 30
0.0
 10
-3.1596121951
 20
4.3542372011
 30
0.0
 10
-3.1918760195
 20
4.5018984538
 30
0.0
 10
-3.2117519831
 20
4.6460633059
 30
0.0
 10
-3.2168456311
 20
4.7409298844
 30
0.0
 10
-3.2171936298
 20
4.7871718383
 30
0.0
 11
-1.2081508578
 21
3.7826504523
 31
0.0
 11
-1.2132975383
 21
3.6503362496
 31
0.0
 11
-1.2308908324
 21
3.524514872
 31
0.0
 11
-1.2609391054
 21
3.4075504337
 31
0.0
 11
-1.3030631855
 21
3.3015663179
 31
0.0
 11
-1.3565470497
 21
3.2082965908
 31
0.0
 11
-1.4206648549
 21
3.1287830247
 31
0.0
 11
-1.4947578523
 21
3.0637791687
 31
0.0
 11
-1.5779705815
 21
3.0140941333
 31
0.0
 11
-1.6691801867
 21
2.9804337308
 31
0.0
 11
-1.7671960516
 21
2.9632228206
 31
0.0
 11
-1.8708159724
 21
2.9626548982
 31
0.0
 11
-1.9787674975
 21
2.978735016
 31
0.0
 11
-2.089682672
 21
3.0112612337
 31
0.0
 11
-2.2021576039
 21
3.0598194701
 31
0.0
 11
-2.3147826015
 21
3.1237991263
 31
0.0
 11
-2.4261450975
 21
3.2023997179
 31
0.0
 11
-2.5348320306
 21
3.2946271323
 31
0.0
 11
-2.6394590698
 21
3.3993071351
 31
0.0
 11
-2.7387318146
 21
3.5151504911
 31
0.0
 11
-2.8314241232
 21
3.6407503005
 31
0.0
 11
-2.9163175599
 21
3.7744806332
 31
0.0
 11
-2.9922521149
 21
3.9144940778
 31
0.0
 11
-3.0583320485
 21
4.0590963215
 31
0.0
 11
-3.1138691332
 21
4.2068563507
 31
0.0
 11
-3.1581114314
 21
4.3560110982
 31
0.0
 11
-3.1903010167
 21
4.5041105603
 31
0.0
 11
-3.2100079967
 21
4.6486282664
 31
0.0
 11
-3.2171936298
 21
4.7871718383
 31
0.0
  0
SPLINE
  5
285
100
AcDbEntity
  8
RACCORDO
100
AcDbSpline
 62
253
  6
CONTINUOUS
 70
0
 71
3
 72
16
 73
12
 74
10
 42
0.0000001
 43
0.0000001
 44
0.0000000001
 12
-0.006771845
 22
0.8394282561
 32
0.0
 13
0.7599401454
 23
0.3592988648
 33
0.0
 40
0.0
 40
0.0
 40
0.0
 40
0.0
 40
0.1466521217
 40
0.2873813802
 40
0.4212106824
 40
0.5476712646
 40
0.6669654953
 40
0.7803717525
 40
0.8898601215
 40
0.9975420437
 40
1.0
 40
1.0
 40
1.0
 40
1.0
 10
-3.0770199797
 20
4.7873383336
 30
0.0
 10
-3.0773510148
 20
4.8283729785
 30
0.0
 10
-3.0744522069
 20
4.908875674
 30
0.0
 10
-3.0584380584
 20
5.0258599477
 30
0.0
 10
-3.0307747194
 20
5.134886043
 30
0.0
 10
-2.9917272023
 20
5.2340063115
 30
0.0
 10
-2.9418063517
 20
5.3216666409
 30
0.0
 10
-2.881624021
 20
5.3967029056
 30
0.0
 10
-2.8118325317
 20
5.4581602581
 30
0.0
 10
-2.7587812595
 20
5.4898777442
 30
0.0
 10
-2.730909366
 20
5.5031280859
 30
0.0
 10
-2.7302867328
 20
5.5034224662
 30
0.0
 11
-3.0770199797
 21
4.7873383336
 31
0.0
 11
-3.072302081
 21
4.9103558382
 31
0.0
 11
-3.0559422549
 21
5.0273535354
 31
0.0
 11
-3.0279347023
 21
5.1361501157
 31
0.0
 11
-2.9886392856
 21
5.2347675569
 31
0.0
 11
-2.9387324163
 21
5.3215878651
 31
0.0
 11
-2.8789012818
 21
5.3956363823
 31
0.0
 11
-2.8097714421
 21
5.4562055788
 31
0.0
 11
-2.7321527509
 21
5.5025353561
 31
0.0
 11
-2.7302867328
 21
5.5034224662
 31
0.0
  0
SPLINE
  5
286
100
AcDbEntity
  8
RACCORDO
100
AcDbSpline
 62
253
  6
CONTINUOUS
 70
0
 71
3
 72
15
 73
11
 74
9
 42
0.0000001
 43
0.0000001
 44
0.0000000001
 12
-0.0021357325
 22
0.2936488918
 32
0.0
 13
-0.260755194
 23
0.1350591048
 33
0.0
 40
0.0
 40
0.0
 40
0.0
 40
0.0
 40
0.1197683134
 40
0.2470068581
 40
0.378956534
 40
0.5124548357
 40
0.6442133866
 40
0.7710854443
 40
0.89034471
 40
1.0
 40
1.0
 40
1.0
 40
1.0
 10
13.8600191549
 20
0.1804490359
 30
0.0
 10
13.8599338905
 20
0.1921723134
 30
0.0
 10
13.8577972863
 20
0.2163589109
 30
0.0
 10
13.8495818464
 20
0.2526269825
 30
0.0
 10
13.8365505062
 20
0.2888875272
 30
0.0
 10
13.8191910607
 20
0.3237752295
 30
0.0
 10
13.7981539617
 20
0.3559883915
 30
0.0
 10
13.7742171556
 20
0.3843262954
 30
0.0
 10
13.7482765399
 20
0.4077283314
 30
0.0
 10
13.7293844245
 20
0.4200277939
 30
0.0
 10
13.7198533623
 20
0.4249644423
 30
0.0
 11
13.8600191549
 21
0.1804490359
 31
0.0
 11
13.857105262
 21
0.2154988829
 31
0.0
 11
13.8489652822
 21
0.2519658891
 31
0.0
 11
13.8359119746
 21
0.2884489124
 31
0.0
 11
13.8184468798
 21
0.3235461974
 31
0.0
 11
13.7972410479
 21
0.3559092351
 31
0.0
 11
13.7731092552
 21
0.3842945756
 31
0.0
 11
13.746978697
 21
0.4076116037
 31
0.0
 11
13.7198533623
 21
0.4249644423
 31
0.0
  0
SPLINE
  5
287
100
AcDbEntity
  8
RACCORDO
100
AcDbSpline
 62
253
  6
CONTINUOUS
 70
0
 71
3
 72
15
 73
11
 74
9
 42
0.0000001
 43
0.0000001
 44
0.0000000001
 12
-0.0001666693
 22
0.2930800153
 32
0.0
 13
0.2610133734
 23
0.1332964443
 33
0.0
 40
0.0
 40
0.0
 40
0.0
 40
0.0
 40
0.1196245243
 40
0.2464902617
 40
0.3779799486
 40
0.5110733545
 40
0.6426177128
 40
0.7695882173
 40
0.8893581041
 40
1.0
 40
1.0
 40
1.0
 40
1.0
 10
13.159137843
 20
0.1811595773
 30
0.0
 10
13.1591311971
 20
0.1928460964
 30
0.0
 10
13.1610958743
 20
0.2169519555
 30
0.0
 10
13.1691239195
 20
0.2530933287
 30
0.0
 10
13.1820332045
 20
0.2891927152
 30
0.0
 10
13.1993449302
 20
0.3239047058
 30
0.0
 10
13.2204170139
 20
0.3559476134
 30
0.0
 10
13.2444783006
 20
0.3841384531
 30
0.0
 10
13.2706373591
 20
0.407431234
 30
0.0
 10
13.2896987092
 20
0.4196562092
 30
0.0
 10
13.2993250473
 20
0.4245722663
 30
0.0
 11
13.159137843
 21
0.1811595773
 31
0.0
 11
13.1618084757
 21
0.2161172758
 31
0.0
 11
13.1697570134
 21
0.2524395604
 31
0.0
 11
13.1826811037
 21
0.2887447762
 31
0.0
 11
13.20008913
 21
0.3236519176
 31
0.0
 11
13.2213189126
 21
0.35583316
 31
0.0
 11
13.2455628966
 21
0.3840643685
 31
0.0
 11
13.2718988709
 21
0.4072716629
 31
0.0
 11
13.2993250473
 21
0.4245722663
 31
0.0
  0
SPLINE
  5
288
100
AcDbEntity
  8
RACCORDO
100
AcDbSpline
 62
253
  6
CONTINUOUS
 70
0
 71
3
 72
15
 73
11
 74
9
 42
0.0000001
 43
0.0000001
 44
0.0000000001
 12
-0.0001666709
 22
0.2930800157
 32
0.0
 13
0.2610133746
 23
0.1332964427
 33
0.0
 40
0.0
 40
0.0
 40
0.0
 40
0.0
 40
0.1196246505
 40
0.246490508
 40
0.3779802849
 40
0.5110737329
 40
0.6426180747
 40
0.7695885032
 40
0.8893582639
 40
1.0
 40
1.0
 40
1.0
 40
1.0
 10
-17.612960786
 20
15.5672088918
 30
0.0
 10
-17.612967432
 20
15.5788954233
 30
0.0
 10
-17.6110027508
 20
15.6030013065
 30
0.0
 10
-17.6029746916
 20
15.6391427105
 30
0.0
 10
-17.5900653886
 20
15.675242117
 30
0.0
 10
-17.5727536467
 20
15.7099541123
 30
0.0
 10
-17.5516815548
 20
15.7419970087
 30
0.0
 10
-17.5276202725
 20
15.770187824
 30
0.0
 10
-17.5014612339
 20
15.7934805738
 30
0.0
 10
-17.4823999059
 20
15.8057055309
 30
0.0
 10
-17.4727735816
 20
15.8106215808
 30
0.0
 11
-17.612960786
 21
15.5672088918
 31
0.0
 11
-17.6102901481
 21
15.602166627
 31
0.0
 11
-17.602341596
 21
15.6384889446
 31
0.0
 11
-17.589417487
 21
15.6747941818
 31
0.0
 11
-17.572009444
 21
15.7097013287
 31
0.0
 11
-17.5507796529
 21
15.7418825597
 31
0.0
 11
-17.5265356737
 21
15.7701137432
 31
0.0
 11
-17.5001997207
 21
15.7933210059
 31
0.0
 11
-17.4727735816
 21
15.8106215808
 31
0.0
  0
SPLINE
  5
289
100
AcDbEntity
  8
RACCORDO
100
AcDbSpline
 62
253
  6
CONTINUOUS
 70
0
 71
3
 72
15
 73
11
 74
9
 42
0.0000001
 43
0.0000001
 44
0.0000000001
 12
0.0310030236
 22
-0.8966590918
 32
0.0
 13
0.8026012519
 23
-0.403328152
 33
0.0
 40
0.0
 40
0.0
 40
0.0
 40
0.0
 40
0.1467283743
 40
0.2864554442
 40
0.4191430606
 40
0.5450788269
 40
0.6649335652
 40
0.7797721103
 40
0.8910363149
 40
1.0
 40
1.0
 40
1.0
 40
1.0
 10
13.4633678037
 20
-17.1780464462
 30
0.0
 10
13.4648841448
 20
-17.2219015565
 30
0.0
 10
13.4716084482
 20
-17.3074544162
 30
0.0
 10
13.4937364761
 20
-17.431056575
 30
0.0
 10
13.5274640974
 20
-17.5455913228
 30
0.0
 10
13.5724782001
 20
-17.6497808491
 30
0.0
 10
13.6283555622
 20
-17.7424496235
 30
0.0
 10
13.6945518024
 20
-17.8225014586
 30
0.0
 10
13.770264962
 20
-17.8888372163
 30
0.0
 10
13.8266496816
 20
-17.9234891521
 30
0.0
 10
13.8558011449
 20
-17.9381385261
 30
0.0
 11
13.4633678037
 21
-17.1780464462
 31
0.0
 11
13.4739763593
 21
-17.3092622549
 31
0.0
 11
13.4963925385
 21
-17.4326042607
 31
0.0
 11
13.53036847
 21
-17.5466995808
 31
0.0
 11
13.5755249945
 21
-17.6502726776
 31
0.0
 11
13.6313606471
 21
-17.7421733808
 31
0.0
 11
13.6972551501
 21
-17.8213795839
 31
0.0
 11
13.7724748125
 21
-17.8870086055
 31
0.0
 11
13.8558011449
 21
-17.9381385261
 31
0.0
  0
LINE
  5
28A
100
AcDbEntity
  8
RACCORDO
100
AcDbLine
 62
253
  6
CONTINUOUS
 10
13.8558011449
 20
-17.9381385261
 11
13.8567044015
 21
-17.9385914367
  0
SPLINE
  5
28B
100
AcDbEntity
  8
RACCORDO
100
AcDbSpline
 62
253
  6
CONTINUOUS
 70
0
 71
3
 72
13
 73
9
 74
7
 42
0.0000001
 43
0.0000001
 44
0.0000000001
 12
-0.0143798377
 22
-0.3373286778
 32
0.0
 13
-0.3120404767
 23
-0.1310932904
 33
0.0
 40
0.0
 40
0.0
 40
0.0
 40
0.0
 40
0.1990429368
 40
0.3847908933
 40
0.557088006
 40
0.7172159128
 40
0.8680860164
 40
1.0
 40
1.0
 40
1.0
 40
1.0
 10
14.8451393459
 20
-17.6637739615
 30
0.0
 10
14.8441852775
 20
-17.686154925
 30
0.0
 10
14.8397082189
 20
-17.7293792493
 30
0.0
 10
14.8244181062
 20
-17.7904259497
 30
0.0
 10
14.8010430442
 20
-17.8441910378
 30
0.0
 10
14.769997642
 20
-17.889325594
 30
0.0
 10
14.7330582842
 20
-17.9234781546
 30
0.0
 10
14.7050526004
 20
-17.9392045185
 30
0.0
 10
14.6913317663
 20
-17.9449688646
 30
0.0
 11
14.8451393459
 21
-17.6637739615
 31
0.0
 11
14.8379255834
 21
-17.7305895406
 31
0.0
 11
14.8223467671
 21
-17.7913388117
 31
0.0
 11
14.7987860541
 21
-17.8445276615
 31
0.0
 11
14.7678229143
 21
-17.8888479237
 31
0.0
 11
14.7302188783
 21
-17.9232095524
 31
0.0
 11
14.6913317663
 21
-17.9449688646
 31
0.0
  0
SPLINE
  5
28C
100
AcDbEntity
  8
RACCORDO
100
AcDbSpline
 62
253
  6
CONTINUOUS
 70
0
 71
3
 72
17
 73
13
 74
11
 42
0.0000001
 43
0.0000001
 44
0.0000000001
 12
-0.6380553888
 22
-0.3397035049
 32
0.0
 13
-0.6467567984
 23
0.3228293576
 33
0.0
 40
0.0
 40
0.0
 40
0.0
 40
0.0
 40
0.0909939725
 40
0.188357308
 40
0.2907043301
 40
0.3963948789
 40
0.5036318121
 40
0.6105485603
 40
0.7152927759
 40
0.8161107568
 40
0.9114376027
 40
1.0
 40
1.0
 40
1.0
 40
1.0
 10
14.1639516866
 20
-17.1634582933
 30
0.0
 10
14.1445986217
 20
-17.1737619505
 30
0.0
 10
14.1031637233
 20
-17.1925639308
 30
0.0
 10
14.036613915
 20
-17.214741345
 30
0.0
 10
13.9648489251
 20
-17.2314562145
 30
0.0
 10
13.889574101
 20
-17.2423068218
 30
0.0
 10
13.8125681016
 20
-17.2470368475
 30
0.0
 10
13.735658921
 20
-17.2455329507
 30
0.0
 10
13.6606717871
 20
-17.2378323284
 30
0.0
 10
13.5893757927
 20
-17.2241164304
 30
0.0
 10
13.5234629313
 20
-17.2047151519
 30
0.0
 10
13.4824611846
 20
-17.1875881811
 30
0.0
 10
13.4633684071
 20
-17.1780580005
 30
0.0
 11
14.1639516866
 21
-17.1634582933
 31
0.0
 11
14.1041716142
 21
-17.1908936932
 31
0.0
 11
14.0374671584
 21
-17.2133378734
 31
0.0
 11
13.96544461
 21
-17.2302503621
 31
0.0
 11
13.8898383232
 21
-17.2412238946
 31
0.0
 11
13.8124689511
 21
-17.2459942203
 31
0.0
 11
13.7351996033
 21
-17.2444464665
 31
0.0
 11
13.6598909808
 21
-17.2366179042
 31
0.0
 11
13.5883565687
 21
-17.2226970506
 31
0.0
 11
13.5223189667
 21
-17.20301913
 31
0.0
 11
13.4633684071
 21
-17.1780580005
 31
0.0
  0
SPLINE
  5
28D
100
AcDbEntity
  8
RACCORDO
100
AcDbSpline
 62
253
  6
CONTINUOUS
 70
0
 71
3
 72
18
 73
14
 74
12
 42
0.0000001
 43
0.0000001
 44
0.0000000001
 12
-0.6479053051
 22
-0.3171213201
 32
0.0
 13
-0.6452008356
 23
0.3225881239
 33
0.0
 40
0.0
 40
0.0
 40
0.0
 40
0.0
 40
0.0814478825
 40
0.1685621118
 40
0.2603098872
 40
0.3554511858
 40
0.4526394032
 40
0.5504419653
 40
0.6474040962
 40
0.7421014841
 40
0.833203999
 40
0.9194977651
 40
1.0
 40
1.0
 40
1.0
 40
1.0
 10
13.8600191549
 20
0.1804490359
 30
0.0
 10
13.8424289832
 20
0.1718394159
 30
0.0
 10
13.804990466
 20
0.1560913491
 30
0.0
 10
13.745190781
 20
0.1373528287
 30
0.0
 10
13.6808191399
 20
0.122980355
 30
0.0
 10
13.6131440835
 20
0.1132617005
 30
0.0
 10
13.5434922979
 20
0.1083879785
 30
0.0
 10
13.4732337352
 20
0.1084564191
 30
0.0
 10
13.4037526636
 20
0.1134655763
 30
0.0
 10
13.3364153241
 20
0.1233154001
 30
0.0
 10
13.2725407735
 20
0.1378123471
 30
0.0
 10
13.2133838266
 20
0.1566672043
 30
0.0
 10
13.1764423886
 20
0.1725076317
 30
0.0
 10
13.1591290188
 20
0.1811639867
 30
0.0
 11
13.8600191549
 21
0.1804490359
 31
0.0
 11
13.8059491135
 21
0.1574645215
 31
0.0
 11
13.7460343731
 21
0.1385150854
 31
0.0
 11
13.6814678606
 21
0.1239800096
 31
0.0
 11
13.6135450416
 21
0.1141512608
 31
0.0
 11
13.5436116345
 21
0.1092233801
 31
0.0
 11
13.4730616982
 21
0.109294994
 31
0.0
 11
13.4033019424
 21
0.1143646475
 31
0.0
 11
13.3357228205
 21
0.1243308659
 31
0.0
 11
13.2716632137
 21
0.138996337
 31
0.0
 11
13.2124082335
 21
0.1580665288
 31
0.0
 11
13.1591290188
 21
0.1811639867
 31
0.0
  0
SPLINE
  5
28E
100
AcDbEntity
  8
RACCORDO
100
AcDbSpline
 62
253
  6
CONTINUOUS
 70
0
 71
3
 72
13
 73
9
 74
7
 42
0.0000001
 43
0.0000001
 44
0.0000000001
 12
-0.2160313255
 22
0.1080197792
 32
0.0
 13
-0.0002362808
 23
0.2423598531
 33
0.0
 40
0.0
 40
0.0
 40
0.0
 40
0.0
 40
0.2210036605
 40
0.4216051887
 40
0.6024281035
 40
0.766098461
 40
0.9177523264
 40
1.0
 40
1.0
 40
1.0
 40
1.0
 10
-17.6129519581
 20
15.5672044752
 30
0.0
 10
-17.6288665293
 20
15.5751620641
 30
0.0
 10
-17.6584540772
 20
15.5919989639
 30
0.0
 10
-17.6971389462
 20
15.6215401736
 30
0.0
 10
-17.7273300926
 20
15.6537296756
 30
0.0
 10
-17.7483391608
 20
15.6881033945
 30
0.0
 10
-17.7579058504
 20
15.7190506758
 30
0.0
 10
-17.7593921634
 20
15.737947382
 30
0.0
 10
-17.7593986413
 20
15.7445918934
 30
0.0
 11
-17.6129519581
 21
15.5672044752
 31
0.0
 11
-17.6591950079
 21
15.5938681495
 31
0.0
 11
-17.6974776634
 21
15.6235667755
 31
0.0
 11
-17.7270422133
 21
15.6557133827
 31
0.0
 11
-17.7472948979
 21
15.6896630675
 31
0.0
 11
-17.7578347435
 21
15.7247432147
 31
0.0
 11
-17.7593986413
 21
15.7445918934
 31
0.0
  0
SPLINE
  5
28F
100
AcDbEntity
  8
RACCORDO
100
AcDbSpline
 62
253
  6
CONTINUOUS
 70
0
 71
3
 72
21
 73
17
 74
15
 42
0.0000001
 43
0.0000001
 44
0.0000000001
 12
0.0358352392
 22
-1.0301967715
 32
0.0
 13
0.950486531
 23
0.3989547676
 33
0.0
 40
0.0
 40
0.0
 40
0.0
 40
0.0
 40
0.0851410635
 40
0.1662748243
 40
0.2433648649
 40
0.3165846796
 40
0.3863284951
 40
0.4532160408
 40
0.5180814047
 40
0.5819322805
 40
0.645869652
 40
0.710985031
 40
0.7782641362
 40
0.8485122009
 40
0.9223099193
 40
1.0
 40
1.0
 40
1.0
 40
1.0
 10
14.1639516866
 20
-17.1634582933
 30
0.0
 10
14.1649687033
 20
-17.1926956429
 30
0.0
 10
14.1694783232
 20
-17.2497504728
 30
0.0
 10
14.1843162352
 20
-17.3321932249
 30
0.0
 10
14.2069338966
 20
-17.4086202741
 30
0.0
 10
14.2371206806
 20
-17.4781703433
 30
0.0
 10
14.2745914461
 20
-17.5400578194
 30
0.0
 10
14.3189795812
 20
-17.5935500225
 30
0.0
 10
14.3698173968
 20
-17.6379762383
 30
0.0
 10
14.4265183978
 20
-17.6727531953
 30
0.0
 10
14.4883797835
 20
-17.6974282629
 30
0.0
 10
14.554617442
 20
-17.7117145276
 30
0.0
 10
14.6244140897
 20
-17.7154940453
 30
0.0
 10
14.6969548796
 20
-17.7087897701
 30
0.0
 10
14.7714141579
 20
-17.6917471819
 30
0.0
 10
14.8205248875
 20
-17.6741055708
 30
0.0
 10
14.8451393459
 20
-17.6637739615
 30
0.0
 11
14.1639516866
 21
-17.1634582933
 31
0.0
 11
14.1710626763
 21
-17.25093484
 31
0.0
 11
14.1860918998
 21
-17.3332076608
 31
0.0
 11
14.2088720596
 21
-17.4093384727
 31
0.0
 11
14.2391492507
 21
-17.4784759039
 31
0.0
 11
14.2765872025
 21
-17.5398521832
 31
0.0
 11
14.3207700887
 21
-17.5927845784
 31
0.0
 11
14.3712059928
 21
-17.6366831151
 31
0.0
 11
14.4273342336
 21
-17.6710593921
 31
0.0
 11
14.4885307185
 21
-17.6955306612
 31
0.0
 11
14.5541134359
 21
-17.709824025
 31
0.0
 11
14.6233531178
 21
-17.7137806245
 31
0.0
 11
14.6954806631
 21
-17.7073561295
 31
0.0
 11
14.769689623
 21
-17.690622849
 31
0.0
 11
14.8451393459
 21
-17.6637739615
 31
0.0
  0
SPLINE
  5
290
100
AcDbEntity
  8
ASSI
100
AcDbSpline
 62
253
  6
CONTINUOUS
 70
0
 71
3
 72
14
 73
10
 74
8
 42
0.0000001
 43
0.0000001
 44
0.0000000001
 12
-0.0160711753
 22
-0.692316429
 32
0.0
 13
-0.5073836335
 23
-0.472321731
 33
0.0
 40
0.0
 40
0.0
 40
0.0
 40
0.0
 40
0.1265342882
 40
0.3100573141
 40
0.4845043291
 40
0.6492527438
 40
0.8045650992
 40
0.9521175757
 40
1.0
 40
1.0
 40
1.0
 40
1.0
 10
-1.2085031724
 20
3.7378247454
 30
0.0
 10
-1.209181024
 20
3.7086241566
 30
0.0
 10
-1.213025613
 20
3.6371074152
 30
0.0
 10
-1.2282147439
 20
3.5261415688
 30
0.0
 10
-1.2578884902
 20
3.408934582
 30
0.0
 10
-1.2997405933
 20
3.3024104176
 30
0.0
 10
-1.3532340656
 20
3.2082336238
 30
0.0
 10
-1.4040389677
 20
3.1447532598
 30
0.0
 10
-1.4361873306
 20
3.1130113701
 30
0.0
 10
-1.4442855835
 20
3.1054727336
 30
0.0
 11
-1.2085031724
 21
3.7378247454
 31
0.0
 11
-1.2132975383
 21
3.6503362496
 31
0.0
 11
-1.2308908324
 21
3.524514872
 31
0.0
 11
-1.2609391054
 21
3.4075504337
 31
0.0
 11
-1.3030631855
 21
3.3015663179
 31
0.0
 11
-1.3565470497
 21
3.2082965908
 31
0.0
 11
-1.4206648549
 21
3.1287830247
 31
0.0
 11
-1.4442855835
 21
3.1054727336
 31
0.0
  0
SPLINE
  5
291
100
AcDbEntity
  8
ASSI
100
AcDbSpline
 62
253
  6
CONTINUOUS
 70
0
 71
3
 72
29
 73
25
 74
23
 42
0.0000001
 43
0.0000001
 44
0.0000000001
 12
-2.1264137713
 22
-1.9794714824
 32
0.0
 13
-0.0218327787
 23
2.9011322997
 33
0.0
 40
0.0
 40
0.0
 40
0.0
 40
0.0
 40
0.0225488522
 40
0.0559546177
 40
0.0894655846
 40
0.1237668931
 40
0.1594834797
 40
0.1971030967
 40
0.2369436647
 40
0.2791705449
 40
0.3238170532
 40
0.370799868
 40
0.4199323396
 40
0.4709462981
 40
0.5235314076
 40
0.5773364242
 40
0.6319343992
 40
0.6868352244
 40
0.7416348372
 40
0.7960439291
 40
0.8496690645
 40
0.9019083315
 40
0.9521821663
 40
1.0
 40
1.0
 40
1.0
 40
1.0
 10
-1.4442855835
 20
3.1054727336
 30
0.0
 10
-1.4602683134
 20
3.0905944636
 30
0.0
 10
-1.5020726581
 20
3.0559772906
 30
0.0
 10
-1.576755671
 20
3.011311374
 30
0.0
 10
-1.6691561175
 20
2.9773490703
 30
0.0
 10
-1.7683270734
 20
2.9602378054
 30
0.0
 10
-1.8728729265
 20
2.9600695503
 30
0.0
 10
-1.9814418186
 20
2.9766943986
 30
0.0
 10
-2.0926936381
 20
3.0097804775
 30
0.0
 10
-2.205282807
 20
3.0588321622
 30
0.0
 10
-2.3178577231
 20
3.1231957469
 30
0.0
 10
-2.4290563216
 20
3.202053068
 30
0.0
 10
-2.5375138245
 20
3.2944133939
 30
0.0
 10
-2.6418967698
 20
3.3991285111
 30
0.0
 10
-2.7409267866
 20
3.5149162878
 30
0.0
 10
-2.8333699339
 20
3.6403494603
 30
0.0
 10
-2.9180286549
 20
3.7738160178
 30
0.0
 10
-2.9938237638
 20
3.9136003215
 30
0.0
 10
-3.0598655668
 20
4.0580479
 30
0.0
 10
-3.1153823249
 20
4.2055455904
 30
0.0
 10
-3.1596121951
 20
4.3542372011
 30
0.0
 10
-3.1918760195
 20
4.5018984538
 30
0.0
 10
-3.2117519831
 20
4.6460633059
 30
0.0
 10
-3.2168456311
 20
4.7409298844
 30
0.0
 10
-3.2171936298
 20
4.7871718383
 30
0.0
 11
-1.4442855835
 21
3.1054727336
 31
0.0
 11
-1.4947578523
 21
3.0637791687
 31
0.0
 11
-1.5779705815
 21
3.0140941333
 31
0.0
 11
-1.6691801867
 21
2.9804337308
 31
0.0
 11
-1.7671960516
 21
2.9632228206
 31
0.0
 11
-1.8708159724
 21
2.9626548982
 31
0.0
 11
-1.9787674975
 21
2.978735016
 31
0.0
 11
-2.089682672
 21
3.0112612337
 31
0.0
 11
-2.2021576039
 21
3.0598194701
 31
0.0
 11
-2.3147826015
 21
3.1237991263
 31
0.0
 11
-2.4261450975
 21
3.2023997179
 31
0.0
 11
-2.5348320306
 21
3.2946271323
 31
0.0
 11
-2.6394590698
 21
3.3993071351
 31
0.0
 11
-2.7387318146
 21
3.5151504911
 31
0.0
 11
-2.8314241232
 21
3.6407503005
 31
0.0
 11
-2.9163175599
 21
3.7744806332
 31
0.0
 11
-2.9922521149
 21
3.9144940778
 31
0.0
 11
-3.0583320485
 21
4.0590963215
 31
0.0
 11
-3.1138691332
 21
4.2068563507
 31
0.0
 11
-3.1581114314
 21
4.3560110982
 31
0.0
 11
-3.1903010167
 21
4.5041105603
 31
0.0
 11
-3.2100079967
 21
4.6486282664
 31
0.0
 11
-3.2171936298
 21
4.7871718383
 31
0.0
  0
SPLINE
  5
292
100
AcDbEntity
  8
ASSI
100
AcDbSpline
 62
253
  6
CONTINUOUS
 70
0
 71
3
 72
11
 73
7
 74
5
 42
0.0000001
 43
0.0000001
 44
0.0000000001
 12
0.0863010479
 22
-14.5967938161
 32
0.0
 13
0.5071845942
 23
-14.5881783618
 33
0.0
 40
0.0
 40
0.0
 40
0.0
 40
0.0
 40
0.1097567126
 40
0.4077354704
 40
0.7044796212
 40
1.0
 40
1.0
 40
1.0
 40
1.0
 10
13.1680966214
 20
-2.5845005963
 30
0.0
 10
13.1712539945
 20
-3.1185326307
 30
0.0
 10
13.1860583731
 20
-5.1023920763
 30
0.0
 10
13.2314503845
 20
-8.529892624
 30
0.0
 10
13.3258138696
 20
-12.8605406153
 30
0.0
 10
13.4134066804
 20
-15.7410117833
 30
0.0
 10
13.4633678082
 20
-17.1780464485
 30
0.0
 11
13.1680966214
 21
-2.5845005963
 31
0.0
 11
13.1800552007
 21
-4.186579607
 31
0.0
 11
13.2377353875
 21
-8.5357907739
 31
0.0
 11
13.3321728249
 21
-12.8663332663
 31
0.0
 11
13.4633678082
 21
-17.1780464485
 31
0.0
  0
SPLINE
  5
293
100
AcDbEntity
  8
ASSI
100
AcDbSpline
 62
253
  6
CONTINUOUS
 70
0
 71
3
 72
11
 73
7
 74
5
 42
0.0000001
 43
0.0000001
 44
0.0000000001
 12
0.0848594018
 22
0.0447659376
 32
0.0
 13
0.086027068
 23
-0.0415220245
 33
0.0
 40
0.0
 40
0.0
 40
0.0
 40
0.0
 40
0.1413236172
 40
0.4037591151
 40
0.6875249972
 40
1.0
 40
1.0
 40
1.0
 40
1.0
 10
-17.568638334
 20
16.027359547
 30
0.0
 10
-17.5646407881
 20
16.029468375
 30
0.0
 10
-17.5526920666
 20
16.0344971127
 30
0.0
 10
-17.530710274
 20
16.0377824783
 30
0.0
 10
-17.5033193586
 20
16.0341862961
 30
0.0
 10
-17.4854051135
 20
16.0274383271
 30
0.0
 10
-17.4764446774
 20
16.0231134622
 30
0.0
 11
-17.568638334
 21
16.027359547
 31
0.0
 11
-17.5561585507
 21
16.0326089748
 31
0.0
 11
-17.5314015064
 21
16.036549922
 31
0.0
 11
-17.5044854928
 21
16.0333436878
 31
0.0
 11
-17.4764446774
 21
16.0231134622
 31
0.0
  0
SPLINE
  5
294
100
AcDbEntity
  8
ASSI
100
AcDbSpline
 62
253
  6
CONTINUOUS
 70
0
 71
3
 72
18
 73
14
 74
12
 42
0.0000001
 43
0.0000001
 44
0.0000000001
 12
-0.3882309728
 22
-0.191513095
 32
0.0
 13
-0.3872041051
 23
0.1935808226
 33
0.0
 40
0.0
 40
0.0
 40
0.0
 40
0.0
 40
0.0815058463
 40
0.1686857655
 40
0.2604735908
 40
0.3556364595
 40
0.4528302513
 40
0.5506259444
 40
0.6475681924
 40
0.7422356527
 40
0.8333027824
 40
0.9195656467
 40
1.0
 40
1.0
 40
1.0
 40
1.0
 10
13.7198533623
 20
0.4249644423
 30
0.0
 10
13.7093056643
 20
0.4197612967
 30
0.0
 10
13.6868510804
 20
0.4102335148
 30
0.0
 10
13.6509742877
 20
0.3988760026
 30
0.0
 10
13.6123490554
 20
0.3901412438
 30
0.0
 10
13.5717405876
 20
0.3842065239
 30
0.0
 10
13.5299445346
 20
0.3811882479
 30
0.0
 10
13.4877836653
 20
0.3811469759
 30
0.0
 10
13.4460895585
 20
0.3840835006
 30
0.0
 10
13.4056829687
 20
0.3899388135
 30
0.0
 10
13.3673551711
 20
0.3985980895
 30
0.0
 10
13.3318649234
 20
0.4098856777
 30
0.0
 10
13.3097065513
 20
0.4193820836
 30
0.0
 10
13.2993250473
 20
0.4245722663
 30
0.0
 11
13.7198533623
 21
0.4249644423
 31
0.0
 11
13.6874243635
 21
0.411061207
 31
0.0
 11
13.6514745957
 21
0.3995754852
 31
0.0
 11
13.6127338393
 21
0.390743477
 31
0.0
 11
13.5719774589
 21
0.3847425142
 31
0.0
 11
13.5300132319
 21
0.381691623
 31
0.0
 11
13.4876777045
 21
0.3816521272
 31
0.0
 11
13.4458170346
 21
0.3846248601
 31
0.0
 11
13.4052662951
 21
0.3905500438
 31
0.0
 11
13.366829131
 21
0.3993101141
 31
0.0
 11
13.3312748648
 21
0.4107291541
 31
0.0
 11
13.2993250473
 21
0.4245722663
 31
0.0
  0
SPLINE
  5
295
100
AcDbEntity
  8
ASSI
100
AcDbSpline
 62
253
  6
CONTINUOUS
 70
0
 71
3
 72
14
 73
10
 74
8
 42
0.0000001
 43
0.0000001
 44
0.0000000001
 12
-0.1446689438
 22
0.0723424049
 32
0.0
 13
0.0343426862
 23
0.1585248054
 33
0.0
 40
0.0
 40
0.0
 40
0.0
 40
0.0
 40
0.1979293799
 40
0.3777694132
 40
0.539977279
 40
0.6869302295
 40
0.8232350386
 40
0.955509812
 40
1.0
 40
1.0
 40
1.0
 40
1.0
 10
-17.4727735816
 20
15.8106215808
 30
0.0
 10
-17.4823183264
 20
15.8153944766
 30
0.0
 10
-17.5000706277
 20
15.8255010358
 30
0.0
 10
-17.52328045
 20
15.843248631
 30
0.0
 10
-17.5413984999
 20
15.8626060279
 30
0.0
 10
-17.5540044137
 20
15.8832899722
 30
0.0
 10
-17.5606776562
 20
15.9049567547
 30
0.0
 10
-17.5609785468
 20
15.9220641401
 30
0.0
 10
-17.559370786
 20
15.9314928143
 30
0.0
 10
-17.5588614818
 20
15.9338437471
 30
0.0
 11
-17.4727735816
 21
15.8106215808
 31
0.0
 11
-17.5005048941
 21
15.8266190335
 31
0.0
 11
-17.5234774498
 21
15.8444634045
 31
0.0
 11
-17.5412187913
 21
15.8637925869
 31
0.0
 11
-17.5533726697
 21
15.8842197122
 31
0.0
 11
-17.5596979445
 21
15.9053399516
 31
0.0
 11
-17.5600674932
 21
15.9267319854
 31
0.0
 11
-17.5588614818
 21
15.9338437471
 31
0.0
  0
SPLINE
  5
296
100
AcDbEntity
  8
ASSI
100
AcDbSpline
 62
253
  6
CONTINUOUS
 70
0
 71
3
 72
12
 73
8
 74
6
 42
0.0000001
 43
0.0000001
 44
0.0000000001
 12
0.0265618288
 22
0.1226086022
 32
0.0
 13
0.1105960185
 23
0.0584720522
 33
0.0
 40
0.0
 40
0.0
 40
0.0
 40
0.0
 40
0.1180186148
 40
0.3067874025
 40
0.5149491827
 40
0.7457717957
 40
1.0
 40
1.0
 40
1.0
 40
1.0
 10
-17.5588614818
 20
15.9338437471
 30
0.0
 10
-17.5578165517
 20
15.9386671129
 30
0.0
 10
-17.5539552219
 20
15.9509626534
 30
0.0
 10
-17.5432580689
 20
15.9697992592
 30
0.0
 10
-17.5258058978
 20
15.9895143201
 30
0.0
 10
-17.5032092663
 20
16.0077132824
 30
0.0
 10
-17.4858168865
 20
16.0181583806
 30
0.0
 10
-17.4764446774
 20
16.0231134622
 30
0.0
 11
-17.5588614818
 21
15.9338437471
 31
0.0
 11
-17.5544740164
 21
15.9479682517
 31
0.0
 11
-17.5430300181
 21
15.9686254056
 31
0.0
 11
-17.5259624912
 21
15.9882940285
 31
0.0
 11
-17.5036141486
 21
16.0065804629
 31
0.0
 11
-17.4764446774
 21
16.0231134622
 31
0.0
  0
SPLINE
  5
297
100
AcDbEntity
  8
ASSI
100
AcDbSpline
 62
253
  6
CONTINUOUS
 70
0
 71
3
 72
12
 73
8
 74
6
 42
0.0000001
 43
0.0000001
 44
0.0000000001
 12
0.0082615124
 22
-0.2416585755
 32
0.0
 13
0.2155181779
 23
-0.1079420378
 33
0.0
 40
0.0
 40
0.0
 40
0.0
 40
0.0
 40
0.1607872481
 40
0.3405119448
 40
0.5377371495
 40
0.7570520285
 40
1.0
 40
1.0
 40
1.0
 40
1.0
 10
-17.4656210279
 20
-1.6091756121
 30
0.0
 10
-17.465178246
 20
-1.6221274846
 30
0.0
 10
-17.4603056818
 20
-1.6494319025
 30
0.0
 10
-17.4411164228
 20
-1.6887020565
 30
0.0
 10
-17.4101965743
 20
-1.7257816582
 30
0.0
 10
-17.368862394
 20
-1.7593434553
 30
0.0
 10
-17.3366119079
 20
-1.7780532314
 30
0.0
 10
-17.3191586732
 20
-1.7867946644
 30
0.0
 11
-17.4656210279
 21
-1.6091756121
 31
0.0
 11
-17.4589537715
 21
-1.6473699354
 31
0.0
 11
-17.4403552591
 21
-1.6864949601
 31
0.0
 11
-17.4103316255
 21
-1.7233531443
 31
0.0
 11
-17.3696058616
 21
-1.7570569162
 31
0.0
 11
-17.3191586732
 21
-1.7867946644
 31
0.0
  0
SPLINE
  5
298
100
AcDbEntity
  8
ASSI
100
AcDbSpline
 62
253
  6
CONTINUOUS
 70
0
 71
3
 72
15
 73
11
 74
9
 42
0.0000001
 43
0.0000001
 44
0.0000000001
 12
-0.7240343196
 22
0.4382071043
 32
0.0
 13
-0.0285476382
 23
0.8447625181
 33
0.0
 40
0.0
 40
0.0
 40
0.0
 40
0.0
 40
0.0620140845
 40
0.1779025344
 40
0.2979655363
 40
0.4237514951
 40
0.5563758972
 40
0.6965136799
 40
0.8444203826
 40
1.0
 40
1.0
 40
1.0
 40
1.0
 10
-16.973604773
 20
-2.5214313744
 30
0.0
 10
-16.9885715482
 20
-2.512373037
 30
0.0
 10
-17.0302814858
 20
-2.4843586261
 30
0.0
 10
-17.0934259316
 20
-2.4284412377
 30
0.0
 10
-17.158080916
 20
-2.3491237988
 30
0.0
 10
-17.2126431675
 20
-2.2570927634
 30
0.0
 10
-17.2565917416
 20
-2.1534334437
 30
0.0
 10
-17.2895189111
 20
-2.0393096479
 30
0.0
 10
-17.3111205453
 20
-1.9159890077
 30
0.0
 10
-17.3176785843
 20
-1.8305922904
 30
0.0
 10
-17.3191590612
 20
-1.7867830139
 30
0.0
 11
-16.973604773
 21
-2.5214313744
 31
0.0
 11
-17.0171632844
 21
-2.4921895571
 31
0.0
 11
-17.0906524622
 21
-2.4274257778
 31
0.0
 11
-17.1550310147
 21
-2.34897755
 31
0.0
 11
-17.2095821274
 21
-2.2577191168
 31
0.0
 11
-17.2536997979
 21
-2.154665447
 31
0.0
 11
-17.2868940883
 21
-2.0409609474
 31
0.0
 11
-17.3087945719
 21
-1.9178767895
 31
0.0
 11
-17.3191590612
 21
-1.7867830139
 31
0.0
  0
SPLINE
  5
299
100
AcDbEntity
  8
ASSI
100
AcDbSpline
 62
253
  6
CONTINUOUS
 70
0
 71
3
 72
28
 73
24
 74
22
 42
0.0000001
 43
0.0000001
 44
0.0000000001
 12
-2.2714361026
 22
-1.1995957034
 32
0.0
 13
-0.0207406171
 23
2.5650508936
 33
0.0
 40
0.0
 40
0.0
 40
0.0
 40
0.0
 40
0.0075937672
 40
0.0428023252
 40
0.0788470965
 40
0.1163852335
 40
0.1559291059
 40
0.1978122283
 40
0.2422075009
 40
0.2891489454
 40
0.3385479992
 40
0.3902075493
 40
0.4438448719
 40
0.4991330189
 40
0.5557021556
 40
0.6131029754
 40
0.6708198381
 40
0.7284276206
 40
0.7856220118
 40
0.8419894447
 40
0.8968972891
 40
0.9497363351
 40
1.0
 40
1.0
 40
1.0
 40
1.0
 10
-1.5351952012
 20
3.1482795713
 30
0.0
 10
-1.5409447869
 20
3.1452430878
 30
0.0
 10
-1.5736954416
 20
3.1287791816
 30
0.0
 10
-1.6373422654
 20
3.1054045517
 30
0.0
 10
-1.7294874333
 20
3.0895357507
 30
0.0
 10
-1.8266364029
 20
3.0894092293
 30
0.0
 10
-1.9275338401
 20
3.1048847051
 30
0.0
 10
-2.0309351547
 20
3.1356533275
 30
0.0
 10
-2.1355902763
 20
3.1812544127
 30
0.0
 10
-2.2402430897
 20
3.2410805128
 30
0.0
 10
-2.3436274151
 20
3.3143714199
 30
0.0
 10
-2.4444742741
 20
3.4002066186
 30
0.0
 10
-2.541543558
 20
3.4975193054
 30
0.0
 10
-2.6336461737
 20
3.6051182918
 30
0.0
 10
-2.7196341607
 20
3.7216775931
 30
0.0
 10
-2.7983931796
 20
3.8456995885
 30
0.0
 10
-2.8689187689
 20
3.9755903203
 30
0.0
 10
-2.9303825611
 20
4.1098126645
 30
0.0
 10
-2.9820660657
 20
4.2468679591
 30
0.0
 10
-3.0232594964
 20
4.3850319678
 30
0.0
 10
-3.0533306904
 20
4.5222381132
 30
0.0
 10
-3.0718851767
 20
4.656202757
 30
0.0
 10
-3.0766724798
 20
4.7443620474
 30
0.0
 10
-3.0770199797
 20
4.7873383336
 30
0.0
 11
-1.5351952012
 21
3.1482795713
 31
0.0
 11
-1.5526223527
 21
3.1395200255
 31
0.0
 11
-1.6373591744
 21
3.1082723816
 31
0.0
 11
-1.7284304399
 21
3.0923093047
 31
0.0
 11
-1.8247195247
 21
3.0918099444
 31
0.0
 11
-1.9250443838
 21
3.1067784145
 31
0.0
 11
-2.0281341898
 21
3.1370266258
 31
0.0
 11
-2.132684384
 21
3.1821694941
 31
0.0
 11
-2.2373847519
 21
3.2416394297
 31
0.0
 11
-2.3409221749
 21
3.3146925022
 31
0.0
 11
-2.4419828377
 21
3.4004049569
 31
0.0
 11
-2.5392793874
 21
3.4976857515
 31
0.0
 11
-2.6316078644
 21
3.6053370565
 31
0.0
 11
-2.7178276065
 21
3.7220517962
 31
0.0
 11
-2.796804919
 21
3.8463194439
 31
0.0
 11
-2.8674601579
 21
3.9764236047
 31
0.0
 11
-2.9289593112
 21
4.1107900319
 31
0.0
 11
-2.9806615265
 21
4.2480893121
 31
0.0
 11
-3.021866573
 21
4.3866837916
 31
0.0
 11
-3.0518683972
 21
4.524297351
 31
0.0
 11
-3.0702651343
 21
4.6585823262
 31
0.0
 11
-3.0770199797
 21
4.7873383336
 31
0.0
  0
SPLINE
  5
29A
100
AcDbEntity
  8
ASSI
100
AcDbSpline
 62
253
  6
CONTINUOUS
 70
0
 71
3
 72
11
 73
7
 74
5
 42
0.0000001
 43
0.0000001
 44
0.0000000001
 12
-0.5827888803
 22
17.3474269095
 32
0.0
 13
-0.0096986814
 23
17.3572108702
 33
0.0
 40
0.0
 40
0.0
 40
0.0
 40
0.0
 40
0.2483881815
 40
0.4978455333
 40
0.74837995
 40
1.0
 40
1.0
 40
1.0
 40
1.0
 10
-17.3191590657
 20
-1.7867830117
 30
0.0
 10
-17.3674116891
 20
-0.350484404
 30
0.0
 10
-17.4520074291
 20
2.5287164756
 30
0.0
 10
-17.5431305117
 20
6.857735453
 30
0.0
 10
-17.5987634752
 20
11.2060558811
 30
0.0
 10
-17.612138499
 20
14.1113970563
 30
0.0
 10
-17.6129519599
 20
15.5672044788
 30
0.0
 11
-17.3191590657
 21
-1.7867830117
 31
0.0
 11
-17.445857011
 21
2.5226816517
 31
0.0
 11
-17.5370573689
 21
6.8516056043
 31
0.0
 11
-17.5927604229
 21
11.1998282049
 31
0.0
 11
-17.6129519599
 21
15.5672044788
 31
0.0
  0
SPLINE
  5
29B
100
AcDbEntity
  8
ASSI
100
AcDbSpline
 62
253
  6
CONTINUOUS
 70
0
 71
3
 72
16
 73
12
 74
10
 42
0.0000001
 43
0.0000001
 44
0.0000000001
 12
-0.006768593
 22
0.8390251373
 32
0.0
 13
0.7592769153
 23
0.3597571046
 33
0.0
 40
0.0
 40
0.0
 40
0.0
 40
0.0
 40
0.1467225823
 40
0.2875194558
 40
0.4214130577
 40
0.5479343992
 40
0.6672859462
 40
0.7807466907
 40
0.8902876645
 40
0.9980213238
 40
1.0
 40
1.0
 40
1.0
 40
1.0
 10
-3.0770199797
 20
4.7873383336
 30
0.0
 10
-3.0773510148
 20
4.8283729785
 30
0.0
 10
-3.0744522069
 20
4.908875674
 30
0.0
 10
-3.0584380584
 20
5.0258599477
 30
0.0
 10
-3.0307747194
 20
5.134886043
 30
0.0
 10
-2.9917272023
 20
5.2340063115
 30
0.0
 10
-2.9418063517
 20
5.3216666409
 30
0.0
 10
-2.881624021
 20
5.3967029056
 30
0.0
 10
-2.8118325317
 20
5.4581602581
 30
0.0
 10
-2.7588972593
 20
5.489808392
 30
0.0
 10
-2.7311523952
 20
5.5030124875
 30
0.0
 10
-2.7306516074
 20
5.5032497685
 30
0.0
 11
-3.0770199797
 21
4.7873383336
 31
0.0
 11
-3.072302081
 21
4.9103558382
 31
0.0
 11
-3.0559422549
 21
5.0273535354
 31
0.0
 11
-3.0279347023
 21
5.1361501157
 31
0.0
 11
-2.9886392856
 21
5.2347675569
 31
0.0
 11
-2.9387324163
 21
5.3215878651
 31
0.0
 11
-2.8789012818
 21
5.3956363823
 31
0.0
 11
-2.8097714421
 21
5.4562055788
 31
0.0
 11
-2.7321527509
 21
5.5025353561
 31
0.0
 11
-2.7306516074
 21
5.5032497685
 31
0.0
  0
SPLINE
  5
29C
100
AcDbEntity
  8
ASSI
100
AcDbSpline
 62
253
  6
CONTINUOUS
 70
0
 71
3
 72
15
 73
11
 74
9
 42
0.0000001
 43
0.0000001
 44
0.0000000001
 12
-0.0021357325
 22
0.2936488918
 32
0.0
 13
-0.260755194
 23
0.1350591048
 33
0.0
 40
0.0
 40
0.0
 40
0.0
 40
0.0
 40
0.1197683134
 40
0.2470068581
 40
0.378956534
 40
0.5124548357
 40
0.6442133866
 40
0.7710854443
 40
0.89034471
 40
1.0
 40
1.0
 40
1.0
 40
1.0
 10
13.8600191549
 20
0.1804490359
 30
0.0
 10
13.8599338905
 20
0.1921723134
 30
0.0
 10
13.8577972863
 20
0.2163589109
 30
0.0
 10
13.8495818464
 20
0.2526269825
 30
0.0
 10
13.8365505062
 20
0.2888875272
 30
0.0
 10
13.8191910607
 20
0.3237752295
 30
0.0
 10
13.7981539617
 20
0.3559883915
 30
0.0
 10
13.7742171556
 20
0.3843262954
 30
0.0
 10
13.7482765399
 20
0.4077283314
 30
0.0
 10
13.7293844245
 20
0.4200277939
 30
0.0
 10
13.7198533623
 20
0.4249644423
 30
0.0
 11
13.8600191549
 21
0.1804490359
 31
0.0
 11
13.857105262
 21
0.2154988829
 31
0.0
 11
13.8489652822
 21
0.2519658891
 31
0.0
 11
13.8359119746
 21
0.2884489124
 31
0.0
 11
13.8184468798
 21
0.3235461974
 31
0.0
 11
13.7972410479
 21
0.3559092351
 31
0.0
 11
13.7731092552
 21
0.3842945756
 31
0.0
 11
13.746978697
 21
0.4076116037
 31
0.0
 11
13.7198533623
 21
0.4249644423
 31
0.0
  0
SPLINE
  5
29D
100
AcDbEntity
  8
ASSI
100
AcDbSpline
 62
253
  6
CONTINUOUS
 70
0
 71
3
 72
15
 73
11
 74
9
 42
0.0000001
 43
0.0000001
 44
0.0000000001
 12
-0.0001666693
 22
0.2930800153
 32
0.0
 13
0.2610133734
 23
0.1332964443
 33
0.0
 40
0.0
 40
0.0
 40
0.0
 40
0.0
 40
0.1196245243
 40
0.2464902617
 40
0.3779799486
 40
0.5110733545
 40
0.6426177128
 40
0.7695882173
 40
0.8893581041
 40
1.0
 40
1.0
 40
1.0
 40
1.0
 10
13.159137843
 20
0.1811595773
 30
0.0
 10
13.1591311971
 20
0.1928460964
 30
0.0
 10
13.1610958743
 20
0.2169519555
 30
0.0
 10
13.1691239195
 20
0.2530933287
 30
0.0
 10
13.1820332045
 20
0.2891927152
 30
0.0
 10
13.1993449302
 20
0.3239047058
 30
0.0
 10
13.2204170139
 20
0.3559476134
 30
0.0
 10
13.2444783006
 20
0.3841384531
 30
0.0
 10
13.2706373591
 20
0.407431234
 30
0.0
 10
13.2896987092
 20
0.4196562092
 30
0.0
 10
13.2993250473
 20
0.4245722663
 30
0.0
 11
13.159137843
 21
0.1811595773
 31
0.0
 11
13.1618084757
 21
0.2161172758
 31
0.0
 11
13.1697570134
 21
0.2524395604
 31
0.0
 11
13.1826811037
 21
0.2887447762
 31
0.0
 11
13.20008913
 21
0.3236519176
 31
0.0
 11
13.2213189126
 21
0.35583316
 31
0.0
 11
13.2455628966
 21
0.3840643685
 31
0.0
 11
13.2718988709
 21
0.4072716629
 31
0.0
 11
13.2993250473
 21
0.4245722663
 31
0.0
  0
SPLINE
  5
29E
100
AcDbEntity
  8
ASSI
100
AcDbSpline
 62
253
  6
CONTINUOUS
 70
0
 71
3
 72
15
 73
11
 74
9
 42
0.0000001
 43
0.0000001
 44
0.0000000001
 12
0.0310029971
 22
-0.8966583246
 32
0.0
 13
0.8026000231
 23
-0.403328886
 33
0.0
 40
0.0
 40
0.0
 40
0.0
 40
0.0
 40
0.1467284999
 40
0.2864556893
 40
0.4191434193
 40
0.5450792933
 40
0.6649341342
 40
0.7797727775
 40
0.8910370773
 40
1.0
 40
1.0
 40
1.0
 40
1.0
 10
13.4633678037
 20
-17.1780464462
 30
0.0
 10
13.4648841448
 20
-17.2219015565
 30
0.0
 10
13.4716084482
 20
-17.3074544162
 30
0.0
 10
13.4937364761
 20
-17.431056575
 30
0.0
 10
13.5274640974
 20
-17.5455913228
 30
0.0
 10
13.5724782001
 20
-17.6497808491
 30
0.0
 10
13.6283555622
 20
-17.7424496235
 30
0.0
 10
13.6945518024
 20
-17.8225014586
 30
0.0
 10
13.7702647687
 20
-17.8888370469
 30
0.0
 10
13.8266492434
 20
-17.9234888829
 30
0.0
 10
13.8558004582
 20
-17.938138181
 30
0.0
 11
13.4633678037
 21
-17.1780464462
 31
0.0
 11
13.4739763593
 21
-17.3092622549
 31
0.0
 11
13.4963925385
 21
-17.4326042607
 31
0.0
 11
13.53036847
 21
-17.5466995808
 31
0.0
 11
13.5755249945
 21
-17.6502726776
 31
0.0
 11
13.6313606471
 21
-17.7421733808
 31
0.0
 11
13.6972551501
 21
-17.8213795839
 31
0.0
 11
13.7724748125
 21
-17.8870086055
 31
0.0
 11
13.8558004582
 21
-17.938138181
 31
0.0
  0
SPLINE
  5
29F
100
AcDbEntity
  8
ASSI
100
AcDbSpline
 62
253
  6
CONTINUOUS
 70
0
 71
3
 72
15
 73
11
 74
9
 42
0.0000001
 43
0.0000001
 44
0.0000000001
 12
-0.0001666709
 22
0.2930800157
 32
0.0
 13
0.2610133746
 23
0.1332964427
 33
0.0
 40
0.0
 40
0.0
 40
0.0
 40
0.0
 40
0.1196246505
 40
0.246490508
 40
0.3779802849
 40
0.5110737329
 40
0.6426180747
 40
0.7695885032
 40
0.8893582639
 40
1.0
 40
1.0
 40
1.0
 40
1.0
 10
-17.612960786
 20
15.5672088918
 30
0.0
 10
-17.612967432
 20
15.5788954233
 30
0.0
 10
-17.6110027508
 20
15.6030013065
 30
0.0
 10
-17.6029746916
 20
15.6391427105
 30
0.0
 10
-17.5900653886
 20
15.675242117
 30
0.0
 10
-17.5727536467
 20
15.7099541123
 30
0.0
 10
-17.5516815548
 20
15.7419970087
 30
0.0
 10
-17.5276202725
 20
15.770187824
 30
0.0
 10
-17.5014612339
 20
15.7934805738
 30
0.0
 10
-17.4823999059
 20
15.8057055309
 30
0.0
 10
-17.4727735816
 20
15.8106215808
 30
0.0
 11
-17.612960786
 21
15.5672088918
 31
0.0
 11
-17.6102901481
 21
15.602166627
 31
0.0
 11
-17.602341596
 21
15.6384889446
 31
0.0
 11
-17.589417487
 21
15.6747941818
 31
0.0
 11
-17.572009444
 21
15.7097013287
 31
0.0
 11
-17.5507796529
 21
15.7418825597
 31
0.0
 11
-17.5265356737
 21
15.7701137432
 31
0.0
 11
-17.5001997207
 21
15.7933210059
 31
0.0
 11
-17.4727735816
 21
15.8106215808
 31
0.0
  0
SPLINE
  5
2A0
100
AcDbEntity
  8
ASSI
100
AcDbSpline
 62
253
  6
CONTINUOUS
 70
0
 71
3
 72
13
 73
9
 74
7
 42
0.0000001
 43
0.0000001
 44
0.0000000001
 12
-0.0143798377
 22
-0.3373286778
 32
0.0
 13
-0.3120404767
 23
-0.1310932904
 33
0.0
 40
0.0
 40
0.0
 40
0.0
 40
0.0
 40
0.1990429368
 40
0.3847908933
 40
0.557088006
 40
0.7172159128
 40
0.8680860164
 40
1.0
 40
1.0
 40
1.0
 40
1.0
 10
14.8451393459
 20
-17.6637739615
 30
0.0
 10
14.8441852775
 20
-17.686154925
 30
0.0
 10
14.8397082189
 20
-17.7293792493
 30
0.0
 10
14.8244181062
 20
-17.7904259497
 30
0.0
 10
14.8010430442
 20
-17.8441910378
 30
0.0
 10
14.769997642
 20
-17.889325594
 30
0.0
 10
14.7330582842
 20
-17.9234781546
 30
0.0
 10
14.7050526004
 20
-17.9392045185
 30
0.0
 10
14.6913317663
 20
-17.9449688646
 30
0.0
 11
14.8451393459
 21
-17.6637739615
 31
0.0
 11
14.8379255834
 21
-17.7305895406
 31
0.0
 11
14.8223467671
 21
-17.7913388117
 31
0.0
 11
14.7987860541
 21
-17.8445276615
 31
0.0
 11
14.7678229143
 21
-17.8888479237
 31
0.0
 11
14.7302188783
 21
-17.9232095524
 31
0.0
 11
14.6913317663
 21
-17.9449688646
 31
0.0
  0
SPLINE
  5
2A1
100
AcDbEntity
  8
ASSI
100
AcDbSpline
 62
253
  6
CONTINUOUS
 70
0
 71
3
 72
17
 73
13
 74
11
 42
0.0000001
 43
0.0000001
 44
0.0000000001
 12
-0.6380553888
 22
-0.3397035049
 32
0.0
 13
-0.6467567984
 23
0.3228293576
 33
0.0
 40
0.0
 40
0.0
 40
0.0
 40
0.0
 40
0.0909939725
 40
0.188357308
 40
0.2907043301
 40
0.3963948789
 40
0.5036318121
 40
0.6105485603
 40
0.7152927759
 40
0.8161107568
 40
0.9114376027
 40
1.0
 40
1.0
 40
1.0
 40
1.0
 10
14.1639516866
 20
-17.1634582933
 30
0.0
 10
14.1445986217
 20
-17.1737619505
 30
0.0
 10
14.1031637233
 20
-17.1925639308
 30
0.0
 10
14.036613915
 20
-17.214741345
 30
0.0
 10
13.9648489251
 20
-17.2314562145
 30
0.0
 10
13.889574101
 20
-17.2423068218
 30
0.0
 10
13.8125681016
 20
-17.2470368475
 30
0.0
 10
13.735658921
 20
-17.2455329507
 30
0.0
 10
13.6606717871
 20
-17.2378323284
 30
0.0
 10
13.5893757927
 20
-17.2241164304
 30
0.0
 10
13.5234629313
 20
-17.2047151519
 30
0.0
 10
13.4824611846
 20
-17.1875881811
 30
0.0
 10
13.4633684071
 20
-17.1780580005
 30
0.0
 11
14.1639516866
 21
-17.1634582933
 31
0.0
 11
14.1041716142
 21
-17.1908936932
 31
0.0
 11
14.0374671584
 21
-17.2133378734
 31
0.0
 11
13.96544461
 21
-17.2302503621
 31
0.0
 11
13.8898383232
 21
-17.2412238946
 31
0.0
 11
13.8124689511
 21
-17.2459942203
 31
0.0
 11
13.7351996033
 21
-17.2444464665
 31
0.0
 11
13.6598909808
 21
-17.2366179042
 31
0.0
 11
13.5883565687
 21
-17.2226970506
 31
0.0
 11
13.5223189667
 21
-17.20301913
 31
0.0
 11
13.4633684071
 21
-17.1780580005
 31
0.0
  0
SPLINE
  5
2A2
100
AcDbEntity
  8
ASSI
100
AcDbSpline
 62
253
  6
CONTINUOUS
 70
0
 71
3
 72
18
 73
14
 74
12
 42
0.0000001
 43
0.0000001
 44
0.0000000001
 12
-0.6479053051
 22
-0.3171213201
 32
0.0
 13
-0.6452008356
 23
0.3225881239
 33
0.0
 40
0.0
 40
0.0
 40
0.0
 40
0.0
 40
0.0814478825
 40
0.1685621118
 40
0.2603098872
 40
0.3554511858
 40
0.4526394032
 40
0.5504419653
 40
0.6474040962
 40
0.7421014841
 40
0.833203999
 40
0.9194977651
 40
1.0
 40
1.0
 40
1.0
 40
1.0
 10
13.8600191549
 20
0.1804490359
 30
0.0
 10
13.8424289832
 20
0.1718394159
 30
0.0
 10
13.804990466
 20
0.1560913491
 30
0.0
 10
13.745190781
 20
0.1373528287
 30
0.0
 10
13.6808191399
 20
0.122980355
 30
0.0
 10
13.6131440835
 20
0.1132617005
 30
0.0
 10
13.5434922979
 20
0.1083879785
 30
0.0
 10
13.4732337352
 20
0.1084564191
 30
0.0
 10
13.4037526636
 20
0.1134655763
 30
0.0
 10
13.3364153241
 20
0.1233154001
 30
0.0
 10
13.2725407735
 20
0.1378123471
 30
0.0
 10
13.2133838266
 20
0.1566672043
 30
0.0
 10
13.1764423886
 20
0.1725076317
 30
0.0
 10
13.1591290188
 20
0.1811639867
 30
0.0
 11
13.8600191549
 21
0.1804490359
 31
0.0
 11
13.8059491135
 21
0.1574645215
 31
0.0
 11
13.7460343731
 21
0.1385150854
 31
0.0
 11
13.6814678606
 21
0.1239800096
 31
0.0
 11
13.6135450416
 21
0.1141512608
 31
0.0
 11
13.5436116345
 21
0.1092233801
 31
0.0
 11
13.4730616982
 21
0.109294994
 31
0.0
 11
13.4033019424
 21
0.1143646475
 31
0.0
 11
13.3357228205
 21
0.1243308659
 31
0.0
 11
13.2716632137
 21
0.138996337
 31
0.0
 11
13.2124082335
 21
0.1580665288
 31
0.0
 11
13.1591290188
 21
0.1811639867
 31
0.0
  0
SPLINE
  5
2A3
100
AcDbEntity
  8
ASSI
100
AcDbSpline
 62
253
  6
CONTINUOUS
 70
0
 71
3
 72
13
 73
9
 74
7
 42
0.0000001
 43
0.0000001
 44
0.0000000001
 12
-0.215969998
 22
0.1079891143
 32
0.0
 13
-0.0003661403
 23
0.2422910666
 33
0.0
 40
0.0
 40
0.0
 40
0.0
 40
0.0
 40
0.2210664175
 40
0.421724909
 40
0.6025991709
 40
0.7663160048
 40
0.9180129343
 40
1.0
 40
1.0
 40
1.0
 40
1.0
 10
-17.6129519581
 20
15.5672044752
 30
0.0
 10
-17.6288665293
 20
15.5751620641
 30
0.0
 10
-17.6584540772
 20
15.5919989639
 30
0.0
 10
-17.6971389462
 20
15.6215401736
 30
0.0
 10
-17.7273300926
 20
15.6537296756
 30
0.0
 10
-17.7483391608
 20
15.6881033945
 30
0.0
 10
-17.7578990194
 20
15.7190285782
 30
0.0
 10
-17.7593885495
 20
15.7379015137
 30
0.0
 10
-17.7593985557
 20
15.7445230916
 30
0.0
 11
-17.6129519581
 21
15.5672044752
 31
0.0
 11
-17.6591950079
 21
15.5938681495
 31
0.0
 11
-17.6974776634
 21
15.6235667755
 31
0.0
 11
-17.7270422133
 21
15.6557133827
 31
0.0
 11
-17.7472948979
 21
15.6896630675
 31
0.0
 11
-17.7578347435
 21
15.7247432147
 31
0.0
 11
-17.7593985557
 21
15.7445230916
 31
0.0
  0
SPLINE
  5
2A4
100
AcDbEntity
  8
ASSI
100
AcDbSpline
 62
253
  6
CONTINUOUS
 70
0
 71
3
 72
17
 73
13
 74
11
 42
0.0000001
 43
0.0000001
 44
0.0000000001
 12
-0.0077255166
 22
1.0317920286
 32
0.0
 13
1.0116734807
 23
0.2093347503
 33
0.0
 40
0.0
 40
0.0
 40
0.0
 40
0.0
 40
0.1283901949
 40
0.2516216347
 40
0.3688179097
 40
0.479566207
 40
0.5840408864
 40
0.6833580183
 40
0.7792393716
 40
0.873530699
 40
0.9680978183
 40
1.0
 40
1.0
 40
1.0
 40
1.0
 10
-3.2171936298
 20
4.7871718383
 30
0.0
 10
-3.2175242567
 20
4.8313291648
 30
0.0
 10
-3.2143578587
 20
4.9179648643
 30
0.0
 10
-3.197060419
 20
5.0438622182
 30
0.0
 10
-3.1672357602
 20
5.1612032206
 30
0.0
 10
-3.1251694901
 20
5.2678848769
 30
0.0
 10
-3.0714125672
 20
5.3622347793
 30
0.0
 10
-3.0066233957
 20
5.4430003099
 30
0.0
 10
-2.931503788
 20
5.5091544007
 30
0.0
 10
-2.8469713874
 20
5.5597096288
 30
0.0
 10
-2.7753169819
 20
5.5860994788
 30
0.0
 10
-2.7329275341
 20
5.5961697448
 30
0.0
 10
-2.722169337
 20
5.5983958232
 30
0.0
 11
-3.2171936298
 21
4.7871718383
 31
0.0
 11
-3.2120448769
 21
4.9195474386
 31
0.0
 11
-3.1943754152
 21
5.0454665393
 31
0.0
 11
-3.1641804309
 21
5.1625616155
 31
0.0
 11
-3.1218475568
 21
5.2687035592
 31
0.0
 11
-3.0681052438
 21
5.3621509954
 31
0.0
 11
-3.0036930148
 21
5.4418548361
 31
0.0
 11
-2.9292838819
 21
5.5070537515
 31
0.0
 11
-2.8457490621
 21
5.5569298162
 31
0.0
 11
-2.7542279405
 21
5.5907680406
 31
0.0
 11
-2.722169337
 21
5.5983958232
 31
0.0
  0
SPLINE
  5
2A5
100
AcDbEntity
  8
ASSI
100
AcDbSpline
 62
253
  6
CONTINUOUS
 70
0
 71
3
 72
26
 73
22
 74
20
 42
0.0000001
 43
0.0000001
 44
0.0000000001
 12
2.4688655328
 22
0.5108558834
 32
0.0
 13
0.1650101034
 23
-2.5137054056
 33
0.0
 40
0.0
 40
0.0
 40
0.0
 40
0.0
 40
0.0265708138
 40
0.0678202097
 40
0.1112349951
 40
0.1571824353
 40
0.2058565602
 40
0.2573007085
 40
0.3114244172
 40
0.3680181452
 40
0.4267779288
 40
0.4873504474
 40
0.5493342423
 40
0.6122395053
 40
0.6755023341
 40
0.7386566571
 40
0.8013675956
 40
0.8631791568
 40
0.9233936627
 40
0.981338373
 40
1.0
 40
1.0
 40
1.0
 40
1.0
 10
-2.722169337
 20
5.5983958232
 30
0.0
 10
-2.7003027482
 20
5.6029204421
 30
0.0
 10
-2.6438005687
 20
5.6111563729
 30
0.0
 10
-2.5500303355
 20
5.6114270968
 30
0.0
 10
-2.4412644862
 20
5.5948986945
 30
0.0
 10
-2.3298753251
 20
5.5618653979
 30
0.0
 10
-2.2172170438
 20
5.5128206129
 30
0.0
 10
-2.1046455711
 20
5.4484186199
 30
0.0
 10
-1.9935230117
 20
5.3694803554
 30
0.0
 10
-1.8852101752
 20
5.2770011964
 30
0.0
 10
-1.7810329312
 20
5.1721355865
 30
0.0
 10
-1.6822589785
 20
5.056173146
 30
0.0
 10
-1.590109053
 20
4.9305495636
 30
0.0
 10
-1.5057655707
 20
4.7968859771
 30
0.0
 10
-1.4302915845
 20
4.6569073182
 30
0.0
 10
-1.3645608269
 20
4.5122768114
 30
0.0
 10
-1.3093298879
 20
4.3646156313
 30
0.0
 10
-1.265346445
 20
4.215787485
 30
0.0
 10
-1.2332772132
 20
4.0680233665
 30
0.0
 10
-1.2176873551
 20
3.9541301948
 30
0.0
 10
-1.2125555254
 20
3.8899992526
 30
0.0
 10
-1.2115290731
 20
3.8743626418
 30
0.0
 11
-2.722169337
 21
5.5983958232
 31
0.0
 11
-2.6559267477
 21
5.6081350093
 31
0.0
 11
-2.552061732
 21
5.6088296906
 31
0.0
 11
-2.4439174443
 21
5.5928407862
 31
0.0
 11
-2.3328715038
 21
5.560365656
 31
0.0
 11
-2.2203343378
 21
5.5118158072
 31
0.0
 11
-2.1077187613
 21
5.4478014234
 31
0.0
 11
-1.9964368813
 21
5.3691247332
 31
0.0
 11
-1.8878976652
 21
5.2767836405
 31
0.0
 11
-1.7834779362
 21
5.1719580361
 31
0.0
 11
-1.6844615857
 21
5.0559441983
 31
0.0
 11
-1.5920618289
 21
4.9301571179
 31
0.0
 11
-1.5074821202
 21
4.7962315819
 31
0.0
 11
-1.4318663011
 21
4.6560243592
 31
0.0
 11
-1.3660944153
 21
4.511238642
 31
0.0
 11
-1.3108401387
 21
4.3633130931
 31
0.0
 11
-1.2668415507
 21
4.2140179538
 31
0.0
 11
-1.2348442359
 21
4.0658105437
 31
0.0
 11
-1.2152692513
 21
3.9212229146
 31
0.0
 11
-1.2115290731
 21
3.8743626418
 31
0.0
  0
SPLINE
  5
2A6
100
AcDbEntity
  8
ASSI
100
AcDbSpline
 62
253
  6
CONTINUOUS
 70
0
 71
3
 72
21
 73
17
 74
15
 42
0.0000001
 43
0.0000001
 44
0.0000000001
 12
0.0358352392
 22
-1.0301967715
 32
0.0
 13
0.950486531
 23
0.3989547676
 33
0.0
 40
0.0
 40
0.0
 40
0.0
 40
0.0
 40
0.0851410635
 40
0.1662748243
 40
0.2433648649
 40
0.3165846796
 40
0.3863284951
 40
0.4532160408
 40
0.5180814047
 40
0.5819322805
 40
0.645869652
 40
0.710985031
 40
0.7782641362
 40
0.8485122009
 40
0.9223099193
 40
1.0
 40
1.0
 40
1.0
 40
1.0
 10
14.1639516866
 20
-17.1634582933
 30
0.0
 10
14.1649687033
 20
-17.1926956429
 30
0.0
 10
14.1694783232
 20
-17.2497504728
 30
0.0
 10
14.1843162352
 20
-17.3321932249
 30
0.0
 10
14.2069338966
 20
-17.4086202741
 30
0.0
 10
14.2371206806
 20
-17.4781703433
 30
0.0
 10
14.2745914461
 20
-17.5400578194
 30
0.0
 10
14.3189795812
 20
-17.5935500225
 30
0.0
 10
14.3698173968
 20
-17.6379762383
 30
0.0
 10
14.4265183978
 20
-17.6727531953
 30
0.0
 10
14.4883797835
 20
-17.6974282629
 30
0.0
 10
14.554617442
 20
-17.7117145276
 30
0.0
 10
14.6244140897
 20
-17.7154940453
 30
0.0
 10
14.6969548796
 20
-17.7087897701
 30
0.0
 10
14.7714141579
 20
-17.6917471819
 30
0.0
 10
14.8205248875
 20
-17.6741055708
 30
0.0
 10
14.8451393459
 20
-17.6637739615
 30
0.0
 11
14.1639516866
 21
-17.1634582933
 31
0.0
 11
14.1710626763
 21
-17.25093484
 31
0.0
 11
14.1860918998
 21
-17.3332076608
 31
0.0
 11
14.2088720596
 21
-17.4093384727
 31
0.0
 11
14.2391492507
 21
-17.4784759039
 31
0.0
 11
14.2765872025
 21
-17.5398521832
 31
0.0
 11
14.3207700887
 21
-17.5927845784
 31
0.0
 11
14.3712059928
 21
-17.6366831151
 31
0.0
 11
14.4273342336
 21
-17.6710593921
 31
0.0
 11
14.4885307185
 21
-17.6955306612
 31
0.0
 11
14.5541134359
 21
-17.709824025
 31
0.0
 11
14.6233531178
 21
-17.7137806245
 31
0.0
 11
14.6954806631
 21
-17.7073561295
 31
0.0
 11
14.769689623
 21
-17.690622849
 31
0.0
 11
14.8451393459
 21
-17.6637739615
 31
0.0
  0
ELLIPSE
  5
2A7
100
AcDbEntity
  8
RACCORDO
100
AcDbEllipse
 62
7
  6
CONTINUOUS
 10
-13.8588821837
 20
17.7622795155
 30
0.0
 11
-0.0894818401
 21
0.1789012953
 31
0.0
 40
0.6122950388
 41
-0.6847996396
 42
0.0137828113
  0
ELLIPSE
  5
2A8
100
AcDbEntity
  8
RACCORDO
100
AcDbEllipse
 62
7
  6
CONTINUOUS
 10
16.7148856344
 20
-16.5533007821
 30
0.0
 11
-0.1825210626
 21
0.4655826378
 31
0.0
 40
0.6539056002
 41
-3.1260220267
 42
-2.199353272
  0
ELLIPSE
  5
2A9
100
AcDbEntity
  8
RACCORDO
100
AcDbEllipse
 62
7
  6
CONTINUOUS
 10
17.465905138
 20
2.0998858546
 30
0.0
 11
-0.0894578232
 21
0.1788799337
 31
0.0
 40
0.6124778111
 41
-2.255529033
 42
-0.6848850053
  0
ELLIPSE
  5
2AA
100
AcDbEntity
  8
ASSI
100
AcDbEllipse
 62
7
  6
CONTINUOUS
 10
-13.8588821837
 20
17.7622795155
 30
0.0
 11
-0.0894818401
 21
0.1789012953
 31
0.0
 40
0.6122950388
 41
-0.6847996396
 42
0.0137828113
  0
ELLIPSE
  5
2AB
100
AcDbEntity
  8
ASSI
100
AcDbEllipse
 62
7
  6
CONTINUOUS
 10
16.7148856344
 20
-16.5533007821
 30
0.0
 11
-0.1825210626
 21
0.4655826378
 31
0.0
 40
0.6539056002
 41
-3.1260220267
 42
-2.199353272
  0
ELLIPSE
  5
2AC
100
AcDbEntity
  8
ASSI
100
AcDbEllipse
 62
7
  6
CONTINUOUS
 10
17.465905138
 20
2.0998858546
 30
0.0
 11
-0.0894578232
 21
0.1788799337
 31
0.0
 40
0.6124778111
 41
-2.255529033
 42
-0.6848850053
  0
ELLIPSE
  5
2AD
100
AcDbEntity
  8
CURVE
100
AcDbEllipse
 62
253
  6
CONTINUOUS
 10
361.5794417448
 20
179.8258137082
 30
0.0
 11
499.3666179528
 21
308.6255427419
 31
0.0
 40
0.0815198604
 41
2.327856785
 42
2.3348590764
  0
ELLIPSE
  5
2AE
100
AcDbEntity
  8
CURVE
100
AcDbEllipse
 62
253
  6
CONTINUOUS
 10
341.0733450904
 20
190.0788620354
 30
0.0
 11
-370.8956999625
 21
600.1218488205
 31
0.0
 40
0.5587454355
 41
1.5424586217
 42
1.549460913
  0
ELLIPSE
  5
2AF
100
AcDbEntity
  8
CURVE
100
AcDbEllipse
 62
253
  6
CONTINUOUS
 10
362.4794417448
 20
179.3758137082
 30
0.0
 11
499.3666179528
 21
308.6255427419
 31
0.0
 40
0.0815198604
 41
2.3304030598
 42
2.3374058287
  0
ELLIPSE
  5
2B0
100
AcDbEntity
  8
CURVE
100
AcDbEllipse
 62
253
  6
CONTINUOUS
 10
340.1733450904
 20
190.5288620354
 30
0.0
 11
-370.8956999625
 21
600.1218488205
 31
0.0
 40
0.5587454355
 41
1.5450048964
 42
1.5520076653
  0
ENDSEC
  0
SECTION
  2
OBJECTS
  0
DICTIONARY
  5
C
100
AcDbDictionary
280
0
281
1
  3
ACAD_GROUP
350
D
  3
ACAD_MLINESTYLE
350
17
  3
ACAD_LAYOUT
350
1A
  3
ACAD_PLOTSETTINGS
350
19
  3
ACAD_PLOTSTYLENAME
350
E
  0
DICTIONARY
  5
D
102
{ACAD_REACTORS
330
C
102
}
100
AcDbDictionary
280
0
281
1
  0
ACDBDICTIONARYWDFLT
  5
E
102
{ACAD_REACTORS
330
C
102
}
100
AcDbDictionary
281
1
  3
Normal
350
F
100
AcDbDictionaryWithDefault
340
F
  0
DICTIONARY
  5
17
102
{ACAD_REACTORS
330
C
102
}
100
AcDbDictionary
280
0
281
1
  3
Standard
350
18
  0
DICTIONARY
  5
19
102
{ACAD_REACTORS
330
C
102
}
100
AcDbDictionary
281
1
  0
DICTIONARY
  5
1A
102
{ACAD_REACTORS
330
C
102
}
100
AcDbDictionary
281
1
  3
Model
350
2B1
  3
Layout1
350
2B2
  0
ACDBPLACEHOLDER
  5
F
102
{ACAD_REACTORS
330
E
102
}
  0
MLINESTYLE
  5
18
102
{ACAD_REACTORS
330
17
102
}
100
AcDbMlineStyle
  2
STANDARD
 70
0
  3

 62
256
 51
90.0
 52
90.0
 71
2
 49
0.5
 62
256
  6
BYLAYER
 49
-0.5
 62
256
  6
BYLAYER
  0
LAYOUT
  5
2B1
102
{ACAD_REACTORS
330
1A
102
}
100
AcDbPlotSettings
  1

  2
none_device
  4
ISO_A4_(297.00_x_210.00_MM)
  6

 40
0.0
 41
0.0
 42
0.0
 43
0.0
 44
297.0
 45
210.0
 46
0.0
 47
0.0
 48
0.0
 49
0.0
140
0.0
141
0.0
142
1.0
143
1.0
 70
1024
 72
1
 73
0
 74
0
  7

 75
0
147
1.0
148
0.0
149
0.0
100
AcDbLayout
  1
Model
 70
0
 71
0
 10
0.0
 20
0.0
 11
297.0
 21
210.0
 12
0.0
 22
0.0
 32
0.0
 14
0.0
 24
0.0
 34
0.0
 15
0.0
 25
0.0
 35
0.0
146
0.0
 13
0.0
 23
0.0
 33
0.0
 16
1.0
 26
0.0
 36
0.0
 17
0.0
 27
1.0
 37
0.0
 76
0
330
212
345
0
346
0
  0
LAYOUT
  5
2B2
102
{ACAD_REACTORS
330
1A
102
}
100
AcDbPlotSettings
  1

  2
none_device
  4
ISO_A4_(297.00_x_210.00_MM)
  6

 40
0.0
 41
0.0
 42
0.0
 43
0.0
 44
297.0
 45
210.0
 46
0.0
 47
0.0
 48
0.0
 49
0.0
140
0.0
141
0.0
142
1.0
143
1.0
 70
0
 72
1
 73
0
 74
0
  7

 75
0
147
1.0
148
0.0
149
0.0
100
AcDbLayout
  1
Layout1
 70
0
 71
1
 10
0.0
 20
0.0
 11
297.0
 21
210.0
 12
0.0
 22
0.0
 32
0.0
 14
0.0
 24
0.0
 34
0.0
 15
0.0
 25
0.0
 35
0.0
146
0.0
 13
0.0
 23
0.0
 33
0.0
 16
1.0
 26
0.0
 36
0.0
 17
0.0
 27
1.0
 37
0.0
 76
0
330
213
345
0
346
0
  0
ENDSEC
  0
EOF
