  0
SECTION
  2
HEADER
  9
$ACADVER
  1
AC1015
  9
$DWGCODEPAGE
  3
ANSI_1252
  9
$EXTMAX
 10
297.0
 20
210.0
 30
0.0
  9
$EXTMIN
 10
0.0
 20
0.0
 30
0.0
  9
$LIMMIN
 10
0.0
 20
0.0
  9
$LIMMAX
 10
297.0
 20
210.0
  9
$VIEWCTR
 10
148.5
 20
105.0
  9
$VIEWSIZE
 40
210.0
  9
$CLAYER
  8
0
  9
$LTSCALE
 40
16.335
  9
$CELTYPE
  6
BYLAYER
  9
$DIMSCALE
 40
1.0
  9
$DIMASZ
 40
3.0
  9
$DIMEXO
 40
1.85625
  9
$DIMDLI
 40
11.286
  9
$DIMEXE
 40
5.346
  9
$DIMCEN
 40
2.673
  9
$DIMLFAC
 40
1.0
  9
$DIMBLK
  1
_FILLED
  9
$DIMTXT
 40
3.0
  9
$DIMTOL
 70
1
  9
$DIMLIM
 70
0
  9
$DIMTFAC
 40
1.0
  9
$DIMTP
 40
0.01
  9
$DIMTM
 40
0.01
  9
$PDMODE
 70
3
  9
$PDSIZE
 40
3.0
  9
$HANDSEED
  5
2BB
  9
$TILEMODE
 70
1
  9
$MEASUREMENT
 70
1
  9
$INSUNITS
 70
4
  0
ENDSEC
  0
SECTION
  2
CLASSES
  0
CLASS
  1
ACDBDICTIONARYWDFLT
  2
AcDbDictionaryWithDefault
  3
AutoCAD 2000
 90
0
280
0
281
0
  0
CLASS
  1
ACDBPLACEHOLDER
  2
AcDbPlaceHolder
  3
AutoCAD 2000
 90
0
280
0
281
0
  0
CLASS
  1
LAYOUT
  2
AcDbLayout
  3
AutoCAD 2000
 90
0
280
0
281
0
  0
ENDSEC
  0
SECTION
  2
TABLES
  0
TABLE
  2
VPORT
  5
8
100
AcDbSymbolTable
 70
2
  0
VPORT
  5
1F4
100
AcDbSymbolTableRecord
100
AcDbViewportTableRecord
  2
*ACTIVE
 70
0
 10
0.0
 20
0.0
 11
1.0
 21
1.0
 12
148.5
 22
105.0
 13
0.0
 23
0.0
 14
1.0
 24
1.0
 15
0.0
 25
0.0
 16
0.0
 26
0.0
 36
1.0
 17
0.0
 27
0.0
 37
0.0
 40
210.0
 41
1.4142857143
 42
50.0
 43
0.0
 44
0.0
 50
0.0
 51
0.0
 71
0
 72
100
 73
1
 74
1
 75
0
 76
0
 77
0
 78
0
  0
ENDTAB
  0
TABLE
  2
LTYPE
  5
5
100
AcDbSymbolTable
 70
6
  0
LTYPE
  5
14
100
AcDbSymbolTableRecord
100
AcDbLinetypeTableRecord
  2
BYBLOCK
 70
0
  3

 72
65
 73
0
 40
0.0
  0
LTYPE
  5
15
100
AcDbSymbolTableRecord
100
AcDbLinetypeTableRecord
  2
BYLAYER
 70
0
  3

 72
65
 73
0
 40
0.0
  0
LTYPE
  5
16
100
AcDbSymbolTableRecord
100
AcDbLinetypeTableRecord
  2
CONTINUOUS
 70
64
  3
Solid line
 72
65
 73
0
 40
0.0
  0
LTYPE
  5
1F5
100
AcDbSymbolTableRecord
100
AcDbLinetypeTableRecord
  2
CENTER
 70
64
  3
____ _ ____ _ ____ _ ____ _ ____ _ ____ _ ____
 72
65
 73
4
 40
0.6
 49
0.375
 74
0
 49
-0.075
 74
0
 49
0.075
 74
0
 49
-0.075
 74
0
  0
LTYPE
  5
1F6
100
AcDbSymbolTableRecord
100
AcDbLinetypeTableRecord
  2
HIDDEN
 70
64
  3
- - - - - - - - - - - - - - - - - - - -
 72
65
 73
2
 40
0.2
 49
0.1
 74
0
 49
-0.1
 74
0
  0
LTYPE
  5
1F7
100
AcDbSymbolTableRecord
100
AcDbLinetypeTableRecord
  2
PHANTOM
 70
64
  3
_____ _ _ _____ _ _ _____ _ _ _____
 72
65
 73
6
 40
0.8
 49
0.45
 74
0
 49
-0.05
 74
0
 49
0.1
 74
0
 49
-0.05
 74
0
 49
0.1
 74
0
 49
-0.05
 74
0
  0
LTYPE
  5
1F8
100
AcDbSymbolTableRecord
100
AcDbLinetypeTableRecord
  2
DOT
 70
64
  3
. . . . . . . . . . . . . . . . . . . .
 72
65
 73
2
 40
0.2
 49
0.1
 74
0
 49
-0.1
 74
0
  0
LTYPE
  5
1F9
100
AcDbSymbolTableRecord
100
AcDbLinetypeTableRecord
  2
DASHED
 70
64
  3
- - - - - - - - - - - - - - - - - - - -
 72
65
 73
2
 40
0.2
 49
0.1
 74
0
 49
-0.1
 74
0
  0
ENDTAB
  0
TABLE
  2
LAYER
  5
2
100
AcDbSymbolTable
 70
36
  0
LAYER
  5
10
100
AcDbSymbolTableRecord
100
AcDbLayerTableRecord
  2
0
 70
0
 62
7
  6
CONTINUOUS
370
-3
390
F
  0
LAYER
  5
1FA
100
AcDbSymbolTableRecord
100
AcDbLayerTableRecord
  2
DEFAULT_1
 70
0
 62
7
  6
CENTER
370
-3
390
F
  0
LAYER
  5
1FB
100
AcDbSymbolTableRecord
100
AcDbLayerTableRecord
  2
DEFAULT_2
 70
0
 62
7
  6
HIDDEN
370
-3
390
F
  0
LAYER
  5
1FC
100
AcDbSymbolTableRecord
100
AcDbLayerTableRecord
  2
DEFAULT_3
 70
0
 62
7
  6
PHANTOM
370
-3
390
F
  0
LAYER
  5
1FD
100
AcDbSymbolTableRecord
100
AcDbLayerTableRecord
  2
ASSI
 70
0
 62
7
  6
CONTINUOUS
370
-3
390
F
  0
LAYER
  5
1FE
100
AcDbSymbolTableRecord
100
AcDbLayerTableRecord
  2
COORDINATE
 70
0
 62
7
  6
CONTINUOUS
370
-3
390
F
  0
LAYER
  5
1FF
100
AcDbSymbolTableRecord
100
AcDbLayerTableRecord
  2
COORD_ORIGINE
 70
0
 62
7
  6
CONTINUOUS
370
-3
390
F
  0
LAYER
  5
200
100
AcDbSymbolTableRecord
100
AcDbLayerTableRecord
  2
COPY_PUBLISH
 70
0
 62
7
  6
CONTINUOUS
370
-3
390
F
  0
LAYER
  5
201
100
AcDbSymbolTableRecord
100
AcDbLayerTableRecord
  2
COSMETIC
 70
0
 62
7
  6
CONTINUOUS
370
-3
390
F
  0
LAYER
  5
202
100
AcDbSymbolTableRecord
100
AcDbLayerTableRecord
  2
CURVE
 70
0
 62
7
  6
CONTINUOUS
370
-3
390
F
  0
LAYER
  5
203
100
AcDbSymbolTableRecord
100
AcDbLayerTableRecord
  2
DRAFT
 70
0
 62
7
  6
CONTINUOUS
370
-3
390
F
  0
LAYER
  5
204
100
AcDbSymbolTableRecord
100
AcDbLayerTableRecord
  2
IGES
 70
0
 62
7
  6
CONTINUOUS
370
-3
390
F
  0
LAYER
  5
205
100
AcDbSymbolTableRecord
100
AcDbLayerTableRecord
  2
IMPORT_IGES
 70
0
 62
7
  6
CONTINUOUS
370
-3
390
F
  0
LAYER
  5
206
100
AcDbSymbolTableRecord
100
AcDbLayerTableRecord
  2
INTF_6
 70
0
 62
7
  6
CONTINUOUS
370
-3
390
F
  0
LAYER
  5
207
100
AcDbSymbolTableRecord
100
AcDbLayerTableRecord
  2
NOTE
 70
0
 62
7
  6
CONTINUOUS
370
-3
390
F
  0
LAYER
  5
208
100
AcDbSymbolTableRecord
100
AcDbLayerTableRecord
  2
PIANI
 70
0
 62
7
  6
CONTINUOUS
370
-3
390
F
  0
LAYER
  5
209
100
AcDbSymbolTableRecord
100
AcDbLayerTableRecord
  2
PIANI_ORIGINE
 70
0
 62
7
  6
CONTINUOUS
370
-3
390
F
  0
LAYER
  5
20A
100
AcDbSymbolTableRecord
100
AcDbLayerTableRecord
  2
PIANI_RIFERIMENTO
 70
0
 62
7
  6
CONTINUOUS
370
-3
390
F
  0
LAYER
  5
20B
100
AcDbSymbolTableRecord
100
AcDbLayerTableRecord
  2
PUNTI
 70
0
 62
7
  6
CONTINUOUS
370
-3
390
F
  0
LAYER
  5
20C
100
AcDbSymbolTableRecord
100
AcDbLayerTableRecord
  2
RACCORDO
 70
0
 62
7
  6
CONTINUOUS
370
-3
390
F
  0
LAYER
  5
20D
100
AcDbSymbolTableRecord
100
AcDbLayerTableRecord
  2
SMUSSO
 70
0
 62
7
  6
CONTINUOUS
370
-3
390
F
  0
LAYER
  5
20E
100
AcDbSymbolTableRecord
100
AcDbLayerTableRecord
  2
SUPERFICI
 70
0
 62
7
  6
CONTINUOUS
370
-3
390
F
  0
LAYER
  5
20F
100
AcDbSymbolTableRecord
100
AcDbLayerTableRecord
  2
TRASH
 70
0
 62
7
  6
CONTINUOUS
370
-3
390
F
  0
LAYER
  5
210
100
AcDbSymbolTableRecord
100
AcDbLayerTableRecord
  2
XSEC_DATUMS
 70
0
 62
7
  6
CONTINUOUS
370
-3
390
F
  0
ENDTAB
  0
TABLE
  2
STYLE
  5
3
100
AcDbSymbolTable
 70
1
  0
STYLE
  5
11
100
AcDbSymbolTableRecord
100
AcDbTextStyleTableRecord
  2
STANDARD
 70
0
 40
0.0
 41
0.8
 50
0.0
 71
0
 42
0.2
  3
txt
  4

  0
STYLE
  5
211
100
AcDbSymbolTableRecord
100
AcDbTextStyleTableRecord
  2
TEXTSTYLE_1
 70
0
 40
0.0
 41
0.8
 50
0.0
 71
0
 42
0.2
  3
gdt
  4

  0
ENDTAB
  0
TABLE
  2
VIEW
  5
6
100
AcDbSymbolTable
 70
0
  0
ENDTAB
  0
TABLE
  2
UCS
  5
7
100
AcDbSymbolTable
 70
0
  0
ENDTAB
  0
TABLE
  2
APPID
  5
9
100
AcDbSymbolTable
 70
1
  0
APPID
  5
212
100
AcDbSymbolTableRecord
100
AcDbRegAppTableRecord
  2
ACAD
 70
0
  0
ENDTAB
  0
TABLE
  2
BLOCK_RECORD
  5
1
100
AcDbSymbolTable
 70
0
  0
BLOCK_RECORD
  5
213
100
AcDbSymbolTableRecord
100
AcDbBlockTableRecord
  2
*Model_Space
  0
BLOCK_RECORD
  5
214
100
AcDbSymbolTableRecord
100
AcDbBlockTableRecord
  2
*Paper_Space
  0
ENDTAB
  0
TABLE
  2
DIMSTYLE
  5
A
100
AcDbSymbolTable
 70
1
100
AcDbDimStyleTable
 71
0
  0
DIMSTYLE
105
215
100
AcDbSymbolTableRecord
100
AcDbDimStyleTableRecord
  2
STANDARD
 70
0
  3

  4

 40
1.0
 41
3.0
 42
0.0625
 43
0.38
 44
0.18
 45
0.0
 46
0.0
 47
0.01
 48
0.01
140
3.0
141
0.09
142
0.0
143
25.4
144
1.0
145
0.0
146
1.0
147
0.09
 71
1.0
 72
0.0
 73
0
 74
0
 75
0
 76
0
 77
1
 78
8
170
0
171
2
172
0
173
0
174
0
175
0
176
0
177
0
178
0
270
2
271
2
272
2
273
2
274
2
275
0
280
0
281
0
282
0
283
1
284
8
285
0
286
0
287
3
288
0
340
11
  0
ENDTAB
  0
ENDSEC
  0
SECTION
  2
BLOCKS
  0
BLOCK
  5
20
100
AcDbEntity
  8
0
100
AcDbBlockBegin
  2
*Model_Space
 70
0
 10
0.0
 20
0.0
 30
0.0
  3
*Model_Space
  1

  0
ENDBLK
  5
21
100
AcDbEntity
  8
0
100
AcDbBlockEnd
  0
BLOCK
  5
1C
100
AcDbEntity
  8
0
100
AcDbBlockBegin
  2
*Paper_Space
 70
0
 10
0.0
 20
0.0
 30
0.0
  3
*Paper_Space
  1

  0
ENDBLK
  5
1D
100
AcDbEntity
  8
0
100
AcDbBlockEnd
  0
ENDSEC
  0
SECTION
  2
ENTITIES
  0
LWPOLYLINE
  5
216
100
AcDbEntity
  8
RACCORDO
100
AcDbPolyline
 62
7
  6
CONTINUOUS
 90
16
 70
0
 10
-9.6674055809
 20
12.0388765081
 10
-9.6885997666
 20
12.0262129505
 10
-9.708355983
 20
12.0128864684
 10
-9.7266792991
 20
11.9989593602
 10
-9.7436269855
 20
11.984456465
 10
-9.7592713149
 20
11.9693700406
 10
-9.7736215569
 20
11.9537374795
 10
-9.7866796136
 20
11.9376073622
 10
-9.7984666378
 20
11.9210005085
 10
-9.8089681716
 20
11.9039840301
 10
-9.8181884367
 20
11.8866088073
 10
-9.826148923
 20
11.8688872256
 10
-9.8328374023
 20
11.8508966371
 10
-9.838252939
 20
11.8327024629
 10
-9.8424121706
 20
11.8143082089
 10
-9.845313206
 20
11.7957673948
  0
LWPOLYLINE
  5
217
100
AcDbEntity
  8
ASSI
100
AcDbPolyline
 62
7
  6
CONTINUOUS
 90
11
 70
0
 10
-9.6565904077
 20
12.044770805
 10
-9.6696648192
 20
12.0375989948
 10
-9.7022259421
 20
12.0171948548
 10
-9.731956956
 20
11.9946251223
 10
-9.7587252047
 20
11.9699282838
 10
-9.7822466619
 20
11.9433183716
 10
-9.8023937476
 20
11.9149213522
 10
-9.8190021749
 20
11.8849323878
 10
-9.8318004295
 20
11.8539417071
 10
-9.8407291626
 20
11.8224554105
 10
-9.8458783757
 20
11.7907557316
  0
LINE
  5
218
100
AcDbEntity
  8
RACCORDO
100
AcDbLine
 62
7
  6
CONTINUOUS
 10
-9.6566574224
 20
12.04473539
 11
-9.6674055809
 21
12.0388765081
  0
LINE
  5
219
100
AcDbEntity
  8
RACCORDO
100
AcDbLine
 62
7
  6
CONTINUOUS
 10
-9.6566338931
 20
12.0447483475
 11
-6.0378292385
 21
13.9578048955
  0
LINE
  5
21A
100
AcDbEntity
  8
ASSI
100
AcDbLine
 62
7
  6
CONTINUOUS
 10
-9.6566338931
 20
12.0447483475
 11
-6.0378292385
 21
13.9578048955
  0
LINE
  5
21B
100
AcDbEntity
  8
RACCORDO
100
AcDbLine
 62
253
  6
CONTINUOUS
 10
-9.5643966248
 20
12.0405160305
 11
-5.9468556728
 21
13.9529045307
  0
LINE
  5
21C
100
AcDbEntity
  8
ASSI
100
AcDbLine
 62
253
  6
CONTINUOUS
 10
-9.5643966248
 20
12.0405160305
 11
-5.9468556728
 21
13.9529045307
  0
LINE
  5
21D
100
AcDbEntity
  8
DRAFT
100
AcDbLine
 62
7
  6
CONTINUOUS
 10
-4.2232588461
 20
12.1664064362
 11
-5.2902442624
 21
11.4806054143
  0
LINE
  5
21E
100
AcDbEntity
  8
ASSI
100
AcDbLine
 62
7
  6
CONTINUOUS
 10
-4.2232588461
 20
12.1664064362
 11
-5.2902442624
 21
11.4806054143
  0
LINE
  5
21F
100
AcDbEntity
  8
DRAFT
100
AcDbLine
 62
7
  6
CONTINUOUS
 10
-4.2232588461
 20
13.0911061174
 11
-6.1589877079
 21
11.9149771371
  0
LINE
  5
220
100
AcDbEntity
  8
ASSI
100
AcDbLine
 62
7
  6
CONTINUOUS
 10
-4.2232588461
 20
13.0911061174
 11
-6.1589877079
 21
11.9149771371
  0
LINE
  5
221
100
AcDbEntity
  8
ASSI
100
AcDbLine
 62
7
  6
CONTINUOUS
 10
-9.8458783757
 20
11.7907557316
 11
-9.8473595699
 21
11.7619168721
  0
LWPOLYLINE
  5
222
100
AcDbEntity
  8
RACCORDO
100
AcDbPolyline
 62
7
  6
CONTINUOUS
 90
3
 70
0
 10
-9.845313206
 20
11.7957673948
 10
-9.8469519186
 20
11.7771815572
 10
-9.8473596355
 20
11.7619781517
  0
LWPOLYLINE
  5
223
100
AcDbEntity
  8
RACCORDO
100
AcDbPolyline
 62
7
  6
CONTINUOUS
 90
19
 70
0
 10
5.9616404719
 20
-14.0168455032
 10
5.9989439519
 20
-14.0326635056
 10
6.0371144353
 20
-14.0468357316
 10
6.0761075583
 20
-14.0593240788
 10
6.11591359
 20
-14.0700995281
 10
6.1564757344
 20
-14.0791180477
 10
6.197725982
 20
-14.0863396608
 10
6.2396436041
 20
-14.0917346749
 10
6.2821681693
 20
-14.0952664191
 10
6.325234389
 20
-14.0969011181
 10
6.3688217229
 20
-14.0966103222
 10
6.4128662767
 20
-14.0943653982
 10
6.4573107056
 20
-14.0901395539
 10
6.5021546416
 20
-14.0838987883
 10
6.5473476173
 20
-14.0756142897
 10
6.5928310501
 20
-14.0652605037
 10
6.638603749
 20
-14.0527962493
 10
6.684631371
 20
-14.038185297
 10
6.7308375015
 20
-14.0214079735
  0
LWPOLYLINE
  5
224
100
AcDbEntity
  8
ASSI
100
AcDbPolyline
 62
7
  6
CONTINUOUS
 90
10
 70
0
 10
5.9286919529
 20
-14.0011571422
 10
5.9856268352
 20
-14.0272456022
 10
6.0605900951
 20
-14.054588582
 10
6.1385556784
 20
-14.0753725854
 10
6.2191185574
 20
-14.0893337813
 10
6.3020566753
 20
-14.0962614169
 10
6.386916238
 20
-14.0959236369
 10
6.4732266573
 20
-14.0881510872
 10
6.5608743859
 20
-14.0727463313
 10
6.6496050387
 20
-14.0494937262
  0
LINE
  5
225
100
AcDbEntity
  8
RACCORDO
100
AcDbLine
 62
7
  6
CONTINUOUS
 10
-9.0996441935
 20
-6.4819258249
 11
-9.0618396794
 21
-6.5046167196
  0
LWPOLYLINE
  5
226
100
AcDbEntity
  8
ASSI
100
AcDbPolyline
 62
7
  6
CONTINUOUS
 90
12
 70
0
 10
-9.5517566655
 20
-5.6307706414
 10
-9.5417759151
 20
-5.7347618431
 10
-9.5246593918
 20
-5.8342450347
 10
-9.5006648301
 20
-5.9289370482
 10
-9.4700077176
 20
-6.0187048085
 10
-9.4328515758
 20
-6.1034440446
 10
-9.3894401672
 20
-6.1828300342
 10
-9.3400478
 20
-6.2565371265
 10
-9.2849549444
 20
-6.3242855117
 10
-9.2245720664
 20
-6.3856785295
 10
-9.159391852
 20
-6.4403516797
 10
-9.0899639776
 20
-6.4879874966
  0
LWPOLYLINE
  5
227
100
AcDbEntity
  8
RACCORDO
100
AcDbPolyline
 62
7
  6
CONTINUOUS
 90
22
 70
0
 10
-9.5535740206
 20
-5.5917489295
 10
-9.5513863805
 20
-5.6367728944
 10
-9.5465782383
 20
-5.6942671806
 10
-9.5396027718
 20
-5.7503536643
 10
-9.5305111905
 20
-5.8049814414
 10
-9.519351967
 20
-5.8581353644
 10
-9.5061631625
 20
-5.9098155689
 10
-9.490986964
 20
-5.9599923688
 10
-9.4738695044
 20
-6.0086275188
 10
-9.4548507774
 20
-6.0556926399
 10
-9.4339771001
 20
-6.1011451346
 10
-9.4112994664
 20
-6.1449435199
 10
-9.3868704815
 20
-6.1870440293
 10
-9.3607516655
 20
-6.227392465
 10
-9.3330052518
 20
-6.2659470536
 10
-9.3036958045
 20
-6.3026671397
 10
-9.2728984015
 20
-6.3375026872
 10
-9.240694148
 20
-6.3704071196
 10
-9.2071709631
 20
-6.4013387859
 10
-9.1724205667
 20
-6.4302595825
 10
-9.136541243
 20
-6.4571332232
 10
-9.0996441935
 20
-6.4819258249
  0
LINE
  5
228
100
AcDbEntity
  8
ASSI
100
AcDbLine
 62
7
  6
CONTINUOUS
 10
-9.553573332
 20
-5.5917693645
 11
-9.5517566655
 21
-5.6307706414
  0
LWPOLYLINE
  5
229
100
AcDbEntity
  8
RACCORDO
100
AcDbPolyline
 62
7
  6
CONTINUOUS
 90
3
 70
0
 10
-9.6417231689
 20
-2.730190971
 10
-9.5993960452
 20
-4.1689398884
 10
-9.5535744222
 20
-5.5917451346
  0
LWPOLYLINE
  5
22A
100
AcDbEntity
  8
RACCORDO
100
AcDbPolyline
 62
7
  6
CONTINUOUS
 90
10
 70
0
 10
-9.8446122542
 20
10.3161298306
 10
-9.8378991196
 20
8.8580595282
 10
-9.8272280835
 20
7.4020698917
 10
-9.812599224
 20
5.9481792742
 10
-9.7940127149
 20
4.4964039226
 10
-9.7714687411
 20
3.0467593906
 10
-9.7449675138
 20
1.5992618071
 10
-9.7145093147
 20
0.1539271662
 10
-9.6800944239
 20
-1.2892291768
 10
-9.6417231689
 20
-2.730190971
  0
LWPOLYLINE
  5
22B
100
AcDbEntity
  8
ASSI
100
AcDbPolyline
 62
7
  6
CONTINUOUS
 90
10
 70
0
 10
-9.8473596884
 20
11.7620188051
 10
-9.8429757853
 20
9.8691248016
 10
-9.8314368518
 20
7.9144917988
 10
-9.8127755491
 20
5.9636237999
 10
-9.7869922419
 20
4.0165617763
 10
-9.754087396
 20
2.0733442598
 10
-9.7140615902
 20
0.1340090697
 10
-9.6669155257
 20
-1.8014053763
 10
-9.6126501138
 20
-3.7328580369
 10
-9.5535744221
 20
-5.5917451374
  0
LINE
  5
22C
100
AcDbEntity
  8
RACCORDO
100
AcDbLine
 62
7
  6
CONTINUOUS
 10
-9.8473596884
 20
11.7620188027
 11
-9.8446122542
 21
10.3161298306
  0
LINE
  5
22D
100
AcDbEntity
  8
RACCORDO
100
AcDbLine
 62
7
  6
CONTINUOUS
 10
5.9295860676
 20
-14.0016054543
 11
5.9616404719
 21
-14.0168455032
  0
LINE
  5
22E
100
AcDbEntity
  8
RACCORDO
100
AcDbLine
 62
7
  6
CONTINUOUS
 10
5.9297000705
 20
-14.0016626992
 11
-9.0227013792
 21
-6.5254619743
  0
LINE
  5
22F
100
AcDbEntity
  8
ASSI
100
AcDbLine
 62
7
  6
CONTINUOUS
 10
5.9297000705
 20
-14.0016626992
 11
-9.0227013792
 21
-6.5254619743
  0
LINE
  5
230
100
AcDbEntity
  8
RACCORDO
100
AcDbLine
 62
7
  6
CONTINUOUS
 10
5.9295748169
 20
-14.0016000554
 11
5.9296932202
 21
-14.0016592741
  0
LINE
  5
231
100
AcDbEntity
  8
RACCORDO
100
AcDbLine
 62
253
  6
CONTINUOUS
 10
5.536223753
 20
-13.2410421308
 11
-9.4071111999
 21
-5.7693746548
  0
LINE
  5
232
100
AcDbEntity
  8
ASSI
100
AcDbLine
 62
253
  6
CONTINUOUS
 10
5.536223753
 20
-13.2410421308
 11
-9.4071111999
 21
-5.7693746548
  0
LINE
  5
233
100
AcDbEntity
  8
RACCORDO
100
AcDbLine
 62
7
  6
CONTINUOUS
 10
-9.0618396794
 20
-6.5046167196
 11
-9.0224915322
 21
-6.5255666335
  0
LINE
  5
234
100
AcDbEntity
  8
ASSI
100
AcDbLine
 62
7
  6
CONTINUOUS
 10
-9.0899639776
 20
-6.4879874966
 11
-9.0217323517
 21
-6.5259451427
  0
LINE
  5
235
100
AcDbEntity
  8
DRAFT
100
AcDbLine
 62
7
  6
CONTINUOUS
 10
-2.4289346405
 20
5.5124612666
 11
-2.5990757983
 21
5.422642126
  0
LINE
  5
236
100
AcDbEntity
  8
ASSI
100
AcDbLine
 62
7
  6
CONTINUOUS
 10
-2.7389819249
 20
5.4800787344
 11
-2.7377923484
 21
5.4806430229
  0
LINE
  5
237
100
AcDbEntity
  8
RACCORDO
100
AcDbLine
 62
7
  6
CONTINUOUS
 10
-2.7379023155
 20
5.4805910231
 11
-2.7377923484
 21
5.4806430229
  0
LINE
  5
238
100
AcDbEntity
  8
RACCORDO
100
AcDbLine
 62
7
  6
CONTINUOUS
 10
-2.7379143205
 20
5.4805849622
 11
-2.7234281724
 21
5.487111462
  0
LWPOLYLINE
  5
239
100
AcDbEntity
  8
ASSI
100
AcDbPolyline
 62
7
  6
CONTINUOUS
 90
25
 70
0
 10
-2.7389937522
 20
5.4800727928
 10
-2.6975723798
 20
5.497216055
 10
-2.6294463855
 20
5.5154189377
 10
-2.5566139514
 20
5.5233445107
 10
-2.4795790535
 20
5.5207690299
 10
-2.3990888626
 20
5.5075653335
 10
-2.3159561729
 20
5.4837482802
 10
-2.2310357256
 20
5.4494652327
 10
-2.1453199545
 20
5.405056816
 10
-2.0596656889
 20
5.3509417161
 10
-1.9746521919
 20
5.2874309442
 10
-1.8910557664
 20
5.2150068899
 10
-1.8097893385
 20
5.1343837281
 10
-1.7315312538
 20
5.0461725862
 10
-1.6569899286
 20
4.9510960025
 10
-1.5869290488
 20
4.8500664985
 10
-1.5220197164
 20
4.7440202886
 10
-1.4628597103
 20
4.6339258136
 10
-1.409987604
 20
4.52079718
 10
-1.3638814911
 20
4.4056962575
 10
-1.3249410364
 20
4.2896995114
 10
-1.2934791686
 20
4.1738668834
 10
-1.2697357879
 20
4.0592785271
 10
-1.253868658
 20
3.9470123691
 10
-1.2459424531
 20
3.8380937522
  0
LINE
  5
23A
100
AcDbEntity
  8
RACCORDO
100
AcDbLine
 62
7
  6
CONTINUOUS
 10
-2.7234281724
 20
5.487111462
 11
-2.6939352065
 21
5.4984866844
  0
LWPOLYLINE
  5
23B
100
AcDbEntity
  8
RACCORDO
100
AcDbPolyline
 62
7
  6
CONTINUOUS
 90
54
 70
0
 10
-2.6939352065
 20
5.4984866844
 10
-2.6636952118
 20
5.5077009187
 10
-2.6326309861
 20
5.5148153909
 10
-2.6007774686
 20
5.5198453843
 10
-2.5682053179
 20
5.5227981699
 10
-2.5348889262
 20
5.5236873901
 10
-2.5008816189
 20
5.5225171332
 10
-2.4662605308
 20
5.5192928337
 10
-2.431039393
 20
5.5140158941
 10
-2.3952874737
 20
5.5066953777
 10
-2.3590851585
 20
5.4973447165
 10
-2.3224621511
 20
5.4859668955
 10
-2.2854930951
 20
5.4725804359
 10
-2.2482594492
 20
5.4572088442
 10
-2.2107966452
 20
5.4398590652
 10
-2.1731790975
 20
5.4205584889
 10
-2.1354874213
 20
5.3993402471
 10
-2.0977611803
 20
5.3762163803
 10
-2.0600743072
 20
5.3512231428
 10
-2.0225042147
 20
5.3244018075
 10
-1.9850915869
 20
5.2957686051
 10
-1.9479006863
 20
5.2653605554
 10
-1.9110148082
 20
5.2332328152
 10
-1.8744999025
 20
5.1994290501
 10
-1.838423061
 20
5.1640005396
 10
-1.8028590875
 20
5.127009537
 10
-1.767881791
 20
5.0885206976
 10
-1.7335583593
 20
5.048599811
 10
-1.699954882
 20
5.0073158154
 10
-1.6671395473
 20
4.9647427604
 10
-1.635173574
 20
4.9209538119
 10
-1.6041184642
 20
4.8760279156
 10
-1.5740388467
 20
4.8300514964
 10
-1.5449903055
 20
4.7831058849
 10
-1.5170267922
 20
4.7352765494
 10
-1.4902063345
 20
4.6866591291
 10
-1.4645782431
 20
4.6373428127
 10
-1.4401871124
 20
4.5874163203
 10
-1.4170801182
 20
4.5369766356
 10
-1.3952992421
 20
4.4861188025
 10
-1.3748795112
 20
4.434932795
 10
-1.3558552628
 20
4.3835092235
 10
-1.3382590271
 20
4.3319415927
 10
-1.3221188058
 20
4.2803245688
 10
-1.3074607934
 20
4.2287516599
 10
-1.2943074764
 20
4.1773116868
 10
-1.2826791362
 20
4.1261055638
 10
-1.2725957903
 20
4.0752463451
 10
-1.2640697586
 20
4.0248252365
 10
-1.2571084867
 20
3.9749348078
 10
-1.2517191421
 20
3.9256908875
 10
-1.2479022006
 20
3.8771917843
 10
-1.2456501373
 20
3.8295221996
 10
-1.2449886791
 20
3.795261643
  0
LINE
  5
23C
100
AcDbEntity
  8
DRAFT
100
AcDbLine
 62
7
  6
CONTINUOUS
 10
-5.2043935533
 20
11.5357856474
 11
-5.2043935533
 21
11.4376800598
  0
LINE
  5
23D
100
AcDbEntity
  8
ASSI
100
AcDbLine
 62
7
  6
CONTINUOUS
 10
-5.2043935533
 20
11.5357856474
 11
-5.2043935533
 21
11.4376800598
  0
LINE
  5
23E
100
AcDbEntity
  8
DRAFT
100
AcDbLine
 62
7
  6
CONTINUOUS
 10
-4.2232588461
 20
13.0911061174
 11
-4.2232588461
 21
12.1664064362
  0
LINE
  5
23F
100
AcDbEntity
  8
ASSI
100
AcDbLine
 62
7
  6
CONTINUOUS
 10
-4.2232588461
 20
13.0911061174
 11
-4.2232588461
 21
12.1664064362
  0
LWPOLYLINE
  5
240
100
AcDbEntity
  8
RACCORDO
100
AcDbPolyline
 62
7
  6
CONTINUOUS
 90
3
 70
0
 10
-1.5043811997
 20
3.1483901406
 10
-1.5305509644
 20
3.1321727555
 10
-1.5429184498
 20
3.1253850876
  0
LINE
  5
241
100
AcDbEntity
  8
ASSI
100
AcDbLine
 62
7
  6
CONTINUOUS
 10
-1.5165515568
 20
3.1405225378
 11
-1.5438934278
 21
3.1248723019
  0
LINE
  5
242
100
AcDbEntity
  8
RACCORDO
100
AcDbLine
 62
7
  6
CONTINUOUS
 10
-1.5427415398
 20
3.1254784318
 11
-1.5429164206
 21
3.1253861549
  0
LINE
  5
243
100
AcDbEntity
  8
ASSI
100
AcDbLine
 62
7
  6
CONTINUOUS
 10
-1.5427415398
 20
3.1254784318
 11
-1.5438926831
 21
3.1248726946
  0
LINE
  5
244
100
AcDbEntity
  8
DRAFT
100
AcDbLine
 62
7
  6
CONTINUOUS
 10
-1.3336238877
 20
3.3519299314
 11
-1.5197328487
 21
3.2639562249
  0
LINE
  5
245
100
AcDbEntity
  8
DRAFT
100
AcDbLine
 62
7
  6
CONTINUOUS
 10
7.815186007
 20
7.0718836908
 11
5.5082741817
 21
6.0813461923
  0
LINE
  5
246
100
AcDbEntity
  8
ASSI
100
AcDbLine
 62
7
  6
CONTINUOUS
 10
7.815186007
 20
7.0718836908
 11
5.5082741817
 21
6.0813461923
  0
LINE
  5
247
100
AcDbEntity
  8
ASSI
100
AcDbLine
 62
7
  6
CONTINUOUS
 10
-1.2459424531
 20
3.8380937522
 11
-1.2449889426
 21
3.7953030248
  0
LWPOLYLINE
  5
248
100
AcDbEntity
  8
RACCORDO
100
AcDbPolyline
 62
7
  6
CONTINUOUS
 90
21
 70
0
 10
-1.2449885119
 20
3.795256461
 10
-1.2451147059
 20
3.7639988913
 10
-1.2465277368
 20
3.7198927046
 10
-1.2493875696
 20
3.6767264091
 10
-1.253684385
 20
3.634605757
 10
-1.259405434
 20
3.5935892797
 10
-1.2665431083
 20
3.5537025114
 10
-1.2750839604
 20
3.5150201496
 10
-1.285008187
 20
3.4776189135
 10
-1.2963031833
 20
3.4415388756
 10
-1.3089468431
 20
3.4068564755
 10
-1.3229124393
 20
3.373641939
 10
-1.338182244
 20
3.3419333452
 10
-1.3547235606
 20
3.311802839
 10
-1.3725066224
 20
3.2833043644
 10
-1.3915232201
 20
3.2564533809
 10
-1.4117371113
 20
3.2313128746
 10
-1.4331238463
 20
3.2079224367
 10
-1.4557090124
 20
3.1862708071
 10
-1.4794635115
 20
3.1664156164
 10
-1.5043811997
 20
3.1483901406
  0
LINE
  5
249
100
AcDbEntity
  8
ASSI
100
AcDbLine
 62
7
  6
CONTINUOUS
 10
-1.2449883158
 20
3.7952315177
 11
-1.2470336111
 21
3.7102974638
  0
LWPOLYLINE
  5
24A
100
AcDbEntity
  8
ASSI
100
AcDbPolyline
 62
7
  6
CONTINUOUS
 90
9
 70
0
 10
-1.2470336111
 20
3.7102974638
 10
-1.256519413
 20
3.6128717111
 10
-1.2736055481
 20
3.5212029252
 10
-1.298159827
 20
3.4361138717
 10
-1.3298739198
 20
3.3586610406
 10
-1.368146415
 20
3.2899627613
 10
-1.412298774
 20
3.2306586337
 10
-1.4618615569
 20
3.1808569287
 10
-1.5165515568
 20
3.1405225378
  0
LINE
  5
24B
100
AcDbEntity
  8
RACCORDO
100
AcDbLine
 62
253
  6
CONTINUOUS
 10
9.5387828336
 20
6.2100852775
 11
5.7927095163
 21
4.3619629599
  0
LINE
  5
24C
100
AcDbEntity
  8
ASSI
100
AcDbLine
 62
253
  6
CONTINUOUS
 10
9.5387828336
 20
6.2100852775
 11
5.7927095163
 21
4.3619629599
  0
LINE
  5
24D
100
AcDbEntity
  8
RACCORDO
100
AcDbLine
 62
253
  6
CONTINUOUS
 10
9.6802041907
 20
5.9661893028
 11
5.9328872652
 21
4.1174534521
  0
LINE
  5
24E
100
AcDbEntity
  8
ASSI
100
AcDbLine
 62
253
  6
CONTINUOUS
 10
9.6802041907
 20
5.9661893028
 11
5.9328872652
 21
4.1174534521
  0
LINE
  5
24F
100
AcDbEntity
  8
CURVE
100
AcDbLine
 62
253
  6
CONTINUOUS
 10
-4.6238485307
 20
-0.0932143186
 11
0.3258989376
 21
-2.5680880527
  0
LINE
  5
250
100
AcDbEntity
  8
RACCORDO
100
AcDbLine
 62
253
  6
CONTINUOUS
 10
5.2319823491
 20
4.1181639188
 11
-9.7009010854
 21
11.5846056361
  0
LINE
  5
251
100
AcDbEntity
  8
ASSI
100
AcDbLine
 62
253
  6
CONTINUOUS
 10
5.2319823491
 20
4.1181639188
 11
-9.7009010854
 21
11.5846056361
  0
LINE
  5
252
100
AcDbEntity
  8
RACCORDO
100
AcDbLine
 62
253
  6
CONTINUOUS
 10
5.3721812014
 20
4.3615707839
 11
-9.5607255291
 21
11.8280241491
  0
LINE
  5
253
100
AcDbEntity
  8
ASSI
100
AcDbLine
 62
253
  6
CONTINUOUS
 10
5.3721812014
 20
4.3615707839
 11
-9.5607255291
 21
11.8280241491
  0
LINE
  5
254
100
AcDbEntity
  8
DRAFT
100
AcDbLine
 62
7
  6
CONTINUOUS
 10
-6.1589877079
 20
11.9149771371
 11
5.5082741817
 21
6.0813461923
  0
LINE
  5
255
100
AcDbEntity
  8
ASSI
100
AcDbLine
 62
7
  6
CONTINUOUS
 10
-6.1589877079
 20
11.9149771371
 11
5.5082741817
 21
6.0813461923
  0
LINE
  5
256
100
AcDbEntity
  8
RACCORDO
100
AcDbLine
 62
7
  6
CONTINUOUS
 10
9.6802041907
 20
5.9661893028
 11
9.6802041907
 21
-5.1189556502
  0
LINE
  5
257
100
AcDbEntity
  8
ASSI
100
AcDbLine
 62
7
  6
CONTINUOUS
 10
9.6802041907
 20
5.9661893028
 11
9.6802041907
 21
-5.1189556502
  0
LINE
  5
258
100
AcDbEntity
  8
RACCORDO
100
AcDbLine
 62
7
  6
CONTINUOUS
 10
9.6802041907
 20
-5.1189556502
 11
9.141320381
 21
-12.7935139672
  0
LINE
  5
259
100
AcDbEntity
  8
ASSI
100
AcDbLine
 62
7
  6
CONTINUOUS
 10
9.6802041907
 20
-5.1189556502
 11
9.141320381
 21
-12.7935139672
  0
LINE
  5
25A
100
AcDbEntity
  8
RACCORDO
100
AcDbLine
 62
7
  6
CONTINUOUS
 10
-5.9468556728
 20
13.9529045307
 11
-4.2232588461
 21
13.0911061174
  0
LINE
  5
25B
100
AcDbEntity
  8
ASSI
100
AcDbLine
 62
7
  6
CONTINUOUS
 10
-5.9468556728
 20
13.9529045307
 11
-4.2232588461
 21
13.0911061174
  0
LINE
  5
25C
100
AcDbEntity
  8
RACCORDO
100
AcDbLine
 62
7
  6
CONTINUOUS
 10
7.815186007
 20
7.0718836908
 11
9.5387828336
 21
6.2100852775
  0
LINE
  5
25D
100
AcDbEntity
  8
ASSI
100
AcDbLine
 62
7
  6
CONTINUOUS
 10
7.815186007
 20
7.0718836908
 11
9.5387828336
 21
6.2100852775
  0
LINE
  5
25E
100
AcDbEntity
  8
RACCORDO
100
AcDbLine
 62
253
  6
CONTINUOUS
 10
6.9179954999
 20
-13.7267754439
 11
9.141320381
 21
-12.7935139672
  0
LINE
  5
25F
100
AcDbEntity
  8
ASSI
100
AcDbLine
 62
253
  6
CONTINUOUS
 10
6.9179954999
 20
-13.7267754439
 11
9.141320381
 21
-12.7935139672
  0
LINE
  5
260
100
AcDbEntity
  8
RACCORDO
100
AcDbLine
 62
7
  6
CONTINUOUS
 10
6.7641882545
 20
-14.0079711423
 11
8.9749872046
 21
-13.0799675426
  0
LINE
  5
261
100
AcDbEntity
  8
ASSI
100
AcDbLine
 62
7
  6
CONTINUOUS
 10
6.7641882545
 20
-14.0079711423
 11
8.9749872046
 21
-13.0799675426
  0
LINE
  5
262
100
AcDbEntity
  8
RACCORDO
100
AcDbLine
 62
7
  6
CONTINUOUS
 10
6.7308375015
 20
-14.0214079735
 11
6.7641743756
 21
-14.0079767616
  0
LWPOLYLINE
  5
263
100
AcDbEntity
  8
ASSI
100
AcDbPolyline
 62
7
  6
CONTINUOUS
 90
3
 70
0
 10
6.6496050387
 20
-14.0494937262
 10
6.7389066745
 20
-14.0182594267
 10
6.764006206
 20
-14.0080472454
  0
ARC
  5
264
100
AcDbEntity
  8
ASSI
100
AcDbCircle
 62
253
  6
CONTINUOUS
 10
523.2594803602
 20
4.4148270425
 40
518.0275803887
100
AcDbArc
 50
180.1137635295
 51
180.3367370449
  0
ARC
  5
265
100
AcDbEntity
  8
RACCORDO
100
AcDbCircle
 62
253
  6
CONTINUOUS
 10
516.5755730739
 20
4.3632565774
 40
510.6427009096
100
AcDbArc
 50
180.0275799125
 51
181.2598968168
  0
ARC
  5
266
100
AcDbEntity
  8
ASSI
100
AcDbCircle
 62
253
  6
CONTINUOUS
 10
516.5755730739
 20
4.3632565774
 40
510.6427009096
100
AcDbArc
 50
180.0275799125
 51
181.2598968168
  0
ARC
  5
267
100
AcDbEntity
  8
RACCORDO
100
AcDbCircle
 62
253
  6
CONTINUOUS
 10
506.1074772011
 20
4.139356702
 40
500.1722280064
100
AcDbArc
 50
181.2606210499
 51
181.9896906447
  0
ARC
  5
268
100
AcDbEntity
  8
ASSI
100
AcDbCircle
 62
253
  6
CONTINUOUS
 10
506.1074772011
 20
4.139356702
 40
500.1722280064
100
AcDbArc
 50
181.2606210499
 51
181.9896906447
  0
ARC
  5
269
100
AcDbEntity
  8
ASSI
100
AcDbCircle
 62
253
  6
CONTINUOUS
 10
-2.8250022774
 20
3.7460873412
 40
1.6093869689
100
AcDbArc
 50
1.7736577592
 51
4.1484313484
  0
ARC
  5
26A
100
AcDbEntity
  8
RACCORDO
100
AcDbCircle
 62
253
  6
CONTINUOUS
 10
-2.7621427787
 20
3.7484078288
 40
1.5464863614
100
AcDbArc
 50
0.4239617853
 51
2.311089802
  0
ARC
  5
26B
100
AcDbEntity
  8
ASSI
100
AcDbCircle
 62
253
  6
CONTINUOUS
 10
-2.751830395
 20
3.7485808643
 40
1.5361729827
100
AcDbArc
 50
0.4203541752
 51
1.7651699455
  0
ARC
  5
26C
100
AcDbEntity
  8
ASSI
100
AcDbCircle
 62
253
  6
CONTINUOUS
 10
-2.6845445788
 20
3.7489969885
 40
1.4688859265
100
AcDbArc
 50
358.4706486447
 51
0.423378304
  0
ARC
  5
26D
100
AcDbEntity
  8
RACCORDO
100
AcDbCircle
 62
7
  6
CONTINUOUS
 10
-1.5986748705
 20
4.2832673743
 40
1.1007054639
100
AcDbArc
 50
237.1726665365
 51
240.9484598453
  0
ARC
  5
26E
100
AcDbEntity
  8
RACCORDO
100
AcDbCircle
 62
7
  6
CONTINUOUS
 10
-1.632082062
 20
4.2237207362
 40
1.0324284262
100
AcDbArc
 50
240.9644641986
 51
243.4252663163
  0
ARC
  5
26F
100
AcDbEntity
  8
RACCORDO
100
AcDbCircle
 62
253
  6
CONTINUOUS
 10
-8.7728997234
 20
-6.0270290569
 40
0.5575366565
100
AcDbArc
 50
237.2828405986
 51
239.1307429259
  0
ARC
  5
270
100
AcDbEntity
  8
RACCORDO
100
AcDbCircle
 62
253
  6
CONTINUOUS
 10
-8.7743687262
 20
-6.0294867051
 40
0.5546734408
100
AcDbArc
 50
239.1307359386
 51
240.8543340768
  0
ARC
  5
271
100
AcDbEntity
  8
ASSI
100
AcDbCircle
 62
253
  6
CONTINUOUS
 10
-8.7743687262
 20
-6.0294867051
 40
0.5546734408
100
AcDbArc
 50
239.1307359386
 51
240.8543340768
  0
ARC
  5
272
100
AcDbEntity
  8
RACCORDO
100
AcDbCircle
 62
253
  6
CONTINUOUS
 10
-8.7752681258
 20
-6.0310841157
 40
0.5528402515
100
AcDbArc
 50
240.8551146843
 51
241.1322443116
  0
ARC
  5
273
100
AcDbEntity
  8
ASSI
100
AcDbCircle
 62
253
  6
CONTINUOUS
 10
-8.7763804123
 20
-6.0331185592
 40
0.5505216817
100
AcDbArc
 50
240.8531004996
 51
243.4218763644
  0
ARC
  5
274
100
AcDbEntity
  8
RACCORDO
100
AcDbCircle
 62
253
  6
CONTINUOUS
 10
-8.7765129014
 20
-6.0333742523
 40
0.550233731
100
AcDbArc
 50
241.1306241623
 51
243.4223019094
  0
ARC
  5
275
100
AcDbEntity
  8
RACCORDO
100
AcDbCircle
 62
253
  6
CONTINUOUS
 10
-2.5298592825
 20
5.0405134138
 40
0.4867731251
100
AcDbArc
 50
115.4110493643
 51
121.2294727049
  0
ARC
  5
276
100
AcDbEntity
  8
RACCORDO
100
AcDbCircle
 62
253
  6
CONTINUOUS
 10
-1.7683160859
 20
3.5526988818
 40
0.4831159081
100
AcDbArc
 50
293.2646624662
 51
297.692312034
  0
ARC
  5
277
100
AcDbEntity
  8
RACCORDO
100
AcDbCircle
 62
253
  6
CONTINUOUS
 10
-1.7675751009
 20
3.55126927
 40
0.4815056969
100
AcDbArc
 50
297.693295414
 51
297.8122085731
  0
SPLINE
  5
278
100
AcDbEntity
  8
RACCORDO
100
AcDbSpline
 62
7
  6
CONTINUOUS
 70
0
 71
3
 72
10
 73
6
 74
4
 42
0.0000001
 43
0.0000001
 44
0.0000000001
 12
0.5309507646
 22
-0.2654753776
 32
0.0
 13
0.5366819963
 23
0.2536896016
 33
0.0
 40
0.0
 40
0.0
 40
0.0
 40
0.0
 40
0.3683960887
 40
0.69741576
 40
1.0
 40
1.0
 40
1.0
 40
1.0
 10
-2.0939541362
 20
3.3003667184
 30
0.0
 10
-2.0287540746
 20
3.2677666881
 30
0.0
 10
-1.8976688216
 20
3.2191870616
 30
0.0
 10
-1.697321152
 20
3.2049846506
 30
0.0
 10
-1.5738632313
 20
3.2383687909
 30
0.0
 10
-1.5197327266
 20
3.2639562827
 30
0.0
 11
-2.0939541362
 21
3.3003667184
 31
0.0
 11
-1.8878567895
 21
3.2272355094
 31
0.0
 11
-1.6928613448
 21
3.2161027233
 31
0.0
 11
-1.5197327266
 21
3.2639562827
 31
0.0
  0
SPLINE
  5
279
100
AcDbEntity
  8
RACCORDO
100
AcDbSpline
 62
7
  6
CONTINUOUS
 70
0
 71
3
 72
14
 73
10
 74
8
 42
0.0000001
 43
0.0000001
 44
0.0000000001
 12
-2.1334127319
 22
-1.1262489471
 32
0.0
 13
2.0328953942
 23
-1.3102034695
 33
0.0
 40
0.0
 40
0.0
 40
0.0
 40
0.0
 40
0.1126354234
 40
0.2431064815
 40
0.3946442942
 40
0.5607875776
 40
0.7319683022
 40
0.897607205
 40
1.0
 40
1.0
 40
1.0
 40
1.0
 10
-2.5990756395
 20
5.4226422099
 30
0.0
 10
-2.6791749216
 20
5.3803570342
 30
0.0
 10
-2.827958039
 20
5.2389176315
 30
0.0
 10
-2.9357484271
 20
4.9315073635
 30
0.0
 10
-2.9370521076
 20
4.5663121893
 30
0.0
 10
-2.8397992895
 20
4.1818892078
 30
0.0
 10
-2.6575748657
 20
3.8173067699
 30
0.0
 10
-2.4344013847
 20
3.5401378268
 30
0.0
 10
-2.264761986
 20
3.4030541431
 30
0.0
 10
-2.1953773722
 20
3.358335678
 30
0.0
 11
-2.5990756395
 21
5.4226422099
 31
0.0
 11
-2.7993579791
 21
5.2390056849
 31
0.0
 11
-2.913683065
 21
4.9457482613
 31
0.0
 11
-2.9224190812
 21
4.5802761977
 31
0.0
 11
-2.8274331148
 21
4.1908825748
 31
0.0
 11
-2.6428809103
 21
3.8214510517
 31
0.0
 11
-2.3894913096
 21
3.5124696412
 31
0.0
 11
-2.1953773722
 21
3.358335678
 31
0.0
  0
SPLINE
  5
27A
100
AcDbEntity
  8
RACCORDO
100
AcDbSpline
 62
253
  6
CONTINUOUS
 70
0
 71
3
 72
9
 73
5
 74
3
 42
0.0000001
 43
0.0000001
 44
0.0000000001
 12
0.3395855464
 22
0.1619021856
 32
0.0
 13
0.150727241
 23
0.3448598941
 33
0.0
 40
0.0
 40
0.0
 40
0.0
 40
0.0
 40
0.6211298308
 40
1.0
 40
1.0
 40
1.0
 40
1.0
 10
-1.5197405724
 20
3.263986526
 30
0.0
 10
-1.449431668
 20
3.297507285
 30
0.0
 10
-1.3504260091
 20
3.3825002523
 30
0.0
 10
-1.2884495983
 20
3.4920798367
 30
0.0
 10
-1.2694142466
 20
3.5356322121
 30
0.0
 11
-1.5197405724
 21
3.263986526
 31
0.0
 11
-1.3407268995
 21
3.4125761924
 31
0.0
 11
-1.2694142466
 21
3.5356322121
 31
0.0
  0
SPLINE
  5
27B
100
AcDbEntity
  8
RACCORDO
100
AcDbSpline
 62
253
  6
CONTINUOUS
 70
0
 71
3
 72
8
 73
4
 74
2
 42
0.0000001
 43
0.0000001
 44
0.0000000001
 12
0.0835988337
 22
-0.0417994168
 32
0.0
 13
0.0882735387
 23
-0.032464483
 33
0.0
 40
0.0
 40
0.0
 40
0.0
 40
0.0
 40
1.0
 40
1.0
 40
1.0
 40
1.0
 10
-2.1195001184
 20
3.3449931921
 30
0.0
 10
-2.0916338405
 20
3.3310600532
 30
0.0
 10
-2.0629025331
 20
3.318434849
 30
0.0
 10
-2.0334780202
 20
3.3076133547
 30
0.0
 11
-2.1195001184
 21
3.3449931921
 31
0.0
 11
-2.0334780202
 21
3.3076133547
 31
0.0
  0
SPLINE
  5
27C
100
AcDbEntity
  8
RACCORDO
100
AcDbSpline
 62
253
  6
CONTINUOUS
 70
0
 71
3
 72
10
 73
6
 74
4
 42
0.0000001
 43
0.0000001
 44
0.0000000001
 12
0.4497329471
 22
-0.165398916
 32
0.0
 13
0.3975809252
 23
0.2706053485
 33
0.0
 40
0.0
 40
0.0
 40
0.0
 40
0.0
 40
0.3604798126
 40
0.8430695357
 40
1.0
 40
1.0
 40
1.0
 40
1.0
 10
-2.0334780202
 20
3.3076133547
 30
0.0
 10
-1.9794381374
 20
3.2877390313
 30
0.0
 10
-1.8475844252
 20
3.2554866099
 30
0.0
 10
-1.6829232261
 20
3.276626837
 30
0.0
 10
-1.5934257018
 20
3.3268515
 30
0.0
 10
-1.5726281821
 20
3.3410069076
 30
0.0
 11
-2.0334780202
 21
3.3076133547
 31
0.0
 11
-1.8654083091
 21
3.2693130105
 31
0.0
 11
-1.638300706
 21
3.3044126608
 31
0.0
 11
-1.5726281821
 21
3.3410069076
 31
0.0
  0
SPLINE
  5
27D
100
AcDbEntity
  8
RACCORDO
100
AcDbSpline
 62
253
  6
CONTINUOUS
 70
0
 71
3
 72
20
 73
16
 74
14
 42
0.0000001
 43
0.0000001
 44
0.0000000001
 12
1.9147547356
 22
1.3032387614
 32
0.0
 13
-2.0512188492
 23
1.0256094246
 33
0.0
 40
0.0
 40
0.0
 40
0.0
 40
0.0
 40
0.0662565476
 40
0.172252553
 40
0.2807617212
 40
0.3876493116
 40
0.4891401078
 40
0.5827829581
 40
0.667365994
 40
0.7427209878
 40
0.8091277958
 40
0.8672357412
 40
0.9178505631
 40
0.9617902467
 40
1.0
 40
1.0
 40
1.0
 40
1.0
 10
-1.5726281821
 20
3.3410069076
 30
0.0
 10
-1.530339836
 20
3.369789608
 30
0.0
 10
-1.4329117246
 20
3.4642979645
 30
0.0
 10
-1.3467907842
 20
3.6666038121
 30
0.0
 10
-1.3204175231
 20
3.9130762626
 30
0.0
 10
-1.3445339445
 20
4.1554177123
 30
0.0
 10
-1.4029456757
 20
4.3795443069
 30
0.0
 10
-1.4830131344
 20
4.5783582573
 30
0.0
 10
-1.5751656729
 20
4.7493129742
 30
0.0
 10
-1.6724830858
 20
4.8927183937
 30
0.0
 10
-1.7701700098
 20
5.0104944316
 30
0.0
 10
-1.864978646
 20
5.1052829371
 30
0.0
 10
-1.9548330757
 20
5.1800076961
 30
0.0
 10
-2.0385431016
 20
5.2376258201
 30
0.0
 10
-2.0933745963
 20
5.2684466029
 30
0.0
 10
-2.1195001184
 20
5.281509364
 30
0.0
 11
-1.5726281821
 21
3.3410069076
 31
0.0
 11
-1.4619862946
 21
3.4468753727
 31
0.0
 11
-1.3593298075
 21
3.6672194491
 31
0.0
 11
-1.328930144
 21
3.914203221
 31
0.0
 11
-1.3513759076
 21
4.158302183
 31
0.0
 11
-1.409364281
 21
4.3837149216
 31
0.0
 11
-1.4894028519
 21
4.5829965963
 31
0.0
 11
-1.5814959482
 21
4.7537184293
 31
0.0
 11
-1.6786856917
 21
4.8966129674
 31
0.0
 11
-1.7760893552
 21
5.0136840945
 31
0.0
 11
-1.8705016128
 21
5.1077307601
 31
0.0
 11
-1.9598981015
 21
5.1817716094
 31
0.0
 11
-2.0430241852
 21
5.2387304052
 31
0.0
 11
-2.1195001184
 21
5.281509364
 31
0.0
  0
SPLINE
  5
27E
100
AcDbEntity
  8
RACCORDO
100
AcDbSpline
 62
253
  6
CONTINUOUS
 70
0
 71
3
 72
22
 73
18
 74
16
 42
0.0000001
 43
0.0000001
 44
0.0000000001
 12
-2.5607350466
 22
1.2803675233
 32
0.0
 13
2.5607350466
 23
-1.2803675233
 33
0.0
 40
0.0
 40
0.0
 40
0.0
 40
0.0
 40
0.0926031929
 40
0.1728708975
 40
0.252045775
 40
0.3369516027
 40
0.4238704212
 40
0.5094903106
 40
0.590787205
 40
0.6657976871
 40
0.733551015
 40
0.7939124321
 40
0.8471061098
 40
0.8936521728
 40
0.9341960337
 40
0.9693929376
 40
1.0
 40
1.0
 40
1.0
 40
1.0
 10
-2.1195001184
 20
5.281509364
 30
0.0
 10
-2.1985441988
 20
5.3210314042
 30
0.0
 10
-2.3590957141
 20
5.3751665818
 30
0.0
 10
-2.6086190141
 20
5.3431298935
 30
0.0
 10
-2.79609361
 20
5.1856839844
 30
0.0
 10
-2.8922102016
 20
4.9598985324
 30
0.0
 10
-2.9185833776
 20
4.7134259448
 30
0.0
 10
-2.8944670871
 20
4.4710844807
 30
0.0
 10
-2.8360551458
 20
4.2469579411
 30
0.0
 10
-2.7559876047
 20
4.0481440409
 30
0.0
 10
-2.663834923
 20
3.8771893957
 30
0.0
 10
-2.5665174207
 20
3.733784024
 30
0.0
 10
-2.4688304208
 20
3.6160080206
 30
0.0
 10
-2.3740217028
 20
3.5212195757
 30
0.0
 10
-2.2841672665
 20
3.4464947818
 30
0.0
 10
-2.2004571545
 20
3.3888767429
 30
0.0
 10
-2.1456256442
 20
3.358055955
 30
0.0
 10
-2.1195001184
 20
3.3449931921
 30
0.0
 11
-2.1195001184
 21
5.281509364
 31
0.0
 11
-2.3735907426
 21
5.3571901382
 31
0.0
 11
-2.6006998533
 21
5.322089734
 31
0.0
 11
-2.7770142057
 21
5.1796270517
 31
0.0
 11
-2.8796711069
 21
4.9592827682
 31
0.0
 11
-2.9100707951
 21
4.7122989839
 31
0.0
 11
-2.8876250626
 21
4.4682000063
 31
0.0
 11
-2.8296365583
 21
4.2427873332
 31
0.0
 11
-2.7495978743
 21
4.0435057151
 31
0.0
 11
-2.6575046529
 21
3.8727839446
 31
0.0
 11
-2.5603148144
 21
3.729889454
 31
0.0
 11
-2.4629110707
 21
3.612818367
 31
0.0
 11
-2.3684987441
 21
3.5187717359
 31
0.0
 11
-2.2791022335
 21
3.4447308977
 31
0.0
 11
-2.1959760715
 21
3.387772141
 31
0.0
 11
-2.1195001184
 21
3.3449931921
 31
0.0
  0
SPLINE
  5
27F
100
AcDbEntity
  8
RACCORDO
100
AcDbSpline
 62
253
  6
CONTINUOUS
 70
0
 71
3
 72
10
 73
6
 74
4
 42
0.0000001
 43
0.0000001
 44
0.0000000001
 12
-0.3299144048
 22
0.0551632938
 32
0.0
 13
-0.2948151155
 23
-0.1575324314
 33
0.0
 40
0.0
 40
0.0
 40
0.0
 40
0.0
 40
0.1558001164
 40
0.902949814
 40
1.0
 40
1.0
 40
1.0
 40
1.0
 10
-2.2729658505
 20
5.4681881578
 30
0.0
 10
-2.290099418
 20
5.4710529737
 30
0.0
 10
-2.3901640498
 20
5.4836116898
 30
0.0
 10
-2.5049696855
 20
5.4688808362
 30
0.0
 10
-2.5894837355
 20
5.4276360245
 30
0.0
 10
-2.5990210227
 20
5.4225398406
 30
0.0
 11
-2.2729658505
 21
5.4681881578
 31
0.0
 11
-2.3247380162
 21
5.4746169762
 31
0.0
 11
-2.569888128
 21
5.4367383842
 31
0.0
 11
-2.5990210227
 21
5.4225398406
 31
0.0
  0
SPLINE
  5
280
100
AcDbEntity
  8
RACCORDO
100
AcDbSpline
 62
253
  6
CONTINUOUS
 70
0
 71
3
 72
25
 73
21
 74
19
 42
0.0000001
 43
0.0000001
 44
0.0000000001
 12
-2.3248498876
 22
-1.0001863859
 32
0.0
 13
-0.0204362378
 23
2.5263069234
 33
0.0
 40
0.0
 40
0.0
 40
0.0
 40
0.0
 40
0.0267192735
 40
0.0677533337
 40
0.1107331811
 40
0.1563602845
 40
0.2050655163
 40
0.2570134971
 40
0.3121554317
 40
0.3702585293
 40
0.4309683043
 40
0.4938385151
 40
0.5583065137
 40
0.6236700999
 40
0.6892836167
 40
0.7546938874
 40
0.8193502232
 40
0.8823545119
 40
0.9428153147
 40
1.0
 40
1.0
 40
1.0
 40
1.0
 10
-1.5774954622
 20
3.10886505
 30
0.0
 10
-1.5982015622
 20
3.0999569654
 30
0.0
 10
-1.6522731945
 20
3.0809946207
 30
0.0
 10
-1.7448323176
 20
3.0654437282
 30
0.0
 10
-1.8545599653
 20
3.0678669635
 30
0.0
 10
-1.9685764048
 20
3.0898347797
 30
0.0
 10
-2.0851599215
 20
3.1308199814
 30
0.0
 10
-2.2025733563
 20
3.1900803427
 30
0.0
 10
-2.3190472114
 20
3.2666388154
 30
0.0
 10
-2.4328183039
 20
3.3592853694
 30
0.0
 10
-2.5421617359
 20
3.466592733
 30
0.0
 10
-2.6453976687
 20
3.5869181196
 30
0.0
 10
-2.7408728744
 20
3.718349917
 30
0.0
 10
-2.8270533515
 20
3.8587643523
 30
0.0
 10
-2.9026505708
 20
4.0060382282
 30
0.0
 10
-2.9665661791
 20
4.1581032086
 30
0.0
 10
-3.0177286006
 20
4.3126149869
 30
0.0
 10
-3.0551664158
 20
4.4667448613
 30
0.0
 10
-3.0782493022
 20
4.6173047928
 30
0.0
 10
-3.0841783298
 20
4.716383521
 30
0.0
 10
-3.0845678764
 20
4.7645388765
 30
0.0
 11
-1.5774954622
 21
3.10886505
 31
0.0
 11
-1.6412474471
 21
3.0864702052
 31
0.0
 11
-1.7434167403
 21
3.0689061975
 31
0.0
 11
-1.8519846996
 21
3.0707631323
 31
0.0
 11
-1.9652843234
 21
3.0919949956
 31
0.0
 11
-2.0815538843
 21
3.1322727253
 31
0.0
 11
-2.1989425236
 21
3.1909588806
 31
0.0
 11
-2.3155886508
 21
3.2671229114
 31
0.0
 11
-2.4296305126
 21
3.3595462263
 31
0.0
 11
-2.5392853309
 21
3.4667851407
 31
0.0
 11
-2.6428588511
 21
3.5872051164
 31
0.0
 11
-2.7386841623
 21
3.7189038769
 31
0.0
 11
-2.8251162827
 21
3.8596116874
 31
0.0
 11
-2.9008130039
 21
4.0070842029
 31
0.0
 11
-2.9647848029
 21
4.1594514402
 31
0.0
 11
-3.0160056298
 21
4.3145601108
 31
0.0
 11
-3.0533824107
 21
4.4692828975
 31
0.0
 11
-3.0762635575
 21
4.6203069509
 31
0.0
 11
-3.0845678764
 21
4.7645388765
 31
0.0
  0
SPLINE
  5
281
100
AcDbEntity
  8
RACCORDO
100
AcDbSpline
 62
253
  6
CONTINUOUS
 70
0
 71
3
 72
11
 73
7
 74
5
 42
0.0000001
 43
0.0000001
 44
0.0000000001
 12
0.0847555746
 22
0.0449312092
 32
0.0
 13
0.085994776
 23
-0.0415064383
 33
0.0
 40
0.0
 40
0.0
 40
0.0
 40
0.0
 40
0.0328334328
 40
0.3273058314
 40
0.6454080415
 40
1.0
 40
1.0
 40
1.0
 40
1.0
 10
-9.6566328203
 20
12.0447463237
 30
0.0
 10
-9.6557052148
 20
12.0452380723
 30
0.0
 10
-9.6463571529
 20
12.0499463817
 30
0.0
 10
-9.6260524522
 20
12.0552794657
 30
0.0
 10
-9.5949065677
 20
12.052818551
 30
0.0
 10
-9.5745609769
 20
12.0454219802
 30
0.0
 10
-9.5643966248
 20
12.0405160305
 30
0.0
 11
-9.6566328203
 21
12.0447463237
 31
0.0
 11
-9.6538201771
 21
12.0461625296
 31
0.0
 11
-9.6266906792
 21
12.0535543255
 31
0.0
 11
-9.5963762286
 21
12.0516401708
 31
0.0
 11
-9.5643966248
 21
12.0405160305
 31
0.0
  0
SPLINE
  5
282
100
AcDbEntity
  8
RACCORDO
100
AcDbSpline
 62
253
  6
CONTINUOUS
 70
0
 71
3
 72
12
 73
8
 74
6
 42
0.0000001
 43
0.0000001
 44
0.0000000001
 12
0.0080563836
 22
-0.241968271
 32
0.0
 13
0.215443045
 23
-0.1079044076
 33
0.0
 40
0.0
 40
0.0
 40
0.0
 40
0.0
 40
0.0846371422
 40
0.2789746407
 40
0.492065353
 40
0.7314831739
 40
1.0
 40
1.0
 40
1.0
 40
1.0
 10
-9.5535537409
 20
-5.5917482543
 30
0.0
 10
-9.5533264512
 20
-5.5985747553
 30
0.0
 10
-9.5509364404
 20
-5.6210178694
 30
0.0
 10
-9.5371527041
 20
-5.6587489196
 30
0.0
 10
-9.50595666
 20
-5.7009936433
 30
0.0
 10
-9.4617245478
 20
-5.7389432666
 30
0.0
 10
-9.4263939815
 20
-5.7597340464
 30
0.0
 10
-9.4071106206
 20
-5.7693920961
 30
0.0
 11
-9.5535537409
 21
-5.5917482543
 31
0.0
 11
-9.5513769561
 21
-5.6120958354
 31
0.0
 11
-9.5358040789
 21
-5.6562569716
 31
0.0
 11
-9.5059099966
 21
-5.6980022674
 31
0.0
 11
-9.4625830196
 21
-5.7360912504
 31
0.0
 11
-9.4071106206
 21
-5.7693920961
 31
0.0
  0
SPLINE
  5
283
100
AcDbEntity
  8
RACCORDO
100
AcDbSpline
 62
253
  6
CONTINUOUS
 70
0
 71
3
 72
11
 73
7
 74
5
 42
0.0000001
 43
0.0000001
 44
0.0000000001
 12
-0.5827885381
 22
17.347419697
 32
0.0
 13
-0.0096986774
 23
17.3572036503
 33
0.0
 40
0.0
 40
0.0
 40
0.0
 40
0.0
 40
0.2483879525
 40
0.4978454065
 40
0.7483799274
 40
1.0
 40
1.0
 40
1.0
 40
1.0
 10
-9.4071112081
 20
-5.7693746507
 30
0.0
 10
-9.4553637587
 20
-4.3330779641
 30
0.0
 10
-9.5399595124
 20
-1.4538790155
 30
0.0
 10
-9.6310821119
 20
2.8751380324
 30
0.0
 10
-9.6867167187
 20
7.2234579687
 30
0.0
 10
-9.7000876247
 20
10.1287986885
 30
0.0
 10
-9.7009010854
 20
11.5846056361
 30
0.0
 11
-9.4071112081
 21
-5.7693746507
 31
0.0
 11
-9.5338089591
 21
-1.4599157513
 31
0.0
 11
-9.6250093163
 21
2.8690081719
 31
0.0
 11
-9.6807123704
 21
7.2172307737
 31
0.0
 11
-9.7009010854
 21
11.5846056361
 31
0.0
  0
SPLINE
  5
284
100
AcDbEntity
  8
RACCORDO
100
AcDbSpline
 62
253
  6
CONTINUOUS
 70
0
 71
3
 72
19
 73
15
 74
13
 42
0.0000001
 43
0.0000001
 44
0.0000000001
 12
0.0358343204
 22
-1.0299006361
 32
0.0
 13
0.9502173517
 23
0.3988312968
 33
0.0
 40
0.0
 40
0.0
 40
0.0
 40
0.0
 40
0.0989515448
 40
0.1924322361
 40
0.2804644318
 40
0.3634604866
 40
0.4422569605
 40
0.5180992661
 40
0.5925624004
 40
0.667392461
 40
0.7442933308
 40
0.8247208973
 40
0.9097432116
 40
1.0
 40
1.0
 40
1.0
 40
1.0
 10
6.2368078406
 20
-13.2264597758
 30
0.0
 10
6.2379897943
 20
-13.2604298621
 30
0.0
 10
6.2436778691
 20
-13.3264460262
 30
0.0
 10
6.2631921299
 20
-13.4210357567
 30
0.0
 10
6.2932280471
 20
-13.5071076822
 30
0.0
 10
6.3334301518
 20
-13.5833317356
 30
0.0
 10
6.3833016947
 20
-13.6484912169
 30
0.0
 10
6.4421629761
 20
-13.7014516921
 30
0.0
 10
6.509086937
 20
-13.7412192077
 30
0.0
 10
6.5828980114
 20
-13.7670582547
 30
0.0
 10
6.6622733885
 20
-13.7785840857
 30
0.0
 10
6.745874889
 20
-13.7757386914
 30
0.0
 10
6.8323764143
 20
-13.7587216205
 30
0.0
 10
6.8894076444
 20
-13.7387745212
 30
0.0
 10
6.9179954999
 20
-13.7267754439
 30
0.0
 11
6.2368078406
 21
-13.2264597758
 31
0.0
 11
6.24587587
 21
-13.328027708
 31
0.0
 11
6.2656883375
 21
-13.4223024214
 31
0.0
 11
6.2959462553
 21
-13.5078269545
 31
0.0
 11
6.3361897979
 21
-13.583297068
 31
0.0
 11
6.3858109962
 21
-13.6475733779
 31
0.0
 11
6.4440610523
 21
-13.6996837926
 31
0.0
 11
6.5100570303
 21
-13.7388367001
 31
0.0
 11
6.5827973956
 21
-13.7644381323
 31
0.0
 11
6.661182592
 21
-13.7761015437
 31
0.0
 11
6.7440288475
 21
-13.7736497945
 31
0.0
 11
6.8300732293
 21
-13.7571211911
 31
0.0
 11
6.9179954999
 21
-13.7267754439
 31
0.0
  0
SPLINE
  5
285
100
AcDbEntity
  8
RACCORDO
100
AcDbSpline
 62
253
  6
CONTINUOUS
 70
0
 71
3
 72
32
 73
28
 74
26
 42
0.0000001
 43
0.0000001
 44
0.0000000001
 12
-0.0268585246
 22
3.5901034385
 32
0.0
 13
0.1443713267
 23
-3.5884598174
 33
0.0
 40
0.0
 40
0.0
 40
0.0
 40
0.0
 40
0.0411212481
 40
0.0804024156
 40
0.1175156341
 40
0.1523463096
 40
0.1850591991
 40
0.2162233139
 40
0.2466172851
 40
0.2770276966
 40
0.3082022968
 40
0.3408226516
 40
0.3754183619
 40
0.4123181708
 40
0.451651834
 40
0.4933887285
 40
0.5373590991
 40
0.5833005663
 40
0.6308803482
 40
0.6796763176
 40
0.7291592866
 40
0.7788413516
 40
0.8283789517
 40
0.8773531692
 40
0.9250802582
 40
0.9708805577
 40
1.0
 40
1.0
 40
1.0
 40
1.0
 10
-3.2247415265
 20
4.7643723812
 30
0.0
 10
-3.2251096786
 20
4.8135822259
 30
0.0
 10
-3.2211070656
 20
4.9099304835
 30
0.0
 10
-3.1993911567
 20
5.0492129784
 30
0.0
 10
-3.1619931641
 20
5.1774027121
 30
0.0
 10
-3.1093528875
 20
5.2916229073
 30
0.0
 10
-3.042299368
 20
5.3896308024
 30
0.0
 10
-2.9618385811
 20
5.4697374539
 30
0.0
 10
-2.8691430833
 20
5.5305269726
 30
0.0
 10
-2.7658369822
 20
5.5707677413
 30
0.0
 10
-2.6539658518
 20
5.5897319297
 30
0.0
 10
-2.5356170252
 20
5.5873074028
 30
0.0
 10
-2.4127280092
 20
5.5637953681
 30
0.0
 10
-2.2871693902
 20
5.5197556683
 30
0.0
 10
-2.1608213797
 20
5.455985775
 30
0.0
 10
-2.0355911044
 20
5.3735400947
 30
0.0
 10
-1.9133715849
 20
5.2737269231
 30
0.0
 10
-1.7960082676
 20
5.1580909109
 30
0.0
 10
-1.6852927183
 20
5.0284107427
 30
0.0
 10
-1.5829833414
 20
4.8867561244
 30
0.0
 10
-1.4907070682
 20
4.7354260025
 30
0.0
 10
-1.4098255287
 20
4.5767184045
 30
0.0
 10
-1.3414965438
 20
4.4128715466
 30
0.0
 10
-1.2868494406
 20
4.2464204755
 30
0.0
 10
-1.2469090214
 20
4.0804200538
 30
0.0
 10
-1.2248829955
 20
3.9351245253
 30
0.0
 10
-1.2183156533
 20
3.8456015005
 30
0.0
 10
-1.2169143158
 20
3.8107701843
 30
0.0
 11
-3.2247415265
 21
4.7643723812
 31
0.0
 11
-3.2181760561
 21
4.9118599868
 31
0.0
 11
-3.19593165
 21
5.0511220212
 31
0.0
 11
-3.1580333361
 21
5.178862724
 31
0.0
 11
-3.1051204798
 21
5.2921655877
 31
0.0
 11
-3.0383290322
 21
5.3887702053
 31
0.0
 11
-2.9587452985
 21
5.4674137073
 31
0.0
 11
-2.867408764
 21
5.5271207659
 31
0.0
 11
-2.7657285913
 21
5.566886614
 31
0.0
 11
-2.655449302
 21
5.5859987747
 31
0.0
 11
-2.5383498378
 21
5.5841711682
 31
0.0
 11
-2.4162411876
 21
5.561444047
 31
0.0
 11
-2.2910320704
 21
5.5181652467
 31
0.0
 11
-2.1647216127
 21
5.4550178749
 31
0.0
 11
-2.0393144716
 21
5.3730040847
 31
0.0
 11
-1.9168093537
 21
5.2734395563
 31
0.0
 11
-1.7991141308
 21
5.1578853017
 31
0.0
 11
-1.6880363082
 21
5.0281102195
 31
0.0
 11
-1.5853495168
 21
4.8861733461
 31
0.0
 11
-1.492800111
 21
4.7345305656
 31
0.0
 11
-1.4118076882
 21
4.5756103462
 31
0.0
 11
-1.3434138181
 21
4.4114368663
 31
0.0
 11
-1.2887000819
 21
4.2443390175
 31
0.0
 11
-1.2488213369
 21
4.0776941803
 31
0.0
 11
-1.2244612505
 21
3.9150762078
 31
0.0
 11
-1.2169143158
 21
3.8107701843
 31
0.0
  0
SPLINE
  5
286
100
AcDbEntity
  8
RACCORDO
100
AcDbSpline
 62
253
  6
CONTINUOUS
 70
0
 71
3
 72
14
 73
10
 74
8
 42
0.0000001
 43
0.0000001
 44
0.0000000001
 12
-0.6996308843
 22
0.4494386689
 32
0.0
 13
-0.0280376488
 23
0.829627346
 33
0.0
 40
0.0
 40
0.0
 40
0.0
 40
0.0
 40
0.0451329533
 40
0.1831149597
 40
0.3272655377
 40
0.479922523
 40
0.6425933916
 40
0.8159553086
 40
1.0
 40
1.0
 40
1.0
 40
1.0
 10
-9.0742440036
 20
-6.4961119367
 30
0.0
 10
-9.0847694729
 20
-6.4893504386
 30
0.0
 10
-9.1265515964
 20
-6.4604840129
 30
0.0
 10
-9.1938681483
 20
-6.3990605607
 30
0.0
 10
-9.2664909003
 20
-6.3023529247
 30
0.0
 10
-9.3250088328
 20
-6.1888901332
 30
0.0
 10
-9.3687224879
 20
-6.0604704995
 30
0.0
 10
-9.3971236758
 20
-5.9190452927
 30
0.0
 10
-9.4053911397
 20
-5.8202708244
 30
0.0
 10
-9.4071111999
 20
-5.7693746548
 30
0.0
 11
-9.0742440036
 21
-6.4961119367
 31
0.0
 11
-9.1051157585
 21
-6.4747865981
 31
0.0
 11
-9.1899901418
 21
-6.3978741711
 31
0.0
 11
-9.2622926309
 21
-6.3025287215
 31
0.0
 11
-9.3209320244
 21
-6.190191903
 31
0.0
 11
-9.3650225017
 21
-6.0625595878
 31
0.0
 11
-9.3938933305
 21
-5.9215774673
 31
0.0
 11
-9.4071111999
 21
-5.7693746548
 31
0.0
  0
SPLINE
  5
287
100
AcDbEntity
  8
RACCORDO
100
AcDbSpline
 62
253
  6
CONTINUOUS
 70
0
 71
3
 72
32
 73
28
 74
26
 42
0.0000001
 43
0.0000001
 44
0.0000000001
 12
0.026291423
 22
-3.6377119464
 32
0.0
 13
-0.0274021686
 23
3.6377037489
 33
0.0
 40
0.0
 40
0.0
 40
0.0
 40
0.0
 40
0.0405636353
 40
0.0792949854
 40
0.1158668938
 40
0.1501649885
 40
0.182353851
 40
0.2130002308
 40
0.2428810987
 40
0.2727835989
 40
0.3034557187
 40
0.3355764279
 40
0.3696703201
 40
0.4060601525
 40
0.4448699637
 40
0.4860643499
 40
0.529470363
 40
0.5748240229
 40
0.6217926615
 40
0.6699564939
 40
0.7187913688
 40
0.7678153219
 40
0.8166900315
 40
0.8650040467
 40
0.9120861895
 40
0.9572703602
 40
1.0
 40
1.0
 40
1.0
 40
1.0
 10
-1.2156987545
 20
3.7598509952
 30
0.0
 10
-1.2153432626
 20
3.7106647216
 30
0.0
 10
-1.219340043
 20
3.6143857735
 30
0.0
 10
-1.2409526643
 20
3.4752266048
 30
0.0
 10
-1.278158155
 20
3.3471964884
 30
0.0
 10
-1.3305316896
 20
3.2331606874
 30
0.0
 10
-1.3972668808
 20
3.1353508427
 30
0.0
 10
-1.477383339
 20
3.0554481702
 30
0.0
 10
-1.5697311332
 20
2.9948644875
 30
0.0
 10
-1.6727020632
 20
2.9548253607
 30
0.0
 10
-1.7842635766
 20
2.9360446243
 30
0.0
 10
-1.9023449964
 20
2.9386163504
 30
0.0
 10
-2.0250281545
 20
2.9622253788
 30
0.0
 10
-2.1504591387
 20
3.0063048645
 30
0.0
 10
-2.2767682065
 20
3.0700560594
 30
0.0
 10
-2.4020515791
 20
3.1524273691
 30
0.0
 10
-2.5244128154
 20
3.2521164076
 30
0.0
 10
-2.6419970769
 20
3.3675869352
 30
0.0
 10
-2.7529983294
 20
3.4970706857
 30
0.0
 10
-2.855639516
 20
3.6385100019
 30
0.0
 10
-2.9482721747
 20
3.7896189289
 30
0.0
 10
-3.0295121174
 20
3.9481121534
 30
0.0
 10
-3.0981794278
 20
4.1117633085
 30
0.0
 10
-3.1531236914
 20
4.2780485896
 30
0.0
 10
-3.1933011201
 20
4.4439233064
 30
0.0
 10
-3.2180372579
 20
4.6059452455
 30
0.0
 10
-3.2243512316
 20
4.7125597909
 30
0.0
 10
-3.2247415265
 20
4.7643723812
 30
0.0
 11
-1.2156987545
 21
3.7598509952
 31
0.0
 11
-1.222257072
 21
3.6124341324
 31
0.0
 11
-1.2444020299
 21
3.4732881131
 31
0.0
 11
-1.2821143818
 21
3.3457035115
 31
0.0
 11
-1.334768109
 21
3.2325880841
 31
0.0
 11
-1.4012462371
 21
3.1361913262
 31
0.0
 11
-1.4804826229
 21
3.0577653281
 31
0.0
 11
-1.5714586788
 21
2.9982739214
 31
0.0
 11
-1.6727879333
 21
2.9587092041
 31
0.0
 11
-1.7827483157
 21
2.9397713171
 31
0.0
 11
-1.8995807418
 21
2.9417357028
 31
0.0
 11
-2.02149069
 21
2.9645536959
 31
0.0
 11
-2.1465818341
 21
3.0078717565
 31
0.0
 11
-2.2728625167
 21
3.0710042842
 31
0.0
 11
-2.3983299534
 21
3.1529500596
 31
0.0
 11
-2.5209816017
 21
3.2523977075
 31
0.0
 11
-2.6389002774
 21
3.3677934599
 31
0.0
 11
-2.7502643521
 21
3.4973780002
 31
0.0
 11
-2.8532819306
 21
3.6391037087
 31
0.0
 11
-2.9461851702
 21
3.7905275081
 31
0.0
 11
-3.0275322008
 21
3.9492338446
 31
0.0
 11
-3.0962602228
 21
4.1132098986
 31
0.0
 11
-3.1512672102
 21
4.2801373548
 31
0.0
 11
-3.1913794981
 21
4.4466497739
 31
0.0
 11
-3.2158996173
 21
4.6091818782
 31
0.0
 11
-3.2247415265
 21
4.7643723812
 31
0.0
  0
SPLINE
  5
288
100
AcDbEntity
  8
RACCORDO
100
AcDbSpline
 62
253
  6
CONTINUOUS
 70
0
 71
3
 72
17
 73
13
 74
11
 42
0.0000001
 43
0.0000001
 44
0.0000000001
 12
-0.3882100219
 22
-0.1914956984
 32
0.0
 13
-0.3871832493
 23
0.1935633102
 33
0.0
 40
0.0
 40
0.0
 40
0.0
 40
0.0
 40
0.0899749204
 40
0.1866926925
 40
0.2887145724
 40
0.3943429537
 40
0.501743173
 40
0.6089913359
 40
0.7141671611
 40
0.8154559107
 40
0.911195113
 40
1.0
 40
1.0
 40
1.0
 40
1.0
 10
5.7927095163
 20
4.3619629599
 30
0.0
 10
5.7810664611
 20
4.3562196898
 30
0.0
 10
5.7561456099
 20
4.3458155603
 30
0.0
 10
5.7162048271
 20
4.3337716802
 30
0.0
 10
5.6731273372
 20
4.3249391361
 30
0.0
 10
5.6279414691
 20
4.319535336
 30
0.0
 10
5.5817182303
 20
4.3176885492
 30
0.0
 10
5.5355565694
 20
4.3194439331
 30
0.0
 10
5.4905538692
 20
4.3247584336
 30
0.0
 10
5.4477764386
 20
4.3335058664
 30
0.0
 10
5.4082445298
 20
4.3454710233
 30
0.0
 10
5.3836424563
 20
4.3558409946
 30
0.0
 10
5.3721812014
 20
4.3615707839
 30
0.0
 11
5.7927095163
 21
4.3619629599
 31
0.0
 11
5.7568352001
 21
4.3467989756
 31
0.0
 11
5.7167884076
 21
4.3345905334
 31
0.0
 11
5.6735428677
 21
4.3256386332
 31
0.0
 11
5.6281485304
 21
4.3201620651
 31
0.0
 11
5.5816956573
 21
4.3182924852
 31
0.0
 11
5.5353052468
 21
4.320075405
 31
0.0
 11
5.4900980765
 21
4.3254674771
 31
0.0
 11
5.4471599817
 21
4.334339006
 31
0.0
 11
5.4075334076
 21
4.3464731298
 31
0.0
 11
5.3721812014
 21
4.3615707839
 31
0.0
  0
SPLINE
  5
289
100
AcDbEntity
  8
RACCORDO
100
AcDbSpline
 62
253
  6
CONTINUOUS
 70
0
 71
3
 72
15
 73
11
 74
9
 42
0.0000001
 43
0.0000001
 44
0.0000000001
 12
-0.1804002461
 22
0.0902133182
 32
0.0
 13
0.1189039078
 23
0.1633742119
 33
0.0
 40
0.0
 40
0.0
 40
0.0
 40
0.0
 40
0.1737705109
 40
0.3299747676
 40
0.4694134977
 40
0.5951779005
 40
0.7129962891
 40
0.8305469404
 40
0.9555843687
 40
1.0
 40
1.0
 40
1.0
 40
1.0
 10
-9.5607255291
 20
11.8280241491
 30
0.0
 10
-9.5711749434
 20
11.8332496206
 30
0.0
 10
-9.5904692153
 20
11.8443607124
 30
0.0
 10
-9.6152443364
 20
11.8641440795
 30
0.0
 10
-9.6337932357
 20
11.8858428005
 30
0.0
 10
-9.6455347327
 20
11.9091038662
 30
0.0
 10
-9.6498501008
 20
11.9333907216
 30
0.0
 10
-9.6463904034
 20
11.9577680103
 30
0.0
 10
-9.6381522733
 20
11.9754761129
 30
0.0
 10
-9.6317798735
 20
11.9849542648
 30
0.0
 10
-9.6300194761
 20
11.9873730544
 30
0.0
 11
-9.5607255291
 21
11.8280241491
 31
0.0
 11
-9.5909753718
 21
11.8457275194
 31
0.0
 11
-9.6154060362
 21
11.8656220148
 31
0.0
 11
-9.6334155356
 21
11.8872242829
 31
0.0
 11
-9.6445637089
 21
11.9100098825
 31
0.0
 11
-9.6485824253
 21
11.9334315261
 31
0.0
 11
-9.6453740542
 21
11.9569233569
 31
0.0
 11
-9.6350168015
 21
11.9799184673
 31
0.0
 11
-9.6300194761
 21
11.9873730544
 31
0.0
  0
SPLINE
  5
28A
100
AcDbEntity
  8
RACCORDO
100
AcDbSpline
 62
253
  6
CONTINUOUS
 70
0
 71
3
 72
10
 73
6
 74
4
 42
0.0000001
 43
0.0000001
 44
0.0000000001
 12
0.0501383954
 22
0.0688902575
 32
0.0
 13
0.075188527
 23
0.0397535984
 33
0.0
 40
0.0
 40
0.0
 40
0.0
 40
0.0
 40
0.2229233844
 40
0.5906320453
 40
1.0
 40
1.0
 40
1.0
 40
1.0
 10
-9.6300194761
 20
11.9873730544
 30
0.0
 10
-9.6262938025
 20
11.9924921375
 30
0.0
 10
-9.6153532514
 20
12.0052772304
 30
0.0
 10
-9.5935552882
 20
12.0236128064
 30
0.0
 10
-9.5746565493
 20
12.0350914141
 30
0.0
 10
-9.5643966248
 20
12.0405160305
 30
0.0
 11
-9.6300194761
 21
11.9873730544
 31
0.0
 11
-9.617759665
 21
12.0018645692
 31
0.0
 11
-9.5940244942
 21
12.0222288223
 31
0.0
 11
-9.5643966248
 21
12.0405160305
 31
0.0
  0
SPLINE
  5
28B
100
AcDbEntity
  8
RACCORDO
100
AcDbSpline
 62
253
  6
CONTINUOUS
 70
0
 71
3
 72
11
 73
7
 74
5
 42
0.0000001
 43
0.0000001
 44
0.0000000001
 12
0.0100459851
 22
-17.3626608548
 32
0.0
 13
0.6032800413
 23
-17.3521798651
 33
0.0
 40
0.0
 40
0.0
 40
0.0
 40
0.0
 40
0.2515625028
 40
0.502076692
 40
0.7515529309
 40
1.0
 40
1.0
 40
1.0
 40
1.0
 10
5.2319823491
 20
4.1181639188
 30
0.0
 10
5.2328247468
 20
2.6622324458
 30
0.0
 10
5.2467077008
 20
-0.243571234
 30
0.0
 10
5.3043061888
 20
-4.5928940986
 30
0.0
 10
5.398670084
 20
-8.9235401551
 30
0.0
 10
5.4862627084
 20
-11.8040093918
 30
0.0
 10
5.5362237611
 20
-13.2410421349
 30
0.0
 11
5.2319823491
 21
4.1181639188
 31
0.0
 11
5.2529113547
 21
-0.2495810888
 31
0.0
 11
5.3105915415
 21
-4.598792257
 31
0.0
 11
5.4050289781
 21
-8.9293347199
 31
0.0
 11
5.5362237611
 21
-13.2410421349
 31
0.0
  0
SPLINE
  5
28C
100
AcDbEntity
  8
RACCORDO
100
AcDbSpline
 62
253
  6
CONTINUOUS
 70
0
 71
3
 72
14
 73
10
 74
8
 42
0.0000001
 43
0.0000001
 44
0.0000000001
 12
-0.0021352354
 22
0.293580377
 32
0.0
 13
-0.2606943534
 23
0.1350275937
 33
0.0
 40
0.0
 40
0.0
 40
0.0
 40
0.0
 40
0.1375417359
 40
0.2843592423
 40
0.4361806324
 40
0.5881835054
 40
0.7355262397
 40
0.8738772597
 40
1.0
 40
1.0
 40
1.0
 40
1.0
 10
5.9328753089
 20
4.1174475535
 30
0.0
 10
5.9327774142
 20
4.130907405
 30
0.0
 10
5.9299897076
 20
4.1587472589
 30
0.0
 10
5.9193717745
 20
4.2002278014
 30
0.0
 10
5.9026650789
 20
4.2411877048
 30
0.0
 10
5.8806817007
 20
4.2796266738
 30
0.0
 10
5.8544749682
 20
4.3136955642
 30
0.0
 10
5.8253189289
 20
4.3417416901
 30
0.0
 10
5.8036693451
 20
4.3562862765
 30
0.0
 10
5.7927095163
 20
4.3619629599
 30
0.0
 11
5.9328753089
 21
4.1174475535
 31
0.0
 11
5.9291133644
 21
4.1576525589
 31
0.0
 11
5.918574738
 21
4.1994482731
 31
0.0
 11
5.9017877882
 21
4.2407392777
 31
0.0
 11
5.8795941321
 21
4.2794554632
 31
0.0
 11
5.8531064489
 21
4.3136558153
 31
0.0
 11
5.8236526932
 21
4.3416257274
 31
0.0
 11
5.7927095163
 21
4.3619629599
 31
0.0
  0
SPLINE
  5
28D
100
AcDbEntity
  8
RACCORDO
100
AcDbSpline
 62
253
  6
CONTINUOUS
 70
0
 71
3
 72
14
 73
10
 74
8
 42
0.0000001
 43
0.0000001
 44
0.0000000001
 12
-0.0001666295
 22
0.2930098836
 32
0.0
 13
0.260950915
 23
0.1332645476
 33
0.0
 40
0.0
 40
0.0
 40
0.0
 40
0.0
 40
0.137354997
 40
0.2837129603
 40
0.4350144585
 40
0.5866467148
 40
0.7339613452
 40
0.8727885915
 40
1.0
 40
1.0
 40
1.0
 40
1.0
 10
5.231993997
 20
4.1181580949
 30
0.0
 10
5.2319863679
 20
4.1315735521
 30
0.0
 10
5.2345788252
 20
4.159318255
 30
0.0
 10
5.2449997494
 20
4.2006500873
 30
0.0
 10
5.261599039
 20
4.2414230441
 30
0.0
 10
5.2835777004
 20
4.279666467
 30
0.0
 10
5.3098935096
 20
4.3135590531
 30
0.0
 10
5.339280683
 20
4.3414712455
 30
0.0
 10
5.3611158902
 20
4.3559198603
 30
0.0
 10
5.3721812014
 20
4.3615707839
 30
0.0
 11
5.231993997
 21
4.1181580949
 31
0.0
 11
5.2354819127
 21
4.1582530497
 31
0.0
 11
5.2458161406
 21
4.1998735983
 31
0.0
 11
5.2624837423
 21
4.2409539087
 31
0.0
 11
5.2846574227
 21
4.2794549631
 31
0.0
 11
5.3112365934
 21
4.3134657654
 31
0.0
 11
5.3409019995
 21
4.3412981923
 31
0.0
 11
5.3721812014
 21
4.3615707839
 31
0.0
  0
SPLINE
  5
28E
100
AcDbEntity
  8
RACCORDO
100
AcDbSpline
 62
253
  6
CONTINUOUS
 70
0
 71
3
 72
14
 73
10
 74
8
 42
0.0000001
 43
0.0000001
 44
0.0000000001
 12
-0.0001666322
 22
0.2930098843
 32
0.0
 13
0.2609509171
 23
0.1332645449
 33
0.0
 40
0.0
 40
0.0
 40
0.0
 40
0.0
 40
0.1373551825
 40
0.2837133145
 40
0.435014922
 40
0.5866471981
 40
0.7339617476
 40
0.872788823
 40
1.0
 40
1.0
 40
1.0
 40
1.0
 10
-9.7009127334
 20
11.5846114601
 30
0.0
 10
-9.7009203627
 20
11.5980269355
 30
0.0
 10
-9.6983278989
 20
11.6257716732
 30
0.0
 10
-9.6879069525
 20
11.667103547
 30
0.0
 10
-9.6713076368
 20
11.707876525
 30
0.0
 10
-9.6493289568
 20
11.7461199429
 30
0.0
 10
-9.6230131467
 20
11.7800124995
 30
0.0
 10
-9.5936259969
 20
11.8079246479
 30
0.0
 10
-9.5717908202
 20
11.8223732359
 30
0.0
 10
-9.5607255291
 20
11.8280241491
 30
0.0
 11
-9.7009127334
 21
11.5846114601
 31
0.0
 11
-9.697424809
 21
11.6247064688
 31
0.0
 11
-9.6870905581
 21
11.6663270628
 31
0.0
 11
-9.6704229292
 21
11.7074073967
 31
0.0
 11
-9.6482492291
 21
11.7459084467
 31
0.0
 11
-9.6216700579
 21
11.7799192186
 31
0.0
 11
-9.5920046777
 21
11.8077516
 31
0.0
 11
-9.5607255291
 21
11.8280241491
 31
0.0
  0
SPLINE
  5
28F
100
AcDbEntity
  8
RACCORDO
100
AcDbSpline
 62
253
  6
CONTINUOUS
 70
0
 71
3
 72
14
 73
10
 74
8
 42
0.0000001
 43
0.0000001
 44
0.0000000001
 12
-0.0063618531
 22
0.7889053253
 32
0.0
 13
0.6759016109
 23
0.4095786524
 33
0.0
 40
0.0
 40
0.0
 40
0.0
 40
0.0
 40
0.1739017859
 40
0.3399806681
 40
0.4968835058
 40
0.6441301847
 40
0.7824226442
 40
0.9141726329
 40
1.0
 40
1.0
 40
1.0
 40
1.0
 10
-3.0845678764
 20
4.7645388765
 30
0.0
 10
-3.0849366556
 20
4.8102695582
 30
0.0
 10
-3.0812651268
 20
4.8997977488
 30
0.0
 10
-3.0611501144
 20
5.0292199664
 30
0.0
 10
-3.0264520617
 20
5.1483249672
 30
0.0
 10
-2.977579105
 20
5.2544480528
 30
0.0
 10
-2.9153001493
 20
5.34550494
 30
0.0
 10
-2.8485547639
 20
5.4119565449
 30
0.0
 10
-2.8015720053
 20
5.445034296
 30
0.0
 10
-2.7822350534
 20
5.4567519818
 30
0.0
 11
-3.0845678764
 21
4.7645388765
 31
0.0
 11
-3.0785402836
 21
4.9016029102
 31
0.0
 11
-3.0579342374
 21
5.0309972008
 31
0.0
 11
-3.0227712223
 21
5.1496834029
 31
0.0
 11
-2.9736450028
 21
5.2549520818
 31
0.0
 11
-2.9116106019
 21
5.3447030844
 31
0.0
 11
-2.837677575
 21
5.4177631526
 31
0.0
 11
-2.7822350534
 21
5.4567519818
 31
0.0
  0
LINE
  5
290
100
AcDbEntity
  8
RACCORDO
100
AcDbLine
 62
253
  6
CONTINUOUS
 10
-2.7387381728
 20
5.4801924836
 11
-2.737901385
 21
5.4805890547
  0
SPLINE
  5
291
100
AcDbEntity
  8
RACCORDO
100
AcDbSpline
 62
253
  6
CONTINUOUS
 70
0
 71
3
 72
13
 73
9
 74
7
 42
0.0000001
 43
0.0000001
 44
0.0000000001
 12
-0.2159492194
 22
0.1079796307
 32
0.0
 13
-0.0001006786
 23
0.242249891
 33
0.0
 40
0.0
 40
0.0
 40
0.0
 40
0.0
 40
0.2420619941
 40
0.4593934318
 40
0.6532565223
 40
0.827923501
 40
0.9913738525
 40
1.0
 40
1.0
 40
1.0
 40
1.0
 10
-9.7009010834
 20
11.5846056308
 30
0.0
 10
-9.7183254497
 20
11.5933182191
 30
0.0
 10
-9.7504828961
 20
11.611827901
 30
0.0
 10
-9.7917764379
 20
11.6447538627
 30
0.0
 10
-9.8226845031
 20
11.6808289897
 30
0.0
 10
-9.8422550369
 20
11.719477457
 30
0.0
 10
-9.8472361765
 20
11.7473900804
 30
0.0
 10
-9.8473588513
 20
11.7612848957
 30
0.0
 10
-9.8473591408
 20
11.7619814568
 30
0.0
 11
-9.7009010834
 21
11.5846056308
 31
0.0
 11
-9.7513482492
 21
11.6141139865
 31
0.0
 11
-9.7920589478
 21
11.6472201952
 31
0.0
 11
-9.8220687448
 21
11.6831403424
 31
0.0
 11
-9.8406444703
 21
11.7210005834
 31
0.0
 11
-9.8473406483
 21
11.7598919166
 31
0.0
 11
-9.8473591408
 21
11.7619814568
 31
0.0
  0
SPLINE
  5
292
100
AcDbEntity
  8
RACCORDO
100
AcDbSpline
 62
253
  6
CONTINUOUS
 70
0
 71
3
 72
14
 73
10
 74
8
 42
0.0000001
 43
0.0000001
 44
0.0000000001
 12
0.0309975472
 22
-0.8964478619
 32
0.0
 13
0.8027049286
 23
-0.4035115767
 33
0.0
 40
0.0
 40
0.0
 40
0.0
 40
0.0
 40
0.1705247916
 40
0.3314848355
 40
0.4829539656
 40
0.6256264744
 40
0.7609349571
 40
0.8910293405
 40
1.0
 40
1.0
 40
1.0
 40
1.0
 10
5.536223753
 20
-13.2410421308
 30
0.0
 10
5.5379857031
 20
-13.2919976591
 30
0.0
 10
5.5464667372
 20
-13.3909828679
 30
0.0
 10
5.5755676357
 20
-13.532784709
 30
0.0
 10
5.6203547874
 20
-13.6617506272
 30
0.0
 10
5.6803008869
 20
-13.7759079939
 30
0.0
 10
5.7546706701
 20
-13.8734370003
 30
0.0
 10
5.8382924359
 20
-13.9488815291
 30
0.0
 10
5.8995244192
 20
-13.9864930595
 30
0.0
 10
5.9286815143
 20
-14.0011500337
 30
0.0
 11
5.536223753
 21
-13.2410421308
 31
0.0
 11
5.5497528865
 21
-13.393400575
 31
0.0
 11
5.5793035389
 21
-13.5347226074
 31
0.0
 11
5.6244322382
 21
-13.6628740338
 31
0.0
 11
5.6844524325
 21
-13.7759012528
 31
0.0
 11
5.758457464
 21
-13.8720979737
 31
0.0
 11
5.8453304249
 21
-13.9500096896
 31
0.0
 11
5.9286815143
 21
-14.0011500337
 31
0.0
  0
LINE
  5
293
100
AcDbEntity
  8
RACCORDO
100
AcDbLine
 62
253
  6
CONTINUOUS
 10
5.9286815143
 20
-14.0011500337
 11
5.9295755938
 21
-14.0015985032
  0
SPLINE
  5
294
100
AcDbEntity
  8
RACCORDO
100
AcDbSpline
 62
253
  6
CONTINUOUS
 70
0
 71
3
 72
17
 73
13
 74
11
 42
0.0000001
 43
0.0000001
 44
0.0000000001
 12
-0.6478787095
 22
-0.3171133083
 32
0.0
 13
-0.6451774021
 23
0.3225737007
 33
0.0
 40
0.0
 40
0.0
 40
0.0
 40
0.0
 40
0.0899352243
 40
0.1865809494
 40
0.2885603482
 40
0.3941667178
 40
0.5015619733
 40
0.6088199202
 40
0.7140203969
 40
0.8153431384
 40
0.9111132669
 40
1.0
 40
1.0
 40
1.0
 40
1.0
 10
5.932887265
 20
4.1174534056
 30
0.0
 10
5.9134648927
 20
4.1079468534
 30
0.0
 10
5.8719088488
 20
4.0907492578
 30
0.0
 10
5.8053308885
 20
4.070883885
 30
0.0
 10
5.7335414011
 20
4.0563646524
 30
0.0
 10
5.6582408493
 20
4.0475427976
 30
0.0
 10
5.5812142799
 20
4.0446281578
 30
0.0
 10
5.5042908422
 20
4.0476913716
 30
0.0
 10
5.4292970501
 20
4.0566579998
 30
0.0
 10
5.3580093292
 20
4.0713147751
 30
0.0
 10
5.2921151377
 20
4.0913074176
 30
0.0
 10
5.2510982549
 20
4.1086064061
 30
0.0
 10
5.231982351
 20
4.1181639136
 30
0.0
 11
5.932887265
 21
4.1174534056
 31
0.0
 11
5.8730566083
 21
4.092379111
 31
0.0
 11
5.8063148328
 21
4.0722441859
 31
0.0
 11
5.7342422599
 21
4.0575255308
 31
0.0
 11
5.6585926294
 21
4.0485828499
 31
0.0
 11
5.5811821809
 21
4.0456305027
 31
0.0
 11
5.5038770035
 21
4.0487398471
 31
0.0
 11
5.4285405355
 21
4.0578357027
 31
0.0
 11
5.3569815535
 21
4.0726999449
 31
0.0
 11
5.2909409011
 21
4.0929694115
 31
0.0
 11
5.231982351
 21
4.1181639136
 31
0.0
  0
SPLINE
  5
295
100
AcDbEntity
  8
RACCORDO
100
AcDbSpline
 62
253
  6
CONTINUOUS
 70
0
 71
3
 72
16
 73
12
 74
10
 42
0.0000001
 43
0.0000001
 44
0.0000000001
 12
-0.6379991046
 22
-0.3396733917
 32
0.0
 13
-0.6466996827
 23
0.3228008533
 33
0.0
 40
0.0
 40
0.0
 40
0.0
 40
0.0
 40
0.1015166317
 40
0.2107208998
 40
0.3256469076
 40
0.4439751589
 40
0.5631922282
 40
0.6807357597
 40
0.7941361023
 40
0.9011644343
 40
1.0
 40
1.0
 40
1.0
 40
1.0
 10
6.2368078406
 20
-13.2264597758
 30
0.0
 10
6.2152186672
 20
-13.237953942
 30
0.0
 10
6.1686934669
 20
-13.2586657458
 30
0.0
 10
6.0937254739
 20
-13.282259169
 30
0.0
 10
6.0128010306
 20
-13.2990098413
 30
0.0
 10
5.928286328
 20
-13.3084207388
 30
0.0
 10
5.8426383428
 20
-13.3102183038
 30
0.0
 10
5.7583597929
 20
-13.3043504904
 30
0.0
 10
5.67789739
 20
-13.2909875854
 30
0.0
 10
5.6036005356
 20
-13.2705272276
 30
0.0
 10
5.5575302977
 20
-13.2516941664
 30
0.0
 10
5.5362246547
 20
-13.2410594314
 30
0.0
 11
6.2368078406
 21
-13.2264597758
 31
0.0
 11
6.1699300335
 21
-13.2566464167
 31
0.0
 11
6.0947185537
 21
-13.2805922118
 31
0.0
 11
6.0134083282
 21
-13.2975856059
 31
0.0
 11
5.92841551
 21
-13.3071216363
 31
0.0
 11
5.842265681
 21
-13.3089169375
 31
0.0
 11
5.7575188042
 21
-13.3029181618
 31
0.0
 11
5.6766931533
 21
-13.2893035641
 31
0.0
 11
5.6021904818
 21
-13.2684777055
 31
0.0
 11
5.5362246547
 21
-13.2410594314
 31
0.0
  0
SPLINE
  5
296
100
AcDbEntity
  8
RACCORDO
100
AcDbSpline
 62
253
  6
CONTINUOUS
 70
0
 71
3
 72
13
 73
9
 74
7
 42
0.0000001
 43
0.0000001
 44
0.0000000001
 12
-0.0143748292
 22
-0.3372111877
 32
0.0
 13
-0.3122832359
 23
-0.1308988728
 33
0.0
 40
0.0
 40
0.0
 40
0.0
 40
0.0
 40
0.2203895712
 40
0.4242798477
 40
0.6117673044
 40
0.7852201422
 40
0.9494899101
 40
1.0
 40
1.0
 40
1.0
 40
1.0
 10
6.9179954999
 20
-13.7267754439
 30
0.0
 10
6.9169394791
 20
-13.7515480536
 30
0.0
 10
6.9116973367
 20
-13.7991996723
 30
0.0
 10
6.893264502
 20
-13.865859135
 30
0.0
 10
6.864915585
 20
-13.9232362544
 30
0.0
 10
6.8272217125
 20
-13.969494929
 30
0.0
 10
6.7913918463
 20
-13.9954224814
 30
0.0
 10
6.769442839
 20
-14.0057595233
 30
0.0
 10
6.7641850208
 20
-14.0079634279
 30
0.0
 11
6.9179954999
 21
-13.7267754439
 31
0.0
 11
6.9094585903
 21
-13.8006692698
 31
0.0
 11
6.8906395865
 21
-13.8668626157
 31
0.0
 11
6.8621096314
 21
-13.9233465626
 31
0.0
 11
6.824734588
 21
-13.9684068647
 31
0.0
 11
6.779648761
 21
-14.0006759752
 31
0.0
 11
6.7641850208
 21
-14.0079634279
 31
0.0
  0
SPLINE
  5
297
100
AcDbEntity
  8
ASSI
100
AcDbSpline
 62
253
  6
CONTINUOUS
 70
0
 71
3
 72
26
 73
22
 74
20
 42
0.0000001
 43
0.0000001
 44
0.0000000001
 12
-2.2740123845
 22
-1.1929185112
 32
0.0
 13
-0.0207368764
 23
2.5634715605
 33
0.0
 40
0.0
 40
0.0
 40
0.0
 40
0.0
 40
0.0014123126
 40
0.0408296797
 40
0.0812688373
 40
0.1236255724
 40
0.1685911843
 40
0.2165902985
 40
0.2677851492
 40
0.3221276484
 40
0.3793883802
 40
0.4392179985
 40
0.5011767311
 40
0.564710087
 40
0.6291260466
 40
0.6937883133
 40
0.7582502805
 40
0.8219692432
 40
0.8840601099
 40
0.9436443654
 40
1.0
 40
1.0
 40
1.0
 40
1.0
 10
-1.5438927445
 20
3.1248728117
 30
0.0
 10
-1.5449632833
 20
3.1243112204
 30
0.0
 10
-1.5759734821
 20
3.1081923409
 30
0.0
 10
-1.6411744728
 20
3.0828593211
 30
0.0
 10
-1.7448323176
 20
3.0654437282
 30
0.0
 10
-1.8545599653
 20
3.0678669635
 30
0.0
 10
-1.9685764048
 20
3.0898347797
 30
0.0
 10
-2.0851599215
 20
3.1308199814
 30
0.0
 10
-2.2025733563
 20
3.1900803427
 30
0.0
 10
-2.3190472114
 20
3.2666388154
 30
0.0
 10
-2.4328183039
 20
3.3592853694
 30
0.0
 10
-2.5421617359
 20
3.466592733
 30
0.0
 10
-2.6453976687
 20
3.5869181196
 30
0.0
 10
-2.7408728744
 20
3.718349917
 30
0.0
 10
-2.8270533515
 20
3.8587643523
 30
0.0
 10
-2.9026505708
 20
4.0060382282
 30
0.0
 10
-2.9665661791
 20
4.1581032086
 30
0.0
 10
-3.0177286006
 20
4.3126149869
 30
0.0
 10
-3.0551664158
 20
4.4667448613
 30
0.0
 10
-3.0782493022
 20
4.6173047928
 30
0.0
 10
-3.0841783298
 20
4.716383521
 30
0.0
 10
-3.0845678764
 20
4.7645388765
 30
0.0
 11
-1.5438927445
 21
3.1248728117
 31
0.0
 11
-1.5471106804
 21
3.1232001632
 31
0.0
 11
-1.6412474471
 21
3.0864702052
 31
0.0
 11
-1.7434167403
 21
3.0689061975
 31
0.0
 11
-1.8519846996
 21
3.0707631323
 31
0.0
 11
-1.9652843234
 21
3.0919949956
 31
0.0
 11
-2.0815538843
 21
3.1322727253
 31
0.0
 11
-2.1989425236
 21
3.1909588806
 31
0.0
 11
-2.3155886508
 21
3.2671229114
 31
0.0
 11
-2.4296305126
 21
3.3595462263
 31
0.0
 11
-2.5392853309
 21
3.4667851407
 31
0.0
 11
-2.6428588511
 21
3.5872051164
 31
0.0
 11
-2.7386841623
 21
3.7189038769
 31
0.0
 11
-2.8251162827
 21
3.8596116874
 31
0.0
 11
-2.9008130039
 21
4.0070842029
 31
0.0
 11
-2.9647848029
 21
4.1594514402
 31
0.0
 11
-3.0160056298
 21
4.3145601108
 31
0.0
 11
-3.0533824107
 21
4.4692828975
 31
0.0
 11
-3.0762635575
 21
4.6203069509
 31
0.0
 11
-3.0845678764
 21
4.7645388765
 31
0.0
  0
SPLINE
  5
298
100
AcDbEntity
  8
ASSI
100
AcDbSpline
 62
253
  6
CONTINUOUS
 70
0
 71
3
 72
8
 73
4
 74
2
 42
0.0000001
 43
0.0000001
 44
0.0000000001
 12
0.000423478
 22
-0.7319048631
 32
0.0
 13
0.0014543262
 23
-0.7319046652
 33
0.0
 40
0.0
 40
0.0
 40
0.0
 40
0.0
 40
1.0
 40
1.0
 40
1.0
 40
1.0
 10
5.2319823491
 20
4.1181639188
 30
0.0
 10
5.2321235084
 20
3.8741956311
 30
0.0
 10
5.2324363321
 20
3.6302272322
 30
0.0
 10
5.2329211075
 20
3.3862590105
 30
0.0
 11
5.2319823491
 21
4.1181639188
 31
0.0
 11
5.2329211075
 21
3.3862590105
 31
0.0
  0
SPLINE
  5
299
100
AcDbEntity
  8
ASSI
100
AcDbSpline
 62
253
  6
CONTINUOUS
 70
0
 71
3
 72
11
 73
7
 74
5
 42
0.0000001
 43
0.0000001
 44
0.0000000001
 12
0.0859153294
 22
-14.6146012205
 32
0.0
 13
0.5078031549
 23
-14.6059724782
 33
0.0
 40
0.0
 40
0.0
 40
0.0
 40
0.0
 40
0.1108416718
 40
0.4084574093
 40
0.7048400416
 40
1.0
 40
1.0
 40
1.0
 40
1.0
 10
5.2408465744
 20
1.3703083389
 30
0.0
 10
5.2440209073
 20
0.8303393947
 30
0.0
 10
5.2588368629
 20
-1.1594571177
 30
0.0
 10
5.3043061888
 20
-4.5928940986
 30
0.0
 10
5.398670084
 20
-8.9235401551
 30
0.0
 10
5.4862627084
 20
-11.8040093918
 30
0.0
 10
5.5362237611
 20
-13.2410421349
 30
0.0
 11
5.2408465744
 21
1.3703083389
 31
0.0
 11
5.2529113547
 21
-0.2495810888
 31
0.0
 11
5.3105915415
 21
-4.598792257
 31
0.0
 11
5.4050289781
 21
-8.9293347199
 31
0.0
 11
5.5362237611
 21
-13.2410421349
 31
0.0
  0
SPLINE
  5
29A
100
AcDbEntity
  8
ASSI
100
AcDbSpline
 62
253
  6
CONTINUOUS
 70
0
 71
3
 72
11
 73
7
 74
5
 42
0.0000001
 43
0.0000001
 44
0.0000000001
 12
0.0847410944
 22
0.0448531075
 32
0.0
 13
0.0859509054
 23
-0.0414852637
 33
0.0
 40
0.0
 40
0.0
 40
0.0
 40
0.0
 40
0.0323397767
 40
0.3269624784
 40
0.6452270526
 40
1.0
 40
1.0
 40
1.0
 40
1.0
 10
-9.6565895745
 20
12.0447692314
 30
0.0
 10
-9.6556760718
 20
12.0452527446
 30
0.0
 10
-9.6463411033
 20
12.0499505972
 30
0.0
 10
-9.6260524522
 20
12.0552794657
 30
0.0
 10
-9.5949065677
 20
12.052818551
 30
0.0
 10
-9.5745609769
 20
12.0454219802
 30
0.0
 10
-9.5643966248
 20
12.0405160305
 30
0.0
 11
-9.6565895745
 21
12.0447692314
 31
0.0
 11
-9.6538201771
 21
12.0461625296
 31
0.0
 11
-9.6266906792
 21
12.0535543255
 31
0.0
 11
-9.5963762286
 21
12.0516401708
 31
0.0
 11
-9.5643966248
 21
12.0405160305
 31
0.0
  0
SPLINE
  5
29B
100
AcDbEntity
  8
ASSI
100
AcDbSpline
 62
253
  6
CONTINUOUS
 70
0
 71
3
 72
19
 73
15
 74
13
 42
0.0000001
 43
0.0000001
 44
0.0000000001
 12
0.0358343204
 22
-1.0299006361
 32
0.0
 13
0.9502173517
 23
0.3988312968
 33
0.0
 40
0.0
 40
0.0
 40
0.0
 40
0.0
 40
0.0989515448
 40
0.1924322361
 40
0.2804644318
 40
0.3634604866
 40
0.4422569605
 40
0.5180992661
 40
0.5925624004
 40
0.667392461
 40
0.7442933308
 40
0.8247208973
 40
0.9097432116
 40
1.0
 40
1.0
 40
1.0
 40
1.0
 10
6.2368078406
 20
-13.2264597758
 30
0.0
 10
6.2379897943
 20
-13.2604298621
 30
0.0
 10
6.2436778691
 20
-13.3264460262
 30
0.0
 10
6.2631921299
 20
-13.4210357567
 30
0.0
 10
6.2932280471
 20
-13.5071076822
 30
0.0
 10
6.3334301518
 20
-13.5833317356
 30
0.0
 10
6.3833016947
 20
-13.6484912169
 30
0.0
 10
6.4421629761
 20
-13.7014516921
 30
0.0
 10
6.509086937
 20
-13.7412192077
 30
0.0
 10
6.5828980114
 20
-13.7670582547
 30
0.0
 10
6.6622733885
 20
-13.7785840857
 30
0.0
 10
6.745874889
 20
-13.7757386914
 30
0.0
 10
6.8323764143
 20
-13.7587216205
 30
0.0
 10
6.8894076444
 20
-13.7387745212
 30
0.0
 10
6.9179954999
 20
-13.7267754439
 30
0.0
 11
6.2368078406
 21
-13.2264597758
 31
0.0
 11
6.24587587
 21
-13.328027708
 31
0.0
 11
6.2656883375
 21
-13.4223024214
 31
0.0
 11
6.2959462553
 21
-13.5078269545
 31
0.0
 11
6.3361897979
 21
-13.583297068
 31
0.0
 11
6.3858109962
 21
-13.6475733779
 31
0.0
 11
6.4440610523
 21
-13.6996837926
 31
0.0
 11
6.5100570303
 21
-13.7388367001
 31
0.0
 11
6.5827973956
 21
-13.7644381323
 31
0.0
 11
6.661182592
 21
-13.7761015437
 31
0.0
 11
6.7440288475
 21
-13.7736497945
 31
0.0
 11
6.8300732293
 21
-13.7571211911
 31
0.0
 11
6.9179954999
 21
-13.7267754439
 31
0.0
  0
SPLINE
  5
29C
100
AcDbEntity
  8
ASSI
100
AcDbSpline
 62
253
  6
CONTINUOUS
 70
0
 71
3
 72
12
 73
8
 74
6
 42
0.0000001
 43
0.0000001
 44
0.0000000001
 12
0.0080909092
 22
-0.2419465937
 32
0.0
 13
0.2154248525
 23
-0.1078952959
 33
0.0
 40
0.0
 40
0.0
 40
0.0
 40
0.0
 40
0.0845598402
 40
0.2789137504
 40
0.4920224582
 40
0.7314604977
 40
1.0
 40
1.0
 40
1.0
 40
1.0
 10
-9.5535530591
 20
-5.5917686867
 30
0.0
 10
-9.5533250038
 20
-5.5985883418
 30
0.0
 10
-9.550934075
 20
-5.6210243443
 30
0.0
 10
-9.5371527041
 20
-5.6587489196
 30
0.0
 10
-9.50595666
 20
-5.7009936433
 30
0.0
 10
-9.4617245478
 20
-5.7389432666
 30
0.0
 10
-9.4263939815
 20
-5.7597340464
 30
0.0
 10
-9.4071106206
 20
-5.7693920961
 30
0.0
 11
-9.5535530591
 21
-5.5917686867
 31
0.0
 11
-9.5513769561
 21
-5.6120958354
 31
0.0
 11
-9.5358040789
 21
-5.6562569716
 31
0.0
 11
-9.5059099966
 21
-5.6980022674
 31
0.0
 11
-9.4625830196
 21
-5.7360912504
 31
0.0
 11
-9.4071106206
 21
-5.7693920961
 31
0.0
  0
SPLINE
  5
29D
100
AcDbEntity
  8
ASSI
100
AcDbSpline
 62
253
  6
CONTINUOUS
 70
0
 71
3
 72
14
 73
10
 74
8
 42
0.0000001
 43
0.0000001
 44
0.0000000001
 12
-0.7291948935
 22
0.4358697704
 32
0.0
 13
-0.028643939
 23
0.847567329
 33
0.0
 40
0.0
 40
0.0
 40
0.0
 40
0.0
 40
0.0653440893
 40
0.2004055078
 40
0.3415049313
 40
0.4909307116
 40
0.6501584171
 40
0.8198508795
 40
1.0
 40
1.0
 40
1.0
 40
1.0
 10
-9.0589610606
 20
-6.505585255
 30
0.0
 10
-9.0748439193
 20
-6.4960914172
 30
0.0
 10
-9.1221036397
 20
-6.4645425818
 30
0.0
 10
-9.1938681483
 20
-6.3990605607
 30
0.0
 10
-9.2664909003
 20
-6.3023529247
 30
0.0
 10
-9.3250088328
 20
-6.1888901332
 30
0.0
 10
-9.3687224879
 20
-6.0604704995
 30
0.0
 10
-9.3971236758
 20
-5.9190452927
 30
0.0
 10
-9.4053911397
 20
-5.8202708244
 30
0.0
 10
-9.4071111999
 20
-5.7693746548
 30
0.0
 11
-9.0589610606
 21
-6.505585255
 31
0.0
 11
-9.1051157585
 21
-6.4747865981
 31
0.0
 11
-9.1899901418
 21
-6.3978741711
 31
0.0
 11
-9.2622926309
 21
-6.3025287215
 31
0.0
 11
-9.3209320244
 21
-6.190191903
 31
0.0
 11
-9.3650225017
 21
-6.0625595878
 31
0.0
 11
-9.3938933305
 21
-5.9215774673
 31
0.0
 11
-9.4071111999
 21
-5.7693746548
 31
0.0
  0
SPLINE
  5
29E
100
AcDbEntity
  8
ASSI
100
AcDbSpline
 62
253
  6
CONTINUOUS
 70
0
 71
3
 72
11
 73
7
 74
5
 42
0.0000001
 43
0.0000001
 44
0.0000000001
 12
-0.5827885381
 22
17.347419697
 32
0.0
 13
-0.0096986774
 23
17.3572036503
 33
0.0
 40
0.0
 40
0.0
 40
0.0
 40
0.0
 40
0.2483879525
 40
0.4978454065
 40
0.7483799274
 40
1.0
 40
1.0
 40
1.0
 40
1.0
 10
-9.4071112081
 20
-5.7693746507
 30
0.0
 10
-9.4553637587
 20
-4.3330779641
 30
0.0
 10
-9.5399595124
 20
-1.4538790155
 30
0.0
 10
-9.6310821119
 20
2.8751380324
 30
0.0
 10
-9.6867167187
 20
7.2234579687
 30
0.0
 10
-9.7000876247
 20
10.1287986885
 30
0.0
 10
-9.7009010854
 20
11.5846056361
 30
0.0
 11
-9.4071112081
 21
-5.7693746507
 31
0.0
 11
-9.5338089591
 21
-1.4599157513
 31
0.0
 11
-9.6250093163
 21
2.8690081719
 31
0.0
 11
-9.6807123704
 21
7.2172307737
 31
0.0
 11
-9.7009010854
 21
11.5846056361
 31
0.0
  0
SPLINE
  5
29F
100
AcDbEntity
  8
ASSI
100
AcDbSpline
 62
253
  6
CONTINUOUS
 70
0
 71
3
 72
17
 73
13
 74
11
 42
0.0000001
 43
0.0000001
 44
0.0000000001
 12
-0.3882100219
 22
-0.1914956984
 32
0.0
 13
-0.3871832493
 23
0.1935633102
 33
0.0
 40
0.0
 40
0.0
 40
0.0
 40
0.0
 40
0.0899749204
 40
0.1866926925
 40
0.2887145724
 40
0.3943429537
 40
0.501743173
 40
0.6089913359
 40
0.7141671611
 40
0.8154559107
 40
0.911195113
 40
1.0
 40
1.0
 40
1.0
 40
1.0
 10
5.7927095163
 20
4.3619629599
 30
0.0
 10
5.7810664611
 20
4.3562196898
 30
0.0
 10
5.7561456099
 20
4.3458155603
 30
0.0
 10
5.7162048271
 20
4.3337716802
 30
0.0
 10
5.6731273372
 20
4.3249391361
 30
0.0
 10
5.6279414691
 20
4.319535336
 30
0.0
 10
5.5817182303
 20
4.3176885492
 30
0.0
 10
5.5355565694
 20
4.3194439331
 30
0.0
 10
5.4905538692
 20
4.3247584336
 30
0.0
 10
5.4477764386
 20
4.3335058664
 30
0.0
 10
5.4082445298
 20
4.3454710233
 30
0.0
 10
5.3836424563
 20
4.3558409946
 30
0.0
 10
5.3721812014
 20
4.3615707839
 30
0.0
 11
5.7927095163
 21
4.3619629599
 31
0.0
 11
5.7568352001
 21
4.3467989756
 31
0.0
 11
5.7167884076
 21
4.3345905334
 31
0.0
 11
5.6735428677
 21
4.3256386332
 31
0.0
 11
5.6281485304
 21
4.3201620651
 31
0.0
 11
5.5816956573
 21
4.3182924852
 31
0.0
 11
5.5353052468
 21
4.320075405
 31
0.0
 11
5.4900980765
 21
4.3254674771
 31
0.0
 11
5.4471599817
 21
4.334339006
 31
0.0
 11
5.4075334076
 21
4.3464731298
 31
0.0
 11
5.3721812014
 21
4.3615707839
 31
0.0
  0
SPLINE
  5
2A0
100
AcDbEntity
  8
ASSI
100
AcDbSpline
 62
253
  6
CONTINUOUS
 70
0
 71
3
 72
13
 73
9
 74
7
 42
0.0000001
 43
0.0000001
 44
0.0000000001
 12
-0.1426851185
 22
0.0713529958
 32
0.0
 13
0.0295346599
 23
0.1574391586
 33
0.0
 40
0.0
 40
0.0
 40
0.0
 40
0.0
 40
0.2197022595
 40
0.4171950789
 40
0.5934908375
 40
0.7524978134
 40
0.9014584516
 40
1.0
 40
1.0
 40
1.0
 40
1.0
 10
-9.5607255291
 20
11.8280241491
 30
0.0
 10
-9.5711749434
 20
11.8332496206
 30
0.0
 10
-9.5904692153
 20
11.8443607124
 30
0.0
 10
-9.6152443364
 20
11.8641440795
 30
0.0
 10
-9.6337932357
 20
11.8858428005
 30
0.0
 10
-9.6455347327
 20
11.9091038662
 30
0.0
 10
-9.6493767741
 20
11.9307268425
 30
0.0
 10
-9.6482075218
 20
11.9439548825
 30
0.0
 10
-9.6472373914
 20
11.9491263153
 30
0.0
 11
-9.5607255291
 21
11.8280241491
 31
0.0
 11
-9.5909753718
 21
11.8457275194
 31
0.0
 11
-9.6154060362
 21
11.8656220148
 31
0.0
 11
-9.6334155356
 21
11.8872242829
 31
0.0
 11
-9.6445637089
 21
11.9100098825
 31
0.0
 11
-9.6485824253
 21
11.9334315261
 31
0.0
 11
-9.6472373914
 21
11.9491263153
 31
0.0
  0
SPLINE
  5
2A1
100
AcDbEntity
  8
ASSI
100
AcDbSpline
 62
253
  6
CONTINUOUS
 70
0
 71
3
 72
12
 73
8
 74
6
 42
0.0000001
 43
0.0000001
 44
0.0000000001
 12
0.0235525246
 22
0.1255504435
 32
0.0
 13
0.1124667953
 23
0.0594633249
 33
0.0
 40
0.0
 40
0.0
 40
0.0
 40
0.0
 40
0.062800613
 40
0.2610413881
 40
0.4804933674
 40
0.7263212361
 40
1.0
 40
1.0
 40
1.0
 40
1.0
 10
-9.6472373914
 20
11.9491263153
 30
0.0
 10
-9.6467443537
 20
11.9517545303
 30
0.0
 10
-9.6441532175
 20
11.9625769071
 30
0.0
 10
-9.6354540924
 20
11.981275932
 30
0.0
 10
-9.6176492808
 20
12.0033459021
 30
0.0
 10
-9.5935552882
 20
12.0236128064
 30
0.0
 10
-9.5746565493
 20
12.0350914141
 30
0.0
 10
-9.5643966248
 20
12.0405160305
 30
0.0
 11
-9.6472373914
 21
11.9491263153
 31
0.0
 11
-9.6453740542
 21
11.9569233569
 31
0.0
 11
-9.6350168015
 21
11.9799184673
 31
0.0
 11
-9.617759665
 21
12.0018645692
 31
0.0
 11
-9.5940244942
 21
12.0222288223
 31
0.0
 11
-9.5643966248
 21
12.0405160305
 31
0.0
  0
SPLINE
  5
2A2
100
AcDbEntity
  8
ASSI
100
AcDbSpline
 62
253
  6
CONTINUOUS
 70
0
 71
3
 72
16
 73
12
 74
10
 42
0.0000001
 43
0.0000001
 44
0.0000000001
 12
-0.0077162649
 22
1.0314114242
 32
0.0
 13
1.0115667214
 23
0.2095410735
 33
0.0
 40
0.0
 40
0.0
 40
0.0
 40
0.0
 40
0.1431335069
 40
0.279862121
 40
0.4090446083
 40
0.5302820943
 40
0.6441480589
 40
0.7526230992
 40
0.8584174487
 40
0.9642690226
 40
1.0
 40
1.0
 40
1.0
 40
1.0
 10
-3.2247415265
 20
4.7643723812
 30
0.0
 10
-3.2251096786
 20
4.8135822259
 30
0.0
 10
-3.2211070656
 20
4.9099304835
 30
0.0
 10
-3.1993911567
 20
5.0492129784
 30
0.0
 10
-3.1619931641
 20
5.1774027121
 30
0.0
 10
-3.1093528875
 20
5.2916229073
 30
0.0
 10
-3.042299368
 20
5.3896308024
 30
0.0
 10
-2.9618385811
 20
5.4697374539
 30
0.0
 10
-2.8691430833
 20
5.5305269726
 30
0.0
 10
-2.7893212886
 20
5.5616199123
 30
0.0
 10
-2.7419069878
 20
5.5730700739
 30
0.0
 10
-2.7298588986
 20
5.5755657763
 30
0.0
 11
-3.2247415265
 21
4.7643723812
 31
0.0
 11
-3.2181760561
 21
4.9118599868
 31
0.0
 11
-3.19593165
 21
5.0511220212
 31
0.0
 11
-3.1580333361
 21
5.178862724
 31
0.0
 11
-3.1051204798
 21
5.2921655877
 31
0.0
 11
-3.0383290322
 21
5.3887702053
 31
0.0
 11
-2.9587452985
 21
5.4674137073
 31
0.0
 11
-2.867408764
 21
5.5271207659
 31
0.0
 11
-2.7657285913
 21
5.566886614
 31
0.0
 11
-2.7298588986
 21
5.5755657763
 31
0.0
  0
SPLINE
  5
2A3
100
AcDbEntity
  8
ASSI
100
AcDbSpline
 62
253
  6
CONTINUOUS
 70
0
 71
3
 72
24
 73
20
 74
18
 42
0.0000001
 43
0.0000001
 44
0.0000000001
 12
2.4586575719
 22
0.5092988293
 32
0.0
 13
0.1809290519
 23
-2.5017661291
 33
0.0
 40
0.0
 40
0.0
 40
0.0
 40
0.0
 40
0.0299441425
 40
0.0766595554
 40
0.1262038629
 40
0.1790478561
 40
0.2353773573
 40
0.2951485115
 40
0.3581182132
 40
0.4239107106
 40
0.4920494286
 40
0.5619298413
 40
0.632794102
 40
0.7039434868
 40
0.7748859844
 40
0.8450216651
 40
0.9133713406
 40
0.9789616725
 40
1.0
 40
1.0
 40
1.0
 40
1.0
 10
-2.7298588986
 20
5.5755657763
 30
0.0
 10
-2.7053181011
 20
5.5806492819
 30
0.0
 10
-2.6416183263
 20
5.5894789749
 30
0.0
 10
-2.5356170252
 20
5.5873074028
 30
0.0
 10
-2.4127280092
 20
5.5637953681
 30
0.0
 10
-2.2871693902
 20
5.5197556683
 30
0.0
 10
-2.1608213797
 20
5.455985775
 30
0.0
 10
-2.0355911044
 20
5.3735400947
 30
0.0
 10
-1.9133715849
 20
5.2737269231
 30
0.0
 10
-1.7960082676
 20
5.1580909109
 30
0.0
 10
-1.6852927183
 20
5.0284107427
 30
0.0
 10
-1.5829833414
 20
4.8867561244
 30
0.0
 10
-1.4907070682
 20
4.7354260025
 30
0.0
 10
-1.4098255287
 20
4.5767184045
 30
0.0
 10
-1.3414965438
 20
4.4128715466
 30
0.0
 10
-1.2868494406
 20
4.2464204755
 30
0.0
 10
-1.2469090214
 20
4.0804200538
 30
0.0
 10
-1.2274742564
 20
3.9522178773
 30
0.0
 10
-1.2211007321
 20
3.8800555917
 30
0.0
 10
-1.2198319172
 20
3.8625112667
 30
0.0
 11
-2.7298588986
 21
5.5755657763
 31
0.0
 11
-2.655449302
 21
5.5859987747
 31
0.0
 11
-2.5383498378
 21
5.5841711682
 31
0.0
 11
-2.4162411876
 21
5.561444047
 31
0.0
 11
-2.2910320704
 21
5.5181652467
 31
0.0
 11
-2.1647216127
 21
5.4550178749
 31
0.0
 11
-2.0393144716
 21
5.3730040847
 31
0.0
 11
-1.9168093537
 21
5.2734395563
 31
0.0
 11
-1.7991141308
 21
5.1578853017
 31
0.0
 11
-1.6880363082
 21
5.0281102195
 31
0.0
 11
-1.5853495168
 21
4.8861733461
 31
0.0
 11
-1.492800111
 21
4.7345305656
 31
0.0
 11
-1.4118076882
 21
4.5756103462
 31
0.0
 11
-1.3434138181
 21
4.4114368663
 31
0.0
 11
-1.2887000819
 21
4.2443390175
 31
0.0
 11
-1.2488213369
 21
4.0776941803
 31
0.0
 11
-1.2244612505
 21
3.9150762078
 31
0.0
 11
-1.2198319172
 21
3.8625112667
 31
0.0
  0
SPLINE
  5
2A4
100
AcDbEntity
  8
ASSI
100
AcDbSpline
 62
253
  6
CONTINUOUS
 70
0
 71
3
 72
13
 73
9
 74
7
 42
0.0000001
 43
0.0000001
 44
0.0000000001
 12
-0.0184861225
 22
-0.6881737366
 32
0.0
 13
-0.5053631422
 23
-0.4685855246
 33
0.0
 40
0.0
 40
0.0
 40
0.0
 40
0.0
 40
0.1417113146
 40
0.3464696438
 40
0.5398118029
 40
0.7211331501
 40
0.891303766
 40
1.0
 40
1.0
 40
1.0
 40
1.0
 10
-1.2161818931
 20
3.7097938228
 30
0.0
 10
-1.217055124
 20
3.6772864879
 30
0.0
 10
-1.2219063251
 20
3.5978620173
 30
0.0
 10
-1.2409526643
 20
3.4752266048
 30
0.0
 10
-1.278158155
 20
3.3471964884
 30
0.0
 10
-1.3305316896
 20
3.2331606874
 30
0.0
 10
-1.3903374662
 20
3.1455068781
 30
0.0
 10
-1.4344194021
 20
3.0988183389
 30
0.0
 10
-1.4527297589
 20
3.0818405116
 30
0.0
 11
-1.2161818931
 21
3.7097938228
 31
0.0
 11
-1.222257072
 21
3.6124341324
 31
0.0
 11
-1.2444020299
 21
3.4732881131
 31
0.0
 11
-1.2821143818
 21
3.3457035115
 31
0.0
 11
-1.334768109
 21
3.2325880841
 31
0.0
 11
-1.4012462371
 21
3.1361913262
 31
0.0
 11
-1.4527297589
 21
3.0818405116
 31
0.0
  0
SPLINE
  5
2A5
100
AcDbEntity
  8
ASSI
100
AcDbSpline
 62
253
  6
CONTINUOUS
 70
0
 71
3
 72
27
 73
23
 74
21
 42
0.0000001
 43
0.0000001
 44
0.0000000001
 12
-2.1295480651
 22
-1.9745709849
 32
0.0
 13
-0.0218418729
 23
2.899561129
 33
0.0
 40
0.0
 40
0.0
 40
0.0
 40
0.0
 40
0.0126533349
 40
0.0501409892
 40
0.0876557827
 40
0.1261361184
 40
0.1664338113
 40
0.2092070015
 40
0.2548606103
 40
0.3035502532
 40
0.3552315133
 40
0.4096874153
 40
0.4665867774
 40
0.5255122442
 40
0.5859371656
 40
0.6472039573
 40
0.7087079608
 40
0.7700247279
 40
0.8306380643
 40
0.88970593
 40
0.946392656
 40
1.0
 40
1.0
 40
1.0
 40
1.0
 10
-1.4527297589
 20
3.0818405116
 30
0.0
 10
-1.4617117205
 20
3.0735122089
 30
0.0
 10
-1.4983800255
 20
3.0416735414
 30
0.0
 10
-1.5697311332
 20
2.9948644875
 30
0.0
 10
-1.6727020632
 20
2.9548253607
 30
0.0
 10
-1.7842635766
 20
2.9360446243
 30
0.0
 10
-1.9023449964
 20
2.9386163504
 30
0.0
 10
-2.0250281545
 20
2.9622253788
 30
0.0
 10
-2.1504591387
 20
3.0063048645
 30
0.0
 10
-2.2767682065
 20
3.0700560594
 30
0.0
 10
-2.4020515791
 20
3.1524273691
 30
0.0
 10
-2.5244128154
 20
3.2521164076
 30
0.0
 10
-2.6419970769
 20
3.3675869352
 30
0.0
 10
-2.7529983294
 20
3.4970706857
 30
0.0
 10
-2.855639516
 20
3.6385100019
 30
0.0
 10
-2.9482721747
 20
3.7896189289
 30
0.0
 10
-3.0295121174
 20
3.9481121534
 30
0.0
 10
-3.0981794278
 20
4.1117633085
 30
0.0
 10
-3.1531236914
 20
4.2780485896
 30
0.0
 10
-3.1933011201
 20
4.4439233064
 30
0.0
 10
-3.2180372579
 20
4.6059452455
 30
0.0
 10
-3.2243512316
 20
4.7125597909
 30
0.0
 10
-3.2247415265
 20
4.7643723812
 30
0.0
 11
-1.4527297589
 21
3.0818405116
 31
0.0
 11
-1.4804826229
 21
3.0577653281
 31
0.0
 11
-1.5714586788
 21
2.9982739214
 31
0.0
 11
-1.6727879333
 21
2.9587092041
 31
0.0
 11
-1.7827483157
 21
2.9397713171
 31
0.0
 11
-1.8995807418
 21
2.9417357028
 31
0.0
 11
-2.02149069
 21
2.9645536959
 31
0.0
 11
-2.1465818341
 21
3.0078717565
 31
0.0
 11
-2.2728625167
 21
3.0710042842
 31
0.0
 11
-2.3983299534
 21
3.1529500596
 31
0.0
 11
-2.5209816017
 21
3.2523977075
 31
0.0
 11
-2.6389002774
 21
3.3677934599
 31
0.0
 11
-2.7502643521
 21
3.4973780002
 31
0.0
 11
-2.8532819306
 21
3.6391037087
 31
0.0
 11
-2.9461851702
 21
3.7905275081
 31
0.0
 11
-3.0275322008
 21
3.9492338446
 31
0.0
 11
-3.0962602228
 21
4.1132098986
 31
0.0
 11
-3.1512672102
 21
4.2801373548
 31
0.0
 11
-3.1913794981
 21
4.4466497739
 31
0.0
 11
-3.2158996173
 21
4.6091818782
 31
0.0
 11
-3.2247415265
 21
4.7643723812
 31
0.0
  0
SPLINE
  5
2A6
100
AcDbEntity
  8
ASSI
100
AcDbSpline
 62
253
  6
CONTINUOUS
 70
0
 71
3
 72
14
 73
10
 74
8
 42
0.0000001
 43
0.0000001
 44
0.0000000001
 12
-0.0021352354
 22
0.293580377
 32
0.0
 13
-0.2606943534
 23
0.1350275937
 33
0.0
 40
0.0
 40
0.0
 40
0.0
 40
0.0
 40
0.1375417359
 40
0.2843592423
 40
0.4361806324
 40
0.5881835054
 40
0.7355262397
 40
0.8738772597
 40
1.0
 40
1.0
 40
1.0
 40
1.0
 10
5.9328753089
 20
4.1174475535
 30
0.0
 10
5.9327774142
 20
4.130907405
 30
0.0
 10
5.9299897076
 20
4.1587472589
 30
0.0
 10
5.9193717745
 20
4.2002278014
 30
0.0
 10
5.9026650789
 20
4.2411877048
 30
0.0
 10
5.8806817007
 20
4.2796266738
 30
0.0
 10
5.8544749682
 20
4.3136955642
 30
0.0
 10
5.8253189289
 20
4.3417416901
 30
0.0
 10
5.8036693451
 20
4.3562862765
 30
0.0
 10
5.7927095163
 20
4.3619629599
 30
0.0
 11
5.9328753089
 21
4.1174475535
 31
0.0
 11
5.9291133644
 21
4.1576525589
 31
0.0
 11
5.918574738
 21
4.1994482731
 31
0.0
 11
5.9017877882
 21
4.2407392777
 31
0.0
 11
5.8795941321
 21
4.2794554632
 31
0.0
 11
5.8531064489
 21
4.3136558153
 31
0.0
 11
5.8236526932
 21
4.3416257274
 31
0.0
 11
5.7927095163
 21
4.3619629599
 31
0.0
  0
SPLINE
  5
2A7
100
AcDbEntity
  8
ASSI
100
AcDbSpline
 62
253
  6
CONTINUOUS
 70
0
 71
3
 72
14
 73
10
 74
8
 42
0.0000001
 43
0.0000001
 44
0.0000000001
 12
-0.0001666295
 22
0.2930098836
 32
0.0
 13
0.260950915
 23
0.1332645476
 33
0.0
 40
0.0
 40
0.0
 40
0.0
 40
0.0
 40
0.137354997
 40
0.2837129603
 40
0.4350144585
 40
0.5866467148
 40
0.7339613452
 40
0.8727885915
 40
1.0
 40
1.0
 40
1.0
 40
1.0
 10
5.231993997
 20
4.1181580949
 30
0.0
 10
5.2319863679
 20
4.1315735521
 30
0.0
 10
5.2345788252
 20
4.159318255
 30
0.0
 10
5.2449997494
 20
4.2006500873
 30
0.0
 10
5.261599039
 20
4.2414230441
 30
0.0
 10
5.2835777004
 20
4.279666467
 30
0.0
 10
5.3098935096
 20
4.3135590531
 30
0.0
 10
5.339280683
 20
4.3414712455
 30
0.0
 10
5.3611158902
 20
4.3559198603
 30
0.0
 10
5.3721812014
 20
4.3615707839
 30
0.0
 11
5.231993997
 21
4.1181580949
 31
0.0
 11
5.2354819127
 21
4.1582530497
 31
0.0
 11
5.2458161406
 21
4.1998735983
 31
0.0
 11
5.2624837423
 21
4.2409539087
 31
0.0
 11
5.2846574227
 21
4.2794549631
 31
0.0
 11
5.3112365934
 21
4.3134657654
 31
0.0
 11
5.3409019995
 21
4.3412981923
 31
0.0
 11
5.3721812014
 21
4.3615707839
 31
0.0
  0
SPLINE
  5
2A8
100
AcDbEntity
  8
ASSI
100
AcDbSpline
 62
253
  6
CONTINUOUS
 70
0
 71
3
 72
14
 73
10
 74
8
 42
0.0000001
 43
0.0000001
 44
0.0000000001
 12
-0.0001666322
 22
0.2930098843
 32
0.0
 13
0.2609509171
 23
0.1332645449
 33
0.0
 40
0.0
 40
0.0
 40
0.0
 40
0.0
 40
0.1373551825
 40
0.2837133145
 40
0.435014922
 40
0.5866471981
 40
0.7339617476
 40
0.872788823
 40
1.0
 40
1.0
 40
1.0
 40
1.0
 10
-9.7009127334
 20
11.5846114601
 30
0.0
 10
-9.7009203627
 20
11.5980269355
 30
0.0
 10
-9.6983278989
 20
11.6257716732
 30
0.0
 10
-9.6879069525
 20
11.667103547
 30
0.0
 10
-9.6713076368
 20
11.707876525
 30
0.0
 10
-9.6493289568
 20
11.7461199429
 30
0.0
 10
-9.6230131467
 20
11.7800124995
 30
0.0
 10
-9.5936259969
 20
11.8079246479
 30
0.0
 10
-9.5717908202
 20
11.8223732359
 30
0.0
 10
-9.5607255291
 20
11.8280241491
 30
0.0
 11
-9.7009127334
 21
11.5846114601
 31
0.0
 11
-9.697424809
 21
11.6247064688
 31
0.0
 11
-9.6870905581
 21
11.6663270628
 31
0.0
 11
-9.6704229292
 21
11.7074073967
 31
0.0
 11
-9.6482492291
 21
11.7459084467
 31
0.0
 11
-9.6216700579
 21
11.7799192186
 31
0.0
 11
-9.5920046777
 21
11.8077516
 31
0.0
 11
-9.5607255291
 21
11.8280241491
 31
0.0
  0
SPLINE
  5
2A9
100
AcDbEntity
  8
ASSI
100
AcDbSpline
 62
253
  6
CONTINUOUS
 70
0
 71
3
 72
15
 73
11
 74
9
 42
0.0000001
 43
0.0000001
 44
0.0000000001
 12
-0.0067576227
 22
0.8379829669
 32
0.0
 13
0.7580287499
 23
0.3606374832
 33
0.0
 40
0.0
 40
0.0
 40
0.0
 40
0.0
 40
0.1637169852
 40
0.3200692259
 40
0.46778283
 40
0.6064058017
 40
0.7365989704
 40
0.8606328372
 40
0.9816118788
 40
1.0
 40
1.0
 40
1.0
 40
1.0
 10
-3.0845678764
 20
4.7645388765
 30
0.0
 10
-3.0849366556
 20
4.8102695582
 30
0.0
 10
-3.0812651268
 20
4.8997977488
 30
0.0
 10
-3.0611501144
 20
5.0292199664
 30
0.0
 10
-3.0264520617
 20
5.1483249672
 30
0.0
 10
-2.977579105
 20
5.2544480528
 30
0.0
 10
-2.9153001493
 20
5.34550494
 30
0.0
 10
-2.8405503107
 20
5.4199257664
 30
0.0
 10
-2.77857671
 20
5.4605566377
 30
0.0
 10
-2.7436273379
 20
5.4778665111
 30
0.0
 10
-2.7389810964
 20
5.4800769931
 30
0.0
 11
-3.0845678764
 21
4.7645388765
 31
0.0
 11
-3.0785402836
 21
4.9016029102
 31
0.0
 11
-3.0579342374
 21
5.0309972008
 31
0.0
 11
-3.0227712223
 21
5.1496834029
 31
0.0
 11
-2.9736450028
 21
5.2549520818
 31
0.0
 11
-2.9116106019
 21
5.3447030844
 31
0.0
 11
-2.837677575
 21
5.4177631526
 31
0.0
 11
-2.7528122072
 21
5.4732258687
 31
0.0
 11
-2.7389810964
 21
5.4800769931
 31
0.0
  0
SPLINE
  5
2AA
100
AcDbEntity
  8
ASSI
100
AcDbSpline
 62
253
  6
CONTINUOUS
 70
0
 71
3
 72
14
 73
10
 74
8
 42
0.0000001
 43
0.0000001
 44
0.0000000001
 12
0.0309975359
 22
-0.8964475369
 32
0.0
 13
0.8027044092
 23
-0.403511886
 33
0.0
 40
0.0
 40
0.0
 40
0.0
 40
0.0
 40
0.1705248534
 40
0.3314849556
 40
0.4829541407
 40
0.6256267012
 40
0.760935233
 40
0.8910296635
 40
1.0
 40
1.0
 40
1.0
 40
1.0
 10
5.536223753
 20
-13.2410421308
 30
0.0
 10
5.5379857031
 20
-13.2919976591
 30
0.0
 10
5.5464667372
 20
-13.3909828679
 30
0.0
 10
5.5755676357
 20
-13.532784709
 30
0.0
 10
5.6203547874
 20
-13.6617506272
 30
0.0
 10
5.6803008869
 20
-13.7759079939
 30
0.0
 10
5.7546706701
 20
-13.8734370003
 30
0.0
 10
5.8382923549
 20
-13.9488814561
 30
0.0
 10
5.8995242334
 20
-13.9864929454
 30
0.0
 10
5.9286812233
 20
-14.0011498874
 30
0.0
 11
5.536223753
 21
-13.2410421308
 31
0.0
 11
5.5497528865
 21
-13.393400575
 31
0.0
 11
5.5793035389
 21
-13.5347226074
 31
0.0
 11
5.6244322382
 21
-13.6628740338
 31
0.0
 11
5.6844524325
 21
-13.7759012528
 31
0.0
 11
5.758457464
 21
-13.8720979737
 31
0.0
 11
5.8453304249
 21
-13.9500096896
 31
0.0
 11
5.9286812233
 21
-14.0011498874
 31
0.0
  0
SPLINE
  5
2AB
100
AcDbEntity
  8
ASSI
100
AcDbSpline
 62
253
  6
CONTINUOUS
 70
0
 71
3
 72
13
 73
9
 74
7
 42
0.0000001
 43
0.0000001
 44
0.0000000001
 12
-0.215894351
 22
0.1079521952
 32
0.0
 13
-0.0002206955
 23
0.2421879479
 33
0.0
 40
0.0
 40
0.0
 40
0.0
 40
0.0
 40
0.2421235129
 40
0.4595101842
 40
0.6534225439
 40
0.8281339132
 40
0.9916258048
 40
1.0
 40
1.0
 40
1.0
 40
1.0
 10
-9.7009010834
 20
11.5846056308
 30
0.0
 10
-9.7183254497
 20
11.5933182191
 30
0.0
 10
-9.7504828961
 20
11.611827901
 30
0.0
 10
-9.7917764379
 20
11.6447538627
 30
0.0
 10
-9.8226845031
 20
11.6808289897
 30
0.0
 10
-9.8422550369
 20
11.719477457
 30
0.0
 10
-9.8472325265
 20
11.7473696271
 30
0.0
 10
-9.8473584839
 20
11.7612438629
 30
0.0
 10
-9.8473591
 20
11.761919906
 30
0.0
 11
-9.7009010834
 21
11.5846056308
 31
0.0
 11
-9.7513482492
 21
11.6141139865
 31
0.0
 11
-9.7920589478
 21
11.6472201952
 31
0.0
 11
-9.8220687448
 21
11.6831403424
 31
0.0
 11
-9.8406444703
 21
11.7210005834
 31
0.0
 11
-9.8473406483
 21
11.7598919166
 31
0.0
 11
-9.8473591
 21
11.761919906
 31
0.0
  0
SPLINE
  5
2AC
100
AcDbEntity
  8
ASSI
100
AcDbSpline
 62
253
  6
CONTINUOUS
 70
0
 71
3
 72
13
 73
9
 74
7
 42
0.0000001
 43
0.0000001
 44
0.0000000001
 12
-0.0143748292
 22
-0.3372111877
 32
0.0
 13
-0.3122832359
 23
-0.1308988728
 33
0.0
 40
0.0
 40
0.0
 40
0.0
 40
0.0
 40
0.2203895712
 40
0.4242798477
 40
0.6117673044
 40
0.7852201422
 40
0.9494899101
 40
1.0
 40
1.0
 40
1.0
 40
1.0
 10
6.9179954999
 20
-13.7267754439
 30
0.0
 10
6.9169394791
 20
-13.7515480536
 30
0.0
 10
6.9116973367
 20
-13.7991996723
 30
0.0
 10
6.893264502
 20
-13.865859135
 30
0.0
 10
6.864915585
 20
-13.9232362544
 30
0.0
 10
6.8272217125
 20
-13.969494929
 30
0.0
 10
6.7913918463
 20
-13.9954224814
 30
0.0
 10
6.769442839
 20
-14.0057595233
 30
0.0
 10
6.7641850208
 20
-14.0079634279
 30
0.0
 11
6.9179954999
 21
-13.7267754439
 31
0.0
 11
6.9094585903
 21
-13.8006692698
 31
0.0
 11
6.8906395865
 21
-13.8668626157
 31
0.0
 11
6.8621096314
 21
-13.9233465626
 31
0.0
 11
6.824734588
 21
-13.9684068647
 31
0.0
 11
6.779648761
 21
-14.0006759752
 31
0.0
 11
6.7641850208
 21
-14.0079634279
 31
0.0
  0
SPLINE
  5
2AD
100
AcDbEntity
  8
ASSI
100
AcDbSpline
 62
253
  6
CONTINUOUS
 70
0
 71
3
 72
16
 73
12
 74
10
 42
0.0000001
 43
0.0000001
 44
0.0000000001
 12
-0.6379991046
 22
-0.3396733917
 32
0.0
 13
-0.6466996827
 23
0.3228008533
 33
0.0
 40
0.0
 40
0.0
 40
0.0
 40
0.0
 40
0.1015166317
 40
0.2107208998
 40
0.3256469076
 40
0.4439751589
 40
0.5631922282
 40
0.6807357597
 40
0.7941361023
 40
0.9011644343
 40
1.0
 40
1.0
 40
1.0
 40
1.0
 10
6.2368078406
 20
-13.2264597758
 30
0.0
 10
6.2152186672
 20
-13.237953942
 30
0.0
 10
6.1686934669
 20
-13.2586657458
 30
0.0
 10
6.0937254739
 20
-13.282259169
 30
0.0
 10
6.0128010306
 20
-13.2990098413
 30
0.0
 10
5.928286328
 20
-13.3084207388
 30
0.0
 10
5.8426383428
 20
-13.3102183038
 30
0.0
 10
5.7583597929
 20
-13.3043504904
 30
0.0
 10
5.67789739
 20
-13.2909875854
 30
0.0
 10
5.6036005356
 20
-13.2705272276
 30
0.0
 10
5.5575302977
 20
-13.2516941664
 30
0.0
 10
5.5362246547
 20
-13.2410594314
 30
0.0
 11
6.2368078406
 21
-13.2264597758
 31
0.0
 11
6.1699300335
 21
-13.2566464167
 31
0.0
 11
6.0947185537
 21
-13.2805922118
 31
0.0
 11
6.0134083282
 21
-13.2975856059
 31
0.0
 11
5.92841551
 21
-13.3071216363
 31
0.0
 11
5.842265681
 21
-13.3089169375
 31
0.0
 11
5.7575188042
 21
-13.3029181618
 31
0.0
 11
5.6766931533
 21
-13.2893035641
 31
0.0
 11
5.6021904818
 21
-13.2684777055
 31
0.0
 11
5.5362246547
 21
-13.2410594314
 31
0.0
  0
SPLINE
  5
2AE
100
AcDbEntity
  8
ASSI
100
AcDbSpline
 62
253
  6
CONTINUOUS
 70
0
 71
3
 72
17
 73
13
 74
11
 42
0.0000001
 43
0.0000001
 44
0.0000000001
 12
-0.6478787095
 22
-0.3171133083
 32
0.0
 13
-0.6451774021
 23
0.3225737007
 33
0.0
 40
0.0
 40
0.0
 40
0.0
 40
0.0
 40
0.0899352243
 40
0.1865809494
 40
0.2885603482
 40
0.3941667178
 40
0.5015619733
 40
0.6088199202
 40
0.7140203969
 40
0.8153431384
 40
0.9111132669
 40
1.0
 40
1.0
 40
1.0
 40
1.0
 10
5.932887265
 20
4.1174534056
 30
0.0
 10
5.9134648927
 20
4.1079468534
 30
0.0
 10
5.8719088488
 20
4.0907492578
 30
0.0
 10
5.8053308885
 20
4.070883885
 30
0.0
 10
5.7335414011
 20
4.0563646524
 30
0.0
 10
5.6582408493
 20
4.0475427976
 30
0.0
 10
5.5812142799
 20
4.0446281578
 30
0.0
 10
5.5042908422
 20
4.0476913716
 30
0.0
 10
5.4292970501
 20
4.0566579998
 30
0.0
 10
5.3580093292
 20
4.0713147751
 30
0.0
 10
5.2921151377
 20
4.0913074176
 30
0.0
 10
5.2510982549
 20
4.1086064061
 30
0.0
 10
5.231982351
 20
4.1181639136
 30
0.0
 11
5.932887265
 21
4.1174534056
 31
0.0
 11
5.8730566083
 21
4.092379111
 31
0.0
 11
5.8063148328
 21
4.0722441859
 31
0.0
 11
5.7342422599
 21
4.0575255308
 31
0.0
 11
5.6585926294
 21
4.0485828499
 31
0.0
 11
5.5811821809
 21
4.0456305027
 31
0.0
 11
5.5038770035
 21
4.0487398471
 31
0.0
 11
5.4285405355
 21
4.0578357027
 31
0.0
 11
5.3569815535
 21
4.0726999449
 31
0.0
 11
5.2909409011
 21
4.0929694115
 31
0.0
 11
5.231982351
 21
4.1181639136
 31
0.0
  0
ELLIPSE
  5
2AF
100
AcDbEntity
  8
RACCORDO
100
AcDbEllipse
 62
7
  6
CONTINUOUS
 10
-5.9468341311
 20
13.7796820838
 30
0.0
 11
-0.0894818401
 21
0.1789012953
 31
0.0
 40
0.6122950388
 41
-0.6847996396
 42
0.013822208
  0
ELLIPSE
  5
2B0
100
AcDbEntity
  8
RACCORDO
100
AcDbEllipse
 62
7
  6
CONTINUOUS
 10
8.7877417884
 20
-12.6163022645
 30
0.0
 11
-0.1825210626
 21
0.4655826378
 31
0.0
 40
0.6539056002
 41
-3.1260688269
 42
-2.199353272
  0
ELLIPSE
  5
2B1
100
AcDbEntity
  8
RACCORDO
100
AcDbEllipse
 62
7
  6
CONTINUOUS
 10
9.538761292
 20
6.0368843722
 30
0.0
 11
-0.0894578232
 21
0.1788799337
 31
0.0
 40
0.6124778111
 41
-2.255529033
 42
-0.6848850053
  0
ELLIPSE
  5
2B2
100
AcDbEntity
  8
ASSI
100
AcDbEllipse
 62
7
  6
CONTINUOUS
 10
-5.9468341311
 20
13.7796820838
 30
0.0
 11
-0.0894818401
 21
0.1789012953
 31
0.0
 40
0.6122950388
 41
-0.6847996396
 42
0.013822208
  0
ELLIPSE
  5
2B3
100
AcDbEntity
  8
ASSI
100
AcDbEllipse
 62
7
  6
CONTINUOUS
 10
8.7877417884
 20
-12.6163022645
 30
0.0
 11
-0.1825210626
 21
0.4655826378
 31
0.0
 40
0.6539056002
 41
-3.1260688269
 42
-2.199353272
  0
ELLIPSE
  5
2B4
100
AcDbEntity
  8
ASSI
100
AcDbEllipse
 62
7
  6
CONTINUOUS
 10
9.538761292
 20
6.0368843722
 30
0.0
 11
-0.0894578232
 21
0.1788799337
 31
0.0
 40
0.6124778111
 41
-2.255529033
 42
-0.6848850053
  0
ELLIPSE
  5
2B5
100
AcDbEntity
  8
CURVE
100
AcDbEllipse
 62
253
  6
CONTINUOUS
 10
361.5718938481
 20
179.8030142511
 30
0.0
 11
499.3666179528
 21
308.6255427419
 31
0.0
 40
0.0815198604
 41
8.6110420922
 42
8.6180443835
  0
ELLIPSE
  5
2B6
100
AcDbEntity
  8
CURVE
100
AcDbEllipse
 62
253
  6
CONTINUOUS
 10
340.1657971937
 20
190.5060625783
 30
0.0
 11
-370.8956999625
 21
600.1218488205
 31
0.0
 40
0.5587454355
 41
1.5450048964
 42
1.5520076653
  0
ELLIPSE
  5
2B7
100
AcDbEntity
  8
CURVE
100
AcDbEllipse
 62
253
  6
CONTINUOUS
 10
362.4718938481
 20
179.3530142511
 30
0.0
 11
499.3666179528
 21
308.6255427419
 31
0.0
 40
0.0815198604
 41
2.3304030598
 42
2.3374058287
  0
ELLIPSE
  5
2B8
100
AcDbEntity
  8
CURVE
100
AcDbEllipse
 62
253
  6
CONTINUOUS
 10
341.0657971937
 20
190.0560625783
 30
0.0
 11
-370.8956999625
 21
600.1218488205
 31
0.0
 40
0.5587454355
 41
1.5424586217
 42
1.549460913
  0
ENDSEC
  0
SECTION
  2
OBJECTS
  0
DICTIONARY
  5
C
100
AcDbDictionary
280
0
281
1
  3
ACAD_GROUP
350
D
  3
ACAD_MLINESTYLE
350
17
  3
ACAD_LAYOUT
350
1A
  3
ACAD_PLOTSETTINGS
350
19
  3
ACAD_PLOTSTYLENAME
350
E
  0
DICTIONARY
  5
D
102
{ACAD_REACTORS
330
C
102
}
100
AcDbDictionary
280
0
281
1
  0
ACDBDICTIONARYWDFLT
  5
E
102
{ACAD_REACTORS
330
C
102
}
100
AcDbDictionary
281
1
  3
Normal
350
F
100
AcDbDictionaryWithDefault
340
F
  0
DICTIONARY
  5
17
102
{ACAD_REACTORS
330
C
102
}
100
AcDbDictionary
280
0
281
1
  3
Standard
350
18
  0
DICTIONARY
  5
19
102
{ACAD_REACTORS
330
C
102
}
100
AcDbDictionary
281
1
  0
DICTIONARY
  5
1A
102
{ACAD_REACTORS
330
C
102
}
100
AcDbDictionary
281
1
  3
Model
350
2B9
  3
Layout1
350
2BA
  0
ACDBPLACEHOLDER
  5
F
102
{ACAD_REACTORS
330
E
102
}
  0
MLINESTYLE
  5
18
102
{ACAD_REACTORS
330
17
102
}
100
AcDbMlineStyle
  2
STANDARD
 70
0
  3

 62
256
 51
90.0
 52
90.0
 71
2
 49
0.5
 62
256
  6
BYLAYER
 49
-0.5
 62
256
  6
BYLAYER
  0
LAYOUT
  5
2B9
102
{ACAD_REACTORS
330
1A
102
}
100
AcDbPlotSettings
  1

  2
none_device
  4
ISO_A4_(297.00_x_210.00_MM)
  6

 40
0.0
 41
0.0
 42
0.0
 43
0.0
 44
297.0
 45
210.0
 46
0.0
 47
0.0
 48
0.0
 49
0.0
140
0.0
141
0.0
142
1.0
143
1.0
 70
1024
 72
1
 73
0
 74
0
  7

 75
0
147
1.0
148
0.0
149
0.0
100
AcDbLayout
  1
Model
 70
0
 71
0
 10
0.0
 20
0.0
 11
297.0
 21
210.0
 12
0.0
 22
0.0
 32
0.0
 14
0.0
 24
0.0
 34
0.0
 15
0.0
 25
0.0
 35
0.0
146
0.0
 13
0.0
 23
0.0
 33
0.0
 16
1.0
 26
0.0
 36
0.0
 17
0.0
 27
1.0
 37
0.0
 76
0
330
213
345
0
346
0
  0
LAYOUT
  5
2BA
102
{ACAD_REACTORS
330
1A
102
}
100
AcDbPlotSettings
  1

  2
none_device
  4
ISO_A4_(297.00_x_210.00_MM)
  6

 40
0.0
 41
0.0
 42
0.0
 43
0.0
 44
297.0
 45
210.0
 46
0.0
 47
0.0
 48
0.0
 49
0.0
140
0.0
141
0.0
142
1.0
143
1.0
 70
0
 72
1
 73
0
 74
0
  7

 75
0
147
1.0
148
0.0
149
0.0
100
AcDbLayout
  1
Layout1
 70
0
 71
1
 10
0.0
 20
0.0
 11
297.0
 21
210.0
 12
0.0
 22
0.0
 32
0.0
 14
0.0
 24
0.0
 34
0.0
 15
0.0
 25
0.0
 35
0.0
146
0.0
 13
0.0
 23
0.0
 33
0.0
 16
1.0
 26
0.0
 36
0.0
 17
0.0
 27
1.0
 37
0.0
 76
0
330
214
345
0
346
0
  0
ENDSEC
  0
EOF
