  0
SECTION
  2
HEADER
  9
$ACADVER
  1
AC1015
  9
$DWGCODEPAGE
  3
ANSI_1252
  9
$EXTMAX
 10
297.0
 20
210.0
 30
0.0
  9
$EXTMIN
 10
0.0
 20
0.0
 30
0.0
  9
$LIMMIN
 10
0.0
 20
0.0
  9
$LIMMAX
 10
297.0
 20
210.0
  9
$VIEWCTR
 10
148.5
 20
105.0
  9
$VIEWSIZE
 40
210.0
  9
$CLAYER
  8
0
  9
$LTSCALE
 40
16.335
  9
$CELTYPE
  6
BYLAYER
  9
$DIMSCALE
 40
1.0
  9
$DIMASZ
 40
3.0
  9
$DIMEXO
 40
0.5
  9
$DIMDLI
 40
11.286
  9
$DIMEXE
 40
1.5
  9
$DIMCEN
 40
2.673
  9
$DIMLFAC
 40
1.0
  9
$DIMBLK
  1
_FILLED
  9
$DIMTXT
 40
3.0
  9
$DIMTOL
 70
1
  9
$DIMLIM
 70
0
  9
$DIMTFAC
 40
1.0
  9
$DIMTP
 40
0.01
  9
$DIMTM
 40
0.01
  9
$DIMGAP
 40
0.625
  9
$DIMDSEP
 70
44
  9
$PDMODE
 70
3
  9
$PDSIZE
 40
3.0
  9
$HANDSEED
  5
4E9
  9
$TILEMODE
 70
1
  9
$MEASUREMENT
 70
1
  9
$INSUNITS
 70
4
  0
ENDSEC
  0
SECTION
  2
CLASSES
  0
CLASS
  1
ACDBDICTIONARYWDFLT
  2
AcDbDictionaryWithDefault
  3
AutoCAD 2000
 90
0
280
0
281
0
  0
CLASS
  1
ACDBPLACEHOLDER
  2
AcDbPlaceHolder
  3
AutoCAD 2000
 90
0
280
0
281
0
  0
CLASS
  1
LAYOUT
  2
AcDbLayout
  3
AutoCAD 2000
 90
0
280
0
281
0
  0
ENDSEC
  0
SECTION
  2
TABLES
  0
TABLE
  2
VPORT
  5
8
100
AcDbSymbolTable
 70
2
  0
VPORT
  5
1F4
100
AcDbSymbolTableRecord
100
AcDbViewportTableRecord
  2
*ACTIVE
 70
0
 10
0.0
 20
0.0
 11
1.0
 21
1.0
 12
148.5
 22
105.0
 13
0.0
 23
0.0
 14
1.0
 24
1.0
 15
0.0
 25
0.0
 16
0.0
 26
0.0
 36
1.0
 17
0.0
 27
0.0
 37
0.0
 40
210.0
 41
1.4142857143
 42
50.0
 43
0.0
 44
0.0
 50
0.0
 51
0.0
 71
0
 72
100
 73
1
 74
1
 75
0
 76
0
 77
0
 78
0
  0
ENDTAB
  0
TABLE
  2
LTYPE
  5
5
100
AcDbSymbolTable
 70
6
  0
LTYPE
  5
14
100
AcDbSymbolTableRecord
100
AcDbLinetypeTableRecord
  2
BYBLOCK
 70
0
  3

 72
65
 73
0
 40
0.0
  0
LTYPE
  5
15
100
AcDbSymbolTableRecord
100
AcDbLinetypeTableRecord
  2
BYLAYER
 70
0
  3

 72
65
 73
0
 40
0.0
  0
LTYPE
  5
16
100
AcDbSymbolTableRecord
100
AcDbLinetypeTableRecord
  2
CONTINUOUS
 70
64
  3
Solid line
 72
65
 73
0
 40
0.0
  0
LTYPE
  5
1F5
100
AcDbSymbolTableRecord
100
AcDbLinetypeTableRecord
  2
CENTER
 70
64
  3
____ _ ____ _ ____ _ ____ _ ____ _ ____ _ ____
 72
65
 73
4
 40
0.6
 49
0.375
 74
0
 49
-0.075
 74
0
 49
0.075
 74
0
 49
-0.075
 74
0
  0
LTYPE
  5
1F6
100
AcDbSymbolTableRecord
100
AcDbLinetypeTableRecord
  2
HIDDEN
 70
64
  3
- - - - - - - - - - - - - - - - - - - -
 72
65
 73
2
 40
0.2
 49
0.1
 74
0
 49
-0.1
 74
0
  0
LTYPE
  5
1F7
100
AcDbSymbolTableRecord
100
AcDbLinetypeTableRecord
  2
PHANTOM
 70
64
  3
_____ _ _ _____ _ _ _____ _ _ _____
 72
65
 73
6
 40
0.8
 49
0.45
 74
0
 49
-0.05
 74
0
 49
0.1
 74
0
 49
-0.05
 74
0
 49
0.1
 74
0
 49
-0.05
 74
0
  0
LTYPE
  5
1F8
100
AcDbSymbolTableRecord
100
AcDbLinetypeTableRecord
  2
DOT
 70
64
  3
. . . . . . . . . . . . . . . . . . . .
 72
65
 73
2
 40
0.2
 49
0.1
 74
0
 49
-0.1
 74
0
  0
LTYPE
  5
1F9
100
AcDbSymbolTableRecord
100
AcDbLinetypeTableRecord
  2
DASHED
 70
64
  3
- - - - - - - - - - - - - - - - - - - -
 72
65
 73
2
 40
0.2
 49
0.1
 74
0
 49
-0.1
 74
0
  0
ENDTAB
  0
TABLE
  2
LAYER
  5
2
100
AcDbSymbolTable
 70
36
  0
LAYER
  5
10
100
AcDbSymbolTableRecord
100
AcDbLayerTableRecord
  2
0
 70
0
 62
7
  6
CONTINUOUS
370
-3
390
F
  0
LAYER
  5
1FA
100
AcDbSymbolTableRecord
100
AcDbLayerTableRecord
  2
DEFAULT_1
 70
0
 62
7
  6
CENTER
370
-3
390
F
  0
LAYER
  5
1FB
100
AcDbSymbolTableRecord
100
AcDbLayerTableRecord
  2
DEFAULT_2
 70
0
 62
7
  6
HIDDEN
370
-3
390
F
  0
LAYER
  5
1FC
100
AcDbSymbolTableRecord
100
AcDbLayerTableRecord
  2
DEFAULT_3
 70
0
 62
7
  6
PHANTOM
370
-3
390
F
  0
LAYER
  5
1FD
100
AcDbSymbolTableRecord
100
AcDbLayerTableRecord
  2
ASSI
 70
0
 62
7
  6
CONTINUOUS
370
-3
390
F
  0
LAYER
  5
1FE
100
AcDbSymbolTableRecord
100
AcDbLayerTableRecord
  2
COLOR5
 70
0
 62
7
  6
CONTINUOUS
370
-3
390
F
  0
LAYER
  5
1FF
100
AcDbSymbolTableRecord
100
AcDbLayerTableRecord
  2
COORDINATE
 70
0
 62
7
  6
CONTINUOUS
370
-3
390
F
  0
LAYER
  5
200
100
AcDbSymbolTableRecord
100
AcDbLayerTableRecord
  2
COORD_ORIGINE
 70
0
 62
7
  6
CONTINUOUS
370
-3
390
F
  0
LAYER
  5
201
100
AcDbSymbolTableRecord
100
AcDbLayerTableRecord
  2
COSMETICI
 70
0
 62
7
  6
CONTINUOUS
370
-3
390
F
  0
LAYER
  5
202
100
AcDbSymbolTableRecord
100
AcDbLayerTableRecord
  2
CURVE
 70
0
 62
7
  6
CONTINUOUS
370
-3
390
F
  0
LAYER
  5
203
100
AcDbSymbolTableRecord
100
AcDbLayerTableRecord
  2
DRAFT
 70
0
 62
7
  6
CONTINUOUS
370
-3
390
F
  0
LAYER
  5
204
100
AcDbSymbolTableRecord
100
AcDbLayerTableRecord
  2
IGES_SCRITTE
 70
0
 62
7
  6
CONTINUOUS
370
-3
390
F
  0
LAYER
  5
205
100
AcDbSymbolTableRecord
100
AcDbLayerTableRecord
  2
INTF_1
 70
0
 62
7
  6
CONTINUOUS
370
-3
390
F
  0
LAYER
  5
206
100
AcDbSymbolTableRecord
100
AcDbLayerTableRecord
  2
INTF_7
 70
0
 62
7
  6
CONTINUOUS
370
-3
390
F
  0
LAYER
  5
207
100
AcDbSymbolTableRecord
100
AcDbLayerTableRecord
  2
NOTE
 70
0
 62
7
  6
CONTINUOUS
370
-3
390
F
  0
LAYER
  5
208
100
AcDbSymbolTableRecord
100
AcDbLayerTableRecord
  2
PIANI
 70
0
 62
7
  6
CONTINUOUS
370
-3
390
F
  0
LAYER
  5
209
100
AcDbSymbolTableRecord
100
AcDbLayerTableRecord
  2
PIANI_ORIGINE
 70
0
 62
7
  6
CONTINUOUS
370
-3
390
F
  0
LAYER
  5
20A
100
AcDbSymbolTableRecord
100
AcDbLayerTableRecord
  2
PUNTI
 70
0
 62
7
  6
CONTINUOUS
370
-3
390
F
  0
LAYER
  5
20B
100
AcDbSymbolTableRecord
100
AcDbLayerTableRecord
  2
RACCORDO
 70
0
 62
7
  6
CONTINUOUS
370
-3
390
F
  0
LAYER
  5
20C
100
AcDbSymbolTableRecord
100
AcDbLayerTableRecord
  2
RGB__255__255__255__
 70
0
 62
7
  6
CONTINUOUS
370
-3
390
F
  0
LAYER
  5
20D
100
AcDbSymbolTableRecord
100
AcDbLayerTableRecord
  2
RGB____0____0____0__
 70
0
 62
7
  6
CONTINUOUS
370
-3
390
F
  0
LAYER
  5
20E
100
AcDbSymbolTableRecord
100
AcDbLayerTableRecord
  2
SUPERFICI
 70
0
 62
7
  6
CONTINUOUS
370
-3
390
F
  0
LAYER
  5
20F
100
AcDbSymbolTableRecord
100
AcDbLayerTableRecord
  2
TRASH
 70
0
 62
7
  6
CONTINUOUS
370
-3
390
F
  0
LAYER
  5
210
100
AcDbSymbolTableRecord
100
AcDbLayerTableRecord
  2
XSEC_DATUMS
 70
0
 62
7
  6
CONTINUOUS
370
-3
390
F
  0
ENDTAB
  0
TABLE
  2
STYLE
  5
3
100
AcDbSymbolTable
 70
1
  0
STYLE
  5
11
100
AcDbSymbolTableRecord
100
AcDbTextStyleTableRecord
  2
STANDARD
 70
0
 40
0.0
 41
0.8
 50
0.0
 71
0
 42
0.2
  3
txt
  4

  0
STYLE
  5
211
100
AcDbSymbolTableRecord
100
AcDbTextStyleTableRecord
  2
TEXTSTYLE_1
 70
0
 40
0.0
 41
0.8
 50
0.0
 71
0
 42
0.2
  3
gdt
  4

  0
ENDTAB
  0
TABLE
  2
VIEW
  5
6
100
AcDbSymbolTable
 70
0
  0
ENDTAB
  0
TABLE
  2
UCS
  5
7
100
AcDbSymbolTable
 70
0
  0
ENDTAB
  0
TABLE
  2
APPID
  5
9
100
AcDbSymbolTable
 70
1
  0
APPID
  5
212
100
AcDbSymbolTableRecord
100
AcDbRegAppTableRecord
  2
ACAD
 70
0
  0
ENDTAB
  0
TABLE
  2
BLOCK_RECORD
  5
1
100
AcDbSymbolTable
 70
0
  0
BLOCK_RECORD
  5
213
100
AcDbSymbolTableRecord
100
AcDbBlockTableRecord
  2
*Model_Space
  0
BLOCK_RECORD
  5
214
100
AcDbSymbolTableRecord
100
AcDbBlockTableRecord
  2
*Paper_Space
  0
ENDTAB
  0
TABLE
  2
DIMSTYLE
  5
A
100
AcDbSymbolTable
 70
1
100
AcDbDimStyleTable
 71
0
  0
DIMSTYLE
105
215
100
AcDbSymbolTableRecord
100
AcDbDimStyleTableRecord
  2
STANDARD
 70
0
  3

  4

 40
1.0
 41
3.0
 42
0.5
 43
0.38
 44
1.5
 45
0.0
 46
0.0
 47
0.01
 48
0.01
140
3.0
141
0.09
142
0.0
143
25.4
144
1.0
145
0.0
146
1.0
147
0.625
 71
1.0
 72
0.0
 73
0
 74
0
 75
0
 76
0
 77
1
 78
8
170
0
171
2
172
0
173
0
174
0
175
0
176
0
177
0
178
0
270
2
271
2
272
2
273
2
274
2
275
0
280
0
281
0
282
0
283
1
284
8
285
0
286
0
287
3
288
0
340
11
278
44
  0
ENDTAB
  0
ENDSEC
  0
SECTION
  2
BLOCKS
  0
BLOCK
  5
20
100
AcDbEntity
  8
0
100
AcDbBlockBegin
  2
*Model_Space
 70
0
 10
0.0
 20
0.0
 30
0.0
  3
*Model_Space
  1

  0
ENDBLK
  5
21
100
AcDbEntity
  8
0
100
AcDbBlockEnd
  0
BLOCK
  5
1C
100
AcDbEntity
  8
0
100
AcDbBlockBegin
  2
*Paper_Space
 70
0
 10
0.0
 20
0.0
 30
0.0
  3
*Paper_Space
  1

  0
ENDBLK
  5
1D
100
AcDbEntity
  8
0
100
AcDbBlockEnd
  0
ENDSEC
  0
SECTION
  2
ENTITIES
  0
LWPOLYLINE
  5
216
100
AcDbEntity
  8
RACCORDO
100
AcDbPolyline
 62
253
  6
CONTINUOUS
 90
6
 70
0
 10
10.3766809587
 20
116.553443024
 10
10.3864351214
 20
116.4600260605
 10
10.4017572449
 20
116.3747538241
 10
10.4225620635
 20
116.2981097277
 10
10.4487333113
 20
116.2305286326
 10
10.4801243626
 20
116.1723943666
  0
LWPOLYLINE
  5
217
100
AcDbEntity
  8
0
100
AcDbPolyline
 62
253
  6
CONTINUOUS
 90
10
 70
0
 10
10.3725485775
 20
116.6544754977
 10
10.2830958669
 20
117.5394091371
 10
10.2014461086
 20
118.421440556
 10
10.1275993024
 20
119.3005697544
 10
10.0615549806
 20
120.1768096734
 10
10.003313611
 20
121.0501473719
 10
9.9528765975
 20
121.9205440267
 10
9.9102444082
 20
122.7879866969
 10
9.8754165751
 20
123.6524883233
 10
9.8483930981
 20
124.5140489061
  0
LWPOLYLINE
  5
218
100
AcDbEntity
  8
0
100
AcDbPolyline
 62
7
  6
CONTINUOUS
 90
11
 70
0
 10
10.3492914346
 20
126.3375505975
 10
10.3543743429
 20
126.2777287904
 10
10.3707803872
 20
126.2049022488
 10
10.3980054232
 20
126.1328440534
 10
10.4351869932
 20
126.0639074339
 10
10.482657557
 20
125.998199458
 10
10.5400846549
 20
125.935613058
 10
10.6056084504
 20
125.8781802601
 10
10.6786089982
 20
125.8265784064
 10
10.7597062437
 20
125.7801301548
 10
10.8489001869
 20
125.7388355053
  0
LWPOLYLINE
  5
219
100
AcDbEntity
  8
RACCORDO
100
AcDbPolyline
 62
253
  6
CONTINUOUS
 90
7
 70
0
 10
11.451052592
 20
115.7760145768
 10
11.5905687809
 20
113.322227145
 10
11.7577751808
 20
110.8588273347
 10
11.9526717915
 20
108.3858151459
 10
12.1752586131
 20
105.9031905787
 10
12.4255356457
 20
103.410953633
 10
12.7035028891
 20
100.9091043088
  0
LWPOLYLINE
  5
21A
100
AcDbEntity
  8
RACCORDO
100
AcDbPolyline
 62
7
  6
CONTINUOUS
 90
10
 70
0
 10
10.4972214412
 20
116.1060675627
 10
10.5314588709
 20
115.4929859788
 10
10.6367632278
 20
113.7814601804
 10
10.7554128008
 20
112.0649985731
 10
10.8873998605
 20
110.3436925119
 10
11.0327182616
 20
108.6176118853
 10
11.1913642707
 20
106.8868048676
 10
11.3633329415
 20
105.151340956
 10
11.5486172404
 20
103.4113109631
 10
11.7167249383
 20
101.9274438312
  0
LWPOLYLINE
  5
21B
100
AcDbEntity
  8
RACCORDO
100
AcDbPolyline
 62
253
  6
CONTINUOUS
 90
8
 70
0
 10
12.7035064329
 20
100.909102862
 10
12.7108540892
 20
100.7699044926
 10
12.7291542144
 20
100.6460277829
 10
12.7582048819
 20
100.5388397696
 10
12.7977388974
 20
100.4494274995
 10
12.8472905703
 20
100.3789186742
 10
12.9060838275
 20
100.3282397263
 10
12.9476100917
 20
100.3066279002
  0
LINE
  5
21C
100
AcDbEntity
  8
RACCORDO
100
AcDbLine
 62
253
  6
CONTINUOUS
 10
10.3725485576
 20
116.6544755058
 11
10.3766809587
 21
116.553443024
  0
LINE
  5
21D
100
AcDbEntity
  8
0
100
AcDbLine
 62
253
  6
CONTINUOUS
 10
10.5025587363
 20
126.0608265363
 11
10.5058161713
 21
125.972960253
  0
LINE
  5
21E
100
AcDbEntity
  8
0
100
AcDbLine
 62
253
  6
CONTINUOUS
 10
10.482965491
 20
126.7046790101
 11
10.5025587363
 21
126.0608265363
  0
LWPOLYLINE
  5
21F
100
AcDbEntity
  8
RACCORDO
100
AcDbPolyline
 62
7
  6
CONTINUOUS
 90
10
 70
0
 10
8.3491589867
 20
126.3106065958
 10
8.3692375642
 20
125.6458201429
 10
8.4056418239
 20
124.6956796654
 10
8.4512057997
 20
123.742131575
 10
8.5059258177
 20
122.7852298306
 10
8.5697978892
 20
121.8250269258
 10
8.6428180088
 20
120.8615761199
 10
8.7249819325
 20
119.8949311523
 10
8.8162832465
 20
118.9251540631
 10
8.884414383
 20
118.2560313328
  0
LWPOLYLINE
  5
220
100
AcDbEntity
  8
0
100
AcDbPolyline
 62
7
  6
CONTINUOUS
 90
9
 70
0
 10
8.3493275499
 20
126.3106088983
 10
8.3487593943
 20
126.3510915924
 10
8.3570115728
 20
126.5094194707
 10
8.382249081
 20
126.6668697149
 10
8.4241766792
 20
126.8234377992
 10
8.4820495026
 20
126.9764603738
 10
8.5556192631
 20
127.1250496554
 10
8.6451342489
 20
127.2700934272
 10
8.75059446
 20
127.4115916893
  0
LWPOLYLINE
  5
221
100
AcDbEntity
  8
RACCORDO
100
AcDbPolyline
 62
253
  6
CONTINUOUS
 90
11
 70
0
 10
8.8879430802
 20
118.2261551932
 10
8.9219535812
 20
118.0470278257
 10
8.9783458838
 20
117.8714102233
 10
9.0568193501
 20
117.7007154817
 10
9.1566651999
 20
117.5362390516
 10
9.2770727887
 20
117.3791239732
 10
9.4172108533
 20
117.2306676331
 10
9.5760490411
 20
117.0920386632
 10
9.7523529552
 20
116.9641194902
 10
9.9448674436
 20
116.8478953052
 10
10.1522254108
 20
116.7444233728
  0
LWPOLYLINE
  5
222
100
AcDbEntity
  8
RACCORDO
100
AcDbPolyline
 62
7
  6
CONTINUOUS
 90
9
 70
0
 10
8.8844516145
 20
118.2563863524
 10
8.9095694271
 20
118.0785416142
 10
8.9713299192
 20
117.814542781
 10
9.0617914208
 20
117.5567159167
 10
9.1803054302
 20
117.3081588966
 10
9.325392235
 20
117.0720675251
 10
9.4960788378
 20
116.8502446929
 10
9.6914958159
 20
116.6445586768
 10
9.909424537
 20
116.4577209466
  0
LINE
  5
223
100
AcDbEntity
  8
RACCORDO
100
AcDbLine
 62
253
  6
CONTINUOUS
 10
8.8844886669
 20
118.2560327941
 11
8.8879430802
 21
118.2261551932
  0
LINE
  5
224
100
AcDbEntity
  8
0
100
AcDbLine
 62
7
  6
CONTINUOUS
 10
25.9656052591
 20
141.0002559958
 11
26.0792563668
 21
142.0145182972
  0
LWPOLYLINE
  5
225
100
AcDbEntity
  8
RACCORDO
100
AcDbPolyline
 62
7
  6
CONTINUOUS
 90
32
 70
0
 10
29.2537925537
 20
140.8562944263
 10
29.2572734689
 20
140.8650697525
 10
29.2607120889
 20
140.8739748104
 10
29.2641052815
 20
140.8830100931
 10
29.2674288306
 20
140.8921278041
 10
29.2707012502
 20
140.9013763247
 10
29.2739804886
 20
140.9109013958
 10
29.2772770589
 20
140.9207411353
 10
29.2805671904
 20
140.930860089
 10
29.2838531818
 20
140.9412948948
 10
29.2871285422
 20
140.9520502116
 10
29.2903838599
 20
140.9631238427
 10
29.2936148461
 20
140.974542517
 10
29.2968121565
 20
140.9863051736
 10
29.2999664415
 20
140.9984147398
 10
29.3030709697
 20
141.0109041688
 10
29.3061151157
 20
141.0237729478
 10
29.3090871081
 20
141.0370225042
 10
29.3119753524
 20
141.0506888551
 10
29.3147673215
 20
141.0647701203
 10
29.31744873
 20
141.0792674443
 10
29.3200013538
 20
141.0942213251
 10
29.3224105976
 20
141.1096284042
 10
29.3246588309
 20
141.1254885996
 10
29.3267181163
 20
141.1418468838
 10
29.328571565
 20
141.158697499
 10
29.3301972459
 20
141.1760383809
 10
29.331552927
 20
141.1939188962
 10
29.3326193778
 20
141.212329718
 10
29.3333690118
 20
141.2312652744
 10
29.333738204
 20
141.2507781383
 10
29.3337719362
 20
141.2590154581
  0
LWPOLYLINE
  5
226
100
AcDbEntity
  8
0
100
AcDbPolyline
 62
7
  6
CONTINUOUS
 90
7
 70
0
 10
10.4829656562
 20
126.7046792128
 10
10.4350130026
 20
126.637554843
 10
10.3976686563
 20
126.5688168596
 10
10.3709326171
 20
126.4984652627
 10
10.354734657
 20
126.4257060656
 10
10.3491450041
 20
126.3513332549
 10
10.3492914346
 20
126.3375505975
  0
LINE
  5
227
100
AcDbEntity
  8
0
100
AcDbLine
 62
7
  6
CONTINUOUS
 10
8.75059446
 20
127.4115916893
 11
45.7507528573
 21
172.7273459265
  0
LINE
  5
228
100
AcDbEntity
  8
0
100
AcDbLine
 62
7
  6
CONTINUOUS
 10
10.4829656562
 20
126.7046792128
 11
23.1078427312
 21
142.1669326624
  0
LINE
  5
229
100
AcDbEntity
  8
0
100
AcDbLine
 62
7
  6
CONTINUOUS
 10
23.7078427312
 20
142.9017795852
 11
31.0828427312
 21
151.9342730117
  0
LINE
  5
22A
100
AcDbEntity
  8
0
100
AcDbLine
 62
7
  6
CONTINUOUS
 10
31.6828427312
 20
152.6691199346
 11
34.2578427312
 21
155.8228379784
  0
LINE
  5
22B
100
AcDbEntity
  8
0
100
AcDbLine
 62
7
  6
CONTINUOUS
 10
34.8578427312
 20
156.5576849012
 11
47.482805437
 21
172.0200432266
  0
LINE
  5
22C
100
AcDbEntity
  8
0
100
AcDbLine
 62
7
  6
CONTINUOUS
 10
26.6792563668
 20
142.74936522
 11
26.0792563668
 21
142.0145182972
  0
LINE
  5
22D
100
AcDbEntity
  8
0
100
AcDbLine
 62
7
  6
CONTINUOUS
 10
34.0542563668
 20
151.7818586465
 11
34.6542563668
 21
152.5167055693
  0
LINE
  5
22E
100
AcDbEntity
  8
0
100
AcDbLine
 62
7
  6
CONTINUOUS
 10
37.2292563668
 20
155.6704236132
 11
37.8292563668
 21
156.405270536
  0
LWPOLYLINE
  5
22F
100
AcDbEntity
  8
0
100
AcDbPolyline
 62
7
  6
CONTINUOUS
 90
22
 70
0
 10
45.7507528573
 20
172.7273459265
 10
45.8713240696
 20
172.8626761783
 10
46.0042107561
 20
172.9900136215
 10
46.1494129166
 20
173.1093582562
 10
46.3078935034
 20
173.2213057025
 10
46.4786895643
 20
173.3252603402
 10
46.6589122428
 20
173.4194353096
 10
46.8487039775
 20
173.5036478303
 10
47.0479223299
 20
173.5780806827
 10
47.2532511279
 20
173.6414953483
 10
47.4647926015
 20
173.6937073235
 10
47.6824445208
 20
173.7349011119
 10
47.902584023
 20
173.7643917057
 10
48.1252526704
 20
173.7819831337
 10
48.3504089008
 20
173.7878713672
 10
48.5743051657
 20
173.7819593117
 10
48.7969933477
 20
173.7640193604
 10
49.0184215642
 20
173.7342791201
 10
49.2346866187
 20
173.6933243179
 10
49.4444874459
 20
173.6413501962
 10
49.6491251112
 20
173.5781615125
 10
49.8485996146
 20
173.5037582668
  0
LWPOLYLINE
  5
230
100
AcDbEntity
  8
RACCORDO
100
AcDbPolyline
 62
253
  6
CONTINUOUS
 90
3
 70
0
 10
11.7529797181
 20
101.7568808092
 10
11.7208464182
 20
101.8965521301
 10
11.716761875
 20
101.9271482766
  0
LWPOLYLINE
  5
231
100
AcDbEntity
  8
0
100
AcDbPolyline
 62
7
  6
CONTINUOUS
 90
6
 70
0
 10
26.2823242432
 20
119.438167388
 10
26.1574275599
 20
120.7215387425
 10
25.8881293134
 20
123.9333317666
 10
25.66366404
 20
127.1291244531
 10
25.4839926322
 20
130.3092680177
 10
25.3491150903
 20
133.4737624603
  0
LWPOLYLINE
  5
232
100
AcDbEntity
  8
0
100
AcDbPolyline
 62
7
  6
CONTINUOUS
 90
10
 70
0
 10
23.5337767026
 20
134.2148712536
 10
23.4556172941
 20
135.1097578504
 10
23.3851643552
 20
136.0018485531
 10
23.3224178859
 20
136.8911433618
 10
23.2673753752
 20
137.7776891571
 10
23.2200393342
 20
138.6614390585
 10
23.180417296
 20
139.5422524239
 10
23.1485117716
 20
140.4200823727
 10
23.12432025
 20
141.2949757855
 10
23.1078427312
 20
142.1669326624
  0
LWPOLYLINE
  5
233
100
AcDbEntity
  8
RACCORDO
100
AcDbPolyline
 62
7
  6
CONTINUOUS
 90
22
 70
0
 10
29.3337719362
 20
141.2590154581
 10
29.3337057165
 20
141.2708535015
 10
29.3332364527
 20
141.2914797744
 10
29.3322342741
 20
141.3127095911
 10
29.3306771324
 20
141.334519881
 10
29.3285198845
 20
141.3568883922
 10
29.3256162589
 20
141.3798599039
 10
29.3219462736
 20
141.4033992402
 10
29.3174516371
 20
141.4274645507
 10
29.3119086395
 20
141.452073505
 10
29.305305011
 20
141.4771737188
 10
29.2975672119
 20
141.5026864649
 10
29.28835586
 20
141.528558173
 10
29.2776745436
 20
141.5547125221
 10
29.2654406533
 20
141.5810016636
 10
29.2511635776
 20
141.6072084137
 10
29.2348655787
 20
141.6332186331
 10
29.2164940714
 20
141.6587662747
 10
29.1954433808
 20
141.6833191115
 10
29.1715432051
 20
141.7064838889
 10
29.1450811766
 20
141.7280408575
 10
29.1161841894
 20
141.7476415454
  0
LINE
  5
234
100
AcDbEntity
  8
RACCORDO
100
AcDbLine
 62
253
  6
CONTINUOUS
 10
28.4337776599
 20
141.0532890044
 11
28.4337776599
 21
119.9815068932
  0
LINE
  5
235
100
AcDbEntity
  8
RACCORDO
100
AcDbLine
 62
7
  6
CONTINUOUS
 10
29.3337776599
 20
141.06793586
 11
29.3337776599
 21
122.1444374811
  0
LINE
  5
236
100
AcDbEntity
  8
0
100
AcDbLine
 62
7
  6
CONTINUOUS
 10
29.2130371234
 20
120.9359009252
 11
29.278653623
 21
122.0769245996
  0
LINE
  5
237
100
AcDbEntity
  8
0
100
AcDbLine
 62
7
  6
CONTINUOUS
 10
30.252267608
 20
120.5116368565
 11
30.3178841076
 21
121.6526605309
  0
LINE
  5
238
100
AcDbEntity
  8
0
100
AcDbLine
 62
7
  6
CONTINUOUS
 10
33.9406052591
 20
150.7675963452
 11
34.0542563668
 21
151.7818586465
  0
LWPOLYLINE
  5
239
100
AcDbEntity
  8
RACCORDO
100
AcDbPolyline
 62
7
  6
CONTINUOUS
 90
32
 70
0
 10
40.4037925537
 20
154.5121997423
 10
40.4072734689
 20
154.5209750685
 10
40.4107120889
 20
154.5298801264
 10
40.4141052815
 20
154.5389154092
 10
40.4174288306
 20
154.5480331201
 10
40.4207012502
 20
154.5572816407
 10
40.4239804886
 20
154.5668067118
 10
40.4272770589
 20
154.5766464513
 10
40.4305671904
 20
154.5867654051
 10
40.4338531818
 20
154.5972002108
 10
40.4371285422
 20
154.6079555277
 10
40.4403838599
 20
154.6190291587
 10
40.4436148461
 20
154.630447833
 10
40.4468121565
 20
154.6422104897
 10
40.4499664415
 20
154.6543200559
 10
40.4530709697
 20
154.6668094848
 10
40.4561151157
 20
154.6796782639
 10
40.4590871081
 20
154.6929278202
 10
40.4619753524
 20
154.7065941711
 10
40.4647673215
 20
154.7206754363
 10
40.46744873
 20
154.7351727603
 10
40.4700013538
 20
154.7501266412
 10
40.4724105976
 20
154.7655337202
 10
40.4746588309
 20
154.7813939156
 10
40.4767181163
 20
154.7977521998
 10
40.478571565
 20
154.8146028151
 10
40.4801972459
 20
154.8319436969
 10
40.481552927
 20
154.8498242122
 10
40.4826193778
 20
154.868235034
 10
40.4833690118
 20
154.8871705904
 10
40.483738204
 20
154.9066834544
 10
40.4837719362
 20
154.9149207741
  0
LINE
  5
23A
100
AcDbEntity
  8
0
100
AcDbLine
 62
7
  6
CONTINUOUS
 10
36.1056687686
 20
150.9443730405
 11
36.7056687686
 21
151.6792199633
  0
LINE
  5
23B
100
AcDbEntity
  8
RACCORDO
100
AcDbLine
 62
253
  6
CONTINUOUS
 10
40.2661841894
 20
155.4035468614
 11
39.6745762111
 21
154.6789780241
  0
LINE
  5
23C
100
AcDbEntity
  8
RACCORDO
100
AcDbLine
 62
253
  6
CONTINUOUS
 10
29.1161841894
 20
141.7476415454
 11
28.5245762111
 21
141.0230727081
  0
LINE
  5
23D
100
AcDbEntity
  8
0
100
AcDbLine
 62
7
  6
CONTINUOUS
 10
47.664290113
 20
163.7685937971
 11
40.4819852593
 21
154.9721027626
  0
LINE
  5
23E
100
AcDbEntity
  8
0
100
AcDbLine
 62
7
  6
CONTINUOUS
 10
31.5087767026
 20
143.982211603
 11
29.3319852593
 21
141.3161974466
  0
LINE
  5
23F
100
AcDbEntity
  8
0
100
AcDbLine
 62
7
  6
CONTINUOUS
 10
23.5337767026
 20
134.2148712536
 11
15.1720670666
 21
123.9739102609
  0
LINE
  5
240
100
AcDbEntity
  8
0
100
AcDbLine
 62
7
  6
CONTINUOUS
 10
16.9874055169
 20
123.2328015442
 11
25.3491150903
 21
133.4737624603
  0
LINE
  5
241
100
AcDbEntity
  8
0
100
AcDbLine
 62
7
  6
CONTINUOUS
 10
29.3337776599
 20
138.3539575067
 11
33.3241150903
 21
143.2411028096
  0
LINE
  5
242
100
AcDbEntity
  8
0
100
AcDbLine
 62
7
  6
CONTINUOUS
 10
40.4837776599
 20
152.0098628227
 11
48.9474294432
 21
162.3756769376
  0
LWPOLYLINE
  5
243
100
AcDbEntity
  8
RACCORDO
100
AcDbPolyline
 62
7
  6
CONTINUOUS
 90
25
 70
0
 10
47.664290113
 20
163.7685937971
 10
47.6990288196
 20
163.808040559
 10
47.7369631427
 20
163.8455078723
 10
47.7780930824
 20
163.8809957372
 10
47.8226179617
 20
163.9146403423
 10
47.8703384576
 20
163.9463054989
 10
47.9206566008
 20
163.9755826406
 10
47.9736089928
 20
164.0024417974
 10
48.029159032
 20
164.0269129394
 10
48.0865989438
 20
164.0486774092
 10
48.1459542947
 20
164.0676993112
 10
48.2071995182
 20
164.0840145411
 10
48.2695501399
 20
164.0974121297
 10
48.3330208206
 20
164.1078532558
 10
48.3975968994
 20
164.1153767406
 10
48.4624499188
 20
164.1198880782
 10
48.5275830521
 20
164.1213471753
 10
48.592993126
 20
164.1197941253
 10
48.6578421629
 20
164.1152547025
 10
48.7221196803
 20
164.1076900551
 10
48.7858361608
 20
164.097139035
 10
48.8481850751
 20
164.0837439714
 10
48.9088975799
 20
164.0675523076
 10
48.9682425185
 20
164.0485166004
 10
49.0262198909
 20
164.0266368498
  0
LWPOLYLINE
  5
244
100
AcDbEntity
  8
0
100
AcDbPolyline
 62
7
  6
CONTINUOUS
 90
10
 70
0
 10
31.5087767026
 20
143.982211603
 10
31.4306172941
 20
144.8770981997
 10
31.3601643552
 20
145.7691889024
 10
31.2974178859
 20
146.6584837112
 10
31.2423753752
 20
147.5450295065
 10
31.1950393342
 20
148.4287794079
 10
31.1554172959
 20
149.3095927733
 10
31.1235117716
 20
150.1874227221
 10
31.09932025
 20
151.0623161349
 10
31.0828427312
 20
151.9342730117
  0
LWPOLYLINE
  5
245
100
AcDbEntity
  8
RACCORDO
100
AcDbPolyline
 62
7
  6
CONTINUOUS
 90
19
 70
0
 10
31.4825718219
 20
123.1924156791
 10
31.4804556345
 20
123.2261643725
 10
31.4664178756
 20
123.2896180955
 10
31.4402431076
 20
123.349558228
 10
31.4012237341
 20
123.405753896
 10
31.3500673516
 20
123.4584359736
 10
31.2900757464
 20
123.5043388938
 10
31.2206994823
 20
123.543047757
 10
31.1424879957
 20
123.5749774627
 10
31.060391382
 20
123.598107143
 10
30.9741762133
 20
123.6118928882
 10
30.8840759177
 20
123.616878608
 10
30.7957408748
 20
123.6126751628
 10
30.7092421208
 20
123.5987338029
 10
30.6245086196
 20
123.575603278
 10
30.5469776421
 20
123.5445406974
 10
30.4784616121
 20
123.5059650975
 10
30.4171481059
 20
123.4594574418
 10
30.3630371234
 20
123.4050177304
  0
LINE
  5
246
100
AcDbEntity
  8
0
100
AcDbLine
 62
7
  6
CONTINUOUS
 10
34.3775153972
 20
152.1777684861
 11
34.3700393342
 21
152.3173443746
  0
LWPOLYLINE
  5
247
100
AcDbEntity
  8
0
100
AcDbPolyline
 62
7
  6
CONTINUOUS
 90
5
 70
0
 10
34.3700393342
 20
152.3173443746
 10
34.3304172959
 20
153.19815774
 10
34.2985117716
 20
154.0759876888
 10
34.27432025
 20
154.9508811016
 10
34.2578427312
 20
155.8228379784
  0
LINE
  5
248
100
AcDbEntity
  8
RACCORDO
100
AcDbLine
 62
253
  6
CONTINUOUS
 10
31.402267608
 20
117.3479592297
 11
31.402267608
 21
122.9807536617
  0
LINE
  5
249
100
AcDbEntity
  8
RACCORDO
100
AcDbLine
 62
7
  6
CONTINUOUS
 10
31.4826523657
 20
117.3151422868
 11
31.4826523657
 21
123.192885696
  0
LINE
  5
24A
100
AcDbEntity
  8
0
100
AcDbLine
 62
7
  6
CONTINUOUS
 10
36.1056687686
 20
150.9443730405
 11
36.1056687686
 21
115.4278035711
  0
LINE
  5
24B
100
AcDbEntity
  8
0
100
AcDbLine
 62
7
  6
CONTINUOUS
 10
36.7056687686
 20
151.6792199633
 11
36.7056687686
 21
115.2230058914
  0
LINE
  5
24C
100
AcDbEntity
  8
RACCORDO
100
AcDbLine
 62
253
  6
CONTINUOUS
 10
39.5837776599
 20
154.7091943204
 11
39.5837776599
 21
116.4712151101
  0
LINE
  5
24D
100
AcDbEntity
  8
0
100
AcDbLine
 62
7
  6
CONTINUOUS
 10
37.1156052591
 20
154.6561613118
 11
37.2292563668
 21
155.6704236132
  0
LWPOLYLINE
  5
24E
100
AcDbEntity
  8
RACCORDO
100
AcDbPolyline
 62
7
  6
CONTINUOUS
 90
5
 70
0
 10
31.402267608
 20
122.9807536617
 10
31.4418868741
 20
123.0411095915
 10
31.4681901337
 20
123.1019101205
 10
31.4811773869
 20
123.1631552486
 10
31.4825718219
 20
123.1924156791
  0
LWPOLYLINE
  5
24F
100
AcDbEntity
  8
RACCORDO
100
AcDbPolyline
 62
7
  6
CONTINUOUS
 90
5
 70
0
 10
62.7630371234
 20
163.0867515635
 10
62.7234178573
 20
163.0263956337
 10
62.6971145977
 20
162.9655951047
 10
62.6841273445
 20
162.9043499765
 10
62.6827329095
 20
162.8750895461
  0
LINE
  5
250
100
AcDbEntity
  8
RACCORDO
100
AcDbLine
 62
7
  6
CONTINUOUS
 10
63.8474206238
 20
164.4148446942
 11
62.7630371234
 21
163.0867515635
  0
LINE
  5
251
100
AcDbEntity
  8
RACCORDO
100
AcDbLine
 62
7
  6
CONTINUOUS
 10
30.3630371234
 20
123.4050177304
 11
29.278653623
 21
122.0769245996
  0
LINE
  5
252
100
AcDbEntity
  8
0
100
AcDbLine
 62
7
  6
CONTINUOUS
 10
65.562964531
 20
165.4552880921
 11
64.4969396961
 21
164.1496796434
  0
LINE
  5
253
100
AcDbEntity
  8
0
100
AcDbLine
 62
7
  6
CONTINUOUS
 10
27.5631876178
 20
118.9152562036
 11
29.2130371234
 21
120.9359009252
  0
LINE
  5
254
100
AcDbEntity
  8
RACCORDO
100
AcDbLine
 62
7
  6
CONTINUOUS
 10
30.3178841076
 20
121.6526605309
 11
31.402267608
 21
122.9807536617
  0
LINE
  5
255
100
AcDbEntity
  8
RACCORDO
100
AcDbLine
 62
7
  6
CONTINUOUS
 10
63.802267608
 20
162.6624874948
 11
64.8866511084
 21
163.9905806255
  0
LINE
  5
256
100
AcDbEntity
  8
0
100
AcDbLine
 62
7
  6
CONTINUOUS
 10
66.6021950158
 20
165.0310240237
 11
64.952267608
 21
163.0102838938
  0
LINE
  5
257
100
AcDbEntity
  8
0
100
AcDbLine
 62
7
  6
CONTINUOUS
 10
28.6024181023
 20
118.4909921349
 11
30.252267608
 21
120.5116368565
  0
LWPOLYLINE
  5
258
100
AcDbEntity
  8
RACCORDO
100
AcDbPolyline
 62
7
  6
CONTINUOUS
 90
7
 70
0
 10
12.1761684699
 20
100.8669473638
 10
12.054391937
 20
101.0265644965
 10
11.9488488904
 20
101.198285503
 10
11.8608700906
 20
101.3803637123
 10
11.7915058408
 20
101.5711159801
 10
11.7416832689
 20
101.7686673821
 10
11.716720141
 20
101.9275077907
  0
LWPOLYLINE
  5
259
100
AcDbEntity
  8
RACCORDO
100
AcDbPolyline
 62
253
  6
CONTINUOUS
 90
8
 70
0
 10
10.4801243626
 20
116.1723943666
 10
10.4965102499
 20
116.1487812821
 10
10.5138990032
 20
116.127296539
 10
10.5322701748
 20
116.1079664537
 10
10.5515991987
 20
116.0908161924
 10
10.5718659561
 20
116.0758654011
 10
10.5930550881
 20
116.0631288209
 10
10.6163467736
 20
116.052124539
  0
LWPOLYLINE
  5
25A
100
AcDbEntity
  8
0
100
AcDbPolyline
 62
7
  6
CONTINUOUS
 90
10
 70
0
 10
35.9566625579
 20
115.4886351074
 10
35.6211493689
 20
117.7413797297
 10
35.1804671328
 20
120.9802342643
 10
34.7836220604
 20
124.2047225723
 10
34.4305777431
 20
127.4151727594
 10
34.1213705895
 20
130.6112567199
 10
33.8561098249
 20
133.7919901368
 10
33.6348318577
 20
136.9570449046
 10
33.4575002795
 20
140.1067491289
 10
33.3241150903
 20
143.2411028096
  0
LWPOLYLINE
  5
25B
100
AcDbEntity
  8
RACCORDO
100
AcDbPolyline
 62
7
  6
CONTINUOUS
 90
22
 70
0
 10
40.4837719362
 20
154.9149207741
 10
40.4837057165
 20
154.9267588176
 10
40.4832364527
 20
154.9473850904
 10
40.4822342741
 20
154.9686149071
 10
40.4806771324
 20
154.990425197
 10
40.4785198845
 20
155.0127937083
 10
40.4756162589
 20
155.0357652199
 10
40.4719462736
 20
155.0593045562
 10
40.4674516371
 20
155.0833698668
 10
40.4619086395
 20
155.107978821
 10
40.455305011
 20
155.1330790348
 10
40.4475672119
 20
155.158591781
 10
40.43835586
 20
155.184463489
 10
40.4276745436
 20
155.2106178381
 10
40.4154406533
 20
155.2369069796
 10
40.4011635776
 20
155.2631137297
 10
40.3848655787
 20
155.2891239491
 10
40.3664940714
 20
155.3146715907
 10
40.3454433808
 20
155.3392244275
 10
40.3215432051
 20
155.3623892049
 10
40.2950811766
 20
155.3839461736
 10
40.2661841894
 20
155.4035468614
  0
LINE
  5
25C
100
AcDbEntity
  8
RACCORDO
100
AcDbLine
 62
7
  6
CONTINUOUS
 10
40.4837776599
 20
154.723841176
 11
40.4837776599
 21
114.3452548383
  0
LINE
  5
25D
100
AcDbEntity
  8
ASSI
100
AcDbLine
 62
7
  6
CONTINUOUS
 10
47.3141147289
 20
115.4185494183
 11
47.3141147289
 21
115.2749464197
  0
LINE
  5
25E
100
AcDbEntity
  8
ASSI
100
AcDbLine
 62
7
  6
CONTINUOUS
 10
47.3895283868
 20
112.9898608004
 11
47.3895283868
 21
112.8462578019
  0
LWPOLYLINE
  5
25F
100
AcDbEntity
  8
RACCORDO
100
AcDbPolyline
 62
7
  6
CONTINUOUS
 90
56
 70
0
 10
40.483777609
 20
114.3442412383
 10
40.4835635298
 20
114.2958550748
 10
40.4829119693
 20
114.2494435106
 10
40.4818000827
 20
114.2040122299
 10
40.4801805969
 20
114.1594496202
 10
40.4780236389
 20
114.1157824851
 10
40.4752796452
 20
114.0730104215
 10
40.4718091601
 20
114.0309894413
 10
40.4675721058
 20
113.989609426
 10
40.4624410324
 20
113.949033703
 10
40.4559835032
 20
113.909561442
 10
40.4479142084
 20
113.8700422534
 10
40.4380422421
 20
113.8317915118
 10
40.4258682414
 20
113.7988760549
 10
40.4099203516
 20
113.7718842154
 10
40.3907313507
 20
113.7506999069
 10
40.3717511319
 20
113.7379845605
 10
40.3553527696
 20
113.7358604952
 10
40.3404472292
 20
113.7417093454
 10
40.3259930603
 20
113.7507534312
 10
40.3118759042
 20
113.7617607256
 10
40.2984917327
 20
113.7758321573
 10
40.2852816595
 20
113.7918441607
 10
40.2721555627
 20
113.8095428226
 10
40.2593116419
 20
113.8291300914
 10
40.2465372002
 20
113.8502242971
 10
40.2338284724
 20
113.8727244107
 10
40.2212495431
 20
113.8967019617
 10
40.2086600683
 20
113.9220574931
 10
40.1960524084
 20
113.9487637513
 10
40.1834694056
 20
113.9768337907
 10
40.1708322979
 20
114.0062419167
 10
40.1581432348
 20
114.0369704919
 10
40.1454241833
 20
114.069030493
 10
40.1326191064
 20
114.102446997
 10
40.1197308607
 20
114.1372122282
 10
40.106774601
 20
114.1733326813
 10
40.0937087251
 20
114.2108603998
 10
40.0805371196
 20
114.2497916147
 10
40.0672707682
 20
114.290132781
 10
40.0538763585
 20
114.3319555517
 10
40.0403585369
 20
114.3752587788
 10
40.0267261745
 20
114.4200495657
 10
40.0129509302
 20
114.4664155347
 10
39.9990383039
 20
114.5143574822
 10
39.9849962388
 20
114.5638834899
 10
39.9707993758
 20
114.6150953604
 10
39.9564543643
 20
114.6679953626
 10
39.9419689901
 20
114.7225928903
 10
39.9273194655
 20
114.7790035752
 10
39.9125139628
 20
114.8372310172
 10
39.8975607641
 20
114.8972860785
 10
39.8824366328
 20
114.959298499
 10
39.8671517941
 20
115.0232730996
 10
39.8517156168
 20
115.0892224503
 10
39.8361045404
 20
115.1572913704
  0
LWPOLYLINE
  5
260
100
AcDbEntity
  8
0
100
AcDbPolyline
 62
7
  6
CONTINUOUS
 90
25
 70
0
 10
47.264832714
 20
117.7914488089
 10
47.4166789214
 20
119.8398377999
 10
47.5610661144
 20
121.8753045618
 10
47.6978899237
 20
123.8973748798
 10
47.8268399037
 20
125.9056467698
 10
47.9480295684
 20
127.8995812858
 10
48.0619951826
 20
129.8785017602
 10
48.1686726431
 20
131.8419548569
 10
48.2679497052
 20
133.7894669381
 10
48.3602956821
 20
135.7203346716
 10
48.4456582624
 20
137.6340750587
 10
48.5239387962
 20
139.5302632869
 10
48.5955427446
 20
141.4082877309
 10
48.660425713
 20
143.2676214086
 10
48.7185046288
 20
145.1079029405
 10
48.770125657
 20
146.9287675489
 10
48.8152493092
 20
148.7297486998
 10
48.8537978961
 20
150.5104324253
 10
48.8860519267
 20
152.2705240622
 10
48.9119765112
 20
154.0095819723
 10
48.9314975316
 20
155.7271716847
 10
48.9448274976
 20
157.4229986831
 10
48.9520009557
 20
159.096670803
 10
48.9528827033
 20
160.7477070548
 10
48.9474294432
 20
162.3756769376
  0
LINE
  5
261
100
AcDbEntity
  8
ASSI
100
AcDbLine
 62
7
  6
CONTINUOUS
 10
47.3141147289
 20
115.4185494183
 11
46.4928614445
 21
112.2712993257
  0
LINE
  5
262
100
AcDbEntity
  8
ASSI
100
AcDbLine
 62
7
  6
CONTINUOUS
 10
47.3141147289
 20
115.2749464197
 11
46.527944789
 21
112.262144568
  0
LINE
  5
263
100
AcDbEntity
  8
ASSI
100
AcDbLine
 62
7
  6
CONTINUOUS
 10
47.3895283868
 20
112.9898608004
 11
47.9550055706
 21
115.1569068278
  0
LINE
  5
264
100
AcDbEntity
  8
0
100
AcDbLine
 62
7
  6
CONTINUOUS
 10
66.3562819155
 20
156.9516686546
 11
65.325581961
 21
155.6893241713
  0
LINE
  5
265
100
AcDbEntity
  8
0
100
AcDbLine
 62
7
  6
CONTINUOUS
 10
36.6810812093
 20
115.1928924044
 11
36.7056687686
 21
115.2230058914
  0
LINE
  5
266
100
AcDbEntity
  8
RACCORDO
100
AcDbLine
 62
7
  6
CONTINUOUS
 10
39.8361045404
 20
115.1572913704
 11
39.8044077257
 21
115.2998205285
  0
LINE
  5
267
100
AcDbEntity
  8
RACCORDO
100
AcDbLine
 62
7
  6
CONTINUOUS
 10
39.8044077257
 20
115.2998205285
 11
39.7720501888
 21
115.4514017719
  0
LINE
  5
268
100
AcDbEntity
  8
RACCORDO
100
AcDbLine
 62
7
  6
CONTINUOUS
 10
39.7720501888
 20
115.4514017719
 11
39.7390712972
 21
115.6124491065
  0
LINE
  5
269
100
AcDbEntity
  8
RACCORDO
100
AcDbLine
 62
7
  6
CONTINUOUS
 10
39.7390712972
 20
115.6124491065
 11
39.7054867738
 21
115.7835654126
  0
LINE
  5
26A
100
AcDbEntity
  8
RACCORDO
100
AcDbLine
 62
7
  6
CONTINUOUS
 10
39.7054867738
 20
115.7835654126
 11
39.6713088106
 21
115.9654349885
  0
LINE
  5
26B
100
AcDbEntity
  8
RACCORDO
100
AcDbLine
 62
7
  6
CONTINUOUS
 10
39.6713088106
 20
115.9654349885
 11
39.6366251295
 21
116.1585876079
  0
LWPOLYLINE
  5
26C
100
AcDbEntity
  8
RACCORDO
100
AcDbPolyline
 62
7
  6
CONTINUOUS
 90
3
 70
0
 10
39.6366251295
 20
116.1585876079
 10
39.6014470491
 20
116.3639560503
 10
39.5837776599
 20
116.4712151101
  0
LWPOLYLINE
  5
26D
100
AcDbEntity
  8
RACCORDO
100
AcDbPolyline
 62
7
  6
CONTINUOUS
 90
9
 70
0
 10
39.5837776599
 20
116.4712151101
 10
39.0422690261
 20
119.9423446771
 10
38.5503996317
 20
123.3977705717
 10
38.1081694767
 20
126.837492794
 10
37.7155080975
 20
130.2621180564
 10
37.3724859577
 20
133.6710396465
 10
37.0793144481
 20
137.0624374272
 10
36.836064032
 20
140.4357046862
 10
36.7056687686
 20
142.6982358942
  0
LWPOLYLINE
  5
26E
100
AcDbEntity
  8
0
100
AcDbPolyline
 62
7
  6
CONTINUOUS
 90
10
 70
0
 10
54.7415579635
 20
112.5965494676
 10
54.7527300032
 20
112.4052057589
 10
54.7962395572
 20
112.1683391647
 10
54.8714075518
 20
111.9378488913
 10
54.9791535889
 20
111.7139209075
 10
55.1185580666
 20
111.4963692446
 10
55.2856053205
 20
111.2914504888
 10
55.4789567958
 20
111.1012501689
 10
55.6999510474
 20
110.9236827561
 10
55.9485880752
 20
110.7587482505
  0
LWPOLYLINE
  5
26F
100
AcDbEntity
  8
0
100
AcDbPolyline
 62
253
  6
CONTINUOUS
 90
13
 70
0
 10
47.6642902107
 20
163.7685939167
 10
47.6390747605
 20
164.4799004035
 10
47.615677538
 20
165.1869654732
 10
47.5941057325
 20
165.8897673053
 10
47.5743707514
 20
166.5882795576
 10
47.5564750814
 20
167.2824849556
 10
47.5404128793
 20
167.9723750776
 10
47.5261916419
 20
168.6579263733
 10
47.5138181883
 20
169.3391183112
 10
47.5032866419
 20
170.0159465501
 10
47.4946002819
 20
170.6883946569
 10
47.4877708366
 20
171.3564343744
 10
47.4828055516
 20
172.0200433666
  0
LWPOLYLINE
  5
270
100
AcDbEntity
  8
0
100
AcDbPolyline
 62
253
  6
CONTINUOUS
 90
13
 70
0
 10
49.0262197225
 20
164.0266369186
 10
49.0015417897
 20
164.7380455208
 10
48.978664035
 20
165.4452071222
 10
48.9575823307
 20
166.1480977801
 10
48.9382858346
 20
166.846685795
 10
48.9207774221
 20
167.5409551608
 10
48.9050733038
 20
168.2309051257
 10
48.8911688329
 20
168.9165093591
 10
48.8790603669
 20
169.5977458048
 10
48.8687649635
 20
170.2746192738
 10
48.8602852142
 20
170.9471147351
 10
48.8536097129
 20
171.615197866
 10
48.8487342074
 20
172.2788440811
  0
LWPOLYLINE
  5
271
100
AcDbEntity
  8
0
100
AcDbPolyline
 62
7
  6
CONTINUOUS
 90
9
 70
0
 10
56.2421384662
 20
112.5959052854
 10
56.2444244022
 20
112.5283181371
 10
56.2672054507
 20
112.3758560397
 10
56.3154280453
 20
112.2263102432
 10
56.3880656697
 20
112.0796327059
 10
56.4820996382
 20
111.9416697295
 10
56.5965237224
 20
111.8143700816
 10
56.7323441507
 20
111.6957849947
 10
56.8895609232
 20
111.5859144688
  0
LINE
  5
272
100
AcDbEntity
  8
ASSI
100
AcDbLine
 62
7
  6
CONTINUOUS
 10
49.3718084088
 20
114.5784994912
 11
49.3718084088
 21
114.4348964926
  0
LINE
  5
273
100
AcDbEntity
  8
ASSI
100
AcDbLine
 62
7
  6
CONTINUOUS
 10
50.4399520174
 20
114.142431689
 11
50.4399520174
 21
113.9988286904
  0
LINE
  5
274
100
AcDbEntity
  8
ASSI
100
AcDbLine
 62
7
  6
CONTINUOUS
 10
51.7216929977
 20
113.6191631249
 11
51.7216929977
 21
113.4755601264
  0
LINE
  5
275
100
AcDbEntity
  8
ASSI
100
AcDbLine
 62
7
  6
CONTINUOUS
 10
51.7324985452
 20
112.4287212432
 11
51.7324985452
 21
112.2851182447
  0
LINE
  5
276
100
AcDbEntity
  8
ASSI
100
AcDbLine
 62
7
  6
CONTINUOUS
 10
52.0840891447
 20
111.2032760604
 11
52.0840891447
 21
111.0596730618
  0
LINE
  5
277
100
AcDbEntity
  8
ASSI
100
AcDbLine
 62
7
  6
CONTINUOUS
 10
53.5851970839
 20
111.6723602321
 11
53.5851970839
 21
111.5287572335
  0
LINE
  5
278
100
AcDbEntity
  8
ASSI
100
AcDbLine
 62
7
  6
CONTINUOUS
 10
53.8873237538
 20
112.735048071
 11
53.8873237538
 21
112.5914450724
  0
LINE
  5
279
100
AcDbEntity
  8
ASSI
100
AcDbLine
 62
7
  6
CONTINUOUS
 10
54.7415233706
 20
109.2804019441
 11
54.7415233706
 21
112.5960063694
  0
LINE
  5
27A
100
AcDbEntity
  8
ASSI
100
AcDbLine
 62
7
  6
CONTINUOUS
 10
56.8915233706
 20
111.5707015366
 11
56.8915233706
 21
112.6313617084
  0
LINE
  5
27B
100
AcDbEntity
  8
ASSI
100
AcDbLine
 62
7
  6
CONTINUOUS
 10
56.8915233706
 20
113.6213112021
 11
56.8915233706
 21
114.6819713739
  0
LINE
  5
27C
100
AcDbEntity
  8
0
100
AcDbLine
 62
7
  6
CONTINUOUS
 10
56.8916672552
 20
113.6079005562
 11
56.8916672552
 21
114.668560728
  0
LINE
  5
27D
100
AcDbEntity
  8
0
100
AcDbLine
 62
7
  6
CONTINUOUS
 10
56.9878185598
 20
106.9027009557
 11
56.9878185598
 21
110.3344841475
  0
LINE
  5
27E
100
AcDbEntity
  8
0
100
AcDbLine
 62
7
  6
CONTINUOUS
 10
56.8899742668
 20
113.6205963275
 11
56.8896446216
 21
113.6064463316
  0
LINE
  5
27F
100
AcDbEntity
  8
0
100
AcDbLine
 62
7
  6
CONTINUOUS
 10
56.8899238975
 20
114.6817867505
 11
56.8894997501
 21
114.6675461744
  0
LINE
  5
280
100
AcDbEntity
  8
ASSI
100
AcDbLine
 62
7
  6
CONTINUOUS
 10
51.7324985452
 20
112.4287212432
 11
51.118408951
 21
110.3829359343
  0
LINE
  5
281
100
AcDbEntity
  8
ASSI
100
AcDbLine
 62
7
  6
CONTINUOUS
 10
51.7324985452
 20
112.2851182447
 11
51.1579517418
 21
110.3710662546
  0
LINE
  5
282
100
AcDbEntity
  8
ASSI
100
AcDbLine
 62
7
  6
CONTINUOUS
 10
52.0840891447
 20
111.2032760604
 11
52.6905355355
 21
113.2236348152
  0
LINE
  5
283
100
AcDbEntity
  8
ASSI
100
AcDbLine
 62
7
  6
CONTINUOUS
 10
50.4399520174
 20
114.142431689
 11
48.5898553572
 21
111.4152051457
  0
LINE
  5
284
100
AcDbEntity
  8
ASSI
100
AcDbLine
 62
7
  6
CONTINUOUS
 10
50.4399520174
 20
113.9988286904
 11
48.6565705021
 21
111.3699469081
  0
LINE
  5
285
100
AcDbEntity
  8
ASSI
100
AcDbLine
 62
7
  6
CONTINUOUS
 10
49.2307429047
 20
111.1535723706
 11
51.0808341989
 21
113.880792634
  0
LINE
  5
286
100
AcDbEntity
  8
ASSI
100
AcDbLine
 62
7
  6
CONTINUOUS
 10
51.7216929977
 20
113.6191631249
 11
49.8716094977
 21
110.8919396796
  0
LINE
  5
287
100
AcDbEntity
  8
ASSI
100
AcDbLine
 62
7
  6
CONTINUOUS
 10
51.7216929977
 20
113.4755601264
 11
49.9383244952
 21
110.8466818126
  0
LWPOLYLINE
  5
288
100
AcDbEntity
  8
0
100
AcDbPolyline
 62
7
  6
CONTINUOUS
 90
25
 70
0
 10
56.8899239175
 20
112.6315462585
 10
56.901901498
 20
112.5222843586
 10
56.9337576094
 20
112.4056449564
 10
56.9850681054
 20
112.2958686237
 10
57.0572908648
 20
112.1917059072
 10
57.1489680088
 20
112.0944062602
 10
57.2557259015
 20
112.0077180426
 10
57.3784288252
 20
111.9317961614
 10
57.5162124976
 20
111.8664857097
 10
57.6621104366
 20
111.815070327
 10
57.8165052369
 20
111.7782694275
 10
57.9790143037
 20
111.7553635969
 10
58.1415233706
 20
111.7474782319
 10
58.3040324374
 20
111.7553635969
 10
58.4665415042
 20
111.7782694275
 10
58.6209363045
 20
111.815070327
 10
58.7668342435
 20
111.8664857097
 10
58.9046179159
 20
111.9317961614
 10
59.0273208396
 20
112.0077180426
 10
59.1340787316
 20
112.0944062573
 10
59.2257558748
 20
112.1917059014
 10
59.2979786357
 20
112.2958686237
 10
59.3492891364
 20
112.4056449737
 10
59.3811452549
 20
112.5222844017
 10
59.3931228436
 20
112.6315463318
  0
LWPOLYLINE
  5
289
100
AcDbEntity
  8
0
100
AcDbPolyline
 62
7
  6
CONTINUOUS
 90
25
 70
0
 10
59.3931228236
 20
114.6817868238
 10
59.3811452431
 20
114.7910487237
 10
59.3492891317
 20
114.9076881259
 10
59.2979786357
 20
115.0174644586
 10
59.2257558764
 20
115.1216271751
 10
59.1340787324
 20
115.2189268221
 10
59.0273208396
 20
115.3056150397
 10
58.9046179159
 20
115.3815369209
 10
58.7668342435
 20
115.4468473726
 10
58.6209363045
 20
115.4982627553
 10
58.4665415042
 20
115.5350636548
 10
58.3040324374
 20
115.5579694854
 10
58.1415233706
 20
115.5658548504
 10
57.9790143037
 20
115.5579694854
 10
57.8165052369
 20
115.5350636548
 10
57.6621104366
 20
115.4982627553
 10
57.5162124976
 20
115.4468473726
 10
57.3784288252
 20
115.3815369209
 10
57.2557259015
 20
115.3056150397
 10
57.1489680095
 20
115.218926825
 10
57.0572908663
 20
115.1216271808
 10
56.9850681054
 20
115.0174644586
 10
56.9337576047
 20
114.9076881086
 10
56.9019014862
 20
114.7910486806
 10
56.8899238975
 20
114.6817867505
  0
LWPOLYLINE
  5
28A
100
AcDbEntity
  8
0
100
AcDbPolyline
 62
7
  6
CONTINUOUS
 90
28
 70
0
 10
56.889895788
 20
111.571742767
 10
56.8990507644
 20
111.4761398903
 10
56.9242080579
 20
111.3715227354
 10
56.9650328036
 20
111.2720630044
 10
57.0224248945
 20
111.17693214
 10
57.0954844378
 20
111.0869586994
 10
57.1815117548
 20
111.0046283534
 10
57.2811179172
 20
110.9298731405
 10
57.3936918535
 20
110.8627610222
 10
57.5147006702
 20
110.8059815545
 10
57.6444695893
 20
110.7599624007
 10
57.7826733889
 20
110.7242758975
 10
57.9238035089
 20
110.7003286103
 10
58.0679746432
 20
110.6885893943
 10
58.2150720979
 20
110.6885893943
 10
58.3592432322
 20
110.7003286103
 10
58.5003733522
 20
110.7242758975
 10
58.6385771518
 20
110.7599624007
 10
58.768346071
 20
110.8059815545
 10
58.8893548876
 20
110.8627610222
 10
59.0019288239
 20
110.9298731405
 10
59.1015349863
 20
111.0046283534
 10
59.1875654033
 20
111.0869715905
 10
59.2606280465
 20
111.1769579223
 10
59.3180139375
 20
111.2720630044
 10
59.3588200836
 20
111.3714453884
 10
59.3839494776
 20
111.4759465227
 10
59.3930724743
 20
111.5714164112
  0
LWPOLYLINE
  5
28B
100
AcDbEntity
  8
0
100
AcDbPolyline
 62
7
  6
CONTINUOUS
 90
14
 70
0
 10
61.5409179334
 20
112.5958287392
 10
61.5349615744
 20
112.7397009132
 10
61.4990059696
 20
112.9750252324
 10
61.429554673
 20
113.2065677103
 10
61.3275542979
 20
113.4344352971
 10
61.1959434402
 20
113.6520646155
 10
61.0338609878
 20
113.8591578467
 10
60.8421680528
 20
114.0560128095
 10
60.6263865663
 20
114.236959583
 10
60.3858160375
 20
114.4015354714
 10
60.1211569572
 20
114.5502031705
 10
59.8400327285
 20
114.6786808472
 10
59.5419645851
 20
114.7863813031
 10
59.3692996596
 20
114.8344206772
  0
LWPOLYLINE
  5
28C
100
AcDbEntity
  8
0
100
AcDbPolyline
 62
7
  6
CONTINUOUS
 90
9
 70
0
 10
60.040908275
 20
112.5961074533
 10
60.0386223389
 20
112.6636946016
 10
60.0158412904
 20
112.816156699
 10
59.9676186958
 20
112.9657024955
 10
59.8949810715
 20
113.1123800329
 10
59.8009471029
 20
113.2503430092
 10
59.6865230188
 20
113.3776426572
 10
59.5507025904
 20
113.4962277441
 10
59.3934858179
 20
113.60609827
  0
LINE
  5
28D
100
AcDbEntity
  8
0
100
AcDbLine
 62
7
  6
CONTINUOUS
 10
56.8894997713
 20
112.6457868302
 11
56.8899239175
 21
112.6315462585
  0
LINE
  5
28E
100
AcDbEntity
  8
0
100
AcDbLine
 62
7
  6
CONTINUOUS
 10
59.3935469698
 20
114.6675462521
 11
59.3931228236
 21
114.6817868238
  0
LINE
  5
28F
100
AcDbEntity
  8
0
100
AcDbLine
 62
7
  6
CONTINUOUS
 10
59.3934858179
 20
113.60609827
 11
59.3931509531
 21
113.6202699718
  0
LINE
  5
290
100
AcDbEntity
  8
0
100
AcDbLine
 62
7
  6
CONTINUOUS
 10
59.3913794859
 20
113.6079005562
 11
59.3913794859
 21
114.668560728
  0
LINE
  5
291
100
AcDbEntity
  8
ASSI
100
AcDbLine
 62
7
  6
CONTINUOUS
 10
59.3915233706
 20
111.5707015366
 11
59.3915233706
 21
112.6313617084
  0
LINE
  5
292
100
AcDbEntity
  8
ASSI
100
AcDbLine
 62
7
  6
CONTINUOUS
 10
59.3915233706
 20
113.6213112021
 11
59.3915233706
 21
114.6819713739
  0
LINE
  5
293
100
AcDbEntity
  8
ASSI
100
AcDbLine
 62
7
  6
CONTINUOUS
 10
61.5415233706
 20
105.0436587514
 11
61.5415233706
 21
112.5960063694
  0
LINE
  5
294
100
AcDbEntity
  8
RACCORDO
100
AcDbLine
 62
7
  6
CONTINUOUS
 10
62.6826523657
 20
162.8746195291
 11
62.6826668156
 21
136.4833242169
  0
LINE
  5
295
100
AcDbEntity
  8
RACCORDO
100
AcDbLine
 62
253
  6
CONTINUOUS
 10
63.802267608
 20
162.6624874948
 11
63.802267608
 21
137.2341481854
  0
LINE
  5
296
100
AcDbEntity
  8
0
100
AcDbLine
 62
7
  6
CONTINUOUS
 10
59.3931228436
 20
112.6315463318
 11
59.393546991
 21
112.6457869079
  0
LWPOLYLINE
  5
297
100
AcDbEntity
  8
RACCORDO
100
AcDbPolyline
 62
7
  6
CONTINUOUS
 90
10
 70
0
 10
65.325581961
 20
155.6893241713
 10
65.2558506535
 20
153.742180272
 10
65.1611941901
 20
151.7687808503
 10
65.0416125708
 20
149.7691259061
 10
64.8970475352
 20
147.7426851462
 10
64.7275573437
 20
145.6899888639
 10
64.5333167771
 20
143.6126279386
 10
64.3143840958
 20
141.5111326637
 10
64.0707010394
 20
139.384972746
 10
63.802267608
 20
137.2341481854
  0
LWPOLYLINE
  5
298
100
AcDbEntity
  8
RACCORDO
100
AcDbPolyline
 62
7
  6
CONTINUOUS
 90
73
 70
0
 10
63.802267608
 20
137.2341481854
 10
63.7899910811
 20
137.1429271437
 10
63.7771760396
 20
137.0543269089
 10
63.7638857243
 20
136.9683477586
 10
63.7502015788
 20
136.8850565976
 10
63.7361642552
 20
136.8043788382
 10
63.7217644655
 20
136.726103927
 10
63.707044737
 20
136.650219987
 10
63.6920546962
 20
136.5767306896
 10
63.6767795427
 20
136.5054553818
 10
63.6612534818
 20
136.4363841608
 10
63.645515073
 20
136.3695189102
 10
63.6295445244
 20
136.3047028056
 10
63.6133701299
 20
136.2419278178
 10
63.5970221741
 20
136.18119551
 10
63.5804752603
 20
136.1223694702
 10
63.5637536433
 20
136.0654435579
 10
63.5468811778
 20
136.0104201357
 10
63.5298252134
 20
135.9571818093
 10
63.5126077203
 20
135.9057245501
 10
63.4952472449
 20
135.8560524743
 10
63.4777006951
 20
135.8080674006
 10
63.4599895313
 20
135.7617671293
 10
63.4421276928
 20
135.7171593428
 10
63.4240565585
 20
135.6741691318
 10
63.4058005694
 20
135.632797486
 10
63.3873681357
 20
135.5930564784
 10
63.368673364
 20
135.5548990871
 10
63.3497458506
 20
135.5183234984
 10
63.3305894976
 20
135.483356263
 10
63.3110782319
 20
135.4500091287
 10
63.2912655252
 20
135.4182847977
 10
63.2711375307
 20
135.388222889
 10
63.2504689181
 20
135.3599178791
 10
63.2293473853
 20
135.3333340644
 10
63.2077421906
 20
135.3085840411
 10
63.1852616161
 20
135.2860359837
 10
63.1619700267
 20
135.2655221935
 10
63.1379088701
 20
135.2473609959
 10
63.1126843737
 20
135.2327257988
 10
63.0861005795
 20
135.221525895
 10
63.0585801649
 20
135.2141173108
 10
63.0306763652
 20
135.2123433942
 10
63.0021512797
 20
135.2169494435
 10
62.9735459923
 20
135.2273701259
 10
62.9464443467
 20
135.2432608912
 10
62.9210916321
 20
135.2651152575
 10
62.8972486624
 20
135.2922231343
 10
62.8755389456
 20
135.322196142
 10
62.8561787994
 20
135.3544152855
 10
62.8387202527
 20
135.3891943846
 10
62.8227411451
 20
135.4255239127
 10
62.808166842
 20
135.4630509518
 10
62.7949260083
 20
135.5019726332
 10
62.7826827136
 20
135.5421675374
 10
62.7713648177
 20
135.5835489244
 10
62.7609716054
 20
135.6261236955
 10
62.7513370136
 20
135.6699473552
 10
62.7424259614
 20
135.7149966504
 10
62.734237844
 20
135.7612463298
 10
62.7266939316
 20
135.8087652838
 10
62.7197811281
 20
135.8575292412
 10
62.7134968153
 20
135.9075278686
 10
62.707800147
 20
135.9588587517
 10
62.7026883549
 20
136.0115065632
 10
62.6981632738
 20
136.0654589127
 10
62.6942072158
 20
136.1208217654
 10
62.6908246605
 20
136.1775793542
 10
62.688021251
 20
136.2357222976
 10
62.6857940635
 20
136.2953679227
 10
62.684152963
 20
136.3565001352
 10
62.6831077064
 20
136.4191096237
 10
62.6826668156
 20
136.4833242169
  0
LINE
  5
299
100
AcDbEntity
  8
ASSI
100
AcDbLine
 62
7
  6
CONTINUOUS
 10
50.5124925452
 20
110.6303002711
 11
51.7324985452
 21
112.4287212432
  0
LINE
  5
29A
100
AcDbEntity
  8
ASSI
100
AcDbLine
 62
7
  6
CONTINUOUS
 10
53.5851970839
 20
111.6723602321
 11
52.3651997441
 21
109.8739357244
  0
LINE
  5
29B
100
AcDbEntity
  8
ASSI
100
AcDbLine
 62
7
  6
CONTINUOUS
 10
53.5851970839
 20
111.5287572335
 11
52.431914518
 21
109.8286784193
  0
LINE
  5
29C
100
AcDbEntity
  8
ASSI
100
AcDbLine
 62
7
  6
CONTINUOUS
 10
53.0060819256
 20
109.6122966694
 11
54.7415233706
 21
112.1705253098
  0
LWPOLYLINE
  5
29D
100
AcDbEntity
  8
0
100
AcDbPolyline
 62
7
  6
CONTINUOUS
 90
6
 70
0
 10
56.4960751034
 20
113.2677578115
 10
56.3970447466
 20
113.1269129364
 10
56.3223685557
 20
112.9829458933
 10
56.2720465306
 20
112.835856682
 10
56.2460583835
 20
112.6836484936
 10
56.2421384662
 20
112.5959052854
  0
LWPOLYLINE
  5
29E
100
AcDbEntity
  8
0
100
AcDbPolyline
 62
7
  6
CONTINUOUS
 90
6
 70
0
 10
59.7869716377
 20
111.9242549272
 10
59.8860019945
 20
112.0650998023
 10
59.9606781854
 20
112.2090668455
 10
60.0110002105
 20
112.3561560567
 10
60.0369883576
 20
112.5083642451
 10
60.040908275
 20
112.5961074533
  0
LINE
  5
29F
100
AcDbEntity
  8
0
100
AcDbLine
 62
7
  6
CONTINUOUS
 10
55.9485880752
 20
110.7587482505
 11
53.8470586225
 21
108.1849108312
  0
LINE
  5
2A0
100
AcDbEntity
  8
0
100
AcDbLine
 62
7
  6
CONTINUOUS
 10
89.9027213442
 20
152.3438988342
 11
91.8468355363
 21
154.7249427204
  0
LINE
  5
2A1
100
AcDbEntity
  8
0
100
AcDbLine
 62
7
  6
CONTINUOUS
 10
56.9878185598
 20
110.3344841475
 11
54.8862891072
 21
107.7606467284
  0
LINE
  5
2A2
100
AcDbEntity
  8
0
100
AcDbLine
 62
7
  6
CONTINUOUS
 10
90.9297919736
 20
151.904742011
 11
92.8860660207
 21
154.3006786172
  0
LINE
  5
2A3
100
AcDbEntity
  8
0
100
AcDbLine
 62
7
  6
CONTINUOUS
 10
86.9460751034
 20
150.5612391454
 11
87.0690589634
 21
150.6923050437
  0
LWPOLYLINE
  5
2A4
100
AcDbEntity
  8
0
100
AcDbPolyline
 62
7
  6
CONTINUOUS
 90
13
 70
0
 10
90.2369716377
 20
149.2177362611
 10
90.1139877777
 20
149.0866703628
 10
89.9750029754
 20
148.9689572003
 10
89.8200172308
 20
148.8645967736
 10
89.6465951063
 20
148.7725782545
 10
89.4571720394
 20
148.6939124711
 10
89.2590543433
 20
148.6316319086
 10
89.0517875987
 20
148.586389198
 10
88.8358262249
 20
148.5575317083
 10
88.619839793
 20
148.5461340305
 10
88.4067181599
 20
148.5525543616
 10
88.1935714687
 20
148.5764345047
 10
87.9803997193
 20
148.6177744597
  0
LWPOLYLINE
  5
2A5
100
AcDbEntity
  8
0
100
AcDbPolyline
 62
7
  6
CONTINUOUS
 90
12
 70
0
 10
87.0690589634
 20
150.6923050437
 10
87.2080437657
 20
150.8100182062
 10
87.3630295103
 20
150.9143786329
 10
87.5364516349
 20
151.006397152
 10
87.7258747017
 20
151.0850629354
 10
87.9239923978
 20
151.1473434979
 10
88.1312591424
 20
151.1925862084
 10
88.3472205162
 20
151.2214436982
 10
88.5632069482
 20
151.232841376
 10
88.7763285812
 20
151.2264210449
 10
88.9894752724
 20
151.2025409018
 10
89.2026470218
 20
151.1612009468
  0
LINE
  5
2A6
100
AcDbEntity
  8
ASSI
100
AcDbLine
 62
7
  6
CONTINUOUS
 10
49.3718084088
 20
114.5784994912
 11
47.3895283868
 21
112.9898608004
  0
LINE
  5
2A7
100
AcDbEntity
  8
ASSI
100
AcDbLine
 62
7
  6
CONTINUOUS
 10
49.3718084088
 20
114.4348964926
 11
47.3895283868
 21
112.8462578019
  0
LINE
  5
2A8
100
AcDbEntity
  8
ASSI
100
AcDbLine
 62
7
  6
CONTINUOUS
 10
47.1337732407
 20
112.0096566511
 11
50.0126992505
 21
114.3168569007
  0
LWPOLYLINE
  5
2A9
100
AcDbEntity
  8
0
100
AcDbPolyline
 62
7
  6
CONTINUOUS
 90
9
 70
0
 10
86.7274419138
 20
151.2114128124
 10
86.5823837209
 20
151.142067078
 10
86.4554582388
 20
151.0642395551
 10
86.3466654676
 20
150.9779302438
 10
86.2552040882
 20
150.8816216546
 10
86.1818754196
 20
150.7768312771
 10
86.1290834193
 20
150.6681115794
 10
86.0974499465
 20
150.5550107506
 10
86.086347637
 20
150.4367920253
  0
LWPOLYLINE
  5
2AA
100
AcDbEntity
  8
0
100
AcDbPolyline
 62
7
  6
CONTINUOUS
 90
9
 70
0
 10
90.4556048273
 20
150.6888829376
 10
90.6006630202
 20
150.7582286721
 10
90.7275885023
 20
150.836056195
 10
90.8363812735
 20
150.9223655062
 10
90.9278426529
 20
151.0186740954
 10
91.0011713215
 20
151.123464473
 10
91.0539633219
 20
151.2321841706
 10
91.0855967946
 20
151.3452849995
 10
91.0966991042
 20
151.4635037248
  0
LWPOLYLINE
  5
2AB
100
AcDbEntity
  8
0
100
AcDbPolyline
 62
7
  6
CONTINUOUS
 90
10
 70
0
 10
90.4549939066
 20
149.6280916457
 10
90.584523977
 20
149.6886901252
 10
90.6999465082
 20
149.7563292406
 10
90.8012615003
 20
149.8310089917
 10
90.8890480163
 20
149.9137030706
 10
90.962726993
 20
150.0034377852
 10
91.0205612419
 20
150.0972920598
 10
91.0623142244
 20
150.1956657346
 10
91.0882224789
 20
150.2981589692
 10
91.0972602815
 20
150.4021107471
  0
LINE
  5
2AC
100
AcDbEntity
  8
0
100
AcDbLine
 62
7
  6
CONTINUOUS
 10
89.3610411946
 20
152.2764492317
 11
89.2035813125
 21
152.2222924715
  0
LWPOLYLINE
  5
2AD
100
AcDbEntity
  8
RACCORDO
100
AcDbPolyline
 62
7
  6
CONTINUOUS
 90
5
 70
0
 10
12.7980944962
 20
100.3749474216
 10
12.6254515333
 20
100.4736702691
 10
12.463063298
 20
100.5893697393
 10
12.312801863
 20
100.7208581682
 10
12.1761684699
 20
100.8669473638
  0
LWPOLYLINE
  5
2AE
100
AcDbEntity
  8
0
100
AcDbPolyline
 62
7
  6
CONTINUOUS
 90
24
 70
0
 10
18.7464144648
 20
97.9392758419
 10
18.7648986913
 20
97.9265858209
 10
18.9404312435
 20
97.8135964169
 10
19.1247327802
 20
97.7018811297
 10
19.3150323737
 20
97.5927176922
 10
19.5128534014
 20
97.4848844094
 10
19.7164611434
 20
97.3790723489
 10
19.92412123
 20
97.2758831305
 10
20.1360133056
 20
97.1749561822
 10
20.3530494911
 20
97.0756844243
 10
20.5749310088
 20
96.9780972244
 10
20.8008127039
 20
96.882468163
 10
21.0308843893
 20
96.78863742
 10
21.2647115431
 20
96.6967281945
 10
21.5016628751
 20
96.6069391318
 10
21.7416527289
 20
96.5192642086
 10
21.9842024897
 20
96.43385287
 10
22.2287472442
 20
96.3508813384
 10
22.4750749324
 20
96.2704063846
 10
22.7226800959
 20
96.1925862571
 10
22.971028138
 20
96.1175841385
 10
23.2198661626
 20
96.0454782223
 10
23.4686549868
 20
95.9764331214
 10
23.7133136076
 20
95.911547758
  0
LINE
  5
2AF
100
AcDbEntity
  8
0
100
AcDbLine
 62
7
  6
CONTINUOUS
 10
64.8866511084
 20
163.9905806255
 11
64.952267608
 21
163.0102838938
  0
LWPOLYLINE
  5
2B0
100
AcDbEntity
  8
RACCORDO
100
AcDbPolyline
 62
7
  6
CONTINUOUS
 90
19
 70
0
 10
62.6827329095
 20
162.8750895461
 10
62.6848490969
 20
162.8413408527
 10
62.6988868558
 20
162.7778871297
 10
62.7250616238
 20
162.7179469971
 10
62.7640809973
 20
162.6617513291
 10
62.8152373798
 20
162.6090692515
 10
62.875228985
 20
162.5631663313
 10
62.9446052491
 20
162.5244574682
 10
63.0228167357
 20
162.4925277625
 10
63.1049133494
 20
162.4693980822
 10
63.1911285181
 20
162.455612337
 10
63.2812288137
 20
162.4506266172
 10
63.3695638566
 20
162.4548300624
 10
63.4560626106
 20
162.4687714223
 10
63.5407961118
 20
162.4919019472
 10
63.6183270893
 20
162.5229645278
 10
63.6868431193
 20
162.5615401277
 10
63.7481566255
 20
162.6080477834
 10
63.802267608
 20
162.6624874948
  0
LWPOLYLINE
  5
2B1
100
AcDbEntity
  8
0
100
AcDbPolyline
 62
7
  6
CONTINUOUS
 90
10
 70
0
 10
66.6021950158
 20
165.0310240237
 10
66.5926817155
 20
164.1541427036
 10
66.5787147335
 20
163.2720194521
 10
66.5602940698
 20
162.3846542693
 10
66.5374182747
 20
161.4919995241
 10
66.5100887978
 20
160.5941028475
 10
66.4783099886
 20
159.6911071329
 10
66.4420832967
 20
158.7830600115
 10
66.4014072723
 20
157.869913852
 10
66.3562819155
 20
156.9516686546
  0
LWPOLYLINE
  5
2B2
100
AcDbEntity
  8
0
100
AcDbPolyline
 62
7
  6
CONTINUOUS
 90
4
 70
0
 10
86.8470156276
 20
150.4209389088
 10
86.8502552339
 20
150.4265649262
 10
86.8952719462
 20
150.4941658994
 10
86.9460751034
 20
150.5612391454
  0
LINE
  5
2B3
100
AcDbEntity
  8
0
100
AcDbLine
 62
7
  6
CONTINUOUS
 10
92.6401529204
 20
146.2213232501
 11
91.9915233706
 21
145.4269175355
  0
LINE
  5
2B4
100
AcDbEntity
  8
0
100
AcDbLine
 62
7
  6
CONTINUOUS
 10
91.5360097434
 20
138.5757792043
 11
93.9430056028
 21
141.5237350384
  0
LWPOLYLINE
  5
2B5
100
AcDbEntity
  8
0
100
AcDbPolyline
 62
7
  6
CONTINUOUS
 90
29
 70
0
 10
91.5360097434
 20
137.7272510668
 10
91.3576992432
 20
137.5322695431
 10
91.1582694249
 20
137.352955722
 10
90.9377202885
 20
137.1893096033
 10
90.6936855691
 20
137.0401408809
 10
90.4285315315
 20
136.9066398611
 10
90.1493569709
 20
136.7923774627
 10
89.855783901
 20
136.6978732238
 10
89.548190308
 20
136.6226076064
 10
89.2348089457
 20
136.5685929153
 10
88.9154839736
 20
136.5364028305
 10
88.5903712321
 20
136.525463672
 10
88.2681709965
 20
136.5360667047
 10
87.9489621474
 20
136.5687933739
 10
87.632665804
 20
136.6230622342
 10
87.3277456
 20
136.6974202146
 10
87.0345087148
 20
136.7924095061
 10
86.7526479688
 20
136.9074879176
 10
86.4897054568
 20
137.0395758039
 10
86.246191799
 20
137.1891322637
 10
86.021596375
 20
137.3556981984
 10
85.8219294192
 20
137.5348166673
 10
85.6478637016
 20
137.726826552
 10
85.4987264522
 20
137.9313889709
 10
85.3785095946
 20
138.143030339
 10
85.2879935343
 20
138.3619415476
 10
85.2263978658
 20
138.5879317052
 10
85.1953732963
 20
138.8149545524
 10
85.1916868685
 20
138.9284649815
  0
LINE
  5
2B6
100
AcDbEntity
  8
ASSI
100
AcDbLine
 62
7
  6
CONTINUOUS
 10
53.8873237538
 20
112.735048071
 11
52.0840891447
 21
111.2032760604
  0
LINE
  5
2B7
100
AcDbEntity
  8
ASSI
100
AcDbLine
 62
7
  6
CONTINUOUS
 10
53.8873237538
 20
112.5914450724
 11
52.0840891447
 21
111.0596730618
  0
LINE
  5
2B8
100
AcDbEntity
  8
ASSI
100
AcDbLine
 62
7
  6
CONTINUOUS
 10
51.7592805441
 20
110.1213106138
 11
53.5851970839
 21
111.6723602321
  0
LINE
  5
2B9
100
AcDbEntity
  8
ASSI
100
AcDbLine
 62
7
  6
CONTINUOUS
 10
54.7415233706
 20
110.4862769612
 11
53.4333346925
 21
109.4378714577
  0
LINE
  5
2BA
100
AcDbEntity
  8
ASSI
100
AcDbLine
 62
7
  6
CONTINUOUS
 10
54.7415233706
 20
110.3426739626
 11
53.5520490718
 21
109.3894082587
  0
LINE
  5
2BB
100
AcDbEntity
  8
ASSI
100
AcDbLine
 62
7
  6
CONTINUOUS
 10
54.07422274
 20
109.1762394197
 11
54.640379657
 21
109.629964625
  0
LWPOLYLINE
  5
2BC
100
AcDbEntity
  8
RACCORDO
100
AcDbPolyline
 62
7
  6
CONTINUOUS
 90
8
 70
0
 10
181.212421202
 20
31.612806333
 10
181.3951627427
 20
31.5483424153
 10
181.5834377343
 20
31.5018355981
 10
181.7755759613
 20
31.4737586833
 10
181.9704676329
 20
31.464447685
 10
182.1658580917
 20
31.4742227733
 10
182.3585780781
 20
31.5028853781
 10
182.5631044877
 20
31.5549263868
  0
LINE
  5
2BD
100
AcDbEntity
  8
RACCORDO
100
AcDbLine
 62
7
  6
CONTINUOUS
 10
12.9476105134
 20
100.3066277284
 11
12.7980944962
 21
100.3749474216
  0
LINE
  5
2BE
100
AcDbEntity
  8
RACCORDO
100
AcDbLine
 62
7
  6
CONTINUOUS
 10
9.909424537
 20
116.4577209466
 11
10.1475774258
 21
116.2917622001
  0
LWPOLYLINE
  5
2BF
100
AcDbEntity
  8
0
100
AcDbPolyline
 62
7
  6
CONTINUOUS
 90
7
 70
0
 10
90.4549939066
 20
149.6280916457
 10
90.4331229742
 20
149.5583797634
 10
90.4054655968
 20
149.4891956084
 10
90.3720217745
 20
149.4205391807
 10
90.3327915072
 20
149.3524104803
 10
90.287774795
 20
149.2848095071
 10
90.2369716377
 20
149.2177362611
  0
LWPOLYLINE
  5
2C0
100
AcDbEntity
  8
0
100
AcDbPolyline
 62
7
  6
CONTINUOUS
 90
7
 70
0
 10
91.5360097434
 20
138.5757792043
 10
91.6822209914
 20
138.7770052665
 10
91.8001883499
 20
138.9832435098
 10
91.8899118191
 20
139.194493934
 10
91.9516835271
 20
139.4126495526
 10
91.9852113458
 20
139.6358173521
 10
91.9914418765
 20
139.7785468763
  0
LINE
  5
2C1
100
AcDbEntity
  8
0
100
AcDbLine
 62
7
  6
CONTINUOUS
 10
91.5360097434
 20
137.7272510668
 11
93.8999586157
 21
140.6224853244
  0
LWPOLYLINE
  5
2C2
100
AcDbEntity
  8
0
100
AcDbPolyline
 62
7
  6
CONTINUOUS
 90
7
 70
0
 10
56.8896446216
 20
113.6064463316
 10
56.8152008176
 20
113.5581972343
 10
56.7442965673
 20
113.5066685413
 10
56.6769318707
 20
113.4518602525
 10
56.6131067278
 20
113.3937723679
 10
56.5528211387
 20
113.3324048876
 10
56.4960751034
 20
113.2677578115
  0
LWPOLYLINE
  5
2C3
100
AcDbEntity
  8
0
100
AcDbPolyline
 62
7
  6
CONTINUOUS
 90
7
 70
0
 10
59.3934021195
 20
111.5855664072
 10
59.4678459235
 20
111.6338155044
 10
59.5387501739
 20
111.6853441975
 10
59.6061148704
 20
111.7401524863
 10
59.6699400133
 20
111.7982403708
 10
59.7302256024
 20
111.8596078511
 10
59.7869716377
 20
111.9242549272
  0
LINE
  5
2C4
100
AcDbEntity
  8
ASSI
100
AcDbLine
 62
7
  6
CONTINUOUS
 10
147.7110510471
 20
71.7477678371
 11
148.8914774904
 21
71.9931062343
  0
LINE
  5
2C5
100
AcDbEntity
  8
ASSI
100
AcDbLine
 62
7
  6
CONTINUOUS
 10
149.2605814934
 20
72.2933859788
 11
147.7110510471
 21
71.9713335992
  0
LINE
  5
2C6
100
AcDbEntity
  8
ASSI
100
AcDbLine
 62
7
  6
CONTINUOUS
 10
149.2605814934
 20
72.4369889774
 11
147.7110510471
 21
72.1149365977
  0
LWPOLYLINE
  5
2C7
100
AcDbEntity
  8
RACCORDO
100
AcDbPolyline
 62
7
  6
CONTINUOUS
 90
23
 70
0
 10
193.0926495018
 20
74.759862871
 10
193.0617330923
 20
74.7557083531
 10
193.0321472675
 20
74.7497449178
 10
193.003913665
 20
74.7421977934
 10
192.976993547
 20
74.733195573
 10
192.9513959192
 20
74.7231575847
 10
192.9271402266
 20
74.7122705396
 10
192.9041368653
 20
74.7006173146
 10
192.882248957
 20
74.6883971669
 10
192.8614277367
 20
74.6757089987
 10
192.8416512314
 20
74.662633856
 10
192.8228445475
 20
74.6492958692
 10
192.8049775842
 20
74.6357722796
 10
192.7880113853
 20
74.6221172812
 10
192.7718733896
 20
74.6083922034
 10
192.756540526
 20
74.5946560817
 10
192.7419744478
 20
74.5809456111
 10
192.7280937621
 20
74.5672681404
 10
192.7148667495
 20
74.5536528985
 10
192.7022752609
 20
74.5401384257
 10
192.6902693188
 20
74.5267320694
 10
192.6788261149
 20
74.5134586246
 10
192.6675925702
 20
74.4999358845
  0
LWPOLYLINE
  5
2C8
100
AcDbEntity
  8
RACCORDO
100
AcDbPolyline
 62
7
  6
CONTINUOUS
 90
16
 70
0
 10
183.0851286893
 20
45.6448649423
 10
183.3476841986
 20
45.5620897916
 10
183.6203598397
 20
45.5008991663
 10
183.9006397073
 20
45.4622995462
 10
184.1820952691
 20
45.4471671493
 10
184.4644971679
 20
45.4553814202
 10
184.747198541
 20
45.4872216158
 10
185.0231948399
 20
45.542164774
 10
185.291463462
 20
45.6197364851
 10
185.5517152687
 20
45.7200666407
 10
185.7982197829
 20
45.8411794654
 10
186.0294411453
 20
45.9818510154
 10
186.2450170357
 20
46.1417832186
 10
186.4412258768
 20
46.3180769093
 10
186.6162612585
 20
46.5079051936
 10
186.6375676072
 20
46.5336370807
  0
LWPOLYLINE
  5
2C9
100
AcDbEntity
  8
RACCORDO
100
AcDbPolyline
 62
253
  6
CONTINUOUS
 90
9
 70
0
 10
12.7035064329
 20
100.9091028619
 10
12.5293407312
 20
100.9790643477
 10
12.3672924255
 20
101.0593577478
 10
12.2196943223
 20
101.1504964617
 10
12.0886500097
 20
101.2538069805
 10
11.9754441548
 20
101.3682020879
 10
11.8810416222
 20
101.4903221314
 10
11.8066129722
 20
101.6201137903
 10
11.7529797181
 20
101.7568808092
  0
LINE
  5
2CA
100
AcDbEntity
  8
RACCORDO
100
AcDbLine
 62
7
  6
CONTINUOUS
 10
12.9474251711
 20
100.3067033075
 11
181.212421202
 21
31.612806333
  0
LINE
  5
2CB
100
AcDbEntity
  8
RACCORDO
100
AcDbLine
 62
253
  6
CONTINUOUS
 10
12.7035028891
 20
100.9091043088
 11
180.9685060077
 21
32.2152044407
  0
LWPOLYLINE
  5
2CC
100
AcDbEntity
  8
RACCORDO
100
AcDbPolyline
 62
253
  6
CONTINUOUS
 90
16
 70
0
 10
180.9685024638
 20
32.2152058874
 10
181.1542071123
 20
32.1351849213
 10
181.3478453903
 20
32.0707567151
 10
181.5479010461
 20
32.0218512137
 10
181.7531549442
 20
31.9878551848
 10
181.9617014349
 20
31.969431745
 10
182.1705132881
 20
31.9680805797
 10
182.3768500315
 20
31.9830446734
 10
182.5789387333
 20
32.013687553
 10
182.7745987723
 20
32.0610294077
 10
182.9610470001
 20
32.1235972934
 10
183.1363265558
 20
32.1999998771
 10
183.299229157
 20
32.2911780428
 10
183.4478532476
 20
32.3962040203
 10
183.5799169595
 20
32.5120795701
 10
183.6937780462
 20
32.6364890524
  0
LINE
  5
2CD
100
AcDbEntity
  8
RACCORDO
100
AcDbLine
 62
7
  6
CONTINUOUS
 10
10.1475774258
 20
116.2917622001
 11
10.4046052575
 21
116.1479432155
  0
LWPOLYLINE
  5
2CE
100
AcDbEntity
  8
0
100
AcDbPolyline
 62
7
  6
CONTINUOUS
 90
17
 70
0
 10
86.086347637
 20
150.4367920253
 10
86.0963313851
 20
150.322929034
 10
86.1284570723
 20
150.2099814644
 10
86.1816578073
 20
150.099012476
 10
86.2532547803
 20
149.9955537204
 10
86.3441668741
 20
149.8999803298
 10
86.453475206
 20
149.811917172
 10
86.5757443191
 20
149.7357705019
 10
86.7116640149
 20
149.672134317
 10
86.8605444919
 20
149.6204146197
 10
87.0148808883
 20
149.5832356721
 10
87.1744307845
 20
149.56120419
 10
87.3394366002
 20
149.5537134576
 10
87.5031207328
 20
149.5615675888
 10
87.6632239812
 20
149.5850346217
 10
87.8220055465
 20
149.6238465183
 10
87.9794654287
 20
149.6780032785
  0
LWPOLYLINE
  5
2CF
100
AcDbEntity
  8
0
100
AcDbPolyline
 62
7
  6
CONTINUOUS
 90
19
 70
0
 10
86.0857864596
 20
149.3768646594
 10
86.0943110457
 20
149.2758477536
 10
86.1197060837
 20
149.1733723046
 10
86.1609418265
 20
149.0749744657
 10
86.218649849
 20
148.980818429
 10
86.2921985764
 20
148.8907400024
 10
86.3786616881
 20
148.8083231817
 10
86.4785560654
 20
148.73387263
 10
86.5913648269
 20
148.6670836842
 10
86.7126110091
 20
148.610626352
 10
86.8426557793
 20
148.5649136221
 10
86.9811379701
 20
148.5295325057
 10
87.122497115
 20
148.5059140438
 10
87.2663444424
 20
148.4943984591
 10
87.413068724
 20
148.494645529
 10
87.5582758077
 20
148.5070656267
 10
87.7005009762
 20
148.5317955432
 10
87.8412089467
 20
148.5686984876
 10
87.9803997193
 20
148.6177744597
  0
LWPOLYLINE
  5
2D0
100
AcDbEntity
  8
0
100
AcDbPolyline
 62
7
  6
CONTINUOUS
 90
34
 70
0
 10
85.1921297957
 20
149.8896487874
 10
85.1978845593
 20
149.7481794917
 10
85.233507572
 20
149.5128380674
 10
85.3026295834
 20
149.2812536417
 10
85.4043039208
 20
149.0533200912
 10
85.5356025235
 20
148.8356025633
 10
85.6973869423
 20
148.6283981075
 10
85.8887956264
 20
148.4314096743
 10
86.1043158619
 20
148.2503112623
 10
86.3446489109
 20
148.08556494
 10
86.6090935114
 20
147.9367086388
 10
86.890033164
 20
147.8080301518
 10
87.187947654
 20
147.7001162615
 10
87.5023571962
 20
147.6123801854
 10
87.8242059358
 20
147.5473493689
 10
88.153710312
 20
147.5056841212
 10
88.4906538856
 20
147.486724133
 10
88.8253314845
 20
147.4910159225
 10
89.157677305
 20
147.5192357202
 10
89.4877571508
 20
147.5707072955
 10
89.8060632614
 20
147.6439484747
 10
90.1122533169
 20
147.7395924131
 10
90.4066696371
 20
147.8570059554
 10
90.6808314214
 20
147.9928074628
 10
90.9341497362
 20
148.1475318905
 10
91.167213515
 20
148.3206442833
 10
91.3733087576
 20
148.5071581369
 10
91.551650967
 20
148.7074631378
 10
91.7030246401
 20
148.9211695995
 10
91.8230692679
 20
149.1421219582
 10
91.9108737763
 20
149.3705309944
 10
91.9673492394
 20
149.6061859275
 10
91.9908683699
 20
149.8422988523
 10
91.9914860551
 20
149.8889281359
  0
LINE
  5
2D1
100
AcDbEntity
  8
ASSI
100
AcDbLine
 62
7
  6
CONTINUOUS
 10
85.1915233706
 20
138.9293325949
 11
85.1915233706
 21
149.8894877032
  0
LINE
  5
2D2
100
AcDbEntity
  8
ASSI
100
AcDbLine
 62
7
  6
CONTINUOUS
 10
86.0857865351
 20
149.3768352869
 11
86.0857865351
 21
150.4374954587
  0
LINE
  5
2D3
100
AcDbEntity
  8
0
100
AcDbLine
 62
7
  6
CONTINUOUS
 10
86.7272830971
 20
151.2095782152
 11
86.7272830971
 21
150.6926807349
  0
LINE
  5
2D4
100
AcDbEntity
  8
0
100
AcDbLine
 62
7
  6
CONTINUOUS
 10
87.9771392125
 20
149.6788233479
 11
87.9771392125
 21
148.6181631762
  0
LINE
  5
2D5
100
AcDbEntity
  8
0
100
AcDbLine
 62
7
  6
CONTINUOUS
 10
89.2059075286
 20
152.2214724021
 11
89.2059075286
 21
151.1608122303
  0
LINE
  5
2D6
100
AcDbEntity
  8
0
100
AcDbLine
 62
7
  6
CONTINUOUS
 10
90.455763644
 20
150.6907175348
 11
90.455763644
 21
149.630057363
  0
LINE
  5
2D7
100
AcDbEntity
  8
ASSI
100
AcDbLine
 62
7
  6
CONTINUOUS
 10
91.097260206
 20
150.4021401196
 11
91.097260206
 21
151.4628002914
  0
LINE
  5
2D8
100
AcDbEntity
  8
0
100
AcDbLine
 62
253
  6
CONTINUOUS
 10
91.5360097434
 20
137.7272510668
 11
91.5360097434
 21
138.5757792043
  0
LWPOLYLINE
  5
2D9
100
AcDbEntity
  8
0
100
AcDbPolyline
 62
7
  6
CONTINUOUS
 90
3
 70
0
 10
86.6917513894
 20
150.9489333909
 10
86.7009852476
 20
151.0812226957
 10
86.7274419138
 20
151.2114128124
  0
LWPOLYLINE
  5
2DA
100
AcDbEntity
  8
0
100
AcDbPolyline
 62
7
  6
CONTINUOUS
 90
3
 70
0
 10
90.4912953517
 20
150.9513623592
 10
90.4820614935
 20
150.8190730543
 10
90.4556048273
 20
150.6888829376
  0
LINE
  5
2DB
100
AcDbEntity
  8
RACCORDO
100
AcDbLine
 62
7
  6
CONTINUOUS
 10
115.8955473913
 20
143.1662859196
 11
114.8111638909
 21
141.8381927888
  0
LINE
  5
2DC
100
AcDbEntity
  8
0
100
AcDbLine
 62
7
  6
CONTINUOUS
 10
117.6110912985
 20
144.2067293175
 11
116.5450664635
 21
142.9011208687
  0
LINE
  5
2DD
100
AcDbEntity
  8
RACCORDO
100
AcDbLine
 62
7
  6
CONTINUOUS
 10
115.8503943754
 20
141.4139287201
 11
116.9347778758
 21
142.7420218509
  0
LWPOLYLINE
  5
2DE
100
AcDbEntity
  8
0
100
AcDbPolyline
 62
7
  6
CONTINUOUS
 90
14
 70
0
 10
56.9146769438
 20
114.8378253167
 10
56.6177704723
 20
114.7448313398
 10
56.323530536
 20
114.6272155939
 10
56.0495699468
 20
114.4912281074
 10
55.7964735707
 20
114.3363239538
 10
55.5636565417
 20
114.1630480595
 10
55.3578388363
 20
113.9764230481
 10
55.1798242468
 20
113.7760769267
 10
55.0288089809
 20
113.5623816881
 10
54.9091016382
 20
113.3414759342
 10
54.8216026264
 20
113.1131484174
 10
54.7654115378
 20
112.8776103853
 10
54.7421357484
 20
112.6416341822
 10
54.7415579635
 20
112.5965494676
  0
LWPOLYLINE
  5
2DF
100
AcDbEntity
  8
RACCORDO
100
AcDbPolyline
 62
7
  6
CONTINUOUS
 90
23
 70
0
 10
204.2426495018
 20
88.415768187
 10
204.2117330923
 20
88.4116136692
 10
204.1821472675
 20
88.4056502338
 10
204.153913665
 20
88.3981031094
 10
204.126993547
 20
88.3891008891
 10
204.1013959192
 20
88.3790629007
 10
204.0771402266
 20
88.3681758556
 10
204.0541368653
 20
88.3565226306
 10
204.032248957
 20
88.344302483
 10
204.0114277367
 20
88.3316143147
 10
203.9916512314
 20
88.318539172
 10
203.9728445475
 20
88.3052011852
 10
203.9549775842
 20
88.2916775956
 10
203.9380113853
 20
88.2780225972
 10
203.9218733896
 20
88.2642975194
 10
203.906540526
 20
88.2505613978
 10
203.8919744478
 20
88.2368509272
 10
203.8780937621
 20
88.2231734564
 10
203.8648667495
 20
88.2095582145
 10
203.8522752609
 20
88.1960437417
 10
203.8402693188
 20
88.1826373854
 10
203.8288261149
 20
88.1693639407
 10
203.8175925702
 20
88.1558412006
  0
LWPOLYLINE
  5
2E0
100
AcDbEntity
  8
DRAFT
100
AcDbPolyline
 62
7
  6
CONTINUOUS
 90
10
 70
0
 10
156.2823476763
 20
73.3408984543
 10
156.453403113
 20
73.3506962601
 10
156.6220242544
 20
73.3677038264
 10
156.7882111005
 20
73.391921153
 10
156.952573354
 20
73.4234942974
 10
157.1145013122
 20
73.4622772023
 10
157.2721658672
 20
73.5078316954
 10
157.4249573162
 20
73.5600117192
 10
157.5734853619
 20
73.6189633314
 10
157.7177500044
 20
73.6846865317
  0
LWPOLYLINE
  5
2E1
100
AcDbEntity
  8
DRAFT
100
AcDbPolyline
 62
7
  6
CONTINUOUS
 90
11
 70
0
 10
148.686960473
 20
69.4666833173
 10
148.9346262042
 20
69.4575043429
 10
149.217926221
 20
69.4260875461
 10
149.4947997882
 20
69.3733090869
 10
149.7654525213
 20
69.2998440377
 10
150.0211509375
 20
69.2080637657
 10
150.2614075631
 20
69.0973712398
 10
150.4867098718
 20
68.968363491
 10
150.6897868026
 20
68.8252029798
 10
150.8699143717
 20
68.6674262569
 10
151.0049890121
 20
68.5203522155
  0
LINE
  5
2E2
100
AcDbEntity
  8
RACCORDO
100
AcDbLine
 62
7
  6
CONTINUOUS
 10
182.9662303123
 20
45.6906616877
 11
183.0851286893
 21
45.6448649423
  0
LINE
  5
2E3
100
AcDbEntity
  8
RACCORDO
100
AcDbLine
 62
7
  6
CONTINUOUS
 10
182.9662317049
 20
45.6905781632
 11
182.9662638194
 21
45.6905650544
  0
LINE
  5
2E4
100
AcDbEntity
  8
RACCORDO
100
AcDbLine
 62
7
  6
CONTINUOUS
 10
10.6167393829
 20
116.0519637659
 11
10.7478036129
 21
115.9984570181
  0
LINE
  5
2E5
100
AcDbEntity
  8
RACCORDO
100
AcDbLine
 62
7
  6
CONTINUOUS
 10
182.8352177638
 20
45.7440643806
 11
182.9662821185
 21
45.6905575819
  0
LINE
  5
2E6
100
AcDbEntity
  8
RACCORDO
100
AcDbLine
 62
7
  6
CONTINUOUS
 10
11.451052592
 20
115.7760145768
 11
181.8592828732
 21
46.2071458836
  0
LINE
  5
2E7
100
AcDbEntity
  8
RACCORDO
100
AcDbLine
 62
253
  6
CONTINUOUS
 10
10.1522254108
 20
116.7444233728
 11
182.7226352999
 21
46.292847232
  0
LWPOLYLINE
  5
2E8
100
AcDbEntity
  8
RACCORDO
100
AcDbPolyline
 62
253
  6
CONTINUOUS
 90
15
 70
0
 10
182.7226946432
 20
46.2929213765
 10
182.9547101918
 20
46.1981043679
 10
183.1963709007
 20
46.1182651937
 10
183.4457310314
 20
46.05409482
 10
183.7008843397
 20
46.0058723177
 10
183.9599242996
 20
45.9739032459
 10
184.2209362774
 20
45.9585907651
 10
184.4819570646
 20
45.9599883598
 10
184.7409995319
 20
45.977949247
 10
184.9960934738
 20
46.0124656642
 10
185.2452799323
 20
46.0633312601
 10
185.4866970022
 20
46.130015793
 10
185.7185311213
 20
46.2120351112
 10
185.9389634661
 20
46.3088297459
 10
186.1463453481
 20
46.4196404287
  0
LWPOLYLINE
  5
2E9
100
AcDbEntity
  8
RACCORDO
100
AcDbPolyline
 62
7
  6
CONTINUOUS
 90
4
 70
0
 10
181.8592828732
 20
46.2071458836
 10
181.9715082805
 20
46.1583870442
 10
182.0870991523
 20
46.1044933905
 10
182.2063317624
 20
46.0460129351
  0
LINE
  5
2EA
100
AcDbEntity
  8
RACCORDO
100
AcDbLine
 62
7
  6
CONTINUOUS
 10
10.4046052575
 20
116.1479432155
 11
10.6163077591
 21
116.0522236545
  0
LWPOLYLINE
  5
2EB
100
AcDbEntity
  8
0
100
AcDbPolyline
 62
7
  6
CONTINUOUS
 90
5
 70
0
 10
91.0966991042
 20
151.4635037248
 10
91.086715356
 20
151.577366716
 10
91.0545896688
 20
151.6903142857
 10
91.0013889339
 20
151.801283274
 10
90.9297919608
 20
151.9047420296
  0
LWPOLYLINE
  5
2EC
100
AcDbEntity
  8
0
100
AcDbPolyline
 62
7
  6
CONTINUOUS
 90
9
 70
0
 10
91.9914860551
 20
149.8889281359
 10
91.9804726855
 20
150.0788832068
 10
91.9371206685
 20
150.315925553
 10
91.8620604789
 20
150.5465976723
 10
91.7543698506
 20
150.7707143568
 10
91.6149710497
 20
150.9884608143
 10
91.447879035
 20
151.1935644491
 10
91.2544321258
 20
151.3839343961
 10
91.0922469051
 20
151.5142803166
  0
LWPOLYLINE
  5
2ED
100
AcDbEntity
  8
DRAFT
100
AcDbPolyline
 62
7
  6
CONTINUOUS
 90
9
 70
0
 10
94.5022469719
 20
99.3532222025
 10
94.5037605954
 20
99.2694668145
 10
94.5149538961
 20
99.1488112686
 10
94.5369220003
 20
99.0284263798
 10
94.5695389825
 20
98.9087741413
 10
94.6124270659
 20
98.7912405327
 10
94.6654603246
 20
98.6762875472
 10
94.7287646844
 20
98.5634531917
 10
94.8023401453
 20
98.4527374662
  0
LINE
  5
2EE
100
AcDbEntity
  8
DRAFT
100
AcDbLine
 62
7
  6
CONTINUOUS
 10
100.0683367397
 20
94.6826633223
 11
99.9932289574
 21
100.7681456607
  0
LINE
  5
2EF
100
AcDbEntity
  8
ASSI
100
AcDbLine
 62
7
  6
CONTINUOUS
 10
91.9915233706
 20
139.7778607323
 11
91.9915233706
 21
149.8894877032
  0
LINE
  5
2F0
100
AcDbEntity
  8
DRAFT
100
AcDbLine
 62
7
  6
CONTINUOUS
 10
94.7646611246
 20
93.2612663107
 11
94.8023401453
 21
98.4527374662
  0
LWPOLYLINE
  5
2F1
100
AcDbEntity
  8
0
100
AcDbPolyline
 62
7
  6
CONTINUOUS
 90
10
 70
0
 10
92.8860660207
 20
154.3006786172
 10
92.8765527205
 20
153.4237973031
 10
92.8625857386
 20
152.5416740557
 10
92.8441650749
 20
151.6543088751
 10
92.8212892798
 20
150.7616541295
 10
92.7939598029
 20
149.8637574506
 10
92.7621809936
 20
148.9607617336
 10
92.7259543017
 20
148.0527146105
 10
92.6852782773
 20
147.1395684493
 10
92.6401529204
 20
146.2213232501
  0
LINE
  5
2F2
100
AcDbEntity
  8
DRAFT
100
AcDbLine
 62
7
  6
CONTINUOUS
 10
94.502164932
 20
99.3540398023
 11
94.5196180029
 21
100.7681456607
  0
LINE
  5
2F3
100
AcDbEntity
  8
DRAFT
100
AcDbLine
 62
7
  6
CONTINUOUS
 10
98.7732347479
 20
92.6496634553
 11
98.8037732844
 21
94.9226383364
  0
LWPOLYLINE
  5
2F4
100
AcDbEntity
  8
DRAFT
100
AcDbPolyline
 62
7
  6
CONTINUOUS
 90
3
 70
0
 10
98.8037732844
 20
94.9226383364
 10
98.8353695073
 20
97.1823599209
 10
98.8434476471
 20
97.7452089043
  0
LINE
  5
2F5
100
AcDbEntity
  8
0
100
AcDbLine
 62
7
  6
CONTINUOUS
 10
93.9430056028
 20
141.5237350384
 11
93.9221359647
 21
141.0738446874
  0
LINE
  5
2F6
100
AcDbEntity
  8
0
100
AcDbLine
 62
7
  6
CONTINUOUS
 10
93.9221359647
 20
141.0738446874
 11
93.8999586157
 21
140.6224853244
  0
LWPOLYLINE
  5
2F7
100
AcDbEntity
  8
DRAFT
100
AcDbPolyline
 62
7
  6
CONTINUOUS
 90
6
 70
0
 10
99.9927705974
 20
100.7689764412
 10
99.9777434285
 20
100.5482712687
 10
99.9335271459
 20
100.3488944759
 10
99.8603549624
 20
100.1560895179
 10
99.7580648493
 20
99.9676623458
 10
99.6266568068
 20
99.7836129598
  0
LWPOLYLINE
  5
2F8
100
AcDbEntity
  8
DRAFT
100
AcDbPolyline
 62
7
  6
CONTINUOUS
 90
6
 70
0
 10
94.5201396553
 20
100.7674940604
 10
94.5351035318
 20
100.954242058
 10
94.5793198144
 20
101.1536188507
 10
94.652491998
 20
101.3464238088
 10
94.754782111
 20
101.5348509808
 10
94.8861901536
 20
101.7189003669
  0
LWPOLYLINE
  5
2F9
100
AcDbEntity
  8
0
100
AcDbPolyline
 62
7
  6
CONTINUOUS
 90
19
 70
0
 10
95.5064234802
 20
100.7512566633
 10
95.5186213754
 20
100.8942234261
 10
95.5542721403
 20
101.0371901889
 10
95.6119613938
 20
101.174484998
 10
95.6925751915
 20
101.3058798129
 10
95.7952274779
 20
101.4316026741
 10
95.9158457047
 20
101.5466657493
 10
96.0551521912
 20
101.6506404625
 10
96.2124246183
 20
101.7439553896
 10
96.3814234802
 20
101.8229084258
 10
96.5626202373
 20
101.8869221524
 10
96.7555434292
 20
101.936573988
 10
96.9525391692
 20
101.9698940839
 10
97.1537711938
 20
101.9862258237
 10
97.3590757665
 20
101.9862258237
 10
97.5603077911
 20
101.9698940839
 10
97.7547522355
 20
101.9372306043
 10
97.9451241319
 20
101.888235385
 10
98.1314234802
 20
101.8229084258
  0
LWPOLYLINE
  5
2FA
100
AcDbEntity
  8
0
100
AcDbPolyline
 62
7
  6
CONTINUOUS
 90
10
 70
0
 10
99.0064234802
 20
100.7512566633
 10
98.9942255849
 20
100.6082899006
 10
98.95857482
 20
100.4653231378
 10
98.9008855665
 20
100.3280283287
 10
98.8202717688
 20
100.1966335138
 10
98.7176194825
 20
100.0709106526
 10
98.5970012556
 20
99.9558475774
 10
98.4576947691
 20
99.8518728642
 10
98.300422342
 20
99.7585579371
 10
98.1314234802
 20
99.6796049009
  0
LWPOLYLINE
  5
2FB
100
AcDbEntity
  8
ASSI
100
AcDbPolyline
 62
7
  6
CONTINUOUS
 90
14
 70
0
 10
93.7684209506
 20
98.6006637974
 10
93.656064207
 20
98.1282151378
 10
93.5242071077
 20
97.6544511692
 10
93.3728496524
 20
97.1793718916
 10
93.2001645851
 20
96.6983917474
 10
93.007979162
 20
96.2160962943
 10
92.8017751514
 20
95.7462422049
 10
92.5811488583
 20
95.289187755
 10
92.3465039778
 20
94.8445746689
 10
92.1045333634
 20
94.4250847928
 10
91.8550260551
 20
94.031441603
 10
91.5981930129
 20
93.6629216232
 10
91.3413599707
 20
93.3300362709
 10
91.2248264253
 20
93.1956295109
  0
LWPOLYLINE
  5
2FC
100
AcDbEntity
  8
ASSI
100
AcDbPolyline
 62
7
  6
CONTINUOUS
 90
14
 70
0
 10
94.6344463544
 20
98.2471104068
 10
94.5220896108
 20
97.7746617472
 10
94.3902325114
 20
97.3008977786
 10
94.2388750562
 20
96.825818501
 10
94.0661899889
 20
96.3448383569
 10
93.8740045658
 20
95.8625429037
 10
93.6678005552
 20
95.3926888144
 10
93.4471742621
 20
94.9356343644
 10
93.2125293816
 20
94.4910212783
 10
92.9705587672
 20
94.0715314022
 10
92.7210514589
 20
93.6778882124
 10
92.4642184167
 20
93.3093682327
 10
92.2073853745
 20
92.9764828803
 10
91.9702191876
 20
92.7029415695
  0
LWPOLYLINE
  5
2FD
100
AcDbEntity
  8
ASSI
100
AcDbPolyline
 62
7
  6
CONTINUOUS
 90
15
 70
0
 10
97.2325225657
 20
97.186450235
 10
97.1201658222
 20
96.7140015754
 10
96.9883087228
 20
96.2402376068
 10
96.8369512675
 20
95.7651583292
 10
96.6642662003
 20
95.2841781851
 10
96.4720807771
 20
94.8018827319
 10
96.2658767665
 20
94.3320286426
 10
96.0452504735
 20
93.8749741926
 10
95.8106055929
 20
93.4303611065
 10
95.5686349786
 20
93.0108712304
 10
95.3191276702
 20
92.6172280406
 10
95.062294628
 20
92.2487080609
 10
94.8054615858
 20
91.9158227085
 10
94.5486285436
 20
91.6195981584
 10
94.512761984
 20
91.583206953
  0
LWPOLYLINE
  5
2FE
100
AcDbEntity
  8
ASSI
100
AcDbPolyline
 62
7
  6
CONTINUOUS
 90
15
 70
0
 10
98.0985479695
 20
96.8328968444
 10
97.986191226
 20
96.3604481848
 10
97.8543341266
 20
95.8866842162
 10
97.7029766713
 20
95.4116049387
 10
97.530291604
 20
94.9306247945
 10
97.3381061809
 20
94.4483293413
 10
97.1319021703
 20
93.978475252
 10
96.9112758772
 20
93.521420802
 10
96.6766309967
 20
93.0768077159
 10
96.4346603823
 20
92.6573178398
 10
96.185153074
 20
92.26367465
 10
95.9283200318
 20
91.8951546703
 10
95.6714869896
 20
91.5622693179
 10
95.4146539474
 20
91.2660447678
 10
95.3787873878
 20
91.2296535624
  0
LWPOLYLINE
  5
2FF
100
AcDbEntity
  8
RACCORDO
100
AcDbPolyline
 62
7
  6
CONTINUOUS
 90
5
 70
0
 10
114.8111638909
 20
141.8381927888
 10
114.7715446248
 20
141.777836859
 10
114.7452413651
 20
141.71703633
 10
114.732254112
 20
141.6557912019
 10
114.730859677
 20
141.6265307715
  0
LINE
  5
300
100
AcDbEntity
  8
0
100
AcDbLine
 62
7
  6
CONTINUOUS
 10
118.6503217833
 20
143.782465249
 11
117.0003943754
 21
141.7617251191
  0
LINE
  5
301
100
AcDbEntity
  8
0
100
AcDbLine
 62
7
  6
CONTINUOUS
 10
118.404408683
 20
135.70310988
 11
117.3737087284
 21
134.4407653966
  0
LINE
  5
302
100
AcDbEntity
  8
ASSI
100
AcDbLine
 62
7
  6
CONTINUOUS
 10
118.5389885116
 20
82.1370146941
 11
118.6759287018
 21
82.1693032537
  0
LWPOLYLINE
  5
303
100
AcDbEntity
  8
0
100
AcDbPolyline
 62
7
  6
CONTINUOUS
 90
19
 70
0
 10
144.745460763
 20
79.8015589915
 10
144.4084958477
 20
79.820278177
 10
144.0738310438
 20
79.8157482677
 10
143.7415333167
 20
79.7872931489
 10
143.4115357009
 20
79.7355889353
 10
143.0933428576
 20
79.662125137
 10
142.7872981489
 20
79.5662689758
 10
142.4930582125
 20
79.4486532299
 10
142.2190976233
 20
79.3126657434
 10
141.9660012472
 20
79.1577615897
 10
141.7331842182
 20
78.9844856955
 10
141.5273665129
 20
78.7978606841
 10
141.3493519234
 20
78.5975145627
 10
141.1983366575
 20
78.3838193241
 10
141.0786293147
 20
78.1629135701
 10
140.991130303
 20
77.9345860534
 10
140.9349392144
 20
77.6990480212
 10
140.911663425
 20
77.4630718181
 10
140.9110856401
 20
77.4179871036
  0
LWPOLYLINE
  5
304
100
AcDbEntity
  8
DRAFT
100
AcDbPolyline
 62
7
  6
CONTINUOUS
 90
4
 70
0
 10
155.8576756708
 20
74.7761613277
 10
155.574375654
 20
74.8075781245
 10
155.2975020868
 20
74.8603565836
 10
155.0268493537
 20
74.9338216328
  0
LINE
  5
305
100
AcDbEntity
  8
ASSI
100
AcDbLine
 62
7
  6
CONTINUOUS
 10
121.1683372804
 20
82.3790063821
 11
121.6024154359
 21
82.3263318027
  0
LINE
  5
306
100
AcDbEntity
  8
0
100
AcDbLine
 62
7
  6
CONTINUOUS
 10
144.984809564
 20
79.7714700727
 11
144.745460763
 21
79.8015589915
  0
LINE
  5
307
100
AcDbEntity
  8
0
100
AcDbLine
 62
7
  6
CONTINUOUS
 10
134.3320797394
 20
79.8642767111
 11
141.5136263786
 21
78.7823968807
  0
LWPOLYLINE
  5
308
100
AcDbEntity
  8
ASSI
100
AcDbPolyline
 62
7
  6
CONTINUOUS
 90
10
 70
0
 10
121.5670677452
 20
82.2742254603
 10
121.2522722261
 20
82.3317529933
 10
120.9349470035
 20
82.3721228724
 10
120.6150920773
 20
82.3953350977
 10
120.2913243448
 20
82.4013424053
 10
119.9650269088
 20
82.3901920591
 10
119.6403490774
 20
82.3620258505
 10
119.3186739533
 20
82.3168910436
 10
118.9986184337
 20
82.2547403743
 10
118.6801825188
 20
82.1755738428
  0
LWPOLYLINE
  5
309
100
AcDbEntity
  8
0
100
AcDbPolyline
 62
7
  6
CONTINUOUS
 90
21
 70
0
 10
143.1573462363
 20
75.1559218178
 10
143.4839490566
 20
75.086085292
 10
143.8121895021
 20
75.0395287384
 10
144.1420675729
 20
75.016252157
 10
144.4768132051
 20
75.0164814303
 10
144.8131964627
 20
75.0399906758
 10
145.1415275368
 20
75.0861022457
 10
145.4615721266
 20
75.1554735143
 10
145.7735645329
 20
75.2474471071
 10
146.06851785
 20
75.3593732538
 10
146.3459363785
 20
75.4918321834
 10
146.6063158177
 20
75.6442436669
 10
146.842156359
 20
75.8122172456
 10
147.0527443133
 20
75.9962054461
 10
147.2387933697
 20
76.1957557419
 10
147.3949447877
 20
76.4051200955
 10
147.520329052
 20
76.624584068
 10
147.6158156778
 20
76.8538620983
 10
147.6786544696
 20
77.0863494656
 10
147.7078957773
 20
77.3221393389
 10
147.7104456099
 20
77.4172663752
  0
LWPOLYLINE
  5
30A
100
AcDbEntity
  8
0
100
AcDbPolyline
 62
7
  6
CONTINUOUS
 90
12
 70
0
 10
143.6989931052
 20
77.2059595806
 10
143.5262663176
 20
77.2548743055
 10
143.3639095606
 20
77.3136283176
 10
143.2119228343
 20
77.3822216169
 10
143.0692338688
 20
77.461427388
 10
142.9369149339
 20
77.5504724464
 10
142.8181828393
 20
77.6470372382
 10
142.7133042613
 20
77.7513353234
 10
142.6220125236
 20
77.8631531419
 10
142.546724406
 20
77.9795304596
 10
142.4878357128
 20
78.100526986
 10
142.4449506398
 20
78.2260830116
  0
LWPOLYLINE
  5
30B
100
AcDbEntity
  8
RACCORDO
100
AcDbPolyline
 62
7
  6
CONTINUOUS
 90
8
 70
0
 10
10.7973849146
 20
115.9805504801
 10
10.875179035
 20
115.9561252197
 10
10.9587283543
 20
115.9328248911
 10
11.047680085
 20
115.9091235429
 10
11.1418732556
 20
115.8827856834
 10
11.2408282563
 20
115.852191418
 10
11.3439801263
 20
115.8167837201
 10
11.451052592
 20
115.7760145768
  0
LWPOLYLINE
  5
30C
100
AcDbEntity
  8
0
100
AcDbPolyline
 62
7
  6
CONTINUOUS
 90
16
 70
0
 10
184.0539752187
 20
55.0281597239
 10
184.1491476005
 20
54.9941871364
 10
184.2465834812
 20
54.9677495444
 10
184.3462828607
 20
54.948846948
 10
184.4493852832
 20
54.9374383807
 10
184.5547512046
 20
54.9335648089
 10
184.658961993
 20
54.9373491321
 10
184.7619825492
 20
54.9490484732
 10
184.8638479725
 20
54.9684057094
 10
184.9612449279
 20
54.9947723708
 10
185.0540062877
 20
55.0283723002
 10
185.1422991797
 20
55.0689816548
 10
185.2233116532
 20
55.1152804377
 10
185.2961063911
 20
55.1668286496
 10
185.3616207105
 20
55.2240662896
 10
185.4198546114
 20
55.2869933577
  0
LINE
  5
30D
100
AcDbEntity
  8
RACCORDO
100
AcDbLine
 62
7
  6
CONTINUOUS
 10
10.742727898
 20
116.000570902
 11
10.7973849146
 21
115.9805504801
  0
LWPOLYLINE
  5
30E
100
AcDbEntity
  8
DRAFT
100
AcDbPolyline
 62
7
  6
CONTINUOUS
 90
8
 70
0
 10
110.5560966805
 20
85.2201580532
 10
110.3758923
 20
85.2890383206
 10
110.1917057977
 20
85.350501708
 10
110.0035371736
 20
85.4045482156
 10
109.8107419055
 20
85.4513036218
 10
109.6139645155
 20
85.4906421481
 10
109.4151385704
 20
85.5221864589
 10
109.3364445751
 20
85.5314638768
  0
LINE
  5
30F
100
AcDbEntity
  8
0
100
AcDbLine
 62
7
  6
CONTINUOUS
 10
9.8483930981
 20
124.5140489061
 11
183.0541776573
 21
53.8030834614
  0
LINE
  5
310
100
AcDbEntity
  8
0
100
AcDbLine
 62
7
  6
CONTINUOUS
 10
166.3004572918
 20
62.2760040091
 11
141.0558167834
 21
72.5820843982
  0
LINE
  5
311
100
AcDbEntity
  8
0
100
AcDbLine
 62
7
  6
CONTINUOUS
 10
53.8470586223
 20
108.1849108309
 11
28.6024180901
 21
118.4909931134
  0
LINE
  5
312
100
AcDbEntity
  8
0
100
AcDbLine
 62
7
  6
CONTINUOUS
 10
140.0165862988
 20
73.0063484669
 11
54.8862891068
 21
107.7606467622
  0
LINE
  5
313
100
AcDbEntity
  8
0
100
AcDbLine
 62
7
  6
CONTINUOUS
 10
184.0539752187
 20
55.0281597239
 11
167.3396877764
 21
61.8517399404
  0
LINE
  5
314
100
AcDbEntity
  8
0
100
AcDbLine
 62
7
  6
CONTINUOUS
 10
27.5631876055
 20
118.9152571821
 11
10.8489001869
 21
125.7388355053
  0
LINE
  5
315
100
AcDbEntity
  8
DRAFT
100
AcDbLine
 62
7
  6
CONTINUOUS
 10
123.5464777372
 20
79.9168571943
 11
110.5560966805
 21
85.2201580532
  0
LINE
  5
316
100
AcDbEntity
  8
ASSI
100
AcDbLine
 62
7
  6
CONTINUOUS
 10
49.8716094977
 20
110.8919396796
 11
50.5124925452
 21
110.6303002711
  0
LINE
  5
317
100
AcDbEntity
  8
ASSI
100
AcDbLine
 62
7
  6
CONTINUOUS
 10
52.3651997441
 20
109.8739357244
 11
53.0060819256
 21
109.6122966694
  0
LINE
  5
318
100
AcDbEntity
  8
ASSI
100
AcDbLine
 62
7
  6
CONTINUOUS
 10
48.5898553572
 20
111.4152051457
 11
49.2307429047
 21
111.1535723706
  0
LINE
  5
319
100
AcDbEntity
  8
ASSI
100
AcDbLine
 62
7
  6
CONTINUOUS
 10
53.4333346925
 20
109.4378714577
 11
54.07422274
 21
109.1762394197
  0
LINE
  5
31A
100
AcDbEntity
  8
ASSI
100
AcDbLine
 62
7
  6
CONTINUOUS
 10
46.4928614445
 20
112.2712993257
 11
47.1337732407
 21
112.0096566511
  0
LINE
  5
31B
100
AcDbEntity
  8
ASSI
100
AcDbLine
 62
7
  6
CONTINUOUS
 10
51.118408951
 20
110.3829359343
 11
51.7592805441
 21
110.1213106138
  0
LINE
  5
31C
100
AcDbEntity
  8
ASSI
100
AcDbLine
 62
7
  6
CONTINUOUS
 10
54.640379657
 20
109.629964625
 11
54.7415233706
 21
109.5886728769
  0
LINE
  5
31D
100
AcDbEntity
  8
ASSI
100
AcDbLine
 62
7
  6
CONTINUOUS
 10
104.861083864
 20
89.1701407753
 11
106.1259148323
 21
88.6537756948
  0
LINE
  5
31E
100
AcDbEntity
  8
ASSI
100
AcDbLine
 62
7
  6
CONTINUOUS
 10
106.4246258872
 20
89.0941081406
 11
105.2360811689
 21
89.5793294899
  0
LWPOLYLINE
  5
31F
100
AcDbEntity
  8
0
100
AcDbPolyline
 62
7
  6
CONTINUOUS
 90
15
 70
0
 10
9.8483930981
 20
124.5140489061
 10
9.6575535261
 20
124.5989889953
 10
9.4778643077
 20
124.6926998908
 10
9.3093254429
 20
124.7951815926
 10
9.1510461626
 20
124.9071337836
 10
9.003917236
 20
125.0278567809
 10
8.8706109707
 20
125.1552515361
 10
8.7514333001
 20
125.2893994687
 10
8.6460782908
 20
125.4302191592
 10
8.5563004506
 20
125.5753673012
 10
8.4823605933
 20
125.7249164052
 10
8.4239979052
 20
125.8787939607
 10
8.3821844524
 20
126.0344391289
 10
8.3571973057
 20
126.1918815543
 10
8.3493275499
 20
126.3106088983
  0
LWPOLYLINE
  5
320
100
AcDbEntity
  8
RACCORDO
100
AcDbPolyline
 62
7
  6
CONTINUOUS
 90
5
 70
0
 10
182.2063317624
 20
46.0460129351
 10
182.4587736877
 20
45.918224563
 10
182.5908695887
 20
45.8534880993
 10
182.7264115622
 20
45.7908192663
 10
182.832184321
 20
45.7453445104
  0
LWPOLYLINE
  5
321
100
AcDbEntity
  8
0
100
AcDbPolyline
 62
7
  6
CONTINUOUS
 90
16
 70
0
 10
56.8894997713
 20
112.6457868302
 10
57.0357712235
 20
112.564471069
 10
57.188908277
 20
112.4944252723
 10
57.3489109317
 20
112.4356494402
 10
57.5172622764
 20
112.3878735364
 10
57.6924792224
 20
112.3513675972
 10
57.8701125032
 20
112.3269417311
 10
58.0502903371
 20
112.3148660234
 10
58.2328845058
 20
112.3148703889
 10
58.4130610876
 20
112.3269546798
 10
58.5906953094
 20
112.3513911305
 10
58.7659119443
 20
112.3879075067
 10
58.9342513901
 20
112.4356869576
 10
59.0942271128
 20
112.4944571996
 10
59.2473256465
 20
112.5644905164
 10
59.393546991
 20
112.6457869079
  0
LWPOLYLINE
  5
322
100
AcDbEntity
  8
0
100
AcDbPolyline
 62
7
  6
CONTINUOUS
 90
16
 70
0
 10
59.3935469698
 20
114.6675462521
 10
59.2472755176
 20
114.7488620133
 10
59.0941384641
 20
114.81890781
 10
58.9341358094
 20
114.8776836421
 10
58.7657844647
 20
114.9254595459
 10
58.5905675187
 20
114.9619654851
 10
58.4129342379
 20
114.9863913512
 10
58.232756404
 20
114.9984670588
 10
58.0501622353
 20
114.9984626934
 10
57.8699856535
 20
114.9863784025
 10
57.6923514317
 20
114.9619419517
 10
57.5171347968
 20
114.9254255756
 10
57.348795351
 20
114.8776461247
 10
57.1888196283
 20
114.8188758827
 10
57.0357210946
 20
114.7488425659
 10
56.8894997501
 20
114.6675461744
  0
LWPOLYLINE
  5
323
100
AcDbEntity
  8
0
100
AcDbPolyline
 62
7
  6
CONTINUOUS
 90
24
 70
0
 10
172.8989363384
 20
35.0067723163
 10
172.9174205649
 20
34.9940822953
 10
173.0929531171
 20
34.8810928913
 10
173.2772546538
 20
34.7693776041
 10
173.4675542473
 20
34.6602141666
 10
173.665375275
 20
34.5523808838
 10
173.8689830171
 20
34.4465688233
 10
174.0766431036
 20
34.3433796049
 10
174.2885351793
 20
34.2424526565
 10
174.5055713647
 20
34.1431808987
 10
174.7274528824
 20
34.0455936988
 10
174.9533345775
 20
33.9499646374
 10
175.1834062629
 20
33.8561338944
 10
175.4172334167
 20
33.7642246689
 10
175.6541847487
 20
33.6744356062
 10
175.8941746025
 20
33.586760683
 10
176.1367243633
 20
33.5013493444
 10
176.3812691179
 20
33.4183778128
 10
176.627596806
 20
33.337902859
 10
176.8752019696
 20
33.2600827315
 10
177.1235500117
 20
33.1850806129
 10
177.3723880362
 20
33.1129746967
 10
177.6211768605
 20
33.0439295958
 10
177.8658354812
 20
32.9790442324
  0
LWPOLYLINE
  5
324
100
AcDbEntity
  8
0
100
AcDbPolyline
 62
7
  6
CONTINUOUS
 90
3
 70
0
 10
86.7254229632
 20
150.6981267095
 10
86.6997708777
 20
150.8251028714
 10
86.6917513894
 20
150.9489333909
  0
LINE
  5
325
100
AcDbEntity
  8
ASSI
100
AcDbLine
 62
7
  6
CONTINUOUS
 10
105.2360811689
 20
89.7229324885
 11
105.2360811689
 21
89.5793294899
  0
LINE
  5
326
100
AcDbEntity
  8
DRAFT
100
AcDbLine
 62
7
  6
CONTINUOUS
 10
93.8185615603
 20
91.8666130892
 11
94.7646611246
 21
93.2612663107
  0
LINE
  5
327
100
AcDbEntity
  8
DRAFT
100
AcDbLine
 62
7
  6
CONTINUOUS
 10
97.2826631755
 20
90.4523995268
 11
98.7732347479
 21
92.6496634553
  0
LINE
  5
328
100
AcDbEntity
  8
0
100
AcDbLine
 62
7
  6
CONTINUOUS
 10
95.7408790235
 20
100.3093149251
 11
95.6786214911
 21
100.2193770631
  0
LWPOLYLINE
  5
329
100
AcDbEntity
  8
0
100
AcDbPolyline
 62
7
  6
CONTINUOUS
 90
4
 70
0
 10
96.0872891851
 20
100.1678935689
 10
96.0101190528
 20
100.0564128141
 10
95.9527255981
 20
99.9368582646
 10
95.9506965528
 20
99.92975498
  0
LINE
  5
32A
100
AcDbEntity
  8
DRAFT
100
AcDbLine
 62
7
  6
CONTINUOUS
 10
94.5133206282
 20
99.5129758572
 11
93.7684209506
 21
98.6006637974
  0
LINE
  5
32B
100
AcDbEntity
  8
DRAFT
100
AcDbLine
 62
7
  6
CONTINUOUS
 10
94.8023401453
 20
98.4527374662
 11
94.6344463544
 21
98.2471104068
  0
LINE
  5
32C
100
AcDbEntity
  8
DRAFT
100
AcDbLine
 62
7
  6
CONTINUOUS
 10
97.4004163566
 20
97.3920772944
 11
97.2325225657
 21
97.186450235
  0
LINE
  5
32D
100
AcDbEntity
  8
DRAFT
100
AcDbLine
 62
7
  6
CONTINUOUS
 10
98.8434476471
 20
97.7452089043
 11
98.0985479695
 21
96.8328968444
  0
LWPOLYLINE
  5
32E
100
AcDbEntity
  8
DRAFT
100
AcDbPolyline
 62
7
  6
CONTINUOUS
 90
26
 70
0
 10
94.8861901536
 20
101.7189003669
 10
95.045899674
 20
101.8913957231
 10
95.2255298301
 20
102.0482489548
 10
95.4250806218
 20
102.189460062
 10
95.6471581849
 20
102.3162252911
 10
95.8891563836
 20
102.4273483957
 10
96.1432568112
 20
102.5192406372
 10
96.409849308
 20
102.5912731007
 10
96.6885440337
 20
102.6440747011
 10
96.97035306
 20
102.6759434445
 10
97.2553823867
 20
102.6861970814
 10
97.543526014
 20
102.6755178614
 10
97.8254780146
 20
102.6442505399
 10
98.1010335702
 20
102.5917233345
 10
98.3703974992
 20
102.5186080275
 10
98.6248783293
 20
102.4272647216
 10
98.8639909898
 20
102.3170993287
 10
99.0882205516
 20
102.188705937
 10
99.2903307548
 20
102.0462269129
 10
99.4696012468
 20
101.8892009403
 10
99.6267523804
 20
101.7180893354
 10
99.7567089545
 20
101.538418414
 10
99.8585823876
 20
101.3499119624
 10
99.9332612611
 20
101.1528461942
 10
99.9783361194
 20
100.9535760659
 10
99.9927705974
 20
100.7689764412
  0
LWPOLYLINE
  5
32F
100
AcDbEntity
  8
DRAFT
100
AcDbPolyline
 62
7
  6
CONTINUOUS
 90
5
 70
0
 10
99.6266568068
 20
99.7836129598
 10
99.4669472863
 20
99.6111176036
 10
99.2873171303
 20
99.4542643719
 10
99.0877663385
 20
99.3130532646
 10
98.8656887754
 20
99.1862880356
  0
LWPOLYLINE
  5
330
100
AcDbEntity
  8
0
100
AcDbPolyline
 62
7
  6
CONTINUOUS
 90
3
 70
0
 10
96.0204609816
 20
100.5658787742
 10
95.8678517856
 20
100.4428298648
 10
95.7408790235
 20
100.3093149251
  0
LWPOLYLINE
  5
331
100
AcDbEntity
  8
DRAFT
100
AcDbPolyline
 62
7
  6
CONTINUOUS
 90
11
 70
0
 10
89.8221642286
 20
93.4981354679
 10
90.043526014
 20
93.489931326
 10
90.3254780146
 20
93.4586640045
 10
90.6010335702
 20
93.406136799
 10
90.8703974992
 20
93.333021492
 10
91.1248783293
 20
93.2416781861
 10
91.3639909898
 20
93.1315127933
 10
91.5882205516
 20
93.0031194015
 10
91.7903307548
 20
92.8606403775
 10
91.9696012468
 20
92.7036144049
 10
92.0903301202
 20
92.5721606202
  0
LWPOLYLINE
  5
332
100
AcDbEntity
  8
RACCORDO
100
AcDbPolyline
 62
7
  6
CONTINUOUS
 90
5
 70
0
 10
193.2279982066
 20
74.749274028
 10
193.1925492897
 20
74.7564215867
 10
193.1581114187
 20
74.7604480682
 10
193.1247964863
 20
74.7615699551
 10
193.0926495018
 20
74.759862871
  0
LWPOLYLINE
  5
333
100
AcDbEntity
  8
0
100
AcDbPolyline
 62
7
  6
CONTINUOUS
 90
14
 70
0
 10
144.923108989
 20
79.7502487736
 10
145.0958357767
 20
79.7013340488
 10
145.2581925337
 20
79.6425800367
 10
145.41017926
 20
79.5739867374
 10
145.5528682255
 20
79.4947809662
 10
145.6851871603
 20
79.4057359078
 10
145.8039192549
 20
79.3091711161
 10
145.9087978329
 20
79.2048730309
 10
146.0000895706
 20
79.0930552123
 10
146.0753776882
 20
78.9766778946
 10
146.1342663814
 20
78.8556813682
 10
146.1771514544
 20
78.7301253426
 10
146.2028035399
 20
78.6031491807
 10
146.2108230283
 20
78.4793186612
  0
LWPOLYLINE
  5
334
100
AcDbEntity
  8
0
100
AcDbPolyline
 62
7
  6
CONTINUOUS
 90
13
 70
0
 10
156.8211509375
 20
76.4756687194
 10
156.6578684384
 20
76.5315863912
 10
156.4916052249
 20
76.5714946182
 10
156.322361297
 20
76.5953934005
 10
156.1471729405
 20
76.603145381
 10
155.9690038695
 20
76.5948879168
 10
155.7967452266
 20
76.5710330788
 10
155.6306969481
 20
76.5307893473
 10
155.4705590975
 20
76.4749482419
 10
155.3243230083
 20
76.4062963924
 10
155.1926941529
 20
76.3241836921
 10
155.0749670589
 20
76.2292602477
 10
154.9770166424
 20
76.1262630085
  0
LWPOLYLINE
  5
335
100
AcDbEntity
  8
0
100
AcDbPolyline
 62
7
  6
CONTINUOUS
 90
11
 70
0
 10
157.0211509375
 20
76.7206176937
 10
156.8094884387
 20
76.7931035645
 10
156.5939620508
 20
76.8448364514
 10
156.3745717739
 20
76.8758163544
 10
156.1474757562
 20
76.885865218
 10
155.9165158494
 20
76.8751610978
 10
155.6932176086
 20
76.8442381595
 10
155.4779698401
 20
76.7920703594
 10
155.2703837375
 20
76.7196837414
 10
155.0808184367
 20
76.6306906031
 10
154.910188439
 20
76.5242482139
  0
LWPOLYLINE
  5
336
100
AcDbEntity
  8
0
100
AcDbPolyline
 62
7
  6
CONTINUOUS
 90
13
 70
0
 10
97.9314234802
 20
100.5172992797
 10
97.7681409811
 20
100.5732169515
 10
97.6018777676
 20
100.6131251786
 10
97.4326338397
 20
100.6370239608
 10
97.2574454831
 20
100.6447759414
 10
97.0792764122
 20
100.6365184772
 10
96.9070177693
 20
100.6126636391
 10
96.7409694907
 20
100.5724199076
 10
96.5808316402
 20
100.5165788023
 10
96.434595551
 20
100.4479269527
 10
96.3029666956
 20
100.3658142525
 10
96.1852396015
 20
100.2708908081
 10
96.0872891851
 20
100.1678935689
  0
LWPOLYLINE
  5
337
100
AcDbEntity
  8
0
100
AcDbPolyline
 62
7
  6
CONTINUOUS
 90
11
 70
0
 10
98.1314234802
 20
100.762248254
 10
97.9197609814
 20
100.8347341249
 10
97.7042345935
 20
100.8864670117
 10
97.4848443165
 20
100.9174469147
 10
97.2577482988
 20
100.9274957784
 10
97.0267883921
 20
100.9167916581
 10
96.8034901512
 20
100.8858687199
 10
96.5882423827
 20
100.8337009198
 10
96.3806562802
 20
100.7613143017
 10
96.1910909794
 20
100.6723211635
 10
96.0204609816
 20
100.5658787742
  0
LWPOLYLINE
  5
338
100
AcDbEntity
  8
0
100
AcDbPolyline
 62
7
  6
CONTINUOUS
 90
10
 70
0
 10
155.2711509375
 20
75.6379743405
 10
155.4574502858
 20
75.5726473814
 10
155.6478221821
 20
75.523652162
 10
155.8422666266
 20
75.4909886824
 10
156.0434986512
 20
75.4746569426
 10
156.2488032238
 20
75.4746569426
 10
156.4500352484
 20
75.4909886824
 10
156.6470309885
 20
75.5243087783
 10
156.8399541804
 20
75.5739606139
 10
157.0211509375
 20
75.6379743405
  0
LWPOLYLINE
  5
339
100
AcDbEntity
  8
0
100
AcDbPolyline
 62
7
  6
CONTINUOUS
 90
19
 70
0
 10
157.0211509375
 20
77.7812778655
 10
156.8348515892
 20
77.8466048246
 10
156.6444796929
 20
77.895600044
 10
156.4500352484
 20
77.9282635236
 10
156.2488032238
 20
77.9445952633
 10
156.0434986512
 20
77.9445952633
 10
155.8422666266
 20
77.9282635236
 10
155.6452708866
 20
77.8949434277
 10
155.4523476946
 20
77.845291592
 10
155.2711509375
 20
77.7812778655
 10
155.1021520756
 20
77.7023248293
 10
154.9448796486
 20
77.6090099021
 10
154.805573162
 20
77.5050351889
 10
154.6849549352
 20
77.3899721138
 10
154.5823026489
 20
77.2642492526
 10
154.5016888511
 20
77.1328544376
 10
154.4439995976
 20
76.9955596286
 10
154.4083488327
 20
76.8525928658
 10
154.3961509375
 20
76.709626103
  0
LINE
  5
33A
100
AcDbEntity
  8
DRAFT
100
AcDbLine
 62
7
  6
CONTINUOUS
 10
155.0268493537
 20
74.9338216328
 11
154.7711509375
 21
75.0256019048
  0
LINE
  5
33B
100
AcDbEntity
  8
DRAFT
100
AcDbLine
 62
7
  6
CONTINUOUS
 10
96.1424494612
 20
98.9839052992
 11
95.887968631
 21
99.0752486051
  0
LINE
  5
33C
100
AcDbEntity
  8
ASSI
100
AcDbLine
 62
7
  6
CONTINUOUS
 10
106.5009148323
 20
89.2065663077
 11
105.2360811689
 21
89.7229324885
  0
LINE
  5
33D
100
AcDbEntity
  8
0
100
AcDbLine
 62
7
  6
CONTINUOUS
 10
29.2130371234
 20
120.9359009252
 11
30.252267608
 21
120.5116368565
  0
LINE
  5
33E
100
AcDbEntity
  8
0
100
AcDbLine
 62
7
  6
CONTINUOUS
 10
167.9503068097
 20
64.2966477521
 11
168.9895372942
 21
63.8723836834
  0
LINE
  5
33F
100
AcDbEntity
  8
ASSI
100
AcDbLine
 62
7
  6
CONTINUOUS
 10
148.1568711098
 20
72.9698946264
 11
148.5057970751
 21
72.8274461976
  0
LINE
  5
340
100
AcDbEntity
  8
ASSI
100
AcDbLine
 62
7
  6
CONTINUOUS
 10
148.6669171301
 20
73.0649546081
 11
147.7110510471
 21
73.4551853024
  0
LINE
  5
341
100
AcDbEntity
  8
ASSI
100
AcDbLine
 62
7
  6
CONTINUOUS
 10
148.7432060751
 20
73.1774127753
 11
147.7110510471
 21
73.598788301
  0
LINE
  5
342
100
AcDbEntity
  8
0
100
AcDbLine
 62
7
  6
CONTINUOUS
 10
29.278653623
 20
122.0769245996
 11
30.3178841076
 21
121.6526605309
  0
LINE
  5
343
100
AcDbEntity
  8
0
100
AcDbLine
 62
7
  6
CONTINUOUS
 10
168.0159233093
 20
65.4376714266
 11
169.0551537938
 21
65.0134073579
  0
LINE
  5
344
100
AcDbEntity
  8
ASSI
100
AcDbLine
 62
7
  6
CONTINUOUS
 10
54.7415233706
 20
112.2427195392
 11
53.8873237538
 21
112.5914450724
  0
LINE
  5
345
100
AcDbEntity
  8
ASSI
100
AcDbLine
 62
7
  6
CONTINUOUS
 10
52.6402849538
 20
113.1005465307
 11
51.7216929977
 21
113.4755601264
  0
LINE
  5
346
100
AcDbEntity
  8
ASSI
100
AcDbLine
 62
7
  6
CONTINUOUS
 10
51.0045449325
 20
113.768334598
 11
50.4399520174
 21
113.9988286904
  0
LINE
  5
347
100
AcDbEntity
  8
ASSI
100
AcDbLine
 62
7
  6
CONTINUOUS
 10
49.8939855664
 20
114.2217185607
 11
49.3718084088
 21
114.4348964926
  0
LINE
  5
348
100
AcDbEntity
  8
ASSI
100
AcDbLine
 62
7
  6
CONTINUOUS
 10
47.9047549889
 20
115.0338185433
 11
47.3141147289
 21
115.2749464197
  0
LINE
  5
349
100
AcDbEntity
  8
SUPERFICI
100
AcDbLine
 62
7
  6
CONTINUOUS
 10
113.510542722
 20
88.3646338766
 11
134.3320797394
 21
79.8642767111
  0
LINE
  5
34A
100
AcDbEntity
  8
ASSI
100
AcDbLine
 62
7
  6
CONTINUOUS
 10
54.7415233706
 20
112.3863225377
 11
53.8873237538
 21
112.735048071
  0
LINE
  5
34B
100
AcDbEntity
  8
ASSI
100
AcDbLine
 62
7
  6
CONTINUOUS
 10
52.6905355355
 20
113.2236348152
 11
51.7216929977
 21
113.6191631249
  0
LINE
  5
34C
100
AcDbEntity
  8
ASSI
100
AcDbLine
 62
7
  6
CONTINUOUS
 10
51.0808341989
 20
113.880792634
 11
50.4399520174
 21
114.142431689
  0
LINE
  5
34D
100
AcDbEntity
  8
ASSI
100
AcDbLine
 62
7
  6
CONTINUOUS
 10
50.0126992505
 20
114.3168569007
 11
49.3718084088
 21
114.5784994912
  0
LINE
  5
34E
100
AcDbEntity
  8
ASSI
100
AcDbLine
 62
7
  6
CONTINUOUS
 10
47.9550055706
 20
115.1569068278
 11
47.3141147289
 21
115.4185494183
  0
LINE
  5
34F
100
AcDbEntity
  8
ASSI
100
AcDbLine
 62
7
  6
CONTINUOUS
 10
156.9882754268
 20
72.7912662841
 11
156.1222500231
 21
73.1448196747
  0
LINE
  5
350
100
AcDbEntity
  8
ASSI
100
AcDbLine
 62
7
  6
CONTINUOUS
 10
153.5241738117
 20
74.2054798464
 11
152.6581484079
 21
74.559033237
  0
LINE
  5
351
100
AcDbEntity
  8
ASSI
100
AcDbLine
 62
7
  6
CONTINUOUS
 10
94.6344463544
 20
98.2471104068
 11
93.7684209506
 21
98.6006637974
  0
LINE
  5
352
100
AcDbEntity
  8
ASSI
100
AcDbLine
 62
7
  6
CONTINUOUS
 10
97.2325225657
 20
97.186450235
 11
98.0985479695
 21
96.8328968444
  0
LINE
  5
353
100
AcDbEntity
  8
0
100
AcDbLine
 62
7
  6
CONTINUOUS
 10
47.264832714
 20
117.7914488089
 11
55.7722629055
 21
114.3183049769
  0
LINE
  5
354
100
AcDbEntity
  8
0
100
AcDbLine
 62
7
  6
CONTINUOUS
 10
61.5415233706
 20
111.9630142548
 11
93.8944316518
 21
98.7549947575
  0
LINE
  5
355
100
AcDbEntity
  8
0
100
AcDbLine
 62
7
  6
CONTINUOUS
 10
100.0490866778
 20
96.2423673647
 11
110.8993939343
 21
91.8127479763
  0
LINE
  5
356
100
AcDbEntity
  8
0
100
AcDbLine
 62
7
  6
CONTINUOUS
 10
147.7110510471
 20
76.7844518908
 11
152.7841591092
 21
74.7133641971
  0
LINE
  5
357
100
AcDbEntity
  8
0
100
AcDbLine
 62
7
  6
CONTINUOUS
 10
158.9519712294
 20
72.1953654432
 11
189.1571047635
 21
59.8641713146
  0
LINE
  5
358
100
AcDbEntity
  8
0
100
AcDbLine
 62
7
  6
CONTINUOUS
 10
142.4037699723
 20
79.4043326822
 11
111.3263861302
 21
92.0916229773
  0
LWPOLYLINE
  5
359
100
AcDbEntity
  8
DRAFT
100
AcDbPolyline
 62
7
  6
CONTINUOUS
 90
11
 70
0
 10
95.887968631
 20
99.0752486051
 10
95.6488559705
 20
99.1854139979
 10
95.4246264088
 20
99.3138073897
 10
95.2225162055
 20
99.4562864137
 10
95.0432457135
 20
99.6133123864
 10
94.8860945799
 20
99.7844239912
 10
94.7561380058
 20
99.9640949127
 10
94.6542645728
 20
100.1526013643
 10
94.5795856992
 20
100.3496671324
 10
94.534510841
 20
100.5489372608
 10
94.5201396553
 20
100.7674940604
  0
LWPOLYLINE
  5
35A
100
AcDbEntity
  8
DRAFT
100
AcDbPolyline
 62
7
  6
CONTINUOUS
 90
11
 70
0
 10
154.7711509375
 20
75.0256019048
 10
154.5308943119
 20
75.1362944308
 10
154.3055920032
 20
75.2653021795
 10
154.1025150724
 20
75.4084626907
 10
153.9223875033
 20
75.5662394136
 10
153.7644853121
 20
75.738168899
 10
153.633907609
 20
75.9186983382
 10
153.5315471065
 20
76.1081048328
 10
153.456511092
 20
76.3061112813
 10
153.4112205375
 20
76.5063335711
 10
153.3967802615
 20
76.7259407081
  0
LWPOLYLINE
  5
35B
100
AcDbEntity
  8
0
100
AcDbPolyline
 62
7
  6
CONTINUOUS
 90
3
 70
0
 10
96.3814234802
 20
99.6796049009
 10
96.2082649478
 20
99.761026007
 10
96.053072356
 20
99.8531068991
  0
LWPOLYLINE
  5
35C
100
AcDbEntity
  8
0
100
AcDbPolyline
 62
7
  6
CONTINUOUS
 90
10
 70
0
 10
98.1314234802
 20
101.8229084258
 10
98.3045820125
 20
101.7414873197
 10
98.4597746043
 20
101.6494064275
 10
98.5970012556
 20
101.5466657493
 10
98.7176194825
 20
101.4316026741
 10
98.8202717688
 20
101.3058798129
 10
98.9008855665
 20
101.174484998
 10
98.95857482
 20
101.0371901889
 10
98.9942255849
 20
100.8942234261
 10
99.0064234802
 20
100.7512566633
  0
LINE
  5
35D
100
AcDbEntity
  8
0
100
AcDbLine
 62
7
  6
CONTINUOUS
 10
155.0979924052
 20
75.7193954466
 11
155.2711509375
 21
75.6379743405
  0
LWPOLYLINE
  5
35E
100
AcDbEntity
  8
0
100
AcDbPolyline
 62
7
  6
CONTINUOUS
 90
8
 70
0
 10
97.9314234802
 20
100.5172992797
 10
98.0815496114
 20
100.445268414
 10
98.2135586146
 20
100.3634075185
 10
98.3274504896
 20
100.2717165932
 10
98.4245388662
 20
100.1683120629
 10
98.5035101148
 20
100.0550775029
 10
98.5604233457
 20
99.9376636391
 10
98.5625158392
 20
99.9301085658
  0
LWPOLYLINE
  5
35F
100
AcDbEntity
  8
0
100
AcDbPolyline
 62
7
  6
CONTINUOUS
 90
3
 70
0
 10
98.1314234802
 20
100.762248254
 10
98.3260314281
 20
100.6688749095
 10
98.4971542099
 20
100.5627589339
  0
LWPOLYLINE
  5
360
100
AcDbEntity
  8
ASSI
100
AcDbPolyline
 62
7
  6
CONTINUOUS
 90
4
 70
0
 10
123.8031677943
 20
81.5921270945
 10
124.0315535847
 20
81.4641048461
 10
124.4209978394
 20
81.1995102131
 10
124.7805691907
 20
80.9043187266
  0
LWPOLYLINE
  5
361
100
AcDbEntity
  8
RACCORDO
100
AcDbPolyline
 62
7
  6
CONTINUOUS
 90
10
 70
0
 10
29.1161841894
 20
141.7476415454
 10
29.1075112194
 20
141.7526183342
 10
29.0987150426
 20
141.7574769388
 10
29.0897956591
 20
141.7622173591
 10
29.0807498968
 20
141.7668411539
 10
29.0715809277
 20
141.7713467645
 10
29.0622982679
 20
141.7757295148
 10
29.0529050893
 20
141.779987846
 10
29.04339822
 20
141.7841233168
 10
29.0337776599
 20
141.7881359273
  0
LINE
  5
362
100
AcDbEntity
  8
ASSI
100
AcDbLine
 62
7
  6
CONTINUOUS
 10
123.6500132011
 20
82.0843754097
 11
123.9641915457
 21
81.8726545018
  0
LINE
  5
363
100
AcDbEntity
  8
ASSI
100
AcDbLine
 62
7
  6
CONTINUOUS
 10
123.5384905397
 20
81.3984090039
 11
123.2991185726
 21
81.5671185443
  0
LWPOLYLINE
  5
364
100
AcDbEntity
  8
0
100
AcDbPolyline
 62
7
  6
CONTINUOUS
 90
8
 70
0
 10
96.053072356
 20
99.8531068991
 10
95.9158457047
 20
99.9558475774
 10
95.7952274779
 20
100.0709106526
 10
95.6925751915
 20
100.1966335138
 10
95.6119613938
 20
100.3280283287
 10
95.5542721403
 20
100.4653231378
 10
95.5186213754
 20
100.6082899006
 10
95.5064234802
 20
100.7512566633
  0
LWPOLYLINE
  5
365
100
AcDbEntity
  8
ASSI
100
AcDbPolyline
 62
7
  6
CONTINUOUS
 90
6
 70
0
 10
123.9641915457
 20
81.8726545018
 10
124.2541680118
 20
81.6442140411
 10
124.5199425992
 20
81.3990540276
 10
124.7627967277
 20
81.1356116865
 10
124.9814489775
 20
80.8554497926
 10
125.0405986912
 20
80.7705413787
  0
LWPOLYLINE
  5
366
100
AcDbEntity
  8
0
100
AcDbPolyline
 62
7
  6
CONTINUOUS
 90
3
 70
0
 10
98.4971542099
 20
100.5627589339
 10
98.6447918257
 20
100.4439003271
 10
98.7706471288
 20
100.3098574174
  0
LWPOLYLINE
  5
367
100
AcDbEntity
  8
DRAFT
100
AcDbPolyline
 62
7
  6
CONTINUOUS
 90
8
 70
0
 10
124.5375740008
 20
79.3256287757
 10
124.4868645331
 20
79.3691801003
 10
124.3488178278
 20
79.4751634732
 10
124.2022494745
 20
79.5759952596
 10
124.0485883964
 20
79.6706800644
 10
123.8883109014
 20
79.7588860893
 10
123.7209406817
 20
79.8409451326
 10
123.5464777372
 20
79.9168571943
  0
LWPOLYLINE
  5
368
100
AcDbEntity
  8
ASSI
100
AcDbPolyline
 62
7
  6
CONTINUOUS
 90
3
 70
0
 10
124.7805691907
 20
80.9043187266
 10
125.107808392
 20
80.580960467
 10
125.2592076543
 20
80.3997027953
  0
LWPOLYLINE
  5
369
100
AcDbEntity
  8
ASSI
100
AcDbPolyline
 62
7
  6
CONTINUOUS
 90
6
 70
0
 10
118.210529021
 20
82.6243718899
 10
118.2415569944
 20
82.5917061648
 10
118.2725917439
 20
82.5587053478
 10
118.3036332695
 20
82.5253694388
 10
118.3346797981
 20
82.4916940813
 10
118.3657331028
 20
82.4576836319
  0
LINE
  5
36A
100
AcDbEntity
  8
ASSI
100
AcDbLine
 62
7
  6
CONTINUOUS
 10
118.3657331028
 20
82.4576836319
 11
118.4278777701
 21
82.3887010221
  0
LINE
  5
36B
100
AcDbEntity
  8
ASSI
100
AcDbLine
 62
7
  6
CONTINUOUS
 10
118.4278777701
 20
82.3887010221
 11
118.4900725904
 21
82.3184346788
  0
LINE
  5
36C
100
AcDbEntity
  8
0
100
AcDbLine
 62
7
  6
CONTINUOUS
 10
98.7706471288
 20
100.3098574174
 11
98.8340026199
 21
100.2190138344
  0
LINE
  5
36D
100
AcDbEntity
  8
0
100
AcDbLine
 62
7
  6
CONTINUOUS
 10
111.3263861302
 20
92.0916229773
 11
113.510542722
 21
88.3646338766
  0
LWPOLYLINE
  5
36E
100
AcDbEntity
  8
RACCORDO
100
AcDbPolyline
 62
7
  6
CONTINUOUS
 90
19
 70
0
 10
114.730859677
 20
141.6265307715
 10
114.7329758644
 20
141.5927820781
 10
114.7470136233
 20
141.5293283551
 10
114.7731883913
 20
141.4693882225
 10
114.8122077647
 20
141.4131925545
 10
114.8633641473
 20
141.3605104769
 10
114.9233557524
 20
141.3146075567
 10
114.9927320165
 20
141.2758986935
 10
115.0709435032
 20
141.2439689878
 10
115.1530401168
 20
141.2208393076
 10
115.2392552855
 20
141.2070535623
 10
115.3293555811
 20
141.2020678425
 10
115.417690624
 20
141.2062712878
 10
115.504189378
 20
141.2202126476
 10
115.5889228793
 20
141.2433431725
 10
115.6664538567
 20
141.2744057531
 10
115.7349698867
 20
141.3129813531
 10
115.796283393
 20
141.3594890087
 10
115.8503943754
 20
141.4139287201
  0
LINE
  5
36F
100
AcDbEntity
  8
RACCORDO
100
AcDbLine
 62
7
  6
CONTINUOUS
 10
114.7307791331
 20
141.6260607545
 11
114.7307935831
 21
115.2347654423
  0
LINE
  5
370
100
AcDbEntity
  8
RACCORDO
100
AcDbLine
 62
253
  6
CONTINUOUS
 10
115.8503943754
 20
141.4139287201
 11
115.8503943754
 21
115.9855894107
  0
LWPOLYLINE
  5
371
100
AcDbEntity
  8
RACCORDO
100
AcDbPolyline
 62
7
  6
CONTINUOUS
 90
10
 70
0
 10
117.3737087284
 20
134.4407653966
 10
117.303977421
 20
132.4936214974
 10
117.2093209576
 20
130.5202220757
 10
117.0897393383
 20
128.5205671315
 10
116.9451743027
 20
126.4941263716
 10
116.7756841112
 20
124.4414300892
 10
116.5814435446
 20
122.364069164
 10
116.3625108632
 20
120.2625738891
 10
116.1188278069
 20
118.1364139713
 10
115.8503943754
 20
115.9855894107
  0
LWPOLYLINE
  5
372
100
AcDbEntity
  8
RACCORDO
100
AcDbPolyline
 62
7
  6
CONTINUOUS
 90
73
 70
0
 10
115.8503943754
 20
115.9855894107
 10
115.8381178485
 20
115.894368369
 10
115.8253028071
 20
115.8057681343
 10
115.8120124918
 20
115.7197889839
 10
115.7983283463
 20
115.636497823
 10
115.7842910227
 20
115.5558200635
 10
115.769891233
 20
115.4775451524
 10
115.7551715045
 20
115.4016612124
 10
115.7401814636
 20
115.3281719149
 10
115.7249063101
 20
115.2568966071
 10
115.7093802492
 20
115.1878253861
 10
115.6936418404
 20
115.1209601356
 10
115.6776712918
 20
115.056144031
 10
115.6614968973
 20
114.9933690432
 10
115.6451489416
 20
114.9326367354
 10
115.6286020278
 20
114.8738106955
 10
115.6118804107
 20
114.8168847833
 10
115.5950079453
 20
114.7618613611
 10
115.5779519808
 20
114.7086230347
 10
115.5607344878
 20
114.6571657754
 10
115.5433740124
 20
114.6074936996
 10
115.5258274626
 20
114.5595086259
 10
115.5081162987
 20
114.5132083546
 10
115.4902544603
 20
114.4686005682
 10
115.472183326
 20
114.4256103571
 10
115.4539273369
 20
114.3842387113
 10
115.4354949031
 20
114.3444977037
 10
115.4168001314
 20
114.3063403125
 10
115.397872618
 20
114.2697647238
 10
115.378716265
 20
114.2347974884
 10
115.3592049993
 20
114.2014503541
 10
115.3393922927
 20
114.1697260231
 10
115.3192642982
 20
114.1396641144
 10
115.2985956856
 20
114.1113591044
 10
115.2774741527
 20
114.0847752897
 10
115.2558689581
 20
114.0600252664
 10
115.2333883836
 20
114.037477209
 10
115.2100967941
 20
114.0169634189
 10
115.1860356376
 20
113.9988022212
 10
115.1608111411
 20
113.9841670241
 10
115.134227347
 20
113.9729671204
 10
115.1067069323
 20
113.9655585361
 10
115.0788031326
 20
113.9637846195
 10
115.0502780471
 20
113.9683906689
 10
115.0216727597
 20
113.9788113513
 10
114.9945711142
 20
113.9947021166
 10
114.9692183996
 20
114.0165564828
 10
114.9453754298
 20
114.0436643597
 10
114.923665713
 20
114.0736373673
 10
114.9043055668
 20
114.1058565109
 10
114.8868470201
 20
114.14063561
 10
114.8708679125
 20
114.176965138
 10
114.8562936095
 20
114.2144921772
 10
114.8430527758
 20
114.2534138586
 10
114.8308094811
 20
114.2936087627
 10
114.8194915852
 20
114.3349901497
 10
114.8090983729
 20
114.3775649208
 10
114.799463781
 20
114.4213885805
 10
114.7905527288
 20
114.4664378757
 10
114.7823646114
 20
114.5126875551
 10
114.774820699
 20
114.5602065091
 10
114.7679078955
 20
114.6089704665
 10
114.7616235827
 20
114.658969094
 10
114.7559269145
 20
114.710299977
 10
114.7508151224
 20
114.7629477886
 10
114.7462900413
 20
114.816900138
 10
114.7423339833
 20
114.8722629908
 10
114.738951428
 20
114.9290205795
 10
114.7361480185
 20
114.9871635229
 10
114.7339208309
 20
115.046809148
 10
114.7322797305
 20
115.1079413606
 10
114.7312344738
 20
115.170550849
 10
114.7307935831
 20
115.2347654423
  0
LINE
  5
373
100
AcDbEntity
  8
ASSI
100
AcDbLine
 62
7
  6
CONTINUOUS
 10
101.712287853
 20
88.6440128248
 11
101.9635983354
 21
89.0144716931
  0
LINE
  5
374
100
AcDbEntity
  8
ASSI
100
AcDbLine
 62
7
  6
CONTINUOUS
 10
103.7608183354
 20
91.6637686142
 11
104.1362268354
 21
92.2171614004
  0
LINE
  5
375
100
AcDbEntity
  8
ASSI
100
AcDbLine
 62
7
  6
CONTINUOUS
 10
106.1259148323
 20
88.6537756948
 11
106.5009148323
 21
89.2065663077
  0
LINE
  5
376
100
AcDbEntity
  8
ASSI
100
AcDbLine
 62
7
  6
CONTINUOUS
 10
105.5099045114
 20
87.0936423162
 11
105.761216518
 21
87.4641034313
  0
LINE
  5
377
100
AcDbEntity
  8
ASSI
100
AcDbLine
 62
7
  6
CONTINUOUS
 10
107.5584349938
 20
90.1133981056
 11
107.9338435526
 21
90.6667909786
  0
LWPOLYLINE
  5
378
100
AcDbEntity
  8
DRAFT
100
AcDbPolyline
 62
7
  6
CONTINUOUS
 90
8
 70
0
 10
98.8656887754
 20
99.1862880356
 10
98.6236905767
 20
99.075164931
 10
98.3695901491
 20
98.9832726895
 10
98.1029976523
 20
98.911240226
 10
97.8243029266
 20
98.8584386256
 10
97.5424939003
 20
98.8265698821
 10
97.2574645736
 20
98.8163162452
 10
96.9693209463
 20
98.8269954652
  0
LWPOLYLINE
  5
379
100
AcDbEntity
  8
0
100
AcDbPolyline
 62
7
  6
CONTINUOUS
 90
10
 70
0
 10
98.1314234802
 20
99.6796049009
 10
97.9502267231
 20
99.6155911743
 10
97.7573035311
 20
99.5659393386
 10
97.5603077911
 20
99.5326192428
 10
97.3590757665
 20
99.516287503
 10
97.1537711938
 20
99.516287503
 10
96.9525391692
 20
99.5326192428
 10
96.7580947248
 20
99.5652827224
 10
96.5677228284
 20
99.6142779417
 10
96.3814234802
 20
99.6796049009
  0
LWPOLYLINE
  5
37A
100
AcDbEntity
  8
DRAFT
100
AcDbPolyline
 62
7
  6
CONTINUOUS
 90
10
 70
0
 10
97.4004163566
 20
97.3920772944
 10
97.5728026042
 20
97.402379573
 10
97.7426480823
 20
97.4200309057
 10
97.909952791
 20
97.4450312926
 10
98.075345517
 20
97.4775346169
 10
98.2381974736
 20
97.5173869953
 10
98.3966223009
 20
97.5641267782
 10
98.5499912123
 20
97.6176000824
 10
98.6989329944
 20
97.6779607911
 10
98.8434476471
 20
97.7452089043
  0
LWPOLYLINE
  5
37B
100
AcDbEntity
  8
DRAFT
100
AcDbPolyline
 62
7
  6
CONTINUOUS
 90
4
 70
0
 10
96.9693209463
 20
98.8269954652
 10
96.6873689457
 20
98.8582627868
 10
96.4118133901
 20
98.9107899922
 10
96.1424494612
 20
98.9839052992
  0
LWPOLYLINE
  5
37C
100
AcDbEntity
  8
0
100
AcDbPolyline
 62
7
  6
CONTINUOUS
 90
21
 70
0
 10
56.9878185598
 20
110.3344841818
 10
57.31442138
 20
110.264647656
 10
57.6426618255
 20
110.2180911024
 10
57.9725398963
 20
110.194814521
 10
58.3072855286
 20
110.1950437943
 10
58.6436687861
 20
110.2185530399
 10
58.9719998602
 20
110.2646646098
 10
59.29204445
 20
110.3340358783
 10
59.6040368564
 20
110.4260094712
 10
59.8989901734
 20
110.5379356178
 10
60.1764087019
 20
110.6703945475
 10
60.4367881411
 20
110.8228060309
 10
60.6726286825
 20
110.9907796097
 10
60.8832166367
 20
111.1747678101
 10
61.0692656932
 20
111.3743181059
 10
61.2254171111
 20
111.5836824595
 10
61.3508013754
 20
111.803146432
 10
61.4462880012
 20
112.0324244623
 10
61.5091267931
 20
112.2649118296
 10
61.5383681007
 20
112.5007017029
 10
61.5409179334
 20
112.5958287392
  0
LINE
  5
37D
100
AcDbEntity
  8
0
100
AcDbLine
 62
7
  6
CONTINUOUS
 10
25.3491150903
 20
133.4737624603
 11
23.5337767026
 21
134.2148712536
  0
LWPOLYLINE
  5
37E
100
AcDbEntity
  8
0
100
AcDbPolyline
 62
7
  6
CONTINUOUS
 90
8
 70
0
 10
156.8211509375
 20
76.4756687194
 10
156.9712770688
 20
76.4036378536
 10
157.1032860719
 20
76.3217769581
 10
157.2171779469
 20
76.2300860329
 10
157.3142663236
 20
76.1266815026
 10
157.3932375721
 20
76.0134469425
 10
157.450150803
 20
75.8960330788
 10
157.4522432966
 20
75.8884780054
  0
LWPOLYLINE
  5
37F
100
AcDbEntity
  8
0
100
AcDbPolyline
 62
7
  6
CONTINUOUS
 90
3
 70
0
 10
157.0211509375
 20
76.7206176937
 10
157.2157588855
 20
76.6272443492
 10
157.3868816673
 20
76.5211283735
  0
LWPOLYLINE
  5
380
100
AcDbEntity
  8
ASSI
100
AcDbPolyline
 62
7
  6
CONTINUOUS
 90
5
 70
0
 10
125.0405986912
 20
80.7705413787
 10
125.1720550895
 20
80.5632566705
 10
125.3333336439
 20
80.2605950953
 10
125.4665660605
 20
79.9459022919
 10
125.5717523392
 20
79.6191782604
  0
LINE
  5
381
100
AcDbEntity
  8
ASSI
100
AcDbLine
 62
7
  6
CONTINUOUS
 10
123.8707595349
 20
81.6917646752
 11
123.6500132011
 21
82.0843754097
  0
LWPOLYLINE
  5
382
100
AcDbEntity
  8
ASSI
100
AcDbPolyline
 62
7
  6
CONTINUOUS
 90
9
 70
0
 10
124.82896768
 20
79.6653512545
 10
124.7327708607
 20
79.9137898749
 10
124.6175777274
 20
80.1536290583
 10
124.4833882802
 20
80.3848688049
 10
124.329469572
 20
80.6084202468
 10
124.1565545499
 20
80.8233722518
 10
123.9668420548
 20
81.0269914237
 10
123.7610650337
 20
81.2183666304
 10
123.5384905397
 20
81.3984090039
  0
LINE
  5
383
100
AcDbEntity
  8
0
100
AcDbLine
 62
7
  6
CONTINUOUS
 10
116.9347778758
 20
142.7420218509
 11
117.0003943754
 21
141.7617251191
  0
LWPOLYLINE
  5
384
100
AcDbEntity
  8
0
100
AcDbPolyline
 62
7
  6
CONTINUOUS
 90
10
 70
0
 10
118.6503217833
 20
143.782465249
 10
118.640808483
 20
142.9055839289
 10
118.626841501
 20
142.0234606774
 10
118.6084208373
 20
141.1360954946
 10
118.5855450421
 20
140.2434407494
 10
118.5582155653
 20
139.3455440728
 10
118.526436756
 20
138.4425483582
 10
118.4902100641
 20
137.5345012368
 10
118.4495340398
 20
136.6213550774
 10
118.404408683
 20
135.70310988
  0
LINE
  5
385
100
AcDbEntity
  8
0
100
AcDbLine
 62
7
  6
CONTINUOUS
 10
110.8993939343
 20
91.8127479763
 11
107.2234964615
 21
86.394071332
  0
LINE
  5
386
100
AcDbEntity
  8
0
100
AcDbLine
 62
7
  6
CONTINUOUS
 10
111.1992796282
 20
84.9575797143
 11
113.510542722
 21
88.3646338766
  0
LINE
  5
387
100
AcDbEntity
  8
RACCORDO
100
AcDbLine
 62
7
  6
CONTINUOUS
 10
150.5365635427
 20
129.0241502959
 11
149.4521800423
 21
127.6960571651
  0
LWPOLYLINE
  5
388
100
AcDbEntity
  8
0
100
AcDbPolyline
 62
7
  6
CONTINUOUS
 90
13
 70
0
 10
173.3003364326
 20
116.8815292929
 10
173.0054748063
 20
116.7698027108
 10
172.7281020565
 20
116.6375611575
 10
172.4677236039
 20
116.4853822676
 10
172.2318301547
 20
116.3176365263
 10
172.0211306368
 20
116.1338781722
 10
171.8349161223
 20
115.9345529668
 10
171.6785505323
 20
115.7253686783
 10
171.5528913594
 20
115.506019083
 10
171.4570811111
 20
115.2768104048
 10
171.3939112314
 20
115.0443690837
 10
171.3643415493
 20
114.8086094271
 10
171.3616574723
 20
114.7110864234
  0
LINE
  5
389
100
AcDbEntity
  8
0
100
AcDbLine
 62
7
  6
CONTINUOUS
 10
173.5334977681
 20
116.9501561858
 11
173.3003364326
 21
116.8815292929
  0
LWPOLYLINE
  5
38A
100
AcDbEntity
  8
RACCORDO
100
AcDbPolyline
 62
7
  6
CONTINUOUS
 90
5
 70
0
 10
204.3779982066
 20
88.405179344
 10
204.3425492897
 20
88.4123269027
 10
204.3081114187
 20
88.4163533842
 10
204.2747964863
 20
88.4174752711
 10
204.2426495018
 20
88.415768187
  0
LWPOLYLINE
  5
38B
100
AcDbEntity
  8
RACCORDO
100
AcDbPolyline
 62
7
  6
CONTINUOUS
 90
10
 70
0
 10
193.3187967578
 20
74.7190577317
 10
193.3090720537
 20
74.7229427923
 10
193.2992537223
 20
74.7266968016
 10
193.2893417637
 20
74.7303197597
 10
193.2793326829
 20
74.7338128296
 10
193.2692299749
 20
74.7371748482
 10
193.2590441248
 20
74.7404023262
 10
193.2487786275
 20
74.7434941007
 10
193.2384299881
 20
74.7464513346
 10
193.2279982066
 20
74.749274028
  0
LWPOLYLINE
  5
38C
100
AcDbEntity
  8
RACCORDO
100
AcDbPolyline
 62
7
  6
CONTINUOUS
 90
10
 70
0
 10
28.4337776599
 20
141.0532890044
 10
28.443502364
 20
141.0494039438
 10
28.4533206954
 20
141.0456499345
 10
28.4632326539
 20
141.0420269764
 10
28.4732417347
 20
141.0385339066
 10
28.4833444427
 20
141.035171888
 10
28.4935302929
 20
141.0319444099
 10
28.5037957901
 20
141.0288526354
 10
28.5141444296
 20
141.0258954015
 10
28.5245762111
 20
141.0230727081
  0
LINE
  5
38D
100
AcDbEntity
  8
0
100
AcDbLine
 62
7
  6
CONTINUOUS
 10
198.0447316864
 20
70.7492468073
 11
195.1869691586
 21
71.9159234739
  0
LINE
  5
38E
100
AcDbEntity
  8
0
100
AcDbLine
 62
7
  6
CONTINUOUS
 10
23.1078427312
 20
142.1669326624
 11
25.9656052591
 21
141.0002559958
  0
LINE
  5
38F
100
AcDbEntity
  8
0
100
AcDbLine
 62
7
  6
CONTINUOUS
 10
198.6447316864
 20
71.4840937302
 11
195.7869691586
 21
72.6507703967
  0
LINE
  5
390
100
AcDbEntity
  8
0
100
AcDbLine
 62
7
  6
CONTINUOUS
 10
23.7078427312
 20
142.9017795852
 11
26.0509597652
 21
141.9452060617
  0
LINE
  5
391
100
AcDbEntity
  8
RACCORDO
100
AcDbLine
 62
7
  6
CONTINUOUS
 10
195.0733180508
 20
73.0229815161
 11
192.7187967578
 21
73.9842108089
  0
LINE
  5
392
100
AcDbEntity
  8
RACCORDO
100
AcDbLine
 62
7
  6
CONTINUOUS
 10
26.0792563668
 20
142.0145182972
 11
28.4337776599
 21
141.0532890044
  0
LINE
  5
393
100
AcDbEntity
  8
RACCORDO
100
AcDbLine
 62
7
  6
CONTINUOUS
 10
195.6733180508
 20
73.757828439
 11
193.3187967578
 21
74.7190577317
  0
LINE
  5
394
100
AcDbEntity
  8
RACCORDO
100
AcDbLine
 62
7
  6
CONTINUOUS
 10
26.6792563668
 20
142.74936522
 11
29.0337776599
 21
141.7881359273
  0
LINE
  5
395
100
AcDbEntity
  8
0
100
AcDbLine
 62
7
  6
CONTINUOUS
 10
33.3241150903
 20
143.2411028096
 11
31.5087767026
 21
143.982211603
  0
LWPOLYLINE
  5
396
100
AcDbEntity
  8
RACCORDO
100
AcDbPolyline
 62
7
  6
CONTINUOUS
 90
10
 70
0
 10
40.2661841894
 20
155.4035468614
 10
40.2575112194
 20
155.4085236502
 10
40.2487150426
 20
155.4133822548
 10
40.2397956591
 20
155.4181226751
 10
40.2307498968
 20
155.4227464699
 10
40.2215809277
 20
155.4272520806
 10
40.2122982679
 20
155.4316348308
 10
40.2029050893
 20
155.435893162
 10
40.19339822
 20
155.4400286328
 10
40.1837776599
 20
155.4440412433
  0
LWPOLYLINE
  5
397
100
AcDbEntity
  8
0
100
AcDbPolyline
 62
7
  6
CONTINUOUS
 90
3
 70
0
 10
157.3868816673
 20
76.5211283735
 10
157.534519283
 20
76.4022697667
 10
157.6603745861
 20
76.2682268571
  0
LINE
  5
398
100
AcDbEntity
  8
ASSI
100
AcDbLine
 62
7
  6
CONTINUOUS
 10
124.82896768
 20
79.6653512545
 11
124.9007781238
 21
79.1773513133
  0
LWPOLYLINE
  5
399
100
AcDbEntity
  8
RACCORDO
100
AcDbPolyline
 62
7
  6
CONTINUOUS
 90
5
 70
0
 10
149.4521800423
 20
127.6960571651
 10
149.4125607761
 20
127.6357012353
 10
149.3862575165
 20
127.5749007063
 10
149.3732702633
 20
127.5136555782
 10
149.3718758283
 20
127.4843951477
  0
LINE
  5
39A
100
AcDbEntity
  8
ASSI
100
AcDbLine
 62
7
  6
CONTINUOUS
 10
118.210529021
 20
82.6243718899
 11
117.9294331799
 21
82.2100060323
  0
LINE
  5
39B
100
AcDbEntity
  8
ASSI
100
AcDbLine
 62
7
  6
CONTINUOUS
 10
118.3205823412
 20
82.0685876081
 11
118.4900725904
 21
82.3184346788
  0
LINE
  5
39C
100
AcDbEntity
  8
ASSI
100
AcDbLine
 62
7
  6
CONTINUOUS
 10
118.6801825188
 20
82.1755738428
 11
118.535650993
 21
81.9625186464
  0
LINE
  5
39D
100
AcDbEntity
  8
ASSI
100
AcDbLine
 62
7
  6
CONTINUOUS
 10
121.5670677452
 20
82.2742254603
 11
121.9179612107
 21
82.7914806115
  0
LINE
  5
39E
100
AcDbEntity
  8
ASSI
100
AcDbLine
 62
7
  6
CONTINUOUS
 10
123.6500132011
 20
82.0843754097
 11
123.2991185726
 21
81.5671185443
  0
LINE
  5
39F
100
AcDbEntity
  8
ASSI
100
AcDbLine
 62
7
  6
CONTINUOUS
 10
123.6326934511
 20
81.3408293622
 11
123.8707595349
 21
81.6917646752
  0
LINE
  5
3A0
100
AcDbEntity
  8
0
100
AcDbLine
 62
7
  6
CONTINUOUS
 10
152.2521074499
 20
130.0645936937
 11
151.1860826149
 21
128.758985245
  0
LINE
  5
3A1
100
AcDbEntity
  8
RACCORDO
100
AcDbLine
 62
7
  6
CONTINUOUS
 10
150.4914105268
 20
127.2717930964
 11
151.5757940272
 21
128.5998862271
  0
LINE
  5
3A2
100
AcDbEntity
  8
0
100
AcDbLine
 62
7
  6
CONTINUOUS
 10
153.2913379347
 20
129.6403296253
 11
151.6414105268
 21
127.6195894954
  0
LINE
  5
3A3
100
AcDbEntity
  8
0
100
AcDbLine
 62
7
  6
CONTINUOUS
 10
153.0454248344
 20
121.5609742562
 11
152.0147248798
 21
120.2986297729
  0
LINE
  5
3A4
100
AcDbEntity
  8
RACCORDO
100
AcDbLine
 62
7
  6
CONTINUOUS
 10
28.9960338916
 20
140.9005344946
 11
29.0244806556
 21
140.8940636831
  0
LINE
  5
3A5
100
AcDbEntity
  8
RACCORDO
100
AcDbLine
 62
7
  6
CONTINUOUS
 10
28.9475968335
 20
140.9119997261
 11
28.9960338916
 21
140.9005344946
  0
LINE
  5
3A6
100
AcDbEntity
  8
RACCORDO
100
AcDbLine
 62
7
  6
CONTINUOUS
 10
28.891146681
 20
140.9259151333
 11
28.9475968335
 21
140.9119997261
  0
LWPOLYLINE
  5
3A7
100
AcDbEntity
  8
RACCORDO
100
AcDbPolyline
 62
7
  6
CONTINUOUS
 90
5
 70
0
 10
28.5245762111
 20
141.0230727081
 10
28.5600251279
 20
141.0140470502
 10
28.594462999
 20
141.0047424213
 10
28.6277779314
 20
140.9954666643
 10
28.6599249159
 20
140.9866864701
  0
LINE
  5
3A8
100
AcDbEntity
  8
RACCORDO
100
AcDbLine
 62
7
  6
CONTINUOUS
 10
28.8254341911
 20
140.9426922557
 11
28.891146681
 21
140.9259151333
  0
LINE
  5
3A9
100
AcDbEntity
  8
RACCORDO
100
AcDbLine
 62
7
  6
CONTINUOUS
 10
28.7486607527
 20
140.962883835
 11
28.8254341911
 21
140.9426922557
  0
LINE
  5
3AA
100
AcDbEntity
  8
RACCORDO
100
AcDbLine
 62
7
  6
CONTINUOUS
 10
28.6599249159
 20
140.9866864701
 11
28.7486607527
 21
140.962883835
  0
LINE
  5
3AB
100
AcDbEntity
  8
0
100
AcDbLine
 62
7
  6
CONTINUOUS
 10
31.0828427312
 20
151.9342730117
 11
33.9406052591
 21
150.7675963452
  0
LINE
  5
3AC
100
AcDbEntity
  8
0
100
AcDbLine
 62
7
  6
CONTINUOUS
 10
203.1619691586
 20
81.6832638232
 11
206.0197316864
 21
80.5165871567
  0
LINE
  5
3AD
100
AcDbEntity
  8
0
100
AcDbLine
 62
7
  6
CONTINUOUS
 10
31.6828427312
 20
152.6691199346
 11
34.0259597652
 21
151.7125464111
  0
LINE
  5
3AE
100
AcDbEntity
  8
0
100
AcDbLine
 62
7
  6
CONTINUOUS
 10
203.7619691586
 20
82.4181107461
 11
206.6197316864
 21
81.2514340795
  0
LINE
  5
3AF
100
AcDbEntity
  8
0
100
AcDbLine
 62
7
  6
CONTINUOUS
 10
34.0542563668
 20
151.7818586465
 11
36.1056687686
 21
150.9443730405
  0
LINE
  5
3B0
100
AcDbEntity
  8
0
100
AcDbLine
 62
7
  6
CONTINUOUS
 10
200.9969056491
 20
83.6278074715
 11
203.0483180508
 21
82.7903218655
  0
LINE
  5
3B1
100
AcDbEntity
  8
0
100
AcDbLine
 62
7
  6
CONTINUOUS
 10
34.6542563668
 20
152.5167055693
 11
36.7056687686
 21
151.6792199633
  0
LINE
  5
3B2
100
AcDbEntity
  8
0
100
AcDbLine
 62
7
  6
CONTINUOUS
 10
201.5969056491
 20
84.3626543943
 11
203.6483180508
 21
83.5251687883
  0
LINE
  5
3B3
100
AcDbEntity
  8
0
100
AcDbLine
 62
7
  6
CONTINUOUS
 10
209.1947316864
 20
84.4051521234
 11
206.3369691586
 21
85.5718287899
  0
LINE
  5
3B4
100
AcDbEntity
  8
0
100
AcDbLine
 62
7
  6
CONTINUOUS
 10
34.2578427312
 20
155.8228379784
 11
37.1156052591
 21
154.6561613118
  0
LWPOLYLINE
  5
3B5
100
AcDbEntity
  8
RACCORDO
100
AcDbPolyline
 62
7
  6
CONTINUOUS
 90
10
 70
0
 10
192.6363902283
 20
74.0247051907
 10
192.6450631983
 20
74.0197284019
 10
192.6538593751
 20
74.0148697974
 10
192.6627787586
 20
74.010129377
 10
192.6718245209
 20
74.0055055822
 10
192.6809934899
 20
74.0009999716
 10
192.6902761498
 20
73.9966172213
 10
192.6996693283
 20
73.9923588902
 10
192.7091761977
 20
73.9882234193
 10
192.7187967578
 20
73.9842108089
  0
LINE
  5
3B6
100
AcDbEntity
  8
RACCORDO
100
AcDbLine
 62
7
  6
CONTINUOUS
 10
192.6074932411
 20
74.0422439152
 11
192.6363902283
 21
74.0247051907
  0
LWPOLYLINE
  5
3B7
100
AcDbEntity
  8
0
100
AcDbPolyline
 62
7
  6
CONTINUOUS
 90
12
 70
0
 10
90.9297919608
 20
151.9047420296
 10
90.838879867
 20
152.0003154202
 10
90.7295715351
 20
152.088378578
 10
90.607302422
 20
152.1645252482
 10
90.4713827262
 20
152.2281614331
 10
90.3225022493
 20
152.2798811303
 10
90.1681658528
 20
152.3170600779
 10
90.0086159566
 20
152.33909156
 10
89.8436101409
 20
152.3465822924
 10
89.6799260083
 20
152.3387281612
 10
89.5198227599
 20
152.3152611283
 10
89.3610411946
 20
152.2764492317
  0
LWPOLYLINE
  5
3B8
100
AcDbEntity
  8
0
100
AcDbPolyline
 62
7
  6
CONTINUOUS
 90
17
 70
0
 10
141.8058753135
 20
77.9647483274
 10
141.8158590617
 20
77.8508853361
 10
141.8479847489
 20
77.7379377665
 10
141.9011854838
 20
77.6269687781
 10
141.9727824569
 20
77.5235100225
 10
142.0636945506
 20
77.4279366319
 10
142.1730028826
 20
77.3398734741
 10
142.2952719957
 20
77.263726804
 10
142.4311916915
 20
77.2000906191
 10
142.5800721684
 20
77.1483709218
 10
142.7344085649
 20
77.1111919742
 10
142.8939584611
 20
77.0891604921
 10
143.0589642768
 20
77.0816697597
 10
143.2226484093
 20
77.0895238909
 10
143.3827516578
 20
77.1129909238
 10
143.5415332231
 20
77.1518028204
 10
143.6989931052
 20
77.2059595806
  0
LWPOLYLINE
  5
3B9
100
AcDbEntity
  8
0
100
AcDbPolyline
 62
7
  6
CONTINUOUS
 90
19
 70
0
 10
141.8053141362
 20
76.9048209615
 10
141.8138387222
 20
76.8038040557
 10
141.8392337602
 20
76.7013286067
 10
141.8804695031
 20
76.6029307678
 10
141.9381775256
 20
76.5087747311
 10
142.011726253
 20
76.4186963045
 10
142.0981893647
 20
76.3362794838
 10
142.1980837419
 20
76.2618289321
 10
142.3108925035
 20
76.1950399863
 10
142.4321386856
 20
76.1385826541
 10
142.5621834558
 20
76.0928699242
 10
142.7006656466
 20
76.0574888078
 10
142.8420247915
 20
76.0338703459
 10
142.985872119
 20
76.0223547612
 10
143.1325964006
 20
76.0226018311
 10
143.2778034843
 20
76.0350219288
 10
143.4200286527
 20
76.0597518453
 10
143.5607366232
 20
76.0966547897
 10
143.6999273959
 20
76.1457307618
  0
LWPOLYLINE
  5
3BA
100
AcDbEntity
  8
0
100
AcDbPolyline
 62
7
  6
CONTINUOUS
 90
10
 70
0
 10
140.9110856401
 20
77.4179871036
 10
140.9222576798
 20
77.2266433949
 10
140.9657672337
 20
76.9897768006
 10
141.0409352283
 20
76.7592865273
 10
141.1486812654
 20
76.5353585435
 10
141.2880857431
 20
76.3178068805
 10
141.455132997
 20
76.1128881247
 10
141.6484844724
 20
75.9226878048
 10
141.869478724
 20
75.7451203921
 10
142.1181157518
 20
75.5801858865
  0
LINE
  5
3BB
100
AcDbEntity
  8
ASSI
100
AcDbLine
 62
7
  6
CONTINUOUS
 10
140.9110510471
 20
74.10183958
 11
140.9110510471
 21
77.4174440053
  0
LINE
  5
3BC
100
AcDbEntity
  8
ASSI
100
AcDbLine
 62
7
  6
CONTINUOUS
 10
141.8053142116
 20
76.904791589
 11
141.8053142116
 21
77.9654517608
  0
LINE
  5
3BD
100
AcDbEntity
  8
0
100
AcDbLine
 62
7
  6
CONTINUOUS
 10
142.4468107737
 20
78.7375345173
 11
142.4468107737
 21
78.220637037
  0
LINE
  5
3BE
100
AcDbEntity
  8
0
100
AcDbLine
 62
7
  6
CONTINUOUS
 10
143.1573462363
 20
71.7241386701
 11
143.1573462363
 21
75.1559217834
  0
LINE
  5
3BF
100
AcDbEntity
  8
ASSI
100
AcDbLine
 62
7
  6
CONTINUOUS
 10
124.5852926363
 20
79.3061477243
 11
124.82896768
 21
79.6653512545
  0
LINE
  5
3C0
100
AcDbEntity
  8
ASSI
100
AcDbLine
 62
7
  6
CONTINUOUS
 10
125.1915104494
 20
79.0586603384
 11
125.5717523392
 21
79.6191782604
  0
LWPOLYLINE
  5
3C1
100
AcDbEntity
  8
0
100
AcDbPolyline
 62
7
  6
CONTINUOUS
 90
7
 70
0
 10
173.5091722982
 20
115.7213653014
 10
173.4347284941
 20
115.6731162041
 10
173.3638242438
 20
115.6215875111
 10
173.2964595472
 20
115.5667792223
 10
173.2326344044
 20
115.5086913378
 10
173.1723488153
 20
115.4473238574
 10
173.1156027799
 20
115.3826767813
  0
LWPOLYLINE
  5
3C2
100
AcDbEntity
  8
0
100
AcDbPolyline
 62
7
  6
CONTINUOUS
 90
7
 70
0
 10
176.012929796
 20
113.700485377
 10
176.0873736001
 20
113.7487344743
 10
176.1582778504
 20
113.8002631673
 10
176.225642547
 20
113.8550714561
 10
176.2894676898
 20
113.9131593407
 10
176.3497532789
 20
113.974526821
 10
176.4064993143
 20
114.0391738971
  0
LINE
  5
3C3
100
AcDbEntity
  8
ASSI
100
AcDbLine
 62
7
  6
CONTINUOUS
 10
118.3205823412
 20
82.0685876081
 11
118.5389885116
 21
82.1370146941
  0
LWPOLYLINE
  5
3C4
100
AcDbEntity
  8
ASSI
100
AcDbPolyline
 62
7
  6
CONTINUOUS
 90
10
 70
0
 10
118.210529021
 20
82.6243718899
 10
118.6172331358
 20
82.7421189005
 10
119.0270349785
 20
82.8351202318
 10
119.4399345493
 20
82.9033758838
 10
119.8583178869
 20
82.946951409
 10
120.2797989525
 20
82.9657812549
 10
120.6972196294
 20
82.9596687638
 10
121.1081938786
 20
82.9285483833
 10
121.515107739
 20
82.8724856659
 10
121.9179612107
 20
82.7914806115
  0
LWPOLYLINE
  5
3C5
100
AcDbEntity
  8
RACCORDO
100
AcDbPolyline
 62
7
  6
CONTINUOUS
 90
16
 70
0
 10
29.1883155321
 20
140.8623932021
 10
29.1940540122
 20
140.8615549217
 10
29.1995433272
 20
140.86078284
 10
29.2047949199
 20
140.8600683558
 10
29.209787312
 20
140.8594134864
 10
29.2145586742
 20
140.8588140498
 10
29.219203913
 20
140.8582535968
 10
29.2237262436
 20
140.8577316014
 10
29.2281269349
 20
140.8572492378
 10
29.2324878089
 20
140.8567957061
 10
29.2370000264
 20
140.8563058446
 10
29.2414572486
 20
140.8558523483
 10
29.2453797653
 20
140.8556183643
 10
29.24864463
 20
140.8556513436
 10
29.2514415958
 20
140.85587951
 10
29.2537925537
 20
140.8562944263
  0
LINE
  5
3C6
100
AcDbEntity
  8
RACCORDO
100
AcDbLine
 62
7
  6
CONTINUOUS
 10
29.1760613199
 20
140.8642677674
 11
29.1883155321
 21
140.8623932021
  0
LWPOLYLINE
  5
3C7
100
AcDbEntity
  8
RACCORDO
100
AcDbPolyline
 62
7
  6
CONTINUOUS
 90
3
 70
0
 10
29.1555167049
 20
140.8676539154
 10
29.162669113
 20
140.8664463411
 10
29.1760613199
 20
140.8642677674
  0
LWPOLYLINE
  5
3C8
100
AcDbEntity
  8
RACCORDO
100
AcDbPolyline
 62
7
  6
CONTINUOUS
 90
3
 70
0
 10
29.1319966116
 20
140.8718459415
 10
29.1401928417
 20
140.8703546382
 10
29.1555167049
 20
140.8676539154
  0
LWPOLYLINE
  5
3C9
100
AcDbEntity
  8
RACCORDO
100
AcDbPolyline
 62
7
  6
CONTINUOUS
 90
3
 70
0
 10
29.1049518304
 20
140.8770132442
 10
29.1143913911
 20
140.8751775211
 10
29.1319966116
 20
140.8718459415
  0
LWPOLYLINE
  5
3CA
100
AcDbEntity
  8
RACCORDO
100
AcDbPolyline
 62
7
  6
CONTINUOUS
 90
3
 70
0
 10
29.0737483027
 20
140.8833582978
 10
29.0846486228
 20
140.8811081634
 10
29.1049518304
 20
140.8770132442
  0
LWPOLYLINE
  5
3CB
100
AcDbEntity
  8
0
100
AcDbPolyline
 62
7
  6
CONTINUOUS
 90
12
 70
0
 10
175.3853121412
 20
117.0403785157
 10
175.2100951952
 20
117.0768844549
 10
175.0324619145
 20
117.1013103211
 10
174.8522840806
 20
117.1133860287
 10
174.6696899119
 20
117.1133816632
 10
174.4895133301
 20
117.1012973723
 10
174.3118791083
 20
117.0768609216
 10
174.1366624734
 20
117.0403445454
 10
173.9683230275
 20
116.9925650946
 10
173.8083473048
 20
116.9337948525
 10
173.6552487712
 20
116.8637615358
 10
173.5090274266
 20
116.7824651443
  0
LWPOLYLINE
  5
3CC
100
AcDbEntity
  8
RACCORDO
100
AcDbPolyline
 62
7
  6
CONTINUOUS
 90
4
 70
0
 10
29.0244806556
 20
140.8940636831
 10
29.0377076682
 20
140.8911091328
 10
29.0502991568
 20
140.8883668365
 10
29.0737483027
 20
140.8833582978
  0
LWPOLYLINE
  5
3CD
100
AcDbEntity
  8
RACCORDO
100
AcDbPolyline
 62
7
  6
CONTINUOUS
 90
10
 70
0
 10
204.4687967578
 20
88.3749630477
 10
204.4590720537
 20
88.3788481083
 10
204.4492537223
 20
88.3826021176
 10
204.4393417637
 20
88.3862250757
 10
204.4293326829
 20
88.3897181456
 10
204.4192299749
 20
88.3930801642
 10
204.4090441248
 20
88.3963076423
 10
204.3987786275
 20
88.3993994167
 10
204.3884299881
 20
88.4023566506
 10
204.3779982066
 20
88.405179344
  0
LWPOLYLINE
  5
3CE
100
AcDbEntity
  8
RACCORDO
100
AcDbPolyline
 62
7
  6
CONTINUOUS
 90
10
 70
0
 10
39.5837776599
 20
154.7091943204
 10
39.593502364
 20
154.7053092598
 10
39.6033206954
 20
154.7015552505
 10
39.6132326539
 20
154.6979322925
 10
39.6232417347
 20
154.6944392226
 10
39.6333444427
 20
154.691077204
 10
39.6435302929
 20
154.6878497259
 10
39.6537957901
 20
154.6847579514
 10
39.6641444296
 20
154.6818007175
 10
39.6745762111
 20
154.6789780241
  0
LINE
  5
3CF
100
AcDbEntity
  8
0
100
AcDbLine
 62
7
  6
CONTINUOUS
 10
209.7947316864
 20
85.1399990462
 11
206.9369691586
 21
86.3066757128
  0
LINE
  5
3D0
100
AcDbEntity
  8
0
100
AcDbLine
 62
7
  6
CONTINUOUS
 10
34.8578427312
 20
156.5576849012
 11
37.2009597652
 21
155.6011113778
  0
LINE
  5
3D1
100
AcDbEntity
  8
RACCORDO
100
AcDbLine
 62
7
  6
CONTINUOUS
 10
206.2233180508
 20
86.6788868321
 11
203.8687967578
 21
87.6401161249
  0
LINE
  5
3D2
100
AcDbEntity
  8
RACCORDO
100
AcDbLine
 62
7
  6
CONTINUOUS
 10
37.2292563668
 20
155.6704236132
 11
39.5837776599
 21
154.7091943204
  0
LINE
  5
3D3
100
AcDbEntity
  8
RACCORDO
100
AcDbLine
 62
7
  6
CONTINUOUS
 10
206.8233180508
 20
87.413733755
 11
204.4687967578
 21
88.3749630477
  0
LINE
  5
3D4
100
AcDbEntity
  8
RACCORDO
100
AcDbLine
 62
7
  6
CONTINUOUS
 10
37.8292563668
 20
156.405270536
 11
40.1837776599
 21
155.4440412433
  0
LWPOLYLINE
  5
3D5
100
AcDbEntity
  8
0
100
AcDbPolyline
 62
7
  6
CONTINUOUS
 90
9
 70
0
 10
89.9656594837
 20
151.8777796057
 10
90.0843915784
 20
151.781214814
 10
90.1892701563
 20
151.6769167288
 10
90.2805618941
 20
151.5650989102
 10
90.3558500117
 20
151.4487215925
 10
90.4147387049
 20
151.3277250661
 10
90.4576237779
 20
151.2021690405
 10
90.4832758634
 20
151.0751928786
 10
90.4912953517
 20
150.9513623592
  0
LINE
  5
3D6
100
AcDbEntity
  8
0
100
AcDbLine
 62
7
  6
CONTINUOUS
 10
157.6603745861
 20
76.2682268571
 11
157.7237300773
 21
76.1773832741
  0
LWPOLYLINE
  5
3D7
100
AcDbEntity
  8
RACCORDO
100
AcDbPolyline
 62
253
  6
CONTINUOUS
 90
8
 70
0
 10
182.8302111755
 20
45.810766064
 10
182.8461978032
 20
45.7873159725
 10
182.8632905429
 20
45.7659520742
 10
182.8814689467
 20
45.7467006853
 10
182.9007130178
 20
45.7295851063
 10
182.9209980678
 20
45.7146268484
 10
182.9422950304
 20
45.7018462487
 10
182.9662317049
 20
45.6905781632
  0
LWPOLYLINE
  5
3D8
100
AcDbEntity
  8
0
100
AcDbPolyline
 62
7
  6
CONTINUOUS
 90
3
 70
0
 10
142.4449506398
 20
78.2260830116
 10
142.4192985543
 20
78.3530591735
 10
142.4112790659
 20
78.476889693
  0
LWPOLYLINE
  5
3D9
100
AcDbEntity
  8
0
100
AcDbPolyline
 62
7
  6
CONTINUOUS
 90
17
 70
0
 10
146.8162267807
 20
78.9914600269
 10
146.8062430325
 20
79.1053230181
 10
146.7741173453
 20
79.2182705878
 10
146.7209166104
 20
79.3292395761
 10
146.6493196373
 20
79.4326983317
 10
146.5584075436
 20
79.5282717223
 10
146.4490992117
 20
79.6163348801
 10
146.3268300986
 20
79.6924815503
 10
146.1909104028
 20
79.7561177352
 10
146.0420299258
 20
79.8078374324
 10
145.8876935294
 20
79.84501638
 10
145.7281436331
 20
79.8670478621
 10
145.5631378174
 20
79.8745385945
 10
145.3994536849
 20
79.8666844633
 10
145.2393504364
 20
79.8432174304
 10
145.0805688711
 20
79.8044055338
 10
144.923108989
 20
79.7502487736
  0
LWPOLYLINE
  5
3DA
100
AcDbEntity
  8
0
100
AcDbPolyline
 62
7
  6
CONTINUOUS
 90
9
 70
0
 10
154.3961509375
 20
76.709626103
 10
154.4083488327
 20
76.5666593402
 10
154.4439995976
 20
76.4236925774
 10
154.5016888511
 20
76.2863977684
 10
154.5823026489
 20
76.1550029534
 10
154.6849549352
 20
76.0292800922
 10
154.805573162
 20
75.9142170171
 10
154.9427998134
 20
75.8114763388
 10
155.0979924052
 20
75.7193954466
  0
LWPOLYLINE
  5
3DB
100
AcDbEntity
  8
RACCORDO
100
AcDbPolyline
 62
7
  6
CONTINUOUS
 90
19
 70
0
 10
149.3718758283
 20
127.4843951477
 10
149.3739920158
 20
127.4506464543
 10
149.3880297746
 20
127.3871927313
 10
149.4142045426
 20
127.3272525988
 10
149.4532239161
 20
127.2710569308
 10
149.5043802986
 20
127.2183748532
 10
149.5643719038
 20
127.172471933
 10
149.6337481679
 20
127.1337630698
 10
149.7119596546
 20
127.1018333641
 10
149.7940562682
 20
127.0787036838
 10
149.8802714369
 20
127.0649179386
 10
149.9703717325
 20
127.0599322188
 10
150.0587067754
 20
127.064135664
 10
150.1452055294
 20
127.0780770239
 10
150.2299390306
 20
127.1012075488
 10
150.3074700081
 20
127.1322701294
 10
150.3759860381
 20
127.1708457293
 10
150.4372995443
 20
127.217353385
 10
150.4914105268
 20
127.2717930964
  0
LWPOLYLINE
  5
3DC
100
AcDbEntity
  8
0
100
AcDbPolyline
 62
7
  6
CONTINUOUS
 90
9
 70
0
 10
147.7104456099
 20
77.4172663752
 10
147.7044892509
 20
77.5611385492
 10
147.6685336462
 20
77.7964628684
 10
147.5990823495
 20
78.0280053462
 10
147.4970819745
 20
78.2558729331
 10
147.3654711167
 20
78.4735022515
 10
147.2033886644
 20
78.6805954827
 10
147.0116957294
 20
78.8774504454
 10
146.8115038449
 20
79.0453243264
  0
LINE
  5
3DD
100
AcDbEntity
  8
ASSI
100
AcDbLine
 62
7
  6
CONTINUOUS
 10
148.8921880713
 20
71.9415257316
 11
148.8914774904
 21
71.9931062343
  0
LINE
  5
3DE
100
AcDbEntity
  8
0
100
AcDbLine
 62
7
  6
CONTINUOUS
 10
143.696666889
 20
77.20677965
 11
143.696666889
 21
76.1461194783
  0
LINE
  5
3DF
100
AcDbEntity
  8
0
100
AcDbLine
 62
7
  6
CONTINUOUS
 10
144.9254352052
 20
79.7494287042
 11
144.9254352052
 21
78.6887685324
  0
LINE
  5
3E0
100
AcDbEntity
  8
0
100
AcDbLine
 62
7
  6
CONTINUOUS
 10
146.1752913206
 20
78.2186738369
 11
146.1752913206
 21
77.1580136651
  0
LINE
  5
3E1
100
AcDbEntity
  8
ASSI
100
AcDbLine
 62
7
  6
CONTINUOUS
 10
146.8167878826
 20
77.9300964217
 11
146.8167878826
 21
78.9907565935
  0
LINE
  5
3E2
100
AcDbEntity
  8
ASSI
100
AcDbLine
 62
7
  6
CONTINUOUS
 10
147.7110510471
 20
69.8650966357
 11
147.7110510471
 21
77.4174440053
  0
LINE
  5
3E3
100
AcDbEntity
  8
ASSI
100
AcDbLine
 62
7
  6
CONTINUOUS
 10
149.2605814934
 20
72.4369889774
 11
149.2605814934
 21
72.2933859788
  0
LINE
  5
3E4
100
AcDbEntity
  8
RACCORDO
100
AcDbLine
 62
7
  6
CONTINUOUS
 10
149.3717952845
 20
127.4839251307
 11
149.3718097344
 21
101.0926298186
  0
LINE
  5
3E5
100
AcDbEntity
  8
RACCORDO
100
AcDbLine
 62
253
  6
CONTINUOUS
 10
150.4914105268
 20
127.2717930964
 11
150.4914105268
 21
101.8434537646
  0
LWPOLYLINE
  5
3E6
100
AcDbEntity
  8
RACCORDO
100
AcDbPolyline
 62
7
  6
CONTINUOUS
 90
10
 70
0
 10
152.0147248798
 20
120.2986297729
 10
151.9449935731
 20
118.3514858906
 10
151.8503371108
 20
116.3780864864
 10
151.7307554931
 20
114.3784315601
 10
151.5861904603
 20
112.3519908256
 10
151.416700272
 20
110.2992945691
 10
151.2224597067
 20
108.2219336489
 10
151.0035270238
 20
106.1204383512
 10
150.7598439638
 20
103.9942783897
 10
150.4914105268
 20
101.8434537646
  0
LWPOLYLINE
  5
3E7
100
AcDbEntity
  8
0
100
AcDbPolyline
 62
7
  6
CONTINUOUS
 90
3
 70
0
 10
142.4112790659
 20
78.476889693
 10
142.4205129241
 20
78.6091789978
 10
142.4469695904
 20
78.7393691145
  0
LWPOLYLINE
  5
3E8
100
AcDbEntity
  8
0
100
AcDbPolyline
 62
7
  6
CONTINUOUS
 90
3
 70
0
 10
146.2108230283
 20
78.4793186612
 10
146.2015891701
 20
78.3470293564
 10
146.1751325038
 20
78.2168392397
  0
LWPOLYLINE
  5
3E9
100
AcDbEntity
  8
RACCORDO
100
AcDbPolyline
 62
7
  6
CONTINUOUS
 90
73
 70
0
 10
150.4914105268
 20
101.843453787
 10
150.4791339999
 20
101.7522327453
 10
150.4663189584
 20
101.6636325105
 10
150.4530286432
 20
101.5776533602
 10
150.4393444977
 20
101.4943621992
 10
150.425307174
 20
101.4136844398
 10
150.4109073844
 20
101.3354095286
 10
150.3961876558
 20
101.2595255886
 10
150.381197615
 20
101.1860362912
 10
150.3659224615
 20
101.1147609834
 10
150.3503964006
 20
101.0456897624
 10
150.3346579918
 20
100.9788245118
 10
150.3186874432
 20
100.9140084072
 10
150.3025130487
 20
100.8512334194
 10
150.2861650929
 20
100.7905011116
 10
150.2696181791
 20
100.7316750718
 10
150.2528965621
 20
100.6747491595
 10
150.2360240967
 20
100.6197257374
 10
150.2189681322
 20
100.5664874109
 10
150.2017506391
 20
100.5150301517
 10
150.1843901638
 20
100.4653580759
 10
150.1668436139
 20
100.4173730022
 10
150.1491324501
 20
100.3710727309
 10
150.1312706117
 20
100.3264649445
 10
150.1131994773
 20
100.2834747334
 10
150.0949434883
 20
100.2421030876
 10
150.0765110545
 20
100.20236208
 10
150.0578162828
 20
100.1642046887
 10
150.0388887694
 20
100.1276291
 10
150.0197324164
 20
100.0926618646
 10
150.0002211507
 20
100.0593147303
 10
149.9804084441
 20
100.0275903993
 10
149.9602804496
 20
99.9975284906
 10
149.939611837
 20
99.9692234807
 10
149.9184903041
 20
99.942639666
 10
149.8968851094
 20
99.9178896427
 10
149.8744045349
 20
99.8953415853
 10
149.8511129455
 20
99.8748277951
 10
149.8270517889
 20
99.8566665975
 10
149.8018272925
 20
99.8420314004
 10
149.7752434983
 20
99.8308314967
 10
149.7477230837
 20
99.8234229124
 10
149.719819284
 20
99.8216489958
 10
149.6912941985
 20
99.8262550451
 10
149.6626889111
 20
99.8366757276
 10
149.6355872655
 20
99.8525664928
 10
149.6102345509
 20
99.8744208591
 10
149.5863915812
 20
99.901528736
 10
149.5646818644
 20
99.9315017436
 10
149.5453217182
 20
99.9637208871
 10
149.5278631715
 20
99.9984999862
 10
149.5118840639
 20
100.0348295143
 10
149.4973097608
 20
100.0723565534
 10
149.4840689272
 20
100.1112782348
 10
149.4718256325
 20
100.151473139
 10
149.4605077365
 20
100.192854526
 10
149.4501145242
 20
100.2354292971
 10
149.4404799324
 20
100.2792529568
 10
149.4315688802
 20
100.324302252
 10
149.4233807628
 20
100.3705519314
 10
149.4158368504
 20
100.4180708854
 10
149.4089240469
 20
100.4668348428
 10
149.4026397341
 20
100.5168334703
 10
149.3969430659
 20
100.5681643533
 10
149.3918312738
 20
100.6208121648
 10
149.3873061927
 20
100.6747645143
 10
149.3833501346
 20
100.7301273671
 10
149.3799675794
 20
100.7868849558
 10
149.3771641698
 20
100.8450278992
 10
149.3749369823
 20
100.9046735243
 10
149.3732958819
 20
100.9658057368
 10
149.3722506252
 20
101.0284152253
 10
149.3718097344
 20
101.0926298186
  0
LWPOLYLINE
  5
3EA
100
AcDbEntity
  8
0
100
AcDbPolyline
 62
7
  6
CONTINUOUS
 90
4
 70
0
 10
142.5665433042
 20
77.9488952109
 10
142.5697829105
 20
77.9545212283
 10
142.6147996227
 20
78.0221222015
 10
142.6656027799
 20
78.0891954475
  0
LINE
  5
3EB
100
AcDbEntity
  8
0
100
AcDbLine
 62
7
  6
CONTINUOUS
 10
131.9216776456
 20
76.3110810861
 11
134.3320797394
 21
79.8642767111
  0
LWPOLYLINE
  5
3EC
100
AcDbEntity
  8
0
100
AcDbPolyline
 62
7
  6
CONTINUOUS
 90
12
 70
0
 10
142.7885866399
 20
78.2202613458
 10
142.9275714422
 20
78.3379745083
 10
143.0825571868
 20
78.442334935
 10
143.2559793114
 20
78.5343534541
 10
143.4454023783
 20
78.6130192375
 10
143.6435200743
 20
78.6752998
 10
143.8507868189
 20
78.7205425105
 10
144.0667481928
 20
78.7494000003
 10
144.2827346247
 20
78.7607976781
 10
144.4958562578
 20
78.7543773469
 10
144.709002949
 20
78.7304972039
 10
144.9221746983
 20
78.6891572489
  0
LWPOLYLINE
  5
3ED
100
AcDbEntity
  8
0
100
AcDbPolyline
 62
7
  6
CONTINUOUS
 90
9
 70
0
 10
142.4469695904
 20
78.7393691145
 10
142.3019113975
 20
78.67002338
 10
142.1749859154
 20
78.5921958572
 10
142.0661931442
 20
78.5058865459
 10
141.9747317647
 20
78.4095779567
 10
141.9014030961
 20
78.3047875792
 10
141.8486110958
 20
78.1960678815
 10
141.816977623
 20
78.0829670527
 10
141.8058753135
 20
77.9647483274
  0
LWPOLYLINE
  5
3EE
100
AcDbEntity
  8
0
100
AcDbPolyline
 62
7
  6
CONTINUOUS
 90
9
 70
0
 10
146.1751325038
 20
78.2168392397
 10
146.3201906968
 20
78.2861849742
 10
146.4471161788
 20
78.3640124971
 10
146.55590895
 20
78.4503218083
 10
146.6473703295
 20
78.5466303975
 10
146.7206989981
 20
78.6514207751
 10
146.7734909984
 20
78.7601404727
 10
146.8051244712
 20
78.8732413016
 10
146.8162267807
 20
78.9914600269
  0
LWPOLYLINE
  5
3EF
100
AcDbEntity
  8
0
100
AcDbPolyline
 62
7
  6
CONTINUOUS
 90
10
 70
0
 10
146.1745215831
 20
77.1560479478
 10
146.3040516535
 20
77.2166464273
 10
146.4194741848
 20
77.2842855427
 10
146.5207891769
 20
77.3589652938
 10
146.6085756928
 20
77.4416593727
 10
146.6822546696
 20
77.5313940873
 10
146.7400889185
 20
77.6252483619
 10
146.7818419009
 20
77.7236220366
 10
146.8077501554
 20
77.8261152713
 10
146.816787958
 20
77.9300670492
  0
LWPOLYLINE
  5
3F0
100
AcDbEntity
  8
RACCORDO
100
AcDbPolyline
 62
7
  6
CONTINUOUS
 90
3
 70
0
 10
40.2237483027
 20
154.5392636139
 10
40.2346486228
 20
154.5370134794
 10
40.2549518304
 20
154.5329185602
  0
LWPOLYLINE
  5
3F1
100
AcDbEntity
  8
RACCORDO
100
AcDbPolyline
 62
7
  6
CONTINUOUS
 90
3
 70
0
 10
40.1877076682
 20
154.5470144488
 10
40.2002991568
 20
154.5442721526
 10
40.2237483027
 20
154.5392636139
  0
LWPOLYLINE
  5
3F2
100
AcDbEntity
  8
RACCORDO
100
AcDbPolyline
 62
7
  6
CONTINUOUS
 90
3
 70
0
 10
40.1460338916
 20
154.5564398106
 10
40.1605999699
 20
154.5531118036
 10
40.1877076682
 20
154.5470144488
  0
LINE
  5
3F3
100
AcDbEntity
  8
RACCORDO
100
AcDbLine
 62
7
  6
CONTINUOUS
 10
40.0975968335
 20
154.5679050421
 11
40.1460338916
 21
154.5564398106
  0
LINE
  5
3F4
100
AcDbEntity
  8
RACCORDO
100
AcDbLine
 62
7
  6
CONTINUOUS
 10
40.041146681
 20
154.5818204493
 11
40.0975968335
 21
154.5679050421
  0
LWPOLYLINE
  5
3F5
100
AcDbEntity
  8
RACCORDO
100
AcDbPolyline
 62
7
  6
CONTINUOUS
 90
5
 70
0
 10
39.6745762111
 20
154.6789780241
 10
39.7100251279
 20
154.6699523662
 10
39.744462999
 20
154.6606477373
 10
39.7777779314
 20
154.6513719803
 10
39.8099249159
 20
154.6425917861
  0
LINE
  5
3F6
100
AcDbEntity
  8
RACCORDO
100
AcDbLine
 62
7
  6
CONTINUOUS
 10
39.9754341911
 20
154.5985975717
 11
40.041146681
 21
154.5818204493
  0
LINE
  5
3F7
100
AcDbEntity
  8
RACCORDO
100
AcDbLine
 62
7
  6
CONTINUOUS
 10
39.8986607527
 20
154.6187891511
 11
39.9754341911
 21
154.5985975717
  0
LINE
  5
3F8
100
AcDbEntity
  8
RACCORDO
100
AcDbLine
 62
7
  6
CONTINUOUS
 10
39.8099249159
 20
154.6425917861
 11
39.8986607527
 21
154.6187891511
  0
LINE
  5
3F9
100
AcDbEntity
  8
0
100
AcDbLine
 62
7
  6
CONTINUOUS
 10
180.1125332793
 20
106.3451726744
 11
178.1610510471
 21
107.1418619596
  0
LINE
  5
3FA
100
AcDbEntity
  8
0
100
AcDbLine
 62
7
  6
CONTINUOUS
 10
93.9430056028
 20
141.5237350384
 11
91.9915233706
 21
142.3204243236
  0
LINE
  5
3FB
100
AcDbEntity
  8
0
100
AcDbLine
 62
7
  6
CONTINUOUS
 10
48.9474294432
 20
162.3756769376
 11
62.6826523657
 21
156.7682956604
  0
LINE
  5
3FC
100
AcDbEntity
  8
0
100
AcDbLine
 62
7
  6
CONTINUOUS
 10
65.325581961
 20
155.6893241713
 11
85.1915233706
 21
147.5790875524
  0
LINE
  5
3FD
100
AcDbEntity
  8
0
100
AcDbLine
 62
7
  6
CONTINUOUS
 10
91.9915233706
 20
144.8029991772
 11
114.7307791331
 21
135.5197368857
  0
LINE
  5
3FE
100
AcDbEntity
  8
0
100
AcDbLine
 62
7
  6
CONTINUOUS
 10
117.3737087284
 20
134.4407653966
 11
149.3717952845
 21
121.377601262
  0
LINE
  5
3FF
100
AcDbEntity
  8
0
100
AcDbLine
 62
7
  6
CONTINUOUS
 10
152.0147248798
 20
120.2986297729
 11
171.3610510471
 21
112.4005251883
  0
LINE
  5
400
100
AcDbEntity
  8
0
100
AcDbLine
 62
7
  6
CONTINUOUS
 10
178.1610510471
 20
109.6244368132
 11
201.419922052
 21
100.1290424873
  0
LINE
  5
401
100
AcDbEntity
  8
0
100
AcDbLine
 62
7
  6
CONTINUOUS
 10
204.0628516472
 20
99.0500709982
 11
216.8799063186
 21
93.8175303399
  0
LINE
  5
402
100
AcDbEntity
  8
0
100
AcDbLine
 62
7
  6
CONTINUOUS
 10
49.0262198909
 20
164.0266368498
 11
62.6826523657
 21
158.4514216381
  0
LINE
  5
403
100
AcDbEntity
  8
0
100
AcDbLine
 62
7
  6
CONTINUOUS
 10
66.3562819155
 20
156.9516686546
 11
85.1915233706
 21
149.2622135301
  0
LINE
  5
404
100
AcDbEntity
  8
0
100
AcDbLine
 62
7
  6
CONTINUOUS
 10
92.6401529204
 20
146.2213232501
 11
114.7307791331
 21
137.2028628635
  0
LINE
  5
405
100
AcDbEntity
  8
0
100
AcDbLine
 62
7
  6
CONTINUOUS
 10
118.404408683
 20
135.70310988
 11
149.3717952845
 21
123.0607272397
  0
LINE
  5
406
100
AcDbEntity
  8
0
100
AcDbLine
 62
7
  6
CONTINUOUS
 10
153.0454248344
 20
121.5609742562
 11
171.3610510471
 21
114.0836511661
  0
LINE
  5
407
100
AcDbEntity
  8
0
100
AcDbLine
 62
7
  6
CONTINUOUS
 10
178.809680597
 20
111.0427608861
 11
201.419922052
 21
101.8121684651
  0
LINE
  5
408
100
AcDbEntity
  8
0
100
AcDbLine
 62
7
  6
CONTINUOUS
 10
205.0935516018
 20
100.3124154816
 11
217.9106062732
 21
95.0798748232
  0
LWPOLYLINE
  5
409
100
AcDbEntity
  8
RACCORDO
100
AcDbPolyline
 62
7
  6
CONTINUOUS
 90
10
 70
0
 10
203.7863902283
 20
87.6806105067
 10
203.7950631983
 20
87.6756337179
 10
203.8038593751
 20
87.6707751134
 10
203.8127787586
 20
87.666034693
 10
203.8218245209
 20
87.6614108982
 10
203.8309934899
 20
87.6569052876
 10
203.8402761498
 20
87.6525225373
 10
203.8496693283
 20
87.6482642062
 10
203.8591761977
 20
87.6441287353
 10
203.8687967578
 20
87.6401161249
  0
LINE
  5
40A
100
AcDbEntity
  8
RACCORDO
100
AcDbLine
 62
7
  6
CONTINUOUS
 10
203.7574932411
 20
87.6981492312
 11
203.7863902283
 21
87.6806105067
  0
LWPOLYLINE
  5
40B
100
AcDbEntity
  8
0
100
AcDbPolyline
 62
7
  6
CONTINUOUS
 90
10
 70
0
 10
157.8961509375
 20
76.709626103
 10
157.8839530423
 20
76.8525928658
 10
157.8483022774
 20
76.9955596286
 10
157.7906130239
 20
77.1328544376
 10
157.7099992261
 20
77.2642492526
 10
157.6073469398
 20
77.3899721138
 10
157.486728713
 20
77.5050351889
 10
157.3495020616
 20
77.6077758672
 10
157.1943094698
 20
77.6998567594
 10
157.0211509375
 20
77.7812778655
  0
LINE
  5
40C
100
AcDbEntity
  8
0
100
AcDbLine
 62
7
  6
CONTINUOUS
 10
151.5757940272
 20
128.5998862271
 11
151.6414105268
 21
127.6195894954
  0
LWPOLYLINE
  5
40D
100
AcDbEntity
  8
DRAFT
100
AcDbPolyline
 62
7
  6
CONTINUOUS
 90
9
 70
0
 10
153.3788879876
 20
75.3117034205
 10
153.3813244924
 20
75.2108179068
 10
153.3938130002
 20
75.0911626231
 10
153.4168526459
 20
74.971835949
 10
153.4503174612
 20
74.8532842784
 10
153.4938295412
 20
74.7368467927
 10
153.5472629177
 20
74.6229698856
 10
153.6107435589
 20
74.5112071634
 10
153.6842714649
 20
74.4015586261
  0
LINE
  5
40E
100
AcDbEntity
  8
DRAFT
100
AcDbLine
 62
7
  6
CONTINUOUS
 10
158.9711438797
 20
70.6419335457
 11
158.896046218
 21
76.7265958783
  0
LINE
  5
40F
100
AcDbEntity
  8
DRAFT
100
AcDbLine
 62
7
  6
CONTINUOUS
 10
153.646649988
 20
69.2082282248
 11
153.6842714649
 21
74.4015586261
  0
LWPOLYLINE
  5
410
100
AcDbEntity
  8
0
100
AcDbPolyline
 62
7
  6
CONTINUOUS
 90
10
 70
0
 10
153.2913379347
 20
129.6403296253
 10
153.2818246344
 20
128.7634483052
 10
153.2678576524
 20
127.8813250537
 10
153.2494369887
 20
126.9939598709
 10
153.2265611935
 20
126.1013051256
 10
153.1992317167
 20
125.2034084491
 10
153.1674529074
 20
124.3004127345
 10
153.1312262155
 20
123.3923656131
 10
153.0905501911
 20
122.4792194536
 10
153.0454248344
 20
121.5609742562
  0
LINE
  5
411
100
AcDbEntity
  8
DRAFT
100
AcDbLine
 62
7
  6
CONTINUOUS
 10
153.3788025861
 20
75.3124900199
 11
153.3962556571
 21
76.7265958783
  0
LINE
  5
412
100
AcDbEntity
  8
DRAFT
100
AcDbLine
 62
7
  6
CONTINUOUS
 10
157.663710611
 20
69.7256326624
 11
157.6488189694
 21
68.5871842337
  0
LINE
  5
413
100
AcDbEntity
  8
DRAFT
100
AcDbLine
 62
7
  6
CONTINUOUS
 10
157.6864854652
 20
71.4272466581
 11
157.663710611
 21
69.7256326624
  0
LINE
  5
414
100
AcDbEntity
  8
DRAFT
100
AcDbLine
 62
7
  6
CONTINUOUS
 10
157.7177500044
 20
73.6846865317
 11
157.6864854652
 21
71.4272466581
  0
LWPOLYLINE
  5
415
100
AcDbEntity
  8
DRAFT
100
AcDbPolyline
 62
7
  6
CONTINUOUS
 90
6
 70
0
 10
158.8955852258
 20
76.7274311172
 10
158.8804866979
 20
76.5056726935
 10
158.8360592699
 20
76.3053408303
 10
158.7625371575
 20
76.1116129517
 10
158.6597576668
 20
75.9222841012
 10
158.5277207979
 20
75.7373542789
  0
LWPOLYLINE
  5
416
100
AcDbEntity
  8
DRAFT
100
AcDbPolyline
 62
7
  6
CONTINUOUS
 90
6
 70
0
 10
153.3967802615
 20
76.7259407081
 10
153.4118151771
 20
76.9135795125
 10
153.4562426051
 20
77.1139113757
 10
153.5297647175
 20
77.3076392543
 10
153.6325442082
 20
77.4969681048
 10
153.7645810771
 20
77.6818979271
  0
LWPOLYLINE
  5
417
100
AcDbEntity
  8
ASSI
100
AcDbPolyline
 62
7
  6
CONTINUOUS
 90
14
 70
0
 10
152.6581484079
 20
74.559033237
 10
152.5457916644
 20
74.0865845774
 10
152.413934565
 20
73.6128206089
 10
152.2625771097
 20
73.1377413313
 10
152.0898920425
 20
72.6567611871
 10
151.8977066193
 20
72.1744657339
 10
151.6915026087
 20
71.7046116446
 10
151.4708763157
 20
71.2475571946
 10
151.2362314351
 20
70.8029441085
 10
150.9942608208
 20
70.3834542324
 10
150.7447535124
 20
69.9898110426
 10
150.4879204702
 20
69.6212910629
 10
150.231087428
 20
69.2884057105
 10
150.121388421
 20
69.1618817293
  0
LWPOLYLINE
  5
418
100
AcDbEntity
  8
ASSI
100
AcDbPolyline
 62
7
  6
CONTINUOUS
 90
14
 70
0
 10
153.5241738117
 20
74.2054798464
 10
153.4118170682
 20
73.7330311868
 10
153.2799599688
 20
73.2592672183
 10
153.1286025135
 20
72.7841879407
 10
152.9559174462
 20
72.3032077965
 10
152.7637320231
 20
71.8209123433
 10
152.5575280125
 20
71.351058254
 10
152.3369017194
 20
70.8940038041
 10
152.1022568389
 20
70.4493907179
 10
151.8602862245
 20
70.0299008418
 10
151.6107789162
 20
69.6362576521
 10
151.353945874
 20
69.2677376723
 10
151.0971128318
 20
68.9348523199
 10
150.8672625735
 20
68.6697490109
  0
LWPOLYLINE
  5
419
100
AcDbEntity
  8
0
100
AcDbPolyline
 62
7
  6
CONTINUOUS
 90
7
 70
0
 10
146.1745215831
 20
77.1560479478
 10
146.1526506507
 20
77.0863360655
 10
146.1249932734
 20
77.0171519105
 10
146.0915494511
 20
76.9484954828
 10
146.0523191838
 20
76.8803667823
 10
146.0073024715
 20
76.8127658091
 10
145.9564993143
 20
76.7456925632
  0
LINE
  5
41A
100
AcDbEntity
  8
ASSI
100
AcDbLine
 62
7
  6
CONTINUOUS
 10
147.7110510471
 20
72.3127075712
 11
148.1568711098
 21
72.9698946264
  0
LINE
  5
41B
100
AcDbEntity
  8
ASSI
100
AcDbLine
 62
7
  6
CONTINUOUS
 10
148.5057970751
 20
72.8274461976
 11
148.7432060751
 21
73.1774127753
  0
LWPOLYLINE
  5
41C
100
AcDbEntity
  8
0
100
AcDbPolyline
 62
7
  6
CONTINUOUS
 90
6
 70
0
 10
173.1156027799
 20
115.3826767813
 10
173.0165724231
 20
115.2418319063
 10
172.9418962322
 20
115.0978648631
 10
172.8915742072
 20
114.9507756518
 10
172.86558606
 20
114.7985674634
 10
172.8616661427
 20
114.7108242553
  0
LWPOLYLINE
  5
41D
100
AcDbEntity
  8
0
100
AcDbPolyline
 62
7
  6
CONTINUOUS
 90
6
 70
0
 10
176.4064993143
 20
114.0391738971
 10
176.5055296711
 20
114.1800187722
 10
176.580205862
 20
114.3239858153
 10
176.630527887
 20
114.4710750266
 10
176.6565160342
 20
114.623283215
 10
176.6604359515
 20
114.7110264232
  0
LINE
  5
41E
100
AcDbEntity
  8
0
100
AcDbLine
 62
7
  6
CONTINUOUS
 10
142.1181157518
 20
75.5801858865
 11
140.016586299
 21
73.0063484672
  0
LINE
  5
41F
100
AcDbEntity
  8
0
100
AcDbLine
 62
7
  6
CONTINUOUS
 10
175.9640455941
 20
117.0328148784
 11
178.0163632128
 21
119.5463803564
  0
LINE
  5
420
100
AcDbEntity
  8
0
100
AcDbLine
 62
7
  6
CONTINUOUS
 10
143.1573462363
 20
75.1559217834
 11
141.0558167838
 21
72.5820843644
  0
LINE
  5
421
100
AcDbEntity
  8
0
100
AcDbLine
 62
7
  6
CONTINUOUS
 10
176.9539863424
 20
116.5481834237
 11
179.0555936972
 21
119.1221162531
  0
LINE
  5
422
100
AcDbEntity
  8
0
100
AcDbLine
 62
7
  6
CONTINUOUS
 10
178.809680597
 20
111.0427608861
 11
178.1610510471
 21
110.2483551715
  0
LWPOLYLINE
  5
423
100
AcDbEntity
  8
DRAFT
100
AcDbPolyline
 62
7
  6
CONTINUOUS
 90
26
 70
0
 10
153.7645810771
 20
77.6818979271
 10
153.9250544941
 20
77.8552185773
 10
154.1055442874
 20
78.0128223296
 10
154.306050457
 20
78.1547091839
 10
154.529192165
 20
78.2820812478
 10
154.7723502493
 20
78.3937364138
 10
155.0276672233
 20
78.4860683595
 10
155.2955337232
 20
78.5584448172
 10
155.5755591127
 20
78.6114980545
 10
155.8587139968
 20
78.6435185515
 10
156.1451053532
 20
78.653821085
 10
156.4346262042
 20
78.6430908783
 10
156.717926221
 20
78.6116740815
 10
156.9947997882
 20
78.5588956224
 10
157.2654525213
 20
78.4854305732
 10
157.5211509375
 20
78.3936503012
 10
157.7614075631
 20
78.2829577752
 10
157.9867098718
 20
78.1539500265
 10
158.1897868026
 20
78.0107895153
 10
158.3699143717
 20
77.8530127924
 10
158.5278165629
 20
77.681083307
 10
158.6583942661
 20
77.5005538678
 10
158.7607547685
 20
77.3111473732
 10
158.835790783
 20
77.1131409247
 10
158.8810813375
 20
76.9129186349
 10
158.8955852258
 20
76.7274311172
  0
LINE
  5
424
100
AcDbEntity
  8
0
100
AcDbLine
 62
7
  6
CONTINUOUS
 10
142.6656027799
 20
78.0891954475
 11
142.7885866399
 21
78.2202613458
  0
LWPOLYLINE
  5
425
100
AcDbEntity
  8
0
100
AcDbPolyline
 62
7
  6
CONTINUOUS
 90
13
 70
0
 10
145.9564993143
 20
76.7456925632
 10
145.8335154543
 20
76.6146266649
 10
145.694530652
 20
76.4969135024
 10
145.5395449074
 20
76.3925530757
 10
145.3661227828
 20
76.3005345565
 10
145.1766997159
 20
76.2218687732
 10
144.9785820199
 20
76.1595882107
 10
144.7713152753
 20
76.1143455001
 10
144.5553539015
 20
76.0854880104
 10
144.3393674695
 20
76.0740903326
 10
144.1262458365
 20
76.0805106637
 10
143.9130991452
 20
76.1043908068
 10
143.6999273959
 20
76.1457307618
  0
LWPOLYLINE
  5
426
100
AcDbEntity
  8
0
100
AcDbPolyline
 62
7
  6
CONTINUOUS
 90
3
 70
0
 10
154.910188439
 20
76.5242482139
 10
154.757579243
 20
76.4011993045
 10
154.6306064809
 20
76.2676843648
  0
LWPOLYLINE
  5
427
100
AcDbEntity
  8
0
100
AcDbPolyline
 62
7
  6
CONTINUOUS
 90
10
 70
0
 10
157.0211509375
 20
75.6379743405
 10
157.1901497994
 20
75.7169273767
 10
157.3474222264
 20
75.8102423039
 10
157.486728713
 20
75.9142170171
 10
157.6073469398
 20
76.0292800922
 10
157.7099992261
 20
76.1550029534
 10
157.7906130239
 20
76.2863977684
 10
157.8483022774
 20
76.4236925774
 10
157.8839530423
 20
76.5666593402
 10
157.8961509375
 20
76.709626103
  0
LWPOLYLINE
  5
428
100
AcDbEntity
  8
DRAFT
100
AcDbPolyline
 62
7
  6
CONTINUOUS
 90
8
 70
0
 10
157.76310971
 20
75.1371709582
 10
157.5199516257
 20
75.0255157921
 10
157.2646346517
 20
74.9331838465
 10
156.9967681518
 20
74.8608073888
 10
156.7167427623
 20
74.8077541515
 10
156.4335878782
 20
74.7757336544
 10
156.1471965218
 20
74.765431121
 10
155.8576756708
 20
74.7761613277
  0
LWPOLYLINE
  5
429
100
AcDbEntity
  8
RACCORDO
100
AcDbPolyline
 62
7
  6
CONTINUOUS
 90
16
 70
0
 10
40.3383155321
 20
154.5182985181
 10
40.3440540122
 20
154.5174602377
 10
40.3495433272
 20
154.516688156
 10
40.3547949199
 20
154.5159736718
 10
40.359787312
 20
154.5153188025
 10
40.3645586742
 20
154.5147193658
 10
40.369203913
 20
154.5141589129
 10
40.3737262436
 20
154.5136369175
 10
40.3781269349
 20
154.5131545538
 10
40.3824878089
 20
154.5127010221
 10
40.3870000264
 20
154.5122111606
 10
40.3914572486
 20
154.5117576644
 10
40.3953797653
 20
154.5115236803
 10
40.39864463
 20
154.5115566596
 10
40.4014415958
 20
154.511784826
 10
40.4037925537
 20
154.5121997423
  0
LINE
  5
42A
100
AcDbEntity
  8
RACCORDO
100
AcDbLine
 62
7
  6
CONTINUOUS
 10
40.3260613199
 20
154.5201730834
 11
40.3383155321
 21
154.5182985181
  0
LWPOLYLINE
  5
42B
100
AcDbEntity
  8
RACCORDO
100
AcDbPolyline
 62
7
  6
CONTINUOUS
 90
3
 70
0
 10
40.3055167049
 20
154.5235592314
 10
40.312669113
 20
154.5223516571
 10
40.3260613199
 20
154.5201730834
  0
LWPOLYLINE
  5
42C
100
AcDbEntity
  8
RACCORDO
100
AcDbPolyline
 62
7
  6
CONTINUOUS
 90
3
 70
0
 10
40.2819966116
 20
154.5277512576
 10
40.2901928417
 20
154.5262599542
 10
40.3055167049
 20
154.5235592314
  0
LWPOLYLINE
  5
42D
100
AcDbEntity
  8
RACCORDO
100
AcDbPolyline
 62
7
  6
CONTINUOUS
 90
3
 70
0
 10
40.2549518304
 20
154.5329185602
 10
40.2643913911
 20
154.5310828371
 10
40.2819966116
 20
154.5277512576
  0
LWPOLYLINE
  5
42E
100
AcDbEntity
  8
0
100
AcDbPolyline
 62
7
  6
CONTINUOUS
 90
12
 70
0
 10
87.9794654287
 20
149.6780032785
 10
87.806738641
 20
149.7269180034
 10
87.644381884
 20
149.7856720155
 10
87.4923951577
 20
149.8542653148
 10
87.3497061922
 20
149.9334710859
 10
87.2173872574
 20
150.0225161443
 10
87.0986551627
 20
150.1190809361
 10
86.9937765848
 20
150.2233790213
 10
86.902484847
 20
150.3351968398
 10
86.8271967295
 20
150.4515741575
 10
86.7683080363
 20
150.572570684
 10
86.7254229632
 20
150.6981267095
  0
LWPOLYLINE
  5
42F
100
AcDbEntity
  8
0
100
AcDbPolyline
 62
7
  6
CONTINUOUS
 90
6
 70
0
 10
89.2035813125
 20
152.2222924715
 10
89.3763081001
 20
152.1733777467
 10
89.5386648571
 20
152.1146237346
 10
89.6906515834
 20
152.0460304353
 10
89.8333405489
 20
151.9668246641
 10
89.9656594837
 20
151.8777796057
  0
LWPOLYLINE
  5
430
100
AcDbEntity
  8
0
100
AcDbPolyline
 62
7
  6
CONTINUOUS
 90
16
 70
0
 10
48.8487344023
 20
172.2788440018
 10
48.7535543289
 20
172.3128192853
 10
48.6561106552
 20
172.339259212
 10
48.5564033814
 20
172.3581637821
 10
48.4532925712
 20
172.3695739034
 10
48.3479181609
 20
172.3734486679
 10
48.2436999587
 20
172.3696653519
 10
48.1406732704
 20
172.3579667008
 10
48.0388027902
 20
172.338609969
 10
47.941402409
 20
172.3122441958
 10
47.8486395179
 20
172.2786455251
 10
47.7603467258
 20
172.2380378129
 10
47.6793357499
 20
172.1917416663
 10
47.6065438293
 20
172.1401972876
 10
47.541033725
 20
172.0829644743
 10
47.482805437
 20
172.0200432266
  0
LINE
  5
431
100
AcDbEntity
  8
0
100
AcDbLine
 62
7
  6
CONTINUOUS
 10
63.8474206238
 20
164.4148446942
 11
64.8866511084
 21
163.9905806255
  0
LINE
  5
432
100
AcDbEntity
  8
0
100
AcDbLine
 62
7
  6
CONTINUOUS
 10
115.8955473913
 20
143.1662859196
 11
116.9347778758
 21
142.7420218509
  0
LINE
  5
433
100
AcDbEntity
  8
0
100
AcDbLine
 62
7
  6
CONTINUOUS
 10
150.5365635427
 20
129.0241502959
 11
151.5757940272
 21
128.5998862271
  0
LINE
  5
434
100
AcDbEntity
  8
0
100
AcDbLine
 62
7
  6
CONTINUOUS
 10
202.5846903101
 20
107.7755915212
 11
203.6239207947
 21
107.3513274525
  0
LINE
  5
435
100
AcDbEntity
  8
0
100
AcDbLine
 62
7
  6
CONTINUOUS
 10
222.0536948316
 20
101.5682150066
 11
205.3394647024
 21
108.3917708833
  0
LINE
  5
436
100
AcDbEntity
  8
0
100
AcDbLine
 62
7
  6
CONTINUOUS
 10
204.3002342178
 20
108.816034952
 11
179.0555936974
 21
119.1221162877
  0
LINE
  5
437
100
AcDbEntity
  8
0
100
AcDbLine
 62
7
  6
CONTINUOUS
 10
178.0163632128
 20
119.5463803564
 11
153.2913379349
 21
129.640329658
  0
LINE
  5
438
100
AcDbEntity
  8
0
100
AcDbLine
 62
7
  6
CONTINUOUS
 10
152.2521074504
 20
130.0645937267
 11
118.6503217835
 21
143.7824652817
  0
LINE
  5
439
100
AcDbEntity
  8
0
100
AcDbLine
 62
7
  6
CONTINUOUS
 10
117.611091299
 20
144.2067293504
 11
92.8860660208
 21
154.3006786517
  0
LINE
  5
43A
100
AcDbEntity
  8
0
100
AcDbLine
 62
7
  6
CONTINUOUS
 10
91.8468355363
 20
154.7249427204
 11
66.6021950161
 21
165.0310240564
  0
LINE
  5
43B
100
AcDbEntity
  8
0
100
AcDbLine
 62
7
  6
CONTINUOUS
 10
65.5629645316
 20
165.4552881251
 11
48.8487344023
 21
172.2788440018
  0
LINE
  5
43C
100
AcDbEntity
  8
0
100
AcDbLine
 62
7
  6
CONTINUOUS
 10
49.8485996146
 20
173.5037582668
 11
223.0539696906
 21
102.7929620341
  0
LWPOLYLINE
  5
43D
100
AcDbEntity
  8
0
100
AcDbPolyline
 62
7
  6
CONTINUOUS
 90
16
 70
0
 10
223.0539696906
 20
102.7929620341
 10
223.2448317133
 20
102.7080110638
 10
223.4245403475
 20
102.6142910807
 10
223.5930955934
 20
102.511802085
 10
223.7513870846
 20
102.3998449776
 10
223.8985251875
 20
102.2791188575
 10
224.0318410008
 20
102.1517210217
 10
224.1510298453
 20
102.0175694428
 10
224.2563964003
 20
101.8767461481
 10
224.3461858027
 20
101.7315945165
 10
224.4201372773
 20
101.5820419989
 10
224.4785115992
 20
101.4281611444
 10
224.5203362309
 20
101.2725129789
 10
224.5453340852
 20
101.1150678338
 10
224.5537822494
 20
100.9558553778
 10
224.5534366563
 20
100.9222639341
  0
LWPOLYLINE
  5
43E
100
AcDbEntity
  8
0
100
AcDbPolyline
 62
7
  6
CONTINUOUS
 90
18
 70
0
 10
175.5241455925
 20
117.4964558907
 10
175.3863619201
 20
117.5617663424
 10
175.2404639811
 20
117.6131817251
 10
175.0860691808
 20
117.6499826246
 10
174.9235601139
 20
117.6728884552
 10
174.7610510471
 20
117.6807738202
 10
174.5985419803
 20
117.6728884552
 10
174.4360329134
 20
117.6499826246
 10
174.2816381131
 20
117.6131817251
 10
174.1357401742
 20
117.5617663424
 10
173.9979565017
 20
117.4964558907
 10
173.8752535781
 20
117.4205340095
 10
173.7684956861
 20
117.3338457949
 10
173.6768185429
 20
117.2365461507
 10
173.604595782
 20
117.1323834284
 10
173.5532852812
 20
117.0226070785
 10
173.5214291628
 20
116.9059676504
 10
173.5094515741
 20
116.7967057203
  0
LWPOLYLINE
  5
43F
100
AcDbEntity
  8
0
100
AcDbPolyline
 62
7
  6
CONTINUOUS
 90
16
 70
0
 10
173.5090274478
 20
114.7607058001
 10
173.6552989001
 20
114.6793900388
 10
173.8084359535
 20
114.6093442422
 10
173.9684386082
 20
114.55056841
 10
174.136789953
 20
114.5027925063
 10
174.312006899
 20
114.466286567
 10
174.4896401797
 20
114.4418607009
 10
174.6698180137
 20
114.4297849933
 10
174.8524121824
 20
114.4297893588
 10
175.0325887642
 20
114.4418736497
 10
175.2102229859
 20
114.4663101004
 10
175.3854396208
 20
114.5028264765
 10
175.5537790667
 20
114.5506059274
 10
175.7137547894
 20
114.6093761695
 10
175.866853323
 20
114.6794094862
 10
176.0130746676
 20
114.7607058777
  0
LWPOLYLINE
  5
440
100
AcDbEntity
  8
0
100
AcDbPolyline
 62
7
  6
CONTINUOUS
 90
5
 70
0
 10
176.0130746464
 20
116.7824652219
 10
175.8668031942
 20
116.8637809831
 10
175.7136661407
 20
116.9338267798
 10
175.553663486
 20
116.992602612
 10
175.3853121412
 20
117.0403785157
  0
LWPOLYLINE
  5
441
100
AcDbEntity
  8
RACCORDO
100
AcDbPolyline
 62
7
  6
CONTINUOUS
 90
19
 70
0
 10
170.2198415081
 20
66.553162506
 10
170.2177253207
 20
66.5869111994
 10
170.2036875618
 20
66.6503649224
 10
170.1775127939
 20
66.710305055
 10
170.1384934204
 20
66.766500723
 10
170.0873370378
 20
66.8191828006
 10
170.0273454327
 20
66.8650857208
 10
169.9579691686
 20
66.9037945839
 10
169.8797576819
 20
66.9357242897
 10
169.7976610683
 20
66.9588539699
 10
169.7114458996
 20
66.9726397152
 10
169.621345604
 20
66.977625435
 10
169.5330105611
 20
66.9734219897
 10
169.4465118071
 20
66.9594806299
 10
169.3617783059
 20
66.936350105
 10
169.2842473284
 20
66.9052875244
 10
169.2157312984
 20
66.8667119244
 10
169.1544177921
 20
66.8202042688
 10
169.1003068097
 20
66.7657645574
  0
LWPOLYLINE
  5
442
100
AcDbEntity
  8
ASSI
100
AcDbPolyline
 62
7
  6
CONTINUOUS
 90
15
 70
0
 10
156.1222500231
 20
73.1448196747
 10
156.0098932795
 20
72.6723710151
 10
155.8780361801
 20
72.1986070465
 10
155.7266787249
 20
71.7235277689
 10
155.5539936576
 20
71.2425476247
 10
155.3618082345
 20
70.7602521716
 10
155.1556042239
 20
70.2903980822
 10
154.9349779308
 20
69.8333436323
 10
154.7003330503
 20
69.3887305461
 10
154.4583624359
 20
68.9692406701
 10
154.2088551276
 20
68.5755974803
 10
153.9520220854
 20
68.2070775005
 10
153.6951890432
 20
67.8741921482
 10
153.438356001
 20
67.5779675981
 10
153.4024897651
 20
67.5415767211
  0
LWPOLYLINE
  5
443
100
AcDbEntity
  8
ASSI
100
AcDbPolyline
 62
7
  6
CONTINUOUS
 90
15
 70
0
 10
156.9882754268
 20
72.7912662841
 10
156.8759186833
 20
72.3188176245
 10
156.7440615839
 20
71.8450536559
 10
156.5927041287
 20
71.3699743783
 10
156.4200190614
 20
70.8889942341
 10
156.2278336382
 20
70.406698781
 10
156.0216296277
 20
69.9368446916
 10
155.8010033346
 20
69.4797902417
 10
155.5663584541
 20
69.0351771556
 10
155.3243878397
 20
68.6156872795
 10
155.0748805314
 20
68.2220440897
 10
154.8180474892
 20
67.8535241099
 10
154.561214447
 20
67.5206387576
 10
154.3043814048
 20
67.2244142075
 10
154.2685151916
 20
67.1880233536
  0
LINE
  5
444
100
AcDbEntity
  8
DRAFT
100
AcDbLine
 62
7
  6
CONTINUOUS
 10
152.7082892486
 20
67.8249828693
 11
153.646649988
 21
69.2082282248
  0
LINE
  5
445
100
AcDbEntity
  8
0
100
AcDbLine
 62
7
  6
CONTINUOUS
 10
154.6306064809
 20
76.2676843648
 11
154.5683489484
 21
76.1777465028
  0
LWPOLYLINE
  5
446
100
AcDbEntity
  8
0
100
AcDbPolyline
 62
7
  6
CONTINUOUS
 90
4
 70
0
 10
154.9770166424
 20
76.1262630085
 10
154.8998465101
 20
76.0147822538
 10
154.8424530554
 20
75.8952277043
 10
154.8404240101
 20
75.8881244196
  0
LWPOLYLINE
  5
447
100
AcDbEntity
  8
0
100
AcDbPolyline
 62
7
  6
CONTINUOUS
 90
7
 70
0
 10
177.70553742
 20
103.3972168402
 10
177.8517486679
 20
103.5984429025
 10
177.9697160265
 20
103.8046811458
 10
178.0594394956
 20
104.01593157
 10
178.1212112037
 20
104.2340871886
 10
178.1547390223
 20
104.4572549881
 10
178.1609695531
 20
104.5999845122
  0
LINE
  5
448
100
AcDbEntity
  8
DRAFT
100
AcDbLine
 62
7
  6
CONTINUOUS
 10
153.3876229854
 20
75.4524534847
 11
152.6581484079
 21
74.559033237
  0
LINE
  5
449
100
AcDbEntity
  8
DRAFT
100
AcDbLine
 62
7
  6
CONTINUOUS
 10
153.6842714649
 20
74.4015586261
 11
153.5241738117
 21
74.2054798464
  0
LINE
  5
44A
100
AcDbEntity
  8
0
100
AcDbLine
 62
7
  6
CONTINUOUS
 10
177.70553742
 20
103.3972168402
 11
180.1125332793
 21
106.3451726744
  0
LINE
  5
44B
100
AcDbEntity
  8
0
100
AcDbLine
 62
7
  6
CONTINUOUS
 10
177.70553742
 20
102.5486887028
 11
180.0694862923
 21
105.4439229604
  0
LINE
  5
44C
100
AcDbEntity
  8
DRAFT
100
AcDbLine
 62
7
  6
CONTINUOUS
 10
156.1222500231
 20
73.1448196747
 11
156.2823476763
 21
73.3408984543
  0
LINE
  5
44D
100
AcDbEntity
  8
DRAFT
100
AcDbLine
 62
7
  6
CONTINUOUS
 10
156.9882754268
 20
72.7912662841
 11
157.7177500044
 21
73.6846865317
  0
LWPOLYLINE
  5
44E
100
AcDbEntity
  8
0
100
AcDbPolyline
 62
7
  6
CONTINUOUS
 90
29
 70
0
 10
177.70553742
 20
102.5486887028
 10
177.5272269198
 20
102.3537071791
 10
177.3277971015
 20
102.1743933579
 10
177.1072479651
 20
102.0107472393
 10
176.8632132456
 20
101.8615785169
 10
176.5980592081
 20
101.728077497
 10
176.3188846474
 20
101.6138150987
 10
176.0253115775
 20
101.5193108598
 10
175.7177179846
 20
101.4440452424
 10
175.4043366223
 20
101.3900305513
 10
175.0850116501
 20
101.3578404665
 10
174.7598989087
 20
101.346901308
 10
174.4376986731
 20
101.3575043406
 10
174.1184898239
 20
101.3902310098
 10
173.8021934806
 20
101.4444998702
 10
173.4972732765
 20
101.5188578505
 10
173.2040363913
 20
101.6138471421
 10
172.9221756454
 20
101.7289255535
 10
172.6592331334
 20
101.8610134399
 10
172.4157194755
 20
102.0105698997
 10
172.1911240516
 20
102.1771358343
 10
171.9914570957
 20
102.3562543033
 10
171.8173913782
 20
102.548264188
 10
171.6682541287
 20
102.7528266069
 10
171.5480372711
 20
102.9644679749
 10
171.4575212108
 20
103.1833791835
 10
171.3959255424
 20
103.4093693412
 10
171.3649009729
 20
103.6363921883
 10
171.361214545
 20
103.7499026175
  0
LWPOLYLINE
  5
44F
100
AcDbEntity
  8
DRAFT
100
AcDbPolyline
 62
7
  6
CONTINUOUS
 90
5
 70
0
 10
158.5277207979
 20
75.7373542789
 10
158.3672473809
 20
75.5640336287
 10
158.1867575876
 20
75.4064298764
 10
157.986251418
 20
75.2645430221
 10
157.76310971
 20
75.1371709582
  0
LWPOLYLINE
  5
450
100
AcDbEntity
  8
0
100
AcDbPolyline
 62
7
  6
CONTINUOUS
 90
19
 70
0
 10
89.0909350737
 20
152.2673481821
 10
88.7613124697
 20
152.290651136
 10
88.4268156476
 20
152.2904868919
 10
88.0906681253
 20
152.26707852
 10
87.762540457
 20
152.2210952312
 10
87.4426646795
 20
152.1518809025
 10
87.130808756
 20
152.0600916569
 10
86.8359471298
 20
151.9483650749
 10
86.55857438
 20
151.8161235215
 10
86.2981959274
 20
151.6639446316
 10
86.0623024781
 20
151.4961988903
 10
85.8516029603
 20
151.3124405363
 10
85.6653884457
 20
151.1131153308
 10
85.5090228558
 20
150.9039310423
 10
85.3833636829
 20
150.6845814471
 10
85.2875534345
 20
150.4553727688
 10
85.2243835548
 20
150.2229314477
 10
85.1948138728
 20
149.9871717911
 10
85.1921297957
 20
149.8896487874
  0
LINE
  5
451
100
AcDbEntity
  8
0
100
AcDbLine
 62
7
  6
CONTINUOUS
 10
89.2634097912
 20
152.2428698817
 11
89.0909350737
 21
152.2673481821
  0
LWPOLYLINE
  5
452
100
AcDbEntity
  8
0
100
AcDbPolyline
 62
7
  6
CONTINUOUS
 90
25
 70
0
 10
173.5094515941
 20
114.7464652284
 10
173.5214291745
 20
114.6372033284
 10
173.5532852859
 20
114.5205639263
 10
173.604595782
 20
114.4107875936
 10
173.6768185413
 20
114.306624877
 10
173.7684956853
 20
114.20932523
 10
173.8752535781
 20
114.1226370124
 10
173.9979565017
 20
114.0467151313
 10
174.1357401742
 20
113.9814046796
 10
174.2816381131
 20
113.9299892969
 10
174.4360329134
 20
113.8931883973
 10
174.5985419803
 20
113.8702825668
 10
174.7610510471
 20
113.8623972018
 10
174.9235601139
 20
113.8702825668
 10
175.0860691808
 20
113.8931883973
 10
175.2404639811
 20
113.9299892969
 10
175.3863619201
 20
113.9814046796
 10
175.5241455925
 20
114.0467151313
 10
175.6468485162
 20
114.1226370124
 10
175.7536064081
 20
114.2093252271
 10
175.8452835513
 20
114.3066248713
 10
175.9175063122
 20
114.4107875936
 10
175.968816813
 20
114.5205639435
 10
176.0006729314
 20
114.6372033715
 10
176.0126505202
 20
114.7464653017
  0
LWPOLYLINE
  5
453
100
AcDbEntity
  8
0
100
AcDbPolyline
 62
7
  6
CONTINUOUS
 90
8
 70
0
 10
176.0126505001
 20
116.7967057936
 10
176.0006729197
 20
116.9059676936
 10
175.9688168083
 20
117.0226070957
 10
175.9175063122
 20
117.1323834284
 10
175.8452835529
 20
117.2365461449
 10
175.7536064089
 20
117.333845792
 10
175.6468485162
 20
117.4205340095
 10
175.5241455925
 20
117.4964558907
  0
LWPOLYLINE
  5
454
100
AcDbEntity
  8
RACCORDO
100
AcDbPolyline
 62
253
  6
CONTINUOUS
 90
6
 70
0
 10
182.726767754
 20
46.1918141522
 10
182.7365219946
 20
46.0983969104
 10
182.7518441991
 20
46.0131246552
 10
182.7726490606
 20
45.9364807391
 10
182.7988202737
 20
45.8688999569
 10
182.8302111755
 20
45.810766064
  0
LWPOLYLINE
  5
455
100
AcDbEntity
  8
0
100
AcDbPolyline
 62
7
  6
CONTINUOUS
 90
28
 70
0
 10
173.5094234646
 20
113.6866617368
 10
173.518578441
 20
113.5910588601
 10
173.5437357344
 20
113.4864417053
 10
173.5845604802
 20
113.3869819742
 10
173.6419525711
 20
113.2918511098
 10
173.7150121143
 20
113.2018776692
 10
173.8010394313
 20
113.1195473233
 10
173.9006455938
 20
113.0447921103
 10
174.0132195301
 20
112.9776799921
 10
174.1342283467
 20
112.9209005243
 10
174.2639972659
 20
112.8748813706
 10
174.4022010654
 20
112.8391948673
 10
174.5433311855
 20
112.8152475801
 10
174.6875023197
 20
112.8035083641
 10
174.8345997745
 20
112.8035083641
 10
174.9787709087
 20
112.8152475801
 10
175.1199010288
 20
112.8391948673
 10
175.2581048283
 20
112.8748813706
 10
175.3878737475
 20
112.9209005243
 10
175.5088825642
 20
112.9776799921
 10
175.6214565004
 20
113.0447921103
 10
175.7210626629
 20
113.1195473233
 10
175.8070930799
 20
113.2018905604
 10
175.880155723
 20
113.2918768922
 10
175.937541614
 20
113.3869819742
 10
175.9783477602
 20
113.4863643583
 10
176.0034771542
 20
113.5908654925
 10
176.0126001509
 20
113.6863353811
  0
LWPOLYLINE
  5
456
100
AcDbEntity
  8
RACCORDO
100
AcDbPolyline
 62
253
  6
CONTINUOUS
 90
8
 70
0
 10
180.9685024638
 20
32.2152058875
 10
180.9758040657
 20
32.0764807317
 10
180.9939801973
 20
31.9529624017
 10
181.0228317174
 20
31.8460041887
 10
181.0620425231
 20
31.7567779478
 10
181.1111830131
 20
31.6862612592
 10
181.1697147946
 20
31.6352267176
 10
181.212421202
 20
31.612806333
  0
LWPOLYLINE
  5
457
100
AcDbEntity
  8
0
100
AcDbPolyline
 62
7
  6
CONTINUOUS
 90
34
 70
0
 10
171.3616574723
 20
114.7110864234
 10
171.3674122359
 20
114.5696171277
 10
171.4030352485
 20
114.3342757034
 10
171.4721572599
 20
114.1026912777
 10
171.5738315974
 20
113.8747577272
 10
171.7051302
 20
113.6570401992
 10
171.8669146189
 20
113.4498357435
 10
172.0583233029
 20
113.2528473103
 10
172.2738435385
 20
113.0717488983
 10
172.5141765874
 20
112.9070025759
 10
172.7786211879
 20
112.7581462747
 10
173.0595608406
 20
112.6294677877
 10
173.3574753306
 20
112.5215538975
 10
173.6718848728
 20
112.4338178214
 10
173.9937336124
 20
112.3687870049
 10
174.3232379885
 20
112.3271217571
 10
174.6601815621
 20
112.308161769
 10
174.9948591611
 20
112.3124535585
 10
175.3272049815
 20
112.3406733562
 10
175.6572848274
 20
112.3921449314
 10
175.975590938
 20
112.4653861107
 10
176.2817809934
 20
112.561030049
 10
176.5761973136
 20
112.6784435914
 10
176.8503590979
 20
112.8142450988
 10
177.1036774127
 20
112.9689695265
 10
177.3367411916
 20
113.1420819192
 10
177.5428364342
 20
113.3285957728
 10
177.7211786435
 20
113.5289007738
 10
177.8725523167
 20
113.7426072355
 10
177.9925969444
 20
113.9635595942
 10
178.0804014529
 20
114.1919686303
 10
178.1368769159
 20
114.4276235634
 10
178.1603960465
 20
114.6637364883
 10
178.1610137316
 20
114.7103657719
  0
LWPOLYLINE
  5
458
100
AcDbEntity
  8
0
100
AcDbPolyline
 62
7
  6
CONTINUOUS
 90
9
 70
0
 10
172.8616661427
 20
114.7108242553
 10
172.8639520788
 20
114.6432371069
 10
172.8867331272
 20
114.4907750096
 10
172.9349557219
 20
114.3412292131
 10
173.0075933462
 20
114.1945516757
 10
173.1016273147
 20
114.0565886994
 10
173.2160513989
 20
113.9292890514
 10
173.3518718273
 20
113.8107039645
 10
173.5090885998
 20
113.7008334386
  0
LWPOLYLINE
  5
459
100
AcDbEntity
  8
0
100
AcDbPolyline
 62
7
  6
CONTINUOUS
 90
9
 70
0
 10
176.6604359515
 20
114.7110264232
 10
176.6581500154
 20
114.7786135715
 10
176.635368967
 20
114.9310756689
 10
176.5871463723
 20
115.0806214653
 10
176.514508748
 20
115.2272990027
 10
176.4204747795
 20
115.365261979
 10
176.3060506953
 20
115.492561627
 10
176.170230267
 20
115.6111467139
 10
176.0130134944
 20
115.7210172398
  0
LINE
  5
45A
100
AcDbEntity
  8
0
100
AcDbLine
 62
7
  6
CONTINUOUS
 10
173.5090274478
 20
114.7607058001
 11
173.5094515941
 21
114.7464652284
  0
LINE
  5
45B
100
AcDbEntity
  8
0
100
AcDbLine
 62
7
  6
CONTINUOUS
 10
176.0130746464
 20
116.7824652219
 11
176.0126505001
 21
116.7967057936
  0
LINE
  5
45C
100
AcDbEntity
  8
0
100
AcDbLine
 62
7
  6
CONTINUOUS
 10
176.0130134944
 20
115.7210172398
 11
176.0126786296
 21
115.7351889416
  0
LINE
  5
45D
100
AcDbEntity
  8
RACCORDO
100
AcDbLine
 62
253
  6
CONTINUOUS
 10
170.1395372942
 20
60.7087060034
 11
170.1395372942
 21
66.3415004886
  0
LINE
  5
45E
100
AcDbEntity
  8
RACCORDO
100
AcDbLine
 62
7
  6
CONTINUOUS
 10
170.219922052
 20
60.6758890589
 11
170.219922052
 21
66.553632523
  0
LINE
  5
45F
100
AcDbEntity
  8
ASSI
100
AcDbLine
 62
7
  6
CONTINUOUS
 10
171.3610510471
 20
103.7507702308
 11
171.3610510471
 21
114.7109253392
  0
LINE
  5
460
100
AcDbEntity
  8
ASSI
100
AcDbLine
 62
7
  6
CONTINUOUS
 10
173.5110510471
 20
113.6856205065
 11
173.5110510471
 21
114.7462806783
  0
LINE
  5
461
100
AcDbEntity
  8
ASSI
100
AcDbLine
 62
7
  6
CONTINUOUS
 10
173.5110510471
 20
115.7362301719
 11
173.5110510471
 21
116.7968903437
  0
LINE
  5
462
100
AcDbEntity
  8
0
100
AcDbLine
 62
7
  6
CONTINUOUS
 10
173.5111949317
 20
115.7228195261
 11
173.5111949317
 21
116.7834796979
  0
LINE
  5
463
100
AcDbEntity
  8
0
100
AcDbLine
 62
7
  6
CONTINUOUS
 10
176.0109071625
 20
115.7228195261
 11
176.0109071625
 21
116.7834796979
  0
LINE
  5
464
100
AcDbEntity
  8
ASSI
100
AcDbLine
 62
7
  6
CONTINUOUS
 10
176.0110510471
 20
113.6856205065
 11
176.0110510471
 21
114.7462806783
  0
LINE
  5
465
100
AcDbEntity
  8
ASSI
100
AcDbLine
 62
7
  6
CONTINUOUS
 10
176.0110510471
 20
115.7362301719
 11
176.0110510471
 21
116.7968903437
  0
LINE
  5
466
100
AcDbEntity
  8
0
100
AcDbLine
 62
253
  6
CONTINUOUS
 10
177.70553742
 20
102.5486887028
 11
177.70553742
 21
103.3972168402
  0
LINE
  5
467
100
AcDbEntity
  8
0
100
AcDbLine
 62
7
  6
CONTINUOUS
 10
173.5095019434
 20
115.7355152973
 11
173.5091722982
 21
115.7213653014
  0
LINE
  5
468
100
AcDbEntity
  8
0
100
AcDbLine
 62
7
  6
CONTINUOUS
 10
173.5094515741
 20
116.7967057203
 11
173.5090274266
 21
116.7824651443
  0
LINE
  5
469
100
AcDbEntity
  8
0
100
AcDbLine
 62
7
  6
CONTINUOUS
 10
176.0126505202
 20
114.7464653017
 11
176.0130746676
 21
114.7607058777
  0
LINE
  5
46A
100
AcDbEntity
  8
0
100
AcDbLine
 62
7
  6
CONTINUOUS
 10
167.9503068097
 20
64.2966477521
 11
168.0159233093
 21
65.4376714266
  0
LINE
  5
46B
100
AcDbEntity
  8
0
100
AcDbLine
 62
7
  6
CONTINUOUS
 10
168.9895372942
 20
63.8723836834
 11
169.0551537938
 21
65.0134073579
  0
LINE
  5
46C
100
AcDbEntity
  8
DRAFT
100
AcDbLine
 62
7
  6
CONTINUOUS
 10
156.1723909324
 20
66.4107694082
 11
157.6488189694
 21
68.5871842337
  0
LWPOLYLINE
  5
46D
100
AcDbEntity
  8
0
100
AcDbPolyline
 62
7
  6
CONTINUOUS
 90
10
 70
0
 10
178.1610137316
 20
114.7103657719
 10
178.150000362
 20
114.9003208428
 10
178.106648345
 20
115.137363189
 10
178.0315881555
 20
115.3680353082
 10
177.9238975272
 20
115.5921519928
 10
177.7844987263
 20
115.8098984503
 10
177.6174067115
 20
116.0150020851
 10
177.4239598024
 20
116.2053720321
 10
177.2028196794
 20
116.3830991564
 10
176.9539863424
 20
116.548183458
  0
LINE
  5
46E
100
AcDbEntity
  8
RACCORDO
100
AcDbLine
 62
253
  6
CONTINUOUS
 10
182.7226353198
 20
46.2928472239
 11
182.726767754
 21
46.1918141522
  0
LINE
  5
46F
100
AcDbEntity
  8
ASSI
100
AcDbLine
 62
7
  6
CONTINUOUS
 10
178.1610510471
 20
104.5992983682
 11
178.1610510471
 21
114.7109253392
  0
LWPOLYLINE
  5
470
100
AcDbEntity
  8
0
100
AcDbPolyline
 62
253
  6
CONTINUOUS
 90
10
 70
0
 10
183.0541776573
 20
53.8030834614
 10
183.048581298
 20
52.954839871
 10
183.0351744085
 20
52.1100299876
 10
183.0139569889
 20
51.2686538112
 10
182.9849288923
 20
50.4306986516
 10
182.9480902656
 20
49.5961771991
 10
182.9034415489
 20
48.7651275239
 10
182.8509828891
 20
47.937562316
 10
182.7907141395
 20
47.1134688854
 10
182.7226352999
 20
46.292847232
  0
LWPOLYLINE
  5
471
100
AcDbEntity
  8
0
100
AcDbPolyline
 62
7
  6
CONTINUOUS
 90
10
 70
0
 10
179.0555936972
 20
119.1221162531
 10
179.046080397
 20
118.245234939
 10
179.0321134151
 20
117.3631116917
 10
179.0136927515
 20
116.4757465111
 10
178.9908169564
 20
115.5830917654
 10
178.9634874795
 20
114.6851950865
 10
178.9317086702
 20
113.7821993696
 10
178.8954819782
 20
112.8741522464
 10
178.8548059538
 20
111.9610060853
 10
178.809680597
 20
111.0427608861
  0
LINE
  5
472
100
AcDbEntity
  8
0
100
AcDbLine
 62
7
  6
CONTINUOUS
 10
180.1125332793
 20
106.3451726744
 11
180.0916636412
 21
105.8952823234
  0
LINE
  5
473
100
AcDbEntity
  8
0
100
AcDbLine
 62
7
  6
CONTINUOUS
 10
180.0916636412
 20
105.8952823234
 11
180.0694862923
 21
105.4439229604
  0
LWPOLYLINE
  5
474
100
AcDbEntity
  8
RACCORDO
100
AcDbPolyline
 62
7
  6
CONTINUOUS
 90
5
 70
0
 10
170.1395372942
 20
66.3415004886
 10
170.1791565603
 20
66.4018564185
 10
170.20545982
 20
66.4626569475
 10
170.2184470732
 20
66.5239020756
 10
170.2198415081
 20
66.553162506
  0
LWPOLYLINE
  5
475
100
AcDbEntity
  8
RACCORDO
100
AcDbPolyline
 62
7
  6
CONTINUOUS
 90
5
 70
0
 10
201.5003068097
 20
106.4474983904
 10
201.4606875436
 20
106.3871424606
 10
201.4343842839
 20
106.3263419316
 10
201.4213970308
 20
106.2650968035
 10
201.4200025958
 20
106.2358363731
  0
LINE
  5
476
100
AcDbEntity
  8
RACCORDO
100
AcDbLine
 62
7
  6
CONTINUOUS
 10
202.5846903101
 20
107.7755915212
 11
201.5003068097
 21
106.4474983904
  0
LINE
  5
477
100
AcDbEntity
  8
RACCORDO
100
AcDbLine
 62
7
  6
CONTINUOUS
 10
169.1003068097
 20
66.7657645574
 11
168.0159233093
 21
65.4376714266
  0
LINE
  5
478
100
AcDbEntity
  8
0
100
AcDbLine
 62
7
  6
CONTINUOUS
 10
204.3002342173
 20
108.8160349191
 11
203.2342093824
 21
107.5104264703
  0
LINE
  5
479
100
AcDbEntity
  8
0
100
AcDbLine
 62
7
  6
CONTINUOUS
 10
166.3004573041
 20
62.2760030306
 11
167.9503068097
 21
64.2966477521
  0
LINE
  5
47A
100
AcDbEntity
  8
RACCORDO
100
AcDbLine
 62
7
  6
CONTINUOUS
 10
169.0551537938
 20
65.0134073579
 11
170.1395372942
 21
66.3415004886
  0
LINE
  5
47B
100
AcDbEntity
  8
RACCORDO
100
AcDbLine
 62
7
  6
CONTINUOUS
 10
202.5395372942
 20
106.0232343217
 11
203.6239207947
 21
107.3513274525
  0
LINE
  5
47C
100
AcDbEntity
  8
0
100
AcDbLine
 62
7
  6
CONTINUOUS
 10
205.3394647021
 20
108.3917708507
 11
203.6895372942
 21
106.3710307207
  0
LINE
  5
47D
100
AcDbEntity
  8
0
100
AcDbLine
 62
7
  6
CONTINUOUS
 10
167.3396877886
 20
61.8517389618
 11
168.9895372942
 21
63.8723836834
  0
LINE
  5
47E
100
AcDbEntity
  8
0
100
AcDbLine
 62
7
  6
CONTINUOUS
 10
205.0935516018
 20
100.3124154816
 11
204.0628516472
 21
99.0500709982
  0
LINE
  5
47F
100
AcDbEntity
  8
0
100
AcDbLine
 62
7
  6
CONTINUOUS
 10
195.1869691586
 20
71.9159234739
 11
195.0733180508
 21
73.0229815161
  0
LINE
  5
480
100
AcDbEntity
  8
0
100
AcDbLine
 62
7
  6
CONTINUOUS
 10
195.7869691586
 20
72.6507703967
 11
195.6733180508
 21
73.757828439
  0
LWPOLYLINE
  5
481
100
AcDbEntity
  8
RACCORDO
100
AcDbPolyline
 62
7
  6
CONTINUOUS
 90
20
 70
0
 10
192.4188024815
 20
74.1903918862
 10
192.4188687012
 20
74.1888329028
 10
192.4193379649
 20
74.1859549047
 10
192.4203401436
 20
74.1828090161
 10
192.4218972853
 20
74.1793353886
 10
192.4240545332
 20
74.1754936866
 10
192.4269581587
 20
74.1713035905
 10
192.430628144
 20
74.1666792121
 10
192.4351227806
 20
74.1615655034
 10
192.4406657781
 20
74.1559949996
 10
192.4472694066
 20
74.149842244
 10
192.4550072058
 20
74.1430315186
 10
192.4642185577
 20
74.1356188345
 10
192.474899874
 20
74.1274198589
 10
192.4871337644
 20
74.1183302345
 10
192.50141084
 20
74.1084517055
 10
192.517708839
 20
74.0975220886
 10
192.5360803463
 20
74.0853986222
 10
192.5571310369
 20
74.0722727211
 10
192.6074932411
 20
74.0422439152
  0
LINE
  5
482
100
AcDbEntity
  8
RACCORDO
100
AcDbLine
 62
7
  6
CONTINUOUS
 10
192.4187967578
 20
74.1902390668
 11
192.4187967578
 21
63.8589118567
  0
LINE
  5
483
100
AcDbEntity
  8
RACCORDO
100
AcDbLine
 62
253
  6
CONTINUOUS
 10
192.7187967578
 20
73.9842108089
 11
192.7187967578
 21
64.2263353181
  0
LWPOLYLINE
  5
484
100
AcDbEntity
  8
0
100
AcDbPolyline
 62
253
  6
CONTINUOUS
 90
10
 70
0
 10
187.151822432
 20
54.5795868392
 10
187.1458960954
 20
53.7220312585
 10
187.1321248771
 20
52.8678291434
 10
187.1105109797
 20
52.0170263128
 10
187.0810590135
 20
51.1697051638
 10
187.0437706935
 20
50.3258740669
 10
186.9986414971
 20
49.4854688501
 10
186.9456692957
 20
48.6484996073
 10
186.8848576972
 20
47.8150492103
 10
186.8162084039
 20
46.9851637435
  0
LWPOLYLINE
  5
485
100
AcDbEntity
  8
RACCORDO
100
AcDbPolyline
 62
253
  6
CONTINUOUS
 90
7
 70
0
 10
180.9685060077
 20
32.2152044407
 10
181.1863009225
 20
34.5146597113
 10
181.3763629957
 20
36.8271289699
 10
181.5386922274
 20
39.1526122164
 10
181.6732886175
 20
41.4911094508
 10
181.7801521661
 20
43.8426206732
 10
181.8592828732
 20
46.2071458836
  0
LWPOLYLINE
  5
486
100
AcDbEntity
  8
RACCORDO
100
AcDbPolyline
 62
253
  6
CONTINUOUS
 90
7
 70
0
 10
183.6937719052
 20
32.6364638493
 10
183.9024366726
 20
34.8307826871
 10
184.08599789
 20
37.036937005
 10
184.244439186
 20
39.2547531064
 10
184.3777461343
 20
41.4840563906
 10
184.4859062551
 20
43.7246713659
 10
184.5500579397
 20
45.4650179907
  0
LWPOLYLINE
  5
487
100
AcDbEntity
  8
RACCORDO
100
AcDbPolyline
 62
7
  6
CONTINUOUS
 90
6
 70
0
 10
192.4218854419
 20
74.1990073972
 10
192.4210214907
 20
74.1978438518
 10
192.4199550399
 20
74.1959188165
 10
192.4192054059
 20
74.1937786613
 10
192.4188362136
 20
74.1914308674
 10
192.4188024815
 20
74.1903918862
  0
LWPOLYLINE
  5
488
100
AcDbEntity
  8
RACCORDO
100
AcDbPolyline
 62
7
  6
CONTINUOUS
 90
6
 70
0
 10
203.5718854419
 20
87.8549127133
 10
203.5710214907
 20
87.8537491678
 10
203.5699550399
 20
87.8518241325
 10
203.5692054059
 20
87.8496839774
 10
203.5688362136
 20
87.8473361834
 10
203.5688024815
 20
87.8462972022
  0
LINE
  5
489
100
AcDbEntity
  8
RACCORDO
100
AcDbLine
 62
7
  6
CONTINUOUS
 10
192.4219029613
 20
74.199029035
 11
192.6678738431
 21
74.5002806109
  0
LINE
  5
48A
100
AcDbEntity
  8
RACCORDO
100
AcDbLine
 62
7
  6
CONTINUOUS
 10
203.5719029613
 20
87.854934351
 11
203.8178738431
 21
88.156185927
  0
LINE
  5
48B
100
AcDbEntity
  8
RACCORDO
100
AcDbLine
 62
253
  6
CONTINUOUS
 10
192.6363902283
 20
74.0247051907
 11
193.2279982066
 21
74.749274028
  0
LINE
  5
48C
100
AcDbEntity
  8
RACCORDO
100
AcDbLine
 62
253
  6
CONTINUOUS
 10
203.7863902283
 20
87.6806105067
 11
204.3779982066
 21
88.405179344
  0
LINE
  5
48D
100
AcDbEntity
  8
0
100
AcDbLine
 62
7
  6
CONTINUOUS
 10
201.5969056491
 20
84.3626543943
 11
200.9969056491
 21
83.6278074715
  0
LINE
  5
48E
100
AcDbEntity
  8
0
100
AcDbLine
 62
7
  6
CONTINUOUS
 10
203.0483180508
 20
82.7903218655
 11
203.1619691586
 21
81.6832638232
  0
LINE
  5
48F
100
AcDbEntity
  8
0
100
AcDbLine
 62
7
  6
CONTINUOUS
 10
203.6483180508
 20
83.5251687883
 11
203.7619691586
 21
82.4181107461
  0
LINE
  5
490
100
AcDbEntity
  8
0
100
AcDbLine
 62
7
  6
CONTINUOUS
 10
203.6239207947
 20
107.3513274525
 11
203.6895372942
 21
106.3710307207
  0
LWPOLYLINE
  5
491
100
AcDbEntity
  8
RACCORDO
100
AcDbPolyline
 62
7
  6
CONTINUOUS
 90
19
 70
0
 10
201.4200025958
 20
106.2358363731
 10
201.4221187832
 20
106.2020876797
 10
201.4361565421
 20
106.1386339567
 10
201.4623313101
 20
106.0786938241
 10
201.5013506835
 20
106.0224981561
 10
201.5525070661
 20
105.9698160785
 10
201.6124986712
 20
105.9239131583
 10
201.6818749353
 20
105.8852042952
 10
201.760086422
 20
105.8532745894
 10
201.8421830357
 20
105.8301449092
 10
201.9283982043
 20
105.8163591639
 10
202.0184985
 20
105.8113734441
 10
202.1068335429
 20
105.8155768894
 10
202.1933322968
 20
105.8295182492
 10
202.2780657981
 20
105.8526487741
 10
202.3555967756
 20
105.8837113547
 10
202.4241128056
 20
105.9222869547
 10
202.4854263118
 20
105.9687946103
 10
202.5395372942
 20
106.0232343217
  0
LWPOLYLINE
  5
492
100
AcDbEntity
  8
RACCORDO
100
AcDbPolyline
 62
7
  6
CONTINUOUS
 90
20
 70
0
 10
203.5688024815
 20
87.8462972022
 10
203.5688687012
 20
87.8447382188
 10
203.5693379649
 20
87.8418602207
 10
203.5703401436
 20
87.8387143321
 10
203.5718972853
 20
87.8352407046
 10
203.5740545332
 20
87.8313990026
 10
203.5769581587
 20
87.8272089066
 10
203.580628144
 20
87.8225845281
 10
203.5851227806
 20
87.8174708194
 10
203.5906657781
 20
87.8119003156
 10
203.5972694066
 20
87.80574756
 10
203.6050072058
 20
87.7989368346
 10
203.6142185577
 20
87.7915241505
 10
203.624899874
 20
87.783325175
 10
203.6371337644
 20
87.7742355505
 10
203.65141084
 20
87.7643570215
 10
203.667708839
 20
87.7534274047
 10
203.6860803463
 20
87.7413039382
 10
203.7071310369
 20
87.7281780371
 10
203.7574932411
 20
87.6981492312
  0
LINE
  5
493
100
AcDbEntity
  8
0
100
AcDbLine
 62
7
  6
CONTINUOUS
 10
200.9969056491
 20
74.3649067276
 11
200.9969056491
 21
83.6278074715
  0
LINE
  5
494
100
AcDbEntity
  8
RACCORDO
100
AcDbLine
 62
7
  6
CONTINUOUS
 10
201.419922052
 20
106.2353663561
 11
201.419922052
 21
84.1458946414
  0
LINE
  5
495
100
AcDbEntity
  8
RACCORDO
100
AcDbLine
 62
253
  6
CONTINUOUS
 10
202.5395372942
 20
106.0232343217
 11
202.5395372942
 21
83.9778266367
  0
LINE
  5
496
100
AcDbEntity
  8
RACCORDO
100
AcDbLine
 62
7
  6
CONTINUOUS
 10
203.5687967578
 20
87.8461443828
 11
203.5687967578
 21
83.5576332202
  0
LINE
  5
497
100
AcDbEntity
  8
RACCORDO
100
AcDbLine
 62
253
  6
CONTINUOUS
 10
203.8687967578
 20
87.6401161249
 11
203.8687967578
 21
82.3744985613
  0
LWPOLYLINE
  5
498
100
AcDbEntity
  8
RACCORDO
100
AcDbPolyline
 62
253
  6
CONTINUOUS
 90
5
 70
0
 10
186.8162084039
 20
46.9851637436
 10
186.7862181222
 20
46.8232421259
 10
186.7299831631
 20
46.6764211356
 10
186.6483732876
 20
46.5469715865
 10
186.6385443098
 20
46.5346723252
  0
LWPOLYLINE
  5
499
100
AcDbEntity
  8
0
100
AcDbPolyline
 62
7
  6
CONTINUOUS
 90
6
 70
0
 10
222.4196943922
 20
100.6023573716
 10
222.4676427236
 20
100.669475394
 10
222.5049832659
 20
100.7382083828
 10
222.5317160192
 20
100.8085563378
 10
222.5479114994
 20
100.8813132998
 10
222.5533445376
 20
100.9444770617
  0
LINE
  5
49A
100
AcDbEntity
  8
0
100
AcDbLine
 62
7
  6
CONTINUOUS
 10
203.6483180508
 20
83.5251687883
 11
203.0483180508
 21
82.7903218655
  0
LINE
  5
49B
100
AcDbEntity
  8
0
100
AcDbLine
 62
7
  6
CONTINUOUS
 10
195.6733180508
 20
73.757828439
 11
195.0733180508
 21
73.0229815161
  0
LINE
  5
49C
100
AcDbEntity
  8
0
100
AcDbLine
 62
7
  6
CONTINUOUS
 10
206.2233180508
 20
86.6788868321
 11
206.8233180508
 21
87.413733755
  0
LINE
  5
49D
100
AcDbEntity
  8
0
100
AcDbLine
 62
7
  6
CONTINUOUS
 10
203.7619691586
 20
82.4181107461
 11
203.1619691586
 21
81.6832638232
  0
LINE
  5
49E
100
AcDbEntity
  8
0
100
AcDbLine
 62
7
  6
CONTINUOUS
 10
195.7869691586
 20
72.6507703967
 11
195.1869691586
 21
71.9159234739
  0
LINE
  5
49F
100
AcDbEntity
  8
0
100
AcDbLine
 62
7
  6
CONTINUOUS
 10
206.3369691586
 20
85.5718287899
 11
206.9369691586
 21
86.3066757128
  0
LINE
  5
4A0
100
AcDbEntity
  8
0
100
AcDbLine
 62
7
  6
CONTINUOUS
 10
222.4196943922
 20
100.6023573716
 11
209.7947316864
 21
85.1399990462
  0
LINE
  5
4A1
100
AcDbEntity
  8
0
100
AcDbLine
 62
7
  6
CONTINUOUS
 10
209.1947316864
 20
84.4051521234
 11
206.6197316864
 21
81.2514340795
  0
LINE
  5
4A2
100
AcDbEntity
  8
0
100
AcDbLine
 62
7
  6
CONTINUOUS
 10
206.0197316864
 20
80.5165871567
 11
198.6447316864
 21
71.4840937302
  0
LINE
  5
4A3
100
AcDbEntity
  8
0
100
AcDbLine
 62
7
  6
CONTINUOUS
 10
198.0447316864
 20
70.7492468073
 11
185.4198546114
 21
55.2869933577
  0
LINE
  5
4A4
100
AcDbEntity
  8
0
100
AcDbLine
 62
7
  6
CONTINUOUS
 10
224.1519860368
 20
99.8953474652
 11
187.1518276394
 21
54.5795932268
  0
LWPOLYLINE
  5
4A5
100
AcDbEntity
  8
0
100
AcDbPolyline
 62
7
  6
CONTINUOUS
 90
22
 70
0
 10
187.1518276394
 20
54.5795932268
 10
187.0312607641
 20
54.4442656653
 10
186.8983796216
 20
54.3169295414
 10
186.7531842118
 20
54.1975848552
 10
186.5947117061
 20
54.0856358295
 10
186.4239249331
 20
53.9816782414
 10
186.2437123791
 20
53.8874994226
 10
186.0539319488
 20
53.8032822103
 10
185.8547257376
 20
53.7288437672
 10
185.6494085173
 20
53.6654229134
 10
185.437877782
 20
53.6132040048
 10
185.2202360376
 20
53.5720026855
 10
185.0001055749
 20
53.5425047078
 10
184.7774444514
 20
53.5249061034
 10
184.5522946095
 20
53.5190108407
 10
184.3284041664
 20
53.5249165768
 10
184.1057198078
 20
53.5428515613
 10
183.884294848
 20
53.5725875446
 10
183.6680373471
 20
53.6135374354
 10
183.4582499917
 20
53.6655055366
 10
183.2536300951
 20
53.7286875453
 10
183.0541776573
 20
53.8030834614
  0
LWPOLYLINE
  5
4A6
100
AcDbEntity
  8
RACCORDO
100
AcDbPolyline
 62
253
  6
CONTINUOUS
 90
5
 70
0
 10
186.1463453481
 20
46.4196404287
 10
186.3391888956
 20
46.5436308279
 10
186.5160045813
 20
46.6799398088
 10
186.6753734496
 20
46.8275715027
 10
186.8161053173
 20
46.9852125609
  0
LWPOLYLINE
  5
4A7
100
AcDbEntity
  8
RACCORDO
100
AcDbPolyline
 62
7
  6
CONTINUOUS
 90
10
 70
0
 10
182.5622420164
 20
31.5546578581
 10
184.7130888867
 20
32.2332339961
 10
186.96230057
 20
32.964068795
 10
189.1784720365
 20
33.7063057333
 10
191.3615646853
 20
34.4599116834
 10
193.5115619603
 20
35.2248643967
 10
195.6284677661
 20
36.0011539408
 10
197.7122532573
 20
36.788763639
 10
199.7628576462
 20
37.5876685238
 10
201.6539551016
 20
38.3464112096
  0
LINE
  5
4A8
100
AcDbEntity
  8
0
100
AcDbLine
 62
7
  6
CONTINUOUS
 10
206.3369691586
 20
85.5718287899
 11
206.2233180508
 21
86.6788868321
  0
LINE
  5
4A9
100
AcDbEntity
  8
0
100
AcDbLine
 62
7
  6
CONTINUOUS
 10
206.9369691586
 20
86.3066757128
 11
206.8233180508
 21
87.413733755
  0
LWPOLYLINE
  5
4AA
100
AcDbEntity
  8
0
100
AcDbPolyline
 62
7
  6
CONTINUOUS
 90
10
 70
0
 10
205.3394647021
 20
108.3917708507
 10
205.3299514018
 20
107.5148895305
 10
205.3159844198
 20
106.6327662791
 10
205.2975637561
 20
105.7454010963
 10
205.274687961
 20
104.852746351
 10
205.2473584841
 20
103.9548496744
 10
205.2155796749
 20
103.0518539599
 10
205.1793529829
 20
102.1438068384
 10
205.1386769586
 20
101.230660679
 10
205.0935516018
 20
100.3124154816
  0
LWPOLYLINE
  5
4AB
100
AcDbEntity
  8
RACCORDO
100
AcDbPolyline
 62
7
  6
CONTINUOUS
 90
6
 70
0
 10
204.0628516472
 20
99.0500709982
 10
203.9931203398
 20
97.102927099
 10
203.8984638764
 20
95.1295276773
 10
203.7788822571
 20
93.1298727331
 10
203.6343172215
 20
91.1034319732
 10
203.46482703
 20
89.0507356908
  0
LWPOLYLINE
  5
4AC
100
AcDbEntity
  8
RACCORDO
100
AcDbPolyline
 62
7
  6
CONTINUOUS
 90
4
 70
0
 10
203.46482703
 20
89.0507356908
 10
203.2705864634
 20
86.9733747656
 10
203.0516537821
 20
84.8718794907
 10
202.9308740787
 20
83.8180640634
  0
LWPOLYLINE
  5
4AD
100
AcDbEntity
  8
RACCORDO
100
AcDbPolyline
 62
7
  6
CONTINUOUS
 90
8
 70
0
 10
223.2987971325
 20
91.4342862947
 10
223.4160810195
 20
91.5891221398
 10
223.5369149345
 20
91.7777251659
 10
223.6406053873
 20
91.9748263153
 10
223.726477568
 20
92.1792199516
 10
223.7939534901
 20
92.3892070456
 10
223.8426686481
 20
92.6030908542
 10
223.857197298
 20
92.6917150075
  0
LWPOLYLINE
  5
4AE
100
AcDbEntity
  8
RACCORDO
100
AcDbPolyline
 62
253
  6
CONTINUOUS
 90
6
 70
0
 10
223.4760655153
 20
91.884308684
 10
223.5955446162
 20
92.0390600902
 10
223.6945852421
 20
92.2015816034
 10
223.7721929588
 20
92.3705037805
 10
223.8278657161
 20
92.5444346177
 10
223.8571593175
 20
92.6914537961
  0
LINE
  5
4AF
100
AcDbEntity
  8
RACCORDO
100
AcDbLine
 62
253
  6
CONTINUOUS
 10
186.8162084039
 20
46.9851637436
 11
223.4761669632
 21
91.8842602495
  0
LINE
  5
4B0
100
AcDbEntity
  8
RACCORDO
100
AcDbLine
 62
7
  6
CONTINUOUS
 10
223.2988740871
 20
91.4342235659
 11
186.6376454011
 21
46.5335735158
  0
LWPOLYLINE
  5
4B1
100
AcDbEntity
  8
RACCORDO
100
AcDbPolyline
 62
253
  6
CONTINUOUS
 90
8
 70
0
 10
201.6538614267
 20
38.3463731295
 10
201.7329374433
 20
38.3808478794
 10
201.8915025658
 20
38.4646932823
 10
202.0409283833
 20
38.5642837699
 10
202.1791760295
 20
38.6782683686
 10
202.3067700469
 20
38.8065486169
 10
202.4222790459
 20
38.947902971
 10
202.522738563
 20
39.0996526125
  0
LINE
  5
4B2
100
AcDbEntity
  8
RACCORDO
100
AcDbLine
 62
253
  6
CONTINUOUS
 10
202.6064588266
 20
39.2594033968
 11
201.8825125083
 21
38.970472547
  0
LINE
  5
4B3
100
AcDbEntity
  8
RACCORDO
100
AcDbLine
 62
253
  6
CONTINUOUS
 10
201.8825125083
 20
38.970472547
 11
201.1233795718
 21
38.6708672564
  0
LWPOLYLINE
  5
4B4
100
AcDbEntity
  8
RACCORDO
100
AcDbPolyline
 62
253
  6
CONTINUOUS
 90
17
 70
0
 10
201.1233795718
 20
38.6708672564
 10
200.3285452845
 20
38.3608556749
 10
199.4975024991
 20
38.0407757987
 10
198.6296648893
 20
37.7108506867
 10
197.7243688421
 20
37.3711871055
 10
196.7810129742
 20
37.0220737297
 10
195.7989817605
 20
36.6638256045
 10
194.7775618454
 20
36.2965976837
 10
193.7160925228
 20
35.9206991374
 10
192.6138935445
 20
35.5364609911
 10
191.4701931869
 20
35.1440782024
 10
190.2842697764
 20
34.7438732541
 10
189.0553794972
 20
34.3361934386
 10
187.7826873064
 20
33.9212768389
 10
186.4653845514
 20
33.4994336377
 10
185.1026885218
 20
33.0710458762
 10
183.6937719052
 20
32.6364638493
  0
LWPOLYLINE
  5
4B5
100
AcDbEntity
  8
RACCORDO
100
AcDbPolyline
 62
253
  6
CONTINUOUS
 90
10
 70
0
 10
182.5631044877
 20
31.5549263868
 10
182.6681504403
 20
31.5914484536
 10
182.8370762366
 20
31.6671765002
 10
182.9975445604
 20
31.7610011078
 10
183.147297082
 20
31.8716213604
 10
183.2850210187
 20
31.9981022809
 10
183.4100744067
 20
32.1395173885
 10
183.5210741161
 20
32.2943794389
 10
183.6160912628
 20
32.4607085949
 10
183.6937780462
 20
32.6364890524
  0
LWPOLYLINE
  5
4B6
100
AcDbEntity
  8
RACCORDO
100
AcDbPolyline
 62
7
  6
CONTINUOUS
 90
6
 70
0
 10
202.2864001446
 20
38.7573239608
 10
202.1530126088
 20
38.6399930992
 10
202.01033126
 20
38.5353565963
 10
201.8593040109
 20
38.4439277953
 10
201.699931022
 20
38.3657933995
 10
201.6538614267
 20
38.3463731295
  0
LWPOLYLINE
  5
4B7
100
AcDbEntity
  8
0
100
AcDbPolyline
 62
7
  6
CONTINUOUS
 90
12
 70
0
 10
222.5533445376
 20
100.9444770617
 10
222.5534991905
 20
100.955685228
 10
222.5482675446
 20
101.0292900009
 10
222.5318586995
 20
101.1021181962
 10
222.5046305174
 20
101.1741792362
 10
222.4674450362
 20
101.2431192658
 10
222.419969532
 20
101.3088312781
 10
222.3625367288
 20
101.3714222802
 10
222.2970068362
 20
101.4288594375
 10
222.2239999241
 20
101.4804651386
 10
222.1428959226
 20
101.526916995
 10
222.0536948316
 20
101.5682150066
  0
LWPOLYLINE
  5
4B8
100
AcDbEntity
  8
0
100
AcDbPolyline
 62
253
  6
CONTINUOUS
 90
4
 70
0
 10
222.0536950266
 20
101.5682149268
 10
222.0353436964
 20
100.9140489091
 10
222.0101632334
 20
100.2589691649
 10
222.0019548318
 20
100.0907329875
  0
LWPOLYLINE
  5
4B9
100
AcDbEntity
  8
0
100
AcDbPolyline
 62
7
  6
CONTINUOUS
 90
8
 70
0
 10
224.5534366563
 20
100.9222639341
 10
224.5455394476
 20
100.7975256432
 10
224.5203105792
 20
100.6400744551
 10
224.478390745
 20
100.4835059884
 10
224.420523971
 20
100.3304828003
 10
224.346958266
 20
100.1818924099
 10
224.2574456213
 20
100.0368472982
 10
224.1519860368
 20
99.8953474652
  0
LWPOLYLINE
  5
4BA
100
AcDbEntity
  8
RACCORDO
100
AcDbPolyline
 62
253
  6
CONTINUOUS
 90
12
 70
0
 10
220.8156891098
 20
88.3929551378
 10
220.7365918951
 20
87.5694590017
 10
220.340781303
 20
84.4559721764
 10
219.8433147013
 20
81.2892462116
 10
219.2440347842
 20
78.0666119335
 10
218.5435145146
 20
74.7912604845
 10
217.7434447396
 20
71.4720582809
 10
216.8440438856
 20
68.1084165285
 10
215.8462940377
 20
64.70103145
 10
214.7537512368
 20
61.2603283018
 10
213.5684082276
 20
57.7895854034
 10
212.2902832712
 20
54.2851418349
  0
LWPOLYLINE
  5
4BB
100
AcDbEntity
  8
0
100
AcDbPolyline
 62
253
  6
CONTINUOUS
 90
9
 70
0
 10
223.6000459362
 20
92.7795149309
 10
223.7117801852
 20
93.6735653488
 10
223.8113500484
 20
94.566373952
 10
223.898744964
 20
95.4578898294
 10
223.9739379183
 20
96.3480876122
 10
224.0368831074
 20
97.2369685155
 10
224.0875510275
 20
98.1245078734
 10
224.1259308203
 20
99.010654098
 10
224.1520031373
 20
99.8953683769
  0
LINE
  5
4BC
100
AcDbEntity
  8
0
100
AcDbLine
 62
253
  6
CONTINUOUS
 10
223.4761669085
 20
91.8842601825
 11
223.6000459362
 21
92.7795149309
  0
LWPOLYLINE
  5
4BD
100
AcDbEntity
  8
RACCORDO
100
AcDbPolyline
 62
7
  6
CONTINUOUS
 90
10
 70
0
 10
223.8571991405
 20
92.6916615568
 10
223.9563246204
 20
93.3977559083
 10
224.0824714142
 20
94.3830192225
 10
224.1940916041
 20
95.3658067227
 10
224.291175962
 20
96.3458954554
 10
224.3737486454
 20
97.3232638321
 10
224.4418422193
 20
98.2980749149
 10
224.4954645618
 20
99.2703070992
 10
224.5346142563
 20
100.2397537689
 10
224.5535434978
 20
100.9222627912
  0
LINE
  5
4BE
100
AcDbEntity
  8
RACCORDO
100
AcDbLine
 62
7
  6
CONTINUOUS
 10
223.8571593175
 20
92.6914537961
 11
223.8571877346
 21
92.6916487423
  0
LWPOLYLINE
  5
4BF
100
AcDbEntity
  8
RACCORDO
100
AcDbPolyline
 62
253
  6
CONTINUOUS
 90
4
 70
0
 10
223.4761669632
 20
91.8842602495
 10
223.4461758499
 20
91.722334896
 10
223.3899389576
 20
91.5755115145
 10
223.2988740871
 20
91.4342235659
  0
LINE
  5
4C0
100
AcDbEntity
  8
RACCORDO
100
AcDbLine
 62
253
  6
CONTINUOUS
 10
212.2902832712
 20
54.2851418349
 11
210.9203316676
 21
50.7468076955
  0
LWPOLYLINE
  5
4C1
100
AcDbEntity
  8
RACCORDO
100
AcDbPolyline
 62
7
  6
CONTINUOUS
 90
13
 70
0
 10
211.0696480964
 20
50.9362631666
 10
212.3637429135
 20
54.2664389716
 10
213.6821109741
 20
57.8623150329
 10
214.9038231857
 20
61.4241866118
 10
216.0268776707
 20
64.9485763903
 10
217.0499261548
 20
68.4333695869
 10
217.9718995285
 20
71.8777038888
 10
218.791345184
 20
75.2786481083
 10
219.5072163672
 20
78.6335063029
 10
220.1188327723
 20
81.9416928381
 10
220.6251680977
 20
85.2009865686
 10
221.025457631
 20
88.4073287442
 10
221.0514699957
 20
88.6817265686
  0
LINE
  5
4C2
100
AcDbEntity
  8
RACCORDO
100
AcDbLine
 62
7
  6
CONTINUOUS
 10
211.0697719038
 20
50.9363689956
 11
211.0697175913
 21
50.9362327976
  0
LWPOLYLINE
  5
4C3
100
AcDbEntity
  8
RACCORDO
100
AcDbPolyline
 62
7
  6
CONTINUOUS
 90
3
 70
0
 10
211.0697719038
 20
50.9363689956
 10
210.9889587238
 20
50.7592086475
 10
210.8921109204
 20
50.5919995502
  0
LWPOLYLINE
  5
4C4
100
AcDbEntity
  8
RACCORDO
100
AcDbPolyline
 62
253
  6
CONTINUOUS
 90
4
 70
0
 10
211.0697175913
 20
50.9362327976
 10
211.0456777119
 20
50.886364645
 10
210.991969038
 20
50.8122845148
 10
210.9203847776
 20
50.7468803783
  0
LINE
  5
4C5
100
AcDbEntity
  8
RACCORDO
100
AcDbLine
 62
253
  6
CONTINUOUS
 10
202.522738563
 20
39.0996526125
 11
202.6063595022
 21
39.2592673675
  0
LWPOLYLINE
  5
4C6
100
AcDbEntity
  8
RACCORDO
100
AcDbPolyline
 62
253
  6
CONTINUOUS
 90
4
 70
0
 10
210.8333290421
 20
50.5059611091
 10
210.8731351428
 20
50.5719256186
 10
210.9053940079
 20
50.6569377446
 10
210.9203847776
 20
50.7468803783
  0
LWPOLYLINE
  5
4C7
100
AcDbEntity
  8
RACCORDO
100
AcDbPolyline
 62
253
  6
CONTINUOUS
 90
4
 70
0
 10
202.5191291045
 20
39.024720276
 10
202.5549984103
 20
39.0832456107
 10
202.5880333623
 20
39.1667595242
 10
202.6063595022
 20
39.2592673675
  0
LINE
  5
4C8
100
AcDbEntity
  8
RACCORDO
100
AcDbLine
 62
7
  6
CONTINUOUS
 10
210.8921109204
 20
50.5919995502
 11
210.8333290421
 21
50.5059611091
  0
LINE
  5
4C9
100
AcDbEntity
  8
RACCORDO
100
AcDbLine
 62
253
  6
CONTINUOUS
 10
210.9203316676
 20
50.7468076955
 11
208.149938868
 21
46.9151526411
  0
LINE
  5
4CA
100
AcDbEntity
  8
RACCORDO
100
AcDbLine
 62
7
  6
CONTINUOUS
 10
208.134431533
 20
46.775308319
 11
210.8333290421
 21
50.5059611091
  0
LINE
  5
4CB
100
AcDbEntity
  8
RACCORDO
100
AcDbLine
 62
253
  6
CONTINUOUS
 10
208.149938868
 20
46.9151526411
 11
205.378647621
 21
43.0860165945
  0
LINE
  5
4CC
100
AcDbEntity
  8
RACCORDO
100
AcDbLine
 62
7
  6
CONTINUOUS
 10
205.23437554
 20
42.7705544416
 11
208.134431533
 21
46.775308319
  0
LINE
  5
4CD
100
AcDbEntity
  8
RACCORDO
100
AcDbLine
 62
253
  6
CONTINUOUS
 10
205.378647621
 20
43.0860165945
 11
202.6064588266
 21
39.2594033968
  0
LINE
  5
4CE
100
AcDbEntity
  8
RACCORDO
100
AcDbLine
 62
7
  6
CONTINUOUS
 10
202.5191291044
 20
39.0247202738
 11
205.23437554
 21
42.7705544416
  0
LWPOLYLINE
  5
4CF
100
AcDbEntity
  8
RACCORDO
100
AcDbPolyline
 62
7
  6
CONTINUOUS
 90
3
 70
0
 10
202.5191291045
 20
39.024720276
 10
202.4088048949
 20
38.8859761707
 10
202.2864001446
 20
38.7573239608
  0
ELLIPSE
  5
4D0
100
AcDbEntity
  8
ASSI
100
AcDbEllipse
 62
7
  6
CONTINUOUS
 10
106.5732224534
 20
88.8241049841
 30
0.0
 11
1.7810021678
 21
0.3236256406
 31
0.0
 40
0.805954503
 41
0.8461972294
 42
2.2627071306
  0
ELLIPSE
  5
4D1
100
AcDbEntity
  8
ASSI
100
AcDbEllipse
 62
7
  6
CONTINUOUS
 10
102.775605795
 20
90.3744754927
 30
0.0
 11
2.5230850654
 21
0.4584694142
 31
0.0
 40
0.805954503
 41
0.8625556379
 42
3.6000938841
  0
ELLIPSE
  5
4D2
100
AcDbEntity
  8
ASSI
100
AcDbEllipse
 62
7
  6
CONTINUOUS
 10
147.1029017503
 20
71.8313765379
 30
0.0
 11
2.9421909014
 21
0.5346250738
 31
0.0
 40
0.805954503
 41
4.9530023428
 42
7.5023190287
  0
ELLIPSE
  5
4D3
100
AcDbEntity
  8
ASSI
100
AcDbEllipse
 62
7
  6
CONTINUOUS
 10
147.1029017503
 20
71.6877735393
 30
0.0
 11
2.9421909014
 21
0.5346250738
 31
0.0
 40
0.805954503
 41
-0.0724228397
 42
1.2190996083
  0
ELLIPSE
  5
4D4
100
AcDbEntity
  8
ASSI
100
AcDbEllipse
 62
7
  6
CONTINUOUS
 10
147.1029017503
 20
71.6877735393
 30
0.0
 11
1.7707486285
 21
0.3217624715
 31
0.0
 40
0.805954503
 41
-1.3693005867
 42
-0.1790409376
  0
ELLIPSE
  5
4D5
100
AcDbEntity
  8
ASSI
100
AcDbEllipse
 62
7
  6
CONTINUOUS
 10
147.1029017503
 20
71.8313765379
 30
0.0
 11
2.2101746263
 21
0.4016105046
 31
0.0
 40
0.805954503
 41
4.8429255912
 42
6.3994948187
  0
ELLIPSE
  5
4D6
100
AcDbEntity
  8
ASSI
100
AcDbEllipse
 62
7
  6
CONTINUOUS
 10
147.1029017503
 20
71.6877735393
 30
0.0
 11
2.2101746263
 21
0.4016105046
 31
0.0
 40
0.805954503
 41
0.0383502408
 42
0.1163095115
  0
ELLIPSE
  5
4D7
100
AcDbEntity
  8
DRAFT
100
AcDbEllipse
 62
7
  6
CONTINUOUS
 10
156.1439756495
 20
70.4443037722
 30
0.0
 11
2.7974480693
 21
0.5083315315
 31
0.0
 40
0.8059547231
 41
-2.7990558312
 42
-2.4556954181
  0
ELLIPSE
  5
4D8
100
AcDbEntity
  8
ASSI
100
AcDbEllipse
 62
7
  6
CONTINUOUS
 10
106.5732224534
 20
88.8241049841
 30
0.0
 11
1.7809991562
 21
0.3236250934
 31
0.0
 40
0.805954503
 41
8.9656340004
 42
10.3821436355
  0
ELLIPSE
  5
4D9
100
AcDbEntity
  8
ASSI
100
AcDbEllipse
 62
7
  6
CONTINUOUS
 10
106.5732224534
 20
88.8241049841
 30
0.0
 11
2.5230851818
 21
0.4584694354
 31
0.0
 40
0.805954503
 41
0.8625556397
 42
3.6000937865
  0
ELLIPSE
  5
4DA
100
AcDbEntity
  8
ASSI
100
AcDbEllipse
 62
7
  6
CONTINUOUS
 10
102.775605795
 20
90.3744754927
 30
0.0
 11
1.7810021678
 21
0.3236256406
 31
0.0
 40
0.805954503
 41
7.1293825366
 42
10.3821435414
  0
ELLIPSE
  5
4DB
100
AcDbEntity
  8
ASSI
100
AcDbEllipse
 62
7
  6
CONTINUOUS
 10
147.1029017503
 20
71.8313765379
 30
0.0
 11
2.4712346087
 21
0.4490476754
 31
0.0
 40
0.805954503
 41
4.8133426434
 42
7.4622988582
  0
ELLIPSE
  5
4DC
100
AcDbEntity
  8
DRAFT
100
AcDbEllipse
 62
7
  6
CONTINUOUS
 10
156.1439756495
 20
70.4443037722
 30
0.0
 11
2.7974480693
 21
0.5083315315
 31
0.0
 40
0.8059547231
 41
5.1282345383
 42
6.1483218831
  0
ELLIPSE
  5
4DD
100
AcDbEntity
  8
DRAFT
100
AcDbEllipse
 62
7
  6
CONTINUOUS
 10
97.2542582637
 20
94.4859491792
 30
0.0
 11
2.7844959117
 21
0.5059779614
 31
0.0
 40
0.8059547231
 41
-2.8019698551
 42
-2.4568641908
  0
ELLIPSE
  5
4DE
100
AcDbEntity
  8
ASSI
100
AcDbEllipse
 62
7
  6
CONTINUOUS
 10
147.1029017503
 20
71.8313765379
 30
0.0
 11
1.7707486285
 21
0.3217624715
 31
0.0
 40
0.805954503
 41
-1.3689640714
 42
-0.1463762246
  0
ELLIPSE
  5
4DF
100
AcDbEntity
  8
DRAFT
100
AcDbEllipse
 62
7
  6
CONTINUOUS
 10
97.2542582637
 20
94.4859491792
 30
0.0
 11
2.7844959117
 21
0.5059779614
 31
0.0
 40
0.8059547231
 41
5.1371161112
 42
6.1483244811
  0
ELLIPSE
  5
4E0
100
AcDbEntity
  8
0
100
AcDbEllipse
 62
7
  6
CONTINUOUS
 10
539.7628105689
 20
244.005253444
 30
0.0
 11
1069.6573328201
 21
1552.7149028636
 31
0.0
 40
0.1809055025
 41
-4.5076537291
 42
-4.5041293761
  0
ELLIPSE
  5
4E1
100
AcDbEntity
  8
ASSI
100
AcDbEllipse
 62
7
  6
CONTINUOUS
 10
102.775605795
 20
90.2308724941
 30
0.0
 11
2.5230850654
 21
0.4584694142
 31
0.0
 40
0.805954503
 41
7.1802899895
 42
9.2110489267
  0
ELLIPSE
  5
4E2
100
AcDbEntity
  8
ASSI
100
AcDbEllipse
 62
7
  6
CONTINUOUS
 10
102.775605795
 20
90.2308724941
 30
0.0
 11
1.7810021678
 21
0.3236256406
 31
0.0
 40
0.805954503
 41
2.9967543306
 42
4.0500026051
  0
ELLIPSE
  5
4E3
100
AcDbEntity
  8
ASSI
100
AcDbEllipse
 62
7
  6
CONTINUOUS
 10
106.5732224534
 20
88.6805019855
 30
0.0
 11
1.7809991562
 21
0.3236250934
 31
0.0
 40
0.805954503
 41
2.9962525041
 42
4.0499922747
  0
ELLIPSE
  5
4E4
100
AcDbEntity
  8
ASSI
100
AcDbEllipse
 62
7
  6
CONTINUOUS
 10
106.5732224534
 20
88.6805019855
 30
0.0
 11
2.5230851818
 21
0.4584694354
 31
0.0
 40
0.805954503
 41
7.1802899897
 42
9.2110489301
  0
ELLIPSE
  5
4E5
100
AcDbEntity
  8
ASSI
100
AcDbEllipse
 62
7
  6
CONTINUOUS
 10
147.1029017503
 20
71.6877735393
 30
0.0
 11
2.4712346087
 21
0.4490476754
 31
0.0
 40
0.805954503
 41
-1.4031438271
 42
-0.3524369537
  0
ELLIPSE
  5
4E6
100
AcDbEntity
  8
0
100
AcDbEllipse
 62
7
  6
CONTINUOUS
 10
114.8557299776
 20
27.1230661559
 30
0.0
 11
122.6089534033
 21
96.0746770443
 31
0.0
 40
0.3525315102
 41
1.3290285344
 42
1.3323868213
  0
ENDSEC
  0
SECTION
  2
OBJECTS
  0
DICTIONARY
  5
C
100
AcDbDictionary
280
0
281
1
  3
ACAD_GROUP
350
D
  3
ACAD_MLINESTYLE
350
17
  3
ACAD_LAYOUT
350
1A
  3
ACAD_PLOTSETTINGS
350
19
  3
ACAD_PLOTSTYLENAME
350
E
  0
DICTIONARY
  5
D
102
{ACAD_REACTORS
330
C
102
}
100
AcDbDictionary
280
0
281
1
  0
ACDBDICTIONARYWDFLT
  5
E
102
{ACAD_REACTORS
330
C
102
}
100
AcDbDictionary
281
1
  3
Normal
350
F
100
AcDbDictionaryWithDefault
340
F
  0
DICTIONARY
  5
17
102
{ACAD_REACTORS
330
C
102
}
100
AcDbDictionary
280
0
281
1
  3
Standard
350
18
  0
DICTIONARY
  5
19
102
{ACAD_REACTORS
330
C
102
}
100
AcDbDictionary
281
1
  0
DICTIONARY
  5
1A
102
{ACAD_REACTORS
330
C
102
}
100
AcDbDictionary
281
1
  3
Model
350
4E7
  3
Layout1
350
4E8
  0
ACDBPLACEHOLDER
  5
F
102
{ACAD_REACTORS
330
E
102
}
  0
MLINESTYLE
  5
18
102
{ACAD_REACTORS
330
17
102
}
100
AcDbMlineStyle
  2
STANDARD
 70
0
  3

 62
256
 51
90.0
 52
90.0
 71
2
 49
0.5
 62
256
  6
BYLAYER
 49
-0.5
 62
256
  6
BYLAYER
  0
LAYOUT
  5
4E7
102
{ACAD_REACTORS
330
1A
102
}
100
AcDbPlotSettings
  1

  2
none_device
  4
ISO_A4_(297.00_x_210.00_MM)
  6

 40
0.0
 41
0.0
 42
0.0
 43
0.0
 44
297.0
 45
210.0
 46
0.0
 47
0.0
 48
0.0
 49
0.0
140
0.0
141
0.0
142
1.0
143
1.0
 70
1024
 72
1
 73
0
 74
0
  7

 75
0
147
1.0
148
0.0
149
0.0
100
AcDbLayout
  1
Model
 70
0
 71
0
 10
0.0
 20
0.0
 11
297.0
 21
210.0
 12
0.0
 22
0.0
 32
0.0
 14
0.0
 24
0.0
 34
0.0
 15
0.0
 25
0.0
 35
0.0
146
0.0
 13
0.0
 23
0.0
 33
0.0
 16
1.0
 26
0.0
 36
0.0
 17
0.0
 27
1.0
 37
0.0
 76
0
330
213
345
0
346
0
  0
LAYOUT
  5
4E8
102
{ACAD_REACTORS
330
1A
102
}
100
AcDbPlotSettings
  1

  2
none_device
  4
ISO_A4_(297.00_x_210.00_MM)
  6

 40
0.0
 41
0.0
 42
0.0
 43
0.0
 44
297.0
 45
210.0
 46
0.0
 47
0.0
 48
0.0
 49
0.0
140
0.0
141
0.0
142
1.0
143
1.0
 70
0
 72
1
 73
0
 74
0
  7

 75
0
147
1.0
148
0.0
149
0.0
100
AcDbLayout
  1
Layout1
 70
0
 71
1
 10
0.0
 20
0.0
 11
297.0
 21
210.0
 12
0.0
 22
0.0
 32
0.0
 14
0.0
 24
0.0
 34
0.0
 15
0.0
 25
0.0
 35
0.0
146
0.0
 13
0.0
 23
0.0
 33
0.0
 16
1.0
 26
0.0
 36
0.0
 17
0.0
 27
1.0
 37
0.0
 76
0
330
214
345
0
346
0
  0
ENDSEC
  0
EOF
