  0
SECTION
  2
HEADER
  9
$ACADVER
  1
AC1021
  9
$DWGCODEPAGE
  3
ANSI_1252
  9
$EXTMAX
 10
297.0
 20
210.0
 30
0.0
  9
$EXTMIN
 10
0.0
 20
0.0
 30
0.0
  9
$LIMMIN
 10
0.0
 20
0.0
  9
$LIMMAX
 10
297.0
 20
210.0
  9
$VIEWCTR
 10
148.5
 20
105.0
  9
$VIEWSIZE
 40
210.0
  9
$CLAYER
  8
0
  9
$LTSCALE
 40
16.335
  9
$CELTYPE
  6
BYLAYER
  9
$DIMSCALE
 40
1.0
  9
$DIMASZ
 40
3.0
  9
$DIMEXO
 40
0.5
  9
$DIMDLI
 40
11.286
  9
$DIMEXE
 40
1.5
  9
$DIMCEN
 40
2.673
  9
$DIMLFAC
 40
1.0
  9
$DIMBLK
  1
_FILLED
  9
$DIMALT
 70
0
  9
$DIMALTF
 40
25.4
  9
$DIMTXT
 40
3.0
  9
$DIMTOL
 70
1
  9
$DIMLIM
 70
0
  9
$DIMTFAC
 40
1.0
  9
$DIMTP
 40
0.01
  9
$DIMTM
 40
0.01
  9
$DIMGAP
 40
0.625
  9
$DIMDSEP
 70
44
  9
$AUNITS
 70
0
  9
$PDMODE
 70
3
  9
$PDSIZE
 40
3.0
  9
$HANDSEED
  5
2EF
  9
$TILEMODE
 70
1
  9
$MEASUREMENT
 70
1
  9
$INSUNITS
 70
4
  0
ENDSEC
  0
SECTION
  2
CLASSES
  0
CLASS
  1
ACDBDICTIONARYWDFLT
  2
AcDbDictionaryWithDefault
  3
AutoCAD 2000
 90
0
 91
1
280
0
281
0
  0
CLASS
  1
ACDBPLACEHOLDER
  2
AcDbPlaceHolder
  3
AutoCAD 2000
 90
0
 91
1
280
0
281
0
  0
CLASS
  1
LAYOUT
  2
AcDbLayout
  3
AutoCAD 2000
 90
0
 91
0
280
0
281
0
  0
ENDSEC
  0
SECTION
  2
TABLES
  0
TABLE
  2
VPORT
  5
8
100
AcDbSymbolTable
 70
2
  0
VPORT
  5
1F4
100
AcDbSymbolTableRecord
100
AcDbViewportTableRecord
  2
*ACTIVE
 70
0
 10
0.0
 20
0.0
 11
1.0
 21
1.0
 12
148.5
 22
105.0
 13
0.0
 23
0.0
 14
1.0
 24
1.0
 15
0.0
 25
0.0
 16
0.0
 26
0.0
 36
1.0
 17
0.0
 27
0.0
 37
0.0
 40
210.0
 41
1.4142857143
 42
50.0
 43
0.0
 44
0.0
 50
0.0
 51
0.0
 71
0
 72
100
 73
1
 74
1
 75
0
 76
0
 77
0
 78
0
  0
ENDTAB
  0
TABLE
  2
LTYPE
  5
5
100
AcDbSymbolTable
 70
6
  0
LTYPE
  5
14
100
AcDbSymbolTableRecord
100
AcDbLinetypeTableRecord
  2
BYBLOCK
 70
0
  3

 72
65
 73
0
 40
0.0
  0
LTYPE
  5
15
100
AcDbSymbolTableRecord
100
AcDbLinetypeTableRecord
  2
BYLAYER
 70
0
  3

 72
65
 73
0
 40
0.0
  0
LTYPE
  5
16
100
AcDbSymbolTableRecord
100
AcDbLinetypeTableRecord
  2
CONTINUOUS
 70
64
  3
Solid line
 72
65
 73
0
 40
0.0
  0
LTYPE
  5
1F5
100
AcDbSymbolTableRecord
100
AcDbLinetypeTableRecord
  2
CENTER
 70
64
  3
____ _ ____ _ ____ _ ____ _ ____ _ ____ _ ____
 72
65
 73
4
 40
0.6
 49
0.375
 74
0
 49
-0.075
 74
0
 49
0.075
 74
0
 49
-0.075
 74
0
  0
LTYPE
  5
1F6
100
AcDbSymbolTableRecord
100
AcDbLinetypeTableRecord
  2
HIDDEN
 70
64
  3
- - - - - - - - - - - - - - - - - - - -
 72
65
 73
2
 40
0.2
 49
0.1
 74
0
 49
-0.1
 74
0
  0
LTYPE
  5
1F7
100
AcDbSymbolTableRecord
100
AcDbLinetypeTableRecord
  2
PHANTOM
 70
64
  3
_____ _ _ _____ _ _ _____ _ _ _____
 72
65
 73
6
 40
0.8
 49
0.45
 74
0
 49
-0.05
 74
0
 49
0.1
 74
0
 49
-0.05
 74
0
 49
0.1
 74
0
 49
-0.05
 74
0
  0
LTYPE
  5
1F8
100
AcDbSymbolTableRecord
100
AcDbLinetypeTableRecord
  2
DOT
 70
64
  3
. . . . . . . . . . . . . . . . . . . .
 72
65
 73
2
 40
0.2
 49
0.1
 74
0
 49
-0.1
 74
0
  0
LTYPE
  5
1F9
100
AcDbSymbolTableRecord
100
AcDbLinetypeTableRecord
  2
DASHED
 70
64
  3
- - - - - - - - - - - - - - - - - - - -
 72
65
 73
2
 40
0.2
 49
0.1
 74
0
 49
-0.1
 74
0
  0
ENDTAB
  0
TABLE
  2
LAYER
  5
2
100
AcDbSymbolTable
 70
36
  0
LAYER
  5
10
100
AcDbSymbolTableRecord
100
AcDbLayerTableRecord
  2
0
 70
0
 62
7
  6
CONTINUOUS
370
-3
390
F
  0
LAYER
  5
1FA
100
AcDbSymbolTableRecord
100
AcDbLayerTableRecord
  2
DEFAULT_1
 70
0
 62
7
  6
CENTER
370
-3
390
F
  0
LAYER
  5
1FB
100
AcDbSymbolTableRecord
100
AcDbLayerTableRecord
  2
DEFAULT_2
 70
0
 62
7
  6
HIDDEN
370
-3
390
F
  0
LAYER
  5
1FC
100
AcDbSymbolTableRecord
100
AcDbLayerTableRecord
  2
DEFAULT_3
 70
0
 62
7
  6
PHANTOM
370
-3
390
F
  0
LAYER
  5
1FD
100
AcDbSymbolTableRecord
100
AcDbLayerTableRecord
  2
ASSI
 70
0
 62
7
  6
CONTINUOUS
370
-3
390
F
  0
LAYER
  5
1FE
100
AcDbSymbolTableRecord
100
AcDbLayerTableRecord
  2
COORDINATE
 70
0
 62
7
  6
CONTINUOUS
370
-3
390
F
  0
LAYER
  5
1FF
100
AcDbSymbolTableRecord
100
AcDbLayerTableRecord
  2
COORD_ORIGINE
 70
0
 62
7
  6
CONTINUOUS
370
-3
390
F
  0
LAYER
  5
200
100
AcDbSymbolTableRecord
100
AcDbLayerTableRecord
  2
COPY_PUBLISH
 70
0
 62
7
  6
CONTINUOUS
370
-3
390
F
  0
LAYER
  5
201
100
AcDbSymbolTableRecord
100
AcDbLayerTableRecord
  2
COSMETIC
 70
0
 62
7
  6
CONTINUOUS
370
-3
390
F
  0
LAYER
  5
202
100
AcDbSymbolTableRecord
100
AcDbLayerTableRecord
  2
COSMETICI
 70
0
 62
7
  6
CONTINUOUS
370
-3
390
F
  0
LAYER
  5
203
100
AcDbSymbolTableRecord
100
AcDbLayerTableRecord
  2
CURVE
 70
0
 62
7
  6
CONTINUOUS
370
-3
390
F
  0
LAYER
  5
204
100
AcDbSymbolTableRecord
100
AcDbLayerTableRecord
  2
DRAFT
 70
0
 62
7
  6
CONTINUOUS
370
-3
390
F
  0
LAYER
  5
205
100
AcDbSymbolTableRecord
100
AcDbLayerTableRecord
  2
IGES
 70
0
 62
7
  6
CONTINUOUS
370
-3
390
F
  0
LAYER
  5
206
100
AcDbSymbolTableRecord
100
AcDbLayerTableRecord
  2
IMPORT_IGES
 70
0
 62
7
  6
CONTINUOUS
370
-3
390
F
  0
LAYER
  5
207
100
AcDbSymbolTableRecord
100
AcDbLayerTableRecord
  2
LIVELLO_1
 70
0
 62
7
  6
CONTINUOUS
370
-3
390
F
  0
LAYER
  5
208
100
AcDbSymbolTableRecord
100
AcDbLayerTableRecord
  2
NOTE
 70
0
 62
7
  6
CONTINUOUS
370
-3
390
F
  0
LAYER
  5
209
100
AcDbSymbolTableRecord
100
AcDbLayerTableRecord
  2
PIANI
 70
0
 62
7
  6
CONTINUOUS
370
-3
390
F
  0
LAYER
  5
20A
100
AcDbSymbolTableRecord
100
AcDbLayerTableRecord
  2
PIANI_ORIGINE
 70
0
 62
7
  6
CONTINUOUS
370
-3
390
F
  0
LAYER
  5
20B
100
AcDbSymbolTableRecord
100
AcDbLayerTableRecord
  2
PIANI_RIFERIMENTO
 70
0
 62
7
  6
CONTINUOUS
370
-3
390
F
  0
LAYER
  5
20C
100
AcDbSymbolTableRecord
100
AcDbLayerTableRecord
  2
PUNTI
 70
0
 62
7
  6
CONTINUOUS
370
-3
390
F
  0
LAYER
  5
20D
100
AcDbSymbolTableRecord
100
AcDbLayerTableRecord
  2
RACCORDO
 70
0
 62
7
  6
CONTINUOUS
370
-3
390
F
  0
LAYER
  5
20E
100
AcDbSymbolTableRecord
100
AcDbLayerTableRecord
  2
SIMBOLI
 70
0
 62
7
  6
CONTINUOUS
370
-3
390
F
  0
LAYER
  5
20F
100
AcDbSymbolTableRecord
100
AcDbLayerTableRecord
  2
SMUSSO
 70
0
 62
7
  6
CONTINUOUS
370
-3
390
F
  0
LAYER
  5
210
100
AcDbSymbolTableRecord
100
AcDbLayerTableRecord
  2
SNAPLINE
 70
0
 62
7
  6
CONTINUOUS
370
-3
390
F
  0
LAYER
  5
211
100
AcDbSymbolTableRecord
100
AcDbLayerTableRecord
  2
SUPERFICI
 70
0
 62
7
  6
CONTINUOUS
370
-3
390
F
  0
LAYER
  5
212
100
AcDbSymbolTableRecord
100
AcDbLayerTableRecord
  2
TRASH
 70
0
 62
7
  6
CONTINUOUS
370
-3
390
F
  0
LAYER
  5
213
100
AcDbSymbolTableRecord
100
AcDbLayerTableRecord
  2
WHITE
 70
0
 62
7
  6
CONTINUOUS
370
-3
390
F
  0
LAYER
  5
214
100
AcDbSymbolTableRecord
100
AcDbLayerTableRecord
  2
XSEC_DATUMS
 70
0
 62
7
  6
CONTINUOUS
370
-3
390
F
  0
ENDTAB
  0
TABLE
  2
STYLE
  5
3
100
AcDbSymbolTable
 70
1
  0
STYLE
  5
11
100
AcDbSymbolTableRecord
100
AcDbTextStyleTableRecord
  2
STANDARD
 70
0
 40
0.0
 41
0.8
 50
0.0
 71
0
 42
0.2
  3
txt
  4

  0
STYLE
  5
215
100
AcDbSymbolTableRecord
100
AcDbTextStyleTableRecord
  2
TEXTSTYLE_1
 70
0
 40
0.0
 41
0.8
 50
0.0
 71
0
 42
0.2
  3
gdt
  4

  0
ENDTAB
  0
TABLE
  2
VIEW
  5
6
100
AcDbSymbolTable
 70
0
  0
ENDTAB
  0
TABLE
  2
UCS
  5
7
100
AcDbSymbolTable
 70
0
  0
ENDTAB
  0
TABLE
  2
APPID
  5
9
100
AcDbSymbolTable
 70
1
  0
APPID
  5
216
100
AcDbSymbolTableRecord
100
AcDbRegAppTableRecord
  2
ACAD
 70
0
  0
ENDTAB
  0
TABLE
  2
BLOCK_RECORD
  5
1
100
AcDbSymbolTable
 70
0
  0
BLOCK_RECORD
  5
217
100
AcDbSymbolTableRecord
100
AcDbBlockTableRecord
  2
*Model_Space
  0
BLOCK_RECORD
  5
218
100
AcDbSymbolTableRecord
100
AcDbBlockTableRecord
  2
*Paper_Space
  0
ENDTAB
  0
TABLE
  2
DIMSTYLE
  5
A
100
AcDbSymbolTable
 70
1
100
AcDbDimStyleTable
 71
0
  0
DIMSTYLE
105
219
100
AcDbSymbolTableRecord
100
AcDbDimStyleTableRecord
  2
STANDARD
 70
0
  3

  4

 40
1.0
 41
3.0
 42
0.5
 43
0.38
 44
1.5
 45
0.0
 46
0.0
 47
0.01
 48
0.01
140
3.0
141
0.09
142
0.0
143
25.4
144
1.0
145
0.0
146
1.0
147
0.625
 71
1.0
 72
0.0
 73
0
 74
0
 75
0
 76
0
 77
1
 78
8
170
0
171
1
172
0
173
0
174
0
175
0
176
0
177
0
178
0
270
2
271
2
272
2
273
2
274
2
275
0
280
0
281
0
282
0
283
1
284
8
285
0
286
0
287
3
288
0
340
11
278
44
  0
ENDTAB
  0
ENDSEC
  0
SECTION
  2
BLOCKS
  0
BLOCK
  5
20
100
AcDbEntity
  8
0
100
AcDbBlockBegin
  2
*Model_Space
 70
0
 10
0.0
 20
0.0
 30
0.0
  3
*Model_Space
  1

  0
ENDBLK
  5
21
100
AcDbEntity
  8
0
100
AcDbBlockEnd
  0
BLOCK
  5
1C
100
AcDbEntity
  8
0
100
AcDbBlockBegin
  2
*Paper_Space
 70
0
 10
0.0
 20
0.0
 30
0.0
  3
*Paper_Space
  1

  0
ENDBLK
  5
1D
100
AcDbEntity
  8
0
100
AcDbBlockEnd
  0
ENDSEC
  0
SECTION
  2
ENTITIES
  0
LWPOLYLINE
  5
21A
100
AcDbEntity
  8
ASSI
100
AcDbPolyline
 62
7
  6
CONTINUOUS
 90
19
 70
0
 10
-16.9868059457
 20
26.0160599232
 10
-17.0200004094
 20
25.9935450122
 10
-17.1070493699
 20
25.9283407931
 10
-17.1905096737
 20
25.8569508926
 10
-17.2702816731
 20
25.7798555663
 10
-17.3462406941
 20
25.6974889684
 10
-17.4181434429
 20
25.6103657086
 10
-17.4857780029
 20
25.5189410257
 10
-17.5489256189
 20
25.4236428278
 10
-17.6072467078
 20
25.3250707547
 10
-17.6605010203
 20
25.2236713927
 10
-17.7084350473
 20
25.1198839199
 10
-17.7507171486
 20
25.0143126233
 10
-17.7870984195
 20
24.9073688471
 10
-17.8173032634
 20
24.7994722458
 10
-17.8410220694
 20
24.6911006113
 10
-17.8579515419
 20
24.5825884436
 10
-17.8677362452
 20
24.47427307
 10
-17.869272656
 20
24.4403186025
  0
LINE
  5
21B
100
AcDbEntity
  8
ASSI
100
AcDbLine
 62
7
  6
CONTINUOUS
 10
-16.9870157839
 20
26.0159219095
 11
-14.1582790618
 21
27.8814471745
  0
LINE
  5
21C
100
AcDbEntity
  8
ASSI
100
AcDbLine
 62
253
  6
CONTINUOUS
 10
-16.7302381966
 20
25.9955168106
 11
-13.9097625173
 21
27.8555939955
  0
LWPOLYLINE
  5
21D
100
AcDbEntity
  8
ASSI
100
AcDbPolyline
 62
253
  6
CONTINUOUS
 90
17
 70
0
 10
-16.9868060047
 20
26.0160600128
 10
-16.979029781
 20
26.0208480277
 10
-16.9660398872
 20
26.0275389993
 10
-16.9523537929
 20
26.0330554251
 10
-16.9380089672
 20
26.0373822025
 10
-16.9230446825
 20
26.0405074858
 10
-16.9075019073
 20
26.0424227189
 10
-16.8914231937
 20
26.0431226584
 10
-16.8748525611
 20
26.0426053879
 10
-16.8578353757
 20
26.0408723236
 10
-16.8404182261
 20
26.0379282102
 10
-16.8226487961
 20
26.033781108
 10
-16.8045757338
 20
26.0284423706
 10
-16.7862485187
 20
26.0219266142
 10
-16.7677173259
 20
26.0142516772
 10
-16.7490328893
 20
26.0054385717
 10
-16.7302463619
 20
25.9955114256
  0
LINE
  5
21E
100
AcDbEntity
  8
ASSI
100
AcDbLine
 62
7
  6
CONTINUOUS
 10
-11.9435273804
 20
26.7203144702
 11
-12.1236938269
 21
26.3062891898
  0
LWPOLYLINE
  5
21F
100
AcDbEntity
  8
ASSI
100
AcDbPolyline
 62
7
  6
CONTINUOUS
 90
12
 70
0
 10
-17.8692372782
 20
-9.1381778608
 10
-17.8606496468
 20
-9.2495579091
 10
-17.8426307519
 20
-9.358437812
 10
-17.8159255779
 20
-9.4602869014
 10
-17.7812695511
 20
-9.5546096695
 10
-17.7392005062
 20
-9.6415884804
 10
-17.689897467
 20
-9.7217243942
 10
-17.6339712776
 20
-9.7945435031
 10
-17.5720522848
 20
-9.8597115533
 10
-17.5041860862
 20
-9.9174329686
 10
-17.4308237836
 20
-9.9673536565
 10
-17.4153628024
 20
-9.9764679986
  0
LWPOLYLINE
  5
220
100
AcDbEntity
  8
ASSI
100
AcDbPolyline
 62
253
  6
CONTINUOUS
 90
16
 70
0
 10
-17.8692374628
 20
-9.1381778674
 10
-17.8684263273
 20
-9.1499776146
 10
-17.8661824806
 20
-9.165433267
 10
-17.8626074701
 20
-9.1807678759
 10
-17.8577108783
 20
-9.195940338
 10
-17.8515058301
 20
-9.2109099847
 10
-17.8440089577
 20
-9.2256366909
 10
-17.8352403559
 20
-9.2400809829
 10
-17.8252235282
 20
-9.2542041438
 10
-17.8139853241
 20
-9.2679683176
 10
-17.8015558666
 20
-9.2813366104
 10
-17.7879684719
 20
-9.2942731896
 10
-17.7732595601
 20
-9.3067433797
 10
-17.7574685573
 20
-9.3187137552
 10
-17.74063779
 20
-9.3301522305
 10
-17.7228123718
 20
-9.3410281456
  0
LWPOLYLINE
  5
221
100
AcDbEntity
  8
ASSI
100
AcDbPolyline
 62
7
  6
CONTINUOUS
 90
11
 70
0
 10
-18.1630566039
 20
7.76686124
 10
-18.1619884811
 20
7.7415015544
 10
-18.1567750253
 20
7.7057556701
 10
-18.1471578999
 20
7.6703244541
 10
-18.1331651721
 20
7.6357384312
 10
-18.1146408098
 20
7.6020326751
 10
-18.091324806
 20
7.5693339168
 10
-18.0634203085
 20
7.5383936109
 10
-18.0314494746
 20
7.509939485
 10
-17.995704162
 20
7.4842157789
 10
-17.9752205382
 20
7.4716886941
  0
LWPOLYLINE
  5
222
100
AcDbEntity
  8
ASSI
100
AcDbPolyline
 62
253
  6
CONTINUOUS
 90
13
 70
0
 10
-17.7228127643
 20
-9.3410172025
 10
-17.7689702097
 20
-7.9944417092
 10
-17.8111872485
 20
-6.6453659749
 10
-17.8494636607
 20
-5.2938054796
 10
-17.8837990327
 20
-3.9397855955
 10
-17.9141935335
 20
-2.5833120237
 10
-17.9406476234
 20
-1.2243706167
 10
-17.9631613161
 20
0.1370227992
 10
-17.9817340463
 20
1.5008531707
 10
-17.9963649324
 20
2.8671360895
 10
-18.0070532775
 20
4.2358665877
 10
-18.0137988778
 20
5.6070189545
 10
-18.0166013821
 20
6.9805777888
  0
LWPOLYLINE
  5
223
100
AcDbEntity
  8
ASSI
100
AcDbPolyline
 62
253
  6
CONTINUOUS
 90
18
 70
0
 10
-18.1630571854
 20
7.7668593294
 10
-18.1627968881
 20
7.7575488993
 10
-18.1614841738
 20
7.7440520853
 10
-18.1590671807
 20
7.7306022337
 10
-18.1555512817
 20
7.7172292852
 10
-18.1509443265
 20
7.7039627316
 10
-18.1452566517
 20
7.6908322276
 10
-18.1385008454
 20
7.6778668006
 10
-18.1306916404
 20
7.6650945524
 10
-18.121846008
 20
7.6525434966
 10
-18.1119836945
 20
7.6402419286
 10
-18.101127089
 20
7.628217604
 10
-18.0893007446
 20
7.6164975454
 10
-18.0765306147
 20
7.6051073645
 10
-18.062844432
 20
7.5940716773
 10
-18.0482722505
 20
7.5834147753
 10
-18.0328465196
 20
7.5731605177
 10
-18.0166013803
 20
7.563331651
  0
LWPOLYLINE
  5
224
100
AcDbEntity
  8
ASSI
100
AcDbPolyline
 62
253
  6
CONTINUOUS
 90
13
 70
0
 10
-18.0166102082
 20
7.5633367417
 10
-18.0163170626
 20
7.5528802166
 10
-18.0154257323
 20
7.5428136204
 10
-18.0139399952
 20
7.533179621
 10
-18.0118661486
 20
7.5240190533
 10
-18.0092129829
 20
7.515370745
 10
-18.0059917436
 20
7.5072713528
 10
-18.0022160843
 20
7.4997552068
 10
-17.9979020086
 20
7.4928541648
 10
-17.9930678019
 20
7.4865974776
 10
-17.9877339545
 20
7.4810116646
 10
-17.9819230745
 20
7.4761204019
 10
-17.9752207132
 20
7.4716883911
  0
LWPOLYLINE
  5
225
100
AcDbEntity
  8
ASSI
100
AcDbPolyline
 62
7
  6
CONTINUOUS
 90
10
 70
0
 10
-18.1630571611
 20
7.1852801098
 10
-18.1586495956
 20
5.4017730747
 10
-18.1470913143
 20
3.5608354423
 10
-18.1284158769
 20
1.7242229909
 10
-18.1026236265
 20
-0.1080257378
 10
-18.0697150062
 20
-1.935874541
 10
-18.0296905712
 20
-3.7592879297
 10
-17.9825509984
 20
-5.5782298346
 10
-17.928297175
 20
-7.3926617071
 10
-17.8692384545
 20
-9.1381502055
  0
LWPOLYLINE
  5
226
100
AcDbEntity
  8
ASSI
100
AcDbPolyline
 62
253
  6
CONTINUOUS
 90
13
 70
0
 10
-18.0166013822
 20
7.5633316457
 10
-18.0137988778
 20
8.9402508576
 10
-18.0070532775
 20
10.319476272
 10
-17.9963649324
 20
11.7009920823
 10
-17.9817340463
 20
13.0847715957
 10
-17.9631613161
 20
14.4708097862
 10
-17.9406476234
 20
15.8591234681
 10
-17.9141935335
 20
17.2496976812
 10
-17.8837990327
 20
18.6425158689
 10
-17.8494636607
 20
20.0375927116
 10
-17.8111872485
 20
21.4349227042
 10
-17.7689702097
 20
22.834479996
 10
-17.7228127643
 20
24.2362488534
  0
LWPOLYLINE
  5
227
100
AcDbEntity
  8
ASSI
100
AcDbPolyline
 62
253
  6
CONTINUOUS
 90
17
 70
0
 10
-17.869272656
 20
24.4403186025
 10
-17.8693328142
 20
24.4328071991
 10
-17.8684261391
 20
24.4184800609
 10
-17.8661822866
 20
24.4041662075
 10
-17.862607271
 20
24.3899040062
 10
-17.857710675
 20
24.3757316855
 10
-17.8515056235
 20
24.3616872334
 10
-17.8440087486
 20
24.3478082949
 10
-17.8352401452
 20
24.3341320713
 10
-17.8252233168
 20
24.3206952208
 10
-17.8139851128
 20
24.3075337598
 10
-17.8015556562
 20
24.2946829666
 10
-17.7879682633
 20
24.2821772866
 10
-17.773259354
 20
24.2700502405
 10
-17.7574683544
 20
24.2583343338
 10
-17.740637591
 20
24.2470609701
 10
-17.7228121775
 20
24.2362603668
  0
LWPOLYLINE
  5
228
100
AcDbEntity
  8
ASSI
100
AcDbPolyline
 62
253
  6
CONTINUOUS
 90
25
 70
0
 10
-18.0166102082
 20
6.9805828848
 10
-18.0163170621
 20
6.9913779387
 10
-18.01542573
 20
7.0024738327
 10
-18.0139399899
 20
7.0138235358
 10
-18.0118661394
 20
7.025378941
 10
-18.0092129688
 20
7.0370910697
 10
-18.005991724
 20
7.0489102782
 10
-18.0022160587
 20
7.0607864697
 10
-17.9979019766
 20
7.0726693058
 10
-17.9930677636
 20
7.0845084196
 10
-17.9877339102
 20
7.0962536299
 10
-17.9819230245
 20
7.1078551536
 10
-17.9756597368
 20
7.1192638163
 10
-17.9689705948
 20
7.1304312614
 10
-17.9618839513
 20
7.1413101548
 10
-17.9544298438
 20
7.1518543852
 10
-17.9466398674
 20
7.1620192601
 10
-17.9385470409
 20
7.1717616949
 10
-17.9301856664
 20
7.1810403956
 10
-17.9215911847
 20
7.1898160338
 10
-17.9128000241
 20
7.1980514135
 10
-17.9038494469
 20
7.2057116285
 10
-17.894777391
 20
7.2127642106
 10
-17.885622309
 20
7.2191792671
 10
-17.8764230056
 20
7.2249296077
  0
LWPOLYLINE
  5
229
100
AcDbEntity
  8
ASSI
100
AcDbPolyline
 62
7
  6
CONTINUOUS
 90
10
 70
0
 10
-17.8692641183
 20
24.4405790999
 10
-17.9284861273
 20
22.6191397578
 10
-17.9827132095
 20
20.7400407118
 10
-18.0298273707
 20
18.8649143326
 10
-18.0698275515
 20
16.9938003159
 10
-18.1027129012
 20
15.1267356534
 10
-18.1284826916
 20
13.2637566186
 10
-18.1471363064
 20
11.4049000523
 10
-18.1586732301
 20
9.5502050168
 10
-18.1630571618
 20
7.7669124025
  0
LWPOLYLINE
  5
22A
100
AcDbEntity
  8
ASSI
100
AcDbPolyline
 62
253
  6
CONTINUOUS
 90
43
 70
0
 10
-17.7228127597
 20
24.2362488508
 10
-17.7206495113
 20
24.2805243878
 10
-17.7171932574
 20
24.3254490325
 10
-17.7124482704
 20
24.3709672729
 10
-17.7064205423
 20
24.4170229241
 10
-17.6991174583
 20
24.4635590351
 10
-17.6905477869
 20
24.5105179601
 10
-17.6807221945
 20
24.5578420105
 10
-17.6696529169
 20
24.6054724332
 10
-17.6573534966
 20
24.6533493055
 10
-17.6438395046
 20
24.7014131519
 10
-17.629127722
 20
24.7496049742
 10
-17.6132358261
 20
24.7978652224
 10
-17.596183724
 20
24.8461344206
 10
-17.5779927162
 20
24.8943529099
 10
-17.5586847134
 20
24.9424608637
 10
-17.5382838582
 20
24.9903990745
 10
-17.5168156653
 20
25.038108259
 10
-17.4943061609
 20
25.0855288055
 10
-17.4707836135
 20
25.1326021599
 10
-17.4462773695
 20
25.1792703628
 10
-17.4208169831
 20
25.225475352
 10
-17.3944343523
 20
25.271160203
 10
-17.3671624537
 20
25.3162685874
 10
-17.3390341809
 20
25.3607443073
 10
-17.3100846996
 20
25.4045326865
 10
-17.2803502632
 20
25.4475796625
 10
-17.249866946
 20
25.4898312495
 10
-17.2186730171
 20
25.531235349
 10
-17.1868074176
 20
25.5717410897
 10
-17.1543085716
 20
25.6112979131
 10
-17.1212172176
 20
25.6498571215
 10
-17.0875747144
 20
25.6873713145
 10
-17.0534215153
 20
25.7237937118
 10
-17.0188001124
 20
25.7590798007
 10
-16.9837540763
 20
25.7931858879
 10
-16.948326372
 20
25.8260685798
 10
-16.9125616386
 20
25.8576873047
 10
-16.87650438
 20
25.8880035338
 10
-16.8401980054
 20
25.9169793347
 10
-16.8036873854
 20
25.9445789315
 10
-16.7670187998
 20
25.9707687688
 10
-16.7302381478
 20
25.9955167823
  0
LINE
  5
22B
100
AcDbEntity
  8
ASSI
100
AcDbLine
 62
253
  6
CONTINUOUS
 10
-17.9606421687
 20
7.3752181743
 11
-17.9581234527
 21
7.3833177601
  0
LWPOLYLINE
  5
22C
100
AcDbEntity
  8
ASSI
100
AcDbPolyline
 62
253
  6
CONTINUOUS
 90
7
 70
0
 10
-17.9581234527
 20
7.3833177601
 10
-17.9549504384
 20
7.3913418572
 10
-17.9511273663
 20
7.3992910649
 10
-17.9466794577
 20
7.4071129817
 10
-17.9416024267
 20
7.4148069299
 10
-17.9359005592
 20
7.4223735872
 10
-17.9296119346
 20
7.4297625847
  0
LWPOLYLINE
  5
22D
100
AcDbEntity
  8
ASSI
100
AcDbPolyline
 62
253
  6
CONTINUOUS
 90
3
 70
0
 10
-17.9296119346
 20
7.4297625847
 10
-17.9227322203
 20
7.436972961
 10
-17.9198300668
 20
7.4397065177
  0
LWPOLYLINE
  5
22E
100
AcDbEntity
  8
ASSI
100
AcDbPolyline
 62
7
  6
CONTINUOUS
 90
8
 70
0
 10
-18.0493596284
 20
7.4287077241
 10
-18.0798693307
 20
7.3977995133
 10
-18.1058816523
 20
7.3645347109
 10
-18.1271806357
 20
7.3292891141
 10
-18.1434830514
 20
7.2928210656
 10
-18.1547688164
 20
7.2558207988
 10
-18.1612190087
 20
7.2187223074
 10
-18.1630564286
 20
7.185136963
  0
LWPOLYLINE
  5
22F
100
AcDbEntity
  8
ASSI
100
AcDbPolyline
 62
7
  6
CONTINUOUS
 90
14
 70
0
 10
13.3478139447
 20
-27.7387430767
 10
13.397500599
 20
-27.7653118858
 10
13.4660760686
 20
-27.795415106
 10
13.5374857675
 20
-27.8195374278
 10
13.611616798
 20
-27.837556385
 10
13.688071808
 20
-27.8492598157
 10
13.7664137319
 20
-27.8544871189
 10
13.8465972058
 20
-27.8531114352
 10
13.9282916791
 20
-27.8449817382
 10
14.0111570888
 20
-27.8299760808
 10
14.0952860251
 20
-27.8078775102
 10
14.1805730462
 20
-27.7784345646
 10
14.2666167518
 20
-27.7414862142
 10
14.2922953729
 20
-27.7290308928
  0
LINE
  5
230
100
AcDbEntity
  8
ASSI
100
AcDbLine
 62
253
  6
CONTINUOUS
 10
-17.420816983
 20
-9.9732946806
 11
-17.4462773693
 21
-9.957182695
  0
LWPOLYLINE
  5
231
100
AcDbEntity
  8
ASSI
100
AcDbPolyline
 62
253
  6
CONTINUOUS
 90
21
 70
0
 10
-17.4462773693
 20
-9.957182695
 10
-17.4707836133
 20
-9.9394806179
 10
-17.4943061607
 20
-9.9202099148
 10
-17.5168156651
 20
-9.8993945552
 10
-17.5382838581
 20
-9.8770605509
 10
-17.5586847133
 20
-9.8532352934
 10
-17.577992716
 20
-9.8279484912
 10
-17.5961837239
 20
-9.8012315838
 10
-17.613235826
 20
-9.7731172641
 10
-17.6291277219
 20
-9.7436404765
 10
-17.6438395045
 20
-9.7128378257
 10
-17.6573534965
 20
-9.6807469698
 10
-17.6696529169
 20
-9.6474074092
 10
-17.6807221944
 20
-9.6128607574
 10
-17.6905477869
 20
-9.5771501785
 10
-17.6991174583
 20
-9.5403201655
 10
-17.7064205422
 20
-9.5024162201
 10
-17.7124482704
 20
-9.4634851332
 10
-17.7171932573
 20
-9.4235750842
 10
-17.7206495113
 20
-9.3827355821
 10
-17.7228127597
 20
-9.3410172051
  0
LINE
  5
232
100
AcDbEntity
  8
ASSI
100
AcDbLine
 62
7
  6
CONTINUOUS
 10
-18.0144291952
 20
7.4570741418
 11
-18.0493596284
 21
7.4287077241
  0
LINE
  5
233
100
AcDbEntity
  8
ASSI
100
AcDbLine
 62
7
  6
CONTINUOUS
 10
-17.9828378139
 20
7.4781086173
 11
-18.0144291952
 21
7.4570741418
  0
LINE
  5
234
100
AcDbEntity
  8
ASSI
100
AcDbLine
 62
7
  6
CONTINUOUS
 10
13.3483601238
 20
-27.7390589118
 11
-17.4166899197
 21
-9.9757045933
  0
LINE
  5
235
100
AcDbEntity
  8
ASSI
100
AcDbLine
 62
253
  6
CONTINUOUS
 10
13.0350289156
 20
-27.1002095021
 11
-17.7228127597
 21
-9.3410172051
  0
LWPOLYLINE
  5
236
100
AcDbEntity
  8
CURVE
100
AcDbPolyline
 62
253
  6
CONTINUOUS
 90
90
 70
0
 10
-13.2189520768
 20
-5.9982691799
 10
-13.2176594374
 20
-6.0341131095
 10
-13.2154299672
 20
-6.0702863425
 10
-13.2122917393
 20
-6.1068479881
 10
-13.2082617857
 20
-6.1438519253
 10
-13.2033129715
 20
-6.1813311125
 10
-13.1974071203
 20
-6.219313278
 10
-13.1905131292
 20
-6.2578037634
 10
-13.1826281889
 20
-6.2967183645
 10
-13.1737565638
 20
-6.3359504905
 10
-13.163902243
 20
-6.3754056715
 10
-13.153068116
 20
-6.4150379207
 10
-13.1412567971
 20
-6.4548133723
 10
-13.1284739384
 20
-6.4946906129
 10
-13.1147373425
 20
-6.5345980392
 10
-13.1000678496
 20
-6.5744565001
 10
-13.0844863001
 20
-6.6141868446
 10
-13.0680135342
 20
-6.6537099217
 10
-13.0506703921
 20
-6.6929465805
 10
-13.032477738
 20
-6.7318254851
 10
-13.013456531
 20
-6.7703065598
 10
-12.9936277541
 20
-6.8083575442
 10
-12.9730123901
 20
-6.8459461776
 10
-12.9516314221
 20
-6.8830401996
 10
-12.929505833
 20
-6.9196073496
 10
-12.9066604418
 20
-6.9556136238
 10
-12.883135412
 20
-6.9910180455
 10
-12.858974743
 20
-7.0257778947
 10
-12.8342211795
 20
-7.0598484256
 10
-12.8089124467
 20
-7.0931767882
 10
-12.7830850148
 20
-7.1257081068
 10
-12.7567697701
 20
-7.1573896261
 10
-12.7299752624
 20
-7.1881770729
 10
-12.7027044576
 20
-7.2180282946
 10
-12.674963652
 20
-7.2469095793
 10
-12.646772465
 20
-7.2748209788
 10
-12.6181538463
 20
-7.3017709858
 10
-12.5891388709
 20
-7.3277674168
 10
-12.5597911134
 20
-7.3528153839
 10
-12.5301822739
 20
-7.376919323
 10
-12.5003817079
 20
-7.4000811249
 10
-12.4704493951
 20
-7.4222924989
 10
-12.4404429707
 20
-7.4435426095
 10
-12.4104124444
 20
-7.4638083126
 10
-12.3803773217
 20
-7.4830172309
 10
-12.3503494824
 20
-7.501084679
 10
-12.3203395253
 20
-7.5179512325
 10
-12.2903529255
 20
-7.533658512
 10
-12.2603938772
 20
-7.5482733992
 10
-12.2304764678
 20
-7.5618437295
 10
-12.2006543575
 20
-7.5743411531
 10
-12.1709910995
 20
-7.5857182737
 10
-12.141552754
 20
-7.5959196466
 10
-12.112415408
 20
-7.6048576324
 10
-12.0836576553
 20
-7.6124365432
 10
-12.0553488135
 20
-7.6185700581
 10
-12.0275210961
 20
-7.623209325
 10
-12.0001974403
 20
-7.626314859
 10
-11.9733972025
 20
-7.6278594827
 10
-11.9471254166
 20
-7.627865248
 10
-11.9213835357
 20
-7.6263665142
 10
-11.8961790252
 20
-7.6233947592
 10
-11.871543399
 20
-7.6189699362
 10
-11.8475141828
 20
-7.6131091168
 10
-11.8241293767
 20
-7.6058254219
 10
-11.8014288757
 20
-7.5971161689
 10
-11.7794530487
 20
-7.5869747247
 10
-11.7582409199
 20
-7.5753962852
 10
-11.7378261346
 20
-7.562383363
 10
-11.7182409934
 20
-7.5479402999
 10
-11.6995128693
 20
-7.5320728873
 10
-11.6816494257
 20
-7.5147927151
 10
-11.6646533986
 20
-7.4961128224
 10
-11.6485316071
 20
-7.4760530393
 10
-11.6333072031
 20
-7.4546603585
 10
-11.6190074219
 20
-7.4319885631
 10
-11.6056594986
 20
-7.4080914364
 10
-11.5932906683
 20
-7.3830227616
 10
-11.5819281662
 20
-7.3568363219
 10
-11.5715933183
 20
-7.3295890103
 10
-11.5622838147
 20
-7.3013501575
 10
-11.5539914361
 20
-7.272192204
 10
-11.5467079636
 20
-7.2421875903
 10
-11.5404251779
 20
-7.2114087568
 10
-11.53513486
 20
-7.179928144
 10
-11.5300805903
 20
-7.1413035747
 10
-11.5264031963
 20
-7.1017570459
 10
-11.5240622359
 20
-7.0612728464
 10
-11.5230172667
 20
-7.0198352645
 10
-11.5232278466
 20
-6.977428589
  0
LWPOLYLINE
  5
237
100
AcDbEntity
  8
CURVE
100
AcDbPolyline
 62
253
  6
CONTINUOUS
 90
91
 70
0
 10
-13.4457520219
 20
-5.867343588
 10
-13.4461070692
 20
-5.8241598615
 10
-13.4452230367
 20
-5.7819927157
 10
-13.4431748162
 20
-5.7406902851
 10
-13.4400181044
 20
-5.7001314241
 10
-13.4357318176
 20
-5.6603178675
 10
-13.4302756767
 20
-5.6212820697
 10
-13.4236089251
 20
-5.5830742034
 10
-13.4156888958
 20
-5.5458153123
 10
-13.4064724443
 20
-5.5096441579
 10
-13.3959226599
 20
-5.4746843989
 10
-13.3840275665
 20
-5.4409992823
 10
-13.3707814218
 20
-5.4086369525
 10
-13.3561881015
 20
-5.3776427519
 10
-13.3402899533
 20
-5.3480508158
 10
-13.3231389426
 20
-5.3198924776
 10
-13.3047836806
 20
-5.2932039834
 10
-13.2852593598
 20
-5.2680412297
 10
-13.2645978183
 20
-5.2444650253
 10
-13.2428285702
 20
-5.2225294428
 10
-13.2199718329
 20
-5.2022616094
 10
-13.1960454999
 20
-5.1836819156
 10
-13.1710674649
 20
-5.1668107521
 10
-13.1450556212
 20
-5.1516685097
 10
-13.1180278624
 20
-5.1382755789
 10
-13.0900097394
 20
-5.1266477281
 10
-13.0610574328
 20
-5.1167822365
 10
-13.0312347807
 20
-5.1086717611
 10
-13.0006056211
 20
-5.1023089587
 10
-12.969233792
 20
-5.0976864862
 10
-12.9371831316
 20
-5.0947970007
 10
-12.9045096787
 20
-5.0936350656
 10
-12.8712382751
 20
-5.0942028712
 10
-12.8373859636
 20
-5.0965045145
 10
-12.8029697868
 20
-5.1005440924
 10
-12.7680067876
 20
-5.106325702
 10
-12.7325140086
 20
-5.11385344
 10
-12.6965190884
 20
-5.1231171595
 10
-12.6600920493
 20
-5.1340497366
 10
-12.6233135097
 20
-5.1465698037
 10
-12.5862630264
 20
-5.1605976587
 10
-12.5490159106
 20
-5.1760602621
 10
-12.5116464126
 20
-5.1928862404
 10
-12.4742175748
 20
-5.2110252707
 10
-12.4367476102
 20
-5.2305112333
 10
-12.3992435246
 20
-5.2513990595
 10
-12.3617132352
 20
-5.273723429
 10
-12.324168306
 20
-5.2974380156
 10
-12.2866212127
 20
-5.3224762418
 10
-12.2490937117
 20
-5.348780123
 10
-12.2116446816
 20
-5.3763260467
 10
-12.1743422819
 20
-5.4050989932
 10
-12.1372564854
 20
-5.4350848367
 10
-12.1004645191
 20
-5.4662730256
 10
-12.0640454235
 20
-5.4986539019
 10
-12.0280674456
 20
-5.5322162184
 10
-11.9925556586
 20
-5.5669423707
 10
-11.9575243421
 20
-5.6028131651
 10
-11.9229877757
 20
-5.6398094077
 10
-11.8889602392
 20
-5.6779119049
 10
-11.8554560122
 20
-5.7171014628
 10
-11.822497619
 20
-5.7573512071
 10
-11.7901405631
 20
-5.7986035402
 10
-11.7584485924
 20
-5.840793184
 10
-11.7274854552
 20
-5.8838548602
 10
-11.6973148994
 20
-5.9277232907
 10
-11.6680006732
 20
-5.9723331972
 10
-11.6395997684
 20
-6.0176239406
 10
-11.6121421518
 20
-6.0635534379
 10
-11.5856510342
 20
-6.1100842448
 10
-11.5601496261
 20
-6.1571789175
 10
-11.5356611381
 20
-6.2048000119
 10
-11.5122087809
 20
-6.2529100839
 10
-11.489818759
 20
-6.3014595339
 10
-11.4685292524
 20
-6.3503501391
 10
-11.448381435
 20
-6.3994715214
 10
-11.4294164808
 20
-6.4487133026
 10
-11.4116755635
 20
-6.4979651043
 10
-11.395199857
 20
-6.5471165483
 10
-11.3800236829
 20
-6.5960710686
 10
-11.3661539524
 20
-6.6447873482
 10
-11.3535907242
 20
-6.6932378825
 10
-11.3423323691
 20
-6.7413828125
 10
-11.3323705044
 20
-6.7891328626
 10
-11.3236950595
 20
-6.8363864028
 10
-11.3162877252
 20
-6.8830601199
 10
-11.3100972392
 20
-6.929143968
 10
-11.3050641008
 20
-6.9746462177
 10
-11.3011330162
 20
-7.0195986312
 10
-11.2982655196
 20
-7.0641269362
 10
-11.296427352
 20
-7.1083803522
  0
LWPOLYLINE
  5
238
100
AcDbEntity
  8
CURVE
100
AcDbPolyline
 62
253
  6
CONTINUOUS
 90
91
 70
0
 10
-12.9490602783
 20
15.1042615535
 10
-12.9474247801
 20
15.148588256
 10
-12.9445663636
 20
15.1918904905
 10
-12.9405538766
 20
15.2343225061
 10
-12.9354380257
 20
15.2760073065
 10
-12.9291969525
 20
15.3169429139
 10
-12.9217906574
 20
15.357096105
 10
-12.9131796222
 20
15.3964157512
 10
-12.9033262533
 20
15.4347791019
 10
-12.8921934385
 20
15.4720455014
 10
-12.8797498104
 20
15.5080898217
 10
-12.865986981
 20
15.5428490475
 10
-12.850902307
 20
15.5762756915
 10
-12.8345016565
 20
15.6083233707
 10
-12.8168249409
 20
15.6389501195
 10
-12.797920583
 20
15.6681150768
 10
-12.7778361449
 20
15.6957754656
 10
-12.7566157469
 20
15.7218808448
 10
-12.7343026487
 20
15.7463788574
 10
-12.7109358515
 20
15.7692220813
 10
-12.6865373219
 20
15.7903828341
 10
-12.6611247677
 20
15.8098383683
 10
-12.6347158969
 20
15.8275659364
 10
-12.6073284175
 20
15.8435427909
 10
-12.5789800373
 20
15.8577461843
 10
-12.5496962592
 20
15.8701576823
 10
-12.5195337657
 20
15.8807761027
 10
-12.4885570342
 20
15.8896045767
 10
-12.4568305421
 20
15.8966462351
 10
-12.4244187667
 20
15.9019042091
 10
-12.3913861855
 20
15.9053816297
 10
-12.3577897113
 20
15.9070810387
 10
-12.3236559982
 20
15.9070026207
 10
-12.2890041359
 20
15.9051459712
 10
-12.2538532138
 20
15.9015106855
 10
-12.2182223217
 20
15.8960963591
 10
-12.1821305491
 20
15.8889025874
 10
-12.1456066631
 20
15.8799421828
 10
-12.1087181414
 20
15.8692808258
 10
-12.0715421393
 20
15.8569974137
 10
-12.03415496
 20
15.8431698652
 10
-11.9966294982
 20
15.827872184
 10
-11.9590377967
 20
15.8111773954
 10
-11.9214416238
 20
15.7931366715
 10
-11.8838616497
 20
15.7737137742
 10
-11.8463082699
 20
15.7528506125
 10
-11.8087916255
 20
15.7305099873
 10
-11.7713208378
 20
15.7067382679
 10
-11.7339047735
 20
15.6816027152
 10
-11.6965626175
 20
15.6551618154
 10
-11.6593548275
 20
15.6274389549
 10
-11.6223521795
 20
15.5984487451
 10
-11.5856269077
 20
15.5682051243
 10
-11.5492570795
 20
15.5367193373
 10
-11.5133222206
 20
15.5040019558
 10
-11.4778912452
 20
15.4700648046
 10
-11.4429906221
 20
15.4349247204
 10
-11.4086362086
 20
15.3985997933
 10
-11.3748438623
 20
15.3611081131
 10
-11.3416294403
 20
15.3224677697
 10
-11.3090088002
 20
15.282696853
 10
-11.2770054512
 20
15.2418220182
 10
-11.2456735113
 20
15.1999041811
 10
-11.2150747502
 20
15.1570128229
 10
-11.1852709378
 20
15.1132174247
 10
-11.1563238439
 20
15.0685874675
 10
-11.1282952382
 20
15.0231924325
 10
-11.1012402322
 20
14.9770964504
 10
-11.0751873033
 20
14.9303422498
 10
-11.0501582705
 20
14.8829672091
 10
-11.0261749527
 20
14.8350087065
 10
-11.003259169
 20
14.7865041204
 10
-10.9814327381
 20
14.737490829
 10
-10.9607198669
 20
14.6880185558
 10
-10.9411543125
 20
14.6381864051
 10
-10.9227722199
 20
14.5881058266
 10
-10.905609734
 20
14.5378882697
 10
-10.8897029996
 20
14.487645184
 10
-10.8750881617
 20
14.437488019
 10
-10.8617952117
 20
14.3875142324
 10
-10.8498295273
 20
14.3377653138
 10
-10.8391903326
 20
14.2882687608
 10
-10.8298744336
 20
14.2390644813
 10
-10.8218689625
 20
14.1902420234
 10
-10.8151586334
 20
14.1419033456
 10
-10.8097206658
 20
14.0941323926
 10
-10.8055023011
 20
14.0469410551
 10
-10.8024432864
 20
14.0003232104
 10
-10.8004886881
 20
13.9542483027
 10
-10.7996048517
 20
13.9085880437
 10
-10.799763442
 20
13.8631897121
  0
LWPOLYLINE
  5
239
100
AcDbEntity
  8
ASSI
100
AcDbPolyline
 62
253
  6
CONTINUOUS
 90
8
 70
0
 10
13.2966324623
 20
-10.24857173
 10
13.317699894
 20
-10.242615211
 10
13.338249391
 20
-10.2360947862
 10
13.3582357796
 20
-10.229025066
 10
13.377614628
 20
-10.2214214597
 10
13.3963430253
 20
-10.2133009136
 10
13.414379654
 20
-10.2046818523
 10
13.4316846636
 20
-10.195583632
  0
LWPOLYLINE
  5
23A
100
AcDbEntity
  8
CURVE
100
AcDbPolyline
 62
253
  6
CONTINUOUS
 90
90
 70
0
 10
-11.5232278466
 20
-6.977428589
 10
-11.5249706337
 20
-6.9342573686
 10
-11.5279492659
 20
-6.8906190143
 10
-11.5322051272
 20
-6.8464487753
 10
-11.5377796014
 20
-6.8016819008
 10
-11.5447140722
 20
-6.7562536403
 10
-11.5515578323
 20
-6.7178627583
 10
-11.5593764721
 20
-6.6790377933
 10
-11.5681716903
 20
-6.6398489242
 10
-11.5779451857
 20
-6.6003663299
 10
-11.588698657
 20
-6.560660189
 10
-11.600433803
 20
-6.5208006803
 10
-11.6131480722
 20
-6.4808584403
 10
-11.6268219129
 20
-6.440905935
 10
-11.6414315233
 20
-6.4010160881
 10
-11.6569531012
 20
-6.3612618233
 10
-11.6733628449
 20
-6.3217160644
 10
-11.6906369524
 20
-6.2824517348
 10
-11.7087526006
 20
-6.2435351975
 10
-11.7276908822
 20
-6.2050065718
 10
-11.7474338686
 20
-6.1668994161
 10
-11.7679636313
 20
-6.129247289
 10
-11.7892622416
 20
-6.0920837488
 10
-11.8113117712
 20
-6.055442354
 10
-11.8340897405
 20
-6.019358561
 10
-11.8575554669
 20
-5.9838754182
 10
-11.8816637168
 20
-5.9490378718
 10
-11.9063706372
 20
-5.9148928641
 10
-11.9316378976
 20
-5.8814953217
 10
-11.9574285482
 20
-5.8489021671
 10
-11.9837112087
 20
-5.8171673542
 10
-12.010476778
 20
-5.7863329632
 10
-12.0377217243
 20
-5.7564381056
 10
-12.065439245
 20
-5.7275141141
 10
-12.0936094536
 20
-5.6995612068
 10
-12.1222091923
 20
-5.6725718224
 10
-12.1512073588
 20
-5.6465391434
 10
-12.1805410717
 20
-5.6214593249
 10
-12.2101395046
 20
-5.597329265
 10
-12.2399339995
 20
-5.5741482529
 10
-12.2698645707
 20
-5.551925141
 10
-12.2998734004
 20
-5.5306711723
 10
-12.3299104214
 20
-5.5104088156
 10
-12.3599565675
 20
-5.4912054421
 10
-12.3900005228
 20
-5.4731396486
 10
-12.4200321838
 20
-5.4562667113
 10
-12.4500462976
 20
-5.4405486235
 10
-12.4800388239
 20
-5.4259240578
 10
-12.5099956133
 20
-5.4123502461
 10
-12.5398620809
 20
-5.3998586566
 10
-12.5695735327
 20
-5.3884993168
 10
-12.5990630875
 20
-5.3783294174
 10
-12.6282551146
 20
-5.3694348015
 10
-12.6570717956
 20
-5.3619084752
 10
-12.6854444745
 20
-5.3558340804
 10
-12.7133411423
 20
-5.3512578023
 10
-12.7407389525
 20
-5.3482164616
 10
-12.7676182513
 20
-5.34673553
 10
-12.7939721582
 20
-5.346795084
 10
-12.8197969857
 20
-5.3483638508
 10
-12.8450833272
 20
-5.3514130632
 10
-12.8697988981
 20
-5.3559239759
 10
-12.8939056946
 20
-5.3618803488
 10
-12.9173645001
 20
-5.3692687875
 10
-12.9401312476
 20
-5.3780872797
 10
-12.9621606573
 20
-5.3883366586
 10
-12.9834118343
 20
-5.4000167118
 10
-13.0038614236
 20
-5.4131230442
 10
-13.0234904554
 20
-5.4276502154
 10
-13.0422799596
 20
-5.4435927847
 10
-13.0602109663
 20
-5.4609453115
 10
-13.0772645054
 20
-5.4797023553
 10
-13.0934213229
 20
-5.4998484827
 10
-13.1086610285
 20
-5.5213282903
 10
-13.1229629475
 20
-5.5440763817
 10
-13.1363064056
 20
-5.5680273607
 10
-13.1486707283
 20
-5.5931158311
 10
-13.160035241
 20
-5.6192763966
 10
-13.1703837692
 20
-5.6464497222
 10
-13.1797181376
 20
-5.6746007171
 10
-13.1880446711
 20
-5.703700352
 10
-13.1953685806
 20
-5.733707778
 10
-13.2016906234
 20
-5.764534869
 10
-13.2070104427
 20
-5.7960816792
 10
-13.2113341826
 20
-5.8282615501
 10
-13.2146939882
 20
-5.8610409711
 10
-13.2171285051
 20
-5.8943997185
 10
-13.2186647234
 20
-5.9283368093
 10
-13.2192830101
 20
-5.962928223
 10
-13.2189520768
 20
-5.9982691799
  0
LINE
  5
23B
100
AcDbEntity
  8
ASSI
100
AcDbLine
 62
7
  6
CONTINUOUS
 10
-11.9435273804
 20
26.7203144702
 11
-11.9223306488
 21
26.1040907563
  0
LWPOLYLINE
  5
23C
100
AcDbEntity
  8
CURVE
100
AcDbPolyline
 62
253
  6
CONTINUOUS
 90
3
 70
0
 10
-10.8455251215
 20
-8.5263337742
 10
-10.879132583
 20
-7.121258031
 10
-10.8992765668
 20
-6.1766071218
  0
LWPOLYLINE
  5
23D
100
AcDbEntity
  8
CURVE
100
AcDbPolyline
 62
253
  6
CONTINUOUS
 90
91
 70
0
 10
-11.296427352
 20
-7.1083803522
 10
-11.2962638476
 20
-7.1517361361
 10
-11.2971483533
 20
-7.1941532204
 10
-11.2991088969
 20
-7.2357448002
 10
-11.3021789732
 20
-7.2765952404
 10
-11.3064139448
 20
-7.3166735842
 10
-11.3118746413
 20
-7.3559200441
 10
-11.3186142126
 20
-7.3942651964
 10
-11.3266550907
 20
-7.4316010713
 10
-11.3360120276
 20
-7.4678100626
 10
-11.3466968753
 20
-7.5027891441
 10
-11.3587098845
 20
-7.5364936094
 10
-11.3720484054
 20
-7.5688933322
 10
-11.3867044414
 20
-7.5999531389
 10
-11.4026486069
 20
-7.6296176664
 10
-11.4198461696
 20
-7.6578265043
 10
-11.4382623967
 20
-7.6845192423
 10
-11.4578625558
 20
-7.70963547
 10
-11.4786119144
 20
-7.733114777
 10
-11.5004777531
 20
-7.7549047702
 10
-11.5234354051
 20
-7.774985125
 10
-11.5474622169
 20
-7.7933435343
 10
-11.572535535
 20
-7.8099676907
 10
-11.5986327059
 20
-7.8248452871
 10
-11.6257310759
 20
-7.837964016
 10
-11.6538017579
 20
-7.849314733
 10
-11.68279093
 20
-7.8589009437
 10
-11.7126385369
 20
-7.8667293166
 10
-11.7432845229
 20
-7.8728065202
 10
-11.7746688327
 20
-7.8771392228
 10
-11.8067314108
 20
-7.8797340928
 10
-11.8394193884
 20
-7.8805963739
 10
-11.8727086437
 20
-7.8797256096
 10
-11.9065822413
 20
-7.8771199189
 10
-11.9410232462
 20
-7.8727774205
 10
-11.9760147231
 20
-7.8666962333
 10
-12.0115397369
 20
-7.858874476
 10
-12.0475705515
 20
-7.8493250266
 10
-12.0840362275
 20
-7.8381197992
 10
-12.1208550246
 20
-7.8253454668
 10
-12.1579464229
 20
-7.8110849955
 10
-12.1952347848
 20
-7.795406522
 10
-12.2326456929
 20
-7.7783744763
 10
-12.2701162031
 20
-7.7600320953
 10
-12.3076292624
 20
-7.7403378458
 10
-12.3451792908
 20
-7.7192290019
 10
-12.3827593064
 20
-7.6966666011
 10
-12.4203567189
 20
-7.672706735
 10
-12.457957536
 20
-7.6474292585
 10
-12.4955389243
 20
-7.6209018644
 10
-12.5330426856
 20
-7.5931435979
 10
-12.5704017809
 20
-7.5641613421
 10
-12.6075477446
 20
-7.5339623323
 10
-12.6444064069
 20
-7.5025552124
 10
-12.6809021717
 20
-7.4699489786
 10
-12.7169689828
 20
-7.4361547273
 10
-12.7525789427
 20
-7.4011919555
 10
-12.7877136939
 20
-7.3650822602
 10
-12.8223548789
 20
-7.3278472386
 10
-12.85648414
 20
-7.2895084879
 10
-12.8900831197
 20
-7.2500876051
 10
-12.923124973
 20
-7.2096148641
 10
-12.9555489055
 20
-7.168155245
 10
-12.9872856353
 20
-7.1257824048
 10
-13.0182658805
 20
-7.0825700005
 10
-13.0484203593
 20
-7.0385916888
 10
-13.0776797898
 20
-6.9939211267
 10
-13.1059837861
 20
-6.9486262723
 10
-13.1333075456
 20
-6.9027522888
 10
-13.159635162
 20
-6.8563386405
 10
-13.1849507287
 20
-6.8094247918
 10
-13.2092383391
 20
-6.7620502071
 10
-13.2324820868
 20
-6.7142543507
 10
-13.2546627812
 20
-6.6660864663
 10
-13.2757480962
 20
-6.6176349139
 10
-13.2957024217
 20
-6.5689978329
 10
-13.31448699
 20
-6.5202733802
 10
-13.3320504027
 20
-6.4715597819
 10
-13.3483381038
 20
-6.4229552816
 10
-13.3633061222
 20
-6.3745469774
 10
-13.3769528261
 20
-6.3263773845
 10
-13.3892871684
 20
-6.2784778729
 10
-13.4003230006
 20
-6.2308881854
 10
-13.4100937692
 20
-6.1836815577
 10
-13.418637819
 20
-6.1369395984
 10
-13.4259932229
 20
-6.0907291127
 10
-13.4321969653
 20
-6.0450576924
 10
-13.4372857584
 20
-5.9999181255
 10
-13.4412786278
 20
-5.955293021
 10
-13.4441238518
 20
-5.9111242709
 10
-13.4457520219
 20
-5.867343588
  0
LINE
  5
23E
100
AcDbEntity
  8
ASSI
100
AcDbLine
 62
253
  6
CONTINUOUS
 10
-12.1236938269
 20
26.3062891898
 11
-12.1236938269
 21
26.2433840449
  0
LWPOLYLINE
  5
23F
100
AcDbEntity
  8
CURVE
100
AcDbPolyline
 62
253
  6
CONTINUOUS
 90
90
 70
0
 10
-11.0265398484
 20
13.994127567
 10
-11.0263346586
 20
14.0384317359
 10
-11.0273760468
 20
14.083195273
 10
-11.0297036259
 20
14.128483865
 10
-11.0333570087
 20
14.1743631989
 10
-11.0383758082
 20
14.2208989614
 10
-11.0436267847
 20
14.2602093248
 10
-11.0498586306
 20
14.2999495667
 10
-11.0570765005
 20
14.3400480967
 10
-11.0652855489
 20
14.3804333242
 10
-11.0744909304
 20
14.4210336586
 10
-11.0846977994
 20
14.4617775095
 10
-11.0959066039
 20
14.50259257
 10
-11.1080989648
 20
14.5434036683
 10
-11.1212517963
 20
14.5841349166
 10
-11.1353420128
 20
14.6247104269
 10
-11.1503465285
 20
14.6650543112
 10
-11.1662422576
 20
14.7050906816
 10
-11.1830093785
 20
14.7447518708
 10
-11.2006411246
 20
14.7840030946
 10
-11.2191339937
 20
14.8228177896
 10
-11.2384798561
 20
14.8611665612
 10
-11.2586520724
 20
14.8990086912
 10
-11.2796193763
 20
14.9363006304
 10
-11.3013493311
 20
14.9729994147
 10
-11.3238048189
 20
15.0090644212
 10
-11.3469475519
 20
15.0444556122
 10
-11.3707393844
 20
15.0791298035
 10
-11.3951427396
 20
15.1130312249
 10
-11.420120183
 20
15.1461009599
 10
-11.4456403975
 20
15.1782831822
 10
-11.471696535
 20
15.2095344279
 10
-11.4982878646
 20
15.2398143238
 10
-11.5254097587
 20
15.2690904924
 10
-11.5530420017
 20
15.2973625407
 10
-11.5811604812
 20
15.3246380715
 10
-11.6097329252
 20
15.3509241071
 10
-11.6386944233
 20
15.3762253466
 10
-11.6679719058
 20
15.4005459085
 10
-11.6974946171
 20
15.4238874027
 10
-11.72720106
 20
15.4462414053
 10
-11.7570320516
 20
15.4675969838
 10
-11.7869369682
 20
15.4879317225
 10
-11.8168994222
 20
15.507177272
 10
-11.8469115853
 20
15.5252537996
 10
-11.8769657328
 20
15.5421053739
 10
-11.9070545552
 20
15.5577716696
 10
-11.9371708466
 20
15.5723162625
 10
-11.967297978
 20
15.5857837627
 10
-11.9973816265
 20
15.5981429155
 10
-12.0273580459
 20
15.6093435002
 10
-12.0571615608
 20
15.6193279883
 10
-12.0867187795
 20
15.62800962
 10
-12.115954381
 20
15.6352943277
 10
-12.1448019278
 20
15.6410973422
 10
-12.1732305159
 20
15.6453710878
 10
-12.2012181247
 20
15.6480772875
 10
-12.2287455441
 20
15.64918937
 10
-12.2558048057
 20
15.6487275879
 10
-12.2823907511
 20
15.6467238999
 10
-12.3084924353
 20
15.6432078137
 10
-12.3340757639
 20
15.638199034
 10
-12.3591008559
 20
15.6317148148
 10
-12.3835266975
 20
15.6237694717
 10
-12.4073077462
 20
15.6143655687
 10
-12.4303973272
 20
15.6035027316
 10
-12.452753312
 20
15.5911817013
 10
-12.4743517572
 20
15.5774076795
 10
-12.4951732661
 20
15.5621869831
 10
-12.5151984416
 20
15.545525929
 10
-12.5344078869
 20
15.5274308341
 10
-12.5527822051
 20
15.5079080152
 10
-12.5703011793
 20
15.4869739471
 10
-12.5869413135
 20
15.4646857357
 10
-12.6026782917
 20
15.4411106447
 10
-12.6174877979
 20
15.4163159378
 10
-12.6313455163
 20
15.3903688787
 10
-12.6442271308
 20
15.3633367313
 10
-12.6561131481
 20
15.335280427
 10
-12.667003365
 20
15.3062355694
 10
-12.6769024009
 20
15.2762314294
 10
-12.6858133233
 20
15.2453095711
 10
-12.6937329923
 20
15.213560729
 10
-12.7006567162
 20
15.1810879303
 10
-12.7065870312
 20
15.1479803724
 10
-12.711555385
 20
15.114271934
 10
-12.715600453
 20
15.0799826638
 10
-12.7187498607
 20
15.0451130565
 10
-12.720987032
 20
15.0095853896
 10
-12.7222843408
 20
14.9733023864
  0
LWPOLYLINE
  5
240
100
AcDbEntity
  8
ASSI
100
AcDbPolyline
 62
253
  6
CONTINUOUS
 90
23
 70
0
 10
-11.4479675613
 20
-0.0981437595
 10
-11.447673348
 20
-0.0590555124
 10
-11.4461043366
 20
-0.0206117403
 10
-11.4432496626
 20
0.0171263242
 10
-11.4390982479
 20
0.0541154841
 10
-11.4336435173
 20
0.0902756359
 10
-11.4268898366
 20
0.1254947958
 10
-11.4188391942
 20
0.1597178435
 10
-11.4094959165
 20
0.1928893224
 10
-11.398882284
 20
0.2249077989
 10
-11.3870127601
 20
0.2557241503
 10
-11.3739022154
 20
0.2852952425
 10
-11.3595868673
 20
0.3135413658
 10
-11.3440981679
 20
0.3404131321
 10
-11.3274546967
 20
0.3658901451
 10
-11.3096799979
 20
0.3899437645
 10
-11.2908064637
 20
0.4125378183
 10
-11.2708590264
 20
0.4336496794
 10
-11.2498488635
 20
0.4532697028
 10
-11.2278001078
 20
0.4713734109
 10
-11.2047479816
 20
0.4879300193
 10
-11.1807190238
 20
0.5029186287
 10
-11.1730722613
 20
0.5072455747
  0
LWPOLYLINE
  5
241
100
AcDbEntity
  8
ASSI
100
AcDbPolyline
 62
253
  6
CONTINUOUS
 90
27
 70
0
 10
-11.5881412115
 20
-0.0981707563
 10
-11.5878161615
 20
-0.0559988141
 10
-11.5860999083
 20
-0.0146498074
 10
-11.5829924586
 20
0.0258762594
 10
-11.5784940413
 20
0.0656619216
 10
-11.5726044257
 20
0.1046246441
 10
-11.5653229969
 20
0.1425167774
 10
-11.5566353805
 20
0.1793283819
 10
-11.5465560986
 20
0.2150693095
 10
-11.5351280126
 20
0.2495215209
 10
-11.5223387127
 20
0.2826700415
 10
-11.5082008815
 20
0.3145296849
 10
-11.4927951384
 20
0.3449270244
 10
-11.4761213135
 20
0.3738377478
 10
-11.4581799501
 20
0.4012859475
 10
-11.4390528255
 20
0.4271707523
 10
-11.4187426409
 20
0.4514822569
 10
-11.3972471128
 20
0.4742301212
 10
-11.3746405965
 20
0.4953427892
 10
-11.3509159864
 20
0.514821317
 10
-11.3260808207
 20
0.5326643947
 10
-11.3002314636
 20
0.5487968915
 10
-11.2733582186
 20
0.563214023
 10
-11.2454712259
 20
0.5759203135
 10
-11.2166966438
 20
0.5868545726
 10
-11.1870322187
 20
0.5960065863
 10
-11.1564806433
 20
0.6033863113
  0
LWPOLYLINE
  5
242
100
AcDbEntity
  8
CURVE
100
AcDbPolyline
 62
253
  6
CONTINUOUS
 90
90
 70
0
 10
-12.7222843408
 20
14.9733023864
 10
-12.7226176046
 20
14.9365196121
 10
-12.7220043362
 20
14.8994129767
 10
-12.7204759849
 20
14.8619212427
 10
-12.7180524457
 20
14.8239887201
 10
-12.7147073983
 20
14.7855819096
 10
-12.7104029684
 20
14.7466728596
 10
-12.7051074467
 20
14.7072565244
 10
-12.6988137837
 20
14.6674194831
 10
-12.6915210952
 20
14.6272712203
 10
-12.6832289103
 20
14.5869087908
 10
-12.6739384126
 20
14.5463795278
 10
-12.6636511994
 20
14.5057183346
 10
-12.6523715736
 20
14.4649677876
 10
-12.6401146621
 20
14.4242011578
 10
-12.6268982976
 20
14.3834993895
 10
-12.6127403128
 20
14.3429434273
 10
-12.5976585404
 20
14.3026142154
 10
-12.5816708133
 20
14.2625926983
 10
-12.5647952821
 20
14.2229518117
 10
-12.5470513704
 20
14.1837324564
 10
-12.5284588197
 20
14.1449675245
 10
-12.5090373716
 20
14.1066899081
 10
-12.4888067675
 20
14.0689324992
 10
-12.467786749
 20
14.03172819
 10
-12.4460010035
 20
13.9951115892
 10
-12.4234890018
 20
13.9591241718
 10
-12.4002941607
 20
13.9238091296
 10
-12.3764584928
 20
13.8892117732
 10
-12.3520183957
 20
13.8553858888
 10
-12.3270088626
 20
13.8223873814
 10
-12.3014592298
 20
13.7902700024
 10
-12.2753762041
 20
13.7590788891
 10
-12.2487608352
 20
13.7288570251
 10
-12.2216180379
 20
13.6996386321
 10
-12.1939681874
 20
13.6714228842
 10
-12.1658355241
 20
13.6442001938
 10
-12.1372525079
 20
13.6179616027
 10
-12.1082844765
 20
13.592700671
 10
-12.0790049873
 20
13.5684115885
 10
-12.0494850583
 20
13.5450911766
 10
-12.0197855523
 20
13.5227467836
 10
-11.9899647929
 20
13.5013883899
 10
-11.9600727873
 20
13.4810388857
 10
-11.9301262776
 20
13.461772801
 10
-11.9001336894
 20
13.4436775759
 10
-11.8701032486
 20
13.4268147177
 10
-11.8400423817
 20
13.4111420029
 10
-11.8099583158
 20
13.3965912748
 10
-11.7798676324
 20
13.3831136921
 10
-11.7498243325
 20
13.3707376723
 10
-11.7198917717
 20
13.3595109482
 10
-11.6901354949
 20
13.3494894906
 10
-11.6606298029
 20
13.3407622227
 10
-11.6314511857
 20
13.3334263061
 10
-11.6026669802
 20
13.3275693144
 10
-11.5743079096
 20
13.3232404691
 10
-11.5463955441
 20
13.3204794035
 10
-11.5189482887
 20
13.3193130556
 10
-11.4919718879
 20
13.3197175797
 10
-11.4654689211
 20
13.3216564346
 10
-11.4394481144
 20
13.3250962128
 10
-11.4139427812
 20
13.3300160411
 10
-11.3889923819
 20
13.3363981801
 10
-11.3646367801
 20
13.3442291661
 10
-11.3409174534
 20
13.3535126393
 10
-11.3178762829
 20
13.3642565157
 10
-11.2955538654
 20
13.3764667201
 10
-11.2739856605
 20
13.3901412135
 10
-11.2532058436
 20
13.4052759655
 10
-11.233243266
 20
13.4218650229
 10
-11.2141054835
 20
13.4398947399
 10
-11.1957947279
 20
13.4593495474
 10
-11.1783178776
 20
13.4802071535
 10
-11.1617003977
 20
13.5024183728
 10
-11.1459723996
 20
13.525927297
 10
-11.1311639951
 20
13.5506780178
 10
-11.1173052958
 20
13.5766146268
 10
-11.1044264132
 20
13.6036812155
 10
-11.0925516718
 20
13.6318189046
 10
-11.0816822471
 20
13.6609569305
 10
-11.0718135273
 20
13.6910215585
 10
-11.0629409006
 20
13.7219390542
 10
-11.0550597553
 20
13.7536356828
 10
-11.0481654797
 20
13.7860377099
 10
-11.0411827156
 20
13.8257713976
 10
-11.0355715867
 20
13.8664309542
 10
-11.0312892767
 20
13.9080326526
 10
-11.0282929694
 20
13.9505927659
 10
-11.0265398484
 20
13.994127567
  0
LWPOLYLINE
  5
243
100
AcDbEntity
  8
ASSI
100
AcDbPolyline
 62
253
  6
CONTINUOUS
 90
27
 70
0
 10
-11.5881412115
 20
7.2515316753
 10
-11.5871383857
 20
7.2940735007
 10
-11.5847452623
 20
7.3357920536
 10
-11.5809618481
 20
7.3766873296
 10
-11.5757870597
 20
7.4168425621
 10
-11.5692219789
 20
7.4561745178
 10
-11.5612699274
 20
7.4944334542
 10
-11.5519165656
 20
7.5316094221
 10
-11.5411763809
 20
7.567712286
 10
-11.5290960675
 20
7.6025219498
 10
-11.5156633435
 20
7.6360233851
 10
-11.5008907635
 20
7.6682314649
 10
-11.4848623962
 20
7.6989708783
 10
-11.4675784429
 20
7.728217124
 10
-11.4490390756
 20
7.7559944913
 10
-11.4293284066
 20
7.7822008049
 10
-11.4084493118
 20
7.8068260574
 10
-11.3863993328
 20
7.8298800196
 10
-11.3632546351
 20
7.8512901529
 10
-11.3390080352
 20
7.8710575549
 10
-11.3136671491
 20
7.8891808833
 10
-11.2873303849
 20
7.9055839153
 10
-11.2599880344
 20
7.92026188
 10
-11.2316502493
 20
7.9332192975
 10
-11.2024452668
 20
7.9443938592
 10
-11.1723709735
 20
7.9537752813
 10
-11.1414299216
 20
7.9613735997
  0
LWPOLYLINE
  5
244
100
AcDbEntity
  8
ASSI
100
AcDbPolyline
 62
253
  6
CONTINUOUS
 90
23
 70
0
 10
-11.4479675613
 20
7.2500887317
 10
-11.4469955535
 20
7.2895474405
 10
-11.4447496547
 20
7.3283612103
 10
-11.4412190051
 20
7.366468836
 10
-11.436391225
 20
7.4038278645
 10
-11.4302610484
 20
7.4403574982
 10
-11.4228367551
 20
7.4759436291
 10
-11.4141203425
 20
7.5105311611
 10
-11.4041161192
 20
7.5440646695
 10
-11.3928502275
 20
7.5764406195
 10
-11.3803372373
 20
7.6076098576
 10
-11.3665918853
 20
7.637529334
 10
-11.3516538815
 20
7.6661174211
 10
-11.3355550282
 20
7.6933245649
 10
-11.3183135121
 20
7.7191305832
 10
-11.2999552568
 20
7.7435055022
 10
-11.2805128152
 20
7.7664130802
 10
-11.2600109212
 20
7.7878308157
 10
-11.2384626019
 20
7.8077480447
 10
-11.2158918955
 20
7.8261403631
 10
-11.1923340837
 20
7.8429769744
 10
-11.1678177915
 20
7.8582358477
 10
-11.1600741237
 20
7.8626167225
  0
LWPOLYLINE
  5
245
100
AcDbEntity
  8
CURVE
100
AcDbPolyline
 62
253
  6
CONTINUOUS
 90
91
 70
0
 10
-10.799763442
 20
13.8631897121
 10
-10.8016078241
 20
13.8186926381
 10
-10.8044839235
 20
13.7751416417
 10
-10.8084257632
 20
13.7324203481
 10
-10.8134716346
 20
13.6904418251
 10
-10.8196769023
 20
13.6492369115
 10
-10.827101199
 20
13.6088658887
 10
-10.8357958374
 20
13.5693990723
 10
-10.8457788484
 20
13.5309469134
 10
-10.8570599425
 20
13.4936298973
 10
-10.8696466107
 20
13.4575536844
 10
-10.8835374656
 20
13.4227646355
 10
-10.8987289001
 20
13.3892942865
 10
-10.9152114682
 20
13.3571793119
 10
-10.9329523682
 20
13.32647694
 10
-10.9519129594
 20
13.2972495378
 10
-10.9720546011
 20
13.2695594722
 10
-10.9933386526
 20
13.2434691101
 10
-11.0157264732
 20
13.2190408185
 10
-11.0391818705
 20
13.1963287089
 10
-11.063678445
 20
13.1753538717
 10
-11.0891922452
 20
13.1561291418
 10
-11.11569932
 20
13.1386673541
 10
-11.143175718
 20
13.1229813438
 10
-11.1715974879
 20
13.1090839457
 10
-11.2009344863
 20
13.0969849177
 10
-11.2311318017
 20
13.0866817098
 10
-11.2621283305
 20
13.0781686947
 10
-11.293862969
 20
13.0714402451
 10
-11.3262746136
 20
13.0664907339
 10
-11.3593021606
 20
13.0633145339
 10
-11.3928917686
 20
13.0619072996
 10
-11.4270186444
 20
13.0622698119
 10
-11.4616652573
 20
13.0644041338
 10
-11.4968140763
 20
13.0683123279
 10
-11.5324475704
 20
13.073996457
 10
-11.5685482087
 20
13.081458584
 10
-11.6050880762
 20
13.0906859309
 10
-11.6419977212
 20
13.1016063578
 10
-11.6791973077
 20
13.1141328842
 10
-11.7166080644
 20
13.1281821565
 10
-11.7541554774
 20
13.1436853292
 10
-11.791766097
 20
13.1605771834
 10
-11.82937726
 20
13.1788140376
 10
-11.8669694479
 20
13.198438359
 10
-11.9045339283
 20
13.2195141515
 10
-11.9420616418
 20
13.2420810388
 10
-11.9795422208
 20
13.2660811224
 10
-12.0169649705
 20
13.2914321232
 10
-12.0543095912
 20
13.3180644505
 10
-12.0915173619
 20
13.3459592666
 10
-12.1285199567
 20
13.3751104225
 10
-12.1652475097
 20
13.4055114557
 10
-12.2016239962
 20
13.4371546507
 10
-12.2375718515
 20
13.4700319789
 10
-12.2730235327
 20
13.5041332458
 10
-12.307951583
 20
13.539439593
 10
-12.3423385675
 20
13.5759299965
 10
-12.376167051
 20
13.6135834321
 10
-12.4094195986
 20
13.6523788759
 10
-12.4420787751
 20
13.6922953036
 10
-12.4741188154
 20
13.7333029034
 10
-12.5054806336
 20
13.7753367127
 10
-12.5360968137
 20
13.818322981
 10
-12.5658999397
 20
13.8621879578
 10
-12.5948225957
 20
13.9068578928
 10
-12.6227973655
 20
13.9522590356
 10
-12.6497659504
 20
13.9983232008
 10
-12.6757065198
 20
14.0450044635
 10
-12.7006063603
 20
14.092262464
 10
-12.7244527584
 20
14.1400568423
 10
-12.7472330009
 20
14.1883472389
 10
-12.7689343741
 20
14.2370932937
 10
-12.7895389005
 20
14.2862446445
 10
-12.8090075449
 20
14.3357109184
 10
-12.8272960082
 20
14.38539174
 10
-12.8443603726
 20
14.4351864555
 10
-12.8601582484
 20
14.4849932975
 10
-12.8746476272
 20
14.5347102202
 10
-12.8877948128
 20
14.5842467647
 10
-12.8995993567
 20
14.6335588195
 10
-12.9100691222
 20
14.68261386
 10
-12.9192176813
 20
14.7313702578
 10
-12.9270814416
 20
14.7797499708
 10
-12.933702519
 20
14.8276658531
 10
-12.9391224403
 20
14.8750466529
 10
-12.943380374
 20
14.9218846943
 10
-12.9465148993
 20
14.9681881957
 10
-12.9485459456
 20
15.0139760384
 10
-12.9494188445
 20
15.0593097581
 10
-12.9490602783
 20
15.1042615535
  0
LINE
  5
246
100
AcDbEntity
  8
ASSI
100
AcDbLine
 62
7
  6
CONTINUOUS
 10
-4.0239314311
 20
22.1476390249
 11
-4.2040978776
 21
21.7336137445
  0
LWPOLYLINE
  5
247
100
AcDbEntity
  8
RACCORDO
100
AcDbPolyline
 62
253
  6
CONTINUOUS
 90
38
 70
0
 10
-9.8765278586
 20
5.7931111171
 10
-9.8253859796
 20
5.842457137
 10
-9.7826001956
 20
5.9009977699
 10
-9.7482510116
 20
5.9675376181
 10
-9.7227294924
 20
6.039311392
 10
-9.7055175568
 20
6.1140266721
 10
-9.6956428455
 20
6.1908426451
 10
-9.692329829
 20
6.2689401134
 10
-9.694875585
 20
6.3472401639
 10
-9.7025619323
 20
6.4248278447
 10
-9.7147755926
 20
6.5014506135
 10
-9.7309172633
 20
6.5764972801
 10
-9.7503871865
 20
6.6493851904
 10
-9.772763966
 20
6.7201116082
 10
-9.7975743583
 20
6.7883449295
 10
-9.8243451039
 20
6.8537596308
 10
-9.8528025369
 20
6.916474071
 10
-9.8825818713
 20
6.9763219238
 10
-9.9133288519
 20
7.0331588019
 10
-9.9448956332
 20
7.087188683
 10
-9.9770260847
 20
7.1383721994
 10
-10.0094519674
 20
7.1866485999
 10
-10.0420853767
 20
7.2322085467
 10
-10.0747353926
 20
7.2750650984
 10
-10.1072137046
 20
7.3152326758
 10
-10.1394890402
 20
7.352905323
 10
-10.1714291549
 20
7.388134345
 10
-10.2028993749
 20
7.4209660094
 10
-10.2339012978
 20
7.4515780434
 10
-10.2643470315
 20
7.480041416
 10
-10.2941410285
 20
7.5064176034
 10
-10.3232977865
 20
7.5308580399
 10
-10.3517468492
 20
7.5534307086
 10
-10.3794360382
 20
7.5742162014
 10
-10.4064238702
 20
7.5933687956
 10
-10.4327047971
 20
7.6109824005
 10
-10.4582069322
 20
7.6271034601
 10
-10.4828998033
 20
7.6418061936
  0
LWPOLYLINE
  5
248
100
AcDbEntity
  8
RACCORDO
100
AcDbPolyline
 62
7
  6
CONTINUOUS
 90
21
 70
0
 10
-11.0247229797
 20
7.8095806613
 10
-11.0899302248
 20
7.7619679757
 10
-11.1478070007
 20
7.702393981
 10
-11.1972984915
 20
7.6312840484
 10
-11.2376700214
 20
7.5487348075
 10
-11.2678744671
 20
7.4556730432
 10
-11.2870435999
 20
7.3542459582
 10
-11.2950472947
 20
7.2456203616
 10
-11.2918437208
 20
7.1307021566
 10
-11.2776167342
 20
7.0119216247
 10
-11.2528799451
 20
6.8911378941
 10
-11.2180595773
 20
6.7692548527
 10
-11.1736816051
 20
6.6476288138
 10
-11.1203906136
 20
6.5277184301
 10
-11.0588546808
 20
6.4108315199
 10
-10.9897375594
 20
6.2981610773
 10
-10.9138249821
 20
6.1910064398
 10
-10.8319860248
 20
6.0906495908
 10
-10.7450295494
 20
5.9981910748
 10
-10.6538253683
 20
5.9147327835
 10
-10.5593589436
 20
5.8413938103
  0
LINE
  5
249
100
AcDbEntity
  8
DRAFT
100
AcDbLine
 62
7
  6
CONTINUOUS
 10
-10.86510778
 20
7.9063474378
 11
-11.0247230709
 21
7.809580606
  0
LINE
  5
24A
100
AcDbEntity
  8
ASSI
100
AcDbLine
 62
7
  6
CONTINUOUS
 10
-11.1600741237
 20
7.8626167225
 11
-11.1589997463
 21
7.8632087058
  0
LWPOLYLINE
  5
24B
100
AcDbEntity
  8
ASSI
100
AcDbPolyline
 62
7
  6
CONTINUOUS
 90
28
 70
0
 10
-11.1600810174
 20
7.8626127797
 10
-11.1176935674
 20
7.8828033752
 10
-11.0579876327
 20
7.9016599196
 10
-10.9936420296
 20
7.9117726059
 10
-10.9248435396
 20
7.9129329813
 10
-10.851894012
 20
7.9048906915
 10
-10.7756953554
 20
7.8875356792
 10
-10.6976222266
 20
7.8611528347
 10
-10.6189243175
 20
7.8263342383
 10
-10.5399752603
 20
7.7834421514
 10
-10.4607732268
 20
7.7325239689
 10
-10.381874304
 20
7.6738791002
 10
-10.304081193
 20
7.6080648119
 10
-10.2276517111
 20
7.5352346243
 10
-10.1530607749
 20
7.4556971367
 10
-10.0811157817
 20
7.3701791614
 10
-10.0125182935
 20
7.279439881
 10
-9.9478317684
 20
7.1841805199
 10
-9.887575823
 20
7.0851322984
 10
-9.8322927888
 20
6.9831825302
 10
-9.7824104715
 20
6.8791533335
 10
-9.7382931377
 20
6.7738561624
 10
-9.700287085
 20
6.668207221
 10
-9.6686419776
 20
6.5630472728
 10
-9.6435478929
 20
6.4592109975
 10
-9.6251491624
 20
6.3576279285
 10
-9.6134941658
 20
6.2591433494
 10
-9.6085493768
 20
6.1644754364
  0
LINE
  5
24C
100
AcDbEntity
  8
CURVE
100
AcDbLine
 62
253
  6
CONTINUOUS
 10
-9.0149756667
 20
-9.5832700872
 11
-9.2243394405
 21
-9.4623860682
  0
LINE
  5
24D
100
AcDbEntity
  8
CURVE
100
AcDbLine
 62
253
  6
CONTINUOUS
 10
-10.6361862519
 20
-8.6472034138
 11
-10.8455251215
 21
-8.5263337742
  0
LINE
  5
24E
100
AcDbEntity
  8
CURVE
100
AcDbLine
 62
253
  6
CONTINUOUS
 10
-8.0806772514
 20
-9.0271328345
 11
-9.0419138641
 21
-8.4721268614
  0
LINE
  5
24F
100
AcDbEntity
  8
CURVE
100
AcDbLine
 62
253
  6
CONTINUOUS
 10
-9.7018628914
 20
-8.0910805641
 11
-10.6631244492
 21
-7.5360601881
  0
LINE
  5
250
100
AcDbEntity
  8
CURVE
100
AcDbLine
 62
253
  6
CONTINUOUS
 10
-10.6681044015
 20
-7.3173808974
 11
-9.7068428438
 21
-7.8724012735
  0
LINE
  5
251
100
AcDbEntity
  8
CURVE
100
AcDbLine
 62
253
  6
CONTINUOUS
 10
-9.0468938164
 20
-8.2534475708
 11
-8.0856572037
 21
-8.8084535438
  0
LINE
  5
252
100
AcDbEntity
  8
CURVE
100
AcDbLine
 62
253
  6
CONTINUOUS
 10
-8.0302585808
 20
-8.0493945726
 11
-9.0642352661
 21
-7.4523893932
  0
LINE
  5
253
100
AcDbEntity
  8
CURVE
100
AcDbLine
 62
253
  6
CONTINUOUS
 10
-9.6514691659
 20
-7.1133278993
 11
-10.6854458513
 21
-6.5163227199
  0
LWPOLYLINE
  5
254
100
AcDbEntity
  8
ASSI
100
AcDbPolyline
 62
253
  6
CONTINUOUS
 90
3
 70
0
 10
-9.586216833
 20
-1.1269773899
 10
-9.582459979
 20
-1.171484902
 10
-9.5800871835
 20
-1.2152147315
  0
LWPOLYLINE
  5
255
100
AcDbEntity
  8
ASSI
100
AcDbPolyline
 62
253
  6
CONTINUOUS
 90
3
 70
0
 10
-9.5842504206
 20
6.2238717877
 10
-9.5811491468
 20
6.1789829813
 10
-9.5794318222
 20
6.1348709031
  0
LINE
  5
256
100
AcDbEntity
  8
CURVE
100
AcDbLine
 62
253
  6
CONTINUOUS
 10
-10.6631244492
 20
-7.5360601881
 11
-10.6361862526
 21
-8.6472033852
  0
LINE
  5
257
100
AcDbEntity
  8
CURVE
100
AcDbLine
 62
253
  6
CONTINUOUS
 10
-9.0419138641
 20
-8.4721268614
 11
-9.0149756675
 21
-9.5832700585
  0
LWPOLYLINE
  5
258
100
AcDbEntity
  8
CURVE
100
AcDbPolyline
 62
253
  6
CONTINUOUS
 90
3
 70
0
 10
-9.2243394405
 20
-9.4623860682
 10
-9.257946902
 20
-8.057310325
 10
-9.2780908858
 20
-7.1126594158
  0
LINE
  5
259
100
AcDbEntity
  8
ASSI
100
AcDbLine
 62
253
  6
CONTINUOUS
 10
-9.5800871835
 20
-1.2152147315
 11
-9.5790984395
 21
-1.2581668736
  0
LINE
  5
25A
100
AcDbEntity
  8
CURVE
100
AcDbLine
 62
253
  6
CONTINUOUS
 10
-9.7068428438
 20
-7.8724012735
 11
-9.7018628914
 21
-8.0910805671
  0
LINE
  5
25B
100
AcDbEntity
  8
CURVE
100
AcDbLine
 62
253
  6
CONTINUOUS
 10
-10.6854458513
 20
-6.5163227199
 11
-10.6681044022
 21
-7.3173808697
  0
LINE
  5
25C
100
AcDbEntity
  8
CURVE
100
AcDbLine
 62
253
  6
CONTINUOUS
 10
-9.0642352661
 20
-7.4523893932
 11
-9.046893817
 21
-8.253447543
  0
LINE
  5
25D
100
AcDbEntity
  8
CURVE
100
AcDbLine
 62
253
  6
CONTINUOUS
 10
-9.6559610108
 20
-6.8944819945
 11
-9.6514691662
 21
-7.1133278891
  0
LINE
  5
25E
100
AcDbEntity
  8
ASSI
100
AcDbLine
 62
7
  6
CONTINUOUS
 10
-9.6090195638
 20
-1.1860633116
 11
-9.6083883113
 21
-1.2173192535
  0
LINE
  5
25F
100
AcDbEntity
  8
ASSI
100
AcDbLine
 62
253
  6
CONTINUOUS
 10
-9.5794318222
 20
6.1348709031
 11
-9.5790984395
 21
6.091535558
  0
LINE
  5
260
100
AcDbEntity
  8
ASSI
100
AcDbLine
 62
7
  6
CONTINUOUS
 10
-9.6085493768
 20
6.1644754364
 11
-9.6083875399
 21
6.1324412295
  0
LINE
  5
261
100
AcDbEntity
  8
ASSI
100
AcDbLine
 62
253
  6
CONTINUOUS
 10
-9.5790984395
 20
-1.2581668736
 11
-9.5794310538
 21
-1.3003217273
  0
LWPOLYLINE
  5
262
100
AcDbEntity
  8
CURVE
100
AcDbPolyline
 62
253
  6
CONTINUOUS
 90
3
 70
0
 10
-10.4025656642
 20
12.4142282512
 10
-10.3719054537
 20
13.8564999809
 10
-10.3489086267
 20
14.8259712023
  0
LINE
  5
263
100
AcDbEntity
  8
ASSI
100
AcDbLine
 62
7
  6
CONTINUOUS
 10
-9.6083875994
 20
-1.2174039006
 11
-9.6099368308
 21
-1.2879382821
  0
LINE
  5
264
100
AcDbEntity
  8
CURVE
100
AcDbLine
 62
253
  6
CONTINUOUS
 10
-10.1480563632
 20
14.3576728932
 11
-10.1932515314
 21
12.2933729669
  0
LINE
  5
265
100
AcDbEntity
  8
ASSI
100
AcDbLine
 62
253
  6
CONTINUOUS
 10
-9.5790984395
 20
6.091535558
 11
-9.58008608
 21
6.0489810444
  0
LWPOLYLINE
  5
266
100
AcDbEntity
  8
CURVE
100
AcDbPolyline
 62
253
  6
CONTINUOUS
 90
3
 70
0
 10
-8.6425110037
 20
13.8407185586
 10
-8.6760620123
 20
12.3968645822
 10
-8.696168041
 20
11.4289756076
  0
LINE
  5
267
100
AcDbEntity
  8
CURVE
100
AcDbLine
 62
253
  6
CONTINUOUS
 10
-8.8981076925
 20
11.9169531409
 11
-8.8518507472
 21
13.9615886782
  0
LINE
  5
268
100
AcDbEntity
  8
ASSI
100
AcDbLine
 62
7
  6
CONTINUOUS
 10
-9.6083880696
 20
6.1323632915
 11
-9.61105568
 21
6.0609313193
  0
LWPOLYLINE
  5
269
100
AcDbEntity
  8
ASSI
100
AcDbPolyline
 62
253
  6
CONTINUOUS
 90
16
 70
0
 10
-9.5794310538
 20
-1.3003217273
 10
-9.5811466117
 20
-1.3416490623
 10
-9.58424512
 20
-1.3821488822
 10
-9.5887263196
 20
-1.4219036453
 10
-9.5945904679
 20
-1.4608308914
 10
-9.6018384141
 20
-1.4986832862
 10
-9.6104846723
 20
-1.5354509813
 10
-9.6205148763
 20
-1.5711439113
 10
-9.6318866871
 20
-1.6055444946
 10
-9.6446127935
 20
-1.6386379377
 10
-9.6586807795
 20
-1.6704391938
 10
-9.6740107672
 20
-1.7007753715
 10
-9.6906033605
 20
-1.7296224346
 10
-9.7084583288
 20
-1.7570046385
 10
-9.7274946314
 20
-1.7828215814
 10
-9.7477100207
 20
-1.8070636186
  0
LWPOLYLINE
  5
26A
100
AcDbEntity
  8
ASSI
100
AcDbPolyline
 62
253
  6
CONTINUOUS
 90
16
 70
0
 10
-9.58008608
 20
6.0489810444
 10
-9.5824568003
 20
6.0072541566
 10
-9.5862106071
 20
5.9663548913
 10
-9.5913485205
 20
5.926199992
 10
-9.5978695186
 20
5.8868727172
 10
-9.6057706123
 20
5.8486227972
 10
-9.6150663012
 20
5.8114600993
 10
-9.6257422335
 20
5.7753746732
 10
-9.6377522748
 20
5.7405864481
 10
-9.6511090015
 20
5.7071103023
 10
-9.6658001101
 20
5.6749312035
 10
-9.6817422651
 20
5.6442241464
 10
-9.698935688
 20
5.6150134137
 10
-9.7173805308
 20
5.5872745113
 10
-9.7369934417
 20
5.5611092196
 10
-9.7577719958
 20
5.5365272843
  0
LWPOLYLINE
  5
26B
100
AcDbEntity
  8
ASSI
100
AcDbPolyline
 62
7
  6
CONTINUOUS
 90
10
 70
0
 10
-9.6099368308
 20
-1.2879382821
 10
-9.6174588824
 20
-1.3695790904
 10
-9.630989653
 20
-1.4456087389
 10
-9.6502707581
 20
-1.5154926881
 10
-9.6749665969
 20
-1.578725201
 10
-9.7046557488
 20
-1.6348811111
 10
-9.738777722
 20
-1.6835831345
 10
-9.7770053307
 20
-1.7249650236
 10
-9.8194617916
 20
-1.7594392616
 10
-9.8395653339
 20
-1.7724802795
  0
LWPOLYLINE
  5
26C
100
AcDbEntity
  8
ASSI
100
AcDbPolyline
 62
7
  6
CONTINUOUS
 90
10
 70
0
 10
-9.61105568
 20
6.0609313193
 10
-9.6199579524
 20
5.9782109566
 10
-9.6348855881
 20
5.9010736484
 10
-9.6555830765
 20
5.8300678643
 10
-9.6817192342
 20
5.7657119771
 10
-9.7128805333
 20
5.7084442831
 10
-9.7485229014
 20
5.6586530266
 10
-9.7883169219
 20
5.6162555817
 10
-9.8323438985
 20
5.5809076005
 10
-9.8519834106
 20
5.5682235628
  0
LWPOLYLINE
  5
26D
100
AcDbEntity
  8
ASSI
100
AcDbPolyline
 62
253
  6
CONTINUOUS
 90
69
 70
0
 10
-9.7577719958
 20
5.5365272843
 10
-9.7797190356
 20
5.5135187228
 10
-9.8027591653
 20
5.4921556919
 10
-9.8268999977
 20
5.4724368425
 10
-9.8521343527
 20
5.4543632779
 10
-9.8783646881
 20
5.438010809
 10
-9.9056011653
 20
5.4233839518
 10
-9.9338340667
 20
5.4104779379
 10
-9.9629360711
 20
5.3993546293
 10
-9.9929097793
 20
5.3900240395
 10
-10.0237530296
 20
5.3824759051
 10
-10.0553313843
 20
5.3767416566
 10
-10.0876453496
 20
5.372829365
 10
-10.1206948259
 20
5.370730728
 10
-10.1543444765
 20
5.3704526101
 10
-10.1885969816
 20
5.3720018183
 10
-10.2234500126
 20
5.3753713454
 10
-10.2587607181
 20
5.3805473351
 10
-10.2945326679
 20
5.3875373699
 10
-10.3307625723
 20
5.3963337078
 10
-10.3672972795
 20
5.4068995121
 10
-10.4041380796
 20
5.4192423476
 10
-10.4412838776
 20
5.4333545384
 10
-10.4785779247
 20
5.4491763972
 10
-10.5160203424
 20
5.4667148539
 10
-10.5536111093
 20
5.4859629215
 10
-10.5911932387
 20
5.5068400502
 10
-10.6287666912
 20
5.5293529532
 10
-10.6663315061
 20
5.5534949173
 10
-10.7037307902
 20
5.5791652668
 10
-10.7409643603
 20
5.6063708623
 10
-10.7780322995
 20
5.6351049002
 10
-10.8147780903
 20
5.665246222
 10
-10.8512004221
 20
5.6968011258
 10
-10.8873004104
 20
5.7297634247
 10
-10.9229251581
 20
5.7639932431
 10
-10.9580710659
 20
5.7994943712
 10
-10.9927414531
 20
5.8362631784
 10
-11.0267937896
 20
5.8741486646
 10
-11.0602252573
 20
5.9131548115
 10
-11.0930383229
 20
5.9532778377
 10
-11.1250983817
 20
5.9943550997
 10
-11.1564048022
 20
6.0363943823
 10
-11.1869578093
 20
6.0793881321
 10
-11.216624094
 20
6.1231506928
 10
-11.2454011326
 20
6.1676897514
 10
-11.2732910095
 20
6.2129978708
 10
-11.3001673539
 20
6.2588666934
 10
-11.3260201768
 20
6.3052899441
 10
-11.3508590232
 20
6.3522741504
 10
-11.3745868635
 20
6.3996301353
 10
-11.3971958961
 20
6.4473479454
 10
-11.4186934902
 20
6.4954377797
 10
-11.4390054158
 20
6.543740665
 10
-11.4581336893
 20
6.5922686232
 10
-11.4760758774
 20
6.6410098689
 10
-11.4927511294
 20
6.6897696876
 10
-11.5081591635
 20
6.7385723765
 10
-11.5222998876
 20
6.7873938502
 10
-11.5350928229
 20
6.8359667708
 10
-11.5465256207
 20
6.8842926344
 10
-11.5566103552
 20
6.9323701001
 10
-11.5653033007
 20
6.9799275071
 10
-11.5725899398
 20
7.0269586535
 10
-11.5784846403
 20
7.0734698254
 10
-11.5829871371
 20
7.1192080184
 10
-11.5860973672
 20
7.1640888831
 10
-11.5878153944
 20
7.2081967675
 10
-11.5881412115
 20
7.2515316753
  0
LWPOLYLINE
  5
26E
100
AcDbEntity
  8
RACCORDO
100
AcDbPolyline
 62
253
  6
CONTINUOUS
 90
5
 70
0
 10
-9.8179042523
 20
5.7194437764
 10
-9.7593304664
 20
5.7586363595
 10
-9.7041265845
 20
5.8119021442
 10
-9.6579418041
 20
5.8750920685
 10
-9.6291027127
 20
5.9309561729
  0
LINE
  5
26F
100
AcDbEntity
  8
ASSI
100
AcDbLine
 62
7
  6
CONTINUOUS
 10
-9.8512525984
 20
5.5686656486
 11
-9.8519798981
 21
5.5682256677
  0
LWPOLYLINE
  5
270
100
AcDbEntity
  8
ASSI
100
AcDbPolyline
 62
253
  6
CONTINUOUS
 90
65
 70
0
 10
-9.8519798981
 20
5.5682256677
 10
-9.8589274611
 20
5.564116868
 10
-9.8842688148
 20
5.5505069168
 10
-9.9105025327
 20
5.5385195788
 10
-9.937582481
 20
5.5281770642
 10
-9.9654686871
 20
5.5194943637
 10
-9.9941243204
 20
5.5124826438
 10
-10.0235048991
 20
5.5071522757
 10
-10.0535663802
 20
5.5035101053
 10
-10.0842690705
 20
5.5015598007
 10
-10.1155734758
 20
5.5013032374
 10
-10.1474360514
 20
5.5027404954
 10
-10.1798120031
 20
5.5058692762
 10
-10.2126591369
 20
5.510685374
 10
-10.24593307
 20
5.5171825382
 10
-10.2795859246
 20
5.5253516801
 10
-10.3135694312
 20
5.5351810798
 10
-10.3478359255
 20
5.5466569131
 10
-10.3823375843
 20
5.5597631461
 10
-10.4170252229
 20
5.5744809683
 10
-10.4518497511
 20
5.5907893808
 10
-10.486762899
 20
5.6086656445
 10
-10.5217163983
 20
5.6280849607
 10
-10.5566612783
 20
5.649020097
 10
-10.5915485624
 20
5.6714417337
 10
-10.6263299729
 20
5.6953189316
 10
-10.6609572594
 20
5.7206187059
 10
-10.6953813114
 20
5.747305363
 10
-10.7295528748
 20
5.7753408942
 10
-10.7634241777
 20
5.8046861631
 10
-10.7969474983
 20
5.835299922
 10
-10.8300743348
 20
5.8671379976
 10
-10.8627568369
 20
5.9001542162
 10
-10.8949505914
 20
5.934303554
 10
-10.9266130941
 20
5.9695412484
 10
-10.9576994681
 20
6.0058177571
 10
-10.9881662669
 20
6.0430828046
 10
-11.0179739559
 20
6.0812889691
 10
-11.0470827188
 20
6.1203866272
 10
-11.0754486378
 20
6.160318199
 10
-11.1030275282
 20
6.2010224128
 10
-11.1297825715
 20
6.2424457625
 10
-11.1556737123
 20
6.2845269663
 10
-11.1806549544
 20
6.3271905343
 10
-11.2046874825
 20
6.3703678827
 10
-11.2277433306
 20
6.4140062148
 10
-11.2497952967
 20
6.4580523328
 10
-11.2708080616
 20
6.5024343641
 10
-11.2907577332
 20
6.5471003215
 10
-11.3096330915
 20
6.5920271289
 10
-11.3274089827
 20
6.6371627553
 10
-11.3440534737
 20
6.6824342318
 10
-11.3595438566
 20
6.7277870593
 10
-11.3738614879
 20
6.7731799033
 10
-11.3869748401
 20
6.8185265732
 10
-11.3988481624
 20
6.8637053468
 10
-11.4094664907
 20
6.9086569265
 10
-11.4188148845
 20
6.9533143619
 10
-11.426870772
 20
6.9975470409
 10
-11.4336295991
 20
7.0412949074
 10
-11.4390890456
 20
7.0844998784
 10
-11.4432443898
 20
7.127039881
 10
-11.4461020069
 20
7.1688406342
 10
-11.4476728343
 20
7.209873204
 10
-11.4479675613
 20
7.2500887317
  0
LINE
  5
271
100
AcDbEntity
  8
DRAFT
100
AcDbLine
 62
7
  6
CONTINUOUS
 10
-9.6668070831
 20
5.802430638
 11
-9.8179042589
 21
5.7194437728
  0
LINE
  5
272
100
AcDbEntity
  8
CURVE
100
AcDbLine
 62
253
  6
CONTINUOUS
 10
-10.8992765657
 20
-6.1766071755
 11
-9.6559610108
 21
-6.8944819945
  0
LINE
  5
273
100
AcDbEntity
  8
CURVE
100
AcDbLine
 62
253
  6
CONTINUOUS
 10
-9.2780908847
 20
-7.1126594695
 11
-8.0347504256
 21
-7.8305486678
  0
LINE
  5
274
100
AcDbEntity
  8
CURVE
100
AcDbLine
 62
253
  6
CONTINUOUS
 10
-8.0856572037
 20
-8.8084535438
 11
-8.0806772513
 21
-9.0271328375
  0
LINE
  5
275
100
AcDbEntity
  8
CURVE
100
AcDbLine
 62
253
  6
CONTINUOUS
 10
-8.0347504256
 20
-7.8305486678
 11
-8.030258581
 21
-8.0493945624
  0
LWPOLYLINE
  5
276
100
AcDbEntity
  8
RACCORDO
100
AcDbPolyline
 62
7
  6
CONTINUOUS
 90
21
 70
0
 10
-11.0247229797
 20
0.4613481702
 10
-11.0899302248
 20
0.4137354845
 10
-11.1478070007
 20
0.3541614899
 10
-11.1972984915
 20
0.2830515573
 10
-11.2376700214
 20
0.2005023164
 10
-11.2678744671
 20
0.1074405521
 10
-11.2870435999
 20
0.0060134671
 10
-11.2950472947
 20
-0.1026121295
 10
-11.2918437208
 20
-0.2175303345
 10
-11.2776167342
 20
-0.3363108664
 10
-11.2528799451
 20
-0.4570945971
 10
-11.2180595773
 20
-0.5789776385
 10
-11.1736816051
 20
-0.7006036773
 10
-11.1203906136
 20
-0.820514061
 10
-11.0588546808
 20
-0.9374009713
 10
-10.9897375594
 20
-1.0500714138
 10
-10.9138249821
 20
-1.1572260513
 10
-10.8319860248
 20
-1.2575829003
 10
-10.7450295494
 20
-1.3500414163
 10
-10.6538253683
 20
-1.4334997076
 10
-10.5593589436
 20
-1.5068386808
  0
LWPOLYLINE
  5
277
100
AcDbEntity
  8
ASSI
100
AcDbPolyline
 62
253
  6
CONTINUOUS
 90
20
 70
0
 10
12.8642096619
 20
-10.2450238926
 10
12.885579017
 20
-10.2507550986
 10
12.9073883626
 20
-10.255903843
 10
12.9295887142
 20
-10.2604587366
 10
12.9521314858
 20
-10.2644099413
 10
12.9749674837
 20
-10.2677486484
 10
12.9980464486
 20
-10.2704675982
 10
13.0213169463
 20
-10.2725607794
 10
13.0447272376
 20
-10.2740232782
 10
13.0682254704
 20
-10.274851994
 10
13.0917595712
 20
-10.2750451931
 10
13.1152771708
 20
-10.2746021591
 10
13.138726156
 20
-10.2735240509
 10
13.1620545839
 20
-10.2718134013
 10
13.1852105736
 20
-10.2694737067
 10
13.2081425123
 20
-10.2665104031
 10
13.2307999317
 20
-10.2629302084
 10
13.2531333873
 20
-10.2587405743
 10
13.2750940075
 20
-10.2539507948
 10
13.2966324623
 20
-10.24857173
  0
LINE
  5
278
100
AcDbEntity
  8
RACCORDO
100
AcDbLine
 62
7
  6
CONTINUOUS
 10
-10.5593589436
 20
-1.5068386808
 11
-10.4626348773
 21
-1.5690335748
  0
LWPOLYLINE
  5
279
100
AcDbEntity
  8
RACCORDO
100
AcDbPolyline
 62
253
  6
CONTINUOUS
 90
4
 70
0
 10
-10.5593757564
 20
-1.4836950484
 10
-10.5330948164
 20
-1.5013086458
 10
-10.5075926746
 20
-1.5174297015
 10
-10.4828998033
 20
-1.5321324349
  0
LWPOLYLINE
  5
27A
100
AcDbEntity
  8
ASSI
100
AcDbPolyline
 62
253
  6
CONTINUOUS
 90
69
 70
0
 10
-9.7477100207
 20
-1.8070636186
 10
-9.7691071618
 20
-1.8297406404
 10
-9.7916124366
 20
-1.8507815789
 10
-9.8152333658
 20
-1.8701877266
 10
-9.8399628613
 20
-1.8879580456
 10
-9.865705434
 20
-1.9040179989
 10
-9.8924712234
 20
-1.9183630644
 10
-9.9202505336
 20
-1.9309980256
 10
-9.9489181632
 20
-1.9418623264
 10
-9.9784768438
 20
-1.9509460402
 10
-10.0089242827
 20
-1.9582593527
 10
-10.0401277684
 20
-1.9637718922
 10
-10.0720879222
 20
-1.9674756683
 10
-10.104804529
 20
-1.9693789113
 10
-10.1381436333
 20
-1.9694755867
 10
-10.1721079909
 20
-1.9677589475
 10
-10.2066951972
 20
-1.9642359481
 10
-10.2417635541
 20
-1.9589211059
 10
-10.2773167091
 20
-1.9518069036
 10
-10.3133512947
 20
-1.9429010238
 10
-10.3497150792
 20
-1.9322407779
 10
-10.3864094551
 20
-1.9198186778
 10
-10.4234332249
 20
-1.9056423268
 10
-10.4606302536
 20
-1.889771662
 10
-10.4980007661
 20
-1.8721998299
 10
-10.5355446375
 20
-1.8529337431
 10
-10.5731051856
 20
-1.8320539749
 10
-10.6106824754
 20
-1.8095538843
 10
-10.648276442
 20
-1.7854401122
 10
-10.6857301832
 20
-1.7598131404
 10
-10.7230436271
 20
-1.7326661776
 10
-10.7602167458
 20
-1.7040059561
 10
-10.7970926792
 20
-1.6739532281
 10
-10.8336702297
 20
-1.6425017626
 10
-10.8699504001
 20
-1.6096576756
 10
-10.9057796123
 20
-1.5755602297
 10
-10.941154366
 20
-1.5402056822
 10
-10.9760778817
 20
-1.5035976106
 10
-11.0104066515
 20
-1.4658862508
 10
-11.0441379503
 20
-1.4270676631
 10
-11.0772741522
 20
-1.3871455799
 10
-11.1096793963
 20
-1.3462817436
 10
-11.1413531833
 20
-1.3044684302
 10
-11.1722956065
 20
-1.2617131241
 10
-11.2023717049
 20
-1.2182003861
 10
-11.2315790976
 20
-1.173922603
 10
-11.2599197265
 20
-1.1288871291
 10
-11.2872651415
 20
-1.0833009931
 10
-11.3136053472
 20
-1.0371704524
 10
-11.3389498952
 20
-0.9904889881
 10
-11.3631996966
 20
-0.943444488
 10
-11.3863468688
 20
-0.8960468303
 10
-11.4083988621
 20
-0.8482858823
 10
-11.4292796302
 20
-0.8003195416
 10
-11.4489913528
 20
-0.7521358726
 10
-11.4675314334
 20
-0.7037465656
 10
-11.4848167149
 20
-0.6553449887
 10
-11.5008472849
 20
-0.6069070879
 10
-11.5156226822
 20
-0.5584566978
 10
-11.5290590131
 20
-0.5102590703
 10
-11.5411440673
 20
-0.4623127873
 10
-11.5518897808
 20
-0.4146191062
 10
-11.5612485983
 20
-0.3674473628
 10
-11.569206045
 20
-0.320803768
 10
-11.5757764461
 20
-0.2746820238
 10
-11.5809555784
 20
-0.2293327809
 10
-11.5847420598
 20
-0.1848396047
 10
-11.5871372733
 20
-0.1411189311
 10
-11.5881412115
 20
-0.0981707563
  0
LWPOLYLINE
  5
27B
100
AcDbEntity
  8
RACCORDO
100
AcDbPolyline
 62
253
  6
CONTINUOUS
 90
38
 70
0
 10
-9.8765278586
 20
-1.555121374
 10
-9.8253859796
 20
-1.5057753541
 10
-9.7826001956
 20
-1.4472347212
 10
-9.7482510116
 20
-1.380694873
 10
-9.7227294924
 20
-1.3089210991
 10
-9.7055175568
 20
-1.234205819
 10
-9.6956428455
 20
-1.157389846
 10
-9.692329829
 20
-1.0792923777
 10
-9.694875585
 20
-1.0009923273
 10
-9.7025619323
 20
-0.9234046464
 10
-9.7147755926
 20
-0.8467818777
 10
-9.7309172633
 20
-0.771735211
 10
-9.7503871865
 20
-0.6988473007
 10
-9.772763966
 20
-0.628120883
 10
-9.7975743583
 20
-0.5598875617
 10
-9.8243451039
 20
-0.4944728604
 10
-9.8528025369
 20
-0.4317584201
 10
-9.8825818713
 20
-0.3719105674
 10
-9.9133288519
 20
-0.3150736893
 10
-9.9448956332
 20
-0.2610438081
 10
-9.9770260847
 20
-0.2098602918
 10
-10.0094519674
 20
-0.1615838913
 10
-10.0420853767
 20
-0.1160239444
 10
-10.0747353926
 20
-0.0731673927
 10
-10.1072137046
 20
-0.0329998154
 10
-10.1394890402
 20
0.0046728319
 10
-10.1714291549
 20
0.0399018539
 10
-10.2028993749
 20
0.0727335182
 10
-10.2339012978
 20
0.1033455523
 10
-10.2643470315
 20
0.1318089248
 10
-10.2941410285
 20
0.1581851122
 10
-10.3232977865
 20
0.1826255488
 10
-10.3517468492
 20
0.2051982174
 10
-10.3794360382
 20
0.2259837102
 10
-10.4064238702
 20
0.2451363044
 10
-10.4327047971
 20
0.2627499094
 10
-10.4582069322
 20
0.2788709689
 10
-10.4828998033
 20
0.2935737025
  0
LINE
  5
27C
100
AcDbEntity
  8
DRAFT
100
AcDbLine
 62
7
  6
CONTINUOUS
 10
-10.8812286707
 20
0.5483416505
 11
-11.0247230709
 21
0.4613481149
  0
LINE
  5
27D
100
AcDbEntity
  8
ASSI
100
AcDbLine
 62
7
  6
CONTINUOUS
 10
-11.1730722613
 20
0.5072455747
 11
-11.1721016125
 21
0.5077802972
  0
LWPOLYLINE
  5
27E
100
AcDbEntity
  8
ASSI
100
AcDbPolyline
 62
7
  6
CONTINUOUS
 90
28
 70
0
 10
-11.1730793021
 20
0.5072415496
 10
-11.1253430764
 20
0.5293723182
 10
-11.0662998189
 20
0.5466687967
 10
-11.0024427908
 20
0.5553310292
 10
-10.9340310366
 20
0.5551219732
 10
-10.8613988383
 20
0.5457953126
 10
-10.7854713788
 20
0.5272640695
 10
-10.707690739
 20
0.4998650509
 10
-10.6293653177
 20
0.4642565478
 10
-10.5508173713
 20
0.420808935
 10
-10.471920655
 20
0.3695064384
 10
-10.3931658708
 20
0.3105931142
 10
-10.3154012168
 20
0.2446465915
 10
-10.2389193849
 20
0.1718475962
 10
-10.1642028244
 20
0.0925195475
 10
-10.0920356805
 20
0.0073685364
 10
-10.0231087153
 20
-0.0828628041
 10
-9.9579808579
 20
-0.1774873062
 10
-9.8971729747
 20
-0.2757832882
 10
-9.8412302146
 20
-0.376875615
 10
-9.7905801567
 20
-0.4799625747
 10
-9.7455949526
 20
-0.584240378
 10
-9.7066356402
 20
-0.6887842409
 10
-9.6739550041
 20
-0.7927689337
 10
-9.6477478577
 20
-0.8953738933
 10
-9.6281698354
 20
-0.9956581057
 10
-9.6152719697
 20
-1.0927847075
 10
-9.6090195638
 20
-1.1860633116
  0
LWPOLYLINE
  5
27F
100
AcDbEntity
  8
RACCORDO
100
AcDbPolyline
 62
253
  6
CONTINUOUS
 90
8
 70
0
 10
-10.3968407057
 20
-1.5764005304
 10
-10.3118064841
 20
-1.6092915076
 10
-10.228807994
 20
-1.6304152276
 10
-10.1488482926
 20
-1.639520042
 10
-10.0728595796
 20
-1.6365052384
 10
-10.001700391
 20
-1.6213971677
 10
-9.9358332928
 20
-1.5941482061
 10
-9.8765278586
 20
-1.555121374
  0
LWPOLYLINE
  5
280
100
AcDbEntity
  8
RACCORDO
100
AcDbPolyline
 62
7
  6
CONTINUOUS
 90
9
 70
0
 10
-10.3831056298
 20
-1.6107042586
 10
-10.3043069664
 20
-1.6435844595
 10
-10.2267142818
 20
-1.6676056723
 10
-10.1505952499
 20
-1.68275656
 10
-10.0766148771
 20
-1.6889548947
 10
-10.0058445301
 20
-1.6862876098
 10
-9.9389397958
 20
-1.6751037463
 10
-9.8761490149
 20
-1.6557857141
 10
-9.8179041847
 20
-1.6287886776
  0
LINE
  5
281
100
AcDbEntity
  8
RACCORDO
100
AcDbLine
 62
253
  6
CONTINUOUS
 10
-10.4828998033
 20
-1.5321324349
 11
-10.3968407057
 21
-1.5764005304
  0
LINE
  5
282
100
AcDbEntity
  8
RACCORDO
100
AcDbLine
 62
253
  6
CONTINUOUS
 10
-10.4828998033
 20
0.2935737025
 11
-10.5689582068
 21
0.3378421987
  0
LINE
  5
283
100
AcDbEntity
  8
RACCORDO
100
AcDbLine
 62
7
  6
CONTINUOUS
 10
-10.4626348773
 20
-1.5690335748
 11
-10.3831056298
 21
-1.6107042586
  0
LINE
  5
284
100
AcDbEntity
  8
ASSI
100
AcDbLine
 62
253
  6
CONTINUOUS
 10
-10.5536997866
 20
0.4552200695
 11
-10.5161089443
 21
0.4310931333
  0
LWPOLYLINE
  5
285
100
AcDbEntity
  8
ASSI
100
AcDbPolyline
 62
253
  6
CONTINUOUS
 90
38
 70
0
 10
-10.5161089443
 20
0.4310931333
 10
-10.478666343
 20
0.4054477947
 10
-10.4413720089
 20
0.3782772835
 10
-10.4042258159
 20
0.3495884284
 10
-10.367384463
 20
0.319502283
 10
-10.3308490069
 20
0.2880126957
 10
-10.2946181959
 20
0.2551259322
 10
-10.2588452469
 20
0.2209816833
 10
-10.2235334321
 20
0.1855763479
 10
-10.1886791994
 20
0.1489136908
 10
-10.1544255179
 20
0.1111444586
 10
-10.1207748081
 20
0.0722648994
 10
-10.0877242982
 20
0.0322789706
 10
-10.0554091673
 20
-0.0086510161
 10
-10.023829563
 20
-0.0505325656
 10
-9.9929849314
 20
-0.0933579351
 10
-9.9630094106
 20
-0.1369419468
 10
-9.9339049915
 20
-0.18129198
 10
-9.9056692441
 20
-0.2264003981
 10
-9.8784297019
 20
-0.2720595148
 10
-9.8521959274
 20
-0.3182628089
 10
-9.8269579142
 20
-0.3650165413
 10
-9.8028138828
 20
-0.4121322227
 10
-9.7797712794
 20
-0.4595996944
 10
-9.7578222253
 20
-0.5074288614
 10
-9.737041997
 20
-0.5554613546
 10
-9.7174280292
 20
-0.6037088789
 10
-9.6989824701
 20
-0.6521594846
 10
-9.6817877204
 20
-0.7006193518
 10
-9.6658433677
 20
-0.7491123771
 10
-9.6511494506
 20
-0.7976144441
 10
-9.6377891324
 20
-0.8458597649
 10
-9.6257743715
 20
-0.8938496103
 10
-9.615092935
 20
-0.9415825477
 10
-9.6057918176
 20
-0.9887888038
 10
-9.5978853572
 20
-1.0354620733
 10
-9.5913590663
 20
-1.0816085727
 10
-9.586216833
 20
-1.1269773899
  0
LINE
  5
286
100
AcDbEntity
  8
ASSI
100
AcDbLine
 62
7
  6
CONTINUOUS
 10
-4.0239314311
 20
22.1476390249
 11
-4.0027346995
 21
21.5314153111
  0
LINE
  5
287
100
AcDbEntity
  8
ASSI
100
AcDbLine
 62
253
  6
CONTINUOUS
 10
-4.2040978776
 20
21.7336137445
 11
-4.2040978776
 21
21.6707085997
  0
LINE
  5
288
100
AcDbEntity
  8
ASSI
100
AcDbLine
 62
7
  6
CONTINUOUS
 10
3.9663751963
 20
17.5341361203
 11
3.7862087498
 21
17.1201108399
  0
LWPOLYLINE
  5
289
100
AcDbEntity
  8
RACCORDO
100
AcDbPolyline
 62
253
  6
CONTINUOUS
 90
5
 70
0
 10
-9.8179042523
 20
-1.6287887147
 10
-9.7593304664
 20
-1.5895961316
 10
-9.7041265845
 20
-1.536330347
 10
-9.6579418041
 20
-1.4731404226
 10
-9.6242873827
 20
-1.4079485591
  0
LINE
  5
28A
100
AcDbEntity
  8
ASSI
100
AcDbLine
 62
7
  6
CONTINUOUS
 10
-9.8387814884
 20
-1.7720062273
 11
-9.8395617272
 21
-1.7724781164
  0
LWPOLYLINE
  5
28B
100
AcDbEntity
  8
ASSI
100
AcDbPolyline
 62
253
  6
CONTINUOUS
 90
65
 70
0
 10
-9.8395617272
 20
-1.7724781164
 10
-9.8462732462
 20
-1.776444956
 10
-9.8711440372
 20
-1.7897729677
 10
-9.8969242885
 20
-1.8014891254
 10
-9.9235699343
 20
-1.8115724878
 10
-9.9510411655
 20
-1.8200081732
 10
-9.9793010449
 20
-1.8267849567
 10
-10.008306756
 20
-1.8318934943
 10
-10.0380144094
 20
-1.8353270376
 10
-10.0683842261
 20
-1.8370818633
 10
-10.0993780216
 20
-1.8371569028
 10
-10.1309523715
 20
-1.8355521433
 10
-10.1630624406
 20
-1.8322698441
 10
-10.1956671063
 20
-1.8273148618
 10
-10.2287221135
 20
-1.820693508
 10
-10.2621795472
 20
-1.8124148203
 10
-10.2959919655
 20
-1.8024910009
 10
-10.3301118601
 20
-1.7909359337
 10
-10.3644913525
 20
-1.7777655787
 10
-10.3990817715
 20
-1.7629990252
 10
-10.4338341855
 20
-1.7466573198
 10
-10.4687002731
 20
-1.7287631152
 10
-10.5036319657
 20
-1.709341284
 10
-10.5385804515
 20
-1.6884190913
 10
-10.5734967044
 20
-1.6660257609
 10
-10.6083323335
 20
-1.6421921086
 10
-10.643039251
 20
-1.6169511411
 10
-10.6775682908
 20
-1.5903384452
 10
-10.7118697566
 20
-1.5623917099
 10
-10.745896036
 20
-1.5331500864
 10
-10.7795993484
 20
-1.502654706
 10
-10.8129304194
 20
-1.4709492276
 10
-10.845841538
 20
-1.4380798179
 10
-10.8782882421
 20
-1.4040913934
 10
-10.9102269691
 20
-1.3690280572
 10
-10.9416129695
 20
-1.3329393396
 10
-10.9724027487
 20
-1.2958754083
 10
-11.0025554461
 20
-1.2578828893
 10
-11.0320314068
 20
-1.2190114153
 10
-11.0607866193
 20
-1.1793184364
 10
-11.0887751881
 20
-1.1388642299
 10
-11.1159604617
 20
-1.0977023278
 10
-11.1423022744
 20
-1.0558938701
 10
-11.1677525006
 20
-1.0135131127
 10
-11.1922723378
 20
-0.9706285781
 10
-11.2158338519
 20
-0.9272930157
 10
-11.2384077396
 20
-0.8835584237
 10
-11.2599586185
 20
-0.8394965581
 10
-11.2804626948
 20
-0.7951594208
 10
-11.2999068928
 20
-0.7505690956
 10
-11.3182662454
 20
-0.7057776576
 10
-11.3355086698
 20
-0.6608579325
 10
-11.3516091082
 20
-0.6158631558
 10
-11.3665493079
 20
-0.5708348629
 10
-11.380297393
 20
-0.5258589462
 10
-11.3928141546
 20
-0.4810551289
 10
-11.4040847733
 20
-0.4364827547
 10
-11.4140941917
 20
-0.3922086424
 10
-11.4228159789
 20
-0.348361159
 10
-11.4302456046
 20
-0.3050003416
 10
-11.4363807341
 20
-0.2621842251
 10
-11.441212716
 20
-0.2200326179
 10
-11.4447466117
 20
-0.178619037
 10
-11.4469946651
 20
-0.1379731387
 10
-11.4479675613
 20
-0.0981437595
  0
LINE
  5
28C
100
AcDbEntity
  8
DRAFT
100
AcDbLine
 62
7
  6
CONTINUOUS
 10
-9.6608250019
 20
-1.542516324
 11
-9.8179042589
 21
-1.6287887184
  0
LWPOLYLINE
  5
28D
100
AcDbEntity
  8
RACCORDO
100
AcDbPolyline
 62
253
  6
CONTINUOUS
 90
42
 70
0
 10
-10.5689582068
 20
0.3378421987
 10
-10.6539920333
 20
0.370733404
 10
-10.7369904276
 20
0.3918571793
 10
-10.8169504901
 20
0.4009617853
 10
-10.8929398634
 20
0.3979466004
 10
-10.9640995383
 20
0.382838249
 10
-11.0299667153
 20
0.3555892418
 10
-11.0892720542
 20
0.3165624648
 10
-11.1404138907
 20
0.2672164695
 10
-11.1831997921
 20
0.2086757688
 10
-11.2175491461
 20
0.1421358224
 10
-11.2430707919
 20
0.0703619753
 10
-11.2602827645
 20
-0.004353326
 10
-11.2701574693
 20
-0.0811692953
 10
-11.2734704801
 20
-0.1592667603
 10
-11.27092474
 20
-0.2375668199
 10
-11.2632384093
 20
-0.3151545104
 10
-11.2510247476
 20
-0.3917772783
 10
-11.2348830446
 20
-0.4668239263
 10
-11.2154130711
 20
-0.5397118076
 10
-11.1930362433
 20
-0.6104381974
 10
-11.1682258123
 20
-0.6786714964
 10
-11.1414550301
 20
-0.7440861766
 10
-11.1129975592
 20
-0.806800595
 10
-11.0832181829
 20
-0.8666484235
 10
-11.052471159
 20
-0.9234852766
 10
-11.0209043379
 20
-0.9775151347
 10
-10.9887738519
 20
-1.0286986312
 10
-10.9563479382
 20
-1.0769750137
 10
-10.9237144994
 20
-1.1225349436
 10
-10.8910644552
 20
-1.165391479
 10
-10.8585861166
 20
-1.205559041
 10
-10.8263107557
 20
-1.2432316735
 10
-10.7943706154
 20
-1.2784606808
 10
-10.762900371
 20
-1.3112923311
 10
-10.7318984291
 20
-1.3419043542
 10
-10.7014526867
 20
-1.3703677217
 10
-10.6716586861
 20
-1.396743907
 10
-10.6425019184
 20
-1.421184338
 10
-10.6140528316
 20
-1.4437569927
 10
-10.5863636123
 20
-1.464542468
 10
-10.5593757564
 20
-1.4836950484
  0
LWPOLYLINE
  5
28E
100
AcDbEntity
  8
ASSI
100
AcDbPolyline
 62
7
  6
CONTINUOUS
 90
13
 70
0
 10
12.7721804756
 20
-10.2814752861
 10
12.8154707846
 20
-10.3037498959
 10
12.8654551416
 20
-10.3237079851
 10
12.9174896583
 20
-10.3391597927
 10
12.9712382108
 20
-10.3502754969
 10
13.026243838
 20
-10.3571050916
 10
13.0817344288
 20
-10.3596435582
 10
13.1372537272
 20
-10.357912045
 10
13.1923463751
 20
-10.3518831217
 10
13.2462414791
 20
-10.3415506421
 10
13.2984833664
 20
-10.3268580737
 10
13.3487395215
 20
-10.3076298811
 10
13.3888949366
 20
-10.2878915496
  0
LWPOLYLINE
  5
28F
100
AcDbEntity
  8
ASSI
100
AcDbPolyline
 62
253
  6
CONTINUOUS
 90
8
 70
0
 10
12.7307945589
 20
-10.1898294089
 10
12.7478221155
 20
-10.1992117798
 10
12.7655949875
 20
-10.2081259795
 10
12.7840737747
 20
-10.2165522926
 10
12.8032172191
 20
-10.2244720207
 10
12.8229831673
 20
-10.2318677635
 10
12.8433287558
 20
-10.2387233757
 10
12.8642096619
 20
-10.2450238926
  0
LINE
  5
290
100
AcDbEntity
  8
ASSI
100
AcDbLine
 62
253
  6
CONTINUOUS
 10
12.730794557
 20
-10.7725832711
 11
-18.0166013821
 21
6.9805777888
  0
LINE
  5
291
100
AcDbEntity
  8
ASSI
100
AcDbLine
 62
253
  6
CONTINUOUS
 10
12.8709905856
 20
-10.5282416442
 11
-17.8764230056
 21
7.2249296077
  0
LINE
  5
292
100
AcDbEntity
  8
ASSI
100
AcDbLine
 62
7
  6
CONTINUOUS
 10
-17.97519372
 20
7.4716727972
 11
12.7722198717
 21
-10.2814984551
  0
LINE
  5
293
100
AcDbEntity
  8
ASSI
100
AcDbLine
 62
253
  6
CONTINUOUS
 10
-18.0166013822
 20
7.5633316457
 11
12.730794557
 21
-10.1898294142
  0
LWPOLYLINE
  5
294
100
AcDbEntity
  8
ASSI
100
AcDbPolyline
 62
253
  6
CONTINUOUS
 90
18
 70
0
 10
-18.0166013803
 20
6.9805777856
 10
-18.0328465194
 20
6.9904119146
 10
-18.0482722502
 20
7.0006813241
 10
-18.0628444318
 20
7.0113632623
 10
-18.0765306144
 20
7.022433945
 10
-18.0893007444
 20
7.0338689856
 10
-18.1011270888
 20
7.0456435026
 10
-18.1119836944
 20
7.0577319249
 10
-18.1218460079
 20
7.0701071525
 10
-18.1306916403
 20
7.0827409825
 10
-18.1385008453
 20
7.0956051437
 10
-18.1452566516
 20
7.1086715444
 10
-18.1509443264
 20
7.1219114783
 10
-18.1555512817
 20
7.135295935
 10
-18.1590671807
 20
7.1487951739
 10
-18.1614841738
 20
7.1623789399
 10
-18.1627968881
 20
7.1760172961
 10
-18.1630570112
 20
7.1851354366
  0
LWPOLYLINE
  5
295
100
AcDbEntity
  8
ASSI
100
AcDbPolyline
 62
253
  6
CONTINUOUS
 90
21
 70
0
 10
-17.8764230056
 20
7.2249296077
 10
-17.8861955275
 20
7.2308499117
 10
-17.8954392987
 20
7.2370061379
 10
-17.9041543191
 20
7.2433982863
 10
-17.9123580873
 20
7.2500418335
 10
-17.9200331047
 20
7.2569213029
 10
-17.9271268761
 20
7.2639902645
 10
-17.9336350975
 20
7.2712497706
 10
-17.9395620729
 20
7.2786987688
 10
-17.9448682191
 20
7.2862876728
 10
-17.9495492727
 20
7.2940172444
 10
-17.9536094972
 20
7.3018867217
 10
-17.9570220991
 20
7.3098442327
 10
-17.9597828555
 20
7.3178904765
 10
-17.9618959893
 20
7.326024754
 10
-17.9633473757
 20
7.3341930955
 10
-17.964132577
 20
7.3423957623
 10
-17.9642560311
 20
7.3506324931
 10
-17.9637169267
 20
7.3588485337
 10
-17.9625108269
 20
7.3670436991
 10
-17.9606421687
 20
7.3752181743
  0
LWPOLYLINE
  5
296
100
AcDbEntity
  8
ASSI
100
AcDbPolyline
 62
253
  6
CONTINUOUS
 90
31
 70
0
 10
13.7356127984
 20
6.4565750166
 10
13.7165481754
 20
6.4473519344
 10
13.6966036642
 20
6.4387102146
 10
13.6758327247
 20
6.4306730207
 10
13.6542910316
 20
6.4232618958
 10
13.6320363259
 20
6.4164967048
 10
13.6091282597
 20
6.4103955813
 10
13.5856282362
 20
6.4049748789
 10
13.5615992455
 20
6.4002491273
 10
13.5371056954
 20
6.3962309937
 10
13.5122132391
 20
6.3929312482
 10
13.4869885989
 20
6.3903587357
 10
13.4614993875
 20
6.3885203515
 10
13.4358139268
 20
6.3874210233
 10
13.4100010647
 20
6.3870636978
 10
13.3841299906
 20
6.3874493326
 10
13.35827005
 20
6.3885768943
 10
13.3324905585
 20
6.3904433603
 10
13.306860616
 20
6.3930437279
 10
13.2814489216
 20
6.3963710269
 10
13.2563235895
 20
6.4004163388
 10
13.2315519662
 20
6.4051688203
 10
13.2072004501
 20
6.4106157329
 10
13.1833343136
 20
6.4167424764
 10
13.1600175282
 20
6.4235326288
 10
13.1373125925
 20
6.4309679893
 10
13.1152803656
 20
6.4390286282
 10
13.093979903
 20
6.4476929394
 10
13.0734682991
 20
6.4569376991
 10
13.0538005337
 20
6.4667381272
 10
13.0350293247
 20
6.4770679546
  0
LWPOLYLINE
  5
297
100
AcDbEntity
  8
RACCORDO
100
AcDbPolyline
 62
253
  6
CONTINUOUS
 90
6
 70
0
 10
-10.7680296153
 20
0.5211200316
 10
-10.7744488469
 20
0.5218511207
 10
-10.8564749092
 20
0.518600681
 10
-10.933287813
 20
0.5022953819
 10
-11.0043870456
 20
0.4728824722
 10
-11.024723043
 20
0.4613481318
  0
LINE
  5
298
100
AcDbEntity
  8
RACCORDO
100
AcDbLine
 62
7
  6
CONTINUOUS
 10
-10.5593589436
 20
5.8413938103
 11
-10.4626348773
 21
5.7791989163
  0
LWPOLYLINE
  5
299
100
AcDbEntity
  8
RACCORDO
100
AcDbPolyline
 62
253
  6
CONTINUOUS
 90
4
 70
0
 10
-10.5593757564
 20
5.8645374427
 10
-10.5330948164
 20
5.8469238453
 10
-10.5075926746
 20
5.8308027896
 10
-10.4828998033
 20
5.8161000562
  0
LWPOLYLINE
  5
29A
100
AcDbEntity
  8
ASSI
100
AcDbPolyline
 62
253
  6
CONTINUOUS
 90
43
 70
0
 10
14.0509761245
 20
8.2228294409
 10
14.013327578
 20
8.1985825389
 10
13.9757958973
 20
8.172891042
 10
13.9384269816
 20
8.1457870144
 10
13.9012660684
 20
8.1173046134
 10
13.8643590705
 20
8.0874790131
 10
13.8277525242
 20
8.0563463403
 10
13.7914909465
 20
8.0239451166
 10
13.7556189633
 20
7.990315921
 10
13.7201826273
 20
7.9555003641
 10
13.6852255632
 20
7.9195421085
 10
13.6507902089
 20
7.8824856977
 10
13.6169199442
 20
7.8443762226
 10
13.583656176
 20
7.8052610557
 10
13.5510395945
 20
7.7651889226
 10
13.5191114058
 20
7.7242087755
 10
13.4879106123
 20
7.6823714503
 10
13.4574754217
 20
7.639729081
 10
13.4278445067
 20
7.596334153
 10
13.3990541938
 20
7.5522406869
 10
13.3711395756
 20
7.5075034007
 10
13.3441359246
 20
7.4621771189
 10
13.318076298
 20
7.4163181235
 10
13.2929925132
 20
7.3699833854
 10
13.2689162622
 20
7.3232297325
 10
13.2458769788
 20
7.2761150738
 10
13.2239028439
 20
7.2286980139
 10
13.2030217591
 20
7.1810370816
 10
13.1832593354
 20
7.1331915047
 10
13.1646396188
 20
7.0852205465
 10
13.1471861065
 20
7.0371831175
 10
13.1309202005
 20
6.989138818
 10
13.1158617064
 20
6.9411471827
 10
13.102029582
 20
6.8932670218
 10
13.089440712
 20
6.8455572742
 10
13.0781105639
 20
6.7980774749
 10
13.0680536505
 20
6.7508869863
 10
13.0592823205
 20
6.7040444964
 10
13.0518071275
 20
6.657607759
 10
13.0456374713
 20
6.6116340553
 10
13.0407809479
 20
6.5661802146
 10
13.0372433385
 20
6.5213025435
 10
13.0350289156
 20
6.4770565539
  0
LWPOLYLINE
  5
29B
100
AcDbEntity
  8
ASSI
100
AcDbPolyline
 62
253
  6
CONTINUOUS
 90
43
 70
0
 10
14.4168004578
 20
7.6181633569
 10
14.3915126877
 20
7.6020492676
 10
14.3663627802
 20
7.5850151623
 10
14.3413507351
 20
7.567061041
 10
14.3164454174
 20
7.5481621156
 10
14.2916779621
 20
7.5283431741
 10
14.2671417752
 20
7.5076785812
 10
14.2428381233
 20
7.4861653993
 10
14.2187657397
 20
7.463806566
 10
14.1950142298
 20
7.4406852582
 10
14.1715849769
 20
7.4167988043
 10
14.1484765978
 20
7.392149876
 10
14.125774548
 20
7.3668296659
 10
14.1034803029
 20
7.340835669
 10
14.0815923871
 20
7.3141703902
 10
14.0601918306
 20
7.286932537
 10
14.0392803834
 20
7.2591198998
 10
14.0188562954
 20
7.2307346881
 10
13.9989953456
 20
7.2018822371
 10
13.9796996792
 20
7.1725608837
 10
13.9609671511
 20
7.1427722911
 10
13.9428671048
 20
7.112626784
 10
13.9254018889
 20
7.0821230519
 10
13.9085691549
 20
7.0512624053
 10
13.8924312007
 20
7.0201591007
 10
13.876990573
 20
6.9888121706
 10
13.8622447252
 20
6.9572225825
 10
13.8482483144
 20
6.9255074946
 10
13.8350041591
 20
6.8936665222
 10
13.8225094408
 20
6.86170005
 10
13.8108103627
 20
6.8297263903
 10
13.7999098711
 20
6.797745558
 10
13.7898050196
 20
6.7657575381
 10
13.7805331715
 20
6.7338805986
 10
13.7720973776
 20
6.7021149098
 10
13.7644945871
 20
6.6704603014
 10
13.7577530117
 20
6.6390345298
 10
13.7518758592
 20
6.607837809
 10
13.7468599218
 20
6.576869925
 10
13.7427237882
 20
6.5462479923
 10
13.7394736545
 20
6.5160110491
 10
13.7371033246
 20
6.4861200572
 10
13.7356127984
 20
6.4565750166
  0
LINE
  5
29C
100
AcDbEntity
  8
ASSI
100
AcDbLine
 62
253
  6
CONTINUOUS
 10
16.9716642384
 20
10.0250452219
 11
14.0509761733
 21
8.2228294128
  0
LINE
  5
29D
100
AcDbEntity
  8
ASSI
100
AcDbLine
 62
253
  6
CONTINUOUS
 10
17.3562910331
 20
9.4319812887
 11
14.4168004578
 21
7.6181633569
  0
LWPOLYLINE
  5
29E
100
AcDbEntity
  8
ASSI
100
AcDbPolyline
 62
253
  6
CONTINUOUS
 90
18
 70
0
 10
-11.1564806433
 20
0.6033863113
 10
-11.1251755222
 20
0.6089627981
 10
-11.0931166768
 20
0.6127277866
 10
-11.0603046922
 20
0.6146892989
 10
-11.0268743294
 20
0.6148408028
 10
-10.9928232131
 20
0.6131753152
 10
-10.9581540701
 20
0.6096996135
 10
-10.9230093137
 20
0.6044278069
 10
-10.8873856072
 20
0.5973521782
 10
-10.8512865672
 20
0.5884802808
 10
-10.814865026
 20
0.577849136
 10
-10.7781198297
 20
0.5654510999
 10
-10.7410523272
 20
0.5512937023
 10
-10.7038190855
 20
0.5354367354
 10
-10.666420026
 20
0.5178732441
 10
-10.6288553276
 20
0.4986101249
 10
-10.5912819195
 20
0.4777279606
 10
-10.5536997866
 20
0.4552200695
  0
LWPOLYLINE
  5
29F
100
AcDbEntity
  8
RACCORDO
100
AcDbPolyline
 62
253
  6
CONTINUOUS
 90
8
 70
0
 10
-10.3968407057
 20
5.7718319608
 10
-10.3118064841
 20
5.7389409835
 10
-10.228807994
 20
5.7178172636
 10
-10.1488482926
 20
5.7087124491
 10
-10.0728595796
 20
5.7117272527
 10
-10.001700391
 20
5.7268353235
 10
-9.9358332928
 20
5.7540842851
 10
-9.8765278586
 20
5.7931111171
  0
LWPOLYLINE
  5
2A0
100
AcDbEntity
  8
RACCORDO
100
AcDbPolyline
 62
7
  6
CONTINUOUS
 90
9
 70
0
 10
-10.3831056298
 20
5.7375282325
 10
-10.3043069664
 20
5.7046480316
 10
-10.2267142818
 20
5.6806268188
 10
-10.1505952499
 20
5.6654759312
 10
-10.0766148771
 20
5.6592775965
 10
-10.0058445301
 20
5.6619448814
 10
-9.9389397958
 20
5.6731287448
 10
-9.8761490149
 20
5.692446777
 10
-9.8179041847
 20
5.7194438135
  0
LINE
  5
2A1
100
AcDbEntity
  8
RACCORDO
100
AcDbLine
 62
253
  6
CONTINUOUS
 10
-10.4828998033
 20
5.8161000562
 11
-10.3968407057
 21
5.7718319608
  0
LINE
  5
2A2
100
AcDbEntity
  8
RACCORDO
100
AcDbLine
 62
253
  6
CONTINUOUS
 10
-10.4828998033
 20
7.6418061936
 11
-10.5689582068
 21
7.6860746899
  0
LINE
  5
2A3
100
AcDbEntity
  8
RACCORDO
100
AcDbLine
 62
7
  6
CONTINUOUS
 10
-10.4626348773
 20
5.7791989163
 11
-10.3831056298
 21
5.7375282325
  0
LINE
  5
2A4
100
AcDbEntity
  8
ASSI
100
AcDbLine
 62
7
  6
CONTINUOUS
 10
17.6694078649
 20
-7.9435712433
 11
17.7570371674
 21
-7.9941673043
  0
LWPOLYLINE
  5
2A5
100
AcDbEntity
  8
ASSI
100
AcDbPolyline
 62
253
  6
CONTINUOUS
 90
3
 70
0
 10
-10.5731938126
 20
7.8375096471
 10
-10.5356332013
 20
7.8149999265
 10
-10.4980891948
 20
7.7908573081
  0
LWPOLYLINE
  5
2A6
100
AcDbEntity
  8
ASSI
100
AcDbPolyline
 62
253
  6
CONTINUOUS
 90
38
 70
0
 10
-10.4980891948
 20
7.7908573081
 10
-10.4607184394
 20
7.7651824213
 10
-10.4235210642
 20
7.737968442
 10
-10.3864968401
 20
7.7092222505
 10
-10.3498018528
 20
7.6790650466
 10
-10.3134372618
 20
7.6474906209
 10
-10.2774017127
 20
7.6145052926
 10
-10.2418475023
 20
7.5802490641
 10
-10.2067779809
 20
7.5447182793
 10
-10.1721895184
 20
7.5079167523
 10
-10.1382239292
 20
7.4699956964
 10
-10.104883709
 20
7.430951305
 10
-10.0721660109
 20
7.3907875829
 10
-10.0402046347
 20
7.3496674628
 10
-10.0089998413
 20
7.3075833584
 10
-9.9785509635
 20
7.2645430853
 10
-9.9489904191
 20
7.2207326729
 10
-9.9203203321
 20
7.1761446562
 10
-9.8925381395
 20
7.1307867482
 10
-9.8657692552
 20
7.0848677306
 10
-9.8400232251
 20
7.0383941204
 10
-9.8152900596
 20
6.9913596514
 10
-9.7916659095
 20
6.9439539081
 10
-9.7691581264
 20
6.8961870752
 10
-9.7477589265
 20
6.8480492125
 10
-9.7275418015
 20
6.7996996925
 10
-9.7085043518
 20
6.7511267068
 10
-9.69064856
 20
6.7023423
 10
-9.6740545454
 20
6.6535415943
 10
-9.6587222762
 20
6.6047005034
 10
-9.6446514104
 20
6.5558433256
 10
-9.6319216884
 20
6.5072377111
 10
-9.6205451924
 20
6.4588823154
 10
-9.6105095657
 20
6.410778639
 10
-9.6018580092
 20
6.363198532
 10
-9.5946048832
 20
6.3161482713
 10
-9.5887356777
 20
6.2696216656
 10
-9.5842504206
 20
6.2238717877
  0
LINE
  5
2A7
100
AcDbEntity
  8
ASSI
100
AcDbLine
 62
7
  6
CONTINUOUS
 10
3.9663751963
 20
17.5341361203
 11
3.9875719279
 21
16.9179124065
  0
LINE
  5
2A8
100
AcDbEntity
  8
ASSI
100
AcDbLine
 62
253
  6
CONTINUOUS
 10
3.7862087498
 20
17.1201108399
 11
3.7862087498
 21
17.0572056951
  0
LWPOLYLINE
  5
2A9
100
AcDbEntity
  8
RACCORDO
100
AcDbPolyline
 62
253
  6
CONTINUOUS
 90
42
 70
0
 10
-10.5689582068
 20
7.6860746899
 10
-10.6539920333
 20
7.7189658952
 10
-10.7369904276
 20
7.7400896705
 10
-10.8169504901
 20
7.7491942764
 10
-10.8929398634
 20
7.7461790916
 10
-10.9640995383
 20
7.7310707401
 10
-11.0299667153
 20
7.703821733
 10
-11.0892720542
 20
7.6647949559
 10
-11.1404138907
 20
7.6154489606
 10
-11.1831997921
 20
7.5569082599
 10
-11.2175491461
 20
7.4903683136
 10
-11.2430707919
 20
7.4185944665
 10
-11.2602827645
 20
7.3438791651
 10
-11.2701574693
 20
7.2670631958
 10
-11.2734704801
 20
7.1889657308
 10
-11.27092474
 20
7.1106656712
 10
-11.2632384093
 20
7.0330779807
 10
-11.2510247476
 20
6.9564552128
 10
-11.2348830446
 20
6.8814085648
 10
-11.2154130711
 20
6.8085206835
 10
-11.1930362433
 20
6.7377942937
 10
-11.1682258123
 20
6.6695609947
 10
-11.1414550301
 20
6.6041463146
 10
-11.1129975592
 20
6.5414318962
 10
-11.0832181829
 20
6.4815840677
 10
-11.052471159
 20
6.4247472145
 10
-11.0209043379
 20
6.3707173564
 10
-10.9887738519
 20
6.3195338599
 10
-10.9563479382
 20
6.2712574774
 10
-10.9237144994
 20
6.2256975476
 10
-10.8910644552
 20
6.1828410121
 10
-10.8585861166
 20
6.1426734502
 10
-10.8263107557
 20
6.1050008176
 10
-10.7943706154
 20
6.0697718104
 10
-10.762900371
 20
6.03694016
 10
-10.7318984291
 20
6.006328137
 10
-10.7014526867
 20
5.9778647695
 10
-10.6716586861
 20
5.9514885841
 10
-10.6425019184
 20
5.9270481532
 10
-10.6140528316
 20
5.9044754984
 10
-10.5863636123
 20
5.8836900231
 10
-10.5593757564
 20
5.8645374427
  0
LINE
  5
2AA
100
AcDbEntity
  8
ASSI
100
AcDbLine
 62
7
  6
CONTINUOUS
 10
11.8859711456
 20
12.961460675
 11
11.7058046991
 21
12.5474353946
  0
LWPOLYLINE
  5
2AB
100
AcDbEntity
  8
RACCORDO
100
AcDbPolyline
 62
253
  6
CONTINUOUS
 90
6
 70
0
 10
-10.6984299555
 20
7.8614257863
 10
-10.7744488469
 20
7.8700836119
 10
-10.8564749092
 20
7.8668331721
 10
-10.933287813
 20
7.850527873
 10
-11.0043870456
 20
7.8211149633
 10
-11.024723043
 20
7.8095806229
  0
LINE
  5
2AC
100
AcDbEntity
  8
CURVE
100
AcDbLine
 62
253
  6
CONTINUOUS
 10
-8.6961680402
 20
11.4289756493
 11
-8.9578427188
 21
11.5800633291
  0
LINE
  5
2AD
100
AcDbEntity
  8
CURVE
100
AcDbLine
 62
253
  6
CONTINUOUS
 10
-10.1932515329
 20
12.2933728951
 11
-10.4025656642
 21
12.4142282512
  0
LINE
  5
2AE
100
AcDbEntity
  8
ASSI
100
AcDbLine
 62
7
  6
CONTINUOUS
 10
15.0054291015
 20
11.1603247473
 11
14.3330387695
 21
11.0305033694
  0
LINE
  5
2AF
100
AcDbEntity
  8
CURVE
100
AcDbLine
 62
253
  6
CONTINUOUS
 10
-10.3489086277
 20
14.8259711605
 11
-10.0872595606
 21
14.6748982684
  0
LINE
  5
2B0
100
AcDbEntity
  8
CURVE
100
AcDbLine
 62
253
  6
CONTINUOUS
 10
-8.8518507466
 20
13.9615887025
 11
-8.6425110037
 21
13.8407185586
  0
LWPOLYLINE
  5
2B1
100
AcDbEntity
  8
ASSI
100
AcDbPolyline
 62
253
  6
CONTINUOUS
 90
17
 70
0
 10
-11.1414299216
 20
7.9613735997
 10
-11.109757373
 20
7.9671569702
 10
-11.0773532821
 20
7.9711170701
 10
-11.0442181007
 20
7.9732619928
 10
-11.010487847
 20
7.973584513
 10
-10.9761602391
 20
7.9720776099
 10
-10.9412379102
 20
7.9687481061
 10
-10.9058642501
 20
7.9636095422
 10
-10.8700360206
 20
7.9566541644
 10
-10.8337567397
 20
7.9478895686
 10
-10.7971799205
 20
7.9373523262
 10
-10.760304522
 20
7.9250347464
 10
-10.72313178
 20
7.9109444101
 10
-10.6858186044
 20
7.8951408071
 10
-10.6483650279
 20
7.877616935
 10
-10.6107711178
 20
7.85837974
 10
-10.5731938126
 20
7.8375096471
  0
LWPOLYLINE
  5
2B2
100
AcDbEntity
  8
ASSI
100
AcDbPolyline
 62
253
  6
CONTINUOUS
 90
43
 70
0
 10
13.7356127984
 20
-27.0871361044
 10
13.7371033246
 20
-27.11501898
 10
13.7394736545
 20
-27.1422666909
 10
13.7427237881
 20
-27.1688792371
 10
13.7468599218
 20
-27.1948887472
 10
13.7518758591
 20
-27.2202630926
 10
13.7577530117
 20
-27.244905888
 10
13.764494587
 20
-27.2688137703
 10
13.7720973775
 20
-27.2919901027
 10
13.7805331715
 20
-27.3143485889
 10
13.7898050195
 20
-27.3358859975
 10
13.799909871
 20
-27.3566055599
 10
13.8108103626
 20
-27.3764306743
 10
13.8225094408
 20
-27.3953580697
 10
13.835004159
 20
-27.413391017
 10
13.8482483144
 20
-27.4304627272
 10
13.8622447251
 20
-27.4465696731
 10
13.8769905729
 20
-27.4617153819
 10
13.8924312006
 20
-27.4758436467
 10
13.9085691548
 20
-27.4889506602
 10
13.9254018888
 20
-27.5010402297
 10
13.9428671047
 20
-27.5120675706
 10
13.960967151
 20
-27.5220287533
 10
13.9796996791
 20
-27.5309277074
 10
13.9989953455
 20
-27.5387314369
 10
14.0188562952
 20
-27.5454358863
 10
14.0392803832
 20
-27.5510451111
 10
14.0601918304
 20
-27.5555382813
 10
14.081592387
 20
-27.5589112356
 10
14.1034803027
 20
-27.5611681353
 10
14.1257745478
 20
-27.5623006336
 10
14.1484765976
 20
-27.5623045805
 10
14.1715849768
 20
-27.561184126
 10
14.1950142296
 20
-27.5589433738
 10
14.2187657395
 20
-27.5555781095
 10
14.2428381231
 20
-27.5510925474
 10
14.267141775
 20
-27.5455034343
 10
14.2916779619
 20
-27.5388064201
 10
14.3164454172
 20
-27.5310058548
 10
14.3413507349
 20
-27.5221315357
 10
14.36636278
 20
-27.5121933952
 10
14.3915126876
 20
-27.5011815008
 10
14.4168004578
 20
-27.4890958526
  0
LWPOLYLINE
  5
2B3
100
AcDbEntity
  8
ASSI
100
AcDbPolyline
 62
253
  6
CONTINUOUS
 90
23
 70
0
 10
13.0350289156
 20
-27.1002095021
 10
13.0372433385
 20
-27.1419574265
 10
13.0407809478
 20
-27.1828439021
 10
13.0456374712
 20
-27.2228183509
 10
13.0518071275
 20
-27.2618313852
 10
13.0592823205
 20
-27.2998347043
 10
13.0680536504
 20
-27.3367811524
 10
13.0781105638
 20
-27.3726252932
 10
13.0894407119
 20
-27.4073225682
 10
13.1020295819
 20
-27.4408292536
 10
13.1158617063
 20
-27.4731037951
 10
13.1309202004
 20
-27.5041066328
 10
13.1471861064
 20
-27.5337993691
 10
13.1646396187
 20
-27.5621454581
 10
13.1832593352
 20
-27.5891098965
 10
13.203021759
 20
-27.6146590756
 10
13.2239028438
 20
-27.6387616117
 10
13.2458769786
 20
-27.6613877406
 10
13.268916262
 20
-27.6825089879
 10
13.2929925131
 20
-27.7020993926
 10
13.3180762978
 20
-27.7201349344
 10
13.3441359244
 20
-27.7365929139
 10
13.3478180885
 20
-27.7387455051
  0
LWPOLYLINE
  5
2B4
100
AcDbEntity
  8
ASSI
100
AcDbPolyline
 62
253
  6
CONTINUOUS
 90
25
 70
0
 10
13.4316846636
 20
-10.7739038854
 10
13.4313051658
 20
-10.7630933229
 10
13.43033248
 20
-10.7519734047
 10
13.4287707707
 20
-10.740591739
 10
13.426626724
 20
-10.7289970544
 10
13.4239095196
 20
-10.7172389918
 10
13.4206307908
 20
-10.7053678917
 10
13.4168045752
 20
-10.6934345783
 10
13.4124472543
 20
-10.681490142
 10
13.4075774833
 20
-10.6695857212
 10
13.4022161116
 20
-10.6577722826
 10
13.3963860931
 20
-10.6461004034
 10
13.3901123884
 20
-10.6346200549
 10
13.3834218574
 20
-10.6233803881
 10
13.3763431446
 20
-10.6124295236
 10
13.3689065566
 20
-10.6018143455
 10
13.3611439319
 20
-10.5915803008
 10
13.353088505
 20
-10.5817712045
 10
13.3447747639
 20
-10.5724290522
 10
13.3362383025
 20
-10.5635938405
 10
13.3275156683
 20
-10.5553033955
 10
13.3186442057
 20
-10.5475932109
 10
13.3096618962
 20
-10.5404962961
 10
13.3006071959
 20
-10.5340430348
 10
13.291518871
 20
-10.5282610553
  0
LINE
  5
2B5
100
AcDbEntity
  8
ASSI
100
AcDbLine
 62
7
  6
CONTINUOUS
 10
11.8859711456
 20
12.961460675
 11
11.9071678772
 21
12.3452369612
  0
LWPOLYLINE
  5
2B6
100
AcDbEntity
  8
ASSI
100
AcDbPolyline
 62
253
  6
CONTINUOUS
 90
13
 70
0
 10
12.7308033831
 20
-10.1898345103
 10
12.7310965293
 20
-10.2002910463
 10
12.7319878615
 20
-10.2103576523
 10
12.7334736017
 20
-10.2199916599
 10
12.7355474523
 20
-10.2291522345
 10
12.738200623
 20
-10.2378005482
 10
12.7414218679
 20
-10.2458999439
 10
12.7451975333
 20
-10.2534160918
 10
12.7495116154
 20
-10.2603171339
 10
12.7543458285
 20
-10.2665738197
 10
12.759679682
 20
-10.2721596298
 10
12.7654905677
 20
-10.2770508883
 10
12.7721803005
 20
-10.2814755891
  0
LWPOLYLINE
  5
2B7
100
AcDbEntity
  8
ASSI
100
AcDbPolyline
 62
253
  6
CONTINUOUS
 90
6
 70
0
 10
13.5376160548
 20
-20.3314563581
 10
13.5690601197
 20
-21.6873662842
 10
13.6045818189
 20
-23.0408907845
 10
13.6441811778
 20
-24.3920246502
 10
13.6878581709
 20
-25.7407730902
 10
13.7356127984
 20
-27.0871361044
  0
LWPOLYLINE
  5
2B8
100
AcDbEntity
  8
ASSI
100
AcDbPolyline
 62
253
  6
CONTINUOUS
 90
7
 70
0
 10
13.4345833657
 20
-12.1463349177
 10
13.441560246
 20
-13.5164117202
 10
13.4526153044
 20
-14.8841342931
 10
13.4677487475
 20
-16.2495078259
 10
13.4869603687
 20
-17.6125271289
 10
13.5102495484
 20
-18.9731766332
 10
13.5376160548
 20
-20.3314563581
  0
LWPOLYLINE
  5
2B9
100
AcDbEntity
  8
ASSI
100
AcDbPolyline
 62
253
  6
CONTINUOUS
 90
13
 70
0
 10
12.730794557
 20
-10.7725832711
 10
12.7337045419
 20
-12.1462041633
 10
12.7406955559
 20
-13.5174982289
 10
12.7517672476
 20
-14.8864500667
 10
12.7669187669
 20
-16.2530335924
 10
12.7861500632
 20
-17.6172442119
 10
12.8094621954
 20
-18.9790986367
 10
12.8368552442
 20
-20.3385821868
 10
12.868328577
 20
-21.6956786627
 10
12.9038826556
 20
-23.0504022127
 10
12.9435176493
 20
-24.4027471359
 10
12.9872331441
 20
-25.7526880598
 10
13.0350289201
 20
-27.1002095047
  0
LINE
  5
2BA
100
AcDbEntity
  8
ASSI
100
AcDbLine
 62
253
  6
CONTINUOUS
 10
13.4316846636
 20
-10.7739038854
 11
13.4345833657
 21
-12.1463349177
  0
LINE
  5
2BB
100
AcDbEntity
  8
ASSI
100
AcDbLine
 62
253
  6
CONTINUOUS
 10
11.7058046991
 20
12.5474353946
 11
11.7058046991
 21
12.4845302498
  0
LWPOLYLINE
  5
2BC
100
AcDbEntity
  8
ASSI
100
AcDbPolyline
 62
253
  6
CONTINUOUS
 90
25
 70
0
 10
12.7308033831
 20
-10.7725883672
 10
12.7310965286
 20
-10.761793325
 10
12.7319878589
 20
-10.7506974428
 10
12.733473596
 20
-10.7393477515
 10
12.7355474426
 20
-10.7277923577
 10
12.7382006083
 20
-10.7160802401
 10
12.7414218476
 20
-10.7042610416
 10
12.7451975069
 20
-10.6923848589
 10
12.7495115826
 20
-10.6805020303
 10
12.7543457893
 20
-10.6686629224
 10
12.7596796367
 20
-10.6569177162
 10
12.7654905167
 20
-10.6453161949
 10
12.7717537994
 20
-10.6339075327
 10
12.7784429373
 20
-10.6227400861
 10
12.785529578
 20
-10.6118611895
 10
12.7929836839
 20
-10.601316954
 10
12.8007736602
 20
-10.5911520724
 10
12.8088664884
 20
-10.5814096294
 10
12.8172278662
 20
-10.5721309194
 10
12.8258223532
 20
-10.5633552709
 10
12.8346135208
 20
-10.5551198804
 10
12.8435641069
 20
-10.5474596543
 10
12.8526361736
 20
-10.5404070613
 10
12.8617912681
 20
-10.5339919943
 10
12.8709905856
 20
-10.5282416442
  0
LWPOLYLINE
  5
2BD
100
AcDbEntity
  8
ASSI
100
AcDbPolyline
 62
253
  6
CONTINUOUS
 90
13
 70
0
 10
13.0350289201
 20
6.4770565513
 10
12.9872331441
 20
5.0762336454
 10
12.9435176493
 20
3.6775415432
 10
12.9038826556
 20
2.2809959785
 10
12.868328577
 20
0.8866228017
 10
12.8368552442
 20
-0.5055724819
 10
12.8094621954
 20
-1.8956045519
 10
12.7861500632
 20
-3.2834572248
 10
12.7669187669
 20
-4.6691151675
 10
12.7517672476
 20
-6.0525940738
 10
12.7406955559
 20
-7.4338885446
 10
12.7337045419
 20
-8.8129722602
 10
12.730794557
 20
-10.1898294142
  0
LINE
  5
2BE
100
AcDbEntity
  8
ASSI
100
AcDbLine
 62
253
  6
CONTINUOUS
 10
-17.7228127597
 20
24.2362488508
 11
13.0350289156
 21
6.4770565539
  0
LWPOLYLINE
  5
2BF
100
AcDbEntity
  8
ASSI
100
AcDbPolyline
 62
253
  6
CONTINUOUS
 90
31
 70
0
 10
14.4168004578
 20
7.6181633569
 10
14.4153405761
 20
7.6392224372
 10
14.4129337929
 20
7.6607924077
 10
14.4095866975
 20
7.6828142152
 10
14.4053084532
 20
7.7052275698
 10
14.4001107727
 20
7.7279711094
 10
14.3940078859
 20
7.7509825682
 10
14.3870165008
 20
7.7741989466
 10
14.3791557582
 20
7.7975566842
 10
14.3704471785
 20
7.8209918334
 10
14.3609146037
 20
7.8444402348
 10
14.3505841314
 20
7.8678376928
 10
14.3394840438
 20
7.891120151
 10
14.32764473
 20
7.9142238679
 10
14.3150986031
 20
7.9370855916
 10
14.3018800111
 20
7.9596427324
 10
14.2880251432
 20
7.9818335347
 10
14.2735719303
 20
8.0035972455
 10
14.2585599417
 20
8.0248742815
 10
14.2430302763
 20
8.0456063914
 10
14.2270254505
 20
8.0657368161
 10
14.2105892813
 20
8.0852104434
 10
14.1937667668
 20
8.1039739596
 10
14.1766039627
 20
8.1219759949
 10
14.1591478565
 20
8.1391672641
 10
14.1414462385
 20
8.1555007021
 10
14.1235475713
 20
8.1709315919
 10
14.1055008569
 20
8.1854176877
 10
14.0873555026
 20
8.1989193301
 10
14.0691611857
 20
8.2113995552
 10
14.0509677178
 20
8.2228241953
  0
LWPOLYLINE
  5
2C0
100
AcDbEntity
  8
ASSI
100
AcDbPolyline
 62
253
  6
CONTINUOUS
 90
8
 70
0
 10
13.5376160548
 20
-0.5199014303
 10
13.5102495484
 20
-1.9086990021
 10
13.4869603687
 20
-3.2953195095
 10
13.4677487475
 20
-4.6797627132
 10
13.4526153044
 20
-6.0620123534
 10
13.441560246
 20
-7.4420630099
 10
13.4345833657
 20
-8.8199201027
 10
13.4316846636
 20
-10.195583632
  0
LWPOLYLINE
  5
2C1
100
AcDbEntity
  8
ASSI
100
AcDbPolyline
 62
253
  6
CONTINUOUS
 90
6
 70
0
 10
13.7356127984
 20
6.4565750166
 10
13.6878581709
 20
5.0569582771
 10
13.6441811778
 20
3.6595032988
 10
13.6045818189
 20
2.2642100818
 10
13.5690601197
 20
0.8710734451
 10
13.5376160548
 20
-0.5199014303
  0
LWPOLYLINE
  5
2C2
100
AcDbEntity
  8
ASSI
100
AcDbPolyline
 62
253
  6
CONTINUOUS
 90
14
 70
0
 10
13.4316846636
 20
-10.195583632
 10
13.4313051667
 20
-10.2061300862
 10
13.4303324832
 20
-10.2162757486
 10
13.4287707773
 20
-10.2259771823
 10
13.4266267353
 20
-10.2351928522
 10
13.4239095364
 20
-10.2438833032
 10
13.420630814
 20
-10.2520113286
 10
13.4168046052
 20
-10.2595421297
 10
13.4124472914
 20
-10.2664434646
 10
13.4075775275
 20
-10.2726857867
 10
13.4022161626
 20
-10.2782423703
 10
13.3963861504
 20
-10.2830894261
 10
13.3901124512
 20
-10.2872062022
 10
13.3888951229
 20
-10.2878918895
  0
LINE
  5
2C3
100
AcDbEntity
  8
ASSI
100
AcDbLine
 62
253
  6
CONTINUOUS
 10
13.4316846636
 20
-10.195583632
 11
17.8984585245
 21
-7.7492527652
  0
LINE
  5
2C4
100
AcDbEntity
  8
ASSI
100
AcDbLine
 62
7
  6
CONTINUOUS
 10
13.3888231773
 20
-10.2879313508
 11
17.855737502
 21
-7.8415235559
  0
LWPOLYLINE
  5
2C5
100
AcDbEntity
  8
ASSI
100
AcDbPolyline
 62
253
  6
CONTINUOUS
 90
34
 70
0
 10
13.291518871
 20
-10.5282610553
 10
13.281100403
 20
-10.5339002733
 10
13.2702907385
 20
-10.539229468
 10
13.2590898774
 20
-10.5442486393
 10
13.2474707909
 20
-10.5489678394
 10
13.2354605078
 20
-10.5533770162
 10
13.2231401149
 20
-10.5574460128
 10
13.2105079238
 20
-10.5611723146
 10
13.1975656227
 20
-10.5645584363
 10
13.1843993635
 20
-10.5675817655
 10
13.1710079454
 20
-10.570239812
 10
13.1573925692
 20
-10.572535066
 10
13.1436429876
 20
-10.5744523857
 10
13.1297581353
 20
-10.5759893069
 10
13.1157390777
 20
-10.5771482937
 10
13.1016787644
 20
-10.5779215974
 10
13.0875768395
 20
-10.5783066353
 10
13.0734336588
 20
-10.5783059901
 10
13.05934324
 20
-10.5779196603
 10
13.0453059936
 20
-10.5771450593
 10
13.031321509
 20
-10.5759847737
 10
13.0174825722
 20
-10.5744465627
 10
13.0037903471
 20
-10.572527961
 10
12.9902436697
 20
-10.5702314338
 10
12.9769318339
 20
-10.5675721365
 10
12.963856111
 20
-10.5645475797
 10
12.9510152296
 20
-10.5611602527
 10
12.9384946702
 20
-10.5574327792
 10
12.9262962021
 20
-10.5533626435
 10
12.9144180558
 20
-10.5489523612
 10
12.9029404038
 20
-10.5442321031
 10
12.8918899702
 20
-10.539211926
 10
12.8812400308
 20
-10.5338817731
 10
12.8709905856
 20
-10.5282416442
  0
LINE
  5
2C6
100
AcDbEntity
  8
ASSI
100
AcDbLine
 62
7
  6
CONTINUOUS
 10
7.0858331522
 20
15.7330001925
 11
6.4134428202
 21
15.6031788146
  0
LINE
  5
2C7
100
AcDbEntity
  8
ASSI
100
AcDbLine
 62
253
  6
CONTINUOUS
 10
-16.7302381966
 20
25.9955168106
 11
14.0509761733
 21
8.2228294128
  0
LWPOLYLINE
  5
2C8
100
AcDbEntity
  8
ASSI
100
AcDbPolyline
 62
253
  6
CONTINUOUS
 90
17
 70
0
 10
14.4168004578
 20
-27.4890958526
 10
14.4153405757
 20
-27.5106841866
 10
14.4129337918
 20
-27.5316448729
 10
14.4095866953
 20
-27.5519205265
 10
14.4053084496
 20
-27.5714556378
 10
14.4001107675
 20
-27.5901967246
 10
14.394007879
 20
-27.6080924787
 10
14.3870164921
 20
-27.6250939061
 10
14.3791557475
 20
-27.6411544612
 10
14.370447166
 20
-27.6562301742
 10
14.3609145893
 20
-27.6702797718
 10
14.3505841153
 20
-27.6832647898
 10
14.3394840262
 20
-27.6951496784
 10
14.3276447111
 20
-27.7059018999
 10
14.315098583
 20
-27.7154920174
 10
14.3018799902
 20
-27.7238937757
 10
14.2923980319
 20
-27.7289799288
  0
LINE
  5
2C9
100
AcDbEntity
  8
ASSI
100
AcDbLine
 62
253
  6
CONTINUOUS
 10
17.7570371674
 20
-7.9941673043
 11
13.291518871
 21
-10.5282610553
  0
LINE
  5
2CA
100
AcDbEntity
  8
ASSI
100
AcDbLine
 62
253
  6
CONTINUOUS
 10
17.8984585245
 20
-8.2390976263
 11
13.4316846636
 21
-10.7739038854
  0
LWPOLYLINE
  5
2CB
100
AcDbEntity
  8
ASSI
100
AcDbPolyline
 62
253
  6
CONTINUOUS
 90
34
 70
0
 10
13.4316846636
 20
-10.7739038854
 10
13.4143796541
 20
-10.7832146871
 10
13.3963430255
 20
-10.7920448981
 10
13.3776146283
 20
-10.800375102
 10
13.3582357799
 20
-10.8081872097
 10
13.3382493913
 20
-10.815463819
 10
13.3176998942
 20
-10.8221882727
 10
13.2966324626
 20
-10.8283458911
 10
13.2750940077
 20
-10.8339230777
 10
13.2531333876
 20
-10.8389067852
 10
13.230799932
 20
-10.8432860634
 10
13.2081425126
 20
-10.8470515963
 10
13.1852105739
 20
-10.8501948212
 10
13.1620545843
 20
-10.8527089391
 10
13.1387261563
 20
-10.8545884904
 10
13.1152771711
 20
-10.8558289549
 10
13.0917595715
 20
-10.8564277125
 10
13.0682254707
 20
-10.8563835971
 10
13.0447272379
 20
-10.8556964234
 10
13.0213169466
 20
-10.8543678391
 10
12.9980464489
 20
-10.8524009483
 10
12.974967484
 20
-10.8497999016
 10
12.9521314862
 20
-10.8465706244
 10
12.9295887145
 20
-10.8427203933
 10
12.9073883629
 20
-10.8382574128
 10
12.8855790173
 20
-10.8331914426
 10
12.8642096622
 20
-10.8275338962
 10
12.8433287561
 20
-10.8212974771
 10
12.8229831676
 20
-10.8144963232
 10
12.8032172194
 20
-10.8071454401
 10
12.784073775
 20
-10.7992607075
 10
12.7655949878
 20
-10.7908594306
 10
12.7478221157
 20
-10.781960383
 10
12.7307945589
 20
-10.7725832743
  0
LINE
  5
2CC
100
AcDbEntity
  8
ASSI
100
AcDbLine
 62
7
  6
CONTINUOUS
 10
14.1398536042
 20
11.0561122045
 11
11.7575685082
 21
12.431613762
  0
LINE
  5
2CD
100
AcDbEntity
  8
ASSI
100
AcDbLine
 62
7
  6
CONTINUOUS
 10
6.2202576549
 20
15.6287876498
 11
3.8379725589
 21
17.0042892073
  0
LINE
  5
2CE
100
AcDbEntity
  8
ASSI
100
AcDbLine
 62
7
  6
CONTINUOUS
 10
-1.7700489725
 20
20.2422905544
 11
-4.1523340685
 21
21.6177921119
  0
LINE
  5
2CF
100
AcDbEntity
  8
ASSI
100
AcDbLine
 62
7
  6
CONTINUOUS
 10
-9.6896449217
 20
24.8149659997
 11
-12.0719300178
 21
26.1904675571
  0
LINE
  5
2D0
100
AcDbEntity
  8
ASSI
100
AcDbLine
 62
7
  6
CONTINUOUS
 10
16.9716642384
 20
10.0250452219
 11
15.0054291015
 21
11.1603247473
  0
LINE
  5
2D1
100
AcDbEntity
  8
ASSI
100
AcDbLine
 62
7
  6
CONTINUOUS
 10
11.8859711456
 20
12.961460675
 11
7.0858331522
 21
15.7330001925
  0
LINE
  5
2D2
100
AcDbEntity
  8
ASSI
100
AcDbLine
 62
7
  6
CONTINUOUS
 10
3.9663751963
 20
17.5341361203
 11
-0.9044734752
 21
20.3465030971
  0
LINE
  5
2D3
100
AcDbEntity
  8
ASSI
100
AcDbLine
 62
7
  6
CONTINUOUS
 10
-4.0239314311
 20
22.1476390249
 11
-8.8240694245
 21
24.9191785424
  0
LINE
  5
2D4
100
AcDbEntity
  8
ASSI
100
AcDbLine
 62
7
  6
CONTINUOUS
 10
-11.9435273804
 20
26.7203144702
 11
-13.9097625173
 21
27.8555939955
  0
LINE
  5
2D5
100
AcDbEntity
  8
ASSI
100
AcDbLine
 62
7
  6
CONTINUOUS
 10
17.8984585245
 20
2.7015854302
 11
17.3562910331
 21
9.4319812887
  0
LINE
  5
2D6
100
AcDbEntity
  8
ASSI
100
AcDbLine
 62
7
  6
CONTINUOUS
 10
17.8984585245
 20
-8.2390976263
 11
17.8984585245
 21
-18.6899358217
  0
LINE
  5
2D7
100
AcDbEntity
  8
ASSI
100
AcDbLine
 62
7
  6
CONTINUOUS
 10
17.8984585245
 20
-7.7492527652
 11
17.8984585245
 21
2.7015854302
  0
LINE
  5
2D8
100
AcDbEntity
  8
ASSI
100
AcDbLine
 62
7
  6
CONTINUOUS
 10
17.8984585245
 20
-18.6899358217
 11
17.3562910331
 21
-26.0249314885
  0
LINE
  5
2D9
100
AcDbEntity
  8
ASSI
100
AcDbLine
 62
7
  6
CONTINUOUS
 10
-0.9044734752
 20
20.3465030971
 11
-1.5768638072
 21
20.2166817193
  0
LINE
  5
2DA
100
AcDbEntity
  8
ASSI
100
AcDbLine
 62
7
  6
CONTINUOUS
 10
-8.8240694245
 20
24.9191785424
 11
-9.4964597565
 21
24.7893571645
  0
LWPOLYLINE
  5
2DB
100
AcDbEntity
  8
ASSI
100
AcDbPolyline
 62
253
  6
CONTINUOUS
 90
31
 70
0
 10
13.7356127984
 20
-27.0871361044
 10
13.716548175
 20
-27.0980972498
 10
13.6966036643
 20
-27.1084723741
 10
13.6758327261
 20
-27.1182336676
 10
13.6542910353
 20
-27.1273549659
 10
13.6320363327
 20
-27.1358118201
 10
13.6091282703
 20
-27.1435815622
 10
13.5856282514
 20
-27.1506433661
 10
13.561599266
 20
-27.1569783031
 10
13.5371057219
 20
-27.1625693929
 10
13.5122132721
 20
-27.1674016491
 10
13.4869886389
 20
-27.1714621191
 10
13.461499435
 20
-27.1747399192
 10
13.4358139823
 20
-27.1772262636
 10
13.4100011285
 20
-27.1789144876
 10
13.384130063
 20
-27.1798000662
 10
13.3582701312
 20
-27.1798806257
 10
13.3324906486
 20
-27.1791559501
 10
13.3068607152
 20
-27.1776279819
 10
13.28144903
 20
-27.1753008167
 10
13.256323707
 20
-27.1721806922
 10
13.2315520927
 20
-27.1682759717
 10
13.2072005855
 20
-27.1635971215
 10
13.1833344577
 20
-27.1581566829
 10
13.1600176806
 20
-27.1519692386
 10
13.1373127531
 20
-27.1450513735
 10
13.1152805338
 20
-27.1374216304
 10
13.0939800786
 20
-27.1291004603
 10
13.0734684815
 20
-27.1201101675
 10
13.0538007223
 20
-27.1104748496
 10
13.035029519
 20
-27.1002203334
  0
LINE
  5
2DC
100
AcDbEntity
  8
ASSI
100
AcDbLine
 62
253
  6
CONTINUOUS
 10
14.4168004578
 20
-27.4890958526
 11
17.3562910331
 21
-26.0249314885
  0
LINE
  5
2DD
100
AcDbEntity
  8
ASSI
100
AcDbLine
 62
7
  6
CONTINUOUS
 10
14.2923980319
 20
-27.7289799288
 11
17.2207133601
 21
-26.270381971
  0
ELLIPSE
  5
2DE
100
AcDbEntity
  8
ASSI
100
AcDbEllipse
 62
7
  6
CONTINUOUS
 10
17.7570156258
 20
-8.1574551398
 30
0.0
 11
-0.1000238792
 21
0.1731956925
 31
0.0
 40
0.5774195892
 41
-2.3562809449
 42
-0.7856369171
  0
ELLIPSE
  5
2DF
100
AcDbEntity
  8
ASSI
100
AcDbEllipse
 62
7
  6
CONTINUOUS
 10
17.0027124405
 20
-25.8203754344
 30
0.0
 11
-0.2148150744
 21
0.4515576038
 31
0.0
 40
0.6258090719
 41
-3.1302699021
 42
-2.3092664522
  0
ELLIPSE
  5
2E0
100
AcDbEntity
  8
ASSI
100
AcDbEllipse
 62
7
  6
CONTINUOUS
 10
17.7570156258
 20
-7.6675605377
 30
0.0
 11
-0.1000390991
 21
0.1732220807
 31
0.0
 40
0.5772437351
 41
-3.1546807091
 42
-2.3564331449
  0
ELLIPSE
  5
2E1
100
AcDbEntity
  8
ASSI
100
AcDbEllipse
 62
7
  6
CONTINUOUS
 10
-13.8791447374
 20
27.4665912673
 30
0.0
 11
-0.2805986523
 21
0.4138767202
 31
0.0
 40
0.5251497255
 41
-0.8253745819
 42
-0.0067082748
  0
ELLIPSE
  5
2E2
100
AcDbEntity
  8
ASSI
100
AcDbEllipse
 62
7
  6
CONTINUOUS
 10
-9.5482235655
 20
24.9051787972
 30
0.0
 11
0.1999154856
 21
0.0095814127
 31
0.0
 40
0.6067642562
 41
-2.385266879
 42
-1.3380693278
  0
ELLIPSE
  5
2E3
100
AcDbEntity
  8
ASSI
100
AcDbEllipse
 62
7
  6
CONTINUOUS
 10
14.2812749605
 20
11.146325002
 30
0.0
 11
0.1999154856
 21
0.0095814127
 31
0.0
 40
0.6067642562
 41
-2.385266879
 42
-1.3380693278
  0
ELLIPSE
  5
2E4
100
AcDbEntity
  8
ASSI
100
AcDbEllipse
 62
7
  6
CONTINUOUS
 10
-1.6286276162
 20
20.3325033519
 30
0.0
 11
0.1999154856
 21
0.0095814127
 31
0.0
 40
0.6067642562
 41
-2.385266879
 42
-1.3380693278
  0
ELLIPSE
  5
2E5
100
AcDbEntity
  8
ASSI
100
AcDbEllipse
 62
7
  6
CONTINUOUS
 10
6.3616790112
 20
15.7190004473
 30
0.0
 11
0.1999154856
 21
0.0095814127
 31
0.0
 40
0.6067642562
 41
-2.385266879
 42
-1.3380693278
  0
ELLIPSE
  5
2E6
100
AcDbEntity
  8
ASSI
100
AcDbEllipse
 62
7
  6
CONTINUOUS
 10
17.0027124405
 20
9.6357939733
 30
0.0
 11
-0.2807400337
 21
0.4141474974
 31
0.0
 40
0.5245128892
 41
-2.3945640771
 42
-0.8246811388
  0
ELLIPSE
  5
2E7
100
AcDbEntity
  8
ASSI
100
AcDbEllipse
 62
7
  6
CONTINUOUS
 10
-4.0109127123
 20
21.7080049093
 30
0.0
 11
0.1999154856
 21
0.0095814127
 31
0.0
 40
0.6067642562
 41
2.850720877
 42
3.8979184282
  0
ELLIPSE
  5
2E8
100
AcDbEntity
  8
ASSI
100
AcDbEllipse
 62
7
  6
CONTINUOUS
 10
3.9793939151
 20
17.0945020047
 30
0.0
 11
0.1999154856
 21
0.0095814127
 31
0.0
 40
0.6067642562
 41
2.850720877
 42
3.8979184282
  0
ELLIPSE
  5
2E9
100
AcDbEntity
  8
ASSI
100
AcDbEllipse
 62
7
  6
CONTINUOUS
 10
11.8989898644
 20
12.5218265595
 30
0.0
 11
0.1999154856
 21
0.0095814127
 31
0.0
 40
0.6067642562
 41
2.850720877
 42
3.8979184282
  0
ELLIPSE
  5
2EA
100
AcDbEntity
  8
ASSI
100
AcDbEllipse
 62
7
  6
CONTINUOUS
 10
-11.9305086616
 20
26.2806803546
 30
0.0
 11
0.1999154856
 21
0.0095814127
 31
0.0
 40
0.6067642562
 41
2.850720877
 42
3.8979184282
  0
ELLIPSE
  5
2EB
100
AcDbEntity
  8
CURVE
100
AcDbEllipse
 62
253
  6
CONTINUOUS
 10
350.5155593125
 20
202.7605932577
 30
0.0
 11
-204.2106893614
 21
572.5121396967
 31
0.0
 40
0.6655565581
 41
-4.6201202007
 42
-4.6151754128
  0
ELLIPSE
  5
2EC
100
AcDbEntity
  8
CURVE
100
AcDbEllipse
 62
253
  6
CONTINUOUS
 10
350.1895622318
 20
202.9488198864
 30
0.0
 11
-199.986650542
 21
571.676900101
 31
0.0
 40
0.6675835612
 41
-4.6147620032
 42
-4.609767639
  0
ENDSEC
  0
SECTION
  2
OBJECTS
  0
DICTIONARY
  5
C
100
AcDbDictionary
280
0
281
1
  3
ACAD_GROUP
350
D
  3
ACAD_MLINESTYLE
350
17
  3
ACAD_LAYOUT
350
1A
  3
ACAD_PLOTSETTINGS
350
19
  3
ACAD_PLOTSTYLENAME
350
E
  0
DICTIONARY
  5
D
102
{ACAD_REACTORS
330
C
102
}
100
AcDbDictionary
280
0
281
1
  0
ACDBDICTIONARYWDFLT
  5
E
102
{ACAD_REACTORS
330
C
102
}
100
AcDbDictionary
281
1
  3
Normal
350
F
100
AcDbDictionaryWithDefault
340
F
  0
DICTIONARY
  5
17
102
{ACAD_REACTORS
330
C
102
}
100
AcDbDictionary
280
0
281
1
  3
Standard
350
18
  0
DICTIONARY
  5
19
102
{ACAD_REACTORS
330
C
102
}
100
AcDbDictionary
281
1
  0
DICTIONARY
  5
1A
102
{ACAD_REACTORS
330
C
102
}
100
AcDbDictionary
281
1
  3
Model
350
2ED
  3
Layout1
350
2EE
  0
ACDBPLACEHOLDER
  5
F
102
{ACAD_REACTORS
330
E
102
}
  0
MLINESTYLE
  5
18
102
{ACAD_REACTORS
330
17
102
}
100
AcDbMlineStyle
  2
STANDARD
 70
0
  3

 62
256
 51
90.0
 52
90.0
 71
2
 49
0.5
 62
256
  6
BYLAYER
 49
-0.5
 62
256
  6
BYLAYER
  0
LAYOUT
  5
2ED
102
{ACAD_REACTORS
330
1A
102
}
100
AcDbPlotSettings
  1

  2
none_device
  4
ISO_A4_(297.00_x_210.00_MM)
  6

 40
0.0
 41
0.0
 42
0.0
 43
0.0
 44
297.0
 45
210.0
 46
0.0
 47
0.0
 48
0.0
 49
0.0
140
0.0
141
0.0
142
1.0
143
1.0
 70
1024
 72
1
 73
0
 74
0
  7

 75
0
147
1.0
148
0.0
149
0.0
100
AcDbLayout
  1
Model
 70
0
 71
0
 10
0.0
 20
0.0
 11
297.0
 21
210.0
 12
0.0
 22
0.0
 32
0.0
 14
0.0
 24
0.0
 34
0.0
 15
0.0
 25
0.0
 35
0.0
146
0.0
 13
0.0
 23
0.0
 33
0.0
 16
1.0
 26
0.0
 36
0.0
 17
0.0
 27
1.0
 37
0.0
 76
0
330
217
345
0
346
0
  0
LAYOUT
  5
2EE
102
{ACAD_REACTORS
330
1A
102
}
100
AcDbPlotSettings
  1

  2
none_device
  4
ISO_A4_(297.00_x_210.00_MM)
  6

 40
0.0
 41
0.0
 42
0.0
 43
0.0
 44
297.0
 45
210.0
 46
0.0
 47
0.0
 48
0.0
 49
0.0
140
0.0
141
0.0
142
1.0
143
1.0
 70
0
 72
1
 73
0
 74
0
  7

 75
0
147
1.0
148
0.0
149
0.0
100
AcDbLayout
  1
Layout1
 70
0
 71
1
 10
0.0
 20
0.0
 11
297.0
 21
210.0
 12
0.0
 22
0.0
 32
0.0
 14
0.0
 24
0.0
 34
0.0
 15
0.0
 25
0.0
 35
0.0
146
0.0
 13
0.0
 23
0.0
 33
0.0
 16
1.0
 26
0.0
 36
0.0
 17
0.0
 27
1.0
 37
0.0
 76
0
330
218
345
0
346
0
  0
ENDSEC
  0
EOF
