  0
SECTION
  2
HEADER
  9
$ACADVER
  1
AC1021
  9
$DWGCODEPAGE
  3
ANSI_1252
  9
$EXTMAX
 10
297.0
 20
210.0
 30
0.0
  9
$EXTMIN
 10
0.0
 20
0.0
 30
0.0
  9
$LIMMIN
 10
0.0
 20
0.0
  9
$LIMMAX
 10
297.0
 20
210.0
  9
$VIEWCTR
 10
148.5
 20
105.0
  9
$VIEWSIZE
 40
210.0
  9
$CLAYER
  8
0
  9
$LTSCALE
 40
16.335
  9
$CELTYPE
  6
BYLAYER
  9
$DIMSCALE
 40
1.0
  9
$DIMASZ
 40
3.0
  9
$DIMEXO
 40
0.5
  9
$DIMDLI
 40
11.286
  9
$DIMEXE
 40
1.5
  9
$DIMCEN
 40
2.673
  9
$DIMLFAC
 40
1.0
  9
$DIMBLK
  1
_FILLED
  9
$DIMALT
 70
0
  9
$DIMALTF
 40
25.4
  9
$DIMTXT
 40
3.0
  9
$DIMTOL
 70
1
  9
$DIMLIM
 70
0
  9
$DIMTFAC
 40
1.0
  9
$DIMTP
 40
0.01
  9
$DIMTM
 40
0.01
  9
$DIMGAP
 40
0.625
  9
$DIMDSEP
 70
44
  9
$AUNITS
 70
0
  9
$PDMODE
 70
3
  9
$PDSIZE
 40
3.0
  9
$HANDSEED
  5
29C
  9
$TILEMODE
 70
1
  9
$MEASUREMENT
 70
1
  9
$INSUNITS
 70
4
  0
ENDSEC
  0
SECTION
  2
CLASSES
  0
CLASS
  1
ACDBDICTIONARYWDFLT
  2
AcDbDictionaryWithDefault
  3
AutoCAD 2000
 90
0
 91
1
280
0
281
0
  0
CLASS
  1
ACDBPLACEHOLDER
  2
AcDbPlaceHolder
  3
AutoCAD 2000
 90
0
 91
1
280
0
281
0
  0
CLASS
  1
LAYOUT
  2
AcDbLayout
  3
AutoCAD 2000
 90
0
 91
0
280
0
281
0
  0
ENDSEC
  0
SECTION
  2
TABLES
  0
TABLE
  2
VPORT
  5
8
100
AcDbSymbolTable
 70
2
  0
VPORT
  5
1F4
100
AcDbSymbolTableRecord
100
AcDbViewportTableRecord
  2
*ACTIVE
 70
0
 10
0.0
 20
0.0
 11
1.0
 21
1.0
 12
148.5
 22
105.0
 13
0.0
 23
0.0
 14
1.0
 24
1.0
 15
0.0
 25
0.0
 16
0.0
 26
0.0
 36
1.0
 17
0.0
 27
0.0
 37
0.0
 40
210.0
 41
1.4142857143
 42
50.0
 43
0.0
 44
0.0
 50
0.0
 51
0.0
 71
0
 72
100
 73
1
 74
1
 75
0
 76
0
 77
0
 78
0
  0
ENDTAB
  0
TABLE
  2
LTYPE
  5
5
100
AcDbSymbolTable
 70
6
  0
LTYPE
  5
14
100
AcDbSymbolTableRecord
100
AcDbLinetypeTableRecord
  2
BYBLOCK
 70
0
  3

 72
65
 73
0
 40
0.0
  0
LTYPE
  5
15
100
AcDbSymbolTableRecord
100
AcDbLinetypeTableRecord
  2
BYLAYER
 70
0
  3

 72
65
 73
0
 40
0.0
  0
LTYPE
  5
16
100
AcDbSymbolTableRecord
100
AcDbLinetypeTableRecord
  2
CONTINUOUS
 70
64
  3
Solid line
 72
65
 73
0
 40
0.0
  0
LTYPE
  5
1F5
100
AcDbSymbolTableRecord
100
AcDbLinetypeTableRecord
  2
CENTER
 70
64
  3
____ _ ____ _ ____ _ ____ _ ____ _ ____ _ ____
 72
65
 73
4
 40
0.6
 49
0.375
 74
0
 49
-0.075
 74
0
 49
0.075
 74
0
 49
-0.075
 74
0
  0
LTYPE
  5
1F6
100
AcDbSymbolTableRecord
100
AcDbLinetypeTableRecord
  2
HIDDEN
 70
64
  3
- - - - - - - - - - - - - - - - - - - -
 72
65
 73
2
 40
0.2
 49
0.1
 74
0
 49
-0.1
 74
0
  0
LTYPE
  5
1F7
100
AcDbSymbolTableRecord
100
AcDbLinetypeTableRecord
  2
PHANTOM
 70
64
  3
_____ _ _ _____ _ _ _____ _ _ _____
 72
65
 73
6
 40
0.8
 49
0.45
 74
0
 49
-0.05
 74
0
 49
0.1
 74
0
 49
-0.05
 74
0
 49
0.1
 74
0
 49
-0.05
 74
0
  0
LTYPE
  5
1F8
100
AcDbSymbolTableRecord
100
AcDbLinetypeTableRecord
  2
DOT
 70
64
  3
. . . . . . . . . . . . . . . . . . . .
 72
65
 73
2
 40
0.2
 49
0.1
 74
0
 49
-0.1
 74
0
  0
LTYPE
  5
1F9
100
AcDbSymbolTableRecord
100
AcDbLinetypeTableRecord
  2
DASHED
 70
64
  3
- - - - - - - - - - - - - - - - - - - -
 72
65
 73
2
 40
0.2
 49
0.1
 74
0
 49
-0.1
 74
0
  0
ENDTAB
  0
TABLE
  2
LAYER
  5
2
100
AcDbSymbolTable
 70
36
  0
LAYER
  5
10
100
AcDbSymbolTableRecord
100
AcDbLayerTableRecord
  2
0
 70
0
 62
7
  6
CONTINUOUS
370
-3
390
F
  0
LAYER
  5
1FA
100
AcDbSymbolTableRecord
100
AcDbLayerTableRecord
  2
DEFAULT_1
 70
0
 62
7
  6
CENTER
370
-3
390
F
  0
LAYER
  5
1FB
100
AcDbSymbolTableRecord
100
AcDbLayerTableRecord
  2
DEFAULT_2
 70
0
 62
7
  6
HIDDEN
370
-3
390
F
  0
LAYER
  5
1FC
100
AcDbSymbolTableRecord
100
AcDbLayerTableRecord
  2
DEFAULT_3
 70
0
 62
7
  6
PHANTOM
370
-3
390
F
  0
LAYER
  5
1FD
100
AcDbSymbolTableRecord
100
AcDbLayerTableRecord
  2
ASSI
 70
0
 62
7
  6
CONTINUOUS
370
-3
390
F
  0
LAYER
  5
1FE
100
AcDbSymbolTableRecord
100
AcDbLayerTableRecord
  2
COORDINATE
 70
0
 62
7
  6
CONTINUOUS
370
-3
390
F
  0
LAYER
  5
1FF
100
AcDbSymbolTableRecord
100
AcDbLayerTableRecord
  2
COORD_ORIGINE
 70
0
 62
7
  6
CONTINUOUS
370
-3
390
F
  0
LAYER
  5
200
100
AcDbSymbolTableRecord
100
AcDbLayerTableRecord
  2
COPY_PUBLISH
 70
0
 62
7
  6
CONTINUOUS
370
-3
390
F
  0
LAYER
  5
201
100
AcDbSymbolTableRecord
100
AcDbLayerTableRecord
  2
COSMETIC
 70
0
 62
7
  6
CONTINUOUS
370
-3
390
F
  0
LAYER
  5
202
100
AcDbSymbolTableRecord
100
AcDbLayerTableRecord
  2
COSMETICI
 70
0
 62
7
  6
CONTINUOUS
370
-3
390
F
  0
LAYER
  5
203
100
AcDbSymbolTableRecord
100
AcDbLayerTableRecord
  2
CURVE
 70
0
 62
7
  6
CONTINUOUS
370
-3
390
F
  0
LAYER
  5
204
100
AcDbSymbolTableRecord
100
AcDbLayerTableRecord
  2
DRAFT
 70
0
 62
7
  6
CONTINUOUS
370
-3
390
F
  0
LAYER
  5
205
100
AcDbSymbolTableRecord
100
AcDbLayerTableRecord
  2
IGES
 70
0
 62
7
  6
CONTINUOUS
370
-3
390
F
  0
LAYER
  5
206
100
AcDbSymbolTableRecord
100
AcDbLayerTableRecord
  2
IMPORT_IGES
 70
0
 62
7
  6
CONTINUOUS
370
-3
390
F
  0
LAYER
  5
207
100
AcDbSymbolTableRecord
100
AcDbLayerTableRecord
  2
NOTE
 70
0
 62
7
  6
CONTINUOUS
370
-3
390
F
  0
LAYER
  5
208
100
AcDbSymbolTableRecord
100
AcDbLayerTableRecord
  2
PIANI
 70
0
 62
7
  6
CONTINUOUS
370
-3
390
F
  0
LAYER
  5
209
100
AcDbSymbolTableRecord
100
AcDbLayerTableRecord
  2
PIANI_ORIGINE
 70
0
 62
7
  6
CONTINUOUS
370
-3
390
F
  0
LAYER
  5
20A
100
AcDbSymbolTableRecord
100
AcDbLayerTableRecord
  2
PIANI_RIFERIMENTO
 70
0
 62
7
  6
CONTINUOUS
370
-3
390
F
  0
LAYER
  5
20B
100
AcDbSymbolTableRecord
100
AcDbLayerTableRecord
  2
PUNTI
 70
0
 62
7
  6
CONTINUOUS
370
-3
390
F
  0
LAYER
  5
20C
100
AcDbSymbolTableRecord
100
AcDbLayerTableRecord
  2
RACCORDO
 70
0
 62
7
  6
CONTINUOUS
370
-3
390
F
  0
LAYER
  5
20D
100
AcDbSymbolTableRecord
100
AcDbLayerTableRecord
  2
SIMBOLI
 70
0
 62
7
  6
CONTINUOUS
370
-3
390
F
  0
LAYER
  5
20E
100
AcDbSymbolTableRecord
100
AcDbLayerTableRecord
  2
SMUSSO
 70
0
 62
7
  6
CONTINUOUS
370
-3
390
F
  0
LAYER
  5
20F
100
AcDbSymbolTableRecord
100
AcDbLayerTableRecord
  2
SNAPLINE
 70
0
 62
7
  6
CONTINUOUS
370
-3
390
F
  0
LAYER
  5
210
100
AcDbSymbolTableRecord
100
AcDbLayerTableRecord
  2
SUPERFICI
 70
0
 62
7
  6
CONTINUOUS
370
-3
390
F
  0
LAYER
  5
211
100
AcDbSymbolTableRecord
100
AcDbLayerTableRecord
  2
TRASH
 70
0
 62
7
  6
CONTINUOUS
370
-3
390
F
  0
LAYER
  5
212
100
AcDbSymbolTableRecord
100
AcDbLayerTableRecord
  2
XSEC_DATUMS
 70
0
 62
7
  6
CONTINUOUS
370
-3
390
F
  0
ENDTAB
  0
TABLE
  2
STYLE
  5
3
100
AcDbSymbolTable
 70
1
  0
STYLE
  5
11
100
AcDbSymbolTableRecord
100
AcDbTextStyleTableRecord
  2
STANDARD
 70
0
 40
0.0
 41
0.8
 50
0.0
 71
0
 42
0.2
  3
txt
  4

  0
STYLE
  5
213
100
AcDbSymbolTableRecord
100
AcDbTextStyleTableRecord
  2
TEXTSTYLE_1
 70
0
 40
0.0
 41
0.8
 50
0.0
 71
0
 42
0.2
  3
gdt
  4

  0
ENDTAB
  0
TABLE
  2
VIEW
  5
6
100
AcDbSymbolTable
 70
0
  0
ENDTAB
  0
TABLE
  2
UCS
  5
7
100
AcDbSymbolTable
 70
0
  0
ENDTAB
  0
TABLE
  2
APPID
  5
9
100
AcDbSymbolTable
 70
1
  0
APPID
  5
214
100
AcDbSymbolTableRecord
100
AcDbRegAppTableRecord
  2
ACAD
 70
0
  0
ENDTAB
  0
TABLE
  2
BLOCK_RECORD
  5
1
100
AcDbSymbolTable
 70
0
  0
BLOCK_RECORD
  5
215
100
AcDbSymbolTableRecord
100
AcDbBlockTableRecord
  2
*Model_Space
  0
BLOCK_RECORD
  5
216
100
AcDbSymbolTableRecord
100
AcDbBlockTableRecord
  2
*Paper_Space
  0
ENDTAB
  0
TABLE
  2
DIMSTYLE
  5
A
100
AcDbSymbolTable
 70
1
100
AcDbDimStyleTable
 71
0
  0
DIMSTYLE
105
217
100
AcDbSymbolTableRecord
100
AcDbDimStyleTableRecord
  2
STANDARD
 70
0
  3

  4

 40
1.0
 41
3.0
 42
0.5
 43
0.38
 44
1.5
 45
0.0
 46
0.0
 47
0.01
 48
0.01
140
3.0
141
0.09
142
0.0
143
25.4
144
1.0
145
0.0
146
1.0
147
0.625
 71
1.0
 72
0.0
 73
0
 74
0
 75
0
 76
0
 77
1
 78
8
170
0
171
1
172
0
173
0
174
0
175
0
176
0
177
0
178
0
270
2
271
2
272
2
273
2
274
2
275
0
280
0
281
0
282
0
283
1
284
8
285
0
286
0
287
3
288
0
340
11
278
44
  0
ENDTAB
  0
ENDSEC
  0
SECTION
  2
BLOCKS
  0
BLOCK
  5
20
100
AcDbEntity
  8
0
100
AcDbBlockBegin
  2
*Model_Space
 70
0
 10
0.0
 20
0.0
 30
0.0
  3
*Model_Space
  1

  0
ENDBLK
  5
21
100
AcDbEntity
  8
0
100
AcDbBlockEnd
  0
BLOCK
  5
1C
100
AcDbEntity
  8
0
100
AcDbBlockBegin
  2
*Paper_Space
 70
0
 10
0.0
 20
0.0
 30
0.0
  3
*Paper_Space
  1

  0
ENDBLK
  5
1D
100
AcDbEntity
  8
0
100
AcDbBlockEnd
  0
ENDSEC
  0
SECTION
  2
ENTITIES
  0
LWPOLYLINE
  5
218
100
AcDbEntity
  8
RACCORDO
100
AcDbPolyline
 62
7
  6
CONTINUOUS
 90
34
 70
0
 10
-9.2170950451
 20
21.1985099609
 10
-9.2520589703
 20
21.1747510147
 10
-9.2973996385
 20
21.1418185899
 10
-9.3417541259
 20
21.1072086682
 10
-9.3850987269
 20
21.071007078
 10
-9.4274323556
 20
21.0332809112
 10
-9.4687548786
 20
20.9940862235
 10
-9.5090497617
 20
20.953489109
 10
-9.5482977939
 20
20.9115556302
 10
-9.5864766815
 20
20.8683475944
 10
-9.6235621467
 20
20.8239291433
 10
-9.6595303839
 20
20.7783609625
 10
-9.6943498032
 20
20.731707952
 10
-9.7279922337
 20
20.6840330434
 10
-9.7604290446
 20
20.6353948836
 10
-9.7916242051
 20
20.5858601283
 10
-9.8215474331
 20
20.5354895933
 10
-9.8501659187
 20
20.4843416854
 10
-9.8774416758
 20
20.4324841712
 10
-9.9033423448
 20
20.3799757486
 10
-9.9278320981
 20
20.3268741636
 10
-9.950872834
 20
20.2732451487
 10
-9.97242987
 20
20.2191440438
 10
-9.9924643226
 20
20.1646279564
 10
-10.0109374025
 20
20.1097580952
 10
-10.0278102552
 20
20.0545866335
 10
-10.0430407825
 20
19.9991681522
 10
-10.0565880993
 20
19.9435547997
 10
-10.068406396
 20
19.8877978077
 10
-10.0784479784
 20
19.8319464999
 10
-10.0866655859
 20
19.7760313081
 10
-10.0930031138
 20
19.7200883867
 10
-10.0974001425
 20
19.6641819945
 10
-10.0993581641
 20
19.6231402547
  0
LINE
  5
219
100
AcDbEntity
  8
RACCORDO
100
AcDbLine
 62
7
  6
CONTINUOUS
 10
-9.2171094908
 20
21.1985006263
 11
-6.3883727687
 21
23.0640258913
  0
LINE
  5
21A
100
AcDbEntity
  8
RACCORDO
100
AcDbLine
 62
253
  6
CONTINUOUS
 10
-8.9603280362
 20
21.1780980778
 11
-6.1398562242
 21
23.0381727123
  0
LWPOLYLINE
  5
21B
100
AcDbEntity
  8
RACCORDO
100
AcDbPolyline
 62
253
  6
CONTINUOUS
 90
15
 70
0
 10
-9.2170951329
 20
21.1985100941
 10
-9.20199499
 20
21.2072879415
 10
-9.187084612
 20
21.2139268373
 10
-9.1713453566
 20
21.2191028802
 10
-9.1548304186
 20
21.2227985765
 10
-9.1375956142
 20
21.2250014357
 10
-9.119699193
 20
21.2257040127
 10
-9.1012016402
 20
21.2249039328
 10
-9.082165473
 20
21.2226039003
 10
-9.062655029
 20
21.2188116885
 10
-9.0427362485
 20
21.2135401144
 10
-9.022476452
 20
21.2068069944
 10
-9.0019441127
 20
21.1986350848
 10
-8.9812086247
 20
21.1890520047
 10
-8.9603400688
 20
21.1780901424
  0
LWPOLYLINE
  5
21C
100
AcDbEntity
  8
RACCORDO
100
AcDbPolyline
 62
7
  6
CONTINUOUS
 90
24
 70
0
 10
5.2789400169
 20
-23.4110515632
 10
5.3096243085
 20
-23.4279373001
 10
5.3446781427
 20
-23.4452731879
 10
5.3806637381
 20
-23.4610466324
 10
5.417536946
 20
-23.4752173154
 10
5.4552830153
 20
-23.4877552864
 10
5.493841951
 20
-23.498616324
 10
5.533153786
 20
-23.5077618969
 10
5.5732102833
 20
-23.5151654032
 10
5.6139582968
 20
-23.5207887524
 10
5.6553332435
 20
-23.5245965882
 10
5.6973194892
 20
-23.5265614883
 10
5.7398622006
 20
-23.5266522067
 10
5.7829066319
 20
-23.5248395131
 10
5.8264499193
 20
-23.5210921445
 10
5.8704444297
 20
-23.5153819067
 10
5.9148403561
 20
-23.5076819684
 10
5.959644142
 20
-23.4979528281
 10
6.0048132769
 20
-23.4861624197
 10
6.0503075801
 20
-23.4722799229
 10
6.0961485512
 20
-23.4562501472
 10
6.1423178288
 20
-23.4380235292
 10
6.1887457059
 20
-23.4175729793
 10
6.2231034389
 20
-23.4010546056
  0
LINE
  5
21D
100
AcDbEntity
  8
RACCORDO
100
AcDbLine
 62
7
  6
CONTINUOUS
 10
5.2790745082
 20
-23.4111292986
 11
-9.6467836165
 21
-14.7931258824
  0
LINE
  5
21E
100
AcDbEntity
  8
RACCORDO
100
AcDbLine
 62
253
  6
CONTINUOUS
 10
4.9657431054
 20
-22.7722744489
 11
-9.9529066579
 21
-14.1584330505
  0
LINE
  5
21F
100
AcDbEntity
  8
RACCORDO
100
AcDbLine
 62
253
  6
CONTINUOUS
 10
-9.6467835425
 20
-14.7931259251
 11
-9.6509112166
 21
-14.7907156528
  0
LWPOLYLINE
  5
220
100
AcDbEntity
  8
RACCORDO
100
AcDbPolyline
 62
253
  6
CONTINUOUS
 90
19
 70
0
 10
-9.6509112166
 20
-14.7907156528
 10
-9.6805240828
 20
-14.7717624342
 10
-9.7088311476
 20
-14.7506496989
 10
-9.7357855998
 20
-14.727412629
 10
-9.7613414851
 20
-14.7020908822
 10
-9.7854554354
 20
-14.6747273648
 10
-9.808088089
 20
-14.6453673682
 10
-9.8292009819
 20
-14.6140605746
 10
-9.8487580891
 20
-14.5808599893
 10
-9.8667274824
 20
-14.5458206406
 10
-9.8830788407
 20
-14.5090010484
 10
-9.8977838781
 20
-14.4704639295
 10
-9.9108179598
 20
-14.4302751744
 10
-9.9221589372
 20
-14.3885033599
 10
-9.9317877457
 20
-14.3452184686
 10
-9.9396887885
 20
-14.3004925525
 10
-9.9458488711
 20
-14.2544006831
 10
-9.9502573145
 20
-14.2070209005
 10
-9.9529066579
 20
-14.1584330505
  0
LINE
  5
221
100
AcDbEntity
  8
RACCORDO
100
AcDbLine
 62
7
  6
CONTINUOUS
 10
-4.1382657482
 20
21.8824794573
 11
-4.3184321947
 21
21.4684541769
  0
LWPOLYLINE
  5
222
100
AcDbEntity
  8
RACCORDO
100
AcDbPolyline
 62
7
  6
CONTINUOUS
 90
24
 70
0
 10
-10.09933165
 20
-13.9555780869
 10
-10.0967042924
 20
-14.0045905051
 10
-10.092056592
 20
-14.0555999263
 10
-10.0855669431
 20
-14.1051866657
 10
-10.0772997552
 20
-14.1533090653
 10
-10.0673123915
 20
-14.1999886289
 10
-10.0556438124
 20
-14.2452872787
 10
-10.0423435364
 20
-14.289190665
 10
-10.0274644308
 20
-14.3316823263
 10
-10.0110372095
 20
-14.3727982591
 10
-9.9931111735
 20
-14.4125106354
 10
-9.9737365465
 20
-14.4507961558
 10
-9.9529405842
 20
-14.4876774247
 10
-9.9307768653
 20
-14.5231212996
 10
-9.9073001916
 20
-14.5570967888
 10
-9.8825387898
 20
-14.5896121295
 10
-9.8565566921
 20
-14.6206285722
 10
-9.8294140723
 20
-14.6501177657
 10
-9.8011333248
 20
-14.6780902635
 10
-9.7717794496
 20
-14.7045106103
 10
-9.7414217166
 20
-14.7293484592
 10
-9.7100857907
 20
-14.7526100985
 10
-9.6778261492
 20
-14.7742756656
 10
-9.6466713427
 20
-14.793190624
  0
LWPOLYLINE
  5
223
100
AcDbEntity
  8
RACCORDO
100
AcDbPolyline
 62
253
  6
CONTINUOUS
 90
13
 70
0
 10
-9.9529066662
 20
-14.1584330459
 10
-9.9990640164
 20
-12.8118599496
 10
-10.0412809922
 20
-11.4627860207
 10
-10.0795573684
 20
-10.1112267358
 10
-10.1138927304
 20
-8.7572072639
 10
-10.1442872363
 20
-7.4007335018
 10
-10.1707413302
 20
-6.0417919006
 10
-10.1932551275
 20
-4.680398426
 10
-10.2118279622
 20
-3.3165679926
 10
-10.2264586393
 20
-1.9502851932
 10
-10.2371463573
 20
-0.5815550571
 10
-10.2438910169
 20
0.7895967664
 10
-10.246692267
 20
2.1631548762
  0
LWPOLYLINE
  5
224
100
AcDbEntity
  8
RACCORDO
100
AcDbPolyline
 62
7
  6
CONTINUOUS
 90
21
 70
0
 10
-10.3931507575
 20
2.9495784956
 10
-10.3931317738
 20
2.9459314723
 10
-10.392408662
 20
2.9282820673
 10
-10.3906265914
 20
2.9105708906
 10
-10.387770696
 20
2.8928511936
 10
-10.3838257328
 20
2.8751637892
 10
-10.3787819706
 20
2.8575685802
 10
-10.3726356255
 20
2.8401264109
 10
-10.3653796201
 20
2.8228754627
 10
-10.3570122814
 20
2.8058661177
 10
-10.347540488
 20
2.7891592669
 10
-10.3369664917
 20
2.7727987345
 10
-10.3252967001
 20
2.7568272457
 10
-10.3125434352
 20
2.7412918409
 10
-10.2987123427
 20
2.7262291384
 10
-10.2838133315
 20
2.7116774053
 10
-10.2678502059
 20
2.697665195
 10
-10.2508037563
 20
2.6842060346
 10
-10.2326615956
 20
2.6713255548
 10
-10.2134362197
 20
2.6590648556
 10
-10.2052975481
 20
2.6542578788
  0
LWPOLYLINE
  5
225
100
AcDbEntity
  8
RACCORDO
100
AcDbPolyline
 62
7
  6
CONTINUOUS
 90
13
 70
0
 10
-10.3931508679
 20
2.3678587992
 10
-10.3903848659
 20
1.0054482051
 10
-10.3836558967
 20
-0.3680133467
 10
-10.3729719493
 20
-1.7390822698
 10
-10.358333093
 20
-3.107741291
 10
-10.3397394927
 20
-4.4739751425
 10
-10.3171913236
 20
-5.8377692233
 10
-10.2906887875
 20
-7.1991083745
 10
-10.2602321565
 20
-8.5579775723
 10
-10.2258217004
 20
-9.9143624131
 10
-10.1874577363
 20
-11.2682476425
 10
-10.1451407497
 20
-12.6196160556
 10
-10.0993321616
 20
-13.9555714843
  0
LWPOLYLINE
  5
226
100
AcDbEntity
  8
RACCORDO
100
AcDbPolyline
 62
253
  6
CONTINUOUS
 90
13
 70
0
 10
-10.2466922672
 20
2.7459087331
 10
-10.2438910169
 20
4.1228286688
 10
-10.2371463573
 20
5.5020546262
 10
-10.2264586393
 20
6.8835707986
 10
-10.2118279622
 20
8.267350434
 10
-10.1932551275
 20
9.6533885658
 10
-10.1707413302
 20
11.0417021855
 10
-10.1442872363
 20
12.4322765978
 10
-10.1138927304
 20
13.8250949819
 10
-10.0795573684
 20
15.2201714005
 10
-10.0412809922
 20
16.6175001394
 10
-9.9990640164
 20
18.0170555506
 10
-9.9529066662
 20
19.4188218978
  0
LWPOLYLINE
  5
227
100
AcDbEntity
  8
RACCORDO
100
AcDbPolyline
 62
253
  6
CONTINUOUS
 90
22
 70
0
 10
-10.2467039151
 20
2.1631616016
 10
-10.2463199986
 20
2.1755244525
 10
-10.2451553644
 20
2.1882715162
 10
-10.2432164595
 20
2.2013322309
 10
-10.2405140171
 20
2.2146342986
 10
-10.2370629967
 20
2.2281040851
 10
-10.2328825021
 20
2.2416670271
 10
-10.2279956746
 20
2.2552480465
 10
-10.2224295659
 20
2.2687719651
 10
-10.2162149878
 20
2.2821639205
 10
-10.2093863415
 20
2.2953497812
 10
-10.2019814275
 20
2.3082565565
 10
-10.1940412364
 20
2.3208128007
 10
-10.1856097217
 20
2.3329490085
 10
-10.1767335564
 20
2.3445979999
 10
-10.167461875
 20
2.355695292
 10
-10.1578460015
 20
2.3661794558
 10
-10.1479391647
 20
2.3759924565
 10
-10.1377962044
 20
2.3850799746
 10
-10.1274732671
 20
2.3933917065
 10
-10.1170274956
 20
2.4008816431
 10
-10.1065167125
 20
2.4075083245
  0
LWPOLYLINE
  5
228
100
AcDbEntity
  8
RACCORDO
100
AcDbPolyline
 62
7
  6
CONTINUOUS
 90
13
 70
0
 10
-10.0993578253
 20
19.6231578137
 10
-10.1451959299
 20
18.2314815538
 10
-10.1875051002
 20
16.8296662633
 10
-10.2258620351
 20
15.4300474669
 10
-10.2602661773
 20
14.0326429896
 10
-10.2907171377
 20
12.6374685118
 10
-10.3172145743
 20
11.2445388124
 10
-10.3397581433
 20
9.853869285
 10
-10.3583475712
 20
8.4654753724
 10
-10.3729826107
 20
7.0793719325
 10
-10.3836630253
 20
5.6955744746
 10
-10.3903886742
 20
4.3141003979
 10
-10.3931508687
 20
2.9494911451
  0
LWPOLYLINE
  5
229
100
AcDbEntity
  8
RACCORDO
100
AcDbPolyline
 62
253
  6
CONTINUOUS
 90
37
 70
0
 10
-9.9529066579
 20
19.4188218931
 10
-9.9502573145
 20
19.4705416623
 10
-9.9458488711
 20
19.5231320181
 10
-9.9396887886
 20
19.5765044989
 10
-9.9317877459
 20
19.6305691676
 10
-9.9221589374
 20
19.6852352813
 10
-9.91081796
 20
19.7404114735
 10
-9.8977838783
 20
19.7960059882
 10
-9.8830788409
 20
19.8519244299
 10
-9.8667274827
 20
19.9080704307
 10
-9.8487580894
 20
19.9643488246
 10
-9.8292009822
 20
20.0206658631
 10
-9.8080880894
 20
20.0769269742
 10
-9.7854554359
 20
20.1330377602
 10
-9.7613414856
 20
20.1889039135
 10
-9.7357856003
 20
20.2444313905
 10
-9.7088311482
 20
20.2995274004
 10
-9.6805240833
 20
20.3540990227
 10
-9.6509112172
 20
20.4080531321
 10
-9.6200430639
 20
20.4612992513
 10
-9.5879721281
 20
20.5137480201
 10
-9.5547514928
 20
20.565309839
 10
-9.5204380859
 20
20.6158979784
 10
-9.4850901007
 20
20.665427989
 10
-9.4487653124
 20
20.7138161651
 10
-9.4115256632
 20
20.7609814486
 10
-9.3734345256
 20
20.8068448234
 10
-9.3345540984
 20
20.8513286687
 10
-9.2949500347
 20
20.8943591329
 10
-9.2546903186
 20
20.9358634318
 10
-9.2138425366
 20
20.9757693355
 10
-9.1724771204
 20
21.0140095259
 10
-9.1306637917
 20
21.0505209403
 10
-9.0884704223
 20
21.0852419985
 10
-9.0459677598
 20
21.118114471
 10
-9.0032293373
 20
21.1490837045
 10
-8.9603279641
 20
21.1780980361
  0
LWPOLYLINE
  5
22A
100
AcDbEntity
  8
RACCORDO
100
AcDbPolyline
 62
253
  6
CONTINUOUS
 90
14
 70
0
 10
-10.099088309
 20
-13.9605016917
 10
-10.0971724141
 20
-13.9777140752
 10
-10.0936102275
 20
-13.9947940398
 10
-10.0884135365
 20
-14.0116850682
 10
-10.081599537
 20
-14.0283312679
 10
-10.0731907763
 20
-14.0446775569
 10
-10.063215079
 20
-14.0606698454
 10
-10.0517054546
 20
-14.0762552151
 10
-10.0386999884
 20
-14.0913820941
 10
-10.0242417153
 20
-14.1060004277
 10
-10.0083784777
 20
-14.1200618439
 10
-9.9911627668
 20
-14.1335198137
 10
-9.9726515493
 20
-14.1463298047
 10
-9.9529060787
 20
-14.1584494288
  0
LWPOLYLINE
  5
22B
100
AcDbEntity
  8
RACCORDO
100
AcDbPolyline
 62
253
  6
CONTINUOUS
 90
16
 70
0
 10
-10.393131839
 20
2.9468843958
 10
-10.3922357047
 20
2.9320255285
 10
-10.3900016369
 20
2.9172091467
 10
-10.3864356592
 20
2.9024747306
 10
-10.3815474246
 20
2.8878620655
 10
-10.3753500368
 20
2.8734103423
 10
-10.3678599322
 20
2.8591576544
 10
-10.3590967656
 20
2.8451417834
 10
-10.3490842248
 20
2.8314010174
 10
-10.3378501336
 20
2.8179731775
 10
-10.3254258292
 20
2.8048951943
 10
-10.311844068
 20
2.7922011435
 10
-10.2971394337
 20
2.7799232097
 10
-10.2813503909
 20
2.7680938476
 10
-10.264519693
 20
2.7567455113
 10
-10.2466922652
 20
2.74590874
  0
LWPOLYLINE
  5
22C
100
AcDbEntity
  8
RACCORDO
100
AcDbPolyline
 62
253
  6
CONTINUOUS
 90
12
 70
0
 10
-10.2467039151
 20
2.7459154585
 10
-10.2463199995
 20
2.7339959611
 10
-10.2451553683
 20
2.7225938017
 10
-10.2432164683
 20
2.7117720971
 10
-10.2405140323
 20
2.7015907512
 10
-10.2370630197
 20
2.6921061229
 10
-10.2328825337
 20
2.6833707147
 10
-10.2279957155
 20
2.6754328816
 10
-10.222429616
 20
2.6683365636
 10
-10.2162150467
 20
2.6621210427
 10
-10.2093864084
 20
2.6568207248
 10
-10.2052977733
 20
2.6542574891
  0
LWPOLYLINE
  5
22D
100
AcDbEntity
  8
RACCORDO
100
AcDbPolyline
 62
253
  6
CONTINUOUS
 90
15
 70
0
 10
-10.0993581641
 20
19.6231402547
 10
-10.0990880331
 20
19.6074270554
 10
-10.0971721279
 20
19.5915123828
 10
-10.0936099327
 20
19.5756456995
 10
-10.0884132346
 20
19.559879508
 10
-10.0815992296
 20
19.5442659786
 10
-10.073190465
 20
19.5288567762
 10
-10.0632147655
 20
19.5137028897
 10
-10.0517051404
 20
19.4988544632
 10
-10.038699675
 20
19.48436063
 10
-10.0242414042
 20
19.4702693499
 10
-10.0083781703
 20
19.4566272508
 10
-9.9911624646
 20
19.4434794744
 10
-9.9726512536
 20
19.4308695264
 10
-9.9529057908
 20
19.4188391331
  0
LWPOLYLINE
  5
22E
100
AcDbEntity
  8
RACCORDO
100
AcDbPolyline
 62
253
  6
CONTINUOUS
 90
37
 70
0
 10
5.9816945009
 20
12.550761533
 10
5.9377800487
 20
12.5223321408
 10
5.8940358082
 20
12.4919436542
 10
5.8505345891
 20
12.4596477359
 10
5.8073482854
 20
12.4254999857
 10
5.7645492837
 20
12.3895576865
 10
5.7222103723
 20
12.35187958
 10
5.6804012999
 20
12.3125287134
 10
5.6391924713
 20
12.2715724202
 10
5.5986563092
 20
12.2290801378
 10
5.5588609088
 20
12.1851245867
 10
5.5198718119
 20
12.1397796822
 10
5.481755721
 20
12.0931204452
 10
5.4445761118
 20
12.045225832
 10
5.4083948231
 20
11.9961769604
 10
5.3732738234
 20
11.946055115
 10
5.3392714315
 20
11.8949446724
 10
5.30644445
 20
11.8429324351
 10
5.2748497779
 20
11.7901057986
 10
5.2445400702
 20
11.7365540368
 10
5.2155656908
 20
11.6823677136
 10
5.1879768169
 20
11.6276380108
 10
5.1618195726
 20
11.572457751
 10
5.137137156
 20
11.516919823
 10
5.1139717853
 20
11.4611166212
 10
5.0923621047
 20
11.4051423491
 10
5.0723439588
 20
11.3490915086
 10
5.053951591
 20
11.2930573347
 10
5.0372155085
 20
11.2371334689
 10
5.0221638111
 20
11.1814151843
 10
5.0088228915
 20
11.125997834
 10
4.9972151077
 20
11.0709756924
 10
4.987359315
 20
11.0164406365
 10
4.979272239
 20
10.9624833811
 10
4.9729674507
 20
10.9091944514
 10
4.9684552525
 20
10.8566640022
 10
4.9657431054
 20
10.8049804948
  0
LWPOLYLINE
  5
22F
100
AcDbEntity
  8
RACCORDO
100
AcDbPolyline
 62
253
  6
CONTINUOUS
 90
37
 70
0
 10
6.3475148523
 20
11.9460929642
 10
6.3179987747
 20
11.9271831483
 10
6.2886913514
 20
11.9070372658
 10
6.2595925823
 20
11.885655317
 10
6.2306535698
 20
11.862996847
 10
6.2019232115
 20
11.8391023105
 10
6.1735482005
 20
11.8140930717
 10
6.1455306594
 20
11.7879635491
 10
6.1178684656
 20
11.7607193242
 10
6.090701945
 20
11.7324985051
 10
6.0640340296
 20
11.7032965383
 10
6.0378617873
 20
11.6731179774
 10
6.0123167486
 20
11.642114591
 10
5.9874020323
 20
11.6102822262
 10
5.9631145196
 20
11.577625036
 10
5.9395763832
 20
11.544307248
 10
5.9167912536
 20
11.5103252963
 10
5.8947555004
 20
11.4756827468
 10
5.8735804052
 20
11.4405545246
 10
5.8532703604
 20
11.4049381772
 10
5.8338209737
 20
11.3688361571
 10
5.815330349
 20
11.3324307472
 10
5.7978034543
 20
11.2957206772
 10
5.7812353216
 20
11.2587072174
 10
5.7657091506
 20
11.2215764615
 10
5.7512301572
 20
11.1843278506
 10
5.7377931256
 20
11.1469619437
 10
5.7254656079
 20
11.109666511
 10
5.7142530908
 20
11.0724413532
 10
5.7041500877
 20
11.0352866697
 10
5.6952076901
 20
10.998390829
 10
5.687431855
 20
10.9617545315
 10
5.6808166255
 20
10.9253770767
 10
5.6753952225
 20
10.8894447319
 10
5.6711787195
 20
10.854019586
 10
5.668156043
 20
10.81903955
 10
5.666327193
 20
10.7845046239
  0
LWPOLYLINE
  5
230
100
AcDbEntity
  8
RACCORDO
100
AcDbPolyline
 62
7
  6
CONTINUOUS
 90
19
 70
0
 10
-10.2144612578
 20
2.6597185585
 10
-10.2268154359
 20
2.6519051146
 10
-10.2457503577
 20
2.638755766
 10
-10.2636332556
 20
2.6249066599
 10
-10.2804526287
 20
2.6103779003
 10
-10.2961894972
 20
2.5951985682
 10
-10.3108069969
 20
2.579416769
 10
-10.324289818
 20
2.5630627749
 10
-10.3366168752
 20
2.5461793811
 10
-10.3477417271
 20
2.528855426
 10
-10.3576487223
 20
2.511151076
 10
-10.3663331952
 20
2.4931192258
 10
-10.3737767749
 20
2.4748616812
 10
-10.3799843077
 20
2.4564525276
 10
-10.3849689358
 20
2.4379569563
 10
-10.3887428677
 20
2.4194778282
 10
-10.3913355763
 20
2.4010981753
 10
-10.3927857769
 20
2.3828748937
 10
-10.3931508154
 20
2.3678188382
  0
LINE
  5
231
100
AcDbEntity
  8
RACCORDO
100
AcDbLine
 62
253
  6
CONTINUOUS
 10
8.9023786329
 20
14.3529748292
 11
5.981694573
 21
12.5507614915
  0
LINE
  5
232
100
AcDbEntity
  8
RACCORDO
100
AcDbLine
 62
253
  6
CONTINUOUS
 10
9.2870054276
 20
13.7599108961
 11
6.3475148523
 21
11.9460929642
  0
LWPOLYLINE
  5
233
100
AcDbEntity
  8
RACCORDO
100
AcDbPolyline
 62
253
  6
CONTINUOUS
 90
28
 70
0
 10
5.666327193
 20
10.7845046239
 10
5.6450890065
 20
10.774292204
 10
5.6227717876
 20
10.7648007516
 10
5.5994493837
 20
10.7560616738
 10
5.5751989686
 20
10.7481038881
 10
5.5501007866
 20
10.7409537268
 10
5.5242378874
 20
10.7346348498
 10
5.4976958512
 20
10.729168166
 10
5.4705625053
 20
10.7245717648
 10
5.4429276337
 20
10.7208608556
 10
5.4148826799
 20
10.7180477177
 10
5.3865204446
 20
10.7161416598
 10
5.3579347781
 20
10.7151489891
 10
5.3292202702
 20
10.7150729903
 10
5.3004719369
 20
10.7159139148
 10
5.2717849062
 20
10.71766898
 10
5.2432541032
 20
10.7203323785
 10
5.2149739362
 20
10.7238952971
 10
5.187037984
 20
10.7283459461
 10
5.1595386865
 20
10.7336695983
 10
5.1325670385
 20
10.7398486379
 10
5.1062122891
 20
10.7468626184
 10
5.0805616458
 20
10.7546883307
 10
5.0556999865
 20
10.7632998795
 10
5.0317095782
 20
10.7726687692
 10
5.0086698049
 20
10.7827639984
 10
4.9866569051
 20
10.7935521619
 10
4.9657437192
 20
10.8049975619
  0
LWPOLYLINE
  5
234
100
AcDbEntity
  8
RACCORDO
100
AcDbPolyline
 62
253
  6
CONTINUOUS
 90
8
 70
0
 10
-2.5915790735
 20
-6.4142355433
 10
-2.506544852
 20
-6.4471265205
 10
-2.4235463619
 20
-6.4682502405
 10
-2.3435866605
 20
-6.4773550549
 10
-2.2675979474
 20
-6.4743402513
 10
-2.1964387588
 20
-6.4592321806
 10
-2.1305716606
 20
-6.431983219
 10
-2.0712662265
 20
-6.3929563869
  0
LWPOLYLINE
  5
235
100
AcDbEntity
  8
RACCORDO
100
AcDbPolyline
 62
7
  6
CONTINUOUS
 90
9
 70
0
 10
-2.5778439976
 20
-6.4485392715
 10
-2.4990453342
 20
-6.4814194724
 10
-2.4214526496
 20
-6.5054406852
 10
-2.3453336177
 20
-6.5205915728
 10
-2.2713532449
 20
-6.5267899076
 10
-2.2005828979
 20
-6.5241226227
 10
-2.1336781636
 20
-6.5129387592
 10
-2.0708873828
 20
-6.493620727
 10
-2.0126425525
 20
-6.4666236905
  0
LINE
  5
236
100
AcDbEntity
  8
RACCORDO
100
AcDbLine
 62
253
  6
CONTINUOUS
 10
-2.6776381712
 20
-6.3699674478
 11
-2.5915790735
 21
-6.4142355433
  0
LINE
  5
237
100
AcDbEntity
  8
RACCORDO
100
AcDbLine
 62
7
  6
CONTINUOUS
 10
-2.6573732451
 20
-6.4068685877
 11
-2.5778439976
 21
-6.4485392715
  0
LWPOLYLINE
  5
238
100
AcDbEntity
  8
RACCORDO
100
AcDbPolyline
 62
253
  6
CONTINUOUS
 90
42
 70
0
 10
-2.7636965747
 20
-4.4999928142
 10
-2.8487304012
 20
-4.4671016089
 10
-2.9317287954
 20
-4.4459778335
 10
-3.0116888579
 20
-4.4368732276
 10
-3.0876782313
 20
-4.4398884124
 10
-3.1588379061
 20
-4.4549967639
 10
-3.2247050831
 20
-4.482245771
 10
-3.2840104221
 20
-4.5212725481
 10
-3.3351522585
 20
-4.5706185434
 10
-3.3779381599
 20
-4.6291592441
 10
-3.4122875139
 20
-4.6956991904
 10
-3.4378091598
 20
-4.7674730376
 10
-3.4550211323
 20
-4.8421883389
 10
-3.4648958371
 20
-4.9190043082
 10
-3.4682088479
 20
-4.9971017732
 10
-3.4656631078
 20
-5.0754018328
 10
-3.4579767772
 20
-5.1529895233
 10
-3.4457631154
 20
-5.2296122912
 10
-3.4296214125
 20
-5.3046589392
 10
-3.410151439
 20
-5.3775468205
 10
-3.3877746111
 20
-5.4482732103
 10
-3.3629641802
 20
-5.5165065093
 10
-3.336193398
 20
-5.5819211895
 10
-3.3077359271
 20
-5.6446356078
 10
-3.2779565507
 20
-5.7044834364
 10
-3.2472095269
 20
-5.7613202895
 10
-3.2156427057
 20
-5.8153501476
 10
-3.1835122197
 20
-5.8665336441
 10
-3.151086306
 20
-5.9148100266
 10
-3.1184528672
 20
-5.9603699564
 10
-3.085802823
 20
-6.0032264919
 10
-3.0533244844
 20
-6.0433940538
 10
-3.0210491235
 20
-6.0810666864
 10
-2.9891089832
 20
-6.1162956937
 10
-2.9576387389
 20
-6.149127344
 10
-2.9266367969
 20
-6.1797393671
 10
-2.8961910545
 20
-6.2082027346
 10
-2.866397054
 20
-6.2345789199
 10
-2.8372402863
 20
-6.2590193508
 10
-2.8087911995
 20
-6.2815920056
 10
-2.7811019801
 20
-6.3023774809
 10
-2.7541141243
 20
-6.3215300613
  0
LINE
  5
239
100
AcDbEntity
  8
RACCORDO
100
AcDbLine
 62
253
  6
CONTINUOUS
 10
-2.6776381712
 20
-4.5442613104
 11
-2.7636965747
 21
-4.4999928142
  0
LINE
  5
23A
100
AcDbEntity
  8
RACCORDO
100
AcDbLine
 62
7
  6
CONTINUOUS
 10
-2.7540973114
 20
-6.3446736937
 11
-2.6573732451
 21
-6.4068685877
  0
LWPOLYLINE
  5
23B
100
AcDbEntity
  8
RACCORDO
100
AcDbPolyline
 62
253
  6
CONTINUOUS
 90
4
 70
0
 10
-2.7541141243
 20
-6.3215300613
 10
-2.7278331842
 20
-6.3391436587
 10
-2.7023310425
 20
-6.3552647144
 10
-2.6776381712
 20
-6.3699674478
  0
LINE
  5
23C
100
AcDbEntity
  8
RACCORDO
100
AcDbLine
 62
253
  6
CONTINUOUS
 10
-4.3184321947
 20
21.4684541769
 11
-4.3184321947
 21
21.4058503935
  0
LWPOLYLINE
  5
23D
100
AcDbEntity
  8
RACCORDO
100
AcDbPolyline
 62
253
  6
CONTINUOUS
 90
20
 70
0
 10
-3.6427059292
 20
-4.9359787723
 10
-3.6422946858
 20
-4.8923649372
 10
-3.6402908002
 20
-4.8495528476
 10
-3.6366783365
 20
-4.8076286606
 10
-3.6314409693
 20
-4.766653965
 10
-3.6245695947
 20
-4.7267410378
 10
-3.6160722902
 20
-4.6880448236
 10
-3.6059531456
 20
-4.6506417906
 10
-3.594220071
 20
-4.6146091278
 10
-3.5809092752
 20
-4.5800850104
 10
-3.5660451128
 20
-4.5471368897
 10
-3.5496512944
 20
-4.5158206757
 10
-3.5317830556
 20
-4.4862370474
 10
-3.5124905775
 20
-4.4584503556
 10
-3.4918021739
 20
-4.4324839316
 10
-3.4697486547
 20
-4.4083666662
 10
-3.4463765872
 20
-4.386141423
 10
-3.4217260672
 20
-4.3658387432
 10
-3.3958156278
 20
-4.3474723152
 10
-3.3671128413
 20
-4.3302047062
  0
LWPOLYLINE
  5
23E
100
AcDbEntity
  8
RACCORDO
100
AcDbPolyline
 62
253
  6
CONTINUOUS
 90
76
 70
0
 10
-3.7828795794
 20
-4.9360057692
 10
-3.7824332161
 20
-4.8889204921
 10
-3.7802447214
 20
-4.8428804187
 10
-3.7763141089
 20
-4.7978855575
 10
-3.7706405375
 20
-4.7538211449
 10
-3.7632248523
 20
-4.7108019482
 10
-3.7540697028
 20
-4.6691723349
 10
-3.7431525885
 20
-4.6289480759
 10
-3.7304962468
 20
-4.5901135406
 10
-3.7161713889
 20
-4.5529661143
 10
-3.7001599504
 20
-4.5175308038
 10
-3.6824804233
 20
-4.4837828542
 10
-3.6632585327
 20
-4.4519451135
 10
-3.6424964737
 20
-4.4220523627
 10
-3.6201926194
 20
-4.3940701548
 10
-3.5964670851
 20
-4.3681175678
 10
-3.5713219459
 20
-4.3442046372
 10
-3.5447557403
 20
-4.3223216876
 10
-3.5168833513
 20
-4.3025582735
 10
-3.4876914171
 20
-4.2849150182
 10
-3.45719392
 20
-4.2693916621
 10
-3.4255468169
 20
-4.2560764685
 10
-3.3927380017
 20
-4.244981139
 10
-3.3587801963
 20
-4.2360943327
 10
-3.3238666441
 20
-4.2294697753
 10
-3.287996343
 20
-4.2251226379
 10
-3.2511708694
 20
-4.2230380854
 10
-3.2135873549
 20
-4.2232248463
 10
-3.1752448218
 20
-4.2256945603
 10
-3.1361447361
 20
-4.2304358732
 10
-3.0964878906
 20
-4.2374230197
 10
-3.0562708024
 20
-4.2466672061
 10
-3.015497326
 20
-4.2581574434
 10
-2.9743792404
 20
-4.271834662
 10
-2.9329132545
 20
-4.2877109608
 10
-2.8911028922
 20
-4.3057743768
 10
-2.8491701232
 20
-4.3259297288
 10
-2.8071147181
 20
-4.3481881682
 10
-2.7649369856
 20
-4.3725385898
 10
-2.7228596655
 20
-4.398852405
 10
-2.6808828741
 20
-4.4271404811
 10
-2.6390064158
 20
-4.4573919044
 10
-2.5974525244
 20
-4.4894453921
 10
-2.5562243887
 20
-4.5233090551
 10
-2.5153185873
 20
-4.5589746466
 10
-2.4749474066
 20
-4.5962563281
 10
-2.4351143289
 20
-4.6351608299
 10
-2.3958155007
 20
-4.6756812046
 10
-2.3572521836
 20
-4.7176110861
 10
-2.3194253534
 20
-4.760960306
 10
-2.2823335464
 20
-4.8057187471
 10
-2.246174361
 20
-4.851650117
 10
-2.2109485058
 20
-4.8987679768
 10
-2.1766546982
 20
-4.9470584294
 10
-2.1434875696
 20
-4.9962440074
 10
-2.1114589213
 20
-5.0463222883
 10
-2.0805563361
 20
-5.0972953337
 10
-2.0509381638
 20
-5.1488924285
 10
-2.0226181153
 20
-5.2010978083
 10
-1.9955818594
 20
-5.2539268737
 10
-1.969945741
 20
-5.3071556912
 10
-1.945708006
 20
-5.3607948782
 10
-1.9228697957
 20
-5.4148334576
 10
-1.901551871
 20
-5.4690151472
 10
-1.8817513049
 20
-5.5233766558
 10
-1.8634704561
 20
-5.5778809406
 10
-1.8468381348
 20
-5.6321611627
 10
-1.8318716905
 20
-5.6862222266
 10
-1.818553344
 20
-5.7400589747
 10
-1.8069593897
 20
-5.7932895805
 10
-1.7971122402
 20
-5.8459043826
 10
-1.7889892436
 20
-5.8979129006
 10
-1.7825993033
 20
-5.9489621992
 10
-1.7779454249
 20
-5.998934655
 10
-1.7750245977
 20
-6.0479478872
 10
-1.7738368073
 20
-6.0960018865
  0
LWPOLYLINE
  5
23F
100
AcDbEntity
  8
RACCORDO
100
AcDbPolyline
 62
253
  6
CONTINUOUS
 90
76
 70
0
 10
-3.7828795794
 20
2.4136966624
 10
-3.7816757353
 20
2.4611954112
 10
-3.7787311235
 20
2.5076483982
 10
-3.7740457579
 20
2.5530556149
 10
-3.7676169615
 20
2.5975328015
 10
-3.7594474156
 20
2.6409642141
 10
-3.7495452769
 20
2.683002558
 10
-3.7378881025
 20
2.7236320452
 10
-3.7244985724
 20
2.7628683283
 10
-3.7094527326
 20
2.8004111571
 10
-3.6927327541
 20
2.836235421
 10
-3.6743568934
 20
2.8703659877
 10
-3.6544555046
 20
2.9025774737
 10
-3.6330313346
 20
2.9328348103
 10
-3.6100822045
 20
2.9611727442
 10
-3.5857312023
 20
2.9874705458
 10
-3.5599805738
 20
3.011718076
 10
-3.5328286865
 20
3.0339251266
 10
-3.5043928833
 20
3.0540008238
 10
-3.4746596995
 20
3.0719446037
 10
-3.44364322
 20
3.0877566794
 10
-3.4115021695
 20
3.1013473102
 10
-3.3782245194
 20
3.1127047657
 10
-3.3438229137
 20
3.1218404286
 10
-3.3084931302
 20
3.1286992025
 10
-3.2722344016
 20
3.1332658029
 10
-3.235048069
 20
3.1355551905
 10
-3.1971330932
 20
3.1355576254
 10
-3.1584886796
 20
3.1332613879
 10
-3.1191161107
 20
3.1286779227
 10
-3.079217459
 20
3.1218322382
 10
-3.0387893954
 20
3.1127130686
 10
-2.9978356201
 20
3.1013314705
 10
-2.9565687292
 20
3.0877459479
 10
-2.914985599
 20
3.0719443345
 10
-2.8730895856
 20
3.0539386655
 10
-2.8311029725
 20
3.0338237651
 10
-2.7890257038
 20
3.0115884033
 10
-2.7468579147
 20
2.9872437654
 10
-2.7048221373
 20
2.96091832
 10
-2.6629186577
 20
2.9326011171
 10
-2.6211471108
 20
2.9023031514
 10
-2.5797290134
 20
2.87018583
 10
-2.5386677021
 20
2.8362409577
 10
-2.497959608
 20
2.8004768606
 10
-2.4578158575
 20
2.7630797457
 10
-2.4182400597
 20
2.7240427997
 10
-2.3792282346
 20
2.6833730451
 10
-2.3409801043
 20
2.6412774544
 10
-2.3034967981
 20
2.5977460902
 10
-2.2667766991
 20
2.552789165
 10
-2.2310154069
 20
2.5066438785
 10
-2.196213843
 20
2.4592965302
 10
-2.1623705121
 20
2.4107611446
 10
-2.1296774084
 20
2.3613164968
 10
-2.0981463981
 20
2.3109649533
 10
-2.0677649994
 20
2.2597044955
 10
-2.0386887291
 20
2.2078072955
 10
-2.0109311663
 20
2.1552891486
 10
-1.9844781119
 20
2.1021346101
 10
-1.9594434727
 20
2.0485689598
 10
-1.9358256506
 20
1.9945814708
 10
-1.9136256312
 20
1.9401832167
 10
-1.8929612692
 20
1.885632137
 10
-1.8738302018
 20
1.8308912359
 10
-1.8562342236
 20
1.7759978312
 10
-1.8402975466
 20
1.7213212641
 10
-1.826037749
 20
1.6668564991
 10
-1.8134368229
 20
1.6126088159
 10
-1.8025657792
 20
1.5589629279
 10
-1.7934470682
 20
1.5059284497
 10
-1.786058
 20
1.4534959038
 10
-1.780402081
 20
1.4020212485
 10
-1.7764805176
 20
1.351623116
 10
-1.7742920979
 20
1.3021828785
 10
-1.7738368073
 20
1.2537005451
  0
LWPOLYLINE
  5
240
100
AcDbEntity
  8
RACCORDO
100
AcDbPolyline
 62
253
  6
CONTINUOUS
 90
20
 70
0
 10
-3.6427059292
 20
2.4122537188
 10
-3.641537161
 20
2.4562816868
 10
-3.6387771161
 20
2.4995071846
 10
-3.6344098667
 20
2.5418440938
 10
-3.6284172675
 20
2.5832318673
 10
-3.6207920476
 20
2.6235572565
 10
-3.6115477622
 20
2.6626623441
 10
-3.6006885226
 20
2.700470692
 10
-3.5882222049
 20
2.7369051613
 10
-3.574190395
 20
2.7718246512
 10
-3.5586176502
 20
2.8051616378
 10
-3.5415274362
 20
2.8368603587
 10
-3.5229796798
 20
2.8668175542
 10
-3.5030250837
 20
2.89496862
 10
-3.4816913768
 20
2.9212905458
 10
-3.4590124049
 20
2.9457527475
 10
-3.4350348849
 20
2.9683123055
 10
-3.4097987077
 20
2.9889388148
 10
-3.3833249242
 20
3.0076172144
 10
-3.3539826802
 20
3.0252392717
  0
LINE
  5
241
100
AcDbEntity
  8
RACCORDO
100
AcDbLine
 62
7
  6
CONTINUOUS
 10
3.7813302011
 20
17.309804012
 11
3.6011637546
 21
16.8957787316
  0
LWPOLYLINE
  5
242
100
AcDbEntity
  8
RACCORDO
100
AcDbPolyline
 62
7
  6
CONTINUOUS
 90
21
 70
0
 10
-3.2194613475
 20
2.9717456484
 10
-3.2846685927
 20
2.9241329628
 10
-3.3425453685
 20
2.8645589682
 10
-3.3920368593
 20
2.7934490356
 10
-3.4324083893
 20
2.7108997946
 10
-3.4626128349
 20
2.6178380303
 10
-3.4817819678
 20
2.5164109453
 10
-3.4897856625
 20
2.4077853487
 10
-3.4865820887
 20
2.2928671437
 10
-3.4723551021
 20
2.1740866118
 10
-3.4476183129
 20
2.0533028812
 10
-3.4127979451
 20
1.9314198398
 10
-3.368419973
 20
1.8097938009
 10
-3.3151289814
 20
1.6898834172
 10
-3.2535930487
 20
1.572996507
 10
-3.1844759272
 20
1.4603260644
 10
-3.10856335
 20
1.3531714269
 10
-3.0267243926
 20
1.2528145779
 10
-2.9397679172
 20
1.1603560619
 10
-2.8485637362
 20
1.0768977706
 10
-2.7540973114
 20
1.0035587974
  0
LINE
  5
243
100
AcDbEntity
  8
DRAFT
100
AcDbLine
 62
7
  6
CONTINUOUS
 10
-3.0590402235
 20
3.0690010169
 11
-3.2194614387
 21
2.9717455931
  0
LINE
  5
244
100
AcDbEntity
  8
RACCORDO
100
AcDbLine
 62
7
  6
CONTINUOUS
 10
-3.3539826802
 20
3.0252392717
 11
-3.3537381785
 21
3.0253736576
  0
LWPOLYLINE
  5
245
100
AcDbEntity
  8
RACCORDO
100
AcDbPolyline
 62
7
  6
CONTINUOUS
 90
59
 70
0
 10
-3.3539880821
 20
3.0252353765
 10
-3.3349457975
 20
3.0350318269
 10
-3.3074623875
 20
3.0469377835
 10
-3.2791454277
 20
3.0567258392
 10
-3.2499148125
 20
3.064471745
 10
-3.219799835
 20
3.0701921686
 10
-3.1888737328
 20
3.0738948881
 10
-3.1571196546
 20
3.0756011105
 10
-3.1245882408
 20
3.0753154847
 10
-3.0913634351
 20
3.0730462951
 10
-3.0574811961
 20
3.0688059032
 10
-3.0230234078
 20
3.0626102303
 10
-2.9880640568
 20
3.0544790051
 10
-2.952622556
 20
3.0444227203
 10
-2.9167818764
 20
3.0324660026
 10
-2.8806150929
 20
3.0186346576
 10
-2.844116413
 20
3.0029260268
 10
-2.8073588706
 20
2.985364809
 10
-2.7704186954
 20
2.9659803191
 10
-2.7332858172
 20
2.9447584844
 10
-2.6960111825
 20
2.9217125453
 10
-2.6586889831
 20
2.8968837815
 10
-2.6213688191
 20
2.8702914366
 10
-2.5841114119
 20
2.8419635795
 10
-2.5469998106
 20
2.8119465884
 10
-2.5101133819
 20
2.7802916599
 10
-2.4735222249
 20
2.7470483201
 10
-2.4372958465
 20
2.7122672955
 10
-2.4015086295
 20
2.6760094225
 10
-2.3662273915
 20
2.6383348148
 10
-2.3315182438
 20
2.5993046665
 10
-2.2974502368
 20
2.5589879911
 10
-2.2640856766
 20
2.5174534672
 10
-2.2314863863
 20
2.4747713553
 10
-2.1997162555
 20
2.4310184521
 10
-2.1688312132
 20
2.386268938
 10
-2.1388887292
 20
2.3406020045
 10
-2.1099500726
 20
2.2941066033
 10
-2.0820655865
 20
2.2468640195
 10
-2.0552847989
 20
2.1989581184
 10
-2.0296622296
 20
2.1504854708
 10
-2.0052419547
 20
2.101533976
 10
-1.9820638708
 20
2.0521889308
 10
-1.9601710411
 20
2.0025454269
 10
-1.9396001578
 20
1.9526954599
 10
-1.9203816907
 20
1.9027243796
 10
-1.9025458077
 20
1.8527187728
 10
-1.886119845
 20
1.8027670781
 10
-1.8711275503
 20
1.7529588481
 10
-1.8575914124
 20
1.7033836601
 10
-1.8455292322
 20
1.654124948
 10
-1.834956721
 20
1.6052766714
 10
-1.8258896991
 20
1.5569456905
 10
-1.8183361373
 20
1.5092169602
 10
-1.8122989971
 20
1.4621745152
 10
-1.8077809647
 20
1.4159245758
 10
-1.8047783176
 20
1.3705572215
 10
-1.8032796407
 20
1.3261489202
 10
-1.8031264184
 20
1.294556772
  0
LWPOLYLINE
  5
246
100
AcDbEntity
  8
RACCORDO
100
AcDbPolyline
 62
253
  6
CONTINUOUS
 90
6
 70
0
 10
-2.9601718597
 20
-4.317010655
 10
-2.9691872148
 20
-4.3159838922
 10
-3.0512132771
 20
-4.3192343319
 10
-3.1280261808
 20
-4.335539631
 10
-3.1991254134
 20
-4.3649525407
 10
-3.2194614108
 20
-4.3764868811
  0
LINE
  5
247
100
AcDbEntity
  8
DRAFT
100
AcDbLine
 62
7
  6
CONTINUOUS
 10
-4.1382657482
 20
21.8824794573
 11
-4.1170690166
 21
21.2662557435
  0
LWPOLYLINE
  5
248
100
AcDbEntity
  8
RACCORDO
100
AcDbPolyline
 62
7
  6
CONTINUOUS
 90
20
 70
0
 10
-1.8031262115
 20
-6.0552160844
 10
-1.8032504772
 20
-6.0842989242
 10
-1.804648574
 20
-6.1252538157
 10
-1.8074826966
 20
-6.1651885067
 10
-1.8117455273
 20
-6.2039918437
 10
-1.8174272198
 20
-6.2416078325
 10
-1.8245249528
 20
-6.2780176026
 10
-1.8330279279
 20
-6.313141621
 10
-1.8429182517
 20
-6.3469001065
 10
-1.8541884022
 20
-6.3792567716
 10
-1.8668167137
 20
-6.4101279002
 10
-1.8807787364
 20
-6.4394449386
 10
-1.8960682759
 20
-6.4671831107
 10
-1.9126518346
 20
-6.4932616323
 10
-1.9305098433
 20
-6.517637532
 10
-1.94967602
 20
-6.5403305603
 10
-1.9701236752
 20
-6.5612678043
 10
-1.9918573009
 20
-6.5804185447
 10
-2.0150014387
 20
-6.597831215
 10
-2.0339024859
 20
-6.6100724825
  0
LWPOLYLINE
  5
249
100
AcDbEntity
  8
RACCORDO
100
AcDbPolyline
 62
7
  6
CONTINUOUS
 90
20
 70
0
 10
-1.8031263471
 20
1.2945489852
 10
-1.8037101438
 20
1.264910676
 10
-1.805781001
 20
1.2232975011
 10
-1.8093026242
 20
1.1827205517
 10
-1.8142652994
 20
1.143292056
 10
-1.8206576226
 20
1.1050680372
 10
-1.8284762244
 20
1.0680663825
 10
-1.8377087082
 20
1.0323667802
 10
-1.8483354964
 20
0.9980490357
 10
-1.8603490203
 20
0.9651477798
 10
-1.8737265979
 20
0.9337465753
 10
-1.8884425874
 20
0.9039144198
 10
-1.9044912772
 20
0.8756756344
 10
-1.9218391611
 20
0.8491106275
 10
-1.9404650191
 20
0.8242652112
 10
-1.9603999962
 20
0.8011245849
 10
-1.9816166091
 20
0.7797618961
 10
-2.004114845
 20
0.7602119946
 10
-2.0280074963
 20
0.7424356234
 10
-2.0463478109
 20
0.7306149777
  0
LWPOLYLINE
  5
24A
100
AcDbEntity
  8
RACCORDO
100
AcDbPolyline
 62
253
  6
CONTINUOUS
 90
76
 70
0
 10
-1.7738368073
 20
1.2537005451
 10
-1.775023197
 20
1.2061879861
 10
-1.7779413466
 20
1.1597266191
 10
-1.7825912698
 20
1.1143164368
 10
-1.7889755542
 20
1.0698416675
 10
-1.7970916163
 20
1.026418082
 10
-1.8069318193
 20
0.9843929274
 10
-1.8185188633
 20
0.9437818594
 10
-1.831830285
 20
0.904569089
 10
-1.846790908
 20
0.8670545799
 10
-1.8634190285
 20
0.831263205
 10
-1.8816967778
 20
0.7971698494
 10
-1.9014949111
 20
0.7649993934
 10
-1.9228113323
 20
0.7347865609
 10
-1.9456487056
 20
0.7064963058
 10
-1.9698850494
 20
0.6802487837
 10
-1.9955187727
 20
0.6560537508
 10
-2.0225520801
 20
0.6339011025
 10
-2.0508687564
 20
0.6138811624
 10
-2.0804828882
 20
0.5959941355
 10
-2.1113810094
 20
0.5802394641
 10
-2.1434056341
 20
0.5667062943
 10
-2.1765694478
 20
0.5554059931
 10
-2.2108603806
 20
0.5463268432
 10
-2.2460838586
 20
0.5395233385
 10
-2.2822413128
 20
0.5350104024
 10
-2.3193318863
 20
0.5327727847
 10
-2.3571575924
 20
0.5328197072
 10
-2.3957197978
 20
0.5351625851
 10
-2.435017624
 20
0.5397897251
 10
-2.4748497125
 20
0.5466756886
 10
-2.5152198433
 20
0.55583151
 10
-2.5561246079
 20
0.5672459432
 10
-2.5973518439
 20
0.5808601397
 10
-2.638904992
 20
0.5966861121
 10
-2.6807808443
 20
0.6147117151
 10
-2.7227572331
 20
0.6348418815
 10
-2.7648343761
 20
0.6570877697
 10
-2.8070121351
 20
0.681438176
 10
-2.8490677703
 20
0.7077645118
 10
-2.8910009947
 20
0.7360777429
 10
-2.9328120161
 20
0.7663669487
 10
-2.9742787984
 20
0.7984707321
 10
-3.0153978368
 20
0.8323973866
 10
-3.0561724034
 20
0.8681387513
 10
-3.096390596
 20
0.9055087663
 10
-3.1360484865
 20
0.9445144189
 10
-3.1751496316
 20
0.9851489335
 10
-3.2134933349
 20
1.0272056171
 10
-3.2510780348
 20
1.07069464
 10
-3.287904805
 20
1.11560611
 10
-3.3237768978
 20
1.1617032437
 10
-3.358692885
 20
1.2090000174
 10
-3.3926536206
 20
1.2574827816
 10
-3.4254658011
 20
1.3068733021
 10
-3.4571169684
 20
1.3571695358
 10
-3.4876189646
 20
1.4083738763
 10
-3.516814981
 20
1.4602147187
 10
-3.5446907906
 20
1.5126765964
 10
-3.5712600001
 20
1.5657753285
 10
-3.596407608
 20
1.6192862059
 10
-3.6201346379
 20
1.6732202676
 10
-3.6424394536
 20
1.7275668223
 10
-3.6632031363
 20
1.7820685244
 10
-3.6824275803
 20
1.8367626786
 10
-3.700110323
 20
1.8916123023
 10
-3.7161260322
 20
1.9462485487
 10
-3.7304567209
 20
2.0006766898
 10
-3.7431199462
 20
2.0548916967
 10
-3.7540438701
 20
2.1085091696
 10
-3.763205792
 20
2.1615196135
 10
-3.7706281731
 20
2.2139326582
 10
-3.776307123
 20
2.2653924737
 10
-3.7802413828
 20
2.3157804283
 10
-3.7824322064
 20
2.3652151554
 10
-3.7828795794
 20
2.4136966624
  0
LWPOLYLINE
  5
24B
100
AcDbEntity
  8
RACCORDO
100
AcDbPolyline
 62
253
  6
CONTINUOUS
 90
38
 70
0
 10
-2.0712662265
 20
0.9552761042
 10
-2.0201243474
 20
1.0046221241
 10
-1.9773385634
 20
1.063162757
 10
-1.9429893794
 20
1.1297026052
 10
-1.9174678603
 20
1.2014763792
 10
-1.9002559246
 20
1.2761916593
 10
-1.8903812134
 20
1.3530076323
 10
-1.8870681968
 20
1.4311051005
 10
-1.8896139528
 20
1.509405151
 10
-1.8973003001
 20
1.5869928318
 10
-1.9095139605
 20
1.6636156006
 10
-1.9256556311
 20
1.7386622672
 10
-1.9451255543
 20
1.8115501776
 10
-1.9675023338
 20
1.8822765953
 10
-1.9923127261
 20
1.9505099166
 10
-2.0190834717
 20
2.0159246179
 10
-2.0475409047
 20
2.0786390581
 10
-2.0773202391
 20
2.1384869109
 10
-2.1080672198
 20
2.195323789
 10
-2.139634001
 20
2.2493536701
 10
-2.1717644526
 20
2.3005371865
 10
-2.2041903352
 20
2.348813587
 10
-2.2368237445
 20
2.3943735338
 10
-2.2694737605
 20
2.4372300855
 10
-2.3019520725
 20
2.4773976629
 10
-2.334227408
 20
2.5150703101
 10
-2.3661675228
 20
2.5502993321
 10
-2.3976377428
 20
2.5831309965
 10
-2.4286396657
 20
2.6137430305
 10
-2.4590853993
 20
2.6422064031
 10
-2.4888793964
 20
2.6685825905
 10
-2.5180361543
 20
2.693023027
 10
-2.546485217
 20
2.7155956957
 10
-2.574174406
 20
2.7363811885
 10
-2.601162238
 20
2.7555337827
 10
-2.627443165
 20
2.7731473877
 10
-2.6529453
 20
2.7892684472
 10
-2.6776381712
 20
2.8039711807
  0
LWPOLYLINE
  5
24C
100
AcDbEntity
  8
RACCORDO
100
AcDbPolyline
 62
253
  6
CONTINUOUS
 90
5
 70
0
 10
-2.0126426202
 20
0.8816087635
 10
-1.9540688343
 20
0.9208013466
 10
-1.8988649524
 20
0.9740671313
 10
-1.8526801719
 20
1.0372570556
 10
-1.8227253668
 20
1.0952824052
  0
LINE
  5
24D
100
AcDbEntity
  8
RACCORDO
100
AcDbLine
 62
7
  6
CONTINUOUS
 10
-2.0459909148
 20
0.7308306669
 11
-2.046358504
 21
0.7306080573
  0
LWPOLYLINE
  5
24E
100
AcDbEntity
  8
RACCORDO
100
AcDbPolyline
 62
253
  6
CONTINUOUS
 90
58
 70
0
 10
-2.046358504
 20
0.7306080573
 10
-2.0605443315
 20
0.7223781962
 10
-2.0892489064
 20
0.7077493432
 10
-2.1190523428
 20
0.6951637512
 10
-2.1499087959
 20
0.6846441099
 10
-2.1817606839
 20
0.6762132192
 10
-2.2145379189
 20
0.6698904945
 10
-2.2481781528
 20
0.66568676
 10
-2.282626575
 20
0.6636076481
 10
-2.317820652
 20
0.6636559488
 10
-2.3536958994
 20
0.6658302723
 10
-2.3901914601
 20
0.6701256425
 10
-2.4272486095
 20
0.6765344424
 10
-2.4648033139
 20
0.685045504
 10
-2.502788722
 20
0.6956436049
 10
-2.5411408966
 20
0.7083108686
 10
-2.5797940901
 20
0.7230259408
 10
-2.6186789455
 20
0.739762818
 10
-2.6577253174
 20
0.7584913937
 10
-2.6968642141
 20
0.7791785506
 10
-2.7360271697
 20
0.8017881351
 10
-2.7751445183
 20
0.8262799317
 10
-2.814147851
 20
0.8526110843
 10
-2.8529681161
 20
0.8807350224
 10
-2.8915349912
 20
0.9106007518
 10
-2.9297791814
 20
0.9421542368
 10
-2.9676348716
 20
0.9753408712
 10
-3.0050377587
 20
1.0101044396
 10
-3.0419209483
 20
1.0463828975
 10
-3.0782204599
 20
1.0841135099
 10
-3.1138773505
 20
1.1232359766
 10
-3.1488306263
 20
1.1636848483
 10
-3.1830159517
 20
1.2053871921
 10
-3.2163709735
 20
1.2482683902
 10
-3.248840845
 20
1.2922596349
 10
-3.2803631918
 20
1.3372780659
 10
-3.3108680826
 20
1.3832235196
 10
-3.3402981349
 20
1.430007179
 10
-3.368607194
 20
1.477553001
 10
-3.3957464467
 20
1.525776636
 10
-3.4216604841
 20
1.5745762627
 10
-3.4463142469
 20
1.6238821772
 10
-3.4696889004
 20
1.6736583346
 10
-3.4917440277
 20
1.7238270209
 10
-3.5124337151
 20
1.7742924219
 10
-3.531728189
 20
1.8249916904
 10
-3.5495990176
 20
1.8758693315
 10
-3.5659960418
 20
1.9268025807
 10
-3.5808647985
 20
1.9776271076
 10
-3.5941814751
 20
2.0282610477
 10
-3.6059210625
 20
2.0786072907
 10
-3.6160469987
 20
2.1284814668
 10
-3.6245510689
 20
2.1777979152
 10
-3.6314286935
 20
2.2264744214
 10
-3.6366712818
 20
2.2743397882
 10
-3.6402876631
 20
2.3212898215
 10
-3.6422939789
 20
2.3672837973
 10
-3.6427059292
 20
2.4122537188
  0
LINE
  5
24F
100
AcDbEntity
  8
DRAFT
100
AcDbLine
 62
7
  6
CONTINUOUS
 10
-1.8603010819
 20
0.965279068
 11
-2.0126426268
 21
0.8816087599
  0
LWPOLYLINE
  5
250
100
AcDbEntity
  8
RACCORDO
100
AcDbPolyline
 62
7
  6
CONTINUOUS
 90
25
 70
0
 10
4.7029276855
 20
-5.9535645278
 10
4.7228736172
 20
-5.964475539
 10
4.7468207515
 20
-5.9761104067
 10
4.771412937
 20
-5.9865833336
 10
4.7965943662
 20
-5.9959254328
 10
4.8223149924
 20
-6.0041617327
 10
4.8485032308
 20
-6.0113046462
 10
4.8751033846
 20
-6.0173693119
 10
4.9020656429
 20
-6.0223644387
 10
4.9292982696
 20
-6.0262920247
 10
4.9567457745
 20
-6.0291576183
 10
4.9843563231
 20
-6.0309640519
 10
5.0120301768
 20
-6.0317110652
 10
5.0397123342
 20
-6.0313984284
 10
5.0673477663
 20
-6.0300257171
 10
5.0948366917
 20
-6.0275915523
 10
5.1221273734
 20
-6.0240927075
 10
5.1491643536
 20
-6.0195226512
 10
5.1758560322
 20
-6.0138783055
 10
5.2021525618
 20
-6.0071503576
 10
5.2279986779
 20
-5.9993227707
 10
5.253323741
 20
-5.9903821965
 10
5.278077978
 20
-5.9803027324
 10
5.3022056403
 20
-5.9690531924
 10
5.31955169
 20
-5.959993438
  0
LWPOLYLINE
  5
251
100
AcDbEntity
  8
RACCORDO
100
AcDbPolyline
 62
253
  6
CONTINUOUS
 90
31
 70
0
 10
4.6615061315
 20
-5.8618981706
 10
4.6802802763
 20
-5.8721946887
 10
4.6999507595
 20
-5.881921677
 10
4.7204646819
 20
-5.8910531921
 10
4.741765929
 20
-5.899564603
 10
4.7637981716
 20
-5.9074336317
 10
4.7865053354
 20
-5.9146401179
 10
4.8098284558
 20
-5.921165179
 10
4.8337034727
 20
-5.9269906641
 10
4.858064317
 20
-5.9321001819
 10
4.8828447062
 20
-5.9364800728
 10
4.9079791074
 20
-5.9401189319
 10
4.9334007836
 20
-5.9430068295
 10
4.9590418782
 20
-5.9451362109
 10
4.9848333799
 20
-5.9465014417
 10
5.0107059582
 20
-5.9470984936
 10
5.0365902576
 20
-5.9469259792
 10
5.0624168844
 20
-5.9459845236
 10
5.0881164026
 20
-5.9442762565
 10
5.1136196347
 20
-5.9418060437
 10
5.1388585113
 20
-5.9385807054
 10
5.1637660278
 20
-5.9346083339
 10
5.1882763292
 20
-5.9298995993
 10
5.2123227113
 20
-5.924467444
 10
5.2358385945
 20
-5.9183264698
 10
5.258759364
 20
-5.9114940903
 10
5.2810255059
 20
-5.9039885766
 10
5.302580363
 20
-5.8958285145
 10
5.3233669441
 20
-5.887035243
 10
5.3433283877
 20
-5.8776330952
 10
5.3624110142
 20
-5.8676474325
  0
LINE
  5
252
100
AcDbEntity
  8
RACCORDO
100
AcDbLine
 62
253
  6
CONTINUOUS
 10
4.6615061297
 20
-6.4446520345
 11
-10.246692267
 21
2.1631548762
  0
LINE
  5
253
100
AcDbEntity
  8
RACCORDO
100
AcDbLine
 62
253
  6
CONTINUOUS
 10
4.8017049802
 20
-6.2003120369
 11
-10.1065167125
 21
2.4075083245
  0
LINE
  5
254
100
AcDbEntity
  8
RACCORDO
100
AcDbLine
 62
7
  6
CONTINUOUS
 10
-10.2052874269
 20
2.654251514
 11
4.7029342666
 21
-5.9535688479
  0
LINE
  5
255
100
AcDbEntity
  8
RACCORDO
100
AcDbLine
 62
253
  6
CONTINUOUS
 10
-10.2466922672
 20
2.7459087331
 11
4.6615061295
 21
-5.8618981775
  0
LWPOLYLINE
  5
256
100
AcDbEntity
  8
RACCORDO
100
AcDbPolyline
 62
253
  6
CONTINUOUS
 90
17
 70
0
 10
-10.2466922651
 20
2.1631548715
 10
-10.2645196924
 20
2.1739980124
 10
-10.2813503901
 20
2.1853646572
 10
-10.2971394327
 20
2.1972242587
 10
-10.3118440671
 20
2.2095444712
 10
-10.3254258284
 20
2.2222927018
 10
-10.337850133
 20
2.235436382
 10
-10.3490842243
 20
2.248941497
 10
-10.3590967651
 20
2.2627710021
 10
-10.3678599317
 20
2.2768864235
 10
-10.3753500364
 20
2.291249508
 10
-10.3815474243
 20
2.3058223613
 10
-10.386435659
 20
2.3205660106
 10
-10.3900016367
 20
2.3354412878
 10
-10.3922357046
 20
2.3504082857
 10
-10.3931318389
 20
2.3654264233
 10
-10.3931508421
 20
2.3678226434
  0
LWPOLYLINE
  5
257
100
AcDbEntity
  8
RACCORDO
100
AcDbPolyline
 62
253
  6
CONTINUOUS
 90
27
 70
0
 10
-10.1065167125
 20
2.4075083245
 10
-10.1172465691
 20
2.4140409983
 10
-10.1273298504
 20
2.420853541
 10
-10.1367665564
 20
2.4279459526
 10
-10.1455789828
 20
2.4353388908
 10
-10.1537448339
 20
2.443011698
 10
-10.1611972222
 20
2.4509024014
 10
-10.1679301542
 20
2.4590127483
 10
-10.1739496235
 20
2.4673409914
 10
-10.1792067232
 20
2.4758199164
 10
-10.1836950819
 20
2.4844504914
 10
-10.1874210711
 20
2.4932317482
 10
-10.1903548985
 20
2.5020935683
 10
-10.1924902491
 20
2.5110367372
 10
-10.193833438
 20
2.5200604694
 10
-10.1943736171
 20
2.5290922895
 10
-10.1941042742
 20
2.5381322351
 10
-10.1930319216
 20
2.5471802687
 10
-10.1911652488
 20
2.5561638021
 10
-10.1884979304
 20
2.5650822043
 10
-10.1850362918
 20
2.5739361064
 10
-10.1808079995
 20
2.5826548139
 10
-10.1758066517
 20
2.5912374894
 10
-10.1700386501
 20
2.5996849703
 10
-10.1635508671
 20
2.607929074
 10
-10.1563372475
 20
2.6159681868
 10
-10.1499349373
 20
2.6222916802
  0
LWPOLYLINE
  5
258
100
AcDbEntity
  8
RACCORDO
100
AcDbPolyline
 62
253
  6
CONTINUOUS
 90
76
 70
0
 10
-1.7738368073
 20
-6.0960018865
 10
-1.7742910874
 20
-6.1430678464
 10
-1.7764771886
 20
-6.1890828789
 10
-1.7803951248
 20
-6.2340469915
 10
-1.7860456948
 20
-6.2780748399
 10
-1.7934281042
 20
-6.3210517697
 10
-1.8025400827
 20
-6.362633885
 10
-1.8134043562
 20
-6.4028055612
 10
-1.8259984359
 20
-6.4415825612
 10
-1.8402524347
 20
-6.478668191
 10
-1.8561848636
 20
-6.5140377336
 10
-1.8737776393
 20
-6.5477161568
 10
-1.8929061618
 20
-6.5794813995
 10
-1.9135689048
 20
-6.6092990977
 10
-1.9357679627
 20
-6.6372039493
 10
-1.9593842899
 20
-6.6630775588
 10
-1.9844164662
 20
-6.6869102637
 10
-2.0108665253
 20
-6.7087120874
 10
-2.0386206757
 20
-6.7283942068
 10
-2.0676928724
 20
-6.7459563411
 10
-2.0980697807
 20
-6.7613991364
 10
-2.1295967316
 20
-6.7746351938
 10
-2.1622864694
 20
-6.7856531961
 10
-2.1961268652
 20
-6.7944648234
 10
-2.2309259861
 20
-6.8010171994
 10
-2.2666854754
 20
-6.8052955453
 10
-2.3034042635
 20
-6.8073149785
 10
-2.3408863685
 20
-6.8070674793
 10
-2.3791333121
 20
-6.8045417477
 10
-2.4181440604
 20
-6.7997493717
 10
-2.4577187946
 20
-6.7927166613
 10
-2.4978614215
 20
-6.7834326841
 10
-2.5385684054
 20
-6.7719085918
 10
-2.5796287429
 20
-6.7582038078
 10
-2.6210460217
 20
-6.7423064339
 10
-2.6628168865
 20
-6.7242285057
 10
-2.7047198869
 20
-6.7040653284
 10
-2.7467554102
 20
-6.6818058633
 10
-2.7889231483
 20
-6.6574611959
 10
-2.8310005696
 20
-6.6311597952
 10
-2.872987561
 20
-6.602890811
 10
-2.9148841564
 20
-6.5726650468
 10
-2.9564680062
 20
-6.5406434287
 10
-2.9977357737
 20
-6.5068177616
 10
-3.0386905632
 20
-6.4711961033
 10
-3.0791196546
 20
-6.4339637407
 10
-3.1190192741
 20
-6.3951137653
 10
-3.1583928245
 20
-6.3546528663
 10
-3.1970383302
 20
-6.3127867153
 10
-3.2349544113
 20
-6.2695052298
 10
-3.2721419601
 20
-6.2248182043
 10
-3.308402405
 20
-6.1789611222
 10
-3.3437345537
 20
-6.1319201271
 10
-3.3781390249
 20
-6.0837087368
 10
-3.4114199834
 20
-6.034603509
 10
-3.4435650554
 20
-5.984606517
 10
-3.474585999
 20
-5.9337153245
 10
-3.504323223
 20
-5.8821997508
 10
-3.5327623976
 20
-5.830075158
 10
-3.5599172325
 20
-5.7773258188
 10
-3.5856702536
 20
-5.7241749531
 10
-3.6100226414
 20
-5.6706115932
 10
-3.632972603
 20
-5.6166463464
 10
-3.6543982756
 20
-5.5625348378
 10
-3.6743020999
 20
-5.5082401169
 10
-3.6926810672
 20
-5.4537988003
 10
-3.709405263
 20
-5.3995769367
 10
-3.7244569485
 20
-5.3455693978
 10
-3.7378534328
 20
-5.2917810599
 10
-3.7495175509
 20
-5.2385930832
 10
-3.759426672
 20
-5.1860149779
 10
-3.7676031873
 20
-5.134037094
 10
-3.7740376701
 20
-5.0830119717
 10
-3.7787270159
 20
-5.0330571471
 10
-3.7816743238
 20
-4.9840550822
 10
-3.7828795794
 20
-4.9360057692
  0
LWPOLYLINE
  5
259
100
AcDbEntity
  8
RACCORDO
100
AcDbPolyline
 62
7
  6
CONTINUOUS
 90
9
 70
0
 10
-2.5778439976
 20
0.8996932196
 10
-2.4990453342
 20
0.8668130188
 10
-2.4214526496
 20
0.8427918059
 10
-2.3453336177
 20
0.8276409183
 10
-2.2713532449
 20
0.8214425836
 10
-2.2005828979
 20
0.8241098685
 10
-2.1336781636
 20
0.8352937319
 10
-2.0708873828
 20
0.8546117641
 10
-2.0126425525
 20
0.8816088006
  0
LINE
  5
25A
100
AcDbEntity
  8
RACCORDO
100
AcDbLine
 62
253
  6
CONTINUOUS
 10
-2.6776381712
 20
0.9782650433
 11
-2.5915790735
 21
0.9339969479
  0
LINE
  5
25B
100
AcDbEntity
  8
RACCORDO
100
AcDbLine
 62
7
  6
CONTINUOUS
 10
-2.6573732451
 20
0.9413639035
 11
-2.5778439976
 21
0.8996932196
  0
LINE
  5
25C
100
AcDbEntity
  8
RACCORDO
100
AcDbLine
 62
7
  6
CONTINUOUS
 10
-2.7540973114
 20
1.0035587974
 11
-2.6573732451
 21
0.9413639035
  0
LWPOLYLINE
  5
25D
100
AcDbEntity
  8
RACCORDO
100
AcDbPolyline
 62
253
  6
CONTINUOUS
 90
4
 70
0
 10
-2.7541141243
 20
1.0267024298
 10
-2.7278331842
 20
1.0090888324
 10
-2.7023310425
 20
0.9929677768
 10
-2.6776381712
 20
0.9782650433
  0
LWPOLYLINE
  5
25E
100
AcDbEntity
  8
RACCORDO
100
AcDbPolyline
 62
7
  6
CONTINUOUS
 90
21
 70
0
 10
-3.2194613475
 20
-4.3764868427
 10
-3.2846685927
 20
-4.4240995284
 10
-3.3425453685
 20
-4.483673523
 10
-3.3920368593
 20
-4.5547834556
 10
-3.4324083893
 20
-4.6373326965
 10
-3.4626128349
 20
-4.7303944608
 10
-3.4817819678
 20
-4.8318215458
 10
-3.4897856625
 20
-4.9404471424
 10
-3.4865820887
 20
-5.0553653474
 10
-3.4723551021
 20
-5.1741458793
 10
-3.4476183129
 20
-5.2949296099
 10
-3.4127979451
 20
-5.4168126514
 10
-3.368419973
 20
-5.5384386902
 10
-3.3151289814
 20
-5.6583490739
 10
-3.2535930487
 20
-5.7752359842
 10
-3.1844759272
 20
-5.8879064267
 10
-3.10856335
 20
-5.9950610642
 10
-3.0267243926
 20
-6.0954179132
 10
-2.9397679172
 20
-6.1878764292
 10
-2.8485637362
 20
-6.2713347205
 10
-2.7540973114
 20
-6.3446736937
  0
LWPOLYLINE
  5
25F
100
AcDbEntity
  8
RACCORDO
100
AcDbPolyline
 62
253
  6
CONTINUOUS
 90
8
 70
0
 10
-2.5915790735
 20
0.9339969479
 10
-2.506544852
 20
0.9011059707
 10
-2.4235463619
 20
0.8799822507
 10
-2.3435866605
 20
0.8708774362
 10
-2.2675979474
 20
0.8738922398
 10
-2.1964387588
 20
0.8890003106
 10
-2.1305716606
 20
0.9162492722
 10
-2.0712662265
 20
0.9552761042
  0
LINE
  5
260
100
AcDbEntity
  8
RACCORDO
100
AcDbLine
 62
253
  6
CONTINUOUS
 10
-2.6776381712
 20
2.8039711807
 11
-2.7636965747
 21
2.848239677
  0
LWPOLYLINE
  5
261
100
AcDbEntity
  8
RACCORDO
100
AcDbPolyline
 62
253
  6
CONTINUOUS
 90
38
 70
0
 10
-2.0712662265
 20
-6.3929563869
 10
-2.0201243474
 20
-6.343610367
 10
-1.9773385634
 20
-6.2850697341
 10
-1.9429893794
 20
-6.2185298859
 10
-1.9174678603
 20
-6.146756112
 10
-1.9002559246
 20
-6.0720408319
 10
-1.8903812134
 20
-5.9952248589
 10
-1.8870681968
 20
-5.9171273906
 10
-1.8896139528
 20
-5.8388273402
 10
-1.8973003001
 20
-5.7612396593
 10
-1.9095139605
 20
-5.6846168905
 10
-1.9256556311
 20
-5.6095702239
 10
-1.9451255543
 20
-5.5366823136
 10
-1.9675023338
 20
-5.4659558959
 10
-1.9923127261
 20
-5.3977225745
 10
-2.0190834717
 20
-5.3323078733
 10
-2.0475409047
 20
-5.269593433
 10
-2.0773202391
 20
-5.2097455803
 10
-2.1080672198
 20
-5.1529087022
 10
-2.139634001
 20
-5.098878821
 10
-2.1717644526
 20
-5.0476953047
 10
-2.2041903352
 20
-4.9994189042
 10
-2.2368237445
 20
-4.9538589573
 10
-2.2694737605
 20
-4.9110024056
 10
-2.3019520725
 20
-4.8708348283
 10
-2.334227408
 20
-4.833162181
 10
-2.3661675228
 20
-4.797933159
 10
-2.3976377428
 20
-4.7651014947
 10
-2.4286396657
 20
-4.7344894606
 10
-2.4590853993
 20
-4.7060260881
 10
-2.4888793964
 20
-4.6796499007
 10
-2.5180361543
 20
-4.6552094641
 10
-2.546485217
 20
-4.6326367955
 10
-2.574174406
 20
-4.6118513026
 10
-2.601162238
 20
-4.5926987085
 10
-2.627443165
 20
-4.5750851035
 10
-2.6529453
 20
-4.558964044
 10
-2.6776381712
 20
-4.5442613104
  0
LINE
  5
262
100
AcDbEntity
  8
DRAFT
100
AcDbLine
 62
7
  6
CONTINUOUS
 10
-3.0748925532
 20
-4.2888419553
 11
-3.2194614387
 21
-4.376486898
  0
LINE
  5
263
100
AcDbEntity
  8
RACCORDO
100
AcDbLine
 62
7
  6
CONTINUOUS
 10
-3.3671128413
 20
-4.3302047062
 11
-3.3668399537
 21
-4.3300547011
  0
LWPOLYLINE
  5
264
100
AcDbEntity
  8
RACCORDO
100
AcDbPolyline
 62
7
  6
CONTINUOUS
 90
59
 70
0
 10
-3.3671185834
 20
-4.3302087878
 10
-3.3469123092
 20
-4.3198862983
 10
-3.3199501164
 20
-4.3084125892
 10
-3.2921497975
 20
-4.2990377088
 10
-3.2634150897
 20
-4.2916775121
 10
-3.2337744847
 20
-4.2863142166
 10
-3.203306248
 20
-4.2829388502
 10
-3.1719832683
 20
-4.2815288701
 10
-3.1398576327
 20
-4.2820800901
 10
-3.1070158483
 20
-4.2845836041
 10
-3.0734816606
 20
-4.2890289871
 10
-3.0393341198
 20
-4.2954026557
 10
-3.00465096
 20
-4.3036857716
 10
-2.9694462652
 20
-4.3138712428
 10
-2.933800714
 20
-4.3259373616
 10
-2.8977891734
 20
-4.3398598083
 10
-2.8614052365
 20
-4.3556437841
 10
-2.8247203566
 20
-4.3732673489
 10
-2.7878116934
 20
-4.3927027207
 10
-2.7506717891
 20
-4.413964444
 10
-2.7133490237
 20
-4.4370424396
 10
-2.6759398948
 20
-4.4618956538
 10
-2.6385037832
 20
-4.4884992148
 10
-2.601103662
 20
-4.5168236136
 10
-2.5638205189
 20
-4.5468242546
 10
-2.5267369804
 20
-4.5784475583
 10
-2.4899239382
 20
-4.6116434729
 10
-2.453450541
 20
-4.6463617774
 10
-2.4173927122
 20
-4.6825403998
 10
-2.3818180506
 20
-4.720118714
 10
-2.3467925092
 20
-4.7590360238
 10
-2.31238535
 20
-4.7992235627
 10
-2.2786593388
 20
-4.8406127844
 10
-2.2456767655
 20
-4.8831336256
 10
-2.2135018864
 20
-4.9267097181
 10
-2.1821911666
 20
-4.9712672052
 10
-2.1518027744
 20
-5.016727154
 10
-2.1223987238
 20
-5.0630009756
 10
-2.0940300727
 20
-5.1100077571
 10
-2.0667471468
 20
-5.1576640288
 10
-2.0406054377
 20
-5.2058735998
 10
-2.0156498696
 20
-5.2545490474
 10
-1.9919212384
 20
-5.3036055165
 10
-1.9694637111
 20
-5.3529481879
 10
-1.9483149208
 20
-5.4024856339
 10
-1.9285063043
 20
-5.4521329585
 10
-1.9100691652
 20
-5.5018035802
 10
-1.8930317576
 20
-5.5514096537
 10
-1.8774188702
 20
-5.6008621105
 10
-1.8632542394
 20
-5.6500710895
 10
-1.8505563198
 20
-5.698954523
 10
-1.8393421396
 20
-5.7474181985
 10
-1.8296294216
 20
-5.7953524615
 10
-1.8214265836
 20
-5.8426740959
 10
-1.814737466
 20
-5.889298663
 10
-1.8095663737
 20
-5.9351141194
 10
-1.8059098078
 20
-5.980029218
 10
-1.8037559735
 20
-6.0239709403
 10
-1.8031264072
 20
-6.0552075005
  0
LWPOLYLINE
  5
265
100
AcDbEntity
  8
RACCORDO
100
AcDbPolyline
 62
253
  6
CONTINUOUS
 90
6
 70
0
 10
-2.8937468385
 20
3.0236566608
 10
-2.9691872148
 20
3.032248599
 10
-3.0512132771
 20
3.0289981592
 10
-3.1280261808
 20
3.0126928601
 10
-3.1991254134
 20
2.9832799504
 10
-3.2194614108
 20
2.97174561
  0
LWPOLYLINE
  5
266
100
AcDbEntity
  8
RACCORDO
100
AcDbPolyline
 62
253
  6
CONTINUOUS
 90
42
 70
0
 10
-2.7636965747
 20
2.848239677
 10
-2.8487304012
 20
2.8811308823
 10
-2.9317287954
 20
2.9022546576
 10
-3.0116888579
 20
2.9113592635
 10
-3.0876782313
 20
2.9083440787
 10
-3.1588379061
 20
2.8932357272
 10
-3.2247050831
 20
2.8659867201
 10
-3.2840104221
 20
2.826959943
 10
-3.3351522585
 20
2.7776139477
 10
-3.3779381599
 20
2.719073247
 10
-3.4122875139
 20
2.6525333007
 10
-3.4378091598
 20
2.5807594536
 10
-3.4550211323
 20
2.5060441522
 10
-3.4648958371
 20
2.4292281829
 10
-3.4682088479
 20
2.3511307179
 10
-3.4656631078
 20
2.2728306583
 10
-3.4579767772
 20
2.1952429679
 10
-3.4457631154
 20
2.1186201999
 10
-3.4296214125
 20
2.0435735519
 10
-3.410151439
 20
1.9706856707
 10
-3.3877746111
 20
1.8999592809
 10
-3.3629641802
 20
1.8317259818
 10
-3.336193398
 20
1.7663113017
 10
-3.3077359271
 20
1.7035968833
 10
-3.2779565507
 20
1.6437490548
 10
-3.2472095269
 20
1.5869122016
 10
-3.2156427057
 20
1.5328823436
 10
-3.1835122197
 20
1.4816988471
 10
-3.151086306
 20
1.4334224645
 10
-3.1184528672
 20
1.3878625347
 10
-3.085802823
 20
1.3450059993
 10
-3.0533244844
 20
1.3048384373
 10
-3.0210491235
 20
1.2671658047
 10
-2.9891089832
 20
1.2319367975
 10
-2.9576387389
 20
1.1991051471
 10
-2.9266367969
 20
1.1684931241
 10
-2.8961910545
 20
1.1400297566
 10
-2.866397054
 20
1.1136535712
 10
-2.8372402863
 20
1.0892131403
 10
-2.8087911995
 20
1.0666404856
 10
-2.7811019801
 20
1.0458550102
 10
-2.7541141243
 20
1.0267024298
  0
LINE
  5
267
100
AcDbEntity
  8
RACCORDO
100
AcDbLine
 62
7
  6
CONTINUOUS
 10
9.6001222594
 20
-3.6156416359
 11
9.687751562
 21
-3.666237697
  0
LWPOLYLINE
  5
268
100
AcDbEntity
  8
RACCORDO
100
AcDbPolyline
 62
253
  6
CONTINUOUS
 90
37
 70
0
 10
5.666327193
 20
-22.7592064971
 10
5.668156043
 20
-22.791701975
 10
5.6711787195
 20
-22.8233112634
 10
5.6753952224
 20
-22.8540343625
 10
5.6808166254
 20
-22.8839210124
 10
5.6874318549
 20
-22.9129214729
 10
5.6952076899
 20
-22.9408865232
 10
5.7041500875
 20
-22.9678102207
 10
5.7142530906
 20
-22.993698508
 10
5.7254656077
 20
-23.0184199916
 10
5.7377931254
 20
-23.0419683536
 10
5.751230157
 20
-23.0643499118
 10
5.7657091503
 20
-23.0854522271
 10
5.7812353213
 20
-23.1052689239
 10
5.7978034539
 20
-23.1238063777
 10
5.8153303486
 20
-23.1409712752
 10
5.8338209733
 20
-23.1567568059
 10
5.8532703601
 20
-23.1711697803
 10
5.8735804047
 20
-23.1841373165
 10
5.8947555
 20
-23.1956520637
 10
5.9167912532
 20
-23.2057213727
 10
5.9395763827
 20
-23.2142944145
 10
5.9631145191
 20
-23.2213635746
 10
5.9874020318
 20
-23.2269364675
 10
6.012316748
 20
-23.230985107
 10
6.0378617868
 20
-23.2335018619
 10
6.064034029
 20
-23.2344943635
 10
6.0907019444
 20
-23.2339575192
 10
6.117868465
 20
-23.2318835062
 10
6.1455306588
 20
-23.2282801475
 10
6.1735481999
 20
-23.2231658197
 10
6.2019232108
 20
-23.2165325746
 10
6.2306535691
 20
-23.2083883603
 10
6.2595925817
 20
-23.1987753981
 10
6.2886913509
 20
-23.1877077618
 10
6.3179987744
 20
-23.1751713775
 10
6.3475148523
 20
-23.1611662453
  0
LWPOLYLINE
  5
269
100
AcDbEntity
  8
RACCORDO
100
AcDbPolyline
 62
253
  6
CONTINUOUS
 90
20
 70
0
 10
4.9657431054
 20
-22.7722744489
 10
4.9684552525
 20
-22.8208985607
 10
4.9729674506
 20
-22.8683382499
 10
4.9792722389
 20
-22.9145136705
 10
4.9873593148
 20
-22.9593469998
 10
4.9972151075
 20
-23.002762949
 10
5.0088228913
 20
-23.0446888141
 10
5.0221638108
 20
-23.0850547337
 10
5.0372155082
 20
-23.1237920097
 10
5.0539515907
 20
-23.1608337369
 10
5.0723439584
 20
-23.1961173057
 10
5.0923621043
 20
-23.2295840891
 10
5.1139717849
 20
-23.2611777217
 10
5.1371371556
 20
-23.2908453025
 10
5.1618195721
 20
-23.3185370452
 10
5.1879768164
 20
-23.3442060093
 10
5.2155656902
 20
-23.3678093864
 10
5.2445400696
 20
-23.3893074207
 10
5.2748497773
 20
-23.4086629869
 10
5.2789460505
 20
-23.4110551039
  0
LINE
  5
26A
100
AcDbEntity
  8
DRAFT
100
AcDbLine
 62
7
  6
CONTINUOUS
 10
3.7813302011
 20
17.309804012
 11
3.8025269327
 21
16.6935802982
  0
LWPOLYLINE
  5
26B
100
AcDbEntity
  8
RACCORDO
100
AcDbPolyline
 62
253
  6
CONTINUOUS
 90
12
 70
0
 10
4.6615177776
 20
-5.861904903
 10
4.6619016943
 20
-5.8738244165
 10
4.6630663288
 20
-5.8852265898
 10
4.6650052338
 20
-5.8960483056
 10
4.6677076765
 20
-5.9062296605
 10
4.671158697
 20
-5.915714295
 10
4.6753391919
 20
-5.9244497065
 10
4.6802260194
 20
-5.93238754
 10
4.6857921282
 20
-5.9394838557
 10
4.6920067064
 20
-5.945699372
 10
4.6988353527
 20
-5.950999683
 10
4.7029274604
 20
-5.9535649176
  0
LWPOLYLINE
  5
26C
100
AcDbEntity
  8
RACCORDO
100
AcDbPolyline
 62
253
  6
CONTINUOUS
 90
13
 70
0
 10
4.6615061297
 20
-6.4446520345
 10
4.6644173687
 20
-7.8182736505
 10
4.6714093233
 20
-9.1895682589
 10
4.6824816421
 20
-10.5585204588
 10
4.6976333704
 20
-11.9251041066
 10
4.7168645623
 20
-13.2893146673
 10
4.7401765899
 20
-14.65116903
 10
4.767569643
 20
-16.0106527745
 10
4.7990429811
 20
-17.3677494408
 10
4.8345970493
 20
-18.7224725783
 10
4.8742320056
 20
-20.0748162903
 10
4.9179474354
 20
-21.4247554076
 10
4.9657431135
 20
-22.7722744537
  0
LINE
  5
26D
100
AcDbEntity
  8
RACCORDO
100
AcDbLine
 62
253
  6
CONTINUOUS
 10
3.6011637546
 20
16.8957787316
 11
3.6011637546
 21
16.8331749483
  0
LWPOLYLINE
  5
26E
100
AcDbEntity
  8
RACCORDO
100
AcDbPolyline
 62
253
  6
CONTINUOUS
 90
22
 70
0
 10
4.6615177776
 20
-6.4446587599
 10
4.6619016931
 20
-6.4322959264
 10
4.6630663243
 20
-6.4195488801
 10
4.6650052244
 20
-6.4064881824
 10
4.6677076603
 20
-6.3931861311
 10
4.6711586729
 20
-6.37971636
 10
4.6753391589
 20
-6.3661534313
 10
4.6802259772
 20
-6.352572423
 10
4.6857920766
 20
-6.339048513
 10
4.6920066459
 20
-6.3256565631
 10
4.6988352842
 20
-6.3124707049
 10
4.7062401915
 20
-6.2995639289
 10
4.7141803777
 20
-6.2870076808
 10
4.7226118897
 20
-6.2748714661
 10
4.7314880547
 20
-6.263222465
 10
4.7407597386
 20
-6.2521251609
 10
4.7503756176
 20
-6.2416409831
 10
4.760282463
 20
-6.2318279669
 10
4.7704254351
 20
-6.2227404327
 10
4.7807483872
 20
-6.2144286845
 10
4.7911941766
 20
-6.2069387323
 10
4.8017049802
 20
-6.2003120369
  0
LWPOLYLINE
  5
26F
100
AcDbEntity
  8
RACCORDO
100
AcDbPolyline
 62
253
  6
CONTINUOUS
 90
13
 70
0
 10
4.9657431135
 20
10.80498049
 10
4.9179474354
 20
9.4041600926
 10
4.8742320056
 20
8.0054698698
 10
4.8345970493
 20
6.608925558
 10
4.7990429811
 20
5.214552805
 10
4.767569643
 20
3.8223573251
 10
4.7401765899
 20
2.4323250561
 10
4.7168645623
 20
1.0444723246
 10
4.6976333704
 20
-0.34118568
 10
4.6824816421
 20
-1.724664467
 10
4.6714093233
 20
-3.1059585757
 10
4.6644173687
 20
-4.4850417481
 10
4.6615061295
 20
-5.8618981775
  0
LWPOLYLINE
  5
270
100
AcDbEntity
  8
RACCORDO
100
AcDbPolyline
 62
253
  6
CONTINUOUS
 90
5
 70
0
 10
-2.0126426202
 20
-6.4666237276
 10
-1.9540688343
 20
-6.4274311445
 10
-1.8988649524
 20
-6.3741653598
 10
-1.8526801719
 20
-6.3109754355
 10
-1.817765253
 20
-6.2433418665
  0
LINE
  5
271
100
AcDbEntity
  8
RACCORDO
100
AcDbLine
 62
7
  6
CONTINUOUS
 10
-2.0335204459
 20
-6.6098415976
 11
-2.0339135007
 21
-6.6100796001
  0
LWPOLYLINE
  5
272
100
AcDbEntity
  8
RACCORDO
100
AcDbPolyline
 62
253
  6
CONTINUOUS
 90
58
 70
0
 10
-2.0339135007
 20
-6.6100796001
 10
-2.0477593486
 20
-6.618105225
 10
-2.0759428741
 20
-6.6324220666
 10
-2.1052487332
 20
-6.6447103832
 10
-2.1356311839
 20
-6.6549475666
 10
-2.1670326165
 20
-6.6631108099
 10
-2.1993854999
 20
-6.6691822696
 10
-2.2326277536
 20
-6.6731512878
 10
-2.2667043945
 20
-6.6750121247
 10
-2.3015547931
 20
-6.6747631607
 10
-2.3371146843
 20
-6.672405909
 10
-2.3733231051
 20
-6.6679452594
 10
-2.4101227524
 20
-6.6613896895
 10
-2.4474497919
 20
-6.6527504597
 10
-2.4852373037
 20
-6.642042707
 10
-2.5234223762
 20
-6.6292849011
 10
-2.5619394864
 20
-6.6144984806
 10
-2.6007191975
 20
-6.5977093347
 10
-2.6396919371
 20
-6.5789478598
 10
-2.6787889615
 20
-6.5582472443
 10
-2.7179417098
 20
-6.5356435006
 10
-2.7570805764
 20
-6.5111768097
 10
-2.7961374012
 20
-6.4848900806
 10
-2.8350430367
 20
-6.4568297246
 10
-2.8737267036
 20
-6.4270463794
 10
-2.9121193422
 20
-6.3955941061
 10
-2.950155047
 20
-6.3625273483
 10
-2.9877685655
 20
-6.3279016834
 10
-3.0248932151
 20
-6.291779158
 10
-3.061464934
 20
-6.2542223472
 10
-3.0974233838
 20
-6.2152906753
 10
-3.132707801
 20
-6.1750496042
 10
-3.167253733
 20
-6.1335718862
 10
-3.2009969039
 20
-6.0909309864
 10
-3.2338827428
 20
-6.0471957608
 10
-3.2658486947
 20
-6.0024488527
 10
-3.2968222151
 20
-5.9567888903
 10
-3.3267460362
 20
-5.9103046554
 10
-3.3555739636
 20
-5.8630720653
 10
-3.3832543355
 20
-5.8151738175
 10
-3.4097316658
 20
-5.7667115686
 10
-3.434971028
 20
-5.7177550362
 10
-3.4589510568
 20
-5.668338898
 10
-3.4816315257
 20
-5.61854088
 10
-3.5029663853
 20
-5.5684566409
 10
-3.5229228557
 20
-5.5181474248
 10
-3.5414730843
 20
-5.4676690213
 10
-3.5585663959
 20
-5.4171437598
 10
-3.5741436826
 20
-5.3667332948
 10
-3.5881813906
 20
-5.3165195892
 10
-3.6006542948
 20
-5.2665995303
 10
-3.6115204636
 20
-5.2171543608
 10
-3.6207717255
 20
-5.16826972
 10
-3.6284034707
 20
-5.1200277483
 10
-3.6344016103
 20
-5.0725964742
 10
-3.6387731336
 20
-5.0260790245
 10
-3.641536009
 20
-4.980517135
 10
-3.6427059292
 20
-4.9359787723
  0
LINE
  5
273
100
AcDbEntity
  8
DRAFT
100
AcDbLine
 62
7
  6
CONTINUOUS
 10
-1.8543674671
 20
-6.3796945132
 11
-2.0126426268
 21
-6.4666237313
  0
LWPOLYLINE
  5
274
100
AcDbEntity
  8
RACCORDO
100
AcDbPolyline
 62
253
  6
CONTINUOUS
 90
22
 70
0
 10
5.3623990581
 20
-6.4459742781
 10
5.3619168528
 20
-6.4335929945
 10
5.3606605297
 20
-6.4208164812
 10
5.3586371136
 20
-6.4077161761
 10
5.3558579182
 20
-6.3943653272
 10
5.3523384831
 20
-6.3808385841
 10
5.3480984872
 20
-6.3672115798
 10
5.343161638
 20
-6.3535605076
 10
5.3375555393
 20
-6.3399616952
 10
5.3313115373
 20
-6.3264911785
 10
5.3244645447
 20
-6.3132242756
 10
5.3170528454
 20
-6.3002351658
 10
5.3091178813
 20
-6.2875964758
 10
5.3007040197
 20
-6.2753788723
 10
5.2918583054
 20
-6.2636506674
 10
5.2826301981
 20
-6.2524774372
 10
5.2730712954
 20
-6.2419216543
 10
5.2632350442
 20
-6.2320423388
 10
5.2531764424
 20
-6.2228947287
 10
5.2429517308
 20
-6.2145299705
 10
5.232618079
 20
-6.2069948334
 10
5.2222332655
 20
-6.2003314479
  0
LWPOLYLINE
  5
275
100
AcDbEntity
  8
RACCORDO
100
AcDbPolyline
 62
253
  6
CONTINUOUS
 90
6
 70
0
 10
5.4683304483
 20
-16.003526706
 10
5.4997745133
 20
-17.3594366411
 10
5.5352962127
 20
-18.7129611505
 10
5.5748955718
 20
-20.0640950251
 10
5.6185725652
 20
-21.412843474
 10
5.666327193
 20
-22.7592064971
  0
LWPOLYLINE
  5
276
100
AcDbEntity
  8
RACCORDO
100
AcDbPolyline
 62
253
  6
CONTINUOUS
 90
8
 70
0
 10
5.3624110144
 20
-6.4459674931
 10
5.3653044023
 20
-7.8184015018
 10
5.3722772969
 20
-9.188480539
 10
5.3833296981
 20
-10.5562046047
 10
5.3984622554
 20
-11.9215786411
 10
5.4176743194
 20
-13.284597706
 10
5.4409639419
 20
-14.6452469721
 10
5.4683304483
 20
-16.003526706
  0
LWPOLYLINE
  5
277
100
AcDbEntity
  8
RACCORDO
100
AcDbPolyline
 62
253
  6
CONTINUOUS
 90
13
 70
0
 10
5.666327193
 20
10.7845046239
 10
5.6185725652
 20
9.3848878752
 10
5.5748955718
 20
7.9874328877
 10
5.5352962127
 20
6.5921396615
 10
5.4997745133
 20
5.1990030157
 10
5.4683304483
 20
3.8080281312
 10
5.4409639419
 20
2.4192305503
 10
5.4176743194
 20
1.0326097873
 10
5.3984622554
 20
-0.351833672
 10
5.3833296981
 20
-1.734082828
 10
5.3722772969
 20
-3.1141320142
 10
5.3653044023
 20
-4.491986897
 10
5.3624110144
 20
-5.8676474765
  0
LWPOLYLINE
  5
278
100
AcDbEntity
  8
RACCORDO
100
AcDbPolyline
 62
253
  6
CONTINUOUS
 90
12
 70
0
 10
5.3623990581
 20
-5.8676540247
 10
5.3619168543
 20
-5.8796754301
 10
5.360660535
 20
-5.8911651625
 10
5.3586371246
 20
-5.9020589792
 10
5.3558579368
 20
-5.9122959693
 10
5.3523385107
 20
-5.9218188944
 10
5.3480985247
 20
-5.9305745089
 10
5.3431616859
 20
-5.9385138573
 10
5.3375555977
 20
-5.9455925481
 10
5.3313116057
 20
-5.9517710022
 10
5.3244646219
 20
-5.9570146737
 10
5.3195519307
 20
-5.9599938772
  0
LWPOLYLINE
  5
279
100
AcDbEntity
  8
RACCORDO
100
AcDbPolyline
 62
253
  6
CONTINUOUS
 90
28
 70
0
 10
6.3475148523
 20
11.9460929642
 10
6.3458342128
 20
11.9695245449
 10
6.3429853681
 20
11.9935788021
 10
6.3389779465
 20
12.0181744383
 10
6.333825492
 20
12.0432283266
 10
6.3275454183
 20
12.0686557912
 10
6.3201589507
 20
12.0943708937
 10
6.3116910532
 20
12.1202867235
 10
6.3021703454
 20
12.1463156916
 10
6.2916290045
 20
12.1723698265
 10
6.2801026578
 20
12.198361072
 10
6.2676302612
 20
12.2242015839
 10
6.2542539683
 20
12.2498040278
 10
6.2400189876
 20
12.2750818737
 10
6.2249734297
 20
12.2999496889
 10
6.2091681447
 20
12.3243234263
 10
6.1926565507
 20
12.3481207085
 10
6.1754944526
 20
12.3712611067
 10
6.157739854
 20
12.393666412
 10
6.1394527612
 20
12.4152608999
 10
6.1206949798
 20
12.4359715863
 10
6.1015299066
 20
12.4557284743
 10
6.0820223147
 20
12.4744647902
 10
6.0622381351
 20
12.4921172101
 10
6.0422442334
 20
12.5086260729
 10
6.0221081841
 20
12.5239355828
 10
6.0018980419
 20
12.5379939973
 10
5.9816821123
 20
12.5507538026
  0
LWPOLYLINE
  5
27A
100
AcDbEntity
  8
RACCORDO
100
AcDbPolyline
 62
253
  6
CONTINUOUS
 90
16
 70
0
 10
6.3475148523
 20
-23.1611662453
 10
6.3458342122
 20
-23.1851156044
 10
6.3429853662
 20
-23.2082821515
 10
6.3389779427
 20
-23.2305875896
 10
6.3338254858
 20
-23.2519565318
 10
6.3275454095
 20
-23.2723167564
 10
6.3201589389
 20
-23.291599451
 10
6.3116910385
 20
-23.3097394447
 10
6.3021703276
 20
-23.326675429
 10
6.2916289838
 20
-23.3423501645
 10
6.2801026344
 20
-23.3567106745
 10
6.2676302354
 20
-23.369708424
 10
6.2542539404
 20
-23.3812994838
 10
6.240018958
 20
-23.3914446792
 10
6.224973399
 20
-23.4001097218
 10
6.2231124264
 20
-23.4010503215
  0
LINE
  5
27B
100
AcDbEntity
  8
RACCORDO
100
AcDbLine
 62
253
  6
CONTINUOUS
 10
9.687751562
 20
-3.666237697
 11
5.2222332655
 21
-6.2003314479
  0
LINE
  5
27C
100
AcDbEntity
  8
RACCORDO
100
AcDbLine
 62
253
  6
CONTINUOUS
 10
9.829172919
 20
-3.911168019
 11
5.3624110144
 21
-6.4459674931
  0
LINE
  5
27D
100
AcDbEntity
  8
RACCORDO
100
AcDbLine
 62
253
  6
CONTINUOUS
 10
5.3624110144
 20
-5.8676474765
 11
9.829172919
 21
-3.4213231579
  0
LINE
  5
27E
100
AcDbEntity
  8
RACCORDO
100
AcDbLine
 62
7
  6
CONTINUOUS
 10
5.3195375718
 20
-5.9600017435
 11
9.7864518965
 21
-3.5135939485
  0
LWPOLYLINE
  5
27F
100
AcDbEntity
  8
RACCORDO
100
AcDbPolyline
 62
253
  6
CONTINUOUS
 90
31
 70
0
 10
5.2222332655
 20
-6.2003314479
 10
5.2107387705
 20
-6.2065227109
 10
5.198780667
 20
-6.2123349697
 10
5.186358955
 20
-6.2177682245
 10
5.1734375706
 20
-6.2228352834
 10
5.1600525777
 20
-6.2275233382
 10
5.1463121683
 20
-6.2317939644
 10
5.1322135195
 20
-6.2356436496
 10
5.1177594543
 20
-6.2390759062
 10
5.1030666337
 20
-6.2420628468
 10
5.0881335648
 20
-6.2446007505
 10
5.0729617406
 20
-6.2466933381
 10
5.0576723012
 20
-6.2483238859
 10
5.0422641081
 20
-6.2494887153
 10
5.0267382999
 20
-6.2501915047
 10
5.0112194319
 20
-6.2504265657
 10
4.9957075122
 20
-6.2501901051
 10
4.9802025326
 20
-6.249485916
 10
4.9648290241
 20
-6.2483196891
 10
4.9495882808
 20
-6.2466877399
 10
4.9344790085
 20
-6.2445937528
 10
4.9196218555
 20
-6.2420544719
 10
4.905018429
 20
-6.239066178
 10
4.8906671219
 20
-6.2356325901
 10
4.8766837614
 20
-6.2317816094
 10
4.8630712957
 20
-6.2275097301
 10
4.8498267766
 20
-6.2228204579
 10
4.8370571872
 20
-6.2177522107
 10
4.8247981885
 20
-6.2123177945
 10
4.8130141195
 20
-6.2065044032
 10
4.8017049802
 20
-6.2003120369
  0
LWPOLYLINE
  5
280
100
AcDbEntity
  8
RACCORDO
100
AcDbPolyline
 62
253
  6
CONTINUOUS
 90
31
 70
0
 10
5.3624110142
 20
-6.4459675368
 10
5.3433283883
 20
-6.4561872489
 10
5.3233669451
 20
-6.4658215343
 10
5.3025803643
 20
-6.4748449511
 10
5.2810255072
 20
-6.4832335984
 10
5.2587593652
 20
-6.4909655452
 10
5.2358385956
 20
-6.4980205893
 10
5.2123227124
 20
-6.5043803771
 10
5.1882763304
 20
-6.510027422
 10
5.163766029
 20
-6.5149455214
 10
5.1388585125
 20
-6.5191216059
 10
5.113619636
 20
-6.5225449857
 10
5.0881164039
 20
-6.5252061304
 10
5.0624168857
 20
-6.5270981047
 10
5.0365902589
 20
-6.5282160235
 10
5.0107059595
 20
-6.5285564654
 10
4.9848333812
 20
-6.5281186838
 10
4.9590418795
 20
-6.5269040691
 10
4.9334007849
 20
-6.5249155488
 10
4.9079791088
 20
-6.5221586355
 10
4.8828447075
 20
-6.5186409065
 10
4.8580643183
 20
-6.5143714123
 10
4.833703474
 20
-6.509361445
 10
4.809828457
 20
-6.503624699
 10
4.7865053365
 20
-6.497176913
 10
4.7637981728
 20
-6.4900361239
 10
4.7417659304
 20
-6.4822212751
 10
4.7204646832
 20
-6.4737521429
 10
4.6999507606
 20
-6.4646508672
 10
4.680280277
 20
-6.4549421876
 10
4.6615061316
 20
-6.4446520392
  0
LINE
  5
281
100
AcDbEntity
  8
RACCORDO
100
AcDbLine
 62
7
  6
CONTINUOUS
 10
9.829172919
 20
-3.911168019
 11
9.829172919
 21
-14.3620062144
  0
LINE
  5
282
100
AcDbEntity
  8
RACCORDO
100
AcDbLine
 62
7
  6
CONTINUOUS
 10
9.829172919
 20
-3.4213231579
 11
9.829172919
 21
7.0295150375
  0
LINE
  5
283
100
AcDbEntity
  8
RACCORDO
100
AcDbLine
 62
7
  6
CONTINUOUS
 10
9.829172919
 20
7.0295150375
 11
9.2870054276
 21
13.7599108961
  0
LINE
  5
284
100
AcDbEntity
  8
RACCORDO
100
AcDbLine
 62
7
  6
CONTINUOUS
 10
9.829172919
 20
-14.3620062144
 11
9.2870054276
 21
-21.6970018812
  0
LINE
  5
285
100
AcDbEntity
  8
RACCORDO
100
AcDbLine
 62
253
  6
CONTINUOUS
 10
-9.9529066579
 20
19.4188218931
 11
4.9657431054
 21
10.8049804948
  0
LINE
  5
286
100
AcDbEntity
  8
RACCORDO
100
AcDbLine
 62
7
  6
CONTINUOUS
 10
6.900788157
 20
15.5086680842
 11
6.228397825
 21
15.3788467064
  0
LINE
  5
287
100
AcDbEntity
  8
RACCORDO
100
AcDbLine
 62
253
  6
CONTINUOUS
 10
-8.9603280362
 20
21.1780980778
 11
5.981694573
 21
12.5507614915
  0
LINE
  5
288
100
AcDbEntity
  8
RACCORDO
100
AcDbLine
 62
7
  6
CONTINUOUS
 10
6.0352126597
 20
15.4044555415
 11
3.6529275636
 21
16.779957099
  0
LINE
  5
289
100
AcDbEntity
  8
RACCORDO
100
AcDbLine
 62
7
  6
CONTINUOUS
 10
-1.8843832896
 20
19.9771309868
 11
-4.2666683857
 21
21.3526325442
  0
LINE
  5
28A
100
AcDbEntity
  8
RACCORDO
100
AcDbLine
 62
7
  6
CONTINUOUS
 10
8.9023786329
 20
14.3529748292
 11
6.900788157
 21
15.5086680842
  0
LINE
  5
28B
100
AcDbEntity
  8
DRAFT
100
AcDbLine
 62
7
  6
CONTINUOUS
 10
3.7813302011
 20
17.309804012
 11
-1.0188077923
 21
20.0813435295
  0
LINE
  5
28C
100
AcDbEntity
  8
RACCORDO
100
AcDbLine
 62
7
  6
CONTINUOUS
 10
-4.1382657482
 20
21.8824794573
 11
-6.1398562242
 21
23.0381727123
  0
LINE
  5
28D
100
AcDbEntity
  8
RACCORDO
100
AcDbLine
 62
7
  6
CONTINUOUS
 10
-1.0188077923
 20
20.0813435295
 11
-1.6911981243
 21
19.9515221516
  0
LWPOLYLINE
  5
28E
100
AcDbEntity
  8
RACCORDO
100
AcDbPolyline
 62
253
  6
CONTINUOUS
 90
28
 70
0
 10
5.666327193
 20
-22.7592064971
 10
5.6450890055
 20
-22.7713498909
 10
5.6227717873
 20
-22.7827659279
 10
5.5994493859
 20
-22.7934168323
 10
5.5751989748
 20
-22.8032673606
 10
5.5501007983
 20
-22.8122849175
 10
5.5242379061
 20
-22.8204396639
 10
5.4976958781
 20
-22.8277046158
 10
5.4705625416
 20
-22.8340557337
 10
5.4429276806
 20
-22.8394720017
 10
5.4148827385
 20
-22.8439354975
 10
5.3865205157
 20
-22.8474314514
 10
5.3579348624
 20
-22.8499482954
 10
5.3292203683
 20
-22.8514777011
 10
5.3004720494
 20
-22.852014608
 10
5.2717850335
 20
-22.8515572393
 10
5.2432542455
 20
-22.8501071084
 10
5.2149740937
 20
-22.8476690139
 10
5.1870381566
 20
-22.8442510233
 10
5.159538874
 20
-22.8398644467
 10
5.1325672408
 20
-22.8345237994
 10
5.1062125057
 20
-22.8282467533
 10
5.0805618762
 20
-22.8210540793
 10
5.0557002301
 20
-22.8129695777
 10
5.0317098342
 20
-22.8040200002
 10
5.0086700726
 20
-22.7942349607
 10
4.9866571834
 20
-22.7836468378
 10
4.9657440071
 20
-22.7722906676
  0
LINE
  5
28F
100
AcDbEntity
  8
RACCORDO
100
AcDbLine
 62
253
  6
CONTINUOUS
 10
6.3475148523
 20
-23.1611662453
 11
9.2870054276
 21
-21.6970018812
  0
LINE
  5
290
100
AcDbEntity
  8
RACCORDO
100
AcDbLine
 62
7
  6
CONTINUOUS
 10
6.2231124264
 20
-23.4010503215
 11
9.1514277546
 21
-21.9424523637
  0
ELLIPSE
  5
291
100
AcDbEntity
  8
RACCORDO
100
AcDbEllipse
 62
7
  6
CONTINUOUS
 10
8.933426835
 20
-21.4924458271
 30
0.0
 11
-0.2148150744
 21
0.4515576038
 31
0.0
 40
0.6258090719
 41
-3.1302698991
 42
-2.3092664522
  0
ELLIPSE
  5
292
100
AcDbEntity
  8
RACCORDO
100
AcDbEllipse
 62
7
  6
CONTINUOUS
 10
9.6877300203
 20
-3.8295255324
 30
0.0
 11
-0.1000238792
 21
0.1731956925
 31
0.0
 40
0.5774195892
 41
-2.3562809449
 42
-0.7856369171
  0
ELLIPSE
  5
293
100
AcDbEntity
  8
RACCORDO
100
AcDbEllipse
 62
7
  6
CONTINUOUS
 10
-6.1092384443
 20
22.6491699841
 30
0.0
 11
-0.2805986523
 21
0.4138767202
 31
0.0
 40
0.5251497255
 41
-0.8253745819
 42
-0.0067082778
  0
ELLIPSE
  5
294
100
AcDbEntity
  8
RACCORDO
100
AcDbEllipse
 62
7
  6
CONTINUOUS
 10
8.933426835
 20
13.9637235807
 30
0.0
 11
-0.2807400337
 21
0.4141474974
 31
0.0
 40
0.5245128892
 41
-2.3945640771
 42
-0.8246811388
  0
ELLIPSE
  5
295
100
AcDbEntity
  8
RACCORDO
100
AcDbEllipse
 62
7
  6
CONTINUOUS
 10
9.6877300203
 20
-3.3396309304
 30
0.0
 11
-0.1000390991
 21
0.1732220807
 31
0.0
 40
0.5772437351
 41
-3.1546807054
 42
-2.3564331449
  0
ELLIPSE
  5
296
100
AcDbEntity
  8
RACCORDO
100
AcDbEllipse
 62
7
  6
CONTINUOUS
 10
6.1766340159
 20
15.494668339
 30
0.0
 11
0.1999154856
 21
0.0095814127
 31
0.0
 40
0.6067642562
 41
-2.385266879
 42
-1.3380693278
  0
ELLIPSE
  5
297
100
AcDbEntity
  8
RACCORDO
100
AcDbEllipse
 62
7
  6
CONTINUOUS
 10
-1.7429619334
 20
20.0673437843
 30
0.0
 11
0.1999154856
 21
0.0095814127
 31
0.0
 40
0.6067642562
 41
-2.385266879
 42
-1.3380693278
  0
ELLIPSE
  5
298
100
AcDbEntity
  8
RACCORDO
100
AcDbEllipse
 62
7
  6
CONTINUOUS
 10
3.7943489199
 20
16.8701698964
 30
0.0
 11
0.1999154856
 21
0.0095814127
 31
0.0
 40
0.6067642562
 41
2.850720877
 42
3.8979184282
  0
ELLIPSE
  5
299
100
AcDbEntity
  8
RACCORDO
100
AcDbEllipse
 62
7
  6
CONTINUOUS
 10
-4.1252470294
 20
21.4428453417
 30
0.0
 11
0.1999154856
 21
0.0095814127
 31
0.0
 40
0.6067642562
 41
2.850720877
 42
3.8979184282
  0
ENDSEC
  0
SECTION
  2
OBJECTS
  0
DICTIONARY
  5
C
100
AcDbDictionary
280
0
281
1
  3
ACAD_GROUP
350
D
  3
ACAD_MLINESTYLE
350
17
  3
ACAD_LAYOUT
350
1A
  3
ACAD_PLOTSETTINGS
350
19
  3
ACAD_PLOTSTYLENAME
350
E
  0
DICTIONARY
  5
D
102
{ACAD_REACTORS
330
C
102
}
100
AcDbDictionary
280
0
281
1
  0
ACDBDICTIONARYWDFLT
  5
E
102
{ACAD_REACTORS
330
C
102
}
100
AcDbDictionary
281
1
  3
Normal
350
F
100
AcDbDictionaryWithDefault
340
F
  0
DICTIONARY
  5
17
102
{ACAD_REACTORS
330
C
102
}
100
AcDbDictionary
280
0
281
1
  3
Standard
350
18
  0
DICTIONARY
  5
19
102
{ACAD_REACTORS
330
C
102
}
100
AcDbDictionary
281
1
  0
DICTIONARY
  5
1A
102
{ACAD_REACTORS
330
C
102
}
100
AcDbDictionary
281
1
  3
Model
350
29A
  3
Layout1
350
29B
  0
ACDBPLACEHOLDER
  5
F
102
{ACAD_REACTORS
330
E
102
}
  0
MLINESTYLE
  5
18
102
{ACAD_REACTORS
330
17
102
}
100
AcDbMlineStyle
  2
STANDARD
 70
0
  3

 62
256
 51
90.0
 52
90.0
 71
2
 49
0.5
 62
256
  6
BYLAYER
 49
-0.5
 62
256
  6
BYLAYER
  0
LAYOUT
  5
29A
102
{ACAD_REACTORS
330
1A
102
}
100
AcDbPlotSettings
  1

  2
none_device
  4
ISO_A4_(297.00_x_210.00_MM)
  6

 40
0.0
 41
0.0
 42
0.0
 43
0.0
 44
297.0
 45
210.0
 46
0.0
 47
0.0
 48
0.0
 49
0.0
140
0.0
141
0.0
142
1.0
143
1.0
 70
1024
 72
1
 73
0
 74
0
  7

 75
0
147
1.0
148
0.0
149
0.0
100
AcDbLayout
  1
Model
 70
0
 71
0
 10
0.0
 20
0.0
 11
297.0
 21
210.0
 12
0.0
 22
0.0
 32
0.0
 14
0.0
 24
0.0
 34
0.0
 15
0.0
 25
0.0
 35
0.0
146
0.0
 13
0.0
 23
0.0
 33
0.0
 16
1.0
 26
0.0
 36
0.0
 17
0.0
 27
1.0
 37
0.0
 76
0
330
215
345
0
346
0
  0
LAYOUT
  5
29B
102
{ACAD_REACTORS
330
1A
102
}
100
AcDbPlotSettings
  1

  2
none_device
  4
ISO_A4_(297.00_x_210.00_MM)
  6

 40
0.0
 41
0.0
 42
0.0
 43
0.0
 44
297.0
 45
210.0
 46
0.0
 47
0.0
 48
0.0
 49
0.0
140
0.0
141
0.0
142
1.0
143
1.0
 70
0
 72
1
 73
0
 74
0
  7

 75
0
147
1.0
148
0.0
149
0.0
100
AcDbLayout
  1
Layout1
 70
0
 71
1
 10
0.0
 20
0.0
 11
297.0
 21
210.0
 12
0.0
 22
0.0
 32
0.0
 14
0.0
 24
0.0
 34
0.0
 15
0.0
 25
0.0
 35
0.0
146
0.0
 13
0.0
 23
0.0
 33
0.0
 16
1.0
 26
0.0
 36
0.0
 17
0.0
 27
1.0
 37
0.0
 76
0
330
216
345
0
346
0
  0
ENDSEC
  0
EOF
