  0
SECTION
  2
HEADER
  9
$ACADVER
  1
AC1015
  9
$DWGCODEPAGE
  3
ANSI_1252
  9
$EXTMAX
 10
297.0
 20
210.0
 30
0.0
  9
$EXTMIN
 10
0.0
 20
0.0
 30
0.0
  9
$LIMMIN
 10
0.0
 20
0.0
  9
$LIMMAX
 10
297.0
 20
210.0
  9
$VIEWCTR
 10
148.5
 20
105.0
  9
$VIEWSIZE
 40
210.0
  9
$CLAYER
  8
0
  9
$LTSCALE
 40
16.335
  9
$CELTYPE
  6
BYLAYER
  9
$DIMSCALE
 40
1.0
  9
$DIMASZ
 40
3.0
  9
$DIMEXO
 40
1.85625
  9
$DIMDLI
 40
11.286
  9
$DIMEXE
 40
5.346
  9
$DIMCEN
 40
2.673
  9
$DIMLFAC
 40
1.0
  9
$DIMBLK
  1
_FILLED
  9
$DIMTXT
 40
3.0
  9
$DIMTOL
 70
1
  9
$DIMLIM
 70
0
  9
$DIMTFAC
 40
1.0
  9
$DIMTP
 40
0.01
  9
$DIMTM
 40
0.01
  9
$PDMODE
 70
3
  9
$PDSIZE
 40
3.0
  9
$HANDSEED
  5
3FF
  9
$TILEMODE
 70
1
  9
$MEASUREMENT
 70
1
  9
$INSUNITS
 70
4
  0
ENDSEC
  0
SECTION
  2
CLASSES
  0
CLASS
  1
ACDBDICTIONARYWDFLT
  2
AcDbDictionaryWithDefault
  3
AutoCAD 2000
 90
0
280
0
281
0
  0
CLASS
  1
ACDBPLACEHOLDER
  2
AcDbPlaceHolder
  3
AutoCAD 2000
 90
0
280
0
281
0
  0
CLASS
  1
LAYOUT
  2
AcDbLayout
  3
AutoCAD 2000
 90
0
280
0
281
0
  0
ENDSEC
  0
SECTION
  2
TABLES
  0
TABLE
  2
VPORT
  5
8
100
AcDbSymbolTable
 70
2
  0
VPORT
  5
1F4
100
AcDbSymbolTableRecord
100
AcDbViewportTableRecord
  2
*ACTIVE
 70
0
 10
0.0
 20
0.0
 11
1.0
 21
1.0
 12
148.5
 22
105.0
 13
0.0
 23
0.0
 14
1.0
 24
1.0
 15
0.0
 25
0.0
 16
0.0
 26
0.0
 36
1.0
 17
0.0
 27
0.0
 37
0.0
 40
210.0
 41
1.4142857143
 42
50.0
 43
0.0
 44
0.0
 50
0.0
 51
0.0
 71
0
 72
100
 73
1
 74
1
 75
0
 76
0
 77
0
 78
0
  0
ENDTAB
  0
TABLE
  2
LTYPE
  5
5
100
AcDbSymbolTable
 70
6
  0
LTYPE
  5
14
100
AcDbSymbolTableRecord
100
AcDbLinetypeTableRecord
  2
BYBLOCK
 70
0
  3

 72
65
 73
0
 40
0.0
  0
LTYPE
  5
15
100
AcDbSymbolTableRecord
100
AcDbLinetypeTableRecord
  2
BYLAYER
 70
0
  3

 72
65
 73
0
 40
0.0
  0
LTYPE
  5
16
100
AcDbSymbolTableRecord
100
AcDbLinetypeTableRecord
  2
CONTINUOUS
 70
64
  3
Solid line
 72
65
 73
0
 40
0.0
  0
LTYPE
  5
1F5
100
AcDbSymbolTableRecord
100
AcDbLinetypeTableRecord
  2
CENTER
 70
64
  3
____ _ ____ _ ____ _ ____ _ ____ _ ____ _ ____
 72
65
 73
4
 40
0.6
 49
0.375
 74
0
 49
-0.075
 74
0
 49
0.075
 74
0
 49
-0.075
 74
0
  0
LTYPE
  5
1F6
100
AcDbSymbolTableRecord
100
AcDbLinetypeTableRecord
  2
HIDDEN
 70
64
  3
- - - - - - - - - - - - - - - - - - - -
 72
65
 73
2
 40
0.2
 49
0.1
 74
0
 49
-0.1
 74
0
  0
LTYPE
  5
1F7
100
AcDbSymbolTableRecord
100
AcDbLinetypeTableRecord
  2
PHANTOM
 70
64
  3
_____ _ _ _____ _ _ _____ _ _ _____
 72
65
 73
6
 40
0.8
 49
0.45
 74
0
 49
-0.05
 74
0
 49
0.1
 74
0
 49
-0.05
 74
0
 49
0.1
 74
0
 49
-0.05
 74
0
  0
LTYPE
  5
1F8
100
AcDbSymbolTableRecord
100
AcDbLinetypeTableRecord
  2
DOT
 70
64
  3
. . . . . . . . . . . . . . . . . . . .
 72
65
 73
2
 40
0.2
 49
0.1
 74
0
 49
-0.1
 74
0
  0
LTYPE
  5
1F9
100
AcDbSymbolTableRecord
100
AcDbLinetypeTableRecord
  2
DASHED
 70
64
  3
- - - - - - - - - - - - - - - - - - - -
 72
65
 73
2
 40
0.2
 49
0.1
 74
0
 49
-0.1
 74
0
  0
ENDTAB
  0
TABLE
  2
LAYER
  5
2
100
AcDbSymbolTable
 70
36
  0
LAYER
  5
10
100
AcDbSymbolTableRecord
100
AcDbLayerTableRecord
  2
0
 70
0
 62
7
  6
CONTINUOUS
370
-3
390
F
  0
LAYER
  5
1FA
100
AcDbSymbolTableRecord
100
AcDbLayerTableRecord
  2
DEFAULT_1
 70
0
 62
7
  6
CENTER
370
-3
390
F
  0
LAYER
  5
1FB
100
AcDbSymbolTableRecord
100
AcDbLayerTableRecord
  2
DEFAULT_2
 70
0
 62
7
  6
HIDDEN
370
-3
390
F
  0
LAYER
  5
1FC
100
AcDbSymbolTableRecord
100
AcDbLayerTableRecord
  2
DEFAULT_3
 70
0
 62
7
  6
PHANTOM
370
-3
390
F
  0
LAYER
  5
1FD
100
AcDbSymbolTableRecord
100
AcDbLayerTableRecord
  2
ASSI
 70
0
 62
7
  6
CONTINUOUS
370
-3
390
F
  0
LAYER
  5
1FE
100
AcDbSymbolTableRecord
100
AcDbLayerTableRecord
  2
COORDINATE
 70
0
 62
7
  6
CONTINUOUS
370
-3
390
F
  0
LAYER
  5
1FF
100
AcDbSymbolTableRecord
100
AcDbLayerTableRecord
  2
COPY_PUBLISH
 70
0
 62
7
  6
CONTINUOUS
370
-3
390
F
  0
LAYER
  5
200
100
AcDbSymbolTableRecord
100
AcDbLayerTableRecord
  2
COSMETIC
 70
0
 62
7
  6
CONTINUOUS
370
-3
390
F
  0
LAYER
  5
201
100
AcDbSymbolTableRecord
100
AcDbLayerTableRecord
  2
CURVE
 70
0
 62
7
  6
CONTINUOUS
370
-3
390
F
  0
LAYER
  5
202
100
AcDbSymbolTableRecord
100
AcDbLayerTableRecord
  2
DRAFT
 70
0
 62
7
  6
CONTINUOUS
370
-3
390
F
  0
LAYER
  5
203
100
AcDbSymbolTableRecord
100
AcDbLayerTableRecord
  2
IMPORT_IGES
 70
0
 62
7
  6
CONTINUOUS
370
-3
390
F
  0
LAYER
  5
204
100
AcDbSymbolTableRecord
100
AcDbLayerTableRecord
  2
INTF_1
 70
0
 62
7
  6
CONTINUOUS
370
-3
390
F
  0
LAYER
  5
205
100
AcDbSymbolTableRecord
100
AcDbLayerTableRecord
  2
PIANI
 70
0
 62
7
  6
CONTINUOUS
370
-3
390
F
  0
LAYER
  5
206
100
AcDbSymbolTableRecord
100
AcDbLayerTableRecord
  2
PUNTI
 70
0
 62
7
  6
CONTINUOUS
370
-3
390
F
  0
LAYER
  5
207
100
AcDbSymbolTableRecord
100
AcDbLayerTableRecord
  2
RACCORDO
 70
0
 62
7
  6
CONTINUOUS
370
-3
390
F
  0
LAYER
  5
208
100
AcDbSymbolTableRecord
100
AcDbLayerTableRecord
  2
SNAPLINE
 70
0
 62
7
  6
CONTINUOUS
370
-3
390
F
  0
LAYER
  5
209
100
AcDbSymbolTableRecord
100
AcDbLayerTableRecord
  2
SUPERFICI
 70
0
 62
7
  6
CONTINUOUS
370
-3
390
F
  0
LAYER
  5
20A
100
AcDbSymbolTableRecord
100
AcDbLayerTableRecord
  2
TRASH
 70
0
 62
7
  6
CONTINUOUS
370
-3
390
F
  0
ENDTAB
  0
TABLE
  2
STYLE
  5
3
100
AcDbSymbolTable
 70
1
  0
STYLE
  5
11
100
AcDbSymbolTableRecord
100
AcDbTextStyleTableRecord
  2
STANDARD
 70
0
 40
0.0
 41
0.8
 50
0.0
 71
0
 42
0.2
  3
txt
  4

  0
STYLE
  5
20B
100
AcDbSymbolTableRecord
100
AcDbTextStyleTableRecord
  2
TEXTSTYLE_1
 70
0
 40
0.0
 41
0.8
 50
0.0
 71
0
 42
0.2
  3
gdt
  4

  0
ENDTAB
  0
TABLE
  2
VIEW
  5
6
100
AcDbSymbolTable
 70
0
  0
ENDTAB
  0
TABLE
  2
UCS
  5
7
100
AcDbSymbolTable
 70
0
  0
ENDTAB
  0
TABLE
  2
APPID
  5
9
100
AcDbSymbolTable
 70
1
  0
APPID
  5
20C
100
AcDbSymbolTableRecord
100
AcDbRegAppTableRecord
  2
ACAD
 70
0
  0
ENDTAB
  0
TABLE
  2
BLOCK_RECORD
  5
1
100
AcDbSymbolTable
 70
0
  0
BLOCK_RECORD
  5
20D
100
AcDbSymbolTableRecord
100
AcDbBlockTableRecord
  2
*Model_Space
  0
BLOCK_RECORD
  5
20E
100
AcDbSymbolTableRecord
100
AcDbBlockTableRecord
  2
*Paper_Space
  0
ENDTAB
  0
TABLE
  2
DIMSTYLE
  5
A
100
AcDbSymbolTable
 70
1
100
AcDbDimStyleTable
 71
0
  0
DIMSTYLE
105
20F
100
AcDbSymbolTableRecord
100
AcDbDimStyleTableRecord
  2
STANDARD
 70
0
  3

  4

 40
1.0
 41
3.0
 42
0.0625
 43
0.38
 44
0.18
 45
0.0
 46
0.0
 47
0.01
 48
0.01
140
3.0
141
0.09
142
0.0
143
25.4
144
1.0
145
0.0
146
1.0
147
0.09
 71
1.0
 72
0.0
 73
0
 74
0
 75
0
 76
0
 77
1
 78
8
170
0
171
2
172
0
173
0
174
0
175
0
176
0
177
0
178
0
270
2
271
2
272
2
273
2
274
2
275
0
280
0
281
0
282
0
283
1
284
8
285
0
286
0
287
3
288
0
340
11
  0
ENDTAB
  0
ENDSEC
  0
SECTION
  2
BLOCKS
  0
BLOCK
  5
20
100
AcDbEntity
  8
0
100
AcDbBlockBegin
  2
*Model_Space
 70
0
 10
0.0
 20
0.0
 30
0.0
  3
*Model_Space
  1

  0
ENDBLK
  5
21
100
AcDbEntity
  8
0
100
AcDbBlockEnd
  0
BLOCK
  5
1C
100
AcDbEntity
  8
0
100
AcDbBlockBegin
  2
*Paper_Space
 70
0
 10
0.0
 20
0.0
 30
0.0
  3
*Paper_Space
  1

  0
ENDBLK
  5
1D
100
AcDbEntity
  8
0
100
AcDbBlockEnd
  0
ENDSEC
  0
SECTION
  2
ENTITIES
  0
LINE
  5
210
100
AcDbEntity
  8
0
100
AcDbLine
 62
253
  6
CONTINUOUS
 10
21.358979138
 20
-38.7950876411
 11
21.7858750941
 21
-38.9933177437
  0
LINE
  5
211
100
AcDbEntity
  8
0
100
AcDbLine
 62
253
  6
CONTINUOUS
 10
21.1777125798
 20
-36.962794252
 11
21.0200562116
 21
-36.8878461466
  0
LINE
  5
212
100
AcDbEntity
  8
0
100
AcDbLine
 62
253
  6
CONTINUOUS
 10
20.8555475039
 20
-37.227785868
 11
20.604974713
 21
-37.1084846662
  0
LINE
  5
213
100
AcDbEntity
  8
0
100
AcDbLine
 62
253
  6
CONTINUOUS
 10
20.6374132143
 20
-37.5177264508
 11
20.8724725953
 21
-37.6296755437
  0
LINE
  5
214
100
AcDbEntity
  8
0
100
AcDbLine
 62
253
  6
CONTINUOUS
 10
20.2512708636
 20
-38.2672626539
 11
20.6858449154
 21
-38.4762450515
  0
LINE
  5
215
100
AcDbEntity
  8
0
100
AcDbLine
 62
253
  6
CONTINUOUS
 10
19.5804114191
 20
-37.9410751883
 11
20.0373708024
 21
-38.1636808327
  0
LINE
  5
216
100
AcDbEntity
  8
0
100
AcDbLine
 62
253
  6
CONTINUOUS
 10
18.8550057017
 20
-37.1087322579
 11
19.4427285964
 21
-37.397724081
  0
LINE
  5
217
100
AcDbEntity
  8
0
100
AcDbLine
 62
253
  6
CONTINUOUS
 10
19.3380198517
 20
-36.9766259367
 11
18.9249287007
 21
-36.7734003041
  0
LINE
  5
218
100
AcDbEntity
  8
0
100
AcDbLine
 62
253
  6
CONTINUOUS
 10
19.2936840529
 20
-35.3952480436
 11
18.876852167
 21
-35.1896338743
  0
LINE
  5
219
100
AcDbEntity
  8
0
100
AcDbLine
 62
253
  6
CONTINUOUS
 10
19.6916925253
 20
-35.1665582648
 11
19.1822972376
 21
-34.915257974
  0
LINE
  5
21A
100
AcDbEntity
  8
0
100
AcDbLine
 62
253
  6
CONTINUOUS
 10
18.3359093936
 20
-37.3281534899
 11
18.7615792881
 21
-37.538666201
  0
LINE
  5
21B
100
AcDbEntity
  8
0
100
AcDbLine
 62
253
  6
CONTINUOUS
 10
17.7062698525
 20
-37.0156564085
 11
18.1263848849
 21
-37.2242881311
  0
LINE
  5
21C
100
AcDbEntity
  8
0
100
AcDbLine
 62
253
  6
CONTINUOUS
 10
17.0479173637
 20
-36.6879926786
 11
17.1080509768
 21
-36.7179514596
  0
LINE
  5
21D
100
AcDbEntity
  8
0
100
AcDbLine
 62
253
  6
CONTINUOUS
 10
17.8296313839
 20
-34.6697597178
 11
17.4055126313
 21
-34.4583632484
  0
LINE
  5
21E
100
AcDbEntity
  8
0
100
AcDbLine
 62
253
  6
CONTINUOUS
 10
18.2380889849
 20
-34.4464675704
 11
17.7137953725
 21
-34.1851310527
  0
LINE
  5
21F
100
AcDbEntity
  8
0
100
AcDbLine
 62
253
  6
CONTINUOUS
 10
16.0429107
 20
-36.1866009568
 11
16.4526667718
 21
-36.3911716883
  0
LINE
  5
220
100
AcDbEntity
  8
0
100
AcDbLine
 62
253
  6
CONTINUOUS
 10
13.8448940814
 20
-32.6793345747
 11
13.3795765382
 21
-32.4470621524
  0
LINE
  5
221
100
AcDbEntity
  8
0
100
AcDbLine
 62
253
  6
CONTINUOUS
 10
14.2439395051
 20
-32.451353567
 11
13.6458468867
 21
-32.1528019231
  0
LINE
  5
222
100
AcDbEntity
  8
0
100
AcDbLine
 62
253
  6
CONTINUOUS
 10
16.5534503763
 20
-34.0329317453
 11
16.1256843596
 21
-33.8191770786
  0
LINE
  5
223
100
AcDbEntity
  8
0
100
AcDbLine
 62
253
  6
CONTINUOUS
 10
16.9483551977
 20
-33.8029211665
 11
16.4202112972
 21
-33.5389964883
  0
LINE
  5
224
100
AcDbEntity
  8
0
100
AcDbLine
 62
253
  6
CONTINUOUS
 10
15.3843260486
 20
-35.8575005017
 11
15.81240742
 21
-36.0714510446
  0
LINE
  5
225
100
AcDbEntity
  8
0
100
AcDbLine
 62
253
  6
CONTINUOUS
 10
14.1325818408
 20
-35.2317384486
 11
14.5098298231
 21
-35.4202823861
  0
LINE
  5
226
100
AcDbEntity
  8
0
100
AcDbLine
 62
253
  6
CONTINUOUS
 10
15.7100736025
 20
-33.6112941048
 11
15.2820424011
 21
-33.3973184769
  0
LINE
  5
227
100
AcDbEntity
  8
0
100
AcDbLine
 62
253
  6
CONTINUOUS
 10
15.0666307927
 20
-33.2897782231
 11
14.6388654007
 21
-33.0759617257
  0
LINE
  5
228
100
AcDbEntity
  8
0
100
AcDbLine
 62
253
  6
CONTINUOUS
 10
16.1240061831
 20
-33.3907925028
 11
15.5712031155
 21
-33.1144398195
  0
LINE
  5
229
100
AcDbEntity
  8
0
100
AcDbLine
 62
253
  6
CONTINUOUS
 10
15.5037613429
 20
-33.0808708209
 11
14.9433357816
 21
-32.8007412073
  0
LINE
  5
22A
100
AcDbEntity
  8
0
100
AcDbLine
 62
253
  6
CONTINUOUS
 10
22.2307810399
 20
-38.931079399
 11
22.0171344097
 21
-38.0930573947
  0
LINE
  5
22B
100
AcDbEntity
  8
0
100
AcDbLine
 62
253
  6
CONTINUOUS
 10
19.4427285964
 20
-37.397724081
 11
19.5804114191
 21
-37.9410751883
  0
LINE
  5
22C
100
AcDbEntity
  8
0
100
AcDbLine
 62
253
  6
CONTINUOUS
 10
21.7858750941
 20
-38.9933177437
 11
21.6003575811
 21
-38.2600942798
  0
LINE
  5
22D
100
AcDbEntity
  8
0
100
AcDbLine
 62
253
  6
CONTINUOUS
 10
19.1009391185
 20
-35.9665704893
 11
19.3380198517
 21
-36.9766259367
  0
LINE
  5
22E
100
AcDbEntity
  8
0
100
AcDbLine
 62
253
  6
CONTINUOUS
 10
20.2441266929
 20
-38.1357102919
 11
20.2512708636
 21
-38.2672626539
  0
LINE
  5
22F
100
AcDbEntity
  8
0
100
AcDbLine
 62
253
  6
CONTINUOUS
 10
21.108577285
 20
-38.4050582559
 11
21.0798808986
 21
-37.8470673353
  0
LINE
  5
230
100
AcDbEntity
  8
0
100
AcDbLine
 62
253
  6
CONTINUOUS
 10
20.6858449154
 20
-38.4762450515
 11
20.6374132143
 21
-37.5177264508
  0
LINE
  5
231
100
AcDbEntity
  8
0
100
AcDbLine
 62
253
  6
CONTINUOUS
 10
20.604974713
 20
-37.1084846662
 11
20.5779522022
 21
-36.4326296915
  0
LINE
  5
232
100
AcDbEntity
  8
0
100
AcDbLine
 62
253
  6
CONTINUOUS
 10
21.0200562116
 20
-36.8878461466
 11
21.0105405195
 21
-36.6506140153
  0
LINE
  5
233
100
AcDbEntity
  8
0
100
AcDbLine
 62
253
  6
CONTINUOUS
 10
16.8693769714
 20
-36.3185208233
 11
16.8702781028
 21
-36.1259154797
  0
LINE
  5
234
100
AcDbEntity
  8
0
100
AcDbLine
 62
253
  6
CONTINUOUS
 10
16.0466485934
 20
-36.0321786877
 11
16.0429107
 21
-36.1866009568
  0
LINE
  5
235
100
AcDbEntity
  8
0
100
AcDbLine
 62
253
  6
CONTINUOUS
 10
22.2307810399
 20
-38.931079399
 11
21.7858750941
 21
-38.9933177437
  0
LINE
  5
236
100
AcDbEntity
  8
0
100
AcDbLine
 62
253
  6
CONTINUOUS
 10
20.2441266929
 20
-38.1357102919
 11
20.0373708024
 21
-38.1636808327
  0
LINE
  5
237
100
AcDbEntity
  8
0
100
AcDbLine
 62
253
  6
CONTINUOUS
 10
17.5095283696
 20
-36.6376445902
 11
17.1080509768
 21
-36.7179514596
  0
LINE
  5
238
100
AcDbEntity
  8
0
100
AcDbLine
 62
253
  6
CONTINUOUS
 10
19.1674078546
 20
-37.4602326048
 11
18.7615792881
 21
-37.538666201
  0
LINE
  5
239
100
AcDbEntity
  8
0
100
AcDbLine
 62
253
  6
CONTINUOUS
 10
16.8693769714
 20
-36.3185208233
 11
16.4526667718
 21
-36.3911716883
  0
LINE
  5
23A
100
AcDbEntity
  8
0
100
AcDbLine
 62
253
  6
CONTINUOUS
 10
21.108577285
 20
-38.4050582559
 11
20.6858449154
 21
-38.4762450515
  0
LINE
  5
23B
100
AcDbEntity
  8
0
100
AcDbLine
 62
253
  6
CONTINUOUS
 10
16.0466485934
 20
-36.0321786877
 11
15.81240742
 21
-36.0714510446
  0
LINE
  5
23C
100
AcDbEntity
  8
0
100
AcDbLine
 62
253
  6
CONTINUOUS
 10
18.3704705759
 20
-37.1856600594
 11
18.1263848849
 21
-37.2242881311
  0
LINE
  5
23D
100
AcDbEntity
  8
0
100
AcDbLine
 62
253
  6
CONTINUOUS
 10
14.9137081371
 20
-35.3412663303
 11
14.5098298231
 21
-35.4202823861
  0
LINE
  5
23E
100
AcDbEntity
  8
0
100
AcDbLine
 62
253
  6
CONTINUOUS
 10
19.1674078546
 20
-37.4602326048
 11
19.2060979525
 21
-37.2813693809
  0
LINE
  5
23F
100
AcDbEntity
  8
0
100
AcDbLine
 62
253
  6
CONTINUOUS
 10
18.7615792881
 20
-37.538666201
 11
18.8550057017
 21
-37.1087322579
  0
LINE
  5
240
100
AcDbEntity
  8
0
100
AcDbLine
 62
253
  6
CONTINUOUS
 10
18.9249287007
 20
-36.7734003041
 11
19.1009391185
 21
-35.9665704893
  0
LINE
  5
241
100
AcDbEntity
  8
0
100
AcDbLine
 62
253
  6
CONTINUOUS
 10
18.3704705759
 20
-37.1856600594
 11
18.3359093936
 21
-37.3281534899
  0
LINE
  5
242
100
AcDbEntity
  8
0
100
AcDbLine
 62
253
  6
CONTINUOUS
 10
15.4668139499
 20
-33.2165611158
 11
15.5037613429
 21
-33.0808708209
  0
LINE
  5
243
100
AcDbEntity
  8
0
100
AcDbLine
 62
253
  6
CONTINUOUS
 10
17.5095283696
 20
-36.6376445902
 11
17.6292636453
 21
-36.2667429691
  0
LINE
  5
244
100
AcDbEntity
  8
0
100
AcDbLine
 62
253
  6
CONTINUOUS
 10
17.4055126313
 20
-34.4583632484
 11
17.0276659255
 21
-35.6135062062
  0
LINE
  5
245
100
AcDbEntity
  8
0
100
AcDbLine
 62
253
  6
CONTINUOUS
 10
13.6458468867
 20
-32.1528019231
 11
13.3795765382
 21
-32.4470621524
  0
LINE
  5
246
100
AcDbEntity
  8
0
100
AcDbLine
 62
253
  6
CONTINUOUS
 10
15.5712031155
 20
-33.1144398195
 11
15.2820424011
 21
-33.3973184769
  0
LINE
  5
247
100
AcDbEntity
  8
0
100
AcDbLine
 62
253
  6
CONTINUOUS
 10
16.4202112972
 20
-33.5389964883
 11
16.1256843596
 21
-33.8191770786
  0
LINE
  5
248
100
AcDbEntity
  8
0
100
AcDbLine
 62
253
  6
CONTINUOUS
 10
20.4325672944
 20
-35.567311431
 11
20.144039004
 21
-35.8390440677
  0
LINE
  5
249
100
AcDbEntity
  8
0
100
AcDbLine
 62
253
  6
CONTINUOUS
 10
14.9433357816
 20
-32.8007412073
 11
14.6388654007
 21
-33.0759617257
  0
LINE
  5
24A
100
AcDbEntity
  8
0
100
AcDbLine
 62
253
  6
CONTINUOUS
 10
19.1822972376
 20
-34.915257974
 11
18.876852167
 21
-35.1896338743
  0
LINE
  5
24B
100
AcDbEntity
  8
0
100
AcDbLine
 62
253
  6
CONTINUOUS
 10
17.7137953725
 20
-34.1851310527
 11
17.4055126313
 21
-34.4583632484
  0
LINE
  5
24C
100
AcDbEntity
  8
0
100
AcDbLine
 62
253
  6
CONTINUOUS
 10
14.2439395051
 20
-32.451353567
 11
13.8448940814
 21
-32.6793345747
  0
LINE
  5
24D
100
AcDbEntity
  8
0
100
AcDbLine
 62
253
  6
CONTINUOUS
 10
16.9483551977
 20
-33.8029211665
 11
16.5534503763
 21
-34.0329317453
  0
LINE
  5
24E
100
AcDbEntity
  8
0
100
AcDbLine
 62
253
  6
CONTINUOUS
 10
19.6916925253
 20
-35.1665582648
 11
19.2936840529
 21
-35.3952480436
  0
LINE
  5
24F
100
AcDbEntity
  8
0
100
AcDbLine
 62
253
  6
CONTINUOUS
 10
18.2380889849
 20
-34.4464675704
 11
17.8296313839
 21
-34.6697597178
  0
LINE
  5
250
100
AcDbEntity
  8
0
100
AcDbLine
 62
253
  6
CONTINUOUS
 10
16.1240061831
 20
-33.3907925028
 11
15.7100736025
 21
-33.6112941048
  0
LINE
  5
251
100
AcDbEntity
  8
0
100
AcDbLine
 62
253
  6
CONTINUOUS
 10
21.0200562116
 20
-36.8878461466
 11
20.604974713
 21
-37.1084846662
  0
LINE
  5
252
100
AcDbEntity
  8
0
100
AcDbLine
 62
253
  6
CONTINUOUS
 10
19.2530008656
 20
-36.6144122348
 11
18.9249287007
 21
-36.7734003041
  0
LINE
  5
253
100
AcDbEntity
  8
0
100
AcDbLine
 62
253
  6
CONTINUOUS
 10
15.5037613429
 20
-33.0808708209
 11
15.0666307927
 21
-33.2897782231
  0
LWPOLYLINE
  5
254
100
AcDbEntity
  8
RACCORDO
100
AcDbPolyline
 62
7
  6
CONTINUOUS
 90
18
 70
0
 10
-34.5714220434
 20
56.4852223242
 10
-34.6159365834
 20
56.4582471651
 10
-34.7106662572
 20
56.3942518838
 10
-34.8026867148
 20
56.322536063
 10
-34.8913155306
 20
56.2431868168
 10
-34.9757503237
 20
56.1565316899
 10
-35.0554997323
 20
56.0627229764
 10
-35.1301231651
 20
55.9619453078
 10
-35.1990777119
 20
55.85465111
 10
-35.2620647877
 20
55.7410403711
 10
-35.3187860334
 20
55.6213875824
 10
-35.3689031276
 20
55.4962451685
 10
-35.412265598
 20
55.3658560916
 10
-35.4487581135
 20
55.2304101154
 10
-35.4782457545
 20
55.0903170999
 10
-35.500655899
 20
54.9457988581
 10
-35.5159529892
 20
54.7969899752
 10
-35.5209981959
 20
54.7195420475
  0
LINE
  5
255
100
AcDbEntity
  8
SUPERFICI
100
AcDbLine
 62
7
  6
CONTINUOUS
 10
-31.5448135935
 20
58.2581474997
 11
-34.5723843917
 21
56.4846636181
  0
LINE
  5
256
100
AcDbEntity
  8
RACCORDO
100
AcDbLine
 62
7
  6
CONTINUOUS
 10
-34.5717236955
 20
56.485050471
 11
-34.5713763713
 21
56.4852535921
  0
LINE
  5
257
100
AcDbEntity
  8
RACCORDO
100
AcDbLine
 62
253
  6
CONTINUOUS
 10
-30.1375745251
 20
58.2085061067
 11
-33.2849943315
 21
56.4327754157
  0
LWPOLYLINE
  5
258
100
AcDbEntity
  8
RACCORDO
100
AcDbPolyline
 62
7
  6
CONTINUOUS
 90
15
 70
0
 10
29.2605169408
 20
-56.9238883073
 10
29.3253429403
 20
-56.953176339
 10
29.4534119418
 20
-57.0046409921
 10
29.5815084342
 20
-57.0476687422
 10
29.7094752128
 20
-57.0822387662
 10
29.8370382786
 20
-57.1083373364
 10
29.9636917402
 20
-57.1259413971
 10
30.0890686707
 20
-57.1351108044
 10
30.2127837738
 20
-57.1359503251
 10
30.3341608023
 20
-57.1286145784
 10
30.452733039
 20
-57.1133280217
 10
30.5681193949
 20
-57.0903715526
 10
30.6797261534
 20
-57.0601339675
 10
30.787111889
 20
-57.0230468643
 10
30.8356809162
 20
-57.0035240323
  0
LWPOLYLINE
  5
259
100
AcDbEntity
  8
RACCORDO
100
AcDbPolyline
 62
7
  6
CONTINUOUS
 90
28
 70
0
 10
-35.5208322826
 20
-22.4650221696
 10
-35.5163773674
 20
-22.5317191353
 10
-35.503172732
 20
-22.6654429019
 10
-35.4843181437
 20
-22.7998367945
 10
-35.4599329457
 20
-22.9345797532
 10
-35.4301311735
 20
-23.0694614284
 10
-35.3950085781
 20
-23.204235556
 10
-35.3546688005
 20
-23.338631217
 10
-35.3092252745
 20
-23.4723550663
 10
-35.2588093643
 20
-23.6050310941
 10
-35.2035426657
 20
-23.73637877
 10
-35.1435355649
 20
-23.8661277841
 10
-35.0789403208
 20
-23.9939063165
 10
-35.0098785702
 20
-24.1194484705
 10
-34.936465352
 20
-24.2424659885
 10
-34.8588781011
 20
-24.3625811357
 10
-34.7772246916
 20
-24.4795482675
 10
-34.6916244469
 20
-24.5930690042
 10
-34.6022849708
 20
-24.7027566894
 10
-34.5092843895
 20
-24.8083851589
 10
-34.4127481158
 20
-24.9096489428
 10
-34.3129246362
 20
-25.0061414464
 10
-34.2098976099
 20
-25.0976108937
 10
-34.1037798409
 20
-25.1837752827
 10
-33.9947985548
 20
-25.2642589592
 10
-33.8831227623
 20
-25.3387642989
 10
-33.7689077481
 20
-25.4070058256
 10
-33.7186566845
 20
-25.4345631842
  0
LINE
  5
25A
100
AcDbEntity
  8
RACCORDO
100
AcDbLine
 62
7
  6
CONTINUOUS
 10
-35.5208345299
 20
-22.4650222947
 11
-35.5208212021
 21
-22.4652611548
  0
LWPOLYLINE
  5
25B
100
AcDbEntity
  8
RACCORDO
100
AcDbPolyline
 62
7
  6
CONTINUOUS
 90
8
 70
0
 10
-35.5210014577
 20
54.7195248525
 10
-35.5632634134
 20
53.6329283498
 10
-35.58783252
 20
52.4783885158
 10
-35.6040202798
 20
51.3089549305
 10
-35.6127001387
 20
50.1263205928
 10
-35.6178006789
 20
48.9276046952
 10
-35.6206368903
 20
47.7078158616
 10
-35.62108467
 20
43.9172358719
  0
LINE
  5
25C
100
AcDbEntity
  8
0
100
AcDbLine
 62
253
  6
CONTINUOUS
 10
-28.3978386879
 20
29.7539090572
 11
-28.2288739691
 21
29.8247981738
  0
LINE
  5
25D
100
AcDbEntity
  8
RACCORDO
100
AcDbLine
 62
7
  6
CONTINUOUS
 10
29.2606447955
 20
-56.9239508207
 11
29.2605159039
 21
-56.9238905201
  0
LWPOLYLINE
  5
25E
100
AcDbEntity
  8
RACCORDO
100
AcDbPolyline
 62
7
  6
CONTINUOUS
 90
6
 70
0
 10
26.115148828
 20
-55.3834728583
 10
26.7674119823
 20
-55.7082002263
 10
27.4135524849
 20
-56.0274369517
 10
28.0528774545
 20
-56.3411857594
 10
28.6863591321
 20
-56.6498026454
 10
29.2606447955
 20
-56.9239508207
  0
LINE
  5
25F
100
AcDbEntity
  8
RACCORDO
100
AcDbLine
 62
7
  6
CONTINUOUS
 10
12.2203859225
 20
-48.4478411813
 11
16.9027834374
 21
-50.7786588788
  0
LINE
  5
260
100
AcDbEntity
  8
RACCORDO
100
AcDbLine
 62
253
  6
CONTINUOUS
 10
11.9799470077
 20
-48.0989299234
 11
-17.0114310547
 21
-33.6032407531
  0
LINE
  5
261
100
AcDbEntity
  8
RACCORDO
100
AcDbLine
 62
7
  6
CONTINUOUS
 10
16.9027834374
 20
-50.7786588788
 11
23.4339482223
 21
-54.0392447844
  0
LINE
  5
262
100
AcDbEntity
  8
RACCORDO
100
AcDbLine
 62
7
  6
CONTINUOUS
 10
-30.169792365
 20
-27.2419301704
 11
-22.0798318108
 21
-31.2903506308
  0
LWPOLYLINE
  5
263
100
AcDbEntity
  8
RACCORDO
100
AcDbPolyline
 62
7
  6
CONTINUOUS
 90
3
 70
0
 10
-22.0798318108
 20
-31.2903506308
 10
-19.4464679395
 20
-32.6109339143
 10
12.2204206882
 20
-48.447858414
  0
LINE
  5
264
100
AcDbEntity
  8
RACCORDO
100
AcDbLine
 62
7
  6
CONTINUOUS
 10
23.4339482223
 20
-54.0392447844
 11
26.115148828
 21
-55.3834728583
  0
LWPOLYLINE
  5
265
100
AcDbEntity
  8
RACCORDO
100
AcDbPolyline
 62
7
  6
CONTINUOUS
 90
4
 70
0
 10
-33.0790495792
 20
-25.7679362431
 10
-31.6513464617
 20
-26.4945845204
 10
-30.9177240491
 20
-26.8660916447
 10
-30.169792365
 20
-27.2419301704
  0
LINE
  5
266
100
AcDbEntity
  8
RACCORDO
100
AcDbLine
 62
7
  6
CONTINUOUS
 10
-33.7192931225
 20
-25.4342238356
 11
-33.0790495792
 21
-25.7679362431
  0
LINE
  5
267
100
AcDbEntity
  8
RACCORDO
100
AcDbLine
 62
7
  6
CONTINUOUS
 10
-33.7186566845
 20
-25.4345631842
 11
-33.719292865
 21
-25.4342233538
  0
LWPOLYLINE
  5
268
100
AcDbEntity
  8
RACCORDO
100
AcDbPolyline
 62
7
  6
CONTINUOUS
 90
7
 70
0
 10
-35.6206267113
 20
-15.5662796056
 10
-35.6177772153
 20
-16.7830760937
 10
-35.6126628169
 20
-17.9762974018
 10
-35.6039436512
 20
-19.1495348935
 10
-35.5876915585
 20
-20.3014066513
 10
-35.5630370476
 20
-21.4294035043
 10
-35.5208212021
 20
-22.4652611548
  0
LINE
  5
269
100
AcDbEntity
  8
RACCORDO
100
AcDbLine
 62
7
  6
CONTINUOUS
 10
-35.6342884214
 20
1.0737022339
 11
-35.6218428732
 21
-10.4636560514
  0
LINE
  5
26A
100
AcDbEntity
  8
RACCORDO
100
AcDbLine
 62
253
  6
CONTINUOUS
 10
-35.5692592419
 20
5.7117316239
 11
-35.5692592419
 21
26.0633286128
  0
LINE
  5
26B
100
AcDbEntity
  8
RACCORDO
100
AcDbLine
 62
7
  6
CONTINUOUS
 10
-35.6218428732
 20
-10.4636560514
 11
-35.6206267113
 21
-15.5662796056
  0
LINE
  5
26C
100
AcDbEntity
  8
RACCORDO
100
AcDbLine
 62
7
  6
CONTINUOUS
 10
-35.6295253972
 20
37.0758085587
 11
-35.6342884214
 21
1.0737022339
  0
LINE
  5
26D
100
AcDbEntity
  8
RACCORDO
100
AcDbLine
 62
7
  6
CONTINUOUS
 10
-35.62108467
 20
43.9172358719
 11
-35.6295253972
 21
37.0758085587
  0
LINE
  5
26E
100
AcDbEntity
  8
RACCORDO
100
AcDbLine
 62
253
  6
CONTINUOUS
 10
-30.6863316614
 20
21.8075284312
 11
-30.6863316614
 21
1.4559314422
  0
LINE
  5
26F
100
AcDbEntity
  8
RACCORDO
100
AcDbLine
 62
253
  6
CONTINUOUS
 10
-30.0372879642
 20
20.9997232874
 11
-30.0372879633
 21
0.6478518632
  0
LINE
  5
270
100
AcDbEntity
  8
0
100
AcDbLine
 62
253
  6
CONTINUOUS
 10
-28.3983330067
 20
0.3089171006
 11
-28.3983329979
 21
20.6604349298
  0
LINE
  5
271
100
AcDbEntity
  8
0
100
AcDbLine
 62
7
  6
CONTINUOUS
 10
-27.4859240956
 20
-8.4016278122
 11
-27.4859240956
 21
29.4532171428
  0
LINE
  5
272
100
AcDbEntity
  8
RACCORDO
100
AcDbLine
 62
253
  6
CONTINUOUS
 10
-27.2778301205
 20
-8.2268701465
 11
-27.2778301205
 21
29.3491534426
  0
LINE
  5
273
100
AcDbEntity
  8
RACCORDO
100
AcDbLine
 62
7
  6
CONTINUOUS
 10
-27.2631854596
 20
-8.209192477
 11
-27.2631854596
 21
29.341829936
  0
LINE
  5
274
100
AcDbEntity
  8
RACCORDO
100
AcDbLine
 62
253
  6
CONTINUOUS
 10
-27.2485407986
 20
29.3345064294
 11
-27.2485407986
 21
-8.1627280109
  0
LINE
  5
275
100
AcDbEntity
  8
RACCORDO
100
AcDbLine
 62
253
  6
CONTINUOUS
 10
-27.1717641033
 20
29.2961119156
 11
-27.1717641033
 21
-8.1243396632
  0
LINE
  5
276
100
AcDbEntity
  8
RACCORDO
100
AcDbLine
 62
253
  6
CONTINUOUS
 10
-27.1364087643
 20
29.2784314065
 11
-27.1364087643
 21
-8.1170173328
  0
LINE
  5
277
100
AcDbEntity
  8
RACCORDO
100
AcDbLine
 62
253
  6
CONTINUOUS
 10
-27.0788351711
 20
29.2496399861
 11
-27.0788351711
 21
-8.1170173328
  0
LINE
  5
278
100
AcDbEntity
  8
RACCORDO
100
AcDbLine
 62
253
  6
CONTINUOUS
 10
-27.0434798321
 20
29.231959477
 11
-27.0434798321
 21
-8.1096950023
  0
LINE
  5
279
100
AcDbEntity
  8
RACCORDO
100
AcDbLine
 62
253
  6
CONTINUOUS
 10
-26.9667031368
 20
-8.0713066546
 11
-26.9667031368
 21
29.1935649632
  0
LINE
  5
27A
100
AcDbEntity
  8
RACCORDO
100
AcDbLine
 62
7
  6
CONTINUOUS
 10
-26.9520584758
 20
-8.0536289851
 11
-26.9520584758
 21
29.1862414566
  0
LINE
  5
27B
100
AcDbEntity
  8
RACCORDO
100
AcDbLine
 62
7
  6
CONTINUOUS
 10
-29.5300486971
 20
-10.0454926385
 11
-29.5298270175
 21
-10.0458341556
  0
LWPOLYLINE
  5
27C
100
AcDbEntity
  8
0
100
AcDbPolyline
 62
7
  6
CONTINUOUS
 90
11
 70
0
 10
-29.9752719236
 20
-8.9865145672
 10
-29.9721947463
 20
-9.0004408989
 10
-29.9411474035
 20
-9.1264318758
 10
-29.9048349937
 20
-9.2506506628
 10
-29.8636785116
 20
-9.3732496877
 10
-29.8177234905
 20
-9.4933979462
 10
-29.766873009
 20
-9.6118266251
 10
-29.7111907405
 20
-9.7289368621
 10
-29.6507411654
 20
-9.8440184435
 10
-29.5857752981
 20
-9.956515629
 10
-29.5300520325
 20
-10.0454874988
  0
LINE
  5
27D
100
AcDbEntity
  8
RACCORDO
100
AcDbLine
 62
7
  6
CONTINUOUS
 10
-29.9755120476
 20
-8.9854147489
 11
-29.9752718653
 21
-8.9865148342
  0
LINE
  5
27E
100
AcDbEntity
  8
RACCORDO
100
AcDbLine
 62
253
  6
CONTINUOUS
 10
-26.9374138149
 20
29.17891795
 11
-26.9374138149
 21
-8.007164519
  0
LINE
  5
27F
100
AcDbEntity
  8
RACCORDO
100
AcDbLine
 62
253
  6
CONTINUOUS
 10
-26.8606371196
 20
29.1405259295
 11
-26.8606371196
 21
-7.9687761714
  0
LINE
  5
280
100
AcDbEntity
  8
RACCORDO
100
AcDbLine
 62
253
  6
CONTINUOUS
 10
-26.8252817805
 20
29.1228476729
 11
-26.8252817805
 21
-7.9614538409
  0
LINE
  5
281
100
AcDbEntity
  8
RACCORDO
100
AcDbLine
 62
253
  6
CONTINUOUS
 10
-26.7677081874
 20
29.0940599203
 11
-26.7677081874
 21
-7.9614538409
  0
LINE
  5
282
100
AcDbEntity
  8
RACCORDO
100
AcDbLine
 62
253
  6
CONTINUOUS
 10
-26.7323528483
 20
29.0763816637
 11
-26.7323528483
 21
-7.9541315104
  0
LINE
  5
283
100
AcDbEntity
  8
0
100
AcDbLine
 62
7
  6
CONTINUOUS
 10
-26.495974602
 20
-7.8359423872
 11
-26.495974602
 21
28.9581886153
  0
LINE
  5
284
100
AcDbEntity
  8
RACCORDO
100
AcDbLine
 62
253
  6
CONTINUOUS
 10
-18.9742856859
 20
-16.7771905948
 11
10.0170923455
 21
-31.2728797073
  0
LINE
  5
285
100
AcDbEntity
  8
RACCORDO
100
AcDbLine
 62
253
  6
CONTINUOUS
 10
-19.3915062709
 20
-15.5231872933
 11
9.5998717726
 21
-30.0188763049
  0
LINE
  5
286
100
AcDbEntity
  8
RACCORDO
100
AcDbLine
 62
253
  6
CONTINUOUS
 10
-27.0286245058
 20
-8.6783112438
 11
-27.0290667918
 21
-8.6779790998
  0
LINE
  5
287
100
AcDbEntity
  8
RACCORDO
100
AcDbLine
 62
253
  6
CONTINUOUS
 10
-26.7174975221
 20
-8.5227477519
 11
-26.717939808
 21
-8.5224156079
  0
LINE
  5
288
100
AcDbEntity
  8
RACCORDO
100
AcDbLine
 62
253
  6
CONTINUOUS
 10
-26.7856371196
 20
-8.6227091684
 11
-26.8144239162
 21
-8.6723590482
  0
LINE
  5
289
100
AcDbEntity
  8
RACCORDO
100
AcDbLine
 62
253
  6
CONTINUOUS
 10
-26.4745101359
 20
-8.4671456766
 11
-26.5032969324
 21
-8.5167955563
  0
LINE
  5
28A
100
AcDbEntity
  8
0
100
AcDbLine
 62
253
  6
CONTINUOUS
 10
10.1058835577
 20
-28.3867328773
 11
-18.8854944428
 21
-13.8910438459
  0
LINE
  5
28B
100
AcDbEntity
  8
0
100
AcDbLine
 62
7
  6
CONTINUOUS
 10
19.3858575924
 20
-32.0973262774
 11
-27.2737920613
 21
-8.7675014505
  0
LINE
  5
28C
100
AcDbEntity
  8
RACCORDO
100
AcDbLine
 62
253
  6
CONTINUOUS
 10
19.3858479852
 20
-31.9051193609
 11
-26.994987408
 21
-8.7147016643
  0
LINE
  5
28D
100
AcDbEntity
  8
RACCORDO
100
AcDbLine
 62
7
  6
CONTINUOUS
 10
19.3858473554
 20
-31.8925186167
 11
-26.9726267287
 21
-8.7132815747
  0
LINE
  5
28E
100
AcDbEntity
  8
RACCORDO
100
AcDbLine
 62
253
  6
CONTINUOUS
 10
-26.9162006115
 20
-8.7359300442
 11
19.3858470773
 21
-31.8869538886
  0
LINE
  5
28F
100
AcDbEntity
  8
RACCORDO
100
AcDbLine
 62
253
  6
CONTINUOUS
 10
-26.8394239162
 20
-8.6975416966
 11
19.3858432396
 21
-31.8101752745
  0
LINE
  5
290
100
AcDbEntity
  8
RACCORDO
100
AcDbLine
 62
253
  6
CONTINUOUS
 10
-26.8144239162
 20
-8.6723590482
 11
19.3858413561
 21
-31.7724916843
  0
LINE
  5
291
100
AcDbEntity
  8
RACCORDO
100
AcDbLine
 62
253
  6
CONTINUOUS
 10
-26.7856371196
 20
-8.6227091684
 11
19.3858381549
 21
-31.7084468057
  0
LINE
  5
292
100
AcDbEntity
  8
RACCORDO
100
AcDbLine
 62
253
  6
CONTINUOUS
 10
-26.7606371196
 20
-8.59752652
 11
19.3858362713
 21
-31.6707632155
  0
LINE
  5
293
100
AcDbEntity
  8
RACCORDO
100
AcDbLine
 62
253
  6
CONTINUOUS
 10
19.3858324336
 20
-31.5939846014
 11
-26.6838604243
 21
-8.5591381724
  0
LINE
  5
294
100
AcDbEntity
  8
RACCORDO
100
AcDbLine
 62
7
  6
CONTINUOUS
 10
19.3858318038
 20
-31.5813838572
 11
-26.6614997449
 21
-8.5577180828
  0
LINE
  5
295
100
AcDbEntity
  8
RACCORDO
100
AcDbLine
 62
253
  6
CONTINUOUS
 10
-26.6050736277
 20
-8.5803665524
 11
19.3858315257
 21
-31.5758191291
  0
LINE
  5
296
100
AcDbEntity
  8
RACCORDO
100
AcDbLine
 62
253
  6
CONTINUOUS
 10
-26.5282969324
 20
-8.5419782047
 11
19.385827688
 21
-31.4990405149
  0
LINE
  5
297
100
AcDbEntity
  8
RACCORDO
100
AcDbLine
 62
253
  6
CONTINUOUS
 10
-26.5032969324
 20
-8.5167955563
 11
19.3858258044
 21
-31.4613569248
  0
LINE
  5
298
100
AcDbEntity
  8
RACCORDO
100
AcDbLine
 62
253
  6
CONTINUOUS
 10
-26.4745101359
 20
-8.4671456766
 11
19.3858226032
 21
-31.3973120461
  0
LINE
  5
299
100
AcDbEntity
  8
RACCORDO
100
AcDbLine
 62
253
  6
CONTINUOUS
 10
-26.4495101359
 20
-8.4419630282
 11
19.3858207197
 21
-31.359628456
  0
LINE
  5
29A
100
AcDbEntity
  8
0
100
AcDbLine
 62
7
  6
CONTINUOUS
 10
19.3858308213
 20
-31.1232552604
 11
-26.2131318895
 21
-8.323773905
  0
LINE
  5
29B
100
AcDbEntity
  8
DRAFT
100
AcDbLine
 62
7
  6
CONTINUOUS
 10
-18.4284163931
 20
-12.138315704
 11
-14.058233685
 21
-14.323407058
  0
LINE
  5
29C
100
AcDbEntity
  8
DRAFT
100
AcDbLine
 62
7
  6
CONTINUOUS
 10
13.3913887603
 20
-28.0482182806
 11
17.7615714684
 21
-30.2333096347
  0
LINE
  5
29D
100
AcDbEntity
  8
DRAFT
100
AcDbLine
 62
7
  6
CONTINUOUS
 10
-18.2787441323
 20
-12.0709329495
 11
-13.9234681761
 21
-14.2485709276
  0
LINE
  5
29E
100
AcDbEntity
  8
DRAFT
100
AcDbLine
 62
7
  6
CONTINUOUS
 10
13.5410610211
 20
-27.9808355262
 11
17.8963369773
 21
-30.1584735043
  0
LINE
  5
29F
100
AcDbEntity
  8
DRAFT
100
AcDbLine
 62
7
  6
CONTINUOUS
 10
-18.0563340545
 20
-11.9708034827
 11
-13.7232092425
 21
-14.1373658887
  0
LINE
  5
2A0
100
AcDbEntity
  8
DRAFT
100
AcDbLine
 62
7
  6
CONTINUOUS
 10
13.7634710989
 20
-27.8807060594
 11
18.0965959109
 21
-30.0472684654
  0
LINE
  5
2A1
100
AcDbEntity
  8
DRAFT
100
AcDbLine
 62
7
  6
CONTINUOUS
 10
-17.9066617937
 20
-11.9034207282
 11
-13.5884437336
 21
-14.0625297583
  0
LINE
  5
2A2
100
AcDbEntity
  8
DRAFT
100
AcDbLine
 62
7
  6
CONTINUOUS
 10
13.9131433597
 20
-27.8133233049
 11
18.2313614198
 21
-29.972432335
  0
LINE
  5
2A3
100
AcDbEntity
  8
DRAFT
100
AcDbLine
 62
7
  6
CONTINUOUS
 10
-17.6842517158
 20
-11.8032912614
 11
-13.3881848
 21
-13.9513247193
  0
LINE
  5
2A4
100
AcDbEntity
  8
DRAFT
100
AcDbLine
 62
7
  6
CONTINUOUS
 10
14.1355534376
 20
-27.7131938381
 11
18.4316203534
 21
-29.861227296
  0
LINE
  5
2A5
100
AcDbEntity
  8
DRAFT
100
AcDbLine
 62
7
  6
CONTINUOUS
 10
-17.534579455
 20
-11.7359085069
 11
-13.253419291
 21
-13.8764885889
  0
LINE
  5
2A6
100
AcDbEntity
  8
DRAFT
100
AcDbLine
 62
7
  6
CONTINUOUS
 10
14.2852256984
 20
-27.6458110836
 11
18.5663858624
 21
-29.7863911656
  0
LINE
  5
2A7
100
AcDbEntity
  8
DRAFT
100
AcDbLine
 62
7
  6
CONTINUOUS
 10
-17.3121693772
 20
-11.6357790401
 11
-13.0531603574
 21
-13.76528355
  0
LINE
  5
2A8
100
AcDbEntity
  8
DRAFT
100
AcDbLine
 62
7
  6
CONTINUOUS
 10
14.5076357762
 20
-27.5456816168
 11
18.766644796
 21
-29.6751861267
  0
LINE
  5
2A9
100
AcDbEntity
  8
RACCORDO
100
AcDbLine
 62
253
  6
CONTINUOUS
 10
-17.1257085452
 20
-11.5518339965
 11
-12.8852702702
 21
-13.672053134
  0
LINE
  5
2AA
100
AcDbEntity
  8
RACCORDO
100
AcDbLine
 62
253
  6
CONTINUOUS
 10
14.6940966082
 20
-27.4617365732
 11
18.9345348832
 21
-29.5819557107
  0
LINE
  5
2AB
100
AcDbEntity
  8
RACCORDO
100
AcDbLine
 62
7
  6
CONTINUOUS
 10
-16.9424150335
 20
-11.5678781769
 11
-12.8002356245
 21
-13.6389678814
  0
LINE
  5
2AC
100
AcDbEntity
  8
RACCORDO
100
AcDbLine
 62
7
  6
CONTINUOUS
 10
14.8773901199
 20
-27.4777807536
 11
19.0195695289
 21
-29.5488704581
  0
LINE
  5
2AD
100
AcDbEntity
  8
DRAFT
100
AcDbLine
 62
7
  6
CONTINUOUS
 10
-13.8233387093
 20
-14.3228722187
 11
-13.9234681761
 21
-14.2485709276
  0
LINE
  5
2AE
100
AcDbEntity
  8
DRAFT
100
AcDbLine
 62
7
  6
CONTINUOUS
 10
-13.4883142668
 20
-14.1368310494
 11
-13.5884437336
 21
-14.0625297583
  0
LINE
  5
2AF
100
AcDbEntity
  8
DRAFT
100
AcDbLine
 62
7
  6
CONTINUOUS
 10
-13.1532898242
 20
-13.9507898801
 11
-13.253419291
 21
-13.8764885889
  0
LINE
  5
2B0
100
AcDbEntity
  8
DRAFT
100
AcDbLine
 62
7
  6
CONTINUOUS
 10
17.9964664441
 20
-30.2327747954
 11
17.8963369773
 21
-30.1584735043
  0
LINE
  5
2B1
100
AcDbEntity
  8
DRAFT
100
AcDbLine
 62
7
  6
CONTINUOUS
 10
18.3314908866
 20
-30.0467336261
 11
18.2313614198
 21
-29.972432335
  0
LINE
  5
2B2
100
AcDbEntity
  8
DRAFT
100
AcDbLine
 62
7
  6
CONTINUOUS
 10
18.6665153292
 20
-29.8606924568
 11
18.5663858624
 21
-29.7863911656
  0
LINE
  5
2B3
100
AcDbEntity
  8
RACCORDO
100
AcDbLine
 62
253
  6
CONTINUOUS
 10
-12.8747499755
 20
-13.6665672058
 11
-12.8747499755
 21
-14.459637634
  0
LINE
  5
2B4
100
AcDbEntity
  8
RACCORDO
100
AcDbLine
 62
7
  6
CONTINUOUS
 10
-12.7976934231
 20
-13.6420526748
 11
-12.7976934231
 21
-14.359268043
  0
LINE
  5
2B5
100
AcDbEntity
  8
DRAFT
100
AcDbLine
 62
7
  6
CONTINUOUS
 10
-18.4284163931
 20
-12.138315704
 11
-18.4651506403
 21
-12.1977645296
  0
LINE
  5
2B6
100
AcDbEntity
  8
RACCORDO
100
AcDbLine
 62
253
  6
CONTINUOUS
 10
-27.0788351711
 20
-8.1170173328
 11
-27.1364087643
 21
-8.1170173328
  0
LINE
  5
2B7
100
AcDbEntity
  8
RACCORDO
100
AcDbLine
 62
253
  6
CONTINUOUS
 10
-26.7677081874
 20
-7.9614538409
 11
-26.8252817805
 21
-7.9614538409
  0
LINE
  5
2B8
100
AcDbEntity
  8
DRAFT
100
AcDbLine
 62
7
  6
CONTINUOUS
 10
-14.058233685
 20
-14.323407058
 11
-14.0913093497
 21
-14.3846851749
  0
LINE
  5
2B9
100
AcDbEntity
  8
DRAFT
100
AcDbLine
 62
7
  6
CONTINUOUS
 10
-13.7232092425
 20
-14.1373658887
 11
-13.8233387093
 21
-14.3228722187
  0
LINE
  5
2BA
100
AcDbEntity
  8
DRAFT
100
AcDbLine
 62
7
  6
CONTINUOUS
 10
-13.3881848
 20
-13.9513247193
 11
-13.4883142668
 21
-14.1368310494
  0
LINE
  5
2BB
100
AcDbEntity
  8
DRAFT
100
AcDbLine
 62
7
  6
CONTINUOUS
 10
-13.0531603574
 20
-13.76528355
 11
-13.1532898242
 21
-13.9507898801
  0
LINE
  5
2BC
100
AcDbEntity
  8
DRAFT
100
AcDbLine
 62
7
  6
CONTINUOUS
 10
-18.0563340545
 20
-11.9708034827
 11
-18.1560978438
 21
-12.1322560938
  0
LINE
  5
2BD
100
AcDbEntity
  8
DRAFT
100
AcDbLine
 62
7
  6
CONTINUOUS
 10
-17.6842517158
 20
-11.8032912614
 11
-17.7840155051
 21
-11.9647438725
  0
LINE
  5
2BE
100
AcDbEntity
  8
DRAFT
100
AcDbLine
 62
7
  6
CONTINUOUS
 10
-17.3121693772
 20
-11.6357790401
 11
-17.4119331665
 21
-11.7972316512
  0
LINE
  5
2BF
100
AcDbEntity
  8
0
100
AcDbLine
 62
253
  6
CONTINUOUS
 10
-28.1129627161
 20
-9.2770049978
 11
-27.2737920613
 21
-8.7675014505
  0
LINE
  5
2C0
100
AcDbEntity
  8
RACCORDO
100
AcDbLine
 62
253
  6
CONTINUOUS
 10
32.7949290005
 20
26.7422543439
 11
29.6480780555
 21
24.966916433
  0
LINE
  5
2C1
100
AcDbEntity
  8
RACCORDO
100
AcDbLine
 62
253
  6
CONTINUOUS
 10
-26.8606371196
 20
-7.9687761714
 11
-26.9374138149
 21
-8.007164519
  0
LINE
  5
2C2
100
AcDbEntity
  8
RACCORDO
100
AcDbLine
 62
253
  6
CONTINUOUS
 10
-27.1717641033
 20
-8.1243396632
 11
-27.2485407986
 21
-8.1627280109
  0
LINE
  5
2C3
100
AcDbEntity
  8
RACCORDO
100
AcDbLine
 62
253
  6
CONTINUOUS
 10
-26.495974602
 20
-7.8359423872
 11
-26.7323528483
 21
-7.9541315104
  0
LINE
  5
2C4
100
AcDbEntity
  8
RACCORDO
100
AcDbLine
 62
253
  6
CONTINUOUS
 10
-26.9667031368
 20
-8.0713066546
 11
-27.0434798321
 21
-8.1096950023
  0
LINE
  5
2C5
100
AcDbEntity
  8
RACCORDO
100
AcDbLine
 62
253
  6
CONTINUOUS
 10
-27.2778301205
 20
-8.2268701465
 11
-27.4859240956
 21
-8.3309171341
  0
LINE
  5
2C6
100
AcDbEntity
  8
RACCORDO
100
AcDbLine
 62
253
  6
CONTINUOUS
 10
34.9162493441
 20
23.0835179608
 11
31.5770733878
 21
21.5801367034
  0
LINE
  5
2C7
100
AcDbEntity
  8
RACCORDO
100
AcDbLine
 62
253
  6
CONTINUOUS
 10
-26.2131318895
 20
-8.323773905
 11
-26.4495101359
 21
-8.4419630282
  0
LINE
  5
2C8
100
AcDbEntity
  8
RACCORDO
100
AcDbLine
 62
253
  6
CONTINUOUS
 10
-26.6838604243
 20
-8.5591381724
 11
-26.7606371196
 21
-8.59752652
  0
LINE
  5
2C9
100
AcDbEntity
  8
RACCORDO
100
AcDbLine
 62
253
  6
CONTINUOUS
 10
-26.994987408
 20
-8.7147016643
 11
-27.1871895209
 21
-8.8108027207
  0
LINE
  5
2CA
100
AcDbEntity
  8
RACCORDO
100
AcDbLine
 62
253
  6
CONTINUOUS
 10
-26.5282969324
 20
-8.5419782047
 11
-26.6050736277
 21
-8.5803665524
  0
LINE
  5
2CB
100
AcDbEntity
  8
RACCORDO
100
AcDbLine
 62
253
  6
CONTINUOUS
 10
-26.8394239162
 20
-8.6975416966
 11
-26.9162006115
 21
-8.7359300442
  0
LINE
  5
2CC
100
AcDbEntity
  8
0
100
AcDbLine
 62
253
  6
CONTINUOUS
 10
-27.4859240956
 20
-8.4016278122
 11
-28.3978386787
 21
-8.7842214073
  0
LINE
  5
2CD
100
AcDbEntity
  8
RACCORDO
100
AcDbLine
 62
253
  6
CONTINUOUS
 10
33.7514358373
 20
-19.0596690876
 11
33.4485503358
 21
-18.9082263368
  0
LINE
  5
2CE
100
AcDbEntity
  8
0
100
AcDbLine
 62
253
  6
CONTINUOUS
 10
33.6162117513
 20
-18.3215505816
 11
33.4279199895
 21
-18.2274047007
  0
LINE
  5
2CF
100
AcDbEntity
  8
RACCORDO
100
AcDbLine
 62
253
  6
CONTINUOUS
 10
33.6162117513
 20
-18.3215505816
 11
34.5927334963
 21
-18.8098114541
  0
LINE
  5
2D0
100
AcDbEntity
  8
SUPERFICI
100
AcDbLine
 62
7
  6
CONTINUOUS
 10
33.7952192308
 20
-18.327493523
 11
33.4279199895
 21
-18.1438439023
  0
LINE
  5
2D1
100
AcDbEntity
  8
RACCORDO
100
AcDbLine
 62
7
  6
CONTINUOUS
 10
33.7952068309
 20
-18.327487323
 11
34.7794182108
 21
-18.819593013
  0
LINE
  5
2D2
100
AcDbEntity
  8
DRAFT
100
AcDbLine
 62
7
  6
CONTINUOUS
 10
-18.4284163931
 20
-12.138315704
 11
-18.2787441323
 21
-12.0709329495
  0
LINE
  5
2D3
100
AcDbEntity
  8
DRAFT
100
AcDbLine
 62
7
  6
CONTINUOUS
 10
-18.0563340545
 20
-11.9708034827
 11
-17.9066617937
 21
-11.9034207282
  0
LINE
  5
2D4
100
AcDbEntity
  8
DRAFT
100
AcDbLine
 62
7
  6
CONTINUOUS
 10
-17.6842517158
 20
-11.8032912614
 11
-17.534579455
 21
-11.7359085069
  0
LINE
  5
2D5
100
AcDbEntity
  8
RACCORDO
100
AcDbLine
 62
7
  6
CONTINUOUS
 10
-17.3121693772
 20
-11.6357790401
 11
-17.1257085452
 21
-11.5518339965
  0
LINE
  5
2D6
100
AcDbEntity
  8
RACCORDO
100
AcDbLine
 62
253
  6
CONTINUOUS
 10
-13.3695488959
 20
-14.7455654018
 11
-12.8747499755
 21
-14.459637634
  0
LINE
  5
2D7
100
AcDbEntity
  8
RACCORDO
100
AcDbLine
 62
7
  6
CONTINUOUS
 10
-13.2607353611
 20
-14.7999721692
 11
-12.9475928476
 21
-14.6190175709
  0
LINE
  5
2D8
100
AcDbEntity
  8
DRAFT
100
AcDbLine
 62
7
  6
CONTINUOUS
 10
-14.058233685
 20
-14.323407058
 11
-13.9234681761
 21
-14.2485709276
  0
LINE
  5
2D9
100
AcDbEntity
  8
DRAFT
100
AcDbLine
 62
7
  6
CONTINUOUS
 10
-13.7232092425
 20
-14.1373658887
 11
-13.5884437336
 21
-14.0625297583
  0
LINE
  5
2DA
100
AcDbEntity
  8
DRAFT
100
AcDbLine
 62
7
  6
CONTINUOUS
 10
-13.3881848
 20
-13.9513247193
 11
-13.253419291
 21
-13.8764885889
  0
LINE
  5
2DB
100
AcDbEntity
  8
RACCORDO
100
AcDbLine
 62
7
  6
CONTINUOUS
 10
-13.0531603574
 20
-13.76528355
 11
-12.8852702702
 21
-13.672053134
  0
LINE
  5
2DC
100
AcDbEntity
  8
RACCORDO
100
AcDbLine
 62
7
  6
CONTINUOUS
 10
18.9485785825
 20
6.2361422662
 11
18.9486963476
 21
6.2360834774
  0
LINE
  5
2DD
100
AcDbEntity
  8
0
100
AcDbLine
 62
7
  6
CONTINUOUS
 10
-28.4984063
 20
29.9596230116
 11
18.9482993041
 21
6.2362816709
  0
LINE
  5
2DE
100
AcDbEntity
  8
RACCORDO
100
AcDbLine
 62
7
  6
CONTINUOUS
 10
-28.4993108239
 20
29.9600761588
 11
-28.4990619899
 21
29.9599513694
  0
LWPOLYLINE
  5
2DF
100
AcDbEntity
  8
0
100
AcDbPolyline
 62
7
  6
CONTINUOUS
 90
32
 70
0
 10
18.9485980093
 20
6.2361325576
 10
18.9506544335
 20
6.2350814081
 10
18.9584474499
 20
6.2307812617
 10
18.9688763247
 20
6.2244177435
 10
18.981665042
 20
6.2158529783
 10
18.9965085273
 20
6.2050117459
 10
19.0131060408
 20
6.1918521468
 10
19.031261868
 20
6.1762853085
 10
19.0508826811
 20
6.1581511253
 10
19.0718102433
 20
6.1373400154
 10
19.0937613459
 20
6.113867091
 10
19.1164839383
 20
6.0877397514
 10
19.1398144587
 20
6.0589020877
 10
19.1635589993
 20
6.0273573296
 10
19.1874072387
 20
5.9932411022
 10
19.2108837538
 20
5.9569451324
 10
19.2336675245
 20
5.9188301058
 10
19.255826495
 20
5.8786173081
 10
19.2770236362
 20
5.8366015742
 10
19.2964794453
 20
5.7943010729
 10
19.313453008
 20
5.7535768531
 10
19.3284228616
 20
5.713919467
 10
19.3415679729
 20
5.6750093994
 10
19.3526194912
 20
5.6381643004
 10
19.3617386662
 20
5.6034712724
 10
19.3694065721
 20
5.5697245116
 10
19.3755675013
 20
5.537185687
 10
19.3801416323
 20
5.5071004035
 10
19.3832610594
 20
5.4798646112
 10
19.385135447
 20
5.4555868182
 10
19.3859885131
 20
5.4342722723
 10
19.3860991281
 20
5.4239660694
  0
LINE
  5
2E0
100
AcDbEntity
  8
RACCORDO
100
AcDbLine
 62
253
  6
CONTINUOUS
 10
9.5998717577
 20
11.97703989
 11
-19.3919236257
 21
26.4729375446
  0
LINE
  5
2E1
100
AcDbEntity
  8
RACCORDO
100
AcDbLine
 62
253
  6
CONTINUOUS
 10
10.0170923428
 20
13.6482637766
 11
-18.9742856859
 21
28.1439527909
  0
LINE
  5
2E2
100
AcDbEntity
  8
RACCORDO
100
AcDbLine
 62
7
  6
CONTINUOUS
 10
19.3861953287
 20
-33.1151195352
 11
19.386194924
 21
-33.1147974204
  0
LINE
  5
2E3
100
AcDbEntity
  8
RACCORDO
100
AcDbLine
 62
253
  6
CONTINUOUS
 10
18.9450551779
 20
-29.5764697825
 11
18.9450551779
 21
-30.3695402107
  0
LINE
  5
2E4
100
AcDbEntity
  8
RACCORDO
100
AcDbLine
 62
7
  6
CONTINUOUS
 10
19.0221117303
 20
-29.5519552515
 11
19.0221117303
 21
-30.2691706197
  0
LINE
  5
2E5
100
AcDbEntity
  8
RACCORDO
100
AcDbLine
 62
253
  6
CONTINUOUS
 10
20.298179733
 20
-24.5196075512
 11
20.2981797137
 21
-4.1676309823
  0
LINE
  5
2E6
100
AcDbEntity
  8
RACCORDO
100
AcDbLine
 62
253
  6
CONTINUOUS
 10
21.9137898583
 20
-24.8441293345
 11
21.9137900201
 21
-4.4925324096
  0
LINE
  5
2E7
100
AcDbEntity
  8
0
100
AcDbLine
 62
7
  6
CONTINUOUS
 10
19.3860987331
 20
5.423197483
 11
19.3861945021
 21
-33.1140993559
  0
LINE
  5
2E8
100
AcDbEntity
  8
RACCORDO
100
AcDbLine
 62
7
  6
CONTINUOUS
 10
19.3860991281
 20
5.4239660694
 11
19.3860991606
 21
5.4240351511
  0
LWPOLYLINE
  5
2E9
100
AcDbEntity
  8
0
100
AcDbPolyline
 62
7
  6
CONTINUOUS
 90
6
 70
0
 10
19.3861949058
 20
-33.1144200237
 10
19.3861397486
 20
-33.1218781926
 10
19.3855250358
 20
-33.1388572837
 10
19.3844129666
 20
-33.1528028834
 10
19.3830852789
 20
-33.1633663707
 10
19.3827627743
 20
-33.1654144855
  0
LWPOLYLINE
  5
2EA
100
AcDbEntity
  8
0
100
AcDbPolyline
 62
7
  6
CONTINUOUS
 90
6
 70
0
 10
-28.4984296476
 20
29.9603046996
 10
-28.4991868777
 20
29.9605353141
 10
-28.5027207914
 20
29.9617080265
 10
-28.5032048634
 20
29.9618823008
 10
-28.5007395903
 20
29.9607662041
 10
-28.4986542301
 20
29.9597473483
  0
LINE
  5
2EB
100
AcDbEntity
  8
DRAFT
100
AcDbLine
 62
7
  6
CONTINUOUS
 10
13.3913887603
 20
-28.0482182806
 11
13.3546545131
 21
-28.1076671063
  0
LINE
  5
2EC
100
AcDbEntity
  8
DRAFT
100
AcDbLine
 62
7
  6
CONTINUOUS
 10
13.7634710989
 20
-27.8807060594
 11
13.6637073096
 21
-28.0421586705
  0
LINE
  5
2ED
100
AcDbEntity
  8
DRAFT
100
AcDbLine
 62
7
  6
CONTINUOUS
 10
14.1355534376
 20
-27.7131938381
 11
14.0357896483
 21
-27.8746464492
  0
LINE
  5
2EE
100
AcDbEntity
  8
DRAFT
100
AcDbLine
 62
7
  6
CONTINUOUS
 10
14.5076357762
 20
-27.5456816168
 11
14.4078719869
 21
-27.7071342279
  0
LINE
  5
2EF
100
AcDbEntity
  8
RACCORDO
100
AcDbLine
 62
253
  6
CONTINUOUS
 10
30.4253903834
 20
-6.9339961998
 11
30.4253906116
 21
-27.2855932374
  0
LINE
  5
2F0
100
AcDbEntity
  8
RACCORDO
100
AcDbLine
 62
253
  6
CONTINUOUS
 10
31.4517159848
 20
-6.8385536528
 11
31.4517163638
 21
-27.1911896138
  0
LINE
  5
2F1
100
AcDbEntity
  8
DRAFT
100
AcDbLine
 62
7
  6
CONTINUOUS
 10
17.7615714684
 20
-30.2333096347
 11
17.7284958037
 21
-30.2945877516
  0
LINE
  5
2F2
100
AcDbEntity
  8
DRAFT
100
AcDbLine
 62
7
  6
CONTINUOUS
 10
18.0965959109
 20
-30.0472684654
 11
17.9964664441
 21
-30.2327747954
  0
LINE
  5
2F3
100
AcDbEntity
  8
DRAFT
100
AcDbLine
 62
7
  6
CONTINUOUS
 10
18.4316203534
 20
-29.861227296
 11
18.3314908866
 21
-30.0467336261
  0
LINE
  5
2F4
100
AcDbEntity
  8
DRAFT
100
AcDbLine
 62
7
  6
CONTINUOUS
 10
18.766644796
 20
-29.6751861267
 11
18.6665153292
 21
-29.8606924568
  0
LINE
  5
2F5
100
AcDbEntity
  8
RACCORDO
100
AcDbLine
 62
7
  6
CONTINUOUS
 10
34.5927334963
 20
-12.390708539
 11
33.7514358373
 21
-12.8983587201
  0
LINE
  5
2F6
100
AcDbEntity
  8
DRAFT
100
AcDbLine
 62
7
  6
CONTINUOUS
 10
13.3913887603
 20
-28.0482182806
 11
13.5410610211
 21
-27.9808355262
  0
LINE
  5
2F7
100
AcDbEntity
  8
DRAFT
100
AcDbLine
 62
7
  6
CONTINUOUS
 10
13.7634710989
 20
-27.8807060594
 11
13.9131433597
 21
-27.8133233049
  0
LINE
  5
2F8
100
AcDbEntity
  8
DRAFT
100
AcDbLine
 62
7
  6
CONTINUOUS
 10
14.1355534376
 20
-27.7131938381
 11
14.2852256984
 21
-27.6458110836
  0
LINE
  5
2F9
100
AcDbEntity
  8
RACCORDO
100
AcDbLine
 62
7
  6
CONTINUOUS
 10
14.5076357762
 20
-27.5456816168
 11
14.6940966082
 21
-27.4617365732
  0
LINE
  5
2FA
100
AcDbEntity
  8
0
100
AcDbLine
 62
7
  6
CONTINUOUS
 10
33.4279199895
 20
-18.3839698397
 11
33.6162117513
 21
-18.3215505816
  0
LINE
  5
2FB
100
AcDbEntity
  8
RACCORDO
100
AcDbLine
 62
7
  6
CONTINUOUS
 10
33.4279199895
 20
-18.3839698397
 11
33.6162117513
 21
-18.3215505816
  0
LINE
  5
2FC
100
AcDbEntity
  8
RACCORDO
100
AcDbLine
 62
7
  6
CONTINUOUS
 10
33.7514358373
 20
-19.0596690876
 11
34.5927334963
 21
-18.8098114541
  0
LINE
  5
2FD
100
AcDbEntity
  8
RACCORDO
100
AcDbLine
 62
7
  6
CONTINUOUS
 10
33.4279199895
 20
-13.4733144272
 11
33.4279199895
 21
-18.7760083582
  0
LINE
  5
2FE
100
AcDbEntity
  8
RACCORDO
100
AcDbLine
 62
7
  6
CONTINUOUS
 10
34.9162493441
 20
-53.9927429761
 11
34.9162493441
 21
-19.0934721834
  0
LINE
  5
2FF
100
AcDbEntity
  8
RACCORDO
100
AcDbLine
 62
7
  6
CONTINUOUS
 10
34.9162493441
 20
-11.8157528319
 11
34.9162493441
 21
23.0835179608
  0
LINE
  5
300
100
AcDbEntity
  8
RACCORDO
100
AcDbLine
 62
253
  6
CONTINUOUS
 10
18.4502562575
 20
-30.6554679785
 11
18.9450551779
 21
-30.3695402107
  0
LINE
  5
301
100
AcDbEntity
  8
RACCORDO
100
AcDbLine
 62
7
  6
CONTINUOUS
 10
18.5590697923
 20
-30.7098747459
 11
18.8722123058
 21
-30.5289201476
  0
LINE
  5
302
100
AcDbEntity
  8
DRAFT
100
AcDbLine
 62
7
  6
CONTINUOUS
 10
17.7615714684
 20
-30.2333096347
 11
17.8963369773
 21
-30.1584735043
  0
LINE
  5
303
100
AcDbEntity
  8
DRAFT
100
AcDbLine
 62
7
  6
CONTINUOUS
 10
18.0965959109
 20
-30.0472684654
 11
18.2313614198
 21
-29.972432335
  0
LINE
  5
304
100
AcDbEntity
  8
DRAFT
100
AcDbLine
 62
7
  6
CONTINUOUS
 10
18.4316203534
 20
-29.861227296
 11
18.5663858624
 21
-29.7863911656
  0
LINE
  5
305
100
AcDbEntity
  8
RACCORDO
100
AcDbLine
 62
7
  6
CONTINUOUS
 10
18.766644796
 20
-29.6751861267
 11
18.9345348832
 21
-29.5819557107
  0
LINE
  5
306
100
AcDbEntity
  8
RACCORDO
100
AcDbLine
 62
253
  6
CONTINUOUS
 10
-17.0114310547
 20
46.9328575804
 11
11.979946974
 21
32.4371685661
  0
LINE
  5
307
100
AcDbEntity
  8
RACCORDO
100
AcDbLine
 62
253
  6
CONTINUOUS
 10
-16.3607722761
 20
47.9213494899
 11
12.6306061774
 21
33.4256602631
  0
LINE
  5
308
100
AcDbEntity
  8
0
100
AcDbLine
 62
253
  6
CONTINUOUS
 10
19.3339232192
 20
-33.0004248063
 11
19.3861379075
 21
-32.9687225909
  0
LINE
  5
309
100
AcDbEntity
  8
SUPERFICI
100
AcDbLine
 62
7
  6
CONTINUOUS
 10
32.7949290005
 20
26.7422543439
 11
-30.1375745251
 21
58.2085061067
  0
LINE
  5
30A
100
AcDbEntity
  8
RACCORDO
100
AcDbLine
 62
253
  6
CONTINUOUS
 10
34.9162493441
 20
-53.9927429761
 11
31.5813823754
 21
-55.4940302898
  0
LINE
  5
30B
100
AcDbEntity
  8
RACCORDO
100
AcDbLine
 62
7
  6
CONTINUOUS
 10
30.8357375356
 20
-57.0035020303
 11
30.8349347773
 21
-57.003839355
  0
LINE
  5
30C
100
AcDbEntity
  8
SUPERFICI
100
AcDbLine
 62
7
  6
CONTINUOUS
 10
34.0687596429
 20
-55.6465046217
 11
30.8348778694
 21
-57.0038632411
  0
ARC
  5
30D
100
AcDbEntity
  8
0
100
AcDbCircle
 62
253
  6
CONTINUOUS
 10
152.0642068208
 20
5.7625332028
 40
141.2332970225
100
AcDbArc
 50
196.3659394626
 51
197.0353915246
  0
ARC
  5
30E
100
AcDbEntity
  8
0
100
AcDbCircle
 62
253
  6
CONTINUOUS
 10
151.2999292264
 20
6.0437903263
 40
140.8886611494
100
AcDbArc
 50
196.8665660387
 51
197.41630135
  0
ARC
  5
30F
100
AcDbEntity
  8
0
100
AcDbCircle
 62
253
  6
CONTINUOUS
 10
151.5684567742
 20
5.6598803232
 40
140.2850114941
100
AcDbArc
 50
196.3380752749
 51
196.7962304292
  0
ARC
  5
310
100
AcDbEntity
  8
0
100
AcDbCircle
 62
253
  6
CONTINUOUS
 10
148.3406773349
 20
5.1149698562
 40
137.7870694134
100
AcDbArc
 50
197.4160940681
 51
197.6612167272
  0
ARC
  5
311
100
AcDbEntity
  8
0
100
AcDbCircle
 62
253
  6
CONTINUOUS
 10
145.16343889
 20
1.6946914602
 40
136.1346650478
100
AcDbArc
 50
194.5245009504
 51
195.7386199596
  0
ARC
  5
312
100
AcDbEntity
  8
0
100
AcDbCircle
 62
253
  6
CONTINUOUS
 10
142.4287608229
 20
-2.7111211034
 40
132.0299380089
100
AcDbArc
 50
193.1193625334
 51
193.9637080519
  0
ARC
  5
313
100
AcDbEntity
  8
0
100
AcDbCircle
 62
253
  6
CONTINUOUS
 10
142.1154585488
 20
-2.7209331573
 40
131.2822276108
100
AcDbArc
 50
193.0888570158
 51
193.6051733985
  0
ARC
  5
314
100
AcDbEntity
  8
0
100
AcDbCircle
 62
253
  6
CONTINUOUS
 10
143.593116956
 20
-3.4011100572
 40
127.9085871854
100
AcDbArc
 50
194.3795948341
 51
195.2547739167
  0
ARC
  5
315
100
AcDbEntity
  8
0
100
AcDbCircle
 62
253
  6
CONTINUOUS
 10
137.7560474265
 20
-31.8745478939
 40
117.6788075869
100
AcDbArc
 50
181.9306100449
 51
182.5232552745
  0
ARC
  5
316
100
AcDbEntity
  8
0
100
AcDbCircle
 62
253
  6
CONTINUOUS
 10
130.6515288355
 20
-22.8581403674
 40
113.4385082039
100
AcDbArc
 50
185.9766725219
 51
187.2756240988
  0
ARC
  5
317
100
AcDbEntity
  8
0
100
AcDbCircle
 62
253
  6
CONTINUOUS
 10
133.2522948659
 20
-32.0723586912
 40
113.1707131128
100
AcDbArc
 50
182.5235884823
 51
183.0712086718
  0
ARC
  5
318
100
AcDbEntity
  8
0
100
AcDbCircle
 62
253
  6
CONTINUOUS
 10
130.5750208831
 20
-22.7388837424
 40
112.9453575802
100
AcDbArc
 50
185.9497996238
 51
187.0922965227
  0
ARC
  5
319
100
AcDbEntity
  8
0
100
AcDbCircle
 62
253
  6
CONTINUOUS
 10
129.2467076917
 20
-25.1739203857
 40
112.1673059689
100
AcDbArc
 50
185.2183932096
 51
185.6755621461
  0
ARC
  5
31A
100
AcDbEntity
  8
0
100
AcDbCircle
 62
253
  6
CONTINUOUS
 10
127.5735860861
 20
-25.3402537407
 40
110.485936679
100
AcDbArc
 50
185.675534116
 51
186.0659539639
  0
ARC
  5
31B
100
AcDbEntity
  8
0
100
AcDbCircle
 62
253
  6
CONTINUOUS
 10
124.5079562843
 20
-30.0980869822
 40
109.2757301146
100
AcDbArc
 50
181.7301258972
 51
181.9679836684
  0
ARC
  5
31C
100
AcDbEntity
  8
0
100
AcDbCircle
 62
253
  6
CONTINUOUS
 10
124.840615321
 20
-30.1578232708
 40
108.7646688612
100
AcDbArc
 50
181.7033360403
 51
181.9233322864
  0
ARC
  5
31D
100
AcDbEntity
  8
0
100
AcDbCircle
 62
253
  6
CONTINUOUS
 10
116.931209635
 20
-57.0234591182
 40
105.0581092553
100
AcDbArc
 50
166.8238696217
 51
167.1185805929
  0
ARC
  5
31E
100
AcDbEntity
  8
0
100
AcDbCircle
 62
253
  6
CONTINUOUS
 10
118.6782653397
 20
-61.5930143956
 40
103.2345515613
100
AcDbArc
 50
166.0375835753
 51
166.3242917857
  0
ARC
  5
31F
100
AcDbEntity
  8
0
100
AcDbCircle
 62
253
  6
CONTINUOUS
 10
114.1430624255
 20
-56.3895847565
 40
102.198817758
100
AcDbArc
 50
167.1165338364
 51
167.6728986604
  0
ARC
  5
320
100
AcDbEntity
  8
0
100
AcDbCircle
 62
253
  6
CONTINUOUS
 10
112.9105234073
 20
-59.7256588637
 40
100.985020683
100
AcDbArc
 50
165.1537907174
 51
166.0269519902
  0
ARC
  5
321
100
AcDbEntity
  8
RACCORDO
100
AcDbCircle
 62
253
  6
CONTINUOUS
 10
-26.6745286427
 20
-8.1591425834
 40
0.5741275223
100
AcDbArc
 50
183.9643871362
 51
187.6864470778
  0
ARC
  5
322
100
AcDbEntity
  8
RACCORDO
100
AcDbCircle
 62
253
  6
CONTINUOUS
 10
-26.5727594648
 20
-8.2145698066
 40
0.5531185333
100
AcDbArc
 50
226.5575633355
 51
231.1100359246
  0
ARC
  5
323
100
AcDbEntity
  8
RACCORDO
100
AcDbCircle
 62
253
  6
CONTINUOUS
 10
-26.261632481
 20
-8.0590063147
 40
0.5531185333
100
AcDbArc
 50
226.5575633355
 51
231.1100359246
  0
ARC
  5
324
100
AcDbEntity
  8
RACCORDO
100
AcDbCircle
 62
253
  6
CONTINUOUS
 10
-26.676856828
 20
-8.2610626294
 40
0.5449112353
100
AcDbArc
 50
226.5891117209
 51
230.3534672444
  0
ARC
  5
325
100
AcDbEntity
  8
RACCORDO
100
AcDbCircle
 62
253
  6
CONTINUOUS
 10
-26.3657298443
 20
-8.1054991376
 40
0.5449112353
100
AcDbArc
 50
226.5891117209
 51
230.3534672444
  0
ARC
  5
326
100
AcDbEntity
  8
RACCORDO
100
AcDbCircle
 62
253
  6
CONTINUOUS
 10
-26.7225085527
 20
-8.1624709186
 40
0.5260323087
100
AcDbArc
 50
180.0280026544
 51
183.9640372363
  0
ARC
  5
327
100
AcDbEntity
  8
RACCORDO
100
AcDbCircle
 62
253
  6
CONTINUOUS
 10
-26.6941388684
 20
-8.2816413408
 40
0.5180389563
100
AcDbArc
 50
230.3730273432
 51
231.3785793264
  0
ARC
  5
328
100
AcDbEntity
  8
RACCORDO
100
AcDbCircle
 62
253
  6
CONTINUOUS
 10
-26.3830118845
 20
-8.1260778488
 40
0.5180389564
100
AcDbArc
 50
230.3730273434
 51
231.3785793262
  0
ARC
  5
329
100
AcDbEntity
  8
RACCORDO
100
AcDbCircle
 62
253
  6
CONTINUOUS
 10
-26.6028698442
 20
-8.2520956806
 40
0.5050060656
100
AcDbArc
 50
231.0960538014
 51
234.3593080852
  0
ARC
  5
32A
100
AcDbEntity
  8
RACCORDO
100
AcDbCircle
 62
253
  6
CONTINUOUS
 10
-26.2917428605
 20
-8.0965321888
 40
0.5050060656
100
AcDbArc
 50
231.0960538014
 51
234.3593080853
  0
ARC
  5
32B
100
AcDbEntity
  8
RACCORDO
100
AcDbCircle
 62
253
  6
CONTINUOUS
 10
-26.5190163117
 20
-8.0710878565
 40
0.4476868785
100
AcDbArc
 50
180.0280021867
 51
183.9640069967
  0
ARC
  5
32C
100
AcDbEntity
  8
RACCORDO
100
AcDbCircle
 62
253
  6
CONTINUOUS
 10
-26.8301432954
 20
-8.2266513483
 40
0.4476868785
100
AcDbArc
 50
180.0280021867
 51
183.9640069967
  0
ARC
  5
32D
100
AcDbEntity
  8
RACCORDO
100
AcDbCircle
 62
7
  6
CONTINUOUS
 10
-26.7774498698
 20
-8.3437350221
 40
0.4183716807
100
AcDbArc
 50
233.0277872913
 51
234.4037555976
  0
ARC
  5
32E
100
AcDbEntity
  8
RACCORDO
100
AcDbCircle
 62
7
  6
CONTINUOUS
 10
-26.4663228861
 20
-8.1881715303
 40
0.4183716806
100
AcDbArc
 50
233.0277872912
 51
234.4037555978
  0
ARC
  5
32F
100
AcDbEntity
  8
RACCORDO
100
AcDbCircle
 62
253
  6
CONTINUOUS
 10
-26.7349538467
 20
-8.3741035688
 40
0.4046835654
100
AcDbArc
 50
238.7041815699
 51
243.3927127938
  0
ARC
  5
330
100
AcDbEntity
  8
RACCORDO
100
AcDbCircle
 62
253
  6
CONTINUOUS
 10
-26.423826863
 20
-8.2185400769
 40
0.4046835654
100
AcDbArc
 50
238.7041815699
 51
243.3927127938
  0
ARC
  5
331
100
AcDbEntity
  8
RACCORDO
100
AcDbCircle
 62
7
  6
CONTINUOUS
 10
-26.4869872662
 20
-8.2175186526
 40
0.3824803863
100
AcDbArc
 50
234.3619525133
 51
238.7196489356
  0
ARC
  5
332
100
AcDbEntity
  8
RACCORDO
100
AcDbCircle
 62
253
  6
CONTINUOUS
 10
-26.5296078996
 20
-8.2512008258
 40
0.3444114557
100
AcDbArc
 50
238.7042026311
 51
243.3927129895
  0
ARC
  5
333
100
AcDbEntity
  8
RACCORDO
100
AcDbCircle
 62
253
  6
CONTINUOUS
 10
-26.8407348834
 20
-8.4067643177
 40
0.3444114557
100
AcDbArc
 50
238.7042026311
 51
243.3927129895
  0
ARC
  5
334
100
AcDbEntity
  8
RACCORDO
100
AcDbCircle
 62
7
  6
CONTINUOUS
 10
-26.5101329882
 20
-8.255580046
 40
0.337933852
100
AcDbArc
 50
238.7228231907
 51
243.3897975492
  0
ARC
  5
335
100
AcDbEntity
  8
RACCORDO
100
AcDbCircle
 62
7
  6
CONTINUOUS
 10
18.7222720554
 20
-30.2693792326
 40
0.2997390266
100
AcDbArc
 50
300.0151657664
 51
0.0004294262
  0
ARC
  5
336
100
AcDbEntity
  8
RACCORDO
100
AcDbCircle
 62
7
  6
CONTINUOUS
 10
-13.097533098
 20
-14.3594766559
 40
0.2997390266
100
AcDbArc
 50
300.0151657664
 51
0.0004294262
  0
SPLINE
  5
337
100
AcDbEntity
  8
0
100
AcDbSpline
 62
253
  6
CONTINUOUS
 70
0
 71
3
 72
10
 73
6
 74
4
 42
0.0000001
 43
0.0000001
 44
0.0000000001
 12
0.5337033093
 22
2.1364452347
 32
0.0
 13
0.5790676142
 23
2.1245983529
 33
0.0
 40
0.0
 40
0.0
 40
0.0
 40
0.0
 40
0.3255117626
 40
0.6599113015
 40
1.0
 40
1.0
 40
1.0
 40
1.0
 10
14.5098298231
 20
-35.4202823861
 30
0.0
 10
14.5677387248
 20
-35.1884697014
 30
0.0
 10
14.6868630695
 20
-34.7189441326
 30
0.0
 10
14.8724517702
 20
-34.0087546573
 30
0.0
 10
15.000986009
 20
-33.5306288527
 30
0.0
 10
15.0666307927
 20
-33.2897782231
 30
0.0
 11
14.5098298231
 21
-35.4202823861
 31
0.0
 11
14.6860732284
 21
-34.7254778688
 31
0.0
 11
14.8722210398
 21
-34.0130134673
 31
0.0
 11
15.0666307927
 21
-33.2897782231
 31
0.0
  0
SPLINE
  5
338
100
AcDbEntity
  8
0
100
AcDbSpline
 62
253
  6
CONTINUOUS
 70
0
 71
3
 72
10
 73
6
 74
4
 42
0.0000001
 43
0.0000001
 44
0.0000000001
 12
-0.1307304329
 22
2.4588589887
 32
0.0
 13
-0.0744505343
 23
2.4612060236
 33
0.0
 40
0.0
 40
0.0
 40
0.0
 40
0.0
 40
0.3434227712
 40
0.6767354522
 40
1.0
 40
1.0
 40
1.0
 40
1.0
 10
15.81240742
 20
-36.0714510446
 30
0.0
 10
15.7974421508
 20
-35.7899749886
 30
0.0
 10
15.7702163752
 20
-35.2351863653
 30
0.0
 10
15.7363498556
 20
-34.4151011025
 30
0.0
 10
15.7180960086
 20
-33.8765009888
 30
0.0
 10
15.7100736025
 20
-33.6112941048
 30
0.0
 11
15.81240742
 21
-36.0714510446
 31
0.0
 11
15.7709188243
 21
-35.2268486169
 31
0.0
 11
15.737035799
 21
-34.4068219126
 31
0.0
 11
15.7100736025
 21
-33.6112941048
 31
0.0
  0
SPLINE
  5
339
100
AcDbEntity
  8
0
100
AcDbSpline
 62
253
  6
CONTINUOUS
 70
0
 71
3
 72
10
 73
6
 74
4
 42
0.0000001
 43
0.0000001
 44
0.0000000001
 12
0.0689824464
 22
-2.0075292095
 32
0.0
 13
0.1066629881
 23
-2.0058744844
 33
0.0
 40
0.0
 40
0.0
 40
0.0
 40
0.0
 40
0.170709785
 40
0.5794258537
 40
1.0
 40
1.0
 40
1.0
 40
1.0
 10
15.2966800011
 20
-33.8507293412
 30
0.0
 10
15.3006053273
 20
-33.9649643011
 30
0.0
 10
15.3145375871
 20
-34.352681654
 30
0.0
 10
15.3421530424
 20
-35.0216871381
 30
0.0
 10
15.3693728168
 20
-35.5762941854
 30
0.0
 10
15.3843260486
 20
-35.8575005017
 30
0.0
 11
15.2966800011
 21
-33.8507293412
 31
0.0
 11
15.308994317
 21
-34.1934151962
 31
0.0
 11
15.3428745582
 21
-35.0137072231
 31
0.0
 11
15.3843260486
 21
-35.8575005017
 31
0.0
  0
SPLINE
  5
33A
100
AcDbEntity
  8
0
100
AcDbSpline
 62
253
  6
CONTINUOUS
 70
0
 71
3
 72
10
 73
6
 74
4
 42
0.0000001
 43
0.0000001
 44
0.0000000001
 12
-0.1023374054
 22
-2.2120824282
 32
0.0
 13
-0.0552974785
 23
-2.2137613162
 33
0.0
 40
0.0
 40
0.0
 40
0.0
 40
0.0
 40
0.3439768106
 40
0.7005607297
 40
1.0
 40
1.0
 40
1.0
 40
1.0
 10
16.1256843596
 20
-33.8191770786
 30
0.0
 10
16.1139504615
 20
-34.072812098
 30
0.0
 10
16.09191185
 20
-34.5894661202
 30
0.0
 10
16.065862177
 20
-35.327161993
 30
0.0
 10
16.0521680056
 20
-35.81121633
 30
0.0
 10
16.0466485934
 20
-36.0321786877
 30
0.0
 11
16.1256843596
 21
-33.8191770786
 31
0.0
 11
16.0932219713
 21
-34.5802039247
 31
0.0
 11
16.0653766383
 21
-35.3693494912
 31
0.0
 11
16.0466485934
 21
-36.0321786877
 31
0.0
  0
SPLINE
  5
33B
100
AcDbEntity
  8
0
100
AcDbSpline
 62
253
  6
CONTINUOUS
 70
0
 71
3
 72
10
 73
6
 74
4
 42
0.0000001
 43
0.0000001
 44
0.0000000001
 12
0.0074347768
 22
1.5571014644
 32
0.0
 13
0.0307336306
 23
1.5568158819
 33
0.0
 40
0.0
 40
0.0
 40
0.0
 40
0.0
 40
0.3329307029
 40
0.6662290631
 40
1.0
 40
1.0
 40
1.0
 40
1.0
 10
16.4526667718
 20
-36.3911716883
 30
0.0
 10
16.4534918603
 20
-36.2183693933
 30
0.0
 10
16.4560348927
 20
-35.8725775933
 30
0.0
 10
16.4624565792
 20
-35.3535756698
 30
0.0
 10
16.4684458303
 20
-35.0073903385
 30
0.0
 10
16.4718651612
 20
-34.8341837067
 30
0.0
 11
16.4526667718
 21
-36.3911716883
 31
0.0
 11
16.4564668311
 21
-35.8727728217
 31
0.0
 11
16.4628793259
 21
-35.3538271585
 31
0.0
 11
16.4718651612
 21
-34.8341837067
 31
0.0
  0
SPLINE
  5
33C
100
AcDbEntity
  8
0
100
AcDbSpline
 62
253
  6
CONTINUOUS
 70
0
 71
3
 72
10
 73
6
 74
4
 42
0.0000001
 43
0.0000001
 44
0.0000000001
 12
0.4275140219
 22
1.3449783205
 32
0.0
 13
0.4447780781
 23
1.3393682775
 33
0.0
 40
0.0
 40
0.0
 40
0.0
 40
0.0
 40
0.3398353592
 40
0.671682295
 40
1.0
 40
1.0
 40
1.0
 40
1.0
 10
17.1080509768
 20
-36.7179514596
 30
0.0
 10
17.1564791039
 20
-36.565594396
 30
0.0
 10
17.2528885116
 20
-36.264681026
 30
0.0
 10
17.3983666413
 20
-35.8173096412
 30
0.0
 10
17.49563074
 20
-35.5223716399
 30
0.0
 10
17.5443069126
 20
-35.3757922002
 30
0.0
 11
17.1080509768
 21
-36.7179514596
 31
0.0
 11
17.2543693534
 21
-36.2612102227
 31
0.0
 11
17.3991894946
 21
-35.8158320305
 31
0.0
 11
17.5443069126
 21
-35.3757922002
 31
0.0
  0
SPLINE
  5
33D
100
AcDbEntity
  8
0
100
AcDbSpline
 62
253
  6
CONTINUOUS
 70
0
 71
3
 72
10
 73
6
 74
4
 42
0.0000001
 43
0.0000001
 44
0.0000000001
 12
-0.3935641509
 22
-1.49165447
 32
0.0
 13
-0.3722135331
 23
-1.4971298703
 33
0.0
 40
0.0
 40
0.0
 40
0.0
 40
0.0
 40
0.449137564
 40
0.9266420508
 40
1.0
 40
1.0
 40
1.0
 40
1.0
 10
18.876852167
 20
-35.1896338743
 30
0.0
 10
18.8179306857
 20
-35.4129532259
 30
0.0
 10
18.6978059645
 20
-35.8740778185
 30
0.0
 10
18.5714565407
 20
-36.3725512377
 30
0.0
 10
18.5029619826
 20
-36.6474185096
 30
0.0
 10
18.4938603755
 20
-36.684027302
 30
0.0
 11
18.876852167
 21
-35.1896338743
 31
0.0
 11
18.7021984229
 21
-35.8601452714
 31
0.0
 11
18.5212243478
 21
-36.5742156732
 31
0.0
 11
18.4938603755
 21
-36.684027302
 31
0.0
  0
SPLINE
  5
33E
100
AcDbEntity
  8
0
100
AcDbSpline
 62
253
  6
CONTINUOUS
 70
0
 71
3
 72
10
 73
6
 74
4
 42
0.0000001
 43
0.0000001
 44
0.0000000001
 12
-0.7743801062
 22
2.7600590489
 32
0.0
 13
-0.712700502
 23
2.7766253792
 33
0.0
 40
0.0
 40
0.0
 40
0.0
 40
0.0
 40
0.3446131216
 40
0.6778958613
 40
1.0
 40
1.0
 40
1.0
 40
1.0
 10
20.0373708024
 20
-38.1636808327
 30
0.0
 10
19.9484169539
 20
-37.8466299778
 30
0.0
 10
19.775828465
 20
-37.2222776998
 30
0.0
 10
19.5281277686
 20
-36.2993883474
 30
0.0
 10
19.3702053133
 20
-35.6933688857
 30
0.0
 10
19.2936840529
 20
-35.3952480436
 30
0.0
 11
20.0373708024
 21
-38.1636808327
 31
0.0
 11
19.7741514967
 21
-37.2115138919
 31
0.0
 11
19.5265011475
 21
-36.288769201
 31
0.0
 11
19.2936840529
 21
-35.3952480436
 31
0.0
  0
SPLINE
  5
33F
100
AcDbEntity
  8
0
100
AcDbSpline
 62
253
  6
CONTINUOUS
 70
0
 71
3
 72
16
 73
12
 74
10
 42
0.0000001
 43
0.0000001
 44
0.0000000001
 12
0.2761514291
 22
-0.1310204005
 32
0.0
 13
0.1418749094
 23
-0.270862827
 33
0.0
 40
0.0
 40
0.0
 40
0.0
 40
0.0
 40
0.1743909387
 40
0.2670318399
 40
0.362942038
 40
0.4620701173
 40
0.5638762569
 40
0.6676014087
 40
0.7728708455
 40
0.9855298592
 40
1.0
 40
1.0
 40
1.0
 40
1.0
 10
20.8724723878
 20
-37.6296754275
 30
0.0
 10
20.8885251567
 20
-37.6372916844
 30
0.0
 10
20.9121762889
 20
-37.6510085607
 30
0.0
 10
20.9420681608
 20
-37.6728050868
 30
0.0
 10
20.9645025016
 20
-37.6917093679
 30
0.0
 10
20.9862267242
 20
-37.7127871796
 30
0.0
 10
21.006931527
 20
-37.7359453912
 30
0.0
 10
21.0265240842
 20
-37.7608465144
 30
0.0
 10
21.0511502228
 20
-37.7960703287
 30
0.0
 10
21.0683929356
 20
-37.8252861113
 30
0.0
 10
21.079196582
 20
-37.8457608609
 30
0.0
 10
21.0798808986
 20
-37.8470673353
 30
0.0
 11
20.8724723878
 21
-37.6296754275
 31
0.0
 11
20.9187096087
 21
-37.6561972722
 31
0.0
 11
20.9415997173
 21
-37.6728662834
 31
0.0
 11
20.964025171
 21
-37.6917475586
 31
0.0
 11
20.9857752926
 21
-37.7128418897
 31
0.0
 11
21.0065529281
 21
-37.7360065669
 31
0.0
 11
21.0261881144
 21
-37.7608987474
 31
0.0
 11
21.0446506596
 21
-37.7872511398
 31
0.0
 11
21.0778160349
 21
-37.8431540908
 31
0.0
 11
21.0798808986
 21
-37.8470673353
 31
0.0
  0
SPLINE
  5
340
100
AcDbEntity
  8
0
100
AcDbSpline
 62
253
  6
CONTINUOUS
 70
0
 71
3
 72
14
 73
10
 74
8
 42
0.0000001
 43
0.0000001
 44
0.0000000001
 12
0.2653037084
 22
-0.823138769
 32
0.0
 13
0.2265062454
 23
-0.8346486755
 33
0.0
 40
0.0
 40
0.0
 40
0.0
 40
0.0
 40
0.1413487269
 40
0.2809029261
 40
0.4201108386
 40
0.5604767525
 40
0.7033618115
 40
0.8496260301
 40
1.0
 40
1.0
 40
1.0
 40
1.0
 10
21.1280921028
 20
-37.9617045443
 30
0.0
 10
21.1405922166
 20
-38.00048775
 30
0.0
 10
21.1642241306
 20
-38.0779540169
 30
0.0
 10
21.1969489629
 20
-38.1945634062
 30
0.0
 10
21.2280880581
 20
-38.311308913
 30
0.0
 10
21.2591094168
 20
-38.4290779746
 30
0.0
 10
21.2914909605
 20
-38.5485899574
 30
0.0
 10
21.3250332993
 20
-38.6707747425
 30
0.0
 10
21.3476255903
 20
-38.7532511628
 30
0.0
 10
21.358979138
 20
-38.7950876411
 30
0.0
 11
21.1280921028
 21
-37.9617045443
 31
0.0
 11
21.1639317959
 21
-38.0785763775
 31
0.0
 11
21.1967243743
 21
-38.1947276858
 31
0.0
 11
21.2279421032
 21
-38.3110020716
 31
0.0
 11
21.2590608003
 21
-38.4283394079
 31
0.0
 11
21.2913014695
 21
-38.5476317309
 31
0.0
 11
21.3247085434
 21
-38.6696353713
 31
0.0
 11
21.358979138
 21
-38.7950876411
 31
0.0
  0
SPLINE
  5
341
100
AcDbEntity
  8
0
100
AcDbSpline
 62
253
  6
CONTINUOUS
 70
0
 71
3
 72
19
 73
15
 74
13
 42
0.0000001
 43
0.0000001
 44
0.0000000001
 12
-0.1699134188
 22
0.663264165
 32
0.0
 13
-0.4771552244
 23
0.4910323963
 33
0.0
 40
0.0
 40
0.0
 40
0.0
 40
0.0
 40
0.1399161878
 40
0.2644646459
 40
0.3790093146
 40
0.4869638381
 40
0.5905980005
 40
0.6927987857
 40
0.7443493303
 40
0.7960240942
 40
0.8478320013
 40
0.8993731813
 40
0.9500301587
 40
1.0
 40
1.0
 40
1.0
 40
1.0
 10
21.6003578776
 20
-38.2600954411
 30
0.0
 10
21.5924333316
 20
-38.2291616433
 30
0.0
 10
21.5778523906
 20
-38.170591279
 30
0.0
 10
21.555802849
 20
-38.0869413944
 30
0.0
 10
21.533234345
 20
-38.0109993233
 30
0.0
 10
21.5088199938
 20
-37.9406491235
 30
0.0
 10
21.4814113908
 20
-37.8744351634
 30
0.0
 10
21.4550356918
 20
-37.8218674669
 30
0.0
 10
21.4312608201
 20
-37.7814412697
 30
0.0
 10
21.4118548665
 20
-37.7518357956
 30
0.0
 10
21.3908814209
 20
-37.7233196453
 30
0.0
 10
21.3685888628
 20
-37.6961281415
 30
0.0
 10
21.3454919151
 20
-37.6701836456
 30
0.0
 10
21.3296793831
 20
-37.6535239536
 30
0.0
 10
21.3217315928
 20
-37.6453450166
 30
0.0
 11
21.6003578776
 21
-38.2600954411
 31
0.0
 11
21.5767798579
 21
-38.1672441542
 31
0.0
 11
21.554776226
 21
-38.0848556918
 31
0.0
 11
21.5322261236
 21
-38.0097408317
 31
0.0
 11
21.5078087903
 21
-37.9399758292
 31
0.0
 11
21.480496823
 21
-37.8744862974
 31
0.0
 11
21.4489445454
 21
-37.8120285937
 31
0.0
 11
21.4310322107
 21
-37.7816157987
 31
0.0
 11
21.411610424
 21
-37.7520422442
 31
0.0
 11
21.3905996657
 21
-37.7234623918
 31
0.0
 11
21.3682780174
 21
-37.6961296043
 31
0.0
 11
21.3452510703
 21
-37.6701924632
 31
0.0
 11
21.3217315928
 21
-37.6453450166
 31
0.0
  0
SPLINE
  5
342
100
AcDbEntity
  8
0
100
AcDbSpline
 62
253
  6
CONTINUOUS
 70
0
 71
3
 72
15
 73
11
 74
9
 42
0.0000001
 43
0.0000001
 44
0.0000000001
 12
-0.1521234973
 22
0.5932629891
 32
0.0
 13
-0.3608435011
 23
0.4948681646
 33
0.0
 40
0.0
 40
0.0
 40
0.0
 40
0.0
 40
0.141895767
 40
0.2805997834
 40
0.4116656846
 40
0.5345177786
 40
0.6514236347
 40
0.7657431876
 40
0.8812815245
 40
1.0
 40
1.0
 40
1.0
 40
1.0
 10
22.0171344097
 20
-38.0930573947
 30
0.0
 10
22.0099391829
 20
-38.0649968924
 30
0.0
 10
21.9960526111
 20
-38.0094206201
 30
0.0
 10
21.9748039298
 20
-37.9281037712
 30
0.0
 10
21.9523777643
 20
-37.8511338333
 30
0.0
 10
21.9282765118
 20
-37.7793408383
 30
0.0
 10
21.9018447042
 20
-37.7120230345
 30
0.0
 10
21.8720855031
 20
-37.6477347254
 30
0.0
 10
21.8377419676
 20
-37.5853382112
 30
0.0
 10
21.8113385072
 20
-37.545376038
 30
0.0
 10
21.7970589104
 20
-37.5257927067
 30
0.0
 11
22.0171344097
 21
-38.0930573947
 31
0.0
 11
21.995741999
 21
-38.0088265663
 31
0.0
 11
21.9740172556
 21
-37.926701298
 31
0.0
 11
21.9513758454
 21
-37.8496884465
 31
0.0
 11
21.9272822046
 21
-37.7784088363
 31
0.0
 11
21.9009914128
 21
-37.7118106923
 31
0.0
 11
21.8714677162
 21
-37.6483240685
 31
0.0
 11
21.8372468768
 21
-37.5863868575
 31
0.0
 11
21.7970589104
 21
-37.5257927067
 31
0.0
  0
SPLINE
  5
343
100
AcDbEntity
  8
0
100
AcDbSpline
 62
253
  6
CONTINUOUS
 70
0
 71
3
 72
10
 73
6
 74
4
 42
0.0000001
 43
0.0000001
 44
0.0000000001
 12
-0.4727148235
 22
-0.1296896978
 32
0.0
 13
-0.4790435042
 23
-0.1039040091
 33
0.0
 40
0.0
 40
0.0
 40
0.0
 40
0.0
 40
0.3478123823
 40
0.6812147595
 40
1.0
 40
1.0
 40
1.0
 40
1.0
 10
21.7970589104
 20
-37.5257927067
 30
0.0
 10
21.7422535541
 20
-37.5408286009
 30
0.0
 10
21.6347767211
 20
-37.5697858888
 30
0.0
 10
21.4764324293
 20
-37.6101172974
 30
0.0
 10
21.3726355923
 20
-37.6343039951
 30
0.0
 10
21.3217315928
 20
-37.6453450166
 30
0.0
 11
21.7970589104
 21
-37.5257927067
 31
0.0
 11
21.6324016476
 21
-37.570011849
 31
0.0
 11
21.4739802586
 21
-37.6101536013
 31
0.0
 11
21.3217315928
 21
-37.6453450166
 31
0.0
  0
SPLINE
  5
344
100
AcDbEntity
  8
0
100
AcDbSpline
 62
253
  6
CONTINUOUS
 70
0
 71
3
 72
20
 73
16
 74
14
 42
0.0000001
 43
0.0000001
 44
0.0000000001
 12
1.4458144897
 22
0.6386056429
 32
0.0
 13
-1.1937792212
 23
1.0358995497
 33
0.0
 40
0.0
 40
0.0
 40
0.0
 40
0.0
 40
0.0631847401
 40
0.1288640177
 40
0.2012493969
 40
0.2830382797
 40
0.3727537754
 40
0.463307876
 40
0.5478806027
 40
0.625916923
 40
0.7000766806
 40
0.7742824408
 40
0.8504052089
 40
0.926862471
 40
1.0
 40
1.0
 40
1.0
 40
1.0
 10
21.7970589104
 20
-37.5257927067
 30
0.0
 10
21.827510048
 20
-37.5123426628
 30
0.0
 10
21.8852412622
 20
-37.4738891675
 30
0.0
 10
21.9516878927
 20
-37.3894394326
 30
0.0
 10
21.9969577496
 20
-37.2815417993
 30
0.0
 10
22.0198923158
 20
-37.1543571859
 30
0.0
 10
22.0226629022
 20
-37.0158530854
 30
0.0
 10
22.0066774898
 20
-36.8768505269
 30
0.0
 10
21.9758656379
 20
-36.7468117327
 30
0.0
 10
21.935147932
 20
-36.628714684
 30
0.0
 10
21.8862882435
 20
-36.5197321812
 30
0.0
 10
21.8285691412
 20
-36.4163346737
 30
0.0
 10
21.7617308557
 20
-36.3171266673
 30
0.0
 10
21.6873151617
 20
-36.2242044705
 30
0.0
 10
21.6318183548
 20
-36.1678758717
 30
0.0
 10
21.6027150006
 20
-36.1426214939
 30
0.0
 11
21.7970589104
 21
-37.5257927067
 31
0.0
 11
21.8804732239
 21
-37.4708779415
 31
0.0
 11
21.9455912434
 21
-37.3900306575
 31
0.0
 11
21.9912194713
 21
-37.2851129563
 31
0.0
 11
22.0158914544
 21
-37.1582162124
 31
0.0
 11
22.0194870497
 21
-37.0164603214
 31
0.0
 11
22.0034438793
 21
-36.8742353503
 31
0.0
 11
21.9728591473
 21
-36.7441083305
 31
0.0
 11
21.932727258
 21
-36.6274780675
 31
0.0
 11
21.8847670803
 21
-36.5205244424
 31
0.0
 11
21.8276845401
 21
-36.4180652266
 31
0.0
 11
21.7605015351
 21
-36.3182519816
 31
0.0
 11
21.6846069772
 21
-36.2242107305
 31
0.0
 11
21.6027150006
 21
-36.1426214939
 31
0.0
  0
SPLINE
  5
345
100
AcDbEntity
  8
0
100
AcDbSpline
 62
253
  6
CONTINUOUS
 70
0
 71
3
 72
24
 73
20
 74
18
 42
0.0000001
 43
0.0000001
 44
0.0000000001
 12
1.4929413799
 22
0.1647857816
 32
0.0
 13
-1.1334358961
 23
0.9855716042
 33
0.0
 40
0.0
 40
0.0
 40
0.0
 40
0.0
 40
0.032572128
 40
0.065631713
 40
0.0999321325
 40
0.1357840268
 40
0.1734624817
 40
0.2136923936
 40
0.2571716325
 40
0.303476787
 40
0.3521618808
 40
0.4018733673
 40
0.4988061046
 40
0.588428399
 40
0.6725518722
 40
0.7552827045
 40
0.8390403136
 40
0.9220165888
 40
1.0
 40
1.0
 40
1.0
 40
1.0
 10
21.3217315928
 20
-37.6453450166
 30
0.0
 10
21.3379410187
 20
-37.6435558754
 30
0.0
 10
21.3703706464
 20
-37.637053714
 30
0.0
 10
21.4169749141
 20
-37.6180595046
 30
0.0
 10
21.4604980081
 20
-37.5896104873
 30
0.0
 10
21.4995398518
 20
-37.5518825533
 30
0.0
 10
21.5330709811
 20
-37.5055102961
 30
0.0
 10
21.5603970945
 20
-37.450949498
 30
0.0
 10
21.5806560465
 20
-37.3888706786
 30
0.0
 10
21.5938657682
 20
-37.3206661838
 30
0.0
 10
21.6002875041
 20
-37.2483961708
 30
0.0
 10
21.6006198421
 20
-37.1505079657
 30
0.0
 10
21.587260284
 20
-37.032509057
 30
0.0
 10
21.5545518999
 20
-36.900687908
 30
0.0
 10
21.5100470958
 20
-36.7799877816
 30
0.0
 10
21.4546480587
 20
-36.6671583676
 30
0.0
 10
21.3881974521
 20
-36.5611527076
 30
0.0
 10
21.3137431822
 20
-36.4636768489
 30
0.0
 10
21.2578555422
 20
-36.4051429083
 30
0.0
 10
21.2283924763
 20
-36.3795234964
 30
0.0
 11
21.3217315928
 21
-37.6453450166
 31
0.0
 11
21.3696811073
 21
-37.6356309712
 31
0.0
 11
21.4156714166
 21
-37.6169070191
 31
0.0
 11
21.4588438745
 21
-37.5887929914
 31
0.0
 11
21.4977018358
 21
-37.5515121167
 31
0.0
 11
21.5310499706
 21
-37.5057878503
 31
0.0
 11
21.5583258908
 21
-37.4518686167
 31
0.0
 11
21.5789434832
 21
-37.3899024117
 31
0.0
 11
21.5924871014
 21
-37.3216831136
 31
0.0
 11
21.5992139066
 21
-37.2488677653
 31
0.0
 11
21.599557946
 21
-37.1742015028
 31
0.0
 11
21.5836087105
 21
-37.029483972
 31
0.0
 11
21.5514518211
 21
-36.8987678481
 31
0.0
 11
21.5077895062
 21
-36.7801973189
 31
0.0
 11
21.4530120091
 21
-36.6686600388
 31
0.0
 11
21.3863958057
 21
-36.5619404036
 31
0.0
 11
21.310386117
 21
-36.4631708606
 31
0.0
 11
21.2283924763
 21
-36.3795234964
 31
0.0
  0
SPLINE
  5
346
100
AcDbEntity
  8
0
100
AcDbSpline
 62
253
  6
CONTINUOUS
 70
0
 71
3
 72
13
 73
9
 74
7
 42
0.0000001
 43
0.0000001
 44
0.0000000001
 12
-0.9204036036
 22
0.8003307988
 32
0.0
 13
-1.1644817681
 23
0.3628421046
 33
0.0
 40
0.0
 40
0.0
 40
0.0
 40
0.0
 40
0.1445661718
 40
0.2970064929
 40
0.4578500849
 40
0.6273326106
 40
0.8070238426
 40
1.0
 40
1.0
 40
1.0
 40
1.0
 10
21.2283924763
 20
-36.3795234964
 30
0.0
 10
21.1840394011
 20
-36.3409565765
 30
0.0
 10
21.0884475757
 20
-36.2667412495
 30
0.0
 10
20.9308125867
 20
-36.1673654226
 30
0.0
 10
20.7577409865
 20
-36.0744936303
 30
0.0
 10
20.568897595
 20
-35.9885035088
 30
0.0
 10
20.3629758311
 20
-35.9095600686
 30
0.0
 10
20.218944743
 20
-35.8623840261
 30
0.0
 10
20.144039004
 20
-35.8390440677
 30
0.0
 11
21.2283924763
 21
-36.3795234964
 31
0.0
 11
21.0894026422
 21
-36.2710188913
 31
0.0
 11
20.9326520597
 21
-36.1710196031
 31
0.0
 11
20.7599163171
 21
-36.0780173126
 31
0.0
 11
20.5718914599
 21
-35.9921160058
 31
0.0
 11
20.3674445064
 21
-35.9131425969
 31
0.0
 11
20.144039004
 21
-35.8390440677
 31
0.0
  0
SPLINE
  5
347
100
AcDbEntity
  8
0
100
AcDbSpline
 62
253
  6
CONTINUOUS
 70
0
 71
3
 72
15
 73
11
 74
9
 42
0.0000001
 43
0.0000001
 44
0.0000000001
 12
-0.9917970357
 22
0.8606299091
 32
0.0
 13
-1.2562485138
 23
0.3823413032
 33
0.0
 40
0.0
 40
0.0
 40
0.0
 40
0.0
 40
0.132225332
 40
0.2606415846
 40
0.3833909453
 40
0.4998135436
 40
0.6123528705
 40
0.7284130779
 40
0.855226439
 40
1.0
 40
1.0
 40
1.0
 40
1.0
 10
21.6027150006
 20
-36.1426214939
 30
0.0
 10
21.5590014365
 20
-36.1046891354
 30
0.0
 10
21.4689881827
 20
-36.0342400432
 30
0.0
 10
21.3280372715
 20
-35.9428947625
 30
0.0
 10
21.1877392541
 20
-35.86395908
 30
0.0
 10
21.0498335659
 20
-35.7953994942
 30
0.0
 10
20.9116330133
 20
-35.7343905624
 30
0.0
 10
20.7667796585
 20
-35.6775390417
 30
0.0
 10
20.6065748454
 20
-35.6215357545
 30
0.0
 10
20.4931911514
 20
-35.5857624017
 30
0.0
 10
20.4325672944
 20
-35.567311431
 30
0.0
 11
21.6027150006
 21
-36.1426214939
 31
0.0
 11
21.466177509
 21
-36.0353593434
 31
0.0
 11
21.3250327851
 21
-35.9430886284
 31
0.0
 11
21.1846675987
 21
-35.8638483428
 31
0.0
 11
21.0478103264
 21
-35.7957143303
 31
0.0
 11
20.9126550591
 21
-35.7359476317
 31
0.0
 11
20.7708455005
 21
-35.6801181572
 31
0.0
 11
20.6137479975
 21
-35.6248854355
 31
0.0
 11
20.4325672944
 21
-35.567311431
 31
0.0
  0
SPLINE
  5
348
100
AcDbEntity
  8
0
100
AcDbSpline
 62
253
  6
CONTINUOUS
 70
0
 71
3
 72
12
 73
8
 74
6
 42
0.0000001
 43
0.0000001
 44
0.0000000001
 12
0.3616054559
 22
-0.1010107776
 32
0.0
 13
0.3213673293
 23
-0.1941255331
 33
0.0
 40
0.0
 40
0.0
 40
0.0
 40
0.0
 40
0.1608175625
 40
0.3233138305
 40
0.4886456765
 40
0.6566392583
 40
1.0
 40
1.0
 40
1.0
 40
1.0
 10
20.5779522022
 20
-36.4326296915
 30
0.0
 10
20.5973363715
 20
-36.4380444605
 30
0.0
 10
20.6361730948
 20
-36.4494356775
 30
0.0
 10
20.6940167708
 20
-36.469366855
 30
0.0
 10
20.7515383699
 20
-36.492719406
 30
0.0
 10
20.8284028529
 20
-36.5283216717
 30
0.0
 10
20.8845758976
 20
-36.5592065421
 30
0.0
 10
20.9213575391
 20
-36.5814249044
 30
0.0
 11
20.5779522022
 21
-36.4326296915
 31
0.0
 11
20.6358318366
 21
-36.449820957
 31
0.0
 11
20.6934907929
 21
-36.4697594433
 31
0.0
 11
20.7510308655
 21
-36.4930462202
 31
0.0
 11
20.8082766704
 21
-36.5195248226
 31
0.0
 11
20.9213575391
 21
-36.5814249044
 31
0.0
  0
SPLINE
  5
349
100
AcDbEntity
  8
0
100
AcDbSpline
 62
253
  6
CONTINUOUS
 70
0
 71
3
 72
9
 73
5
 74
3
 42
0.0000001
 43
0.0000001
 44
0.0000000001
 12
0.0967337324
 22
-0.058433094
 32
0.0
 13
0.0815652484
 23
-0.0783188796
 33
0.0
 40
0.0
 40
0.0
 40
0.0
 40
0.0
 40
0.6069984406
 40
1.0
 40
1.0
 40
1.0
 40
1.0
 10
20.9213575391
 20
-36.5814249043
 30
0.0
 10
20.9409299474
 20
-36.5932478366
 30
0.0
 10
20.9716562761
 20
-36.6153005948
 30
0.0
 10
20.9998554296
 20
-36.6403542014
 30
0.0
 10
21.0105405195
 20
-36.6506140153
 30
0.0
 11
20.9213575391
 21
-36.5814249043
 31
0.0
 11
20.9773004842
 21
-36.6211254702
 31
0.0
 11
21.0105405195
 21
-36.6506140153
 31
0.0
  0
SPLINE
  5
34A
100
AcDbEntity
  8
0
100
AcDbSpline
 62
253
  6
CONTINUOUS
 70
0
 71
3
 72
19
 73
15
 74
13
 42
0.0000001
 43
0.0000001
 44
0.0000000001
 12
0.0271096451
 22
-0.5249440113
 32
0.0
 13
-0.4796168882
 23
0.2151018096
 33
0.0
 40
0.0
 40
0.0
 40
0.0
 40
0.0
 40
0.1166849767
 40
0.2267641461
 40
0.3283022926
 40
0.4216468923
 40
0.4660215514
 40
0.5094509799
 40
0.5526932084
 40
0.5966107713
 40
0.6883604336
 40
0.7859743032
 40
0.8900108778
 40
1.0
 40
1.0
 40
1.0
 40
1.0
 10
21.18250818
 20
-37.0066496652
 30
0.0
 10
21.1835626095
 20
-37.0270673585
 30
0.0
 10
21.1841553248
 20
-37.0668567445
 30
0.0
 10
21.178683543
 20
-37.1242791107
 30
0.0
 10
21.1648199995
 20
-37.1762709323
 30
0.0
 10
21.1437939575
 20
-37.2132791233
 30
0.0
 10
21.1220230802
 20
-37.2365471943
 30
0.0
 10
21.1036539399
 20
-37.2505258802
 30
0.0
 10
21.0831046005
 20
-37.2608839704
 30
0.0
 10
21.0529145676
 20
-37.2698323279
 30
0.0
 10
21.0116189768
 20
-37.272292548
 30
0.0
 10
20.9605439817
 20
-37.2649058188
 30
0.0
 10
20.9079673358
 20
-37.2497034904
 30
0.0
 10
20.8731317179
 20
-37.2356721546
 30
0.0
 10
20.8555475044
 20
-37.2277858682
 30
0.0
 11
21.18250818
 21
-37.0066496652
 31
0.0
 11
21.1830149385
 21
-37.0679822778
 31
0.0
 11
21.1768924731
 21
-37.1255198607
 31
0.0
 11
21.1622033249
 21
-37.176831579
 31
0.0
 11
21.1374467811
 21
-37.2191941173
 31
0.0
 11
21.1214611691
 21
-37.2361802194
 31
0.0
 11
21.1032537102
 21
-37.2499506316
 31
0.0
 11
21.0829665966
 21
-37.2602017714
 31
0.0
 11
21.060868326
 21
-37.2668788155
 31
0.0
 11
21.0127878054
 21
-37.2706426904
 31
0.0
 11
20.961915784
 21
-37.2639521038
 31
0.0
 11
20.9092722909
 21
-37.2491454097
 31
0.0
 11
20.8555475044
 21
-37.2277858682
 31
0.0
  0
SPLINE
  5
34B
100
AcDbEntity
  8
0
100
AcDbSpline
 62
253
  6
CONTINUOUS
 70
0
 71
3
 72
9
 73
5
 74
3
 42
0.0000001
 43
0.0000001
 44
0.0000000001
 12
0.0577749645
 22
-0.1103020278
 32
0.0
 13
0.0381835932
 23
-0.1184694933
 33
0.0
 40
0.0
 40
0.0
 40
0.0
 40
0.0
 40
0.48685329
 40
1.0
 40
1.0
 40
1.0
 40
1.0
 10
21.0798808986
 20
-37.8470673353
 30
0.0
 10
21.0892568758
 20
-37.864967637
 30
0.0
 10
21.1069838745
 20
-37.9025259495
 30
0.0
 10
21.1215608637
 20
-37.9414404679
 30
0.0
 10
21.1280921254
 20
-37.9617045448
 30
0.0
 11
21.0798808986
 21
-37.8470673353
 31
0.0
 11
21.1057711365
 21
-37.9018598692
 31
0.0
 11
21.1280921254
 21
-37.9617045448
 31
0.0
  0
SPLINE
  5
34C
100
AcDbEntity
  8
0
100
AcDbSpline
 62
253
  6
CONTINUOUS
 70
0
 71
3
 72
8
 73
4
 74
2
 42
0.0000001
 43
0.0000001
 44
0.0000000001
 12
0.007144862
 22
-0.0435941843
 32
0.0
 13
0.002274608
 23
-0.044044908
 33
0.0
 40
0.0
 40
0.0
 40
0.0
 40
0.0
 40
1.0
 40
1.0
 40
1.0
 40
1.0
 10
21.1777125798
 20
-36.962794252
 30
0.0
 10
21.1800942005
 20
-36.9773256468
 30
0.0
 10
21.1817499871
 20
-36.9919680335
 30
0.0
 10
21.1825081897
 20
-37.0066496695
 30
0.0
 11
21.1777125798
 21
-36.962794252
 31
0.0
 11
21.1825081897
 21
-37.0066496695
 31
0.0
  0
SPLINE
  5
34D
100
AcDbEntity
  8
0
100
AcDbSpline
 62
253
  6
CONTINUOUS
 70
0
 71
3
 72
13
 73
9
 74
7
 42
0.0000001
 43
0.0000001
 44
0.0000000001
 12
0.2597099084
 22
-0.249373225
 32
0.0
 13
0.0582948104
 23
-0.3556842262
 33
0.0
 40
0.0
 40
0.0
 40
0.0
 40
0.0
 40
0.0795963953
 40
0.2913805886
 40
0.5072953847
 40
0.7217539191
 40
0.9286196799
 40
1.0
 40
1.0
 40
1.0
 40
1.0
 10
21.0105405195
 20
-36.6506140153
 30
0.0
 10
21.017431177
 20
-36.6572304186
 30
0.0
 10
21.0420512511
 20
-36.6820810908
 30
0.0
 10
21.0810176023
 20
-36.7290489589
 30
0.0
 10
21.1217714837
 20
-36.7947018018
 30
0.0
 10
21.1529745354
 20
-36.8647271416
 30
0.0
 10
21.1699591191
 20
-36.921488801
 30
0.0
 10
21.1763255458
 20
-36.9543313007
 30
0.0
 10
21.1777125798
 20
-36.962794252
 30
0.0
 11
21.0105405195
 21
-36.6506140153
 31
0.0
 11
21.0307150561
 21
-36.6709660303
 31
0.0
 11
21.0793005295
 21
-36.7296788382
 31
0.0
 11
21.1202934424
 21
-36.7956794352
 31
0.0
 11
21.1517641491
 21
-36.8661417602
 31
0.0
 11
21.1728468409
 21
-36.9375325082
 31
0.0
 11
21.1777125798
 21
-36.962794252
 31
0.0
  0
SPLINE
  5
34E
100
AcDbEntity
  8
RACCORDO
100
AcDbSpline
 62
7
  6
CONTINUOUS
 70
0
 71
3
 72
8
 73
4
 74
2
 42
0.0000001
 43
0.0000001
 44
0.0000000001
 12
-0.0505610224
 22
0.0252805112
 32
0.0
 13
-0.0461157505
 23
0.0330045523
 33
0.0
 40
0.0
 40
0.0
 40
0.0
 40
0.0
 40
1.0
 40
1.0
 40
1.0
 40
1.0
 10
-26.9726267282
 20
-8.7132815749
 30
0.0
 10
-26.9894804024
 20
-8.7048547378
 30
0.0
 10
-27.00559942
 20
-8.6949308345
 30
0.0
 10
-27.0209713368
 20
-8.6839293171
 30
0.0
 11
-26.9726267282
 21
-8.7132815749
 31
0.0
 11
-27.0209713368
 21
-8.6839293171
 31
0.0
  0
SPLINE
  5
34F
100
AcDbEntity
  8
0
100
AcDbSpline
 62
7
  6
CONTINUOUS
 70
0
 71
3
 72
13
 73
9
 74
7
 42
0.0000001
 43
0.0000001
 44
0.0000000001
 12
-0.5262033788
 22
0.2631016894
 32
0.0
 13
0.0
 23
0.5883132625
 33
0.0
 40
0.0
 40
0.0
 40
0.0
 40
0.0
 40
0.1491753708
 40
0.3137567936
 40
0.488302649
 40
0.6657440957
 40
0.8385780684
 40
1.0
 40
1.0
 40
1.0
 40
1.0
 10
-26.2131318895
 20
-8.323773905
 30
0.0
 10
-26.2392974175
 20
-8.310691141
 30
0.0
 10
-26.2907105805
 20
-8.275745344
 30
0.0
 10
-26.3579946008
 20
-8.2069454879
 30
0.0
 10
-26.4157966861
 20
-8.1231919631
 30
0.0
 10
-26.460328947
 20
-8.0299225283
 30
0.0
 10
-26.4887245575
 20
-7.9332394844
 30
0.0
 10
-26.495974602
 20
-7.8675979416
 30
0.0
 10
-26.495974602
 20
-7.8359423872
 30
0.0
 11
-26.2131318895
 21
-8.323773905
 31
0.0
 11
-26.2863369703
 21
-8.2753677246
 31
0.0
 11
-26.3545532457
 21
-8.2066530654
 31
0.0
 11
-26.4131318895
 21
-8.1223127178
 31
0.0
 11
-26.4580808638
 21
-8.0280943371
 31
0.0
 11
-26.4863369703
 21
-7.9304187503
 31
0.0
 11
-26.495974602
 21
-7.8359423872
 31
0.0
  0
SPLINE
  5
350
100
AcDbEntity
  8
RACCORDO
100
AcDbSpline
 62
7
  6
CONTINUOUS
 70
0
 71
3
 72
8
 73
4
 74
2
 42
0.0000001
 43
0.0000001
 44
0.0000000001
 12
0.0025010325
 22
-0.0012765646
 32
0.0
 13
0.0011715507
 23
-0.0017520104
 33
0.0
 40
0.0
 40
0.0
 40
0.0
 40
0.0
 40
1.0
 40
1.0
 40
1.0
 40
1.0
 10
19.0201417624
 20
-29.5503970005
 30
0.0
 10
19.0209754399
 20
-29.550822522
 30
0.0
 10
19.0216445857
 20
-29.5513263327
 30
0.0
 10
19.0220351026
 20
-29.5519103361
 30
0.0
 11
19.0201417624
 21
-29.5503970005
 31
0.0
 11
19.0220351026
 21
-29.5519103361
 31
0.0
  0
SPLINE
  5
351
100
AcDbEntity
  8
RACCORDO
100
AcDbSpline
 62
7
  6
CONTINUOUS
 70
0
 71
3
 72
8
 73
4
 74
2
 42
0.0000001
 43
0.0000001
 44
0.0000000001
 12
0.0025010325
 22
-0.0012765646
 32
0.0
 13
0.0011715507
 23
-0.0017520104
 33
0.0
 40
0.0
 40
0.0
 40
0.0
 40
0.0
 40
1.0
 40
1.0
 40
1.0
 40
1.0
 10
-12.799663391
 20
-13.6404944238
 30
0.0
 10
-12.7988297135
 20
-13.6409199453
 30
0.0
 10
-12.7981605677
 20
-13.641423756
 30
0.0
 10
-12.7977700508
 20
-13.6420077594
 30
0.0
 11
-12.799663391
 21
-13.6404944238
 31
0.0
 11
-12.7977700508
 21
-13.6420077594
 31
0.0
  0
SPLINE
  5
352
100
AcDbEntity
  8
RACCORDO
100
AcDbSpline
 62
7
  6
CONTINUOUS
 70
0
 71
3
 72
8
 73
4
 74
2
 42
0.0000001
 43
0.0000001
 44
0.0000000001
 12
0.0213006563
 22
0.0082904754
 32
0.0
 13
0.022501701
 23
0.004742201
 33
0.0
 40
0.0
 40
0.0
 40
0.0
 40
0.0
 40
1.0
 40
1.0
 40
1.0
 40
1.0
 10
14.7057805792
 20
-27.4568324832
 30
0.0
 10
14.712880798
 20
-27.4540689914
 30
0.0
 10
14.7202340136
 20
-27.4519241669
 30
0.0
 10
14.7277345806
 20
-27.4503434332
 30
0.0
 11
14.7057805792
 21
-27.4568324832
 31
0.0
 11
14.7277345806
 21
-27.4503434332
 31
0.0
  0
SPLINE
  5
353
100
AcDbEntity
  8
RACCORDO
100
AcDbSpline
 62
7
  6
CONTINUOUS
 70
0
 71
3
 72
8
 73
4
 74
2
 42
0.0000001
 43
0.0000001
 44
0.0000000001
 12
0.0441807121
 22
0.0093110212
 32
0.0
 13
0.0451900647
 23
-0.002497404
 33
0.0
 40
0.0
 40
0.0
 40
0.0
 40
0.0
 40
1.0
 40
1.0
 40
1.0
 40
1.0
 10
14.7277345806
 20
-27.4503434332
 30
0.0
 10
14.7424614846
 20
-27.4472397595
 30
0.0
 10
14.7577564418
 20
-27.4463107077
 30
0.0
 10
14.7728197967
 20
-27.4471431757
 30
0.0
 11
14.7277345806
 21
-27.4503434332
 31
0.0
 11
14.7728197967
 21
-27.4471431757
 31
0.0
  0
SPLINE
  5
354
100
AcDbEntity
  8
RACCORDO
100
AcDbSpline
 62
7
  6
CONTINUOUS
 70
0
 71
3
 72
9
 73
5
 74
3
 42
0.0000001
 43
0.0000001
 44
0.0000000001
 12
0.1097157936
 22
-0.0060633829
 32
0.0
 13
0.0975287266
 23
-0.0489750787
 33
0.0
 40
0.0
 40
0.0
 40
0.0
 40
0.0
 40
0.6470038448
 40
1.0
 40
1.0
 40
1.0
 40
1.0
 10
14.7728197967
 20
-27.4471431757
 30
0.0
 10
14.7964819768
 20
-27.4484508531
 30
0.0
 10
14.8321706205
 20
-27.4571900853
 30
0.0
 10
14.8655209399
 20
-27.4718242905
 30
0.0
 10
14.8769966951
 20
-27.477586962
 30
0.0
 11
14.7728197967
 21
-27.4471431757
 31
0.0
 11
14.8416845009
 21
-27.4622272048
 31
0.0
 11
14.8769966951
 21
-27.477586962
 31
0.0
  0
SPLINE
  5
355
100
AcDbEntity
  8
RACCORDO
100
AcDbSpline
 62
7
  6
CONTINUOUS
 70
0
 71
3
 72
8
 73
4
 74
2
 42
0.0000001
 43
0.0000001
 44
0.0000000001
 12
0.0213006563
 22
0.0082904754
 32
0.0
 13
0.022501701
 23
0.004742201
 33
0.0
 40
0.0
 40
0.0
 40
0.0
 40
0.0
 40
1.0
 40
1.0
 40
1.0
 40
1.0
 10
-17.1140245742
 20
-11.5469299065
 30
0.0
 10
-17.1069243554
 20
-11.5441664147
 30
0.0
 10
-17.0995711398
 20
-11.5420215902
 30
0.0
 10
-17.0920705728
 20
-11.5404408565
 30
0.0
 11
-17.1140245742
 21
-11.5469299065
 31
0.0
 11
-17.0920705728
 21
-11.5404408565
 31
0.0
  0
SPLINE
  5
356
100
AcDbEntity
  8
RACCORDO
100
AcDbSpline
 62
7
  6
CONTINUOUS
 70
0
 71
3
 72
8
 73
4
 74
2
 42
0.0000001
 43
0.0000001
 44
0.0000000001
 12
0.0441807121
 22
0.0093110212
 32
0.0
 13
0.0451900647
 23
-0.002497404
 33
0.0
 40
0.0
 40
0.0
 40
0.0
 40
0.0
 40
1.0
 40
1.0
 40
1.0
 40
1.0
 10
-17.0920705728
 20
-11.5404408565
 30
0.0
 10
-17.0773436688
 20
-11.5373371828
 30
0.0
 10
-17.0620487116
 20
-11.536408131
 30
0.0
 10
-17.0469853567
 20
-11.537240599
 30
0.0
 11
-17.0920705728
 21
-11.5404408565
 31
0.0
 11
-17.0469853567
 21
-11.537240599
 31
0.0
  0
SPLINE
  5
357
100
AcDbEntity
  8
RACCORDO
100
AcDbSpline
 62
7
  6
CONTINUOUS
 70
0
 71
3
 72
9
 73
5
 74
3
 42
0.0000001
 43
0.0000001
 44
0.0000000001
 12
0.1097157936
 22
-0.0060633829
 32
0.0
 13
0.0975287266
 23
-0.0489750787
 33
0.0
 40
0.0
 40
0.0
 40
0.0
 40
0.0
 40
0.6470038448
 40
1.0
 40
1.0
 40
1.0
 40
1.0
 10
-17.0469853567
 20
-11.537240599
 30
0.0
 10
-17.0233231766
 20
-11.5385482764
 30
0.0
 10
-16.9876345329
 20
-11.5472875086
 30
0.0
 10
-16.9542842135
 20
-11.5619217138
 30
0.0
 10
-16.9428084583
 20
-11.5676843853
 30
0.0
 11
-17.0469853567
 21
-11.537240599
 31
0.0
 11
-16.9781206524
 21
-11.5523246282
 31
0.0
 11
-16.9428084583
 21
-11.5676843853
 31
0.0
  0
SPLINE
  5
358
100
AcDbEntity
  8
RACCORDO
100
AcDbSpline
 62
253
  6
CONTINUOUS
 70
0
 71
3
 72
13
 73
9
 74
7
 42
0.0000001
 43
0.0000001
 44
0.0000000001
 12
-0.4331567171
 22
0.3258768704
 32
0.0
 13
0.0
 23
0.5402262182
 33
0.0
 40
0.0
 40
0.0
 40
0.0
 40
0.0
 40
0.0394749794
 40
0.2252900862
 40
0.4223543396
 40
0.6226660353
 40
0.8177752601
 40
1.0
 40
1.0
 40
1.0
 40
1.0
 10
-26.7179412875
 20
-8.5224175745
 30
0.0
 10
-26.723640905
 20
-8.5181295802
 30
0.0
 10
-26.755578187
 20
-8.4928670183
 30
0.0
 10
-26.809020039
 20
-8.4382244894
 30
0.0
 10
-26.8689437344
 20
-8.3513982837
 30
0.0
 10
-26.9151080949
 20
-8.2547102656
 30
0.0
 10
-26.9445431063
 20
-8.154487612
 30
0.0
 10
-26.9520584758
 20
-8.0864431791
 30
0.0
 10
-26.9520584758
 20
-8.0536289851
 30
0.0
 11
-26.7179412875
 21
-8.5224175745
 31
0.0
 11
-26.7347275824
 21
-8.5091573841
 31
0.0
 11
-26.8054520541
 21
-8.4379209212
 31
0.0
 11
-26.866183016
 21
-8.3504833561
 31
0.0
 11
-26.9127777642
 21
-8.252814942
 31
0.0
 11
-26.9420681825
 21
-8.1515633305
 31
0.0
 11
-26.9520584758
 21
-8.0536289851
 31
0.0
  0
SPLINE
  5
359
100
AcDbEntity
  8
RACCORDO
100
AcDbSpline
 62
253
  6
CONTINUOUS
 70
0
 71
3
 72
10
 73
6
 74
4
 42
0.0000001
 43
0.0000001
 44
0.0000000001
 12
-0.0000000003
 22
0.0240047822
 32
0.0
 13
0.0214705299
 23
0.010735265
 33
0.0
 40
0.0
 40
0.0
 40
0.0
 40
0.0
 40
0.278736746
 40
0.60491258
 40
1.0
 40
1.0
 40
1.0
 40
1.0
 10
-26.9520584758
 20
-8.0248421885
 30
0.0
 10
-26.9520584759
 20
-8.0226118503
 30
0.0
 10
-26.9506434256
 20
-8.017734157
 30
0.0
 10
-26.9451927092
 20
-8.0116563226
 30
0.0
 10
-26.9402413937
 20
-8.0085783084
 30
0.0
 10
-26.9374138149
 20
-8.007164519
 30
0.0
 11
-26.9520584758
 21
-8.0248421885
 31
0.0
 11
-26.9503547673
 21
-8.0183717127
 31
0.0
 11
-26.9453597434
 21
-8.0123421863
 31
0.0
 11
-26.9374138149
 21
-8.007164519
 31
0.0
  0
SPLINE
  5
35A
100
AcDbEntity
  8
RACCORDO
100
AcDbSpline
 62
253
  6
CONTINUOUS
 70
0
 71
3
 72
10
 73
6
 74
4
 42
0.0000001
 43
0.0000001
 44
0.0000000001
 12
-0.0006093691
 22
-0.1326054005
 32
0.0
 13
-0.1152714676
 23
-0.0640109672
 33
0.0
 40
0.0
 40
0.0
 40
0.0
 40
0.0
 40
0.2598803137
 40
0.5954756705
 40
1.0
 40
1.0
 40
1.0
 40
1.0
 10
19.0220980944
 20
-30.2691743878
 30
0.0
 10
19.0220453067
 20
-30.2806615655
 30
0.0
 10
19.0156759533
 20
-30.3070901052
 30
0.0
 10
18.9877004959
 20
-30.3422946523
 30
0.0
 10
18.960598549
 20
-30.3609088795
 30
0.0
 10
18.9450551779
 20
-30.3695402107
 30
0.0
 11
19.0220980944
 21
-30.2691743878
 31
0.0
 11
19.0145260427
 21
-30.302688786
 31
0.0
 11
18.9883136268
 21
-30.3383380801
 31
0.0
 11
18.9450551779
 21
-30.3695402107
 31
0.0
  0
SPLINE
  5
35B
100
AcDbEntity
  8
RACCORDO
100
AcDbSpline
 62
253
  6
CONTINUOUS
 70
0
 71
3
 72
13
 73
9
 74
7
 42
0.0000001
 43
0.0000001
 44
0.0000000001
 12
-0.4331567171
 22
0.3258768704
 32
0.0
 13
0.0
 23
0.5402262182
 33
0.0
 40
0.0
 40
0.0
 40
0.0
 40
0.0
 40
0.0394749794
 40
0.2252900862
 40
0.4223543396
 40
0.6226660353
 40
0.8177752601
 40
1.0
 40
1.0
 40
1.0
 40
1.0
 10
-27.0290682712
 20
-8.6779810663
 30
0.0
 10
-27.0347678887
 20
-8.6736930721
 30
0.0
 10
-27.0667051707
 20
-8.6484305102
 30
0.0
 10
-27.1201470227
 20
-8.5937879813
 30
0.0
 10
-27.1800707182
 20
-8.5069617756
 30
0.0
 10
-27.2262350786
 20
-8.4102737575
 30
0.0
 10
-27.25567009
 20
-8.3100511039
 30
0.0
 10
-27.2631854596
 20
-8.242006671
 30
0.0
 10
-27.2631854596
 20
-8.209192477
 30
0.0
 11
-27.0290682712
 21
-8.6779810663
 31
0.0
 11
-27.0458545661
 21
-8.6647208759
 31
0.0
 11
-27.1165790379
 21
-8.5934844131
 31
0.0
 11
-27.1773099997
 21
-8.5060468479
 31
0.0
 11
-27.223904748
 21
-8.4083784338
 31
0.0
 11
-27.2531951662
 21
-8.3071268224
 31
0.0
 11
-27.2631854596
 21
-8.209192477
 31
0.0
  0
SPLINE
  5
35C
100
AcDbEntity
  8
RACCORDO
100
AcDbSpline
 62
253
  6
CONTINUOUS
 70
0
 71
3
 72
10
 73
6
 74
4
 42
0.0000001
 43
0.0000001
 44
0.0000000001
 12
-0.0006093691
 22
-0.1326054005
 32
0.0
 13
-0.1152714676
 23
-0.0640109672
 33
0.0
 40
0.0
 40
0.0
 40
0.0
 40
0.0
 40
0.2598803137
 40
0.5954756705
 40
1.0
 40
1.0
 40
1.0
 40
1.0
 10
-12.797707059
 20
-14.3592718111
 30
0.0
 10
-12.7977598467
 20
-14.3707589888
 30
0.0
 10
-12.8041292001
 20
-14.3971875285
 30
0.0
 10
-12.8321046575
 20
-14.4323920756
 30
0.0
 10
-12.8592066044
 20
-14.4510063028
 30
0.0
 10
-12.8747499755
 20
-14.459637634
 30
0.0
 11
-12.797707059
 21
-14.3592718111
 31
0.0
 11
-12.8052791106
 21
-14.3927862093
 31
0.0
 11
-12.8314915266
 21
-14.4284355034
 31
0.0
 11
-12.8747499755
 21
-14.459637634
 31
0.0
  0
SPLINE
  5
35D
100
AcDbEntity
  8
RACCORDO
100
AcDbSpline
 62
253
  6
CONTINUOUS
 70
0
 71
3
 72
13
 73
9
 74
7
 42
0.0000001
 43
0.0000001
 44
0.0000000001
 12
0.0000000016
 22
-0.5883132639
 32
0.0
 13
0.5262033801
 23
-0.26310169
 33
0.0
 40
0.0
 40
0.0
 40
0.0
 40
0.0
 40
0.1614224423
 40
0.3342574471
 40
0.5117016933
 40
0.686246145
 40
0.8508258477
 40
1.0
 40
1.0
 40
1.0
 40
1.0
 10
-26.7323528483
 20
-7.9541315104
 30
0.0
 10
-26.7323528483
 20
-7.9857871651
 30
0.0
 10
-26.7251027479
 20
-8.0514290113
 30
0.0
 10
-26.6967067963
 20
-8.14811285
 30
0.0
 10
-26.6521740772
 20
-8.2413826143
 30
0.0
 10
-26.594371745
 20
-8.3251358828
 30
0.0
 10
-26.5270881613
 20
-8.3939349602
 30
0.0
 10
-26.4756754503
 20
-8.428880371
 30
0.0
 10
-26.4495101359
 20
-8.4419630282
 30
0.0
 11
-26.7323528483
 21
-7.9541315104
 31
0.0
 11
-26.7227151582
 21
-8.0486081698
 31
0.0
 11
-26.6944587853
 21
-8.1462843119
 31
0.0
 11
-26.6495088498
 21
-8.240504059
 31
0.0
 11
-26.5909303846
 21
-8.3248435255
 31
0.0
 11
-26.5227146615
 21
-8.3935573075
 31
0.0
 11
-26.4495101359
 21
-8.4419630282
 31
0.0
  0
SPLINE
  5
35E
100
AcDbEntity
  8
RACCORDO
100
AcDbSpline
 62
253
  6
CONTINUOUS
 70
0
 71
3
 72
8
 73
4
 74
2
 42
0.0000001
 43
0.0000001
 44
0.0000000001
 12
-0.0510284752
 22
0.0309695751
 32
0.0
 13
-0.0460322536
 23
0.0381138584
 33
0.0
 40
0.0
 40
0.0
 40
0.0
 40
0.0
 40
1.0
 40
1.0
 40
1.0
 40
1.0
 10
-26.708514647
 20
-8.5454993588
 30
0.0
 10
-26.7255241387
 20
-8.5351761671
 30
0.0
 10
-26.7417209599
 20
-8.5234369929
 30
0.0
 10
-26.7570650445
 20
-8.5107323735
 30
0.0
 11
-26.708514647
 21
-8.5454993588
 31
0.0
 11
-26.7570650445
 21
-8.5107323735
 31
0.0
  0
SPLINE
  5
35F
100
AcDbEntity
  8
RACCORDO
100
AcDbSpline
 62
253
  6
CONTINUOUS
 70
0
 71
3
 72
12
 73
8
 74
6
 42
0.0000001
 43
0.0000001
 44
0.0000000001
 12
-0.3628769879
 22
0.3004554641
 32
0.0
 13
-0.0322905424
 23
0.4692736568
 33
0.0
 40
0.0
 40
0.0
 40
0.0
 40
0.0
 40
0.2060911536
 40
0.4246628329
 40
0.646864163
 40
0.8632895555
 40
1.0
 40
1.0
 40
1.0
 40
1.0
 10
-26.7570650445
 20
-8.5107323735
 30
0.0
 10
-26.7819936235
 20
-8.4900919691
 30
0.0
 10
-26.8287226037
 20
-8.4423104111
 30
0.0
 10
-26.8865252665
 20
-8.3585563137
 30
0.0
 10
-26.9310578138
 20
-8.2652860751
 30
0.0
 10
-26.9565540013
 20
-8.1784743722
 30
0.0
 10
-26.9641606926
 20
-8.1234212282
 30
0.0
 10
-26.9656321774
 20
-8.1020363581
 30
0.0
 11
-26.7570650445
 21
-8.5107323735
 31
0.0
 11
-26.8252809623
 21
-8.4420183205
 31
0.0
 11
-26.8838601084
 21
-8.3576775299
 31
0.0
 11
-26.9288100326
 21
-8.2634569426
 31
0.0
 11
-26.9570657358
 21
-8.1657818476
 31
0.0
 11
-26.9656321774
 21
-8.1020363581
 31
0.0
  0
SPLINE
  5
360
100
AcDbEntity
  8
RACCORDO
100
AcDbSpline
 62
253
  6
CONTINUOUS
 70
0
 71
3
 72
13
 73
9
 74
7
 42
0.0000001
 43
0.0000001
 44
0.0000000001
 12
0.0000000016
 22
-0.5883132639
 32
0.0
 13
0.5262033801
 23
-0.26310169
 33
0.0
 40
0.0
 40
0.0
 40
0.0
 40
0.0
 40
0.1614224423
 40
0.3342574471
 40
0.5117016933
 40
0.686246145
 40
0.8508258477
 40
1.0
 40
1.0
 40
1.0
 40
1.0
 10
-27.0434798321
 20
-8.1096950023
 30
0.0
 10
-27.043479832
 20
-8.1413506569
 30
0.0
 10
-27.0362297316
 20
-8.2069925032
 30
0.0
 10
-27.0078337801
 20
-8.3036763419
 30
0.0
 10
-26.963301061
 20
-8.3969461062
 30
0.0
 10
-26.9054987287
 20
-8.4806993746
 30
0.0
 10
-26.838215145
 20
-8.549498452
 30
0.0
 10
-26.786802434
 20
-8.5844438628
 30
0.0
 10
-26.7606371196
 20
-8.59752652
 30
0.0
 11
-27.0434798321
 21
-8.1096950023
 31
0.0
 11
-27.0338421419
 21
-8.2041716617
 31
0.0
 11
-27.005585769
 21
-8.3018478037
 31
0.0
 11
-26.9606358335
 21
-8.3960675509
 31
0.0
 11
-26.9020573683
 21
-8.4804070173
 31
0.0
 11
-26.8338416453
 21
-8.5491207994
 31
0.0
 11
-26.7606371196
 21
-8.59752652
 31
0.0
  0
SPLINE
  5
361
100
AcDbEntity
  8
RACCORDO
100
AcDbSpline
 62
253
  6
CONTINUOUS
 70
0
 71
3
 72
8
 73
4
 74
2
 42
0.0000001
 43
0.0000001
 44
0.0000000001
 12
-0.0510284752
 22
0.0309695751
 32
0.0
 13
-0.0460322536
 23
0.0381138584
 33
0.0
 40
0.0
 40
0.0
 40
0.0
 40
0.0
 40
1.0
 40
1.0
 40
1.0
 40
1.0
 10
-27.0196416307
 20
-8.7010628507
 30
0.0
 10
-27.0366511224
 20
-8.690739659
 30
0.0
 10
-27.0528479436
 20
-8.6790004848
 30
0.0
 10
-27.0681920282
 20
-8.6662958653
 30
0.0
 11
-27.0196416307
 21
-8.7010628507
 31
0.0
 11
-27.0681920282
 21
-8.6662958653
 31
0.0
  0
SPLINE
  5
362
100
AcDbEntity
  8
RACCORDO
100
AcDbSpline
 62
253
  6
CONTINUOUS
 70
0
 71
3
 72
12
 73
8
 74
6
 42
0.0000001
 43
0.0000001
 44
0.0000000001
 12
-0.3628769879
 22
0.3004554641
 32
0.0
 13
-0.0322905424
 23
0.4692736568
 33
0.0
 40
0.0
 40
0.0
 40
0.0
 40
0.0
 40
0.2060911536
 40
0.4246628329
 40
0.646864163
 40
0.8632895555
 40
1.0
 40
1.0
 40
1.0
 40
1.0
 10
-27.0681920282
 20
-8.6662958653
 30
0.0
 10
-27.0931206072
 20
-8.6456554609
 30
0.0
 10
-27.1398495874
 20
-8.5978739029
 30
0.0
 10
-27.1976522502
 20
-8.5141198056
 30
0.0
 10
-27.2421847975
 20
-8.4208495669
 30
0.0
 10
-27.267680985
 20
-8.3340378641
 30
0.0
 10
-27.2752876763
 20
-8.27898472
 30
0.0
 10
-27.2767591611
 20
-8.25759985
 30
0.0
 11
-27.0681920282
 21
-8.6662958653
 31
0.0
 11
-27.136407946
 21
-8.5975818123
 31
0.0
 11
-27.1949870922
 21
-8.5132410218
 31
0.0
 11
-27.2399370163
 21
-8.4190204345
 31
0.0
 11
-27.2681927195
 21
-8.3213453394
 31
0.0
 11
-27.2767591611
 21
-8.25759985
 31
0.0
  0
SPLINE
  5
363
100
AcDbEntity
  8
RACCORDO
100
AcDbSpline
 62
253
  6
CONTINUOUS
 70
0
 71
3
 72
10
 73
6
 74
4
 42
0.0000001
 43
0.0000001
 44
0.0000000001
 12
0.0206707405
 22
0.0103353703
 32
0.0
 13
0.020858113
 23
-0.010373773
 33
0.0
 40
0.0
 40
0.0
 40
0.0
 40
0.0
 40
0.4180521387
 40
0.787028783
 40
1.0
 40
1.0
 40
1.0
 40
1.0
 10
-26.994987408
 20
-8.7147016643
 30
0.0
 10
-26.9921069256
 20
-8.713261423
 30
0.0
 10
-26.9863131311
 20
-8.7111667678
 30
0.0
 10
-26.9784332727
 20
-8.711052567
 30
0.0
 10
-26.9741106901
 20
-8.7125516421
 30
0.0
 10
-26.9726299642
 20
-8.7132880804
 30
0.0
 11
-26.994987408
 21
-8.7147016643
 31
0.0
 11
-26.9858367733
 21
-8.7116018018
 31
0.0
 11
-26.9773097327
 21
-8.7116641009
 31
0.0
 11
-26.9726299642
 21
-8.7132880804
 31
0.0
  0
SPLINE
  5
364
100
AcDbEntity
  8
RACCORDO
100
AcDbSpline
 62
253
  6
CONTINUOUS
 70
0
 71
3
 72
10
 73
6
 74
4
 42
0.0000001
 43
0.0000001
 44
0.0000000001
 12
0.0214705299
 22
0.010735265
 32
0.0
 13
0.0
 23
0.0240047822
 33
0.0
 40
0.0
 40
0.0
 40
0.0
 40
0.0
 40
0.3950875622
 40
0.7212632404
 40
1.0
 40
1.0
 40
1.0
 40
1.0
 10
-27.2778301205
 20
-8.2268701465
 30
0.0
 10
-27.2750025407
 20
-8.2254563566
 30
0.0
 10
-27.2700512252
 20
-8.2223783422
 30
0.0
 10
-27.2646005095
 20
-8.2163005075
 30
0.0
 10
-27.2631854596
 20
-8.2114228154
 30
0.0
 10
-27.2631854596
 20
-8.209192477
 30
0.0
 11
-27.2778301205
 21
-8.2268701465
 31
0.0
 11
-27.2698841894
 21
-8.221692477
 31
0.0
 11
-27.2648891682
 21
-8.2156629531
 31
0.0
 11
-27.2631854596
 21
-8.209192477
 31
0.0
  0
SPLINE
  5
365
100
AcDbEntity
  8
RACCORDO
100
AcDbSpline
 62
253
  6
CONTINUOUS
 70
0
 71
3
 72
10
 73
6
 74
4
 42
0.0000001
 43
0.0000001
 44
0.0000000001
 12
-0.0000000003
 22
0.0240047822
 32
0.0
 13
0.0214705299
 23
0.010735265
 33
0.0
 40
0.0
 40
0.0
 40
0.0
 40
0.0
 40
0.278736746
 40
0.60491258
 40
1.0
 40
1.0
 40
1.0
 40
1.0
 10
-27.2631854596
 20
-8.1804056804
 30
0.0
 10
-27.2631854596
 20
-8.1781753421
 30
0.0
 10
-27.2617704093
 20
-8.1732976488
 30
0.0
 10
-27.2563196929
 20
-8.1672198145
 30
0.0
 10
-27.2513683774
 20
-8.1641418003
 30
0.0
 10
-27.2485407986
 20
-8.1627280109
 30
0.0
 11
-27.2631854596
 21
-8.1804056804
 31
0.0
 11
-27.261481751
 21
-8.1739352046
 31
0.0
 11
-27.2564867271
 21
-8.1679056781
 31
0.0
 11
-27.2485407986
 21
-8.1627280109
 31
0.0
  0
SPLINE
  5
366
100
AcDbEntity
  8
RACCORDO
100
AcDbSpline
 62
253
  6
CONTINUOUS
 70
0
 71
3
 72
10
 73
6
 74
4
 42
0.0000001
 43
0.0000001
 44
0.0000000001
 12
0.0325350062
 22
0.0162675031
 32
0.0
 13
0.0363752427
 23
-0.0000000007
 33
0.0
 40
0.0
 40
0.0
 40
0.0
 40
0.0
 40
0.3049139513
 40
0.6434674431
 40
1.0
 40
1.0
 40
1.0
 40
1.0
 10
-27.1717641033
 20
-8.1243396632
 30
0.0
 10
-27.1684573109
 20
-8.122686267
 30
0.0
 10
-27.1610922532
 20
-8.1199581609
 30
0.0
 10
-27.1491721525
 20
-8.1175588913
 30
0.0
 10
-27.1407317504
 20
-8.1170173327
 30
0.0
 10
-27.1364087643
 20
-8.1170173328
 30
0.0
 11
-27.1717641033
 21
-8.1243396632
 31
0.0
 11
-27.1614087706
 21
-8.1203666995
 31
0.0
 11
-27.1493497157
 21
-8.117869187
 31
0.0
 11
-27.1364087643
 21
-8.1170173328
 31
0.0
  0
SPLINE
  5
367
100
AcDbEntity
  8
RACCORDO
100
AcDbSpline
 62
253
  6
CONTINUOUS
 70
0
 71
3
 72
10
 73
6
 74
4
 42
0.0000001
 43
0.0000001
 44
0.0000000001
 12
0.032118313
 22
0.0160591565
 32
0.0
 13
0.0180116336
 23
0.0310654726
 33
0.0
 40
0.0
 40
0.0
 40
0.0
 40
0.0
 40
0.3054977709
 40
0.6425457537
 40
1.0
 40
1.0
 40
1.0
 40
1.0
 10
-26.8394239162
 20
-8.6975416966
 30
0.0
 10
-26.8361532252
 20
-8.6959063511
 30
0.0
 10
-26.8297262852
 20
-8.6915376207
 30
0.0
 10
-26.8213172527
 20
-8.6829401628
 30
0.0
 10
-26.8165700278
 20
-8.6760605432
 30
0.0
 10
-26.8144239162
 20
-8.6723590482
 30
0.0
 11
-26.8394239162
 21
-8.6975416966
 31
0.0
 11
-26.8302732811
 21
-8.691490924
 31
0.0
 11
-26.8217462466
 21
-8.6829015916
 31
0.0
 11
-26.8144239162
 21
-8.6723590482
 31
0.0
  0
SPLINE
  5
368
100
AcDbEntity
  8
RACCORDO
100
AcDbSpline
 62
253
  6
CONTINUOUS
 70
0
 71
3
 72
10
 73
6
 74
4
 42
0.0000001
 43
0.0000001
 44
0.0000000001
 12
-0.0325350073
 22
-0.0162675036
 32
0.0
 13
-0.036375244
 23
-0.0000000002
 33
0.0
 40
0.0
 40
0.0
 40
0.0
 40
0.0
 40
0.3049141092
 40
0.6434676172
 40
1.0
 40
1.0
 40
1.0
 40
1.0
 10
-27.0434798321
 20
-8.1096950023
 30
0.0
 10
-27.0467866263
 20
-8.1113483994
 30
0.0
 10
-27.0541516864
 20
-8.114076506
 30
0.0
 10
-27.0660717877
 20
-8.1164757744
 30
0.0
 10
-27.0745121882
 20
-8.1170173336
 30
0.0
 10
-27.0788351723
 20
-8.1170173336
 30
0.0
 11
-27.0434798321
 21
-8.1096950023
 31
0.0
 11
-27.0538351707
 21
-8.1136679677
 31
0.0
 11
-27.0658942268
 21
-8.1161654795
 31
0.0
 11
-27.0788351723
 21
-8.1170173336
 31
0.0
  0
SPLINE
  5
369
100
AcDbEntity
  8
RACCORDO
100
AcDbSpline
 62
253
  6
CONTINUOUS
 70
0
 71
3
 72
10
 73
6
 74
4
 42
0.0000001
 43
0.0000001
 44
0.0000000001
 12
-0.032118313
 22
-0.0160591565
 32
0.0
 13
-0.0180116336
 23
-0.0310654726
 33
0.0
 40
0.0
 40
0.0
 40
0.0
 40
0.0
 40
0.3054977709
 40
0.6425457537
 40
1.0
 40
1.0
 40
1.0
 40
1.0
 10
-26.7606371196
 20
-8.59752652
 30
0.0
 10
-26.7639078106
 20
-8.5991618655
 30
0.0
 10
-26.7703347505
 20
-8.603530596
 30
0.0
 10
-26.778743783
 20
-8.6121280539
 30
0.0
 10
-26.783491008
 20
-8.6190076734
 30
0.0
 10
-26.7856371196
 20
-8.6227091684
 30
0.0
 11
-26.7606371196
 21
-8.59752652
 31
0.0
 11
-26.7697877547
 21
-8.6035772926
 31
0.0
 11
-26.7783147891
 21
-8.612166625
 31
0.0
 11
-26.7856371196
 21
-8.6227091684
 31
0.0
  0
SPLINE
  5
36A
100
AcDbEntity
  8
RACCORDO
100
AcDbSpline
 62
253
  6
CONTINUOUS
 70
0
 71
3
 72
10
 73
6
 74
4
 42
0.0000001
 43
0.0000001
 44
0.0000000001
 12
0.0206707405
 22
0.0103353703
 32
0.0
 13
0.020858113
 23
-0.010373773
 33
0.0
 40
0.0
 40
0.0
 40
0.0
 40
0.0
 40
0.4180521387
 40
0.787028783
 40
1.0
 40
1.0
 40
1.0
 40
1.0
 10
-26.6838604243
 20
-8.5591381724
 30
0.0
 10
-26.6809799419
 20
-8.5576979312
 30
0.0
 10
-26.6751861474
 20
-8.5556032759
 30
0.0
 10
-26.667306289
 20
-8.5554890752
 30
0.0
 10
-26.6629837064
 20
-8.5569881502
 30
0.0
 10
-26.6615029805
 20
-8.5577245886
 30
0.0
 11
-26.6838604243
 21
-8.5591381724
 31
0.0
 11
-26.6747097895
 21
-8.5560383099
 31
0.0
 11
-26.666182749
 21
-8.556100609
 31
0.0
 11
-26.6615029805
 21
-8.5577245886
 31
0.0
  0
SPLINE
  5
36B
100
AcDbEntity
  8
RACCORDO
100
AcDbSpline
 62
253
  6
CONTINUOUS
 70
0
 71
3
 72
10
 73
6
 74
4
 42
0.0000001
 43
0.0000001
 44
0.0000000001
 12
0.0214705299
 22
0.010735265
 32
0.0
 13
-0.0
 23
0.0240047822
 33
0.0
 40
0.0
 40
0.0
 40
0.0
 40
0.0
 40
0.3950875622
 40
0.7212632404
 40
1.0
 40
1.0
 40
1.0
 40
1.0
 10
-26.9667031368
 20
-8.0713066546
 30
0.0
 10
-26.963875557
 20
-8.0698928648
 30
0.0
 10
-26.9589242415
 20
-8.0668148504
 30
0.0
 10
-26.9534735258
 20
-8.0607370157
 30
0.0
 10
-26.9520584758
 20
-8.0558593235
 30
0.0
 10
-26.9520584758
 20
-8.0536289851
 30
0.0
 11
-26.9667031368
 21
-8.0713066546
 31
0.0
 11
-26.9587572056
 21
-8.0661289851
 31
0.0
 11
-26.9537621845
 21
-8.0600994612
 31
0.0
 11
-26.9520584758
 21
-8.0536289851
 31
0.0
  0
SPLINE
  5
36C
100
AcDbEntity
  8
RACCORDO
100
AcDbSpline
 62
253
  6
CONTINUOUS
 70
0
 71
3
 72
10
 73
6
 74
4
 42
0.0000001
 43
0.0000001
 44
0.0000000001
 12
0.0325350062
 22
0.0162675031
 32
0.0
 13
0.0363752427
 23
-0.0000000007
 33
0.0
 40
0.0
 40
0.0
 40
0.0
 40
0.0
 40
0.3049139513
 40
0.6434674431
 40
1.0
 40
1.0
 40
1.0
 40
1.0
 10
-26.8606371196
 20
-7.9687761714
 30
0.0
 10
-26.8573303272
 20
-7.9671227752
 30
0.0
 10
-26.8499652695
 20
-7.964394669
 30
0.0
 10
-26.8380451688
 20
-7.9619953994
 30
0.0
 10
-26.8296047666
 20
-7.9614538408
 30
0.0
 10
-26.8252817805
 20
-7.9614538409
 30
0.0
 11
-26.8606371196
 21
-7.9687761714
 31
0.0
 11
-26.8502817869
 21
-7.9648032076
 31
0.0
 11
-26.838222732
 21
-7.9623056951
 31
0.0
 11
-26.8252817805
 21
-7.9614538409
 31
0.0
  0
SPLINE
  5
36D
100
AcDbEntity
  8
RACCORDO
100
AcDbSpline
 62
253
  6
CONTINUOUS
 70
0
 71
3
 72
10
 73
6
 74
4
 42
0.0000001
 43
0.0000001
 44
0.0000000001
 12
0.032118313
 22
0.0160591565
 32
0.0
 13
0.0180116336
 23
0.0310654726
 33
0.0
 40
0.0
 40
0.0
 40
0.0
 40
0.0
 40
0.3054977709
 40
0.6425457537
 40
1.0
 40
1.0
 40
1.0
 40
1.0
 10
-26.5282969324
 20
-8.5419782047
 30
0.0
 10
-26.5250262414
 20
-8.5403428592
 30
0.0
 10
-26.5185993015
 20
-8.5359741288
 30
0.0
 10
-26.510190269
 20
-8.5273766709
 30
0.0
 10
-26.5054430441
 20
-8.5204970514
 30
0.0
 10
-26.5032969324
 20
-8.5167955563
 30
0.0
 11
-26.5282969324
 21
-8.5419782047
 31
0.0
 11
-26.5191462973
 21
-8.5359274322
 31
0.0
 11
-26.5106192629
 21
-8.5273380998
 31
0.0
 11
-26.5032969324
 21
-8.5167955563
 31
0.0
  0
SPLINE
  5
36E
100
AcDbEntity
  8
RACCORDO
100
AcDbSpline
 62
253
  6
CONTINUOUS
 70
0
 71
3
 72
10
 73
6
 74
4
 42
0.0000001
 43
0.0000001
 44
0.0000000001
 12
-0.0325350073
 22
-0.0162675036
 32
0.0
 13
-0.036375244
 23
-0.0000000002
 33
0.0
 40
0.0
 40
0.0
 40
0.0
 40
0.0
 40
0.3049141092
 40
0.6434676172
 40
1.0
 40
1.0
 40
1.0
 40
1.0
 10
-26.7323528483
 20
-7.9541315104
 30
0.0
 10
-26.7356596426
 20
-7.9557849076
 30
0.0
 10
-26.7430247027
 20
-7.9585130142
 30
0.0
 10
-26.754944804
 20
-7.9609122826
 30
0.0
 10
-26.7633852045
 20
-7.9614538417
 30
0.0
 10
-26.7677081886
 20
-7.9614538417
 30
0.0
 11
-26.7323528483
 21
-7.9541315104
 31
0.0
 11
-26.742708187
 21
-7.9581044759
 31
0.0
 11
-26.7547672431
 21
-7.9606019876
 31
0.0
 11
-26.7677081886
 21
-7.9614538417
 31
0.0
  0
SPLINE
  5
36F
100
AcDbEntity
  8
RACCORDO
100
AcDbSpline
 62
253
  6
CONTINUOUS
 70
0
 71
3
 72
10
 73
6
 74
4
 42
0.0000001
 43
0.0000001
 44
0.0000000001
 12
-0.032118313
 22
-0.0160591565
 32
0.0
 13
-0.0180116336
 23
-0.0310654726
 33
0.0
 40
0.0
 40
0.0
 40
0.0
 40
0.0
 40
0.3054977709
 40
0.6425457537
 40
1.0
 40
1.0
 40
1.0
 40
1.0
 10
-26.4495101359
 20
-8.4419630282
 30
0.0
 10
-26.4527808269
 20
-8.4435983737
 30
0.0
 10
-26.4592077668
 20
-8.4479671041
 30
0.0
 10
-26.4676167993
 20
-8.456564562
 30
0.0
 10
-26.4723640242
 20
-8.4634441815
 30
0.0
 10
-26.4745101359
 20
-8.4671456766
 30
0.0
 11
-26.4495101359
 21
-8.4419630282
 31
0.0
 11
-26.458660771
 21
-8.4480138007
 31
0.0
 11
-26.4671878054
 21
-8.4566031331
 31
0.0
 11
-26.4745101359
 21
-8.4671456766
 31
0.0
  0
SPLINE
  5
370
100
AcDbEntity
  8
RACCORDO
100
AcDbSpline
 62
253
  6
CONTINUOUS
 70
0
 71
3
 72
11
 73
7
 74
5
 42
0.0000001
 43
0.0000001
 44
0.0000000001
 12
0.0024824567
 22
-0.1829427869
 32
0.0
 13
-0.1596608517
 23
-0.0917465047
 33
0.0
 40
0.0
 40
0.0
 40
0.0
 40
0.0
 40
0.3487181368
 40
0.657619904
 40
0.9369265255
 40
1.0
 40
1.0
 40
1.0
 40
1.0
 10
18.9450551779
 20
-30.3695402107
 30
0.0
 10
18.9453437372
 20
-30.3908053666
 30
0.0
 10
18.9416766821
 20
-30.4312166828
 30
0.0
 10
18.9206248877
 20
-30.4853603231
 30
0.0
 10
18.8932675509
 20
-30.5156353581
 30
0.0
 10
18.8755580072
 20
-30.5269710038
 30
0.0
 10
18.872201219
 20
-30.5288999274
 30
0.0
 11
18.9450551779
 21
-30.3695402107
 31
0.0
 11
18.9383309209
 21
-30.4329862151
 31
0.0
 11
18.9167906853
 21
-30.485236947
 31
0.0
 11
18.8819699992
 21
-30.5226390519
 31
0.0
 11
18.872201219
 21
-30.5288999274
 31
0.0
  0
SPLINE
  5
371
100
AcDbEntity
  8
RACCORDO
100
AcDbSpline
 62
7
  6
CONTINUOUS
 70
0
 71
3
 72
10
 73
6
 74
4
 42
0.0000001
 43
0.0000001
 44
0.0000000001
 12
0.0720148787
 22
0.035112309
 32
0.0
 13
0.0715413699
 23
-0.0365157905
 33
0.0
 40
0.0
 40
0.0
 40
0.0
 40
0.0
 40
0.6237033946
 40
0.9405458361
 40
1.0
 40
1.0
 40
1.0
 40
1.0
 10
18.9450551779
 20
-29.5764697825
 30
0.0
 10
18.9600271527
 20
-29.5691698938
 30
0.0
 10
18.9839733306
 20
-29.5612709994
 30
0.0
 10
19.0067384767
 20
-29.5465262162
 30
0.0
 10
19.0187239516
 20
-29.5496733286
 30
0.0
 10
19.0201417624
 20
-29.5503970005
 30
0.0
 11
18.9450551779
 21
-29.5764697825
 31
0.0
 11
18.9906714434
 21
-29.5560689991
 31
0.0
 11
19.0150219367
 21
-29.5488959227
 31
0.0
 11
19.0201417624
 21
-29.5503970005
 31
0.0
  0
SPLINE
  5
372
100
AcDbEntity
  8
RACCORDO
100
AcDbSpline
 62
253
  6
CONTINUOUS
 70
0
 71
3
 72
11
 73
7
 74
5
 42
0.0000001
 43
0.0000001
 44
0.0000000001
 12
0.0024824567
 22
-0.1829427869
 32
0.0
 13
-0.1596608517
 23
-0.0917465047
 33
0.0
 40
0.0
 40
0.0
 40
0.0
 40
0.0
 40
0.3487181368
 40
0.657619904
 40
0.9369265255
 40
1.0
 40
1.0
 40
1.0
 40
1.0
 10
-12.8747499755
 20
-14.459637634
 30
0.0
 10
-12.8744614162
 20
-14.4809027899
 30
0.0
 10
-12.8781284713
 20
-14.5213141061
 30
0.0
 10
-12.8991802657
 20
-14.5754577464
 30
0.0
 10
-12.9265376025
 20
-14.6057327814
 30
0.0
 10
-12.9442471462
 20
-14.6170684271
 30
0.0
 10
-12.9476039344
 20
-14.6189973507
 30
0.0
 11
-12.8747499755
 21
-14.459637634
 31
0.0
 11
-12.8814742325
 21
-14.5230836384
 31
0.0
 11
-12.9030144681
 21
-14.5753343703
 31
0.0
 11
-12.9378351542
 21
-14.6127364752
 31
0.0
 11
-12.9476039344
 21
-14.6189973507
 31
0.0
  0
SPLINE
  5
373
100
AcDbEntity
  8
RACCORDO
100
AcDbSpline
 62
7
  6
CONTINUOUS
 70
0
 71
3
 72
10
 73
6
 74
4
 42
0.0000001
 43
0.0000001
 44
0.0000000001
 12
0.0720148787
 22
0.035112309
 32
0.0
 13
0.0715413699
 23
-0.0365157905
 33
0.0
 40
0.0
 40
0.0
 40
0.0
 40
0.0
 40
0.6237033946
 40
0.9405458361
 40
1.0
 40
1.0
 40
1.0
 40
1.0
 10
-12.8747499755
 20
-13.6665672058
 30
0.0
 10
-12.8597780007
 20
-13.6592673171
 30
0.0
 10
-12.8358318228
 20
-13.6513684227
 30
0.0
 10
-12.8130666767
 20
-13.6366236395
 30
0.0
 10
-12.8010812018
 20
-13.6397707519
 30
0.0
 10
-12.799663391
 20
-13.6404944238
 30
0.0
 11
-12.8747499755
 21
-13.6665672058
 31
0.0
 11
-12.82913371
 21
-13.6461664224
 31
0.0
 11
-12.8047832167
 21
-13.638993346
 31
0.0
 11
-12.799663391
 21
-13.6404944238
 31
0.0
  0
SPLINE
  5
374
100
AcDbEntity
  8
RACCORDO
100
AcDbSpline
 62
253
  6
CONTINUOUS
 70
0
 71
3
 72
13
 73
9
 74
7
 42
0.0000001
 43
0.0000001
 44
0.0000000001
 12
0.0000000009
 22
-0.6697289708
 32
0.0
 13
0.5990238021
 23
-0.299511901
 33
0.0
 40
0.0
 40
0.0
 40
0.0
 40
0.0
 40
0.1613903782
 40
0.3342444441
 40
0.5116965315
 40
0.6862386837
 40
0.8508194176
 40
1.0
 40
1.0
 40
1.0
 40
1.0
 10
-26.8252817805
 20
-7.9614538409
 30
0.0
 10
-26.8252817805
 20
-7.9974831115
 30
0.0
 10
-26.8170302714
 20
-8.0722060699
 30
0.0
 10
-26.7847072235
 20
-8.1822695915
 30
0.0
 10
-26.7340101684
 20
-8.2884522108
 30
0.0
 10
-26.6682083946
 20
-8.3837975433
 30
0.0
 10
-26.5916133559
 20
-8.4621190199
 30
0.0
 10
-26.5330845057
 20
-8.5019017697
 30
0.0
 10
-26.5032969324
 20
-8.5167955563
 30
0.0
 11
-26.8252817805
 21
-7.9614538409
 31
0.0
 11
-26.8143145187
 21
-8.06898381
 31
0.0
 11
-26.7821467388
 21
-8.1801901773
 31
0.0
 11
-26.7309748827
 21
-8.2874540041
 31
0.0
 11
-26.6642913006
 21
-8.3834642104
 31
0.0
 11
-26.5866354481
 21
-8.4616882846
 31
0.0
 11
-26.5032969324
 21
-8.5167955563
 31
0.0
  0
SPLINE
  5
375
100
AcDbEntity
  8
RACCORDO
100
AcDbSpline
 62
253
  6
CONTINUOUS
 70
0
 71
3
 72
13
 73
9
 74
7
 42
0.0000001
 43
0.0000001
 44
0.0000000001
 12
0.0000000012
 22
-0.6098523947
 32
0.0
 13
0.5454685643
 23
-0.2727342822
 33
0.0
 40
0.0
 40
0.0
 40
0.0
 40
0.0
 40
0.1613657325
 40
0.3342375714
 40
0.5116935449
 40
0.6862331165
 40
0.8508146772
 40
1.0
 40
1.0
 40
1.0
 40
1.0
 10
-26.7677081874
 20
-7.9614538409
 30
0.0
 10
-26.7677081873
 20
-7.9942569337
 30
0.0
 10
-26.7601956718
 20
-8.0622979116
 30
0.0
 10
-26.7307640173
 20
-8.1625212937
 30
0.0
 10
-26.6845982396
 20
-8.2592144585
 30
0.0
 10
-26.6246795218
 20
-8.3460361026
 30
0.0
 10
-26.5549323922
 20
-8.4173561396
 30
0.0
 10
-26.5016354372
 20
-8.4535830259
 30
0.0
 10
-26.4745101359
 20
-8.4671456766
 30
0.0
 11
-26.7677081874
 21
-7.9614538409
 31
0.0
 11
-26.7577243647
 21
-8.0593553698
 31
0.0
 11
-26.7284311009
 21
-8.160630295
 31
0.0
 11
-26.6818336419
 21
-8.2583066348
 31
0.0
 11
-26.6211131095
 21
-8.345732084
 31
0.0
 11
-26.5504000784
 21
-8.4169633712
 31
0.0
 11
-26.4745101359
 21
-8.4671456766
 31
0.0
  0
SPLINE
  5
376
100
AcDbEntity
  8
RACCORDO
100
AcDbSpline
 62
253
  6
CONTINUOUS
 70
0
 71
3
 72
8
 73
4
 74
2
 42
0.0000001
 43
0.0000001
 44
0.0000000001
 12
0.0000000001
 22
-0.0710477873
 32
0.0
 13
0.0094890561
 23
-0.0705743604
 33
0.0
 40
0.0
 40
0.0
 40
0.0
 40
0.0
 40
1.0
 40
1.0
 40
1.0
 40
1.0
 10
-27.2631854596
 20
-8.1804056804
 30
0.0
 10
-27.2631854595
 20
-8.2040882762
 30
0.0
 10
-27.2614640114
 20
-8.2277928268
 30
0.0
 10
-27.2583009927
 20
-8.2513176136
 30
0.0
 11
-27.2631854596
 21
-8.1804056804
 31
0.0
 11
-27.2583009927
 21
-8.2513176136
 31
0.0
  0
SPLINE
  5
377
100
AcDbEntity
  8
RACCORDO
100
AcDbSpline
 62
253
  6
CONTINUOUS
 70
0
 71
3
 72
12
 73
8
 74
6
 42
0.0000001
 43
0.0000001
 44
0.0000000001
 12
0.0618434675
 22
-0.4599575673
 32
0.0
 13
0.3369854846
 23
-0.3185432422
 33
0.0
 40
0.0
 40
0.0
 40
0.0
 40
0.0
 40
0.0800048016
 40
0.3300047658
 40
0.5866639781
 40
0.8391232351
 40
1.0
 40
1.0
 40
1.0
 40
1.0
 10
-27.2583009927
 20
-8.2513176136
 30
0.0
 10
-27.2566517346
 20
-8.2635838849
 30
0.0
 10
-27.2482322131
 20
-8.3139783527
 30
0.0
 10
-27.2226099208
 20
-8.4012236067
 30
0.0
 10
-27.1719129892
 20
-8.507405693
 30
0.0
 10
-27.1129064314
 20
-8.5929043556
 30
0.0
 10
-27.0694048094
 20
-8.6398281051
 30
0.0
 10
-27.0513337645
 20
-8.6569101739
 30
0.0
 11
-27.2583009927
 21
-8.2513176136
 31
0.0
 11
-27.2522171013
 21
-8.28794121
 31
0.0
 11
-27.2200500539
 21
-8.3991429708
 31
0.0
 11
-27.1688783204
 21
-8.5064062598
 31
0.0
 11
-27.1021923872
 21
-8.6024191793
 31
0.0
 11
-27.0513337645
 21
-8.6569101739
 31
0.0
  0
SPLINE
  5
378
100
AcDbEntity
  8
RACCORDO
100
AcDbSpline
 62
253
  6
CONTINUOUS
 70
0
 71
3
 72
13
 73
9
 74
7
 42
0.0000001
 43
0.0000001
 44
0.0000000001
 12
0.0781215965
 22
-0.5809320554
 32
0.0
 13
0.5007403274
 23
-0.3039034137
 33
0.0
 40
0.0
 40
0.0
 40
0.0
 40
0.0
 40
0.065385949
 40
0.2696742471
 40
0.4794124643
 40
0.6857275928
 40
0.8802602269
 40
1.0
 40
1.0
 40
1.0
 40
1.0
 10
-27.243497552
 20
-8.2359331565
 30
0.0
 10
-27.2417948671
 20
-8.2485947544
 30
0.0
 10
-27.233103781
 20
-8.3006074419
 30
0.0
 10
-27.2066573836
 20
-8.3906541645
 30
0.0
 10
-27.154331685
 20
-8.5002465311
 30
0.0
 10
-27.0864137589
 20
-8.598657327
 30
0.0
 10
-27.0151056904
 20
-8.6715716171
 30
0.0
 10
-26.9651556342
 20
-8.7077745822
 30
0.0
 10
-26.9451694565
 20
-8.7199043575
 30
0.0
 11
-27.243497552
 21
-8.2359331565
 31
0.0
 11
-27.2372167176
 21
-8.2737370465
 31
0.0
 11
-27.2040161246
 21
-8.3885053242
 31
0.0
 11
-27.15120043
 21
-8.4992134623
 31
0.0
 11
-27.0823695943
 21
-8.5983143984
 31
0.0
 11
-27.0022162395
 21
-8.6790530654
 31
0.0
 11
-26.9451694565
 21
-8.7199043575
 31
0.0
  0
SPLINE
  5
379
100
AcDbEntity
  8
RACCORDO
100
AcDbSpline
 62
253
  6
CONTINUOUS
 70
0
 71
3
 72
12
 73
8
 74
6
 42
0.0000001
 43
0.0000001
 44
0.0000000001
 12
0.0000000007
 22
-0.551269348
 32
0.0
 13
0.4011943765
 23
-0.3792360208
 33
0.0
 40
0.0
 40
0.0
 40
0.0
 40
0.0
 40
0.2024157651
 40
0.4191420463
 40
0.6416500808
 40
0.8605229648
 40
1.0
 40
1.0
 40
1.0
 40
1.0
 10
-27.1717641033
 20
-8.1243396632
 30
0.0
 10
-27.1717641033
 20
-8.1615348655
 30
0.0
 10
-27.1632453278
 20
-8.2386635864
 30
0.0
 10
-27.129880339
 20
-8.3522668068
 30
0.0
 10
-27.0775544947
 20
-8.4618589983
 30
0.0
 10
-27.0166510031
 20
-8.5501058762
 30
0.0
 10
-26.9717503218
 20
-8.5985385599
 30
0.0
 10
-26.9530978544
 20
-8.6161701318
 30
0.0
 11
-27.1717641033
 21
-8.1243396632
 31
0.0
 11
-27.1604399293
 21
-8.2353491707
 31
0.0
 11
-27.1272390596
 21
-8.3501179457
 31
0.0
 11
-27.0744229226
 21
-8.4608265151
 31
0.0
 11
-27.0055927885
 21
-8.5599261841
 31
0.0
 11
-26.9530978544
 21
-8.6161701318
 31
0.0
  0
SPLINE
  5
37A
100
AcDbEntity
  8
RACCORDO
100
AcDbSpline
 62
253
  6
CONTINUOUS
 70
0
 71
3
 72
8
 73
4
 74
2
 42
0.0000001
 43
0.0000001
 44
0.0000000001
 12
0.0550310557
 22
-0.0394180323
 32
0.0
 13
0.0603530474
 23
-0.0301765237
 33
0.0
 40
0.0
 40
0.0
 40
0.0
 40
0.0
 40
1.0
 40
1.0
 40
1.0
 40
1.0
 10
-26.8971370271
 20
-8.6625076096
 30
0.0
 10
-26.8787933419
 20
-8.6756469537
 30
0.0
 10
-26.8595415986
 20
-8.6874828554
 30
0.0
 10
-26.8394239162
 20
-8.6975416966
 30
0.0
 11
-26.8971370271
 21
-8.6625076096
 31
0.0
 11
-26.8394239162
 21
-8.6975416966
 31
0.0
  0
SPLINE
  5
37B
100
AcDbEntity
  8
RACCORDO
100
AcDbSpline
 62
253
  6
CONTINUOUS
 70
0
 71
3
 72
13
 73
9
 74
7
 42
0.0000001
 43
0.0000001
 44
0.0000000001
 12
0.0000000009
 22
-0.6697289708
 32
0.0
 13
0.5990238021
 23
-0.299511901
 33
0.0
 40
0.0
 40
0.0
 40
0.0
 40
0.0
 40
0.1613903782
 40
0.3342444441
 40
0.5116965315
 40
0.6862386837
 40
0.8508194176
 40
1.0
 40
1.0
 40
1.0
 40
1.0
 10
-27.1364087643
 20
-8.1170173328
 30
0.0
 10
-27.1364087642
 20
-8.1530466034
 30
0.0
 10
-27.1281572551
 20
-8.2277695618
 30
0.0
 10
-27.0958342072
 20
-8.3378330833
 30
0.0
 10
-27.0451371521
 20
-8.4440157027
 30
0.0
 10
-26.9793353784
 20
-8.5393610352
 30
0.0
 10
-26.9027403396
 20
-8.6176825118
 30
0.0
 10
-26.8442114894
 20
-8.6574652616
 30
0.0
 10
-26.8144239162
 20
-8.6723590482
 30
0.0
 11
-27.1364087643
 21
-8.1170173328
 31
0.0
 11
-27.1254415025
 21
-8.2245473018
 31
0.0
 11
-27.0932737225
 21
-8.3357536692
 31
0.0
 11
-27.0421018664
 21
-8.443017496
 31
0.0
 11
-26.9754182843
 21
-8.5390277023
 31
0.0
 11
-26.8977624318
 21
-8.6172517765
 31
0.0
 11
-26.8144239162
 21
-8.6723590482
 31
0.0
  0
SPLINE
  5
37C
100
AcDbEntity
  8
RACCORDO
100
AcDbSpline
 62
253
  6
CONTINUOUS
 70
0
 71
3
 72
13
 73
9
 74
7
 42
0.0000001
 43
0.0000001
 44
0.0000000001
 12
0.0000000012
 22
-0.6098523947
 32
0.0
 13
0.5454685643
 23
-0.2727342822
 33
0.0
 40
0.0
 40
0.0
 40
0.0
 40
0.0
 40
0.1613657325
 40
0.3342375714
 40
0.5116935449
 40
0.6862331165
 40
0.8508146772
 40
1.0
 40
1.0
 40
1.0
 40
1.0
 10
-27.0788351711
 20
-8.1170173328
 30
0.0
 10
-27.0788351711
 20
-8.1498204256
 30
0.0
 10
-27.0713226555
 20
-8.2178614035
 30
0.0
 10
-27.041891001
 20
-8.3180847855
 30
0.0
 10
-26.9957252233
 20
-8.4147779504
 30
0.0
 10
-26.9358065055
 20
-8.5015995945
 30
0.0
 10
-26.866059376
 20
-8.5729196315
 30
0.0
 10
-26.8127624209
 20
-8.6091465178
 30
0.0
 10
-26.7856371196
 20
-8.6227091684
 30
0.0
 11
-27.0788351711
 21
-8.1170173328
 31
0.0
 11
-27.0688513484
 21
-8.2149188616
 31
0.0
 11
-27.0395580846
 21
-8.3161937868
 31
0.0
 11
-26.9929606257
 21
-8.4138701267
 31
0.0
 11
-26.9322400932
 21
-8.5012955759
 31
0.0
 11
-26.8615270621
 21
-8.572526863
 31
0.0
 11
-26.7856371196
 21
-8.6227091684
 31
0.0
  0
SPLINE
  5
37D
100
AcDbEntity
  8
RACCORDO
100
AcDbSpline
 62
253
  6
CONTINUOUS
 70
0
 71
3
 72
8
 73
4
 74
2
 42
0.0000001
 43
0.0000001
 44
0.0000000001
 12
0.0000000001
 22
-0.0710477873
 32
0.0
 13
0.0094890561
 23
-0.0705743604
 33
0.0
 40
0.0
 40
0.0
 40
0.0
 40
0.0
 40
1.0
 40
1.0
 40
1.0
 40
1.0
 10
-26.9520584758
 20
-8.0248421885
 30
0.0
 10
-26.9520584758
 20
-8.0485247843
 30
0.0
 10
-26.9503370277
 20
-8.072229335
 30
0.0
 10
-26.947174009
 20
-8.0957541217
 30
0.0
 11
-26.9520584758
 21
-8.0248421885
 31
0.0
 11
-26.947174009
 21
-8.0957541217
 31
0.0
  0
SPLINE
  5
37E
100
AcDbEntity
  8
RACCORDO
100
AcDbSpline
 62
253
  6
CONTINUOUS
 70
0
 71
3
 72
12
 73
8
 74
6
 42
0.0000001
 43
0.0000001
 44
0.0000000001
 12
0.0618434675
 22
-0.4599575673
 32
0.0
 13
0.3369854846
 23
-0.3185432422
 33
0.0
 40
0.0
 40
0.0
 40
0.0
 40
0.0
 40
0.0800048016
 40
0.3300047658
 40
0.5866639781
 40
0.8391232351
 40
1.0
 40
1.0
 40
1.0
 40
1.0
 10
-26.947174009
 20
-8.0957541217
 30
0.0
 10
-26.9455247509
 20
-8.108020393
 30
0.0
 10
-26.9371052294
 20
-8.1584148609
 30
0.0
 10
-26.9114829371
 20
-8.2456601149
 30
0.0
 10
-26.8607860055
 20
-8.3518422012
 30
0.0
 10
-26.8017794477
 20
-8.4373408637
 30
0.0
 10
-26.7582778256
 20
-8.4842646133
 30
0.0
 10
-26.7402067808
 20
-8.501346682
 30
0.0
 11
-26.947174009
 21
-8.0957541217
 31
0.0
 11
-26.9410901176
 21
-8.1323777182
 31
0.0
 11
-26.9089230702
 21
-8.243579479
 31
0.0
 11
-26.8577513367
 21
-8.3508427679
 31
0.0
 11
-26.7910654035
 21
-8.4468556874
 31
0.0
 11
-26.7402067808
 21
-8.501346682
 31
0.0
  0
SPLINE
  5
37F
100
AcDbEntity
  8
RACCORDO
100
AcDbSpline
 62
253
  6
CONTINUOUS
 70
0
 71
3
 72
8
 73
4
 74
2
 42
0.0000001
 43
0.0000001
 44
0.0000000001
 12
0.0000000001
 22
-0.0733454393
 32
0.0
 13
0.0097974782
 23
-0.0728565392
 33
0.0
 40
0.0
 40
0.0
 40
0.0
 40
0.0
 40
1.0
 40
1.0
 40
1.0
 40
1.0
 10
-26.9374138149
 20
-8.007164519
 30
0.0
 10
-26.9374138149
 20
-8.0316129988
 30
0.0
 10
-26.9356363943
 20
-8.0560841516
 30
0.0
 10
-26.9323705683
 20
-8.0803696646
 30
0.0
 11
-26.9374138149
 21
-8.007164519
 31
0.0
 11
-26.9323705683
 21
-8.0803696646
 31
0.0
  0
SPLINE
  5
380
100
AcDbEntity
  8
RACCORDO
100
AcDbSpline
 62
253
  6
CONTINUOUS
 70
0
 71
3
 72
13
 73
9
 74
7
 42
0.0000001
 43
0.0000001
 44
0.0000000001
 12
0.0781215965
 22
-0.5809320554
 32
0.0
 13
0.5007403274
 23
-0.3039034137
 33
0.0
 40
0.0
 40
0.0
 40
0.0
 40
0.0
 40
0.065385949
 40
0.2696742471
 40
0.4794124643
 40
0.6857275928
 40
0.8802602269
 40
1.0
 40
1.0
 40
1.0
 40
1.0
 10
-26.9323705683
 20
-8.0803696646
 30
0.0
 10
-26.9306678834
 20
-8.0930312625
 30
0.0
 10
-26.9219767973
 20
-8.14504395
 30
0.0
 10
-26.8955303999
 20
-8.2350906727
 30
0.0
 10
-26.8432047013
 20
-8.3446830393
 30
0.0
 10
-26.7752867752
 20
-8.4430938351
 30
0.0
 10
-26.7039787066
 20
-8.5160081252
 30
0.0
 10
-26.6540286505
 20
-8.5522110904
 30
0.0
 10
-26.6340424728
 20
-8.5643408656
 30
0.0
 11
-26.9323705683
 21
-8.0803696646
 31
0.0
 11
-26.9260897339
 21
-8.1181735547
 31
0.0
 11
-26.8928891409
 21
-8.2329418324
 31
0.0
 11
-26.8400734462
 21
-8.3436499704
 31
0.0
 11
-26.7712426106
 21
-8.4427509066
 31
0.0
 11
-26.6910892558
 21
-8.5234895735
 31
0.0
 11
-26.6340424728
 21
-8.5643408656
 31
0.0
  0
SPLINE
  5
381
100
AcDbEntity
  8
RACCORDO
100
AcDbSpline
 62
253
  6
CONTINUOUS
 70
0
 71
3
 72
12
 73
8
 74
6
 42
0.0000001
 43
0.0000001
 44
0.0000000001
 12
0.0000000007
 22
-0.551269348
 32
0.0
 13
0.4011943765
 23
-0.3792360208
 33
0.0
 40
0.0
 40
0.0
 40
0.0
 40
0.0
 40
0.2024157651
 40
0.4191420463
 40
0.6416500808
 40
0.8605229648
 40
1.0
 40
1.0
 40
1.0
 40
1.0
 10
-26.8606371196
 20
-7.9687761714
 30
0.0
 10
-26.8606371195
 20
-8.0059713737
 30
0.0
 10
-26.8521183441
 20
-8.0831000945
 30
0.0
 10
-26.8187533552
 20
-8.196703315
 30
0.0
 10
-26.7664275109
 20
-8.3062955065
 30
0.0
 10
-26.7055240194
 20
-8.3945423843
 30
0.0
 10
-26.660623338
 20
-8.442975068
 30
0.0
 10
-26.6419708706
 20
-8.46060664
 30
0.0
 11
-26.8606371196
 21
-7.9687761714
 31
0.0
 11
-26.8493129455
 21
-8.0797856788
 31
0.0
 11
-26.8161120759
 21
-8.1945544539
 31
0.0
 11
-26.7632959389
 21
-8.3052630233
 31
0.0
 11
-26.6944658048
 21
-8.4043626923
 31
0.0
 11
-26.6419708706
 21
-8.46060664
 31
0.0
  0
SPLINE
  5
382
100
AcDbEntity
  8
RACCORDO
100
AcDbSpline
 62
253
  6
CONTINUOUS
 70
0
 71
3
 72
8
 73
4
 74
2
 42
0.0000001
 43
0.0000001
 44
0.0000000001
 12
0.0550310557
 22
-0.0394180323
 32
0.0
 13
0.0603530474
 23
-0.0301765237
 33
0.0
 40
0.0
 40
0.0
 40
0.0
 40
0.0
 40
1.0
 40
1.0
 40
1.0
 40
1.0
 10
-26.5860100434
 20
-8.5069441177
 30
0.0
 10
-26.5676663581
 20
-8.5200834618
 30
0.0
 10
-26.5484146149
 20
-8.5319193635
 30
0.0
 10
-26.5282969324
 20
-8.5419782047
 30
0.0
 11
-26.5860100434
 21
-8.5069441177
 31
0.0
 11
-26.5282969324
 21
-8.5419782047
 31
0.0
  0
SPLINE
  5
383
100
AcDbEntity
  8
SUPERFICI
100
AcDbSpline
 62
7
  6
CONTINUOUS
 70
0
 71
3
 72
10
 73
6
 74
4
 42
0.0000001
 43
0.0000001
 44
0.0000000001
 12
0.0
 22
4.3940700466
 32
0.0
 13
-3.9301757288
 23
1.9650878644
 33
0.0
 40
0.0
 40
0.0
 40
0.0
 40
0.0
 40
0.3342904765
 40
0.6865843886
 40
1.0
 40
1.0
 40
1.0
 40
1.0
 10
34.9162493441
 20
23.0835179608
 30
0.0
 10
34.9162493441
 20
23.5731498839
 30
0.0
 10
34.6928797701
 20
24.5809708223
 30
0.0
 10
33.9578032321
 20
25.8652271662
 30
0.0
 10
33.2055218102
 20
26.536957939
 30
0.0
 10
32.7949290005
 20
26.7422543439
 30
0.0
 11
34.9162493441
 21
23.0835179608
 31
0.0
 11
34.6320463076
 21
24.5246575847
 31
0.0
 11
33.8555891723
 21
25.8638480466
 31
0.0
 11
32.7949290005
 21
26.7422543439
 31
0.0
  0
SPLINE
  5
384
100
AcDbEntity
  8
SUPERFICI
100
AcDbSpline
 62
7
  6
CONTINUOUS
 70
0
 71
3
 72
9
 73
5
 74
3
 42
0.0000001
 43
0.0000001
 44
0.0000000001
 12
-1.2877596021
 22
0.6438798011
 32
0.0
 13
-1.2619714153
 23
-0.7644736371
 33
0.0
 40
0.0
 40
0.0
 40
0.0
 40
0.0
 40
0.747489447
 40
1.0
 40
1.0
 40
1.0
 40
1.0
 10
-30.1375745251
 20
58.2085061067
 30
0.0
 10
-30.4584367627
 20
58.3689372255
 30
0.0
 10
-30.9779341317
 20
58.5065681978
 30
0.0
 10
-31.4314980848
 20
58.3150076192
 30
0.0
 10
-31.5377184515
 20
58.2506617322
 30
0.0
 11
-30.1375745251
 21
58.2085061067
 31
0.0
 11
-31.1982346969
 21
58.3907599812
 31
0.0
 11
-31.5377184515
 21
58.2506617322
 31
0.0
  0
SPLINE
  5
385
100
AcDbEntity
  8
0
100
AcDbSpline
 62
7
  6
CONTINUOUS
 70
0
 71
3
 72
13
 73
9
 74
7
 42
0.0000001
 43
0.0000001
 44
0.0000000001
 12
-0.3946525341
 22
0.197326267
 32
0.0
 13
0.0
 23
0.4412349469
 33
0.0
 40
0.0
 40
0.0
 40
0.0
 40
0.0
 40
0.1491753708
 40
0.3137567936
 40
0.488302649
 40
0.6657440957
 40
0.8385780684
 40
1.0
 40
1.0
 40
1.0
 40
1.0
 10
-27.2737920613
 20
-8.7675014505
 30
0.0
 10
-27.2934162073
 20
-8.7576893775
 30
0.0
 10
-27.3319760795
 20
-8.7314800298
 30
0.0
 10
-27.3824390948
 20
-8.6798801376
 30
0.0
 10
-27.4257906587
 20
-8.6170649941
 30
0.0
 10
-27.4591898544
 20
-8.547112918
 30
0.0
 10
-27.4804865623
 20
-8.4746006351
 30
0.0
 10
-27.4859240956
 20
-8.425369478
 30
0.0
 10
-27.4859240956
 20
-8.4016278122
 30
0.0
 11
-27.2737920613
 21
-8.7675014505
 31
0.0
 11
-27.3286958718
 21
-8.7311968152
 31
0.0
 11
-27.3798580785
 21
-8.6796608208
 31
0.0
 11
-27.4237920613
 21
-8.6164055601
 31
0.0
 11
-27.457503792
 21
-8.5457417746
 31
0.0
 11
-27.4786958718
 21
-8.4724850845
 31
0.0
 11
-27.4859240956
 21
-8.4016278122
 31
0.0
  0
SPLINE
  5
386
100
AcDbEntity
  8
SUPERFICI
100
AcDbSpline
 62
7
  6
CONTINUOUS
 70
0
 71
3
 72
9
 73
5
 74
3
 42
0.0000001
 43
0.0000001
 44
0.0000000001
 12
1.7918844005
 22
0.8071883358
 32
0.0
 13
0.0
 23
1.9340051951
 33
0.0
 40
0.0
 40
0.0
 40
0.0
 40
0.0
 40
0.3840074907
 40
1.0
 40
1.0
 40
1.0
 40
1.0
 10
34.0621497227
 20
-55.6423231801
 30
0.0
 10
34.2915154001
 20
-55.5390010576
 30
0.0
 10
34.8165862539
 20
-55.0742574544
 30
0.0
 10
34.9162493441
 20
-54.3898538804
 30
0.0
 10
34.9162493441
 20
-53.9927429761
 30
0.0
 11
34.0621497227
 21
-55.6423231801
 31
0.0
 11
34.6320463076
 21
-55.1496795635
 31
0.0
 11
34.9162493441
 21
-53.9927429761
 31
0.0
  0
SPLINE
  5
387
100
AcDbEntity
  8
RACCORDO
100
AcDbSpline
 62
253
  6
CONTINUOUS
 70
0
 71
3
 72
14
 73
10
 74
8
 42
0.0000001
 43
0.0000001
 44
0.0000000001
 12
-1.1254592816
 22
0.0459966243
 32
0.0
 13
-0.0063219707
 23
1.133542645
 33
0.0
 40
0.0
 40
0.0
 40
0.0
 40
0.0
 40
0.1911972767
 40
0.3730550828
 40
0.539809036
 40
0.6872018107
 40
0.8135792478
 40
0.9214259079
 40
1.0
 40
1.0
 40
1.0
 40
1.0
 10
20.3043658955
 20
-33.6137246311
 30
0.0
 10
20.2326376457
 20
-33.6107931546
 30
0.0
 10
20.0929698419
 20
-33.5963601491
 30
0.0
 10
19.8942173008
 20
-33.5545040138
 30
0.0
 10
19.7181108473
 20
-33.491911057
 30
0.0
 10
19.5723106411
 20
-33.4118926991
 30
0.0
 10
19.4629901598
 20
-33.3170835662
 30
0.0
 10
19.3993470488
 20
-33.2154018796
 30
0.0
 10
19.3864250991
 20
-33.1448082052
 30
0.0
 10
19.386259518
 20
-33.1151191772
 30
0.0
 11
20.3043658955
 21
-33.6137246311
 31
0.0
 11
20.0900806733
 21
-33.5921918189
 31
0.0
 11
19.8899028137
 21
-33.548717003
 31
0.0
 11
19.7133681376
 21
-33.4845596686
 31
0.0
 11
19.5688866875
 21
-33.4027748137
 31
0.0
 11
19.4633414989
 21
-33.307254487
 31
0.0
 11
19.4017606996
 21
-33.2025415717
 31
0.0
 11
19.386259518
 21
-33.1151191772
 31
0.0
  0
SPLINE
  5
388
100
AcDbEntity
  8
RACCORDO
100
AcDbSpline
 62
253
  6
CONTINUOUS
 70
0
 71
3
 72
11
 73
7
 74
5
 42
0.0000001
 43
0.0000001
 44
0.0000000001
 12
-0.0088578224
 22
9.0941150889
 32
0.0
 13
0.0025534909
 23
9.0941190443
 33
0.0
 40
0.0
 40
0.0
 40
0.0
 40
0.0
 40
0.2181370567
 40
0.4564401322
 40
0.7158685031
 40
1.0
 40
1.0
 40
1.0
 40
1.0
 10
20.3043655919
 20
-33.6137244642
 30
0.0
 10
20.3037215188
 20
-32.9524699645
 30
0.0
 10
20.3038937916
 20
-31.5688293147
 30
0.0
 10
20.3025515707
 20
-29.3987649725
 30
0.0
 10
20.2992302642
 20
-27.0286490661
 30
0.0
 10
20.2979385399
 20
-25.3809161298
 30
0.0
 10
20.2981803823
 20
-24.5196075775
 30
0.0
 11
20.3043655919
 21
-33.6137244642
 31
0.0
 11
20.3036513702
 21
-31.6299601527
 31
0.0
 11
20.3023204354
 21
-29.4628039391
 31
0.0
 11
20.2995669319
 21
-27.1035329643
 31
0.0
 11
20.2981803823
 21
-24.5196075775
 31
0.0
  0
SPLINE
  5
389
100
AcDbEntity
  8
RACCORDO
100
AcDbSpline
 62
253
  6
CONTINUOUS
 70
0
 71
3
 72
15
 73
11
 74
9
 42
0.0000001
 43
0.0000001
 44
0.0000000001
 12
-1.1205297471
 22
0.0491936463
 32
0.0
 13
0.0002845925
 23
1.1295709921
 33
0.0
 40
0.0
 40
0.0
 40
0.0
 40
0.0
 40
0.1743949847
 40
0.3412833856
 40
0.4963920464
 40
0.6362251423
 40
0.7588417866
 40
0.8646939089
 40
0.9577384575
 40
1.0
 40
1.0
 40
1.0
 40
1.0
 10
20.298179733
 20
-24.5196075512
 30
0.0
 10
20.233041477
 20
-24.5167478428
 30
0.0
 10
20.1057400026
 20
-24.5048975639
 30
0.0
 10
19.9233929841
 20
-24.4685241686
 30
0.0
 10
19.7586961745
 20
-24.4151754643
 30
0.0
 10
19.6176802935
 20
-24.3467852924
 30
0.0
 10
19.5053775123
 20
-24.2655577061
 30
0.0
 10
19.4258563115
 20
-24.1734913485
 30
0.0
 10
19.3904405479
 20
-24.0883839001
 30
0.0
 10
19.3857413492
 20
-24.0374445142
 30
0.0
 10
19.3857453583
 20
-24.0215320434
 30
0.0
 11
20.298179733
 21
-24.5196075512
 31
0.0
 11
20.1034446784
 21
-24.5012012623
 31
0.0
 11
19.9199936155
 21
-24.4640073469
 31
0.0
 11
19.7547905217
 21
-24.4094734592
 31
0.0
 11
19.6143093498
 21
-24.3397366645
 31
0.0
 11
19.5040552536
 21
-24.2575297972
 31
0.0
 11
19.4283488534
 21
-24.166074367
 31
0.0
 11
19.3901569195
 21
-24.068954315
 31
0.0
 11
19.3857453583
 21
-24.0215320434
 31
0.0
  0
SPLINE
  5
38A
100
AcDbEntity
  8
RACCORDO
100
AcDbSpline
 62
253
  6
CONTINUOUS
 70
0
 71
3
 72
14
 73
10
 74
8
 42
0.0000001
 43
0.0000001
 44
0.0000000001
 12
-1.1198972239
 22
0.049554969
 32
0.0
 13
-0.0039471526
 23
1.1280958955
 33
0.0
 40
0.0
 40
0.0
 40
0.0
 40
0.0
 40
0.1915978683
 40
0.3735669813
 40
0.5403265264
 40
0.6876652193
 40
0.8139786234
 40
0.9218002408
 40
1.0
 40
1.0
 40
1.0
 40
1.0
 10
20.2981797137
 20
-4.1676309823
 30
0.0
 10
20.2266564068
 20
-4.1644661068
 30
0.0
 10
20.0873975378
 20
-4.1508004846
 30
0.0
 10
19.8895850928
 20
-4.1080496617
 30
0.0
 10
19.714483989
 20
-4.0453104705
 30
0.0
 10
19.5696820208
 20
-3.9652006016
 30
0.0
 10
19.4612573265
 20
-3.8704946438
 30
0.0
 10
19.3984264345
 20
-3.7691947811
 30
0.0
 10
19.3858107669
 20
-3.6990580245
 30
0.0
 10
19.3857078781
 20
-3.6696524154
 30
0.0
 11
20.2981797137
 21
-4.1676309823
 31
0.0
 11
20.0844648963
 21
-4.1462680313
 31
0.0
 11
19.8852626323
 21
-4.1023499967
 31
0.0
 11
19.7097705744
 21
-4.0379472292
 31
0.0
 11
19.5663042389
 21
-3.9561113918
 31
0.0
 11
19.4616616309
 21
-3.8607201984
 31
0.0
 11
19.4008011259
 21
-3.7562936691
 31
0.0
 11
19.3857078781
 21
-3.6696524154
 31
0.0
  0
SPLINE
  5
38B
100
AcDbEntity
  8
RACCORDO
100
AcDbSpline
 62
253
  6
CONTINUOUS
 70
0
 71
3
 72
11
 73
7
 74
5
 42
0.0000001
 43
0.0000001
 44
0.0000000001
 12
-0.0001065986
 22
9.0942511815
 32
0.0
 13
0.0081861024
 23
9.0942474978
 33
0.0
 40
0.0
 40
0.0
 40
0.0
 40
0.0
 40
0.2889895793
 40
0.5497245132
 40
0.7859156492
 40
1.0
 40
1.0
 40
1.0
 40
1.0
 10
20.2981797322
 20
-4.1676309316
 30
0.0
 10
20.2981694636
 20
-3.2915829908
 30
0.0
 10
20.2994497943
 20
-1.6251388057
 30
0.0
 10
20.3026205497
 20
0.7572971311
 30
0.0
 10
20.3042624894
 20
2.9126657941
 30
0.0
 10
20.3042562097
 20
4.2776388045
 30
0.0
 10
20.3048403818
 20
4.9266174951
 30
0.0
 11
20.2981797322
 21
-4.1676309316
 31
0.0
 11
20.2997746924
 21
-1.5394875928
 31
0.0
 11
20.3024835568
 21
0.8316998414
 31
0.0
 11
20.3040257047
 21
2.9796808048
 31
0.0
 11
20.3048403818
 21
4.9266174951
 31
0.0
  0
SPLINE
  5
38C
100
AcDbEntity
  8
RACCORDO
100
AcDbSpline
 62
253
  6
CONTINUOUS
 70
0
 71
3
 72
14
 73
10
 74
8
 42
0.0000001
 43
0.0000001
 44
0.0000000001
 12
-1.1262431754
 22
0.0459758185
 32
0.0
 13
-0.0035914914
 23
1.1342155018
 33
0.0
 40
0.0
 40
0.0
 40
0.0
 40
0.0
 40
0.1909842646
 40
0.372802199
 40
0.5395272969
 40
0.6868894844
 40
0.8132165457
 40
0.9209688076
 40
1.0
 40
1.0
 40
1.0
 40
1.0
 10
20.3048403818
 20
4.9266174951
 30
0.0
 10
20.2331421403
 20
4.9295443811
 30
0.0
 10
20.0932293047
 20
4.9414654824
 30
0.0
 10
19.8945381832
 20
4.9842979068
 30
0.0
 10
19.718315601
 20
5.0466699831
 30
0.0
 10
19.572431617
 20
5.1267250847
 30
0.0
 10
19.463028115
 20
5.2214792169
 30
0.0
 10
19.3991966892
 20
5.3232733762
 30
0.0
 10
19.3862501455
 20
5.3940867801
 30
0.0
 10
19.3861555322
 20
5.423966248
 30
0.0
 11
20.3048403818
 21
4.9266174951
 31
0.0
 11
20.0904771452
 21
4.9463973661
 31
0.0
 11
19.8902047517
 21
4.9898955574
 31
0.0
 11
19.7135689097
 21
5.05406126
 31
0.0
 11
19.5689888779
 21
5.135836048
 31
0.0
 11
19.463355991
 21
5.2313221671
 31
0.0
 11
19.4017051877
 21
5.3359683193
 31
0.0
 11
19.3861555322
 21
5.423966248
 31
0.0
  0
SPLINE
  5
38D
100
AcDbEntity
  8
RACCORDO
100
AcDbSpline
 62
253
  6
CONTINUOUS
 70
0
 71
3
 72
68
 73
64
 74
62
 42
0.0000001
 43
0.0000001
 44
0.0000000001
 12
0.0024522878
 22
2.9802593823
 32
0.0
 13
-2.6824075929
 23
1.2987076289
 33
0.0
 40
0.0
 40
0.0
 40
0.0
 40
0.0
 40
0.0202984334
 40
0.0390374994
 40
0.0562424499
 40
0.0719651735
 40
0.086228288
 40
0.0990257428
 40
0.1103472691
 40
0.1204756535
 40
0.1298460422
 40
0.1388980678
 40
0.1480058389
 40
0.1573345609
 40
0.1667467554
 40
0.1760225594
 40
0.1856793379
 40
0.1962191802
 40
0.207607138
 40
0.219925208
 40
0.2332568667
 40
0.246924256
 40
0.2598794726
 40
0.271612493
 40
0.282294318
 40
0.2922691473
 40
0.3018576772
 40
0.3113365325
 40
0.3208459597
 40
0.330455714
 40
0.3399119201
 40
0.3492763714
 40
0.3589657389
 40
0.3694386034
 40
0.3812068103
 40
0.3947196126
 40
0.4102387236
 40
0.4277202456
 40
0.4463449874
 40
0.4655661247
 40
0.4850776577
 40
0.5048341101
 40
0.5246818215
 40
0.5445176699
 40
0.5644796197
 40
0.5844719987
 40
0.6043452448
 40
0.6241331157
 40
0.6439195542
 40
0.6637203403
 40
0.6834925708
 40
0.7031711773
 40
0.7225884172
 40
0.7420433002
 40
0.7623329246
 40
0.7843359217
 40
0.8085780626
 40
0.8349069843
 40
0.8632966154
 40
0.8938239856
 40
0.926562403
 40
0.9617605339
 40
1.0
 40
1.0
 40
1.0
 40
1.0
 10
20.3048399257
 20
4.9266174329
 30
0.0
 10
20.3048565182
 20
4.9467822984
 30
0.0
 10
20.3042826645
 20
4.9855659981
 30
0.0
 10
20.3018439282
 20
5.0413915427
 30
0.0
 10
20.2982905559
 20
5.0926002537
 30
0.0
 10
20.2939855645
 20
5.1392859822
 30
0.0
 10
20.2892367507
 20
5.1815241392
 30
0.0
 10
20.2843132485
 20
5.2193361919
 30
0.0
 10
20.2794039462
 20
5.2530033154
 30
0.0
 10
20.2745793836
 20
5.2832391291
 30
0.0
 10
20.2697735624
 20
5.3111925894
 30
0.0
 10
20.2648341707
 20
5.3380924579
 30
0.0
 10
20.2596106596
 20
5.3648963752
 30
0.0
 10
20.254037869
 20
5.3919952465
 30
0.0
 10
20.2481428792
 20
5.419196707
 30
0.0
 10
20.2418910889
 20
5.4466526994
 30
0.0
 10
20.2350875412
 20
5.475130349
 30
0.0
 10
20.2274437878
 20
5.5055625961
 30
0.0
 10
20.2187467357
 20
5.5384536479
 30
0.0
 10
20.2088790776
 20
5.5739008303
 30
0.0
 10
20.1979182447
 20
5.6113909136
 30
0.0
 10
20.186273202
 20
5.6493369686
 30
0.0
 10
20.1745809551
 20
5.6856031705
 30
0.0
 10
20.1633860165
 20
5.71891025
 30
0.0
 10
20.1527908813
 20
5.7492930154
 30
0.0
 10
20.1426146426
 20
5.777563921
 30
0.0
 10
20.1325899838
 20
5.8046178662
 30
0.0
 10
20.1224892251
 20
5.8311493389
 30
0.0
 10
20.1121447548
 20
5.8576093476
 30
0.0
 10
20.1015843262
 20
5.8839597117
 30
0.0
 10
20.0908286816
 20
5.9100753583
 30
0.0
 10
20.0797995733
 20
5.936162533
 30
0.0
 10
20.068134164
 20
5.9630759375
 30
0.0
 10
20.0552515582
 20
5.9920629565
 30
0.0
 10
20.0405175286
 20
6.0243820141
 30
0.0
 10
20.0233115703
 20
6.0610813896
 30
0.0
 10
20.0031651416
 20
6.1026671741
 30
0.0
 10
19.9801158438
 20
6.1484841114
 30
0.0
 10
19.9545854138
 20
6.1971609652
 30
0.0
 10
19.9273385595
 20
6.2472070081
 30
0.0
 10
19.898692822
 20
6.2977625932
 30
0.0
 10
19.8688572633
 20
6.3483493623
 30
0.0
 10
19.8379641911
 20
6.3986758393
 30
0.0
 10
19.806088688
 20
6.448628013
 30
0.0
 10
19.7732896788
 20
6.4981511446
 30
0.0
 10
19.7396231989
 20
6.5471339813
 30
0.0
 10
19.7051961991
 20
6.5953731484
 30
0.0
 10
19.6700353071
 20
6.6428256625
 30
0.0
 10
19.6340715413
 20
6.6895819344
 30
0.0
 10
19.5972677477
 20
6.7356601903
 30
0.0
 10
19.5596789351
 20
6.7809613741
 30
0.0
 10
19.5214859005
 20
6.8252525122
 30
0.0
 10
19.482658542
 20
6.8685663074
 30
0.0
 10
19.4425644105
 20
6.911544579
 30
0.0
 10
19.3997871228
 20
6.9555154637
 30
0.0
 10
19.3526089673
 20
7.0018177934
 30
0.0
 10
19.2998326949
 20
7.0509498341
 30
0.0
 10
19.2408242562
 20
7.1026521544
 30
0.0
 10
19.1752392289
 20
7.1562558169
 30
0.0
 10
19.1025149084
 20
7.2110875787
 30
0.0
 10
19.0217978874
 20
7.2664086107
 30
0.0
 10
18.9317508116
 20
7.3214344804
 30
0.0
 10
18.8672006932
 20
7.3555747905
 30
0.0
 10
18.8330094151
 20
7.3721287526
 30
0.0
 11
20.3048399257
 21
4.9266174329
 31
0.0
 11
20.3039572347
 21
4.9871056098
 31
0.0
 11
20.3015291297
 21
5.0429000971
 31
0.0
 11
20.2979867933
 21
5.0940528224
 31
0.0
 11
20.2936894131
 21
5.1407131579
 31
0.0
 11
20.2889441659
 21
5.1829552611
 31
0.0
 11
20.2840215769
 21
5.2207760025
 31
0.0
 11
20.2791540917
 21
5.2541641617
 31
0.0
 11
20.274398717
 21
5.2839724508
 31
0.0
 11
20.2696671075
 21
5.3114948855
 31
0.0
 11
20.2647963084
 21
5.3380289215
 31
0.0
 11
20.2596072728
 21
5.3646718401
 31
0.0
 11
20.2540067434
 21
5.3919039245
 31
0.0
 11
20.2480660534
 21
5.4193184287
 31
0.0
 11
20.2419283894
 21
5.4462727795
 31
0.0
 11
20.2352398419
 21
5.4742644802
 31
0.0
 11
20.227588499
 21
5.5047298322
 31
0.0
 11
20.2189147668
 21
5.5375418344
 31
0.0
 11
20.209076014
 21
5.5729099074
 31
0.0
 11
20.1979283736
 21
5.6110458118
 31
0.0
 11
20.1859717621
 21
5.6499837897
 31
0.0
 11
20.1741290406
 21
5.6867326098
 31
0.0
 11
20.1629881674
 21
5.7198778045
 31
0.0
 11
20.1525080016
 21
5.7499378968
 31
0.0
 11
20.1424403338
 21
5.7779088031
 31
0.0
 11
20.1325121802
 21
5.8047050265
 31
0.0
 11
20.122460948
 21
5.8311058704
 31
0.0
 11
20.1121439439
 21
5.8575018414
 31
0.0
 11
20.1014851943
 21
5.8840840917
 31
0.0
 11
20.0907534163
 21
5.9101427105
 31
0.0
 11
20.0798873893
 21
5.9358490134
 31
0.0
 11
20.0684046956
 21
5.9623446648
 31
0.0
 11
20.0557315793
 21
5.9908678575
 31
0.0
 11
20.0411837849
 21
6.0227806978
 31
0.0
 11
20.0240858445
 21
6.0592425653
 31
0.0
 11
20.00391776
 21
6.1008647064
 31
0.0
 11
19.9804995492
 21
6.1474044098
 31
0.0
 11
19.954736023
 21
6.1965696534
 31
0.0
 11
19.9273360489
 21
6.246875691
 31
0.0
 11
19.8986679713
 21
6.2974671897
 31
0.0
 11
19.8687551194
 21
6.3481820969
 31
0.0
 11
19.8378122946
 21
6.3985946309
 31
0.0
 11
19.8060161578
 21
6.4484314279
 31
0.0
 11
19.7731651821
 21
6.4980307087
 31
0.0
 11
19.7394118739
 21
6.5471304838
 31
0.0
 11
19.7050040853
 21
6.5953383121
 31
0.0
 11
19.6698935269
 21
6.6427204221
 31
0.0
 11
19.6339386997
 21
6.6894597267
 31
0.0
 11
19.5971075994
 21
6.7355664182
 31
0.0
 11
19.5594768697
 21
6.7809122916
 31
0.0
 11
19.5211741883
 21
6.8253242133
 31
0.0
 11
19.4825422533
 21
6.8684093489
 31
0.0
 11
19.4429865664
 21
6.9108015606
 31
0.0
 11
19.4008154702
 21
6.9541377083
 31
0.0
 11
19.3540068845
 21
7.0000614757
 31
0.0
 11
19.3011165366
 21
7.0492790443
 31
0.0
 11
19.2420849273
 21
7.1009737816
 31
0.0
 11
19.1765543666
 21
7.1544933361
 31
0.0
 11
19.1038817361
 21
7.2092287031
 31
0.0
 11
19.0233673184
 21
7.2643389561
 31
0.0
 11
18.933809079
 21
7.3189580637
 31
0.0
 11
18.8330094151
 21
7.3721287526
 31
0.0
  0
SPLINE
  5
38E
100
AcDbEntity
  8
RACCORDO
100
AcDbSpline
 62
253
  6
CONTINUOUS
 70
0
 71
3
 72
15
 73
11
 74
9
 42
0.0000001
 43
0.0000001
 44
0.0000000001
 12
-0.5328762929
 22
-1.1271370288
 32
0.0
 13
1.1214190807
 23
-0.5578610231
 33
0.0
 40
0.0
 40
0.0
 40
0.0
 40
0.0
 40
0.1695998183
 40
0.3337415559
 40
0.4882254427
 40
0.6300084375
 40
0.7577883411
 40
0.8727521156
 40
0.9791757367
 40
1.0
 40
1.0
 40
1.0
 40
1.0
 10
18.8330094151
 20
7.3721287526
 30
0.0
 10
18.8028841743
 20
7.3084080075
 30
0.0
 10
18.7505818203
 20
7.1794374563
 30
0.0
 10
18.701960604
 20
6.9817419097
 30
0.0
 10
18.6833917278
 20
6.7905396496
 30
0.0
 10
18.6964820543
 20
6.6137727608
 30
0.0
 10
18.7410396413
 20
6.4588527438
 30
0.0
 10
18.8164553493
 20
6.3325325895
 30
0.0
 10
18.8940812734
 20
6.2653580299
 30
0.0
 10
18.9408087234
 20
6.2400435273
 30
0.0
 10
18.9485929654
 20
6.236171179
 30
0.0
 11
18.8330094151
 21
7.3721287526
 31
0.0
 11
18.7546500902
 21
7.1757347924
 31
0.0
 11
18.7060094295
 21
6.9769550407
 31
0.0
 11
18.6886149832
 21
6.7851387426
 31
0.0
 11
18.7032536114
 21
6.6089774288
 31
0.0
 11
18.7492585006
 21
6.4564544742
 31
0.0
 11
18.8245385288
 21
6.3344838114
 31
0.0
 11
18.9256739659
 21
6.2485962021
 31
0.0
 11
18.9485929654
 21
6.236171179
 31
0.0
  0
SPLINE
  5
38F
100
AcDbEntity
  8
RACCORDO
100
AcDbSpline
 62
253
  6
CONTINUOUS
 70
0
 71
3
 72
57
 73
53
 74
51
 42
0.0000001
 43
0.0000001
 44
0.0000000001
 12
-9.2621490948
 22
4.5463039153
 32
0.0
 13
-9.2284919108
 23
4.6142412373
 33
0.0
 40
0.0
 40
0.0
 40
0.0
 40
0.0
 40
0.0051853506
 40
0.0105582251
 40
0.0159766176
 40
0.0213855998
 40
0.0267732914
 40
0.032153256
 40
0.0375285371
 40
0.0428964721
 40
0.0482608593
 40
0.0536242047
 40
0.0589881977
 40
0.0643520596
 40
0.0697751989
 40
0.0754616126
 40
0.0816981368
 40
0.0887304722
 40
0.0965889624
 40
0.1050585882
 40
0.1140131631
 40
0.1235828402
 40
0.1338693143
 40
0.1445433031
 40
0.155145731
 40
0.1656095932
 40
0.1761004157
 40
0.1869340146
 40
0.1984820518
 40
0.2110888692
 40
0.2249343408
 40
0.2399951796
 40
0.2562653277
 40
0.2738342365
 40
0.2928494984
 40
0.3134349854
 40
0.3356933565
 40
0.3597476109
 40
0.3857484543
 40
0.4138536943
 40
0.444228929
 40
0.4770419515
 40
0.5124618383
 40
0.550706931
 40
0.5920888047
 40
0.636961572
 40
0.6856761818
 40
0.7385981221
 40
0.7960354163
 40
0.8582453149
 40
0.9259425031
 40
1.0
 40
1.0
 40
1.0
 40
1.0
 10
18.8330115727
 20
7.3721327212
 30
0.0
 10
18.8170024093
 20
7.3799907811
 30
0.0
 10
18.7844086038
 20
7.395998171
 30
0.0
 10
18.7350976376
 20
7.4202401721
 30
0.0
 10
18.6851049222
 20
7.4448387347
 30
0.0
 10
18.6350733991
 20
7.469473847
 30
0.0
 10
18.585164975
 20
7.4940597737
 30
0.0
 10
18.5353657289
 20
7.5186050398
 30
0.0
 10
18.4856325601
 20
7.5431306712
 30
0.0
 10
18.4359525213
 20
7.5676429069
 30
0.0
 10
18.3863144352
 20
7.5921473931
 30
0.0
 10
18.3366936076
 20
7.6166562099
 30
0.0
 10
18.2870793596
 20
7.6411742653
 30
0.0
 10
18.2372854941
 20
7.6657930301
 30
0.0
 10
18.186502268
 20
7.690912698
 30
0.0
 10
18.1330336905
 20
7.7173728337
 30
0.0
 10
18.0746102879
 20
7.7462987009
 30
0.0
 10
18.0094986401
 20
7.7785522291
 30
0.0
 10
17.937512597
 20
7.8142304521
 30
0.0
 10
17.8596118799
 20
7.852862192
 30
0.0
 10
17.7764482334
 20
7.8941278813
 30
0.0
 10
17.6876975425
 20
7.9381918747
 30
0.0
 10
17.5936612601
 20
7.9849077778
 30
0.0
 10
17.4964549858
 20
8.0332260819
 30
0.0
 10
17.3987126272
 20
8.0818365154
 30
0.0
 10
17.3015434368
 20
8.130184758
 30
0.0
 10
17.2036708605
 20
8.1789041033
 30
0.0
 10
17.1024684163
 20
8.2293015175
 30
0.0
 10
16.9947599612
 20
8.2829598185
 30
0.0
 10
16.8777887404
 20
8.3412551566
 30
0.0
 10
16.7500144436
 20
8.4049592595
 30
0.0
 10
16.6109753937
 20
8.4743064031
 30
0.0
 10
16.4604880523
 20
8.5493917545
 30
0.0
 10
16.297842816
 20
8.630572479
 30
0.0
 10
16.121930053
 20
8.7184048973
 30
0.0
 10
15.9315991788
 20
8.8134649965
 30
0.0
 10
15.7257747081
 20
8.9162898297
 30
0.0
 10
15.5032974418
 20
9.0274553843
 30
0.0
 10
15.2628399546
 20
9.1476253128
 30
0.0
 10
15.0029448355
 20
9.2775309037
 30
0.0
 10
14.7221012901
 20
9.4179280845
 30
0.0
 10
14.4187633746
 20
9.5695891481
 30
0.0
 10
14.0912218024
 20
9.7333653203
 30
0.0
 10
13.7373209555
 20
9.9103209072
 30
0.0
 10
13.3543321513
 20
10.101797091
 30
0.0
 10
12.9391117631
 20
10.3093249582
 30
0.0
 10
12.4883535987
 20
10.5345250562
 30
0.0
 10
11.9988975748
 20
10.778955692
 30
0.0
 10
11.4678728083
 20
11.0440329791
 30
0.0
 10
10.8913778257
 20
11.3317974826
 30
0.0
 10
10.2637880379
 20
11.64518865
 30
0.0
 10
9.8276848544
 20
11.8631337068
 30
0.0
 10
9.5998718508
 20
11.9770400921
 30
0.0
 11
18.8330115727
 21
7.3721327212
 31
0.0
 11
18.7849890475
 21
7.3957170134
 31
0.0
 11
18.7352395262
 21
7.4201739519
 31
0.0
 11
18.6850770393
 21
7.4448553731
 31
0.0
 11
18.6350084661
 21
7.4695077337
 31
0.0
 11
18.585142004
 21
7.4940732811
 31
0.0
 11
18.5353521374
 21
7.5186138976
 31
0.0
 11
18.4856107485
 21
7.5431435655
 31
0.0
 11
18.4359424364
 21
7.567650043
 31
0.0
 11
18.3863120728
 21
7.5921507015
 31
0.0
 11
18.3366964313
 21
7.6166568963
 31
0.0
 11
18.2870797432
 21
7.6411760597
 31
0.0
 11
18.2374690037
 21
7.6657042029
 31
0.0
 11
18.1873146123
 21
7.6905127336
 31
0.0
 11
18.1347301646
 21
7.7165352586
 31
0.0
 11
18.0770640119
 21
7.7450860996
 31
0.0
 11
18.0120458356
 21
7.7772932172
 31
0.0
 11
17.9393971454
 21
7.813299717
 31
0.0
 11
17.8611075566
 21
7.852124133
 31
0.0
 11
17.7783448181
 21
7.8931907079
 31
0.0
 11
17.6899072815
 21
7.9370989353
 31
0.0
 11
17.5948566082
 21
7.984318359
 31
0.0
 11
17.4962363207
 21
8.0333391025
 31
0.0
 11
17.3982874639
 21
8.082051829
 31
0.0
 11
17.3016278367
 21
8.1301462351
 31
0.0
 11
17.2047275158
 21
8.1783813389
 31
0.0
 11
17.1046691692
 21
8.228208718
 31
0.0
 11
16.9980206156
 21
8.281338692
 31
0.0
 11
16.8816029536
 21
8.3393578437
 31
0.0
 11
16.753756824
 21
8.4030973649
 31
0.0
 11
16.6146989416
 21
8.472453429
 31
0.0
 11
16.4644866611
 21
8.5474009811
 31
0.0
 11
16.3022953264
 21
8.6283544627
 31
0.0
 11
16.1267633813
 21
8.715995888
 31
0.0
 11
15.9367479499
 21
8.8108973801
 31
0.0
 11
15.7313013419
 21
8.9135320247
 31
0.0
 11
15.509287447
 21
9.0244653323
 31
0.0
 11
15.2693153329
 21
9.1443924023
 31
0.0
 11
15.0099293898
 21
9.2740428259
 31
0.0
 11
14.7296016918
 21
9.4141813047
 31
0.0
 11
14.426783423
 21
9.5655813941
 31
0.0
 11
14.0999125014
 21
9.7290197308
 31
0.0
 11
13.7469687446
 21
9.9054933594
 31
0.0
 11
13.3650672332
 21
10.096420856
 31
0.0
 11
12.9509255736
 21
10.3034072356
 31
0.0
 11
12.5012920451
 21
10.5280458482
 31
0.0
 11
12.0127843062
 21
10.7720042242
 31
0.0
 11
11.4825583036
 21
11.0367006987
 31
0.0
 11
10.9082704048
 21
11.323383175
 31
0.0
 11
10.2833742849
 21
11.6354478123
 31
0.0
 11
9.5998718508
 21
11.9770400921
 31
0.0
  0
SPLINE
  5
390
100
AcDbEntity
  8
RACCORDO
100
AcDbSpline
 62
253
  6
CONTINUOUS
 70
0
 71
3
 72
15
 73
11
 74
9
 42
0.0000001
 43
0.0000001
 44
0.0000000001
 12
-0.5217182748
 22
-1.1210757939
 32
0.0
 13
1.111772439
 23
-0.5540475415
 33
0.0
 40
0.0
 40
0.0
 40
0.0
 40
0.0
 40
0.1700940278
 40
0.3344808229
 40
0.489080192
 40
0.6309188371
 40
0.7587708877
 40
0.8738982967
 40
0.9806292835
 40
1.0
 40
1.0
 40
1.0
 40
1.0
 10
9.5998717577
 20
11.97703989
 30
0.0
 10
9.5702913701
 20
11.9134771242
 30
0.0
 10
9.5200768953
 20
11.7845824305
 30
0.0
 10
9.4724763464
 20
11.5880531051
 30
0.0
 10
9.4552053048
 20
11.3981084457
 30
0.0
 10
9.469192779
 20
11.2227748498
 30
0.0
 10
9.5143722547
 20
11.0692797142
 30
0.0
 10
9.5900900133
 20
10.9442805578
 30
0.0
 10
9.667158817
 20
10.8784100169
 30
0.0
 10
9.7131299942
 20
10.8536232342
 30
0.0
 10
9.7203086038
 20
10.8500458016
 30
0.0
 11
9.5998717577
 21
11.97703989
 31
0.0
 11
9.5237871861
 21
11.7809578698
 31
0.0
 11
9.4765938232
 21
11.5832434146
 31
0.0
 11
9.4604068594
 21
11.3927635498
 31
0.0
 11
9.4759527185
 21
11.2180664577
 31
0.0
 11
9.5225337477
 21
11.0669920361
 31
0.0
 11
9.5980595257
 21
10.9463200657
 31
0.0
 11
9.6991406752
 21
10.8614659537
 31
0.0
 11
9.7203086038
 21
10.8500458016
 31
0.0
  0
SPLINE
  5
391
100
AcDbEntity
  8
RACCORDO
100
AcDbSpline
 62
253
  6
CONTINUOUS
 70
0
 71
3
 72
15
 73
11
 74
9
 42
0.0000001
 43
0.0000001
 44
0.0000000001
 12
-0.5222346314
 22
-1.1211014158
 32
0.0
 13
1.1119759612
 23
-0.5541582896
 33
0.0
 40
0.0
 40
0.0
 40
0.0
 40
0.0
 40
0.1700573737
 40
0.3344056523
 40
0.4889737521
 40
0.6307964656
 40
0.7586558321
 40
0.8738195817
 40
0.9806152966
 40
1.0
 40
1.0
 40
1.0
 40
1.0
 10
-19.3919236257
 20
26.4729375446
 30
0.0
 10
-19.421526909
 20
26.4093870238
 30
0.0
 10
-19.471779095
 20
26.2805104076
 30
0.0
 10
-19.5194115881
 20
26.0839922254
 30
0.0
 10
-19.5366858633
 20
25.8940445554
 30
0.0
 10
-19.5226720488
 20
25.718693551
 30
0.0
 10
-19.477436315
 20
25.5651688195
 30
0.0
 10
-19.4016353909
 20
25.4401337178
 30
0.0
 10
-19.3245006
 20
25.3742396816
 30
0.0
 10
-19.2784915237
 20
25.3494339057
 30
0.0
 10
-19.2713064156
 20
25.3458531743
 30
0.0
 11
-19.3919236257
 21
26.4729375446
 31
0.0
 11
-19.4680656732
 21
26.2768824597
 31
0.0
 11
-19.5152893763
 21
26.0791834636
 31
0.0
 11
-19.5314789231
 21
25.8887052104
 31
0.0
 11
-19.5159077689
 21
25.7139958093
 31
0.0
 11
-19.4692747008
 21
25.5628957032
 31
0.0
 11
-19.3936724761
 21
25.4421858092
 31
0.0
 11
-19.292493902
 21
25.3572832113
 31
0.0
 11
-19.2713064156
 21
25.3458531743
 31
0.0
  0
SPLINE
  5
392
100
AcDbEntity
  8
RACCORDO
100
AcDbSpline
 62
253
  6
CONTINUOUS
 70
0
 71
3
 72
50
 73
46
 74
44
 42
0.0000001
 43
0.0000001
 44
0.0000000001
 12
-9.2283086071
 22
4.6141621634
 32
0.0
 13
-9.1940849333
 23
4.6819840302
 33
0.0
 40
0.0
 40
0.0
 40
0.0
 40
0.0
 40
0.0752213353
 40
0.1438121521
 40
0.206482639
 40
0.263835993
 40
0.3164071902
 40
0.3646660793
 40
0.4090172992
 40
0.4498225288
 40
0.4873978469
 40
0.5220233722
 40
0.5539500497
 40
0.5834042258
 40
0.6105920342
 40
0.6356976654
 40
0.6588905921
 40
0.6803337059
 40
0.7001545673
 40
0.7184597391
 40
0.735380581
 40
0.751058561
 40
0.7655476738
 40
0.7788222154
 40
0.7908852078
 40
0.8020029311
 40
0.8125509395
 40
0.8229127448
 40
0.8333115713
 40
0.8437226207
 40
0.8541246165
 40
0.864533556
 40
0.8749636761
 40
0.8854211081
 40
0.8959050969
 40
0.9064104968
 40
0.9169364369
 40
0.9274813499
 40
0.9380521297
 40
0.9486510084
 40
0.9593354461
 40
0.9700864419
 40
0.9807050651
 40
0.9908827013
 40
1.0
 40
1.0
 40
1.0
 40
1.0
 10
-19.3919233134
 20
26.4729378935
 30
0.0
 10
-19.6233118788
 20
26.5886323733
 30
0.0
 10
-20.0656490445
 20
26.8099108628
 30
0.0
 10
-20.7006454681
 20
27.1278229495
 30
0.0
 10
-21.2806482654
 20
27.4183127437
 30
0.0
 10
-21.8113956512
 20
27.6841183756
 30
0.0
 10
-22.2978679867
 20
27.9276453233
 30
0.0
 10
-22.7443912101
 20
28.1510807891
 30
0.0
 10
-23.1547590198
 20
28.356343775
 30
0.0
 10
-23.5322878376
 20
28.5451253168
 30
0.0
 10
-23.8799082548
 20
28.718930542
 30
0.0
 10
-24.2002174523
 20
28.8790798346
 30
0.0
 10
-24.4955401705
 20
29.0267483936
 30
0.0
 10
-24.7679775535
 20
29.1629896466
 30
0.0
 10
-25.0194263115
 20
29.2887525282
 30
0.0
 10
-25.251608781
 20
29.4048973475
 30
0.0
 10
-25.4661146385
 20
29.5122171898
 30
0.0
 10
-25.6643593641
 20
29.6114180353
 30
0.0
 10
-25.8475628431
 20
29.7031132564
 30
0.0
 10
-26.016848979
 20
29.7878656999
 30
0.0
 10
-26.173384947
 20
29.8662586208
 30
0.0
 10
-26.3181766079
 20
29.9387936436
 30
0.0
 10
-26.4517471327
 20
30.0057299123
 30
0.0
 10
-26.5741941675
 20
30.0671129385
 30
0.0
 10
-26.6862681584
 20
30.1233151624
 30
0.0
 10
-26.789952927
 20
30.1753280528
 30
0.0
 10
-26.8884013957
 20
30.2247309371
 30
0.0
 10
-26.9846331175
 20
30.2730387653
 30
0.0
 10
-27.0804362668
 20
30.3211504258
 30
0.0
 10
-27.1763545433
 20
30.3693408306
 30
0.0
 10
-27.2722947638
 20
30.4175650272
 30
0.0
 10
-27.3682836946
 20
30.4658383523
 30
0.0
 10
-27.4644321956
 20
30.5142187244
 30
0.0
 10
-27.5607994975
 20
30.562738486
 30
0.0
 10
-27.6573851793
 20
30.6114002215
 30
0.0
 10
-27.7541675325
 20
30.6601952389
 30
0.0
 10
-27.8511221743
 20
30.7091139433
 30
0.0
 10
-27.9482615843
 20
30.7581655958
 30
0.0
 10
-28.0456077907
 20
30.807364217
 30
0.0
 10
-28.1433643838
 20
30.8568146396
 30
0.0
 10
-28.241654971
 20
30.906582508
 30
0.0
 10
-28.339986286
 20
30.9564202435
 30
0.0
 10
-28.4367427738
 20
31.005509693
 30
0.0
 10
-28.5284685742
 20
31.0520965783
 30
0.0
 10
-28.5876138488
 20
31.0821855145
 30
0.0
 10
-28.6155555882
 20
31.09641453
 30
0.0
 11
-19.3919233134
 21
26.4729378935
 31
0.0
 11
-20.0860236475
 21
26.8201520256
 31
0.0
 11
-20.7188438714
 21
27.1369549848
 31
0.0
 11
-21.2969999455
 21
27.4264995125
 31
0.0
 11
-21.8261092335
 21
27.6914672539
 31
0.0
 11
-22.3111369529
 21
27.9342701707
 31
0.0
 11
-22.7564158206
 21
28.1570825657
 31
0.0
 11
-23.1656702008
 21
28.3617910001
 31
0.0
 11
-23.5422247617
 21
28.5500903275
 31
0.0
 11
-23.8889822296
 21
28.7234672652
 31
0.0
 11
-24.2085185359
 21
28.8832325078
 31
0.0
 11
-24.5031445739
 21
29.0305537656
 31
0.0
 11
-24.7749475796
 21
29.1664785493
 31
0.0
 11
-25.0258295616
 21
29.2919585104
 31
0.0
 11
-25.2574906123
 21
29.4078428781
 31
0.0
 11
-25.471495328
 21
29.5149123244
 31
0.0
 11
-25.6693472218
 21
29.6139178584
 31
0.0
 11
-25.8522225871
 21
29.7054498107
 31
0.0
 11
-26.0211044403
 21
29.7900006273
 31
0.0
 11
-26.1772051339
 21
29.8681761706
 31
0.0
 11
-26.321830582
 21
29.9406283824
 31
0.0
 11
-26.4554799865
 21
30.0076045612
 31
0.0
 11
-26.5779176057
 21
30.068983177
 31
0.0
 11
-26.6891728726
 21
30.124775086
 31
0.0
 11
-26.7917030791
 21
30.1762089914
 31
0.0
 11
-26.8889725783
 21
30.2250205119
 31
0.0
 11
-26.9845180652
 21
30.2729841575
 31
0.0
 11
-27.0803973031
 21
30.3211343428
 31
0.0
 11
-27.1763808425
 21
30.3693578411
 31
0.0
 11
-27.2722717809
 21
30.4175575763
 31
0.0
 11
-27.3682168295
 21
30.4658091775
 31
0.0
 11
-27.4643463353
 21
30.5141803839
 31
0.0
 11
-27.5607157836
 21
30.5627016547
 31
0.0
 11
-27.6573171336
 21
30.6113716206
 31
0.0
 11
-27.7541019938
 21
30.6601683157
 31
0.0
 11
-27.8510612627
 21
30.7090898113
 31
0.0
 11
-27.9481793299
 21
30.7581311248
 31
0.0
 11
-28.0455185805
 21
30.8073264864
 31
0.0
 11
-28.1430986708
 21
30.8566880253
 31
0.0
 11
-28.2414474529
 21
30.9064856164
 31
0.0
 11
-28.3403889111
 21
30.9566328618
 31
0.0
 11
-28.438091655
 21
31.0062030672
 31
0.0
 11
-28.5317143936
 21
31.053758871
 31
0.0
 11
-28.6155555882
 21
31.09641453
 31
0.0
  0
SPLINE
  5
393
100
AcDbEntity
  8
RACCORDO
100
AcDbSpline
 62
253
  6
CONTINUOUS
 70
0
 71
3
 72
15
 73
11
 74
9
 42
0.0000001
 43
0.0000001
 44
0.0000000001
 12
-0.5331525692
 22
-1.1266337235
 32
0.0
 13
1.1198813204
 23
-0.560234997
 33
0.0
 40
0.0
 40
0.0
 40
0.0
 40
0.0
 40
0.1697363369
 40
0.3339135035
 40
0.4884335758
 40
0.6302612898
 40
0.7581051556
 40
0.8731660931
 40
0.9797323378
 40
1.0
 40
1.0
 40
1.0
 40
1.0
 10
-28.6155555882
 20
31.09641453
 30
0.0
 10
-28.6457207096
 20
31.0326709696
 30
0.0
 10
-28.6963238387
 20
30.9029912438
 30
0.0
 10
-28.7456920458
 20
30.7055475635
 30
0.0
 10
-28.7641145059
 20
30.5142827574
 30
0.0
 10
-28.7510528809
 20
30.3375173155
 30
0.0
 10
-28.7064353382
 20
30.1825628409
 30
0.0
 10
-28.6309263885
 20
30.0561920212
 30
0.0
 10
-28.5533976165
 20
29.9891649617
 30
0.0
 10
-28.5068652889
 20
29.9638836856
 30
0.0
 10
-28.4992994968
 20
29.960098801
 30
0.0
 11
-28.6155555882
 21
31.09641453
 31
0.0
 11
-28.6928116077
 21
30.8994625263
 31
0.0
 11
-28.7415029583
 21
30.7007066455
 31
0.0
 11
-28.7589183582
 21
30.5088992124
 31
0.0
 11
-28.7442687354
 21
30.3327308054
 31
0.0
 11
-28.6982178478
 21
30.1801834159
 31
0.0
 11
-28.6228522091
 21
30.058168794
 31
0.0
 11
-28.5215865512
 21
29.9722152845
 31
0.0
 11
-28.4992994968
 21
29.960098801
 31
0.0
  0
SPLINE
  5
394
100
AcDbEntity
  8
RACCORDO
100
AcDbSpline
 62
253
  6
CONTINUOUS
 70
0
 71
3
 72
65
 73
61
 74
59
 42
0.0000001
 43
0.0000001
 44
0.0000000001
 12
-1.9470887731
 22
1.0044216529
 32
0.0
 13
-0.0008510444
 23
-2.1908940693
 33
0.0
 40
0.0
 40
0.0
 40
0.0
 40
0.0
 40
0.0256082886
 40
0.0497793072
 40
0.0733162779
 40
0.0966573128
 40
0.119512164
 40
0.1411347865
 40
0.1631299461
 40
0.1870525727
 40
0.2126981064
 40
0.2400186611
 40
0.2694409765
 40
0.3010385209
 40
0.3322162134
 40
0.3606213907
 40
0.3855534916
 40
0.4077831846
 40
0.4276578633
 40
0.4452984445
 40
0.4613950838
 40
0.4772310707
 40
0.4934854018
 40
0.5101145356
 40
0.5261835455
 40
0.5404849445
 40
0.5529269383
 40
0.5639210404
 40
0.5737982244
 40
0.5829053594
 40
0.5917196722
 40
0.6007175682
 40
0.609702018
 40
0.6185204939
 40
0.6272136158
 40
0.6360131936
 40
0.6455754409
 40
0.6566284721
 40
0.6695671719
 40
0.6833107032
 40
0.6967692129
 40
0.7091171
 40
0.7203888258
 40
0.7309388149
 40
0.7411683073
 40
0.7515264243
 40
0.7620862083
 40
0.7728589533
 40
0.7838881126
 40
0.795371637
 40
0.8075471481
 40
0.8206500112
 40
0.8349528963
 40
0.8509221978
 40
0.8691225624
 40
0.8902263511
 40
0.9149942162
 40
0.9429579187
 40
0.9718463152
 40
1.0
 40
1.0
 40
1.0
 40
1.0
 10
-28.6155571868
 20
31.0964114995
 30
0.0
 10
-28.6321777239
 20
31.1049853394
 30
0.0
 10
-28.6647755351
 20
31.1210985933
 30
0.0
 10
-28.7135989322
 20
31.1431041636
 30
0.0
 10
-28.7616489232
 20
31.1627168148
 30
0.0
 10
-28.8094937261
 20
31.1801970844
 30
0.0
 10
-28.8566492453
 20
31.1953836139
 30
0.0
 10
-28.9034184446
 20
31.2084389503
 30
0.0
 10
-28.9514370154
 20
31.2197754357
 30
0.0
 10
-29.0027997321
 20
31.2295352231
 30
0.0
 10
-29.0584440424
 20
31.2372588243
 30
0.0
 10
-29.1184470778
 20
31.2421733263
 30
0.0
 10
-29.1830036129
 20
31.2432848678
 30
0.0
 10
-29.2502968863
 20
31.2394465758
 30
0.0
 10
-29.3163304854
 20
31.2303039573
 30
0.0
 10
-29.376666062
 20
31.2170149858
 30
0.0
 10
-29.4295940002
 20
31.2012333049
 30
0.0
 10
-29.4755044982
 20
31.1841399603
 30
0.0
 10
-29.5154234828
 20
31.1664678568
 30
0.0
 10
-29.5503182019
 20
31.1486735389
 30
0.0
 10
-29.5817386621
 20
31.1306630512
 30
0.0
 10
-29.6114288392
 20
31.1117480569
 30
0.0
 10
-29.640517815
 20
31.0912372172
 30
0.0
 10
-29.6687328715
 20
31.0692613511
 30
0.0
 10
-29.6948150036
 20
31.0469310538
 30
0.0
 10
-29.7176901523
 20
31.0256052929
 30
0.0
 10
-29.7371472432
 20
31.0060797377
 30
0.0
 10
-29.7537644329
 20
30.9883055258
 30
0.0
 10
-29.7682695215
 20
30.9719036694
 30
0.0
 10
-29.7813409296
 20
30.9563680975
 30
0.0
 10
-29.7936578125
 20
30.9410436564
 30
0.0
 10
-29.8055810176
 20
30.9255239178
 30
0.0
 10
-29.8171845369
 20
30.9097600579
 30
0.0
 10
-29.8283230621
 20
30.8939355926
 30
0.0
 10
-29.8390444381
 20
30.8779880396
 30
0.0
 10
-29.8497140546
 20
30.8613565939
 30
0.0
 10
-29.8609073782
 20
30.843019465
 30
0.0
 10
-29.8731623436
 20
30.8217965268
 30
0.0
 10
-29.8862953744
 20
30.7975649903
 30
0.0
 10
-29.8995477108
 20
30.771412663
 30
0.0
 10
-29.9119191583
 20
30.7453095611
 30
0.0
 10
-29.9229208184
 20
30.7205645725
 30
0.0
 10
-29.932558509
 20
30.6975448726
 30
0.0
 10
-29.9411598643
 20
30.675773977
 30
0.0
 10
-29.9491001683
 20
30.6544640681
 30
0.0
 10
-29.9566254727
 20
30.6329965747
 30
0.0
 10
-29.9638758986
 20
30.6110166382
 30
0.0
 10
-29.9708727262
 20
30.5884411057
 30
0.0
 10
-29.9776577521
 20
30.5650976585
 30
0.0
 10
-29.9842998377
 20
30.5406498366
 30
0.0
 10
-29.9908743824
 20
30.5146186324
 30
0.0
 10
-29.9974303118
 20
30.4864639755
 30
0.0
 10
-30.0040016819
 20
30.4554740808
 30
0.0
 10
-30.0105894147
 20
30.4206899304
 30
0.0
 10
-30.0171443232
 20
30.3808552577
 30
0.0
 10
-30.0235087331
 20
30.3344923052
 30
0.0
 10
-30.0292811415
 20
30.2808721368
 30
0.0
 10
-30.033844381
 20
30.2214301896
 30
0.0
 10
-30.0366737871
 20
30.1594056455
 30
0.0
 10
-30.0373131162
 20
30.1177455797
 30
0.0
 10
-30.0373211029
 20
30.0971849993
 30
0.0
 11
-28.6155571868
 21
31.0964114995
 31
0.0
 11
-28.665862717
 21
31.1212536106
 31
0.0
 11
-28.7141480937
 21
31.1429993161
 31
0.0
 11
-28.7618975084
 21
31.1624710976
 31
0.0
 11
-28.8099358466
 21
31.1800035358
 31
0.0
 11
-28.857603119
 21
31.1953362644
 31
0.0
 11
-28.9032353837
 21
31.2080597115
 31
0.0
 11
-28.9501379215
 21
31.2191203734
 31
0.0
 11
-29.0016321478
 21
31.228885444
 31
0.0
 11
-29.0572888925
 21
31.2365839258
 31
0.0
 11
-29.1169489395
 21
31.2414288098
 31
0.0
 11
-29.1814014117
 21
31.2424883833
 31
0.0
 11
-29.2505130994
 21
31.2384964866
 31
0.0
 11
-29.3181702594
 21
31.2290965608
 31
0.0
 11
-29.3789413912
 21
31.2156882283
 31
0.0
 11
-29.4312818088
 21
31.2000607544
 31
0.0
 11
-29.4769213274
 21
31.1830605366
 31
0.0
 11
-29.5167342642
 21
31.1654267426
 31
0.0
 11
-29.5511657846
 21
31.1478714478
 31
0.0
 11
-29.5817604625
 21
31.130331241
 31
0.0
 11
-29.6110220161
 21
31.1116898197
 31
0.0
 11
-29.6401277599
 21
31.0911706565
 31
0.0
 11
-29.6688744623
 21
31.0687883691
 31
0.0
 11
-29.6956205039
 21
31.0458956503
 31
0.0
 11
-29.7185404789
 21
31.0245316058
 31
0.0
 11
-29.7377829602
 21
31.0052239639
 31
0.0
 11
-29.7542349048
 21
30.9876309827
 31
0.0
 11
-29.7685720501
 21
30.9714220332
 31
0.0
 11
-29.7814199834
 21
30.9561562668
 31
0.0
 11
-29.793518872
 21
30.9411050082
 31
0.0
 11
-29.8055329848
 21
30.9254755249
 31
0.0
 11
-29.8171994047
 21
30.9096213871
 31
0.0
 11
-29.8283184697
 21
30.8938213162
 31
0.0
 11
-29.8389443995
 21
30.8780153454
 31
0.0
 11
-29.8493549374
 21
30.8617888736
 31
0.0
 11
-29.8602722172
 21
30.8439084329
 31
0.0
 11
-29.87238605
 21
30.8229401046
 31
0.0
 11
-29.8859030607
 21
30.7980230193
 31
0.0
 11
-29.8995213981
 21
30.7711680285
 31
0.0
 11
-29.9121536331
 21
30.7445248128
 31
0.0
 11
-29.923145491
 21
30.7198056048
 31
0.0
 11
-29.9326823619
 21
30.6970262506
 31
0.0
 11
-29.9411743345
 21
30.6755288263
 31
0.0
 11
-29.9489992388
 21
30.6545274745
 31
0.0
 11
-29.9565110172
 21
30.6331132296
 31
0.0
 11
-29.9637614155
 21
30.6111433168
 31
0.0
 11
-29.970751477
 21
30.5886002282
 31
0.0
 11
-29.9774983264
 21
30.5653975245
 31
0.0
 11
-29.9840968918
 21
30.5411190639
 31
0.0
 11
-29.9906310698
 21
30.5152564682
 31
0.0
 11
-29.997143025
 21
30.4872978282
 31
0.0
 11
-30.0036438325
 21
30.4566434452
 31
0.0
 11
-30.0101569648
 21
30.422267977
 31
0.0
 11
-30.0166376958
 21
30.3829230706
 31
0.0
 11
-30.0229394004
 21
30.3371183566
 31
0.0
 11
-30.0287722043
 21
30.283168978
 31
0.0
 11
-30.0334815092
 21
30.2220847269
 31
0.0
 11
-30.0363752523
 21
30.1588594926
 31
0.0
 11
-30.0373211029
 21
30.0971849993
 31
0.0
  0
SPLINE
  5
395
100
AcDbEntity
  8
RACCORDO
100
AcDbSpline
 62
253
  6
CONTINUOUS
 70
0
 71
3
 72
17
 73
13
 74
11
 42
0.0000001
 43
0.0000001
 44
0.0000000001
 12
0.294328744
 22
-1.8012031383
 32
0.0
 13
1.6829933067
 23
0.7060422682
 33
0.0
 40
0.0
 40
0.0
 40
0.0
 40
0.0
 40
0.0627804798
 40
0.1351495533
 40
0.219069874
 40
0.3191782375
 40
0.427530818
 40
0.5434883782
 40
0.6629047039
 40
0.7815088919
 40
0.8951179385
 40
1.0
 40
1.0
 40
1.0
 40
1.0
 10
-30.0373211029
 20
30.0971849993
 30
0.0
 10
-30.0311617363
 20
30.0594915336
 30
0.0
 10
-29.9986735961
 20
29.9813953081
 30
0.0
 10
-29.9081450792
 20
29.8803695652
 30
0.0
 10
-29.7723405505
 20
29.8018714748
 30
0.0
 10
-29.6156974156
 20
29.7159039239
 30
0.0
 10
-29.4216648654
 20
29.6714575911
 30
0.0
 10
-29.2150335659
 20
29.6399728305
 30
0.0
 10
-28.9991556963
 20
29.6334782057
 30
0.0
 10
-28.7854602688
 20
29.6494001342
 30
0.0
 10
-28.5835525018
 20
29.6878369933
 30
0.0
 10
-28.4566772784
 20
29.7292253462
 30
0.0
 10
-28.3978386759
 20
29.7539090691
 30
0.0
 11
-30.0373211029
 21
30.0971849993
 31
0.0
 11
-29.9959376021
 21
29.990339212
 31
0.0
 11
-29.9090171639
 21
29.8908905909
 31
0.0
 11
-29.7806818564
 21
29.807291845
 31
0.0
 11
-29.6171170962
 21
29.7258767308
 31
0.0
 11
-29.4260533493
 21
29.6748759601
 31
0.0
 11
-29.2166151226
 21
29.6444742292
 31
0.0
 11
-28.9987882212
 21
29.637275375
 31
0.0
 11
-28.7829555643
 21
29.653790631
 31
0.0
 11
-28.5794049348
 21
29.6932864701
 31
0.0
 11
-28.3978386759
 21
29.7539090691
 31
0.0
  0
SPLINE
  5
396
100
AcDbEntity
  8
RACCORDO
100
AcDbSpline
 62
253
  6
CONTINUOUS
 70
0
 71
3
 72
44
 73
40
 74
38
 42
0.0000001
 43
0.0000001
 44
0.0000000001
 12
-0.0036598799
 22
-9.0974612134
 32
0.0
 13
-0.0000057306
 23
-9.0974619496
 33
0.0
 40
0.0
 40
0.0
 40
0.0
 40
0.0
 40
0.0129072418
 40
0.0262508672
 40
0.0396727317
 40
0.0528045602
 40
0.0653461298
 40
0.0773777278
 40
0.0892480351
 40
0.1012969896
 40
0.1137739644
 40
0.1266062371
 40
0.1394637818
 40
0.1522075387
 40
0.1649321144
 40
0.1779027036
 40
0.1915261446
 40
0.2062070348
 40
0.2222509848
 40
0.2396963493
 40
0.2585052657
 40
0.2787072254
 40
0.3004544035
 40
0.3239075815
 40
0.3491963625
 40
0.3764495159
 40
0.4058198233
 40
0.4374724573
 40
0.4715759482
 40
0.5083056462
 40
0.5478501805
 40
0.5904312789
 40
0.6363231754
 40
0.6858310478
 40
0.7392751347
 40
0.7970023241
 40
0.8593894503
 40
0.926866232
 40
1.0
 40
1.0
 40
1.0
 40
1.0
 10
-30.0373209759
 20
30.0971851
 30
0.0
 10
-30.0373367222
 20
30.0580440561
 30
0.0
 10
-30.0373281948
 20
29.9784386308
 30
0.0
 10
-30.0373507722
 20
29.8581315756
 30
0.0
 10
-30.0374175855
 20
29.7371434807
 30
0.0
 10
-30.0374856135
 20
29.6185876125
 30
0.0
 10
-30.0375363871
 20
29.5042477008
 30
0.0
 10
-30.0375702544
 20
29.3937333301
 30
0.0
 10
-30.0375930459
 20
29.2847128061
 30
0.0
 10
-30.0376082047
 20
29.1743416812
 30
0.0
 10
-30.0376174159
 20
29.0610534079
 30
0.0
 10
-30.0376229864
 20
28.9453130949
 30
0.0
 10
-30.0376264844
 20
28.8287637684
 30
0.0
 10
-30.0376287138
 20
28.7125410317
 30
0.0
 10
-30.0376291655
 20
28.5959754887
 30
0.0
 10
-30.0376275492
 20
28.476742315
 30
0.0
 10
-30.0376233501
 20
28.3515766425
 30
0.0
 10
-30.0376156765
 20
28.2170910426
 30
0.0
 10
-30.0376032949
 20
28.0710155081
 30
0.0
 10
-30.0375863015
 20
27.9124217872
 30
0.0
 10
-30.0375654691
 20
27.7412189549
 30
0.0
 10
-30.0375427275
 20
27.5569709275
 30
0.0
 10
-30.0375196485
 20
27.3586392358
 30
0.0
 10
-30.0374976383
 20
27.1448818228
 30
0.0
 10
-30.0374770369
 20
26.9144276093
 30
0.0
 10
-30.037458717
 20
26.6660297756
 30
0.0
 10
-30.0374437563
 20
26.398333638
 30
0.0
 10
-30.0374336027
 20
26.1098639389
 30
0.0
 10
-30.0374277998
 20
25.7990769809
 30
0.0
 10
-30.0374244864
 20
25.4643579353
 30
0.0
 10
-30.037420333
 20
25.1039306524
 30
0.0
 10
-30.0374098842
 20
24.715719119
 30
0.0
 10
-30.0373938109
 20
24.2972938893
 30
0.0
 10
-30.0373812787
 20
23.8459267847
 30
0.0
 10
-30.0373846957
 20
23.3586693041
 30
0.0
 10
-30.0374000859
 20
22.8323556502
 30
0.0
 10
-30.037407204
 20
22.2634880262
 30
0.0
 10
-30.0373499848
 20
21.647900151
 30
0.0
 10
-30.0372878072
 20
21.2215004453
 30
0.0
 10
-30.0372879469
 20
20.9997232214
 30
0.0
 11
-30.0373209759
 21
30.0971851
 31
0.0
 11
-30.0373340097
 21
29.9797619595
 31
0.0
 11
-30.0373580821
 21
29.8583688374
 31
0.0
 11
-30.0374185151
 21
29.7362639506
 31
0.0
 11
-30.0374839978
 21
29.616797659
 31
0.0
 11
-30.0375344028
 21
29.5027012174
 31
0.0
 11
-30.0375686155
 21
29.3932442177
 31
0.0
 11
-30.0375916516
 21
29.2852545511
 31
0.0
 11
-30.0376070206
 21
29.1756396473
 31
0.0
 11
-30.0376167094
 21
29.0621308441
 31
0.0
 11
-30.0376226306
 21
28.9453897318
 31
0.0
 11
-30.0376262826
 21
28.8284187085
 31
0.0
 11
-30.0376284189
 21
28.7124828649
 31
0.0
 11
-30.0376288295
 21
28.5967215215
 31
0.0
 11
-30.0376271925
 21
28.4787220796
 31
0.0
 11
-30.0376229902
 21
28.354783344
 31
0.0
 11
-30.037615323
 21
28.2212245042
 31
0.0
 11
-30.0376031333
 21
28.0752652799
 31
0.0
 11
-30.0375863746
 21
27.9165567408
 31
0.0
 11
-30.0375659351
 21
27.7454433412
 31
0.0
 11
-30.0375435143
 21
27.5616567828
 31
0.0
 11
-30.0375206756
 21
27.3638126584
 31
0.0
 11
-30.037498676
 21
27.1504482658
 31
0.0
 11
-30.0374781468
 21
26.9203845437
 31
0.0
 11
-30.0374599011
 21
26.6724500179
 31
0.0
 11
-30.0374450299
 21
26.4052547648
 31
0.0
 11
-30.0374346279
 21
26.1172961311
 31
0.0
 11
-30.0374283853
 21
25.8070409207
 31
0.0
 11
-30.0374244838
 21
25.4728938908
 31
0.0
 11
-30.0374195504
 21
25.1131389944
 31
0.0
 11
-30.0374094398
 21
24.7257590721
 31
0.0
 11
-30.037394945
 21
24.3082592905
 31
0.0
 11
-30.0373841209
 21
23.8578633049
 31
0.0
 11
-30.0373863365
 21
23.3716577584
 31
0.0
 11
-30.0373982652
 21
22.8464868495
 31
0.0
 11
-30.0373974257
 21
22.2789223422
 31
0.0
 11
-30.0373463878
 21
21.6650548904
 31
0.0
 11
-30.0372879469
 21
20.9997232214
 31
0.0
  0
SPLINE
  5
397
100
AcDbEntity
  8
RACCORDO
100
AcDbSpline
 62
253
  6
CONTINUOUS
 70
0
 71
3
 72
18
 73
14
 74
12
 42
0.0000001
 43
0.0000001
 44
0.0000000001
 12
0.3152258383
 22
-1.7950488969
 32
0.0
 13
1.680597966
 23
0.7050945667
 33
0.0
 40
0.0
 40
0.0
 40
0.0
 40
0.0
 40
0.0570921538
 40
0.1218905348
 40
0.1969600518
 40
0.2826452837
 40
0.3777952164
 40
0.4802862132
 40
0.5873816103
 40
0.6960037572
 40
0.8029678674
 40
0.9052056317
 40
1.0
 40
1.0
 40
1.0
 40
1.0
 10
-30.0372879642
 20
20.9997232874
 30
0.0
 10
-30.0312889901
 20
20.9655622181
 30
0.0
 10
-30.0031820473
 20
20.8949836231
 30
0.0
 10
-29.9249029933
 20
20.8026460044
 30
0.0
 10
-29.8137349818
 20
20.720946798
 30
0.0
 10
-29.6736795907
 20
20.6520578469
 30
0.0
 10
-29.5097450793
 20
20.598116302
 30
0.0
 10
-29.3279743903
 20
20.5611080984
 30
0.0
 10
-29.1352350264
 20
20.542439005
 30
0.0
 10
-28.9388927477
 20
20.5428359653
 30
0.0
 10
-28.7464550338
 20
20.5622879103
 30
0.0
 10
-28.5653259762
 20
20.6000208396
 30
0.0
 10
-28.4514367414
 20
20.638155264
 30
0.0
 10
-28.3983330006
 20
20.6604349287
 30
0.0
 11
-30.0372879642
 21
20.9997232874
 31
0.0
 11
-30.0004973961
 21
20.9023931729
 31
0.0
 11
-29.9261202424
 21
20.8106612895
 31
0.0
 11
-29.8170591436
 21
20.7280528888
 31
0.0
 11
-29.6775883039
 21
20.6578054697
 31
0.0
 11
-29.5131737131
 21
20.6026720926
 31
0.0
 11
-29.3302589295
 21
20.5648134852
 31
0.0
 11
-29.1360125505
 21
20.5457133608
 31
0.0
 11
-28.9380472697
 21
20.5461202708
 31
0.0
 11
-28.7441215273
 21
20.5660182681
 31
0.0
 11
-28.5618354508
 21
20.6046275318
 31
0.0
 11
-28.3983330006
 21
20.6604349287
 31
0.0
  0
SPLINE
  5
398
100
AcDbEntity
  8
RACCORDO
100
AcDbSpline
 62
253
  6
CONTINUOUS
 70
0
 71
3
 72
17
 73
13
 74
11
 42
0.0000001
 43
0.0000001
 44
0.0000000001
 12
0.3150144481
 22
-1.7947463661
 32
0.0
 13
1.6799461765
 23
0.7057828739
 33
0.0
 40
0.0
 40
0.0
 40
0.0
 40
0.0
 40
0.0631288515
 40
0.1359911801
 40
0.2215159339
 40
0.3196033399
 40
0.428216576
 40
0.5441219243
 40
0.6633952374
 40
0.7818211455
 40
0.8952561323
 40
1.0
 40
1.0
 40
1.0
 40
1.0
 10
-30.0372879633
 20
0.6478518632
 30
0.0
 10
-30.0306591299
 20
0.6100851043
 30
0.0
 10
-29.9974346274
 20
0.5317034273
 30
0.0
 10
-29.9047603768
 20
0.4318083913
 30
0.0
 10
-29.7737612538
 20
0.3454933891
 30
0.0
 10
-29.6098369677
 20
0.2755512727
 30
0.0
 10
-29.4200530938
 20
0.2246480078
 30
0.0
 10
-29.2128789225
 20
0.1950938327
 30
0.0
 10
-28.9977962191
 20
0.1882521434
 30
0.0
 10
-28.7846943335
 20
0.2044552025
 30
0.0
 10
-28.5834523329
 20
0.2429176467
 30
0.0
 10
-28.4569876872
 20
0.2842749605
 30
0.0
 10
-28.3983330006
 20
0.3089171032
 30
0.0
 11
-30.0372879633
 21
0.6478518632
 31
0.0
 11
-29.9947120701
 21
0.5409887781
 31
0.0
 11
-29.9069605939
 21
0.4413537439
 31
0.0
 11
-29.7781787461
 21
0.3535934402
 31
0.0
 11
-29.6144692348
 21
0.2818666511
 31
0.0
 11
-29.4235899206
 21
0.2295723646
 31
0.0
 11
-29.2145861849
 21
0.1991886999
 31
0.0
 11
-28.9973622858
 21
0.1921554754
 31
0.0
 11
-28.7822120132
 21
0.2088059786
 31
0.0
 11
-28.5793308875
 21
0.2483511715
 31
0.0
 11
-28.3983330006
 21
0.3089171032
 31
0.0
  0
SPLINE
  5
399
100
AcDbEntity
  8
RACCORDO
100
AcDbSpline
 62
253
  6
CONTINUOUS
 70
0
 71
3
 72
40
 73
36
 74
34
 42
0.0000001
 43
0.0000001
 44
0.0000000001
 12
0.0000067633
 22
-9.0899411474
 32
0.0
 13
0.0036259845
 23
-9.0899404242
 33
0.0
 40
0.0
 40
0.0
 40
0.0
 40
0.0
 40
0.0787131017
 40
0.1511827664
 40
0.2180169031
 40
0.2796998982
 40
0.3366617248
 40
0.3892891735
 40
0.4379378384
 40
0.4829344707
 40
0.5245738648
 40
0.5631221385
 40
0.5988203851
 40
0.6318889865
 40
0.6625299616
 40
0.6909285488
 40
0.7172555019
 40
0.741653586
 40
0.7642559207
 40
0.78522451
 40
0.8047310512
 40
0.8228416162
 40
0.839528109
 40
0.8547779551
 40
0.8688644728
 40
0.8822072795
 40
0.8952406422
 40
0.9082771127
 40
0.9213368462
 40
0.9343833406
 40
0.9474001494
 40
0.9604559431
 40
0.9737131346
 40
0.9870976459
 40
1.0
 40
1.0
 40
1.0
 40
1.0
 10
-30.037287888
 20
0.6478518426
 30
0.0
 10
-30.0372877105
 20
0.4093526888
 30
0.0
 10
-30.0373599601
 20
-0.0487281242
 30
0.0
 10
-30.0374097668
 20
-0.7093150621
 30
0.0
 10
-30.0373959301
 20
-1.318301113
 30
0.0
 10
-30.0373811594
 20
-1.8802987179
 30
0.0
 10
-30.0373847635
 20
-2.3992503376
 30
0.0
 10
-30.037403218
 20
-2.878708192
 30
0.0
 10
-30.0374174285
 20
-3.3219117426
 30
0.0
 10
-30.0374240314
 20
-3.7318217031
 30
0.0
 10
-30.0374271972
 20
-4.1111276764
 30
0.0
 10
-30.0374332958
 20
-4.4622597234
 30
0.0
 10
-30.0374455236
 20
-4.7874224369
 30
0.0
 10
-30.0374635169
 20
-5.0886261904
 30
0.0
 10
-30.0374858833
 20
-5.3677121185
 30
0.0
 10
-30.0375108533
 20
-5.6263709841
 30
0.0
 10
-30.0375380716
 20
-5.866114012
 30
0.0
 10
-30.037565548
 20
-6.0882945087
 30
0.0
 10
-30.0375904737
 20
-6.2942392685
 30
0.0
 10
-30.0376097412
 20
-6.4853627497
 30
0.0
 10
-30.0376219451
 20
-6.6628762575
 30
0.0
 10
-30.037627987
 20
-6.8274150971
 30
0.0
 10
-30.0376293276
 20
-6.9790562342
 30
0.0
 10
-30.037627826
 20
-7.1185045867
 30
0.0
 10
-30.03762434
 20
-7.247821636
 30
0.0
 10
-30.0376195287
 20
-7.3704227841
 30
0.0
 10
-30.03761128
 20
-7.4898423095
 30
0.0
 10
-30.0375968736
 20
-7.6084041284
 30
0.0
 10
-30.0375735729
 20
-7.7270057344
 30
0.0
 10
-30.037538708
 20
-7.8455477633
 30
0.0
 10
-30.0374859437
 20
-7.9640778482
 30
0.0
 10
-30.0374174136
 20
-8.0832463327
 30
0.0
 10
-30.0373508906
 20
-8.2035289511
 30
0.0
 10
-30.0373279422
 20
-8.3233466671
 30
0.0
 10
-30.0373368684
 20
-8.4029953569
 30
0.0
 10
-30.0373212738
 20
-8.4420892338
 30
0.0
 11
-30.037287888
 21
0.6478518426
 31
0.0
 11
-30.0373527212
 21
-0.067645616
 31
0.0
 11
-30.0373998459
 21
-0.726390602
 31
0.0
 11
-30.0373952004
 21
-1.3339089709
 31
0.0
 11
-30.037384012
 21
-1.8946037659
 31
0.0
 11
-30.0373876846
 21
-2.4123834173
 31
0.0
 11
-30.0374031495
 21
-2.8907638291
 31
0.0
 11
-30.0374165615
 21
-3.3329773298
 31
0.0
 11
-30.0374236456
 21
-3.7419940692
 31
0.0
 11
-30.0374278665
 21
-4.1204937103
 31
0.0
 11
-30.037434673
 21
-4.4708952497
 31
0.0
 11
-30.037447066
 21
-4.79539021
 31
0.0
 11
-30.0374650174
 21
-5.0959818504
 31
0.0
 11
-30.0374872178
 21
-5.3745065101
 31
0.0
 11
-30.0375122181
 21
-5.6326479944
 31
0.0
 11
-30.0375391548
 21
-5.8719584471
 31
0.0
 11
-30.0375661197
 21
-6.093735594
 31
0.0
 11
-30.0375903545
 21
-6.2991894853
 31
0.0
 11
-30.0376091325
 21
-6.4897927268
 31
0.0
 11
-30.0376212543
 21
-6.6671060378
 31
0.0
 11
-30.0376273492
 21
-6.8317300084
 31
0.0
 11
-30.0376288481
 21
-6.9834092454
 31
0.0
 11
-30.0376273992
 21
-7.1220294489
 31
0.0
 11
-30.03762401
 21
-7.2500750659
 31
0.0
 11
-30.0376188819
 21
-7.371360393
 31
0.0
 11
-30.0376102454
 21
-7.4898328931
 31
0.0
 11
-30.0375954032
 21
-7.6083336416
 31
0.0
 11
-30.037571632
 21
-7.7270458484
 31
0.0
 11
-30.0375356928
 21
-7.8456377086
 31
0.0
 11
-30.0374834382
 21
-7.9639597234
 31
0.0
 11
-30.0374181966
 21
-8.0826361018
 31
0.0
 11
-30.0373583304
 21
-8.2031431777
 31
0.0
 11
-30.0373339315
 21
-8.3248075946
 31
0.0
 11
-30.0373212738
 21
-8.4420892338
 31
0.0
  0
SPLINE
  5
39A
100
AcDbEntity
  8
RACCORDO
100
AcDbSpline
 62
253
  6
CONTINUOUS
 70
0
 71
3
 72
17
 73
13
 74
11
 42
0.0000001
 43
0.0000001
 44
0.0000000001
 12
0.2935192911
 22
-1.8015526367
 32
0.0
 13
1.6828322819
 23
0.7069801895
 33
0.0
 40
0.0
 40
0.0
 40
0.0
 40
0.0
 40
0.0629689452
 40
0.1356249679
 40
0.2209660058
 40
0.3189461042
 40
0.4275436035
 40
0.5435170688
 40
0.6629211233
 40
0.7815117867
 40
0.8951144518
 40
1.0
 40
1.0
 40
1.0
 40
1.0
 10
-30.0373212738
 20
-8.4420892338
 30
0.0
 10
-30.0311604071
 20
-8.4799031902
 30
0.0
 10
-29.9988199729
 20
-8.5586090974
 30
0.0
 10
-29.90688702
 20
-8.6591079838
 30
0.0
 10
-29.7762865885
 20
-8.7459937321
 30
0.0
 10
-29.6124501112
 20
-8.8164691951
 30
0.0
 10
-29.4224726185
 20
-8.867842136
 30
0.0
 10
-29.2148732516
 20
-8.8977720339
 30
0.0
 10
-28.9992053292
 20
-8.9048703064
 30
0.0
 10
-28.7854411831
 20
-8.8887905396
 30
0.0
 10
-28.5835472507
 20
-8.8503173522
 30
0.0
 10
-28.4566736341
 20
-8.8088595909
 30
0.0
 10
-28.3978387053
 20
-8.784142256
 30
0.0
 11
-30.0373212738
 21
-8.4420892338
 31
0.0
 11
-29.9959377834
 21
-8.549318292
 31
0.0
 11
-29.9090188346
 21
-8.6494833541
 31
0.0
 11
-29.7807074618
 21
-8.7378100372
 31
0.0
 11
-29.6171196997
 21
-8.8100881996
 31
0.0
 11
-29.4260530521
 21
-8.8628726617
 31
0.0
 11
-29.2166148195
 21
-8.893647422
 31
0.0
 11
-28.9987879947
 21
-8.9009455839
 31
0.0
 11
-28.7829554172
 21
-8.8844192765
 31
0.0
 11
-28.5794048698
 21
-8.8448562356
 31
0.0
 11
-28.3978387053
 21
-8.784142256
 31
0.0
  0
SPLINE
  5
39B
100
AcDbEntity
  8
RACCORDO
100
AcDbSpline
 62
253
  6
CONTINUOUS
 70
0
 71
3
 72
19
 73
15
 74
13
 42
0.0000001
 43
0.0000001
 44
0.0000000001
 12
0.0000761471
 22
-0.5478711551
 32
0.0
 13
0.1167646071
 23
-0.5352856398
 33
0.0
 40
0.0
 40
0.0
 40
0.0
 40
0.0
 40
0.1133661361
 40
0.2304787174
 40
0.3459516363
 40
0.4527580789
 40
0.5481408641
 40
0.6350756899
 40
0.7156617344
 40
0.7905291733
 40
0.8593419178
 40
0.9211495798
 40
0.9754011136
 40
1.0
 40
1.0
 40
1.0
 40
1.0
 10
-30.0373212789
 20
-8.4420892023
 30
0.0
 10
-30.0373184014
 20
-8.4627925476
 30
0.0
 10
-30.0366731675
 20
-8.5048853846
 30
0.0
 10
-30.033957671
 20
-8.5680131549
 30
0.0
 10
-30.0296905974
 20
-8.6298537931
 30
0.0
 10
-30.0243072538
 20
-8.6876213849
 30
0.0
 10
-30.018231841
 20
-8.7400755809
 30
0.0
 10
-30.0117510939
 20
-8.7876514994
 30
0.0
 10
-30.004993532
 20
-8.8314006187
 30
0.0
 10
-29.9981035156
 20
-8.8717747428
 30
0.0
 10
-29.9912828301
 20
-8.9086777017
 30
0.0
 10
-29.9847461139
 20
-8.9418016008
 30
0.0
 10
-29.9795070283
 20
-8.966949582
 30
0.0
 10
-29.9764694782
 20
-8.9810256063
 30
0.0
 10
-29.9755120517
 20
-8.9854147498
 30
0.0
 11
-30.0373212789
 21
-8.4420892023
 31
0.0
 11
-30.0364020696
 21
-8.5041924364
 31
0.0
 11
-30.0336662691
 21
-8.5682966904
 31
0.0
 11
-30.0293192475
 21
-8.6314114493
 31
0.0
 11
-30.0238842309
 21
-8.6896746684
 31
0.0
 11
-30.0178728076
 21
-8.741585233
 31
0.0
 11
-30.0114489428
 21
-8.7887791266
 31
0.0
 11
-30.0047153183
 21
-8.832413388
 31
0.0
 11
-29.9978211365
 21
-8.8728475671
 31
0.0
 11
-29.9909718127
 21
-8.9099206818
 31
0.0
 11
-29.9844167696
 21
-8.9431428054
 31
0.0
 11
-29.9783549291
 21
-8.9722409487
 31
0.0
 11
-29.9755120517
 21
-8.9854147498
 31
0.0
  0
SPLINE
  5
39C
100
AcDbEntity
  8
RACCORDO
100
AcDbSpline
 62
253
  6
CONTINUOUS
 70
0
 71
3
 72
17
 73
13
 74
11
 42
0.0000001
 43
0.0000001
 44
0.0000000001
 12
-1.2584778132
 22
1.4017697525
 32
0.0
 13
1.6097165868
 23
0.9785383771
 33
0.0
 40
0.0
 40
0.0
 40
0.0
 40
0.0
 40
0.0751234605
 40
0.1588982507
 40
0.2519408241
 40
0.3535151696
 40
0.4616907615
 40
0.573774545
 40
0.6866722433
 40
0.7972205448
 40
0.9024441647
 40
1.0
 40
1.0
 40
1.0
 40
1.0
 10
-28.615395515
 20
-10.9136748898
 30
0.0
 10
-28.6469092511
 20
-10.8785729583
 30
0.0
 10
-28.7007425755
 20
-10.7925233945
 30
0.0
 10
-28.7480718656
 20
-10.6402403529
 30
0.0
 10
-28.7638756789
 20
-10.4650345764
 30
0.0
 10
-28.7481423504
 20
-10.2747701613
 30
0.0
 10
-28.7016930478
 20
-10.07739641
 30
0.0
 10
-28.6265847042
 20
-9.8815040774
 30
0.0
 10
-28.5261888819
 20
-9.6955920867
 30
0.0
 10
-28.4045854463
 20
-9.5280509894
 30
0.0
 10
-28.2677324651
 20
-9.3857858616
 30
0.0
 10
-28.1653084103
 20
-9.3088257026
 30
0.0
 10
-28.1129626616
 20
-9.277004993
 30
0.0
 11
-28.615395515
 21
-10.9136748898
 31
0.0
 11
-28.6924509669
 21
-10.7949743938
 31
0.0
 11
-28.7411276017
 21
-10.6448534396
 31
0.0
 11
-28.7585548771
 21
-10.4704478239
 31
0.0
 11
-28.7439419705
 21
-10.2796602694
 31
0.0
 11
-28.697947503
 21
-10.0811368691
 31
0.0
 11
-28.6226488538
 21
-9.8838757641
 31
0.0
 11
-28.5214489585
 21
-9.6968189849
 31
0.0
 11
-28.3988327608
 21
-9.5284919959
 31
0.0
 11
-28.2606525854
 21
-9.3863731837
 31
0.0
 11
-28.1129626616
 21
-9.277004993
 31
0.0
  0
SPLINE
  5
39D
100
AcDbEntity
  8
RACCORDO
100
AcDbSpline
 62
253
  6
CONTINUOUS
 70
0
 71
3
 72
50
 73
46
 74
44
 42
0.0000001
 43
0.0000001
 44
0.0000000001
 12
9.2265557886
 22
-4.6041678188
 32
0.0
 13
9.2229149845
 23
-4.6114566259
 33
0.0
 40
0.0
 40
0.0
 40
0.0
 40
0.0
 40
0.0059677745
 40
0.0117342887
 40
0.0172456161
 40
0.0225279473
 40
0.027654551
 40
0.032741795
 40
0.0378491202
 40
0.0429784423
 40
0.048209725
 40
0.0537721394
 40
0.0599120552
 40
0.066826762
 40
0.0745081111
 40
0.0828007303
 40
0.0916141532
 40
0.100963409
 40
0.1109070303
 40
0.1215569484
 40
0.1330479928
 40
0.1455176083
 40
0.1590821271
 40
0.1738081381
 40
0.1897611515
 40
0.2070328661
 40
0.2257462791
 40
0.2460288132
 40
0.2680045117
 40
0.2918020355
 40
0.3175526006
 40
0.3453925143
 40
0.3754750134
 40
0.4079844687
 40
0.4431094426
 40
0.4810372946
 40
0.521938958
 40
0.5660905166
 40
0.6138911042
 40
0.6657481088
 40
0.7220565242
 40
0.7831908102
 40
0.8493656228
 40
0.9213051165
 40
1.0
 40
1.0
 40
1.0
 40
1.0
 10
-28.6153933696
 20
-10.9136767192
 30
0.0
 10
-28.5970393681
 20
-10.9228355976
 30
0.0
 10
-28.5609436908
 20
-10.9408311407
 30
0.0
 10
-28.5078853672
 20
-10.9672600458
 30
0.0
 10
-28.4569344675
 20
-10.9926356398
 30
0.0
 10
-28.4079567259
 20
-11.0170393888
 30
0.0
 10
-28.3602876193
 20
-11.0408010329
 30
0.0
 10
-28.313159684
 20
-11.0642999825
 30
0.0
 10
-28.2660258237
 20
-11.087807988
 30
0.0
 10
-28.2184508262
 20
-11.1115407742
 30
0.0
 10
-28.1694776695
 20
-11.1359749551
 30
0.0
 10
-28.1173975958
 20
-11.161962487
 30
0.0
 10
-28.0601411512
 20
-11.1905356753
 30
0.0
 10
-27.996368792
 20
-11.2223626602
 30
0.0
 10
-27.9259762485
 20
-11.2574944396
 30
0.0
 10
-27.8497441075
 20
-11.2955400993
 30
0.0
 10
-27.7683825968
 20
-11.3361461516
 30
0.0
 10
-27.6819443158
 20
-11.3792878722
 30
0.0
 10
-27.589859562
 20
-11.4252515147
 30
0.0
 10
-27.4911902057
 20
-11.474507233
 30
0.0
 10
-27.3847558956
 20
-11.52764724
 30
0.0
 10
-27.2693625467
 20
-11.5852701047
 30
0.0
 10
-27.1440254764
 20
-11.647868717
 30
0.0
 10
-27.007980387
 20
-11.7158238641
 30
0.0
 10
-26.8605396036
 20
-11.7894802524
 30
0.0
 10
-26.7008420169
 20
-11.8692692617
 30
0.0
 10
-26.5278361623
 20
-11.9557174054
 30
0.0
 10
-26.3403710161
 20
-12.0494006718
 30
0.0
 10
-26.1372781202
 20
-12.1509037082
 30
0.0
 10
-25.9173774598
 20
-12.2608172044
 30
0.0
 10
-25.6794512345
 20
-12.3797505362
 30
0.0
 10
-25.4222056397
 20
-12.5083499558
 30
0.0
 10
-25.1441829735
 20
-12.6473424552
 30
0.0
 10
-24.8437659732
 20
-12.7975375272
 30
0.0
 10
-24.5192322497
 20
-12.9597966707
 30
0.0
 10
-24.1689004788
 20
-13.1349602356
 30
0.0
 10
-23.7908197484
 20
-13.3240020648
 30
0.0
 10
-23.3823865175
 20
-13.5282183907
 30
0.0
 10
-22.9402688202
 20
-13.7492659306
 30
0.0
 10
-22.4607675795
 20
-13.9889810925
 30
0.0
 10
-21.940262874
 20
-14.2491689555
 30
0.0
 10
-21.3757254015
 20
-14.5313345439
 30
0.0
 10
-20.7631254438
 20
-14.8375119077
 30
0.0
 10
-20.0965456316
 20
-15.170696146
 30
0.0
 10
-19.6334382513
 20
-15.4022213883
 30
0.0
 10
-19.3915061779
 20
-15.5231874023
 30
0.0
 11
-28.6153933696
 21
-10.9136767192
 31
0.0
 11
-28.5603229547
 21
-10.9411364938
 31
0.0
 11
-28.5070999981
 21
-10.9676506087
 31
0.0
 11
-28.4562306785
 21
-10.9929880758
 31
0.0
 11
-28.4074783259
 21
-11.0172794765
 31
0.0
 11
-28.3601670154
 21
-11.0408623367
 31
0.0
 11
-28.3132218573
 21
-11.0642699925
 31
0.0
 11
-28.2660937963
 21
-11.0877748715
 31
0.0
 11
-28.218764678
 21
-11.1113848349
 31
0.0
 11
-28.1704962975
 21
-11.1354672126
 31
0.0
 11
-28.1191738794
 21
-11.161076518
 31
0.0
 11
-28.0625241274
 21
-11.1893467705
 31
0.0
 11
-27.9987266071
 21
-11.2211860625
 31
0.0
 11
-27.9278561339
 21
-11.2565561346
 31
0.0
 11
-27.8513458352
 21
-11.2947407826
 31
0.0
 11
-27.7700306335
 21
-11.3353239423
 31
0.0
 11
-27.6837724572
 21
-11.3783760052
 31
0.0
 11
-27.5920319994
 21
-11.4241679622
 31
0.0
 11
-27.4937773865
 21
-11.4732169009
 31
0.0
 11
-27.3877657706
 21
-11.5261459282
 31
0.0
 11
-27.2727300748
 21
-11.5835899962
 31
0.0
 11
-27.1475975533
 21
-11.6460859207
 31
0.0
 11
-27.0117538467
 21
-11.7139403362
 31
0.0
 11
-26.8645949593
 21
-11.7874557419
 31
0.0
 11
-26.7052754888
 21
-11.8670556561
 31
0.0
 11
-26.5326613224
 21
-11.9533078343
 31
0.0
 11
-26.345577457
 21
-12.0468002953
 31
0.0
 11
-26.1428800451
 21
-12.1481054434
 31
0.0
 11
-25.9233827019
 21
-12.2578170769
 31
0.0
 11
-25.6858753722
 21
-12.3765405759
 31
0.0
 11
-25.4291006621
 21
-12.504904023
 31
0.0
 11
-25.1516447886
 21
-12.6436130774
 31
0.0
 11
-24.8518074207
 21
-12.7935181677
 31
0.0
 11
-24.52784959
 21
-12.9554890964
 31
0.0
 11
-24.1780431412
 21
-13.1303895538
 31
0.0
 11
-23.8008107909
 21
-13.3190062279
 31
0.0
 11
-23.3936041
 21
-13.5226079866
 31
0.0
 11
-22.9527382463
 21
-13.743028127
 31
0.0
 11
-22.4744514516
 21
-13.9821363504
 31
0.0
 11
-21.9550978543
 21
-14.2417484216
 31
0.0
 11
-21.39122202
 21
-14.5235874916
 31
0.0
 11
-20.7808508728
 21
-14.8286567994
 31
0.0
 11
-20.1173191779
 21
-15.1603229215
 31
0.0
 11
-19.3915061779
 21
-15.5231874023
 31
0.0
  0
SPLINE
  5
39E
100
AcDbEntity
  8
RACCORDO
100
AcDbSpline
 62
253
  6
CONTINUOUS
 70
0
 71
3
 72
17
 73
13
 74
11
 42
0.0000001
 43
0.0000001
 44
0.0000000001
 12
-1.232952498
 22
1.4164337078
 32
0.0
 13
1.6051876112
 23
0.9745917319
 33
0.0
 40
0.0
 40
0.0
 40
0.0
 40
0.0
 40
0.0756627919
 40
0.1596647074
 40
0.2528774522
 40
0.3545220666
 40
0.4626596282
 40
0.5746112424
 40
0.687309638
 40
0.7976148892
 40
0.9026236943
 40
1.0
 40
1.0
 40
1.0
 40
1.0
 10
-19.3915062709
 20
-15.5231872933
 30
0.0
 10
-19.4226024803
 20
-15.487463517
 30
0.0
 10
-19.4758494033
 20
-15.4009123261
 30
0.0
 10
-19.5215529787
 20
-15.248008555
 30
0.0
 10
-19.5362077764
 20
-15.0730222732
 30
0.0
 10
-19.5195583031
 20
-14.8833106217
 30
0.0
 10
-19.472547817
 20
-14.6868065483
 30
0.0
 10
-19.3972336793
 20
-14.491949545
 30
0.0
 10
-19.2969067985
 20
-14.3071854276
 30
0.0
 10
-19.1758940599
 20
-14.1405270328
 30
0.0
 10
-19.0394896326
 20
-13.9992484426
 30
0.0
 10
-18.9375968554
 20
-13.922677893
 30
0.0
 10
-18.8854944422
 20
-13.8910438455
 30
0.0
 11
-19.3915062709
 21
-15.5231872933
 31
0.0
 11
-19.4675911551
 21
-15.4031891588
 31
0.0
 11
-19.5147843483
 21
-15.2526680203
 31
0.0
 11
-19.5309711705
 21
-15.0783751325
 31
0.0
 11
-19.5154252051
 21
-14.8881322445
 31
0.0
 11
-19.468844109
 21
-14.6904768946
 31
0.0
 11
-19.393318304
 21
-14.4942792704
 31
0.0
 11
-19.2922371649
 21
-14.3083441409
 31
0.0
 11
-19.1701369142
 21
-14.1410157249
 31
0.0
 11
-19.0324970502
 21
-13.9998032268
 31
0.0
 11
-18.8854944422
 21
-13.8910438455
 31
0.0
  0
SPLINE
  5
39F
100
AcDbEntity
  8
RACCORDO
100
AcDbSpline
 62
253
  6
CONTINUOUS
 70
0
 71
3
 72
11
 73
7
 74
5
 42
0.0000001
 43
0.0000001
 44
0.0000000001
 12
-0.0384668867
 22
1.3453829008
 32
0.0
 13
-0.883616027
 23
1.0152623149
 33
0.0
 40
0.0
 40
0.0
 40
0.0
 40
0.0
 40
0.2785571682
 40
0.5373330648
 40
0.7769510816
 40
1.0
 40
1.0
 40
1.0
 40
1.0
 10
10.0172276251
 20
-31.2729473471
 30
0.0
 10
10.0136558827
 20
-31.1480253301
 30
0.0
 10
9.9921035931
 20
-30.9070834674
 30
0.0
 10
9.9112160032
 20
-30.566588494
 30
0.0
 10
9.7838575049
 20
-30.2671917331
 30
0.0
 10
9.6655699448
 20
-30.0943615115
 30
0.0
 10
9.5998734117
 20
-30.0188771245
 30
0.0
 11
10.0172276251
 21
-31.2729473471
 31
0.0
 11
9.9820682989
 21
-30.8996803772
 31
0.0
 11
9.8994904894
 21
-30.5613162646
 31
0.0
 11
9.771112314
 21
-30.2654589216
 31
0.0
 11
9.5998734117
 21
-30.0188771245
 31
0.0
  0
SPLINE
  5
3A0
100
AcDbEntity
  8
RACCORDO
100
AcDbSpline
 62
253
  6
CONTINUOUS
 70
0
 71
3
 72
11
 73
7
 74
5
 42
0.0000001
 43
0.0000001
 44
0.0000000001
 12
-0.0240060509
 22
1.331943593
 32
0.0
 13
-0.8801226064
 23
1.0000171114
 33
0.0
 40
0.0
 40
0.0
 40
0.0
 40
0.0
 40
0.2804149437
 40
0.5397696245
 40
0.7786623476
 40
1.0
 40
1.0
 40
1.0
 40
1.0
 10
19.238203176
 20
-35.8812018717
 30
0.0
 10
19.2359592908
 20
-35.7567029092
 30
0.0
 10
19.2170300169
 20
-35.5169163813
 30
0.0
 10
19.1395637905
 20
-35.1784715022
 30
0.0
 10
19.0153647546
 20
-34.882172931
 30
0.0
 10
18.8986797149
 20
-34.7120041778
 30
0.0
 10
18.8337449577
 20
-34.6382236979
 30
0.0
 11
19.238203176
 21
-35.8812018717
 31
0.0
 11
19.2069072966
 21
-35.5089575861
 31
0.0
 11
19.1276577945
 21
-35.1726674064
 31
0.0
 11
19.0022982621
 21
-34.880154516
 31
0.0
 11
18.8337449577
 21
-34.6382236979
 31
0.0
  0
SPLINE
  5
3A1
100
AcDbEntity
  8
RACCORDO
100
AcDbSpline
 62
253
  6
CONTINUOUS
 70
0
 71
3
 72
11
 73
7
 74
5
 42
0.0000001
 43
0.0000001
 44
0.0000000001
 12
-1.5516530286
 22
0.6209299234
 32
0.0
 13
-1.6699733933
 23
0.0661056471
 33
0.0
 40
0.0
 40
0.0
 40
0.0
 40
0.0
 40
0.2321634686
 40
0.4786705926
 40
0.7359586773
 40
1.0
 40
1.0
 40
1.0
 40
1.0
 10
21.9366872821
 20
-33.9372800043
 30
0.0
 10
21.8166082323
 20
-33.8892275893
 30
0.0
 10
21.5635519463
 20
-33.8035260048
 30
0.0
 10
21.1644182436
 20
-33.7077284751
 30
0.0
 10
20.7412482914
 20
-33.6423160376
 30
0.0
 10
20.4513466821
 20
-33.6200959002
 30
0.0
 10
20.3043660208
 20
-33.6142776927
 30
0.0
 11
21.9366872821
 21
-33.9372800043
 31
0.0
 11
21.5695959953
 21
-33.8115974598
 31
0.0
 11
21.1692051059
 21
-33.7145566759
 31
0.0
 11
20.7443401234
 21
-33.6482965972
 31
0.0
 11
20.3043660208
 21
-33.6142776927
 31
0.0
  0
SPLINE
  5
3A2
100
AcDbEntity
  8
RACCORDO
100
AcDbSpline
 62
253
  6
CONTINUOUS
 70
0
 71
3
 72
11
 73
7
 74
5
 42
0.0000001
 43
0.0000001
 44
0.0000000001
 12
-1.5358872367
 22
0.6164520769
 32
0.0
 13
-1.6533892966
 23
0.0725713518
 33
0.0
 40
0.0
 40
0.0
 40
0.0
 40
0.0
 40
0.2322564247
 40
0.4787485757
 40
0.7359800872
 40
1.0
 40
1.0
 40
1.0
 40
1.0
 10
21.9137898583
 20
-24.8441293343
 30
0.0
 10
21.7948832988
 20
-24.7964043492
 30
0.0
 10
21.5444028367
 20
-24.7111195783
 30
0.0
 10
21.1493973904
 20
-24.6152660141
 30
0.0
 10
20.7306254295
 20
-24.5491412252
 30
0.0
 10
20.4436889657
 20
-24.5260112868
 30
0.0
 10
20.298179733
 20
-24.5196245262
 30
0.0
 11
21.9137898583
 21
-24.8441293343
 31
0.0
 11
21.5503288894
 21
-24.7190528745
 31
0.0
 11
21.1541056956
 21
-24.621985255
 31
0.0
 11
20.7336912278
 21
-24.555026298
 31
0.0
 11
20.298179733
 21
-24.5196245262
 31
0.0
  0
SPLINE
  5
3A3
100
AcDbEntity
  8
RACCORDO
100
AcDbSpline
 62
253
  6
CONTINUOUS
 70
0
 71
3
 72
11
 73
7
 74
5
 42
0.0000001
 43
0.0000001
 44
0.0000000001
 12
-1.5358120053
 22
0.6168531538
 32
0.0
 13
-1.6534527833
 23
0.072939855
 33
0.0
 40
0.0
 40
0.0
 40
0.0
 40
0.0
 40
0.2322642325
 40
0.4787590614
 40
0.7359878577
 40
1.0
 40
1.0
 40
1.0
 40
1.0
 10
21.9137900201
 20
-4.4925323679
 30
0.0
 10
21.7948852878
 20
-4.4447747264
 30
0.0
 10
21.5444078119
 20
-4.3594236773
 30
0.0
 10
21.1494021368
 20
-4.2634698406
 30
0.0
 10
20.7306296342
 20
-4.1972447841
 30
0.0
 10
20.4436902509
 20
-4.1740500209
 30
0.0
 10
20.2981797137
 20
-4.1676310184
 30
0.0
 11
21.9137900201
 21
-4.4925323679
 31
0.0
 11
21.5503294692
 21
-4.3673581815
 31
0.0
 11
21.1541060668
 21
-4.2701903516
 31
0.0
 11
20.733691395
 21
-4.2031310974
 31
0.0
 11
20.2981797137
 21
-4.1676310184
 31
0.0
  0
SPLINE
  5
3A4
100
AcDbEntity
  8
RACCORDO
100
AcDbSpline
 62
253
  6
CONTINUOUS
 70
0
 71
3
 72
11
 73
7
 74
5
 42
0.0000001
 43
0.0000001
 44
0.0000000001
 12
-1.5504938306
 22
0.6228112849
 32
0.0
 13
-1.6694083387
 23
0.0707164333
 33
0.0
 40
0.0
 40
0.0
 40
0.0
 40
0.0
 40
0.2322829907
 40
0.4788334681
 40
0.7360819788
 40
1.0
 40
1.0
 40
1.0
 40
1.0
 10
21.9361362473
 20
4.5999575509
 30
0.0
 10
21.8160851326
 20
4.6481803735
 30
0.0
 10
21.5631430753
 20
4.7342975384
 30
0.0
 10
21.1642336156
 20
4.8309071399
 30
0.0
 10
20.7413858838
 20
4.8973069427
 30
0.0
 10
20.4517023303
 20
4.920287799
 30
0.0
 10
20.3048400152
 20
4.9265089128
 30
0.0
 11
21.9361362473
 21
4.5999575509
 31
0.0
 11
21.5691372469
 21
4.7262553359
 31
0.0
 11
21.1689634779
 21
4.8241025925
 31
0.0
 11
20.7444180028
 21
4.8913468669
 31
0.0
 11
20.3048400152
 21
4.9265089128
 31
0.0
  0
SPLINE
  5
3A5
100
AcDbEntity
  8
RACCORDO
100
AcDbSpline
 62
253
  6
CONTINUOUS
 70
0
 71
3
 72
11
 73
7
 74
5
 42
0.0000001
 43
0.0000001
 44
0.0000000001
 12
-0.0299827581
 22
-1.7563015669
 32
0.0
 13
-0.724383944
 23
-1.6002381265
 33
0.0
 40
0.0
 40
0.0
 40
0.0
 40
0.0
 40
0.2369237028
 40
0.4847096066
 40
0.7402446145
 40
1.0
 40
1.0
 40
1.0
 40
1.0
 10
19.2378948569
 20
9.0698270177
 30
0.0
 10
19.2355269816
 20
8.9311238609
 30
0.0
 10
19.2133584157
 20
8.6474624777
 30
0.0
 10
19.1335343968
 20
8.2207206185
 30
0.0
 10
19.0081450675
 20
7.7911749041
 30
0.0
 10
18.8964143001
 20
7.5103548526
 30
0.0
 10
18.8336934232
 20
7.3717980288
 30
0.0
 11
19.2378948569
 21
9.0698270177
 31
0.0
 11
19.2066637119
 21
8.6548304292
 31
0.0
 11
19.1274795239
 21
8.226843765
 31
0.0
 11
19.0021844596
 21
7.7958238382
 31
0.0
 11
18.8336934232
 21
7.3717980288
 31
0.0
  0
SPLINE
  5
3A6
100
AcDbEntity
  8
RACCORDO
100
AcDbSpline
 62
253
  6
CONTINUOUS
 70
0
 71
3
 72
11
 73
7
 74
5
 42
0.0000001
 43
0.0000001
 44
0.0000000001
 12
-0.0465585762
 22
-1.732865938
 32
0.0
 13
-0.7313981573
 23
-1.5716388884
 33
0.0
 40
0.0
 40
0.0
 40
0.0
 40
0.0
 40
0.2362549302
 40
0.4837417709
 40
0.7394676052
 40
1.0
 40
1.0
 40
1.0
 40
1.0
 10
10.0170923743
 20
13.6482637608
 30
0.0
 10
10.0134258099
 20
13.5117977204
 30
0.0
 10
9.9887049836
 20
13.2326506004
 30
0.0
 10
9.9054229473
 20
12.8128343707
 30
0.0
 10
9.7768709578
 20
12.3899578686
 30
0.0
 10
9.6633893961
 20
12.1135275042
 30
0.0
 10
9.5998717582
 20
11.9770398897
 30
0.0
 11
10.0170923743
 21
13.6482637608
 31
0.0
 11
9.9821803944
 21
13.240208656
 31
0.0
 11
9.8995719772
 21
12.8192207456
 31
0.0
 11
9.7711566638
 21
12.3949294852
 31
0.0
 11
9.5998717582
 21
11.9770398897
 31
0.0
  0
SPLINE
  5
3A7
100
AcDbEntity
  8
RACCORDO
100
AcDbSpline
 62
253
  6
CONTINUOUS
 70
0
 71
3
 72
11
 73
7
 74
5
 42
0.0000001
 43
0.0000001
 44
0.0000000001
 12
-0.0470032518
 22
-1.7327515058
 32
0.0
 13
-0.7317502639
 23
-1.5713620327
 33
0.0
 40
0.0
 40
0.0
 40
0.0
 40
0.0
 40
0.2362444651
 40
0.4837276878
 40
0.7394570231
 40
1.0
 40
1.0
 40
1.0
 40
1.0
 10
-18.9742857174
 20
28.1439528067
 30
0.0
 10
-18.9779871368
 20
28.0075018224
 30
0.0
 10
-19.0027787995
 20
27.7283857186
 30
0.0
 10
-19.0861667338
 20
27.3086225029
 30
0.0
 10
-19.2148244789
 20
26.8857992293
 30
0.0
 10
-19.3283727996
 20
26.6094066441
 30
0.0
 10
-19.3919235969
 20
26.4729375302
 30
0.0
 11
-18.9742857174
 21
28.1439528067
 31
0.0
 11
-19.0093005959
 21
27.7359490044
 31
0.0
 11
-19.0920144572
 21
27.3150140145
 31
0.0
 11
-19.2205352987
 21
26.8907757254
 31
0.0
 11
-19.3919235969
 21
26.4729375302
 31
0.0
  0
SPLINE
  5
3A8
100
AcDbEntity
  8
RACCORDO
100
AcDbSpline
 62
253
  6
CONTINUOUS
 70
0
 71
3
 72
11
 73
7
 74
5
 42
0.0000001
 43
0.0000001
 44
0.0000000001
 12
-0.077953438
 22
-1.7429829924
 32
0.0
 13
-0.7723838456
 23
-1.5644454753
 33
0.0
 40
0.0
 40
0.0
 40
0.0
 40
0.0
 40
0.2358301288
 40
0.4831948889
 40
0.7390782644
 40
1.0
 40
1.0
 40
1.0
 40
1.0
 10
-28.1608735269
 20
32.7692432756
 30
0.0
 10
-28.16700145
 20
32.6322273077
 30
0.0
 10
-28.1971678497
 20
32.3520863365
 30
0.0
 10
-28.2895909959
 20
31.931560512
 30
0.0
 10
-28.4282644817
 20
31.5086021105
 30
0.0
 10
-28.5488873424
 20
31.2327390385
 30
0.0
 10
-28.6160645869
 20
31.0966730956
 30
0.0
 11
-28.1608735269
 21
32.7692432756
 31
0.0
 11
-28.2036553972
 21
32.3600146675
 31
0.0
 11
-28.2953854667
 21
31.9382920522
 31
0.0
 11
-28.4339296163
 21
31.5138869011
 31
0.0
 11
-28.6160645869
 21
31.0966730956
 31
0.0
  0
SPLINE
  5
3A9
100
AcDbEntity
  8
RACCORDO
100
AcDbSpline
 62
253
  6
CONTINUOUS
 70
0
 71
3
 72
11
 73
7
 74
5
 42
0.0000001
 43
0.0000001
 44
0.0000000001
 12
0.9077624475
 22
-0.5650058263
 32
0.0
 13
0.1726246273
 23
-1.0552085021
 33
0.0
 40
0.0
 40
0.0
 40
0.0
 40
0.0
 40
0.2909058519
 40
0.5514541181
 40
0.7852548103
 40
1.0
 40
1.0
 40
1.0
 40
1.0
 10
-30.6855908265
 20
30.9100665626
 30
0.0
 10
-30.5975663571
 20
30.8552787289
 30
0.0
 10
-30.4369723514
 20
30.7405205292
 30
0.0
 10
-30.2383148358
 20
30.5411118857
 30
0.0
 10
-30.0997891799
 20
30.327139559
 30
0.0
 10
-30.0496775904
 20
30.1727232072
 30
0.0
 10
-30.0373208209
 20
30.0971895572
 30
0.0
 11
-30.6855908265
 21
30.9100665626
 31
0.0
 11
-30.4339990934
 21
30.7271684345
 31
0.0
 11
-30.2394618811
 21
30.5277537347
 31
0.0
 11
-30.1062589763
 21
30.3162094856
 31
0.0
 11
-30.0373208209
 21
30.0971895572
 31
0.0
  0
SPLINE
  5
3AA
100
AcDbEntity
  8
RACCORDO
100
AcDbSpline
 62
253
  6
CONTINUOUS
 70
0
 71
3
 72
11
 73
7
 74
5
 42
0.0000001
 43
0.0000001
 44
0.0000000001
 12
0.9038273709
 22
-0.5629530048
 32
0.0
 13
0.184171435
 23
-1.0487615957
 33
0.0
 40
0.0
 40
0.0
 40
0.0
 40
0.0
 40
0.2903836659
 40
0.5508814823
 40
0.7849567316
 40
1.0
 40
1.0
 40
1.0
 40
1.0
 10
-30.6863316614
 20
21.8075284729
 30
0.0
 10
-30.598846093
 20
21.7530376871
 30
0.0
 10
-30.4390796008
 20
21.6389043079
 30
0.0
 10
-30.2409549238
 20
21.4408159822
 30
0.0
 10
-30.1018796477
 20
21.2283209863
 30
0.0
 10
-30.0504895733
 20
21.0748996578
 30
0.0
 10
-30.0372879642
 20
20.999723284
 30
0.0
 11
-30.6863316614
 21
21.8075284729
 31
0.0
 11
-30.4361702022
 21
21.6257979633
 31
0.0
 11
-30.2420264357
 21
21.4276863361
 31
0.0
 11
-30.1081000074
 21
21.2174790679
 31
0.0
 11
-30.0372879642
 21
20.999723284
 31
0.0
  0
SPLINE
  5
3AB
100
AcDbEntity
  8
RACCORDO
100
AcDbSpline
 62
253
  6
CONTINUOUS
 70
0
 71
3
 72
11
 73
7
 74
5
 42
0.0000001
 43
0.0000001
 44
0.0000000001
 12
0.9039098109
 22
-0.5632224965
 32
0.0
 13
0.1841534802
 23
-1.0489804681
 33
0.0
 40
0.0
 40
0.0
 40
0.0
 40
0.0
 40
0.2903626492
 40
0.5508551426
 40
0.784938802
 40
1.0
 40
1.0
 40
1.0
 40
1.0
 10
-30.6863316614
 20
1.4559314005
 30
0.0
 10
-30.5988444456
 20
1.4014184751
 30
0.0
 10
-30.4390740595
 20
1.2872391744
 30
0.0
 10
-30.2409502119
 20
1.0890801882
 30
0.0
 10
-30.1018771611
 20
0.8765150095
 30
0.0
 10
-30.050489386
 20
0.7230502186
 30
0.0
 10
-30.0372879633
 20
0.6478518865
 30
0.0
 11
-30.6863316614
 21
1.4559314005
 31
0.0
 11
-30.4361705126
 21
1.2741335808
 31
0.0
 11
-30.2420265737
 21
1.075952572
 31
0.0
 11
-30.1081000405
 21
0.8656757835
 31
0.0
 11
-30.0372879633
 21
0.6478518865
 31
0.0
  0
SPLINE
  5
3AC
100
AcDbEntity
  8
RACCORDO
100
AcDbSpline
 62
253
  6
CONTINUOUS
 70
0
 71
3
 72
11
 73
7
 74
5
 42
0.0000001
 43
0.0000001
 44
0.0000000001
 12
0.9099597238
 22
-0.5703574922
 32
0.0
 13
0.1721175234
 23
-1.0600518506
 33
0.0
 40
0.0
 40
0.0
 40
0.0
 40
0.0
 40
0.2903479461
 40
0.5507239884
 40
0.7847350236
 40
1.0
 40
1.0
 40
1.0
 40
1.0
 10
-30.6855915091
 20
-7.6234199134
 30
0.0
 10
-30.5975231968
 20
-7.6786206222
 30
0.0
 10
-30.4368293161
 20
-7.7942865994
 30
0.0
 10
-30.2381808559
 20
-7.9951859751
 30
0.0
 10
-30.0997085605
 20
-8.2107529128
 30
0.0
 10
-30.0496713892
 20
-8.366190462
 30
0.0
 10
-30.0373210977
 20
-8.4422544741
 30
0.0
 11
-30.6855915091
 21
-7.6234199134
 31
0.0
 11
-30.4339996104
 21
-7.8076204275
 31
0.0
 11
-30.2394622718
 21
-8.0084843506
 31
0.0
 11
-30.1062592856
 21
-8.2215920643
 31
0.0
 11
-30.0373210977
 21
-8.4422544741
 31
0.0
  0
SPLINE
  5
3AD
100
AcDbEntity
  8
RACCORDO
100
AcDbSpline
 62
253
  6
CONTINUOUS
 70
0
 71
3
 72
11
 73
7
 74
5
 42
0.0000001
 43
0.0000001
 44
0.0000000001
 12
-0.0624091834
 22
1.3715484089
 32
0.0
 13
-0.9266369883
 23
1.013106034
 33
0.0
 40
0.0
 40
0.0
 40
0.0
 40
0.0
 40
0.2770805674
 40
0.5353659756
 40
0.7754623866
 40
1.0
 40
1.0
 40
1.0
 40
1.0
 10
-28.1608816096
 20
-12.1817493936
 30
0.0
 10
-28.1666457335
 20
-12.0550729232
 30
0.0
 10
-28.1931499746
 20
-11.8105923046
 30
0.0
 10
-28.2833451528
 20
-11.465826208
 30
0.0
 10
-28.4210416978
 20
-11.1630603581
 30
0.0
 10
-28.5467064114
 20
-10.9891701753
 30
0.0
 10
-28.616061364
 20
-10.9133433716
 30
0.0
 11
-28.1608816096
 21
-12.1817493936
 31
0.0
 11
-28.2036605271
 21
-11.8037396797
 31
0.0
 11
-28.2953876834
 21
-11.4611908624
 31
0.0
 11
-28.4339290268
 21
-11.1620724093
 31
0.0
 11
-28.616061364
 21
-10.9133433716
 31
0.0
  0
SPLINE
  5
3AE
100
AcDbEntity
  8
RACCORDO
100
AcDbSpline
 62
253
  6
CONTINUOUS
 70
0
 71
3
 72
11
 73
7
 74
5
 42
0.0000001
 43
0.0000001
 44
0.0000000001
 12
-0.0371453905
 22
1.3453726996
 32
0.0
 13
-0.8836599329
 23
1.0151613684
 33
0.0
 40
0.0
 40
0.0
 40
0.0
 40
0.0
 40
0.2784581742
 40
0.5372596661
 40
0.7769097732
 40
1.0
 40
1.0
 40
1.0
 40
1.0
 10
-18.9742857174
 20
-16.7771905791
 30
0.0
 10
-18.9777335299
 20
-16.6523139039
 30
0.0
 10
-18.9991167682
 20
-16.4113855745
 30
0.0
 10
-19.0800936099
 20
-16.0709379955
 30
0.0
 10
-19.2074734058
 20
-15.7715185203
 30
0.0
 10
-19.3257943065
 20
-15.598678153
 30
0.0
 10
-19.3915062714
 20
-15.523187293
 30
0.0
 11
-18.9742857174
 21
-16.7771905791
 31
0.0
 11
-19.0091976817
 21
-16.4040474464
 31
0.0
 11
-19.0918060835
 21
-16.0656679454
 31
0.0
 11
-19.2202213814
 21
-15.7697919907
 31
0.0
 11
-19.3915062714
 21
-15.523187293
 31
0.0
  0
SPLINE
  5
3AF
100
AcDbEntity
  8
RACCORDO
100
AcDbSpline
 62
253
  6
CONTINUOUS
 70
0
 71
3
 72
13
 73
9
 74
7
 42
0.0000001
 43
0.0000001
 44
0.0000000001
 12
1.1634095879
 22
0.6796401195
 32
0.0
 13
1.1899773642
 23
-0.6237793447
 33
0.0
 40
0.0
 40
0.0
 40
0.0
 40
0.0
 40
0.1266616403
 40
0.3198901484
 40
0.5050493042
 40
0.6804656635
 40
0.8457701977
 40
1.0
 40
1.0
 40
1.0
 40
1.0
 10
-34.5713563682
 20
56.4852193508
 30
0.0
 10
-34.5222365793
 20
56.5139141283
 30
0.0
 10
-34.3923562949
 20
56.5764287678
 30
0.0
 10
-34.1704552874
 20
56.6307712876
 30
0.0
 10
-33.9207113043
 20
56.6342814988
 30
0.0
 10
-33.6875602912
 20
56.5942166862
 30
0.0
 10
-33.4763168444
 20
56.5250722044
 30
0.0
 10
-33.3461709893
 20
56.4648438707
 30
0.0
 10
-33.2849943315
 20
56.4327754157
 30
0.0
 11
-34.5713563682
 21
56.4852193508
 31
0.0
 11
-34.4177108977
 21
56.55901521
 31
0.0
 11
-34.165765675
 21
56.621647738
 31
0.0
 11
-33.9170409617
 21
56.626496725
 31
0.0
 11
-33.684572458
 21
56.5877103251
 31
0.0
 11
-33.47325763
 21
56.5193528603
 31
0.0
 11
-33.2849943315
 21
56.4327754157
 31
0.0
  0
SPLINE
  5
3B0
100
AcDbEntity
  8
RACCORDO
100
AcDbSpline
 62
253
  6
CONTINUOUS
 70
0
 71
3
 72
9
 73
5
 74
3
 42
0.0000001
 43
0.0000001
 44
0.0000000001
 12
0.0005251603
 22
-0.1940272437
 32
0.0
 13
0.1169920141
 23
-0.1529611796
 33
0.0
 40
0.0
 40
0.0
 40
0.0
 40
0.0
 40
0.3786967756
 40
1.0
 40
1.0
 40
1.0
 40
1.0
 10
-35.6351105063
 20
26.241926023
 30
0.0
 10
-35.6350442141
 20
26.2174335258
 30
0.0
 10
-35.6256162255
 20
26.152630045
 30
0.0
 10
-35.5934884106
 20
26.0950068912
 30
0.0
 10
-35.5692592388
 20
26.0633284665
 30
0.0
 11
-35.6351105063
 21
26.241926023
 31
0.0
 11
-35.6246481059
 21
26.169381527
 31
0.0
 11
-35.5692592388
 21
26.0633284665
 31
0.0
  0
SPLINE
  5
3B1
100
AcDbEntity
  8
RACCORDO
100
AcDbSpline
 62
253
  6
CONTINUOUS
 70
0
 71
3
 72
10
 73
6
 74
4
 42
0.0000001
 43
0.0000001
 44
0.0000000001
 12
-0.0172612943
 22
-0.3597268018
 32
0.0
 13
0.2981384976
 23
-0.1984495807
 33
0.0
 40
0.0
 40
0.0
 40
0.0
 40
0.0
 40
0.2568509168
 40
0.5922016897
 40
1.0
 40
1.0
 40
1.0
 40
1.0
 10
-35.5209570575
 20
54.7195227108
 30
0.0
 10
-35.5224349172
 20
54.6887239912
 30
0.0
 10
-35.5094260691
 20
54.6165474439
 30
0.0
 10
-35.4399823683
 20
54.5162107412
 30
0.0
 10
-35.3701415966
 20
54.4601000814
 30
0.0
 10
-35.3296148047
 20
54.4331242802
 30
0.0
 11
-35.5209570575
 21
54.7195227108
 31
0.0
 11
-35.5058614659
 21
54.6285146516
 31
0.0
 11
-35.4413004126
 21
54.5272378147
 31
0.0
 11
-35.3296148047
 21
54.4331242802
 31
0.0
  0
SPLINE
  5
3B2
100
AcDbEntity
  8
RACCORDO
100
AcDbSpline
 62
253
  6
CONTINUOUS
 70
0
 71
3
 72
56
 73
52
 74
50
 42
0.0000001
 43
0.0000001
 44
0.0000000001
 12
-0.0087549586
 22
-28.3044606969
 32
0.0
 13
1.6660552236
 23
-28.2553858934
 33
0.0
 40
0.0
 40
0.0
 40
0.0
 40
0.0
 40
0.0753173873
 40
0.1450854356
 40
0.2096845375
 40
0.2694877843
 40
0.3248334979
 40
0.3760330443
 40
0.4233797222
 40
0.4671513959
 40
0.5076151478
 40
0.5450333052
 40
0.5796523535
 40
0.611689496
 40
0.6413065503
 40
0.6686524928
 40
0.6938854687
 40
0.7171690126
 40
0.7386521286
 40
0.7584869335
 40
0.7767863351
 40
0.7936653767
 40
0.8092302797
 40
0.8235794766
 40
0.8368063917
 40
0.8489500267
 40
0.8600370921
 40
0.8701135098
 40
0.8793321671
 40
0.8879066326
 40
0.8960642481
 40
0.9039174874
 40
0.911396386
 40
0.9183653589
 40
0.9246663755
 40
0.9301715451
 40
0.9349879342
 40
0.9393718008
 40
0.943595583
 40
0.9478168339
 40
0.9520451629
 40
0.9562676259
 40
0.9604953814
 40
0.9647928691
 40
0.9692776036
 40
0.9740834796
 40
0.9792758167
 40
0.9847202407
 40
0.9901603071
 40
0.9953441745
 40
1.0
 40
1.0
 40
1.0
 40
1.0
 10
31.4517163638
 20
-27.1911896138
 30
0.0
 10
31.4514965635
 20
-27.9017956234
 30
0.0
 10
31.4511609172
 20
-29.2706506578
 30
0.0
 10
31.4510732906
 20
-31.2489866841
 30
0.0
 10
31.4514335602
 20
-33.0809495444
 30
0.0
 10
31.4521899342
 20
-34.7768401326
 30
0.0
 10
31.4533720291
 20
-36.3463080509
 30
0.0
 10
31.4549908932
 20
-37.7982500198
 30
0.0
 10
31.4569963344
 20
-39.1409924085
 30
0.0
 10
31.4593764546
 20
-40.3824437102
 30
0.0
 10
31.4619275719
 20
-41.5302206199
 30
0.0
 10
31.4643064624
 20
-42.591644317
 30
0.0
 10
31.4664174457
 20
-43.573564857
 30
0.0
 10
31.4678773198
 20
-44.4818846241
 30
0.0
 10
31.46823455
 20
-45.321585088
 30
0.0
 10
31.4678238867
 20
-46.0970893303
 30
0.0
 10
31.466954421
 20
-46.8128375377
 30
0.0
 10
31.466260675
 20
-47.4732712047
 30
0.0
 10
31.4661372312
 20
-48.0827745533
 30
0.0
 10
31.4667869555
 20
-48.6452531585
 30
0.0
 10
31.4682946483
 20
-49.1642914021
 30
0.0
 10
31.4705337833
 20
-49.6430407121
 30
0.0
 10
31.4730909195
 20
-50.0845182535
 30
0.0
 10
31.4757191545
 20
-50.4915375208
 30
0.0
 10
31.4782227575
 20
-50.8662778464
 30
0.0
 10
31.4805754011
 20
-51.2102408757
 30
0.0
 10
31.482982099
 20
-51.5244784071
 30
0.0
 10
31.4855418512
 20
-51.8111171183
 30
0.0
 10
31.488281163
 20
-52.0740470725
 30
0.0
 10
31.4912268016
 20
-52.3188700254
 30
0.0
 10
31.4944059871
 20
-52.5508064369
 30
0.0
 10
31.4978231749
 20
-52.772401812
 30
0.0
 10
31.5014284849
 20
-52.9827780043
 30
0.0
 10
31.5051063876
 20
-53.1785055744
 30
0.0
 10
31.5087036395
 20
-53.3556093653
 30
0.0
 10
31.5120976037
 20
-53.512403694
 30
0.0
 10
31.5152602523
 20
-53.65111072
 30
0.0
 10
31.5182757171
 20
-53.7777282281
 30
0.0
 10
31.5212698262
 20
-53.8987295742
 30
0.0
 10
31.5243326017
 20
-54.0182612557
 30
0.0
 10
31.5274977693
 20
-54.1377778178
 30
0.0
 10
31.5307591239
 20
-54.2573531832
 30
0.0
 10
31.5341301852
 20
-54.3775782698
 30
0.0
 10
31.5377333107
 20
-54.5002722404
 30
0.0
 10
31.5417718361
 20
-54.6284100175
 30
0.0
 10
31.5464754191
 20
-54.7649733093
 30
0.0
 10
31.5520469537
 20
-54.9105656866
 30
0.0
 10
31.5585449816
 20
-55.0621090634
 30
0.0
 10
31.5658369034
 20
-55.2135363946
 30
0.0
 10
31.5734936889
 20
-55.3574951969
 30
0.0
 10
31.5787967546
 20
-55.4501795743
 30
0.0
 10
31.5813823754
 20
-55.4940302898
 30
0.0
 11
31.4517163638
 21
-27.1911896138
 31
0.0
 11
31.4512221931
 21
-29.3230076874
 31
0.0
 11
31.451153484
 21
-31.29775476
 31
0.0
 11
31.4515213739
 21
-33.1261975526
 31
0.0
 11
31.4522987059
 21
-34.8188961038
 31
0.0
 11
31.4534996252
 21
-36.3854262932
 31
0.0
 11
31.4551264354
 21
-37.8346009992
 31
0.0
 11
31.4571450505
 21
-39.1747217273
 31
0.0
 11
31.4595018387
 21
-40.413653163
 31
0.0
 11
31.4619951217
 21
-41.5589551768
 31
0.0
 11
31.4643488953
 21
-42.6180533799
 31
0.0
 11
31.466377766
 21
-43.5979248175
 31
0.0
 11
31.4677283991
 21
-44.5047178966
 31
0.0
 11
31.4681049219
 21
-45.3430126002
 31
0.0
 11
31.4677213829
 21
-46.1170246972
 31
0.0
 11
31.4669524246
 21
-46.8312300905
 31
0.0
 11
31.4663397096
 21
-47.490257991
 31
0.0
 11
31.4662771601
 21
-48.0983260289
 31
0.0
 11
31.4669739943
 21
-48.6597390814
 31
0.0
 11
31.4684927409
 21
-49.1776915717
 31
0.0
 11
31.4706841605
 21
-49.6554387391
 31
0.0
 11
31.4732081688
 21
-50.0959877131
 31
0.0
 11
31.4758032787
 21
-50.5021257231
 31
0.0
 11
31.4783013769
 21
-50.8764981028
 31
0.0
 11
31.4806926323
 21
-51.220208843
 31
0.0
 11
31.483124791
 21
-51.5340128376
 31
0.0
 11
31.485687993
 21
-51.8192089029
 31
0.0
 11
31.4884171668
 21
-52.0801237666
 31
0.0
 11
31.491343559
 21
-52.3228017542
 31
0.0
 11
31.4945125272
 21
-52.5536769254
 31
0.0
 11
31.497942754
 21
-52.7759321714
 31
0.0
 11
31.5015712884
 21
-52.9875872711
 31
0.0
 11
31.5052772653
 21
-53.184805483
 31
0.0
 11
31.5088984315
 21
-53.3631156043
 31
0.0
 11
31.5122702099
 21
-53.5188999808
 31
0.0
 11
31.5153773906
 21
-53.6551898696
 31
0.0
 11
31.5183312269
 21
-53.779237693
 31
0.0
 11
31.521287914
 21
-53.8987530093
 31
0.0
 11
31.5243479841
 21
-54.0181940503
 31
0.0
 11
31.5275150138
 21
-54.1378327188
 31
0.0
 11
31.5307729759
 21
-54.2573028485
 31
0.0
 11
31.5341379656
 21
-54.3769198719
 31
0.0
 11
31.537724057
 21
-54.4985050747
 31
0.0
 11
31.5417360452
 21
-54.6253796542
 31
0.0
 11
31.5464331224
 21
-54.7613262714
 31
0.0
 11
31.5520659991
 21
-54.9081845931
 31
0.0
 11
31.558681874
 21
-55.0621440014
 31
0.0
 11
31.5660849287
 21
-55.2159440872
 31
0.0
 11
31.5738616358
 21
-55.362464433
 31
0.0
 11
31.5813823754
 21
-55.4940302898
 31
0.0
  0
SPLINE
  5
3B3
100
AcDbEntity
  8
RACCORDO
100
AcDbSpline
 62
253
  6
CONTINUOUS
 70
0
 71
3
 72
10
 73
6
 74
4
 42
0.0000001
 43
0.0000001
 44
0.0000000001
 12
0.0212900904
 22
-0.3654578973
 32
0.0
 13
0.2965093166
 23
-0.2100551301
 33
0.0
 40
0.0
 40
0.0
 40
0.0
 40
0.0
 40
0.2177821889
 40
0.5822214197
 40
1.0
 40
1.0
 40
1.0
 40
1.0
 10
-35.5207021278
 20
-22.465254218
 30
0.0
 10
-35.5191565937
 20
-22.4917842916
 30
0.0
 10
-35.5057090651
 20
-22.5622680671
 30
0.0
 10
-35.4429254873
 20
-22.6689868123
 30
0.0
 10
-35.3709071494
 20
-22.7325397814
 30
0.0
 10
-35.3296154023
 20
-22.7617919594
 30
0.0
 11
-35.5207021278
 21
-22.465254218
 31
0.0
 11
-35.5058634284
 21
-22.5433454746
 31
0.0
 11
-35.4413017604
 21
-22.6589695781
 31
0.0
 11
-35.3296154023
 21
-22.7617919594
 31
0.0
  0
SPLINE
  5
3B4
100
AcDbEntity
  8
RACCORDO
100
AcDbSpline
 62
253
  6
CONTINUOUS
 70
0
 71
3
 72
9
 73
5
 74
3
 42
0.0000001
 43
0.0000001
 44
0.0000000001
 12
0.0005249084
 22
-0.1940274412
 32
0.0
 13
0.1169921786
 23
-0.1529613009
 33
0.0
 40
0.0
 40
0.0
 40
0.0
 40
0.0
 40
0.3786975702
 40
1.0
 40
1.0
 40
1.0
 40
1.0
 10
-35.6351105066
 20
5.8903292298
 30
0.0
 10
-35.6350442461
 20
5.8658366563
 30
0.0
 10
-35.6256162839
 20
5.8010330954
 30
0.0
 10
-35.5934884168
 20
5.7434098909
 30
0.0
 10
-35.5692592419
 20
5.7117314816
 30
0.0
 11
-35.6351105066
 21
5.8903292298
 31
0.0
 11
-35.624648118
 21
5.8177845024
 31
0.0
 11
-35.5692592419
 21
5.7117314816
 31
0.0
  0
SPLINE
  5
3B5
100
AcDbEntity
  8
RACCORDO
100
AcDbSpline
 62
253
  6
CONTINUOUS
 70
0
 71
3
 72
59
 73
55
 74
53
 42
0.0000001
 43
0.0000001
 44
0.0000000001
 12
-1.6661610032
 22
-28.3713779896
 32
0.0
 13
0.0000165788
 23
-28.4202600537
 33
0.0
 40
0.0
 40
0.0
 40
0.0
 40
0.0
 40
0.0042001371
 40
0.0084788141
 40
0.012802025
 40
0.0171421964
 40
0.0214793051
 40
0.0257998771
 40
0.0300952597
 40
0.0343613993
 40
0.0385971686
 40
0.0428014117
 40
0.0469745303
 40
0.0511281017
 40
0.05528125
 40
0.0594379729
 40
0.0636451049
 40
0.0680657461
 40
0.0729183561
 40
0.0783832202
 40
0.0844812045
 40
0.0910714152
 40
0.0980517013
 40
0.1054156659
 40
0.113208847
 40
0.1215254125
 40
0.1304880727
 40
0.1402148673
 40
0.1508037582
 40
0.1623188397
 40
0.17481464
 40
0.1883380032
 40
0.2029561943
 40
0.218745837
 40
0.2357996736
 40
0.254217506
 40
0.2741099076
 40
0.2955932748
 40
0.3187996158
 40
0.3438764465
 40
0.3709938019
 40
0.4003245921
 40
0.4320181579
 40
0.4662377411
 40
0.503163222
 40
0.5429971567
 40
0.585985252
 40
0.6324022821
 40
0.6825507101
 40
0.7367184791
 40
0.7951938877
 40
0.858308513
 40
0.9264405575
 40
1.0
 40
1.0
 40
1.0
 40
1.0
 10
31.5770733878
 20
21.5801367034
 30
0.0
 10
31.5747406863
 20
21.540415478
 30
0.0
 10
31.5701412223
 20
21.4602237767
 30
0.0
 10
31.5635660731
 20
21.3391229821
 30
0.0
 10
31.5573429292
 20
21.2166751611
 30
0.0
 10
31.5515920309
 20
21.0936500206
 30
0.0
 10
31.5463650745
 20
20.9706265419
 30
0.0
 10
31.5416482762
 20
20.8480071115
 30
0.0
 10
31.5374127597
 20
20.7260428906
 30
0.0
 10
31.5336029497
 20
20.6048684696
 30
0.0
 10
31.5301430632
 20
20.4845473798
 30
0.0
 10
31.526945539
 20
20.365100638
 30
0.0
 10
31.5238960749
 20
20.2464290108
 30
0.0
 10
31.5209285394
 20
20.1282395017
 30
0.0
 10
31.5180484551
 20
20.0102031961
 30
0.0
 10
31.5152425893
 20
19.8916575582
 30
0.0
 10
31.5124704892
 20
19.770576373
 30
0.0
 10
31.5096535812
 20
19.6429020961
 30
0.0
 10
31.5067029734
 20
19.5033128982
 30
0.0
 10
31.5035814238
 20
19.3478336646
 30
0.0
 10
31.5003385952
 20
19.1758926402
 30
0.0
 10
31.4970767572
 20
18.9895933489
 30
0.0
 10
31.4938910707
 20
18.7912979194
 30
0.0
 10
31.4908345783
 20
18.5816029264
 30
0.0
 10
31.487928815
 20
18.3592455012
 30
0.0
 10
31.4851907814
 20
18.1217397471
 30
0.0
 10
31.482639981
 20
17.8659129876
 30
0.0
 10
31.4802970355
 20
17.5885567147
 30
0.0
 10
31.47817345
 20
17.2870178849
 30
0.0
 10
31.4762227182
 20
16.959245472
 30
0.0
 10
31.4743359825
 20
16.6036727924
 30
0.0
 10
31.4725188177
 20
16.2187023257
 30
0.0
 10
31.4708565945
 20
15.8025269218
 30
0.0
 10
31.469430633
 20
15.3529047916
 30
0.0
 10
31.4682940218
 20
14.8672861344
 30
0.0
 10
31.467454952
 20
14.3427996683
 30
0.0
 10
31.4669479844
 20
13.7763499448
 30
0.0
 10
31.4668524344
 20
13.1645364572
 30
0.0
 10
31.4670727512
 20
12.5036087606
 30
0.0
 10
31.4673774241
 20
11.7893079646
 30
0.0
 10
31.4675184809
 20
11.0169876169
 30
0.0
 10
31.467240773
 20
10.1819841548
 30
0.0
 10
31.4663673727
 20
9.2796986946
 30
0.0
 10
31.4650613449
 20
8.3054660234
 30
0.0
 10
31.4633820732
 20
7.2541166878
 30
0.0
 10
31.461423022
 20
6.1196999125
 30
0.0
 10
31.4593811174
 20
4.8953657134
 30
0.0
 10
31.4573988423
 20
3.5733177641
 30
0.0
 10
31.4556410762
 20
2.14535965
 30
0.0
 10
31.4542755724
 20
0.6031669752
 30
0.0
 10
31.4532000162
 20
-1.0618601751
 30
0.0
 10
31.4523474245
 20
-2.8591769183
 30
0.0
 10
31.4518170344
 20
-4.7993911837
 30
0.0
 10
31.4517155783
 20
-6.1416941573
 30
0.0
 10
31.4517159848
 20
-6.8385536528
 30
0.0
 11
31.5770733878
 21
21.5801367034
 31
0.0
 11
31.5702438808
 21
21.4609632457
 31
0.0
 11
31.5636586587
 21
21.3395405712
 31
0.0
 11
31.5574341142
 21
21.2168315656
 31
0.0
 11
31.5516779879
 21
21.0936171449
 31
0.0
 11
31.5464409752
 21
20.9704666897
 31
0.0
 11
31.5417157025
 21
20.8477658627
 31
0.0
 11
31.5374701373
 21
20.7257638217
 31
0.0
 11
31.533648291
 21
20.604579276
 31
0.0
 11
31.5301744277
 21
20.4842477432
 31
0.0
 11
31.5269590701
 21
20.3648053326
 31
0.0
 11
31.5239029643
 21
20.2462435976
 31
0.0
 11
31.5209423618
 21
20.1282351493
 31
0.0
 11
31.5180636411
 21
20.0102367043
 31
0.0
 11
31.5152690347
 21
19.8921346184
 31
0.0
 11
31.5125329293
 21
19.7725981426
 31
0.0
 11
31.5097623094
 21
19.6469929231
 31
0.0
 11
31.5068484704
 21
19.5091112705
 31
0.0
 11
31.5037315741
 21
19.3538296905
 31
0.0
 11
31.5004640306
 21
19.1805541959
 31
0.0
 11
31.497185186
 21
18.9932873967
 31
0.0
 11
31.4939973694
 21
18.7949314653
 31
0.0
 11
31.4909449331
 21
18.5856679367
 31
0.0
 11
31.4880485813
 21
18.364202644
 31
0.0
 11
31.4853203876
 21
18.1278594356
 31
0.0
 11
31.4827741769
 21
17.8731510258
 31
0.0
 11
31.4804280001
 21
17.596722951
 31
0.0
 11
31.4782876659
 21
17.2957915296
 31
0.0
 11
31.4763117685
 21
16.9685358828
 31
0.0
 11
31.4744209441
 21
16.6134070229
 31
0.0
 11
31.4726124829
 21
16.229073778
 31
0.0
 11
31.4709556805
 21
15.8136242903
 31
0.0
 11
31.4695283679
 21
15.3648808095
 31
0.0
 11
31.4683818014
 21
14.8802076938
 31
0.0
 11
31.4675364199
 21
14.3567687896
 31
0.0
 11
31.4670284114
 21
13.7914217929
 31
0.0
 11
31.4669028768
 21
13.1808589227
 31
0.0
 11
31.4670766909
 21
12.5213286997
 31
0.0
 11
31.4673413415
 21
11.8086386985
 31
0.0
 11
31.4674510673
 21
11.0379564145
 31
0.0
 11
31.4671633579
 21
10.2043677785
 31
0.0
 11
31.4663367468
 21
9.3036287746
 31
0.0
 11
31.4650556865
 21
8.3311001667
 31
0.0
 11
31.4634042618
 21
7.2816696946
 31
0.0
 11
31.4614853602
 21
6.1495805369
 31
0.0
 11
31.4594682615
 21
4.927849355
 31
0.0
 11
31.4575085825
 21
3.6086667435
 31
0.0
 11
31.4557668627
 21
2.183436445
 31
0.0
 11
31.4543707957
 21
0.6439749965
 31
0.0
 11
31.4532741225
 21
-1.0179109607
 31
0.0
 11
31.4524277659
 21
-2.8116448272
 31
0.0
 11
31.4518924738
 21
-4.7479751739
 31
0.0
 11
31.4517159848
 21
-6.8385536528
 31
0.0
  0
SPLINE
  5
3B6
100
AcDbEntity
  8
0
100
AcDbSpline
 62
253
  6
CONTINUOUS
 70
0
 71
3
 72
13
 73
9
 74
7
 42
0.0000001
 43
0.0000001
 44
0.0000000001
 12
-0.5309362181
 22
0.2660079257
 32
0.0
 13
-0.0002149542
 23
0.5938463084
 33
0.0
 40
0.0
 40
0.0
 40
0.0
 40
0.0
 40
0.1502142265
 40
0.3163532812
 40
0.4923069482
 40
0.6701151423
 40
0.8445929498
 40
1.0
 40
1.0
 40
1.0
 40
1.0
 10
-28.1129626638
 20
-9.277004966
 30
0.0
 10
-28.1395473882
 20
-9.2636855744
 30
0.0
 10
-28.1918180147
 20
-9.2280243337
 30
0.0
 10
-28.260080351
 20
-9.157786579
 30
0.0
 10
-28.3183817971
 20
-9.0724028399
 30
0.0
 10
-28.3631383699
 20
-8.9774124415
 30
0.0
 10
-28.3908919949
 20
-8.8803626575
 30
0.0
 10
-28.3978276022
 20
-8.8149840663
 30
0.0
 10
-28.3978387373
 20
-8.7842214319
 30
0.0
 11
-28.1129626638
 21
-9.277004966
 31
0.0
 11
-28.1872915957
 21
-9.2276836342
 31
0.0
 11
-28.2565797931
 21
-9.1574472292
 31
0.0
 11
-28.3157748741
 21
-9.0713427231
 31
0.0
 11
-28.3607226786
 21
-8.9757963959
 31
0.0
 11
-28.3888299778
 21
-8.8760685899
 31
0.0
 11
-28.3978387373
 21
-8.7842214319
 31
0.0
  0
SPLINE
  5
3B7
100
AcDbEntity
  8
0
100
AcDbSpline
 62
253
  6
CONTINUOUS
 70
0
 71
3
 72
40
 73
36
 74
34
 42
0.0000001
 43
0.0000001
 44
0.0000000001
 12
-9.2296753346
 22
4.6104189528
 32
0.0
 13
-9.2279198494
 23
4.6139316158
 33
0.0
 40
0.0
 40
0.0
 40
0.0
 40
0.0
 40
0.0135513913
 40
0.0268534458
 40
0.0401188502
 40
0.0537642783
 40
0.0672556842
 40
0.0807596078
 40
0.0948330977
 40
0.1092339919
 40
0.123829502
 40
0.1392153584
 40
0.156053044
 40
0.1743237589
 40
0.1935896192
 40
0.213906589
 40
0.235873148
 40
0.2601538839
 40
0.2869342505
 40
0.314740943
 40
0.3421412456
 40
0.368429951
 40
0.3948740238
 40
0.4238818896
 40
0.4561744859
 40
0.492383983
 40
0.5331492272
 40
0.578399342
 40
0.6275865941
 40
0.6804711312
 40
0.7376695076
 40
0.7997810648
 40
0.8654669657
 40
0.9328498805
 40
1.0
 40
1.0
 40
1.0
 40
1.0
 10
19.3339232192
 20
-33.0004248063
 30
0.0
 10
19.292231572
 20
-32.9795989426
 30
0.0
 10
19.2096165924
 20
-32.9383279621
 30
0.0
 10
19.0862072558
 20
-32.8766357326
 30
0.0
 10
18.9624875493
 20
-32.8148411345
 30
0.0
 10
18.8381947778
 20
-32.7527365547
 30
0.0
 10
18.713175311
 20
-32.690251164
 30
0.0
 10
18.5868415371
 20
-32.6271026235
 30
0.0
 10
18.4577108401
 20
-32.5625540327
 30
0.0
 10
18.3252236543
 20
-32.4963242023
 30
0.0
 10
18.1887008736
 20
-32.4280735626
 30
0.0
 10
18.044683181
 20
-32.3560740068
 30
0.0
 10
17.8893609377
 20
-32.2784215069
 30
0.0
 10
17.7221042807
 20
-32.1948009006
 30
0.0
 10
17.5441458448
 20
-32.1058284213
 30
0.0
 10
17.3548194836
 20
-32.0111710336
 30
0.0
 10
17.1500678853
 20
-31.9088001092
 30
0.0
 10
16.9254355038
 20
-31.7964877226
 30
0.0
 10
16.6828395547
 20
-31.6751922889
 30
0.0
 10
16.4306483733
 20
-31.5490980899
 30
0.0
 10
16.1799699004
 20
-31.4237593113
 30
0.0
 10
15.9334830378
 20
-31.3005157536
 30
0.0
 10
15.6820514979
 20
-31.1747995118
 30
0.0
 10
15.4121522445
 20
-31.0398492339
 30
0.0
 10
15.1122148445
 20
-30.8898798803
 30
0.0
 10
14.7761120685
 20
-30.7218279354
 30
0.0
 10
14.4001522762
 20
-30.5338476931
 30
0.0
 10
13.9842731415
 20
-30.3259081892
 30
0.0
 10
13.5311151202
 20
-30.0993300207
 30
0.0
 10
13.0412039949
 20
-29.8543768385
 30
0.0
 10
12.5115375035
 20
-29.5895474681
 30
0.0
 10
11.9424943096
 20
-29.3050299905
 30
0.0
 10
11.3421239926
 20
-29.0048484358
 30
0.0
 10
10.7262556345
 20
-28.6969168029
 30
0.0
 10
10.3124355314
 20
-28.4900082305
 30
0.0
 10
10.1058835577
 20
-28.3867328773
 30
0.0
 11
19.3339232192
 21
-33.0004248063
 31
0.0
 11
19.2088523741
 21
-32.9379390146
 31
0.0
 11
19.0860910215
 21
-32.8765863696
 31
0.0
 11
18.963658274
 21
-32.8154220352
 31
0.0
 11
18.837722142
 21
-32.7524974062
 31
0.0
 11
18.7132142287
 21
-32.6902695888
 31
0.0
 11
18.5885937331
 21
-32.6279781528
 31
0.0
 11
18.4587181995
 21
-32.5630570276
 31
0.0
 11
18.3258225327
 21
-32.4966230264
 31
0.0
 11
18.1911321562
 21
-32.4292887013
 31
0.0
 11
18.0491491595
 21
-32.3583065046
 31
0.0
 11
17.893769083
 21
-32.2806251029
 31
0.0
 11
17.7251654651
 21
-32.1963311243
 31
0.0
 11
17.5473791584
 21
-32.107444746
 31
0.0
 11
17.3598937131
 21
-32.0137077892
 31
0.0
 11
17.1571863792
 21
-31.9123589661
 31
0.0
 11
16.9331244353
 21
-31.8003318286
 31
0.0
 11
16.6859965953
 21
-31.6767705759
 31
0.0
 11
16.4293983912
 21
-31.5484729467
 31
0.0
 11
16.1765506989
 21
-31.4220496162
 31
0.0
 11
15.9339609652
 21
-31.3007546626
 31
0.0
 11
15.6899376496
 21
-31.1787425816
 31
0.0
 11
15.4222559611
 21
-31.0449011264
 31
0.0
 11
15.1242630921
 21
-30.8959040548
 31
0.0
 11
14.7901253828
 21
-30.7288346543
 31
0.0
 11
14.4139475707
 21
-30.5407454168
 31
0.0
 11
13.9963836112
 21
-30.331963536
 31
0.0
 11
13.5424877768
 21
-30.1050165466
 31
0.0
 11
13.0544731824
 21
-29.8610115599
 31
0.0
 11
12.5266503444
 21
-29.5971037715
 31
0.0
 11
11.9534889595
 21
-29.3105271211
 31
0.0
 11
11.3473440428
 21
-29.0074582432
 31
0.0
 11
10.7255395855
 21
-28.6965587232
 31
0.0
 11
10.1058835577
 21
-28.3867328773
 31
0.0
  0
SPLINE
  5
3B8
100
AcDbEntity
  8
RACCORDO
100
AcDbSpline
 62
253
  6
CONTINUOUS
 70
0
 71
3
 72
30
 73
26
 74
24
 42
0.0000001
 43
0.0000001
 44
0.0000000001
 12
0.6942986992
 22
-1.0695172927
 32
0.0
 13
1.1417559118
 23
-0.5676769786
 33
0.0
 40
0.0
 40
0.0
 40
0.0
 40
0.0
 40
0.0434859122
 40
0.09350874
 40
0.138223786
 40
0.178213432
 40
0.21497413
 40
0.2499573312
 40
0.2844370149
 40
0.3187140385
 40
0.3526287094
 40
0.3854540038
 40
0.4186961285
 40
0.4553093875
 40
0.4948581149
 40
0.5356451745
 40
0.5769072718
 40
0.618648037
 40
0.6619439053
 40
0.7084107416
 40
0.7587980696
 40
0.8126925331
 40
0.8703440725
 40
0.9324331131
 40
1.0
 40
1.0
 40
1.0
 40
1.0
 10
-29.5298271367
 20
-10.0458342329
 30
0.0
 10
-29.5197630659
 20
-10.0613372113
 30
0.0
 10
-29.4978330465
 20
-10.0944860753
 30
0.0
 10
-29.464490389
 20
-10.1428622723
 30
0.0
 10
-29.4310649803
 20
-10.1893620224
 30
0.0
 10
-29.4001817776
 20
-10.2307358021
 30
0.0
 10
-29.3711513317
 20
-10.26832228
 30
0.0
 10
-29.3430042934
 20
-10.3036248385
 30
0.0
 10
-29.3150031571
 20
-10.3376871835
 30
0.0
 10
-29.2867963755
 20
-10.3709864498
 30
0.0
 10
-29.2585486695
 20
-10.40332312
 30
0.0
 10
-29.2301003483
 20
-10.4348937279
 30
0.0
 10
-29.2003786438
 20
-10.4668538297
 30
0.0
 10
-29.1681358963
 20
-10.5003635977
 30
0.0
 10
-29.1329972786
 20
-10.5355259168
 30
0.0
 10
-29.0957277943
 20
-10.5713377447
 30
0.0
 10
-29.0570341393
 20
-10.6069959792
 30
0.0
 10
-29.0167776655
 20
-10.6425139152
 30
0.0
 10
-28.9740258167
 20
-10.6785264151
 30
0.0
 10
-28.9275125598
 20
-10.7157515206
 30
0.0
 10
-28.8763645836
 20
-10.7543582836
 30
0.0
 10
-28.8201048388
 20
-10.7940295618
 30
0.0
 10
-28.7582627499
 20
-10.8343385513
 30
0.0
 10
-28.689807954
 20
-10.8750296776
 30
0.0
 10
-28.6411104792
 20
-10.9008895011
 30
0.0
 10
-28.615395515
 20
-10.9136748898
 30
0.0
 11
-29.5298271367
 21
-10.0458342329
 31
0.0
 11
-29.499230644
 21
-10.0920774195
 31
0.0
 11
-29.4630284706
 21
-10.1445919343
 31
0.0
 11
-29.4297472487
 21
-10.1908863146
 31
0.0
 11
-29.3992448824
 21
-10.2317475557
 31
0.0
 11
-29.3705923005
 21
-10.2688438994
 31
0.0
 11
-29.3427838802
 21
-10.3037217347
 31
0.0
 11
-29.3148652523
 21
-10.3376843023
 31
0.0
 11
-29.2866123252
 21
-10.3710313069
 31
0.0
 11
-29.2581595801
 21
-10.4035968977
 31
0.0
 11
-29.2301386538
 21
-10.4346886292
 31
0.0
 11
-29.2012713192
 21
-10.4657260191
 31
0.0
 11
-29.1688998352
 21
-10.4993653903
 31
0.0
 11
-29.1332518135
 21
-10.5350337935
 31
0.0
 11
-29.095750171
 21
-10.5710669456
 31
0.0
 11
-29.0570573027
 21
-10.6067179422
 31
0.0
 11
-29.0171430227
 21
-10.641925594
 31
0.0
 11
-28.9749150839
 21
-10.6774858961
 31
0.0
 11
-28.9286484809
 21
-10.7144982255
 31
0.0
 11
-28.8773565409
 21
-10.7531894952
 31
0.0
 11
-28.8211826607
 21
-10.7927748509
 31
0.0
 11
-28.7595848997
 21
-10.8328946595
 31
0.0
 11
-28.691508957
 21
-10.8733106249
 31
0.0
 11
-28.615395515
 21
-10.9136748898
 31
0.0
  0
SPLINE
  5
3B9
100
AcDbEntity
  8
0
100
AcDbSpline
 62
253
  6
CONTINUOUS
 70
0
 71
3
 72
41
 73
37
 74
35
 42
0.0000001
 43
0.0000001
 44
0.0000000001
 12
-9.2275905867
 22
4.6137942775
 32
0.0
 13
-9.2256449923
 23
4.6176834178
 33
0.0
 40
0.0
 40
0.0
 40
0.0
 40
0.0
 40
0.0705540899
 40
0.1451266099
 40
0.2185040052
 40
0.2852848974
 40
0.3426267569
 40
0.3923540856
 40
0.4366014878
 40
0.476606019
 40
0.5129937842
 40
0.5463204461
 40
0.5765459771
 40
0.6031954601
 40
0.6277361242
 40
0.6517494833
 40
0.6761716635
 40
0.7008794341
 40
0.7254177938
 40
0.7490743904
 40
0.7716829938
 40
0.7935014806
 40
0.8147496197
 40
0.8353429797
 40
0.8544280887
 40
0.8712334478
 40
0.886259518
 40
0.9004184744
 40
0.914389753
 40
0.9278659184
 40
0.9404886815
 40
0.952780548
 40
0.9648423509
 40
0.9764238048
 40
0.9881300476
 40
1.0
 40
1.0
 40
1.0
 40
1.0
 10
-18.8854944428
 20
-13.8910438459
 30
0.0
 10
-19.1025091946
 20
-13.7825364939
 30
0.0
 10
-19.5488985017
 20
-13.5593410413
 30
0.0
 10
-20.2209854849
 20
-13.2232938306
 30
0.0
 10
-20.8814661582
 20
-12.8930486011
 30
0.0
 10
-21.4889481059
 20
-12.5893038153
 30
0.0
 10
-22.0236864023
 20
-12.3219326626
 30
0.0
 10
-22.4891154594
 20
-12.0892178742
 30
0.0
 10
-22.9012175473
 20
-11.883167281
 30
0.0
 10
-23.27228899
 20
-11.6976320845
 30
0.0
 10
-23.6097696862
 20
-11.528892158
 30
0.0
 10
-23.9171714698
 20
-11.3751915779
 30
0.0
 10
-24.1946195885
 20
-11.2364677328
 30
0.0
 10
-24.445043139
 20
-11.1112560746
 30
0.0
 10
-24.6763588356
 20
-10.9955981883
 30
0.0
 10
-24.9008235669
 20
-10.8833655695
 30
0.0
 10
-25.1258021762
 20
-10.7708757142
 30
0.0
 10
-25.3523954643
 20
-10.6575781416
 30
0.0
 10
-25.5766336663
 20
-10.545457473
 30
0.0
 10
-25.7944146278
 20
-10.4365642025
 30
0.0
 10
-26.0038290005
 20
-10.3318526478
 30
0.0
 10
-26.2058347108
 20
-10.2308439843
 30
0.0
 10
-26.4016413891
 20
-10.1329337908
 30
0.0
 10
-26.5890400817
 20
-10.039226368
 30
0.0
 10
-26.7627724619
 20
-9.9523497813
 30
0.0
 10
-26.9193813275
 20
-9.8740367218
 30
0.0
 10
-27.0608388048
 20
-9.8033013174
 30
0.0
 10
-27.1935780329
 20
-9.7369225255
 30
0.0
 10
-27.3215476056
 20
-9.6729226629
 30
0.0
 10
-27.444787764
 20
-9.611276775
 30
0.0
 10
-27.5628573994
 20
-9.5522039531
 30
0.0
 10
-27.6765746673
 20
-9.4953023633
 30
0.0
 10
-27.7870907938
 20
-9.4400058025
 30
0.0
 10
-27.8958081498
 20
-9.3856149395
 30
0.0
 10
-28.0039550628
 20
-9.331558448
 30
0.0
 10
-28.0764600605
 20
-9.2952755585
 30
0.0
 10
-28.1129627161
 20
-9.2770049978
 30
0.0
 11
-18.8854944428
 21
-13.8910438459
 31
0.0
 11
-19.5365382104
 21
-13.5655208141
 31
0.0
 11
-20.2246614304
 21
-13.2214556208
 31
0.0
 11
-20.901756094
 21
-12.8829036167
 31
0.0
 11
-21.51798132
 21
-12.5747873052
 31
0.0
 11
-22.0471077444
 21
-12.3102222051
 31
0.0
 11
-22.5059710144
 21
-12.080790221
 31
0.0
 11
-22.9142680537
 21
-11.8766420649
 31
0.0
 11
-23.2834136701
 21
-11.6920697495
 31
0.0
 11
-23.6191852209
 21
-11.5241843887
 31
0.0
 11
-23.9267101236
 21
-11.3704222476
 31
0.0
 11
-24.2056190211
 21
-11.2309680099
 31
0.0
 11
-24.4515295682
 21
-11.108012836
 31
0.0
 11
-24.6779807386
 21
-10.9947871998
 31
0.0
 11
-24.8995660707
 21
-10.8839942707
 31
0.0
 11
-25.1249237151
 21
-10.7713148853
 31
0.0
 11
-25.3529165043
 21
-10.6573175092
 31
0.0
 11
-25.579345752
 21
-10.5441011876
 31
0.0
 11
-25.7976379755
 21
-10.4349521879
 31
0.0
 11
-26.0062591592
 21
-10.3306372384
 31
0.0
 11
-26.2075889172
 21
-10.2299666181
 31
0.0
 11
-26.4036552647
 21
-10.1319265139
 31
0.0
 11
-26.5936789553
 21
-10.0369061808
 31
0.0
 11
-26.7697845528
 21
-9.9488434647
 31
0.0
 11
-26.9248541432
 21
-9.8713002297
 31
0.0
 11
-27.0635056688
 21
-9.8019672358
 31
0.0
 11
-27.1941548611
 21
-9.7366330047
 31
0.0
 11
-27.3230696331
 21
-9.6721594662
 31
0.0
 11
-27.4474115297
 21
-9.609961936
 31
0.0
 11
-27.5638746218
 21
-9.5516939158
 31
0.0
 11
-27.6772824286
 21
-9.4949487762
 31
0.0
 11
-27.7885684724
 21
-9.4392674382
 31
0.0
 11
-27.8954275711
 21
-9.3858133658
 31
0.0
 11
-28.0034473635
 21
-9.3318019214
 31
0.0
 11
-28.1129627161
 21
-9.2770049978
 31
0.0
  0
SPLINE
  5
3BA
100
AcDbEntity
  8
0
100
AcDbSpline
 62
253
  6
CONTINUOUS
 70
0
 71
3
 72
25
 73
21
 74
19
 42
0.0000001
 43
0.0000001
 44
0.0000000001
 12
-0.0029561409
 22
9.093138095
 32
0.0
 13
0.0007997289
 23
9.0931385403
 33
0.0
 40
0.0
 40
0.0
 40
0.0
 40
0.0
 40
0.0455663
 40
0.0915614552
 40
0.1373160208
 40
0.1831150325
 40
0.2298645318
 40
0.2782080845
 40
0.3289453564
 40
0.3826644283
 40
0.4386715505
 40
0.4961678429
 40
0.5544088338
 40
0.6127165999
 40
0.6707936253
 40
0.728787194
 40
0.7883131544
 40
0.851643685
 40
0.9213759269
 40
1.0
 40
1.0
 40
1.0
 40
1.0
 10
-28.3978386787
 20
-8.7842214073
 30
0.0
 10
-28.3978835788
 20
-8.6461078547
 30
0.0
 10
-28.3979677375
 20
-8.3685808681
 30
0.0
 10
-28.3981589874
 20
-7.9523697031
 30
0.0
 10
-28.3981646928
 20
-7.535453134
 30
0.0
 10
-28.3981838227
 20
-7.1162501224
 30
0.0
 10
-28.3981644044
 20
-6.6891997687
 30
0.0
 10
-28.398126422
 20
-6.2471813228
 30
0.0
 10
-28.3981019995
 20
-5.7840377788
 30
0.0
 10
-28.3980966192
 20
-5.2976656012
 30
0.0
 10
-28.3981139297
 20
-4.7908065203
 30
0.0
 10
-28.3981519951
 20
-4.2702412954
 30
0.0
 10
-28.3981944887
 20
-3.7427027129
 30
0.0
 10
-28.3982280936
 20
-3.2134039013
 30
0.0
 10
-28.3982587472
 20
-2.6848550374
 30
0.0
 10
-28.3983053611
 20
-2.1526137718
 30
0.0
 10
-28.3983627826
 20
-1.6044488901
 30
0.0
 10
-28.3984129474
 20
-1.0207035458
 30
0.0
 10
-28.3983835169
 20
-0.3790709381
 30
0.0
 10
-28.398353966
 20
0.0706039043
 30
0.0
 10
-28.3983330067
 20
0.3089171006
 30
0.0
 11
-28.3978386787
 21
-8.7842214073
 31
0.0
 11
-28.3979780834
 21
-8.3698807508
 31
0.0
 11
-28.3981281646
 21
-7.9516404578
 31
0.0
 11
-28.3981669053
 21
-7.5355878536
 31
0.0
 11
-28.3981774327
 21
-7.1191310935
 31
0.0
 11
-28.3981618057
 21
-6.6940314191
 31
0.0
 11
-28.3981294189
 21
-6.2544367955
 31
0.0
 11
-28.3981055888
 21
-5.7930757523
 31
0.0
 11
-28.3981003002
 21
-5.3046007876
 31
0.0
 11
-28.39811704
 21
-4.795320264
 31
0.0
 11
-28.3981524731
 21
-4.2724985107
 31
0.0
 11
-28.3981929673
 21
-3.7429051119
 31
0.0
 11
-28.3982276516
 21
-3.2127045152
 31
0.0
 11
-28.3982613677
 21
-2.6846020767
 31
0.0
 11
-28.3983064439
 21
-2.1572585218
 31
0.0
 11
-28.3983599297
 21
-1.6159807181
 31
0.0
 11
-28.3983992381
 21
-1.0401074281
 31
0.0
 11
-28.3983827813
 21
-0.4060224893
 31
0.0
 11
-28.3983330067
 21
0.3089171006
 31
0.0
  0
SPLINE
  5
3BB
100
AcDbEntity
  8
0
100
AcDbSpline
 62
253
  6
CONTINUOUS
 70
0
 71
3
 72
32
 73
28
 74
26
 42
0.0000001
 43
0.0000001
 44
0.0000000001
 12
-0.0008751959
 22
9.0934741613
 32
0.0
 13
0.0000577039
 23
9.0934742032
 33
0.0
 40
0.0
 40
0.0
 40
0.0
 40
0.0
 40
0.0776047604
 40
0.1581767601
 40
0.2381620494
 40
0.3138809234
 40
0.383448659
 40
0.4477323982
 40
0.5071683129
 40
0.5611976025
 40
0.609137976
 40
0.651489384
 40
0.6891883748
 40
0.7229986889
 40
0.7532801042
 40
0.7798894024
 40
0.8029975608
 40
0.8237376402
 40
0.8432842548
 40
0.8626768475
 40
0.8822096196
 40
0.9018418284
 40
0.9212500477
 40
0.9403641038
 40
0.9597648623
 40
0.9796859004
 40
1.0
 40
1.0
 40
1.0
 40
1.0
 10
-28.3983329979
 20
20.6604349298
 30
0.0
 10
-28.3983556377
 20
20.8956672244
 30
0.0
 10
-28.3983850413
 20
21.375125986
 30
0.0
 10
-28.3984134534
 20
22.0970328044
 30
0.0
 10
-28.3983367939
 20
22.8132231992
 30
0.0
 10
-28.398269082
 20
23.4960579293
 30
0.0
 10
-28.3982308895
 20
24.131298782
 30
0.0
 10
-28.3981946708
 20
24.7171834108
 30
0.0
 10
-28.3981503644
 20
25.2559685532
 30
0.0
 10
-28.3981155937
 20
25.7452143713
 30
0.0
 10
-28.3980989726
 20
26.1826743502
 30
0.0
 10
-28.3980991584
 20
26.5706346123
 30
0.0
 10
-28.398109916
 20
26.9157644304
 30
0.0
 10
-28.3981284213
 20
27.2243081925
 30
0.0
 10
-28.39815025
 20
27.4992373432
 30
0.0
 10
-28.3981678053
 20
27.7417265686
 30
0.0
 10
-28.398176711
 20
27.9552944972
 30
0.0
 10
-28.3981780804
 20
28.1474543155
 30
0.0
 10
-28.3981746455
 20
28.3283516668
 30
0.0
 10
-28.3981673034
 20
28.5055894789
 30
0.0
 10
-28.3981573671
 20
28.6830867404
 30
0.0
 10
-28.3981404943
 20
28.8606313682
 30
0.0
 10
-28.3981073868
 20
29.0369067991
 30
0.0
 10
-28.3980502627
 20
29.2124806629
 30
0.0
 10
-28.3979478561
 20
29.3896089402
 30
0.0
 10
-28.3978553698
 20
29.5703747462
 30
0.0
 10
-28.3978390786
 20
29.6923338104
 30
0.0
 10
-28.3978386879
 20
29.7539090572
 30
0.0
 11
-28.3983329979
 21
20.6604349298
 31
0.0
 11
-28.3983819542
 21
21.3661318151
 31
0.0
 11
-28.3983955813
 21
22.0988112159
 31
0.0
 11
-28.3983363905
 21
22.8261553779
 31
0.0
 11
-28.398271903
 21
23.5147030027
 31
0.0
 11
-28.3982297407
 21
24.14731541
 31
0.0
 11
-28.3981916955
 21
24.7318779334
 31
0.0
 11
-28.3981500703
 21
25.2723568882
 31
0.0
 11
-28.3981171521
 21
25.7636708385
 31
0.0
 11
-28.3981012973
 21
26.1996153884
 31
0.0
 11
-28.3981012496
 21
26.5847368241
 31
0.0
 11
-28.3981120188
 21
26.9275516242
 31
0.0
 11
-28.3981301129
 21
27.2350048425
 31
0.0
 11
-28.3981507917
 21
27.5103681105
 31
0.0
 11
-28.3981672485
 21
27.7523390769
 31
0.0
 11
-28.3981757341
 21
27.962472519
 31
0.0
 11
-28.398177261
 21
28.1510718959
 31
0.0
 11
-28.3981739693
 21
28.3288185317
 31
0.0
 11
-28.3981668947
 21
28.5051645727
 31
0.0
 11
-28.3981562307
 21
28.6827853321
 31
0.0
 11
-28.3981376532
 21
28.8613103155
 31
0.0
 11
-28.3981031427
 21
29.0377984533
 31
0.0
 11
-28.3980432769
 21
29.211611619
 31
0.0
 11
-28.3979506977
 21
29.3880318922
 31
0.0
 11
-28.3978672821
 21
29.569183319
 31
0.0
 11
-28.3978386879
 21
29.7539090572
 31
0.0
  0
SPLINE
  5
3BC
100
AcDbEntity
  8
0
100
AcDbSpline
 62
253
  6
CONTINUOUS
 70
0
 71
3
 72
9
 73
5
 74
3
 42
0.0000001
 43
0.0000001
 44
0.0000000001
 12
0.0000682642
 22
0.1445497379
 32
0.0
 13
0.0656754431
 23
0.1293579874
 33
0.0
 40
0.0
 40
0.0
 40
0.0
 40
0.0
 40
0.5741654601
 40
1.0
 40
1.0
 40
1.0
 40
1.0
 10
-28.3978386696
 20
29.7539090649
 30
0.0
 10
-28.3978256046
 20
29.7815742205
 30
0.0
 10
-28.3932436192
 20
29.8299848255
 30
0.0
 10
-28.3775331476
 20
29.8761375711
 30
0.0
 10
-28.3682108569
 20
29.8944992707
 30
0.0
 11
-28.3978386696
 21
29.7539090649
 31
0.0
 11
-28.3888952858
 21
29.8364212757
 31
0.0
 11
-28.3682108569
 21
29.8944992707
 31
0.0
  0
SPLINE
  5
3BD
100
AcDbEntity
  8
RACCORDO
100
AcDbSpline
 62
253
  6
CONTINUOUS
 70
0
 71
3
 72
43
 73
39
 74
37
 42
0.0000001
 43
0.0000001
 44
0.0000000001
 12
16.6803993406
 22
-8.9802084308
 32
0.0
 13
16.9441595268
 23
-8.4720318434
 33
0.0
 40
0.0
 40
0.0
 40
0.0
 40
0.0
 40
0.0100610368
 40
0.0203239543
 40
0.0306941976
 40
0.0410954023
 40
0.0514889571
 40
0.0618780521
 40
0.0723182824
 40
0.0828094061
 40
0.0932942292
 40
0.1038646688
 40
0.1148706439
 40
0.1266821
 40
0.1396272557
 40
0.1538271369
 40
0.1692547493
 40
0.185902454
 40
0.2038594155
 40
0.2232563172
 40
0.2442043663
 40
0.2668053967
 40
0.2911748896
 40
0.3174389879
 40
0.3457599834
 40
0.3763218746
 40
0.4093065068
 40
0.4448680557
 40
0.4831893491
 40
0.5245348622
 40
0.5691800379
 40
0.6173398562
 40
0.6693440264
 40
0.7256103392
 40
0.7864455136
 40
0.8520952121
 40
0.92298933
 40
1.0
 40
1.0
 40
1.0
 40
1.0
 10
-33.2849943315
 20
56.4327754157
 30
0.0
 10
-33.2290536275
 20
56.4026586798
 30
0.0
 10
-33.1158262017
 20
56.342235398
 30
0.0
 10
-32.9442496096
 20
56.2520691007
 30
0.0
 10
-32.7702920133
 20
56.1618225193
 30
0.0
 10
-32.5952373497
 20
56.0719035497
 30
0.0
 10
-32.4198351211
 20
55.9824027969
 30
0.0
 10
-32.24411197
 20
55.8929893177
 30
0.0
 10
-32.0678798131
 20
55.8032175937
 30
0.0
 10
-31.8911659262
 20
55.7130598756
 30
0.0
 10
-31.7137412747
 20
55.6224860727
 30
0.0
 10
-31.5334270232
 20
55.5304222085
 30
0.0
 10
-31.3456315097
 20
55.4345884867
 30
0.0
 10
-31.1444286845
 20
55.3320372521
 30
0.0
 10
-30.9251604271
 20
55.2205163593
 30
0.0
 10
-30.6853741282
 20
55.0989670751
 30
0.0
 10
-30.424539678
 20
54.9672298843
 30
0.0
 10
-30.1423475315
 20
54.8251551015
 30
0.0
 10
-29.8376020966
 20
54.6721384902
 30
0.0
 10
-29.5084626326
 20
54.5071879131
 30
0.0
 10
-29.1530423858
 20
54.3292239241
 30
0.0
 10
-28.7694902113
 20
54.1373101143
 30
0.0
 10
-28.355868776
 20
53.9304715571
 30
0.0
 10
-27.9099104843
 20
53.7075401446
 30
0.0
 10
-27.4289701377
 20
53.467135459
 30
0.0
 10
-26.9101030941
 20
53.2076894206
 30
0.0
 10
-26.3504386872
 20
52.9276007257
 30
0.0
 10
-25.7470468744
 20
52.6254034326
 30
0.0
 10
-25.0964916806
 20
52.2994764863
 30
0.0
 10
-24.394635911
 20
51.9478887766
 30
0.0
 10
-23.6371016707
 20
51.5687365259
 30
0.0
 10
-22.8192899276
 20
51.1596377191
 30
0.0
 10
-21.9358916512
 20
50.7176201754
 30
0.0
 10
-20.9811691626
 20
50.2392741421
 30
0.0
 10
-19.9497152636
 20
49.7217163371
 30
0.0
 10
-18.8358570552
 20
49.1624223032
 30
0.0
 10
-17.6307009996
 20
48.5573244288
 30
0.0
 10
-16.7957326355
 20
48.1388284395
 30
0.0
 10
-16.3607722761
 20
47.9213494899
 30
0.0
 11
-33.2849943315
 21
56.4327754157
 31
0.0
 11
-33.1168575756
 21
56.3430121016
 31
0.0
 11
-32.9447706735
 21
56.2525355387
 31
0.0
 11
-32.7704049578
 21
56.1620300895
 31
0.0
 11
-32.5951540601
 21
56.0719603245
 31
0.0
 11
-32.4197931533
 21
55.9824231727
 31
0.0
 11
-32.2444063975
 21
55.8931227119
 31
0.0
 11
-32.0681756098
 21
55.8033449652
 31
0.0
 11
-31.8911340881
 21
55.7130347401
 31
0.0
 11
-31.7142237876
 21
55.6227299578
 31
0.0
 11
-31.5358733675
 21
55.5316789868
 31
0.0
 11
-31.3501545964
 21
55.4369151182
 31
0.0
 11
-31.1507930286
 21
55.3353155464
 31
0.0
 11
-30.9321988697
 21
55.2241551902
 31
0.0
 11
-30.692260687
 21
55.1025287388
 31
0.0
 11
-30.4313900617
 21
54.970756385
 31
0.0
 11
-30.1497074293
 21
54.8289218332
 31
0.0
 11
-29.8457094091
 21
54.6762558556
 31
0.0
 11
-29.5172101939
 21
54.511595133
 31
0.0
 11
-29.1623677445
 21
54.3339134765
 31
0.0
 11
-28.7794699658
 21
54.1423214955
 31
0.0
 11
-28.3665646888
 21
53.9358317832
 31
0.0
 11
-27.9215276018
 21
53.7133495393
 31
0.0
 11
-27.4416324424
 21
53.4734525554
 31
0.0
 11
-26.9238011359
 21
53.2145027349
 31
0.0
 11
-26.3650039362
 21
52.9348566291
 31
0.0
 11
-25.7626353294
 21
52.6331944557
 31
0.0
 11
-25.1135633724
 21
52.3080354118
 31
0.0
 11
-24.4132461481
 21
51.9572598541
 31
0.0
 11
-23.6569352763
 21
51.5786964624
 31
0.0
 11
-22.8410074707
 21
51.1704853317
 31
0.0
 11
-21.9599988438
 21
50.7295878269
 31
0.0
 11
-21.0070091278
 21
50.2521073234
 31
0.0
 11
-19.9769116555
 21
49.7353053185
 31
0.0
 11
-18.8654503066
 21
49.1772875143
 31
0.0
 11
-17.6651509946
 21
48.5747900982
 31
0.0
 11
-16.3607722761
 21
47.9213494899
 31
0.0
  0
SPLINE
  5
3BE
100
AcDbEntity
  8
RACCORDO
100
AcDbSpline
 62
253
  6
CONTINUOUS
 70
0
 71
3
 72
41
 73
37
 74
35
 42
0.0000001
 43
0.0000001
 44
0.0000000001
 12
16.9976392135
 22
-8.4988728608
 32
0.0
 13
17.219365645
 23
-8.0401508394
 33
0.0
 40
0.0
 40
0.0
 40
0.0
 40
0.0
 40
0.0810460582
 40
0.1554229511
 40
0.2237372832
 40
0.2865380999
 40
0.3443191583
 40
0.3975303461
 40
0.4465863104
 40
0.4918534016
 40
0.5336573017
 40
0.5722770753
 40
0.6079675592
 40
0.6409631384
 40
0.671477631
 40
0.6997133677
 40
0.7258516098
 40
0.7500581344
 40
0.7724867045
 40
0.7932617229
 40
0.8124912919
 40
0.8303019609
 40
0.8468298194
 40
0.8621473634
 40
0.8762467805
 40
0.8891074023
 40
0.9009051878
 40
0.9119832905
 40
0.92270908
 40
0.9334073669
 40
0.9441601112
 40
0.9549384355
 40
0.9655947714
 40
0.9761731754
 40
0.9873337154
 40
1.0
 40
1.0
 40
1.0
 40
1.0
 10
12.6306061774
 20
33.4256602631
 30
0.0
 10
13.0898033963
 20
33.196060215
 30
0.0
 10
13.9708620271
 20
32.7566556056
 30
0.0
 10
15.2396050638
 20
32.124971088
 30
0.0
 10
16.404873748
 20
31.5447758713
 30
0.0
 10
17.4758516851
 20
31.0110726553
 30
0.0
 10
18.4608626464
 20
30.5193653605
 30
0.0
 10
19.3677760959
 20
30.066154689
 30
0.0
 10
20.2037791684
 20
29.6483800473
 30
0.0
 10
20.9752840341
 20
29.2631902504
 30
0.0
 10
21.6877279795
 20
28.9077046239
 30
0.0
 10
22.3458665899
 20
28.5792581204
 30
0.0
 10
22.9540046669
 20
28.2755776161
 30
0.0
 10
23.5160849183
 20
27.9945902809
 30
0.0
 10
24.0358635463
 20
27.7345941329
 30
0.0
 10
24.5167924129
 20
27.4940306993
 30
0.0
 10
24.9620207224
 20
27.2714167093
 30
0.0
 10
25.3744062662
 20
27.0653740909
 30
0.0
 10
25.7564732289
 20
26.8746630303
 30
0.0
 10
26.1104081075
 20
26.6981852703
 30
0.0
 10
26.4382849682
 20
26.5350035342
 30
0.0
 10
26.7422244171
 20
26.3841084038
 30
0.0
 10
27.02412439
 20
26.2445494766
 30
0.0
 10
27.2851167153
 20
26.1157474108
 30
0.0
 10
27.5254113029
 20
25.9974985203
 30
0.0
 10
27.7457955678
 20
25.889287681
 30
0.0
 10
27.9490675304
 20
25.7896497964
 30
0.0
 10
28.1402446838
 20
25.6960626622
 30
0.0
 10
28.3252007579
 20
25.6056084222
 30
0.0
 10
28.5083312636
 20
25.5161126625
 30
0.0
 10
28.6917712402
 20
25.4264922222
 30
0.0
 10
28.8750467867
 20
25.3371406385
 30
0.0
 10
29.0574816373
 20
25.2485853106
 30
0.0
 10
29.2422968627
 20
25.1593902383
 30
0.0
 10
29.4388761892
 20
25.0652792185
 30
0.0
 10
29.5753762605
 20
25.0008627125
 30
0.0
 10
29.6480780555
 20
24.966916433
 30
0.0
 11
12.6306061774
 21
33.4256602631
 31
0.0
 11
14.0087484234
 21
32.7379623928
 31
0.0
 11
15.2739817719
 21
32.1078501177
 31
0.0
 11
16.436104549
 21
31.5291399182
 31
0.0
 11
17.5042485595
 21
30.9967626853
 31
0.0
 11
18.4867266662
 21
30.5063624333
 31
0.0
 11
19.391321684
 21
30.0543882981
 31
0.0
 11
20.225275291
 21
29.6377040264
 31
0.0
 11
20.9949280202
 21
29.2534231723
 31
0.0
 11
21.7057720428
 21
28.8986904967
 31
0.0
 11
22.3624559209
 21
28.570944185
 31
0.0
 11
22.9692546952
 21
28.2679050794
 31
0.0
 11
23.5301313655
 21
27.9875392938
 31
0.0
 11
24.0487736468
 21
27.7281364009
 31
0.0
 11
24.5286824551
 21
27.4881003627
 31
0.0
 11
24.9729768034
 21
27.2659666446
 31
0.0
 11
25.3844950782
 21
27.0603675252
 31
0.0
 11
25.7658594566
 21
26.8700134577
 31
0.0
 11
26.1191918647
 21
26.693862099
 31
0.0
 11
26.4463594257
 21
26.5310544803
 31
0.0
 11
26.7495321348
 21
26.3805537535
 31
0.0
 11
27.031025523
 21
26.2412088044
 31
0.0
 11
27.2920616807
 21
26.112383897
 31
0.0
 11
27.5324703708
 21
25.9940704507
 31
0.0
 11
27.751851716
 21
25.8863460818
 31
0.0
 11
27.953169882
 21
25.7876610791
 31
0.0
 11
28.1422551546
 21
25.6950936245
 31
0.0
 11
28.3253615868
 21
25.6055407271
 31
0.0
 11
28.5080230599
 21
25.5162676781
 31
0.0
 11
28.6916380502
 21
25.4265887451
 31
0.0
 11
28.8757671235
 21
25.3368548725
 31
0.0
 11
29.0579591347
 21
25.2484386613
 31
0.0
 11
29.2390202594
 21
25.1610855341
 31
0.0
 11
29.4303523221
 21
25.0695644387
 31
0.0
 11
29.6480780555
 21
24.966916433
 31
0.0
  0
SPLINE
  5
3BF
100
AcDbEntity
  8
RACCORDO
100
AcDbSpline
 62
253
  6
CONTINUOUS
 70
0
 71
3
 72
11
 73
7
 74
5
 42
0.0000001
 43
0.0000001
 44
0.0000000001
 12
-0.4477855501
 22
0.2389160821
 32
0.0
 13
-0.0670024799
 23
0.5006398416
 33
0.0
 40
0.0
 40
0.0
 40
0.0
 40
0.0
 40
0.0452255435
 40
0.3364739196
 40
0.6508415224
 40
1.0
 40
1.0
 40
1.0
 40
1.0
 10
-33.7192826506
 20
-25.4342042096
 30
0.0
 10
-33.7260330989
 20
-25.4306025064
 30
0.0
 10
-33.7754743998
 20
-25.402368799
 30
0.0
 10
-33.8584719605
 20
-25.3272694172
 30
0.0
 10
-33.9371545249
 20
-25.1843957569
 30
0.0
 10
-33.9634312043
 20
-25.074539214
 30
0.0
 10
-33.9712293656
 20
-25.0162716657
 30
0.0
 11
-33.7192826506
 21
-25.4342042096
 31
0.0
 11
-33.7392059085
 21
-25.4228213619
 31
0.0
 11
-33.8492048409
 21
-25.3251394339
 31
0.0
 11
-33.9279115078
 21
-25.1872302271
 31
0.0
 11
-33.9712293656
 21
-25.0162716657
 31
0.0
  0
SPLINE
  5
3C0
100
AcDbEntity
  8
RACCORDO
100
AcDbSpline
 62
253
  6
CONTINUOUS
 70
0
 71
3
 72
11
 73
7
 74
5
 42
0.0000001
 43
0.0000001
 44
0.0000000001
 12
-0.3924948084
 22
0.195999359
 32
0.0
 13
-0.0925217229
 23
0.4269543884
 33
0.0
 40
0.0
 40
0.0
 40
0.0
 40
0.0
 40
0.0130407159
 40
0.3156423817
 40
0.6400637111
 40
1.0
 40
1.0
 40
1.0
 40
1.0
 10
-16.7709779581
 20
-33.9521572077
 30
0.0
 10
-16.7726840959
 20
-33.9513052171
 30
0.0
 10
-16.8138178642
 20
-33.9303608336
 30
0.0
 10
-16.8889896677
 20
-33.8720619636
 30
0.0
 10
-16.9691899115
 20
-33.7502868966
 30
0.0
 10
-17.0003303767
 20
-33.6544659424
 30
0.0
 10
-17.0114310186
 20
-33.6032404831
 30
0.0
 11
-16.7709779581
 21
-33.9521572077
 31
0.0
 11
-16.7760760305
 21
-33.9495612663
 31
0.0
 11
-16.8811428696
 21
-33.8693322374
 31
0.0
 11
-16.9608048452
 21
-33.7521110241
 31
0.0
 11
-17.0114310186
 21
-33.6032404831
 31
0.0
  0
SPLINE
  5
3C1
100
AcDbEntity
  8
RACCORDO
100
AcDbSpline
 62
253
  6
CONTINUOUS
 70
0
 71
3
 72
17
 73
13
 74
11
 42
0.0000001
 43
0.0000001
 44
0.0000000001
 12
3.6874838779
 22
-1.7650812384
 32
0.0
 13
-0.1546344618
 23
-4.0852340583
 33
0.0
 40
0.0
 40
0.0
 40
0.0
 40
0.0
 40
0.0877772876
 40
0.1813161071
 40
0.2802049845
 40
0.3829355838
 40
0.488301913
 40
0.594762468
 40
0.700363638
 40
0.80397052
 40
0.904238094
 40
1.0
 40
1.0
 40
1.0
 40
1.0
 10
29.6480788024
 20
24.9669168529
 30
0.0
 10
29.7559712467
 20
24.9152721717
 30
0.0
 10
29.9702244376
 20
24.7900291228
 30
0.0
 10
30.2712480073
 20
24.5535633625
 30
0.0
 10
30.5559649778
 20
24.2681667524
 30
0.0
 10
30.8174446171
 20
23.9406114647
 30
0.0
 10
31.0491320497
 20
23.5790828506
 30
0.0
 10
31.245041046
 20
23.1926056103
 30
0.0
 10
31.4002360044
 20
22.7906158484
 30
0.0
 10
31.5107006986
 20
22.3827610141
 30
0.0
 10
31.5733865422
 20
21.9784253791
 30
0.0
 10
31.5820113488
 20
21.7105408402
 30
0.0
 10
31.5770753185
 20
21.5801375736
 30
0.0
 11
29.6480788024
 21
24.9669168529
 31
0.0
 11
29.9588542218
 21
24.7875005428
 31
0.0
 11
30.2605137199
 21
24.552484479
 31
0.0
 11
30.5467851844
 21
24.267027434
 31
0.0
 11
30.8093565398
 21
23.9392489755
 31
0.0
 11
31.0420695675
 21
23.5767659048
 31
0.0
 11
31.2388619781
 21
23.1885701611
 31
0.0
 11
31.3940365773
 21
22.7857076522
 31
0.0
 11
31.5041140961
 21
22.3766999992
 31
0.0
 11
31.5658562376
 21
21.9714667435
 31
0.0
 11
31.5770753185
 21
21.5801375736
 31
0.0
  0
SPLINE
  5
3C2
100
AcDbEntity
  8
RACCORDO
100
AcDbSpline
 62
253
  6
CONTINUOUS
 70
0
 71
3
 72
11
 73
7
 74
5
 42
0.0000001
 43
0.0000001
 44
0.0000000001
 12
-0.3924449763
 22
0.1960265181
 32
0.0
 13
-0.0925205159
 23
0.4269217843
 33
0.0
 40
0.0
 40
0.0
 40
0.0
 40
0.0
 40
0.0129532276
 40
0.3155829965
 40
0.6400332606
 40
1.0
 40
1.0
 40
1.0
 40
1.0
 10
12.2203867245
 20
-48.4478395688
 30
0.0
 10
12.2186922481
 20
-48.4469931768
 30
0.0
 10
12.17757038
 20
-48.4260521007
 30
0.0
 10
12.1024074642
 20
-48.3677607002
 30
0.0
 10
12.0222047414
 20
-48.2459846952
 30
0.0
 10
11.9910626141
 20
-48.1501628894
 30
0.0
 10
11.979961178
 20
-48.0989370085
 30
0.0
 11
12.2203867245
 21
-48.4478395688
 31
0.0
 11
12.2153233636
 21
-48.4452609652
 31
0.0
 11
12.1102541528
 21
-48.3650308295
 31
0.0
 11
12.0305897802
 21
-48.2478085621
 31
0.0
 11
11.979961178
 21
-48.0989370085
 31
0.0
  0
SPLINE
  5
3C3
100
AcDbEntity
  8
RACCORDO
100
AcDbSpline
 62
253
  6
CONTINUOUS
 70
0
 71
3
 72
13
 73
9
 74
7
 42
0.0000001
 43
0.0000001
 44
0.0000000001
 12
0.0666551541
 22
-1.7876079648
 32
0.0
 13
-1.6529386518
 23
-0.6961944571
 33
0.0
 40
0.0
 40
0.0
 40
0.0
 40
0.0
 40
0.1993484362
 40
0.3846148025
 40
0.5559250227
 40
0.7151835997
 40
0.8667156853
 40
1.0
 40
1.0
 40
1.0
 40
1.0
 10
31.5813841843
 20
-55.4940294746
 30
0.0
 10
31.5858133846
 20
-55.612815092
 30
0.0
 10
31.5792195338
 20
-55.8429976149
 30
0.0
 10
31.5185412292
 20
-56.1703761297
 30
0.0
 10
31.4089197411
 20
-56.4598154968
 30
0.0
 10
31.2523404864
 20
-56.7037552929
 30
0.0
 10
31.0585365067
 20
-56.8882820513
 30
0.0
 10
30.9091713871
 20
-56.9725641166
 30
0.0
 10
30.8357344553
 20
-57.0034947169
 30
0.0
 11
31.5813841843
 21
-55.4940294746
 31
0.0
 11
31.5694718894
 21
-55.8504349512
 31
0.0
 11
31.5070682203
 21
-56.1759205529
 31
0.0
 11
31.3963912917
 21
-56.4616847817
 31
0.0
 11
31.2407205
 21
-56.7002822875
 31
0.0
 11
31.0434778586
 21
-56.8862212906
 31
0.0
 11
30.8357344553
 21
-57.0034947169
 31
0.0
  0
SPLINE
  5
3C4
100
AcDbEntity
  8
RACCORDO
100
AcDbSpline
 62
253
  6
CONTINUOUS
 70
0
 71
3
 72
11
 73
7
 74
5
 42
0.0000001
 43
0.0000001
 44
0.0000000001
 12
-0.4616265454
 22
0.2150401082
 32
0.0
 13
-0.0618722118
 23
0.5023487317
 33
0.0
 40
0.0
 40
0.0
 40
0.0
 40
0.0
 40
0.079843317
 40
0.3537595542
 40
0.6567512859
 40
1.0
 40
1.0
 40
1.0
 40
1.0
 10
29.2605473666
 20
-56.9238229791
 30
0.0
 10
29.248261435
 20
-56.9180998073
 30
0.0
 10
29.1953185763
 20
-56.8896220245
 30
0.0
 10
29.1128154744
 20
-56.8118023149
 30
0.0
 10
29.0405088227
 20
-56.671927625
 30
0.0
 10
29.0167481709
 20
-56.5644026391
 30
0.0
 10
29.0096689852
 20
-56.506925787
 30
0.0
 11
29.2605473666
 21
-56.9238229791
 31
0.0
 11
29.2247962121
 21
-56.9045603412
 31
0.0
 11
29.1225861342
 21
-56.8108880734
 31
0.0
 11
29.0496121852
 21
-56.6760052693
 31
0.0
 11
29.0096689852
 21
-56.506925787
 31
0.0
  0
SPLINE
  5
3C5
100
AcDbEntity
  8
0
100
AcDbSpline
 62
253
  6
CONTINUOUS
 70
0
 71
3
 72
8
 73
4
 74
2
 42
0.0000001
 43
0.0000001
 44
0.0000000001
 12
-0.0541648823
 22
0.0147000594
 32
0.0
 13
-0.0500018163
 23
0.0249592344
 33
0.0
 40
0.0
 40
0.0
 40
0.0
 40
0.0
 40
1.0
 40
1.0
 40
1.0
 40
1.0
 10
19.3861223861
 20
-33.0206090462
 30
0.0
 10
19.3680674254
 20
-33.0157090264
 30
0.0
 10
19.3505905414
 20
-33.0087445208
 30
0.0
 10
19.3339232693
 20
-33.000424776
 30
0.0
 11
19.3861223861
 21
-33.0206090462
 31
0.0
 11
19.3339232693
 21
-33.000424776
 31
0.0
  0
SPLINE
  5
3C6
100
AcDbEntity
  8
RACCORDO
100
AcDbSpline
 62
253
  6
CONTINUOUS
 70
0
 71
3
 72
12
 73
8
 74
6
 42
0.0000001
 43
0.0000001
 44
0.0000000001
 12
8.2294159243
 22
-3.3031090802
 32
0.0
 13
8.7097770557
 23
-1.6654127723
 33
0.0
 40
0.0
 40
0.0
 40
0.0
 40
0.0
 40
0.1607601601
 40
0.3387911234
 40
0.5214676139
 40
0.8857129985
 40
1.0
 40
1.0
 40
1.0
 40
1.0
 10
21.9137899533
 20
-4.492532576
 30
0.0
 10
22.3547773603
 20
-4.6695353574
 30
0.0
 10
23.2912680105
 20
-5.0249755418
 30
0.0
 10
24.7518911675
 20
-5.518492303
 30
0.0
 10
26.8059162653
 20
-6.1303545027
 30
0.0
 10
28.7067943432
 20
-6.5919667259
 30
0.0
 10
30.093585526
 20
-6.8705516581
 30
0.0
 10
30.4253902937
 20
-6.9339966687
 30
0.0
 11
21.9137899533
 21
-4.492532576
 31
0.0
 11
23.2463329682
 21
-4.9990185222
 31
0.0
 11
24.7417205361
 21
-5.505098261
 31
0.0
 11
26.2940070436
 21
-5.9682095855
 31
0.0
 11
29.4318080513
 21
-6.7343184597
 31
0.0
 11
30.4253902937
 21
-6.9339966687
 31
0.0
  0
SPLINE
  5
3C7
100
AcDbEntity
  8
RACCORDO
100
AcDbSpline
 62
253
  6
CONTINUOUS
 70
0
 71
3
 72
15
 73
11
 74
9
 42
0.0000001
 43
0.0000001
 44
0.0000000001
 12
0.4681905019
 22
-16.9573904668
 32
0.0
 13
3.5927205233
 23
-16.5790425848
 33
0.0
 40
0.0
 40
0.0
 40
0.0
 40
0.0
 40
0.0781734537
 40
0.2885819631
 40
0.446883845
 40
0.6028952227
 40
0.78002975
 40
0.8963998491
 40
0.9885099611
 40
1.0
 40
1.0
 40
1.0
 40
1.0
 10
10.0170926057
 20
-31.2728797001
 30
0.0
 10
10.0292926285
 20
-31.714752293
 30
0.0
 10
10.0846460431
 20
-33.3456622912
 30
0.0
 10
10.230465198
 20
-35.8690306136
 30
0.0
 10
10.4966701162
 20
-38.8245306973
 30
0.0
 10
10.8249929686
 20
-41.5843952286
 30
0.0
 10
11.2050930213
 20
-44.0982119445
 30
0.0
 10
11.5943480209
 20
-46.2438811474
 30
0.0
 10
11.8428232097
 20
-47.4627493157
 30
0.0
 10
11.9661868894
 20
-48.0354319651
 30
0.0
 10
11.9799470556
 20
-48.0989299131
 30
0.0
 11
10.0170926057
 21
-31.2728797001
 31
0.0
 11
10.0621298084
 21
-32.5982376558
 31
0.0
 11
10.269203555
 21
-36.1615648755
 31
0.0
 11
10.5106481315
 21
-38.8360985227
 31
0.0
 11
10.8238495293
 21
-41.4640545743
 31
0.0
 11
11.2739915862
 21
-44.4350308465
 31
0.0
 11
11.626641159
 21
-46.3773620922
 31
0.0
 11
11.9389009287
 21
-47.9083854313
 31
0.0
 11
11.9799470556
 21
-48.0989299131
 31
0.0
  0
SPLINE
  5
3C8
100
AcDbEntity
  8
RACCORDO
100
AcDbSpline
 62
253
  6
CONTINUOUS
 70
0
 71
3
 72
56
 73
52
 74
50
 42
0.0000001
 43
0.0000001
 44
0.0000000001
 12
-0.005722601
 22
-28.297731212
 32
0.0
 13
0.4042178709
 23
-28.2948446259
 33
0.0
 40
0.0
 40
0.0
 40
0.0
 40
0.0
 40
0.0753668206
 40
0.1451533061
 40
0.2097661483
 40
0.2695791935
 40
0.3249316648
 40
0.3761346584
 40
0.4234819512
 40
0.467251443
 40
0.5077067432
 40
0.5451126435
 40
0.5797162718
 40
0.6117294555
 40
0.6413261721
 40
0.6686615677
 40
0.6938989712
 40
0.7171991326
 40
0.7387050243
 40
0.7585638623
 40
0.7768846876
 40
0.7937710936
 40
0.8093293231
 40
0.8236618107
 40
0.8368650829
 40
0.8489922153
 40
0.8600710817
 40
0.8701436071
 40
0.8793594597
 40
0.8879302919
 40
0.8960821677
 40
0.903926808
 40
0.9113938415
 40
0.9183477773
 40
0.9246312875
 40
0.9301179864
 40
0.9349156974
 40
0.9392804124
 40
0.9434836948
 40
0.9476822863
 40
0.9518859282
 40
0.9560804824
 40
0.9602851319
 40
0.9645706596
 40
0.9690567605
 40
0.9738780513
 40
0.9791006556
 40
0.9845898563
 40
0.9900798707
 40
0.9953085025
 40
1.0
 40
1.0
 40
1.0
 40
1.0
 10
30.4253873026
 20
-27.2855924639
 30
0.0
 10
30.4252435378
 20
-27.9964958078
 30
0.0
 10
30.4248690139
 20
-29.3656655375
 30
0.0
 10
30.4240350334
 20
-31.3443007687
 30
0.0
 10
30.4230164258
 20
-33.1762237032
 30
0.0
 10
30.4218571461
 20
-34.8719965709
 30
0.0
 10
30.4205741712
 20
-36.4412798774
 30
0.0
 10
30.4191988018
 20
-37.8929788809
 30
0.0
 10
30.4178921852
 20
-39.235420547
 30
0.0
 10
30.4167089873
 20
-40.476483844
 30
0.0
 10
30.4159782125
 20
-41.6237745476
 30
0.0
 10
30.415646989
 20
-42.6846076658
 30
0.0
 10
30.4156197082
 20
-43.6658100568
 30
0.0
 10
30.4166276815
 20
-44.573351185
 30
0.0
 10
30.4180298409
 20
-45.4123333919
 30
0.0
 10
30.4190604535
 20
-46.1874029969
 30
0.0
 10
30.4192865022
 20
-46.9030809503
 30
0.0
 10
30.4178783224
 20
-47.5637704236
 30
0.0
 10
30.415281171
 20
-48.1737218681
 30
0.0
 10
30.4117441358
 20
-48.7366997858
 30
0.0
 10
30.4075467193
 20
-49.2560978061
 30
0.0
 10
30.4040073403
 20
-49.7349340307
 30
0.0
 10
30.4015400656
 20
-50.1761560814
 30
0.0
 10
30.3995427256
 20
-50.5826386571
 30
0.0
 10
30.3983223041
 20
-50.9567600711
 30
0.0
 10
30.3961719147
 20
-51.3001875071
 30
0.0
 10
30.3929019267
 20
-51.6140734234
 30
0.0
 10
30.3891115151
 20
-51.9004899699
 30
0.0
 10
30.385063233
 20
-52.1632430999
 30
0.0
 10
30.3809000685
 20
-52.4078752241
 30
0.0
 10
30.3766956907
 20
-52.6395705271
 30
0.0
 10
30.3724978665
 20
-52.8608524733
 30
0.0
 10
30.3684168429
 20
-53.0708349043
 30
0.0
 10
30.3646019253
 20
-53.2660942435
 30
0.0
 10
30.3611831319
 20
-53.4426780965
 30
0.0
 10
30.3582038948
 20
-53.5989278844
 30
0.0
 10
30.3556039876
 20
-53.7370824278
 30
0.0
 10
30.3532877974
 20
-53.8631342306
 30
0.0
 10
30.3511367501
 20
-53.9835368657
 30
0.0
 10
30.349092151
 20
-54.1024217779
 30
0.0
 10
30.3471114045
 20
-54.2212255103
 30
0.0
 10
30.3453039331
 20
-54.3400889461
 30
0.0
 10
30.3432778483
 20
-54.4597221888
 30
0.0
 10
30.3402470474
 20
-54.5820852585
 30
0.0
 10
30.3366927476
 20
-54.7102521601
 30
0.0
 10
30.3327973767
 20
-54.8472520789
 30
0.0
 10
30.3289715846
 20
-54.9937197776
 30
0.0
 10
30.3257954093
 20
-55.1465119577
 30
0.0
 10
30.3235560856
 20
-55.2993807628
 30
0.0
 10
30.3235693773
 20
-55.444742704
 30
0.0
 10
30.3245257755
 20
-55.5383112784
 30
0.0
 10
30.3251579046
 20
-55.5825596757
 30
0.0
 11
30.4253873026
 21
-27.2855924639
 31
0.0
 11
30.424800004
 21
-29.4183024584
 31
0.0
 11
30.4239684784
 21
-31.3931015323
 31
0.0
 11
30.4229508688
 21
-33.221498127
 31
0.0
 11
30.4217891395
 21
-34.914071239
 31
0.0
 11
30.4205069491
 21
-36.4804201034
 31
0.0
 11
30.4191578474
 21
-37.9293480528
 31
0.0
 11
30.4178639653
 21
-39.2691684203
 31
0.0
 11
30.4167470716
 21
-40.507745258
 31
0.0
 11
30.4160242754
 21
-41.6525382647
 31
0.0
 11
30.4156908663
 21
-42.711040346
 31
0.0
 11
30.4158120524
 21
-43.6902445294
 31
0.0
 11
30.416740958
 21
-44.5961445413
 31
0.0
 11
30.4180159184
 21
-45.4336635173
 31
0.0
 11
30.4189508445
 21
-46.207192647
 31
0.0
 11
30.4189893619
 21
-46.9213539196
 31
0.0
 11
30.4175992043
 21
-47.5806941734
 31
0.0
 11
30.4150014841
 21
-48.1892565836
 31
0.0
 11
30.4114777639
 21
-48.7512056076
 31
0.0
 11
30.4074993957
 21
-49.2696281446
 31
0.0
 11
30.4040639291
 21
-49.7474627812
 31
0.0
 11
30.401527216
 21
-50.1877180785
 31
0.0
 11
30.3996066065
 21
-50.5932904216
 31
0.0
 11
30.3980944849
 21
-50.9669100159
 31
0.0
 11
30.395861576
 21
-51.3100730941
 31
0.0
 11
30.3926489274
 21
-51.6235634212
 31
0.0
 11
30.3888967936
 21
-51.9085683461
 31
0.0
 11
30.3848969766
 21
-52.1693253948
 31
0.0
 11
30.3807861047
 21
-52.4118256658
 31
0.0
 11
30.3766108269
 21
-52.6424674703
 31
0.0
 11
30.3724127066
 21
-52.864413297
 31
0.0
 11
30.3683190576
 21
-53.0756737525
 31
0.0
 11
30.3644844898
 21
-53.2724169959
 31
0.0
 11
30.3610469286
 21
-53.4501928521
 31
0.0
 11
30.3580868536
 21
-53.6054257644
 31
0.0
 11
30.3555376541
 21
-53.7411661691
 31
0.0
 11
30.3532705018
 21
-53.8646568932
 31
0.0
 11
30.3511491898
 21
-53.9835813355
 31
0.0
 11
30.3491033692
 21
-54.102374335
 31
0.0
 11
30.3471390635
 21
-54.2213116483
 31
0.0
 11
30.3452712185
 21
-54.3399933208
 31
0.0
 11
30.343137013
 21
-54.4589562205
 31
0.0
 11
30.3402354425
 21
-54.5801922186
 31
0.0
 11
30.3367661011
 21
-54.7070912818
 31
0.0
 11
30.3329553999
 21
-54.8434696453
 31
0.0
 11
30.3291652278
 21
-54.9912088938
 31
0.0
 11
30.3259544015
 21
-55.1465076339
 31
0.0
 11
30.3239109043
 21
-55.3018491478
 31
0.0
 11
30.3238331567
 21
-55.4498075485
 31
0.0
 11
30.3251579046
 21
-55.5825596757
 31
0.0
  0
SPLINE
  5
3C9
100
AcDbEntity
  8
RACCORDO
100
AcDbSpline
 62
253
  6
CONTINUOUS
 70
0
 71
3
 72
17
 73
13
 74
11
 42
0.0000001
 43
0.0000001
 44
0.0000000001
 12
0.0282749233
 22
-1.9884050719
 32
0.0
 13
-1.8222691098
 23
0.7961717734
 33
0.0
 40
0.0
 40
0.0
 40
0.0
 40
0.0
 40
0.1147845929
 40
0.2224693408
 40
0.3230401101
 40
0.4174910256
 40
0.5082342304
 40
0.5978345095
 40
0.6894283605
 40
0.7860761115
 40
0.8894303963
 40
1.0
 40
1.0
 40
1.0
 40
1.0
 10
30.3251579046
 20
-55.5825596757
 30
0.0
 10
30.3262397464
 20
-55.6586390979
 30
0.0
 10
30.3179039953
 20
-55.8065313978
 30
0.0
 10
30.2720262028
 20
-56.0166858388
 30
0.0
 10
30.1944361246
 20
-56.2030771358
 30
0.0
 10
30.0866091313
 20
-56.3606527341
 30
0.0
 10
29.9506169147
 20
-56.4845052721
 30
0.0
 10
29.7899572276
 20
-56.5702866893
 30
0.0
 10
29.6096357951
 20
-56.615446046
 30
0.0
 10
29.4149698382
 20
-56.6194903098
 30
0.0
 10
29.2111092684
 20
-56.5839274672
 30
0.0
 10
29.0768313729
 20
-56.5362700184
 30
0.0
 10
29.0096688485
 20
-56.5069258859
 30
0.0
 11
30.3251579046
 21
-55.5825596757
 31
0.0
 11
30.3114461307
 21
-55.8104088079
 31
0.0
 11
30.2646513443
 21
-56.0193759776
 31
0.0
 11
30.1865916759
 21
-56.2035089354
 31
0.0
 11
30.0795471576
 21
-56.3578460727
 31
0.0
 11
29.9456721461
 21
-56.4788443477
 31
0.0
 11
29.7885558704
 21
-56.5628828359
 31
0.0
 11
29.6120877178
 21
-56.6079989175
 31
0.0
 11
29.4199693634
 21
-56.6134016385
 31
0.0
 11
29.2172792585
 21
-56.5793473111
 31
0.0
 11
29.0096688485
 21
-56.5069258859
 31
0.0
  0
SPLINE
  5
3CA
100
AcDbEntity
  8
RACCORDO
100
AcDbSpline
 62
253
  6
CONTINUOUS
 70
0
 71
3
 72
41
 73
37
 74
35
 42
0.0000001
 43
0.0000001
 44
0.0000000001
 12
-17.4039944434
 22
7.6051402405
 32
0.0
 13
-16.9870640171
 23
8.4956951888
 33
0.0
 40
0.0
 40
0.0
 40
0.0
 40
0.0
 40
0.0131185003
 40
0.0245337962
 40
0.0352123259
 40
0.0458738823
 40
0.056621618
 40
0.0673336927
 40
0.077993178
 40
0.0886803766
 40
0.0997058607
 40
0.1114404027
 40
0.1242344501
 40
0.1382883315
 40
0.1535865046
 40
0.1701131445
 40
0.1879281988
 40
0.2071597151
 40
0.2279320445
 40
0.2503615744
 40
0.2745951906
 40
0.3008566819
 40
0.3293388217
 40
0.360211812
 40
0.3935909337
 40
0.4296148907
 40
0.4684754654
 40
0.5105000944
 40
0.5560399062
 40
0.6052643877
 40
0.6584430836
 40
0.7161319548
 40
0.7787611394
 40
0.8466037808
 40
0.9199852768
 40
1.0
 40
1.0
 40
1.0
 40
1.0
 10
29.0096688485
 20
-56.5069258859
 30
0.0
 10
28.9335640798
 20
-56.4736698745
 30
0.0
 10
28.7915027503
 20
-56.4108617013
 30
0.0
 10
28.588305558
 20
-56.319158589
 30
0.0
 10
28.3997824206
 20
-56.2327655147
 30
0.0
 10
28.2153486456
 20
-56.1475965677
 30
0.0
 10
28.0310250405
 20
-56.0616847861
 30
0.0
 10
27.8470480304
 20
-55.9750645137
 30
0.0
 10
27.6636247531
 20
-55.8881698452
 30
0.0
 10
27.4785526505
 20
-55.8001216357
 30
0.0
 10
27.287508309
 20
-55.7087847716
 30
0.0
 10
27.0846189496
 20
-55.6113004147
 30
0.0
 10
26.8646679547
 20
-55.5050560477
 30
0.0
 10
26.6246582215
 20
-55.3884683473
 30
0.0
 10
26.3636780672
 20
-55.2609688616
 30
0.0
 10
26.0816687346
 20
-55.1222696789
 30
0.0
 10
25.7777012692
 20
-54.9717948891
 30
0.0
 10
25.4500413183
 20
-54.8085955252
 30
0.0
 10
25.0966165991
 20
-54.6315997541
 30
0.0
 10
24.7152040548
 20
-54.4397696202
 30
0.0
 10
24.3029473582
 20
-54.2319232047
 30
0.0
 10
23.8565182378
 20
-54.0067384678
 30
0.0
 10
23.3722300361
 20
-53.7632759862
 30
0.0
 10
22.8470742911
 20
-53.5007840596
 30
0.0
 10
22.2787578828
 20
-53.217849721
 30
0.0
 10
21.6648994872
 20
-52.9129255734
 30
0.0
 10
21.001893993
 20
-52.5839069103
 30
0.0
 10
20.2850165017
 20
-52.2279191043
 30
0.0
 10
19.509870126
 20
-51.8417458102
 30
0.0
 10
18.6722245568
 20
-51.4226656807
 30
0.0
 10
17.7658977624
 20
-50.9689593196
 30
0.0
 10
16.7830254679
 20
-50.4785775322
 30
0.0
 10
15.715839094
 20
-49.9492450149
 30
0.0
 10
14.5589104772
 20
-49.3772591591
 30
0.0
 10
13.3030589022
 20
-48.757010392
 30
0.0
 10
12.4330188235
 20
-48.3255235989
 30
0.0
 10
11.9799470816
 20
-48.0989300325
 30
0.0
 11
29.0096688485
 21
-56.5069258859
 31
0.0
 11
28.7817793979
 21
-56.4061911785
 31
0.0
 11
28.5841432565
 21
-56.317043829
 31
0.0
 11
28.3997259015
 21
-56.2326313921
 31
0.0
 11
28.2158940642
 21
-56.1477172427
 31
0.0
 11
28.0308764988
 21
-56.0614697447
 31
0.0
 11
27.8467814669
 21
-55.9748493903
 31
0.0
 11
27.6638070473
 21
-55.888194968
 31
0.0
 11
27.4805139789
 21
-55.8009843822
 31
0.0
 11
27.2915866945
 21
-55.7106618378
 31
0.0
 11
27.0906970164
 21
-55.614139001
 31
0.0
 11
26.8718871689
 21
-55.5084485512
 31
0.0
 11
26.6317859881
 21
-55.391824391
 31
0.0
 11
26.3707204279
 21
-55.2642721498
 31
0.0
 11
26.089045896
 21
-55.1257530482
 31
0.0
 11
25.785796915
 21
-54.9756549561
 31
0.0
 11
25.4588301967
 21
-54.8128303541
 31
0.0
 11
25.1060463407
 21
-54.636201033
 31
0.0
 11
24.7254378139
 21
-54.4448422434
 31
0.0
 11
24.3144178144
 21
-54.2376900816
 31
0.0
 11
23.8690223071
 21
-54.0131661791
 31
0.0
 11
23.3856643805
 21
-53.7702531013
 31
0.0
 11
22.8611998078
 21
-53.5080118001
 31
0.0
 11
22.29370717
 21
-53.2253934644
 31
0.0
 11
21.6809644057
 21
-52.9209527722
 31
0.0
 11
21.0198515258
 21
-52.5927836928
 31
0.0
 11
20.3050223962
 21
-52.2376693088
 31
0.0
 11
19.5308548881
 21
-51.8519384487
 31
0.0
 11
18.6946287998
 21
-51.4338355891
 31
0.0
 11
17.7913344646
 21
-50.9819344915
 31
0.0
 11
16.8108301843
 21
-50.4929081027
 31
0.0
 11
15.7452991773
 21
-49.9641316683
 31
0.0
 11
14.5903075966
 21
-49.3928768653
 31
0.0
 11
13.3408736715
 21
-48.7752780538
 31
0.0
 11
11.9799470816
 21
-48.0989300325
 31
0.0
  0
SPLINE
  5
3CB
100
AcDbEntity
  8
RACCORDO
100
AcDbSpline
 62
253
  6
CONTINUOUS
 70
0
 71
3
 72
55
 73
51
 74
49
 42
0.0000001
 43
0.0000001
 44
0.0000000001
 12
9.2187730166
 22
-4.6129986977
 32
0.0
 13
9.2111572829
 23
-4.6281869481
 33
0.0
 40
0.0
 40
0.0
 40
0.0
 40
0.0
 40
0.0740785078
 40
0.1421398078
 40
0.2047450951
 40
0.2623900694
 40
0.3155019517
 40
0.3644558592
 40
0.4095784597
 40
0.4511716247
 40
0.4895387603
 40
0.524954981
 40
0.5576683423
 40
0.5879019346
 40
0.6158559021
 40
0.6417125305
 40
0.6656377169
 40
0.6877795272
 40
0.7082608626
 40
0.7271837785
 40
0.7446703936
 40
0.7608673947
 40
0.7758668142
 40
0.7896577329
 40
0.8022116887
 40
0.8136972403
 40
0.8244677538
 40
0.8348996013
 40
0.8453130459
 40
0.8557641828
 40
0.8662158121
 40
0.8766308747
 40
0.887030804
 40
0.8975888599
 40
0.9081841058
 40
0.918072487
 40
0.9267583204
 40
0.9343153834
 40
0.9409386218
 40
0.9468660837
 40
0.9523539811
 40
0.957664533
 40
0.962953115
 40
0.9682478473
 40
0.973537088
 40
0.9788091324
 40
0.9840932874
 40
0.9894279978
 40
0.9947656956
 40
1.0
 40
1.0
 40
1.0
 40
1.0
 10
10.0170926205
 20
-31.2728802316
 30
0.0
 10
10.2447302702
 20
-31.3867882516
 30
0.0
 10
10.6816094622
 20
-31.6051633351
 30
0.0
 10
11.3110265961
 20
-31.9194909454
 30
0.0
 10
11.8899521909
 20
-32.2085342748
 30
0.0
 10
12.4228941697
 20
-32.4746808539
 30
0.0
 10
12.9137930641
 20
-32.7200231608
 30
0.0
 10
13.3661609741
 20
-32.9462115878
 30
0.0
 10
13.7831391708
 20
-33.1546752
 30
0.0
 10
14.167581197
 20
-33.3468675288
 30
0.0
 10
14.5221967908
 20
-33.524133602
 30
0.0
 10
14.8495282775
 20
-33.6877397785
 30
0.0
 10
15.1518739335
 20
-33.8388234005
 30
0.0
 10
15.4312981677
 20
-33.9784135079
 30
0.0
 10
15.6896584474
 20
-34.1074476882
 30
0.0
 10
15.9286363601
 20
-34.2267758496
 30
0.0
 10
16.1497624249
 20
-34.3371498649
 30
0.0
 10
16.3543560348
 20
-34.4392876737
 30
0.0
 10
16.5435660994
 20
-34.533757573
 30
0.0
 10
16.7184624911
 20
-34.6210865658
 30
0.0
 10
16.8801867499
 20
-34.7018410846
 30
0.0
 10
17.0298492696
 20
-34.7765728413
 30
0.0
 10
17.168150299
 20
-34.8456316431
 30
0.0
 10
17.2952516388
 20
-34.9090984343
 30
0.0
 10
17.411550243
 20
-34.9671718431
 30
0.0
 10
17.5185629987
 20
-35.0206096248
 30
0.0
 10
17.6190510117
 20
-35.0707916443
 30
0.0
 10
17.7162420375
 20
-35.1193300917
 30
0.0
 10
17.8124498048
 20
-35.167381124
 30
0.0
 10
17.9087164303
 20
-35.2154664383
 30
0.0
 10
18.0049853621
 20
-35.2635595776
 30
0.0
 10
18.1010936728
 20
-35.3115805094
 30
0.0
 10
18.1975251482
 20
-35.3597728467
 30
0.0
 10
18.2945063862
 20
-35.4082501024
 30
0.0
 10
18.3899105338
 20
-35.4559510537
 30
0.0
 10
18.4795548912
 20
-35.5007863335
 30
0.0
 10
18.5598564919
 20
-35.5409631971
 30
0.0
 10
18.6301193179
 20
-35.5761298272
 30
0.0
 10
18.6919025692
 20
-35.6070616115
 30
0.0
 10
18.7473254079
 20
-35.6348157496
 30
0.0
 10
18.7987130207
 20
-35.660554288
 30
0.0
 10
18.8481358516
 20
-35.6853135397
 30
0.0
 10
18.8969627669
 20
-35.7097804261
 30
0.0
 10
18.9457199127
 20
-35.7342230865
 30
0.0
 10
18.9944208816
 20
-35.758651004
 30
0.0
 10
19.0430811262
 20
-35.7830790423
 30
0.0
 10
19.0918701808
 20
-35.8075987292
 30
0.0
 10
19.1408507775
 20
-35.8322396641
 30
0.0
 10
19.1896764322
 20
-35.8568074307
 30
0.0
 10
19.2221316952
 20
-35.873126841
 30
0.0
 10
19.238203029
 20
-35.8812019541
 30
0.0
 11
10.0170926205
 21
-31.2728802316
 31
0.0
 11
10.7001255808
 21
-31.6143643518
 31
0.0
 11
11.327804395
 21
-31.9278566866
 31
0.0
 11
11.9051970255
 21
-32.216157254
 31
0.0
 11
12.4368151979
 21
-32.4816689012
 31
0.0
 11
12.9265655727
 21
-32.726426006
 31
0.0
 11
13.3779383135
 21
-32.9520948146
 31
0.0
 11
13.7939872145
 21
-33.1600975851
 31
0.0
 11
14.1774975359
 21
-33.3518220958
 31
0.0
 11
14.531268155
 21
-33.5286642727
 31
0.0
 11
14.8578384254
 21
-33.6918869416
 31
0.0
 11
15.1594991287
 21
-33.8426263482
 31
0.0
 11
15.4383080808
 21
-33.9819092078
 31
0.0
 11
15.6961078038
 21
-34.1106639059
 31
0.0
 11
15.9345770653
 21
-34.2297346924
 31
0.0
 11
16.1552441513
 21
-34.3398890091
 31
0.0
 11
16.3594600453
 21
-34.4418379379
 31
0.0
 11
16.5483566965
 21
-34.5361505181
 31
0.0
 11
16.7228778346
 21
-34.6232917171
 31
0.0
 11
16.8841513056
 21
-34.7038207397
 31
0.0
 11
17.0335308853
 21
-34.7784112457
 31
0.0
 11
17.171865467
 21
-34.8474868404
 31
0.0
 11
17.2990542658
 21
-34.9109974017
 31
0.0
 11
17.4148346472
 21
-34.968812135
 31
0.0
 11
17.5207609881
 21
-35.0217076506
 31
0.0
 11
17.6200919272
 21
-35.0713119597
 31
0.0
 11
17.7162983679
 21
-35.1193588305
 31
0.0
 11
17.8123336112
 21
-35.1673239018
 31
0.0
 11
17.9087144714
 21
-35.2154665733
 31
0.0
 11
18.005097228
 21
-35.2636168077
 31
0.0
 11
18.1011395304
 21
-35.3116050726
 31
0.0
 11
18.1970384483
 21
-35.3595312783
 31
0.0
 11
18.2943912636
 21
-35.4081945981
 31
0.0
 11
18.3920819621
 21
-35.4570394019
 31
0.0
 11
18.4832494384
 21
-35.5026370334
 31
0.0
 11
18.563324202
 21
-35.5427006989
 31
0.0
 11
18.6329880278
 21
-35.577567461
 31
0.0
 11
18.6940398972
 21
-35.6081329618
 31
0.0
 11
18.7486755743
 21
-35.6354928163
 31
0.0
 11
18.7992575513
 21
-35.660827862
 31
0.0
 11
18.8482029345
 21
-35.6853481788
 31
0.0
 11
18.8969431567
 21
-35.7097723869
 31
0.0
 11
18.9457358833
 21
-35.7342333345
 31
0.0
 11
18.9944723223
 21
-35.7586802411
 31
0.0
 11
19.0430421421
 21
-35.7830639429
 31
0.0
 11
19.0917133102
 21
-35.8075240089
 31
0.0
 11
19.1408412855
 21
-35.8322356901
 31
0.0
 11
19.1899949457
 21
-35.8569648401
 31
0.0
 11
19.238203029
 21
-35.8812019541
 31
0.0
  0
SPLINE
  5
3CC
100
AcDbEntity
  8
RACCORDO
100
AcDbSpline
 62
253
  6
CONTINUOUS
 70
0
 71
3
 72
61
 73
57
 74
55
 42
0.0000001
 43
0.0000001
 44
0.0000000001
 12
3.7213408573
 22
-1.8697801848
 32
0.0
 13
-0.0028262157
 23
4.1646665807
 33
0.0
 40
0.0
 40
0.0
 40
0.0
 40
0.0
 40
0.0548968732
 40
0.1021862127
 40
0.143404485
 40
0.1796280756
 40
0.2115660114
 40
0.2397630219
 40
0.2648105995
 40
0.2872025469
 40
0.3073436069
 40
0.3255753615
 40
0.3421394919
 40
0.3572095182
 40
0.3709734195
 40
0.3843330429
 40
0.3981661994
 40
0.41214536
 40
0.4259896618
 40
0.4398284151
 40
0.4540092023
 40
0.4689306732
 40
0.4844704991
 40
0.5000773141
 40
0.5155060469
 40
0.5308384276
 40
0.5462058579
 40
0.5614779432
 40
0.5757762823
 40
0.5884037367
 40
0.5996458434
 40
0.6098707095
 40
0.6195649582
 40
0.62916605
 40
0.63885854
 40
0.6486036296
 40
0.6583939239
 40
0.6682655277
 40
0.6782620882
 40
0.6883803395
 40
0.6985452446
 40
0.7088048659
 40
0.7195460978
 40
0.731266902
 40
0.7444582166
 40
0.7596069621
 40
0.7771823397
 40
0.7972867028
 40
0.8192279847
 40
0.8421828434
 40
0.8660379738
 40
0.8910840672
 40
0.9172205589
 40
0.9441596492
 40
0.9717673213
 40
1.0
 40
1.0
 40
1.0
 40
1.0
 10
19.238203029
 20
-35.8812019541
 30
0.0
 10
19.3062996881
 20
-35.9154169827
 30
0.0
 10
19.4354707545
 20
-35.9744712285
 30
0.0
 10
19.6225285397
 20
-36.043121711
 30
0.0
 10
19.7892327723
 20
-36.0905245147
 30
0.0
 10
19.9380409971
 20
-36.1213745971
 30
0.0
 10
20.0707118655
 20
-36.1392741101
 30
0.0
 10
20.188783409
 20
-36.1471852756
 30
0.0
 10
20.2938483299
 20
-36.1475588393
 30
0.0
 10
20.3875716617
 20
-36.1423611243
 30
0.0
 10
20.4714513975
 20
-36.1330438096
 30
0.0
 10
20.5467350669
 20
-36.1206428191
 30
0.0
 10
20.6144208169
 20
-36.1060006228
 30
0.0
 10
20.6753610554
 20
-36.0898532778
 30
0.0
 10
20.7313047952
 20
-36.0724437175
 30
0.0
 10
20.7848940869
 20
-36.0534036361
 30
0.0
 10
20.8379693655
 20
-36.0321543231
 30
0.0
 10
20.8907729685
 20
-36.0085383056
 30
0.0
 10
20.9425999812
 20
-35.9828330208
 30
0.0
 10
20.9936263777
 20
-35.954985734
 30
0.0
 10
21.044844667
 20
-35.9244587344
 30
0.0
 10
21.0968467916
 20
-35.8907183677
 30
0.0
 10
21.1490520249
 20
-35.8537450472
 30
0.0
 10
21.2001888523
 20
-35.8141464024
 30
0.0
 10
21.2494107905
 20
-35.77263772
 30
0.0
 10
21.2966187393
 20
-35.729344018
 30
0.0
 10
21.3419219231
 20
-35.6843700648
 30
0.0
 10
21.3844139181
 20
-35.6386733082
 30
0.0
 10
21.4226725424
 20
-35.5942952284
 30
0.0
 10
21.4558869
 20
-35.5530013459
 30
0.0
 10
21.4844847335
 20
-35.5152802637
 30
0.0
 10
21.5097443683
 20
-35.4801574173
 30
0.0
 10
21.5329143782
 20
-35.4463517284
 30
0.0
 10
21.5549525565
 20
-35.4126777551
 30
0.0
 10
21.5763277754
 20
-35.3784959006
 30
0.0
 10
21.5971354439
 20
-35.3436595522
 30
0.0
 10
21.6173849602
 20
-35.3082092711
 30
0.0
 10
21.6370988303
 20
-35.2720602005
 30
0.0
 10
21.6563225586
 20
-35.2351339984
 30
0.0
 10
21.6749878879
 20
-35.1974673204
 30
0.0
 10
21.693067488
 20
-35.1591120068
 30
0.0
 10
21.710748183
 20
-35.1196216306
 30
0.0
 10
21.7284930838
 20
-35.0778028311
 30
0.0
 10
21.7468933602
 20
-35.0318514544
 30
0.0
 10
21.7664217205
 20
-34.9797743843
 30
0.0
 10
21.7873890458
 20
-34.9195738011
 30
0.0
 10
21.8096595526
 20
-34.8496893881
 30
0.0
 10
21.8324981916
 20
-34.7701220859
 30
0.0
 10
21.8546418863
 20
-34.6826298688
 30
0.0
 10
21.8750568467
 20
-34.5893792141
 30
0.0
 10
21.8931454621
 20
-34.4912620258
 30
0.0
 10
21.9085934615
 20
-34.3882245541
 30
0.0
 10
21.9209996153
 20
-34.2804650763
 30
0.0
 10
21.9300572636
 20
-34.1688044097
 30
0.0
 10
21.9355400392
 20
-34.053999148
 30
0.0
 10
21.9367137486
 20
-33.9764733171
 30
0.0
 10
21.9366871514
 20
-33.9372800859
 30
0.0
 11
19.238203029
 21
-35.8812019541
 31
0.0
 11
19.4462767032
 21
-35.9759424129
 31
0.0
 11
19.6312587641
 21
-36.0435347561
 31
0.0
 11
19.7964339513
 21
-36.090272863
 31
0.0
 11
19.9441867102
 21
-36.1207297856
 31
0.0
 11
20.0760195223
 21
-36.1383934484
 31
0.0
 11
20.1931932752
 21
-36.1461647018
 31
0.0
 11
20.2975076031
 21
-36.1464894965
 31
0.0
 11
20.3906173938
 21
-36.1412870971
 31
0.0
 11
20.4739809088
 21
-36.1319856934
 31
0.0
 11
20.5488960401
 21
-36.119617751
 31
0.0
 11
20.6163187335
 21
-36.1050237135
 31
0.0
 11
20.6769846154
 21
-36.0889403243
 31
0.0
 11
20.7317189733
 21
-36.0719118157
 31
0.0
 11
20.7841476555
 21
-36.0532875385
 31
0.0
 11
20.8376330813
 21
-36.0318800937
 31
0.0
 11
20.8907780839
 21
-36.0081101754
 31
0.0
 11
20.9424329945
 21
-35.9824959222
 31
0.0
 11
20.99303105
 21
-35.9549007694
 31
0.0
 11
21.0437684812
 21
-35.9246750908
 31
0.0
 11
21.0958951559
 21
-35.8908437745
 31
0.0
 11
21.1487025677
 21
-35.853429556
 31
0.0
 11
21.2000988141
 21
-35.8136418527
 31
0.0
 11
21.2492178372
 21
-35.7722160596
 31
0.0
 11
21.2962923
 21
-35.7290725489
 31
0.0
 11
21.3417084897
 21
-35.6839793099
 31
0.0
 11
21.3850276499
 21
-35.6374088038
 31
0.0
 11
21.4239108331
 21
-35.5923084491
 31
0.0
 11
21.45688247
 21
-35.551339073
 31
0.0
 11
21.4851721175
 21
-35.5140325822
 31
0.0
 11
21.5100394732
 21
-35.4794646663
 31
0.0
 11
21.5328675336
 21
-35.4461647434
 31
0.0
 11
21.5547676326
 21
-35.4127100829
 31
0.0
 11
21.5761721768
 21
-35.378486417
 31
0.0
 11
21.5969899147
 21
-35.3436472329
 31
0.0
 11
21.6172124654
 21
-35.3082422596
 31
0.0
 11
21.6368999454
 21
-35.2721507731
 31
0.0
 11
21.6561220772
 21
-35.2352216204
 31
0.0
 11
21.6748355334
 21
-35.1974656311
 31
0.0
 11
21.6928868111
 21
-35.1591736946
 31
0.0
 11
21.7103495892
 21
-35.12017721
 31
0.0
 11
21.7278272379
 21
-35.0789991558
 31
0.0
 11
21.7459766172
 21
-35.033685431
 31
0.0
 11
21.7652783213
 21
-34.9822503603
 31
0.0
 11
21.7860348575
 21
-34.9226731013
 31
0.0
 11
21.8082778176
 21
-34.8529389832
 31
0.0
 11
21.8313870014
 21
-34.7724632621
 31
0.0
 11
21.853827674
 21
-34.6838834588
 31
0.0
 11
21.874280657
 21
-34.5904976347
 31
0.0
 11
21.8923119317
 21
-34.4927989409
 31
0.0
 11
21.9077921497
 21
-34.389645377
 31
0.0
 11
21.9202731112
 21
-34.2815134935
 31
0.0
 11
21.9293698267
 21
-34.1696905337
 31
0.0
 11
21.9348814947
 21
-34.0548459411
 31
0.0
 11
21.9366871514
 21
-33.9372800859
 31
0.0
  0
SPLINE
  5
3CD
100
AcDbEntity
  8
RACCORDO
100
AcDbSpline
 62
253
  6
CONTINUOUS
 70
0
 71
3
 72
11
 73
7
 74
5
 42
0.0000001
 43
0.0000001
 44
0.0000000001
 12
-0.0064647145
 22
9.0932055535
 32
0.0
 13
-0.0063457488
 23
9.0932056373
 33
0.0
 40
0.0
 40
0.0
 40
0.0
 40
0.0
 40
0.2180053105
 40
0.4568688195
 40
0.7165930303
 40
1.0
 40
1.0
 40
1.0
 40
1.0
 10
21.9366871514
 20
-33.9372800859
 30
0.0
 10
21.9362173707
 20
-33.2764910527
 30
0.0
 10
21.9428970396
 20
-31.8916885655
 30
0.0
 10
21.930143858
 20
-29.7196626532
 30
0.0
 10
21.9156912149
 20
-27.3494282808
 30
0.0
 10
21.9143873669
 20
-25.7031532983
 30
0.0
 10
21.9137878904
 20
-24.8441273468
 30
0.0
 11
21.9366871514
 21
-33.9372800859
 31
0.0
 11
21.9392198124
 21
-31.9549141031
 31
0.0
 11
21.9304367502
 21
-29.7828963254
 31
0.0
 11
21.9181261866
 21
-27.4212021771
 31
0.0
 11
21.9137878904
 21
-24.8441273468
 31
0.0
  0
SPLINE
  5
3CE
100
AcDbEntity
  8
RACCORDO
100
AcDbSpline
 62
253
  6
CONTINUOUS
 70
0
 71
3
 72
13
 73
9
 74
7
 42
0.0000001
 43
0.0000001
 44
0.0000000001
 12
8.2297971442
 22
-3.3032400564
 32
0.0
 13
8.710169124
 23
-1.6655058282
 33
0.0
 40
0.0
 40
0.0
 40
0.0
 40
0.0
 40
0.1607528794
 40
0.3386727685
 40
0.5214440005
 40
0.7380641441
 40
0.8857181613
 40
1.0
 40
1.0
 40
1.0
 40
1.0
 10
21.91379027
 20
-24.8441283088
 30
0.0
 10
22.3547781327
 20
-25.0211300923
 30
0.0
 10
23.2909867393
 20
-25.3764630616
 30
0.0
 10
24.7515853626
 20
-25.8700073103
 30
0.0
 10
26.3874217099
 20
-26.3573083936
 30
0.0
 10
27.9538343312
 20
-26.7606539504
 30
0.0
 10
29.3344168096
 20
-27.069653588
 30
0.0
 10
30.0935859215
 20
-27.222147421
 30
0.0
 10
30.4253906358
 20
-27.2855931105
 30
0.0
 11
21.91379027
 21
-24.8441283088
 31
0.0
 11
23.2463329682
 21
-25.3506155202
 31
0.0
 11
24.7408468094
 21
-25.8564278653
 31
0.0
 11
26.2940070436
 21
-26.3198065854
 31
0.0
 11
28.1540801649
 21
-26.799701091
 31
0.0
 11
29.4318080513
 21
-27.0859154621
 31
0.0
 11
30.4253906358
 21
-27.2855931105
 31
0.0
  0
SPLINE
  5
3CF
100
AcDbEntity
  8
RACCORDO
100
AcDbSpline
 62
253
  6
CONTINUOUS
 70
0
 71
3
 72
13
 73
9
 74
7
 42
0.0000001
 43
0.0000001
 44
0.0000000001
 12
0.5078239986
 22
18.9006781165
 32
0.0
 13
3.3153595466
 23
18.614561761
 33
0.0
 40
0.0
 40
0.0
 40
0.0
 40
0.0
 40
0.0725180723
 40
0.2722315839
 40
0.5833958672
 40
0.8886820127
 40
0.9875640687
 40
1.0
 40
1.0
 40
1.0
 40
1.0
 10
10.0170926974
 20
13.6482637671
 30
0.0
 10
10.0293681699
 20
14.1051440143
 30
0.0
 10
10.0857856905
 20
15.8199928701
 30
0.0
 10
10.2883569686
 20
19.4919017401
 30
0.0
 10
10.7760779705
 20
24.6145641734
 30
0.0
 10
11.4051150926
 20
29.0803897766
 30
0.0
 10
11.8437665997
 20
31.6691895795
 30
0.0
 10
11.9662040396
 20
32.3600053827
 30
0.0
 10
11.9799472341
 20
32.4371685197
 30
0.0
 11
10.0170926974
 21
13.6482637671
 31
0.0
 11
10.0621298085
 21
15.018659289
 31
0.0
 11
10.2692035552
 21
18.7890602554
 31
0.0
 11
10.8238495295
 21
24.6461959286
 31
0.0
 11
11.6266411592
 21
30.3622950762
 31
0.0
 11
11.9389130004
 21
32.2056444007
 31
0.0
 11
11.9799472341
 21
32.4371685197
 31
0.0
  0
SPLINE
  5
3D0
100
AcDbEntity
  8
RACCORDO
100
AcDbSpline
 62
253
  6
CONTINUOUS
 70
0
 71
3
 72
13
 73
9
 74
7
 42
0.0000001
 43
0.0000001
 44
0.0000000001
 12
0.5078239986
 22
18.9006781166
 32
0.0
 13
3.3153595466
 23
18.614561761
 33
0.0
 40
0.0
 40
0.0
 40
0.0
 40
0.0
 40
0.0725180723
 40
0.2722315839
 40
0.5833958672
 40
0.8886820127
 40
0.9875640687
 40
1.0
 40
1.0
 40
1.0
 40
1.0
 10
-18.9742853313
 20
28.1439527814
 30
0.0
 10
-18.9620098588
 20
28.6008330286
 30
0.0
 10
-18.9055923382
 20
30.3156818844
 30
0.0
 10
-18.70302106
 20
33.9875907544
 30
0.0
 10
-18.2153000582
 20
39.1102531877
 30
0.0
 10
-17.5862629361
 20
43.5760787909
 30
0.0
 10
-17.1476114289
 20
46.1648785939
 30
0.0
 10
-17.0251739891
 20
46.855694397
 30
0.0
 10
-17.0114307945
 20
46.932857534
 30
0.0
 11
-18.9742853313
 21
28.1439527814
 31
0.0
 11
-18.9292482201
 21
29.5143483034
 31
0.0
 11
-18.7221744735
 21
33.2847492697
 31
0.0
 11
-18.1675284991
 21
39.1418849429
 31
0.0
 11
-17.3647368695
 21
44.8579840905
 31
0.0
 11
-17.0524650282
 21
46.701333415
 31
0.0
 11
-17.0114307945
 21
46.932857534
 31
0.0
  0
SPLINE
  5
3D1
100
AcDbEntity
  8
RACCORDO
100
AcDbSpline
 62
253
  6
CONTINUOUS
 70
0
 71
3
 72
41
 73
37
 74
35
 42
0.0000001
 43
0.0000001
 44
0.0000000001
 12
17.04247926
 22
-8.5213250056
 32
0.0
 13
17.0041627046
 23
-8.5975304531
 33
0.0
 40
0.0
 40
0.0
 40
0.0
 40
0.0
 40
0.080927006
 40
0.1551749826
 40
0.223350166
 40
0.2859966024
 40
0.3436135013
 40
0.3966820412
 40
0.4456244226
 40
0.4908023109
 40
0.5325157933
 40
0.5710387637
 40
0.606625227
 40
0.6395169201
 40
0.6699441536
 40
0.6981103067
 40
0.724195535
 40
0.7483641607
 40
0.7707676278
 40
0.7915368367
 40
0.810785115
 40
0.8286344644
 40
0.8452164099
 40
0.8605971167
 40
0.8747549532
 40
0.8876672946
 40
0.89951153
 40
0.9106323563
 40
0.9213991077
 40
0.9321360681
 40
0.9429492267
 40
0.9538379857
 40
0.9646498046
 40
0.9754188027
 40
0.9868688307
 40
1.0
 40
1.0
 40
1.0
 40
1.0
 10
11.9799471827
 20
32.437168231
 30
0.0
 10
12.4396794564
 20
32.2072997911
 30
0.0
 10
13.3209589511
 20
31.7660491091
 30
0.0
 10
14.5892224674
 20
31.1305372326
 30
0.0
 10
15.7537106752
 20
30.5470968281
 30
0.0
 10
16.8238883169
 20
30.0112308445
 30
0.0
 10
17.8084881411
 20
29.5187548035
 30
0.0
 10
18.715281723
 20
29.0652925969
 30
0.0
 10
19.5513586145
 20
28.6470569968
 30
0.0
 10
20.3227957843
 20
28.2608078254
 30
0.0
 10
21.0350680284
 20
27.9042062338
 30
0.0
 10
21.6929233128
 20
27.5749888884
 30
0.0
 10
22.3007625885
 20
27.2710272946
 30
0.0
 10
22.8627054469
 20
26.9902493636
 30
0.0
 10
23.3824360919
 20
26.7304308977
 30
0.0
 10
23.8634331968
 20
26.4898114199
 30
0.0
 10
24.3087968315
 20
26.2668104857
 30
0.0
 10
24.7213436728
 20
26.0600185208
 30
0.0
 10
25.1036321095
 20
25.8682087606
 30
0.0
 10
25.4578808708
 20
25.6901996654
 30
0.0
 10
25.7861435676
 20
25.5248980306
 30
0.0
 10
26.0905620589
 20
25.371377125
 30
0.0
 10
26.3729792848
 20
25.2287822293
 30
0.0
 10
26.6344159407
 20
25.0966540645
 30
0.0
 10
26.8750690962
 20
24.9750741098
 30
0.0
 10
27.0956460467
 20
24.8635671955
 30
0.0
 10
27.2989628877
 20
24.7606725863
 30
0.0
 10
27.4900650171
 20
24.6638214646
 30
0.0
 10
27.6748236022
 20
24.5700106723
 30
0.0
 10
27.8577826673
 20
24.4769721062
 30
0.0
 10
28.0412815374
 20
24.3832856711
 30
0.0
 10
28.2249627861
 20
24.2889125647
 30
0.0
 10
28.4083579262
 20
24.1945965775
 30
0.0
 10
28.5950759996
 20
24.0989477164
 30
0.0
 10
28.7948936044
 20
23.9965608598
 30
0.0
 10
28.9339975545
 20
23.925673068
 30
0.0
 10
29.0084257343
 20
23.888041192
 30
0.0
 11
11.9799471827
 21
32.437168231
 31
0.0
 11
13.3588529779
 21
31.7469811718
 31
0.0
 11
14.623711361
 21
31.1132686357
 31
0.0
 11
15.7851300097
 21
30.5314156404
 31
0.0
 11
16.8524926014
 21
29.9970093861
 31
0.0
 11
17.8343320537
 21
29.5058464108
 31
0.0
 11
18.7387108181
 21
29.0535506927
 31
0.0
 11
19.5727159233
 21
28.6363079781
 31
0.0
 11
20.3424729265
 21
28.2509602951
 31
0.0
 11
21.0531985784
 21
27.8951553617
 31
0.0
 11
21.7096190969
 21
27.5666758865
 31
0.0
 11
22.316088086
 21
27.2634069211
 31
0.0
 11
22.8766977038
 21
26.9832333808
 31
0.0
 11
23.395269122
 21
26.7239848838
 31
0.0
 11
23.8752379443
 21
26.4838674504
 31
0.0
 11
24.3196649783
 21
26.2613270787
 31
0.0
 11
24.7313523985
 21
26.0549671157
 31
0.0
 11
25.1128895823
 21
25.8635139954
 31
0.0
 11
25.466486177
 21
25.6858102364
 31
0.0
 11
25.7940623759
 21
25.5208682772
 31
0.0
 11
26.097736885
 21
25.3677273256
 31
0.0
 11
26.3797804011
 21
25.2253246842
 31
0.0
 11
26.6413512216
 21
25.0931573975
 31
0.0
 11
26.8821244489
 21
24.9714964397
 31
0.0
 11
27.101691797
 21
24.8604896953
 31
0.0
 11
27.3030523561
 21
24.7585779721
 31
0.0
 11
27.4920587687
 21
24.6627807862
 31
0.0
 11
27.6749827812
 21
24.5699062495
 31
0.0
 11
27.8573263888
 21
24.4771425615
 31
0.0
 11
28.040813936
 21
24.3834260514
 31
0.0
 11
28.2253912829
 21
24.2886772843
 31
0.0
 11
28.4086248391
 21
24.1945209753
 31
0.0
 11
28.5912245658
 21
24.1009165928
 31
0.0
 11
28.7854252698
 21
24.0014969155
 31
0.0
 11
29.0084257343
 21
23.888041192
 31
0.0
  0
SPLINE
  5
3D2
100
AcDbEntity
  8
RACCORDO
100
AcDbSpline
 62
253
  6
CONTINUOUS
 70
0
 71
3
 72
17
 73
13
 74
11
 42
0.0000001
 43
0.0000001
 44
0.0000000001
 12
2.4540266556
 22
-1.2410040519
 32
0.0
 13
-0.0443656768
 23
-2.7496126218
 33
0.0
 40
0.0
 40
0.0
 40
0.0
 40
0.0
 40
0.088163609
 40
0.1826519454
 40
0.28196399
 40
0.3846874222
 40
0.4897602179
 40
0.5958026013
 40
0.7010052888
 40
0.8043272974
 40
0.9044181459
 40
1.0
 40
1.0
 40
1.0
 40
1.0
 10
29.0084257343
 20
23.888041192
 30
0.0
 10
29.0805443498
 20
23.8515707267
 30
0.0
 10
29.223773762
 20
23.7635176032
 30
0.0
 10
29.4251874215
 20
23.6006797689
 30
0.0
 10
29.6165453756
 20
23.406874063
 30
0.0
 10
29.7924481818
 20
23.1864571058
 30
0.0
 10
29.9488434066
 20
22.944446834
 30
0.0
 10
30.0819660543
 20
22.6863402044
 30
0.0
 10
30.1887295402
 20
22.4179847105
 30
0.0
 10
30.2665730721
 20
22.1454762903
 30
0.0
 10
30.313413927
 20
21.8749003125
 30
0.0
 10
30.3230364992
 20
21.6952160654
 30
0.0
 10
30.3216229813
 20
21.6076117079
 30
0.0
 11
29.0084257343
 21
23.888041192
 31
0.0
 11
29.2158419844
 21
23.7625055194
 31
0.0
 11
29.4185636434
 21
23.5999606721
 31
0.0
 11
29.6108013704
 21
23.4059732911
 31
0.0
 11
29.7873223334
 21
23.1854309556
 31
0.0
 11
29.9443084468
 21
22.9428494604
 31
0.0
 11
30.0779835544
 21
22.6836789425
 31
0.0
 11
30.1847415701
 21
22.4147929108
 31
0.0
 11
30.2623722302
 21
22.1414712217
 31
0.0
 11
30.3086172617
 21
21.8701370297
 31
0.0
 11
30.3216229813
 21
21.6076117079
 31
0.0
  0
SPLINE
  5
3D3
100
AcDbEntity
  8
RACCORDO
100
AcDbSpline
 62
253
  6
CONTINUOUS
 70
0
 71
3
 72
59
 73
55
 74
53
 42
0.0000001
 43
0.0000001
 44
0.0000000001
 12
-0.4622611025
 22
-28.5387145067
 32
0.0
 13
-0.000013047
 23
-28.542458041
 33
0.0
 40
0.0
 40
0.0
 40
0.0
 40
0.0
 40
0.0043574738
 40
0.0088128662
 40
0.01334242
 40
0.0179131387
 40
0.0224816115
 40
0.0270230661
 40
0.0315220328
 40
0.0359661205
 40
0.0403464286
 40
0.0446538542
 40
0.0488921376
 40
0.0531005732
 40
0.0573108933
 40
0.0615252587
 40
0.0657912242
 40
0.0702738205
 40
0.0751942262
 40
0.0807345854
 40
0.0869149154
 40
0.0935907645
 40
0.1006565913
 40
0.1081035097
 40
0.1159759735
 40
0.1243678969
 40
0.1333999062
 40
0.1431864011
 40
0.1538186558
 40
0.1653536661
 40
0.177850078
 40
0.1913715629
 40
0.2059850863
 40
0.2217653932
 40
0.2387978099
 40
0.2571815535
 40
0.2770283716
 40
0.2984504817
 40
0.3215704399
 40
0.3465356595
 40
0.3735223541
 40
0.4027072807
 40
0.4342542014
 40
0.4683281366
 40
0.5051049671
 40
0.5447864425
 40
0.5876157334
 40
0.6338623166
 40
0.6838262244
 40
0.7377883908
 40
0.7960335313
 40
0.8588943304
 40
0.9267476021
 40
1.0
 40
1.0
 40
1.0
 40
1.0
 10
30.3216229813
 20
21.6076117079
 30
0.0
 10
30.3209515511
 20
21.5661594739
 30
0.0
 10
30.3198726154
 20
21.4823185861
 30
0.0
 10
30.3192545377
 20
21.3553768407
 30
0.0
 10
30.3199120529
 20
21.2264045008
 30
0.0
 10
30.3222357269
 20
21.0963767108
 30
0.0
 10
30.325225919
 20
20.9662510727
 30
0.0
 10
30.3288796017
 20
20.8368250054
 30
0.0
 10
30.3329003569
 20
20.7085943442
 30
0.0
 10
30.3369824032
 20
20.5818995121
 30
0.0
 10
30.3407196749
 20
20.4570172774
 30
0.0
 10
30.34378794
 20
20.3340737266
 30
0.0
 10
30.3455529291
 20
20.2127407225
 30
0.0
 10
30.3474005747
 20
20.0923341344
 30
0.0
 10
30.3493345443
 20
19.972156174
 30
0.0
 10
30.3513622037
 20
19.8514324183
 30
0.0
 10
30.3535133067
 20
19.7281198974
 30
0.0
 10
30.3558593727
 20
19.598092411
 30
0.0
 10
30.3585024554
 20
19.4559435543
 30
0.0
 10
30.3615224302
 20
19.2976464372
 30
0.0
 10
30.3649239195
 20
19.1226520161
 30
0.0
 10
30.3686333428
 20
18.9331473124
 30
0.0
 10
30.3725466297
 20
18.7315937721
 30
0.0
 10
30.376547784
 20
18.5186550416
 30
0.0
 10
30.3805925314
 20
18.293098297
 30
0.0
 10
30.3847013565
 20
18.0524595533
 30
0.0
 10
30.3888035609
 20
17.7936078166
 30
0.0
 10
30.3928260412
 20
17.5134375385
 30
0.0
 10
30.3965144562
 20
17.2094465698
 30
0.0
 10
30.3994886775
 20
16.8796639465
 30
0.0
 10
30.4018348836
 20
16.5223874779
 30
0.0
 10
30.4044828936
 20
16.1358230278
 30
0.0
 10
30.4071515786
 20
15.7180145278
 30
0.0
 10
30.4099133935
 20
15.2668023808
 30
0.0
 10
30.4123033101
 20
14.7797171053
 30
0.0
 10
30.4143291521
 20
14.253940537
 30
0.0
 10
30.4161228472
 20
13.6863987028
 30
0.0
 10
30.4175156537
 20
13.0737944486
 30
0.0
 10
30.418123942
 20
12.4124915887
 30
0.0
 10
30.4180437127
 20
11.6982462923
 30
0.0
 10
30.4177186241
 20
10.9262980679
 30
0.0
 10
30.417110497
 20
10.0917306682
 30
0.0
 10
30.4169999906
 20
9.1897339334
 30
0.0
 10
30.4172852581
 20
8.2155067429
 30
0.0
 10
30.4178345
 20
7.1638862595
 30
0.0
 10
30.4186753107
 20
6.028966155
 30
0.0
 10
30.4197468106
 20
4.8039495409
 30
0.0
 10
30.4208833532
 20
3.4811043159
 30
0.0
 10
30.422115481
 20
2.0523392548
 30
0.0
 10
30.423227666
 20
0.509417951
 30
0.0
 10
30.4241325273
 20
-1.1562065016
 30
0.0
 10
30.4248337744
 20
-2.9539931585
 30
0.0
 10
30.4252892401
 20
-4.8945612378
 30
0.0
 10
30.4253903695
 20
-6.2370621249
 30
0.0
 10
30.4253900509
 20
-6.9339966223
 30
0.0
 11
30.3216229813
 21
21.6076117079
 31
0.0
 11
30.3200485696
 21
21.4832486592
 31
0.0
 11
30.3194674799
 21
21.3560821386
 31
0.0
 11
30.3201839689
 21
21.2267995245
 31
0.0
 11
30.3223471402
 21
21.0963579131
 31
0.0
 11
30.325346161
 21
20.9659969617
 31
0.0
 11
30.3289587625
 21
20.8364230353
 31
0.0
 11
30.3329352947
 21
20.7080730526
 31
0.0
 11
30.3369531848
 21
20.581291517
 31
0.0
 11
30.3406361186
 21
20.4563210121
 31
0.0
 11
30.3435894406
 21
20.3334119748
 31
0.0
 11
30.3455732053
 21
20.2124572161
 31
0.0
 11
30.3474152562
 21
20.0923522438
 31
0.0
 11
30.3493479988
 21
19.9721949023
 31
0.0
 11
30.3513668748
 21
19.8519234985
 31
0.0
 11
30.3534891983
 21
19.7301808534
 31
0.0
 11
30.3557954247
 21
19.6022573234
 31
0.0
 11
30.3584034565
 21
19.4618410695
 31
0.0
 11
30.3614152507
 21
19.3037342814
 31
0.0
 11
30.3648361581
 21
19.1273656473
 31
0.0
 11
30.3685558364
 21
18.9368568121
 31
0.0
 11
30.3724557867
 21
18.7352184589
 31
0.0
 11
30.3764421897
 21
18.5227024892
 31
0.0
 11
30.3804728427
 21
18.2980391749
 31
0.0
 11
30.3845502261
 21
18.05854776
 31
0.0
 11
30.3886283666
 21
17.8007842738
 31
0.0
 11
30.3926113028
 21
17.5214820504
 31
0.0
 11
30.396259162
 21
17.2180332925
 31
0.0
 11
30.3992770425
 21
16.8888095748
 31
0.0
 11
30.40178701
 21
16.5321400941
 31
0.0
 11
30.4043831143
 21
16.1462124116
 31
0.0
 11
30.4070628629
 21
15.7291151426
 31
0.0
 11
30.4097528047
 21
15.278714425
 31
0.0
 11
30.4121581268
 21
14.7925733392
 31
0.0
 11
30.4142172689
 21
14.2678601467
 31
0.0
 11
30.415994944
 21
13.7013859653
 31
0.0
 11
30.4173462303
 21
13.0899477791
 31
0.0
 11
30.4179986291
 21
12.4300476647
 31
0.0
 11
30.4180106265
 21
11.7174789321
 31
0.0
 11
30.4176894948
 21
10.9472123993
 31
0.0
 11
30.4172077552
 21
10.1142029961
 31
0.0
 11
30.4170628645
 21
9.213776349
 31
0.0
 11
30.4173135041
 21
8.2412225155
 31
0.0
 11
30.4178568533
 21
7.1915215148
 31
0.0
 11
30.4186774215
 21
6.0589149651
 31
0.0
 11
30.4197153323
 21
4.8364621664
 31
0.0
 11
30.4208536453
 21
3.5164714967
 31
0.0
 11
30.4220503287
 21
2.0903792578
 31
0.0
 11
30.4231544493
 21
0.5501667815
 31
0.0
 11
30.4240678417
 21
-1.1122924452
 31
0.0
 11
30.4247705651
 21
-2.9064940298
 31
0.0
 11
30.4252277074
 21
-4.8431931365
 31
0.0
 11
30.4253900509
 21
-6.9339966223
 31
0.0
  0
SPLINE
  5
3D4
100
AcDbEntity
  8
RACCORDO
100
AcDbSpline
 62
253
  6
CONTINUOUS
 70
0
 71
3
 72
11
 73
7
 74
5
 42
0.0000001
 43
0.0000001
 44
0.0000000001
 12
-0.0003650503
 22
9.0925473338
 32
0.0
 13
0.0052638197
 23
9.0925458175
 33
0.0
 40
0.0
 40
0.0
 40
0.0
 40
0.0
 40
0.2885506284
 40
0.549237112
 40
0.7856873016
 40
1.0
 40
1.0
 40
1.0
 40
1.0
 10
21.9137904388
 20
-4.4925327708
 30
0.0
 10
21.913755327
 20
-3.6179793553
 30
0.0
 10
21.9150604674
 20
-1.9533152083
 30
0.0
 10
21.930720346
 20
0.4279311997
 30
0.0
 10
21.9427430837
 20
2.5842143996
 30
0.0
 10
21.9357602162
 20
3.9504082097
 30
0.0
 10
21.9361362507
 20
4.599957553
 30
0.0
 11
21.9137904388
 21
-4.4925327708
 31
0.0
 11
21.9177879506
 21
-1.8688755675
 31
0.0
 11
21.9307888741
 21
0.5013929716
 31
0.0
 11
21.9390997915
 21
2.6513114501
 31
0.0
 11
21.9361362507
 21
4.599957553
 31
0.0
  0
SPLINE
  5
3D5
100
AcDbEntity
  8
RACCORDO
100
AcDbSpline
 62
253
  6
CONTINUOUS
 70
0
 71
3
 72
68
 73
64
 74
62
 42
0.0000001
 43
0.0000001
 44
0.0000000001
 12
0.0037763716
 22
5.4605668813
 32
0.0
 13
-4.939870075
 23
2.3271202306
 33
0.0
 40
0.0
 40
0.0
 40
0.0
 40
0.0
 40
0.0213919908
 40
0.0411320484
 40
0.0592327411
 40
0.0757221079
 40
0.0906129975
 40
0.1039115053
 40
0.1156700271
 40
0.1262102905
 40
0.1359968351
 40
0.1454960604
 40
0.1550027155
 40
0.1645603916
 40
0.1740943423
 40
0.1834576102
 40
0.1932553022
 40
0.2041168524
 40
0.2160137038
 40
0.228851358
 40
0.2424062569
 40
0.2560649168
 40
0.2691230809
 40
0.2810044465
 40
0.2918275618
 40
0.3018856052
 40
0.3114863297
 40
0.3209062413
 40
0.3302847572
 40
0.339684474
 40
0.3490867631
 40
0.3585663897
 40
0.3684343473
 40
0.3790376404
 40
0.3907175748
 40
0.4038379438
 40
0.4188028596
 40
0.4359282614
 40
0.4544833818
 40
0.4732907981
 40
0.4922004032
 40
0.5115132209
 40
0.5310693612
 40
0.5505067436
 40
0.5696927553
 40
0.5886841988
 40
0.6076595219
 40
0.6267327142
 40
0.6459287087
 40
0.665213145
 40
0.6844819661
 40
0.7035844601
 40
0.7223888739
 40
0.7413413322
 40
0.7612654191
 40
0.7830359652
 40
0.8072065385
 40
0.8335304635
 40
0.8619324932
 40
0.8926056079
 40
0.9257158106
 40
0.9613993283
 40
1.0
 40
1.0
 40
1.0
 40
1.0
 10
21.9361362507
 20
4.599957553
 30
0.0
 10
21.9361631787
 20
4.6388950185
 30
0.0
 10
21.9350351038
 20
4.7137690659
 30
0.0
 10
21.9302594863
 20
4.8214907611
 30
0.0
 10
21.9233174457
 20
4.920147962
 30
0.0
 10
21.9149296847
 20
5.0098282145
 30
0.0
 10
21.9057175787
 20
5.0906334732
 30
0.0
 10
21.8962062813
 20
5.1627248024
 30
0.0
 10
21.8867453844
 20
5.2268264019
 30
0.0
 10
21.8774404983
 20
5.284483329
 30
0.0
 10
21.8681416989
 20
5.337971294
 30
0.0
 10
21.8585766829
 20
5.3894998388
 30
0.0
 10
21.848511986
 20
5.4405085032
 30
0.0
 10
21.8378868422
 20
5.491467881
 30
0.0
 10
21.8267764092
 20
5.5420564433
 30
0.0
 10
21.8150516796
 20
5.5929544995
 30
0.0
 10
21.8022392146
 20
5.6460789502
 30
0.0
 10
21.7877028724
 20
5.7035280428
 30
0.0
 10
21.7710348705
 20
5.7661408074
 30
0.0
 10
21.7522036947
 20
5.8332448105
 30
0.0
 10
21.7315335898
 20
5.9031562174
 30
0.0
 10
21.7098081474
 20
5.9731672917
 30
0.0
 10
21.6880709093
 20
6.0399780935
 30
0.0
 10
21.667177281
 20
6.1016302162
 30
0.0
 10
21.6473849951
 20
6.157885165
 30
0.0
 10
21.6284360596
 20
6.2100328321
 30
0.0
 10
21.6098756014
 20
6.2596013477
 30
0.0
 10
21.5913105529
 20
6.3078451047
 30
0.0
 10
21.5724349257
 20
6.3555748938
 30
0.0
 10
21.5531684738
 20
6.4031136629
 30
0.0
 10
21.5333933709
 20
6.4506425588
 30
0.0
 10
21.5128609069
 20
6.4987772077
 30
0.0
 10
21.4909917629
 20
6.5487157644
 30
0.0
 10
21.4669782688
 20
6.6020843831
 30
0.0
 10
21.4399078494
 20
6.6605654562
 30
0.0
 10
21.4087435173
 20
6.7258949373
 30
0.0
 10
21.3723581288
 20
6.7997087749
 30
0.0
 10
21.3303944856
 20
6.8817926652
 30
0.0
 10
21.2836987753
 20
6.9692964024
 30
0.0
 10
21.2339316908
 20
7.0588249329
 30
0.0
 10
21.1819087112
 20
7.1486591196
 30
0.0
 10
21.1276539597
 20
7.2387581696
 30
0.0
 10
21.0713118175
 20
7.3287022581
 30
0.0
 10
21.0136557222
 20
7.4175335489
 30
0.0
 10
20.9552159081
 20
7.5046161912
 30
0.0
 10
20.8958606274
 20
7.5900557484
 30
0.0
 10
20.8352244926
 20
7.6743385775
 30
0.0
 10
20.7729201014
 20
7.7578614882
 30
0.0
 10
20.7087558339
 20
7.8406780313
 30
0.0
 10
20.6427905847
 20
7.9225258059
 30
0.0
 10
20.5753438954
 20
8.0029353329
 30
0.0
 10
20.5068988884
 20
8.0813406914
 30
0.0
 10
20.4373095129
 20
8.1579556051
 30
0.0
 10
20.3652086417
 20
8.2342829762
 30
0.0
 10
20.2877435154
 20
8.3129394321
 30
0.0
 10
20.2016527039
 20
8.3963913831
 30
0.0
 10
20.1047699608
 20
8.4853874497
 30
0.0
 10
19.9960391148
 20
8.5792378702
 30
0.0
 10
19.8748636053
 20
8.6766540529
 30
0.0
 10
19.7399872713
 20
8.7765551804
 30
0.0
 10
19.5896481171
 20
8.8775694391
 30
0.0
 10
19.4217509792
 20
8.9778720273
 30
0.0
 10
19.3014556236
 20
9.0398842158
 30
0.0
 10
19.2378948559
 20
9.0698270172
 30
0.0
 11
21.9361362507
 21
4.599957553
 31
0.0
 11
21.9343979302
 21
4.7167570425
 31
0.0
 11
21.9296417743
 21
4.824443993
 31
0.0
 11
21.9227162015
 21
4.9230411288
 31
0.0
 11
21.9143409826
 21
5.0126920825
 31
0.0
 11
21.9051382708
 21
5.0934823555
 31
0.0
 11
21.895644236
 21
5.1654764618
 31
0.0
 11
21.886271372
 21
5.2289968813
 31
0.0
 11
21.877102967
 21
5.2858177717
 31
0.0
 11
21.8679506228
 21
5.3384683012
 31
0.0
 11
21.8584834578
 21
5.3894682106
 31
0.0
 11
21.8484390894
 21
5.4403989408
 31
0.0
 11
21.8377874667
 21
5.491490767
 31
0.0
 11
21.8266225017
 21
5.5423402428
 31
0.0
 11
21.8151460836
 21
5.5921643558
 31
0.0
 11
21.8026015078
 21
5.6441738446
 31
0.0
 11
21.7880523757
 21
5.7016719032
 31
0.0
 11
21.7713406054
 21
5.764449144
 31
0.0
 11
21.7524048291
 21
5.8319441112
 31
0.0
 11
21.7314292905
 21
5.902927276
 31
0.0
 11
21.7093187327
 21
5.974158609
 31
0.0
 11
21.6872641622
 21
6.0419671506
 31
0.0
 11
21.6664353944
 21
6.1034118243
 31
0.0
 11
21.6468244517
 21
6.1591636262
 31
0.0
 11
21.6280661486
 21
6.2107835982
 31
0.0
 11
21.6096853967
 21
6.2598811711
 31
0.0
 11
21.5912095047
 21
6.3078865503
 31
0.0
 11
21.5723821966
 21
6.3555122158
 31
0.0
 11
21.5530972021
 21
6.403079342
 31
0.0
 11
21.5333774287
 21
6.4504830882
 31
0.0
 11
21.5130639692
 21
6.4980949601
 31
0.0
 11
21.4914491198
 21
6.5474544002
 31
0.0
 11
21.4676929458
 21
6.6002564339
 31
0.0
 11
21.4409042579
 21
6.6581368022
 31
0.0
 11
21.4100598491
 21
6.7228019484
 31
0.0
 11
21.3739309209
 21
6.7960983284
 31
0.0
 11
21.33134556
 21
6.8793535662
 31
0.0
 11
21.2836624252
 21
6.9687535946
 31
0.0
 11
21.2337612929
 21
7.0585143789
 31
0.0
 11
21.1820257576
 21
7.1478758986
 31
0.0
 11
21.1276204665
 21
7.2382177833
 31
0.0
 11
21.0709548986
 21
7.3287308374
 31
0.0
 11
21.0131785395
 21
7.4177668519
 31
0.0
 11
20.9547850437
 21
7.5047508992
 31
0.0
 11
20.8956110514
 21
7.5899152885
 31
0.0
 11
20.8350886947
 21
7.6740183753
 31
0.0
 11
20.7728021352
 21
7.7574911512
 31
0.0
 11
20.7085919617
 21
7.8403434499
 31
0.0
 11
20.6425070263
 21
7.9223294814
 31
0.0
 11
20.5748853396
 21
8.0029414212
 31
0.0
 11
20.5062841968
 21
8.0815197738
 31
0.0
 11
20.437246188
 21
8.1575296905
 31
0.0
 11
20.3661707933
 21
8.2327541201
 31
0.0
 11
20.2898186187
 21
8.3102595836
 31
0.0
 11
20.204443261
 21
8.3929844048
 31
0.0
 11
20.1072231556
 21
8.482249785
 31
0.0
 11
19.9983865856
 21
8.5761477074
 31
0.0
 11
19.8774830173
 21
8.6732847944
 31
0.0
 11
19.7428397752
 21
8.7729089879
 31
0.0
 11
19.5927101713
 21
8.8736558487
 31
0.0
 11
19.4253512542
 21
8.9734476538
 31
0.0
 11
19.2378948559
 21
9.0698270172
 31
0.0
  0
SPLINE
  5
3D6
100
AcDbEntity
  8
RACCORDO
100
AcDbSpline
 62
253
  6
CONTINUOUS
 70
0
 71
3
 72
57
 73
53
 74
51
 42
0.0000001
 43
0.0000001
 44
0.0000000001
 12
-9.313415126
 22
4.3872749259
 32
0.0
 13
-9.2081719496
 23
4.6040690624
 33
0.0
 40
0.0
 40
0.0
 40
0.0
 40
0.0
 40
0.0052664569
 40
0.0106011995
 40
0.015934759
 40
0.0212340035
 40
0.0265214477
 40
0.0318185747
 40
0.0371214142
 40
0.0424278194
 40
0.0477380359
 40
0.0530497874
 40
0.0583628484
 40
0.0636757363
 40
0.0690477508
 40
0.0746813861
 40
0.0808615882
 40
0.0878330372
 40
0.0956272052
 40
0.1040312814
 40
0.1129204081
 40
0.1224252219
 40
0.1326500156
 40
0.1432684793
 40
0.1538237496
 40
0.1642476114
 40
0.1747034613
 40
0.1855062258
 40
0.1970267842
 40
0.2096083533
 40
0.2234309976
 40
0.2384725367
 40
0.2547278827
 40
0.2722874775
 40
0.2913004761
 40
0.3118931576
 40
0.3341712171
 40
0.3582577599
 40
0.384295363
 40
0.4124428379
 40
0.4428674232
 40
0.4757395193
 40
0.5112340608
 40
0.5495784483
 40
0.591091731
 40
0.636131217
 40
0.6850323028
 40
0.7381608802
 40
0.7957908259
 40
0.858141179
 40
0.9259160879
 40
1.0
 40
1.0
 40
1.0
 40
1.0
 10
19.2378948559
 20
9.0698270172
 30
0.0
 10
19.2215452895
 20
9.0775288153
 30
0.0
 10
19.188635682
 20
9.0930354951
 30
0.0
 10
19.1391819914
 20
9.1163713841
 30
0.0
 10
19.0896469537
 20
9.1397985073
 30
0.0
 10
19.0402870252
 20
9.1632161563
 30
0.0
 10
18.9910686034
 20
9.1866402897
 30
0.0
 10
18.9418628187
 20
9.2101196115
 30
0.0
 10
18.8926199754
 20
9.2336723051
 30
0.0
 10
18.8433557016
 20
9.2572842511
 30
0.0
 10
18.7940802867
 20
9.2809436791
 30
0.0
 10
18.7447996851
 20
9.3046450463
 30
0.0
 10
18.6955258042
 20
9.3283815134
 30
0.0
 10
18.6460803841
 20
9.3522383742
 30
0.0
 10
18.5956590522
 20
9.3766041415
 30
0.0
 10
18.542573681
 20
9.4022976056
 30
0.0
 10
18.4845658526
 20
9.4304195157
 30
0.0
 10
18.4199080107
 20
9.4618202601
 30
0.0
 10
18.3484107331
 20
9.496607288
 30
0.0
 10
18.2710245922
 20
9.5343325057
 30
0.0
 10
18.188392567
 20
9.5746934056
 30
0.0
 10
18.1001805115
 20
9.6178664223
 30
0.0
 10
18.0066822945
 20
9.6637384606
 30
0.0
 10
17.9099892665
 20
9.7112827831
 30
0.0
 10
17.8127223005
 20
9.7592079704
 30
0.0
 10
17.7159876596
 20
9.8069508918
 30
0.0
 10
17.6185176008
 20
9.8551227379
 30
0.0
 10
17.5176993482
 20
9.9050141437
 30
0.0
 10
17.4103692165
 20
9.9581938059
 30
0.0
 10
17.293776997
 20
10.0160225096
 30
0.0
 10
17.1663864726
 20
10.0792730051
 30
0.0
 10
17.0277321139
 20
10.1481867097
 30
0.0
 10
16.8776236261
 20
10.222867781
 30
0.0
 10
16.7153437824
 20
10.3036812377
 30
0.0
 10
16.5397730192
 20
10.3911954643
 30
0.0
 10
16.3497446673
 20
10.4860016687
 30
0.0
 10
16.1441725742
 20
10.5886521957
 30
0.0
 10
15.9219162138
 20
10.6997156855
 30
0.0
 10
15.6816512126
 20
10.8198006875
 30
0.0
 10
15.4219467412
 20
10.9496415425
 30
0.0
 10
15.1412787591
 20
11.0899996577
 30
0.0
 10
14.8380743621
 20
11.2416624377
 30
0.0
 10
14.5105786654
 20
11.4055149738
 30
0.0
 10
14.1565680399
 20
11.5826455372
 30
0.0
 10
13.7732421148
 20
11.7743883829
 30
0.0
 10
13.357448054
 20
11.9822015083
 30
0.0
 10
12.9058799735
 20
12.2075959701
 30
0.0
 10
12.4155618674
 20
12.4521024671
 30
0.0
 10
11.8838441967
 20
12.7170117206
 30
0.0
 10
11.3071249524
 20
13.0043057936
 30
0.0
 10
10.679983346
 20
13.3170148892
 30
0.0
 10
10.2444851696
 20
13.5345681448
 30
0.0
 10
10.0170927026
 20
13.6482639606
 30
0.0
 11
19.2378948559
 21
9.0698270172
 31
0.0
 11
19.1888498041
 21
9.0929401527
 31
0.0
 11
19.1391817293
 21
9.1163803371
 31
0.0
 11
19.0895452697
 21
9.1398589229
 31
0.0
 11
19.0402552068
 21
9.163243546
 31
0.0
 11
18.9911025596
 21
9.1866343042
 31
0.0
 11
18.941884117
 21
9.2101187164
 31
0.0
 11
18.8926341931
 21
9.2336736635
 31
0.0
 11
18.8433702328
 21
9.2572843036
 31
0.0
 11
18.7940876017
 21
9.2809467388
 31
0.0
 11
18.7448062312
 21
9.3046482849
 31
0.0
 11
18.6955277223
 21
9.3283868596
 31
0.0
 11
18.6462655401
 21
9.3521551967
 31
0.0
 11
18.5964698246
 21
9.3762184928
 31
0.0
 11
18.5442645504
 21
9.4014857935
 31
0.0
 11
18.4870121674
 21
9.4292411719
 31
0.0
 11
18.4224512864
 21
9.4605943296
 31
0.0
 11
18.3502970887
 21
9.495700388
 31
0.0
 11
18.2725255176
 21
9.5336127557
 31
0.0
 11
18.1902961758
 21
9.5737766032
 31
0.0
 11
18.1024063889
 21
9.616793903
 31
0.0
 11
18.0079017669
 21
9.663156913
 31
0.0
 11
17.9098012496
 21
9.7113918582
 31
0.0
 11
17.8123231492
 21
9.7594181582
 31
0.0
 11
17.7160903986
 21
9.80691102
 31
0.0
 11
17.6195889129
 21
9.8546034395
 31
0.0
 11
17.5199109695
 21
9.9039295385
 31
0.0
 11
17.4136352117
 21
9.9565842743
 31
0.0
 11
17.2975962356
 21
10.0141377377
 31
0.0
 11
17.1701370797
 21
10.0774211566
 31
0.0
 11
17.0314665909
 21
10.146341625
 31
0.0
 11
16.8816353909
 21
10.2208832565
 31
0.0
 11
16.7198132608
 21
10.3014675906
 31
0.0
 11
16.5446297106
 21
10.3887872317
 31
0.0
 11
16.354925292
 21
10.4834302425
 31
0.0
 11
16.1497298127
 21
10.5858893381
 31
0.0
 11
15.9279067997
 21
10.6967254535
 31
0.0
 11
15.6881301039
 21
10.816568432
 31
0.0
 11
15.4289383551
 21
10.9461514298
 31
0.0
 11
15.1487929067
 21
11.0862470481
 31
0.0
 11
14.8461253486
 21
11.2376411498
 31
0.0
 11
14.5193255465
 21
11.4011405251
 31
0.0
 11
14.1662899451
 21
11.5777729283
 31
0.0
 11
13.7840544709
 21
11.7689548811
 31
0.0
 11
13.3692842457
 21
11.9762419791
 31
0.0
 11
12.9188468051
 21
12.2010900444
 31
0.0
 11
12.4293714496
 21
12.4451804389
 31
0.0
 11
11.898341209
 21
12.7097838557
 31
0.0
 11
11.3238046604
 21
12.9960402082
 31
0.0
 11
10.6993954793
 21
13.3074273809
 31
0.0
 11
10.0170927026
 21
13.6482639606
 31
0.0
  0
SPLINE
  5
3D7
100
AcDbEntity
  8
RACCORDO
100
AcDbSpline
 62
253
  6
CONTINUOUS
 70
0
 71
3
 72
12
 73
8
 74
6
 42
0.0000001
 43
0.0000001
 44
0.0000000001
 12
-5.5254780287
 22
3.4415648047
 32
0.0
 13
-3.9547373275
 23
5.1706216687
 33
0.0
 40
0.0
 40
0.0
 40
0.0
 40
0.0
 40
0.1862545505
 40
0.3795646395
 40
0.5652008964
 40
0.9020826136
 40
1.0
 40
1.0
 40
1.0
 40
1.0
 10
-30.6863317694
 20
1.4559312688
 30
0.0
 10
-31.0293802449
 20
1.669600304
 30
0.0
 10
-31.7182179475
 20
2.1217614746
 30
0.0
 10
-32.7061679612
 20
2.8497712429
 30
0.0
 10
-33.8984787596
 20
3.8461376106
 30
0.0
 10
-34.8484323265
 20
4.8077708275
 30
0.0
 10
-35.4401806742
 20
5.5429665682
 30
0.0
 10
-35.5692598552
 20
5.7117311548
 30
0.0
 11
-30.6863317694
 21
1.4559312688
 31
0.0
 11
-31.6993038866
 21
2.1222029163
 31
0.0
 11
-32.7114633642
 21
2.8698967003
 31
0.0
 11
-33.6376860132
 21
3.646039954
 31
0.0
 11
-35.1699037616
 21
5.2149404579
 31
0.0
 11
-35.5692598552
 21
5.7117311548
 31
0.0
  0
SPLINE
  5
3D8
100
AcDbEntity
  8
RACCORDO
100
AcDbSpline
 62
253
  6
CONTINUOUS
 70
0
 71
3
 72
55
 73
51
 74
49
 42
0.0000001
 43
0.0000001
 44
0.0000000001
 12
-0.0000282937
 22
28.3754213348
 32
0.0
 13
2.4112633617
 23
28.2727845274
 33
0.0
 40
0.0
 40
0.0
 40
0.0
 40
0.0
 40
0.0744354393
 40
0.143388893
 40
0.2072743445
 40
0.2664731596
 40
0.3213177114
 40
0.3720954035
 40
0.4190939746
 40
0.462608342
 40
0.5029093259
 40
0.5402456606
 40
0.5748441989
 40
0.6069022442
 40
0.636583503
 40
0.6640334691
 40
0.6894160038
 40
0.7128956978
 40
0.7346184893
 40
0.7547186333
 40
0.7733173718
 40
0.7905312285
 40
0.8064656994
 40
0.8211988986
 40
0.8348095992
 40
0.8473756394
 40
0.858967282
 40
0.8696714089
 40
0.8795773591
 40
0.8887590529
 40
0.8972395852
 40
0.9050288694
 40
0.9121379964
 40
0.9185577324
 40
0.9242535728
 40
0.9292305666
 40
0.9336622036
 40
0.9377770554
 40
0.9418043472
 40
0.94584421
 40
0.9498894288
 40
0.9539273395
 40
0.9579634798
 40
0.9621364285
 40
0.9666731165
 40
0.9718166761
 40
0.9777018644
 40
0.9843001809
 40
0.9916726711
 40
1.0
 40
1.0
 40
1.0
 40
1.0
 10
-35.5692600868
 20
26.0633284466
 30
0.0
 10
-35.5692607889
 20
26.7673740975
 30
0.0
 10
-35.5690893701
 20
28.1236141954
 30
0.0
 10
-35.5682075276
 20
30.0841129834
 30
0.0
 10
-35.5668175999
 20
31.9004962195
 30
0.0
 10
-35.5650430006
 20
33.583430374
 30
0.0
 10
-35.5627797707
 20
35.1423844593
 30
0.0
 10
-35.5599385834
 20
36.58594169
 30
0.0
 10
-35.5568455549
 20
37.9223318523
 30
0.0
 10
-35.5536986346
 20
39.1596279069
 30
0.0
 10
-35.5507886797
 20
40.3055342598
 30
0.0
 10
-35.5484024316
 20
41.3671115121
 30
0.0
 10
-35.546642765
 20
42.3507242754
 30
0.0
 10
-35.5457128284
 20
43.2619329199
 30
0.0
 10
-35.545767037
 20
44.1055273917
 30
0.0
 10
-35.5461564365
 20
44.885981518
 30
0.0
 10
-35.5465445706
 20
45.6077783113
 30
0.0
 10
-35.5463689742
 20
46.2754050152
 30
0.0
 10
-35.5453250307
 20
46.8930675406
 30
0.0
 10
-35.5436413463
 20
47.4645620323
 30
0.0
 10
-35.5413209908
 20
47.9934063517
 30
0.0
 10
-35.5383525396
 20
48.4828458221
 30
0.0
 10
-35.534950952
 20
48.9357193624
 30
0.0
 10
-35.5312140198
 20
49.3545086256
 30
0.0
 10
-35.5273301518
 20
49.7414347529
 30
0.0
 10
-35.5232547141
 20
50.0986431192
 30
0.0
 10
-35.5184250606
 20
50.4283479034
 30
0.0
 10
-35.5129573003
 20
50.7328785206
 30
0.0
 10
-35.5069073444
 20
51.0145988468
 30
0.0
 10
-35.5003999121
 20
51.2752710026
 30
0.0
 10
-35.4935970135
 20
51.5159077378
 30
0.0
 10
-35.4866309555
 20
51.7369274691
 30
0.0
 10
-35.4796913026
 20
51.9384453991
 30
0.0
 10
-35.4729728834
 20
52.1201577618
 30
0.0
 10
-35.4666518923
 20
52.2817038751
 30
0.0
 10
-35.4608112827
 20
52.4244497436
 30
0.0
 10
-35.4553929164
 20
52.5522464739
 30
0.0
 10
-35.4502055903
 20
52.671062094
 30
0.0
 10
-35.4450496402
 20
52.7861698893
 30
0.0
 10
-35.4398085845
 20
52.9006145243
 30
0.0
 10
-35.4344395454
 20
53.0151538071
 30
0.0
 10
-35.4290254722
 20
53.1296555483
 30
0.0
 10
-35.423262983
 20
53.2453508559
 30
0.0
 10
-35.4161954914
 20
53.3657006014
 30
0.0
 10
-35.4075832851
 20
53.4964483687
 30
0.0
 10
-35.3968345208
 20
53.6432819347
 30
0.0
 10
-35.3835894452
 20
53.8094813244
 30
0.0
 10
-35.367485969
 20
53.9965977664
 30
0.0
 10
-35.3488565778
 20
54.2066797934
 30
0.0
 10
-35.3363082306
 20
54.3546452686
 30
0.0
 10
-35.3296151029
 20
54.4331241938
 30
0.0
 11
-35.5692600868
 21
26.0633284466
 31
0.0
 11
-35.5689646153
 21
28.1754653787
 31
0.0
 11
-35.568079187
 21
30.1320484805
 31
0.0
 11
-35.5666929606
 21
31.9448245514
 31
0.0
 11
-35.5648840976
 21
33.6246148999
 31
0.0
 11
-35.5625848239
 21
35.1808504661
 31
0.0
 11
-35.5597818622
 21
36.6216861487
 31
0.0
 11
-35.5567164417
 21
37.9552868831
 31
0.0
 11
-35.553622176
 21
39.1900215151
 31
0.0
 11
-35.5507751706
 21
40.3335753679
 31
0.0
 11
-35.5484283265
 21
41.3930069969
 31
0.0
 11
-35.5467303031
 21
42.37475363
 31
0.0
 11
-35.5458606855
 21
43.2844137571
 31
0.0
 11
-35.5458317922
 21
44.1266319811
 31
0.0
 11
-35.5461714263
 21
44.9055362609
 31
0.0
 11
-35.5464543835
 21
45.6257763211
 31
0.0
 11
-35.5461999737
 21
46.2920224824
 31
0.0
 11
-35.5451650586
 21
46.9084149762
 31
0.0
 11
-35.5434571699
 21
47.4787624741
 31
0.0
 11
-35.5411102787
 21
48.0065042973
 31
0.0
 11
-35.5381568867
 21
48.4949458034
 31
0.0
 11
-35.5347550448
 21
48.9470803326
 31
0.0
 11
-35.5310385609
 21
49.3651245468
 31
0.0
 11
-35.5271391937
 21
49.7513142249
 31
0.0
 11
-35.5229493527
 21
50.1078562954
 31
0.0
 11
-35.518113717
 21
50.4367384881
 31
0.0
 11
-35.5126367709
 21
50.7404232162
 31
0.0
 11
-35.50659075
 21
51.0214436962
 31
0.0
 11
-35.5000852928
 21
51.2818968944
 31
0.0
 11
-35.4932766574
 21
51.5224392292
 31
0.0
 11
-35.4863160367
 21
51.7433538183
 31
0.0
 11
-35.4793774538
 21
51.9449589267
 31
0.0
 11
-35.4726507111
 21
52.1269973987
 31
0.0
 11
-35.466334771
 21
52.2884958146
 31
0.0
 11
-35.4605635909
 21
52.4296021389
 31
0.0
 11
-35.4552386753
 21
52.555238913
 31
0.0
 11
-35.4501472327
 21
52.6718885056
 31
0.0
 11
-35.4450359424
 21
52.7860502435
 31
0.0
 11
-35.4397903567
 21
52.9005629707
 31
0.0
 11
-35.4344285107
 21
53.0152224595
 31
0.0
 11
-35.4289766401
 21
53.1296700952
 31
0.0
 11
-35.4231607128
 21
53.2440495103
 31
0.0
 11
-35.4162628687
 21
53.3622576013
 31
0.0
 11
-35.4078141211
 21
53.4907104843
 31
0.0
 11
-35.3972006801
 21
53.6362747416
 31
0.0
 11
-35.3839599125
 21
53.8027436907
 31
0.0
 11
-35.3680376233
 21
53.989295447
 31
0.0
 11
-35.3497796472
 21
54.1976946969
 31
0.0
 11
-35.3296151029
 21
54.4331241938
 31
0.0
  0
SPLINE
  5
3D9
100
AcDbEntity
  8
RACCORDO
100
AcDbSpline
 62
253
  6
CONTINUOUS
 70
0
 71
3
 72
18
 73
14
 74
12
 42
0.0000001
 43
0.0000001
 44
0.0000000001
 12
0.1717651015
 22
2.012613465
 32
0.0
 13
1.8080341669
 23
-0.9006268157
 33
0.0
 40
0.0
 40
0.0
 40
0.0
 40
0.0
 40
0.1195761107
 40
0.2318440907
 40
0.336504895
 40
0.4338678677
 40
0.5261346242
 40
0.6152509847
 40
0.70139441
 40
0.7835313243
 40
0.8609089456
 40
0.9332194663
 40
1.0
 40
1.0
 40
1.0
 40
1.0
 10
-35.3296151029
 20
54.4331241938
 30
0.0
 10
-35.3227687686
 20
54.5133443573
 30
0.0
 10
-35.3006012783
 20
54.6683483756
 30
0.0
 10
-35.2382710535
 20
54.8869998429
 30
0.0
 10
-35.148110129
 20
55.0796271767
 30
0.0
 10
-35.0312352585
 20
55.2413161495
 30
0.0
 10
-34.88966279
 20
55.3670865081
 30
0.0
 10
-34.7286679761
 20
55.4518795357
 30
0.0
 10
-34.5589118429
 20
55.4938979691
 30
0.0
 10
-34.3925010104
 20
55.4983917053
 30
0.0
 10
-34.2375236242
 20
55.4749867382
 30
0.0
 10
-34.0975417658
 20
55.4330053375
 30
0.0
 10
-34.0114765836
 20
55.3955453314
 30
0.0
 10
-33.9712294214
 20
55.3754972183
 30
0.0
 11
-35.3296151029
 21
54.4331241938
 31
0.0
 11
-35.2943757537
 21
54.6720750477
 31
0.0
 11
-35.2309563453
 21
54.8898000317
 31
0.0
 11
-35.1400376229
 21
55.0806583703
 31
0.0
 11
-35.0236750081
 21
55.2392061586
 31
0.0
 11
-34.8836555867
 21
55.3622070557
 31
0.0
 11
-34.724263294
 21
55.445856687
 31
0.0
 11
-34.5554802957
 21
55.4881600665
 31
0.0
 11
-34.3896533793
 21
55.4934351364
 31
0.0
 11
-34.2350101444
 21
55.4707561913
 31
0.0
 11
-34.09501429
 21
55.4290990324
 31
0.0
 11
-33.9712294214
 21
55.3754972183
 31
0.0
  0
SPLINE
  5
3DA
100
AcDbEntity
  8
RACCORDO
100
AcDbSpline
 62
253
  6
CONTINUOUS
 70
0
 71
3
 72
43
 73
39
 74
37
 42
0.0000001
 43
0.0000001
 44
0.0000000001
 12
16.9575903615
 22
-8.4473028171
 32
0.0
 13
16.9450447184
 23
-8.4724409259
 33
0.0
 40
0.0
 40
0.0
 40
0.0
 40
0.0
 40
0.0102506515
 40
0.0206661217
 40
0.0311447307
 40
0.0416044347
 40
0.0520024869
 40
0.0623409323
 40
0.0726980577
 40
0.0831205899
 40
0.0935514567
 40
0.1040828578
 40
0.1150639042
 40
0.1268656608
 40
0.1398189962
 40
0.1540426214
 40
0.169493755
 40
0.1861618406
 40
0.2041330214
 40
0.2235351474
 40
0.2444819782
 40
0.2670843648
 40
0.2914560764
 40
0.3177216738
 40
0.3460405128
 40
0.3765923907
 40
0.4095572916
 40
0.4450977432
 40
0.483400493
 40
0.5247360657
 40
0.5693817444
 40
0.6175354875
 40
0.6695165021
 40
0.7257332801
 40
0.7865090055
 40
0.8521008645
 40
0.9229568106
 40
1.0
 40
1.0
 40
1.0
 40
1.0
 10
-33.9712294214
 20
55.3754972183
 30
0.0
 10
-33.9132873049
 20
55.3466337657
 30
0.0
 10
-33.7962659092
 20
55.288854735
 30
0.0
 10
-33.6194131436
 20
55.2027942162
 30
0.0
 10
-33.4410179661
 20
55.1168910141
 30
0.0
 10
-33.262551083
 20
55.0313919568
 30
0.0
 10
-33.0849164087
 20
54.9462042654
 30
0.0
 10
-32.9081820738
 20
54.860638495
 30
0.0
 10
-32.7317684352
 20
54.7740630614
 30
0.0
 10
-32.5549159686
 20
54.6870583373
 30
0.0
 10
-32.3772202268
 20
54.5992748577
 30
0.0
 10
-32.1964552073
 20
54.5097415302
 30
0.0
 10
-32.0079991871
 20
54.4162310694
 30
0.0
 10
-31.8058682581
 20
54.315870497
 30
0.0
 10
-31.5853585539
 20
54.2064801883
 30
0.0
 10
-31.3440780591
 20
54.0871017714
 30
0.0
 10
-31.0817916376
 20
53.9572799116
 30
0.0
 10
-30.7983177993
 20
53.8169141978
 30
0.0
 10
-30.4925550471
 20
53.665334036
 30
0.0
 10
-30.1627315387
 20
53.5014539648
 30
0.0
 10
-29.8068803162
 20
53.3242313875
 30
0.0
 10
-29.4230202773
 20
53.132851264
 30
0.0
 10
-29.0092107208
 20
52.9262642486
 30
0.0
 10
-28.5631988379
 20
52.7033606036
 30
0.0
 10
-28.082353781
 20
52.4628541478
 30
0.0
 10
-27.5637222197
 20
52.2033209647
 30
0.0
 10
-27.0042659454
 20
51.9234618684
 30
0.0
 10
-26.4009058944
 20
51.6219614853
 30
0.0
 10
-25.750182834
 20
51.2969863461
 30
0.0
 10
-25.0479713581
 20
50.9464147001
 30
0.0
 10
-24.2901620385
 20
50.5679342436
 30
0.0
 10
-23.4723461705
 20
50.1591440928
 30
0.0
 10
-22.5892012125
 20
49.7176184604
 30
0.0
 10
-21.634674826
 20
49.2406226492
 30
0.0
 10
-20.6030457561
 20
48.725636069
 30
0.0
 10
-19.4885919602
 20
48.1695820418
 30
0.0
 10
-18.2822017036
 20
47.5676908138
 30
0.0
 10
-17.4465976092
 20
47.1504385356
 30
0.0
 10
-17.011430846
 20
46.9328572453
 30
0.0
 11
-33.9712294214
 21
55.3754972183
 31
0.0
 11
-33.7971181341
 21
55.2894812342
 31
0.0
 11
-33.6197128331
 21
55.2030903927
 31
0.0
 11
-33.4408818166
 21
55.1168988641
 31
0.0
 11
-33.2622056719
 21
55.0312117962
 31
0.0
 11
-33.0846300309
 21
54.9459311271
 31
0.0
 11
-32.9083645671
 21
54.8605335101
 31
0.0
 11
-32.7321533172
 21
54.7742165582
 31
0.0
 11
-32.554987138
 21
54.6870329512
 31
0.0
 11
-32.3778045382
 21
54.599525557
 31
0.0
 11
-32.1990100515
 21
54.5109809877
 31
0.0
 11
-32.012645706
 21
54.418527051
 31
0.0
 11
-31.8123763267
 21
54.3191156291
 31
0.0
 11
-31.5925266236
 21
54.2100818653
 31
0.0
 11
-31.3510288624
 21
54.0905334174
 31
0.0
 11
-31.0886825716
 21
53.9606822224
 31
0.0
 11
-30.8057028291
 21
53.8205446012
 31
0.0
 11
-30.500673191
 21
53.6693034503
 31
0.0
 11
-30.1714917014
 21
53.5057458713
 31
0.0
 11
-29.8162511871
 21
53.328867385
 31
0.0
 11
-29.4330360616
 21
53.1378039673
 31
0.0
 11
-29.0199255799
 21
52.9315777658
 31
0.0
 11
-28.5748088376
 21
52.709134109
 31
0.0
 11
-28.0949733899
 21
52.4691473343
 31
0.0
 11
-27.5773433526
 21
52.210152604
 31
0.0
 11
-27.0187931034
 21
51.9307765037
 31
0.0
 11
-26.4164987088
 21
51.6297818604
 31
0.0
 11
-25.7673103707
 21
51.3055573056
 31
0.0
 11
-25.0666826496
 21
50.9557335695
 31
0.0
 11
-24.3100013767
 21
50.5777923647
 31
0.0
 11
-23.4939698973
 21
50.1699409422
 31
0.0
 11
-22.6131139274
 21
49.7296055833
 31
0.0
 11
-21.6603963121
 21
49.2535559276
 31
0.0
 11
-20.63024115
 21
48.7392532067
 31
0.0
 11
-19.5183357922
 21
48.1844277168
 31
0.0
 11
-18.3171968322
 21
47.5850694476
 31
0.0
 11
-17.011430846
 21
46.9328572453
 31
0.0
  0
SPLINE
  5
3DB
100
AcDbEntity
  8
RACCORDO
100
AcDbSpline
 62
253
  6
CONTINUOUS
 70
0
 71
3
 72
50
 73
46
 74
44
 42
0.0000001
 43
0.0000001
 44
0.0000000001
 12
-9.1995292537
 22
4.5997829611
 32
0.0
 13
-9.0883512569
 23
4.8157256164
 33
0.0
 40
0.0
 40
0.0
 40
0.0
 40
0.0
 40
0.0752984049
 40
0.1439841543
 40
0.2067995642
 40
0.2643497456
 40
0.3171399664
 40
0.3656061011
 40
0.4101471069
 40
0.4511089169
 40
0.488809529
 40
0.5235347894
 40
0.5555426681
 40
0.5850643443
 40
0.6123082795
 40
0.6374605245
 40
0.660692259
 40
0.6821626595
 40
0.7019977528
 40
0.7203063623
 40
0.7372217216
 40
0.7528872041
 40
0.7673579914
 40
0.7806095603
 40
0.7926461283
 40
0.8037344565
 40
0.8142495544
 40
0.8245729667
 40
0.8349271332
 40
0.845286786
 40
0.855629401
 40
0.8659709567
 40
0.8763258881
 40
0.8867020995
 40
0.8971002828
 40
0.9075154414
 40
0.9179471021
 40
0.9283928225
 40
0.9388521683
 40
0.949322167
 40
0.9598551693
 40
0.9704294416
 40
0.9808352778
 40
0.9908466065
 40
1.0
 40
1.0
 40
1.0
 40
1.0
 10
-18.974285335
 20
28.1439526424
 30
0.0
 10
-19.2051886279
 20
28.259404749
 30
0.0
 10
-19.646637068
 20
28.4803308465
 30
0.0
 10
-20.2804362666
 20
28.7981150117
 30
0.0
 10
-20.8597324774
 20
29.0888415867
 30
0.0
 10
-21.3903399781
 20
29.355086289
 30
0.0
 10
-21.8770657199
 20
29.599089614
 30
0.0
 10
-22.3240047953
 20
29.8229347196
 30
0.0
 10
-22.7347920669
 20
30.0284037534
 30
0.0
 10
-23.1126291041
 20
30.2172417046
 30
0.0
 10
-23.4603828741
 20
30.3909959077
 30
0.0
 10
-23.7806712515
 20
30.5510375566
 30
0.0
 10
-24.0758616296
 20
30.6985732048
 30
0.0
 10
-24.3480969182
 20
30.834665102
 30
0.0
 10
-24.5992961053
 20
30.960271993
 30
0.0
 10
-24.8311942623
 20
31.0762604813
 30
0.0
 10
-25.045380764
 20
31.1834107371
 30
0.0
 10
-25.2432427536
 20
31.2824472146
 30
0.0
 10
-25.4259794905
 20
31.373992051
 30
0.0
 10
-25.594725294
 20
31.4585984083
 30
0.0
 10
-25.7506638535
 20
31.5368536858
 30
0.0
 10
-25.8948175054
 20
31.6092567848
 30
0.0
 10
-26.027723261
 20
31.6760678495
 30
0.0
 10
-26.1494915011
 20
31.7373334848
 30
0.0
 10
-26.2608808959
 20
31.7934257519
 30
0.0
 10
-26.3638728024
 20
31.845334254
 30
0.0
 10
-26.4616027356
 20
31.8946329561
 30
0.0
 10
-26.5570612059
 20
31.942845879
 30
0.0
 10
-26.6520179389
 20
31.9908700453
 30
0.0
 10
-26.7470041106
 20
32.0389818396
 30
0.0
 10
-26.8419188133
 20
32.0871389982
 30
0.0
 10
-26.9367820113
 20
32.1353618282
 30
0.0
 10
-27.0317070764
 20
32.1837170624
 30
0.0
 10
-27.1267586666
 20
32.2322515351
 30
0.0
 10
-27.2219509432
 20
32.2809644441
 30
0.0
 10
-27.3172684518
 20
32.3298498513
 30
0.0
 10
-27.412684146
 20
32.3789008471
 30
0.0
 10
-27.5081853149
 20
32.4281168116
 30
0.0
 10
-27.6037501534
 20
32.4774960334
 30
0.0
 10
-27.6995194104
 20
32.5271313495
 30
0.0
 10
-27.795567488
 20
32.5770847682
 30
0.0
 10
-27.8913367599
 20
32.6270972165
 30
0.0
 10
-27.9854209999
 20
32.6764721855
 30
0.0
 10
-28.0750800784
 20
32.7237955108
 30
0.0
 10
-28.1331437792
 20
32.7545498631
 30
0.0
 10
-28.1608735311
 20
32.7692432737
 30
0.0
 11
-18.974285335
 21
28.1439526424
 31
0.0
 11
-19.6668657833
 21
28.490567701
 31
0.0
 11
-20.2984071394
 21
28.8071767612
 31
0.0
 11
-20.875869891
 21
29.0969314622
 31
0.0
 11
-21.4049429609
 21
29.3623715872
 31
0.0
 11
-21.8903346683
 21
29.605701428
 31
0.0
 11
-22.3360575584
 21
29.8289203684
 31
0.0
 11
-22.7457781993
 21
30.0338706023
 31
0.0
 11
-23.1226341102
 21
30.2222329452
 31
0.0
 11
-23.4695073281
 21
30.39555688
 31
0.0
 11
-23.7890025779
 21
30.5552071162
 31
0.0
 11
-24.0834840276
 21
30.7023883364
 31
0.0
 11
-24.3550795746
 21
30.8381615902
 31
0.0
 11
-24.6057077761
 21
30.9634841347
 31
0.0
 11
-24.8370815875
 21
31.0792090013
 31
0.0
 11
-25.0507773869
 21
31.1861203668
 31
0.0
 11
-25.2482504483
 21
31.2849685301
 31
0.0
 11
-25.4306533725
 21
31.3763467123
 31
0.0
 11
-25.5989900811
 21
31.4607498409
 31
0.0
 11
-25.7544891699
 21
31.5387849113
 31
0.0
 11
-25.8984734127
 21
31.611103781
 31
0.0
 11
-26.0314539063
 21
31.6779533611
 31
0.0
 11
-26.1532089168
 21
31.7392131121
 31
0.0
 11
-26.2637811633
 21
31.7948946088
 31
0.0
 11
-26.3656247706
 21
31.8462247899
 31
0.0
 11
-26.4621853884
 21
31.8949370801
 31
0.0
 11
-26.5569627664
 21
31.9428068969
 31
0.0
 11
-26.6519962693
 21
31.9908712083
 31
0.0
 11
-26.7470507269
 21
32.0390190721
 31
0.0
 11
-26.8419158758
 21
32.0871528036
 31
0.0
 11
-26.9367343448
 21
32.1353543863
 31
0.0
 11
-27.0316343467
 21
32.1836990853
 31
0.0
 11
-27.1266843959
 21
32.2322313248
 31
0.0
 11
-27.2218918176
 21
32.2809522126
 31
0.0
 11
-27.3172103221
 21
32.3298391997
 31
0.0
 11
-27.4126330824
 21
32.3788947274
 31
0.0
 11
-27.5081349456
 21
32.4281125546
 31
0.0
 11
-27.6037074996
 21
32.4774989921
 31
0.0
 11
-27.6993158951
 21
32.5270545645
 31
0.0
 11
-27.7954280066
 21
32.5770462572
 31
0.0
 11
-27.891831505
 21
32.6273972796
 31
0.0
 11
-27.9865986295
 21
32.6771387427
 31
0.0
 11
-28.0776692333
 21
32.7251914417
 31
0.0
 11
-28.1608735311
 21
32.7692432737
 31
0.0
  0
SPLINE
  5
3DC
100
AcDbEntity
  8
RACCORDO
100
AcDbSpline
 62
253
  6
CONTINUOUS
 70
0
 71
3
 72
65
 73
61
 74
59
 42
0.0000001
 43
0.0000001
 44
0.0000000001
 12
-3.5363228534
 22
1.8738121587
 32
0.0
 13
-0.0059280567
 23
-4.002088978
 33
0.0
 40
0.0
 40
0.0
 40
0.0
 40
0.0
 40
0.0256863908
 40
0.0502504153
 40
0.0742191501
 40
0.098016359
 40
0.1213222083
 40
0.143241709
 40
0.1652096107
 40
0.1888655058
 40
0.2141289246
 40
0.2411534006
 40
0.2703605182
 40
0.3014483601
 40
0.3315955347
 40
0.3586167016
 40
0.3822674696
 40
0.4032629803
 40
0.4220794029
 40
0.4387715707
 40
0.4540816462
 40
0.4692290887
 40
0.4848128342
 40
0.5007601655
 40
0.516215543
 40
0.5300575196
 40
0.5421604723
 40
0.5528410518
 40
0.5624044538
 40
0.5711753775
 40
0.5795948501
 40
0.5881401779
 40
0.5968652727
 40
0.6056916585
 40
0.6145494314
 40
0.6235941141
 40
0.633423282
 40
0.6446724488
 40
0.6575694043
 40
0.6710298128
 40
0.6841848225
 40
0.6963828353
 40
0.7077311793
 40
0.7186256828
 40
0.7294158614
 40
0.7402407914
 40
0.7511588065
 40
0.7622086438
 40
0.7734656764
 40
0.7851675572
 40
0.7975991499
 40
0.8110689634
 40
0.8259878873
 40
0.8428723295
 40
0.8622597792
 40
0.8847038627
 40
0.910696858
 40
0.9397460809
 40
0.9699401399
 40
1.0
 40
1.0
 40
1.0
 40
1.0
 10
-28.1608735311
 20
32.7692432737
 30
0.0
 10
-28.191151988
 20
32.7852870975
 30
0.0
 10
-28.2509273128
 20
32.8156660138
 30
0.0
 10
-28.340745923
 20
32.8573756005
 30
0.0
 10
-28.4296979374
 20
32.8948217031
 30
0.0
 10
-28.5184354408
 20
32.9282803657
 30
0.0
 10
-28.6058322963
 20
32.9573452565
 30
0.0
 10
-28.6919714511
 20
32.9822285213
 30
0.0
 10
-28.7795045274
 20
33.0037091971
 30
0.0
 10
-28.8722744245
 20
33.0222248286
 30
0.0
 10
-28.9725315677
 20
33.0371253038
 30
0.0
 10
-29.0808663766
 20
33.0469937954
 30
0.0
 10
-29.1974193944
 20
33.0498675097
 30
0.0
 10
-29.3180383576
 20
33.0433975624
 30
0.0
 10
-29.4348074329
 20
33.0272348855
 30
0.0
 10
-29.5401013501
 20
33.0035154494
 30
0.0
 10
-29.6315664628
 20
32.9753807032
 30
0.0
 10
-29.7105549134
 20
32.9447397112
 30
0.0
 10
-29.7790744886
 20
32.9132255405
 30
0.0
 10
-29.8390657506
 20
32.8815883277
 30
0.0
 10
-29.8932536395
 20
32.8496074221
 30
0.0
 10
-29.944649167
 20
32.815936886
 30
0.0
 10
-29.9950985129
 20
32.7793939629
 30
0.0
 10
-30.044067296
 20
32.7402266369
 30
0.0
 10
-30.0893713546
 20
32.7003100843
 30
0.0
 10
-30.12914347
 20
32.6619659595
 30
0.0
 10
-30.1629582032
 20
32.6266826721
 30
0.0
 10
-30.1917226653
 20
32.5945065394
 30
0.0
 10
-30.2166725839
 20
32.5649077517
 30
0.0
 10
-30.2389593133
 20
32.5370267733
 30
0.0
 10
-30.2597857898
 20
32.5097292662
 30
0.0
 10
-30.2799564328
 20
32.4820192465
 30
0.0
 10
-30.2998362845
 20
32.453436154
 30
0.0
 10
-30.3193051858
 20
32.4240698344
 30
0.0
 10
-30.3383356904
 20
32.3939122742
 30
0.0
 10
-30.3573828452
 20
32.3621940174
 30
0.0
 10
-30.3772792658
 20
32.327276089
 30
0.0
 10
-30.3987573272
 20
32.2873586334
 30
0.0
 10
-30.4213585864
 20
32.2425627603
 30
0.0
 10
-30.443835654
 20
32.1948778931
 30
0.0
 10
-30.4647225043
 20
32.1474935039
 30
0.0
 10
-30.4834162988
 20
32.1022377707
 30
0.0
 10
-30.5000705201
 20
32.0594138469
 30
0.0
 10
-30.5152128357
 20
32.0180272272
 30
0.0
 10
-30.5293663605
 20
31.9770302777
 30
0.0
 10
-30.5427529756
 20
31.9357436936
 30
0.0
 10
-30.5555330299
 20
31.8939033367
 30
0.0
 10
-30.5677575442
 20
31.8512972641
 30
0.0
 10
-30.5795513922
 20
31.8074862059
 30
0.0
 10
-30.5910746182
 20
31.761699841
 30
0.0
 10
-30.6025101092
 20
31.7128542628
 30
0.0
 10
-30.6139999884
 20
31.6596216917
 30
0.0
 10
-30.6256513816
 20
31.600356615
 30
0.0
 10
-30.6374630464
 20
31.5330904938
 30
0.0
 10
-30.6492794569
 20
31.4556507298
 30
0.0
 10
-30.6607227713
 20
31.3658871672
 30
0.0
 10
-30.6710365548
 20
31.2630204853
 30
0.0
 10
-30.6791805488
 20
31.1495885919
 30
0.0
 10
-30.6843147733
 20
31.0305506734
 30
0.0
 10
-30.6855314596
 20
30.9501672948
 30
0.0
 10
-30.6855908584
 20
30.9100665499
 30
0.0
 11
-28.1608735311
 21
32.7692432737
 31
0.0
 11
-28.2525333241
 21
32.8157855712
 31
0.0
 11
-28.3417103533
 21
32.8571597887
 31
0.0
 11
-28.4301344305
 21
32.8943459451
 31
0.0
 11
-28.5192610821
 21
32.9279143941
 31
0.0
 11
-28.6077769118
 21
32.9573192979
 31
0.0
 11
-28.6920626004
 21
32.9816380822
 31
0.0
 11
-28.7774517446
 21
33.0025712468
 31
0.0
 11
-28.8703016673
 21
33.0210614565
 31
0.0
 11
-28.9703189275
 21
33.0358629544
 31
0.0
 11
-29.0780356307
 21
33.0455841951
 31
0.0
 11
-29.1948930373
 21
33.0483278903
 31
0.0
 11
-29.3191257586
 21
33.0415689715
 31
0.0
 11
-29.4386216629
 21
33.024908015
 31
0.0
 11
-29.5441092674
 21
33.0010985306
 31
0.0
 11
-29.6345593136
 21
32.9732076649
 31
0.0
 11
-29.7129128325
 21
32.9428581376
 31
0.0
 11
-29.7813298802
 21
32.9113944656
 31
0.0
 11
-29.8404254619
 21
32.8802426588
 31
0.0
 11
-29.8931867313
 21
32.8490890151
 31
0.0
 11
-29.943897002
 21
32.8158710651
 31
0.0
 11
-29.9944083072
 21
32.779287925
 31
0.0
 11
-30.0442489585
 21
32.7394225563
 31
0.0
 11
-30.0906555225
 21
32.6985284087
 31
0.0
 11
-30.1305377913
 21
32.6600807917
 31
0.0
 11
-30.1640527725
 21
32.6251107588
 31
0.0
 11
-30.1925507354
 21
32.5932521104
 31
0.0
 11
-30.2172200004
 21
32.5639895412
 31
0.0
 11
-30.2391456347
 21
32.5365774845
 31
0.0
 11
-30.2595833021
 21
32.5097877565
 31
0.0
 11
-30.2797164095
 21
32.4821428068
 31
0.0
 11
-30.2996525402
 21
32.4534746642
 31
0.0
 11
-30.3191709613
 21
32.4240328976
 31
0.0
 11
-30.3380924115
 21
32.3940553181
 31
0.0
 11
-30.3567298924
 21
32.3630244423
 31
0.0
 11
-30.3762114594
 21
32.3288500718
 31
0.0
 11
-30.3975522733
 21
32.2892093163
 31
0.0
 11
-30.4208171856
 21
32.243135099
 31
0.0
 11
-30.4438002125
 21
32.1944140865
 31
0.0
 11
-30.4650410113
 21
32.1462415231
 31
0.0
 11
-30.483686115
 21
32.1011248211
 31
0.0
 11
-30.5001443002
 21
32.0587946419
 31
0.0
 11
-30.5151345772
 21
32.0178517168
 31
0.0
 11
-30.5292225611
 21
31.9770310569
 31
0.0
 11
-30.5425974296
 21
31.9358249704
 31
0.0
 11
-30.555363423
 21
31.894036514
 31
0.0
 11
-30.5675655773
 21
31.8515308059
 31
0.0
 11
-30.5792801861
 21
31.8080288153
 31
0.0
 11
-30.5907150684
 21
31.7626142632
 31
0.0
 11
-30.6020593258
 21
31.714172457
 31
0.0
 11
-30.6134379668
 21
31.6614795746
 31
0.0
 11
-30.6249592451
 21
31.6028947883
 31
0.0
 11
-30.6366537184
 21
31.5363413131
 31
0.0
 11
-30.6483720457
 21
31.4596409318
 31
0.0
 11
-30.6597536134
 21
31.3705416146
 31
0.0
 11
-30.6701687313
 21
31.2670379145
 31
0.0
 11
-30.6785291254
 21
31.1510812103
 31
0.0
 11
-30.6837581237
 21
31.0303549554
 31
0.0
 11
-30.6855908584
 21
30.9100665499
 31
0.0
  0
SPLINE
  5
3DD
100
AcDbEntity
  8
RACCORDO
100
AcDbSpline
 62
253
  6
CONTINUOUS
 70
0
 71
3
 72
44
 73
40
 74
38
 42
0.0000001
 43
0.0000001
 44
0.0000000001
 12
-0.0134413895
 22
-9.1025382385
 32
0.0
 13
-0.0000126598
 23
-9.1025481627
 33
0.0
 40
0.0
 40
0.0
 40
0.0
 40
0.0
 40
0.0129118637
 40
0.0260919951
 40
0.0393943992
 40
0.0524768689
 40
0.065005814
 40
0.0770315796
 40
0.0888935112
 40
0.1009321815
 40
0.1133969553
 40
0.1262153797
 40
0.1390600265
 40
0.1517942774
 40
0.1645139366
 40
0.1774838869
 40
0.1911115066
 40
0.2058024784
 40
0.2218630907
 40
0.2393316655
 40
0.258171462
 40
0.2784124223
 40
0.3002056789
 40
0.3237136913
 40
0.3490671023
 40
0.3763943946
 40
0.4058476707
 40
0.4375910292
 40
0.4717915136
 40
0.5086223641
 40
0.5482677301
 40
0.5909402274
 40
0.6368982425
 40
0.6864280465
 40
0.7398464027
 40
0.7975042149
 40
0.8597872143
 40
0.9271227977
 40
1.0
 40
1.0
 40
1.0
 40
1.0
 10
-30.6855908584
 20
30.9100665499
 30
0.0
 10
-30.6856487095
 20
30.870889639
 30
0.0
 10
-30.685748154
 20
30.791721819
 30
0.0
 10
-30.6859886319
 20
30.6721922375
 30
0.0
 10
-30.6863402069
 20
30.5521452873
 30
0.0
 10
-30.6867324017
 20
30.4340743015
 30
0.0
 10
-30.6871360126
 20
30.3198769317
 30
0.0
 10
-30.6875414718
 20
30.2093829277
 30
0.0
 10
-30.6878970397
 20
30.1003763414
 30
0.0
 10
-30.6882255893
 20
29.9900376348
 30
0.0
 10
-30.6885294653
 20
29.8767966725
 30
0.0
 10
-30.6888091786
 20
29.761110161
 30
0.0
 10
-30.6890618216
 20
29.6446059426
 30
0.0
 10
-30.6892863873
 20
29.5284013391
 30
0.0
 10
-30.6894843429
 20
29.4118164927
 30
0.0
 10
-30.6896589524
 20
29.2925209619
 30
0.0
 10
-30.6898123158
 20
29.1672440745
 30
0.0
 10
-30.6899431738
 20
29.0325895233
 30
0.0
 10
-30.6900459753
 20
28.8862807844
 30
0.0
 10
-30.6901131271
 20
28.7273837311
 30
0.0
 10
-30.6901377463
 20
28.5558027259
 30
0.0
 10
-30.690109038
 20
28.3710998443
 30
0.0
 10
-30.6899942517
 20
28.1722327722
 30
0.0
 10
-30.6897921399
 20
27.957853654
 30
0.0
 10
-30.6894938555
 20
27.7266833576
 30
0.0
 10
-30.6890969664
 20
27.4774741694
 30
0.0
 10
-30.6886042622
 20
27.2088768501
 30
0.0
 10
-30.6880271448
 20
26.9194251349
 30
0.0
 10
-30.6873910962
 20
26.6075885849
 30
0.0
 10
-30.6867283159
 20
26.271775905
 30
0.0
 10
-30.6860724897
 20
25.9102575285
 30
0.0
 10
-30.685478471
 20
25.5210455196
 30
0.0
 10
-30.6850427163
 20
25.1018420749
 30
0.0
 10
-30.6848808865
 20
24.6500335264
 30
0.0
 10
-30.6849895688
 20
24.1627256518
 30
0.0
 10
-30.6853324143
 20
23.6367223633
 30
0.0
 10
-30.6858108128
 20
23.0684917647
 30
0.0
 10
-30.6862350545
 20
22.4540826891
 30
0.0
 10
-30.6863322036
 20
22.0286514677
 30
0.0
 10
-30.6863325112
 20
21.8075287198
 30
0.0
 11
-30.6855908584
 21
30.9100665499
 31
0.0
 11
-30.6857617832
 21
30.7925358132
 31
0.0
 11
-30.6860061321
 21
30.6725632809
 31
0.0
 11
-30.6863501592
 21
30.5514779957
 31
0.0
 11
-30.6867422919
 21
30.4323948305
 31
0.0
 11
-30.6871440308
 21
30.3183502125
 31
0.0
 11
-30.6875358084
 21
30.2088858023
 31
0.0
 11
-30.6878902132
 21
30.1009125803
 31
0.0
 11
-30.6882164599
 21
29.9913304904
 31
0.0
 11
-30.6885216338
 21
29.8778696964
 31
0.0
 11
-30.6888041427
 21
29.7611897132
 31
0.0
 11
-30.6890579288
 21
29.6442709728
 31
0.0
 11
-30.689281939
 21
29.528357057
 31
0.0
 11
-30.6894785766
 21
29.4125759136
 31
0.0
 11
-30.6896514361
 21
29.2945164425
 31
0.0
 11
-30.689803344
 21
29.1704704711
 31
0.0
 11
-30.6899334033
 21
29.0367452562
 31
0.0
 11
-30.6900364373
 21
28.8905527953
 31
0.0
 11
-30.6901042509
 21
28.7315442658
 31
0.0
 11
-30.6901288991
 21
28.5600541128
 31
0.0
 11
-30.6900972968
 21
28.3758097992
 31
0.0
 11
-30.6899856255
 21
28.1774356629
 31
0.0
 11
-30.6897854921
 21
27.9634529417
 31
0.0
 11
-30.6894903927
 21
27.7326724857
 31
0.0
 11
-30.6890975918
 21
27.4839248015
 31
0.0
 11
-30.6886101494
 21
27.21582538
 31
0.0
 11
-30.6880398835
 21
26.9268804936
 31
0.0
 11
-30.6874106738
 21
26.6155695729
 31
0.0
 11
-30.6867537585
 21
26.2803156261
 31
0.0
 11
-30.6861058298
 21
25.9194423545
 31
0.0
 11
-30.6855240271
 21
25.5310143277
 31
0.0
 11
-30.6850997067
 21
25.1126794974
 31
0.0
 11
-30.6849271356
 21
24.6618321039
 31
0.0
 11
-30.6850201212
 21
24.1755889525
 31
0.0
 11
-30.6853392558
 21
23.6507560376
 31
0.0
 11
-30.685784156
 21
23.0838222099
 31
0.0
 11
-30.6861781015
 21
22.4708969454
 31
0.0
 11
-30.6863325112
 21
21.8075287198
 31
0.0
  0
SPLINE
  5
3DE
100
AcDbEntity
  8
RACCORDO
100
AcDbSpline
 62
253
  6
CONTINUOUS
 70
0
 71
3
 72
12
 73
8
 74
6
 42
0.0000001
 43
0.0000001
 44
0.0000000001
 12
-5.5254780286
 22
3.4415648046
 32
0.0
 13
-3.9547373275
 23
5.1706216687
 33
0.0
 40
0.0
 40
0.0
 40
0.0
 40
0.0
 40
0.1862545505
 40
0.3795646395
 40
0.5652008964
 40
0.9020826136
 40
1.0
 40
1.0
 40
1.0
 40
1.0
 10
-30.6863317694
 20
21.8075282578
 30
0.0
 10
-31.0293802449
 20
22.021197293
 30
0.0
 10
-31.7182179474
 20
22.4733584635
 30
0.0
 10
-32.7061679612
 20
23.2013682318
 30
0.0
 10
-33.8984787596
 20
24.1977345995
 30
0.0
 10
-34.8484323265
 20
25.1593678165
 30
0.0
 10
-35.4401806742
 20
25.8945635571
 30
0.0
 10
-35.5692598552
 20
26.0633281437
 30
0.0
 11
-30.6863317694
 21
21.8075282578
 31
0.0
 11
-31.6993038866
 21
22.4737999053
 31
0.0
 11
-32.7114633642
 21
23.2214936892
 31
0.0
 11
-33.6376860132
 21
23.9976369429
 31
0.0
 11
-35.1699037616
 21
25.5665374468
 31
0.0
 11
-35.5692598552
 21
26.0633281437
 31
0.0
  0
SPLINE
  5
3DF
100
AcDbEntity
  8
RACCORDO
100
AcDbSpline
 62
253
  6
CONTINUOUS
 70
0
 71
3
 72
18
 73
14
 74
12
 42
0.0000001
 43
0.0000001
 44
0.0000000001
 12
-2.3693896478
 22
1.3388119595
 32
0.0
 13
-0.2352342323
 23
2.7112892915
 33
0.0
 40
0.0
 40
0.0
 40
0.0
 40
0.0
 40
0.053564872
 40
0.1176657276
 40
0.1934743661
 40
0.2818169623
 40
0.3813228559
 40
0.4874543922
 40
0.5952323834
 40
0.7020228233
 40
0.8065209048
 40
0.9064543481
 40
1.0
 40
1.0
 40
1.0
 40
1.0
 10
-33.9712294214
 20
-25.0162717015
 30
0.0
 10
-34.0135347725
 20
-24.9923672711
 30
0.0
 10
-34.1041740545
 20
-24.9357245868
 30
0.0
 10
-34.2449337502
 20
-24.8305624645
 30
0.0
 10
-34.4000739371
 20
-24.6930505504
 30
0.0
 10
-34.5649637579
 20
-24.5193732617
 30
0.0
 10
-34.7311170108
 20
-24.3103227777
 30
0.0
 10
-34.8880207592
 20
-24.0727828853
 30
0.0
 10
-35.0270080871
 20
-23.8167975128
 30
0.0
 10
-35.1431223253
 20
-23.5512859743
 30
0.0
 10
-35.2337857212
 20
-23.2835234704
 30
0.0
 10
-35.2973896834
 20
-23.0204379099
 30
0.0
 10
-35.3222800563
 20
-22.8463349368
 30
0.0
 10
-35.3296151029
 20
-22.7617918287
 30
0.0
 11
-33.9712294214
 21
-25.0162717015
 31
0.0
 11
-34.0950150255
 21
-24.9392807612
 31
0.0
 11
-34.2350106668
 21
-24.8351960603
 31
0.0
 11
-34.3896539539
 21
-24.6986317743
 31
0.0
 11
-34.5554808106
 21
-24.5245505834
 31
0.0
 11
-34.7242637343
 21
-24.3127807363
 31
0.0
 11
-34.8836559247
 21
-24.0719086131
 31
0.0
 11
-35.023675245
 21
-23.8141716805
 31
0.0
 11
-35.1400377722
 21
-23.5478558957
 31
0.0
 11
-35.2309564246
 21
-23.2783919111
 31
0.0
 11
-35.2943757858
 21
-23.0139232445
 31
0.0
 11
-35.3296151029
 21
-22.7617918287
 31
0.0
  0
SPLINE
  5
3E0
100
AcDbEntity
  8
RACCORDO
100
AcDbSpline
 62
253
  6
CONTINUOUS
 70
0
 71
3
 72
56
 73
52
 74
50
 42
0.0000001
 43
0.0000001
 44
0.0000000001
 12
-2.4601137516
 22
28.3726047872
 32
0.0
 13
0.0000283059
 23
28.4790600631
 33
0.0
 40
0.0
 40
0.0
 40
0.0
 40
0.0
 40
0.0082703388
 40
0.0157180227
 40
0.0224669005
 40
0.0285196551
 40
0.0338196784
 40
0.0384893143
 40
0.0427670399
 40
0.046876963
 40
0.0509805481
 40
0.0550991981
 40
0.0592123307
 40
0.063290627
 40
0.0674095
 40
0.0717573312
 40
0.0765215878
 40
0.081857997
 40
0.0878164488
 40
0.0944132838
 40
0.1016621707
 40
0.1095691734
 40
0.1181397104
 40
0.1273811903
 40
0.1373345318
 40
0.1480765648
 40
0.1596826222
 40
0.1722295786
 40
0.1858080029
 40
0.2005010302
 40
0.2163794746
 40
0.2335222684
 40
0.2520297383
 40
0.2720175369
 40
0.2936041812
 40
0.316905953
 40
0.3420603309
 40
0.369242101
 40
0.3986279617
 40
0.4303836616
 40
0.4646786185
 40
0.5016937982
 40
0.5416291417
 40
0.584734468
 40
0.6312831851
 40
0.6815820948
 40
0.7359169772
 40
0.7945719184
 40
0.8578789533
 40
0.9262177563
 40
1.0
 40
1.0
 40
1.0
 40
1.0
 10
-35.3296151029
 20
-22.7617918287
 30
0.0
 10
-35.3363970942
 20
-22.6835748111
 30
0.0
 10
-35.3491418041
 20
-22.53490851
 30
0.0
 10
-35.3677975085
 20
-22.3224472154
 30
0.0
 10
-35.383865253
 20
-22.1308917157
 30
0.0
 10
-35.3970887888
 20
-21.9595605881
 30
0.0
 10
-35.4078079106
 20
-21.8078364841
 30
0.0
 10
-35.4163980448
 20
-21.6728579175
 30
0.0
 10
-35.4234484103
 20
-21.5491042021
 30
0.0
 10
-35.4292194377
 20
-21.4306645076
 30
0.0
 10
-35.4346702856
 20
-21.3137221651
 30
0.0
 10
-35.4400576733
 20
-21.1967462209
 30
0.0
 10
-35.4453088681
 20
-21.0800044241
 30
0.0
 10
-35.4504402805
 20
-20.963255172
 30
0.0
 10
-35.4555349594
 20
-20.8442742296
 30
0.0
 10
-35.4607536659
 20
-20.7187808822
 30
0.0
 10
-35.4662601537
 20
-20.5817315369
 30
0.0
 10
-35.472130379
 20
-20.4293949934
 30
0.0
 10
-35.4783427052
 20
-20.2596622912
 30
0.0
 10
-35.4847964393
 20
-20.0717714991
 30
0.0
 10
-35.4913551932
 20
-19.8653763697
 30
0.0
 10
-35.4978517703
 20
-19.6402343051
 30
0.0
 10
-35.5041608348
 20
-19.3961642809
 30
0.0
 10
-35.5101355668
 20
-19.1326544428
 30
0.0
 10
-35.5156508907
 20
-18.8485163013
 30
0.0
 10
-35.520612864
 20
-18.5419178092
 30
0.0
 10
-35.5249690807
 20
-18.2106865884
 30
0.0
 10
-35.5287368441
 20
-17.8525209272
 30
0.0
 10
-35.5324901462
 20
-17.4650491135
 30
0.0
 10
-35.5360137565
 20
-17.0459479357
 30
0.0
 10
-35.5392133994
 20
-16.5930066253
 30
0.0
 10
-35.541960535
 20
-16.1038510723
 30
0.0
 10
-35.5440609244
 20
-15.5756818139
 30
0.0
 10
-35.5455980507
 20
-15.0053249446
 30
0.0
 10
-35.5464545218
 20
-14.3894541366
 30
0.0
 10
-35.5465056648
 20
-13.7245363709
 30
0.0
 10
-35.5460878245
 20
-13.0065042074
 30
0.0
 10
-35.5457329429
 20
-12.2307156253
 30
0.0
 10
-35.5457696921
 20
-11.3922603711
 30
0.0
 10
-35.5467947946
 20
-10.4862800282
 30
0.0
 10
-35.5485940523
 20
-9.5078755962
 30
0.0
 10
-35.5510003786
 20
-8.4518227436
 30
0.0
 10
-35.5539046495
 20
-7.3121338597
 30
0.0
 10
-35.5570172848
 20
-6.0819431501
 30
0.0
 10
-35.5600717795
 20
-4.7533704592
 30
0.0
 10
-35.5628665965
 20
-3.3181945445
 30
0.0
 10
-35.5650931826
 20
-1.7680928693
 30
0.0
 10
-35.5668456577
 20
-0.094504153
 30
0.0
 10
-35.5682194649
 20
1.7120244559
 30
0.0
 10
-35.5690911936
 20
3.6621571864
 30
0.0
 10
-35.569260783
 20
5.0113151408
 30
0.0
 10
-35.5692600868
 20
5.7117314576
 30
0.0
 11
-35.3296151029
 21
-22.7617918287
 31
0.0
 11
-35.3498938265
 21
-22.5271349545
 31
0.0
 11
-35.3682337222
 21
-22.3158263006
 31
0.0
 11
-35.3841935436
 21
-22.1242883781
 31
0.0
 11
-35.3974401841
 21
-21.9524213503
 31
0.0
 11
-35.4080434572
 21
-21.8018545605
 31
0.0
 11
-35.4164808733
 21
-21.6691356476
 31
0.0
 11
-35.4233689559
 21
-21.5475049268
 31
0.0
 11
-35.4291812279
 21
-21.4306025818
 31
0.0
 11
-35.4346528551
 21
-21.3138644949
 31
0.0
 11
-35.4400391332
 21
-21.1966929519
 31
0.0
 11
-35.4453036165
 21
-21.0796731601
 31
0.0
 11
-35.4504016017
 21
-20.9636390522
 31
0.0
 11
-35.4554185712
 21
-20.8464447552
 31
0.0
 11
-35.4605617815
 21
-20.7227294734
 31
0.0
 11
-35.4660071043
 21
-20.5871572352
 31
0.0
 11
-35.4718568089
 21
-20.4352939397
 31
0.0
 11
-35.4780607001
 21
-20.2657162788
 31
0.0
 11
-35.4845073743
 21
-20.0779552566
 31
0.0
 11
-35.4910607166
 21
-19.8716178134
 31
0.0
 11
-35.4975619321
 21
-19.6465276765
 31
0.0
 11
-35.5038720339
 21
-19.4025284186
 31
0.0
 11
-35.5098446549
 21
-19.1394075349
 31
0.0
 11
-35.5153590234
 21
-18.855999367
 31
0.0
 11
-35.5203315513
 21
-18.5501167789
 31
0.0
 11
-35.5247123069
 21
-18.219616203
 31
0.0
 11
-35.5285862033
 21
-17.8623116801
 31
0.0
 11
-35.5323084786
 21
-17.4756288342
 31
0.0
 11
-35.5358290998
 21
-17.057200036
 31
0.0
 11
-35.5390236625
 21
-16.6050081479
 31
0.0
 11
-35.5417595002
 21
-16.1168051605
 31
0.0
 11
-35.5438967791
 21
-15.5897341478
 31
0.0
 11
-35.5454381583
 21
-15.020502518
 31
0.0
 11
-35.5463024142
 21
-14.4057357841
 31
0.0
 11
-35.5464342289
 21
-13.7421232378
 31
0.0
 11
-35.5461133106
 21
-13.0257502711
 31
0.0
 11
-35.5458046682
 21
-12.2516390702
 31
0.0
 11
-35.5459145322
 21
-11.4147573869
 31
0.0
 11
-35.5468700586
 21
-10.5103854043
 31
0.0
 11
-35.548615398
 21
-9.5336988272
 31
0.0
 11
-35.5509827986
 21
-8.4795439597
 31
0.0
 11
-35.5538246653
 21
-7.3422264635
 31
0.0
 11
-35.5568891056
 21
-6.1146311113
 31
0.0
 11
-35.5599152322
 21
-4.7889708552
 31
0.0
 11
-35.562674704
 21
-3.3565078445
 31
0.0
 11
-35.5649377186
 21
-1.8091031182
 31
0.0
 11
-35.5667226478
 21
-0.1386664796
 31
0.0
 11
-35.5680925498
 21
1.6642578496
 31
0.0
 11
-35.5689678629
 21
3.6104825274
 31
0.0
 11
-35.5692600868
 21
5.7117314576
 31
0.0
  0
SPLINE
  5
3E1
100
AcDbEntity
  8
RACCORDO
100
AcDbSpline
 62
253
  6
CONTINUOUS
 70
0
 71
3
 72
40
 73
36
 74
34
 42
0.0000001
 43
0.0000001
 44
0.0000000001
 12
0.0000167061
 22
-9.0793621511
 32
0.0
 13
0.0134297558
 23
-9.0793522187
 33
0.0
 40
0.0
 40
0.0
 40
0.0
 40
0.0
 40
0.0785616861
 40
0.1509732348
 40
0.2177487613
 40
0.2793637274
 40
0.3362577252
 40
0.3888267395
 40
0.4374275251
 40
0.4823856366
 40
0.5239944416
 40
0.5625207695
 40
0.5982085137
 40
0.6312799676
 40
0.6619369294
 40
0.6903631881
 40
0.7167281509
 40
0.7411752171
 40
0.7638297795
 40
0.7848515568
 40
0.8044098029
 40
0.8225694502
 40
0.8393007844
 40
0.8545912793
 40
0.8687149811
 40
0.8820952675
 40
0.8951707308
 40
0.9082556414
 40
0.9213710852
 40
0.9344814559
 40
0.9475567592
 40
0.9606260401
 40
0.9738261606
 40
0.9870738152
 40
1.0
 40
1.0
 40
1.0
 40
1.0
 10
-30.6863324446
 20
1.4559316894
 30
0.0
 10
-30.6863320071
 20
1.2181683562
 30
0.0
 10
-30.6862196242
 20
0.7612547855
 30
0.0
 10
-30.6857329109
 20
0.1022483352
 30
0.0
 10
-30.6852252733
 20
-0.5054696026
 30
0.0
 10
-30.6849154059
 20
-1.0662245287
 30
0.0
 10
-30.6849064682
 20
-1.5839842045
 30
0.0
 10
-30.6852413891
 20
-2.0623569523
 30
0.0
 10
-30.6858508689
 20
-2.5046059631
 30
0.0
 10
-30.6865712599
 20
-2.9136841725
 30
0.0
 10
-30.6873167629
 20
-3.2922723957
 30
0.0
 10
-30.6880368524
 20
-3.6428042711
 30
0.0
 10
-30.6886867276
 20
-3.9674983363
 30
0.0
 10
-30.6892279984
 20
-4.2683762924
 30
0.0
 10
-30.6896452786
 20
-4.5472778739
 30
0.0
 10
-30.689933141
 20
-4.8058827207
 30
0.0
 10
-30.6900992102
 20
-5.0456937094
 30
0.0
 10
-30.690141977
 20
-5.2680369758
 30
0.0
 10
-30.690105544
 20
-5.474209334
 30
0.0
 10
-30.6900068951
 20
-5.6655858807
 30
0.0
 10
-30.6898535362
 20
-5.8433587322
 30
0.0
 10
-30.6896564912
 20
-6.0081467028
 30
0.0
 10
-30.6894271081
 20
-6.1600184645
 30
0.0
 10
-30.6891756752
 20
-6.2996755688
 30
0.0
 10
-30.6889074921
 20
-6.4291908295
 30
0.0
 10
-30.6886217405
 20
-6.5520023435
 30
0.0
 10
-30.6883112126
 20
-6.671669934
 30
0.0
 10
-30.6879668815
 20
-6.790535894
 30
0.0
 10
-30.6875861949
 20
-6.9095073916
 30
0.0
 10
-30.687153503
 20
-7.0284496329
 30
0.0
 10
-30.686733705
 20
-7.1472522089
 30
0.0
 10
-30.6863393587
 20
-7.2663264975
 30
0.0
 10
-30.6859905015
 20
-7.3859225517
 30
0.0
 10
-30.6857482439
 20
-7.505085804
 30
0.0
 10
-30.6856499108
 20
-7.5842996676
 30
0.0
 10
-30.6855920456
 20
-7.6234201291
 30
0.0
 11
-30.6863324446
 21
1.4559316894
 31
0.0
 11
-30.6861541
 21
0.7426417121
 31
0.0
 11
-30.6857092813
 21
0.0851911878
 31
0.0
 11
-30.6852419441
 21
-0.5210878199
 31
0.0
 11
-30.6849594115
 21
-1.0805123394
 31
0.0
 11
-30.684970445
 21
-1.5970735492
 31
0.0
 11
-30.6853058479
 21
-2.0743665503
 31
0.0
 11
-30.6858953163
 21
-2.5156302904
 31
0.0
 11
-30.6866038194
 21
-2.9238206514
 31
0.0
 11
-30.6873406981
 21
-3.3016013414
 31
0.0
 11
-30.6880513058
 21
-3.6513951027
 31
0.0
 11
-30.6886912222
 21
-3.9754164248
 31
0.0
 11
-30.6892254157
 21
-4.2756836565
 31
0.0
 11
-30.6896369399
 21
-4.5540290109
 31
0.0
 11
-30.6899213107
 21
-4.8121211523
 31
0.0
 11
-30.6900825223
 21
-5.0514981428
 31
0.0
 11
-30.690128848
 21
-5.2734619058
 31
0.0
 11
-30.6900926235
 21
-5.4791508791
 31
0.0
 11
-30.689993169
 21
-5.6700151821
 31
0.0
 11
-30.6898396613
 21
-5.8475915153
 31
0.0
 11
-30.6896423226
 21
-6.0124694113
 31
0.0
 11
-30.6894128497
 21
-6.1643790807
 31
0.0
 11
-30.6891628152
 21
-6.3032067965
 31
0.0
 11
-30.6888972123
 21
-6.4314407244
 31
0.0
 11
-30.6886141017
 21
-6.5529248611
 31
0.0
 11
-30.688305316
 21
-6.6716413255
 31
0.0
 11
-30.6879611565
 21
-6.7904434693
 31
0.0
 11
-30.6875774511
 21
-6.9095227149
 31
0.0
 11
-30.687155188
 21
-7.0285557694
 31
0.0
 11
-30.6867380302
 21
-7.1472704503
 31
0.0
 11
-30.686348439
 21
-7.2659305454
 31
0.0
 11
-30.6860085464
 21
-7.3857787376
 31
0.0
 11
-30.6857623303
 21
-7.5060587395
 31
0.0
 11
-30.6855920456
 21
-7.6234201291
 31
0.0
  0
SPLINE
  5
3E2
100
AcDbEntity
  8
RACCORDO
100
AcDbSpline
 62
253
  6
CONTINUOUS
 70
0
 71
3
 72
69
 73
65
 74
63
 42
0.0000001
 43
0.0000001
 44
0.0000000001
 12
0.0071041085
 22
-5.4550275606
 32
0.0
 13
4.8847669162
 23
-2.4282562322
 33
0.0
 40
0.0
 40
0.0
 40
0.0
 40
0.0
 40
0.0222089709
 40
0.0446097101
 40
0.0665468606
 40
0.0871300755
 40
0.1058823757
 40
0.1230079616
 40
0.1387168038
 40
0.1530362246
 40
0.1659756839
 40
0.1775161168
 40
0.1876364761
 40
0.1966148174
 40
0.2049185412
 40
0.2129924734
 40
0.2211194921
 40
0.2292950177
 40
0.2374788697
 40
0.2456322267
 40
0.2538717108
 40
0.2624562779
 40
0.2716464219
 40
0.281705165
 40
0.292923831
 40
0.3056409614
 40
0.3201976053
 40
0.3364887364
 40
0.3540471284
 40
0.3723828948
 40
0.3905514165
 40
0.4082232043
 40
0.4268477173
 40
0.4455229944
 40
0.463953191
 40
0.4823567074
 40
0.5008788677
 40
0.5195686164
 40
0.5381186877
 40
0.5563344863
 40
0.57532181
 40
0.5961611805
 40
0.6167354318
 40
0.6351764109
 40
0.6516782574
 40
0.6668431422
 40
0.6812480815
 40
0.695369038
 40
0.709483651
 40
0.7236251281
 40
0.7374493902
 40
0.7515420935
 40
0.7671188671
 40
0.7839421146
 40
0.8012036907
 40
0.8186157905
 40
0.836262323
 40
0.8546326254
 40
0.8744452339
 40
0.8960909879
 40
0.9193713371
 40
0.944275415
 40
0.9710707765
 40
1.0
 40
1.0
 40
1.0
 40
1.0
 10
-30.6855920456
 20
-7.6234201291
 30
0.0
 10
-30.685539454
 20
-7.6638036452
 30
0.0
 10
-30.684312717
 20
-7.7449215076
 30
0.0
 10
-30.6793960837
 20
-7.8658382093
 30
0.0
 10
-30.6717974452
 20
-7.9836530881
 30
0.0
 10
-30.6621500271
 20
-8.094657937
 30
0.0
 10
-30.6511755042
 20
-8.1967418956
 30
0.0
 10
-30.6394236755
 20
-8.289810041
 30
0.0
 10
-30.6272856045
 20
-8.3746919079
 30
0.0
 10
-30.6150981055
 20
-8.4518680461
 30
0.0
 10
-30.6032051255
 20
-8.5214105991
 30
0.0
 10
-30.5919039197
 20
-8.5833036219
 30
0.0
 10
-30.5813584572
 20
-8.6380097543
 30
0.0
 10
-30.571504483
 20
-8.6868532513
 30
0.0
 10
-30.5620324957
 20
-8.7319761724
 30
0.0
 10
-30.5525533687
 20
-8.7755145652
 30
0.0
 10
-30.54280125
 20
-8.8187536857
 30
0.0
 10
-30.532683192
 20
-8.8621139505
 30
0.0
 10
-30.522212827
 20
-8.9054397612
 30
0.0
 10
-30.5113944705
 20
-8.9487998345
 30
0.0
 10
-30.5000669589
 20
-8.9927825276
 30
0.0
 10
-30.4879272721
 20
-9.038501471
 30
0.0
 10
-30.4745528793
 20
-9.0873137064
 30
0.0
 10
-30.4594631176
 20
-9.1406203019
 30
0.0
 10
-30.4420711707
 20
-9.1999379642
 30
0.0
 10
-30.4216742099
 20
-9.2668940651
 30
0.0
 10
-30.3976614865
 20
-9.3423853457
 30
0.0
 10
-30.369784269
 20
-9.4258767202
 30
0.0
 10
-30.3383077417
 20
-9.5153995558
 30
0.0
 10
-30.3041025127
 20
-9.6075666292
 30
0.0
 10
-30.2682621114
 20
-9.6993312613
 30
0.0
 10
-30.2306988606
 20
-9.790971705
 30
0.0
 10
-30.1912163744
 20
-9.8828063883
 30
0.0
 10
-30.1495482464
 20
-9.9751857224
 30
0.0
 10
-30.1063643407
 20
-10.0664218145
 30
0.0
 10
-30.0616841982
 20
-10.1566237581
 30
0.0
 10
-30.0151788968
 20
-10.2464302399
 30
0.0
 10
-29.966974996
 20
-10.3356393656
 30
0.0
 10
-29.9174998438
 20
-10.4235109994
 30
0.0
 10
-29.8662239909
 20
-10.510971954
 30
0.0
 10
-29.8112335808
 20
-10.6010619104
 30
0.0
 10
-29.7522306486
 20
-10.6937059152
 30
0.0
 10
-29.6918557699
 20
-10.7842708346
 30
0.0
 10
-29.6341413707
 20
-10.8671027621
 30
0.0
 10
-29.5806184653
 20
-10.94084437
 30
0.0
 10
-29.5302140553
 20
-11.0077635742
 30
0.0
 10
-29.4813670683
 20
-11.0704213983
 30
0.0
 10
-29.4327295573
 20
-11.1308083628
 30
0.0
 10
-29.3834437028
 20
-11.1900455441
 30
0.0
 10
-29.3335636553
 20
-11.2480738489
 30
0.0
 10
-29.2827696336
 20
-11.3052505205
 30
0.0
 10
-29.229270721
 20
-11.3635011581
 30
0.0
 10
-29.1709798118
 20
-11.4247383819
 30
0.0
 10
-29.1074296231
 20
-11.4889020209
 30
0.0
 10
-29.0401467602
 20
-11.5540375194
 30
0.0
 10
-28.9703802914
 20
-11.6187287192
 30
0.0
 10
-28.897690368
 20
-11.6831982579
 30
0.0
 10
-28.8201803302
 20
-11.748772015
 30
0.0
 10
-28.7353525969
 20
-11.8169054883
 30
0.0
 10
-28.6414750399
 20
-11.8879599141
 30
0.0
 10
-28.5377620836
 20
-11.9612588223
 30
0.0
 10
-28.4235717151
 20
-12.035814999
 30
0.0
 10
-28.2975179899
 20
-12.1107708688
 30
0.0
 10
-28.2079857816
 20
-12.1583335382
 30
0.0
 10
-28.1608816103
 20
-12.181749394
 30
0.0
 11
-30.6855920456
 21
-7.6234201291
 31
0.0
 11
-30.6838051459
 21
-7.7445576015
 31
0.0
 11
-30.6788733485
 21
-7.8666547923
 31
0.0
 11
-30.6711816618
 21
-7.9860752055
 31
0.0
 11
-30.6614640688
 21
-8.0979360045
 31
0.0
 11
-30.6505316186
 21
-8.1996445394
 31
0.0
 11
-30.6388364735
 21
-8.2923302247
 31
0.0
 11
-30.6267124025
 21
-8.3771604482
 31
0.0
 11
-30.6145345637
 21
-8.4543182448
 31
0.0
 11
-30.6026388384
 21
-8.5238937978
 31
0.0
 11
-30.5913321201
 21
-8.5858235386
 31
0.0
 11
-30.5808827034
 21
-8.6400324853
 31
0.0
 11
-30.5711967843
 21
-8.6880423107
 31
0.0
 11
-30.5618907895
 21
-8.7323731573
 31
0.0
 11
-30.5525206566
 21
-8.7754084425
 31
0.0
 11
-30.5427673849
 21
-8.8186554278
 31
0.0
 11
-30.5326297255
 21
-8.8620856899
 31
0.0
 11
-30.522146311
 21
-8.9054805191
 31
0.0
 11
-30.5113783558
 21
-8.9486341874
 31
0.0
 11
-30.5001704106
 21
-8.9921609994
 31
0.0
 11
-30.4881524092
 21
-9.0374217036
 31
0.0
 11
-30.4749054995
 21
-9.0857724024
 31
0.0
 11
-30.4599599114
 21
-9.1385685243
 31
0.0
 11
-30.4427416533
 21
-9.1972945773
 31
0.0
 11
-30.4225226627
 21
-9.263655079
 31
0.0
 11
-30.3984478047
 21
-9.3393245353
 31
0.0
 11
-30.3703003021
 21
-9.4236177979
 31
0.0
 11
-30.3385230188
 21
-9.513974413
 31
0.0
 11
-30.3037309163
 21
-9.6077504726
 31
0.0
 11
-30.2676744585
 21
-9.7000689334
 31
0.0
 11
-30.2311102453
 21
-9.7892656342
 31
0.0
 11
-30.1909790159
 21
-9.8826010474
 31
0.0
 11
-30.1490803598
 21
-9.9754604193
 31
0.0
 11
-30.1060744812
 21
-10.0663353128
 31
0.0
 11
-30.0615135029
 21
-10.1562954569
 31
0.0
 11
-30.015058458
 21
-10.2460217315
 31
0.0
 11
-29.9665944322
 21
-10.3357194981
 31
0.0
 11
-29.916943901
 21
-10.4238925718
 31
0.0
 11
-29.866686297
 21
-10.5096137855
 31
0.0
 11
-29.812721762
 21
-10.5980214346
 31
0.0
 11
-29.7516378008
 21
-10.6938951232
 31
0.0
 11
-29.6893688444
 21
-10.7872700067
 31
0.0
 11
-29.6318473641
 21
-10.8697979508
 31
0.0
 11
-29.5789677759
 21
-10.9426471665
 31
0.0
 11
-29.5291962009
 21
-11.0087244327
 31
0.0
 11
-29.4808849924
 21
-11.0706982208
 31
0.0
 11
-29.4325641958
 21
-11.1306879155
 31
0.0
 11
-29.3833175732
 21
-11.1898749331
 31
0.0
 11
-29.3330278306
 21
-11.2483716235
 31
0.0
 11
-29.2829409245
 21
-11.3047475106
 31
0.0
 11
-29.2309373565
 21
-11.361365276
 31
0.0
 11
-29.1723486335
 21
-11.422908501
 31
0.0
 11
-29.1077673664
 21
-11.4881100491
 31
0.0
 11
-29.0401121773
 21
-11.5536031244
 31
0.0
 11
-28.9704590095
 21
-11.6181810916
 31
0.0
 11
-28.8984343613
 21
-11.6820473599
 31
0.0
 11
-28.8219219373
 21
-11.7467622079
 31
0.0
 11
-28.7376463133
 21
-11.8144272903
 31
0.0
 11
-28.643479121
 21
-11.8856664738
 31
0.0
 11
-28.5397492674
 21
-11.9589321632
 31
0.0
 11
-28.4259669353
 21
-12.0331581379
 31
0.0
 11
-28.3002960665
 21
-12.1078064653
 31
0.0
 11
-28.1608816103
 21
-12.181749394
 31
0.0
  0
SPLINE
  5
3E3
100
AcDbEntity
  8
RACCORDO
100
AcDbSpline
 62
253
  6
CONTINUOUS
 70
0
 71
3
 72
50
 73
46
 74
44
 42
0.0000001
 43
0.0000001
 44
0.0000000001
 12
9.1980739009
 22
-4.5724281668
 32
0.0
 13
9.1874578347
 23
-4.5937219509
 33
0.0
 40
0.0
 40
0.0
 40
0.0
 40
0.0
 40
0.0059928125
 40
0.0116595339
 40
0.0170326256
 40
0.0221659458
 40
0.027159086
 40
0.0321241627
 40
0.0371181305
 40
0.0421421616
 40
0.0472737584
 40
0.0527380168
 40
0.0587777025
 40
0.0655889163
 40
0.0731657517
 40
0.0813538685
 40
0.0900619195
 40
0.0993052424
 40
0.1091429035
 40
0.1196871914
 40
0.1310755046
 40
0.1434490656
 40
0.156927897
 40
0.1715808699
 40
0.1874741908
 40
0.2047000675
 40
0.2233789227
 40
0.243639955
 40
0.2656090096
 40
0.2894178844
 40
0.3152026889
 40
0.3431039245
 40
0.3732675014
 40
0.4058710789
 40
0.4411064668
 40
0.4791645699
 40
0.5202244821
 40
0.5645714678
 40
0.612609457
 40
0.6647286017
 40
0.7213096834
 40
0.7827054044
 40
0.8490818964
 40
0.9211705434
 40
1.0
 40
1.0
 40
1.0
 40
1.0
 10
-28.1608816103
 20
-12.181749394
 30
0.0
 10
-28.1425074995
 20
-12.1908832956
 30
0.0
 10
-28.1067524264
 20
-12.2086407008
 30
0.0
 10
-28.0545139726
 20
-12.2345686327
 30
0.0
 10
-28.0049150267
 20
-12.2591952057
 30
0.0
 10
-27.9573917529
 20
-12.2828161936
 30
0.0
 10
-27.911129286
 20
-12.3058350586
 30
0.0
 10
-27.8653011023
 20
-12.3286556442
 30
0.0
 10
-27.8193848212
 20
-12.3515365907
 30
0.0
 10
-27.7729634768
 20
-12.3746823545
 30
0.0
 10
-27.7251051415
 20
-12.3985548007
 30
0.0
 10
-27.6741386933
 20
-12.4239871007
 30
0.0
 10
-27.6180298911
 20
-12.4519942069
 30
0.0
 10
-27.5554524795
 20
-12.4832384381
 30
0.0
 10
-27.4862963015
 20
-12.517773987
 30
0.0
 10
-27.4113313602
 20
-12.5552145998
 30
0.0
 10
-27.331263641
 20
-12.5952086422
 30
0.0
 10
-27.246145576
 20
-12.6377312578
 30
0.0
 10
-27.1554062814
 20
-12.6830700382
 30
0.0
 10
-27.0581000568
 20
-12.7316974642
 30
0.0
 10
-26.9530385436
 20
-12.7842297086
 30
0.0
 10
-26.8390016983
 20
-12.8412787704
 30
0.0
 10
-26.7149793746
 20
-12.9033517857
 30
0.0
 10
-26.5801892708
 20
-12.9708372464
 30
0.0
 10
-26.433935804
 20
-13.0440841251
 30
0.0
 10
-26.2753612126
 20
-13.1235117445
 30
0.0
 10
-26.1034053396
 20
-13.2096169519
 30
0.0
 10
-25.9169210532
 20
-13.3029801231
 30
0.0
 10
-25.7147219487
 20
-13.4041901925
 30
0.0
 10
-25.495605833
 20
-13.5138574182
 30
0.0
 10
-25.2583265004
 20
-13.6326162454
 30
0.0
 10
-25.0016028151
 20
-13.7611392837
 30
0.0
 10
-24.7239965084
 20
-13.9001030617
 30
0.0
 10
-24.4239168941
 20
-14.0502720832
 30
0.0
 10
-24.099652375
 20
-14.2125134797
 30
0.0
 10
-23.7494824072
 20
-14.3876874855
 30
0.0
 10
-23.3714126257
 20
-14.5768221897
 30
0.0
 10
-22.9627886589
 20
-14.781256645
 30
0.0
 10
-22.5203122441
 20
-15.0026580202
 30
0.0
 10
-22.0403642543
 20
-15.2427830942
 30
0.0
 10
-21.5195228942
 20
-15.5033910502
 30
0.0
 10
-20.9550783956
 20
-15.7859499039
 30
0.0
 10
-20.3431559738
 20
-16.0922821022
 30
0.0
 10
-19.6778330542
 20
-16.4252897267
 30
0.0
 10
-19.2156994289
 20
-16.6564835507
 30
0.0
 10
-18.9742853261
 20
-16.777190419
 30
0.0
 11
-28.1608816103
 21
-12.181749394
 31
0.0
 11
-28.1057513008
 21
-12.2091350459
 31
0.0
 11
-28.0536140458
 21
-12.2350168705
 31
0.0
 11
-28.0041814745
 21
-12.2595638595
 31
0.0
 11
-27.9569636344
 21
-12.2830332187
 31
0.0
 11
-27.911044448
 21
-12.3058802533
 31
0.0
 11
-27.8653907406
 21
-12.3286137326
 31
0.0
 11
-27.8194778134
 21
-12.3514924093
 31
0.0
 11
-27.7732937271
 21
-12.3745193135
 31
0.0
 11
-27.7261249617
 21
-12.3980475157
 31
0.0
 11
-27.6759021308
 21
-12.4231083864
 31
0.0
 11
-27.6203939406
 21
-12.4508153244
 31
0.0
 11
-27.5577982275
 21
-12.4820681754
 31
0.0
 11
-27.4881690557
 21
-12.5168393951
 31
0.0
 11
-27.4129243031
 21
-12.5544197601
 31
0.0
 11
-27.3329035882
 21
-12.5943903828
 31
0.0
 11
-27.2479665203
 21
-12.6368227671
 31
0.0
 11
-27.1575710528
 21
-12.6819894971
 31
0.0
 11
-27.0606868713
 21
-12.7304090577
 31
0.0
 11
-26.9560575353
 21
-12.7827244238
 31
0.0
 11
-26.842387878
 21
-12.8395889423
 31
0.0
 11
-26.7185758092
 21
-12.9015551758
 31
0.0
 11
-26.5839880975
 21
-12.968938529
 31
0.0
 11
-26.4380159876
 21
-13.0420421623
 31
0.0
 11
-26.2798078955
 21
-13.1212808052
 31
0.0
 11
-26.1082482973
 21
-13.2071893884
 31
0.0
 11
-25.9221492677
 21
-13.3003595744
 31
0.0
 11
-25.7203545135
 21
-13.4013692705
 31
0.0
 11
-25.5016559378
 21
-13.5108294907
 31
0.0
 11
-25.2648086444
 21
-13.6293766841
 31
0.0
 11
-25.0085286509
 21
-13.7576699938
 31
0.0
 11
-24.7314646147
 21
-13.8963581183
 31
0.0
 11
-24.4319735799
 21
-14.0462357594
 31
0.0
 11
-24.1082940251
 21
-14.208185475
 31
0.0
 11
-23.7586746872
 21
-14.383089557
 31
0.0
 11
-23.3814790394
 21
-14.5717884837
 31
0.0
 11
-22.9740927475
 21
-14.7756057131
 31
0.0
 11
-22.5328073538
 21
-14.9964020494
 31
0.0
 11
-22.05402852
 21
-15.2359500868
 31
0.0
 11
-21.5342734074
 21
-15.4960301625
 31
0.0
 11
-20.970328652
 21
-15.7783165772
 31
0.0
 11
-20.3606417671
 21
-16.0835202289
 31
0.0
 11
-19.6984620257
 21
-16.4149386258
 31
0.0
 11
-18.9742853261
 21
-16.777190419
 31
0.0
  0
SPLINE
  5
3E4
100
AcDbEntity
  8
RACCORDO
100
AcDbSpline
 62
253
  6
CONTINUOUS
 70
0
 71
3
 72
13
 73
9
 74
7
 42
0.0000001
 43
0.0000001
 44
0.0000000001
 12
-1.1404027971
 22
-0.6023700083
 32
0.0
 13
-1.2174241534
 23
0.4257306628
 33
0.0
 40
0.0
 40
0.0
 40
0.0
 40
0.0
 40
0.1552328223
 40
0.3229192506
 40
0.49748413
 40
0.672648055
 40
0.8420728817
 40
1.0
 40
1.0
 40
1.0
 40
1.0
 10
31.5813845007
 20
-55.49410372
 30
0.0
 10
31.5223751858
 20
-55.5252729188
 30
0.0
 10
31.3936855974
 20
-55.579128012
 30
0.0
 10
31.1862292748
 20
-55.6333677106
 30
0.0
 10
30.9651173014
 20
-55.6623551735
 30
0.0
 10
30.7413843358
 20
-55.6645992099
 30
0.0
 10
30.5262028335
 20
-55.640028254
 30
0.0
 10
30.3892462512
 20
-55.6049709516
 30
0.0
 10
30.3251581551
 20
-55.5825594794
 30
0.0
 11
31.5813845007
 21
-55.49410372
 31
0.0
 11
31.3972687062
 21
-55.5727417393
 31
0.0
 11
31.1882490872
 21
-55.6282630228
 31
0.0
 11
30.9650580825
 21
-55.6578167435
 31
0.0
 11
30.7391557827
 21
-55.6598854197
 31
0.0
 11
30.5221414944
 21
-55.6343628323
 31
0.0
 11
30.3251581551
 21
-55.5825594794
 31
0.0
  0
SPLINE
  5
3E5
100
AcDbEntity
  8
RACCORDO
100
AcDbSpline
 62
253
  6
CONTINUOUS
 70
0
 71
3
 72
12
 73
8
 74
6
 42
0.0000001
 43
0.0000001
 44
0.0000000001
 12
-0.9519821469
 22
-0.4306103421
 32
0.0
 13
-1.0262199682
 23
0.1963869945
 33
0.0
 40
0.0
 40
0.0
 40
0.0
 40
0.0
 40
0.1811048323
 40
0.3783982192
 40
0.5855570562
 40
0.7952685534
 40
1.0
 40
1.0
 40
1.0
 40
1.0
 10
31.4517163637
 20
-27.1901507604
 30
0.0
 10
31.3942468414
 20
-27.216145965
 30
0.0
 10
31.2693827636
 20
-27.2601120073
 30
0.0
 10
31.0692913994
 20
-27.3018193328
 30
0.0
 10
30.8558173472
 20
-27.3212773929
 30
0.0
 10
30.638965848
 20
-27.3174116771
 30
0.0
 10
30.4954203749
 20
-27.2989947843
 30
0.0
 10
30.4253872087
 20
-27.2855925865
 30
0.0
 11
31.4517163637
 21
-27.1901507604
 31
0.0
 11
31.2737078903
 21
-27.2543337283
 31
0.0
 11
31.0720972365
 21
-27.2973108624
 31
0.0
 11
30.8565734333
 21
-27.3172947778
 31
0.0
 11
30.637493968
 21
-27.3133250966
 31
0.0
 11
30.4253872087
 21
-27.2855925865
 31
0.0
  0
SPLINE
  5
3E6
100
AcDbEntity
  8
RACCORDO
100
AcDbSpline
 62
253
  6
CONTINUOUS
 70
0
 71
3
 72
12
 73
8
 74
6
 42
0.0000001
 43
0.0000001
 44
0.0000000001
 12
-0.9526859764
 22
-0.4289008793
 32
0.0
 13
-1.0261892697
 23
0.1962195621
 33
0.0
 40
0.0
 40
0.0
 40
0.0
 40
0.0
 40
0.1810469957
 40
0.3783642014
 40
0.5855396086
 40
0.7952618325
 40
1.0
 40
1.0
 40
1.0
 40
1.0
 10
31.4517159848
 20
-6.8385536528
 30
0.0
 10
31.3942223402
 20
-6.8644373913
 30
0.0
 10
31.2693406276
 20
-6.9082510229
 30
0.0
 10
31.0693013916
 20
-6.9500968628
 30
0.0
 10
30.855820807
 20
-6.9695899094
 30
0.0
 10
30.6389707525
 20
-6.9657800783
 30
0.0
 10
30.4954237536
 20
-6.9473872687
 30
0.0
 10
30.4253903834
 20
-6.9339960575
 30
0.0
 11
31.4517159848
 21
-6.8385536528
 31
0.0
 11
31.2737079362
 21
-6.9025264473
 31
0.0
 11
31.072098066
 21
-6.9455682718
 31
0.0
 11
30.8565751246
 21
-6.96561067
 31
0.0
 11
30.6374964818
 21
-6.9616904671
 31
0.0
 11
30.4253903834
 21
-6.9339960575
 31
0.0
  0
SPLINE
  5
3E7
100
AcDbEntity
  8
RACCORDO
100
AcDbSpline
 62
253
  6
CONTINUOUS
 70
0
 71
3
 72
13
 73
9
 74
7
 42
0.0000001
 43
0.0000001
 44
0.0000000001
 12
-1.1993442642
 22
-0.4416972076
 32
0.0
 13
-1.194918238
 23
0.4535344439
 33
0.0
 40
0.0
 40
0.0
 40
0.0
 40
0.0
 40
0.1495588961
 40
0.3146661241
 40
0.489247931
 40
0.6663672926
 40
0.8388695499
 40
1.0
 40
1.0
 40
1.0
 40
1.0
 10
31.5770779461
 20
21.5802162451
 30
0.0
 10
31.517287078
 20
21.5581963295
 30
0.0
 10
31.3874021168
 20
21.5227617716
 30
0.0
 10
31.1805638162
 20
21.4938213047
 30
0.0
 10
30.9600601231
 20
21.4873840509
 30
0.0
 10
30.7369405617
 20
21.503831732
 30
0.0
 10
30.5223863048
 20
21.5423162703
 30
0.0
 10
30.3858022065
 20
21.5832522975
 30
0.0
 10
30.3216229687
 20
21.6076117005
 30
0.0
 11
31.5770779461
 21
21.5802162451
 31
0.0
 11
31.3931093716
 21
21.5283126337
 31
0.0
 11
31.1842566702
 21
21.4981292515
 31
0.0
 11
30.9612319683
 21
21.4912142138
 31
0.0
 11
30.735474279
 21
21.5079221949
 31
0.0
 11
30.518562791
 21
21.5473962363
 31
0.0
 11
30.3216229687
 21
21.6076117005
 31
0.0
  0
SPLINE
  5
3E8
100
AcDbEntity
  8
RACCORDO
100
AcDbSpline
 62
253
  6
CONTINUOUS
 70
0
 71
3
 72
13
 73
9
 74
7
 42
0.0000001
 43
0.0000001
 44
0.0000000001
 12
-1.108751919
 22
-0.6647563663
 32
0.0
 13
-0.1410252617
 23
-1.2850461937
 33
0.0
 40
0.0
 40
0.0
 40
0.0
 40
0.0
 40
0.1483066587
 40
0.3105058357
 40
0.4823592371
 40
0.6584528829
 40
0.8329015698
 40
1.0
 40
1.0
 40
1.0
 40
1.0
 10
29.6481475426
 20
24.966880914
 30
0.0
 10
29.5933357785
 20
24.9340183155
 30
0.0
 10
29.4861024429
 20
24.8523602502
 30
0.0
 10
29.3439786422
 20
24.6996319413
 30
0.0
 10
29.2189996849
 20
24.5178791462
 30
0.0
 10
29.1174654294
 20
24.3162033277
 30
0.0
 10
29.044429537
 20
24.1047566983
 30
0.0
 10
29.0162812375
 20
23.959617754
 30
0.0
 10
29.0084262043
 20
23.8880413534
 30
0.0
 11
29.6481475426
 21
24.966880914
 31
0.0
 11
29.49449212
 21
24.8522138746
 31
0.0
 11
29.3507339306
 21
24.699566215
 31
0.0
 11
29.224335415
 21
24.5168618254
 31
0.0
 11
29.1218578806
 21
24.3135848307
 31
0.0
 11
29.048620906
 21
24.100287272
 31
0.0
 11
29.0084262043
 21
23.8880413534
 31
0.0
  0
SPLINE
  5
3E9
100
AcDbEntity
  8
RACCORDO
100
AcDbSpline
 62
253
  6
CONTINUOUS
 70
0
 71
3
 72
13
 73
9
 74
7
 42
0.0000001
 43
0.0000001
 44
0.0000000001
 12
-1.0601917352
 22
-0.59814468
 32
0.0
 13
-0.2134467998
 23
-1.1984256494
 33
0.0
 40
0.0
 40
0.0
 40
0.0
 40
0.0
 40
0.1492377776
 40
0.3108889259
 40
0.4814526999
 40
0.6564411655
 40
0.8309186712
 40
1.0
 40
1.0
 40
1.0
 40
1.0
 10
12.6306061774
 20
33.4256602631
 30
0.0
 10
12.5778659579
 20
33.3959050022
 30
0.0
 10
12.4742810274
 20
33.3224720528
 30
0.0
 10
12.3349573532
 20
33.1845601039
 30
0.0
 10
12.2104185561
 20
33.0198880151
 30
0.0
 10
12.1061840874
 20
32.8357302
 30
0.0
 10
12.0268265865
 20
32.640255094
 30
0.0
 10
11.9919767541
 20
32.5047120264
 30
0.0
 10
11.9799467979
 20
32.437168226
 30
0.0
 11
12.6306061774
 21
33.4256602631
 31
0.0
 11
12.4815553896
 21
33.3218045008
 31
0.0
 11
12.3409849705
 21
33.184107069
 31
0.0
 11
12.2153020194
 21
33.0188441117
 31
0.0
 11
12.110235077
 21
32.8335481924
 31
0.0
 11
12.0305730224
 21
32.6366649648
 31
0.0
 11
11.9799467979
 21
32.437168226
 31
0.0
  0
SPLINE
  5
3EA
100
AcDbEntity
  8
RACCORDO
100
AcDbSpline
 62
253
  6
CONTINUOUS
 70
0
 71
3
 72
13
 73
9
 74
7
 42
0.0000001
 43
0.0000001
 44
0.0000000001
 12
-1.0601910245
 22
-0.5981449589
 32
0.0
 13
-0.2134468319
 23
-1.1984251542
 33
0.0
 40
0.0
 40
0.0
 40
0.0
 40
0.0
 40
0.1492377638
 40
0.3108889032
 40
0.4814526729
 40
0.6564411393
 40
0.8309186533
 40
1.0
 40
1.0
 40
1.0
 40
1.0
 10
-16.3607722761
 20
47.9213494899
 30
0.0
 10
-16.4135124553
 20
47.8915942178
 30
0.0
 10
-16.5170973028
 20
47.8181612549
 30
0.0
 10
-16.656420857
 20
47.6802493118
 30
0.0
 10
-16.7809595468
 20
47.5155772516
 30
0.0
 10
-16.885193931
 20
47.3314194838
 30
0.0
 10
-16.9645513792
 20
47.1359444359
 30
0.0
 10
-16.9994012016
 20
47.0004014131
 30
0.0
 10
-17.0114311609
 20
46.9328576335
 30
0.0
 11
-16.3607722761
 21
47.9213494899
 31
0.0
 11
-16.509822943
 21
47.8174937093
 31
0.0
 11
-16.6503932429
 21
47.6797962825
 31
0.0
 11
-16.7760760868
 21
47.5145333537
 31
0.0
 11
-16.8811429446
 21
47.3292374822
 31
0.0
 11
-16.9608049476
 21
47.1323543135
 31
0.0
 11
-17.0114311609
 21
46.9328576335
 31
0.0
  0
SPLINE
  5
3EB
100
AcDbEntity
  8
RACCORDO
100
AcDbSpline
 62
253
  6
CONTINUOUS
 70
0
 71
3
 72
13
 73
9
 74
7
 42
0.0000001
 43
0.0000001
 44
0.0000000001
 12
-1.1527143256
 22
-0.6089816431
 32
0.0
 13
-0.1544408322
 23
-1.2945103273
 33
0.0
 40
0.0
 40
0.0
 40
0.0
 40
0.0
 40
0.1516125693
 40
0.3153975436
 40
0.487319173
 40
0.6623039518
 40
0.8349163613
 40
1.0
 40
1.0
 40
1.0
 40
1.0
 10
-33.2849943315
 20
56.4327754157
 30
0.0
 10
-33.3432496583
 20
56.4019989918
 30
0.0
 10
-33.4575610776
 20
56.3245498351
 30
0.0
 10
-33.6102030716
 20
56.1765365337
 30
0.0
 10
-33.7445101831
 20
55.99882252
 30
0.0
 10
-33.8537090038
 20
55.8003344482
 30
0.0
 10
-33.9323550116
 20
55.5910903181
 30
0.0
 10
-33.9627308322
 20
55.4467313877
 30
0.0
 10
-33.9712293838
 20
55.3754972293
 30
0.0
 11
-33.2849943315
 21
56.4327754157
 31
0.0
 11
-33.4495630488
 21
56.323299484
 31
0.0
 11
-33.6036401072
 21
56.1754713727
 31
0.0
 11
-33.7392060748
 21
55.9969852677
 31
0.0
 11
-33.8492049883
 21
55.7971310478
 31
0.0
 11
-33.9279116036
 21
55.5863107635
 31
0.0
 11
-33.9712293838
 21
55.3754972293
 31
0.0
  0
SPLINE
  5
3EC
100
AcDbEntity
  8
RACCORDO
100
AcDbSpline
 62
253
  6
CONTINUOUS
 70
0
 71
3
 72
13
 73
9
 74
7
 42
0.0000001
 43
0.0000001
 44
0.0000000001
 12
-3.5924804756
 22
16.5780162468
 32
0.0
 13
-0.4681620283
 23
16.956336956
 33
0.0
 40
0.0
 40
0.0
 40
0.0
 40
0.0
 40
0.0114874731
 40
0.1036065777
 40
0.3970994274
 40
0.7114001016
 40
0.9218216836
 40
1.0
 40
1.0
 40
1.0
 40
1.0
 10
-17.0114307428
 20
-33.6032406855
 30
0.0
 10
-17.025186917
 20
-33.539760847
 30
0.0
 10
-17.1485503378
 20
-32.9670774324
 30
0.0
 10
-17.5970701818
 20
-30.76691064
 30
0.0
 10
-18.2322894107
 20
-26.8581988786
 30
0.0
 10
-18.7100156263
 20
-22.2539700148
 30
0.0
 10
-18.9067322029
 20
-18.8499831414
 30
0.0
 10
-18.9620852818
 20
-17.2190632097
 30
0.0
 10
-18.9742853215
 20
-16.7771905848
 30
0.0
 11
-17.0114307428
 21
-33.6032406855
 31
0.0
 11
-17.0524650282
 21
-33.4127505612
 31
0.0
 11
-17.3647368695
 21
-31.881673078
 31
0.0
 11
-18.1675284992
 21
-26.9683655601
 31
0.0
 11
-18.7221744735
 21
-21.6658758612
 31
0.0
 11
-18.9292482201
 21
-18.1025486415
 31
0.0
 11
-18.9742853215
 21
-16.7771905848
 31
0.0
  0
SPLINE
  5
3ED
100
AcDbEntity
  8
RACCORDO
100
AcDbSpline
 62
253
  6
CONTINUOUS
 70
0
 71
3
 72
43
 73
39
 74
37
 42
0.0000001
 43
0.0000001
 44
0.0000000001
 12
-17.003491608
 22
8.5017529407
 32
0.0
 13
-16.551155525
 23
9.3518864789
 33
0.0
 40
0.0
 40
0.0
 40
0.0
 40
0.0
 40
0.078847224
 40
0.1512191883
 40
0.2177489439
 40
0.2789761011
 40
0.3353828255
 40
0.38741404
 40
0.4354516361
 40
0.479832021
 40
0.5208446673
 40
0.5587601784
 40
0.5938288475
 40
0.6262803096
 40
0.6563327398
 40
0.6841785646
 40
0.7099889916
 40
0.7339200926
 40
0.7561150204
 40
0.7766998781
 40
0.7957958929
 40
0.8135194429
 40
0.8299924648
 40
0.8452851028
 40
0.8593733336
 40
0.8722005923
 40
0.8839045178
 40
0.8948292408
 40
0.9053543503
 40
0.9158307213
 40
0.9263325298
 40
0.9367881816
 40
0.9472487195
 40
0.9577720526
 40
0.968361853
 40
0.9789922509
 40
0.9895767481
 40
1.0
 40
1.0
 40
1.0
 40
1.0
 10
-17.011430846
 20
-33.6032402093
 30
0.0
 10
-17.4583235498
 20
-33.3797936698
 30
0.0
 10
-18.3145917072
 20
-32.9496186402
 30
0.0
 10
-19.5467712628
 20
-32.3285833578
 30
0.0
 10
-20.6792454011
 20
-31.7578041956
 30
0.0
 10
-21.72169931
 20
-31.2331991574
 30
0.0
 10
-22.6827004352
 20
-30.7511199485
 30
0.0
 10
-23.5693843054
 20
-30.3072954569
 30
0.0
 10
-24.387933527
 20
-29.8976097785
 30
0.0
 10
-25.143794899
 20
-29.5186776432
 30
0.0
 10
-25.842116023
 20
-29.1680920985
 30
0.0
 10
-26.4877298044
 20
-28.8440345932
 30
0.0
 10
-27.0849833545
 20
-28.5445638991
 30
0.0
 10
-27.6379189368
 20
-28.2678729123
 30
0.0
 10
-28.1500667987
 20
-28.0119512329
 30
0.0
 10
-28.6245728276
 20
-27.774846568
 30
0.0
 10
-29.0643142886
 20
-27.5549493576
 30
0.0
 10
-29.4719172203
 20
-27.3508460455
 30
0.0
 10
-29.849769081
 20
-27.1612853836
 30
0.0
 10
-30.2001040576
 20
-26.9852030971
 30
0.0
 10
-30.5249113744
 20
-26.8214255415
 30
0.0
 10
-30.8261717911
 20
-26.6688226759
 30
0.0
 10
-31.1056429721
 20
-26.5265417812
 30
0.0
 10
-31.3643019986
 20
-26.3941576164
 30
0.0
 10
-31.6021030162
 20
-26.2717295007
 30
0.0
 10
-31.8195313799
 20
-26.1594127225
 30
0.0
 10
-32.0190329267
 20
-26.0560717651
 30
0.0
 10
-32.2054858313
 20
-25.9592575283
 30
0.0
 10
-32.3849553646
 20
-25.8658745497
 30
0.0
 10
-32.5619841348
 20
-25.7736068208
 30
0.0
 10
-32.7385502359
 20
-25.681403902
 30
0.0
 10
-32.9150417433
 20
-25.5892747211
 30
0.0
 10
-33.0913566461
 20
-25.4965135908
 30
0.0
 10
-33.2679892761
 20
-25.4025349067
 30
0.0
 10
-33.4451249511
 20
-25.3072147755
 30
0.0
 10
-33.6220997257
 20
-25.2107830552
 30
0.0
 10
-33.7975975737
 20
-25.1138532379
 30
0.0
 10
-33.9137238004
 20
-25.0487640576
 30
0.0
 10
-33.9712294214
 20
-25.0162717015
 30
0.0
 11
-17.011430846
 21
-33.6032402093
 31
0.0
 11
-18.3511047257
 21
-32.930895879
 31
0.0
 11
-19.579830957
 21
-32.3119214304
 31
0.0
 11
-20.7093120441
 21
-31.7428013393
 31
0.0
 11
-21.7491009336
 21
-31.2196979601
 31
0.0
 11
-22.7075568839
 21
-30.7388335325
 31
0.0
 11
-23.5920171142
 21
-30.2959731794
 31
0.0
 11
-24.4086112219
 21
-29.8871441758
 31
0.0
 11
-25.1628350698
 21
-29.5090388475
 31
0.0
 11
-25.8596607304
 21
-29.1592964339
 31
0.0
 11
-26.5038761575
 21
-28.8359886168
 31
0.0
 11
-27.0998505666
 21
-28.5372134673
 31
0.0
 11
-27.6515408179
 21
-28.2611234167
 31
0.0
 11
-28.1625754954
 21
-28.0057019613
 31
0.0
 11
-28.6360983495
 21
-27.7690568719
 31
0.0
 11
-29.074945076
 21
-27.549581697
 31
0.0
 11
-29.4817281775
 21
-27.3458672459
 31
0.0
 11
-29.8588641996
 21
-27.156661823
 31
0.0
 11
-30.2084944696
 21
-26.9808881785
 31
0.0
 11
-30.5326248353
 21
-26.8174064004
 31
0.0
 11
-30.8331873372
 21
-26.6651361917
 31
0.0
 11
-31.1122559937
 21
-26.5230448377
 31
0.0
 11
-31.3710408296
 21
-26.3905729738
 31
0.0
 11
-31.6091779767
 21
-26.268015044
 31
0.0
 11
-31.8258337982
 21
-26.1561032454
 31
0.0
 11
-32.0233999545
 21
-26.0537672259
 31
0.0
 11
-32.207719313
 21
-25.9580638595
 31
0.0
 11
-32.385218728
 21
-25.8657116043
 31
0.0
 11
-32.5618291482
 21
-25.7736582512
 31
0.0
 11
-32.7388119037
 21
-25.6812730854
 31
0.0
 11
-32.9149648351
 21
-25.5891944846
 31
0.0
 11
-33.0909327114
 21
-25.4965631472
 31
0.0
 11
-33.2675435449
 21
-25.4025946335
 31
0.0
 11
-33.4448149599
 21
-25.3071824955
 31
0.0
 11
-33.622262506
 21
-25.2104750044
 31
0.0
 11
-33.7983893357
 21
-25.1131744964
 31
0.0
 11
-33.9712294214
 21
-25.0162717015
 31
0.0
  0
SPLINE
  5
3EE
100
AcDbEntity
  8
RACCORDO
100
AcDbSpline
 62
253
  6
CONTINUOUS
 70
0
 71
3
 72
22
 73
18
 74
16
 42
0.0000001
 43
0.0000001
 44
0.0000000001
 12
6.0648704981
 22
-3.0326705291
 32
0.0
 13
6.0647944308
 23
-3.0328226473
 33
0.0
 40
0.0
 40
0.0
 40
0.0
 40
0.0
 40
0.1127523763
 40
0.2163151707
 40
0.3114974063
 40
0.3990578737
 40
0.4796819871
 40
0.5539840605
 40
0.6224761514
 40
0.6856460112
 40
0.7439496915
 40
0.7977942002
 40
0.8475452001
 40
0.893534913
 40
0.9360654717
 40
0.975412509
 40
1.0
 40
1.0
 40
1.0
 40
1.0
 10
9.5998720642
 20
-30.0188762826
 30
0.0
 10
9.8278149177
 20
-30.1328565521
 30
0.0
 10
10.2651172669
 20
-30.351538399
 30
0.0
 10
10.8948217859
 20
-30.6664799735
 30
0.0
 10
11.4735899453
 20
-30.9559708975
 30
0.0
 10
12.00598705
 20
-31.2222686916
 30
0.0
 10
12.4961814145
 20
-31.4674407674
 30
0.0
 10
12.9478355019
 20
-31.6933192119
 30
0.0
 10
13.3642118208
 20
-31.9015370038
 30
0.0
 10
13.7482514853
 20
-32.093570033
 30
0.0
 10
14.1026816872
 20
-32.2707910973
 30
0.0
 10
14.4299844074
 20
-32.4344463664
 30
0.0
 10
14.7323920849
 20
-32.5856552405
 30
0.0
 10
15.0119260075
 20
-32.725429369
 30
0.0
 10
15.2704257207
 20
-32.8546888624
 30
0.0
 10
15.4856569381
 20
-32.9623155812
 30
0.0
 10
15.6149071669
 20
-33.0269489996
 30
0.0
 10
15.664613193
 20
-33.0518054994
 30
0.0
 11
9.5998720642
 21
-30.0188762826
 31
0.0
 11
10.2836915009
 21
-30.360835337
 31
0.0
 11
10.9117615552
 21
-30.6749569267
 31
0.0
 11
11.4889973202
 21
-30.9636776096
 31
0.0
 11
12.0200101577
 21
-31.2292797611
 31
0.0
 11
12.5089629391
 21
-31.4738301765
 31
0.0
 11
12.9595820795
 21
-31.6991905049
 31
0.0
 11
13.3749722897
 21
-31.906915353
 31
0.0
 11
13.7580895513
 21
-32.0984882393
 31
0.0
 11
14.1116966524
 21
-32.2752984324
 31
0.0
 11
14.4382599233
 21
-32.4385844895
 31
0.0
 11
14.7399958703
 21
-32.5894577296
 31
0.0
 11
15.0189189269
 21
-32.7289265703
 31
0.0
 11
15.2768613499
 21
-32.8579075573
 31
0.0
 11
15.5154947836
 21
-32.9772366623
 31
0.0
 11
15.664613193
 21
-33.0518054994
 31
0.0
  0
SPLINE
  5
3EF
100
AcDbEntity
  8
RACCORDO
100
AcDbSpline
 62
253
  6
CONTINUOUS
 70
0
 71
3
 72
41
 73
37
 74
35
 42
0.0000001
 43
0.0000001
 44
0.0000000001
 12
3.1692583052
 22
-1.5848514691
 32
0.0
 13
3.1682075302
 23
-1.5869509852
 33
0.0
 40
0.0
 40
0.0
 40
0.0
 40
0.0
 40
0.0226315062
 40
0.0871486472
 40
0.1468555362
 40
0.2020418412
 40
0.2530576455
 40
0.3003263042
 40
0.3441131781
 40
0.3843836942
 40
0.4210519846
 40
0.4546079099
 40
0.4860822496
 40
0.5165741138
 40
0.5470196566
 40
0.5775837077
 40
0.608157902
 40
0.6386333917
 40
0.6690721922
 40
0.6999819833
 40
0.7310118581
 40
0.7599845945
 40
0.7854430432
 40
0.8075940532
 40
0.8270048218
 40
0.8443716653
 40
0.8604500126
 40
0.876012528
 40
0.891530221
 40
0.9070908225
 40
0.9226617898
 40
0.938228827
 40
0.9538391378
 40
0.9695166474
 40
0.9850588156
 40
1.0
 40
1.0
 40
1.0
 40
1.0
 10
15.664613193
 20
-33.0518054994
 30
0.0
 10
15.688521556
 20
-33.063761358
 30
0.0
 10
15.7805869761
 20
-33.1098007876
 30
0.0
 10
15.9357271066
 20
-33.1873840156
 30
0.0
 10
16.1252565188
 20
-33.2821698974
 30
0.0
 10
16.3005208087
 20
-33.3698273357
 30
0.0
 10
16.4626431272
 20
-33.4509178234
 30
0.0
 10
16.6127210336
 20
-33.5259898373
 30
0.0
 10
16.7514457803
 20
-33.5953885445
 30
0.0
 10
16.8789707452
 20
-33.6591899397
 30
0.0
 10
16.995686506
 20
-33.7175885509
 30
0.0
 10
17.1031089779
 20
-33.7713419569
 30
0.0
 10
17.2040056365
 20
-33.821834288
 30
0.0
 10
17.301615173
 20
-33.8706859588
 30
0.0
 10
17.3982614178
 20
-33.9190600255
 30
0.0
 10
17.4949926986
 20
-33.9674814598
 30
0.0
 10
17.5917535231
 20
-34.0159228952
 30
0.0
 10
17.6883798752
 20
-34.0643024676
 30
0.0
 10
17.7853584416
 20
-34.1128639572
 30
0.0
 10
17.8829203404
 20
-34.1617229739
 30
0.0
 10
17.9789317079
 20
-34.2098109919
 30
0.0
 10
18.069183699
 20
-34.2550200936
 30
0.0
 10
18.1500569561
 20
-34.2955364904
 30
0.0
 10
18.2208308601
 20
-34.3309972644
 30
0.0
 10
18.2830591898
 20
-34.3621782688
 30
0.0
 10
18.3388746256
 20
-34.3901464192
 30
0.0
 10
18.3906266028
 20
-34.4160777825
 30
0.0
 10
18.4404262394
 20
-34.4410299972
 30
0.0
 10
18.489679335
 20
-34.4657078648
 30
0.0
 10
18.5389404286
 20
-34.4903920549
 30
0.0
 10
18.5882520224
 20
-34.5151055615
 30
0.0
 10
18.6376129688
 20
-34.5398516364
 30
0.0
 10
18.6870812468
 20
-34.5646644094
 30
0.0
 10
18.7365191222
 20
-34.5894722767
 30
0.0
 10
18.7852523506
 20
-34.613922207
 30
0.0
 10
18.8174401055
 20
-34.6300569339
 30
0.0
 10
18.8332190299
 20
-34.6379605763
 30
0.0
 11
15.664613193
 21
-33.0518054994
 31
0.0
 11
15.7363381981
 21
-33.0876732427
 31
0.0
 11
15.9408083399
 21
-33.189926015
 31
0.0
 11
16.1300316447
 21
-33.284559062
 31
0.0
 11
16.3049260326
 21
-33.3720316918
 31
0.0
 11
16.4666010683
 21
-33.4528986117
 31
0.0
 11
16.6163986061
 21
-33.5278305126
 31
0.0
 11
16.7551598273
 21
-33.5972475822
 31
0.0
 11
16.8827754581
 21
-33.6610944331
 31
0.0
 11
16.9989737493
 21
-33.7192342013
 31
0.0
 11
17.1053074031
 21
-33.7724428289
 31
0.0
 11
17.2050430906
 21
-33.8223542174
 31
0.0
 11
17.3016637991
 21
-33.8707110464
 31
0.0
 11
17.3981359273
 21
-33.9189980112
 31
0.0
 11
17.4949816372
 21
-33.967476792
 31
0.0
 11
17.5918574074
 21
-34.0159758163
 31
0.0
 11
17.6884182547
 21
-34.0643226083
 31
0.0
 11
17.784860657
 21
-34.1126155814
 31
0.0
 11
17.8827931447
 21
-34.1616602087
 31
0.0
 11
17.9811037947
 21
-34.2108999703
 31
0.0
 11
18.0728945697
 21
-34.256880013
 31
0.0
 11
18.153549391
 21
-34.2972869682
 31
0.0
 11
18.2237244223
 21
-34.3324474506
 31
0.0
 11
18.2852175272
 21
-34.363259849
 31
0.0
 11
18.3402353149
 21
-34.390828116
 31
0.0
 11
18.3911713814
 21
-34.4163506006
 31
0.0
 11
18.4404736055
 21
-34.4410536463
 31
0.0
 11
18.4896338693
 21
-34.4656854691
 31
0.0
 11
18.5389292148
 21
-34.4903871039
 31
0.0
 11
18.5882556496
 21
-34.5151086843
 31
0.0
 11
18.6375664198
 21
-34.5398304383
 31
0.0
 11
18.6870096104
 21
-34.5646301976
 31
0.0
 11
18.7366622977
 21
-34.5895433808
 31
0.0
 11
18.7858883022
 21
-34.6142375839
 31
0.0
 11
18.8332190299
 21
-34.6379605763
 31
0.0
  0
SPLINE
  5
3F0
100
AcDbEntity
  8
RACCORDO
100
AcDbSpline
 62
253
  6
CONTINUOUS
 70
0
 71
3
 72
17
 73
13
 74
11
 42
0.0000001
 43
0.0000001
 44
0.0000000001
 12
-1.2329526177
 22
1.416433594
 32
0.0
 13
1.6051876049
 23
0.9745917282
 33
0.0
 40
0.0
 40
0.0
 40
0.0
 40
0.0
 40
0.0756645789
 40
0.1596664769
 40
0.2528791572
 40
0.3545236396
 40
0.4626610011
 40
0.5746123595
 40
0.6873104643
 40
0.7976154139
 40
0.9026239312
 40
1.0
 40
1.0
 40
1.0
 40
1.0
 10
9.5998717726
 20
-30.0188763049
 30
0.0
 10
9.5687748257
 20
-29.9831516877
 30
0.0
 10
9.5155275965
 20
-29.8965992776
 30
0.0
 10
9.4698244812
 20
-29.7436942862
 30
0.0
 10
9.4551702955
 20
-29.568708097
 30
0.0
 10
9.4718202272
 20
-29.3789967453
 30
0.0
 10
9.5188309976
 20
-29.182493125
 30
0.0
 10
9.5941452474
 20
-28.9876366722
 30
0.0
 10
9.6944720785
 20
-28.8028731377
 30
0.0
 10
9.8154846292
 20
-28.6362152937
 30
0.0
 10
9.9518887722
 20
-28.4949371551
 30
0.0
 10
10.0537813002
 20
-28.4183668303
 30
0.0
 10
10.1058835864
 20
-28.3867328599
 30
0.0
 11
9.5998717726
 21
-30.0188763049
 31
0.0
 11
9.5237854713
 21
-29.898875096
 31
0.0
 11
9.4765930402
 21
-29.7483537539
 31
0.0
 11
9.4604068525
 21
-29.5740609294
 31
0.0
 11
9.4759532927
 21
-29.3838183296
 31
0.0
 11
9.5225346862
 21
-29.1861634367
 31
0.0
 11
9.5980606082
 21
-28.989966373
 31
0.0
 11
9.6991416959
 21
-28.8040318382
 31
0.0
 11
9.8212417518
 21
-28.6367039821
 31
0.0
 11
9.9588813144
 21
-28.4954919461
 31
0.0
 11
10.1058835864
 21
-28.3867328599
 31
0.0
  0
SPLINE
  5
3F1
100
AcDbEntity
  8
RACCORDO
100
AcDbSpline
 62
253
  6
CONTINUOUS
 70
0
 71
3
 72
17
 73
13
 74
11
 42
0.0000001
 43
0.0000001
 44
0.0000000001
 12
-1.2587804342
 22
1.4027006639
 32
0.0
 13
1.6102676678
 23
0.9793545692
 33
0.0
 40
0.0
 40
0.0
 40
0.0
 40
0.0
 40
0.0756589535
 40
0.1593727489
 40
0.2523649062
 40
0.3538941267
 40
0.4620253653
 40
0.5740613686
 40
0.6869030388
 40
0.7973721774
 40
0.9025271271
 40
1.0
 40
1.0
 40
1.0
 40
1.0
 10
18.8332190299
 20
-34.6379605763
 30
0.0
 10
18.8014730264
 20
-34.6025849549
 30
0.0
 10
18.7466045498
 20
-34.5167843642
 30
0.0
 10
18.6995664171
 20
-34.3639260078
 30
0.0
 10
18.6836742652
 20
-34.1888092454
 30
0.0
 10
18.6994261207
 20
-33.9985200749
 30
0.0
 10
18.7458185975
 20
-33.8011355978
 30
0.0
 10
18.8208251847
 20
-33.6051914091
 30
0.0
 10
18.9211304448
 20
-33.4192631831
 30
0.0
 10
19.0423699367
 20
-33.2514881286
 30
0.0
 10
19.1791889102
 20
-33.1092577096
 30
0.0
 10
19.2814825208
 20
-33.0321842425
 30
0.0
 10
19.3338016594
 20
-33.0003640747
 30
0.0
 11
18.8332190299
 21
-34.6379605763
 31
0.0
 11
18.7550486114
 21
-34.5187021359
 31
0.0
 11
18.7064226032
 21
-34.3686068069
 31
0.0
 11
18.6890148068
 21
-34.1942110582
 31
0.0
 11
18.7036139513
 21
-34.00341658
 31
0.0
 11
18.7495585648
 21
-33.8048680715
 31
0.0
 11
18.8247669445
 21
-33.607561559
 31
0.0
 11
18.925831477
 21
-33.4204367955
 31
0.0
 11
19.0481730335
 21
-33.2519722092
 31
0.0
 11
19.1862484454
 21
-33.1098007554
 31
0.0
 11
19.3338016594
 21
-33.0003640747
 31
0.0
  0
SPLINE
  5
3F2
100
AcDbEntity
  8
RACCORDO
100
AcDbSpline
 62
253
  6
CONTINUOUS
 70
0
 71
3
 72
61
 73
57
 74
55
 42
0.0000001
 43
0.0000001
 44
0.0000000001
 12
1.9995606527
 22
-1.0049967819
 32
0.0
 13
-0.0021296054
 23
2.2379134925
 33
0.0
 40
0.0
 40
0.0
 40
0.0
 40
0.0
 40
0.0548131516
 40
0.1020221831
 40
0.1432364789
 40
0.1795707695
 40
0.2117506618
 40
0.2403690299
 40
0.2659972388
 40
0.2890207181
 40
0.3097781448
 40
0.3285968207
 40
0.3457450886
 40
0.3614244114
 40
0.3758302123
 40
0.3899110103
 40
0.4044696036
 40
0.4190134196
 40
0.4332753187
 40
0.447411813
 40
0.4617895928
 40
0.4768230083
 40
0.4925928051
 40
0.5087266549
 40
0.5248291043
 40
0.540788847
 40
0.5565552022
 40
0.5718353127
 40
0.5859048663
 40
0.5983649847
 40
0.6094988527
 40
0.6196647831
 40
0.629341545
 40
0.6389656637
 40
0.6487253263
 40
0.658586136
 40
0.668540086
 40
0.6784985271
 40
0.6883717351
 40
0.6982121614
 40
0.7079835998
 40
0.7177752925
 40
0.7279951533
 40
0.7391632093
 40
0.7518216399
 40
0.7665762769
 40
0.7839277535
 40
0.8037996405
 40
0.8254280119
 40
0.8478835295
 40
0.8709265132
 40
0.8948763204
 40
0.919906471
 40
0.9457828726
 40
0.9724028671
 40
1.0
 40
1.0
 40
1.0
 40
1.0
 10
18.8332174702
 20
-34.637959185
 30
0.0
 10
18.869751544
 20
-34.656321532
 30
0.0
 10
18.9390645679
 20
-34.6879801426
 30
0.0
 10
19.0395078586
 20
-34.7247098671
 30
0.0
 10
19.1291439087
 20
-34.7500567956
 30
0.0
 10
19.2093835271
 20
-34.766578436
 30
0.0
 10
19.2812517138
 20
-34.776233139
 30
0.0
 10
19.3456209555
 20
-34.780578416
 30
0.0
 10
19.4032961082
 20
-34.7808838958
 30
0.0
 10
19.4550280188
 20
-34.7781403935
 30
0.0
 10
19.5014772393
 20
-34.7731259128
 30
0.0
 10
19.5432780896
 20
-34.7664421401
 30
0.0
 10
19.5810028356
 20
-34.7585567674
 30
0.0
 10
19.6151517349
 20
-34.7498343329
 30
0.0
 10
19.6467233763
 20
-34.7403868925
 30
0.0
 10
19.6771144659
 20
-34.7299964269
 30
0.0
 10
19.7071774458
 20
-34.7184006366
 30
0.0
 10
19.7368820111
 20
-34.705570045
 30
0.0
 10
19.7657671565
 20
-34.691701262
 30
0.0
 10
19.793970588
 20
-34.6767569602
 30
0.0
 10
19.8220524184
 20
-34.6604083313
 30
0.0
 10
19.8504647061
 20
-34.6422601732
 30
0.0
 10
19.8791426479
 20
-34.6221523209
 30
0.0
 10
19.9075460753
 20
-34.6003237408
 30
0.0
 10
19.9351125575
 20
-34.5772275202
 30
0.0
 10
19.9615123541
 20
-34.5532128409
 30
0.0
 10
19.9865078269
 20
-34.528607599
 30
0.0
 10
20.0095842037
 20
-34.5040987128
 30
0.0
 10
20.0301364265
 20
-34.4806306007
 30
0.0
 10
20.0479405109
 20
-34.4588902908
 30
0.0
 10
20.0633412293
 20
-34.4389605553
 30
0.0
 10
20.0770100356
 20
-34.4203265732
 30
0.0
 10
20.0896058086
 20
-34.4023097576
 30
0.0
 10
20.1016401466
 20
-34.3842765512
 30
0.0
 10
20.1133617611
 20
-34.3658755589
 30
0.0
 10
20.1248215772
 20
-34.347021862
 30
0.0
 10
20.1359593387
 20
-34.3278046322
 30
0.0
 10
20.1467161358
 20
-34.308361207
 30
0.0
 10
20.1570576071
 20
-34.2887895005
 30
0.0
 10
20.1669535271
 20
-34.2691448342
 30
0.0
 10
20.1764424587
 20
-34.2493678523
 30
0.0
 10
20.1856676329
 20
-34.2291549095
 30
0.0
 10
20.1949119098
 20
-34.2078101396
 30
0.0
 10
20.2045260392
 20
-34.1843004948
 30
0.0
 10
20.2148216632
 20
-34.1574217814
 30
0.0
 10
20.2259819902
 20
-34.1259447423
 30
0.0
 10
20.2379148608
 20
-34.0890466388
 30
0.0
 10
20.2501393823
 20
-34.0468733243
 30
0.0
 10
20.2619047849
 20
-34.0006282263
 30
0.0
 10
20.2726132162
 20
-33.95170219
 30
0.0
 10
20.2819861356
 20
-33.9007408407
 30
0.0
 10
20.2899231316
 20
-33.8475928956
 30
0.0
 10
20.2962897788
 20
-33.7921055349
 30
0.0
 10
20.3009485615
 20
-33.7344499959
 30
0.0
 10
20.3037862831
 20
-33.6747596668
 30
0.0
 10
20.3043854859
 20
-33.6343112964
 30
0.0
 10
20.3043658955
 20
-33.6137246311
 30
0.0
 11
18.8332174702
 21
-34.637959185
 31
0.0
 11
18.9448741905
 21
-34.6887529427
 31
0.0
 11
19.0441461585
 21
-34.7249047282
 31
0.0
 11
19.1329299146
 21
-34.7498960952
 31
0.0
 11
19.212587976
 21
-34.7662179536
 31
0.0
 11
19.2839701356
 21
-34.7757505082
 31
0.0
 11
19.3478725029
 21
-34.78002936
 31
0.0
 11
19.4052255701
 21
-34.7803072075
 31
0.0
 11
19.4566768328
 21
-34.7775595289
 31
0.0
 11
19.5028603477
 21
-34.7725598947
 31
0.0
 11
19.5444453577
 21
-34.7659021586
 31
0.0
 11
19.5820089702
 21
-34.7580459613
 31
0.0
 11
19.6160059484
 21
-34.7493602106
 31
0.0
 11
19.64689149
 21
-34.7401171988
 31
0.0
 11
19.6767089066
 21
-34.729923868
 31
0.0
 11
19.7071063633
 21
-34.7181974523
 31
0.0
 11
19.7369844467
 21
-34.7052877458
 31
0.0
 11
19.7657560645
 21
-34.6914716973
 31
0.0
 11
19.7937100666
 21
-34.6766586261
 31
0.0
 11
19.8215171898
 21
-34.6604699124
 31
0.0
 11
19.8498705333
 21
-34.6423598899
 31
0.0
 11
19.8787695853
 21
-34.6221032435
 31
0.0
 11
19.9074056028
 21
-34.6001115523
 31
0.0
 11
19.9350324531
 21
-34.5769740589
 31
0.0
 11
19.961456769
 21
-34.5529443537
 31
0.0
 11
19.9866041827
 21
-34.5281945868
 31
0.0
 11
20.0100448864
 21
-34.5032973747
 31
0.0
 11
20.0307869116
 21
-34.4796084443
 31
0.0
 11
20.0484586731
 21
-34.4580384603
 31
0.0
 11
20.0636959495
 21
-34.4383238823
 31
0.0
 11
20.0771539789
 21
-34.4199808746
 31
0.0
 11
20.0895635736
 21
-34.4022333635
 31
0.0
 11
20.1015204654
 21
-34.3843192284
 31
0.0
 11
20.1132565446
 21
-34.3658989565
 31
0.0
 11
20.1247197098
 21
-34.3470422076
 31
0.0
 11
20.1358932416
 21
-34.3277710807
 31
0.0
 11
20.1466838317
 21
-34.3082714603
 31
0.0
 11
20.1570052411
 21
-34.288734956
 31
0.0
 11
20.1669129327
 21
-34.2690675318
 31
0.0
 11
20.1763726332
 21
-34.249351855
 31
0.0
 11
20.1854714713
 21
-34.2294172256
 31
0.0
 11
20.1945619231
 21
-34.2084302221
 31
0.0
 11
20.2040239017
 21
-34.1852973724
 31
0.0
 11
20.2141597236
 21
-34.1588442403
 31
0.0
 11
20.2252007429
 21
-34.1277252596
 31
0.0
 11
20.2371594414
 21
-34.0907814441
 31
0.0
 11
20.2495484847
 21
-34.0480703986
 31
0.0
 11
20.2614933216
 21
-34.001164987
 31
0.0
 11
20.2722472771
 21
-33.952075583
 31
0.0
 11
20.2815839633
 21
-33.9013596252
 31
0.0
 11
20.2895095575
 21
-33.8483512303
 31
0.0
 11
20.2959106354
 21
-33.7927028325
 31
0.0
 11
20.3005893065
 21
-33.73498297
 31
0.0
 11
20.3034330372
 21
-33.6754776095
 31
0.0
 11
20.3043658955
 21
-33.6137246311
 31
0.0
  0
ELLIPSE
  5
3F3
100
AcDbEntity
  8
RACCORDO
100
AcDbEllipse
 62
7
  6
CONTINUOUS
 10
14.6940966082
 20
-27.7215441944
 30
0.0
 11
0.1461194965
 21
0.2622111801
 31
0.0
 40
0.6437101552
 41
0.6611775963
 42
0.7135374739
  0
ELLIPSE
  5
3F4
100
AcDbEntity
  8
RACCORDO
100
AcDbEllipse
 62
7
  6
CONTINUOUS
 10
-17.1257085452
 20
-11.8116416177
 30
0.0
 11
0.1461194965
 21
0.2622111801
 31
0.0
 40
0.6437101552
 41
0.6611775963
 42
0.7135374739
  0
ELLIPSE
  5
3F5
100
AcDbEntity
  8
0
100
AcDbEllipse
 62
7
  6
CONTINUOUS
 10
33.5696610461
 20
-18.773731425
 30
0.0
 11
0.2267599918
 21
0.4456316896
 31
0.0
 40
0.6176975122
 41
6.2875434726
 42
6.8413629978
  0
ELLIPSE
  5
3F6
100
AcDbEntity
  8
RACCORDO
100
AcDbEllipse
 62
7
  6
CONTINUOUS
 10
18.9345348832
 20
-29.8417633319
 30
0.0
 11
0.1235365013
 21
0.2735541167
 31
0.0
 40
0.5796795686
 41
0.6094740628
 42
0.6618339404
  0
ELLIPSE
  5
3F7
100
AcDbEntity
  8
RACCORDO
100
AcDbEllipse
 62
7
  6
CONTINUOUS
 10
-12.8852702702
 20
-13.9318607552
 30
0.0
 11
0.1235365013
 21
0.2735541167
 31
0.0
 40
0.5796795686
 41
0.6094740628
 42
0.6618339404
  0
ELLIPSE
  5
3F8
100
AcDbEntity
  8
RACCORDO
100
AcDbEllipse
 62
7
  6
CONTINUOUS
 10
34.5441670054
 20
-11.9832650532
 30
0.0
 11
0.2435324942
 21
0.4370186336
 31
0.0
 40
0.6437101552
 41
-2.2971554858
 42
-0.8572588529
  0
ELLIPSE
  5
3F9
100
AcDbEntity
  8
RACCORDO
100
AcDbEllipse
 62
7
  6
CONTINUOUS
 10
33.8000023281
 20
-13.3058022059
 30
0.0
 11
0.2435324942
 21
0.4370186336
 31
0.0
 40
0.6437101552
 41
0.8444371678
 42
2.2843338007
  0
ELLIPSE
  5
3FA
100
AcDbEntity
  8
RACCORDO
100
AcDbEllipse
 62
7
  6
CONTINUOUS
 10
33.5696610461
 20
-18.773731425
 30
0.0
 11
0.2267599918
 21
0.4456316896
 31
0.0
 40
0.6176975122
 41
0.0045475026
 42
0.5581776906
  0
ELLIPSE
  5
3FB
100
AcDbEntity
  8
RACCORDO
100
AcDbEllipse
 62
7
  6
CONTINUOUS
 10
34.5441670054
 20
-19.2609844047
 30
0.0
 11
0.2435324942
 21
0.4370186336
 31
0.0
 40
0.6437101552
 41
5.4259264543
 42
6.8658230871
  0
ELLIPSE
  5
3FC
100
AcDbEntity
  8
RACCORDO
100
AcDbEllipse
 62
7
  6
CONTINUOUS
 10
33.8000023281
 20
-18.608496137
 30
0.0
 11
0.2435324942
 21
0.4370186336
 31
0.0
 40
0.6437101552
 41
2.2843338007
 42
3.7242304336
  0
ENDSEC
  0
SECTION
  2
OBJECTS
  0
DICTIONARY
  5
C
100
AcDbDictionary
280
0
281
1
  3
ACAD_GROUP
350
D
  3
ACAD_MLINESTYLE
350
17
  3
ACAD_LAYOUT
350
1A
  3
ACAD_PLOTSETTINGS
350
19
  3
ACAD_PLOTSTYLENAME
350
E
  0
DICTIONARY
  5
D
102
{ACAD_REACTORS
330
C
102
}
100
AcDbDictionary
280
0
281
1
  0
ACDBDICTIONARYWDFLT
  5
E
102
{ACAD_REACTORS
330
C
102
}
100
AcDbDictionary
281
1
  3
Normal
350
F
100
AcDbDictionaryWithDefault
340
F
  0
DICTIONARY
  5
17
102
{ACAD_REACTORS
330
C
102
}
100
AcDbDictionary
280
0
281
1
  3
Standard
350
18
  0
DICTIONARY
  5
19
102
{ACAD_REACTORS
330
C
102
}
100
AcDbDictionary
281
1
  0
DICTIONARY
  5
1A
102
{ACAD_REACTORS
330
C
102
}
100
AcDbDictionary
281
1
  3
Model
350
3FD
  3
Layout1
350
3FE
  0
ACDBPLACEHOLDER
  5
F
102
{ACAD_REACTORS
330
E
102
}
  0
MLINESTYLE
  5
18
102
{ACAD_REACTORS
330
17
102
}
100
AcDbMlineStyle
  2
STANDARD
 70
0
  3

 62
256
 51
90.0
 52
90.0
 71
2
 49
0.5
 62
256
  6
BYLAYER
 49
-0.5
 62
256
  6
BYLAYER
  0
LAYOUT
  5
3FD
102
{ACAD_REACTORS
330
1A
102
}
100
AcDbPlotSettings
  1

  2
none_device
  4
ISO_A4_(297.00_x_210.00_MM)
  6

 40
0.0
 41
0.0
 42
0.0
 43
0.0
 44
297.0
 45
210.0
 46
0.0
 47
0.0
 48
0.0
 49
0.0
140
0.0
141
0.0
142
1.0
143
1.0
 70
1024
 72
1
 73
0
 74
0
  7

 75
0
147
1.0
148
0.0
149
0.0
100
AcDbLayout
  1
Model
 70
0
 71
0
 10
0.0
 20
0.0
 11
297.0
 21
210.0
 12
0.0
 22
0.0
 32
0.0
 14
0.0
 24
0.0
 34
0.0
 15
0.0
 25
0.0
 35
0.0
146
0.0
 13
0.0
 23
0.0
 33
0.0
 16
1.0
 26
0.0
 36
0.0
 17
0.0
 27
1.0
 37
0.0
 76
0
330
20D
345
0
346
0
  0
LAYOUT
  5
3FE
102
{ACAD_REACTORS
330
1A
102
}
100
AcDbPlotSettings
  1

  2
none_device
  4
ISO_A4_(297.00_x_210.00_MM)
  6

 40
0.0
 41
0.0
 42
0.0
 43
0.0
 44
297.0
 45
210.0
 46
0.0
 47
0.0
 48
0.0
 49
0.0
140
0.0
141
0.0
142
1.0
143
1.0
 70
0
 72
1
 73
0
 74
0
  7

 75
0
147
1.0
148
0.0
149
0.0
100
AcDbLayout
  1
Layout1
 70
0
 71
1
 10
0.0
 20
0.0
 11
297.0
 21
210.0
 12
0.0
 22
0.0
 32
0.0
 14
0.0
 24
0.0
 34
0.0
 15
0.0
 25
0.0
 35
0.0
146
0.0
 13
0.0
 23
0.0
 33
0.0
 16
1.0
 26
0.0
 36
0.0
 17
0.0
 27
1.0
 37
0.0
 76
0
330
20E
345
0
346
0
  0
ENDSEC
  0
EOF
