  0
SECTION
  2
HEADER
  9
$ACADVER
  1
AC1024
  9
$DWGCODEPAGE
  3
ANSI_1252
  9
$EXTMAX
 10
297.0
 20
210.0
 30
0.0
  9
$EXTMIN
 10
0.0
 20
0.0
 30
0.0
  9
$LIMMIN
 10
0.0
 20
0.0
  9
$LIMMAX
 10
297.0
 20
210.0
  9
$VIEWCTR
 10
148.5
 20
105.0
  9
$VIEWSIZE
 40
210.0
  9
$CLAYER
  8
0
  9
$LTSCALE
 40
16.335
  9
$CELTYPE
  6
BYLAYER
  9
$DIMSCALE
 40
1.0
  9
$DIMASZ
 40
3.0
  9
$DIMEXO
 40
0.5
  9
$DIMDLI
 40
11.286
  9
$DIMEXE
 40
1.5
  9
$DIMCEN
 40
2.673
  9
$DIMLFAC
 40
1.0
  9
$DIMBLK
  1
_FILLED
  9
$DIMALT
 70
0
  9
$DIMALTF
 40
0.0393700787
  9
$DIMTXT
 40
3.0
  9
$DIMTOL
 70
1
  9
$DIMLIM
 70
0
  9
$DIMTFAC
 40
1.0
  9
$DIMTP
 40
0.01
  9
$DIMTM
 40
0.01
  9
$DIMGAP
 40
0.625
  9
$DIMDSEP
 70
44
  9
$AUNITS
 70
0
  9
$PDMODE
 70
3
  9
$PDSIZE
 40
3.0
  9
$HANDSEED
  5
644
  9
$TILEMODE
 70
1
  9
$MEASUREMENT
 70
1
  9
$INSUNITS
 70
4
  0
ENDSEC
  0
SECTION
  2
CLASSES
  0
CLASS
  1
ACDBDICTIONARYWDFLT
  2
AcDbDictionaryWithDefault
  3
AutoCAD 2000
 90
0
 91
1
280
0
281
0
  0
CLASS
  1
ACDBPLACEHOLDER
  2
AcDbPlaceHolder
  3
AutoCAD 2000
 90
0
 91
1
280
0
281
0
  0
CLASS
  1
LAYOUT
  2
AcDbLayout
  3
AutoCAD 2000
 90
0
 91
0
280
0
281
0
  0
ENDSEC
  0
SECTION
  2
TABLES
  0
TABLE
  2
VPORT
  5
8
100
AcDbSymbolTable
 70
2
  0
VPORT
  5
1F4
100
AcDbSymbolTableRecord
100
AcDbViewportTableRecord
  2
*ACTIVE
 70
0
 10
0.0
 20
0.0
 11
1.0
 21
1.0
 12
148.5
 22
105.0
 13
0.0
 23
0.0
 14
1.0
 24
1.0
 15
0.0
 25
0.0
 16
0.0
 26
0.0
 36
1.0
 17
0.0
 27
0.0
 37
0.0
 40
210.0
 41
1.4142857143
 42
50.0
 43
0.0
 44
0.0
 50
0.0
 51
0.0
 71
0
 72
100
 73
1
 74
1
 75
0
 76
0
 77
0
 78
0
  0
ENDTAB
  0
TABLE
  2
LTYPE
  5
5
100
AcDbSymbolTable
 70
6
  0
LTYPE
  5
14
100
AcDbSymbolTableRecord
100
AcDbLinetypeTableRecord
  2
BYBLOCK
 70
0
  3

 72
65
 73
0
 40
0.0
  0
LTYPE
  5
15
100
AcDbSymbolTableRecord
100
AcDbLinetypeTableRecord
  2
BYLAYER
 70
0
  3

 72
65
 73
0
 40
0.0
  0
LTYPE
  5
16
100
AcDbSymbolTableRecord
100
AcDbLinetypeTableRecord
  2
CONTINUOUS
 70
64
  3
Solid line
 72
65
 73
0
 40
0.0
  0
LTYPE
  5
1F5
100
AcDbSymbolTableRecord
100
AcDbLinetypeTableRecord
  2
CENTER
 70
64
  3
____ _ ____ _ ____ _ ____ _ ____ _ ____ _ ____
 72
65
 73
4
 40
0.6
 49
0.375
 74
0
 49
-0.075
 74
0
 49
0.075
 74
0
 49
-0.075
 74
0
  0
LTYPE
  5
1F6
100
AcDbSymbolTableRecord
100
AcDbLinetypeTableRecord
  2
HIDDEN
 70
64
  3
- - - - - - - - - - - - - - - - - - - -
 72
65
 73
2
 40
0.2
 49
0.1
 74
0
 49
-0.1
 74
0
  0
LTYPE
  5
1F7
100
AcDbSymbolTableRecord
100
AcDbLinetypeTableRecord
  2
PHANTOM
 70
64
  3
_____ _ _ _____ _ _ _____ _ _ _____
 72
65
 73
6
 40
0.8
 49
0.45
 74
0
 49
-0.05
 74
0
 49
0.1
 74
0
 49
-0.05
 74
0
 49
0.1
 74
0
 49
-0.05
 74
0
  0
LTYPE
  5
1F8
100
AcDbSymbolTableRecord
100
AcDbLinetypeTableRecord
  2
DOT
 70
64
  3
. . . . . . . . . . . . . . . . . . . .
 72
65
 73
2
 40
0.2
 49
0.1
 74
0
 49
-0.1
 74
0
  0
LTYPE
  5
1F9
100
AcDbSymbolTableRecord
100
AcDbLinetypeTableRecord
  2
DASHED
 70
64
  3
- - - - - - - - - - - - - - - - - - - -
 72
65
 73
2
 40
0.2
 49
0.1
 74
0
 49
-0.1
 74
0
  0
ENDTAB
  0
TABLE
  2
LAYER
  5
2
100
AcDbSymbolTable
 70
36
  0
LAYER
  5
10
100
AcDbSymbolTableRecord
100
AcDbLayerTableRecord
  2
0
 70
0
 62
7
  6
CONTINUOUS
370
-3
390
F
  0
LAYER
  5
1FA
100
AcDbSymbolTableRecord
100
AcDbLayerTableRecord
  2
DEFAULT_1
 70
0
 62
7
  6
CENTER
370
-3
390
F
  0
LAYER
  5
1FB
100
AcDbSymbolTableRecord
100
AcDbLayerTableRecord
  2
DEFAULT_2
 70
0
 62
7
  6
HIDDEN
370
-3
390
F
  0
LAYER
  5
1FC
100
AcDbSymbolTableRecord
100
AcDbLayerTableRecord
  2
DEFAULT_3
 70
0
 62
7
  6
PHANTOM
370
-3
390
F
  0
LAYER
  5
1FD
100
AcDbSymbolTableRecord
100
AcDbLayerTableRecord
  2
ASSI
 70
0
 62
7
  6
CONTINUOUS
370
-3
390
F
  0
LAYER
  5
1FE
100
AcDbSymbolTableRecord
100
AcDbLayerTableRecord
  2
COLOR16
 70
0
 62
7
  6
CONTINUOUS
370
-3
390
F
  0
LAYER
  5
1FF
100
AcDbSymbolTableRecord
100
AcDbLayerTableRecord
  2
COLOR5
 70
0
 62
7
  6
CONTINUOUS
370
-3
390
F
  0
LAYER
  5
200
100
AcDbSymbolTableRecord
100
AcDbLayerTableRecord
  2
COORDINATE
 70
0
 62
7
  6
CONTINUOUS
370
-3
390
F
  0
LAYER
  5
201
100
AcDbSymbolTableRecord
100
AcDbLayerTableRecord
  2
COORD_ORIGINE
 70
0
 62
7
  6
CONTINUOUS
370
-3
390
F
  0
LAYER
  5
202
100
AcDbSymbolTableRecord
100
AcDbLayerTableRecord
  2
COSMETICI
 70
0
 62
7
  6
CONTINUOUS
370
-3
390
F
  0
LAYER
  5
203
100
AcDbSymbolTableRecord
100
AcDbLayerTableRecord
  2
CURVE
 70
0
 62
7
  6
CONTINUOUS
370
-3
390
F
  0
LAYER
  5
204
100
AcDbSymbolTableRecord
100
AcDbLayerTableRecord
  2
DRAFT
 70
0
 62
7
  6
CONTINUOUS
370
-3
390
F
  0
LAYER
  5
205
100
AcDbSymbolTableRecord
100
AcDbLayerTableRecord
  2
IGES
 70
0
 62
7
  6
CONTINUOUS
370
-3
390
F
  0
LAYER
  5
206
100
AcDbSymbolTableRecord
100
AcDbLayerTableRecord
  2
INTF_1
 70
0
 62
7
  6
CONTINUOUS
370
-3
390
F
  0
LAYER
  5
207
100
AcDbSymbolTableRecord
100
AcDbLayerTableRecord
  2
INTF_7
 70
0
 62
7
  6
CONTINUOUS
370
-3
390
F
  0
LAYER
  5
208
100
AcDbSymbolTableRecord
100
AcDbLayerTableRecord
  2
INTF_RED
 70
0
 62
7
  6
CONTINUOUS
370
-3
390
F
  0
LAYER
  5
209
100
AcDbSymbolTableRecord
100
AcDbLayerTableRecord
  2
NOTE
 70
0
 62
7
  6
CONTINUOUS
370
-3
390
F
  0
LAYER
  5
20A
100
AcDbSymbolTableRecord
100
AcDbLayerTableRecord
  2
PIANI
 70
0
 62
7
  6
CONTINUOUS
370
-3
390
F
  0
LAYER
  5
20B
100
AcDbSymbolTableRecord
100
AcDbLayerTableRecord
  2
PIANI_ORIGINE
 70
0
 62
7
  6
CONTINUOUS
370
-3
390
F
  0
LAYER
  5
20C
100
AcDbSymbolTableRecord
100
AcDbLayerTableRecord
  2
PLACCA
 70
0
 62
7
  6
CONTINUOUS
370
-3
390
F
  0
LAYER
  5
20D
100
AcDbSymbolTableRecord
100
AcDbLayerTableRecord
  2
PUNTI
 70
0
 62
7
  6
CONTINUOUS
370
-3
390
F
  0
LAYER
  5
20E
100
AcDbSymbolTableRecord
100
AcDbLayerTableRecord
  2
RACCORDO
 70
0
 62
7
  6
CONTINUOUS
370
-3
390
F
  0
LAYER
  5
20F
100
AcDbSymbolTableRecord
100
AcDbLayerTableRecord
  2
RGB__255__255__255__
 70
0
 62
7
  6
CONTINUOUS
370
-3
390
F
  0
LAYER
  5
210
100
AcDbSymbolTableRecord
100
AcDbLayerTableRecord
  2
RGB____0____0____0__
 70
0
 62
7
  6
CONTINUOUS
370
-3
390
F
  0
LAYER
  5
211
100
AcDbSymbolTableRecord
100
AcDbLayerTableRecord
  2
SIMBOLI
 70
0
 62
7
  6
CONTINUOUS
370
-3
390
F
  0
LAYER
  5
212
100
AcDbSymbolTableRecord
100
AcDbLayerTableRecord
  2
SMUSSO
 70
0
 62
7
  6
CONTINUOUS
370
-3
390
F
  0
LAYER
  5
213
100
AcDbSymbolTableRecord
100
AcDbLayerTableRecord
  2
SNAPLINE
 70
0
 62
7
  6
CONTINUOUS
370
-3
390
F
  0
LAYER
  5
214
100
AcDbSymbolTableRecord
100
AcDbLayerTableRecord
  2
SUPERFICI
 70
0
 62
7
  6
CONTINUOUS
370
-3
390
F
  0
LAYER
  5
215
100
AcDbSymbolTableRecord
100
AcDbLayerTableRecord
  2
SUPPORTO
 70
0
 62
7
  6
CONTINUOUS
370
-3
390
F
  0
LAYER
  5
216
100
AcDbSymbolTableRecord
100
AcDbLayerTableRecord
  2
TEMP
 70
0
 62
7
  6
CONTINUOUS
370
-3
390
F
  0
LAYER
  5
217
100
AcDbSymbolTableRecord
100
AcDbLayerTableRecord
  2
TRASH
 70
0
 62
7
  6
CONTINUOUS
370
-3
390
F
  0
LAYER
  5
218
100
AcDbSymbolTableRecord
100
AcDbLayerTableRecord
  2
XSEC_DATUMS
 70
0
 62
7
  6
CONTINUOUS
370
-3
390
F
  0
ENDTAB
  0
TABLE
  2
STYLE
  5
3
100
AcDbSymbolTable
 70
1
  0
STYLE
  5
11
100
AcDbSymbolTableRecord
100
AcDbTextStyleTableRecord
  2
STANDARD
 70
0
 40
0.0
 41
0.8
 50
0.0
 71
0
 42
0.2
  3
txt
  4

  0
STYLE
  5
219
100
AcDbSymbolTableRecord
100
AcDbTextStyleTableRecord
  2
TEXTSTYLE_1
 70
0
 40
0.0
 41
0.8
 50
0.0
 71
0
 42
0.2
  3
gdt
  4

  0
ENDTAB
  0
TABLE
  2
VIEW
  5
6
100
AcDbSymbolTable
 70
0
  0
ENDTAB
  0
TABLE
  2
UCS
  5
7
100
AcDbSymbolTable
 70
0
  0
ENDTAB
  0
TABLE
  2
APPID
  5
9
100
AcDbSymbolTable
 70
1
  0
APPID
  5
21A
100
AcDbSymbolTableRecord
100
AcDbRegAppTableRecord
  2
ACAD
 70
0
  0
ENDTAB
  0
TABLE
  2
BLOCK_RECORD
  5
1
100
AcDbSymbolTable
 70
0
  0
BLOCK_RECORD
  5
21B
100
AcDbSymbolTableRecord
100
AcDbBlockTableRecord
  2
*Model_Space
  0
BLOCK_RECORD
  5
21C
100
AcDbSymbolTableRecord
100
AcDbBlockTableRecord
  2
*Paper_Space
  0
BLOCK_RECORD
  5
21D
100
AcDbSymbolTableRecord
100
AcDbBlockTableRecord
  2
_FILLED
  0
ENDTAB
  0
TABLE
  2
DIMSTYLE
  5
A
100
AcDbSymbolTable
 70
1
100
AcDbDimStyleTable
 71
0
  0
DIMSTYLE
105
21E
100
AcDbSymbolTableRecord
100
AcDbDimStyleTableRecord
  2
STANDARD
 70
0
  3

  4

 40
1.0
 41
3.0
 42
0.5
 43
0.38
 44
1.5
 45
0.0
 46
0.0
 47
0.01
 48
0.01
140
3.0
141
0.09
142
0.0
143
25.4
144
1.0
145
0.0
146
1.0
147
0.625
 71
1
 72
0
 73
0
 74
0
 75
0
 76
0
 77
1
 78
8
 79
2
170
0
171
1
172
0
173
0
174
0
175
0
176
0
177
0
178
0
270
2
179
2
271
2
272
2
273
2
274
2
275
0
280
0
281
0
282
0
283
1
284
8
285
0
286
0
287
3
288
0
340
11
278
44
341
21D
342
21D
343
21D
344
21D
  0
ENDTAB
  0
ENDSEC
  0
SECTION
  2
BLOCKS
  0
BLOCK
  5
20
100
AcDbEntity
  8
0
100
AcDbBlockBegin
  2
*Model_Space
 70
0
 10
0.0
 20
0.0
 30
0.0
  3
*Model_Space
  1

  0
ENDBLK
  5
21
100
AcDbEntity
  8
0
100
AcDbBlockEnd
  0
BLOCK
  5
1C
100
AcDbEntity
  8
0
100
AcDbBlockBegin
  2
*Paper_Space
 70
0
 10
0.0
 20
0.0
 30
0.0
  3
*Paper_Space
  1

  0
ENDBLK
  5
1D
100
AcDbEntity
  8
0
100
AcDbBlockEnd
  0
BLOCK
  5
21F
100
AcDbEntity
  8
0
100
AcDbBlockBegin
  2
_FILLED
 70
64
 10
0.0
 20
0.0
  3
_FILLED
  1

  0
SOLID
  5
220
100
AcDbEntity
  8
0
  6
BYBLOCK
 62
0
100
AcDbTrace
 10
0.0
 20
0.0
 11
-1.0
 21
0.3166666667
 12
-1.0
 22
-0.3166666667
 13
-1.0
 23
-0.3166666667
  0
ENDBLK
  5
221
100
AcDbEntity
  8
0
  6
BYBLOCK
 62
0
100
AcDbBlockEnd
  0
ENDSEC
  0
SECTION
  2
ENTITIES
  0
LWPOLYLINE
  5
222
100
AcDbEntity
  8
SUPERFICI
100
AcDbPolyline
 62
7
  6
CONTINUOUS
 90
24
 70
0
 10
-37.9779955899
 20
39.1849922881
 10
-38.0053174786
 20
39.14337958
 10
-38.0316622804
 20
39.1008111379
 10
-38.0569994649
 20
39.0573030448
 10
-38.0812967741
 20
39.0128761324
 10
-38.1045209934
 20
38.9675557875
 10
-38.1266433986
 20
38.9213614655
 10
-38.1476350396
 20
38.8743165414
 10
-38.1674660231
 20
38.8264534566
 10
-38.1861115103
 20
38.7777973355
 10
-38.2035485014
 20
38.7283711292
 10
-38.2197528675
 20
38.6782038724
 10
-38.2347037895
 20
38.6273181255
 10
-38.2483809552
 20
38.575741905
 10
-38.2607640526
 20
38.5235115253
 10
-38.271836744
 20
38.4706526575
 10
-38.2815831725
 20
38.4171918307
 10
-38.2899871811
 20
38.3631649697
 10
-38.297036755
 20
38.3085989827
 10
-38.302721055
 20
38.2535185165
 10
-38.3070291869
 20
38.1979540733
 10
-38.3099517848
 20
38.1419314405
 10
-38.3114811723
 20
38.0854732929
 10
-38.3117041856
 20
38.0415942144
  0
LINE
  5
223
100
AcDbEntity
  8
SUPERFICI
100
AcDbLine
 62
7
  6
CONTINUOUS
 10
-36.1645674365
 20
41.8267306851
 11
-37.9779955899
 21
39.1849922881
  0
LWPOLYLINE
  5
224
100
AcDbEntity
  8
SUPERFICI
100
AcDbPolyline
 62
250
  6
CONTINUOUS
 90
31
 70
0
 10
-37.9704291501
 20
39.1960997323
 10
-37.9257708911
 20
39.2573135208
 10
-37.8760860793
 20
39.3176699744
 10
-37.8223399472
 20
39.3755352787
 10
-37.7645200822
 20
39.430715974
 10
-37.7026197978
 20
39.4830233484
 10
-37.6370748149
 20
39.5319629796
 10
-37.5679681508
 20
39.5774110066
 10
-37.495391205
 20
39.6192492888
 10
-37.4199334923
 20
39.6571342552
 10
-37.3417581574
 20
39.6910305237
 10
-37.2610338879
 20
39.7209112464
 10
-37.1784777111
 20
39.7466028033
 10
-37.0943080587
 20
39.7681686317
 10
-37.0087403046
 20
39.7856815535
 10
-36.9225774341
 20
39.7991443545
 10
-36.8360621159
 20
39.8087160366
 10
-36.7494208998
 20
39.8145645203
 10
-36.6634910353
 20
39.816861721
 10
-36.5785062212
 20
39.8158478297
 10
-36.4946721942
 20
39.8117665877
 10
-36.4128119121
 20
39.8049332981
 10
-36.3331170627
 20
39.7956433925
 10
-36.2557543604
 20
39.7841886884
 10
-36.1815124471
 20
39.770992638
 10
-36.1105266682
 20
39.7563753319
 10
-36.0429115512
 20
39.7406465387
 10
-35.9794120753
 20
39.7243003589
 10
-35.9203248112
 20
39.7077268019
 10
-35.8654929756
 20
39.6911549398
 10
-35.8149604975
 20
39.6748529437
  0
LINE
  5
225
100
AcDbEntity
  8
0
100
AcDbLine
 62
250
  6
CONTINUOUS
 10
-35.8149604975
 20
39.6748529437
 11
-33.8171458628
 21
42.3630911238
  0
LWPOLYLINE
  5
226
100
AcDbEntity
  8
SUPERFICI
100
AcDbPolyline
 62
250
  6
CONTINUOUS
 90
13
 70
0
 10
-35.8149604975
 20
39.6748529437
 10
-35.8712471775
 20
39.6014637096
 10
-35.9262190334
 20
39.5191902688
 10
-35.9791483377
 20
39.4291217648
 10
-36.0293344028
 20
39.332450533
 10
-36.0761128561
 20
39.2304563163
 10
-36.1188644357
 20
39.124489324
 10
-36.1570231876
 20
39.0159523574
 10
-36.1900839584
 20
38.9062822394
 10
-36.2176090822
 20
38.7969307936
 10
-36.2392341748
 20
38.6893456252
 10
-36.254672957
 20
38.584950957
 10
-36.263721045
 20
38.4851287758
  0
LWPOLYLINE
  5
227
100
AcDbEntity
  8
SUPERFICI
100
AcDbPolyline
 62
250
  6
CONTINUOUS
 90
9
 70
0
 10
-37.6245974601
 20
9.2945441785
 10
-37.6178006387
 20
9.2304892179
 10
-37.5994904848
 20
9.1640052939
 10
-37.5699495516
 20
9.0993118059
 10
-37.5295182587
 20
9.0371542596
 10
-37.4786625223
 20
8.9782489372
 10
-37.4179683866
 20
8.9232746435
 10
-37.34813527
 20
8.8728648832
 10
-37.2699679053
 20
8.8276005613
  0
LINE
  5
228
100
AcDbEntity
  8
SUPERFICI
100
AcDbLine
 62
250
  6
CONTINUOUS
 10
-36.4872451307
 20
-19.4558709769
 11
-36.4942187743
 21
-19.3763975264
  0
LWPOLYLINE
  5
229
100
AcDbEntity
  8
SUPERFICI
100
AcDbPolyline
 62
250
  6
CONTINUOUS
 90
4
 70
0
 10
-36.4523427801
 20
-19.8865500051
 10
-36.465307633
 20
-19.7255987361
 10
-36.4692929883
 20
-19.6759537205
 10
-36.4872451307
 20
-19.4558709769
  0
LWPOLYLINE
  5
22A
100
AcDbEntity
  8
SUPERFICI
100
AcDbPolyline
 62
250
  6
CONTINUOUS
 90
3
 70
0
 10
-36.4942187743
 20
-19.3763975264
 10
-36.497171137
 20
-19.3372141513
 10
-36.4993616767
 20
-19.2983078457
  0
LWPOLYLINE
  5
22B
100
AcDbEntity
  8
SUPERFICI
100
AcDbPolyline
 62
7
  6
CONTINUOUS
 90
61
 70
0
 10
-36.8833159825
 20
-19.3763530052
 10
-36.8807885195
 20
-19.4209279645
 10
-36.8762732424
 20
-19.4776218221
 10
-36.8702757263
 20
-19.5346634328
 10
-36.8627830974
 20
-19.5920536248
 10
-36.8537892822
 20
-19.6497444631
 10
-36.8432999394
 20
-19.7076396639
 10
-36.8313114524
 20
-19.7657163856
 10
-36.8178208756
 20
-19.8239514981
 10
-36.8028456779
 20
-19.8822491449
 10
-36.7863881595
 20
-19.9405875121
 10
-36.7684498585
 20
-19.998944282
 10
-36.7490584151
 20
-20.0572233738
 10
-36.7282223851
 20
-20.1154028263
 10
-36.7059492635
 20
-20.1734611224
 10
-36.6822764849
 20
-20.2313032115
 10
-36.6572151854
 20
-20.2889093582
 10
-36.6307787099
 20
-20.3462584365
 10
-36.6030174609
 20
-20.4032539307
 10
-36.5739485251
 20
-20.4598754228
 10
-36.5435864958
 20
-20.516105023
 10
-36.5119894245
 20
-20.5718515128
 10
-36.479187434
 20
-20.6270837411
 10
-36.4451929519
 20
-20.6817986228
 10
-36.4100454258
 20
-20.7359477112
 10
-36.3737686616
 20
-20.7895088358
 10
-36.3363818869
 20
-20.8424697126
 10
-36.2979204877
 20
-20.8947957643
 10
-36.2584072489
 20
-20.9464694978
 10
-36.2178636132
 20
-20.9974734511
 10
-36.1763252977
 20
-21.0477728587
 10
-36.1338182266
 20
-21.0973493813
 10
-36.0903626457
 20
-21.1461905709
 10
-36.0459887227
 20
-21.194271338
 10
-36.0007195898
 20
-21.2415735014
 10
-35.954575512
 20
-21.2880823433
 10
-35.907584423
 20
-21.333777556
 10
-35.8597698861
 20
-21.3786424929
 10
-35.8111540007
 20
-21.4226605778
 10
-35.7617626662
 20
-21.4658108704
 10
-35.7116186904
 20
-21.508077168
 10
-35.6607454156
 20
-21.5494438591
 10
-35.6091700174
 20
-21.5898912227
 10
-35.5569144433
 20
-21.6294027126
 10
-35.504000952
 20
-21.6679613288
 10
-35.4504574327
 20
-21.7055480657
 10
-35.3963056815
 20
-21.742147852
 10
-35.3415680735
 20
-21.7777439474
 10
-35.2862728864
 20
-21.8123152236
 10
-35.2304436023
 20
-21.8458455703
 10
-35.1741036872
 20
-21.8783189461
 10
-35.1172814195
 20
-21.9097156409
 10
-35.0599990251
 20
-21.94001897
 10
-35.0022802867
 20
-21.9692128976
 10
-34.9441535825
 20
-21.9972789795
 10
-34.8856406074
 20
-22.0242011072
 10
-34.8267647099
 20
-22.0499624997
 10
-34.7675542544
 20
-22.0745449571
 10
-34.7080326326
 20
-22.0979315549
 10
-34.6482205608
 20
-22.120106171
 10
-34.599811556
 20
-22.1370870213
  0
LINE
  5
22C
100
AcDbEntity
  8
SUPERFICI
100
AcDbLine
 62
250
  6
CONTINUOUS
 10
-36.4993616767
 20
-19.2983078457
 11
-36.5026545877
 21
-19.2212709912
  0
LINE
  5
22D
100
AcDbEntity
  8
SUPERFICI
100
AcDbLine
 62
250
  6
CONTINUOUS
 10
-36.517385891
 20
-18.8281294697
 11
-36.5272826898
 21
-18.5628752994
  0
LWPOLYLINE
  5
22E
100
AcDbEntity
  8
SUPERFICI
100
AcDbPolyline
 62
250
  6
CONTINUOUS
 90
3
 70
0
 10
-36.5272826898
 20
-18.5628752994
 10
-36.5316403263
 20
-18.4456366626
 10
-36.533904952
 20
-18.3845079608
  0
LWPOLYLINE
  5
22F
100
AcDbEntity
  8
SUPERFICI
100
AcDbPolyline
 62
250
  6
CONTINUOUS
 90
10
 70
0
 10
-38.3117040514
 20
38.0415642425
 10
-38.3108303121
 20
38.0179325309
 10
-38.2993642909
 20
37.9487007006
 10
-38.2747627776
 20
37.8807634513
 10
-38.2373529661
 20
37.8150243308
 10
-38.1876323972
 20
37.7523576523
 10
-38.1262623416
 20
37.6935968664
 10
-38.054059005
 20
37.6395234763
 10
-37.9719826732
 20
37.5908566442
 10
-37.8811249401
 20
37.5482436263
  0
LWPOLYLINE
  5
230
100
AcDbEntity
  8
SUPERFICI
100
AcDbPolyline
 62
250
  6
CONTINUOUS
 90
3
 70
0
 10
-36.533904952
 20
-18.3845079608
 10
-36.5386237284
 20
-18.2568274893
 10
-36.5410775794
 20
-18.190274766
  0
LINE
  5
231
100
AcDbEntity
  8
SUPERFICI
100
AcDbLine
 62
250
  6
CONTINUOUS
 10
-36.5410775794
 20
-18.190274766
 11
-36.5461856746
 21
-18.051346483
  0
LINE
  5
232
100
AcDbEntity
  8
SUPERFICI
100
AcDbLine
 62
250
  6
CONTINUOUS
 10
-36.5461856746
 20
-18.051346483
 11
-36.5515639747
 21
-17.9045010951
  0
LINE
  5
233
100
AcDbEntity
  8
SUPERFICI
100
AcDbLine
 62
250
  6
CONTINUOUS
 10
-36.5515639747
 20
-17.9045010951
 11
-36.5572230973
 21
-17.7493005441
  0
LINE
  5
234
100
AcDbEntity
  8
SUPERFICI
100
AcDbLine
 62
250
  6
CONTINUOUS
 10
-36.5572230973
 20
-17.7493005441
 11
-36.5631771173
 21
-17.5851878663
  0
LINE
  5
235
100
AcDbEntity
  8
SUPERFICI
100
AcDbLine
 62
250
  6
CONTINUOUS
 10
-36.5631771173
 20
-17.5851878663
 11
-36.5694343389
 21
-17.4117885416
  0
LINE
  5
236
100
AcDbEntity
  8
SUPERFICI
100
AcDbLine
 62
250
  6
CONTINUOUS
 10
-36.5026545877
 20
-19.2212709912
 11
-36.517385891
 21
-18.8281294697
  0
LINE
  5
237
100
AcDbEntity
  8
SUPERFICI
100
AcDbLine
 62
250
  6
CONTINUOUS
 10
-36.5694343389
 20
-17.4117885416
 11
-36.5829124244
 21
-17.0347650413
  0
LINE
  5
238
100
AcDbEntity
  8
SUPERFICI
100
AcDbLine
 62
250
  6
CONTINUOUS
 10
-36.5829124244
 20
-17.0347650413
 11
-36.5977194948
 21
-16.614582504
  0
LINE
  5
239
100
AcDbEntity
  8
SUPERFICI
100
AcDbLine
 62
250
  6
CONTINUOUS
 10
-36.5977194948
 20
-16.614582504
 11
-36.6180231627
 21
-16.0269861259
  0
LINE
  5
23A
100
AcDbEntity
  8
SUPERFICI
100
AcDbLine
 62
250
  6
CONTINUOUS
 10
-36.6180231627
 20
-16.0269861259
 11
-36.6403926197
 21
-15.3624889605
  0
LINE
  5
23B
100
AcDbEntity
  8
SUPERFICI
100
AcDbLine
 62
250
  6
CONTINUOUS
 10
-36.6403926197
 20
-15.3624889605
 11
-36.6599441731
 21
-14.7652782147
  0
LINE
  5
23C
100
AcDbEntity
  8
SUPERFICI
100
AcDbLine
 62
250
  6
CONTINUOUS
 10
-36.6599441731
 20
-14.7652782147
 11
-36.6810305865
 21
-14.1025061759
  0
LINE
  5
23D
100
AcDbEntity
  8
SUPERFICI
100
AcDbLine
 62
250
  6
CONTINUOUS
 10
-36.6810305865
 20
-14.1025061759
 11
-36.6977605707
 21
-13.5619231425
  0
LINE
  5
23E
100
AcDbEntity
  8
SUPERFICI
100
AcDbLine
 62
250
  6
CONTINUOUS
 10
-36.6977605707
 20
-13.5619231425
 11
-36.7152111279
 21
-12.9836431404
  0
LINE
  5
23F
100
AcDbEntity
  8
SUPERFICI
100
AcDbLine
 62
250
  6
CONTINUOUS
 10
-36.7152111279
 20
-12.9836431404
 11
-36.7334596872
 21
-12.3629481672
  0
LWPOLYLINE
  5
240
100
AcDbEntity
  8
SUPERFICI
100
AcDbPolyline
 62
7
  6
CONTINUOUS
 90
4
 70
0
 10
-36.9227270856
 20
-18.1903521288
 10
-36.9111210287
 20
-18.5943929932
 10
-36.8990236114
 20
-18.9947674935
 10
-36.8833154762
 20
-19.3763635876
  0
LINE
  5
241
100
AcDbEntity
  8
SUPERFICI
100
AcDbLine
 62
250
  6
CONTINUOUS
 10
-36.7334596872
 20
-12.3629481672
 11
-36.7526265468
 21
-11.6936816048
  0
LINE
  5
242
100
AcDbEntity
  8
SUPERFICI
100
AcDbLine
 62
7
  6
CONTINUOUS
 10
-36.9816694225
 20
-16.1082835888
 11
-36.9227270856
 21
-18.1903521288
  0
LINE
  5
243
100
AcDbEntity
  8
SUPERFICI
100
AcDbLine
 62
250
  6
CONTINUOUS
 10
-36.7526265468
 20
-11.6936816048
 11
-36.772838097
 21
-10.9698093744
  0
LINE
  5
244
100
AcDbEntity
  8
SUPERFICI
100
AcDbLine
 62
7
  6
CONTINUOUS
 10
-37.0179020631
 20
-14.796084023
 11
-36.9816694225
 21
-16.1082835888
  0
LINE
  5
245
100
AcDbEntity
  8
SUPERFICI
100
AcDbLine
 62
250
  6
CONTINUOUS
 10
-36.772838097
 20
-10.9698093744
 11
-36.7942349849
 21
-10.1855183442
  0
LINE
  5
246
100
AcDbEntity
  8
SUPERFICI
100
AcDbLine
 62
7
  6
CONTINUOUS
 10
-37.0547720044
 20
-13.4304715411
 11
-37.0179020631
 21
-14.796084023
  0
LINE
  5
247
100
AcDbEntity
  8
SUPERFICI
100
AcDbLine
 62
250
  6
CONTINUOUS
 10
-36.7942349849
 20
-10.1855183442
 11
-36.8169817114
 21
-9.3359104849
  0
LINE
  5
248
100
AcDbEntity
  8
SUPERFICI
100
AcDbLine
 62
7
  6
CONTINUOUS
 10
-37.0923738274
 20
-12.0056677787
 11
-37.0547720044
 21
-13.4304715411
  0
LINE
  5
249
100
AcDbEntity
  8
SUPERFICI
100
AcDbLine
 62
250
  6
CONTINUOUS
 10
-36.8169817114
 20
-9.3359104849
 11
-36.8412624716
 21
-8.4165715395
  0
LINE
  5
24A
100
AcDbEntity
  8
SUPERFICI
100
AcDbLine
 62
250
  6
CONTINUOUS
 10
-36.8412624716
 20
-8.4165715395
 11
-36.8761920816
 21
-7.0743672194
  0
LINE
  5
24B
100
AcDbEntity
  8
SUPERFICI
100
AcDbLine
 62
7
  6
CONTINUOUS
 10
-37.1439949436
 20
-10.0043599262
 11
-37.0923738274
 21
-12.0056677787
  0
LINE
  5
24C
100
AcDbEntity
  8
SUPERFICI
100
AcDbLine
 62
250
  6
CONTINUOUS
 10
-36.8761920816
 20
-7.0743672194
 11
-36.9142294969
 21
-5.5872453178
  0
LINE
  5
24D
100
AcDbEntity
  8
SUPERFICI
100
AcDbLine
 62
250
  6
CONTINUOUS
 10
-37.3986212254
 20
13.9837944319
 11
-37.5310608854
 21
19.2032892982
  0
LINE
  5
24E
100
AcDbEntity
  8
SUPERFICI
100
AcDbLine
 62
7
  6
CONTINUOUS
 10
-37.2547357822
 20
-5.6182127225
 11
-37.1439949436
 21
-10.0043599262
  0
LINE
  5
24F
100
AcDbEntity
  8
SUPERFICI
100
AcDbLine
 62
7
  6
CONTINUOUS
 10
-37.8130591488
 20
16.8491091651
 11
-37.6896177029
 21
11.9150162907
  0
LINE
  5
250
100
AcDbEntity
  8
SUPERFICI
100
AcDbLine
 62
250
  6
CONTINUOUS
 10
-36.9142294969
 20
-5.5872453178
 11
-36.9556511737
 21
-3.9406997152
  0
LINE
  5
251
100
AcDbEntity
  8
SUPERFICI
100
AcDbLine
 62
250
  6
CONTINUOUS
 10
-37.214449129
 20
6.6159099159
 11
-37.2699679051
 21
8.8276005615
  0
LINE
  5
252
100
AcDbEntity
  8
SUPERFICI
100
AcDbLine
 62
250
  6
CONTINUOUS
 10
-37.3278703696
 20
11.1748796221
 11
-37.3986212254
 21
13.9837944319
  0
LINE
  5
253
100
AcDbEntity
  8
SUPERFICI
100
AcDbLine
 62
250
  6
CONTINUOUS
 10
-37.5310608854
 20
19.2032892982
 11
-37.5902737695
 21
21.5700393605
  0
LINE
  5
254
100
AcDbEntity
  8
SUPERFICI
100
AcDbLine
 62
7
  6
CONTINUOUS
 10
-38.0025404948
 20
24.4438311815
 11
-37.8130591488
 21
16.8491091651
  0
LINE
  5
255
100
AcDbEntity
  8
SUPERFICI
100
AcDbLine
 62
7
  6
CONTINUOUS
 10
-37.6896177029
 20
11.9150162907
 11
-37.5675074507
 21
7.006727217
  0
LINE
  5
256
100
AcDbEntity
  8
SUPERFICI
100
AcDbLine
 62
7
  6
CONTINUOUS
 10
-37.3770587372
 20
-0.6950307219
 11
-37.2547357822
 21
-5.6182127225
  0
LINE
  5
257
100
AcDbEntity
  8
SUPERFICI
100
AcDbLine
 62
7
  6
CONTINUOUS
 10
-37.5675074507
 20
7.006727217
 11
-37.3770587372
 21
-0.6950307219
  0
LINE
  5
258
100
AcDbEntity
  8
SUPERFICI
100
AcDbLine
 62
250
  6
CONTINUOUS
 10
-36.9556511737
 20
-3.9406997152
 11
-37.0008147156
 21
-2.1184860569
  0
LINE
  5
259
100
AcDbEntity
  8
SUPERFICI
100
AcDbLine
 62
250
  6
CONTINUOUS
 10
-37.2699679053
 20
8.8276005613
 11
-37.3278703696
 21
11.1748796221
  0
LINE
  5
25A
100
AcDbEntity
  8
SUPERFICI
100
AcDbLine
 62
7
  6
CONTINUOUS
 10
-38.0840572099
 20
27.7652558089
 11
-38.0025404948
 21
24.4438311815
  0
LINE
  5
25B
100
AcDbEntity
  8
SUPERFICI
100
AcDbLine
 62
250
  6
CONTINUOUS
 10
-37.5902737695
 20
21.5700393605
 11
-37.6408141504
 21
23.6287592408
  0
LINE
  5
25C
100
AcDbEntity
  8
SUPERFICI
100
AcDbLine
 62
250
  6
CONTINUOUS
 10
-37.0008147156
 20
-2.1184860569
 11
-37.0632424908
 21
0.4324242135
  0
LWPOLYLINE
  5
25D
100
AcDbEntity
  8
SUPERFICI
100
AcDbPolyline
 62
250
  6
CONTINUOUS
 90
3
 70
0
 10
-37.0632424908
 20
0.4324242135
 10
-37.1336470673
 20
3.3250923009
 10
-37.214449129
 20
6.6159099159
  0
LINE
  5
25E
100
AcDbEntity
  8
SUPERFICI
100
AcDbLine
 62
7
  6
CONTINUOUS
 10
-38.1475280824
 20
30.4002145048
 11
-38.0840572099
 21
27.7652558089
  0
LINE
  5
25F
100
AcDbEntity
  8
SUPERFICI
100
AcDbLine
 62
250
  6
CONTINUOUS
 10
-37.6408141504
 20
23.6287592408
 11
-37.6839322681
 21
25.4246234966
  0
LINE
  5
260
100
AcDbEntity
  8
SUPERFICI
100
AcDbLine
 62
250
  6
CONTINUOUS
 10
-37.6839322681
 20
25.4246234966
 11
-37.7138447922
 21
26.697265453
  0
LINE
  5
261
100
AcDbEntity
  8
SUPERFICI
100
AcDbLine
 62
7
  6
CONTINUOUS
 10
-38.1862272144
 20
32.0538007728
 11
-38.1475280824
 21
30.4002145048
  0
LINE
  5
262
100
AcDbEntity
  8
SUPERFICI
100
AcDbLine
 62
250
  6
CONTINUOUS
 10
-37.7138447922
 20
26.697265453
 11
-37.7462473411
 21
28.1077870623
  0
LINE
  5
263
100
AcDbEntity
  8
SUPERFICI
100
AcDbLine
 62
7
  6
CONTINUOUS
 10
-38.2219218295
 20
33.6253889865
 11
-38.1862272144
 21
32.0538007728
  0
LINE
  5
264
100
AcDbEntity
  8
SUPERFICI
100
AcDbLine
 62
250
  6
CONTINUOUS
 10
-37.7462473411
 20
28.1077870623
 11
-37.7631596798
 21
28.8671886603
  0
LINE
  5
265
100
AcDbEntity
  8
SUPERFICI
100
AcDbLine
 62
7
  6
CONTINUOUS
 10
-38.2467580281
 20
34.7487769428
 11
-38.2219218295
 21
33.6253889865
  0
LINE
  5
266
100
AcDbEntity
  8
SUPERFICI
100
AcDbLine
 62
7
  6
CONTINUOUS
 10
-38.2772016992
 20
36.1589705838
 11
-38.2467580281
 21
34.7487769428
  0
LINE
  5
267
100
AcDbEntity
  8
SUPERFICI
100
AcDbLine
 62
250
  6
CONTINUOUS
 10
-37.7631596798
 20
28.8671886603
 11
-37.7783085526
 21
29.5683196338
  0
LINE
  5
268
100
AcDbEntity
  8
SUPERFICI
100
AcDbLine
 62
250
  6
CONTINUOUS
 10
-37.7783085526
 20
29.5683196338
 11
-37.7918535708
 21
30.2171410305
  0
LINE
  5
269
100
AcDbEntity
  8
SUPERFICI
100
AcDbLine
 62
250
  6
CONTINUOUS
 10
-37.7918535708
 20
30.2171410305
 11
-37.8039737416
 21
30.8197263199
  0
LINE
  5
26A
100
AcDbEntity
  8
SUPERFICI
100
AcDbLine
 62
250
  6
CONTINUOUS
 10
-37.8039737416
 20
30.8197263199
 11
-37.8148512545
 21
31.3820563488
  0
LINE
  5
26B
100
AcDbEntity
  8
SUPERFICI
100
AcDbLine
 62
250
  6
CONTINUOUS
 10
-37.8148512545
 20
31.3820563488
 11
-37.8276414179
 21
32.074812866
  0
LINE
  5
26C
100
AcDbEntity
  8
SUPERFICI
100
AcDbLine
 62
250
  6
CONTINUOUS
 10
-37.8276414179
 20
32.074812866
 11
-37.83861636
 21
32.7016556351
  0
LINE
  5
26D
100
AcDbEntity
  8
SUPERFICI
100
AcDbLine
 62
250
  6
CONTINUOUS
 10
-37.83861636
 20
32.7016556351
 11
-37.8480093126
 21
33.2663228958
  0
LINE
  5
26E
100
AcDbEntity
  8
SUPERFICI
100
AcDbLine
 62
250
  6
CONTINUOUS
 10
-37.8480093126
 20
33.2663228958
 11
-37.8579428596
 21
33.8963045392
  0
LINE
  5
26F
100
AcDbEntity
  8
SUPERFICI
100
AcDbLine
 62
250
  6
CONTINUOUS
 10
-37.8579428596
 20
33.8963045392
 11
-37.8677899813
 21
34.5584481782
  0
LINE
  5
270
100
AcDbEntity
  8
SUPERFICI
100
AcDbLine
 62
250
  6
CONTINUOUS
 10
-37.8677899813
 20
34.5584481782
 11
-37.8769300578
 21
35.2102612795
  0
LINE
  5
271
100
AcDbEntity
  8
SUPERFICI
100
AcDbLine
 62
250
  6
CONTINUOUS
 10
-37.8769300578
 20
35.2102612795
 11
-37.8875120591
 21
36.0125238872
  0
LINE
  5
272
100
AcDbEntity
  8
SUPERFICI
100
AcDbLine
 62
250
  6
CONTINUOUS
 10
-37.8875120591
 20
36.0125238872
 11
-37.8918494017
 21
36.3569594264
  0
LWPOLYLINE
  5
273
100
AcDbEntity
  8
SUPERFICI
100
AcDbPolyline
 62
250
  6
CONTINUOUS
 90
7
 70
0
 10
-37.8918494017
 20
36.3569594264
 10
-37.8985366573
 20
36.8946258038
 10
-37.8987589699
 20
36.9326622959
 10
-37.8987852571
 20
36.9703644758
 10
-37.8983857133
 20
37.0083724907
 10
-37.8973070859
 20
37.0462661202
 10
-37.8942301885
 20
37.1229375212
  0
LWPOLYLINE
  5
274
100
AcDbEntity
  8
SUPERFICI
100
AcDbPolyline
 62
7
  6
CONTINUOUS
 90
4
 70
0
 10
-38.3117040271
 20
38.0415642409
 10
-38.3094209063
 20
37.7517066611
 10
-38.3044442816
 20
37.4471756621
 10
-38.2772016992
 20
36.1589705838
  0
LWPOLYLINE
  5
275
100
AcDbEntity
  8
SUPERFICI
100
AcDbPolyline
 62
250
  6
CONTINUOUS
 90
3
 70
0
 10
-37.8942301885
 20
37.1229375212
 10
-37.8928683863
 20
37.1629552448
 10
-37.8811248903
 20
37.5482436698
  0
LWPOLYLINE
  5
276
100
AcDbEntity
  8
SUPERFICI
100
AcDbPolyline
 62
250
  6
CONTINUOUS
 90
46
 70
0
 10
-37.8811249401
 20
37.5482436263
 10
-37.8799116211
 20
37.5780783902
 10
-37.8778491665
 20
37.6101562285
 10
-37.8747557309
 20
37.6443911967
 10
-37.8704190877
 20
37.6808084929
 10
-37.8646401679
 20
37.7191674732
 10
-37.8572706368
 20
37.7589772925
 10
-37.8481145772
 20
37.8001097351
 10
-37.836969176
 20
37.8424249335
 10
-37.8237361578
 20
37.8854287873
 10
-37.808240858
 20
37.9289735249
 10
-37.7903104914
 20
37.972898281
 10
-37.7699256367
 20
38.0167161969
 10
-37.746954492
 20
38.060270195
 10
-37.7212709012
 20
38.103393413
 10
-37.6929513687
 20
38.145626951
 10
-37.661918385
 20
38.1868214894
 10
-37.6281040539
 20
38.226824301
 10
-37.5916923287
 20
38.2652314178
 10
-37.5526695827
 20
38.3019197903
 10
-37.5110350874
 20
38.3367677245
 10
-37.4670840879
 20
38.36944899
 10
-37.420868664
 20
38.3998819109
 10
-37.3724460196
 20
38.4279933154
 10
-37.3222021181
 20
38.4535582465
 10
-37.2702335334
 20
38.476555179
 10
-37.2166487432
 20
38.4969679184
 10
-37.1619219314
 20
38.5146769743
 10
-37.1061898729
 20
38.5297224597
 10
-37.0495907125
 20
38.5421511971
 10
-36.9926537238
 20
38.5519553505
 10
-36.9355313722
 20
38.5592368485
 10
-36.8783665848
 20
38.564104788
 10
-36.8217076172
 20
38.5666606088
 10
-36.765698233
 20
38.567061543
 10
-36.7104709982
 20
38.5654638308
 10
-36.6565726091
 20
38.5620552846
 10
-36.604124616
 20
38.5570280736
 10
-36.5532327693
 20
38.5505702104
 10
-36.5044188113
 20
38.5429378352
 10
-36.4577654012
 20
38.5343424812
 10
-36.4133428158
 20
38.5249867385
 10
-36.371643532
 20
38.5151709041
 10
-36.3328586752
 20
38.5051449905
 10
-36.2968764376
 20
38.4950713156
 10
-36.263720174
 20
38.4851295643
  0
LWPOLYLINE
  5
277
100
AcDbEntity
  8
SUPERFICI
100
AcDbPolyline
 62
250
  6
CONTINUOUS
 90
9
 70
0
 10
-36.8828421461
 20
-19.3847096999
 10
-36.8712338499
 20
-19.4598951269
 10
-36.8464939205
 20
-19.5333963889
 10
-36.8089583462
 20
-19.6041909024
 10
-36.7591263404
 20
-19.6713371207
 10
-36.6976606555
 20
-19.7339420186
 10
-36.6253787692
 20
-19.7911729693
 10
-36.5432420116
 20
-19.842268818
 10
-36.4523427801
 20
-19.8865500051
  0
LWPOLYLINE
  5
278
100
AcDbEntity
  8
SUPERFICI
100
AcDbPolyline
 62
250
  6
CONTINUOUS
 90
4
 70
0
 10
30.8044525282
 20
-42.0078654419
 10
30.6710331704
 20
-41.975379076
 10
30.6016873976
 20
-41.9576422922
 10
30.5295094425
 20
-41.9380525645
  0
LINE
  5
279
100
AcDbEntity
  8
SUPERFICI
100
AcDbLine
 62
250
  6
CONTINUOUS
 10
31.225970844
 20
-42.1124606729
 11
31.0058255145
 21
-42.0580033511
  0
LINE
  5
27A
100
AcDbEntity
  8
SUPERFICI
100
AcDbLine
 62
250
  6
CONTINUOUS
 10
31.0058255145
 20
-42.0580033511
 11
30.8044525282
 21
-42.0078654419
  0
LWPOLYLINE
  5
27B
100
AcDbEntity
  8
SUPERFICI
100
AcDbPolyline
 62
7
  6
CONTINUOUS
 90
46
 70
0
 10
31.3690898082
 20
-42.3955248671
 10
31.4259126293
 20
-42.4105388596
 10
31.488359386
 20
-42.425773096
 10
31.5508579451
 20
-42.4396887917
 10
31.6134117945
 20
-42.4522779582
 10
31.6759752783
 20
-42.4635217773
 10
31.7384538294
 20
-42.4733954162
 10
31.8008257073
 20
-42.4818903656
 10
31.8630695167
 20
-42.4889982765
 10
31.9250914027
 20
-42.4947039803
 10
31.9868676642
 20
-42.4990025037
 10
32.0483776412
 20
-42.5018906763
 10
32.1095318276
 20
-42.5033642001
 10
32.1703073252
 20
-42.5034235966
 10
32.2306814787
 20
-42.5020690318
 10
32.2905654338
 20
-42.4993060425
 10
32.3499360815
 20
-42.4951419211
 10
32.4087709292
 20
-42.4895835692
 10
32.4669823059
 20
-42.4826461075
 10
32.5245427872
 20
-42.4743417887
 10
32.5814350519
 20
-42.4646836596
 10
32.6375865823
 20
-42.453696707
 10
32.6929591963
 20
-42.4414031984
 10
32.7475482939
 20
-42.4278185375
 10
32.8013304462
 20
-42.4129620292
 10
32.8542797344
 20
-42.3968556292
 10
32.9063798208
 20
-42.3795206678
 10
32.9576195794
 20
-42.360976516
 10
33.007979879
 20
-42.3412451057
 10
33.0574375582
 20
-42.3203504462
 10
33.1059733136
 20
-42.2983156752
 10
33.1535608716
 20
-42.2751692806
 10
33.2001869925
 20
-42.250936014
 10
33.2458501195
 20
-42.2256340194
 10
33.2905218197
 20
-42.1992961169
 10
33.334192524
 20
-42.1719452287
 10
33.3768853027
 20
-42.143581571
 10
33.4185791907
 20
-42.1142320719
 10
33.4592567609
 20
-42.0839242651
 10
33.4989412743
 20
-42.0526542793
 10
33.5376117989
 20
-42.0204497846
 10
33.5752506719
 20
-41.9873369954
 10
33.6118806063
 20
-41.953304642
 10
33.6474940056
 20
-41.9183646339
 10
33.6820571868
 20
-41.8825560193
 10
35.8563870924
 20
-39.5272513338
  0
LINE
  5
27C
100
AcDbEntity
  8
SUPERFICI
100
AcDbLine
 62
250
  6
CONTINUOUS
 10
30.5295094425
 20
-41.9380525645
 11
30.3788804243
 21
-41.8956541481
  0
LWPOLYLINE
  5
27D
100
AcDbEntity
  8
SUPERFICI
100
AcDbPolyline
 62
250
  6
CONTINUOUS
 90
3
 70
0
 10
27.6166182129
 20
-41.1075390837
 10
26.6241389971
 20
-40.825124326
 10
26.4449677706
 20
-40.7741295033
  0
LWPOLYLINE
  5
27E
100
AcDbEntity
  8
SUPERFICI
100
AcDbPolyline
 62
250
  6
CONTINUOUS
 90
3
 70
0
 10
27.9176904638
 20
-41.1932304718
 10
27.7689947104
 20
-41.1509058181
 10
27.6166182129
 20
-41.1075390837
  0
LINE
  5
27F
100
AcDbEntity
  8
SUPERFICI
100
AcDbLine
 62
250
  6
CONTINUOUS
 10
26.4449677706
 20
-40.7741295033
 11
26.0735735938
 21
-40.668392518
  0
LWPOLYLINE
  5
280
100
AcDbEntity
  8
SUPERFICI
100
AcDbPolyline
 62
250
  6
CONTINUOUS
 90
3
 70
0
 10
28.3423026191
 20
-41.3141353857
 10
28.2043445639
 20
-41.2748446999
 10
27.9176904638
 20
-41.1932304718
  0
LINE
  5
281
100
AcDbEntity
  8
SUPERFICI
100
AcDbLine
 62
250
  6
CONTINUOUS
 10
26.0735735938
 20
-40.668392518
 11
25.6834702052
 21
-40.5572624426
  0
LWPOLYLINE
  5
282
100
AcDbEntity
  8
SUPERFICI
100
AcDbPolyline
 62
250
  6
CONTINUOUS
 90
3
 70
0
 10
28.73609562
 20
-41.4263394095
 10
28.6081775634
 20
-41.3898822782
 10
28.3423026191
 20
-41.3141353857
  0
LINE
  5
283
100
AcDbEntity
  8
SUPERFICI
100
AcDbLine
 62
250
  6
CONTINUOUS
 10
28.9824912379
 20
-41.4965897161
 11
28.73609562
 21
-41.4263394095
  0
LWPOLYLINE
  5
284
100
AcDbEntity
  8
SUPERFICI
100
AcDbPolyline
 62
250
  6
CONTINUOUS
 90
3
 70
0
 10
29.3290525508
 20
-41.5954658218
 10
29.2164850833
 20
-41.5633408367
 10
28.9824912379
 20
-41.4965897161
  0
LINE
  5
285
100
AcDbEntity
  8
SUPERFICI
100
AcDbLine
 62
250
  6
CONTINUOUS
 10
25.6834702052
 20
-40.5572624426
 11
24.8362425358
 21
-40.3155738196
  0
LINE
  5
286
100
AcDbEntity
  8
SUPERFICI
100
AcDbLine
 62
250
  6
CONTINUOUS
 10
29.5455225513
 20
-41.657269249
 11
29.3290525508
 21
-41.5954658218
  0
LWPOLYLINE
  5
287
100
AcDbEntity
  8
SUPERFICI
100
AcDbPolyline
 62
250
  6
CONTINUOUS
 90
3
 70
0
 10
29.8495454338
 20
-41.7441376923
 10
29.75100123
 20
-41.7159722007
 10
29.5455225513
 20
-41.657269249
  0
LINE
  5
288
100
AcDbEntity
  8
SUPERFICI
100
AcDbLine
 62
250
  6
CONTINUOUS
 10
24.8362425358
 20
-40.3155738196
 11
24.1327027785
 21
-40.1142719404
  0
LINE
  5
289
100
AcDbEntity
  8
SUPERFICI
100
AcDbLine
 62
250
  6
CONTINUOUS
 10
30.3788804243
 20
-41.8956541481
 11
29.8495454338
 21
-41.7441376923
  0
LINE
  5
28A
100
AcDbEntity
  8
SUPERFICI
100
AcDbLine
 62
250
  6
CONTINUOUS
 10
24.1327027785
 20
-40.1142719404
 11
23.6398924055
 21
-39.972629937
  0
LINE
  5
28B
100
AcDbEntity
  8
SUPERFICI
100
AcDbLine
 62
250
  6
CONTINUOUS
 10
23.6398924055
 20
-39.972629937
 11
23.1526328885
 21
-39.8318560305
  0
LINE
  5
28C
100
AcDbEntity
  8
SUPERFICI
100
AcDbLine
 62
250
  6
CONTINUOUS
 10
23.1526328885
 20
-39.8318560305
 11
22.6822799706
 21
-39.6951285303
  0
LINE
  5
28D
100
AcDbEntity
  8
SUPERFICI
100
AcDbLine
 62
250
  6
CONTINUOUS
 10
22.6822799706
 20
-39.6951285303
 11
22.2445427997
 21
-39.5669864926
  0
LWPOLYLINE
  5
28E
100
AcDbEntity
  8
SUPERFICI
100
AcDbPolyline
 62
250
  6
CONTINUOUS
 90
3
 70
0
 10
22.2445427997
 20
-39.5669864926
 10
21.840235673
 20
-39.4477807552
 10
21.6509940852
 20
-39.3916730438
  0
LWPOLYLINE
  5
28F
100
AcDbEntity
  8
SUPERFICI
100
AcDbPolyline
 62
7
  6
CONTINUOUS
 90
3
 70
0
 10
25.7641506673
 20
-40.742876759
 10
27.2000868182
 20
-41.1677529919
 10
27.6617134135
 20
-41.3043760318
  0
LINE
  5
290
100
AcDbEntity
  8
SUPERFICI
100
AcDbLine
 62
7
  6
CONTINUOUS
 10
27.6617134135
 20
-41.3043760318
 11
28.9916186222
 21
-41.6982845218
  0
LWPOLYLINE
  5
291
100
AcDbEntity
  8
SUPERFICI
100
AcDbPolyline
 62
7
  6
CONTINUOUS
 90
5
 70
0
 10
28.9916186222
 20
-41.6982845218
 10
30.2298858341
 20
-42.0656736628
 10
30.6198568358
 20
-42.181557408
 10
31.0047931104
 20
-42.2939117121
 10
31.3690828059
 20
-42.3955240289
  0
LINE
  5
292
100
AcDbEntity
  8
SUPERFICI
100
AcDbLine
 62
250
  6
CONTINUOUS
 10
-27.5373512679
 20
-24.2511697531
 11
-28.0598160971
 21
-24.0799720504
  0
LINE
  5
293
100
AcDbEntity
  8
SUPERFICI
100
AcDbLine
 62
250
  6
CONTINUOUS
 10
-32.9678140582
 20
-22.463064002
 11
-33.754720893
 21
-22.2045571411
  0
LINE
  5
294
100
AcDbEntity
  8
SUPERFICI
100
AcDbLine
 62
250
  6
CONTINUOUS
 10
-28.0598160971
 20
-24.0799720504
 11
-28.8504653718
 21
-23.8200630039
  0
LINE
  5
295
100
AcDbEntity
  8
SUPERFICI
100
AcDbLine
 62
250
  6
CONTINUOUS
 10
-31.6617111143
 20
-22.8932288392
 11
-32.9678140582
 21
-22.463064002
  0
LINE
  5
296
100
AcDbEntity
  8
SUPERFICI
100
AcDbLine
 62
250
  6
CONTINUOUS
 10
-30.2373513041
 20
-23.3630289441
 11
-31.6617111143
 21
-22.8932288392
  0
LINE
  5
297
100
AcDbEntity
  8
SUPERFICI
100
AcDbLine
 62
250
  6
CONTINUOUS
 10
-28.8504653718
 20
-23.8200630039
 11
-30.2373513041
 21
-23.3630289441
  0
LWPOLYLINE
  5
298
100
AcDbEntity
  8
SUPERFICI
100
AcDbPolyline
 62
250
  6
CONTINUOUS
 90
5
 70
0
 10
-33.8389228619
 20
-22.1770061479
 10
-33.9970694618
 20
-22.1248570562
 10
-34.071834023
 20
-22.0999648735
 10
-34.1447174155
 20
-22.0750594671
 10
-34.2147582555
 20
-22.0499758961
  0
LWPOLYLINE
  5
299
100
AcDbEntity
  8
SUPERFICI
100
AcDbPolyline
 62
7
  6
CONTINUOUS
 90
3
 70
0
 10
-34.5998191105
 20
-22.1370856622
 10
-34.1669754715
 20
-22.2820697525
 10
-33.7154252828
 20
-22.4263763481
  0
LINE
  5
29A
100
AcDbEntity
  8
SUPERFICI
100
AcDbLine
 62
250
  6
CONTINUOUS
 10
-34.3488009229
 20
-22.0002137975
 11
-34.6176987193
 21
-21.9015402085
  0
LINE
  5
29B
100
AcDbEntity
  8
SUPERFICI
100
AcDbLine
 62
250
  6
CONTINUOUS
 10
-34.6176987193
 20
-21.9015402085
 11
-34.7628397575
 21
-21.8479363371
  0
LINE
  5
29C
100
AcDbEntity
  8
SUPERFICI
100
AcDbLine
 62
250
  6
CONTINUOUS
 10
-34.2147582555
 20
-22.0499758961
 11
-34.3488009229
 21
-22.0002137975
  0
LWPOLYLINE
  5
29D
100
AcDbEntity
  8
SUPERFICI
100
AcDbPolyline
 62
250
  6
CONTINUOUS
 90
46
 70
0
 10
-34.7628389184
 20
-21.847935204
 10
-34.7960920566
 20
-21.8353541617
 10
-34.8320202633
 20
-21.8211425756
 10
-34.8706083966
 20
-21.8051625694
 10
-34.9119571233
 20
-21.7872135352
 10
-34.9559074031
 20
-21.7671937106
 10
-35.0020402777
 20
-21.7451271891
 10
-35.0502981103
 20
-21.7208777624
 10
-35.100612268
 20
-21.694307733
 10
-35.1525342218
 20
-21.6654858474
 10
-35.2059722297
 20
-21.6343021717
 10
-35.2608198937
 20
-21.6006526173
 10
-35.3166001672
 20
-21.5646712007
 10
-35.373192393
 20
-21.5262868714
 10
-35.4304652274
 20
-21.4854348261
 10
-35.4879315106
 20
-21.4423189609
 10
-35.5454552717
 20
-21.3969118174
 10
-35.6028901891
 20
-21.3491987698
 10
-35.6597542255
 20
-21.2994639997
 10
-35.715907111
 20
-21.2477318518
 10
-35.7712061653
 20
-21.1940378079
 10
-35.8252029086
 20
-21.138738669
 10
-35.8777858987
 20
-21.0818899511
 10
-35.9288271977
 20
-21.0235753929
 10
-35.9779108498
 20
-20.9642414264
 10
-36.0249708707
 20
-20.9039666719
 10
-36.0699137786
 20
-20.8428776745
 10
-36.1123640126
 20
-20.7815296888
 10
-36.1522992703
 20
-20.7200412368
 10
-36.1897085649
 20
-20.6585300154
 10
-36.2243335028
 20
-20.5975694773
 10
-36.2562242176
 20
-20.5372725624
 10
-36.2854417048
 20
-20.4777435216
 10
-36.3118487865
 20
-20.41954208
 10
-36.3355626366
 20
-20.3627577859
 10
-36.3567072456
 20
-20.3074681802
 10
-36.3752565559
 20
-20.2541965753
 10
-36.391383356
 20
-20.2029938423
 10
-36.4052636779
 20
-20.1538954374
 10
-36.4169656082
 20
-20.1073713597
 10
-36.4267004009
 20
-20.0634243844
 10
-36.4346723915
 20
-20.0220491252
 10
-36.4410110571
 20
-19.9836690865
 10
-36.445919892
 20
-19.9483947755
 10
-36.4496328508
 20
-19.9160371064
 10
-36.4523428017
 20
-19.8865500263
  0
LWPOLYLINE
  5
29E
100
AcDbEntity
  8
SUPERFICI
100
AcDbPolyline
 62
250
  6
CONTINUOUS
 90
7
 70
0
 10
-34.5998187358
 20
-22.1370845666
 10
-34.6361883623
 20
-22.1191674004
 10
-34.672768747
 20
-22.0873526319
 10
-34.7041008378
 20
-22.0436699906
 10
-34.729769858
 20
-21.988697751
 10
-34.7494359989
 20
-21.9231636401
 10
-34.7628389184
 20
-21.847935204
  0
LWPOLYLINE
  5
29F
100
AcDbEntity
  8
0
100
AcDbPolyline
 62
7
  6
CONTINUOUS
 90
20
 70
0
 10
8.5575847351
 20
-28.2569121251
 10
8.5796330384
 20
-28.2554687486
 10
8.601321572
 20
-28.2533872722
 10
8.6226281597
 20
-28.2506678159
 10
8.6435406664
 20
-28.2473097426
 10
8.6640271248
 20
-28.2433153167
 10
8.6840377485
 20
-28.2386930966
 10
8.7035489149
 20
-28.2334506093
 10
8.7225463822
 20
-28.2275930708
 10
8.7409981157
 20
-28.2211313142
 10
8.7588729937
 20
-28.2140810286
 10
8.7761705707
 20
-28.2064471858
 10
8.7929044073
 20
-28.198223966
 10
8.8090644412
 20
-28.1894152872
 10
8.8246261281
 20
-28.1800334957
 10
8.8395790662
 20
-28.170082695
 10
8.8539110487
 20
-28.1595693133
 10
8.8676018521
 20
-28.1485061783
 10
8.8806305396
 20
-28.1369085675
 10
8.8929780506
 20
-28.1247947062
  0
LWPOLYLINE
  5
2A0
100
AcDbEntity
  8
SUPERFICI
100
AcDbPolyline
 62
250
  6
CONTINUOUS
 90
4
 70
0
 10
21.6509940852
 20
-39.3916730438
 10
21.284253211
 20
-39.2823380037
 10
21.1069001345
 20
-39.2291600453
 10
20.9315686374
 20
-39.1763045078
  0
LINE
  5
2A1
100
AcDbEntity
  8
SUPERFICI
100
AcDbLine
 62
250
  6
CONTINUOUS
 10
20.2463829717
 20
-38.9688764243
 11
19.7424820713
 21
-38.8178435717
  0
LINE
  5
2A2
100
AcDbEntity
  8
SUPERFICI
100
AcDbLine
 62
250
  6
CONTINUOUS
 10
19.7424820713
 20
-38.8178435717
 11
19.4075275302
 21
-38.7174555714
  0
LINE
  5
2A3
100
AcDbEntity
  8
SUPERFICI
100
AcDbLine
 62
250
  6
CONTINUOUS
 10
-21.1093636254
 20
-26.2729328701
 11
-21.2951505185
 21
-26.2168331695
  0
LWPOLYLINE
  5
2A4
100
AcDbEntity
  8
SUPERFICI
100
AcDbPolyline
 62
7
  6
CONTINUOUS
 90
7
 70
0
 10
21.5912639915
 20
-39.4981840305
 10
22.1392312237
 20
-39.6638789889
 10
22.6798850214
 20
-39.8264144675
 10
23.2131227799
 20
-39.9859298935
 10
23.7387669019
 20
-40.1425513219
 10
24.2567430255
 20
-40.296426723
 10
25.7641506673
 20
-40.742876759
  0
LINE
  5
2A5
100
AcDbEntity
  8
SUPERFICI
100
AcDbLine
 62
250
  6
CONTINUOUS
 10
-17.0671104611
 20
-27.4927786061
 11
-21.1093636254
 21
-26.2729328701
  0
LINE
  5
2A6
100
AcDbEntity
  8
SUPERFICI
100
AcDbLine
 62
250
  6
CONTINUOUS
 10
-21.2951505185
 20
-26.2168331695
 11
-21.8363118151
 21
-26.0532914193
  0
LINE
  5
2A7
100
AcDbEntity
  8
SUPERFICI
100
AcDbLine
 62
250
  6
CONTINUOUS
 10
19.4075275302
 20
-38.7174555714
 11
19.0727058842
 21
-38.6161303111
  0
LINE
  5
2A8
100
AcDbEntity
  8
SUPERFICI
100
AcDbLine
 62
250
  6
CONTINUOUS
 10
-16.1028923483
 20
-27.7849523695
 11
-17.0671104611
 21
-27.4927786061
  0
LINE
  5
2A9
100
AcDbEntity
  8
SUPERFICI
100
AcDbLine
 62
7
  6
CONTINUOUS
 10
-21.602291207
 20
-26.2388149773
 11
-19.0325395436
 21
-27.0191185598
  0
LWPOLYLINE
  5
2AA
100
AcDbEntity
  8
SUPERFICI
100
AcDbPolyline
 62
250
  6
CONTINUOUS
 90
3
 70
0
 10
20.9315686374
 20
-39.1763045078
 10
20.5857907656
 20
-39.0713295663
 10
20.2463829717
 20
-38.9688764243
  0
LINE
  5
2AB
100
AcDbEntity
  8
SUPERFICI
100
AcDbLine
 62
7
  6
CONTINUOUS
 10
-19.0325395436
 20
-27.0191185598
 11
-17.6915296237
 21
-27.4267056421
  0
LINE
  5
2AC
100
AcDbEntity
  8
SUPERFICI
100
AcDbLine
 62
250
  6
CONTINUOUS
 10
-15.4120474708
 20
-27.994905846
 11
-16.1028923483
 21
-27.7849523695
  0
LWPOLYLINE
  5
2AD
100
AcDbEntity
  8
SUPERFICI
100
AcDbPolyline
 62
7
  6
CONTINUOUS
 90
5
 70
0
 10
-17.6915296237
 20
-27.4267056421
 10
-16.3129911244
 20
-27.8464947303
 10
-15.6097227855
 20
-28.0610832882
 10
-14.8970922035
 20
-28.278861
 10
-14.1747910019
 20
-28.4999184939
  0
LINE
  5
2AE
100
AcDbEntity
  8
SUPERFICI
100
AcDbLine
 62
250
  6
CONTINUOUS
 10
4.1827733233
 20
-34.0150693402
 11
3.07197344
 21
-33.6763883399
  0
LINE
  5
2AF
100
AcDbEntity
  8
SUPERFICI
100
AcDbLine
 62
250
  6
CONTINUOUS
 10
-14.6816390029
 20
-28.2174862505
 11
-15.4120474708
 21
-27.994905846
  0
LINE
  5
2B0
100
AcDbEntity
  8
SUPERFICI
100
AcDbLine
 62
250
  6
CONTINUOUS
 10
5.238208516
 20
-34.3369970569
 11
4.1827733233
 21
-34.0150693402
  0
LWPOLYLINE
  5
2B1
100
AcDbEntity
  8
SUPERFICI
100
AcDbPolyline
 62
250
  6
CONTINUOUS
 90
6
 70
0
 10
3.07197344
 20
-33.6763883399
 10
1.2844836373
 20
-33.1310145462
 10
0.6524164167
 20
-32.9378289566
 10
-0.0001221334
 20
-32.73806692
 10
-0.6721502149
 20
-32.5320122976
 10
-3.0043575089
 20
-31.8157800232
  0
LINE
  5
2B2
100
AcDbEntity
  8
SUPERFICI
100
AcDbLine
 62
250
  6
CONTINUOUS
 10
6.7259021085
 20
-34.7913156852
 11
5.238208516
 21
-34.3369970569
  0
LINE
  5
2B3
100
AcDbEntity
  8
SUPERFICI
100
AcDbLine
 62
250
  6
CONTINUOUS
 10
19.0727058842
 20
-38.6161303111
 11
18.7355080135
 21
-38.5132445915
  0
LINE
  5
2B4
100
AcDbEntity
  8
SUPERFICI
100
AcDbLine
 62
250
  6
CONTINUOUS
 10
-21.8363118151
 20
-26.0532914193
 11
-22.1880285664
 21
-25.9460050858
  0
LINE
  5
2B5
100
AcDbEntity
  8
SUPERFICI
100
AcDbLine
 62
250
  6
CONTINUOUS
 10
-13.9100682314
 20
-28.4532391687
 11
-14.6816390029
 21
-28.2174862505
  0
LINE
  5
2B6
100
AcDbEntity
  8
SUPERFICI
100
AcDbLine
 62
7
  6
CONTINUOUS
 10
1.2532761773
 20
-33.243531821
 11
5.9904655533
 21
-34.6934025656
  0
LINE
  5
2B7
100
AcDbEntity
  8
SUPERFICI
100
AcDbLine
 62
250
  6
CONTINUOUS
 10
8.1059520965
 20
-35.2136921761
 11
6.7259021085
 21
-34.7913156852
  0
LINE
  5
2B8
100
AcDbEntity
  8
SUPERFICI
100
AcDbLine
 62
7
  6
CONTINUOUS
 10
5.9904655533
 20
-34.6934025656
 11
7.4921484224
 21
-35.1534197144
  0
LINE
  5
2B9
100
AcDbEntity
  8
SUPERFICI
100
AcDbLine
 62
250
  6
CONTINUOUS
 10
-13.0936634234
 20
-28.703320092
 11
-13.9100682314
 21
-28.4532391687
  0
LINE
  5
2BA
100
AcDbEntity
  8
SUPERFICI
100
AcDbLine
 62
7
  6
CONTINUOUS
 10
7.4921484224
 20
-35.1534197144
 11
8.9555068004
 21
-35.6023296693
  0
LINE
  5
2BB
100
AcDbEntity
  8
SUPERFICI
100
AcDbLine
 62
7
  6
CONTINUOUS
 10
-14.1747910019
 20
-28.4999184939
 11
-12.701107352
 21
-28.9518027471
  0
LWPOLYLINE
  5
2BC
100
AcDbEntity
  8
SUPERFICI
100
AcDbPolyline
 62
7
  6
CONTINUOUS
 90
3
 70
0
 10
-2.9945493724
 20
-31.9398643541
 10
-0.4035117245
 20
-32.7355517589
 10
1.2532761773
 20
-33.243531821
  0
LINE
  5
2BD
100
AcDbEntity
  8
SUPERFICI
100
AcDbLine
 62
250
  6
CONTINUOUS
 10
-12.2278987373
 20
-28.9691358991
 11
-13.0936634234
 21
-28.703320092
  0
LINE
  5
2BE
100
AcDbEntity
  8
SUPERFICI
100
AcDbLine
 62
250
  6
CONTINUOUS
 10
9.3846904116
 20
-35.606169931
 11
8.1059520965
 21
-35.2136921761
  0
LINE
  5
2BF
100
AcDbEntity
  8
SUPERFICI
100
AcDbLine
 62
7
  6
CONTINUOUS
 10
-3.863046312
 20
-31.6728543844
 11
-2.9945493724
 21
-31.9398643541
  0
LINE
  5
2C0
100
AcDbEntity
  8
SUPERFICI
100
AcDbLine
 62
7
  6
CONTINUOUS
 10
-12.701107352
 20
-28.9518027471
 11
-11.1877455254
 21
-29.416829522
  0
LINE
  5
2C1
100
AcDbEntity
  8
SUPERFICI
100
AcDbLine
 62
7
  6
CONTINUOUS
 10
8.9555068004
 20
-35.6023296693
 11
10.3806664895
 21
-36.0403466443
  0
LWPOLYLINE
  5
2C2
100
AcDbEntity
  8
SUPERFICI
100
AcDbPolyline
 62
250
  6
CONTINUOUS
 90
3
 70
0
 10
-3.0043575089
 20
-31.8157800232
 10
-3.7311716939
 20
-31.5921837362
 10
-4.4348060878
 20
-31.3753681368
  0
LINE
  5
2C3
100
AcDbEntity
  8
SUPERFICI
100
AcDbLine
 62
7
  6
CONTINUOUS
 10
-11.1877455254
 20
-29.416829522
 11
-9.6340164063
 21
-29.8950167173
  0
LINE
  5
2C4
100
AcDbEntity
  8
SUPERFICI
100
AcDbLine
 62
250
  6
CONTINUOUS
 10
-11.3097972763
 20
-29.2516101691
 11
-12.2278987373
 21
-28.9691358991
  0
LINE
  5
2C5
100
AcDbEntity
  8
SUPERFICI
100
AcDbLine
 62
7
  6
CONTINUOUS
 10
-5.5663515178
 20
-31.1484400885
 11
-3.863046312
 21
-31.6728543844
  0
LINE
  5
2C6
100
AcDbEntity
  8
SUPERFICI
100
AcDbLine
 62
250
  6
CONTINUOUS
 10
10.1842112405
 20
-35.8522357713
 11
9.3846904116
 21
-35.606169931
  0
LINE
  5
2C7
100
AcDbEntity
  8
SUPERFICI
100
AcDbLine
 62
7
  6
CONTINUOUS
 10
-9.6340164063
 20
-29.8950167173
 11
-5.5663515178
 21
-31.1484400885
  0
LWPOLYLINE
  5
2C8
100
AcDbEntity
  8
SUPERFICI
100
AcDbPolyline
 62
7
  6
CONTINUOUS
 90
3
 70
0
 10
10.3806664895
 20
-36.0403466443
 10
11.7678402411
 20
-36.4677027314
 10
12.4472782399
 20
-36.6774624792
  0
LINE
  5
2C9
100
AcDbEntity
  8
SUPERFICI
100
AcDbLine
 62
250
  6
CONTINUOUS
 10
-22.1880285664
 20
-25.9460050858
 11
-22.534821146
 21
-25.8393173308
  0
LINE
  5
2CA
100
AcDbEntity
  8
SUPERFICI
100
AcDbLine
 62
250
  6
CONTINUOUS
 10
-9.8244006888
 20
-29.7096597629
 11
-11.3097972763
 21
-29.2516101691
  0
LINE
  5
2CB
100
AcDbEntity
  8
SUPERFICI
100
AcDbLine
 62
250
  6
CONTINUOUS
 10
18.7355080135
 20
-38.5132445915
 11
18.3947382168
 21
-38.4083631992
  0
LINE
  5
2CC
100
AcDbEntity
  8
SUPERFICI
100
AcDbLine
 62
250
  6
CONTINUOUS
 10
10.9431636182
 20
-36.0863785958
 11
10.1842112405
 21
-35.8522357713
  0
LINE
  5
2CD
100
AcDbEntity
  8
SUPERFICI
100
AcDbLine
 62
250
  6
CONTINUOUS
 10
-4.4348060878
 20
-31.3753681368
 11
-5.7709795844
 21
-30.9627203998
  0
LINE
  5
2CE
100
AcDbEntity
  8
SUPERFICI
100
AcDbLine
 62
250
  6
CONTINUOUS
 10
-5.7709795844
 20
-30.9627203998
 11
-9.8244006888
 21
-29.7096597629
  0
LINE
  5
2CF
100
AcDbEntity
  8
SUPERFICI
100
AcDbLine
 62
7
  6
CONTINUOUS
 10
12.4472782399
 20
-36.6774624792
 11
13.7781106725
 21
-37.0891861131
  0
LWPOLYLINE
  5
2D0
100
AcDbEntity
  8
SUPERFICI
100
AcDbPolyline
 62
7
  6
CONTINUOUS
 90
6
 70
0
 10
18.1498579465
 20
-38.4460428708
 10
18.741552047
 20
-38.6293565282
 10
19.3265559737
 20
-38.8092025144
 10
19.9049858573
 20
-38.9854974777
 10
20.4750614712
 20
-39.1583129832
 10
21.5912639915
 20
-39.4981840305
  0
LINE
  5
2D1
100
AcDbEntity
  8
SUPERFICI
100
AcDbLine
 62
250
  6
CONTINUOUS
 10
12.0100712303
 20
-36.416586059
 11
10.9431636182
 21
-36.0863785958
  0
LWPOLYLINE
  5
2D2
100
AcDbEntity
  8
SUPERFICI
100
AcDbPolyline
 62
7
  6
CONTINUOUS
 90
3
 70
0
 10
13.7781106725
 20
-37.0891861131
 10
15.0719230678
 20
-37.4903203619
 10
15.7050448828
 20
-37.6868293387
  0
LINE
  5
2D3
100
AcDbEntity
  8
SUPERFICI
100
AcDbLine
 62
250
  6
CONTINUOUS
 10
-24.0742493346
 20
-25.3571623758
 11
-24.4230527261
 21
-25.2489492177
  0
LINE
  5
2D4
100
AcDbEntity
  8
SUPERFICI
100
AcDbLine
 62
7
  6
CONTINUOUS
 10
15.7050448828
 20
-37.6868293387
 11
18.1498579465
 21
-38.4460428708
  0
LINE
  5
2D5
100
AcDbEntity
  8
SUPERFICI
100
AcDbLine
 62
250
  6
CONTINUOUS
 10
-22.534821146
 20
-25.8393173308
 11
-22.8776850115
 21
-25.7329054595
  0
LINE
  5
2D6
100
AcDbEntity
  8
SUPERFICI
100
AcDbLine
 62
250
  6
CONTINUOUS
 10
12.9936266403
 20
-36.7221676286
 11
12.0100712303
 21
-36.416586059
  0
LINE
  5
2D7
100
AcDbEntity
  8
SUPERFICI
100
AcDbLine
 62
250
  6
CONTINUOUS
 10
18.3947382168
 20
-38.4083631992
 11
18.0486329508
 21
-38.3007888305
  0
LINE
  5
2D8
100
AcDbEntity
  8
SUPERFICI
100
AcDbLine
 62
250
  6
CONTINUOUS
 10
-23.9020333424
 20
-25.410909516
 11
-24.0742493346
 21
-25.3571623758
  0
LINE
  5
2D9
100
AcDbEntity
  8
SUPERFICI
100
AcDbLine
 62
250
  6
CONTINUOUS
 10
18.0486329508
 20
-38.3007888305
 11
17.3298949408
 21
-38.0764823476
  0
LINE
  5
2DA
100
AcDbEntity
  8
SUPERFICI
100
AcDbLine
 62
250
  6
CONTINUOUS
 10
14.7160819297
 20
-37.2593669675
 11
12.9936266403
 21
-36.7221676286
  0
LWPOLYLINE
  5
2DB
100
AcDbEntity
  8
SUPERFICI
100
AcDbPolyline
 62
250
  6
CONTINUOUS
 90
3
 70
0
 10
17.3298949408
 20
-38.0764823476
 10
16.9508160467
 20
-37.9580208579
 10
16.7545416365
 20
-37.896663859
  0
LINE
  5
2DC
100
AcDbEntity
  8
SUPERFICI
100
AcDbLine
 62
250
  6
CONTINUOUS
 10
15.2194431911
 20
-37.4166728703
 11
14.7160819297
 21
-37.2593669675
  0
LINE
  5
2DD
100
AcDbEntity
  8
SUPERFICI
100
AcDbLine
 62
250
  6
CONTINUOUS
 10
15.6915849722
 20
-37.5642875169
 11
15.2194431911
 21
-37.4166728703
  0
LINE
  5
2DE
100
AcDbEntity
  8
SUPERFICI
100
AcDbLine
 62
250
  6
CONTINUOUS
 10
16.7545416365
 20
-37.896663859
 11
15.6915849722
 21
-37.5642875169
  0
LINE
  5
2DF
100
AcDbEntity
  8
SUPERFICI
100
AcDbLine
 62
250
  6
CONTINUOUS
 10
-24.4230527261
 20
-25.2489492177
 11
-24.7803592728
 21
-25.1372664908
  0
LINE
  5
2E0
100
AcDbEntity
  8
SUPERFICI
100
AcDbLine
 62
250
  6
CONTINUOUS
 10
-22.8776850115
 20
-25.7329054595
 11
-23.2190820986
 21
-25.626041563
  0
LINE
  5
2E1
100
AcDbEntity
  8
SUPERFICI
100
AcDbLine
 62
250
  6
CONTINUOUS
 10
-24.7803592728
 20
-25.1372664908
 11
-25.1483831363
 21
-25.0213389152
  0
LINE
  5
2E2
100
AcDbEntity
  8
SUPERFICI
100
AcDbLine
 62
250
  6
CONTINUOUS
 10
-23.2190820986
 20
-25.626041563
 11
-23.9020333424
 21
-25.410909516
  0
LWPOLYLINE
  5
2E3
100
AcDbEntity
  8
SUPERFICI
100
AcDbPolyline
 62
7
  6
CONTINUOUS
 90
11
 70
0
 10
-27.3682549198
 20
-24.4453146256
 10
-26.8327666941
 20
-24.6149816348
 10
-26.2891024317
 20
-24.7866392565
 10
-25.7361757458
 20
-24.9604298624
 10
-25.1737721866
 20
-25.1362303865
 10
-24.6017525785
 20
-25.3138529811
 10
-24.0211526139
 20
-25.493366982
 10
-23.4322023046
 20
-25.6765408224
 10
-22.8322121743
 20
-25.8624908904
 10
-22.2220512134
 20
-26.0499641251
 10
-21.602291207
 20
-26.2388149773
  0
LINE
  5
2E4
100
AcDbEntity
  8
SUPERFICI
100
AcDbLine
 62
7
  6
CONTINUOUS
 10
-33.7154252828
 20
-22.4263763481
 11
-32.8032980323
 21
-22.7159124896
  0
LINE
  5
2E5
100
AcDbEntity
  8
SUPERFICI
100
AcDbLine
 62
7
  6
CONTINUOUS
 10
-28.4152203659
 20
-24.1125014307
 11
-27.3682549198
 21
-24.4453146256
  0
LINE
  5
2E6
100
AcDbEntity
  8
SUPERFICI
100
AcDbLine
 62
7
  6
CONTINUOUS
 10
-32.8032980323
 20
-22.7159124896
 11
-31.394963736
 21
-23.1637228771
  0
LINE
  5
2E7
100
AcDbEntity
  8
SUPERFICI
100
AcDbLine
 62
250
  6
CONTINUOUS
 10
-25.1483831363
 20
-25.0213389152
 11
-25.5292694793
 21
-24.9003915259
  0
LINE
  5
2E8
100
AcDbEntity
  8
SUPERFICI
100
AcDbLine
 62
7
  6
CONTINUOUS
 10
-31.394963736
 20
-23.1637228771
 11
-28.4152203659
 21
-24.1125014307
  0
LINE
  5
2E9
100
AcDbEntity
  8
SUPERFICI
100
AcDbLine
 62
250
  6
CONTINUOUS
 10
-25.5292694793
 20
-24.9003915259
 11
-25.9306784257
 21
-24.7720661175
  0
LINE
  5
2EA
100
AcDbEntity
  8
SUPERFICI
100
AcDbLine
 62
250
  6
CONTINUOUS
 10
-25.9306784257
 20
-24.7720661175
 11
-26.3569152928
 21
-24.6349128381
  0
LINE
  5
2EB
100
AcDbEntity
  8
SUPERFICI
100
AcDbLine
 62
250
  6
CONTINUOUS
 10
-26.3569152928
 20
-24.6349128381
 11
-26.809416414
 21
-24.4884175138
  0
LWPOLYLINE
  5
2EC
100
AcDbEntity
  8
SUPERFICI
100
AcDbPolyline
 62
250
  6
CONTINUOUS
 90
3
 70
0
 10
-26.809416414
 20
-24.4884175138
 10
-27.2881966208
 20
-24.3325603619
 10
-27.5373512679
 20
-24.2511697531
  0
LINE
  5
2ED
100
AcDbEntity
  8
SUPERFICI
100
AcDbLine
 62
250
  6
CONTINUOUS
 10
-33.754720893
 20
-22.2045571411
 11
-33.8389228619
 21
-22.1770061479
  0
LWPOLYLINE
  5
2EE
100
AcDbEntity
  8
SUPERFICI
100
AcDbPolyline
 62
250
  6
CONTINUOUS
 90
6
 70
0
 10
-2.1262870376
 20
-32.2064221044
 10
-2.1572876745
 20
-32.192364187
 10
-2.1868939428
 20
-32.1687225034
 10
-2.2130941337
 20
-32.1362419167
 10
-2.2356355606
 20
-32.0952352082
 10
-2.2543010649
 20
-32.0460971271
  0
LWPOLYLINE
  5
2EF
100
AcDbEntity
  8
SUPERFICI
100
AcDbPolyline
 62
250
  6
CONTINUOUS
 90
6
 70
0
 10
-1.2355404642
 20
-32.479961696
 10
-1.2665295653
 20
-32.4659073771
 10
-1.2961627056
 20
-32.4422574453
 10
-1.3223864655
 20
-32.4097696243
 10
-1.344948442
 20
-32.3687566085
 10
-1.3636314764
 20
-32.3196131475
  0
LWPOLYLINE
  5
2F0
100
AcDbEntity
  8
SUPERFICI
100
AcDbPolyline
 62
250
  6
CONTINUOUS
 90
6
 70
0
 10
6.6108804493
 20
-23.7706169812
 10
6.5948554087
 20
-23.7750816756
 10
6.5638430876
 20
-23.7789124515
 10
6.5309897126
 20
-23.7785289648
 10
6.496857414
 20
-23.7739377773
 10
6.4620302049
 20
-23.7652174453
  0
LWPOLYLINE
  5
2F1
100
AcDbEntity
  8
SUPERFICI
100
AcDbPolyline
 62
250
  6
CONTINUOUS
 90
27
 70
0
 10
8.053106546
 20
-26.4367991283
 10
8.0007231775
 20
-26.448499571
 10
7.9739820793
 20
-26.4542704793
 10
7.9467152153
 20
-26.4598731844
 10
7.9190477146
 20
-26.4653080359
 10
7.8911755233
 20
-26.4704929602
 10
7.8630522036
 20
-26.4752003943
 10
7.8348471438
 20
-26.4792652201
 10
7.8063245933
 20
-26.4828546407
 10
7.7768314409
 20
-26.4862155342
 10
7.7459756734
 20
-26.4894292226
 10
7.7137592422
 20
-26.4923847546
 10
7.6800787724
 20
-26.4950159272
 10
7.6450612008
 20
-26.4972564549
 10
7.6087094021
 20
-26.4990679518
 10
7.5707385815
 20
-26.5004090745
 10
7.5310383235
 20
-26.5012313135
 10
7.489635416
 20
-26.501463314
 10
7.4464512903
 20
-26.5010130517
 10
7.4011316897
 20
-26.4997949339
 10
7.3540458475
 20
-26.4977425265
 10
7.3062086494
 20
-26.4948355169
 10
7.2575264489
 20
-26.491016564
 10
7.2081086751
 20
-26.4862914049
 10
7.1593176525
 20
-26.4808480883
 10
7.1116117885
 20
-26.4746818106
 10
7.0643927546
 20
-26.4678729722
  0
LWPOLYLINE
  5
2F2
100
AcDbEntity
  8
SUPERFICI
100
AcDbPolyline
 62
250
  6
CONTINUOUS
 90
18
 70
0
 10
7.7705601755
 20
-24.5086467082
 10
7.6665650333
 20
-24.5259930016
 10
7.5618668179
 20
-24.5268568097
 10
7.4576381255
 20
-24.5126556497
 10
7.354590632
 20
-24.4770998585
 10
7.2535192753
 20
-24.4306893461
 10
7.1570711117
 20
-24.39581496
 10
7.0676852973
 20
-24.3822667223
 10
6.9844047049
 20
-24.371903931
 10
6.9070656126
 20
-24.3460785846
 10
6.8370695482
 20
-24.300924327
 10
6.7755371175
 20
-24.2463817619
 10
6.7231949493
 20
-24.1883329352
 10
6.6806375428
 20
-24.128487569
 10
6.6483121362
 20
-24.0660475727
 10
6.6265729442
 20
-24.0016740386
 10
6.6156581021
 20
-23.9360663049
 10
6.6144229847
 20
-23.9130305477
  0
LWPOLYLINE
  5
2F3
100
AcDbEntity
  8
SUPERFICI
100
AcDbPolyline
 62
250
  6
CONTINUOUS
 90
10
 70
0
 10
7.7705608502
 20
-24.5086493833
 10
7.9663872767
 20
-24.4883364193
 10
8.163398673
 20
-24.4761808039
 10
8.360741608
 20
-24.4722351268
 10
8.5575612146
 20
-24.4765164166
 10
8.7530048929
 20
-24.4890060681
 10
8.9462260035
 20
-24.5096499219
 10
9.1363875351
 20
-24.5383584999
 10
9.3226657301
 20
-24.5750073926
 10
9.5042536532
 20
-24.6194377981
  0
LWPOLYLINE
  5
2F4
100
AcDbEntity
  8
SUPERFICI
100
AcDbPolyline
 62
250
  6
CONTINUOUS
 90
13
 70
0
 10
7.0643927546
 20
-26.4678729722
 10
6.9701787603
 20
-26.4535264242
 10
6.9227924458
 20
-26.4459540929
 10
6.8751053976
 20
-26.4378916545
 10
6.8278347599
 20
-26.429487231
 10
6.7809155253
 20
-26.4207486554
 10
6.7329475331
 20
-26.4112137851
 10
6.6836683779
 20
-26.4007019755
 10
6.6332397618
 20
-26.3892805385
 10
6.5809082868
 20
-26.3767784957
 10
6.5264248566
 20
-26.3630757007
 10
6.4700536198
 20
-26.3481388936
 10
6.4118145133
 20
-26.3318932467
  0
LWPOLYLINE
  5
2F5
100
AcDbEntity
  8
0
100
AcDbPolyline
 62
7
  6
CONTINUOUS
 90
29
 70
0
 10
8.1191942049
 20
-27.8414086912
 10
8.1301726259
 20
-27.8443057287
 10
8.1412940315
 20
-27.8469569495
 10
8.1525436074
 20
-27.8493411778
 10
8.1639304239
 20
-27.851439501
 10
8.175411227
 20
-27.8532262569
 10
8.1868920037
 20
-27.854677152
 10
8.1983489536
 20
-27.8557786323
 10
8.2097678374
 20
-27.856516516
 10
8.2210710767
 20
-27.8568794376
 10
8.2322330546
 20
-27.85686159
 10
8.2432419539
 20
-27.8564562922
 10
8.254044167
 20
-27.8556619508
 10
8.2646094866
 20
-27.8544797727
 10
8.2749342056
 20
-27.852908503
 10
8.2850061066
 20
-27.8509473194
 10
8.2948170293
 20
-27.8485946195
 10
8.3043405569
 20
-27.8458529543
 10
8.3135390829
 20
-27.8427312061
 10
8.3223967086
 20
-27.8392359937
 10
8.3309013861
 20
-27.8353725957
 10
8.3390259729
 20
-27.8311542388
 10
8.3467504197
 20
-27.8265966332
 10
8.3540749756
 20
-27.82170491
 10
8.3610040709
 20
-27.8164776444
 10
8.3675242292
 20
-27.8109267254
 10
8.3736288607
 20
-27.8050596366
 10
8.3793281056
 20
-27.7988639112
 10
8.3826518255
 20
-27.794861705
  0
LINE
  5
2F6
100
AcDbEntity
  8
0
100
AcDbLine
 62
7
  6
CONTINUOUS
 10
7.8890962982
 20
-26.9357099561
 11
8.0939261915
 21
-26.9917409544
  0
LINE
  5
2F7
100
AcDbEntity
  8
0
100
AcDbLine
 62
7
  6
CONTINUOUS
 10
8.0607714992
 20
-27.3503730379
 11
7.9202253567
 21
-27.3115532493
  0
LWPOLYLINE
  5
2F8
100
AcDbEntity
  8
0
100
AcDbPolyline
 62
7
  6
CONTINUOUS
 90
73
 70
0
 10
8.0939262464
 20
-26.9917393768
 10
8.1108034461
 20
-26.9964431103
 10
8.1279191195
 20
-27.001476884
 10
8.1452657394
 20
-27.0068495488
 10
8.1628153032
 20
-27.0125642378
 10
8.1805791226
 20
-27.0186342479
 10
8.1986075083
 20
-27.0250864338
 10
8.216893606
 20
-27.0319335221
 10
8.2354229213
 20
-27.0391847438
 10
8.2542324033
 20
-27.0468668925
 10
8.2733149423
 20
-27.0549955172
 10
8.29264993
 20
-27.0635802231
 10
8.3122516859
 20
-27.0726423314
 10
8.332102533
 20
-27.0821944074
 10
8.3521849268
 20
-27.0922490261
 10
8.3725105318
 20
-27.10282981
 10
8.3930614081
 20
-27.1139512976
 10
8.4138109612
 20
-27.1256235755
 10
8.434754577
 20
-27.1378650476
 10
8.4558900188
 20
-27.150701237
 10
8.4771641643
 20
-27.1641286528
 10
8.498495192
 20
-27.1781185448
 10
8.5198555392
 20
-27.1926755811
 10
8.5412129602
 20
-27.207803319
 10
8.5624813432
 20
-27.2234633683
 10
8.5836460861
 20
-27.2396645333
 10
8.6046596888
 20
-27.2563931035
 10
8.6253938279
 20
-27.2735667305
 10
8.6458194991
 20
-27.2911711484
 10
8.6659121877
 20
-27.3091977933
 10
8.6855619077
 20
-27.3275620668
 10
8.7047303879
 20
-27.346228333
 10
8.7234155098
 20
-27.3651960886
 10
8.7415701863
 20
-27.3844274281
 10
8.7591762248
 20
-27.4039014246
 10
8.7762170595
 20
-27.4235986321
 10
8.7926529749
 20
-27.4434810235
 10
8.808461967
 20
-27.4635163784
 10
8.8236394629
 20
-27.4836933938
 10
8.8381741203
 20
-27.5040046388
 10
8.8520567097
 20
-27.5244336709
 10
8.865271066
 20
-27.5449532105
 10
8.8777963475
 20
-27.5655394587
 10
8.8896187882
 20
-27.5861635404
 10
8.9007330995
 20
-27.6068098303
 10
8.911131698
 20
-27.6274743068
 10
8.9208096548
 20
-27.6481444511
 10
8.9297533335
 20
-27.6687881773
 10
8.9379436858
 20
-27.6893722062
 10
8.9453718307
 20
-27.709864208
 10
8.9520374917
 20
-27.7302525263
 10
8.9579359246
 20
-27.750534981
 10
8.9630649543
 20
-27.7707002439
 10
8.9674174052
 20
-27.7907157008
 10
8.9709826661
 20
-27.8105476589
 10
8.9737592554
 20
-27.8301662166
 10
8.9757494518
 20
-27.8495598364
 10
8.9769503718
 20
-27.8687229341
 10
8.9773628022
 20
-27.8876371196
 10
8.9769881477
 20
-27.906280136
 10
8.9758240858
 20
-27.9246405326
 10
8.9738732833
 20
-27.9426983321
 10
8.9711391797
 20
-27.960434468
 10
8.9676208555
 20
-27.9778389594
 10
8.9633203294
 20
-27.994901104
 10
8.9582443837
 20
-28.0115937147
 10
8.9524025569
 20
-28.0278838968
 10
8.9458092107
 20
-28.0437438462
 10
8.9384702186
 20
-28.0591702386
 10
8.9303838395
 20
-28.0741677543
 10
8.921553532
 20
-28.0887289002
 10
8.9119936624
 20
-28.102828884
 10
8.9012988622
 20
-28.116974547
  0
LINE
  5
2F9
100
AcDbEntity
  8
0
100
AcDbLine
 62
7
  6
CONTINUOUS
 10
7.8630712453
 20
-27.274537015
 11
8.0745353753
 21
-27.3331249798
  0
LINE
  5
2FA
100
AcDbEntity
  8
0
100
AcDbLine
 62
7
  6
CONTINUOUS
 10
9.1971058366
 20
-29.2657854201
 11
8.7969683355
 21
-29.1541687245
  0
LINE
  5
2FB
100
AcDbEntity
  8
0
100
AcDbLine
 62
7
  6
CONTINUOUS
 10
8.7969683355
 20
-29.1541687245
 11
8.6046629324
 21
-29.1003398293
  0
LINE
  5
2FC
100
AcDbEntity
  8
0
100
AcDbLine
 62
7
  6
CONTINUOUS
 10
8.6184165371
 20
-29.0831046427
 11
9.1801351648
 21
-29.2400016365
  0
LINE
  5
2FD
100
AcDbEntity
  8
0
100
AcDbLine
 62
7
  6
CONTINUOUS
 10
7.9890060117
 20
-28.1675619464
 11
7.6792737972
 21
-28.0809499903
  0
LINE
  5
2FE
100
AcDbEntity
  8
0
100
AcDbLine
 62
7
  6
CONTINUOUS
 10
7.7086860796
 20
-26.8853961604
 11
7.8890962982
 21
-26.9357099561
  0
LINE
  5
2FF
100
AcDbEntity
  8
0
100
AcDbLine
 62
7
  6
CONTINUOUS
 10
7.9202253567
 20
-27.3115532493
 11
7.778013522
 21
-27.2717814271
  0
LINE
  5
300
100
AcDbEntity
  8
0
100
AcDbLine
 62
7
  6
CONTINUOUS
 10
7.6792737972
 20
-28.0809499903
 11
7.5301623885
 21
-28.0390678973
  0
LINE
  5
301
100
AcDbEntity
  8
0
100
AcDbLine
 62
7
  6
CONTINUOUS
 10
7.5439207197
 20
-28.0218267877
 11
8.0027636677
 21
-28.1503216828
  0
LWPOLYLINE
  5
302
100
AcDbEntity
  8
0
100
AcDbPolyline
 62
7
  6
CONTINUOUS
 90
3
 70
0
 10
7.4792958266
 20
-27.6626469138
 10
7.5482395195
 20
-27.6820573266
 10
8.1191942925
 20
-27.8414069824
  0
LINE
  5
303
100
AcDbEntity
  8
0
100
AcDbLine
 62
7
  6
CONTINUOUS
 10
7.6490194745
 20
-27.2141003751
 11
7.8630712453
 21
-27.274537015
  0
LWPOLYLINE
  5
304
100
AcDbEntity
  8
0
100
AcDbPolyline
 62
7
  6
CONTINUOUS
 90
61
 70
0
 10
8.0745352908
 20
-27.3331266847
 10
8.0835580146
 20
-27.3356962438
 10
8.0925879108
 20
-27.3384544358
 10
8.1016180598
 20
-27.3413982605
 10
8.1106299873
 20
-27.3445201301
 10
8.1196285423
 20
-27.3478206547
 10
8.1286415681
 20
-27.3513112951
 10
8.137658092
 20
-27.3549896
 10
8.1466747586
 20
-27.3588551591
 10
8.1557296805
 20
-27.3629275697
 10
8.1648149289
 20
-27.3672085074
 10
8.1739214708
 20
-27.3716981185
 10
8.1830835861
 20
-27.3764190281
 10
8.1922956603
 20
-27.381376997
 10
8.2015417527
 20
-27.3865716741
 10
8.210837963
 20
-27.3920203923
 10
8.2201687489
 20
-27.3977249084
 10
8.2295227884
 20
-27.4036890806
 10
8.2389191182
 20
-27.409936374
 10
8.248348714
 20
-27.4164756419
 10
8.2577855479
 20
-27.4233042204
 10
8.2672197803
 20
-27.4304297443
 10
8.2766379725
 20
-27.4378585531
 10
8.2860115182
 20
-27.445586071
 10
8.2953066624
 20
-27.4536018791
 10
8.3045024559
 20
-27.4619039158
 10
8.3135740394
 20
-27.4704878006
 10
8.3224826946
 20
-27.4793364212
 10
8.3312206499
 20
-27.4884585021
 10
8.3397469122
 20
-27.4978305242
 10
8.3479803732
 20
-27.5073815627
 10
8.3558953314
 20
-27.5170872307
 10
8.3634831812
 20
-27.5269445922
 10
8.3706995945
 20
-27.5369099927
 10
8.3775290005
 20
-27.5469630014
 10
8.3839618571
 20
-27.5570916085
 10
8.3899701671
 20
-27.5672629442
 10
8.3955439374
 20
-27.5774573057
 10
8.4006765585
 20
-27.5876599471
 10
8.4053505375
 20
-27.597844997
 10
8.4095582979
 20
-27.6079884814
 10
8.4132989551
 20
-27.6180800681
 10
8.4165670285
 20
-27.6281144197
 10
8.4193601585
 20
-27.6380798487
 10
8.4216736015
 20
-27.6479540877
 10
8.4234997741
 20
-27.6577162951
 10
8.4248375811
 20
-27.6673427802
 10
8.4256892504
 20
-27.6768254017
 10
8.4260525218
 20
-27.6861666921
 10
8.4259268602
 20
-27.6953604124
 10
8.4253123658
 20
-27.7043805266
 10
8.4242092373
 20
-27.7132005894
 10
8.4226239266
 20
-27.7217973623
 10
8.420560813
 20
-27.7301668085
 10
8.4180184081
 20
-27.7383119006
 10
8.4149979858
 20
-27.7462263742
 10
8.4115071374
 20
-27.7538884428
 10
8.4075546795
 20
-27.7612784519
 10
8.403151609
 20
-27.7683810142
 10
8.3983048826
 20
-27.7751894894
 10
8.3964221605
 20
-27.7776055529
  0
LINE
  5
305
100
AcDbEntity
  8
0
100
AcDbLine
 62
7
  6
CONTINUOUS
 10
7.6201671624
 20
-28.8227359531
 11
7.211191995
 21
-28.7063820271
  0
LINE
  5
306
100
AcDbEntity
  8
0
100
AcDbLine
 62
7
  6
CONTINUOUS
 10
7.778013522
 20
-27.2717814271
 11
7.5995464861
 21
-27.2211585959
  0
LINE
  5
307
100
AcDbEntity
  8
0
100
AcDbLine
 62
7
  6
CONTINUOUS
 10
7.211191995
 20
-28.7063820271
 11
7.0960368548
 21
-28.6735074894
  0
LINE
  5
308
100
AcDbEntity
  8
0
100
AcDbLine
 62
7
  6
CONTINUOUS
 10
7.1097984231
 20
-28.6562623232
 11
7.6176286042
 21
-28.8008672174
  0
LINE
  5
309
100
AcDbEntity
  8
0
100
AcDbLine
 62
7
  6
CONTINUOUS
 10
7.5438006853
 20
-26.8385560133
 11
7.7086860796
 21
-26.8853961604
  0
LINE
  5
30A
100
AcDbEntity
  8
0
100
AcDbLine
 62
7
  6
CONTINUOUS
 10
7.435678441
 20
-27.1530486095
 11
7.6490194745
 21
-27.2141003751
  0
LINE
  5
30B
100
AcDbEntity
  8
0
100
AcDbLine
 62
7
  6
CONTINUOUS
 10
7.5995464861
 20
-27.2211585959
 11
7.4219267089
 21
-27.1702814495
  0
LINE
  5
30C
100
AcDbEntity
  8
0
100
AcDbLine
 62
7
  6
CONTINUOUS
 10
6.7469964501
 20
-28.5735634175
 11
6.3396938252
 21
-28.4563409845
  0
LINE
  5
30D
100
AcDbEntity
  8
0
100
AcDbLine
 62
7
  6
CONTINUOUS
 10
6.3396938252
 20
-28.4563409845
 11
6.2239864088
 21
-28.4229247077
  0
LINE
  5
30E
100
AcDbEntity
  8
0
100
AcDbLine
 62
7
  6
CONTINUOUS
 10
6.2377502385
 20
-28.4056767076
 11
6.7352786145
 21
-28.5490002808
  0
LINE
  5
30F
100
AcDbEntity
  8
0
100
AcDbLine
 62
7
  6
CONTINUOUS
 10
6.0122831802
 20
-27.9777761417
 11
5.6472298834
 21
-27.8718464982
  0
LINE
  5
310
100
AcDbEntity
  8
0
100
AcDbLine
 62
7
  6
CONTINUOUS
 10
7.3858853416
 20
-26.7928831886
 11
7.5438006853
 21
-26.8385560133
  0
LWPOLYLINE
  5
311
100
AcDbEntity
  8
0
100
AcDbPolyline
 62
7
  6
CONTINUOUS
 90
3
 70
0
 10
5.6472298834
 20
-27.8718464982
 10
5.2800990723
 20
-27.764716705
 10
5.1879918539
 20
-27.7377469298
  0
LWPOLYLINE
  5
312
100
AcDbEntity
  8
0
100
AcDbPolyline
 62
7
  6
CONTINUOUS
 90
3
 70
0
 10
5.2017453633
 20
-27.7205118625
 10
5.2938337002
 20
-27.7474754766
 10
6.0260395062
 20
-27.9605375449
  0
LINE
  5
313
100
AcDbEntity
  8
0
100
AcDbLine
 62
7
  6
CONTINUOUS
 10
5.3032010652
 20
-27.3986796563
 11
5.8087268198
 21
-27.5464378264
  0
LINE
  5
314
100
AcDbEntity
  8
0
100
AcDbLine
 62
7
  6
CONTINUOUS
 10
5.070157006
 20
-28.0869367235
 11
4.6659232333
 21
-27.968060939
  0
LINE
  5
315
100
AcDbEntity
  8
0
100
AcDbLine
 62
7
  6
CONTINUOUS
 10
4.6659232333
 20
-27.968060939
 11
4.5492787966
 21
-27.9336490506
  0
LINE
  5
316
100
AcDbEntity
  8
0
100
AcDbLine
 62
7
  6
CONTINUOUS
 10
4.5630418564
 20
-27.9164020152
 11
5.076673888
 21
-28.0675619647
  0
LINE
  5
317
100
AcDbEntity
  8
0
100
AcDbLine
 62
7
  6
CONTINUOUS
 10
4.2023747257
 20
-27.8310200683
 11
3.7973366441
 21
-27.7106709538
  0
LWPOLYLINE
  5
318
100
AcDbEntity
  8
0
100
AcDbPolyline
 62
7
  6
CONTINUOUS
 90
3
 70
0
 10
7.1153121841
 20
-26.7129331078
 10
7.1714386577
 20
-26.7296545774
 10
7.3858853416
 20
-26.7928831886
  0
LINE
  5
319
100
AcDbEntity
  8
0
100
AcDbLine
 62
7
  6
CONTINUOUS
 10
3.7973366441
 20
-27.7106709538
 11
3.6825117789
 21
-27.6764537334
  0
LINE
  5
31A
100
AcDbEntity
  8
0
100
AcDbLine
 62
7
  6
CONTINUOUS
 10
3.6962724021
 20
-27.6592097516
 11
4.1997549149
 21
-27.808916113
  0
LINE
  5
31B
100
AcDbEntity
  8
0
100
AcDbLine
 62
7
  6
CONTINUOUS
 10
3.1915239559
 20
-27.529664946
 11
2.9014348211
 21
-27.4425999244
  0
LINE
  5
31C
100
AcDbEntity
  8
0
100
AcDbLine
 62
7
  6
CONTINUOUS
 10
2.915186134
 20
-27.4253574912
 11
3.1970757029
 21
-27.5099626977
  0
LINE
  5
31D
100
AcDbEntity
  8
0
100
AcDbLine
 62
7
  6
CONTINUOUS
 10
2.9014348211
 20
-27.4425999244
 11
2.6727281109
 21
-27.3737872349
  0
LINE
  5
31E
100
AcDbEntity
  8
0
100
AcDbLine
 62
7
  6
CONTINUOUS
 10
2.6864850662
 20
-27.3565478494
 11
2.915186134
 21
-27.4253574912
  0
LINE
  5
31F
100
AcDbEntity
  8
0
100
AcDbLine
 62
7
  6
CONTINUOUS
 10
2.1826642839
 20
-27.2258566751
 11
2.1239844451
 21
-27.2081018776
  0
LINE
  5
320
100
AcDbEntity
  8
0
100
AcDbLine
 62
7
  6
CONTINUOUS
 10
2.1377380287
 20
-27.190864758
 11
2.180092849
 21
-27.2036798306
  0
LINE
  5
321
100
AcDbEntity
  8
0
100
AcDbLine
 62
7
  6
CONTINUOUS
 10
2.1239844451
 20
-27.2081018776
 11
1.8920968747
 21
-27.1378595078
  0
LINE
  5
322
100
AcDbEntity
  8
0
100
AcDbLine
 62
7
  6
CONTINUOUS
 10
1.9058476876
 20
-27.1206229283
 11
2.1377380287
 21
-27.190864758
  0
LWPOLYLINE
  5
323
100
AcDbEntity
  8
0
100
AcDbPolyline
 62
7
  6
CONTINUOUS
 90
3
 70
0
 10
1.8920968747
 20
-27.1378595078
 10
1.7211519302
 20
-27.0859971069
 10
1.6647357759
 20
-27.0688662183
  0
LWPOLYLINE
  5
324
100
AcDbEntity
  8
0
100
AcDbPolyline
 62
7
  6
CONTINUOUS
 90
3
 70
0
 10
1.6784888725
 20
-27.0516316683
 10
1.734903983
 20
-27.0687619101
 10
1.9058476876
 20
-27.1206229283
  0
LINE
  5
325
100
AcDbEntity
  8
0
100
AcDbLine
 62
7
  6
CONTINUOUS
 10
1.1472005561
 20
-26.9114037613
 11
1.0882590977
 21
-26.8934366934
  0
LINE
  5
326
100
AcDbEntity
  8
0
100
AcDbLine
 62
7
  6
CONTINUOUS
 10
1.0882590977
 20
-26.8934366934
 11
0.9714809809
 21
-26.857821297
  0
LINE
  5
327
100
AcDbEntity
  8
0
100
AcDbLine
 62
7
  6
CONTINUOUS
 10
0.9852314769
 20
-26.8405898705
 11
1.1446641626
 21
-26.8892067436
  0
LINE
  5
328
100
AcDbEntity
  8
0
100
AcDbLine
 62
7
  6
CONTINUOUS
 10
0.9714809809
 20
-26.857821297
 11
0.6299814395
 21
-26.7535299347
  0
LINE
  5
329
100
AcDbEntity
  8
0
100
AcDbLine
 62
7
  6
CONTINUOUS
 10
0.643730861
 20
-26.7362999902
 11
0.9852314769
 21
-26.8405898705
  0
LINE
  5
32A
100
AcDbEntity
  8
0
100
AcDbLine
 62
7
  6
CONTINUOUS
 10
-0.5442011207
 20
-26.3936438369
 11
-1.0607419703
 21
-26.2348908645
  0
LINE
  5
32B
100
AcDbEntity
  8
0
100
AcDbLine
 62
7
  6
CONTINUOUS
 10
-1.0469973823
 20
-26.217666977
 11
-0.5376304215
 21
-26.3742142723
  0
LWPOLYLINE
  5
32C
100
AcDbEntity
  8
SUPERFICI
100
AcDbPolyline
 62
250
  6
CONTINUOUS
 90
7
 70
0
 10
31.3690828059
 20
-42.3955240289
 10
31.3315815267
 20
-42.3772316202
 10
31.3010353073
 20
-42.3472699598
 10
31.2748867488
 20
-42.3051791785
 10
31.2534820064
 20
-42.2515164778
 10
31.2371044362
 20
-42.18699225
 10
31.225970844
 20
-42.1124606729
  0
LINE
  5
32D
100
AcDbEntity
  8
SUPERFICI
100
AcDbLine
 62
250
  6
CONTINUOUS
 10
-14.6020759214
 20
-19.5450606889
 11
-14.6569117063
 21
-19.5007173326
  0
LINE
  5
32E
100
AcDbEntity
  8
SUPERFICI
100
AcDbLine
 62
250
  6
CONTINUOUS
 10
-14.6569117063
 20
-19.5007173326
 11
-14.7090270043
 21
-19.458190116
  0
LINE
  5
32F
100
AcDbEntity
  8
SUPERFICI
100
AcDbLine
 62
250
  6
CONTINUOUS
 10
-14.7090270043
 20
-19.458190116
 11
-14.7846773185
 21
-19.3957423691
  0
LINE
  5
330
100
AcDbEntity
  8
SUPERFICI
100
AcDbLine
 62
250
  6
CONTINUOUS
 10
-14.7846773185
 20
-19.3957423691
 11
-14.8349369072
 21
-19.3537923987
  0
LINE
  5
331
100
AcDbEntity
  8
SUPERFICI
100
AcDbLine
 62
250
  6
CONTINUOUS
 10
-14.8349369072
 20
-19.3537923987
 11
-14.8860121043
 21
-19.3106895126
  0
LWPOLYLINE
  5
332
100
AcDbEntity
  8
SUPERFICI
100
AcDbPolyline
 62
250
  6
CONTINUOUS
 90
45
 70
0
 10
-14.8860121043
 20
-19.3106895126
 10
-14.93903253
 20
-19.2652522016
 10
-14.9664302961
 20
-19.2414345497
 10
-14.9944685716
 20
-19.216809894
 10
-15.023157007
 20
-19.1913079495
 10
-15.0528379733
 20
-19.1644697708
 10
-15.0837099418
 20
-19.1360104983
 10
-15.1156422053
 20
-19.1060057128
 10
-15.14849524
 20
-19.0745044649
 10
-15.182363492
 20
-19.0413459689
 10
-15.2170854318
 20
-19.0066104472
 10
-15.2521525611
 20
-18.9707219636
 10
-15.2874153693
 20
-18.9337820865
 10
-15.3229449725
 20
-18.8956724019
 10
-15.3585784611
 20
-18.8565068447
 10
-15.3941560222
 20
-18.8164203465
 10
-15.4297679856
 20
-18.7752665777
 10
-15.4656168423
 20
-18.7327355445
 10
-15.5016414877
 20
-18.6888282129
 10
-15.5377921001
 20
-18.6435259941
 10
-15.5742571521
 20
-18.5964773209
 10
-15.610962854
 20
-18.547667797
 10
-15.6478260343
 20
-18.497086321
 10
-15.6849828206
 20
-18.4443755483
 10
-15.7223330239
 20
-18.3895166909
 10
-15.7597510988
 20
-18.3325142869
 10
-15.7972884407
 20
-18.2730431518
 10
-15.834797778
 20
-18.2111077807
 10
-15.8721283708
 20
-18.1467005122
 10
-15.9092770547
 20
-18.0794696968
 10
-15.9461073002
 20
-18.00934197
 10
-15.9823390497
 20
-17.9364430959
 10
-16.0176849506
 20
-17.8607816785
 10
-16.0516385476
 20
-17.7826428435
 10
-16.0842277707
 20
-17.7018990549
 10
-16.1159675345
 20
-17.6177506869
 10
-16.1467117494
 20
-17.5299199964
 10
-16.176208561
 20
-17.4379841835
 10
-16.2045898796
 20
-17.3410785622
 10
-16.2317225518
 20
-17.238866064
 10
-16.2564783248
 20
-17.1327499474
 10
-16.2775210835
 20
-17.0244625098
 10
-16.2941956388
 20
-16.9148001038
 10
-16.3063809653
 20
-16.8035561015
 10
-16.3136928474
 20
-16.6909825708
  0
LWPOLYLINE
  5
333
100
AcDbEntity
  8
SUPERFICI
100
AcDbPolyline
 62
250
  6
CONTINUOUS
 90
13
 70
0
 10
-3.370964265
 20
29.6034588481
 10
-3.4151078938
 20
29.5401980896
 10
-3.4584124318
 20
29.4703804505
 10
-3.5004610736
 20
29.3946779242
 10
-3.5408491019
 20
29.3138191461
 10
-3.5791877827
 20
29.2285823803
 10
-3.615108107
 20
29.139788029
 10
-3.6482643423
 20
29.0482907359
 10
-3.6783373607
 20
28.9549711608
 10
-3.7050377097
 20
28.8607275027
 10
-3.7281083993
 20
28.7664668549
 10
-3.7473273743
 20
28.6730964743
 10
-3.7625096526
 20
28.581515049
  0
LINE
  5
334
100
AcDbEntity
  8
SUPERFICI
100
AcDbLine
 62
250
  6
CONTINUOUS
 10
-14.2253833501
 20
16.9069882336
 11
-14.2054111193
 21
16.9291083438
  0
LINE
  5
335
100
AcDbEntity
  8
SUPERFICI
100
AcDbLine
 62
250
  6
CONTINUOUS
 10
6.4118142876
 20
-26.3318935645
 11
6.1092426246
 21
-26.244813208
  0
LINE
  5
336
100
AcDbEntity
  8
SUPERFICI
100
AcDbLine
 62
250
  6
CONTINUOUS
 10
6.1092426246
 20
-26.244813208
 11
5.8924064539
 21
-26.1818511332
  0
LINE
  5
337
100
AcDbEntity
  8
SUPERFICI
100
AcDbLine
 62
250
  6
CONTINUOUS
 10
5.8924064539
 20
-26.1818511332
 11
5.6638128717
 21
-26.1150678532
  0
LINE
  5
338
100
AcDbEntity
  8
SUPERFICI
100
AcDbLine
 62
250
  6
CONTINUOUS
 10
5.6638128717
 20
-26.1150678532
 11
5.4234593614
 21
-26.0444508707
  0
LINE
  5
339
100
AcDbEntity
  8
SUPERFICI
100
AcDbLine
 62
250
  6
CONTINUOUS
 10
5.4234593614
 20
-26.0444508707
 11
5.1713543386
 21
-25.9699731035
  0
LINE
  5
33A
100
AcDbEntity
  8
SUPERFICI
100
AcDbLine
 62
250
  6
CONTINUOUS
 10
5.1713543386
 20
-25.9699731035
 11
4.7697708891
 21
-25.8505990641
  0
LINE
  5
33B
100
AcDbEntity
  8
0
100
AcDbLine
 62
7
  6
CONTINUOUS
 10
6.8689234624
 20
-26.639397828
 11
7.1153121841
 21
-26.7129331078
  0
LINE
  5
33C
100
AcDbEntity
  8
SUPERFICI
100
AcDbLine
 62
250
  6
CONTINUOUS
 10
4.7697708891
 20
-25.8505990641
 11
4.3371738171
 21
-25.7211465205
  0
LINE
  5
33D
100
AcDbEntity
  8
SUPERFICI
100
AcDbLine
 62
250
  6
CONTINUOUS
 10
4.3371738171
 20
-25.7211465205
 11
3.8696443587
 21
-25.5803998581
  0
LINE
  5
33E
100
AcDbEntity
  8
SUPERFICI
100
AcDbLine
 62
250
  6
CONTINUOUS
 10
3.8696443587
 20
-25.5803998581
 11
3.3628297139
 21
-25.4270127392
  0
LINE
  5
33F
100
AcDbEntity
  8
0
100
AcDbLine
 62
7
  6
CONTINUOUS
 10
5.6352362186
 20
-26.2674241793
 11
5.6909075636
 21
-26.2843113077
  0
LINE
  5
340
100
AcDbEntity
  8
0
100
AcDbLine
 62
7
  6
CONTINUOUS
 10
5.4654445079
 20
-26.2158758813
 11
5.6352362186
 21
-26.2674241793
  0
LINE
  5
341
100
AcDbEntity
  8
0
100
AcDbLine
 62
7
  6
CONTINUOUS
 10
5.2914861137
 20
-26.1629974669
 11
5.4654445079
 21
-26.2158758813
  0
LINE
  5
342
100
AcDbEntity
  8
0
100
AcDbLine
 62
7
  6
CONTINUOUS
 10
5.173198814
 20
-26.1270065529
 11
5.2914861137
 21
-26.1629974669
  0
LINE
  5
343
100
AcDbEntity
  8
SUPERFICI
100
AcDbLine
 62
250
  6
CONTINUOUS
 10
3.3628297139
 20
-25.4270127392
 11
2.8130603534
 21
-25.259843836
  0
LINE
  5
344
100
AcDbEntity
  8
SUPERFICI
100
AcDbLine
 62
250
  6
CONTINUOUS
 10
-3.7682096629
 20
-23.2338225443
 11
-6.2916364167
 21
-22.4636831447
  0
LINE
  5
345
100
AcDbEntity
  8
SUPERFICI
100
AcDbLine
 62
250
  6
CONTINUOUS
 10
2.8130603534
 20
-25.259843836
 11
2.2178769731
 21
-25.0781209916
  0
LINE
  5
346
100
AcDbEntity
  8
SUPERFICI
100
AcDbLine
 62
250
  6
CONTINUOUS
 10
-6.2916364167
 20
-22.4636831447
 11
-7.0948654813
 21
-22.2181401857
  0
LINE
  5
347
100
AcDbEntity
  8
0
100
AcDbLine
 62
7
  6
CONTINUOUS
 10
3.8290549276
 20
-25.7164708768
 11
3.9981356134
 21
-25.7682449412
  0
LINE
  5
348
100
AcDbEntity
  8
0
100
AcDbLine
 62
7
  6
CONTINUOUS
 10
3.6574199982
 20
-25.6638832797
 11
3.8290549276
 21
-25.7164708768
  0
LINE
  5
349
100
AcDbEntity
  8
0
100
AcDbLine
 62
7
  6
CONTINUOUS
 10
3.4832068584
 20
-25.6104750283
 11
3.6574199982
 21
-25.6638832797
  0
LINE
  5
34A
100
AcDbEntity
  8
SUPERFICI
100
AcDbLine
 62
250
  6
CONTINUOUS
 10
-7.0948654813
 20
-22.2181401857
 11
-7.8320670417
 21
-21.992287377
  0
LINE
  5
34B
100
AcDbEntity
  8
0
100
AcDbLine
 62
7
  6
CONTINUOUS
 10
3.2168792431
 20
-25.5287722925
 11
3.4832068584
 21
-25.6104750283
  0
LINE
  5
34C
100
AcDbEntity
  8
SUPERFICI
100
AcDbLine
 62
250
  6
CONTINUOUS
 10
2.2178769731
 20
-25.0781209916
 11
1.5747246565
 21
-24.8810508277
  0
LINE
  5
34D
100
AcDbEntity
  8
SUPERFICI
100
AcDbLine
 62
250
  6
CONTINUOUS
 10
-2.8775404326
 20
-23.5073333048
 11
-3.7682100147
 21
-23.2338173049
  0
LINE
  5
34E
100
AcDbEntity
  8
SUPERFICI
100
AcDbLine
 62
250
  6
CONTINUOUS
 10
6.4620310527
 20
-23.7652163828
 11
-13.0436327846
 21
-17.7752159712
  0
LINE
  5
34F
100
AcDbEntity
  8
DRAFT
100
AcDbLine
 62
7
  6
CONTINUOUS
 10
-12.362237048
 20
-16.9227274531
 11
-4.8360790791
 21
-19.2339376523
  0
LINE
  5
350
100
AcDbEntity
  8
DRAFT
100
AcDbLine
 62
7
  6
CONTINUOUS
 10
-0.3827311685
 20
-20.6015176518
 11
6.5852751006
 21
-22.7413248712
  0
LINE
  5
351
100
AcDbEntity
  8
0
100
AcDbLine
 62
7
  6
CONTINUOUS
 10
-12.3622707129
 20
-16.9213741773
 11
6.5852414356
 21
-22.7399715955
  0
LINE
  5
352
100
AcDbEntity
  8
DRAFT
100
AcDbLine
 62
7
  6
CONTINUOUS
 10
-0.3451828748
 20
-20.5538874293
 11
-4.092657925
 21
-19.4030741468
  0
LINE
  5
353
100
AcDbEntity
  8
DRAFT
100
AcDbLine
 62
7
  6
CONTINUOUS
 10
-12.2714223413
 20
-16.8075284853
 11
-4.7452643724
 21
-19.1187386844
  0
LINE
  5
354
100
AcDbEntity
  8
DRAFT
100
AcDbLine
 62
7
  6
CONTINUOUS
 10
-0.2919164618
 20
-20.4863186839
 11
6.581688171
 21
-22.5971360754
  0
LWPOLYLINE
  5
355
100
AcDbEntity
  8
SUPERFICI
100
AcDbPolyline
 62
250
  6
CONTINUOUS
 90
3
 70
0
 10
-4.0686755478
 20
-22.3293957805
 10
-9.8186225402
 20
-20.5627855616
 10
-13.3756585953
 20
-19.4710294715
  0
LINE
  5
356
100
AcDbEntity
  8
SUPERFICI
100
AcDbLine
 62
250
  6
CONTINUOUS
 10
-7.8320670417
 20
-21.992287377
 11
-8.5096326607
 21
-21.7841317407
  0
LINE
  5
357
100
AcDbEntity
  8
SUPERFICI
100
AcDbLine
 62
250
  6
CONTINUOUS
 10
1.5747246565
 20
-24.8810508277
 11
0.8799183229
 21
-24.6675049188
  0
LINE
  5
358
100
AcDbEntity
  8
SUPERFICI
100
AcDbLine
 62
250
  6
CONTINUOUS
 10
6.1281347421
 20
-25.4604554872
 11
-4.0686748976
 21
-22.3293964097
  0
LINE
  5
359
100
AcDbEntity
  8
0
100
AcDbLine
 62
7
  6
CONTINUOUS
 10
1.4716678825
 20
-24.9920919944
 11
2.252272868
 21
-25.2323809192
  0
LINE
  5
35A
100
AcDbEntity
  8
0
100
AcDbLine
 62
7
  6
CONTINUOUS
 10
0.4392385401
 20
-24.6738462997
 11
0.9554287671
 21
-24.8330150652
  0
LINE
  5
35B
100
AcDbEntity
  8
SUPERFICI
100
AcDbLine
 62
250
  6
CONTINUOUS
 10
0.8799183229
 20
-24.6675049188
 11
0.128880574
 21
-24.4360991604
  0
LINE
  5
35C
100
AcDbEntity
  8
0
100
AcDbLine
 62
7
  6
CONTINUOUS
 10
-0.4209644315
 20
-24.4084169786
 11
0.0951463594
 21
-24.5676950162
  0
LINE
  5
35D
100
AcDbEntity
  8
SUPERFICI
100
AcDbLine
 62
250
  6
CONTINUOUS
 10
-8.5096326607
 20
-21.7841317407
 11
-9.1330932243
 21
-21.5919725514
  0
LINE
  5
35E
100
AcDbEntity
  8
0
100
AcDbLine
 62
7
  6
CONTINUOUS
 10
-2.0778648567
 20
-23.8968200342
 11
-1.5618159197
 21
-24.0561755833
  0
LINE
  5
35F
100
AcDbEntity
  8
SUPERFICI
100
AcDbLine
 62
250
  6
CONTINUOUS
 10
0.128880574
 20
-24.4360991604
 11
-0.9715232433
 21
-24.0963323743
  0
LINE
  5
360
100
AcDbEntity
  8
SUPERFICI
100
AcDbLine
 62
250
  6
CONTINUOUS
 10
-0.9715232433
 20
-24.0963323743
 11
-2.877540085
 21
-23.5073384969
  0
LINE
  5
361
100
AcDbEntity
  8
SUPERFICI
100
AcDbLine
 62
250
  6
CONTINUOUS
 10
-9.1330932243
 20
-21.5919725514
 11
-9.7069211498
 21
-21.4144474225
  0
LINE
  5
362
100
AcDbEntity
  8
SUPERFICI
100
AcDbLine
 62
250
  6
CONTINUOUS
 10
-9.7069211498
 20
-21.4144474225
 11
-10.2348057903
 21
-21.2504414913
  0
LINE
  5
363
100
AcDbEntity
  8
SUPERFICI
100
AcDbLine
 62
250
  6
CONTINUOUS
 10
-10.2348057903
 20
-21.2504414913
 11
-10.7207443508
 21
-21.0987456358
  0
LWPOLYLINE
  5
364
100
AcDbEntity
  8
SUPERFICI
100
AcDbPolyline
 62
250
  6
CONTINUOUS
 90
91
 70
0
 10
-13.3756598447
 20
-19.4710316263
 10
-13.4065683546
 20
-19.4613341945
 10
-13.4365733646
 20
-19.4514465867
 10
-13.4656641405
 20
-19.4414145438
 10
-13.4937201832
 20
-19.4313227172
 10
-13.5208458105
 20
-19.4211758796
 10
-13.5473692204
 20
-19.4108836386
 10
-13.5731709966
 20
-19.4005185774
 10
-13.598360581
 20
-19.3900620932
 10
-13.6236068448
 20
-19.379246913
 10
-13.6489011961
 20
-19.3680716558
 10
-13.6742376082
 20
-19.356536706
 10
-13.7002815566
 20
-19.3443268835
 10
-13.7272883112
 20
-19.3312857535
 10
-13.7549744797
 20
-19.3175102869
 10
-13.7831935612
 20
-19.3030444363
 10
-13.8122043525
 20
-19.2877205597
 10
-13.8417147348
 20
-19.2716553621
 10
-13.8707652092
 20
-19.2553638708
 10
-13.899233188
 20
-19.2389339955
 10
-13.9272357382
 20
-19.2223162028
 10
-13.9541961933
 20
-19.2058812589
 10
-13.9799511213
 20
-19.189775549
 10
-14.0046823733
 20
-19.1739308552
 10
-14.02834265
 20
-19.1584182228
 10
-14.0509326018
 20
-19.1432788155
 10
-14.0724743816
 20
-19.1285379292
 10
-14.0929549248
 20
-19.1142428381
 10
-14.1123368225
 20
-19.1004586321
 10
-14.1306835251
 20
-19.0871776595
 10
-14.1481316929
 20
-19.0743330328
 10
-14.1647114831
 20
-19.0619318407
 10
-14.1804142284
 20
-19.0500074247
 10
-14.1953148365
 20
-19.0385260002
 10
-14.2093116608
 20
-19.0275907211
 10
-14.2225259374
 20
-19.0171312622
 10
-14.2353594908
 20
-19.0068437136
 10
-14.2478548699
 20
-18.9967021225
 10
-14.2599755952
 20
-18.9867451181
 10
-14.2719952515
 20
-18.9767535219
 10
-14.2839172035
 20
-18.9667257153
 10
-14.2957370053
 20
-18.9566664854
 10
-14.3077087941
 20
-18.9463574874
 10
-14.3198257631
 20
-18.9357982569
 10
-14.3320855832
 20
-18.924984229
 10
-14.3447405847
 20
-18.9136824358
 10
-14.3577762391
 20
-18.9018901314
 10
-14.3711870637
 20
-18.8895963157
 10
-14.385228366
 20
-18.8765462599
 10
-14.3999398838
 20
-18.8626731861
 10
-14.4152447303
 20
-18.8480184974
 10
-14.4312139607
 20
-18.8324823674
 10
-14.4478888494
 20
-18.8159853715
 10
-14.4651773362
 20
-18.7985759151
 10
-14.4829492523
 20
-18.7803459614
 10
-14.5012259224
 20
-18.7612333964
 10
-14.5199320831
 20
-18.7412744089
 10
-14.5388031444
 20
-18.7207169824
 10
-14.557763274
 20
-18.6996178328
 10
-14.5768485237
 20
-18.6779098485
 10
-14.5959731995
 20
-18.6556634202
 10
-14.6150500164
 20
-18.6329571105
 10
-14.6341287365
 20
-18.60970804
 10
-14.6533241195
 20
-18.5857432289
 10
-14.6726031815
 20
-18.5610627572
 10
-14.6919397011
 20
-18.5356575913
 10
-14.7114410891
 20
-18.5093350004
 10
-14.7310658575
 20
-18.4820881352
 10
-14.7507694357
 20
-18.453913045
 10
-14.7706334443
 20
-18.4246160314
 10
-14.7906004643
 20
-18.3941898357
 10
-14.8106077696
 20
-18.362632891
 10
-14.8307043228
 20
-18.3297563692
 10
-14.850814151
 20
-18.2955522088
 10
-14.8708501706
 20
-18.2600274527
 10
-14.8908168199
 20
-18.2230148238
 10
-14.9106105073
 20
-18.1845184471
 10
-14.930121167
 20
-18.1445499166
 10
-14.9493122168
 20
-18.1029554663
 10
-14.9680980967
 20
-18.0596410621
 10
-14.98628355
 20
-18.0147446821
 10
-15.0036600726
 20
-17.9684687436
 10
-15.0199980997
 20
-17.9211593888
 10
-15.0352672255
 20
-17.8725549648
 10
-15.0494864383
 20
-17.8219682593
 10
-15.0625099657
 20
-17.7690492129
 10
-15.0739659704
 20
-17.7143273064
 10
-15.0835014531
 20
-17.6584606743
 10
-15.0908903468
 20
-17.6017476488
 10
-15.0959657254
 20
-17.5441361301
 10
-15.0985198169
 20
-17.4857709576
  0
LINE
  5
365
100
AcDbEntity
  8
SUPERFICI
100
AcDbLine
 62
250
  6
CONTINUOUS
 10
-10.7207443508
 20
-21.0987456358
 11
-11.1692158102
 21
-20.9579962195
  0
LINE
  5
366
100
AcDbEntity
  8
SUPERFICI
100
AcDbLine
 62
250
  6
CONTINUOUS
 10
-11.1692158102
 20
-20.9579962195
 11
-11.5844289574
 21
-20.8269138616
  0
LINE
  5
367
100
AcDbEntity
  8
SUPERFICI
100
AcDbLine
 62
250
  6
CONTINUOUS
 10
-11.5844289574
 20
-20.8269138616
 11
-11.9703211897
 21
-20.7042967072
  0
LINE
  5
368
100
AcDbEntity
  8
SUPERFICI
100
AcDbLine
 62
250
  6
CONTINUOUS
 10
-11.9703211897
 20
-20.7042967072
 11
-12.2126162711
 21
-20.6268440934
  0
LINE
  5
369
100
AcDbEntity
  8
SUPERFICI
100
AcDbLine
 62
250
  6
CONTINUOUS
 10
-12.2126162711
 20
-20.6268440934
 11
-12.5542580876
 21
-20.5169349285
  0
LINE
  5
36A
100
AcDbEntity
  8
SUPERFICI
100
AcDbLine
 62
250
  6
CONTINUOUS
 10
-12.5542580876
 20
-20.5169349285
 11
-12.7674952846
 21
-20.447868213
  0
LINE
  5
36B
100
AcDbEntity
  8
SUPERFICI
100
AcDbLine
 62
250
  6
CONTINUOUS
 10
-12.7674952846
 20
-20.447868213
 11
-13.0648975439
 21
-20.3507839152
  0
LWPOLYLINE
  5
36C
100
AcDbEntity
  8
SUPERFICI
100
AcDbPolyline
 62
250
  6
CONTINUOUS
 90
35
 70
0
 10
-13.0648970092
 20
-20.3507831793
 10
-13.1246736622
 20
-20.3307284484
 10
-13.1827314968
 20
-20.3104223209
 10
-13.2390395955
 20
-20.2899557968
 10
-13.293337616
 20
-20.2695269163
 10
-13.3458118841
 20
-20.2491214528
 10
-13.3971173246
 20
-20.2284755488
 10
-13.4471933589
 20
-20.2075582093
 10
-13.4962804135
 20
-20.1864299454
 10
-13.5454819856
 20
-20.1648957926
 10
-13.5944320817
 20
-20.1431745374
 10
-13.6425979881
 20
-20.121430177
 10
-13.6905706608
 20
-20.0994212629
 10
-13.7388270847
 20
-20.0770114579
 10
-13.787543514
 20
-20.0539789347
 10
-13.837271393
 20
-20.0297082916
 10
-13.888651366
 20
-20.0037333894
 10
-13.9409885334
 20
-19.9764142674
 10
-13.9925372887
 20
-19.9485895235
 10
-14.0430897946
 20
-19.920372561
 10
-14.092882736
 20
-19.8916947548
 10
-14.1409210254
 20
-19.8632073044
 10
-14.1868862037
 20
-19.835181164
 10
-14.231044454
 20
-19.8075300489
 10
-14.2732673838
 20
-19.7804280572
 10
-14.3135936522
 20
-19.7539286718
 10
-14.3521373309
 20
-19.7280236295
 10
-14.3889195494
 20
-19.7027738009
 10
-14.4237358103
 20
-19.6783929869
 10
-14.4565385922
 20
-19.6549742412
 10
-14.4875261459
 20
-19.6324259394
 10
-14.5169510959
 20
-19.6106520354
 10
-14.5454150475
 20
-19.5892226131
 10
-14.573800141
 20
-19.5673899004
 10
-14.6020759214
 20
-19.5450606889
  0
LWPOLYLINE
  5
36D
100
AcDbEntity
  8
SUPERFICI
100
AcDbPolyline
 62
250
  6
CONTINUOUS
 90
13
 70
0
 10
-13.0436336427
 20
-17.7752170465
 10
-13.078559859
 20
-17.7625167773
 10
-13.1129874855
 20
-17.7460538761
 10
-13.1463274557
 20
-17.7261100277
 10
-13.1780093136
 20
-17.7030264769
 10
-13.2074909738
 20
-17.6771981895
 10
-13.2342679969
 20
-17.6490670949
 10
-13.2578822206
 20
-17.6191145237
 10
-13.2779295991
 20
-17.5878529728
 10
-13.2940671161
 20
-17.555817336
 10
-13.3060186542
 20
-17.523555752
 10
-13.3135797193
 20
-17.4916202253
 10
-13.3166209395
 20
-17.4605571817
  0
LWPOLYLINE
  5
36E
100
AcDbEntity
  8
SUPERFICI
100
AcDbPolyline
 62
250
  6
CONTINUOUS
 90
10
 70
0
 10
-13.3756597384
 20
-19.4710313684
 10
-13.3222052589
 20
-19.5294973193
 10
-13.2730975908
 20
-19.5985526267
 10
-13.2285291577
 20
-19.6779266948
 10
-13.1886745963
 20
-19.7673084927
 10
-13.1536900721
 20
-19.8663477735
 10
-13.1237126676
 20
-19.9746564463
 10
-13.0988598449
 20
-20.0918100975
 10
-13.0792289856
 20
-20.2173496533
 10
-13.0648970092
 20
-20.3507831793
  0
LWPOLYLINE
  5
36F
100
AcDbEntity
  8
SUPERFICI
100
AcDbPolyline
 62
250
  6
CONTINUOUS
 90
22
 70
0
 10
-15.0985198169
 20
-17.4857709576
 10
-15.046201929
 20
-17.5437660317
 10
-14.9847412404
 20
-17.5960381462
 10
-14.9148087858
 20
-17.6422874659
 10
-14.8372065606
 20
-17.6806591822
 10
-14.7527077903
 20
-17.712856196
 10
-14.6621426459
 20
-17.7429863985
 10
-14.5664726629
 20
-17.7726797073
 10
-14.4667841351
 20
-17.7977739122
 10
-14.3642811961
 20
-17.8138584009
 10
-14.2601679295
 20
-17.8197569002
 10
-14.1555205557
 20
-17.8175797607
 10
-14.0514349807
 20
-17.8086462867
 10
-13.9490400985
 20
-17.7933139066
 10
-13.8494737234
 20
-17.7713763492
 10
-13.7538288506
 20
-17.7430501653
 10
-13.6631543265
 20
-17.7086372413
 10
-13.5784435674
 20
-17.6685185529
 10
-13.5006250531
 20
-17.6231343915
 10
-13.4305517655
 20
-17.5729802882
 10
-13.3689918057
 20
-17.5186031277
 10
-13.3166199072
 20
-17.4605985078
  0
LWPOLYLINE
  5
370
100
AcDbEntity
  8
SUPERFICI
100
AcDbPolyline
 62
250
  6
CONTINUOUS
 90
22
 70
0
 10
-13.3756598447
 20
-19.4710316263
 10
-13.4077898202
 20
-19.4352763013
 10
-13.4313656293
 20
-19.3910319385
 10
-13.4467658055
 20
-19.3385948952
 10
-13.4508001564
 20
-19.2794358016
 10
-13.4482237291
 20
-19.2126683144
 10
-13.4491844127
 20
-19.1360803382
 10
-13.4580306829
 20
-19.049335004
 10
-13.4661529764
 20
-18.9557690435
 10
-13.4644583287
 20
-18.8591020592
 10
-13.4508237667
 20
-18.761181682
 10
-13.4300373096
 20
-18.6616858798
 10
-13.4050166399
 20
-18.5608738604
 10
-13.3765827158
 20
-18.4596923608
 10
-13.344292491
 20
-18.3595024111
 10
-13.3084732505
 20
-18.2614257599
 10
-13.2695140929
 20
-18.1665531457
 10
-13.2278488171
 20
-18.0759362502
 10
-13.1839338265
 20
-17.9905821557
 10
-13.1382535341
 20
-17.9114385471
 10
-13.0913137861
 20
-17.839383583
 10
-13.043633643
 20
-17.7752170464
  0
LWPOLYLINE
  5
371
100
AcDbEntity
  8
SUPERFICI
100
AcDbPolyline
 62
250
  6
CONTINUOUS
 90
10
 70
0
 10
-15.0985191357
 20
-17.4857704334
 10
-15.193782055
 20
-17.376062063
 10
-15.300214014
 20
-17.2707179916
 10
-15.4173539712
 20
-17.1701945455
 10
-15.5446945
 20
-17.0749271686
 10
-15.6816839874
 20
-16.9853285369
 10
-15.8277290227
 20
-16.9017867702
 10
-15.9821969686
 20
-16.8246637514
 10
-16.1444187014
 20
-16.7542935588
 10
-16.3136915095
 20
-16.6909810184
  0
LINE
  5
372
100
AcDbEntity
  8
SUPERFICI
100
AcDbLine
 62
250
  6
CONTINUOUS
 10
-16.3136915095
 20
-16.6909810184
 11
-16.3233873804
 21
-16.4548911202
  0
LINE
  5
373
100
AcDbEntity
  8
SUPERFICI
100
AcDbLine
 62
250
  6
CONTINUOUS
 10
-16.3233873804
 20
-16.4548911202
 11
-16.3334840832
 21
-16.1947408064
  0
LINE
  5
374
100
AcDbEntity
  8
SUPERFICI
100
AcDbLine
 62
250
  6
CONTINUOUS
 10
-16.3334840832
 20
-16.1947408064
 11
-16.3441968195
 21
-15.9036638843
  0
LINE
  5
375
100
AcDbEntity
  8
SUPERFICI
100
AcDbLine
 62
250
  6
CONTINUOUS
 10
-16.3441968195
 20
-15.9036638843
 11
-16.3557132824
 21
-15.5752167984
  0
LINE
  5
376
100
AcDbEntity
  8
SUPERFICI
100
AcDbLine
 62
250
  6
CONTINUOUS
 10
-16.3557132824
 20
-15.5752167984
 11
-16.3682118938
 21
-15.2028997688
  0
LINE
  5
377
100
AcDbEntity
  8
SUPERFICI
100
AcDbLine
 62
250
  6
CONTINUOUS
 10
-16.3682118938
 20
-15.2028997688
 11
-16.3818478324
 21
-14.7790398674
  0
LINE
  5
378
100
AcDbEntity
  8
SUPERFICI
100
AcDbLine
 62
250
  6
CONTINUOUS
 10
-16.3818478324
 20
-14.7790398674
 11
-16.3967172556
 21
-14.2962886543
  0
LINE
  5
379
100
AcDbEntity
  8
SUPERFICI
100
AcDbLine
 62
250
  6
CONTINUOUS
 10
-16.3967172556
 20
-14.2962886543
 11
-16.4128011089
 21
-13.7520208787
  0
LINE
  5
37A
100
AcDbEntity
  8
SUPERFICI
100
AcDbLine
 62
250
  6
CONTINUOUS
 10
-16.4128011089
 20
-13.7520208787
 11
-16.4257221313
 21
-13.3023155488
  0
LINE
  5
37B
100
AcDbEntity
  8
SUPERFICI
100
AcDbLine
 62
250
  6
CONTINUOUS
 10
-16.4257221313
 20
-13.3023155488
 11
-16.439522046
 21
-12.8152683223
  0
LINE
  5
37C
100
AcDbEntity
  8
SUPERFICI
100
AcDbLine
 62
250
  6
CONTINUOUS
 10
-16.439522046
 20
-12.8152683223
 11
-16.4593828217
 21
-12.1028498942
  0
LINE
  5
37D
100
AcDbEntity
  8
SUPERFICI
100
AcDbLine
 62
250
  6
CONTINUOUS
 10
-16.4593828217
 20
-12.1028498942
 11
-16.4699936838
 21
-11.7173271002
  0
LWPOLYLINE
  5
37E
100
AcDbEntity
  8
SUPERFICI
100
AcDbPolyline
 62
250
  6
CONTINUOUS
 90
3
 70
0
 10
-16.4699936838
 20
-11.7173271002
 10
-16.4868409159
 20
-11.0996052688
 10
-16.4927180532
 20
-10.8827187132
  0
LINE
  5
37F
100
AcDbEntity
  8
SUPERFICI
100
AcDbLine
 62
250
  6
CONTINUOUS
 10
-16.4927180532
 20
-10.8827187132
 11
-16.5378755799
 21
-9.1994119434
  0
LINE
  5
380
100
AcDbEntity
  8
SUPERFICI
100
AcDbLine
 62
250
  6
CONTINUOUS
 10
-16.5378755799
 20
-9.1994119434
 11
-16.6082439385
 21
-6.5473578944
  0
LINE
  5
381
100
AcDbEntity
  8
SUPERFICI
100
AcDbLine
 62
250
  6
CONTINUOUS
 10
-16.6082439385
 20
-6.5473578944
 11
-16.6852813895
 21
-3.6216719655
  0
LWPOLYLINE
  5
382
100
AcDbEntity
  8
SUPERFICI
100
AcDbPolyline
 62
250
  6
CONTINUOUS
 90
3
 70
0
 10
-16.6852813895
 20
-3.6216719655
 10
-16.7666523358
 20
-0.5112738479
 10
-16.7928483923
 20
0.4937923161
  0
LINE
  5
383
100
AcDbEntity
  8
SUPERFICI
100
AcDbLine
 62
250
  6
CONTINUOUS
 10
-16.7928484437
 20
0.493792332
 11
-16.8842282425
 21
4.3619278143
  0
LINE
  5
384
100
AcDbEntity
  8
SUPERFICI
100
AcDbLine
 62
250
  6
CONTINUOUS
 10
-16.8842282425
 20
4.3619278143
 11
-17.0060646838
 21
9.5775900521
  0
LINE
  5
385
100
AcDbEntity
  8
SUPERFICI
100
AcDbLine
 62
250
  6
CONTINUOUS
 10
-17.0060646838
 20
9.5775900521
 11
-17.0524290531
 21
11.5918238234
  0
LINE
  5
386
100
AcDbEntity
  8
SUPERFICI
100
AcDbLine
 62
250
  6
CONTINUOUS
 10
-17.0524290531
 20
11.5918238234
 11
-17.0763214851
 21
12.6489853329
  0
LINE
  5
387
100
AcDbEntity
  8
SUPERFICI
100
AcDbLine
 62
250
  6
CONTINUOUS
 10
-17.0763214851
 20
12.6489853329
 11
-17.0967937129
 21
13.5749280615
  0
LINE
  5
388
100
AcDbEntity
  8
SUPERFICI
100
AcDbLine
 62
250
  6
CONTINUOUS
 10
-17.0967937129
 20
13.5749280615
 11
-17.1174097131
 21
14.5370442248
  0
LINE
  5
389
100
AcDbEntity
  8
SUPERFICI
100
AcDbLine
 62
250
  6
CONTINUOUS
 10
-17.1174097131
 20
14.5370442248
 11
-17.1289810563
 21
15.0983945217
  0
LINE
  5
38A
100
AcDbEntity
  8
SUPERFICI
100
AcDbLine
 62
250
  6
CONTINUOUS
 10
-17.1289810563
 20
15.0983945217
 11
-17.1387272058
 21
15.599031627
  0
LINE
  5
38B
100
AcDbEntity
  8
SUPERFICI
100
AcDbLine
 62
250
  6
CONTINUOUS
 10
-17.1387272058
 20
15.599031627
 11
-17.146745936
 21
16.0405774559
  0
LINE
  5
38C
100
AcDbEntity
  8
SUPERFICI
100
AcDbLine
 62
250
  6
CONTINUOUS
 10
-17.146745936
 20
16.0405774559
 11
-17.1532582264
 21
16.4285940745
  0
LINE
  5
38D
100
AcDbEntity
  8
SUPERFICI
100
AcDbLine
 62
250
  6
CONTINUOUS
 10
-17.1532582264
 20
16.4285940745
 11
-17.1585206351
 21
16.7707125895
  0
LINE
  5
38E
100
AcDbEntity
  8
SUPERFICI
100
AcDbLine
 62
250
  6
CONTINUOUS
 10
-17.1585206351
 20
16.7707125895
 11
-17.1626945274
 21
17.0734277784
  0
LINE
  5
38F
100
AcDbEntity
  8
SUPERFICI
100
AcDbLine
 62
250
  6
CONTINUOUS
 10
-17.1626945274
 20
17.0734277784
 11
-17.1659083282
 21
17.3431724278
  0
LINE
  5
390
100
AcDbEntity
  8
SUPERFICI
100
AcDbLine
 62
250
  6
CONTINUOUS
 10
-17.1659083282
 20
17.3431724278
 11
-17.1682930947
 21
17.5865125976
  0
LINE
  5
391
100
AcDbEntity
  8
SUPERFICI
100
AcDbLine
 62
250
  6
CONTINUOUS
 10
-17.1682930947
 20
17.5865125976
 11
-17.1692179185
 21
17.699839065
  0
LWPOLYLINE
  5
392
100
AcDbEntity
  8
SUPERFICI
100
AcDbPolyline
 62
250
  6
CONTINUOUS
 90
91
 70
0
 10
-15.9548718779
 20
16.9382339605
 10
-15.9552794911
 20
16.9922427558
 10
-15.9533733277
 20
17.0450837209
 10
-15.9492023881
 20
17.0966966795
 10
-15.9427709946
 20
17.1473189699
 10
-15.9341555654
 20
17.1965933216
 10
-15.9236341214
 20
17.2436273243
 10
-15.9114238443
 20
17.288228082
 10
-15.8976641528
 20
17.3306319699
 10
-15.8826604919
 20
17.3706798268
 10
-15.8666514194
 20
17.4083694561
 10
-15.8497744162
 20
17.4438333019
 10
-15.8322041506
 20
17.4771462451
 10
-15.8141427298
 20
17.5083295465
 10
-15.7957125838
 20
17.5375146922
 10
-15.776937718
 20
17.5649319281
 10
-15.7579336269
 20
17.5906523429
 10
-15.7388233165
 20
17.6147358892
 10
-15.7196002044
 20
17.6373721781
 10
-15.700359695
 20
17.6586122868
 10
-15.6811855184
 20
17.6785177968
 10
-15.6620196358
 20
17.6972714303
 10
-15.6429293497
 20
17.7149159371
 10
-15.6239763734
 20
17.7314979715
 10
-15.6050644815
 20
17.7471830534
 10
-15.5862391381
 20
17.7620039675
 10
-15.5675445058
 20
17.7759940978
 10
-15.5488571173
 20
17.7892978028
 10
-15.5301837414
 20
17.8019523853
 10
-15.5115761363
 20
17.8139642394
 10
-15.4929607428
 20
17.8254147659
 10
-15.474283345
 20
17.8363640364
 10
-15.4556387319
 20
17.8467820474
 10
-15.4371764688
 20
17.8566162165
 10
-15.4189005407
 20
17.8659009941
 10
-15.400856409
 20
17.8746477025
 10
-15.3832684991
 20
17.8827856607
 10
-15.3662208477
 20
17.8903249032
 10
-15.3496883867
 20
17.8973199673
 10
-15.3337389806
 20
17.90377727
 10
-15.3184617715
 20
17.9097059151
 10
-15.3038189265
 20
17.9151583246
 10
-15.2896831635
 20
17.9202003839
 10
-15.2761182532
 20
17.9248359769
 10
-15.263095353
 20
17.929104812
 10
-15.2503367207
 20
17.9331105758
 10
-15.2378406765
 20
17.9368664159
 10
-15.2256260048
 20
17.9403798865
 10
-15.2134339285
 20
17.9437291074
 10
-15.2012503663
 20
17.9469212499
 10
-15.1890953122
 20
17.9499538652
 10
-15.1767524045
 20
17.9528769739
 10
-15.1642264218
 20
17.9556851736
 10
-15.1515113899
 20
17.9583768658
 10
-15.138367268
 20
17.9609949502
 10
-15.1247759906
 20
17.9635247947
 10
-15.1107467375
 20
17.9659592531
 10
-15.0960727514
 20
17.9683391947
 10
-15.080665815
 20
17.9706622719
 10
-15.0645970073
 20
17.9728923097
 10
-15.0478952478
 20
17.9750135127
 10
-15.030610344
 20
17.9770026134
 10
-15.0126782204
 20
17.9788457738
 10
-14.9939551663
 20
17.9805367086
 10
-14.9744250656
 20
17.9820493553
 10
-14.9540851043
 20
17.9833565845
 10
-14.9328071841
 20
17.9844394138
 10
-14.910561019
 20
17.9852641811
 10
-14.887355172
 20
17.9857947487
 10
-14.863116981
 20
17.9859990408
 10
-14.8376158734
 20
17.9858326434
 10
-14.8110592536
 20
17.9852499287
 10
-14.7840415761
 20
17.9842411876
 10
-14.7565235015
 20
17.9827923493
 10
-14.7285479001
 20
17.9808864452
 10
-14.7008549005
 20
17.9785744974
 10
-14.6736200252
 20
17.975900129
 10
-14.6466950376
 20
17.9728666455
 10
-14.6203483139
 20
17.9695120252
 10
-14.594832359
 20
17.9659076593
 10
-14.5699232379
 20
17.9620506832
 10
-14.5451733967
 20
17.9578590857
 10
-14.5206894933
 20
17.9533525053
 10
-14.4963816012
 20
17.9485344858
 10
-14.4714987518
 20
17.9432495939
 10
-14.4459215834
 20
17.9374518075
 10
-14.4197763797
 20
17.9311435682
 10
-14.3926752227
 20
17.9241953631
 10
-14.364491683
 20
17.9165312484
 10
-14.3353627219
 20
17.9081471315
 10
-14.3052961339
 20
17.8990037059
  0
LWPOLYLINE
  5
393
100
AcDbEntity
  8
SUPERFICI
100
AcDbPolyline
 62
250
  6
CONTINUOUS
 90
78
 70
0
 10
-17.1692250841
 20
17.6998309095
 10
-17.1678106873
 20
17.8030942144
 10
-17.1618729087
 20
17.9040328015
 10
-17.1514956454
 20
18.0025564056
 10
-17.1364246685
 20
18.0992726938
 10
-17.1169686182
 20
18.1935339601
 10
-17.0943965634
 20
18.2833458037
 10
-17.0696978422
 20
18.367939909
 10
-17.04306271
 20
18.4472570703
 10
-17.0149112792
 20
18.5206880662
 10
-16.9856862349
 20
18.5888105936
 10
-16.9553509802
 20
18.6527326295
 10
-16.9234228609
 20
18.7130552305
 10
-16.8900376939
 20
18.7696774365
 10
-16.8557519841
 20
18.8225964045
 10
-16.8207772914
 20
18.872126383
 10
-16.7853424965
 20
18.9184049913
 10
-16.749629202
 20
18.9615826133
 10
-16.71365588
 20
19.0020655857
 10
-16.6776078967
 20
19.0399411926
 10
-16.6416429502
 20
19.0752952867
 10
-16.6056904963
 20
19.1084720541
 10
-16.5698798572
 20
19.1395501586
 10
-16.5343186088
 20
19.1686118611
 10
-16.4988444883
 20
19.1959759245
 10
-16.4635433054
 20
19.2217047753
 10
-16.4284931602
 20
19.2458550404
 10
-16.3934755283
 20
19.2686976961
 10
-16.3585053687
 20
19.2903006455
 10
-16.3236795715
 20
19.3106730929
 10
-16.2888722243
 20
19.3299688688
 10
-16.2539805327
 20
19.3482926061
 10
-16.2191776819
 20
19.3655987973
 10
-16.1847479019
 20
19.3818194728
 10
-16.1507049519
 20
19.3970048581
 10
-16.1171425352
 20
19.4111774501
 10
-16.0844854836
 20
19.4242550931
 10
-16.0528872912
 20
19.436257775
 10
-16.022226056
 20
19.4473140862
 10
-15.992502431
 20
19.4575258721
 10
-15.9637823658
 20
19.4669070371
 10
-15.9358981269
 20
19.4755912518
 10
-15.9084745609
 20
19.4838426289
 10
-15.881564092
 20
19.4916860515
 10
-15.8552454305
 20
19.4990987502
 10
-15.8291706289
 20
19.5062415671
 10
-15.8033993884
 20
19.5131080165
 10
-15.77795795
 20
19.5196986713
 10
-15.7523947782
 20
19.5261665556
 10
-15.726681786
 20
19.5325206932
 10
-15.7008901875
 20
19.5387309374
 10
-15.674690535
 20
19.5448659451
 10
-15.6480930473
 20
19.5509498935
 10
-15.6212066202
 20
19.5569029194
 10
-15.5938521254
 20
19.562615438
 10
-15.5661524445
 20
19.5680906158
 10
-15.5382844386
 20
19.5732702952
 10
-15.5101941075
 20
19.57793639
 10
-15.482042439
 20
19.581934309
 10
-15.4535848298
 20
19.5854423491
 10
-15.424154544
 20
19.5887244619
 10
-15.3933457304
 20
19.5918793105
 10
-15.3611603323
 20
19.5947959537
 10
-15.3274969284
 20
19.5974057404
 10
-15.2924858506
 20
19.5996381305
 10
-15.2561296401
 20
19.6014551561
 10
-15.2181410035
 20
19.6028186047
 10
-15.178403967
 20
19.6036869323
 10
-15.1369417743
 20
19.6039932255
 10
-15.0936753056
 20
19.6036461505
 10
-15.0482478948
 20
19.602563134
 10
-15.0010268618
 20
19.6006801396
 10
-14.95302882
 20
19.5979746896
 10
-14.9041589426
 20
19.5943909223
 10
-14.8545184654
 20
19.5899448416
 10
-14.8054658628
 20
19.5848293215
 10
-14.7574730854
 20
19.5790225863
 10
-14.7099461353
 20
19.5725996099
  0
LWPOLYLINE
  5
394
100
AcDbEntity
  8
SUPERFICI
100
AcDbPolyline
 62
250
  6
CONTINUOUS
 90
10
 70
0
 10
-14.3052948917
 20
17.8990046341
 10
-14.2577743476
 20
18.0791023975
 10
-14.2148490491
 20
18.2585920898
 10
-14.1766871999
 20
18.4367703665
 10
-14.143438338
 20
18.6129390213
 10
-14.1152327491
 20
18.7864077234
 10
-14.0921809566
 20
18.9564967214
 10
-14.0743732885
 20
19.122539508
 10
-14.0618795229
 20
19.2838854309
 10
-14.0547486154
 20
19.4399022432
  0
LWPOLYLINE
  5
395
100
AcDbEntity
  8
SUPERFICI
100
AcDbPolyline
 62
250
  6
CONTINUOUS
 90
8
 70
0
 10
-14.3052961339
 20
17.8990037059
 10
-14.3340623038
 20
17.7989585529
 10
-14.3540393486
 20
17.698625919
 10
-14.3656481687
 20
17.5993124498
 10
-14.3657268627
 20
17.5011476946
 10
-14.3590892395
 20
17.4066153965
 10
-14.355975286
 20
17.3200348537
 10
-14.3649646485
 20
17.1761450102
  0
LWPOLYLINE
  5
396
100
AcDbEntity
  8
SUPERFICI
100
AcDbPolyline
 62
250
  6
CONTINUOUS
 90
13
 70
0
 10
-2.4802946829
 20
29.3299428482
 10
-2.5243112655
 20
29.266643045
 10
-2.5675295461
 20
29.1967988924
 10
-2.6095327195
 20
29.1210823862
 10
-2.6499303884
 20
29.0402265653
 10
-2.6883194997
 20
28.9550052945
 10
-2.7242880853
 20
28.8662257726
 10
-2.7574763756
 20
28.7747383284
 10
-2.7875792794
 20
28.6814279357
 10
-2.8143064952
 20
28.5871925323
 10
-2.8374007496
 20
28.4929391243
 10
-2.8566402705
 20
28.3995750555
 10
-2.8718400756
 20
28.3079990141
  0
LWPOLYLINE
  5
397
100
AcDbEntity
  8
RACCORDO
100
AcDbPolyline
 62
7
  6
CONTINUOUS
 90
19
 70
0
 10
-2.1610121882
 20
-17.622046029
 10
-2.1841437779
 20
-17.615706052
 10
-2.2078298138
 20
-17.6106785926
 10
-2.2320702956
 20
-17.6069636507
 10
-2.257110478
 20
-17.6045516694
 10
-2.2827051063
 20
-17.6034522057
 10
-2.3081184176
 20
-17.6036939302
 10
-2.333251751
 20
-17.6053143157
 10
-2.3582037672
 20
-17.6082758894
 10
-2.3825346857
 20
-17.6124949039
 10
-2.4062201839
 20
-17.6179708175
 10
-2.4292845844
 20
-17.6247041718
 10
-2.4513610742
 20
-17.6326128444
 10
-2.4725256336
 20
-17.641767514
 10
-2.4927022824
 20
-17.6520975019
 10
-2.5112962665
 20
-17.6633086489
 10
-2.5281093345
 20
-17.675302902
 10
-2.5433397377
 20
-17.6881783142
 10
-2.5569874761
 20
-17.7019348856
  0
LINE
  5
398
100
AcDbEntity
  8
DRAFT
100
AcDbLine
 62
7
  6
CONTINUOUS
 10
-0.2086151239
 20
-20.3832095423
 11
-3.9423819631
 21
-19.2366059185
  0
LINE
  5
399
100
AcDbEntity
  8
DRAFT
100
AcDbLine
 62
7
  6
CONTINUOUS
 10
-0.1168638019
 20
-20.2696411375
 11
-3.8421979885
 21
-19.1256270997
  0
LINE
  5
39A
100
AcDbEntity
  8
DRAFT
100
AcDbLine
 62
7
  6
CONTINUOUS
 10
0.0207631811
 20
-20.0992885304
 11
-3.6919220266
 21
-18.9591588714
  0
LINE
  5
39B
100
AcDbEntity
  8
DRAFT
100
AcDbLine
 62
7
  6
CONTINUOUS
 10
0.112514503
 20
-19.9857201256
 11
-3.591738052
 21
-18.8481800526
  0
LINE
  5
39C
100
AcDbEntity
  8
DRAFT
100
AcDbLine
 62
7
  6
CONTINUOUS
 10
0.2519735966
 20
-19.8159301419
 11
-3.4414620901
 21
-18.6817118243
  0
LINE
  5
39D
100
AcDbEntity
  8
DRAFT
100
AcDbLine
 62
7
  6
CONTINUOUS
 10
-11.7261301221
 20
-16.1325739875
 11
-4.1999721532
 21
-18.4437841866
  0
LINE
  5
39E
100
AcDbEntity
  8
DRAFT
100
AcDbLine
 62
7
  6
CONTINUOUS
 10
0.2533757574
 20
-19.8113641861
 11
6.5605705772
 21
-21.7482426115
  0
LINE
  5
39F
100
AcDbEntity
  8
DRAFT
100
AcDbLine
 62
7
  6
CONTINUOUS
 10
2.1726738805
 20
-20.2640142446
 11
-3.3412781155
 21
-18.5707330055
  0
LINE
  5
3A0
100
AcDbEntity
  8
DRAFT
100
AcDbLine
 62
7
  6
CONTINUOUS
 10
2.2949430335
 20
-20.0889453966
 11
-3.1910021536
 21
-18.4042647773
  0
LINE
  5
3A1
100
AcDbEntity
  8
DRAFT
100
AcDbLine
 62
7
  6
CONTINUOUS
 10
2.3764558021
 20
-19.9722328313
 11
-3.090818179
 21
-18.2932859584
  0
LINE
  5
3A2
100
AcDbEntity
  8
DRAFT
100
AcDbLine
 62
7
  6
CONTINUOUS
 10
2.4987249551
 20
-19.7971639834
 11
-2.9405422171
 21
-18.1268177302
  0
LINE
  5
3A3
100
AcDbEntity
  8
DRAFT
100
AcDbLine
 62
7
  6
CONTINUOUS
 10
2.5802377238
 20
-19.6804514181
 11
-2.8403582425
 21
-18.0158389113
  0
LINE
  5
3A4
100
AcDbEntity
  8
DRAFT
100
AcDbLine
 62
7
  6
CONTINUOUS
 10
2.7025068768
 20
-19.5053825701
 11
-2.6900822806
 21
-17.8493706831
  0
LINE
  5
3A5
100
AcDbEntity
  8
RACCORDO
100
AcDbLine
 62
7
  6
CONTINUOUS
 10
2.6731028284
 20
-19.1065559178
 11
-2.1610121882
 21
-17.622046029
  0
LINE
  5
3A6
100
AcDbEntity
  8
DRAFT
100
AcDbLine
 62
7
  6
CONTINUOUS
 10
2.1726738805
 20
-20.2640142446
 11
2.2367016681
 21
-20.292782353
  0
LINE
  5
3A7
100
AcDbEntity
  8
DRAFT
100
AcDbLine
 62
7
  6
CONTINUOUS
 10
2.3764558021
 20
-19.9722328313
 11
2.4404835897
 21
-20.0010009398
  0
LINE
  5
3A8
100
AcDbEntity
  8
DRAFT
100
AcDbLine
 62
7
  6
CONTINUOUS
 10
2.5802377238
 20
-19.6804514181
 11
2.6442655114
 21
-19.7092195265
  0
LWPOLYLINE
  5
3A9
100
AcDbEntity
  8
SUPERFICI
100
AcDbPolyline
 62
250
  6
CONTINUOUS
 90
10
 70
0
 10
-3.1780053154
 20
-22.6029124096
 10
-3.1247819404
 20
-22.6622205118
 10
-3.0761218702
 20
-22.7326516253
 10
-3.0322253845
 20
-22.8139158631
 10
-2.9932731567
 20
-22.9056787503
 10
-2.9594255099
 20
-23.0075626004
 10
-2.9308217574
 20
-23.1191480705
 10
-2.9075796292
 20
-23.2399758865
 10
-2.8897947874
 20
-23.369548734
 10
-2.8775404326
 20
-23.5073333048
  0
LWPOLYLINE
  5
3AA
100
AcDbEntity
  8
SUPERFICI
100
AcDbPolyline
 62
250
  6
CONTINUOUS
 90
10
 70
0
 10
-4.0686748976
 20
-22.3293964097
 10
-4.0154930864
 20
-22.3886917508
 10
-3.9668641251
 20
-22.4591134001
 10
-3.9229883136
 20
-22.5403715145
 10
-3.8840462791
 20
-22.6321318395
 10
-3.850198454
 20
-22.7340165836
 10
-3.8215843201
 20
-22.8456057883
 10
-3.7983215797
 20
-22.9664398237
 10
-3.780505768
 20
-23.0960214638
 10
-3.7682100147
 20
-23.2338173049
  0
LWPOLYLINE
  5
3AB
100
AcDbEntity
  8
SUPERFICI
100
AcDbPolyline
 62
250
  6
CONTINUOUS
 90
22
 70
0
 10
-4.0686748976
 20
-22.3293964097
 10
-4.0970286704
 20
-22.294944721
 10
-4.1211594649
 20
-22.2506501111
 10
-4.1407992581
 20
-22.1970046269
 10
-4.1557299084
 20
-22.1346042052
 10
-4.1657855968
 20
-22.0641419799
 10
-4.1708546487
 20
-21.9864005514
 10
-4.1708807581
 20
-21.9022434095
 10
-4.1658636318
 20
-21.8126053718
 10
-4.1558589985
 20
-21.7184821069
 10
-4.140977986
 20
-21.6209191033
 10
-4.1213858875
 20
-21.5210000571
 10
-4.0973003254
 20
-21.4198348347
 10
-4.0689888336
 20
-21.3185471442
 10
-4.0367658864
 20
-21.2182620543
 10
-4.0009894053
 20
-21.1200934972
 10
-3.9620567829
 20
-21.0251318952
 10
-3.9204004694
 20
-20.9344320489
 10
-3.8764831688
 20
-20.849001421
 10
-3.8307926991
 20
-20.7697889451
 10
-3.7838365744
 20
-20.6976744863
 10
-3.736136367
 20
-20.6334590668
  0
LWPOLYLINE
  5
3AC
100
AcDbEntity
  8
SUPERFICI
100
AcDbPolyline
 62
250
  6
CONTINUOUS
 90
22
 70
0
 10
-3.1780052542
 20
-22.6029124284
 10
-3.2063590522
 20
-22.5684607344
 10
-3.2304898662
 20
-22.5241661218
 10
-3.250129673
 20
-22.4705206367
 10
-3.2650603286
 20
-22.4081202157
 10
-3.2751160156
 20
-22.3376579918
 10
-3.2801850662
 20
-22.2599165644
 10
-3.2802111764
 20
-22.1757594231
 10
-3.2751940509
 20
-22.086121386
 10
-3.2651894182
 20
-21.9919981214
 10
-3.250308367
 20
-21.89443513
 10
-3.2307162298
 20
-21.7945160959
 10
-3.206630747
 20
-21.693350849
 10
-3.1783197336
 20
-21.5920630115
 10
-3.1460973831
 20
-21.4917777382
 10
-3.1103208926
 20
-21.3936091833
 10
-3.0713888168
 20
-21.2986474129
 10
-3.0297324439
 20
-21.207947584
 10
-2.9858102688
 20
-21.1225184509
 10
-2.9401087066
 20
-21.0433093783
 10
-2.8931366742
 20
-20.9711998006
 10
-2.845415744
 20
-20.9069907409
  0
LWPOLYLINE
  5
3AD
100
AcDbEntity
  8
SUPERFICI
100
AcDbPolyline
 62
250
  6
CONTINUOUS
 90
7
 70
0
 10
-14.3649646485
 20
17.1761450102
 10
-14.3593693705
 20
17.1147126266
 10
-14.3419353395
 20
17.0597094991
 10
-14.3175117467
 20
17.0131907281
 10
-14.2890664328
 20
16.9764873375
 10
-14.2574603683
 20
16.9501741949
 10
-14.2246017395
 20
16.9350003431
  0
LWPOLYLINE
  5
3AE
100
AcDbEntity
  8
DRAFT
100
AcDbPolyline
 62
7
  6
CONTINUOUS
 90
25
 70
0
 10
-12.6368125608
 20
-16.6062369249
 10
-12.635833397
 20
-16.6218291288
 10
-12.6337335627
 20
-16.6375720757
 10
-12.630513058
 20
-16.6534657658
 10
-12.6261485611
 20
-16.6695793513
 10
-12.6206633938
 20
-16.6858436799
 10
-12.6141275213
 20
-16.7020512944
 10
-12.6065274842
 20
-16.7182014684
 10
-12.5978767419
 20
-16.7342949282
 10
-12.5882856376
 20
-16.7501263963
 10
-12.5777421255
 20
-16.7656925165
 10
-12.5662582513
 20
-16.780996645
 10
-12.5539804961
 20
-16.7958435722
 10
-12.5408986902
 20
-16.8102274414
 10
-12.5270230031
 20
-16.8241541094
 10
-12.512530424
 20
-16.8374459366
 10
-12.4974130508
 20
-16.8500947908
 10
-12.4816787856
 20
-16.8621088043
 10
-12.4655283245
 20
-16.873334734
 10
-12.4489563362
 20
-16.8837624849
 10
-12.4319681519
 20
-16.893402152
 10
-12.4147804619
 20
-16.9021307781
 10
-12.3974654963
 20
-16.9099073775
 10
-12.379951025
 20
-16.9167729358
 10
-12.362237048
 20
-16.9227274531
  0
LWPOLYLINE
  5
3AF
100
AcDbEntity
  8
DRAFT
100
AcDbPolyline
 62
7
  6
CONTINUOUS
 90
25
 70
0
 10
-12.0086467151
 20
-15.8069301425
 10
-12.0076392326
 20
-15.8229732931
 10
-12.0054786684
 20
-15.8391715465
 10
-12.0021650225
 20
-15.8555249027
 10
-11.9976742987
 20
-15.872104514
 10
-11.9920304932
 20
-15.8888392281
 10
-11.9853055948
 20
-15.9055155879
 10
-11.9774857547
 20
-15.9221328458
 10
-11.9685848217
 20
-15.9386917494
 10
-11.9587163303
 20
-15.9549810841
 10
-11.9478678861
 20
-15.9709973967
 10
-11.9360518834
 20
-15.9867441404
 10
-11.9234190395
 20
-16.00202046
 10
-11.9099588908
 20
-16.0168203294
 10
-11.8956819009
 20
-16.0311497747
 10
-11.8807701776
 20
-16.0448260188
 10
-11.8652155903
 20
-16.0578406943
 10
-11.8490262698
 20
-16.0702021686
 10
-11.8324087164
 20
-16.0817527668
 10
-11.8153574446
 20
-16.0924821018
 10
-11.79787794
 20
-16.1024005606
 10
-11.7801931597
 20
-16.1113816299
 10
-11.7623774228
 20
-16.1193831386
 10
-11.7443564103
 20
-16.1264472578
 10
-11.7261301221
 20
-16.1325739875
  0
LWPOLYLINE
  5
3B0
100
AcDbEntity
  8
DRAFT
100
AcDbPolyline
 62
7
  6
CONTINUOUS
 90
25
 70
0
 10
-12.544409638
 20
-16.4928686204
 10
-12.5434590903
 20
-16.5082574052
 10
-12.5413684179
 20
-16.523931664
 10
-12.5381465732
 20
-16.5398242774
 10
-12.5338073528
 20
-16.5558671907
 10
-12.5283693378
 20
-16.5719917057
 10
-12.5218558147
 20
-16.5881287748
 10
-12.5142946753
 20
-16.6042092965
 10
-12.5057182977
 20
-16.6201644116
 10
-12.4961634071
 20
-16.6359257978
 10
-12.4856709192
 20
-16.6514259625
 10
-12.4742857643
 20
-16.6665985315
 10
-12.4620566955
 20
-16.6813785336
 10
-12.4490360794
 20
-16.6957026786
 10
-12.4352796723
 20
-16.7095096283
 10
-12.4208463814
 20
-16.7227402592
 10
-12.4057980121
 20
-16.7353379156
 10
-12.390199004
 20
-16.7472486526
 10
-12.3741161543
 20
-16.7584214665
 10
-12.3576183322
 20
-16.7688085136
 10
-12.340776184
 20
-16.7783653149
 10
-12.3236618304
 20
-16.7870509468
 10
-12.3063485576
 20
-16.7948282161
 10
-12.2889105038
 20
-16.8016638193
 10
-12.2714223413
 20
-16.8075284853
  0
LWPOLYLINE
  5
3B1
100
AcDbEntity
  8
0
100
AcDbPolyline
 62
7
  6
CONTINUOUS
 90
40
 70
0
 10
-12.6352580097
 20
-16.6067143125
 10
-12.6348047648
 20
-16.6161729983
 10
-12.6339228744
 20
-16.6257182364
 10
-12.6326123383
 20
-16.6353500267
 10
-12.6308696442
 20
-16.6450842557
 10
-12.6286983045
 20
-16.654905037
 10
-12.6261088564
 20
-16.6647647115
 10
-12.6230992677
 20
-16.6746634681
 10
-12.6196715705
 20
-16.6846011179
 10
-12.6158423993
 20
-16.6945294345
 10
-12.6116098025
 20
-16.7044483725
 10
-12.6069757315
 20
-16.7143579774
 10
-12.6019626751
 20
-16.724210159
 10
-12.596568791
 20
-16.7340046381
 10
-12.5907959214
 20
-16.7437416938
 10
-12.5846720814
 20
-16.7533740732
 10
-12.578195565
 20
-16.7629012677
 10
-12.5713680782
 20
-16.772323786
 10
-12.564222754
 20
-16.7815959017
 10
-12.5567580475
 20
-16.7907168837
 10
-12.5489755036
 20
-16.799687463
 10
-12.5409128901
 20
-16.8084641065
 10
-12.5325688458
 20
-16.8170458715
 10
-12.5239447318
 20
-16.8254337007
 10
-12.5150824001
 20
-16.8335868888
 10
-12.5059806928
 20
-16.8415042954
 10
-12.4966407678
 20
-16.8491870609
 10
-12.4871079507
 20
-16.8565979018
 10
-12.4773813039
 20
-16.8637354964
 10
-12.4674617649
 20
-16.8706011662
 10
-12.4573974723
 20
-16.8771615932
 10
-12.4471877224
 20
-16.8834152935
 10
-12.4368332187
 20
-16.8893637508
 10
-12.4263842106
 20
-16.8949780979
 10
-12.4158402387
 20
-16.9002567109
 10
-12.4052017623
 20
-16.9052012138
 10
-12.3945204088
 20
-16.9097876113
 10
-12.3838133873
 20
-16.9140079053
 10
-12.3730634886
 20
-16.9178700939
 10
-12.3622707129
 20
-16.9213741774
  0
LINE
  5
3B2
100
AcDbEntity
  8
SUPERFICI
100
AcDbLine
 62
250
  6
CONTINUOUS
 10
-15.5189118389
 20
-0.2831209095
 11
-15.7982102379
 21
10.8150646673
  0
LINE
  5
3B3
100
AcDbEntity
  8
SUPERFICI
100
AcDbLine
 62
250
  6
CONTINUOUS
 10
-15.7982102379
 20
10.8150646673
 11
-15.9548711694
 21
16.9382345089
  0
LINE
  5
3B4
100
AcDbEntity
  8
SUPERFICI
100
AcDbLine
 62
250
  6
CONTINUOUS
 10
-13.3166207163
 20
-17.460556902
 11
-14.1718622144
 21
16.9188057497
  0
LINE
  5
3B5
100
AcDbEntity
  8
DRAFT
100
AcDbLine
 62
7
  6
CONTINUOUS
 10
-13.46540458
 20
16.7018583917
 11
-13.1132279841
 21
2.5449134148
  0
LINE
  5
3B6
100
AcDbEntity
  8
DRAFT
100
AcDbLine
 62
7
  6
CONTINUOUS
 10
-13.016787615
 20
-1.3318376661
 11
-12.6368125608
 21
-16.6062369249
  0
LINE
  5
3B7
100
AcDbEntity
  8
0
100
AcDbLine
 62
7
  6
CONTINUOUS
 10
-13.4638500288
 20
16.7013810017
 11
-12.6352580097
 21
-16.6067143125
  0
LINE
  5
3B8
100
AcDbEntity
  8
DRAFT
100
AcDbLine
 62
7
  6
CONTINUOUS
 10
-13.3694483932
 20
16.6723910723
 11
-13.0208250614
 21
2.6582817193
  0
LINE
  5
3B9
100
AcDbEntity
  8
DRAFT
100
AcDbLine
 62
7
  6
CONTINUOUS
 10
-12.9243846923
 20
-1.2184693616
 11
-12.544409638
 21
-16.4928686204
  0
LINE
  5
3BA
100
AcDbEntity
  8
DRAFT
100
AcDbLine
 62
7
  6
CONTINUOUS
 10
-12.8123659052
 20
16.5013165818
 11
-12.4850621384
 21
3.3442201973
  0
LINE
  5
3BB
100
AcDbEntity
  8
DRAFT
100
AcDbLine
 62
7
  6
CONTINUOUS
 10
-12.3886217693
 20
-0.5325308836
 11
-12.0086467151
 21
-15.8069301425
  0
LINE
  5
3BC
100
AcDbEntity
  8
SUPERFICI
100
AcDbLine
 62
250
  6
CONTINUOUS
 10
-15.1012200212
 20
-17.3689444781
 11
-15.1026305579
 21
-17.3087813465
  0
LINE
  5
3BD
100
AcDbEntity
  8
SUPERFICI
100
AcDbLine
 62
250
  6
CONTINUOUS
 10
-15.1070303711
 20
-17.1203438203
 11
-15.5189118241
 21
-0.2831208812
  0
LINE
  5
3BE
100
AcDbEntity
  8
SUPERFICI
100
AcDbLine
 62
250
  6
CONTINUOUS
 10
-15.1026305579
 20
-17.3087813465
 11
-15.1070303711
 21
-17.1203438203
  0
LINE
  5
3BF
100
AcDbEntity
  8
SUPERFICI
100
AcDbLine
 62
250
  6
CONTINUOUS
 10
-15.0985191357
 20
-17.4857704334
 11
-15.1012200212
 21
-17.3689444781
  0
LINE
  5
3C0
100
AcDbEntity
  8
DRAFT
100
AcDbLine
 62
7
  6
CONTINUOUS
 10
-13.0208250614
 20
2.6582817193
 11
-12.4850621384
 21
3.3442201973
  0
LINE
  5
3C1
100
AcDbEntity
  8
DRAFT
100
AcDbLine
 62
7
  6
CONTINUOUS
 10
-13.1132279841
 20
2.5449134148
 11
-13.0208250614
 21
2.6582817193
  0
LWPOLYLINE
  5
3C2
100
AcDbEntity
  8
SUPERFICI
100
AcDbPolyline
 62
250
  6
CONTINUOUS
 90
10
 70
0
 10
-15.5189118389
 20
-0.2831209095
 10
-15.6195494901
 20
-0.1739154233
 10
-15.7317711691
 20
-0.0694146149
 10
-15.8550670416
 20
0.0299079481
 10
-15.9888769587
 20
0.1236022252
 10
-16.1325930024
 20
0.211243747
 10
-16.2855622473
 20
0.2924355443
 10
-16.4470897271
 20
0.3668099514
 10
-16.6164415921
 20
0.4340302766
 10
-16.7928484437
 20
0.493792332
  0
LWPOLYLINE
  5
3C3
100
AcDbEntity
  8
SUPERFICI
100
AcDbPolyline
 62
250
  6
CONTINUOUS
 90
10
 70
0
 10
6.1281347421
 20
-25.4604554872
 10
6.1784458608
 20
-25.5179565199
 10
6.2244154357
 20
-25.5860485263
 10
6.2658633294
 20
-25.6644646817
 10
6.3026271227
 20
-25.7528977059
 10
6.3345627515
 20
-25.8510010665
 10
6.3615450713
 20
-25.9583903372
 10
6.3834683474
 20
-26.0746447043
 10
6.4002466693
 20
-26.1993086154
 10
6.4118142876
 20
-26.3318935645
  0
LWPOLYLINE
  5
3C4
100
AcDbEntity
  8
0
100
AcDbPolyline
 62
7
  6
CONTINUOUS
 90
16
 70
0
 10
-1.0607419703
 20
-26.2348908645
 10
-1.1228423343
 20
-26.100347175
 10
-1.1857439222
 20
-25.9629552011
 10
-1.249446734
 20
-25.8227149429
 10
-1.3136170725
 20
-25.6804593645
 10
-1.3785886349
 20
-25.5353555017
 10
-1.4453625131
 20
-25.3849044622
 10
-1.5146266804
 20
-25.2275655386
 10
-1.5856931636
 20
-25.0648794382
 10
-1.6574991346
 20
-24.8989693913
 10
-1.7305745285
 20
-24.728440647
 10
-1.8043894102
 20
-24.554687956
 10
-1.8762911472
 20
-24.384018801
 10
-1.9453955285
 20
-24.2185356762
 10
-2.012586765
 20
-24.0561360872
 10
-2.0778648567
 20
-23.8968200342
  0
LWPOLYLINE
  5
3C5
100
AcDbEntity
  8
SUPERFICI
100
AcDbPolyline
 62
250
  6
CONTINUOUS
 90
15
 70
0
 10
-4.998359478
 20
15.0424583445
 10
-5.02333661
 20
14.9411755501
 10
-5.0438711928
 20
14.8409089599
 10
-5.0597351497
 20
14.7427723027
 10
-5.0707522837
 20
14.6478556791
 10
-5.0768002421
 20
14.5572133393
 10
-5.0778118554
 20
14.4718519912
 10
-5.0737758821
 20
14.3927197682
 10
-5.0647371533
 20
14.3206956788
 10
-5.050796068
 20
14.2565797415
 10
-5.0321075184
 20
14.2010841463
 10
-5.0088790516
 20
14.1548253069
 10
-4.9813685633
 20
14.1183170145
 10
-4.9498813491
 20
14.0919647039
 10
-4.9169468171
 20
14.0767099373
  0
LWPOLYLINE
  5
3C6
100
AcDbEntity
  8
SUPERFICI
100
AcDbPolyline
 62
250
  6
CONTINUOUS
 90
15
 70
0
 10
-4.1076898346
 20
14.7689423257
 10
-4.1326669956
 20
14.667659532
 10
-4.1532015996
 20
14.5673929425
 10
-4.1690655698
 20
14.4692562863
 10
-4.1800827076
 20
14.3743396638
 10
-4.1861306629
 20
14.283697325
 10
-4.1871422731
 20
14.198335978
 10
-4.183106299
 20
14.1192037564
 10
-4.1740675694
 20
14.0471796683
 10
-4.1601264834
 20
13.9830637325
 10
-4.1414378938
 20
13.9275681267
 10
-4.1182093869
 20
13.8813092768
 10
-4.090698977
 20
13.8448010101
 10
-4.0592122402
 20
13.8184488478
 10
-4.0262782834
 20
13.8031942593
  0
LWPOLYLINE
  5
3C7
100
AcDbEntity
  8
SUPERFICI
100
AcDbPolyline
 62
250
  6
CONTINUOUS
 90
10
 70
0
 10
-4.9983594167
 20
15.0424583256
 10
-4.9512156391
 20
15.2275404813
 10
-4.908895931
 20
15.4119819578
 10
-4.871574476
 20
15.5950236133
 10
-4.8394048851
 20
15.7759120679
 10
-4.812519565
 20
15.9539028039
 10
-4.7910291729
 20
16.1282632303
 10
-4.775022161
 20
16.298275698
 10
-4.7645644125
 20
16.4632404538
 10
-4.7596989703
 20
16.6224785202
  0
LWPOLYLINE
  5
3C8
100
AcDbEntity
  8
SUPERFICI
100
AcDbPolyline
 62
250
  6
CONTINUOUS
 90
10
 70
0
 10
-4.1076898346
 20
14.7689423257
 10
-4.0605044876
 20
14.9540117273
 10
-4.0181535478
 20
15.1384438934
 10
-3.9808112194
 20
15.321479675
 10
-3.9486310812
 20
15.5023660112
 10
-3.9217456372
 20
15.6803580197
 10
-3.9002656729
 20
15.8547221226
 10
-3.8842795972
 20
16.0247404037
 10
-3.8738531783
 20
16.1897135013
 10
-3.8690293882
 20
16.3489625203
  0
LINE
  5
3C9
100
AcDbEntity
  8
DRAFT
100
AcDbLine
 62
7
  6
CONTINUOUS
 10
-12.3886217693
 20
-0.5325308836
 11
-12.9243846923
 21
-1.2184693616
  0
LINE
  5
3CA
100
AcDbEntity
  8
DRAFT
100
AcDbLine
 62
7
  6
CONTINUOUS
 10
-12.9243846923
 20
-1.2184693616
 11
-13.016787615
 21
-1.3318376661
  0
LWPOLYLINE
  5
3CB
100
AcDbEntity
  8
SUPERFICI
100
AcDbPolyline
 62
250
  6
CONTINUOUS
 90
10
 70
0
 10
7.3256818034
 20
-7.2986378009
 10
7.5267112194
 20
-7.2820194839
 10
7.7287322431
 20
-7.2739702749
 10
7.930827046
 20
-7.2745278791
 10
8.1320774646
 20
-7.2836908979
 10
8.3315691717
 20
-7.301418835
 10
8.5283958306
 20
-7.3276322801
 10
8.721663213
 20
-7.3622132703
 10
8.9104932616
 20
-7.4050058255
 10
9.0940280798
 20
-7.4558166574
  0
LWPOLYLINE
  5
3CC
100
AcDbEntity
  8
SUPERFICI
100
AcDbPolyline
 62
250
  6
CONTINUOUS
 90
18
 70
0
 10
7.3256816404
 20
-7.2986378372
 10
7.2222172799
 20
-7.3059849365
 10
7.1183609508
 20
-7.3065254357
 10
7.0152335616
 20
-7.3002534642
 10
6.9139481038
 20
-7.2872366699
 10
6.8155978224
 20
-7.2676155067
 10
6.7212443964
 20
-7.2416017586
 10
6.6319062342
 20
-7.2094762117
 10
6.5485475033
 20
-7.1715855842
 10
6.4720678934
 20
-7.1283388292
 10
6.4032928488
 20
-7.0802027462
 10
6.3429646567
 20
-7.0276968298
 10
6.2917344355
 20
-6.9713876624
 10
6.2501551059
 20
-6.9118827238
 10
6.2186754393
 20
-6.8498245085
 10
6.197635212
 20
-6.7858834799
 10
6.1872614896
 20
-6.7207488963
 10
6.1862298591
 20
-6.7003345508
  0
LWPOLYLINE
  5
3CD
100
AcDbEntity
  8
SUPERFICI
100
AcDbPolyline
 62
250
  6
CONTINUOUS
 90
10
 70
0
 10
32.1931754978
 20
-12.5038578238
 10
29.2436459332
 20
-12.0607895385
 10
26.4583455879
 20
-11.5911675497
 10
23.8512617065
 20
-11.1054968639
 10
21.4729989695
 20
-10.6227130575
 10
19.2132625696
 20
-10.1278335219
 10
16.9100831591
 20
-9.5864897412
 10
14.3226499173
 20
-8.9323201289
 10
11.5812943964
 20
-8.184601537
 10
9.0940280282
 20
-7.4558166418
  0
LWPOLYLINE
  5
3CE
100
AcDbEntity
  8
SUPERFICI
100
AcDbPolyline
 62
250
  6
CONTINUOUS
 90
10
 70
0
 10
-37.2699679072
 20
8.8276005599
 10
-34.9135607608
 20
7.6412670849
 10
-32.6226962168
 20
6.5520480139
 10
-30.4193214483
 20
5.5604734519
 10
-28.3583935304
 20
4.6800248147
 10
-26.3538292918
 20
3.8653789364
 10
-24.2633625135
 20
3.0574765383
 10
-21.8559105399
 20
2.1777652918
 10
-19.235210501
 20
1.2788485688
 10
-16.7928484437
 20
0.493792332
  0
LWPOLYLINE
  5
3CF
100
AcDbEntity
  8
SUPERFICI
100
AcDbPolyline
 62
250
  6
CONTINUOUS
 90
22
 70
0
 10
-15.5189118379
 20
-0.2831209503
 10
-15.4655723214
 20
-0.3386044685
 10
-15.4032736991
 20
-0.3901558337
 10
-15.3326883073
 20
-0.4372186365
 10
-15.2545778798
 20
-0.4792849318
 10
-15.169785461
 20
-0.5159006425
 10
-15.0792263445
 20
-0.5466704933
 10
-14.9838779913
 20
-0.5712623714
 10
-14.8847694439
 20
-0.589410878
 10
-14.7829703796
 20
-0.6009201365
 10
-14.6795795133
 20
-0.6056659656
 10
-14.5757127422
 20
-0.6035971061
 10
-14.4724911017
 20
-0.5947357738
 10
-14.3710286684
 20
-0.579177345
 10
-14.2724205182
 20
-0.5570899998
 10
-14.1777309109
 20
-0.5287127968
 10
-14.0879818515
 20
-0.4943511543
 10
-14.004141979
 20
-0.4543767902
 10
-13.9271160947
 20
-0.4092243951
 10
-13.8577355099
 20
-0.3593824237
 10
-13.7967490734
 20
-0.3053878346
 10
-13.7448150077
 20
-0.2478235285
  0
LWPOLYLINE
  5
3D0
100
AcDbEntity
  8
SUPERFICI
100
AcDbPolyline
 62
250
  6
CONTINUOUS
 90
22
 70
0
 10
6.1281335411
 20
-25.460457621
 10
6.1037085883
 20
-25.4270683702
 10
6.0791646934
 20
-25.3825266889
 10
6.0554129256
 20
-25.327524973
 10
6.02968228
 20
-25.2617029236
 10
6.0070635209
 20
-25.1871972202
 10
5.9979692012
 20
-25.108110911
 10
6.0068938081
 20
-25.0268239187
 10
6.0251918445
 20
-24.9413722204
 10
6.0436143997
 20
-24.8498421385
 10
6.0598024532
 20
-24.7527058454
 10
6.0782318615
 20
-24.6524862816
 10
6.1013991095
 20
-24.5511051459
 10
6.1295958035
 20
-24.4498507985
 10
6.1617458976
 20
-24.3496178137
 10
6.1974612962
 20
-24.2515092726
 10
6.2363345907
 20
-24.1566102943
 10
6.2779396583
 20
-24.0659749137
 10
6.3218154682
 20
-23.9806087898
 10
6.367472845
 20
-23.9014581451
 10
6.4144018063
 20
-23.8293998687
 10
6.462081246
 20
-23.7652331153
  0
LINE
  5
3D1
100
AcDbEntity
  8
0
100
AcDbLine
 62
7
  6
CONTINUOUS
 10
8.0027636677
 20
-28.1503216828
 11
8.1831896765
 21
-28.423163049
  0
LINE
  5
3D2
100
AcDbEntity
  8
0
100
AcDbLine
 62
7
  6
CONTINUOUS
 10
8.5928063298
 20
-29.044297826
 11
8.6184165371
 21
-29.0831046427
  0
LINE
  5
3D3
100
AcDbEntity
  8
0
100
AcDbLine
 62
7
  6
CONTINUOUS
 10
8.6046629324
 20
-29.1003398293
 11
8.5534547275
 21
-29.0227355929
  0
LINE
  5
3D4
100
AcDbEntity
  8
0
100
AcDbLine
 62
7
  6
CONTINUOUS
 10
8.2208080835
 20
-28.5182478495
 11
7.9890060117
 21
-28.1675619464
  0
LINE
  5
3D5
100
AcDbEntity
  8
0
100
AcDbLine
 62
7
  6
CONTINUOUS
 10
8.1831896765
 20
-28.423163049
 11
8.2346696631
 21
-28.5011797892
  0
LINE
  5
3D6
100
AcDbEntity
  8
0
100
AcDbLine
 62
7
  6
CONTINUOUS
 10
8.5438287518
 20
-28.2741502925
 11
8.708157128
 21
-28.5227918438
  0
LWPOLYLINE
  5
3D7
100
AcDbEntity
  8
0
100
AcDbPolyline
 62
7
  6
CONTINUOUS
 90
3
 70
0
 10
8.5534547275
 20
-29.0227355929
 10
8.502317012
 20
-28.9452082185
 10
8.4767752466
 20
-28.9064742114
  0
LINE
  5
3D8
100
AcDbEntity
  8
0
100
AcDbLine
 62
7
  6
CONTINUOUS
 10
8.2721747842
 20
-28.5961309101
 11
8.2208080835
 21
-28.5182478495
  0
LINE
  5
3D9
100
AcDbEntity
  8
0
100
AcDbLine
 62
7
  6
CONTINUOUS
 10
8.2346696631
 20
-28.5011797892
 11
8.2860505439
 21
-28.5790855537
  0
LWPOLYLINE
  5
3DA
100
AcDbEntity
  8
0
100
AcDbPolyline
 62
7
  6
CONTINUOUS
 90
3
 70
0
 10
8.4905697255
 20
-28.8893048587
 10
8.5160970205
 20
-28.9280163291
 10
8.5928063298
 20
-29.044297826
  0
LINE
  5
3DB
100
AcDbEntity
  8
0
100
AcDbLine
 62
7
  6
CONTINUOUS
 10
8.3234360157
 20
-28.6738778892
 11
8.2721747842
 21
-28.5961309101
  0
LINE
  5
3DC
100
AcDbEntity
  8
0
100
AcDbLine
 62
7
  6
CONTINUOUS
 10
8.4767752466
 20
-28.9064742114
 11
8.425693243
 21
-28.8289969402
  0
LINE
  5
3DD
100
AcDbEntity
  8
0
100
AcDbLine
 62
7
  6
CONTINUOUS
 10
8.425693243
 20
-28.8289969402
 11
8.3234360157
 21
-28.6738778892
  0
LWPOLYLINE
  5
3DE
100
AcDbEntity
  8
0
100
AcDbPolyline
 62
7
  6
CONTINUOUS
 90
3
 70
0
 10
8.2860505439
 20
-28.5790855537
 10
8.3373089387
 20
-28.6568288219
 10
8.4395178381
 20
-28.8118741453
  0
LINE
  5
3DF
100
AcDbEntity
  8
0
100
AcDbLine
 62
7
  6
CONTINUOUS
 10
8.4395178381
 20
-28.8118741453
 11
8.4905697255
 21
-28.8893048587
  0
LINE
  5
3E0
100
AcDbEntity
  8
0
100
AcDbLine
 62
7
  6
CONTINUOUS
 10
9.1699487294
 20
-29.2245252399
 11
9.1971058366
 21
-29.2657854201
  0
LINE
  5
3E1
100
AcDbEntity
  8
0
100
AcDbLine
 62
7
  6
CONTINUOUS
 10
8.708157128
 20
-28.5227918438
 11
8.8719199378
 21
-28.7714606165
  0
LINE
  5
3E2
100
AcDbEntity
  8
0
100
AcDbLine
 62
7
  6
CONTINUOUS
 10
9.1157032251
 20
-29.1420902123
 11
9.1699487294
 21
-29.2245252399
  0
LINE
  5
3E3
100
AcDbEntity
  8
0
100
AcDbLine
 62
7
  6
CONTINUOUS
 10
8.8719199378
 20
-28.7714606165
 11
8.9262107814
 21
-28.8539901349
  0
LWPOLYLINE
  5
3E4
100
AcDbEntity
  8
0
100
AcDbPolyline
 62
7
  6
CONTINUOUS
 90
3
 70
0
 10
8.9262107814
 20
-28.8539901349
 10
8.9803933533
 20
-28.93637062
 10
9.1157032251
 20
-29.1420902123
  0
LINE
  5
3E5
100
AcDbEntity
  8
0
100
AcDbLine
 62
7
  6
CONTINUOUS
 10
2.6727281109
 20
-27.3737872349
 11
2.5977248223
 21
-27.2014957027
  0
LINE
  5
3E6
100
AcDbEntity
  8
0
100
AcDbLine
 62
7
  6
CONTINUOUS
 10
2.5754210869
 20
-27.1009292226
 11
2.6864850662
 21
-27.3565478494
  0
LINE
  5
3E7
100
AcDbEntity
  8
0
100
AcDbLine
 62
7
  6
CONTINUOUS
 10
2.5977248223
 20
-27.2014957027
 11
2.5227807898
 21
-27.0278276505
  0
LINE
  5
3E8
100
AcDbEntity
  8
0
100
AcDbLine
 62
7
  6
CONTINUOUS
 10
2.4653426424
 20
-26.8441510749
 11
2.5754210869
 21
-27.1009292226
  0
LINE
  5
3E9
100
AcDbEntity
  8
0
100
AcDbLine
 62
7
  6
CONTINUOUS
 10
2.5227807898
 20
-27.0278276505
 11
2.4487741934
 21
-26.8547023047
  0
LINE
  5
3EA
100
AcDbEntity
  8
0
100
AcDbLine
 62
7
  6
CONTINUOUS
 10
2.4487741934
 20
-26.8547023047
 11
2.3935117009
 21
-26.7242816472
  0
LINE
  5
3EB
100
AcDbEntity
  8
0
100
AcDbLine
 62
7
  6
CONTINUOUS
 10
2.3728959736
 20
-26.625523632
 11
2.4653426424
 21
-26.8441510749
  0
LINE
  5
3EC
100
AcDbEntity
  8
0
100
AcDbLine
 62
7
  6
CONTINUOUS
 10
2.3935117009
 20
-26.7242816472
 11
2.3362538448
 21
-26.5880497905
  0
LINE
  5
3ED
100
AcDbEntity
  8
0
100
AcDbLine
 62
7
  6
CONTINUOUS
 10
2.7719040193
 20
-26.5483025352
 11
2.852964098
 21
-26.7422500301
  0
LINE
  5
3EE
100
AcDbEntity
  8
0
100
AcDbLine
 62
7
  6
CONTINUOUS
 10
2.2918400376
 20
-26.4313457266
 11
2.3728959736
 21
-26.625523632
  0
LINE
  5
3EF
100
AcDbEntity
  8
0
100
AcDbLine
 62
7
  6
CONTINUOUS
 10
2.3362538448
 20
-26.5880497905
 11
2.2747576851
 21
-26.4404150978
  0
LINE
  5
3F0
100
AcDbEntity
  8
0
100
AcDbLine
 62
7
  6
CONTINUOUS
 10
2.2233579858
 20
-26.265352125
 11
2.2918400376
 21
-26.4313457266
  0
LINE
  5
3F1
100
AcDbEntity
  8
0
100
AcDbLine
 62
7
  6
CONTINUOUS
 10
2.6980866001
 20
-26.3694604667
 11
2.7719040193
 21
-26.5483025352
  0
LINE
  5
3F2
100
AcDbEntity
  8
0
100
AcDbLine
 62
7
  6
CONTINUOUS
 10
2.2747576851
 20
-26.4404150978
 11
2.2068355505
 21
-26.2756668527
  0
LWPOLYLINE
  5
3F3
100
AcDbEntity
  8
0
100
AcDbPolyline
 62
7
  6
CONTINUOUS
 90
16
 70
0
 10
-2.0541925678
 20
-23.9041298527
 10
-1.9984876675
 20
-24.0400395819
 10
-1.9311301401
 20
-24.2028195823
 10
-1.8621321551
 20
-24.3680419989
 10
-1.7907378331
 20
-24.5375023142
 10
-1.7177030535
 20
-24.7094050456
 10
-1.6452954541
 20
-24.8783637451
 10
-1.5739637839
 20
-25.0431938388
 10
-1.503259294
 20
-25.2050799006
 10
-1.4341033743
 20
-25.3621892048
 10
-1.3670451266
 20
-25.5132886464
 10
-1.3015354492
 20
-25.6596113304
 10
-1.2368484275
 20
-25.8030238465
 10
-1.17274209
 20
-25.9441483912
 10
-1.1094584083
 20
-26.0823627681
 10
-1.0469973823
 20
-26.217666977
  0
LWPOLYLINE
  5
3F4
100
AcDbEntity
  8
0
100
AcDbPolyline
 62
7
  6
CONTINUOUS
 90
13
 70
0
 10
-1.5618159197
 20
-24.0561755833
 10
-1.5088908833
 20
-24.1855671271
 10
-1.454543211
 20
-24.3173611487
 10
-1.3987729026
 20
-24.4515576479
 10
-1.3412363436
 20
-24.5890078755
 10
-1.2822771486
 20
-24.7288605808
 10
-1.2229261617
 20
-24.8685620121
 10
-1.1631735334
 20
-25.0080570709
 10
-1.1030291132
 20
-25.1474008557
 10
-1.0435532935
 20
-25.28420491
 10
-0.9850995384
 20
-25.4176730819
 10
-0.9273143838
 20
-25.5486015234
 10
-0.8701978296
 20
-25.6769902346
  0
LINE
  5
3F5
100
AcDbEntity
  8
0
100
AcDbLine
 62
7
  6
CONTINUOUS
 10
2.2068355505
 20
-26.2756668527
 11
2.1569778915
 21
-26.1535376576
  0
LINE
  5
3F6
100
AcDbEntity
  8
0
100
AcDbLine
 62
7
  6
CONTINUOUS
 10
2.1458330187
 20
-26.0750657809
 11
2.2233579858
 21
-26.265352125
  0
LINE
  5
3F7
100
AcDbEntity
  8
0
100
AcDbLine
 62
7
  6
CONTINUOUS
 10
2.1569778915
 20
-26.1535376576
 11
2.1026023912
 21
-26.0189504041
  0
LINE
  5
3F8
100
AcDbEntity
  8
0
100
AcDbLine
 62
7
  6
CONTINUOUS
 10
2.1026023912
 20
-26.0189504041
 11
2.0434874501
 21
-25.8712273942
  0
LINE
  5
3F9
100
AcDbEntity
  8
0
100
AcDbLine
 62
7
  6
CONTINUOUS
 10
2.0571762417
 20
-25.8540734274
 11
2.1458330187
 21
-26.0750657809
  0
LWPOLYLINE
  5
3FA
100
AcDbEntity
  8
SUPERFICI
100
AcDbPolyline
 62
250
  6
CONTINUOUS
 90
13
 70
0
 10
-3.7682096644
 20
-23.2338225464
 10
-3.7223764421
 20
-23.8626637164
 10
-3.6696504975
 20
-24.4845904524
 10
-3.6045795914
 20
-25.1513197634
 10
-3.5192661836
 20
-25.9080974587
 10
-3.4120954549
 20
-26.7309079852
 10
-3.2884484554
 20
-27.5540709623
 10
-3.154987758
 20
-28.334484372
 10
-3.0125559317
 20
-29.074843627
 10
-2.8541230881
 20
-29.8114292061
 10
-2.6748988292
 20
-30.5584114568
 10
-2.4754266301
 20
-31.3040104701
 10
-2.2543010649
 20
-32.0460971271
  0
LWPOLYLINE
  5
3FB
100
AcDbEntity
  8
SUPERFICI
100
AcDbPolyline
 62
250
  6
CONTINUOUS
 90
13
 70
0
 10
-2.8775400855
 20
-23.5073384993
 10
-2.8317069131
 20
-24.1361790435
 10
-2.7789810286
 20
-24.7581052064
 10
-2.7139102068
 20
-25.4248338748
 10
-2.6285969135
 20
-26.1816108773
 10
-2.5214263099
 20
-27.0044208624
 10
-2.3977794409
 20
-27.8275834305
 10
-2.2643188892
 20
-28.6079964433
 10
-2.1218871955
 20
-29.3483554699
 10
-1.9634543865
 20
-30.0849413271
 10
-1.7842300041
 20
-30.831924468
 10
-1.5847575229
 20
-31.5775247871
 10
-1.3636314828
 20
-32.319613127
  0
LINE
  5
3FC
100
AcDbEntity
  8
DRAFT
100
AcDbLine
 62
7
  6
CONTINUOUS
 10
-4.1753013124
 20
-19.4355131652
 11
-4.1999721532
 21
-18.4437841866
  0
LWPOLYLINE
  5
3FD
100
AcDbEntity
  8
SUPERFICI
100
AcDbPolyline
 62
250
  6
CONTINUOUS
 90
9
 70
0
 10
-4.7596989703
 20
16.6224785202
 10
-4.7469779735
 20
17.3246983218
 10
-4.7274473821
 20
18.0371736858
 10
-4.6984799318
 20
18.8217466493
 10
-4.6548386883
 20
19.7401221966
 10
-4.5938477563
 20
20.7736618559
 10
-4.5173937805
 20
21.8475784824
 10
-4.4296568399
 20
22.9051828521
 10
-4.33155861
 20
23.9469594655
  0
LWPOLYLINE
  5
3FE
100
AcDbEntity
  8
SUPERFICI
100
AcDbPolyline
 62
250
  6
CONTINUOUS
 90
13
 70
0
 10
-3.8690293119
 20
16.3489682962
 10
-3.8563083055
 20
17.0511860786
 10
-3.8367777154
 20
17.763660328
 10
-3.8078102588
 20
18.5482328197
 10
-3.7641689721
 20
19.4666087281
 10
-3.7031779443
 20
20.5001493886
 10
-3.6267238535
 20
21.5740669469
 10
-3.5389868019
 20
22.631671997
 10
-3.4408884651
 20
23.6734491112
 10
-3.3275744997
 20
24.7505713817
 10
-3.1952278536
 20
25.8879954975
 10
-3.0437907718
 20
27.0733328691
 10
-2.8718400756
 20
28.3079990141
  0
LWPOLYLINE
  5
3FF
100
AcDbEntity
  8
SUPERFICI
100
AcDbPolyline
 62
250
  6
CONTINUOUS
 90
5
 70
0
 10
-4.33155861
 20
23.9469594655
 10
-4.2182446872
 20
25.0240819117
 10
-4.0858979707
 20
26.1615071124
 10
-3.9344606962
 20
27.346846304
 10
-3.7625096526
 20
28.581515049
  0
LINE
  5
400
100
AcDbEntity
  8
DRAFT
100
AcDbLine
 62
7
  6
CONTINUOUS
 10
-12.3886217693
 20
-0.5325308836
 11
-13.0401058941
 21
-0.3324664205
  0
LINE
  5
401
100
AcDbEntity
  8
0
100
AcDbLine
 62
7
  6
CONTINUOUS
 10
6.2239864088
 20
-28.4229247077
 11
6.1014288714
 21
-28.165649589
  0
LINE
  5
402
100
AcDbEntity
  8
0
100
AcDbLine
 62
7
  6
CONTINUOUS
 10
6.0260395062
 20
-27.9605375449
 11
6.2377502385
 21
-28.4056767076
  0
LINE
  5
403
100
AcDbEntity
  8
0
100
AcDbLine
 62
7
  6
CONTINUOUS
 10
6.1014288714
 20
-28.165649589
 11
6.0122831802
 21
-27.9777761417
  0
LINE
  5
404
100
AcDbEntity
  8
0
100
AcDbLine
 62
7
  6
CONTINUOUS
 10
6.3743115318
 20
-27.7889133793
 11
6.7469964501
 21
-28.5735634175
  0
LINE
  5
405
100
AcDbEntity
  8
0
100
AcDbLine
 62
7
  6
CONTINUOUS
 10
6.1882647657
 20
-27.3938071481
 11
6.3743115318
 21
-27.7889133793
  0
LINE
  5
406
100
AcDbEntity
  8
0
100
AcDbLine
 62
7
  6
CONTINUOUS
 10
5.8087268198
 20
-27.5464378264
 11
5.72306784
 21
-27.3633131614
  0
LINE
  5
407
100
AcDbEntity
  8
0
100
AcDbLine
 62
7
  6
CONTINUOUS
 10
5.6829437083
 20
-27.2302237887
 11
5.8224749193
 21
-27.5292095385
  0
LINE
  5
408
100
AcDbEntity
  8
0
100
AcDbLine
 62
7
  6
CONTINUOUS
 10
5.72306784
 20
-27.3633131614
 11
5.6431035227
 21
-27.1910436329
  0
LINE
  5
409
100
AcDbEntity
  8
0
100
AcDbLine
 62
7
  6
CONTINUOUS
 10
6.0653899876
 20
-27.1295818273
 11
6.1882647657
 21
-27.3938071481
  0
LINE
  5
40A
100
AcDbEntity
  8
0
100
AcDbLine
 62
7
  6
CONTINUOUS
 10
5.5925776713
 20
-27.0342162511
 11
5.6829437083
 21
-27.2302237887
  0
LINE
  5
40B
100
AcDbEntity
  8
0
100
AcDbLine
 62
7
  6
CONTINUOUS
 10
5.6431035227
 20
-27.1910436329
 11
5.5789076888
 21
-27.0515481976
  0
LINE
  5
40C
100
AcDbEntity
  8
0
100
AcDbLine
 62
7
  6
CONTINUOUS
 10
5.9844179659
 20
-26.9529779139
 11
6.0653899876
 21
-27.1295818273
  0
LINE
  5
40D
100
AcDbEntity
  8
0
100
AcDbLine
 62
7
  6
CONTINUOUS
 10
5.5789076888
 20
-27.0515481976
 11
5.5153244037
 21
-26.9120348899
  0
LINE
  5
40E
100
AcDbEntity
  8
0
100
AcDbLine
 62
7
  6
CONTINUOUS
 10
5.5153244037
 20
-26.9120348899
 11
5.4897581501
 21
-26.8555010254
  0
LWPOLYLINE
  5
40F
100
AcDbEntity
  8
0
100
AcDbPolyline
 62
7
  6
CONTINUOUS
 90
3
 70
0
 10
5.5034752734
 20
-26.838311555
 10
5.5162619688
 20
-26.8666115714
 10
5.5925776713
 20
-27.0342162511
  0
LINE
  5
410
100
AcDbEntity
  8
0
100
AcDbLine
 62
7
  6
CONTINUOUS
 10
5.912964684
 20
-26.7948227427
 11
5.9844179659
 21
-26.9529779139
  0
LINE
  5
411
100
AcDbEntity
  8
0
100
AcDbLine
 62
7
  6
CONTINUOUS
 10
5.861334872
 20
-26.6788993055
 11
5.912964684
 21
-26.7948227427
  0
LINE
  5
412
100
AcDbEntity
  8
0
100
AcDbLine
 62
7
  6
CONTINUOUS
 10
5.8097421654
 20
-26.5614845529
 11
5.861334872
 21
-26.6788993055
  0
LINE
  5
413
100
AcDbEntity
  8
0
100
AcDbLine
 62
7
  6
CONTINUOUS
 10
5.7583367903
 20
-26.4427837832
 11
5.8097421654
 21
-26.5614845529
  0
LWPOLYLINE
  5
414
100
AcDbEntity
  8
0
100
AcDbPolyline
 62
7
  6
CONTINUOUS
 90
3
 70
0
 10
5.6909075636
 20
-26.2843113077
 10
5.7076255485
 20
-26.3239053131
 10
5.7583367903
 20
-26.4427837832
  0
LINE
  5
415
100
AcDbEntity
  8
0
100
AcDbLine
 62
7
  6
CONTINUOUS
 10
2.6295918904
 20
-26.201391172
 11
2.6980866001
 21
-26.3694604667
  0
LINE
  5
416
100
AcDbEntity
  8
0
100
AcDbLine
 62
7
  6
CONTINUOUS
 10
2.5645964485
 20
-26.0398451285
 11
2.6295918904
 21
-26.201391172
  0
LINE
  5
417
100
AcDbEntity
  8
0
100
AcDbLine
 62
7
  6
CONTINUOUS
 10
2.5013082742
 20
-25.8804909784
 11
2.5645964485
 21
-26.0398451285
  0
LINE
  5
418
100
AcDbEntity
  8
0
100
AcDbLine
 62
7
  6
CONTINUOUS
 10
2.4383645763
 20
-25.719917915
 11
2.5013082742
 21
-25.8804909784
  0
LINE
  5
419
100
AcDbEntity
  8
0
100
AcDbLine
 62
7
  6
CONTINUOUS
 10
2.3757279919
 20
-25.5579877746
 11
2.4383645763
 21
-25.719917915
  0
LINE
  5
41A
100
AcDbEntity
  8
0
100
AcDbLine
 62
7
  6
CONTINUOUS
 10
2.3136263011
 20
-25.3952721784
 11
2.3757279919
 21
-25.5579877746
  0
LINE
  5
41B
100
AcDbEntity
  8
0
100
AcDbLine
 62
7
  6
CONTINUOUS
 10
2.252272868
 20
-25.2323809192
 11
2.3136263011
 21
-25.3952721784
  0
LINE
  5
41C
100
AcDbEntity
  8
0
100
AcDbLine
 62
7
  6
CONTINUOUS
 10
1.6336020223
 20
-26.7945933877
 11
1.6154311801
 21
-26.6278604595
  0
LINE
  5
41D
100
AcDbEntity
  8
0
100
AcDbLine
 62
7
  6
CONTINUOUS
 10
1.6288267919
 20
-26.607510339
 11
1.6470935879
 21
-26.7751344924
  0
LINE
  5
41E
100
AcDbEntity
  8
0
100
AcDbLine
 62
7
  6
CONTINUOUS
 10
1.0983048709
 20
-26.4706816312
 11
1.1162928566
 21
-26.6371405085
  0
LINE
  5
41F
100
AcDbEntity
  8
0
100
AcDbLine
 62
7
  6
CONTINUOUS
 10
0.5993624944
 20
-26.4799945997
 11
0.5815074233
 21
-26.3135298354
  0
LINE
  5
420
100
AcDbEntity
  8
0
100
AcDbLine
 62
7
  6
CONTINUOUS
 10
0.5949392255
 20
-26.2935169732
 11
0.6128605029
 21
-26.4606021041
  0
LINE
  5
421
100
AcDbEntity
  8
0
100
AcDbLine
 62
7
  6
CONTINUOUS
 10
2.1170119407
 20
-26.6354263518
 11
2.1400363423
 21
-26.8499720233
  0
LINE
  5
422
100
AcDbEntity
  8
0
100
AcDbLine
 62
7
  6
CONTINUOUS
 10
1.6154311801
 20
-26.6278604595
 11
1.5989434168
 21
-26.4716906127
  0
LINE
  5
423
100
AcDbEntity
  8
0
100
AcDbLine
 62
7
  6
CONTINUOUS
 10
0.5815074233
 20
-26.3135298354
 11
0.5653093457
 21
-26.157497973
  0
LINE
  5
424
100
AcDbEntity
  8
0
100
AcDbLine
 62
7
  6
CONTINUOUS
 10
1.604800883
 20
-26.3780855458
 11
1.6288267919
 21
-26.607510339
  0
LINE
  5
425
100
AcDbEntity
  8
0
100
AcDbLine
 62
7
  6
CONTINUOUS
 10
1.0745828634
 20
-26.2421267098
 11
1.0983048709
 21
-26.4706816312
  0
LINE
  5
426
100
AcDbEntity
  8
0
100
AcDbLine
 62
7
  6
CONTINUOUS
 10
1.5989434168
 20
-26.4716906127
 11
1.5840036786
 21
-26.3254933589
  0
LINE
  5
427
100
AcDbEntity
  8
0
100
AcDbLine
 62
7
  6
CONTINUOUS
 10
0.5713517581
 20
-26.0644267998
 11
0.5949392255
 21
-26.2935169732
  0
LINE
  5
428
100
AcDbEntity
  8
0
100
AcDbLine
 62
7
  6
CONTINUOUS
 10
2.0935419369
 20
-26.4065517498
 11
2.1170119407
 21
-26.6354263518
  0
LINE
  5
429
100
AcDbEntity
  8
0
100
AcDbLine
 62
7
  6
CONTINUOUS
 10
0.5653093457
 20
-26.157497973
 11
0.5506315017
 21
-26.0113397935
  0
LINE
  5
42A
100
AcDbEntity
  8
0
100
AcDbLine
 62
7
  6
CONTINUOUS
 10
1.5840036786
 20
-26.3254933589
 11
1.5705443366
 21
-26.1896127843
  0
LINE
  5
42B
100
AcDbEntity
  8
0
100
AcDbLine
 62
7
  6
CONTINUOUS
 10
1.5843226254
 20
-26.1731359531
 11
1.604800883
 21
-26.3780855458
  0
LINE
  5
42C
100
AcDbEntity
  8
0
100
AcDbLine
 62
7
  6
CONTINUOUS
 10
1.0542967081
 20
-26.0372365905
 11
1.0745828634
 21
-26.2421267098
  0
LINE
  5
42D
100
AcDbEntity
  8
0
100
AcDbLine
 62
7
  6
CONTINUOUS
 10
2.0782440167
 20
-26.2507173084
 11
2.0935419369
 21
-26.4065517498
  0
LINE
  5
42E
100
AcDbEntity
  8
0
100
AcDbLine
 62
7
  6
CONTINUOUS
 10
0.5506315017
 20
-26.0113397935
 11
0.5374053752
 21
-25.8754705871
  0
LINE
  5
42F
100
AcDbEntity
  8
0
100
AcDbLine
 62
7
  6
CONTINUOUS
 10
0.5512167752
 20
-25.8593908933
 11
0.5713517581
 21
-26.0644267998
  0
LINE
  5
430
100
AcDbEntity
  8
0
100
AcDbLine
 62
7
  6
CONTINUOUS
 10
1.5705443366
 20
-26.1896127843
 11
1.5584436148
 21
-26.0636908554
  0
LINE
  5
431
100
AcDbEntity
  8
0
100
AcDbLine
 62
7
  6
CONTINUOUS
 10
2.0635684632
 20
-26.095397407
 11
2.0782440167
 21
-26.2507173084
  0
LINE
  5
432
100
AcDbEntity
  8
0
100
AcDbLine
 62
7
  6
CONTINUOUS
 10
1.5615744244
 20
-25.9330425094
 11
1.5843226254
 21
-26.1731359531
  0
LINE
  5
433
100
AcDbEntity
  8
0
100
AcDbLine
 62
7
  6
CONTINUOUS
 10
0.5374053752
 20
-25.8754705871
 11
0.5200332645
 21
-25.6901565766
  0
LINE
  5
434
100
AcDbEntity
  8
0
100
AcDbLine
 62
7
  6
CONTINUOUS
 10
1.0317003289
 20
-25.7966028234
 11
1.0542967081
 21
-26.0372365905
  0
LINE
  5
435
100
AcDbEntity
  8
0
100
AcDbLine
 62
7
  6
CONTINUOUS
 10
0.528807992
 20
-25.6188908127
 11
0.5512167752
 21
-25.8593908933
  0
LINE
  5
436
100
AcDbEntity
  8
0
100
AcDbLine
 62
7
  6
CONTINUOUS
 10
1.5584436148
 20
-26.0636908554
 11
1.542478991
 21
-25.8909548331
  0
LINE
  5
437
100
AcDbEntity
  8
0
100
AcDbLine
 62
7
  6
CONTINUOUS
 10
0.5200332645
 20
-25.6901565766
 11
0.5049720365
 21
-25.5220615009
  0
LWPOLYLINE
  5
438
100
AcDbEntity
  8
0
100
AcDbPolyline
 62
7
  6
CONTINUOUS
 90
3
 70
0
 10
2.0434874501
 20
-25.8712273942
 10
2.0499390652
 20
-25.9449331455
 10
2.0635684632
 20
-26.095397407
  0
LINE
  5
439
100
AcDbEntity
  8
0
100
AcDbLine
 62
7
  6
CONTINUOUS
 10
1.5423739862
 20
-25.7175453792
 11
1.5615744244
 21
-25.9330425094
  0
LINE
  5
43A
100
AcDbEntity
  8
0
100
AcDbLine
 62
7
  6
CONTINUOUS
 10
1.542478991
 20
-25.8909548331
 11
1.5283304277
 21
-25.7305791673
  0
LINE
  5
43B
100
AcDbEntity
  8
0
100
AcDbLine
 62
7
  6
CONTINUOUS
 10
1.0125676521
 20
-25.5800994571
 11
1.0317003289
 21
-25.7966028234
  0
LINE
  5
43C
100
AcDbEntity
  8
0
100
AcDbLine
 62
7
  6
CONTINUOUS
 10
0.5098247486
 20
-25.4026390812
 11
0.528807992
 21
-25.6188908127
  0
LINE
  5
43D
100
AcDbEntity
  8
0
100
AcDbLine
 62
7
  6
CONTINUOUS
 10
0.5049720365
 20
-25.5220615009
 11
0.491370954
 21
-25.3633250207
  0
LINE
  5
43E
100
AcDbEntity
  8
0
100
AcDbLine
 62
7
  6
CONTINUOUS
 10
1.5283304277
 20
-25.7305791673
 11
1.5151906186
 21
-25.5744588789
  0
LINE
  5
43F
100
AcDbEntity
  8
0
100
AcDbLine
 62
7
  6
CONTINUOUS
 10
1.5248975712
 20
-25.5086266961
 11
1.5423739862
 21
-25.7175453792
  0
LINE
  5
440
100
AcDbEntity
  8
0
100
AcDbLine
 62
7
  6
CONTINUOUS
 10
0.9951020881
 20
-25.3698726921
 11
1.0125676521
 21
-25.5800994571
  0
LINE
  5
441
100
AcDbEntity
  8
0
100
AcDbLine
 62
7
  6
CONTINUOUS
 10
0.4924676645
 20
-25.1926804145
 11
0.5098247486
 21
-25.4026390812
  0
LINE
  5
442
100
AcDbEntity
  8
0
100
AcDbLine
 62
7
  6
CONTINUOUS
 10
0.491370954
 20
-25.3633250207
 11
0.4784941741
 21
-25.2061222889
  0
LINE
  5
443
100
AcDbEntity
  8
0
100
AcDbLine
 62
7
  6
CONTINUOUS
 10
1.5151906186
 20
-25.5744588789
 11
1.5025723122
 21
-25.4170574099
  0
LINE
  5
444
100
AcDbEntity
  8
0
100
AcDbLine
 62
7
  6
CONTINUOUS
 10
0.4784941741
 20
-25.2061222889
 11
0.4660810661
 21
-25.0473449711
  0
LINE
  5
445
100
AcDbEntity
  8
0
100
AcDbLine
 62
7
  6
CONTINUOUS
 10
1.5082684849
 20
-25.2961466626
 11
1.5248975712
 21
-25.5086266961
  0
LINE
  5
446
100
AcDbEntity
  8
0
100
AcDbLine
 62
7
  6
CONTINUOUS
 10
0.9784535404
 20
-25.1560768309
 11
0.9951020881
 21
-25.3698726921
  0
LINE
  5
447
100
AcDbEntity
  8
0
100
AcDbLine
 62
7
  6
CONTINUOUS
 10
0.47588744
 20
-24.9791865493
 11
0.4924676645
 21
-25.1926804145
  0
LINE
  5
448
100
AcDbEntity
  8
0
100
AcDbLine
 62
7
  6
CONTINUOUS
 10
1.5025723122
 20
-25.4170574099
 11
1.4904699398
 21
-25.2580507501
  0
LINE
  5
449
100
AcDbEntity
  8
0
100
AcDbLine
 62
7
  6
CONTINUOUS
 10
0.4660810661
 20
-25.0473449711
 11
0.4541822282
 21
-24.8873872066
  0
LINE
  5
44A
100
AcDbEntity
  8
0
100
AcDbLine
 62
7
  6
CONTINUOUS
 10
1.4926739763
 20
-25.0819030096
 11
1.5082684849
 21
-25.2961466626
  0
LINE
  5
44B
100
AcDbEntity
  8
0
100
AcDbLine
 62
7
  6
CONTINUOUS
 10
0.460276624
 20
-24.7640563065
 11
0.47588744
 21
-24.9791865493
  0
LINE
  5
44C
100
AcDbEntity
  8
0
100
AcDbLine
 62
7
  6
CONTINUOUS
 10
0.962811378
 20
-24.9405615006
 11
0.9784535404
 21
-25.1560768309
  0
LINE
  5
44D
100
AcDbEntity
  8
0
100
AcDbLine
 62
7
  6
CONTINUOUS
 10
1.4904699398
 20
-25.2580507501
 11
1.4789733822
 21
-25.0984598069
  0
LWPOLYLINE
  5
44E
100
AcDbEntity
  8
0
100
AcDbPolyline
 62
7
  6
CONTINUOUS
 90
3
 70
0
 10
0.4541822282
 20
-24.8873872066
 10
0.4428732071
 20
-24.7272212075
 10
0.4392385401
 20
-24.6738462997
  0
LINE
  5
44F
100
AcDbEntity
  8
0
100
AcDbLine
 62
7
  6
CONTINUOUS
 10
0.4543806933
 20
-24.6785166743
 11
0.460276624
 21
-24.7640563065
  0
LINE
  5
450
100
AcDbEntity
  8
0
100
AcDbLine
 62
7
  6
CONTINUOUS
 10
0.9554287671
 20
-24.8330150652
 11
0.962811378
 21
-24.9405615006
  0
LINE
  5
451
100
AcDbEntity
  8
0
100
AcDbLine
 62
7
  6
CONTINUOUS
 10
1.4789733822
 20
-25.0984598069
 11
1.4716678825
 21
-24.9920919944
  0
LINE
  5
452
100
AcDbEntity
  8
0
100
AcDbLine
 62
7
  6
CONTINUOUS
 10
1.4868074947
 20
-24.9967551187
 11
1.4926739763
 21
-25.0819030096
  0
LINE
  5
453
100
AcDbEntity
  8
DRAFT
100
AcDbLine
 62
250
  6
CONTINUOUS
 10
-12.0086467151
 20
-15.8069301425
 11
-12.544409638
 21
-16.4928686204
  0
LINE
  5
454
100
AcDbEntity
  8
0
100
AcDbLine
 62
250
  6
CONTINUOUS
 10
-12.6352580097
 20
-16.6067143125
 11
-13.3166207163
 21
-17.460556902
  0
LINE
  5
455
100
AcDbEntity
  8
RACCORDO
100
AcDbLine
 62
250
  6
CONTINUOUS
 10
35.0206185042
 20
-13.1568980216
 11
34.3914844271
 21
-12.9636970416
  0
LINE
  5
456
100
AcDbEntity
  8
RACCORDO
100
AcDbLine
 62
250
  6
CONTINUOUS
 10
34.3677061332
 20
-12.4092942724
 11
34.6823544027
 21
-12.5059197076
  0
LINE
  5
457
100
AcDbEntity
  8
RACCORDO
100
AcDbLine
 62
7
  6
CONTINUOUS
 10
34.3660680198
 20
-12.3434446898
 11
34.7725766726
 21
-12.4682795588
  0
LINE
  5
458
100
AcDbEntity
  8
0
100
AcDbLine
 62
7
  6
CONTINUOUS
 10
34.893979631
 20
-12.3690646358
 11
35.6074931422
 21
-12.5881777225
  0
LWPOLYLINE
  5
459
100
AcDbEntity
  8
SUPERFICI
100
AcDbPolyline
 62
250
  6
CONTINUOUS
 90
10
 70
0
 10
-15.9548757215
 20
16.9382326645
 10
-16.0500416483
 20
17.0440613589
 10
-16.1563770712
 20
17.1455353964
 10
-16.2734213566
 20
17.2422151367
 10
-16.4006674815
 20
17.3336817115
 10
-16.5375642299
 20
17.4195388392
 10
-16.6835185808
 20
17.4994145413
 10
-16.8378982766
 20
17.5729627544
 10
-17.0000345628
 20
17.6398648289
 10
-17.1692250841
 20
17.6998309095
  0
LINE
  5
45A
100
AcDbEntity
  8
0
100
AcDbLine
 62
7
  6
CONTINUOUS
 10
3.6825117789
 20
-27.6764537334
 11
3.6574846359
 21
-27.4630539049
  0
LINE
  5
45B
100
AcDbEntity
  8
0
100
AcDbLine
 62
7
  6
CONTINUOUS
 10
3.6574846359
 20
-27.4630539049
 11
3.6432244665
 21
-27.338618323
  0
LINE
  5
45C
100
AcDbEntity
  8
0
100
AcDbLine
 62
7
  6
CONTINUOUS
 10
3.6571521233
 20
-27.3229804096
 11
3.6962724021
 21
-27.6592097516
  0
LWPOLYLINE
  5
45D
100
AcDbEntity
  8
0
100
AcDbPolyline
 62
7
  6
CONTINUOUS
 90
3
 70
0
 10
1.6647357759
 20
-27.0688662183
 10
1.6434765901
 20
-26.8828747378
 10
1.6336020223
 20
-26.7945933877
  0
LINE
  5
45E
100
AcDbEntity
  8
0
100
AcDbLine
 62
7
  6
CONTINUOUS
 10
2.1554063982
 20
-26.9882651039
 11
2.1826642839
 21
-27.2258566751
  0
LWPOLYLINE
  5
45F
100
AcDbEntity
  8
0
100
AcDbPolyline
 62
7
  6
CONTINUOUS
 90
3
 70
0
 10
0.6299814395
 20
-26.7535299347
 10
0.6090710957
 20
-26.5680729436
 10
0.5993624944
 20
-26.4799945997
  0
LWPOLYLINE
  5
460
100
AcDbEntity
  8
0
100
AcDbPolyline
 62
7
  6
CONTINUOUS
 90
3
 70
0
 10
1.6470935879
 20
-26.7751344924
 10
1.6570374973
 20
-26.8640144203
 10
1.6784888725
 20
-27.0516316683
  0
LWPOLYLINE
  5
461
100
AcDbEntity
  8
0
100
AcDbPolyline
 62
7
  6
CONTINUOUS
 90
3
 70
0
 10
1.1162928566
 20
-26.6371405085
 10
1.1260842114
 20
-26.7253468791
 10
1.1472005561
 20
-26.9114037613
  0
LWPOLYLINE
  5
462
100
AcDbEntity
  8
0
100
AcDbPolyline
 62
7
  6
CONTINUOUS
 90
3
 70
0
 10
0.6128605029
 20
-26.4606021041
 10
0.6226315732
 20
-26.5492223851
 10
0.643730861
 20
-26.7362999902
  0
LINE
  5
463
100
AcDbEntity
  8
0
100
AcDbLine
 62
7
  6
CONTINUOUS
 10
2.1400363423
 20
-26.8499720233
 11
2.1554063982
 21
-26.9882651039
  0
LINE
  5
464
100
AcDbEntity
  8
0
100
AcDbLine
 62
7
  6
CONTINUOUS
 10
3.6184899837
 20
-27.1169831573
 11
3.6017757647
 21
-26.9623127418
  0
LINE
  5
465
100
AcDbEntity
  8
0
100
AcDbLine
 62
7
  6
CONTINUOUS
 10
4.105894189
 20
-26.9767581542
 11
4.1331527861
 21
-27.2293416764
  0
LINE
  5
466
100
AcDbEntity
  8
0
100
AcDbLine
 62
7
  6
CONTINUOUS
 10
3.6047964511
 20
-26.8436237607
 11
3.6325112413
 21
-27.1023549475
  0
LINE
  5
467
100
AcDbEntity
  8
0
100
AcDbLine
 62
7
  6
CONTINUOUS
 10
3.6017757647
 20
-26.9623127418
 11
3.5854064249
 21
-26.8062433605
  0
LINE
  5
468
100
AcDbEntity
  8
0
100
AcDbLine
 62
7
  6
CONTINUOUS
 10
4.0858045234
 20
-26.7824093884
 11
4.105894189
 21
-26.9767581542
  0
LINE
  5
469
100
AcDbEntity
  8
0
100
AcDbLine
 62
7
  6
CONTINUOUS
 10
3.5854064249
 20
-26.8062433605
 11
3.5692602396
 21
-26.6470318959
  0
LINE
  5
46A
100
AcDbEntity
  8
0
100
AcDbLine
 62
7
  6
CONTINUOUS
 10
3.583100425
 20
-26.6311041706
 11
3.6047964511
 21
-26.8436237607
  0
LWPOLYLINE
  5
46B
100
AcDbEntity
  8
0
100
AcDbPolyline
 62
7
  6
CONTINUOUS
 90
5
 70
0
 10
6.9013207776
 20
-26.8183661643
 10
6.9105713829
 20
-26.9106857678
 10
6.9197528761
 20
-26.998521662
 10
6.9288669818
 20
-27.0825277059
 10
6.9469028355
 20
-27.2452364764
  0
LINE
  5
46C
100
AcDbEntity
  8
0
100
AcDbLine
 62
7
  6
CONTINUOUS
 10
4.0663133894
 20
-26.5848648694
 11
4.0858045234
 21
-26.7824093884
  0
LINE
  5
46D
100
AcDbEntity
  8
0
100
AcDbLine
 62
7
  6
CONTINUOUS
 10
3.5692602396
 20
-26.6470318959
 11
3.5536293215
 21
-26.4867193496
  0
LINE
  5
46E
100
AcDbEntity
  8
0
100
AcDbLine
 62
7
  6
CONTINUOUS
 10
3.5623283434
 20
-26.4166755553
 11
3.583100425
 21
-26.6311041706
  0
LINE
  5
46F
100
AcDbEntity
  8
0
100
AcDbLine
 62
7
  6
CONTINUOUS
 10
6.8846699461
 20
-26.6441024421
 11
6.9013207776
 21
-26.8183661643
  0
LINE
  5
470
100
AcDbEntity
  8
0
100
AcDbLine
 62
7
  6
CONTINUOUS
 10
3.5536293215
 20
-26.4867193496
 11
3.538791222
 21
-26.3275086444
  0
LINE
  5
471
100
AcDbEntity
  8
0
100
AcDbLine
 62
7
  6
CONTINUOUS
 10
3.552488326
 20
-26.3103442611
 11
3.5623283434
 21
-26.4166755553
  0
LINE
  5
472
100
AcDbEntity
  8
0
100
AcDbLine
 62
7
  6
CONTINUOUS
 10
4.0479130211
 20
-26.3874451946
 11
4.0663133894
 21
-26.5848648694
  0
LINE
  5
473
100
AcDbEntity
  8
0
100
AcDbLine
 62
7
  6
CONTINUOUS
 10
4.0365051155
 20
-26.2582711397
 11
4.0479130211
 21
-26.3874451946
  0
LWPOLYLINE
  5
474
100
AcDbEntity
  8
RACCORDO
100
AcDbPolyline
 62
7
  6
CONTINUOUS
 90
14
 70
0
 10
2.8367385885
 20
-19.269908391
 10
2.8356113946
 20
-19.2561908696
 10
2.8323630898
 20
-19.2405051979
 10
2.8270091667
 20
-19.2250448517
 10
2.8196667735
 20
-19.2100405733
 10
2.8103218564
 20
-19.195480036
 10
2.7989884692
 20
-19.1813755664
 10
2.7858259211
 20
-19.1679948867
 10
2.7707263542
 20
-19.1553120498
 10
2.7537976264
 20
-19.1433530028
 10
2.7355226216
 20
-19.1324633097
 10
2.7160623009
 20
-19.1227581585
 10
2.6952557032
 20
-19.1141223612
 10
2.6731028284
 20
-19.1065559178
  0
LINE
  5
475
100
AcDbEntity
  8
0
100
AcDbLine
 62
7
  6
CONTINUOUS
 10
4.0201939904
 20
-26.0621133866
 11
4.0365051155
 21
-26.2582711397
  0
LINE
  5
476
100
AcDbEntity
  8
0
100
AcDbLine
 62
7
  6
CONTINUOUS
 10
4.0092965993
 20
-25.9211800147
 11
4.0201939904
 21
-26.0621133866
  0
LINE
  5
477
100
AcDbEntity
  8
0
100
AcDbLine
 62
7
  6
CONTINUOUS
 10
3.9981356134
 20
-25.7682449412
 11
4.0092965993
 21
-25.9211800147
  0
LINE
  5
478
100
AcDbEntity
  8
RACCORDO
100
AcDbLine
 62
250
  6
CONTINUOUS
 10
2.8296304364
 20
-20.1074075695
 11
2.8107969106
 21
-19.3503294679
  0
LINE
  5
479
100
AcDbEntity
  8
RACCORDO
100
AcDbLine
 62
7
  6
CONTINUOUS
 10
2.855571013
 20
-20.026941887
 11
2.8367374872
 21
-19.2698637854
  0
LWPOLYLINE
  5
47A
100
AcDbEntity
  8
RACCORDO
100
AcDbPolyline
 62
250
  6
CONTINUOUS
 90
7
 70
0
 10
2.8296304364
 20
-20.1074075695
 10
2.8291455312
 20
-20.1273526533
 10
2.8265728543
 20
-20.1465883708
 10
2.8219319778
 20
-20.1649678496
 10
2.8152582246
 20
-20.1823508333
 10
2.8066024982
 20
-20.1986044798
 10
2.8021943095
 20
-20.2053490588
  0
LWPOLYLINE
  5
47B
100
AcDbEntity
  8
SUPERFICI
100
AcDbPolyline
 62
250
  6
CONTINUOUS
 90
15
 70
0
 10
5.1984972574
 20
11.9095777188
 10
5.1774361811
 20
11.8071665806
 10
5.1564910525
 20
11.7071312678
 10
5.1365306019
 20
11.6103824226
 10
5.1147555446
 20
11.518880537
 10
5.0961979538
 20
11.4320864206
 10
5.0911783211
 20
11.3480042731
 10
5.1041207996
 20
11.2663920599
 10
5.1263802101
 20
11.190541881
 10
5.1487033412
 20
11.1239725266
 10
5.1686908415
 20
11.0681852872
 10
5.1907573986
 20
11.0223902938
 10
5.2173493094
 20
10.9862560427
 10
5.2487181444
 20
10.9600157488
 10
5.281365921
 20
10.9449066496
  0
LWPOLYLINE
  5
47C
100
AcDbEntity
  8
SUPERFICI
100
AcDbPolyline
 62
250
  6
CONTINUOUS
 90
10
 70
0
 10
5.1984973566
 20
11.9095777185
 10
5.2428748683
 20
12.0906408117
 10
5.282662415
 20
12.271094233
 10
5.3177040776
 20
12.4502308646
 10
5.3478625345
 20
12.6273487484
 10
5.3730196
 20
12.8017538369
 10
5.3930766871
 20
12.9727627126
 10
5.407955194
 20
13.1397052662
 10
5.4175968119
 20
13.3019273225
 10
5.421963754
 20
13.4587932038
  0
LINE
  5
47D
100
AcDbEntity
  8
DRAFT
100
AcDbLine
 62
7
  6
CONTINUOUS
 10
-4.0116597512
 20
-19.4279479013
 11
-3.9423819631
 21
-19.2366059185
  0
LINE
  5
47E
100
AcDbEntity
  8
DRAFT
100
AcDbLine
 62
7
  6
CONTINUOUS
 10
-3.7611998147
 20
-19.1505008542
 11
-3.6919220266
 21
-18.9591588714
  0
LINE
  5
47F
100
AcDbEntity
  8
DRAFT
100
AcDbLine
 62
7
  6
CONTINUOUS
 10
-3.5107398782
 20
-18.8730538071
 11
-3.4414620901
 21
-18.6817118243
  0
LINE
  5
480
100
AcDbEntity
  8
DRAFT
100
AcDbLine
 62
7
  6
CONTINUOUS
 10
-3.2602799417
 20
-18.59560676
 11
-3.1910021536
 21
-18.4042647773
  0
LINE
  5
481
100
AcDbEntity
  8
DRAFT
100
AcDbLine
 62
7
  6
CONTINUOUS
 10
-3.0098200051
 20
-18.3181597129
 11
-2.9405422171
 21
-18.1268177302
  0
LINE
  5
482
100
AcDbEntity
  8
DRAFT
100
AcDbLine
 62
7
  6
CONTINUOUS
 10
-2.7593600686
 20
-18.0407126658
 11
-2.6900822806
 21
-17.8493706831
  0
LINE
  5
483
100
AcDbEntity
  8
DRAFT
100
AcDbLine
 62
250
  6
CONTINUOUS
 10
-12.362237048
 20
-16.9227274531
 11
-12.2714223413
 21
-16.8075284853
  0
LINE
  5
484
100
AcDbEntity
  8
0
100
AcDbLine
 62
250
  6
CONTINUOUS
 10
-13.0436327846
 20
-17.7752159712
 11
-12.3622707129
 21
-16.9213741773
  0
LINE
  5
485
100
AcDbEntity
  8
DRAFT
100
AcDbLine
 62
250
  6
CONTINUOUS
 10
-12.2714223413
 20
-16.8075284853
 11
-11.7261301221
 21
-16.1325739875
  0
LINE
  5
486
100
AcDbEntity
  8
DRAFT
100
AcDbLine
 62
250
  6
CONTINUOUS
 10
-12.544409638
 20
-16.4928686204
 11
-12.6368125608
 21
-16.6062369249
  0
LWPOLYLINE
  5
487
100
AcDbEntity
  8
SUPERFICI
100
AcDbPolyline
 62
250
  6
CONTINUOUS
 90
21
 70
0
 10
-15.9548718779
 20
16.9382339605
 10
-15.902753272
 20
16.8905717126
 10
-15.8412656495
 20
16.8372866153
 10
-15.771127971
 20
16.7803646551
 10
-15.6926853744
 20
16.7139754915
 10
-15.6065140744
 20
16.648893126
 10
-15.5151211675
 20
16.6076837968
 10
-15.4208342561
 20
16.6002773195
 10
-15.322693408
 20
16.6085365052
 10
-15.2207193442
 20
16.6135822187
 10
-15.1166418278
 20
16.6111367785
 10
-15.0119562996
 20
16.6106710687
 10
-14.9078407537
 20
16.6175015118
 10
-14.8054411585
 20
16.632646762
 10
-14.7058719545
 20
16.6544726312
 10
-14.6102249668
 20
16.6827158828
 10
-14.519548685
 20
16.7170603677
 10
-14.4348366762
 20
16.7571309296
 10
-14.3570173362
 20
16.8024837716
 10
-14.2869435547
 20
16.8526196126
 10
-14.2253833501
 20
16.9069882336
  0
LINE
  5
488
100
AcDbEntity
  8
0
100
AcDbLine
 62
7
  6
CONTINUOUS
 10
7.4731002461
 20
-27.6098588886
 11
7.4792958266
 21
-27.6626469138
  0
LINE
  5
489
100
AcDbEntity
  8
0
100
AcDbLine
 62
7
  6
CONTINUOUS
 10
7.0960368548
 20
-28.6735074894
 11
7.0648743181
 21
-28.4064497297
  0
LINE
  5
48A
100
AcDbEntity
  8
0
100
AcDbLine
 62
7
  6
CONTINUOUS
 10
4.1636212679
 20
-27.5000640707
 11
4.2023747257
 21
-27.8310200683
  0
LINE
  5
48B
100
AcDbEntity
  8
0
100
AcDbLine
 62
7
  6
CONTINUOUS
 10
7.0251301504
 20
-28.0622469524
 11
6.9800604846
 21
-27.6721675628
  0
LWPOLYLINE
  5
48C
100
AcDbEntity
  8
0
100
AcDbPolyline
 62
7
  6
CONTINUOUS
 90
4
 70
0
 10
7.0648743181
 20
-28.4064497297
 10
7.0408754098
 20
-28.1987646708
 10
7.0329349007
 20
-28.1299026182
 10
7.0251301504
 20
-28.0622469524
  0
LWPOLYLINE
  5
48D
100
AcDbEntity
  8
0
100
AcDbPolyline
 62
7
  6
CONTINUOUS
 90
3
 70
0
 10
6.9823404704
 20
-27.5554425658
 10
7.054507729
 20
-28.1804411217
 10
7.1097984231
 20
-28.6562623232
  0
LINE
  5
48E
100
AcDbEntity
  8
0
100
AcDbLine
 62
7
  6
CONTINUOUS
 10
7.4219267089
 20
-27.1702814495
 11
7.4731002461
 21
-27.6098588886
  0
LINE
  5
48F
100
AcDbEntity
  8
0
100
AcDbLine
 62
7
  6
CONTINUOUS
 10
6.9800604846
 20
-27.6721675628
 11
6.9462913629
 21
-27.3782767573
  0
LWPOLYLINE
  5
490
100
AcDbEntity
  8
0
100
AcDbPolyline
 62
7
  6
CONTINUOUS
 90
3
 70
0
 10
7.5301623885
 20
-28.0390678973
 10
7.5725677345
 20
-28.4090018559
 10
7.6201671624
 20
-28.8227359531
  0
LINE
  5
491
100
AcDbEntity
  8
0
100
AcDbLine
 62
7
  6
CONTINUOUS
 10
6.9469028355
 20
-27.2452364764
 11
6.9823404704
 21
-27.5554425658
  0
LWPOLYLINE
  5
492
100
AcDbEntity
  8
0
100
AcDbPolyline
 62
7
  6
CONTINUOUS
 90
8
 70
0
 10
6.9462913629
 20
-27.3782767573
 10
6.9278879556
 20
-27.2152413496
 10
6.9183494649
 20
-27.1291775037
 10
6.9086033245
 20
-27.0399546625
 10
6.8987750976
 20
-26.9464750517
 10
6.8889066389
 20
-26.8483727467
 10
6.8789560939
 20
-26.7460136721
 10
6.8689234624
 20
-26.639397828
  0
LWPOLYLINE
  5
493
100
AcDbEntity
  8
0
100
AcDbPolyline
 62
7
  6
CONTINUOUS
 90
3
 70
0
 10
3.6432244665
 20
-27.338618323
 10
3.6243298747
 20
-27.1700510967
 10
3.6184899837
 20
-27.1169831573
  0
LINE
  5
494
100
AcDbEntity
  8
0
100
AcDbLine
 62
7
  6
CONTINUOUS
 10
4.1331527861
 20
-27.2293416764
 11
4.1636212679
 21
-27.5000640707
  0
LINE
  5
495
100
AcDbEntity
  8
0
100
AcDbLine
 62
7
  6
CONTINUOUS
 10
3.6325112413
 20
-27.1023549475
 11
3.6571521233
 21
-27.3229804096
  0
LINE
  5
496
100
AcDbEntity
  8
SUPERFICI
100
AcDbLine
 62
250
  6
CONTINUOUS
 10
7.7603351514
 20
-24.1492002732
 11
7.7705604586
 21
-24.5086460136
  0
LINE
  5
497
100
AcDbEntity
  8
SUPERFICI
100
AcDbLine
 62
250
  6
CONTINUOUS
 10
7.756636033
 20
-24.017387838
 11
7.7603351514
 21
-24.1492002732
  0
LINE
  5
498
100
AcDbEntity
  8
SUPERFICI
100
AcDbLine
 62
250
  6
CONTINUOUS
 10
7.7527540586
 20
-23.8780816689
 11
7.756636033
 21
-24.017387838
  0
LINE
  5
499
100
AcDbEntity
  8
SUPERFICI
100
AcDbLine
 62
250
  6
CONTINUOUS
 10
7.7486733112
 20
-23.730703679
 11
7.7527540586
 21
-23.8780816689
  0
LINE
  5
49A
100
AcDbEntity
  8
SUPERFICI
100
AcDbLine
 62
250
  6
CONTINUOUS
 10
7.7443694998
 20
-23.5742877726
 11
7.7486733112
 21
-23.730703679
  0
LINE
  5
49B
100
AcDbEntity
  8
SUPERFICI
100
AcDbLine
 62
250
  6
CONTINUOUS
 10
7.7398223602
 20
-23.4079920714
 11
7.7443694998
 21
-23.5742877726
  0
LWPOLYLINE
  5
49C
100
AcDbEntity
  8
SUPERFICI
100
AcDbPolyline
 62
250
  6
CONTINUOUS
 90
3
 70
0
 10
7.7325073413
 20
-23.1385677155
 10
7.7350161804
 20
-23.2312201063
 10
7.7398223602
 20
-23.4079920714
  0
LINE
  5
49D
100
AcDbEntity
  8
SUPERFICI
100
AcDbLine
 62
250
  6
CONTINUOUS
 10
7.7272694001
 20
-22.9443403111
 11
7.7325073413
 21
-23.1385677155
  0
LINE
  5
49E
100
AcDbEntity
  8
SUPERFICI
100
AcDbLine
 62
250
  6
CONTINUOUS
 10
7.721713094
 20
-22.737269724
 11
7.7272694001
 21
-22.9443403111
  0
LWPOLYLINE
  5
49F
100
AcDbEntity
  8
SUPERFICI
100
AcDbPolyline
 62
250
  6
CONTINUOUS
 90
3
 70
0
 10
7.7127249981
 20
-22.4001827283
 10
7.7158107521
 20
-22.5161551028
 10
7.721713094
 20
-22.737269724
  0
LWPOLYLINE
  5
4A0
100
AcDbEntity
  8
SUPERFICI
100
AcDbPolyline
 62
250
  6
CONTINUOUS
 90
3
 70
0
 10
7.7029242281
 20
-22.0298960763
 10
7.7062826282
 20
-22.1570530298
 10
7.7127249981
 20
-22.4001827283
  0
LINE
  5
4A1
100
AcDbEntity
  8
SUPERFICI
100
AcDbLine
 62
250
  6
CONTINUOUS
 10
7.6959350022
 20
-21.7642308533
 11
7.7029242281
 21
-22.0298960763
  0
LWPOLYLINE
  5
4A2
100
AcDbEntity
  8
SUPERFICI
100
AcDbPolyline
 62
250
  6
CONTINUOUS
 90
3
 70
0
 10
7.68084415
 20
-21.1870484777
 10
7.6847540102
 20
-21.3371315344
 10
7.6959350022
 20
-21.7642308533
  0
LINE
  5
4A3
100
AcDbEntity
  8
SUPERFICI
100
AcDbLine
 62
250
  6
CONTINUOUS
 10
7.6685159068
 20
-20.712507265
 11
7.68084415
 21
-21.1870484777
  0
LWPOLYLINE
  5
4A4
100
AcDbEntity
  8
SUPERFICI
100
AcDbPolyline
 62
250
  6
CONTINUOUS
 90
3
 70
0
 10
7.3256818034
 20
-7.2986378009
 10
7.3525738542
 20
-8.354897632
 10
7.6685159068
 20
-20.712507265
  0
LINE
  5
4A5
100
AcDbEntity
  8
SUPERFICI
100
AcDbLine
 62
7
  6
CONTINUOUS
 10
5.7581281794
 20
10.5086823964
 11
6.6144224654
 21
-23.9129999977
  0
LINE
  5
4A6
100
AcDbEntity
  8
SUPERFICI
100
AcDbLine
 62
250
  6
CONTINUOUS
 10
7.131542281
 20
0.7012204528
 11
7.3256816394
 21
-7.2986377964
  0
LINE
  5
4A7
100
AcDbEntity
  8
SUPERFICI
100
AcDbLine
 62
250
  6
CONTINUOUS
 10
6.9142083588
 20
9.9153588458
 11
7.131542281
 21
0.7012204528
  0
LWPOLYLINE
  5
4A8
100
AcDbEntity
  8
SUPERFICI
100
AcDbPolyline
 62
250
  6
CONTINUOUS
 90
91
 70
0
 10
7.7705601755
 20
-24.5086467082
 10
7.7711779133
 20
-24.562392188
 10
7.7694402304
 20
-24.6150220237
 10
7.7653960727
 20
-24.6664761069
 10
7.7590466934
 20
-24.7169956222
 10
7.750471511
 20
-24.766219539
 10
7.7399576199
 20
-24.8132440769
 10
7.7277086728
 20
-24.8578932936
 10
7.7138776262
 20
-24.9003865994
 10
7.6988195902
 20
-24.9405025959
 10
7.6827886081
 20
-24.9782196809
 10
7.6659066624
 20
-25.0136897204
 10
7.6483515898
 20
-25.0469836247
 10
7.6303291955
 20
-25.0781180204
 10
7.6119582205
 20
-25.1072290165
 10
7.5932547594
 20
-25.1345567725
 10
7.5743329433
 20
-25.1601740851
 10
7.5553171554
 20
-25.1841391815
 10
7.5361970084
 20
-25.2066464408
 10
7.5170673974
 20
-25.2277475783
 10
7.4980125751
 20
-25.2475035207
 10
7.4789722411
 20
-25.2660998243
 10
7.4600133067
 20
-25.283579729
 10
7.4411978882
 20
-25.2999893843
 10
7.4224286875
 20
-25.3154956541
 10
7.4037508812
 20
-25.3301316837
 10
7.3852089304
 20
-25.3439304827
 10
7.3666791729
 20
-25.3570366541
 10
7.3481683235
 20
-25.3694875681
 10
7.3297282063
 20
-25.3812895365
 10
7.3112852468
 20
-25.3925239791
 10
7.292786013
 20
-25.4032499854
 10
7.2743245236
 20
-25.4134385168
 10
7.2560479946
 20
-25.4230399351
 10
7.237960822
 20
-25.4320881757
 10
7.2201080639
 20
-25.4405950663
 10
7.2027105667
 20
-25.4484944108
 10
7.185852558
 20
-25.4557960045
 10
7.1695087759
 20
-25.4625546276
 10
7.1537429181
 20
-25.4687819187
 10
7.138644695
 20
-25.4744862694
 10
7.1241756916
 20
-25.4797208311
 10
7.11020272
 20
-25.4845588901
 10
7.0967877591
 20
-25.4890065755
 10
7.0839037308
 20
-25.4931013848
 10
7.0712723139
 20
-25.4969477299
 10
7.058891642
 20
-25.5005589923
 10
7.0467806651
 20
-25.5039425191
 10
7.034680556
 20
-25.5071764923
 10
7.0225774716
 20
-25.5102677848
 10
7.0104911529
 20
-25.5132142651
 10
6.9982044525
 20
-25.5160669382
 10
6.9857217624
 20
-25.5188208863
 10
6.9730374856
 20
-25.5214740379
 10
6.9599119429
 20
-25.5240688401
 10
6.9463235697
 20
-25.5265950453
 10
6.9322850426
 20
-25.5290411253
 10
6.9176004606
 20
-25.5314343451
 10
6.902183736
 20
-25.5337696883
 10
6.8861038183
 20
-25.5360136485
 10
6.8693940932
 20
-25.5381448335
 10
6.8521054138
 20
-25.5401386655
 10
6.8341726588
 20
-25.5419826173
 10
6.8154534471
 20
-25.5436687368
 10
6.7959313934
 20
-25.5451712996
 10
6.7756039533
 20
-25.546462838
 10
6.7543451682
 20
-25.5475216883
 10
6.7321246296
 20
-25.548314342
 10
6.7089510252
 20
-25.5488045051
 10
6.684754204
 20
-25.548956955
 10
6.6593037464
 20
-25.5487270861
 10
6.6328069101
 20
-25.5480694544
 10
6.6058602148
 20
-25.5469717626
 10
6.5784262082
 20
-25.5454175752
 10
6.5505458872
 20
-25.5433922715
 10
6.5229558047
 20
-25.5409513541
 10
6.4958337194
 20
-25.5381356442
 10
6.4690291719
 20
-25.5349512324
 10
6.442800264
 20
-25.5314489723
 10
6.417400945
 20
-25.5276984455
 10
6.3926058316
 20
-25.5236986017
 10
6.3679527367
 20
-25.5193857677
 10
6.3435429653
 20
-25.5147862895
 10
6.3192919196
 20
-25.5098970334
 10
6.2944500117
 20
-25.5045608362
 10
6.2688993801
 20
-25.4987297955
 10
6.2427648005
 20
-25.4924082425
 10
6.2156552267
 20
-25.4854705849
 10
6.1874431881
 20
-25.477842183
 10
6.1582666925
 20
-25.4695176334
 10
6.1281335411
 20
-25.460457621
  0
LWPOLYLINE
  5
4A9
100
AcDbEntity
  8
RACCORDO
100
AcDbPolyline
 62
250
  6
CONTINUOUS
 90
3
 70
0
 10
2.853638064
 20
-20.0516167199
 10
2.8555821247
 20
-20.0324028246
 10
2.855571013
 20
-20.026941887
  0
LINE
  5
4AA
100
AcDbEntity
  8
DRAFT
100
AcDbLine
 62
7
  6
CONTINUOUS
 10
2.2367016681
 20
-20.292782353
 11
2.2949430335
 21
-20.0889453966
  0
LINE
  5
4AB
100
AcDbEntity
  8
DRAFT
100
AcDbLine
 62
7
  6
CONTINUOUS
 10
2.4404835897
 20
-20.0010009398
 11
2.4987249551
 21
-19.7971639834
  0
LINE
  5
4AC
100
AcDbEntity
  8
DRAFT
100
AcDbLine
 62
7
  6
CONTINUOUS
 10
2.6442655114
 20
-19.7092195265
 11
2.7025068768
 21
-19.5053825701
  0
LINE
  5
4AD
100
AcDbEntity
  8
0
100
AcDbLine
 62
7
  6
CONTINUOUS
 10
-0.4199942179
 20
-26.0282026536
 11
-0.5442011207
 21
-26.3936438369
  0
LINE
  5
4AE
100
AcDbEntity
  8
0
100
AcDbLine
 62
7
  6
CONTINUOUS
 10
-0.3191598348
 20
-25.7354483283
 11
-0.4199942179
 21
-26.0282026536
  0
LINE
  5
4AF
100
AcDbEntity
  8
0
100
AcDbLine
 62
7
  6
CONTINUOUS
 10
-0.8701978296
 20
-25.6769902346
 11
-0.806142254
 21
-25.4920357368
  0
LINE
  5
4B0
100
AcDbEntity
  8
0
100
AcDbLine
 62
7
  6
CONTINUOUS
 10
-0.7919815856
 20
-25.4735554135
 11
-0.8564835708
 21
-25.6598043538
  0
LINE
  5
4B1
100
AcDbEntity
  8
0
100
AcDbLine
 62
7
  6
CONTINUOUS
 10
-0.7193977586
 20
-25.2658259698
 11
-0.7919815856
 21
-25.4735554135
  0
LINE
  5
4B2
100
AcDbEntity
  8
0
100
AcDbLine
 62
7
  6
CONTINUOUS
 10
-0.806142254
 20
-25.4920357368
 11
-0.7336055745
 21
-25.2844527161
  0
LINE
  5
4B3
100
AcDbEntity
  8
0
100
AcDbLine
 62
7
  6
CONTINUOUS
 10
-0.2097508314
 20
-25.4215599504
 11
-0.3191598348
 21
-25.7354483283
  0
LINE
  5
4B4
100
AcDbEntity
  8
0
100
AcDbLine
 62
7
  6
CONTINUOUS
 10
-0.7336055745
 20
-25.2844527161
 11
-0.6540723007
 21
-25.0585980059
  0
LINE
  5
4B5
100
AcDbEntity
  8
0
100
AcDbLine
 62
7
  6
CONTINUOUS
 10
-0.6401366805
 20
-25.0407398844
 11
-0.7193977586
 21
-25.2658259698
  0
LINE
  5
4B6
100
AcDbEntity
  8
0
100
AcDbLine
 62
7
  6
CONTINUOUS
 10
-0.1040291048
 20
-25.122031645
 11
-0.2097508314
 21
-25.4215599504
  0
LINE
  5
4B7
100
AcDbEntity
  8
0
100
AcDbLine
 62
7
  6
CONTINUOUS
 10
-0.5587711582
 20
-24.8118863625
 11
-0.6401366805
 21
-25.0407398844
  0
LINE
  5
4B8
100
AcDbEntity
  8
0
100
AcDbLine
 62
7
  6
CONTINUOUS
 10
-0.6540723007
 20
-25.0585980059
 11
-0.5723832622
 21
-24.8288498367
  0
LINE
  5
4B9
100
AcDbEntity
  8
0
100
AcDbLine
 62
7
  6
CONTINUOUS
 10
-0.0019509345
 20
-24.8363329841
 11
-0.1040291048
 21
-25.122031645
  0
LINE
  5
4BA
100
AcDbEntity
  8
0
100
AcDbLine
 62
7
  6
CONTINUOUS
 10
-0.5723832622
 20
-24.8288498367
 11
-0.494132035
 21
-24.6105982756
  0
LINE
  5
4BB
100
AcDbEntity
  8
0
100
AcDbLine
 62
7
  6
CONTINUOUS
 10
-0.4806381342
 20
-24.593953609
 11
-0.5587711582
 21
-24.8118863625
  0
LINE
  5
4BC
100
AcDbEntity
  8
0
100
AcDbLine
 62
7
  6
CONTINUOUS
 10
0.0951463594
 20
-24.5676950162
 11
-0.0019509345
 21
-24.8363329841
  0
LINE
  5
4BD
100
AcDbEntity
  8
0
100
AcDbLine
 62
7
  6
CONTINUOUS
 10
-0.494132035
 20
-24.6105982756
 11
-0.4209644315
 21
-24.4084169786
  0
LINE
  5
4BE
100
AcDbEntity
  8
0
100
AcDbLine
 62
7
  6
CONTINUOUS
 10
-0.4143814841
 20
-24.4108050874
 11
-0.4806381342
 21
-24.593953609
  0
LINE
  5
4BF
100
AcDbEntity
  8
DRAFT
100
AcDbLine
 62
7
  6
CONTINUOUS
 10
-4.8360790791
 20
-19.2339376523
 11
-4.7452643724
 21
-19.1187386844
  0
LINE
  5
4C0
100
AcDbEntity
  8
DRAFT
100
AcDbLine
 62
7
  6
CONTINUOUS
 10
-4.7452643724
 20
-19.1187386844
 11
-4.1999721532
 21
-18.4437841866
  0
LINE
  5
4C1
100
AcDbEntity
  8
SUPERFICI
100
AcDbLine
 62
250
  6
CONTINUOUS
 10
8.6487334123
 20
9.7713908385
 11
8.6588123286
 21
9.4702033479
  0
LINE
  5
4C2
100
AcDbEntity
  8
SUPERFICI
100
AcDbLine
 62
250
  6
CONTINUOUS
 10
8.6588123286
 20
9.4702033479
 11
8.6696442722
 21
9.1286307041
  0
LINE
  5
4C3
100
AcDbEntity
  8
SUPERFICI
100
AcDbLine
 62
250
  6
CONTINUOUS
 10
8.6696442722
 20
9.1286307041
 11
8.681587678
 21
8.7338491206
  0
LINE
  5
4C4
100
AcDbEntity
  8
SUPERFICI
100
AcDbLine
 62
250
  6
CONTINUOUS
 10
8.681587678
 20
8.7338491206
 11
8.6950088332
 21
8.2729775005
  0
LINE
  5
4C5
100
AcDbEntity
  8
SUPERFICI
100
AcDbLine
 62
250
  6
CONTINUOUS
 10
8.6950088332
 20
8.2729775005
 11
8.7102095898
 21
7.7315277682
  0
LINE
  5
4C6
100
AcDbEntity
  8
SUPERFICI
100
AcDbLine
 62
250
  6
CONTINUOUS
 10
8.7102095898
 20
7.7315277682
 11
8.7273812893
 21
7.0969712141
  0
LINE
  5
4C7
100
AcDbEntity
  8
SUPERFICI
100
AcDbLine
 62
250
  6
CONTINUOUS
 10
8.7273812893
 20
7.0969712141
 11
8.7683564007
 21
5.5288620651
  0
LINE
  5
4C8
100
AcDbEntity
  8
SUPERFICI
100
AcDbLine
 62
250
  6
CONTINUOUS
 10
8.7683564007
 20
5.5288620651
 11
8.8263455841
 21
3.2533290855
  0
LINE
  5
4C9
100
AcDbEntity
  8
SUPERFICI
100
AcDbLine
 62
250
  6
CONTINUOUS
 10
8.8263455841
 20
3.2533290855
 11
9.0230184975
 21
-4.5985756521
  0
LINE
  5
4CA
100
AcDbEntity
  8
SUPERFICI
100
AcDbLine
 62
250
  6
CONTINUOUS
 10
9.0230184975
 20
-4.5985756521
 11
9.1793780135
 21
-10.8849563508
  0
LINE
  5
4CB
100
AcDbEntity
  8
SUPERFICI
100
AcDbLine
 62
250
  6
CONTINUOUS
 10
9.1793780135
 20
-10.8849563508
 11
9.2819151219
 21
-15.0271037976
  0
LINE
  5
4CC
100
AcDbEntity
  8
SUPERFICI
100
AcDbLine
 62
250
  6
CONTINUOUS
 10
9.2819151219
 20
-15.0271037976
 11
9.362632407
 21
-18.3071346257
  0
LWPOLYLINE
  5
4CD
100
AcDbEntity
  8
SUPERFICI
100
AcDbPolyline
 62
250
  6
CONTINUOUS
 90
4
 70
0
 10
9.362632407
 20
-18.3071346257
 10
9.3789255019
 20
-18.974334501
 10
9.3840581996
 20
-19.1852462649
 10
9.3890430199
 20
-19.3904843567
  0
LWPOLYLINE
  5
4CE
100
AcDbEntity
  8
SUPERFICI
100
AcDbPolyline
 62
250
  6
CONTINUOUS
 90
3
 70
0
 10
9.3890430199
 20
-19.3904843567
 10
9.3985990622
 20
-19.7852090282
 10
9.4031704185
 20
-19.9746953126
  0
LINE
  5
4CF
100
AcDbEntity
  8
SUPERFICI
100
AcDbLine
 62
250
  6
CONTINUOUS
 10
9.4031704185
 20
-19.9746953126
 11
9.4119316531
 21
-20.3391959818
  0
LWPOLYLINE
  5
4D0
100
AcDbEntity
  8
SUPERFICI
100
AcDbPolyline
 62
250
  6
CONTINUOUS
 90
3
 70
0
 10
9.4119316531
 20
-20.3391959818
 10
9.4201902855
 20
-20.6848062571
 10
9.4241406915
 20
-20.8510027142
  0
LINE
  5
4D1
100
AcDbEntity
  8
SUPERFICI
100
AcDbLine
 62
250
  6
CONTINUOUS
 10
9.4241406915
 20
-20.8510027142
 11
9.4388646148
 21
-21.4736608119
  0
LINE
  5
4D2
100
AcDbEntity
  8
SUPERFICI
100
AcDbLine
 62
250
  6
CONTINUOUS
 10
9.4388646148
 20
-21.4736608119
 11
9.4549214967
 21
-22.1634588631
  0
LINE
  5
4D3
100
AcDbEntity
  8
SUPERFICI
100
AcDbLine
 62
250
  6
CONTINUOUS
 10
9.4549214967
 20
-22.1634588631
 11
9.4682619142
 21
-22.7588363727
  0
LINE
  5
4D4
100
AcDbEntity
  8
SUPERFICI
100
AcDbLine
 62
250
  6
CONTINUOUS
 10
9.4682619142
 20
-22.7588363727
 11
9.4790829521
 21
-23.2654096462
  0
LINE
  5
4D5
100
AcDbEntity
  8
SUPERFICI
100
AcDbLine
 62
250
  6
CONTINUOUS
 10
9.4790829521
 20
-23.2654096462
 11
9.4894050094
 21
-23.7760061386
  0
LINE
  5
4D6
100
AcDbEntity
  8
SUPERFICI
100
AcDbLine
 62
250
  6
CONTINUOUS
 10
9.4894050094
 20
-23.7760061386
 11
9.4961817602
 21
-24.1357850471
  0
LINE
  5
4D7
100
AcDbEntity
  8
SUPERFICI
100
AcDbLine
 62
250
  6
CONTINUOUS
 10
9.4961817602
 20
-24.1357850471
 11
9.5015763202
 21
-24.4488475079
  0
LINE
  5
4D8
100
AcDbEntity
  8
SUPERFICI
100
AcDbLine
 62
250
  6
CONTINUOUS
 10
9.5015763202
 20
-24.4488475079
 11
9.5042598618
 21
-24.6194291941
  0
LWPOLYLINE
  5
4D9
100
AcDbEntity
  8
SUPERFICI
100
AcDbPolyline
 62
250
  6
CONTINUOUS
 90
51
 70
0
 10
9.5042536532
 20
-24.6194377981
 10
9.503557263
 20
-24.7218013412
 10
9.4982147589
 20
-24.8219939668
 10
9.4882824546
 20
-24.9199599757
 10
9.4734487194
 20
-25.0163789671
 10
9.4539856062
 20
-25.1106490843
 10
9.4312355428
 20
-25.2006839975
 10
9.4063252196
 20
-25.2855432697
 10
9.379489851
 20
-25.3651113552
 10
9.3511500737
 20
-25.4387783757
 10
9.3217778261
 20
-25.5070853692
 10
9.2913878106
 20
-25.5710760282
 10
9.2595185478
 20
-25.6313248736
 10
9.2262759063
 20
-25.6877684753
 10
9.1921884137
 20
-25.7404390496
 10
9.1574430486
 20
-25.7896816485
 10
9.1222660306
 20
-25.8356372263
 10
9.0868401851
 20
-25.8784546345
 10
9.0511882616
 20
-25.9185348497
 10
9.0154906332
 20
-25.955971413
 10
8.9798977143
 20
-25.9908593046
 10
8.9443368955
 20
-26.0235452984
 10
8.9089346048
 20
-26.0541116854
 10
8.8737957714
 20
-26.0826440429
 10
8.8387603084
 20
-26.1094584073
 10
8.8039118361
 20
-26.1346199483
 10
8.7693257441
 20
-26.1581886899
 10
8.7347862439
 20
-26.18043218
 10
8.7003075202
 20
-26.2014192915
 10
8.6659842201
 20
-26.2211620399
 10
8.6316923627
 20
-26.2398118351
 10
8.5973303616
 20
-26.2574717963
 10
8.5630685903
 20
-26.2740999391
 10
8.5291872819
 20
-26.2896333032
 10
8.4956984965
 20
-26.3041242429
 10
8.4626929108
 20
-26.3175990479
 10
8.4305878403
 20
-26.3299849816
 10
8.3995336082
 20
-26.3413060052
 10
8.3694122583
 20
-26.3516857648
 10
8.340228327
 20
-26.3612212391
 10
8.3120362968
 20
-26.3699407025
 10
8.2846589876
 20
-26.3779896635
 10
8.2577272818
 20
-26.3856246712
 10
8.231288449
 20
-26.3928770681
 10
8.2054133981
 20
-26.3997338608
 10
8.1797582904
 20
-26.4063507427
 10
8.1543769161
 20
-26.4127286353
 10
8.1292915817
 20
-26.4188730421
 10
8.1040556456
 20
-26.4249308545
 10
8.0786380146
 20
-26.4309148633
 10
8.053106546
 20
-26.4367991283
  0
LINE
  5
4DA
100
AcDbEntity
  8
0
100
AcDbLine
 62
7
  6
CONTINUOUS
 10
3.2724314114
 20
-27.243667869
 11
3.1915239559
 21
-27.529664946
  0
LINE
  5
4DB
100
AcDbEntity
  8
0
100
AcDbLine
 62
7
  6
CONTINUOUS
 10
3.3532386488
 20
-26.9614174714
 11
3.2724314114
 21
-27.243667869
  0
LINE
  5
4DC
100
AcDbEntity
  8
0
100
AcDbLine
 62
7
  6
CONTINUOUS
 10
3.4105178451
 20
-26.7634523017
 11
3.3532386488
 21
-26.9614174714
  0
LINE
  5
4DD
100
AcDbEntity
  8
0
100
AcDbLine
 62
7
  6
CONTINUOUS
 10
2.852964098
 20
-26.7422500301
 11
2.9086909446
 21
-26.5506555231
  0
LINE
  5
4DE
100
AcDbEntity
  8
0
100
AcDbLine
 62
7
  6
CONTINUOUS
 10
2.922546527
 20
-26.532991249
 11
2.8666894061
 21
-26.7250503031
  0
LINE
  5
4DF
100
AcDbEntity
  8
0
100
AcDbLine
 62
7
  6
CONTINUOUS
 10
3.4722222347
 20
-26.5525858024
 11
3.4105178451
 21
-26.7634523017
  0
LINE
  5
4E0
100
AcDbEntity
  8
0
100
AcDbLine
 62
7
  6
CONTINUOUS
 10
2.9086909446
 20
-26.5506555231
 11
2.9689599002
 21
-26.3458862423
  0
LINE
  5
4E1
100
AcDbEntity
  8
0
100
AcDbLine
 62
7
  6
CONTINUOUS
 10
2.982771111
 20
-26.3283476099
 11
2.922546527
 21
-26.532991249
  0
LINE
  5
4E2
100
AcDbEntity
  8
0
100
AcDbLine
 62
7
  6
CONTINUOUS
 10
3.538791222
 20
-26.3275086444
 11
3.4722222347
 21
-26.5525858024
  0
LINE
  5
4E3
100
AcDbEntity
  8
0
100
AcDbLine
 62
7
  6
CONTINUOUS
 10
3.0464243626
 20
-26.1144282568
 11
2.982771111
 21
-26.3283476099
  0
LINE
  5
4E4
100
AcDbEntity
  8
0
100
AcDbLine
 62
7
  6
CONTINUOUS
 10
2.9689599002
 20
-26.3458862423
 11
3.0327818743
 21
-26.1314224759
  0
LINE
  5
4E5
100
AcDbEntity
  8
0
100
AcDbLine
 62
7
  6
CONTINUOUS
 10
3.0327818743
 20
-26.1314224759
 11
3.0967135933
 21
-25.9195304381
  0
LINE
  5
4E6
100
AcDbEntity
  8
0
100
AcDbLine
 62
7
  6
CONTINUOUS
 10
3.1102521252
 20
-25.9028506075
 11
3.0464243626
 21
-26.1144282568
  0
LINE
  5
4E7
100
AcDbEntity
  8
0
100
AcDbLine
 62
7
  6
CONTINUOUS
 10
3.0967135933
 20
-25.9195304381
 11
3.1583359265
 21
-25.7178195738
  0
LINE
  5
4E8
100
AcDbEntity
  8
0
100
AcDbLine
 62
7
  6
CONTINUOUS
 10
3.1718741142
 20
-25.7011171456
 11
3.1102521252
 21
-25.9028506075
  0
LINE
  5
4E9
100
AcDbEntity
  8
0
100
AcDbLine
 62
7
  6
CONTINUOUS
 10
3.1583359265
 20
-25.7178195738
 11
3.2168792431
 21
-25.5287722925
  0
LINE
  5
4EA
100
AcDbEntity
  8
0
100
AcDbLine
 62
7
  6
CONTINUOUS
 10
3.2244847899
 20
-25.5311358418
 11
3.1718741142
 21
-25.7011171456
  0
LINE
  5
4EB
100
AcDbEntity
  8
0
100
AcDbLine
 62
250
  6
CONTINUOUS
 10
32.092403214
 20
22.1229071312
 11
30.0945885792
 21
19.4346689511
  0
LINE
  5
4EC
100
AcDbEntity
  8
DRAFT
100
AcDbLine
 62
7
  6
CONTINUOUS
 10
-0.2919164618
 20
-20.4863186839
 11
-0.3827311685
 21
-20.6015176518
  0
LINE
  5
4ED
100
AcDbEntity
  8
RACCORDO
100
AcDbLine
 62
7
  6
CONTINUOUS
 10
-2.5569874761
 20
-17.7019348856
 11
-2.6900822806
 21
-17.8493706831
  0
LINE
  5
4EE
100
AcDbEntity
  8
DRAFT
100
AcDbLine
 62
7
  6
CONTINUOUS
 10
-2.8403582425
 20
-18.0158389113
 11
-2.9405422171
 21
-18.1268177302
  0
LINE
  5
4EF
100
AcDbEntity
  8
DRAFT
100
AcDbLine
 62
7
  6
CONTINUOUS
 10
-3.090818179
 20
-18.2932859584
 11
-3.1910021536
 21
-18.4042647773
  0
LINE
  5
4F0
100
AcDbEntity
  8
DRAFT
100
AcDbLine
 62
7
  6
CONTINUOUS
 10
-3.3412781155
 20
-18.5707330055
 11
-3.4414620901
 21
-18.6817118243
  0
LINE
  5
4F1
100
AcDbEntity
  8
DRAFT
100
AcDbLine
 62
7
  6
CONTINUOUS
 10
-3.591738052
 20
-18.8481800526
 11
-3.6919220266
 21
-18.9591588714
  0
LINE
  5
4F2
100
AcDbEntity
  8
DRAFT
100
AcDbLine
 62
7
  6
CONTINUOUS
 10
-3.8421979885
 20
-19.1256270997
 11
-3.9423819631
 21
-19.2366059185
  0
LINE
  5
4F3
100
AcDbEntity
  8
DRAFT
100
AcDbLine
 62
7
  6
CONTINUOUS
 10
-4.092657925
 20
-19.4030741468
 11
-4.1335233096
 21
-19.4483427851
  0
LWPOLYLINE
  5
4F4
100
AcDbEntity
  8
SUPERFICI
100
AcDbPolyline
 62
250
  6
CONTINUOUS
 90
13
 70
0
 10
32.6177802503
 20
16.5342776534
 10
32.5543876414
 20
16.4759897382
 10
32.4803248752
 20
16.4225059628
 10
32.3965769673
 20
16.3745376505
 10
32.3042577432
 20
16.3327227703
 10
32.2045950244
 20
16.2976174522
 10
32.0989142992
 20
16.2696885907
 10
31.988621094
 20
16.2493076354
 10
31.8751822795
 20
16.2367456504
 10
31.7601065627
 20
16.2321697097
 10
31.6449244206
 20
16.2356406751
 10
31.5311677457
 20
16.2471123864
 10
31.4203494724
 20
16.2664322756
  0
LWPOLYLINE
  5
4F5
100
AcDbEntity
  8
SUPERFICI
100
AcDbPolyline
 62
250
  6
CONTINUOUS
 90
10
 70
0
 10
6.9142083588
 20
9.9153588458
 10
7.1101320412
 20
9.9317924636
 10
7.3072404207
 20
9.9400786055
 10
7.5046796639
 20
9.9401813745
 10
7.7015945043
 20
9.9321003223
 10
7.8971319467
 20
9.9158704513
 10
8.0904449628
 20
9.891562063
 10
8.2806961599
 20
9.8592804532
 10
8.4670614085
 20
9.8191654561
 10
8.6487334123
 20
9.7713908385
  0
LWPOLYLINE
  5
4F6
100
AcDbEntity
  8
SUPERFICI
100
AcDbPolyline
 62
250
  6
CONTINUOUS
 90
18
 70
0
 10
6.9142081047
 20
9.9153581976
 10
6.8100403224
 20
9.9083781158
 10
6.7053639401
 20
9.906494933
 10
6.6013186259
 20
9.9099960776
 10
6.499078026
 20
9.9174924708
 10
6.3996733585
 20
9.9310103148
 10
6.3040922535
 20
9.9548548185
 10
6.2133628635
 20
9.99073938
 10
6.1285290091
 20
10.0344485646
 10
6.0506276416
 20
10.0813622569
 10
5.9805812955
 20
10.1299513633
 10
5.9190926426
 20
10.1818581262
 10
5.8667893992
 20
10.2378151427
 10
5.8242367058
 20
10.2974733792
 10
5.7919141248
 20
10.3598016829
 10
5.7701770358
 20
10.4240922697
 10
5.7592639288
 20
10.4896315361
 10
5.7582367026
 20
10.5086951853
  0
LINE
  5
4F7
100
AcDbEntity
  8
SUPERFICI
100
AcDbLine
 62
7
  6
CONTINUOUS
 10
-14.2245950301
 20
16.9349995658
 11
5.281370325
 21
10.9449066035
  0
LWPOLYLINE
  5
4F8
100
AcDbEntity
  8
SUPERFICI
100
AcDbPolyline
 62
7
  6
CONTINUOUS
 90
64
 70
0
 10
5.2813761024
 20
10.9449035195
 10
5.2889495123
 20
10.9425144115
 10
5.2982390889
 20
10.9394209441
 10
5.3078256912
 20
10.9360453004
 10
5.3176898011
 20
10.9323823878
 10
5.3278060851
 20
10.9284303258
 10
5.3381387694
 20
10.9241929355
 10
5.3486874514
 20
10.9196606246
 10
5.3594806872
 20
10.9148098408
 10
5.3705366676
 20
10.9096189584
 10
5.3818016136
 20
10.9040999943
 10
5.3931956996
 20
10.8982820536
 10
5.4046810108
 20
10.8921773228
 10
5.4162550864
 20
10.8857803948
 10
5.4278904096
 20
10.8790998957
 10
5.4395635931
 20
10.8721434784
 10
5.4512582336
 20
10.8649156077
 10
5.4629577417
 20
10.857421476
 10
5.4746493011
 20
10.8496643637
 10
5.4863067093
 20
10.8416571977
 10
5.4978940945
 20
10.833421478
 10
5.5093896457
 20
10.8249708046
 10
5.5207787059
 20
10.8163145789
 10
5.532037398
 20
10.8074702301
 10
5.5431495165
 20
10.7984505372
 10
5.5540979394
 20
10.789270014
 10
5.5648588367
 20
10.7799502007
 10
5.5754162966
 20
10.7705074185
 10
5.5857572163
 20
10.7609565457
 10
5.5958635617
 20
10.7513181931
 10
5.6057262211
 20
10.7416057081
 10
5.6153297723
 20
10.7318396152
 10
5.6246490594
 20
10.7220524138
 10
5.6336743823
 20
10.7122626844
 10
5.6423979308
 20
10.7024880438
 10
5.6508006953
 20
10.6927603399
 10
5.6588677211
 20
10.6831094504
 10
5.6666045491
 20
10.6735421276
 10
5.6740235334
 20
10.6640557245
 10
5.6811314699
 20
10.6546532851
 10
5.6879126336
 20
10.6453683081
 10
5.6943471736
 20
10.6362437532
 10
5.7004350237
 20
10.6272978737
 10
5.7061777294
 20
10.6185476457
 10
5.7115633879
 20
10.6100327967
 10
5.7165795708
 20
10.6017986079
 10
5.7212517992
 20
10.5938299456
 10
5.7256220939
 20
10.5860777159
 10
5.7297080512
 20
10.5785291323
 10
5.733493991
 20
10.5712333095
 10
5.7369694702
 20
10.5642361679
 10
5.7401475778
 20
10.5575401429
 10
5.7430286453
 20
10.5511755314
 10
5.7455943319
 20
10.5452218904
 10
5.7478370737
 20
10.5397473428
 10
5.7498024685
 20
10.5346928206
 10
5.7515465961
 20
10.5299546257
 10
5.7530878343
 20
10.5255140846
 10
5.7544169169
 20
10.5214337129
 10
5.7555367919
 20
10.5177510597
 10
5.7564642122
 20
10.5144632126
 10
5.7572000662
 20
10.5116282962
 10
5.7577399585
 20
10.5093495556
 10
5.7578888875
 20
10.5086764437
  0
LINE
  5
4F9
100
AcDbEntity
  8
0
100
AcDbLine
 62
7
  6
CONTINUOUS
 10
4.5492787966
 20
-27.9336490506
 11
4.651312938
 21
-27.6310185868
  0
LINE
  5
4FA
100
AcDbEntity
  8
0
100
AcDbLine
 62
7
  6
CONTINUOUS
 10
5.1879918539
 20
-27.7377469298
 11
5.070157006
 21
-28.0869367235
  0
LINE
  5
4FB
100
AcDbEntity
  8
0
100
AcDbLine
 62
7
  6
CONTINUOUS
 10
4.7288222387
 20
-27.4257399809
 11
4.5630418564
 21
-27.9164020152
  0
LINE
  5
4FC
100
AcDbEntity
  8
0
100
AcDbLine
 62
7
  6
CONTINUOUS
 10
4.651312938
 20
-27.6310185868
 11
4.7456159081
 21
-27.3532354967
  0
LINE
  5
4FD
100
AcDbEntity
  8
0
100
AcDbLine
 62
7
  6
CONTINUOUS
 10
4.7456159081
 20
-27.3532354967
 11
4.8401496763
 21
-27.0767903403
  0
LINE
  5
4FE
100
AcDbEntity
  8
0
100
AcDbLine
 62
7
  6
CONTINUOUS
 10
4.8542362488
 20
-27.0585466637
 11
4.7288222387
 21
-27.4257399809
  0
LINE
  5
4FF
100
AcDbEntity
  8
0
100
AcDbLine
 62
7
  6
CONTINUOUS
 10
4.8401496763
 20
-27.0767903403
 11
4.9063809031
 21
-26.8844558602
  0
LWPOLYLINE
  5
500
100
AcDbEntity
  8
0
100
AcDbPolyline
 62
7
  6
CONTINUOUS
 90
3
 70
0
 10
5.4897581501
 20
-26.8555010254
 10
5.4678764894
 20
-26.918734208
 10
5.3032010652
 20
-27.3986796563
  0
LINE
  5
501
100
AcDbEntity
  8
0
100
AcDbLine
 62
7
  6
CONTINUOUS
 10
4.9550881691
 20
-26.7662943926
 11
4.8542362488
 21
-27.0585466637
  0
LINE
  5
502
100
AcDbEntity
  8
0
100
AcDbLine
 62
7
  6
CONTINUOUS
 10
4.9063809031
 20
-26.8844558602
 11
4.9776408906
 21
-26.6792865918
  0
LINE
  5
503
100
AcDbEntity
  8
0
100
AcDbLine
 62
7
  6
CONTINUOUS
 10
5.029341688
 20
-26.5534038347
 11
4.9550881691
 21
-26.7662943926
  0
LINE
  5
504
100
AcDbEntity
  8
0
100
AcDbLine
 62
7
  6
CONTINUOUS
 10
4.9776408906
 20
-26.6792865918
 11
5.0539317281
 21
-26.4617176865
  0
LINE
  5
505
100
AcDbEntity
  8
0
100
AcDbLine
 62
7
  6
CONTINUOUS
 10
5.1068084474
 20
-26.3339214344
 11
5.029341688
 21
-26.5534038347
  0
LWPOLYLINE
  5
506
100
AcDbEntity
  8
0
100
AcDbPolyline
 62
7
  6
CONTINUOUS
 90
3
 70
0
 10
5.0539317281
 20
-26.4617176865
 10
5.1327211125
 20
-26.2399480376
 10
5.173198814
 20
-26.1270065529
  0
LINE
  5
507
100
AcDbEntity
  8
0
100
AcDbLine
 62
7
  6
CONTINUOUS
 10
5.1798720098
 20
-26.1293979936
 11
5.1068084474
 21
-26.3339214344
  0
LWPOLYLINE
  5
508
100
AcDbEntity
  8
RACCORDO
100
AcDbPolyline
 62
250
  6
CONTINUOUS
 90
4
 70
0
 10
2.8296304364
 20
-20.1074075695
 10
2.8405950775
 20
-20.0893120747
 10
2.8486251878
 20
-20.0706510611
 10
2.853638064
 20
-20.0516167199
  0
LWPOLYLINE
  5
509
100
AcDbEntity
  8
SUPERFICI
100
AcDbPolyline
 62
250
  6
CONTINUOUS
 90
13
 70
0
 10
30.0945885802
 20
19.4346689331
 10
30.0475722553
 20
19.3584328294
 10
30.001748035
 20
19.273350239
 10
29.9577225441
 20
19.1805474921
 10
29.9160785958
 20
19.0812531194
 10
29.8773674762
 20
18.9767815879
 10
29.8421016462
 20
18.8685159006
 10
29.8107479579
 20
18.7578892875
 10
29.783721474
 20
18.6463662331
 10
29.7613799733
 20
18.5354230888
 10
29.7440192145
 20
18.4265285292
 10
29.7318690207
 20
18.3211241095
 10
29.7250902373
 20
18.2206051822
  0
LWPOLYLINE
  5
50A
100
AcDbEntity
  8
RACCORDO
100
AcDbPolyline
 62
7
  6
CONTINUOUS
 90
7
 70
0
 10
2.8107969106
 20
-19.3503294679
 10
2.8201556015
 20
-19.3352557716
 10
2.827425115
 20
-19.3199356472
 10
2.832605451
 20
-19.3043690949
 10
2.8357020899
 20
-19.2883988633
 10
2.8367095514
 20
-19.2721822037
 10
2.8367385885
 20
-19.269908391
  0
LINE
  5
50B
100
AcDbEntity
  8
RACCORDO
100
AcDbLine
 62
250
  6
CONTINUOUS
 10
2.5465936005
 20
-20.5155891691
 11
2.8296304364
 21
-20.1074075695
  0
LINE
  5
50C
100
AcDbEntity
  8
RACCORDO
100
AcDbLine
 62
7
  6
CONTINUOUS
 10
2.579964929
 20
-20.5258371808
 11
2.8021943095
 21
-20.2053490588
  0
LINE
  5
50D
100
AcDbEntity
  8
RACCORDO
100
AcDbLine
 62
7
  6
CONTINUOUS
 10
2.8107969106
 20
-19.3503294679
 11
2.7025068768
 21
-19.5053825701
  0
LINE
  5
50E
100
AcDbEntity
  8
DRAFT
100
AcDbLine
 62
7
  6
CONTINUOUS
 10
2.5802377238
 20
-19.6804514181
 11
2.4987249551
 21
-19.7971639834
  0
LINE
  5
50F
100
AcDbEntity
  8
DRAFT
100
AcDbLine
 62
7
  6
CONTINUOUS
 10
2.3764558021
 20
-19.9722328313
 11
2.2949430335
 21
-20.0889453966
  0
LINE
  5
510
100
AcDbEntity
  8
DRAFT
100
AcDbLine
 62
7
  6
CONTINUOUS
 10
2.1726738805
 20
-20.2640142446
 11
2.09403447
 21
-20.3766126445
  0
LINE
  5
511
100
AcDbEntity
  8
0
100
AcDbLine
 62
7
  6
CONTINUOUS
 10
-0.8701978296
 20
-25.6769902346
 11
-0.8564835708
 21
-25.6598043538
  0
LINE
  5
512
100
AcDbEntity
  8
0
100
AcDbLine
 62
7
  6
CONTINUOUS
 10
-1.0607419703
 20
-26.2348908645
 11
-1.0469973823
 21
-26.217666977
  0
LINE
  5
513
100
AcDbEntity
  8
DRAFT
100
AcDbLine
 62
7
  6
CONTINUOUS
 10
0.2533757574
 20
-19.8113641861
 11
-0.2919164618
 21
-20.4863186839
  0
LINE
  5
514
100
AcDbEntity
  8
0
100
AcDbLine
 62
250
  6
CONTINUOUS
 10
32.6177802503
 20
16.5342776534
 11
34.8222761818
 21
18.9763084829
  0
LINE
  5
515
100
AcDbEntity
  8
SUPERFICI
100
AcDbLine
 62
250
  6
CONTINUOUS
 10
-14.0547486154
 20
19.4399022432
 11
-13.7530479225
 21
19.3517304405
  0
LINE
  5
516
100
AcDbEntity
  8
SUPERFICI
100
AcDbLine
 62
250
  6
CONTINUOUS
 10
-13.7530479225
 20
19.3517304405
 11
-13.4241544456
 21
19.2548707171
  0
LINE
  5
517
100
AcDbEntity
  8
SUPERFICI
100
AcDbLine
 62
250
  6
CONTINUOUS
 10
-13.4241544456
 20
19.2548707171
 11
-13.0687132226
 21
19.1495528511
  0
LINE
  5
518
100
AcDbEntity
  8
SUPERFICI
100
AcDbLine
 62
250
  6
CONTINUOUS
 10
-13.0687132226
 20
19.1495528511
 11
-12.6864290168
 21
19.0356311814
  0
LINE
  5
519
100
AcDbEntity
  8
SUPERFICI
100
AcDbLine
 62
250
  6
CONTINUOUS
 10
-12.6864290168
 20
19.0356311814
 11
-12.2753529231
 21
18.912531401
  0
LINE
  5
51A
100
AcDbEntity
  8
SUPERFICI
100
AcDbLine
 62
250
  6
CONTINUOUS
 10
-12.2753529231
 20
18.912531401
 11
-11.831799092
 21
18.7791398823
  0
LINE
  5
51B
100
AcDbEntity
  8
SUPERFICI
100
AcDbLine
 62
250
  6
CONTINUOUS
 10
-11.831799092
 20
18.7791398823
 11
-11.3517755405
 21
18.6342446518
  0
LINE
  5
51C
100
AcDbEntity
  8
SUPERFICI
100
AcDbLine
 62
250
  6
CONTINUOUS
 10
-11.3517755405
 20
18.6342446518
 11
-10.8308863757
 21
18.4765172591
  0
LINE
  5
51D
100
AcDbEntity
  8
SUPERFICI
100
AcDbLine
 62
250
  6
CONTINUOUS
 10
-10.8308863757
 20
18.4765172591
 11
-10.0673244462
 21
18.244591234
  0
LINE
  5
51E
100
AcDbEntity
  8
SUPERFICI
100
AcDbLine
 62
250
  6
CONTINUOUS
 10
-10.0673244462
 20
18.244591234
 11
-9.219768394
 21
17.9864161225
  0
LINE
  5
51F
100
AcDbEntity
  8
SUPERFICI
100
AcDbLine
 62
250
  6
CONTINUOUS
 10
-9.219768394
 20
17.9864161225
 11
-8.2796899393
 21
17.6994243522
  0
LINE
  5
520
100
AcDbEntity
  8
SUPERFICI
100
AcDbLine
 62
250
  6
CONTINUOUS
 10
-6.9566194771
 20
17.2948129086
 11
-4.7596988923
 21
16.6224842458
  0
LINE
  5
521
100
AcDbEntity
  8
SUPERFICI
100
AcDbLine
 62
250
  6
CONTINUOUS
 10
-8.2796899393
 20
17.6994243522
 11
-6.9566194771
 21
17.2948129086
  0
LINE
  5
522
100
AcDbEntity
  8
SUPERFICI
100
AcDbLine
 62
250
  6
CONTINUOUS
 10
-4.9983594167
 20
15.0424583256
 11
-4.1076898346
 21
14.7689423257
  0
LINE
  5
523
100
AcDbEntity
  8
SUPERFICI
100
AcDbLine
 62
250
  6
CONTINUOUS
 10
-4.7596989703
 20
16.6224785202
 11
-3.8690293882
 21
16.3489625203
  0
LINE
  5
524
100
AcDbEntity
  8
SUPERFICI
100
AcDbLine
 62
250
  6
CONTINUOUS
 10
-11.4196442813
 20
17.0097004113
 11
-4.9983599735
 21
15.0424561906
  0
LINE
  5
525
100
AcDbEntity
  8
SUPERFICI
100
AcDbLine
 62
250
  6
CONTINUOUS
 10
-4.1076904151
 20
14.7689401543
 11
5.1984985076
 21
11.9095786962
  0
LINE
  5
526
100
AcDbEntity
  8
SUPERFICI
100
AcDbLine
 62
250
  6
CONTINUOUS
 10
-13.1867397364
 20
17.5534308483
 11
-11.4196442813
 21
17.0097004113
  0
LINE
  5
527
100
AcDbEntity
  8
SUPERFICI
100
AcDbLine
 62
250
  6
CONTINUOUS
 10
-3.8690293104
 20
16.348968298
 11
-0.8079943514
 21
15.4055880104
  0
LINE
  5
528
100
AcDbEntity
  8
SUPERFICI
100
AcDbLine
 62
250
  6
CONTINUOUS
 10
-0.8079943514
 20
15.4055880104
 11
0.4194791897
 21
15.0266336613
  0
LINE
  5
529
100
AcDbEntity
  8
SUPERFICI
100
AcDbLine
 62
250
  6
CONTINUOUS
 10
0.4194791897
 20
15.0266336613
 11
1.2852857511
 21
14.7587215603
  0
LINE
  5
52A
100
AcDbEntity
  8
SUPERFICI
100
AcDbLine
 62
250
  6
CONTINUOUS
 10
-14.3052948917
 20
17.8990046341
 11
-13.1867397364
 21
17.5534308483
  0
LWPOLYLINE
  5
52B
100
AcDbEntity
  8
SUPERFICI
100
AcDbPolyline
 62
250
  6
CONTINUOUS
 90
91
 70
0
 10
5.1984972574
 20
11.9095777188
 10
5.2294738346
 20
11.8999655847
 10
5.2595268249
 20
11.890138103
 10
5.2886454872
 20
11.8801410056
 10
5.3167083574
 20
11.8700577348
 10
5.343820713
 20
11.8598942658
 10
5.3703136365
 20
11.8495638212
 10
5.3960683854
 20
11.8391398282
 10
5.4211937377
 20
11.8286028519
 10
5.4463594446
 20
11.8176867227
 10
5.4715522424
 20
11.8063842047
 10
5.4967708005
 20
11.7947015674
 10
5.5226955168
 20
11.7823423305
 10
5.5495835401
 20
11.7691524135
 10
5.5771496007
 20
11.7552264348
 10
5.6052564647
 20
11.7406199601
 10
5.6341646864
 20
11.7251675494
 10
5.6635803762
 20
11.7089836888
 10
5.6925479999
 20
11.692588374
 10
5.7209470869
 20
11.6760721675
 10
5.7488925729
 20
11.6593828655
 10
5.7758053847
 20
11.6428882178
 10
5.8015220854
 20
11.6267346039
 10
5.8262245249
 20
11.6108538039
 10
5.8498630042
 20
11.5953138565
 10
5.8724382382
 20
11.5801560058
 10
5.8939723135
 20
11.5654054646
 10
5.9144495707
 20
11.5511062558
 10
5.933832397
 20
11.5373232134
 10
5.9521844466
 20
11.5240489414
 10
5.9696403976
 20
11.5112140681
 10
5.9862328165
 20
11.4988287016
 10
6.0019506272
 20
11.4869231646
 10
6.0168595265
 20
11.4754521303
 10
6.0308564946
 20
11.4645170315
 10
6.0440641405
 20
11.4540492634
 10
6.0568791972
 20
11.4437385358
 10
6.0693422534
 20
11.4335564396
 10
6.0814187945
 20
11.4235440662
 10
6.0933832036
 20
11.4134832377
 10
6.1052390707
 20
11.4033726175
 10
6.1169817346
 20
11.3932167231
 10
6.1288654713
 20
11.3827973836
 10
6.1408837151
 20
11.3721144366
 10
6.1530339108
 20
11.3611630341
 10
6.1655678302
 20
11.3497095081
 10
6.1784702736
 20
11.3377502718
 10
6.1917364516
 20
11.3252751939
 10
6.2056231603
 20
11.3120314106
 10
6.2201686341
 20
11.2979502606
 10
6.2352975148
 20
11.2830750622
 10
6.2510868839
 20
11.267313541
 10
6.267578846
 20
11.2505873125
 10
6.2846805209
 20
11.2329437548
 10
6.3022652793
 20
11.2144792662
 10
6.3203543288
 20
11.1951315866
 10
6.3388725244
 20
11.1749370526
 10
6.3575591572
 20
11.1541485115
 10
6.3763392138
 20
11.1328237052
 10
6.3952479168
 20
11.1108944832
 10
6.414200974
 20
11.0884329929
 10
6.4331116388
 20
11.0655184715
 10
6.4520291222
 20
11.0420673488
 10
6.4710679494
 20
11.0179063513
 10
6.4901949184
 20
10.9930352859
 10
6.5093840154
 20
10.9674453789
 10
6.5287430557
 20
10.9409444065
 10
6.5482302958
 20
10.913525199
 10
6.5678014099
 20
10.8851841129
 10
6.5875391735
 20
10.8557288966
 10
6.6073858127
 20
10.8251518468
 10
6.6272789445
 20
10.7934518269
 10
6.6472697307
 20
10.7604427642
 10
6.6672816608
 20
10.7261159239
 10
6.6872281759
 20
10.6904790061
 10
6.707117502
 20
10.6533694804
 10
6.7268453727
 20
10.614790626
 10
6.7463023837
 20
10.5747548663
 10
6.7654577426
 20
10.5331156903
 10
6.7842276812
 20
10.4897813094
 10
6.8024151436
 20
10.4448874469
 10
6.8198120302
 20
10.3986370274
 10
6.8362054656
 20
10.3513971067
 10
6.8515483685
 20
10.3028851357
 10
6.8658100637
 20
10.2523516666
 10
6.8788331736
 20
10.1994320967
 10
6.8902574546
 20
10.1446704359
 10
6.8997150337
 20
10.0887061796
 10
6.9069749128
 20
10.0318314807
 10
6.911875173
 20
9.9740005142
 10
6.9142081047
 20
9.9153581976
  0
LINE
  5
52C
100
AcDbEntity
  8
SUPERFICI
100
AcDbLine
 62
250
  6
CONTINUOUS
 10
1.2852857511
 20
14.7587215603
 11
2.0605706046
 21
14.5181751048
  0
LINE
  5
52D
100
AcDbEntity
  8
SUPERFICI
100
AcDbLine
 62
250
  6
CONTINUOUS
 10
2.0605706046
 20
14.5181751048
 11
2.5882934181
 21
14.3539663817
  0
LINE
  5
52E
100
AcDbEntity
  8
SUPERFICI
100
AcDbLine
 62
250
  6
CONTINUOUS
 10
2.5882934181
 20
14.3539663817
 11
3.0742624158
 21
14.2023086683
  0
LINE
  5
52F
100
AcDbEntity
  8
SUPERFICI
100
AcDbLine
 62
250
  6
CONTINUOUS
 10
3.0742624158
 20
14.2023086683
 11
3.5229369149
 21
14.0618136891
  0
LINE
  5
530
100
AcDbEntity
  8
SUPERFICI
100
AcDbLine
 62
250
  6
CONTINUOUS
 10
3.5229369149
 20
14.0618136891
 11
3.9385071997
 21
13.9311788745
  0
LINE
  5
531
100
AcDbEntity
  8
SUPERFICI
100
AcDbLine
 62
250
  6
CONTINUOUS
 10
3.9385071997
 20
13.9311788745
 11
4.3248970489
 21
13.8091853035
  0
LINE
  5
532
100
AcDbEntity
  8
SUPERFICI
100
AcDbLine
 62
250
  6
CONTINUOUS
 10
4.3248970489
 20
13.8091853035
 11
4.6845946932
 21
13.6950402773
  0
LINE
  5
533
100
AcDbEntity
  8
SUPERFICI
100
AcDbLine
 62
250
  6
CONTINUOUS
 10
4.6845946932
 20
13.6950402773
 11
5.0182844998
 21
13.5885733263
  0
LWPOLYLINE
  5
534
100
AcDbEntity
  8
SUPERFICI
100
AcDbPolyline
 62
250
  6
CONTINUOUS
 90
3
 70
0
 10
5.0182844998
 20
13.5885733263
 10
5.3256324286
 20
13.4898606398
 10
5.4219632257
 20
13.4587926077
  0
LWPOLYLINE
  5
535
100
AcDbEntity
  8
SUPERFICI
100
AcDbPolyline
 62
250
  6
CONTINUOUS
 90
12
 70
0
 10
5.421963754
 20
13.4587932038
 10
5.4818875576
 20
13.4389228733
 10
5.5400095606
 20
13.4186971579
 10
5.5963049344
 20
13.3982146878
 10
5.6505289221
 20
13.3776930337
 10
5.7028774739
 20
13.35713003
 10
5.7540009527
 20
13.3362561024
 10
5.8038166305
 20
13.3150124997
 10
5.8525656591
 20
13.2934606419
 10
5.9013717555
 20
13.2714309027
 10
5.9499105413
 20
13.2491942182
 10
5.9976744579
 20
13.2269461082
  0
LWPOLYLINE
  5
536
100
AcDbEntity
  8
SUPERFICI
100
AcDbPolyline
 62
250
  6
CONTINUOUS
 90
24
 70
0
 10
5.9976744579
 20
13.2269461082
 10
6.0931745112
 20
13.1816137959
 10
6.1415787896
 20
13.158190104
 10
6.1910236751
 20
13.1335648305
 10
6.2421488219
 20
13.1072705953
 10
6.2942702311
 20
13.0796810981
 10
6.3456377261
 20
13.0516292097
 10
6.3960355368
 20
13.0232183925
 10
6.4456998052
 20
12.994379341
 10
6.4936384927
 20
12.9657670755
 10
6.5395326007
 20
12.9376518741
 10
6.583645751
 20
12.9099442424
 10
6.625848113
 20
12.8828164765
 10
6.6661715998
 20
12.8563136053
 10
6.704723524
 20
12.8304188958
 10
6.7415227886
 20
12.8051904283
 10
6.7763705807
 20
12.7808491274
 10
6.8092239135
 20
12.757493729
 10
6.840279337
 20
12.7350304778
 10
6.8697753834
 20
12.7133456674
 10
6.8982952153
 20
12.691986271
 10
6.9267097738
 20
12.6701904821
 10
6.9549730105
 20
12.6478455516
 10
6.9826064846
 20
12.6254562634
  0
LINE
  5
537
100
AcDbEntity
  8
SUPERFICI
100
AcDbLine
 62
250
  6
CONTINUOUS
 10
6.9826064846
 20
12.6254562634
 11
7.0359131072
 21
12.5816328162
  0
LINE
  5
538
100
AcDbEntity
  8
SUPERFICI
100
AcDbLine
 62
250
  6
CONTINUOUS
 10
7.0359131072
 20
12.5816328162
 11
7.0866874743
 21
12.5391387632
  0
LINE
  5
539
100
AcDbEntity
  8
SUPERFICI
100
AcDbLine
 62
250
  6
CONTINUOUS
 10
7.0866874743
 20
12.5391387632
 11
7.1363311398
 21
12.4969692439
  0
LWPOLYLINE
  5
53A
100
AcDbEntity
  8
SUPERFICI
100
AcDbPolyline
 62
250
  6
CONTINUOUS
 90
49
 70
0
 10
7.1363311398
 20
12.4969692439
 10
7.1859378252
 20
12.4542010948
 10
7.2108396803
 20
12.4324900372
 10
7.2362429909
 20
12.4101332519
 10
7.2621211427
 20
12.3871407289
 10
7.2883804636
 20
12.3635894775
 10
7.3153013779
 20
12.339174264
 10
7.3428451497
 20
12.313929926
 10
7.3710257442
 20
12.2877915861
 10
7.4001831282
 20
12.2602972857
 10
7.430523026
 20
12.2311712543
 10
7.4619198263
 20
12.2004954587
 10
7.4942331159
 20
12.1683178349
 10
7.5275547685
 20
12.1344743736
 10
7.5617277311
 20
12.0990509068
 10
7.596252188
 20
12.0624823789
 10
7.6309820891
 20
12.0248746948
 10
7.6659883003
 20
11.9861091269
 10
7.7011098531
 20
11.9463020427
 10
7.736189444
 20
11.9055915182
 10
7.7713165636
 20
11.8638301725
 10
7.8066908302
 20
11.8207044117
 10
7.8422529222
 20
11.776217436
 10
7.877954592
 20
11.7303526294
 10
7.9139821835
 20
11.6827557572
 10
7.9502643482
 20
11.6334154819
 10
7.9867198863
 20
11.5823231732
 10
8.023483234
 20
11.5291193669
 10
8.0604569132
 20
11.4737886723
 10
8.0975196138
 20
11.4163409345
 10
8.1347244859
 20
11.3564531683
 10
8.1719292057
 20
11.2941360689
 10
8.2089846176
 20
11.2293839602
 10
8.2458853071
 20
11.1618423732
 10
8.2824985769
 20
11.0914427454
 10
8.3185589687
 20
11.018329136
 10
8.3537942846
 20
10.9425291401
 10
8.387700957
 20
10.8643315018
 10
8.4203044945
 20
10.783605651
 10
8.4521322583
 20
10.6995675591
 10
8.4830576576
 20
10.6119639178
 10
8.5128178116
 20
10.5203581096
 10
8.5414815638
 20
10.4238064166
 10
8.5687934564
 20
10.3218185062
 10
8.5935217801
 20
10.2156679915
 10
8.6143274948
 20
10.1070835047
 10
8.6305796256
 20
9.9968917417
 10
8.6421775344
 20
9.8849116234
 10
8.6487322518
 20
9.7713892603
  0
LINE
  5
53B
100
AcDbEntity
  8
0
100
AcDbLine
 62
7
  6
CONTINUOUS
 10
0.6299814395
 20
-26.7535299347
 11
0.643730861
 21
-26.7362999902
  0
LINE
  5
53C
100
AcDbEntity
  8
0
100
AcDbLine
 62
7
  6
CONTINUOUS
 10
2.0434874501
 20
-25.8712273942
 11
2.0571762417
 21
-25.8540734274
  0
LINE
  5
53D
100
AcDbEntity
  8
0
100
AcDbLine
 62
7
  6
CONTINUOUS
 10
1.6647357759
 20
-27.0688662183
 11
1.6784888725
 21
-27.0516316683
  0
LINE
  5
53E
100
AcDbEntity
  8
0
100
AcDbLine
 62
7
  6
CONTINUOUS
 10
2.852964098
 20
-26.7422500301
 11
2.8666894061
 21
-26.7250503031
  0
LINE
  5
53F
100
AcDbEntity
  8
0
100
AcDbLine
 62
7
  6
CONTINUOUS
 10
2.6727281109
 20
-27.3737872349
 11
2.6864850662
 21
-27.3565478494
  0
LINE
  5
540
100
AcDbEntity
  8
0
100
AcDbLine
 62
7
  6
CONTINUOUS
 10
3.538791222
 20
-26.3275086444
 11
3.552488326
 21
-26.3103442611
  0
LINE
  5
541
100
AcDbEntity
  8
0
100
AcDbLine
 62
250
  6
CONTINUOUS
 10
6.6062502197
 20
-23.5844896337
 11
6.4620310527
 21
-23.7652163828
  0
LINE
  5
542
100
AcDbEntity
  8
0
100
AcDbLine
 62
7
  6
CONTINUOUS
 10
3.6825117789
 20
-27.6764537334
 11
3.6962724021
 21
-27.6592097516
  0
LWPOLYLINE
  5
543
100
AcDbEntity
  8
SUPERFICI
100
AcDbPolyline
 62
7
  6
CONTINUOUS
 90
23
 70
0
 10
-14.3157433259
 20
16.9520502027
 10
-14.3173107329
 20
16.95181884
 10
-14.3183389731
 20
16.9516926475
 10
-14.318684093
 20
16.951658608
 10
-14.3183483155
 20
16.9516817118
 10
-14.3173577614
 20
16.9517274257
 10
-14.3156666701
 20
16.9517653092
 10
-14.3132901392
 20
16.9517619702
 10
-14.3103466896
 20
16.9516897209
 10
-14.3069115553
 20
16.9515294267
 10
-14.3029899167
 20
16.9512629152
 10
-14.2986208114
 20
16.9508756741
 10
-14.2938659588
 20
16.9503589116
 10
-14.2887144108
 20
16.9496984562
 10
-14.2830625643
 20
16.9488644948
 10
-14.2768280753
 20
16.9478227449
 10
-14.2700960692
 20
16.9465651107
 10
-14.2630077036
 20
16.9451020119
 10
-14.255642177
 20
16.9434399147
 10
-14.2479671748
 20
16.9415625333
 10
-14.2399652234
 20
16.9394547256
 10
-14.2316393811
 20
16.9371055872
 10
-14.2246061901
 20
16.9350017084
  0
LWPOLYLINE
  5
544
100
AcDbEntity
  8
SUPERFICI
100
AcDbPolyline
 62
250
  6
CONTINUOUS
 90
13
 70
0
 10
-14.7099461353
 20
19.5725996099
 10
-14.6149892776
 20
19.5591839736
 10
-14.5671796079
 20
19.5521421655
 10
-14.5190799564
 20
19.5445967767
 10
-14.4714450291
 20
19.5366488589
 10
-14.4242271592
 20
19.528284515
 10
-14.376027893
 20
19.5190394635
 10
-14.3265813908
 20
19.5087373632
 10
-14.2760355506
 20
19.4974628243
 10
-14.2236371726
 20
19.4850446206
 10
-14.1691473089
 20
19.4713498879
 10
-14.1128428627
 20
19.4563293833
 10
-14.0547483838
 20
19.4399024983
  0
LWPOLYLINE
  5
545
100
AcDbEntity
  8
0
100
AcDbPolyline
 62
7
  6
CONTINUOUS
 90
61
 70
0
 10
8.3826518255
 20
-27.794861705
 10
8.3846180749
 20
-27.7923357323
 10
8.3894765101
 20
-27.7854937217
 10
8.3938855641
 20
-27.7783587236
 10
8.3978368172
 20
-27.770941841
 10
8.4013222531
 20
-27.763255394
 10
8.4043312743
 20
-27.7553267685
 10
8.4068560576
 20
-27.7471867082
 10
8.4089002444
 20
-27.7388352258
 10
8.4104699375
 20
-27.7302534956
 10
8.4115601385
 20
-27.7214454561
 10
8.4121636937
 20
-27.7124336122
 10
8.412279297
 20
-27.7032250156
 10
8.4119020057
 20
-27.6938270967
 10
8.4110280541
 20
-27.6842615962
 10
8.4096613485
 20
-27.6745584542
 10
8.4078029019
 20
-27.6647365741
 10
8.4054539999
 20
-27.6548104608
 10
8.4026247678
 20
-27.6448051068
 10
8.3993254943
 20
-27.6347538728
 10
8.3955575239
 20
-27.624658365
 10
8.3913156727
 20
-27.6144957876
 10
8.3865921365
 20
-27.6042628412
 10
8.3813977899
 20
-27.5939971092
 10
8.3757552891
 20
-27.5837369864
 10
8.3696680166
 20
-27.5734927671
 10
8.3631482242
 20
-27.5632893897
 10
8.3562423907
 20
-27.5531864401
 10
8.3489689973
 20
-27.5432033885
 10
8.3413412438
 20
-27.5333524378
 10
8.3334084828
 20
-27.5236795803
 10
8.325197155
 20
-27.5142037587
 10
8.3167218519
 20
-27.504930582
 10
8.3080199615
 20
-27.4958828335
 10
8.2991021531
 20
-27.4870583617
 10
8.289999406
 20
-27.4784769895
 10
8.280785371
 20
-27.4701894528
 10
8.2714975654
 20
-27.4622088182
 10
8.2621467959
 20
-27.454526407
 10
8.2527709764
 20
-27.4471548355
 10
8.2434059873
 20
-27.4401022805
 10
8.234059786
 20
-27.4333561608
 10
8.2247264034
 20
-27.4268969638
 10
8.2154297782
 20
-27.4207261295
 10
8.2061803109
 20
-27.4148355966
 10
8.1969470074
 20
-27.4091947219
 10
8.187740575
 20
-27.4038003805
 10
8.1785758179
 20
-27.3986511309
 10
8.1694237407
 20
-27.3937233377
 10
8.1602901227
 20
-27.3890140605
 10
8.151189069
 20
-27.3845240545
 10
8.1421015447
 20
-27.3802389424
 10
8.1330390607
 20
-27.3761600894
 10
8.1240068332
 20
-27.3722852118
 10
8.1149747464
 20
-27.3685982946
 10
8.105949711
 20
-27.3651010334
 10
8.096939243
 20
-27.3617944407
 10
8.0879130769
 20
-27.3586662009
 10
8.078865563
 20
-27.3557156095
 10
8.0698160221
 20
-27.3529507312
 10
8.0607714149
 20
-27.3503747427
  0
LINE
  5
546
100
AcDbEntity
  8
0
100
AcDbLine
 62
7
  6
CONTINUOUS
 10
4.5492787966
 20
-27.9336490506
 11
4.5630418564
 21
-27.9164020152
  0
LINE
  5
547
100
AcDbEntity
  8
0
100
AcDbLine
 62
7
  6
CONTINUOUS
 10
5.4897581501
 20
-26.8555010254
 11
5.5034752734
 21
-26.838311555
  0
LINE
  5
548
100
AcDbEntity
  8
0
100
AcDbLine
 62
7
  6
CONTINUOUS
 10
5.1879918539
 20
-27.7377469298
 11
5.2017453633
 21
-27.7205118625
  0
LINE
  5
549
100
AcDbEntity
  8
0
100
AcDbLine
 62
7
  6
CONTINUOUS
 10
5.8087268198
 20
-27.5464378264
 11
5.8224749193
 21
-27.5292095385
  0
LINE
  5
54A
100
AcDbEntity
  8
0
100
AcDbLine
 62
7
  6
CONTINUOUS
 10
6.0122831802
 20
-27.9777761417
 11
6.0260395062
 21
-27.9605375449
  0
LINE
  5
54B
100
AcDbEntity
  8
0
100
AcDbLine
 62
7
  6
CONTINUOUS
 10
6.2239864088
 20
-28.4229247077
 11
6.2377502385
 21
-28.4056767076
  0
LINE
  5
54C
100
AcDbEntity
  8
0
100
AcDbLine
 62
7
  6
CONTINUOUS
 10
7.4219267089
 20
-27.1702814495
 11
7.435678441
 21
-27.1530486095
  0
LINE
  5
54D
100
AcDbEntity
  8
0
100
AcDbLine
 62
250
  6
CONTINUOUS
 10
8.0607714992
 20
-27.3503730379
 11
8.0745353753
 21
-27.3331249798
  0
LINE
  5
54E
100
AcDbEntity
  8
0
100
AcDbLine
 62
7
  6
CONTINUOUS
 10
7.5301623885
 20
-28.0390678973
 11
7.5439207197
 21
-28.0218267877
  0
LINE
  5
54F
100
AcDbEntity
  8
0
100
AcDbLine
 62
7
  6
CONTINUOUS
 10
7.0960368548
 20
-28.6735074894
 11
7.1097984231
 21
-28.6562623232
  0
LINE
  5
550
100
AcDbEntity
  8
0
100
AcDbLine
 62
7
  6
CONTINUOUS
 10
7.9890060117
 20
-28.1675619464
 11
8.0027636677
 21
-28.1503216828
  0
LINE
  5
551
100
AcDbEntity
  8
0
100
AcDbLine
 62
7
  6
CONTINUOUS
 10
8.5438287518
 20
-28.2741502925
 11
8.5575847351
 21
-28.2569121251
  0
LINE
  5
552
100
AcDbEntity
  8
0
100
AcDbLine
 62
7
  6
CONTINUOUS
 10
8.6046629324
 20
-29.1003398293
 11
8.6184165371
 21
-29.0831046427
  0
LWPOLYLINE
  5
553
100
AcDbEntity
  8
0
100
AcDbPolyline
 62
7
  6
CONTINUOUS
 90
22
 70
0
 10
8.9012988622
 20
-28.116974547
 10
8.8907478442
 20
-28.1295630891
 10
8.8790880804
 20
-28.1421715192
 10
8.8667413393
 20
-28.1542720474
 10
8.8537141145
 20
-28.1658571029
 10
8.840025585
 20
-28.1769083199
 10
8.8256969574
 20
-28.1874102219
 10
8.8107487895
 20
-28.1973498152
 10
8.7951929711
 20
-28.2067209557
 10
8.7790391545
 20
-28.215519967
 10
8.7623115559
 20
-28.2237345737
 10
8.7450203873
 20
-28.2313606802
 10
8.7271519855
 20
-28.2384040725
 10
8.708706279
 20
-28.2448598758
 10
8.6897147397
 20
-28.2507121686
 10
8.6702107017
 20
-28.2559497266
 10
8.6502089248
 20
-28.2605673185
 10
8.6297325754
 20
-28.2645576341
 10
8.6088313575
 20
-28.2679122002
 10
8.5875372062
 20
-28.2706288218
 10
8.5658622821
 20
-28.2727082033
 10
8.5438287518
 20
-28.2741502925
  0
LINE
  5
554
100
AcDbEntity
  8
0
100
AcDbLine
 62
7
  6
CONTINUOUS
 10
8.8929780506
 20
-28.1247947062
 11
8.9046376865
 21
-28.1121723187
  0
LINE
  5
555
100
AcDbEntity
  8
SUPERFICI
100
AcDbLine
 62
250
  6
CONTINUOUS
 10
29.9480935772
 20
19.4745454361
 11
30.0945885792
 21
19.4346689511
  0
LINE
  5
556
100
AcDbEntity
  8
SUPERFICI
100
AcDbLine
 62
250
  6
CONTINUOUS
 10
29.8109867076
 20
19.5124501087
 11
29.9480935772
 21
19.4745454361
  0
LINE
  5
557
100
AcDbEntity
  8
SUPERFICI
100
AcDbLine
 62
250
  6
CONTINUOUS
 10
29.680906717
 20
19.5490784706
 11
29.8109867076
 21
19.5124501087
  0
LINE
  5
558
100
AcDbEntity
  8
SUPERFICI
100
AcDbLine
 62
250
  6
CONTINUOUS
 10
29.5502013133
 20
19.5867232795
 11
29.680906717
 21
19.5490784706
  0
LWPOLYLINE
  5
559
100
AcDbEntity
  8
SUPERFICI
100
AcDbPolyline
 62
250
  6
CONTINUOUS
 90
7
 70
0
 10
-35.9859915783
 20
38.4016176039
 10
-35.9216306349
 20
38.3829719427
 10
-35.8568357956
 20
38.3646643374
 10
-35.7915764877
 20
38.3471342718
 10
-35.7257866735
 20
38.3299887442
 10
-35.6573540561
 20
38.3115328228
 10
-35.5862146777
 20
38.2912066052
  0
LWPOLYLINE
  5
55A
100
AcDbEntity
  8
SUPERFICI
100
AcDbPolyline
 62
250
  6
CONTINUOUS
 90
46
 70
0
 10
30.0945885792
 20
19.4346689512
 10
30.1466987691
 20
19.4194491201
 10
30.2029049215
 20
19.4019252337
 10
30.2631764598
 20
19.3818701519
 10
30.3276704006
 20
19.3589804508
 10
30.3961242025
 20
19.333061387
 10
30.4678574769
 20
19.3040728743
 10
30.5427723888
 20
19.27178977
 10
30.6207595483
 20
19.2359867721
 10
30.7011044583
 20
19.1967032353
 10
30.783659032
 20
19.1537563643
 10
30.8682589666
 20
19.1069713494
 10
30.9541597447
 20
19.0564947431
 10
31.0411717881
 20
19.002205738
 10
31.1290845766
 20
18.944000371
 10
31.2171352061
 20
18.8821549833
 10
31.3051049635
 20
18.8166273648
 10
31.392763044
 20
18.7473917515
 10
31.4793662275
 20
18.6748546966
 10
31.5646937083
 20
18.5990548492
 10
31.6485201189
 20
18.5200433282
 10
31.7301606983
 20
18.4383422142
 10
31.8094401114
 20
18.3540397513
 10
31.8861480112
 20
18.2672727847
 10
31.9596456473
 20
18.1787198657
 10
32.0298236907
 20
18.0885142746
 10
32.0965362321
 20
17.99684958
 10
32.1592288327
 20
17.9045607265
 10
32.2178703958
 20
17.8118323023
 10
32.2724365969
 20
17.7188549063
 10
32.3225524634
 20
17.6265100871
 10
32.3682955707
 20
17.5349801102
 10
32.4097592523
 20
17.4444349549
 10
32.4467698609
 20
17.3557419843
 10
32.4795148145
 20
17.2690448601
 10
32.5081936911
 20
17.1844674293
 10
32.532820699
 20
17.1028234249
 10
32.5536745091
 20
17.0241919695
 10
32.5710365595
 20
16.9486380798
 10
32.5850745479
 20
16.8769120576
 10
32.5961263377
 20
16.8090236233
 10
32.6045217737
 20
16.7449749232
 10
32.6105366394
 20
16.6854558148
 10
32.6145223221
 20
16.6306560413
 10
32.6168332188
 20
16.5802838358
 10
32.6177802503
 20
16.5342776534
  0
LWPOLYLINE
  5
55B
100
AcDbEntity
  8
SUPERFICI
100
AcDbPolyline
 62
250
  6
CONTINUOUS
 90
3
 70
0
 10
26.6267100201
 20
20.4497696915
 10
26.9526916694
 20
20.3536797548
 10
27.10700374
 20
20.3081805934
  0
LWPOLYLINE
  5
55C
100
AcDbEntity
  8
SUPERFICI
100
AcDbPolyline
 62
250
  6
CONTINUOUS
 90
3
 70
0
 10
27.10700374
 20
20.3081805934
 10
27.400363647
 20
20.2216590629
 10
27.5394114835
 20
20.1806366938
  0
LINE
  5
55D
100
AcDbEntity
  8
SUPERFICI
100
AcDbLine
 62
250
  6
CONTINUOUS
 10
23.0179322589
 20
21.5132217251
 11
26.6267100201
 21
20.4497696915
  0
LWPOLYLINE
  5
55E
100
AcDbEntity
  8
SUPERFICI
100
AcDbPolyline
 62
250
  6
CONTINUOUS
 90
4
 70
0
 10
27.5394114835
 20
20.1806366938
 10
27.804384642
 20
20.1024409112
 10
27.9303099641
 20
20.0652674978
 10
28.0524374671
 20
20.0292085813
  0
LWPOLYLINE
  5
55F
100
AcDbEntity
  8
SUPERFICI
100
AcDbPolyline
 62
250
  6
CONTINUOUS
 90
3
 70
0
 10
28.0524374671
 20
20.0292085813
 10
28.2853540626
 20
19.9604185166
 10
28.3966218069
 20
19.9275466451
  0
LINE
  5
560
100
AcDbEntity
  8
SUPERFICI
100
AcDbLine
 62
250
  6
CONTINUOUS
 10
28.3966218069
 20
19.9275466451
 11
28.6094529497
 21
19.8646491366
  0
LINE
  5
561
100
AcDbEntity
  8
SUPERFICI
100
AcDbLine
 62
250
  6
CONTINUOUS
 10
28.6094529497
 20
19.8646491366
 11
28.8100075909
 21
19.8053620485
  0
LINE
  5
562
100
AcDbEntity
  8
SUPERFICI
100
AcDbLine
 62
250
  6
CONTINUOUS
 10
28.8100075909
 20
19.8053620485
 11
29.0878387656
 21
19.7231832256
  0
LWPOLYLINE
  5
563
100
AcDbEntity
  8
SUPERFICI
100
AcDbPolyline
 62
250
  6
CONTINUOUS
 90
4
 70
0
 10
29.0878387656
 20
19.7231832256
 10
29.3351554042
 20
19.6499658057
 10
29.40994926
 20
19.6278208715
 10
29.5502013133
 20
19.5867232795
  0
LINE
  5
564
100
AcDbEntity
  8
SUPERFICI
100
AcDbLine
 62
250
  6
CONTINUOUS
 10
22.2661790553
 20
21.7357744673
 11
23.0179322589
 21
21.5132217251
  0
LWPOLYLINE
  5
565
100
AcDbEntity
  8
SUPERFICI
100
AcDbPolyline
 62
250
  6
CONTINUOUS
 90
3
 70
0
 10
-35.5862146777
 20
38.2912066052
 10
-35.4380061974
 20
38.24728679
 10
-35.359418173
 20
38.2236478172
  0
LINE
  5
566
100
AcDbEntity
  8
SUPERFICI
100
AcDbLine
 62
250
  6
CONTINUOUS
 10
21.5776317348
 20
21.9406806007
 11
22.2661790553
 21
21.7357744673
  0
LINE
  5
567
100
AcDbEntity
  8
SUPERFICI
100
AcDbLine
 62
250
  6
CONTINUOUS
 10
21.1523598887
 20
22.0679012212
 11
21.5776317348
 21
21.9406806007
  0
LINE
  5
568
100
AcDbEntity
  8
SUPERFICI
100
AcDbLine
 62
250
  6
CONTINUOUS
 10
20.7524726326
 20
22.1880881811
 11
21.1523598887
 21
22.0679012212
  0
LWPOLYLINE
  5
569
100
AcDbEntity
  8
SUPERFICI
100
AcDbPolyline
 62
250
  6
CONTINUOUS
 90
3
 70
0
 10
-29.5306254448
 20
36.4636209365
 10
-29.0529642185
 20
36.3197692001
 10
-28.5634805274
 20
36.1724145605
  0
LINE
  5
56A
100
AcDbEntity
  8
SUPERFICI
100
AcDbLine
 62
250
  6
CONTINUOUS
 10
-28.5634805274
 20
36.1724145605
 11
-27.8530638861
 21
35.9585608139
  0
LINE
  5
56B
100
AcDbEntity
  8
SUPERFICI
100
AcDbLine
 62
250
  6
CONTINUOUS
 10
-24.9063263813
 20
35.0654168007
 11
-24.4031301773
 21
34.9139353001
  0
LINE
  5
56C
100
AcDbEntity
  8
SUPERFICI
100
AcDbLine
 62
250
  6
CONTINUOUS
 10
-33.161892384
 20
37.5585451817
 11
-29.5306254448
 21
36.4636209365
  0
LINE
  5
56D
100
AcDbEntity
  8
SUPERFICI
100
AcDbLine
 62
250
  6
CONTINUOUS
 10
-24.4031301773
 20
34.9139353001
 11
-23.7264331374
 21
34.7096054773
  0
LWPOLYLINE
  5
56E
100
AcDbEntity
  8
SUPERFICI
100
AcDbPolyline
 62
250
  6
CONTINUOUS
 90
3
 70
0
 10
-27.8530638861
 20
35.9585608139
 10
-26.0956945993
 20
35.4292789732
 10
-25.9212652858
 20
35.3760898093
  0
LINE
  5
56F
100
AcDbEntity
  8
SUPERFICI
100
AcDbLine
 62
250
  6
CONTINUOUS
 10
-34.7214677083
 20
38.0301523762
 11
-33.161892384
 21
37.5585451817
  0
LINE
  5
570
100
AcDbEntity
  8
SUPERFICI
100
AcDbLine
 62
250
  6
CONTINUOUS
 10
-25.0742517815
 20
35.1162565269
 11
-24.9063263813
 21
35.0654168007
  0
LINE
  5
571
100
AcDbEntity
  8
SUPERFICI
100
AcDbLine
 62
250
  6
CONTINUOUS
 10
18.6152642969
 20
22.8363749871
 11
19.128541662
 21
22.6811319999
  0
LINE
  5
572
100
AcDbEntity
  8
SUPERFICI
100
AcDbLine
 62
250
  6
CONTINUOUS
 10
20.189319904
 20
22.3584021056
 11
20.7524726326
 21
22.1880881811
  0
LINE
  5
573
100
AcDbEntity
  8
SUPERFICI
100
AcDbLine
 62
250
  6
CONTINUOUS
 10
-22.6440300889
 20
35.5079399956
 11
-21.1125022881
 21
35.0435414151
  0
LINE
  5
574
100
AcDbEntity
  8
SUPERFICI
100
AcDbLine
 62
250
  6
CONTINUOUS
 10
-21.1125022881
 20
35.0435414151
 11
-19.475570392
 21
34.5469647063
  0
LINE
  5
575
100
AcDbEntity
  8
SUPERFICI
100
AcDbLine
 62
250
  6
CONTINUOUS
 10
-19.475570392
 20
34.5469647063
 11
-18.0577876301
 21
34.1160646824
  0
LINE
  5
576
100
AcDbEntity
  8
SUPERFICI
100
AcDbLine
 62
250
  6
CONTINUOUS
 10
-23.7264331374
 20
34.7096054773
 11
-23.3813327341
 21
34.604812295
  0
LINE
  5
577
100
AcDbEntity
  8
SUPERFICI
100
AcDbLine
 62
250
  6
CONTINUOUS
 10
19.128541662
 20
22.6811319999
 11
19.6513389054
 21
22.5222006119
  0
LINE
  5
578
100
AcDbEntity
  8
SUPERFICI
100
AcDbLine
 62
250
  6
CONTINUOUS
 10
-35.359418173
 20
38.2236478172
 11
-34.7214677083
 21
38.0301523762
  0
LINE
  5
579
100
AcDbEntity
  8
SUPERFICI
100
AcDbLine
 62
250
  6
CONTINUOUS
 10
19.6513389054
 20
22.5222006119
 11
20.189319904
 21
22.3584021056
  0
LINE
  5
57A
100
AcDbEntity
  8
SUPERFICI
100
AcDbLine
 62
250
  6
CONTINUOUS
 10
-23.3387356275
 20
35.7190629722
 11
-22.6440300889
 21
35.5079399956
  0
LINE
  5
57B
100
AcDbEntity
  8
SUPERFICI
100
AcDbLine
 62
250
  6
CONTINUOUS
 10
-18.0577876301
 20
34.1160646824
 11
-17.0984366441
 21
33.8238151925
  0
LINE
  5
57C
100
AcDbEntity
  8
SUPERFICI
100
AcDbLine
 62
250
  6
CONTINUOUS
 10
18.1060844578
 20
22.9914946201
 11
18.6152642969
 21
22.8363749871
  0
LINE
  5
57D
100
AcDbEntity
  8
SUPERFICI
100
AcDbLine
 62
250
  6
CONTINUOUS
 10
-17.0984366441
 20
33.8238151925
 11
-16.0565116092
 21
33.5056526
  0
LINE
  5
57E
100
AcDbEntity
  8
SUPERFICI
100
AcDbLine
 62
250
  6
CONTINUOUS
 10
-23.3813327341
 20
34.604812295
 11
-22.8510603816
 21
34.4426086541
  0
LINE
  5
57F
100
AcDbEntity
  8
SUPERFICI
100
AcDbLine
 62
250
  6
CONTINUOUS
 10
-0.303823833
 20
28.6621228705
 11
5.0836847264
 21
27.0137255952
  0
LINE
  5
580
100
AcDbEntity
  8
SUPERFICI
100
AcDbLine
 62
250
  6
CONTINUOUS
 10
-23.6769755255
 20
35.8225284161
 11
-23.3387356275
 21
35.7190629722
  0
LINE
  5
581
100
AcDbEntity
  8
SUPERFICI
100
AcDbLine
 62
250
  6
CONTINUOUS
 10
-16.0565116092
 20
33.5056526
 11
-14.9297509903
 21
33.160746617
  0
LINE
  5
582
100
AcDbEntity
  8
SUPERFICI
100
AcDbLine
 62
250
  6
CONTINUOUS
 10
-8.767163823
 20
30.1154801314
 11
-5.7822435397
 21
29.2011948383
  0
LINE
  5
583
100
AcDbEntity
  8
SUPERFICI
100
AcDbLine
 62
250
  6
CONTINUOUS
 10
8.7741370656
 20
24.7263191523
 11
13.8441523378
 21
23.1732863058
  0
LINE
  5
584
100
AcDbEntity
  8
SUPERFICI
100
AcDbLine
 62
250
  6
CONTINUOUS
 10
-11.860749378
 20
31.0634438444
 11
-8.767163823
 21
30.1154801314
  0
LINE
  5
585
100
AcDbEntity
  8
SUPERFICI
100
AcDbLine
 62
250
  6
CONTINUOUS
 10
5.0836847264
 20
27.0137255952
 11
7.0350629875
 21
26.4157993891
  0
LINE
  5
586
100
AcDbEntity
  8
SUPERFICI
100
AcDbLine
 62
250
  6
CONTINUOUS
 10
13.8441523378
 20
23.1732863058
 11
15.1778362696
 21
22.7643553967
  0
LINE
  5
587
100
AcDbEntity
  8
SUPERFICI
100
AcDbLine
 62
250
  6
CONTINUOUS
 10
-1.7315692452
 20
29.1000368687
 11
-0.303823833
 21
28.6621228705
  0
LWPOLYLINE
  5
588
100
AcDbEntity
  8
SUPERFICI
100
AcDbPolyline
 62
250
  6
CONTINUOUS
 90
4
 70
0
 10
-36.263721045
 20
38.4851287758
 10
-36.1914184643
 20
38.4629281967
 10
-36.1208989733
 20
38.441586307
 10
-35.9859915783
 20
38.4016176039
  0
LINE
  5
589
100
AcDbEntity
  8
SUPERFICI
100
AcDbLine
 62
250
  6
CONTINUOUS
 10
-13.6795491454
 20
31.6214640679
 11
-11.860749378
 21
31.0634438444
  0
LINE
  5
58A
100
AcDbEntity
  8
SUPERFICI
100
AcDbLine
 62
250
  6
CONTINUOUS
 10
-5.7822435397
 20
29.2011948383
 11
-2.8718400756
 21
28.3079990141
  0
LINE
  5
58B
100
AcDbEntity
  8
SUPERFICI
100
AcDbLine
 62
250
  6
CONTINUOUS
 10
-14.9297509903
 20
33.160746617
 11
-13.7128447524
 21
32.7874269871
  0
LINE
  5
58C
100
AcDbEntity
  8
SUPERFICI
100
AcDbLine
 62
250
  6
CONTINUOUS
 10
19.0870510267
 20
21.5545943643
 11
19.2622052094
 21
21.5007708434
  0
LINE
  5
58D
100
AcDbEntity
  8
SUPERFICI
100
AcDbLine
 62
250
  6
CONTINUOUS
 10
15.1778362696
 20
22.7643553967
 11
15.7678932715
 21
22.5831812114
  0
LINE
  5
58E
100
AcDbEntity
  8
SUPERFICI
100
AcDbLine
 62
250
  6
CONTINUOUS
 10
17.7655636394
 20
23.0959467432
 11
18.1060844578
 21
22.9914946201
  0
LINE
  5
58F
100
AcDbEntity
  8
SUPERFICI
100
AcDbLine
 62
250
  6
CONTINUOUS
 10
-4.7367602874
 20
30.0230210692
 11
-1.7315692452
 21
29.1000368687
  0
LINE
  5
590
100
AcDbEntity
  8
SUPERFICI
100
AcDbLine
 62
250
  6
CONTINUOUS
 10
7.0350629875
 20
26.4157993891
 11
8.3522689973
 21
26.0113852846
  0
LWPOLYLINE
  5
591
100
AcDbEntity
  8
SUPERFICI
100
AcDbPolyline
 62
250
  6
CONTINUOUS
 90
3
 70
0
 10
-25.9212652858
 20
35.3760898093
 10
-25.5787236878
 20
35.2708146
 10
-25.0742517815
 20
35.1162565269
  0
LINE
  5
592
100
AcDbEntity
  8
SUPERFICI
100
AcDbLine
 62
250
  6
CONTINUOUS
 10
-15.3224394933
 20
32.1261206354
 11
-13.6795491454
 21
31.6214640679
  0
LINE
  5
593
100
AcDbEntity
  8
SUPERFICI
100
AcDbLine
 62
250
  6
CONTINUOUS
 10
-22.8510603816
 20
34.4426086541
 11
-21.4992051317
 21
34.0274327187
  0
LINE
  5
594
100
AcDbEntity
  8
SUPERFICI
100
AcDbLine
 62
250
  6
CONTINUOUS
 10
15.7678932715
 20
22.5831812114
 11
16.502383205
 21
22.357450239
  0
LINE
  5
595
100
AcDbEntity
  8
SUPERFICI
100
AcDbLine
 62
250
  6
CONTINUOUS
 10
-13.7128447524
 20
32.7874269871
 11
-12.3993933397
 21
32.3837225935
  0
LINE
  5
596
100
AcDbEntity
  8
SUPERFICI
100
AcDbLine
 62
250
  6
CONTINUOUS
 10
-16.8044392317
 20
32.5819695175
 11
-15.3224394933
 21
32.1261206354
  0
LINE
  5
597
100
AcDbEntity
  8
SUPERFICI
100
AcDbLine
 62
250
  6
CONTINUOUS
 10
-2.8718400904
 20
28.3079990047
 11
-0.0158359738
 21
27.4298674152
  0
LINE
  5
598
100
AcDbEntity
  8
SUPERFICI
100
AcDbLine
 62
250
  6
CONTINUOUS
 10
-6.0223906577
 20
30.4186136645
 11
-4.7367602874
 21
30.0230210692
  0
LINE
  5
599
100
AcDbEntity
  8
SUPERFICI
100
AcDbLine
 62
250
  6
CONTINUOUS
 10
-18.748592638
 20
33.1807215786
 11
-18.4473650623
 21
33.0879237414
  0
LINE
  5
59A
100
AcDbEntity
  8
SUPERFICI
100
AcDbLine
 62
250
  6
CONTINUOUS
 10
-18.4473650623
 20
33.0879237414
 11
-17.4891097063
 21
32.7927612324
  0
LINE
  5
59B
100
AcDbEntity
  8
SUPERFICI
100
AcDbLine
 62
250
  6
CONTINUOUS
 10
-19.5981365373
 20
33.4423876731
 11
-18.748592638
 21
33.1807215786
  0
LINE
  5
59C
100
AcDbEntity
  8
SUPERFICI
100
AcDbLine
 62
250
  6
CONTINUOUS
 10
-17.4891097063
 20
32.7927612324
 11
-16.8044392317
 21
32.5819695175
  0
LWPOLYLINE
  5
59D
100
AcDbEntity
  8
SUPERFICI
100
AcDbPolyline
 62
250
  6
CONTINUOUS
 90
3
 70
0
 10
-21.4992051317
 20
34.0274327187
 10
-19.8636568255
 20
33.5241529812
 10
-19.5981365373
 20
33.4423876731
  0
LINE
  5
59E
100
AcDbEntity
  8
SUPERFICI
100
AcDbLine
 62
250
  6
CONTINUOUS
 10
-0.0158359738
 20
27.4298674152
 11
8.7741370656
 21
24.7263191523
  0
LINE
  5
59F
100
AcDbEntity
  8
SUPERFICI
100
AcDbLine
 62
250
  6
CONTINUOUS
 10
-24.0117773611
 20
35.9255125174
 11
-23.6769755255
 21
35.8225284161
  0
LINE
  5
5A0
100
AcDbEntity
  8
SUPERFICI
100
AcDbLine
 62
250
  6
CONTINUOUS
 10
-12.3993933397
 20
32.3837225935
 11
-10.9828937303
 21
31.9476652576
  0
LINE
  5
5A1
100
AcDbEntity
  8
SUPERFICI
100
AcDbLine
 62
250
  6
CONTINUOUS
 10
8.3522689973
 20
26.0113852846
 11
9.5591782106
 21
25.6400662551
  0
LINE
  5
5A2
100
AcDbEntity
  8
SUPERFICI
100
AcDbLine
 62
250
  6
CONTINUOUS
 10
-7.8108373448
 20
30.9698306159
 11
-6.0223906577
 21
30.4186136645
  0
LINE
  5
5A3
100
AcDbEntity
  8
SUPERFICI
100
AcDbLine
 62
250
  6
CONTINUOUS
 10
-10.9828937303
 20
31.9476652576
 11
-7.8108373448
 21
30.9698306159
  0
LINE
  5
5A4
100
AcDbEntity
  8
SUPERFICI
100
AcDbLine
 62
250
  6
CONTINUOUS
 10
16.502383205
 20
22.357450239
 11
16.6798195395
 21
22.3026876421
  0
LINE
  5
5A5
100
AcDbEntity
  8
SUPERFICI
100
AcDbLine
 62
250
  6
CONTINUOUS
 10
9.5591782106
 20
25.6400662551
 11
10.6683974016
 21
25.2980001538
  0
LINE
  5
5A6
100
AcDbEntity
  8
SUPERFICI
100
AcDbLine
 62
250
  6
CONTINUOUS
 10
17.4216555794
 20
23.2020278503
 11
17.7655636394
 21
23.0959467432
  0
LWPOLYLINE
  5
5A7
100
AcDbEntity
  8
SUPERFICI
100
AcDbPolyline
 62
250
  6
CONTINUOUS
 90
3
 70
0
 10
18.5697153535
 20
21.7131936677
 10
18.7412486686
 20
21.660181083
 10
19.0870510267
 20
21.5545943643
  0
LINE
  5
5A8
100
AcDbEntity
  8
SUPERFICI
100
AcDbLine
 62
250
  6
CONTINUOUS
 10
10.6683974016
 20
25.2980001538
 11
11.6884740569
 21
24.9826410612
  0
LINE
  5
5A9
100
AcDbEntity
  8
SUPERFICI
100
AcDbLine
 62
250
  6
CONTINUOUS
 10
-24.3450805286
 20
36.0286479088
 11
-24.0117773611
 21
35.9255125174
  0
LINE
  5
5AA
100
AcDbEntity
  8
SUPERFICI
100
AcDbLine
 62
250
  6
CONTINUOUS
 10
11.6884740569
 20
24.9826410612
 11
12.6220312744
 21
24.6933875739
  0
LINE
  5
5AB
100
AcDbEntity
  8
SUPERFICI
100
AcDbLine
 62
250
  6
CONTINUOUS
 10
12.6220312744
 20
24.6933875739
 11
13.735370494
 21
24.3478050943
  0
LINE
  5
5AC
100
AcDbEntity
  8
SUPERFICI
100
AcDbLine
 62
250
  6
CONTINUOUS
 10
13.735370494
 20
24.3478050943
 11
16.5344932435
 21
23.4775132736
  0
LINE
  5
5AD
100
AcDbEntity
  8
SUPERFICI
100
AcDbLine
 62
250
  6
CONTINUOUS
 10
16.5344932435
 20
23.4775132736
 11
17.4216555794
 21
23.2020278503
  0
LINE
  5
5AE
100
AcDbEntity
  8
SUPERFICI
100
AcDbLine
 62
250
  6
CONTINUOUS
 10
28.4148543072
 20
18.6405018463
 11
28.7780308864
 21
18.5276856275
  0
LINE
  5
5AF
100
AcDbEntity
  8
SUPERFICI
100
AcDbLine
 62
250
  6
CONTINUOUS
 10
16.6798195395
 20
22.3026876421
 11
17.0298827526
 21
22.1939172597
  0
LWPOLYLINE
  5
5B0
100
AcDbEntity
  8
SUPERFICI
100
AcDbPolyline
 62
250
  6
CONTINUOUS
 90
3
 70
0
 10
-26.2355683486
 20
36.6157377623
 10
-25.0144697976
 20
36.2370330571
 10
-24.3450805286
 20
36.0286479088
  0
LWPOLYLINE
  5
5B1
100
AcDbEntity
  8
SUPERFICI
100
AcDbPolyline
 62
250
  6
CONTINUOUS
 90
3
 70
0
 10
29.573849775
 20
18.2673806259
 10
29.6484159415
 20
18.2441537946
 10
29.725089609
 20
18.220604467
  0
LWPOLYLINE
  5
5B2
100
AcDbEntity
  8
SUPERFICI
100
AcDbPolyline
 62
250
  6
CONTINUOUS
 90
4
 70
0
 10
27.8911343603
 20
18.8035743368
 10
28.0022205347
 20
18.7689750523
 10
28.1100914867
 20
18.7353824701
 10
28.4148543072
 20
18.6405018463
  0
LWPOLYLINE
  5
5B3
100
AcDbEntity
  8
SUPERFICI
100
AcDbPolyline
 62
250
  6
CONTINUOUS
 90
3
 70
0
 10
27.5366985963
 20
18.9140079689
 10
27.6586094719
 20
18.8760165078
 10
27.8911343603
 20
18.8035743368
  0
LINE
  5
5B4
100
AcDbEntity
  8
SUPERFICI
100
AcDbLine
 62
250
  6
CONTINUOUS
 10
19.2622052094
 20
21.5007708434
 11
19.6185469555
 21
21.3899305424
  0
LWPOLYLINE
  5
5B5
100
AcDbEntity
  8
SUPERFICI
100
AcDbPolyline
 62
250
  6
CONTINUOUS
 90
3
 70
0
 10
27.1464954059
 20
19.0356525539
 10
27.2809175507
 20
18.9937390285
 10
27.5366985963
 20
18.9140079689
  0
LWPOLYLINE
  5
5B6
100
AcDbEntity
  8
SUPERFICI
100
AcDbPolyline
 62
250
  6
CONTINUOUS
 90
3
 70
0
 10
26.7148646334
 20
19.1702908082
 10
26.863819907
 20
19.1238175621
 10
27.1464954059
 20
19.0356525539
  0
LWPOLYLINE
  5
5B7
100
AcDbEntity
  8
SUPERFICI
100
AcDbPolyline
 62
250
  6
CONTINUOUS
 90
3
 70
0
 10
26.2354421304
 20
19.3199307319
 10
26.4010344623
 20
19.2682339691
 10
26.7148646334
 20
19.1702908082
  0
LWPOLYLINE
  5
5B8
100
AcDbEntity
  8
SUPERFICI
100
AcDbPolyline
 62
250
  6
CONTINUOUS
 90
3
 70
0
 10
25.7023855175
 20
19.4864156397
 10
25.8863596132
 20
19.4289450248
 10
26.2354421304
 20
19.3199307319
  0
LINE
  5
5B9
100
AcDbEntity
  8
SUPERFICI
100
AcDbLine
 62
250
  6
CONTINUOUS
 10
17.0298827526
 20
22.1939172597
 11
17.7171977687
 21
21.979390459
  0
LWPOLYLINE
  5
5BA
100
AcDbEntity
  8
SUPERFICI
100
AcDbPolyline
 62
250
  6
CONTINUOUS
 90
3
 70
0
 10
25.1097055781
 20
19.6716269927
 10
25.3143855612
 20
19.6076538408
 10
25.7023855175
 20
19.4864156397
  0
LINE
  5
5BB
100
AcDbEntity
  8
SUPERFICI
100
AcDbLine
 62
250
  6
CONTINUOUS
 10
-26.6096804082
 20
36.7325273472
 11
-26.2355683486
 21
36.6157377623
  0
LWPOLYLINE
  5
5BC
100
AcDbEntity
  8
SUPERFICI
100
AcDbPolyline
 62
250
  6
CONTINUOUS
 90
3
 70
0
 10
23.6973544841
 20
20.1132445861
 10
23.9562012734
 20
20.0322878961
 10
25.1097055781
 20
19.6716269927
  0
LINE
  5
5BD
100
AcDbEntity
  8
SUPERFICI
100
AcDbLine
 62
250
  6
CONTINUOUS
 10
22.8980772843
 20
20.363291021
 11
23.6973544841
 21
20.1132445861
  0
LWPOLYLINE
  5
5BE
100
AcDbEntity
  8
SUPERFICI
100
AcDbPolyline
 62
250
  6
CONTINUOUS
 90
3
 70
0
 10
17.7171977687
 20
21.979390459
 10
18.057937461
 20
21.8727333142
 10
18.5697153535
 20
21.7131936677
  0
LINE
  5
5BF
100
AcDbEntity
  8
SUPERFICI
100
AcDbLine
 62
250
  6
CONTINUOUS
 10
19.6185469555
 20
21.3899305424
 11
22.8980772843
 21
20.363291021
  0
LWPOLYLINE
  5
5C0
100
AcDbEntity
  8
SUPERFICI
100
AcDbPolyline
 62
250
  6
CONTINUOUS
 90
10
 70
0
 10
28.7780308864
 20
18.5276856275
 10
28.9389265609
 20
18.477273063
 10
29.0149209206
 20
18.4532282258
 10
29.0888716936
 20
18.4290971321
 10
29.1598339877
 20
18.4046873819
 10
29.2281584628
 20
18.3805228519
 10
29.2962798671
 20
18.3569865574
 10
29.3641901613
 20
18.3344753485
 10
29.4317617668
 20
18.3125479664
 10
29.573849775
 20
18.2673806259
  0
LWPOLYLINE
  5
5C1
100
AcDbEntity
  8
SUPERFICI
100
AcDbPolyline
 62
250
  6
CONTINUOUS
 90
46
 70
0
 10
29.7250902373
 20
18.2206051822
 10
29.7597076621
 20
18.2097337815
 10
29.7970507431
 20
18.1972952304
 10
29.8370930834
 20
18.1831375486
 10
29.8799282616
 20
18.1670512456
 10
29.9253807746
 20
18.1489139289
 10
29.973008379
 20
18.1287205125
 10
30.022744116
 20
18.1063231063
 10
30.0745103257
 20
18.0815727008
 10
30.1278403354
 20
18.0545153059
 10
30.1826360222
 20
18.0250329914
 10
30.2387842744
 20
17.9930132555
 10
30.2957941751
 20
17.9585727335
 10
30.3535408079
 20
17.9216350373
 10
30.4118879707
 20
17.8821292753
 10
30.4703382742
 20
17.8402465251
 10
30.5287533181
 20
17.7959562832
 10
30.5869843195
 20
17.7492408402
 10
30.6445433367
 20
17.7003769779
 10
30.7012893947
 20
17.6493881581
 10
30.7570776191
 20
17.5963071125
 10
30.8114553249
 20
17.5414853727
 10
30.8643104792
 20
17.4849777147
 10
30.9155139334
 20
17.4268663596
 10
30.9646485728
 20
17.3675962872
 10
31.0116489069
 20
17.3072467369
 10
31.0564209006
 20
17.2459435601
 10
31.0985907172
 20
17.1842441723
 10
31.1381373481
 20
17.1222687167
 10
31.1750498198
 20
17.0601349068
 10
31.2090745345
 20
16.9984222052
 10
31.2402640581
 20
16.9372465998
 10
31.2686816601
 20
16.8767151913
 10
31.2942000629
 20
16.8174001109
 10
31.3169413311
 20
16.759397036
 10
31.3370332521
 20
16.7027882652
 10
31.3544636811
 20
16.6481145459
 10
31.3694122469
 20
16.5954353208
 10
31.3820616914
 20
16.5447944546
 10
31.3924997237
 20
16.4966865363
 10
31.4009474958
 20
16.4511267445
 10
31.4076192047
 20
16.408122051
 10
31.412669541
 20
16.3681275556
 10
31.4163198694
 20
16.3312761604
 10
31.4188115668
 20
16.2973880802
 10
31.420349447
 20
16.266432232
  0
LINE
  5
5C2
100
AcDbEntity
  8
SUPERFICI
100
AcDbLine
 62
250
  6
CONTINUOUS
 10
-27.0136247564
 20
36.859250674
 11
-26.6096804082
 21
36.7325273472
  0
LINE
  5
5C3
100
AcDbEntity
  8
SUPERFICI
100
AcDbLine
 62
250
  6
CONTINUOUS
 10
-27.4502985573
 20
36.9968501139
 11
-27.0136247564
 21
36.859250674
  0
LINE
  5
5C4
100
AcDbEntity
  8
SUPERFICI
100
AcDbLine
 62
250
  6
CONTINUOUS
 10
-28.1574409402
 20
37.2208663118
 11
-27.4502985573
 21
36.9968501139
  0
LINE
  5
5C5
100
AcDbEntity
  8
SUPERFICI
100
AcDbLine
 62
250
  6
CONTINUOUS
 10
-35.0195745091
 20
39.4120384942
 11
-34.8584672239
 21
39.3607602666
  0
LINE
  5
5C6
100
AcDbEntity
  8
SUPERFICI
100
AcDbLine
 62
250
  6
CONTINUOUS
 10
-29.1209330478
 20
37.5277648005
 11
-28.1574409402
 21
37.2208663118
  0
LINE
  5
5C7
100
AcDbEntity
  8
SUPERFICI
100
AcDbLine
 62
250
  6
CONTINUOUS
 10
-34.8584672239
 20
39.3607602666
 11
-33.8775023047
 21
39.04807334
  0
LINE
  5
5C8
100
AcDbEntity
  8
SUPERFICI
100
AcDbLine
 62
250
  6
CONTINUOUS
 10
-33.8775023047
 20
39.04807334
 11
-32.4562525947
 21
38.5941880377
  0
LWPOLYLINE
  5
5C9
100
AcDbEntity
  8
SUPERFICI
100
AcDbPolyline
 62
250
  6
CONTINUOUS
 90
3
 70
0
 10
-32.4562525947
 20
38.5941880377
 10
-31.6717101836
 20
38.343346326
 10
-30.4081973291
 20
37.939220353
  0
LINE
  5
5CA
100
AcDbEntity
  8
SUPERFICI
100
AcDbLine
 62
250
  6
CONTINUOUS
 10
-30.4081973291
 20
37.939220353
 11
-29.1209330478
 21
37.5277648005
  0
LINE
  5
5CB
100
AcDbEntity
  8
SUPERFICI
100
AcDbLine
 62
250
  6
CONTINUOUS
 10
-35.2345197036
 20
39.4806238042
 11
-35.0195745091
 21
39.4120384942
  0
LINE
  5
5CC
100
AcDbEntity
  8
SUPERFICI
100
AcDbLine
 62
250
  6
CONTINUOUS
 10
-35.3620151751
 20
39.5219682447
 11
-35.2345197036
 21
39.4806238042
  0
LINE
  5
5CD
100
AcDbEntity
  8
SUPERFICI
100
AcDbLine
 62
250
  6
CONTINUOUS
 10
-35.4859689329
 20
39.562919715
 11
-35.3620151751
 21
39.5219682447
  0
LINE
  5
5CE
100
AcDbEntity
  8
SUPERFICI
100
AcDbLine
 62
250
  6
CONTINUOUS
 10
-35.6110776536
 20
39.6050332722
 11
-35.4859689329
 21
39.562919715
  0
LWPOLYLINE
  5
5CF
100
AcDbEntity
  8
SUPERFICI
100
AcDbPolyline
 62
250
  6
CONTINUOUS
 90
3
 70
0
 10
-35.8149604975
 20
39.6748529437
 10
-35.7451245696
 20
39.6507852871
 10
-35.6110776536
 20
39.6050332722
  0
LWPOLYLINE
  5
5D0
100
AcDbEntity
  8
SUPERFICI
100
AcDbPolyline
 62
250
  6
CONTINUOUS
 90
10
 70
0
 10
31.440362439
 20
15.8708970815
 10
31.4431783088
 20
15.8300032784
 10
31.4462975838
 20
15.7901889065
 10
31.4495291248
 20
15.7514338408
 10
31.4523483933
 20
15.7128726766
 10
31.4544800436
 20
15.6746017654
 10
31.4561610607
 20
15.6369081181
 10
31.4576429165
 20
15.5990060544
 10
31.4589161173
 20
15.5605528558
 10
31.5188534952
 20
13.588293985
  0
LINE
  5
5D1
100
AcDbEntity
  8
SUPERFICI
100
AcDbLine
 62
250
  6
CONTINUOUS
 10
31.4350051585
 20
15.9568242652
 11
31.440362439
 21
15.8708970815
  0
LINE
  5
5D2
100
AcDbEntity
  8
SUPERFICI
100
AcDbLine
 62
250
  6
CONTINUOUS
 10
31.429861501
 20
16.051341193
 11
31.4350051585
 21
15.9568242652
  0
LINE
  5
5D3
100
AcDbEntity
  8
SUPERFICI
100
AcDbLine
 62
250
  6
CONTINUOUS
 10
34.0378376731
 20
-40.692715197
 11
34.0450977129
 21
-40.8416383442
  0
LINE
  5
5D4
100
AcDbEntity
  8
SUPERFICI
100
AcDbLine
 62
250
  6
CONTINUOUS
 10
31.4249630534
 20
16.1544753801
 11
31.429861501
 21
16.051341193
  0
LINE
  5
5D5
100
AcDbEntity
  8
SUPERFICI
100
AcDbLine
 62
250
  6
CONTINUOUS
 10
34.0320309462
 20
-40.5599872595
 11
34.0378376731
 21
-40.692715197
  0
LINE
  5
5D6
100
AcDbEntity
  8
SUPERFICI
100
AcDbLine
 62
250
  6
CONTINUOUS
 10
31.4203494724
 20
16.2664322756
 11
31.4249630534
 21
16.1544753801
  0
LINE
  5
5D7
100
AcDbEntity
  8
SUPERFICI
100
AcDbLine
 62
250
  6
CONTINUOUS
 10
34.0274642477
 20
-40.4425683926
 11
34.0320309462
 21
-40.5599872595
  0
LINE
  5
5D8
100
AcDbEntity
  8
SUPERFICI
100
AcDbLine
 62
250
  6
CONTINUOUS
 10
34.0249597409
 20
-40.3694772198
 11
34.0274642477
 21
-40.4425683926
  0
LINE
  5
5D9
100
AcDbEntity
  8
SUPERFICI
100
AcDbLine
 62
250
  6
CONTINUOUS
 10
31.5188534952
 20
13.588293985
 11
31.5650245642
 21
12.0362870505
  0
LINE
  5
5DA
100
AcDbEntity
  8
SUPERFICI
100
AcDbLine
 62
250
  6
CONTINUOUS
 10
31.5650245642
 20
12.0362870505
 11
31.5940359934
 21
11.0358790614
  0
LINE
  5
5DB
100
AcDbEntity
  8
SUPERFICI
100
AcDbLine
 62
250
  6
CONTINUOUS
 10
31.5940359934
 20
11.0358790614
 11
31.6176244987
 21
10.2054762998
  0
LINE
  5
5DC
100
AcDbEntity
  8
SUPERFICI
100
AcDbLine
 62
250
  6
CONTINUOUS
 10
31.6176244987
 20
10.2054762998
 11
31.6489419095
 21
9.0774914784
  0
LINE
  5
5DD
100
AcDbEntity
  8
SUPERFICI
100
AcDbLine
 62
250
  6
CONTINUOUS
 10
31.6489419095
 20
9.0774914784
 11
31.6840399317
 21
7.7785447845
  0
LINE
  5
5DE
100
AcDbEntity
  8
SUPERFICI
100
AcDbLine
 62
250
  6
CONTINUOUS
 10
31.6840399317
 20
7.7785447845
 11
31.7168767093
 21
6.5331211299
  0
LINE
  5
5DF
100
AcDbEntity
  8
SUPERFICI
100
AcDbLine
 62
250
  6
CONTINUOUS
 10
31.7168767093
 20
6.5331211299
 11
31.7777760805
 21
4.1736314247
  0
LINE
  5
5E0
100
AcDbEntity
  8
SUPERFICI
100
AcDbLine
 62
250
  6
CONTINUOUS
 10
31.7777760805
 20
4.1736314247
 11
31.8314298391
 21
2.0642132988
  0
LWPOLYLINE
  5
5E1
100
AcDbEntity
  8
SUPERFICI
100
AcDbPolyline
 62
250
  6
CONTINUOUS
 90
4
 70
0
 10
32.269671946
 20
-15.5842881899
 10
32.4263759448
 20
-21.8319102001
 10
32.439629434
 20
-22.3619974405
 10
32.4524891023
 20
-22.8771535192
  0
LINE
  5
5E2
100
AcDbEntity
  8
SUPERFICI
100
AcDbLine
 62
250
  6
CONTINUOUS
 10
32.2324872963
 20
-14.0907103385
 11
32.269671946
 21
-15.5842881899
  0
LWPOLYLINE
  5
5E3
100
AcDbEntity
  8
SUPERFICI
100
AcDbPolyline
 62
250
  6
CONTINUOUS
 90
3
 70
0
 10
32.4524891023
 20
-22.8771535192
 10
32.4770652992
 20
-23.863934539
 10
32.4888156021
 20
-24.3370665151
  0
LINE
  5
5E4
100
AcDbEntity
  8
SUPERFICI
100
AcDbLine
 62
250
  6
CONTINUOUS
 10
31.8314298391
 20
2.0642132988
 11
31.9269953018
 21
-1.75225018
  0
LINE
  5
5E5
100
AcDbEntity
  8
SUPERFICI
100
AcDbLine
 62
250
  6
CONTINUOUS
 10
32.1931754984
 20
-12.503857822
 11
32.2324872963
 21
-14.0907103385
  0
LWPOLYLINE
  5
5E6
100
AcDbEntity
  8
SUPERFICI
100
AcDbPolyline
 62
250
  6
CONTINUOUS
 90
3
 70
0
 10
31.9269953018
 20
-1.75225018
 10
32.0162672361
 20
-5.3631702159
 10
32.0593380448
 20
-7.1110913752
  0
LINE
  5
5E7
100
AcDbEntity
  8
SUPERFICI
100
AcDbLine
 62
250
  6
CONTINUOUS
 10
32.0593380448
 20
-7.1110913752
 11
32.1931754985
 21
-12.5038578218
  0
LWPOLYLINE
  5
5E8
100
AcDbEntity
  8
SUPERFICI
100
AcDbPolyline
 62
250
  6
CONTINUOUS
 90
4
 70
0
 10
32.4888156021
 20
-24.3370665151
 10
32.5112725277
 20
-25.2438930757
 10
32.5220101286
 20
-25.6788424411
 10
32.5324204015
 20
-26.1014620664
  0
LWPOLYLINE
  5
5E9
100
AcDbEntity
  8
SUPERFICI
100
AcDbPolyline
 62
250
  6
CONTINUOUS
 90
3
 70
0
 10
32.5324204015
 20
-26.1014620664
 10
32.5523519165
 20
-26.9131648996
 10
32.5618724138
 20
-27.3022485889
  0
LWPOLYLINE
  5
5EA
100
AcDbEntity
  8
SUPERFICI
100
AcDbPolyline
 62
250
  6
CONTINUOUS
 90
3
 70
0
 10
32.5618724138
 20
-27.3022485889
 10
32.580104507
 20
-28.0497777287
 10
32.588814996
 20
-28.4082241539
  0
LWPOLYLINE
  5
5EB
100
AcDbEntity
  8
SUPERFICI
100
AcDbPolyline
 62
250
  6
CONTINUOUS
 90
3
 70
0
 10
32.588814996
 20
-28.4082241539
 10
32.6055078836
 20
-29.0973700102
 10
32.613488902
 20
-29.4280704651
  0
LWPOLYLINE
  5
5EC
100
AcDbEntity
  8
SUPERFICI
100
AcDbPolyline
 62
250
  6
CONTINUOUS
 90
4
 70
0
 10
32.613488902
 20
-29.4280704651
 10
32.6287907201
 20
-30.0639757114
 10
32.6361098612
 20
-30.3691823602
 10
32.6432223838
 20
-30.666485909
  0
LINE
  5
5ED
100
AcDbEntity
  8
SUPERFICI
100
AcDbLine
 62
250
  6
CONTINUOUS
 10
32.6432223838
 20
-30.666485909
 11
32.6568332678
 21
-31.2374061183
  0
LINE
  5
5EE
100
AcDbEntity
  8
SUPERFICI
100
AcDbLine
 62
250
  6
CONTINUOUS
 10
32.6568332678
 20
-31.2374061183
 11
32.6757326685
 21
-32.0380129093
  0
LINE
  5
5EF
100
AcDbEntity
  8
SUPERFICI
100
AcDbLine
 62
250
  6
CONTINUOUS
 10
32.6757326685
 20
-32.0380129093
 11
32.6929164429
 21
-32.7763876348
  0
LINE
  5
5F0
100
AcDbEntity
  8
SUPERFICI
100
AcDbLine
 62
250
  6
CONTINUOUS
 10
32.6929164429
 20
-32.7763876348
 11
32.7085356627
 21
-33.4583052003
  0
LINE
  5
5F1
100
AcDbEntity
  8
SUPERFICI
100
AcDbLine
 62
250
  6
CONTINUOUS
 10
32.7085356627
 20
-33.4583052003
 11
32.7272184693
 21
-34.2901077884
  0
LINE
  5
5F2
100
AcDbEntity
  8
SUPERFICI
100
AcDbLine
 62
250
  6
CONTINUOUS
 10
32.7272184693
 20
-34.2901077884
 11
32.7438255914
 21
-35.0465620863
  0
LINE
  5
5F3
100
AcDbEntity
  8
SUPERFICI
100
AcDbLine
 62
250
  6
CONTINUOUS
 10
32.7438255914
 20
-35.0465620863
 11
32.7551049599
 21
-35.5705501349
  0
LINE
  5
5F4
100
AcDbEntity
  8
SUPERFICI
100
AcDbLine
 62
250
  6
CONTINUOUS
 10
32.7551049599
 20
-35.5705501349
 11
32.7620880639
 21
-35.8993912954
  0
LINE
  5
5F5
100
AcDbEntity
  8
SUPERFICI
100
AcDbLine
 62
250
  6
CONTINUOUS
 10
32.7620880639
 20
-35.8993912954
 11
32.7717794145
 21
-36.3615008155
  0
LINE
  5
5F6
100
AcDbEntity
  8
SUPERFICI
100
AcDbLine
 62
250
  6
CONTINUOUS
 10
32.7717794145
 20
-36.3615008155
 11
32.7777544962
 21
-36.649849328
  0
LINE
  5
5F7
100
AcDbEntity
  8
SUPERFICI
100
AcDbLine
 62
250
  6
CONTINUOUS
 10
32.7777544962
 20
-36.649849328
 11
32.783381575
 21
-36.9237267729
  0
LINE
  5
5F8
100
AcDbEntity
  8
SUPERFICI
100
AcDbLine
 62
250
  6
CONTINUOUS
 10
32.783381575
 20
-36.9237267729
 11
32.7886803962
 21
-37.1838598982
  0
LWPOLYLINE
  5
5F9
100
AcDbEntity
  8
SUPERFICI
100
AcDbPolyline
 62
250
  6
CONTINUOUS
 90
3
 70
0
 10
32.7886803962
 20
-37.1838598982
 10
32.7936828586
 20
-37.4313126196
 10
32.7960825062
 20
-37.550634585
  0
LWPOLYLINE
  5
5FA
100
AcDbEntity
  8
SUPERFICI
100
AcDbPolyline
 62
250
  6
CONTINUOUS
 90
3
 70
0
 10
32.7960825062
 20
-37.550634585
 10
32.8006907142
 20
-37.7809756496
 10
32.8029025073
 20
-37.892040048
  0
LWPOLYLINE
  5
5FB
100
AcDbEntity
  8
SUPERFICI
100
AcDbPolyline
 62
250
  6
CONTINUOUS
 90
3
 70
0
 10
32.8029025073
 20
-37.892040048
 10
32.8071468044
 20
-38.1061566924
 10
32.8091807641
 20
-38.2091773332
  0
LWPOLYLINE
  5
5FC
100
AcDbEntity
  8
SUPERFICI
100
AcDbPolyline
 62
250
  6
CONTINUOUS
 90
3
 70
0
 10
32.8091807641
 20
-38.2091773332
 10
32.8130720077
 20
-38.4070713485
 10
32.8149342944
 20
-38.5021119707
  0
LWPOLYLINE
  5
5FD
100
AcDbEntity
  8
SUPERFICI
100
AcDbPolyline
 62
250
  6
CONTINUOUS
 90
5
 70
0
 10
32.8149342944
 20
-38.5021119707
 10
32.8184948737
 20
-38.6844655869
 10
32.820198757
 20
-38.7719922833
 10
32.8218534608
 20
-38.8571514002
 10
32.8234584608
 20
-38.9399417655
  0
LWPOLYLINE
  5
5FE
100
AcDbEntity
  8
SUPERFICI
100
AcDbPolyline
 62
250
  6
CONTINUOUS
 90
5
 70
0
 10
32.8234584608
 20
-38.9399417655
 10
32.8265349664
 20
-39.0989822658
 10
32.8280059206
 20
-39.175233097
 10
32.8294365131
 20
-39.2494724372
 10
32.8308267979
 20
-39.3217103142
  0
LINE
  5
5FF
100
AcDbEntity
  8
SUPERFICI
100
AcDbLine
 62
250
  6
CONTINUOUS
 10
32.8308267979
 20
-39.3217103142
 11
32.8347643225
 21
-39.5267839263
  0
LWPOLYLINE
  5
600
100
AcDbEntity
  8
SUPERFICI
100
AcDbPolyline
 62
250
  6
CONTINUOUS
 90
4
 70
0
 10
32.8347643225
 20
-39.5267839263
 10
32.8383756797
 20
-39.7154183372
 10
32.8395103381
 20
-39.7748137162
 10
32.8406119953
 20
-39.8325956511
  0
LINE
  5
601
100
AcDbEntity
  8
SUPERFICI
100
AcDbLine
 62
250
  6
CONTINUOUS
 10
32.8406119953
 20
-39.8325956511
 11
32.8437203758
 21
-39.9963873712
  0
LWPOLYLINE
  5
602
100
AcDbEntity
  8
SUPERFICI
100
AcDbPolyline
 62
250
  6
CONTINUOUS
 90
10
 70
0
 10
32.8437203758
 20
-39.9963873712
 10
32.8539476866
 20
-40.5301834431
 10
32.8543766936
 20
-40.5679983468
 10
32.8546058706
 20
-40.6054939873
 10
32.8543862827
 20
-40.6433129888
 10
32.8534467092
 20
-40.6810465124
 10
32.8520792461
 20
-40.7186463908
 10
32.8508775198
 20
-40.7570905594
 10
32.8500415642
 20
-40.7964723904
 10
32.8488461075
 20
-40.8786378533
  0
LINE
  5
603
100
AcDbEntity
  8
SUPERFICI
100
AcDbLine
 62
250
  6
CONTINUOUS
 10
32.8483623718
 20
-41.0645936985
 11
32.8491316119
 21
-41.16836137
  0
LINE
  5
604
100
AcDbEntity
  8
SUPERFICI
100
AcDbLine
 62
250
  6
CONTINUOUS
 10
32.6177802503
 20
16.5342776534
 11
32.618124759
 21
16.3767101341
  0
LINE
  5
605
100
AcDbEntity
  8
RACCORDO
100
AcDbLine
 62
7
  6
CONTINUOUS
 10
35.464376684
 20
-6.8351213092
 11
34.8814428709
 21
-7.5622565666
  0
LWPOLYLINE
  5
606
100
AcDbEntity
  8
SUPERFICI
100
AcDbPolyline
 62
250
  6
CONTINUOUS
 90
13
 70
0
 10
33.2984242141
 20
-12.1899941208
 10
33.2398152449
 20
-12.2476762857
 10
33.1719059147
 20
-12.3012028535
 10
33.0954787874
 20
-12.3499570024
 10
33.0114145829
 20
-12.3933769063
 10
32.9206820284
 20
-12.4309622091
 10
32.8243266945
 20
-12.4622797907
 10
32.7234589473
 20
-12.4869687579
 10
32.619241152
 20
-12.5047446037
 10
32.5128742787
 20
-12.5154024853
 10
32.4055840627
 20
-12.5188195848
 10
32.2986068799
 20
-12.5149565249
 10
32.1931754984
 20
-12.503857822
  0
LWPOLYLINE
  5
607
100
AcDbEntity
  8
0
100
AcDbPolyline
 62
7
  6
CONTINUOUS
 90
50
 70
0
 10
-33.8171458629
 20
42.3630911238
 10
-33.8780067101
 20
42.3811802087
 10
-33.9387431869
 20
42.3980380803
 10
-33.9993552933
 20
42.4136647386
 10
-34.0598743005
 20
42.4280670034
 10
-34.1202689373
 20
42.441238055
 10
-34.1804453896
 20
42.4531574341
 10
-34.2404033184
 20
42.4638231953
 10
-34.3001430628
 20
42.473237284
 10
-34.3595718261
 20
42.4813850769
 10
-34.418689125
 20
42.4882646059
 10
-34.4774954428
 20
42.493877839
 10
-34.5358994327
 20
42.4982160569
 10
-34.5939004695
 20
42.501277278
 10
-34.6514991785
 20
42.503063484
 10
-34.7086060887
 20
42.5035719001
 10
-34.7652204358
 20
42.5028005406
 10
-34.8213429841
 20
42.5007513913
 10
-34.8768865558
 20
42.4974276353
 10
-34.931850251
 20
42.4928272916
 10
-34.9862349695
 20
42.4869523411
 10
-35.0399562329
 20
42.4798119098
 10
-35.0930130101
 20
42.4714040308
 10
-35.1454063321
 20
42.4617306709
 10
-35.1970548139
 20
42.4508068562
 10
-35.2479572978
 20
42.4386306433
 10
-35.2981149415
 20
42.4252039756
 10
-35.3474498327
 20
42.4105477095
 10
-35.3959606925
 20
42.3946599339
 10
-35.4436487998
 20
42.3775425598
 10
-35.4904400782
 20
42.3592221764
 10
-35.5363331339
 20
42.3396969142
 10
-35.5813293608
 20
42.3189686427
 10
-35.6253588639
 20
42.2970695603
 10
-35.6684201409
 20
42.2739978472
 10
-35.7105146942
 20
42.2497553232
 10
-35.7515771362
 20
42.2243796453
 10
-35.791605863
 20
42.1978690524
 10
-35.8306024784
 20
42.1702253056
 10
-35.8685064073
 20
42.1414913454
 10
-35.9053159513
 20
42.1116654772
 10
-35.9410328087
 20
42.0807493956
 10
-35.9756014988
 20
42.048791124
 10
-36.0090202371
 20
42.0157890426
 10
-36.041290808
 20
41.9817447713
 10
-36.0723630841
 20
41.9467111925
 10
-36.102235203
 20
41.9106867688
 10
-36.1309090271
 20
41.8736730377
 10
-36.1583400159
 20
41.8357274945
 10
-36.1645711868
 20
41.8267252219
  0
LINE
  5
608
100
AcDbEntity
  8
0
100
AcDbLine
 62
7
  6
CONTINUOUS
 10
32.0924032141
 20
22.1229071312
 11
-33.8171458629
 21
42.3630911238
  0
LWPOLYLINE
  5
609
100
AcDbEntity
  8
0
100
AcDbPolyline
 62
7
  6
CONTINUOUS
 90
70
 70
0
 10
32.0924032141
 20
22.1229071312
 10
32.1532941778
 20
22.1036074144
 10
32.2141205845
 20
22.0831345022
 10
32.2748824342
 20
22.0614883945
 10
32.3356111379
 20
22.0386566619
 10
32.3962752846
 20
22.0146517339
 10
32.4567806418
 20
21.9895108984
 10
32.5171269626
 20
21.9632323901
 10
32.5773144939
 20
21.9358179743
 10
32.6372497433
 20
21.9073102353
 10
32.6969323189
 20
21.8777074737
 10
32.7563626126
 20
21.8470113889
 10
32.8154483085
 20
21.8152696625
 10
32.8741888711
 20
21.7824806695
 10
32.9325848359
 20
21.7486460349
 10
32.9905454935
 20
21.7138183157
 10
33.0480701674
 20
21.6779959687
 10
33.1051595342
 20
21.641180537
 10
33.1617249142
 20
21.603429208
 10
33.2177654929
 20
21.5647405272
 10
33.2732820848
 20
21.525115949
 10
33.3281884532
 20
21.4846170243
 10
33.3824836498
 20
21.4432423942
 10
33.4361686228
 20
21.4009934176
 10
33.4891599808
 20
21.3579357219
 10
33.5414566458
 20
21.3140680501
 10
33.5930596957
 20
21.2693916593
 10
33.6438889732
 20
21.2239759474
 10
33.6939432755
 20
21.1778197653
 10
33.7432238052
 20
21.1309242622
 10
33.7916540125
 20
21.0833622831
 10
33.8392325758
 20
21.0351327922
 10
33.8859608167
 20
20.9862368254
 10
33.9317661499
 20
20.936750335
 10
33.976647141
 20
20.8866724034
 10
34.0206052244
 20
20.8360039483
 10
34.0635721179
 20
20.7848236755
 10
34.1055462809
 20
20.7331307896
 10
34.146529254
 20
20.680926086
 10
34.1864573763
 20
20.6282906569
 10
34.2253290083
 20
20.5752238328
 10
34.2631457895
 20
20.5217262832
 10
34.2998489772
 20
20.4678811084
 10
34.3354368407
 20
20.4136877681
 10
34.3699111107
 20
20.3591468027
 10
34.4032182367
 20
20.3043429333
 10
34.4353564047
 20
20.2492757513
 10
34.4663274285
 20
20.1939456652
 10
34.4960831995
 20
20.1384386221
 10
34.524621829
 20
20.0827543469
 10
34.5519452055
 20
20.0268931147
 10
34.5780108864
 20
19.9709416973
 10
34.6028169171
 20
19.9148999547
 10
34.6263652521
 20
19.8587680271
 10
34.6486193127
 20
19.8026331069
 10
34.6695770873
 20
19.7464951894
 10
34.6892405876
 20
19.6903542794
 10
34.7075792691
 20
19.6342975832
 10
34.724591073
 20
19.5783252317
 10
34.7402780582
 20
19.5224370941
 10
34.7546158574
 20
19.4667199841
 10
34.7676023736
 20
19.4111741675
 10
34.7792397037
 20
19.3557993786
 10
34.789509771
 20
19.3006816337
 10
34.7984104504
 20
19.2458213324
 10
34.805943867
 20
19.191218075
 10
34.8120983186
 20
19.1369566796
 10
34.8168699046
 20
19.0830654188
 10
34.8202625256
 20
19.02951602
 10
34.8222761818
 20
18.9763084831
  0
LINE
  5
60A
100
AcDbEntity
  8
SUPERFICI
100
AcDbLine
 62
250
  6
CONTINUOUS
 10
34.0144464895
 20
-40.0190963257
 11
34.0157041855
 21
-40.0614657494
  0
LINE
  5
60B
100
AcDbEntity
  8
SUPERFICI
100
AcDbLine
 62
250
  6
CONTINUOUS
 10
34.0118284543
 20
-39.9306487871
 11
34.0144464895
 21
-40.0190963257
  0
LINE
  5
60C
100
AcDbEntity
  8
SUPERFICI
100
AcDbLine
 62
250
  6
CONTINUOUS
 10
34.0192872597
 20
-40.1826686728
 11
34.0249597409
 21
-40.3694772198
  0
LWPOLYLINE
  5
60D
100
AcDbEntity
  8
SUPERFICI
100
AcDbPolyline
 62
250
  6
CONTINUOUS
 90
3
 70
0
 10
34.0157041855
 20
-40.0614657494
 10
34.0181245706
 20
-40.1432519229
 10
34.0192872597
 20
-40.1826686728
  0
LINE
  5
60E
100
AcDbEntity
  8
SUPERFICI
100
AcDbLine
 62
250
  6
CONTINUOUS
 10
34.0046191265
 20
-39.6864865901
 11
34.0118284543
 21
-39.9306487871
  0
LWPOLYLINE
  5
60F
100
AcDbEntity
  8
SUPERFICI
100
AcDbPolyline
 62
250
  6
CONTINUOUS
 90
8
 70
0
 10
33.9888357002
 20
-39.1496378417
 10
33.9907871964
 20
-39.216217956
 10
33.9926856826
 20
-39.2809269824
 10
33.9945343917
 20
-39.34389282
 10
33.9963332407
 20
-39.4051155126
 10
33.9980823127
 20
-39.4645950164
 10
33.999785089
 20
-39.5224590994
 10
34.0046191265
 20
-39.6864865901
  0
LWPOLYLINE
  5
610
100
AcDbEntity
  8
SUPERFICI
100
AcDbPolyline
 62
250
  6
CONTINUOUS
 90
19
 70
0
 10
34.0450977129
 20
-40.8416383442
 10
34.0463844199
 20
-40.885326221
 10
34.0465289885
 20
-40.932368187
 10
34.0452383659
 20
-40.9826418784
 10
34.0421904438
 20
-41.0361818125
 10
34.0370441429
 20
-41.0926421299
 10
34.0295021522
 20
-41.1513188798
 10
34.0192486258
 20
-41.2120240141
 10
34.0059592057
 20
-41.2745467073
 10
33.9894252724
 20
-41.3381673049
 10
33.9693679077
 20
-41.4026634728
 10
33.9455090592
 20
-41.4677895157
 10
33.9177690175
 20
-41.5328298249
 10
33.8859363124
 20
-41.5975468538
 10
33.84980886
 20
-41.6616812365
 10
33.8094684035
 20
-41.7245499896
 10
33.7647948626
 20
-41.7859250116
 10
33.7156824353
 20
-41.8455641876
 10
33.6928069537
 20
-41.8710126368
  0
LWPOLYLINE
  5
611
100
AcDbEntity
  8
SUPERFICI
100
AcDbPolyline
 62
250
  6
CONTINUOUS
 90
5
 70
0
 10
33.9782630751
 20
-38.7878666852
 10
33.9804897431
 20
-38.8642108873
 10
33.9826599186
 20
-38.9385430721
 10
33.9847738441
 20
-39.0108730361
 10
33.9888357002
 20
-39.1496378417
  0
LWPOLYLINE
  5
612
100
AcDbEntity
  8
SUPERFICI
100
AcDbPolyline
 62
250
  6
CONTINUOUS
 90
5
 70
0
 10
33.9662060239
 20
-38.3728732359
 10
33.9687451704
 20
-38.460496202
 10
33.9712190653
 20
-38.5457512955
 10
33.9736277362
 20
-38.6286368894
 10
33.9782630751
 20
-38.7878666852
  0
LWPOLYLINE
  5
613
100
AcDbEntity
  8
SUPERFICI
100
AcDbPolyline
 62
250
  6
CONTINUOUS
 90
3
 70
0
 10
33.9581832173
 20
-38.0951895384
 10
33.9609276199
 20
-38.1903267585
 10
33.9662060239
 20
-38.3728732359
  0
LWPOLYLINE
  5
614
100
AcDbEntity
  8
SUPERFICI
100
AcDbPolyline
 62
250
  6
CONTINUOUS
 90
4
 70
0
 10
33.9464926064
 20
-37.6881825734
 10
33.9495238462
 20
-37.7939872902
 10
33.9524831021
 20
-37.8971034049
 10
33.9581832173
 20
-38.0951895384
  0
LINE
  5
615
100
AcDbEntity
  8
SUPERFICI
100
AcDbLine
 62
250
  6
CONTINUOUS
 10
33.9402192469
 20
-37.4685258612
 11
33.9464926064
 21
-37.6881825734
  0
LWPOLYLINE
  5
616
100
AcDbEntity
  8
SUPERFICI
100
AcDbPolyline
 62
250
  6
CONTINUOUS
 90
3
 70
0
 10
33.930277812
 20
-37.1185953409
 10
33.9336626273
 20
-37.2380048385
 10
33.9402192469
 20
-37.4685258612
  0
LWPOLYLINE
  5
617
100
AcDbEntity
  8
SUPERFICI
100
AcDbPolyline
 62
250
  6
CONTINUOUS
 90
3
 70
0
 10
33.9196651663
 20
-36.7424114276
 10
33.9232831041
 20
-36.8709737595
 10
33.930277812
 20
-37.1185953409
  0
LINE
  5
618
100
AcDbEntity
  8
SUPERFICI
100
AcDbLine
 62
250
  6
CONTINUOUS
 10
33.9121807248
 20
-36.4754259748
 11
33.9196651663
 21
-36.7424114276
  0
LINE
  5
619
100
AcDbEntity
  8
SUPERFICI
100
AcDbLine
 62
250
  6
CONTINUOUS
 10
33.9043445173
 20
-36.1943546472
 11
33.9121807248
 21
-36.4754259748
  0
LINE
  5
61A
100
AcDbEntity
  8
SUPERFICI
100
AcDbLine
 62
250
  6
CONTINUOUS
 10
33.896132719
 20
-35.8980423103
 11
33.9043445173
 21
-36.1943546472
  0
LINE
  5
61B
100
AcDbEntity
  8
SUPERFICI
100
AcDbLine
 62
250
  6
CONTINUOUS
 10
33.887533859
 20
-35.585869518
 11
33.896132719
 21
-35.8980423103
  0
LINE
  5
61C
100
AcDbEntity
  8
SUPERFICI
100
AcDbLine
 62
250
  6
CONTINUOUS
 10
33.878531845
 20
-35.2569224243
 11
33.887533859
 21
-35.585869518
  0
LINE
  5
61D
100
AcDbEntity
  8
SUPERFICI
100
AcDbLine
 62
250
  6
CONTINUOUS
 10
33.8691464103
 20
-34.9115905693
 11
33.878531845
 21
-35.2569224243
  0
LINE
  5
61E
100
AcDbEntity
  8
SUPERFICI
100
AcDbLine
 62
250
  6
CONTINUOUS
 10
33.8593834081
 20
-34.5498790566
 11
33.8691464103
 21
-34.9115905693
  0
LINE
  5
61F
100
AcDbEntity
  8
SUPERFICI
100
AcDbLine
 62
250
  6
CONTINUOUS
 10
33.8440387419
 20
-33.9762295092
 11
33.8593834081
 21
-34.5498790566
  0
LINE
  5
620
100
AcDbEntity
  8
SUPERFICI
100
AcDbLine
 62
250
  6
CONTINUOUS
 10
33.8332884086
 20
-33.570727034
 11
33.8440387419
 21
-33.9762295092
  0
LINE
  5
621
100
AcDbEntity
  8
SUPERFICI
100
AcDbLine
 62
250
  6
CONTINUOUS
 10
33.8220659345
 20
-33.1443615419
 11
33.8332884086
 21
-33.570727034
  0
LINE
  5
622
100
AcDbEntity
  8
SUPERFICI
100
AcDbLine
 62
250
  6
CONTINUOUS
 10
33.8103396326
 20
-32.6957867206
 11
33.8220659345
 21
-33.1443615419
  0
LINE
  5
623
100
AcDbEntity
  8
SUPERFICI
100
AcDbLine
 62
250
  6
CONTINUOUS
 10
33.7980622445
 20
-32.223002016
 11
33.8103396326
 21
-32.6957867206
  0
LWPOLYLINE
  5
624
100
AcDbEntity
  8
SUPERFICI
100
AcDbPolyline
 62
250
  6
CONTINUOUS
 90
3
 70
0
 10
33.7785121709
 20
-31.4644738561
 10
33.7851833853
 20
-31.7240290412
 10
33.7980622445
 20
-32.223002016
  0
LWPOLYLINE
  5
625
100
AcDbEntity
  8
SUPERFICI
100
AcDbPolyline
 62
250
  6
CONTINUOUS
 90
4
 70
0
 10
33.7500911339
 20
-30.3524401546
 10
33.7574667544
 20
-30.6418674431
 10
33.7646538554
 20
-30.923393057
 10
33.7785121709
 20
-31.4644738561
  0
LWPOLYLINE
  5
626
100
AcDbEntity
  8
SUPERFICI
100
AcDbPolyline
 62
250
  6
CONTINUOUS
 90
4
 70
0
 10
33.7186600378
 20
-29.1139731592
 10
33.7268165246
 20
-29.4361666148
 10
33.7347721861
 20
-29.7498986755
 10
33.7500911339
 20
-30.3524401546
  0
LWPOLYLINE
  5
627
100
AcDbEntity
  8
SUPERFICI
100
AcDbPolyline
 62
250
  6
CONTINUOUS
 90
4
 70
0
 10
33.6839179473
 20
-27.7356848425
 10
33.6929305779
 20
-28.0941250612
 10
33.7017245639
 20
-28.4432987196
 10
33.7186600378
 20
-29.1139731592
  0
LWPOLYLINE
  5
628
100
AcDbEntity
  8
SUPERFICI
100
AcDbPolyline
 62
250
  6
CONTINUOUS
 90
4
 70
0
 10
33.6454403998
 20
-26.1988492587
 10
33.6554377612
 20
-26.5991093828
 10
33.6651715389
 20
-26.9881770033
 10
33.6839179473
 20
-27.7356848425
  0
LINE
  5
629
100
AcDbEntity
  8
SUPERFICI
100
AcDbLine
 62
250
  6
CONTINUOUS
 10
32.9741108715
 20
0.7861348707
 11
33.195170111
 21
-8.0371975205
  0
LWPOLYLINE
  5
62A
100
AcDbEntity
  8
SUPERFICI
100
AcDbPolyline
 62
250
  6
CONTINUOUS
 90
4
 70
0
 10
33.6027395781
 20
-24.4827175203
 10
33.613843745
 20
-24.9299342039
 10
33.6246579288
 20
-25.3648544441
 10
33.6454403998
 20
-26.1988492587
  0
LINE
  5
62B
100
AcDbEntity
  8
SUPERFICI
100
AcDbLine
 62
250
  6
CONTINUOUS
 10
33.195170111
 20
-8.0371975205
 11
33.2622222647
 21
-10.7272029699
  0
LINE
  5
62C
100
AcDbEntity
  8
RACCORDO
100
AcDbLine
 62
7
  6
CONTINUOUS
 10
34.290079215
 20
-9.28881431
 11
34.3773752207
 21
-12.7979763738
  0
LINE
  5
62D
100
AcDbEntity
  8
0
100
AcDbLine
 62
7
  6
CONTINUOUS
 10
36.2495936444
 20
-38.3996075148
 11
35.6074931422
 21
-12.5881777225
  0
LINE
  5
62E
100
AcDbEntity
  8
0
100
AcDbLine
 62
7
  6
CONTINUOUS
 10
35.464376684
 20
-6.8351213092
 11
34.8222761818
 21
18.9763084831
  0
LINE
  5
62F
100
AcDbEntity
  8
SUPERFICI
100
AcDbLine
 62
250
  6
CONTINUOUS
 10
33.2622222647
 20
-10.7272029699
 11
33.3752457073
 21
-15.2707829083
  0
LWPOLYLINE
  5
630
100
AcDbEntity
  8
SUPERFICI
100
AcDbPolyline
 62
250
  6
CONTINUOUS
 90
3
 70
0
 10
33.3752457073
 20
-15.2707829083
 10
33.4879002872
 20
-19.833436947
 10
33.6027395781
 20
-24.4827175203
  0
LINE
  5
631
100
AcDbEntity
  8
SUPERFICI
100
AcDbLine
 62
250
  6
CONTINUOUS
 10
32.7351076922
 20
10.6880346155
 11
32.9741108715
 21
0.7861348707
  0
LINE
  5
632
100
AcDbEntity
  8
SUPERFICI
100
AcDbLine
 62
250
  6
CONTINUOUS
 10
32.6209643178
 20
16.0813625774
 11
32.7351076922
 21
10.6880346155
  0
LINE
  5
633
100
AcDbEntity
  8
SUPERFICI
100
AcDbLine
 62
250
  6
CONTINUOUS
 10
32.6194638422
 20
16.1969520583
 11
32.6209643178
 21
16.0813625774
  0
LWPOLYLINE
  5
634
100
AcDbEntity
  8
SUPERFICI
100
AcDbPolyline
 62
250
  6
CONTINUOUS
 90
3
 70
0
 10
32.618124759
 20
16.3767101341
 10
32.61837716
 20
16.3285737315
 10
32.6194638422
 20
16.1969520583
  0
LINE
  5
635
100
AcDbEntity
  8
SUPERFICI
100
AcDbLine
 62
250
  6
CONTINUOUS
 10
32.8482805076
 20
-40.9680428458
 11
32.8483623718
 21
-41.0645936985
  0
LWPOLYLINE
  5
636
100
AcDbEntity
  8
SUPERFICI
100
AcDbPolyline
 62
250
  6
CONTINUOUS
 90
46
 70
0
 10
32.8491315852
 20
-41.168361421
 10
32.8490799235
 20
-41.1967404661
 10
32.8482243194
 20
-41.2273059521
 10
32.8463717649
 20
-41.2599859232
 10
32.8433028758
 20
-41.2948145466
 10
32.8388022277
 20
-41.331571674
 10
32.8326986236
 20
-41.3697951099
 10
32.8247868177
 20
-41.4093683291
 10
32.8148546272
 20
-41.4501632049
 10
32.8027857536
 20
-41.4917082231
 10
32.7883989546
 20
-41.5338638544
 10
32.7715147697
 20
-41.5764775988
 10
32.7521007537
 20
-41.6190789183
 10
32.7300211478
 20
-41.6615156938
 10
32.7051448275
 20
-41.7036272893
 10
32.6775386962
 20
-41.7449668359
 10
32.647122517
 20
-41.7853884322
 10
32.6138254968
 20
-41.824742981
 10
32.5778264158
 20
-41.862632997
 10
32.5391109426
 20
-41.8989363137
 10
32.4976765447
 20
-41.933533498
 10
32.4538160242
 20
-41.9661013807
 10
32.4075812161
 20
-41.9965585927
 10
32.3590279418
 20
-42.0248336947
 10
32.3085421805
 20
-42.0507017098
 10
32.2562206883
 20
-42.0741408848
 10
32.2021717616
 20
-42.095135252
 10
32.1468733585
 20
-42.1135605916
 10
32.0904639549
 20
-42.129454885
 10
32.03308187
 20
-42.1428647361
 10
31.9752623098
 20
-42.1537748747
 10
31.9171597904
 20
-42.1622846597
 10
31.8589192373
 20
-42.168500684
 10
31.8010998218
 20
-42.1725107079
 10
31.7438501088
 20
-42.1744659473
 10
31.6873069001
 20
-42.1745173341
 10
31.6320322022
 20
-42.1728334949
 10
31.5781546059
 20
-42.1695977764
 10
31.5257865941
 20
-42.164989754
 10
31.475470275
 20
-42.159240047
 10
31.4272980392
 20
-42.1525479938
 10
31.3813502384
 20
-42.1451035587
 10
31.338145734
 20
-42.1371739758
 10
31.2978940458
 20
-42.1289862069
 10
31.2604907723
 20
-42.1206932883
 10
31.2259714952
 20
-42.1124595832
  0
LINE
  5
637
100
AcDbEntity
  8
SUPERFICI
100
AcDbLine
 62
250
  6
CONTINUOUS
 10
32.8488461075
 20
-40.8786378533
 11
32.8482805076
 21
-40.9680428458
  0
LINE
  5
638
100
AcDbEntity
  8
RACCORDO
100
AcDbLine
 62
7
  6
CONTINUOUS
 10
34.3791185156
 20
-12.7997753171
 11
34.6823544027
 21
-12.5059197076
  0
LINE
  5
639
100
AcDbEntity
  8
RACCORDO
100
AcDbLine
 62
7
  6
CONTINUOUS
 10
34.3807088328
 20
-12.8664579511
 11
34.893979631
 21
-12.3690646358
  0
LINE
  5
63A
100
AcDbEntity
  8
RACCORDO
100
AcDbLine
 62
7
  6
CONTINUOUS
 10
35.0206185042
 20
-13.1568980216
 11
35.6074931422
 21
-12.5881777225
  0
LINE
  5
63B
100
AcDbEntity
  8
0
100
AcDbLine
 62
250
  6
CONTINUOUS
 10
34.0450977129
 20
-40.8416383442
 11
36.2495936444
 21
-38.3996075147
  0
LWPOLYLINE
  5
63C
100
AcDbEntity
  8
0
100
AcDbPolyline
 62
7
  6
CONTINUOUS
 90
27
 70
0
 10
35.8563825098
 20
-39.527256298
 10
35.8595940647
 20
-39.523763811
 10
35.8906663408
 20
-39.4887302323
 10
35.9205384597
 20
-39.4527058086
 10
35.9492122838
 20
-39.4156920775
 10
35.9766432726
 20
-39.3777465343
 10
36.0028294946
 20
-39.3388677308
 10
36.0277728812
 20
-39.2990571152
 10
36.0514346868
 20
-39.2583765272
 10
36.0738129195
 20
-39.2168246148
 10
36.0949095712
 20
-39.17440273
 10
36.1146918713
 20
-39.1311767689
 10
36.1331577772
 20
-39.0871454818
 10
36.1503093315
 20
-39.0423101184
 10
36.166119892
 20
-38.9967403235
 10
36.1805873744
 20
-38.9504349559
 10
36.1937138629
 20
-38.9033951569
 10
36.2054789675
 20
-38.8556939958
 10
36.2158805724
 20
-38.8073304447
 10
36.2249207934
 20
-38.7583055314
 10
36.2325855879
 20
-38.7086954088
 10
36.2388728182
 20
-38.6584991673
 10
36.2437846219
 20
-38.6077177166
 10
36.2473133694
 20
-38.5564299378
 10
36.2494565173
 20
-38.5046621248
 10
36.250216609
 20
-38.4523879838
 10
36.2495936444
 20
-38.3996075148
  0
LWPOLYLINE
  5
63D
100
AcDbEntity
  8
SUPERFICI
100
AcDbPolyline
 62
250
  6
CONTINUOUS
 90
13
 70
0
 10
34.0450977069
 20
-40.8416383421
 10
33.9818766956
 20
-40.9068240466
 10
33.907983244
 20
-40.9671138775
 10
33.8244001159
 20
-41.0217059955
 10
33.7322389452
 20
-41.0698743397
 10
33.6327254517
 20
-41.1109782836
 10
33.527183139
 20
-41.1444711554
 10
33.4170156924
 20
-41.1699075085
 10
33.3036883105
 20
-41.1869490462
 10
33.1887082181
 20
-41.1953691203
 10
33.0736046206
 20
-41.1950557461
 10
32.9599083661
 20
-41.1860130913
 10
32.8491315852
 20
-41.168361421
  0
ARC
  5
63E
100
AcDbEntity
  8
RACCORDO
100
AcDbCircle
 62
7
  6
CONTINUOUS
 10
2.5556637967
 20
-20.0344025576
 40
0.3
100
AcDbArc
 50
325.2613292642
 51
1.4251590524
  0
ELLIPSE
  5
63F
100
AcDbEntity
  8
RACCORDO
100
AcDbEllipse
 62
7
  6
CONTINUOUS
 10
34.6750213927
 20
-12.7521483021
 30
0.0
 11
0.0993376304
 21
0.2832828308
 31
0.0
 40
0.3985724632
 41
6.1821403545
 42
6.9559498846
  0
ELLIPSE
  5
640
100
AcDbEntity
  8
RACCORDO
100
AcDbEllipse
 62
7
  6
CONTINUOUS
 10
34.9663210435
 20
-8.5397072828
 30
0.0
 11
0.4470193369
 21
1.2747727387
 31
0.0
 40
0.3985724632
 41
0.8472975026
 42
2.3308273668
  0
ELLIPSE
  5
641
100
AcDbEntity
  8
RACCORDO
100
AcDbEllipse
 62
7
  6
CONTINUOUS
 10
35.0536170493
 20
-12.0488693467
 30
0.0
 11
0.4470193369
 21
1.2747727387
 31
0.0
 40
0.3985724632
 41
2.3308273668
 42
3.814357231
  0
ENDSEC
  0
SECTION
  2
OBJECTS
  0
DICTIONARY
  5
C
100
AcDbDictionary
280
0
281
1
  3
ACAD_GROUP
350
D
  3
ACAD_MLINESTYLE
350
17
  3
ACAD_LAYOUT
350
1A
  3
ACAD_PLOTSETTINGS
350
19
  3
ACAD_PLOTSTYLENAME
350
E
  0
DICTIONARY
  5
D
102
{ACAD_REACTORS
330
C
102
}
100
AcDbDictionary
280
0
281
1
  0
ACDBDICTIONARYWDFLT
  5
E
102
{ACAD_REACTORS
330
C
102
}
100
AcDbDictionary
281
1
  3
Normal
350
F
100
AcDbDictionaryWithDefault
340
F
  0
DICTIONARY
  5
17
102
{ACAD_REACTORS
330
C
102
}
100
AcDbDictionary
280
0
281
1
  3
Standard
350
18
  0
DICTIONARY
  5
19
102
{ACAD_REACTORS
330
C
102
}
100
AcDbDictionary
281
1
  0
DICTIONARY
  5
1A
102
{ACAD_REACTORS
330
C
102
}
100
AcDbDictionary
281
1
  3
Model
350
642
  3
Layout1
350
643
  0
ACDBPLACEHOLDER
  5
F
102
{ACAD_REACTORS
330
E
102
}
  0
MLINESTYLE
  5
18
102
{ACAD_REACTORS
330
17
102
}
100
AcDbMlineStyle
  2
STANDARD
 70
0
  3

 62
256
 51
90.0
 52
90.0
 71
2
 49
0.5
 62
256
  6
BYLAYER
 49
-0.5
 62
256
  6
BYLAYER
  0
LAYOUT
  5
642
102
{ACAD_REACTORS
330
1A
102
}
100
AcDbPlotSettings
  1

  2
none_device
  4
ISO_A4_(297.00_x_210.00_MM)
  6

 40
0.0
 41
0.0
 42
0.0
 43
0.0
 44
297.0
 45
210.0
 46
0.0
 47
0.0
 48
0.0
 49
0.0
140
0.0
141
0.0
142
1.0
143
1.0
 70
1024
 72
1
 73
0
 74
0
  7

 75
0
147
1.0
148
0.0
149
0.0
100
AcDbLayout
  1
Model
 70
0
 71
0
 10
0.0
 20
0.0
 11
297.0
 21
210.0
 12
0.0
 22
0.0
 32
0.0
 14
0.0
 24
0.0
 34
0.0
 15
0.0
 25
0.0
 35
0.0
146
0.0
 13
0.0
 23
0.0
 33
0.0
 16
1.0
 26
0.0
 36
0.0
 17
0.0
 27
1.0
 37
0.0
 76
0
330
21B
345
0
346
0
  0
LAYOUT
  5
643
102
{ACAD_REACTORS
330
1A
102
}
100
AcDbPlotSettings
  1

  2
none_device
  4
ISO_A4_(297.00_x_210.00_MM)
  6

 40
0.0
 41
0.0
 42
0.0
 43
0.0
 44
297.0
 45
210.0
 46
0.0
 47
0.0
 48
0.0
 49
0.0
140
0.0
141
0.0
142
1.0
143
1.0
 70
0
 72
1
 73
0
 74
0
  7

 75
0
147
1.0
148
0.0
149
0.0
100
AcDbLayout
  1
Layout1
 70
0
 71
1
 10
0.0
 20
0.0
 11
297.0
 21
210.0
 12
0.0
 22
0.0
 32
0.0
 14
0.0
 24
0.0
 34
0.0
 15
0.0
 25
0.0
 35
0.0
146
0.0
 13
0.0
 23
0.0
 33
0.0
 16
1.0
 26
0.0
 36
0.0
 17
0.0
 27
1.0
 37
0.0
 76
0
330
21C
345
0
346
0
  0
ENDSEC
  0
EOF
