  0
SECTION
  2
HEADER
  9
$ACADVER
  1
AC1015
  9
$DWGCODEPAGE
  3
ANSI_1252
  9
$EXTMAX
 10
297.0
 20
210.0
 30
0.0
  9
$EXTMIN
 10
0.0
 20
0.0
 30
0.0
  9
$LIMMIN
 10
0.0
 20
0.0
  9
$LIMMAX
 10
297.0
 20
210.0
  9
$VIEWCTR
 10
148.5
 20
105.0
  9
$VIEWSIZE
 40
210.0
  9
$CLAYER
  8
0
  9
$LTSCALE
 40
16.335
  9
$CELTYPE
  6
BYLAYER
  9
$DIMSCALE
 40
1.0
  9
$DIMASZ
 40
3.0
  9
$DIMEXO
 40
1.85625
  9
$DIMDLI
 40
11.286
  9
$DIMEXE
 40
5.346
  9
$DIMCEN
 40
2.673
  9
$DIMLFAC
 40
1.0
  9
$DIMBLK
  1
_FILLED
  9
$DIMTXT
 40
3.0
  9
$DIMTOL
 70
1
  9
$DIMLIM
 70
0
  9
$DIMTFAC
 40
1.0
  9
$DIMTP
 40
0.01
  9
$DIMTM
 40
0.01
  9
$PDMODE
 70
3
  9
$PDSIZE
 40
3.0
  9
$HANDSEED
  5
265
  9
$TILEMODE
 70
1
  9
$MEASUREMENT
 70
1
  9
$INSUNITS
 70
4
  0
ENDSEC
  0
SECTION
  2
CLASSES
  0
CLASS
  1
ACDBDICTIONARYWDFLT
  2
AcDbDictionaryWithDefault
  3
AutoCAD 2000
 90
0
280
0
281
0
  0
CLASS
  1
ACDBPLACEHOLDER
  2
AcDbPlaceHolder
  3
AutoCAD 2000
 90
0
280
0
281
0
  0
CLASS
  1
LAYOUT
  2
AcDbLayout
  3
AutoCAD 2000
 90
0
280
0
281
0
  0
ENDSEC
  0
SECTION
  2
TABLES
  0
TABLE
  2
VPORT
  5
8
100
AcDbSymbolTable
 70
2
  0
VPORT
  5
1F4
100
AcDbSymbolTableRecord
100
AcDbViewportTableRecord
  2
*ACTIVE
 70
0
 10
0.0
 20
0.0
 11
1.0
 21
1.0
 12
148.5
 22
105.0
 13
0.0
 23
0.0
 14
1.0
 24
1.0
 15
0.0
 25
0.0
 16
0.0
 26
0.0
 36
1.0
 17
0.0
 27
0.0
 37
0.0
 40
210.0
 41
1.4142857143
 42
50.0
 43
0.0
 44
0.0
 50
0.0
 51
0.0
 71
0
 72
100
 73
1
 74
1
 75
0
 76
0
 77
0
 78
0
  0
ENDTAB
  0
TABLE
  2
LTYPE
  5
5
100
AcDbSymbolTable
 70
6
  0
LTYPE
  5
14
100
AcDbSymbolTableRecord
100
AcDbLinetypeTableRecord
  2
BYBLOCK
 70
0
  3

 72
65
 73
0
 40
0.0
  0
LTYPE
  5
15
100
AcDbSymbolTableRecord
100
AcDbLinetypeTableRecord
  2
BYLAYER
 70
0
  3

 72
65
 73
0
 40
0.0
  0
LTYPE
  5
16
100
AcDbSymbolTableRecord
100
AcDbLinetypeTableRecord
  2
CONTINUOUS
 70
64
  3
Solid line
 72
65
 73
0
 40
0.0
  0
LTYPE
  5
1F5
100
AcDbSymbolTableRecord
100
AcDbLinetypeTableRecord
  2
CENTER
 70
64
  3
____ _ ____ _ ____ _ ____ _ ____ _ ____ _ ____
 72
65
 73
4
 40
0.6
 49
0.375
 74
0
 49
-0.075
 74
0
 49
0.075
 74
0
 49
-0.075
 74
0
  0
LTYPE
  5
1F6
100
AcDbSymbolTableRecord
100
AcDbLinetypeTableRecord
  2
HIDDEN
 70
64
  3
- - - - - - - - - - - - - - - - - - - -
 72
65
 73
2
 40
0.2
 49
0.1
 74
0
 49
-0.1
 74
0
  0
LTYPE
  5
1F7
100
AcDbSymbolTableRecord
100
AcDbLinetypeTableRecord
  2
PHANTOM
 70
64
  3
_____ _ _ _____ _ _ _____ _ _ _____
 72
65
 73
6
 40
0.8
 49
0.45
 74
0
 49
-0.05
 74
0
 49
0.1
 74
0
 49
-0.05
 74
0
 49
0.1
 74
0
 49
-0.05
 74
0
  0
LTYPE
  5
1F8
100
AcDbSymbolTableRecord
100
AcDbLinetypeTableRecord
  2
DOT
 70
64
  3
. . . . . . . . . . . . . . . . . . . .
 72
65
 73
2
 40
0.2
 49
0.1
 74
0
 49
-0.1
 74
0
  0
LTYPE
  5
1F9
100
AcDbSymbolTableRecord
100
AcDbLinetypeTableRecord
  2
DASHED
 70
64
  3
- - - - - - - - - - - - - - - - - - - -
 72
65
 73
2
 40
0.2
 49
0.1
 74
0
 49
-0.1
 74
0
  0
ENDTAB
  0
TABLE
  2
LAYER
  5
2
100
AcDbSymbolTable
 70
36
  0
LAYER
  5
10
100
AcDbSymbolTableRecord
100
AcDbLayerTableRecord
  2
0
 70
0
 62
7
  6
CONTINUOUS
370
-3
390
F
  0
LAYER
  5
1FA
100
AcDbSymbolTableRecord
100
AcDbLayerTableRecord
  2
DEFAULT_1
 70
0
 62
7
  6
CENTER
370
-3
390
F
  0
LAYER
  5
1FB
100
AcDbSymbolTableRecord
100
AcDbLayerTableRecord
  2
DEFAULT_2
 70
0
 62
7
  6
HIDDEN
370
-3
390
F
  0
LAYER
  5
1FC
100
AcDbSymbolTableRecord
100
AcDbLayerTableRecord
  2
DEFAULT_3
 70
0
 62
7
  6
PHANTOM
370
-3
390
F
  0
LAYER
  5
1FD
100
AcDbSymbolTableRecord
100
AcDbLayerTableRecord
  2
ASSI
 70
0
 62
7
  6
CONTINUOUS
370
-3
390
F
  0
LAYER
  5
1FE
100
AcDbSymbolTableRecord
100
AcDbLayerTableRecord
  2
COORDINATE
 70
0
 62
7
  6
CONTINUOUS
370
-3
390
F
  0
LAYER
  5
1FF
100
AcDbSymbolTableRecord
100
AcDbLayerTableRecord
  2
COORD_ORIGINE
 70
0
 62
7
  6
CONTINUOUS
370
-3
390
F
  0
LAYER
  5
200
100
AcDbSymbolTableRecord
100
AcDbLayerTableRecord
  2
CURVE
 70
0
 62
7
  6
CONTINUOUS
370
-3
390
F
  0
LAYER
  5
201
100
AcDbSymbolTableRecord
100
AcDbLayerTableRecord
  2
CURVE_LED_TASTO
 70
0
 62
7
  6
CONTINUOUS
370
-3
390
F
  0
LAYER
  5
202
100
AcDbSymbolTableRecord
100
AcDbLayerTableRecord
  2
DRAFT
 70
0
 62
7
  6
CONTINUOUS
370
-3
390
F
  0
LAYER
  5
203
100
AcDbSymbolTableRecord
100
AcDbLayerTableRecord
  2
IGES_SCRITTE
 70
0
 62
7
  6
CONTINUOUS
370
-3
390
F
  0
LAYER
  5
204
100
AcDbSymbolTableRecord
100
AcDbLayerTableRecord
  2
PIANI
 70
0
 62
7
  6
CONTINUOUS
370
-3
390
F
  0
LAYER
  5
205
100
AcDbSymbolTableRecord
100
AcDbLayerTableRecord
  2
PIANI_ORIGINE
 70
0
 62
7
  6
CONTINUOUS
370
-3
390
F
  0
LAYER
  5
206
100
AcDbSymbolTableRecord
100
AcDbLayerTableRecord
  2
PIANI_RIFERIMENTO
 70
0
 62
7
  6
CONTINUOUS
370
-3
390
F
  0
LAYER
  5
207
100
AcDbSymbolTableRecord
100
AcDbLayerTableRecord
  2
PUNTI
 70
0
 62
7
  6
CONTINUOUS
370
-3
390
F
  0
LAYER
  5
208
100
AcDbSymbolTableRecord
100
AcDbLayerTableRecord
  2
RACCORDO
 70
0
 62
7
  6
CONTINUOUS
370
-3
390
F
  0
LAYER
  5
209
100
AcDbSymbolTableRecord
100
AcDbLayerTableRecord
  2
SMUSSO
 70
0
 62
7
  6
CONTINUOUS
370
-3
390
F
  0
LAYER
  5
20A
100
AcDbSymbolTableRecord
100
AcDbLayerTableRecord
  2
SNAPLINE
 70
0
 62
7
  6
CONTINUOUS
370
-3
390
F
  0
LAYER
  5
20B
100
AcDbSymbolTableRecord
100
AcDbLayerTableRecord
  2
SUPERFICI
 70
0
 62
7
  6
CONTINUOUS
370
-3
390
F
  0
LAYER
  5
20C
100
AcDbSymbolTableRecord
100
AcDbLayerTableRecord
  2
TRASH
 70
0
 62
7
  6
CONTINUOUS
370
-3
390
F
  0
ENDTAB
  0
TABLE
  2
STYLE
  5
3
100
AcDbSymbolTable
 70
1
  0
STYLE
  5
11
100
AcDbSymbolTableRecord
100
AcDbTextStyleTableRecord
  2
STANDARD
 70
0
 40
0.0
 41
0.8
 50
0.0
 71
0
 42
0.2
  3
txt
  4

  0
STYLE
  5
20D
100
AcDbSymbolTableRecord
100
AcDbTextStyleTableRecord
  2
TEXTSTYLE_1
 70
0
 40
0.0
 41
0.8
 50
0.0
 71
0
 42
0.2
  3
gdt
  4

  0
ENDTAB
  0
TABLE
  2
VIEW
  5
6
100
AcDbSymbolTable
 70
0
  0
ENDTAB
  0
TABLE
  2
UCS
  5
7
100
AcDbSymbolTable
 70
0
  0
ENDTAB
  0
TABLE
  2
APPID
  5
9
100
AcDbSymbolTable
 70
1
  0
APPID
  5
20E
100
AcDbSymbolTableRecord
100
AcDbRegAppTableRecord
  2
ACAD
 70
0
  0
ENDTAB
  0
TABLE
  2
BLOCK_RECORD
  5
1
100
AcDbSymbolTable
 70
0
  0
BLOCK_RECORD
  5
20F
100
AcDbSymbolTableRecord
100
AcDbBlockTableRecord
  2
*Model_Space
  0
BLOCK_RECORD
  5
210
100
AcDbSymbolTableRecord
100
AcDbBlockTableRecord
  2
*Paper_Space
  0
ENDTAB
  0
TABLE
  2
DIMSTYLE
  5
A
100
AcDbSymbolTable
 70
1
100
AcDbDimStyleTable
 71
0
  0
DIMSTYLE
105
211
100
AcDbSymbolTableRecord
100
AcDbDimStyleTableRecord
  2
STANDARD
 70
0
  3

  4

 40
1.0
 41
3.0
 42
0.0625
 43
0.38
 44
0.18
 45
0.0
 46
0.0
 47
0.01
 48
0.01
140
3.0
141
0.09
142
0.0
143
25.4
144
1.0
145
0.0
146
1.0
147
0.09
 71
1.0
 72
0.0
 73
0
 74
0
 75
0
 76
0
 77
1
 78
8
170
0
171
2
172
0
173
0
174
0
175
0
176
0
177
0
178
0
270
2
271
2
272
2
273
2
274
2
275
0
280
0
281
0
282
0
283
1
284
8
285
0
286
0
287
3
288
0
340
11
  0
ENDTAB
  0
ENDSEC
  0
SECTION
  2
BLOCKS
  0
BLOCK
  5
20
100
AcDbEntity
  8
0
100
AcDbBlockBegin
  2
*Model_Space
 70
0
 10
0.0
 20
0.0
 30
0.0
  3
*Model_Space
  1

  0
ENDBLK
  5
21
100
AcDbEntity
  8
0
100
AcDbBlockEnd
  0
BLOCK
  5
1C
100
AcDbEntity
  8
0
100
AcDbBlockBegin
  2
*Paper_Space
 70
0
 10
0.0
 20
0.0
 30
0.0
  3
*Paper_Space
  1

  0
ENDBLK
  5
1D
100
AcDbEntity
  8
0
100
AcDbBlockEnd
  0
ENDSEC
  0
SECTION
  2
ENTITIES
  0
LWPOLYLINE
  5
212
100
AcDbEntity
  8
RACCORDO
100
AcDbPolyline
 62
7
  6
CONTINUOUS
 90
49
 70
0
 10
2.0233856119
 20
54.2094157367
 10
1.9982752127
 20
54.1944226576
 10
1.9679227049
 20
54.1753457137
 10
1.9378839421
 20
54.1554088691
 10
1.9081465441
 20
54.1346030173
 10
1.8787382946
 20
54.1129461186
 10
1.8497256682
 20
54.0904888
 10
1.8211115413
 20
54.0672376082
 10
1.7929014166
 20
54.0431996369
 10
1.7651602598
 20
54.0184356325
 10
1.7378881878
 20
53.9929533859
 10
1.7110882957
 20
53.9667618073
 10
1.6848245994
 20
53.939932522
 10
1.6590967711
 20
53.9124763611
 10
1.6339042058
 20
53.8844027608
 10
1.6093058254
 20
53.8557895422
 10
1.5853063477
 20
53.826657953
 10
1.5618962879
 20
53.7970102708
 10
1.5391095126
 20
53.7669037331
 10
1.5169508327
 20
53.7363610126
 10
1.495410459
 20
53.7053827921
 10
1.4744993343
 20
53.6739981132
 10
1.4542174321
 20
53.6422190367
 10
1.434563226
 20
53.6100540229
 10
1.4155465775
 20
53.577528373
 10
1.397170065
 20
53.544655487
 10
1.3794328245
 20
53.5114403099
 10
1.3623398542
 20
53.4778967797
 10
1.345894561
 20
53.4440343136
 10
1.3301000107
 20
53.4098591838
 10
1.3149614469
 20
53.3753805128
 10
1.3004825262
 20
53.3406005261
 10
1.2866714008
 20
53.3055302912
 10
1.2735409013
 20
53.2701909487
 10
1.2610954236
 20
53.234580448
 10
1.2493465389
 20
53.1987127334
 10
1.238314896
 20
53.16263184
 10
1.2280082501
 20
53.126342269
 10
1.2184362463
 20
53.0898509775
 10
1.2096184377
 20
53.0532040899
 10
1.2015638367
 20
53.0164071249
 10
1.1942823269
 20
52.9794656085
 10
1.1877916704
 20
52.9424234951
 10
1.1821016873
 20
52.9052870097
 10
1.1772236069
 20
52.8680616146
 10
1.1731730676
 20
52.8307866219
 10
1.1699621941
 20
52.793477395
 10
1.1676024117
 20
52.7561302729
 10
1.1663079935
 20
52.7253573051
  0
LINE
  5
213
100
AcDbEntity
  8
RACCORDO
100
AcDbLine
 62
7
  6
CONTINUOUS
 10
2.0233868698
 20
54.209416488
 11
4.6528343599
 21
55.7426252136
  0
LINE
  5
214
100
AcDbEntity
  8
RACCORDO
100
AcDbLine
 62
253
  6
CONTINUOUS
 10
2.3967533459
 20
54.195388659
 11
5.0270966357
 21
55.7291197179
  0
LWPOLYLINE
  5
215
100
AcDbEntity
  8
RACCORDO
100
AcDbPolyline
 62
7
  6
CONTINUOUS
 90
43
 70
0
 10
1.1663378786
 20
17.1473246333
 10
1.1676323843
 20
17.1175372392
 10
1.1699598794
 20
17.0819681501
 10
1.1731163445
 20
17.0467936199
 10
1.1770932764
 20
17.0120155111
 10
1.1818810698
 20
16.9776470227
 10
1.1874674284
 20
16.9437162758
 10
1.193841633
 20
16.9102327144
 10
1.2009935055
 20
16.8772040956
 10
1.2089078501
 20
16.8446587171
 10
1.21757167
 20
16.8126081539
 10
1.2269731236
 20
16.7810596798
 10
1.2370947735
 20
16.7500372201
 10
1.2479218308
 20
16.7195514212
 10
1.259439722
 20
16.6896117681
 10
1.2716272748
 20
16.6602423785
 10
1.2844618285
 20
16.6314649332
 10
1.2979305446
 20
16.6032772568
 10
1.3120253663
 20
16.5756701109
 10
1.3267239842
 20
16.5486624545
 10
1.3420126588
 20
16.5222555684
 10
1.3578990568
 20
16.4964179538
 10
1.3743708897
 20
16.4711558265
 10
1.3914079109
 20
16.4464861813
 10
1.4090091898
 20
16.4223981114
 10
1.4271592365
 20
16.3989027568
 10
1.4458403048
 20
16.3760126966
 10
1.4650495081
 20
16.3537221477
 10
1.4847697115
 20
16.3320431162
 10
1.5049834837
 20
16.3109868718
 10
1.5256884664
 20
16.290548851
 10
1.5468661257
 20
16.2707411681
 10
1.5684990406
 20
16.2515738597
 10
1.5905876606
 20
16.2330415722
 10
1.6131136126
 20
16.2151556269
 10
1.6360585667
 20
16.1979260337
 10
1.6594244142
 20
16.1813479927
 10
1.6831929152
 20
16.1654321728
 10
1.7073451518
 20
16.150188617
 10
1.7318832894
 20
16.1356139981
 10
1.756795832
 20
16.1217145139
 10
1.7820566114
 20
16.1085039243
 10
1.7864784969
 20
16.1062801138
  0
LWPOLYLINE
  5
216
100
AcDbEntity
  8
RACCORDO
100
AcDbPolyline
 62
7
  6
CONTINUOUS
 90
34
 70
0
 10
1.1663080691
 20
52.7253598873
 10
1.1319960046
 20
51.6351211192
 10
1.0996613991
 20
50.5404343515
 10
1.0694814354
 20
49.4467614599
 10
1.0414563509
 20
48.3541100567
 10
1.0155863244
 20
47.2624867438
 10
0.9918715175
 20
46.1718977019
 10
0.9703120938
 20
45.0823493606
 10
0.9509082028
 20
43.9938486218
 10
0.9336599871
 20
42.9064023748
 10
0.9185675801
 20
41.8200173688
 10
0.9056310882
 20
40.7347003733
 10
0.8948506115
 20
39.6504583074
 10
0.8862262411
 20
38.5672979059
 10
0.8797580411
 20
37.485225851
 10
0.87544607
 20
36.4042489816
 10
0.8732903785
 20
35.3243740071
 10
0.8732909905
 20
34.2456076089
 10
0.8754479231
 20
33.1679565828
 10
0.8797611863
 20
32.0914276055
 10
0.8862307635
 20
31.016027349
 10
0.8948566301
 20
29.9417626006
 10
0.9056387561
 20
28.8686399938
 10
0.9185770847
 20
27.7966661866
 10
0.9336715496
 20
26.7258480017
 10
0.9509220788
 20
25.6561921162
 10
0.9703285732
 20
24.5877051584
 10
0.9918909242
 20
23.5203938767
 10
1.0156090168
 20
22.4542650357
 10
1.0414827216
 20
21.3893249135
 10
1.0695119113
 20
20.3255795298
 10
1.0996964418
 20
19.2630353142
 10
1.1320361099
 20
18.2016996532
 10
1.1663377806
 20
17.1473271233
  0
LINE
  5
217
100
AcDbEntity
  8
RACCORDO
100
AcDbLine
 62
253
  6
CONTINUOUS
 10
19.6665650847
 20
48.4093854934
 11
16.9427648724
 21
46.9223828957
  0
LWPOLYLINE
  5
218
100
AcDbEntity
  8
RACCORDO
100
AcDbPolyline
 62
7
  6
CONTINUOUS
 90
33
 70
0
 10
32.2013838531
 20
0.8988399935
 10
32.2279146824
 20
0.886175832
 10
32.2547949101
 20
0.8742385269
 10
32.2819946453
 20
0.8630413292
 10
32.3095023523
 20
0.852588756
 10
32.3373259991
 20
0.8428790424
 10
32.365445182
 20
0.8339213109
 10
32.3938390005
 20
0.8257239065
 10
32.4225161253
 20
0.8182871036
 10
32.4514567664
 20
0.8116198556
 10
32.4806393932
 20
0.8057303541
 10
32.5100715132
 20
0.8006211656
 10
32.5397327456
 20
0.7963009263
 10
32.5696020535
 20
0.7927775278
 10
32.5996872501
 20
0.7900554685
 10
32.6299683043
 20
0.7881429077
 10
32.6604237712
 20
0.7870473982
 10
32.6910607194
 20
0.7867756854
 10
32.7218607342
 20
0.7873356032
 10
32.7528008859
 20
0.7887342386
 10
32.7838829437
 20
0.7909798993
 10
32.8150869738
 20
0.7940798828
 10
32.846392198
 20
0.798040506
 10
32.8778009154
 20
0.8028713404
 10
32.9092944351
 20
0.8085796205
 10
32.9408516751
 20
0.8151711519
 10
32.9724734205
 20
0.8226565609
 10
33.0041418024
 20
0.8310431043
 10
33.0358365715
 20
0.8403365811
 10
33.0675573084
 20
0.8505488299
 10
33.0992923717
 20
0.8616893894
 10
33.1310159932
 20
0.8737621378
 10
33.1565464224
 20
0.8841677476
  0
LWPOLYLINE
  5
219
100
AcDbEntity
  8
RACCORDO
100
AcDbPolyline
 62
7
  6
CONTINUOUS
 90
28
 70
0
 10
16.326836484
 20
8.8361136805
 10
16.3533672267
 20
8.823449559
 10
16.3802473825
 20
8.8115122688
 10
16.4074470542
 20
8.8003150797
 10
16.4349547254
 20
8.7898625174
 10
16.4627783971
 20
8.7801527906
 10
16.4908976783
 20
8.7711950105
 10
16.5192916584
 20
8.7629975464
 10
16.5479690035
 20
8.7555606933
 10
16.5769099069
 20
8.7488934003
 10
16.6060928471
 20
8.7430038434
 10
16.6355253696
 20
8.7378946026
 10
16.6651871039
 20
8.7335743349
 10
16.6950570025
 20
8.7300509257
 10
16.7251428892
 20
8.7273288655
 10
16.7554247456
 20
8.7254163371
 10
16.7858811215
 20
8.7243209178
 10
16.8165190662
 20
8.7240493359
 10
16.8473202114
 20
8.7246094312
 10
16.8782615797
 20
8.7260083172
 10
16.9093447818
 20
8.7282543024
 10
16.9405498914
 20
8.7313546494
 10
16.9718561167
 20
8.7353156823
 10
17.0032655585
 20
8.7401469537
 10
17.0347595121
 20
8.7458556469
 10
17.066316901
 20
8.7524475417
 10
17.0979383371
 20
8.7599332223
 10
17.1280021453
 20
8.7678951584
  0
LINE
  5
21A
100
AcDbEntity
  8
RACCORDO
100
AcDbLine
 62
7
  6
CONTINUOUS
 10
17.6610028319
 20
8.1690179453
 11
32.2013838531
 21
0.8988399935
  0
LINE
  5
21B
100
AcDbEntity
  8
RACCORDO
100
AcDbLine
 62
7
  6
CONTINUOUS
 10
16.326836484
 20
8.8361136805
 11
1.7864555972
 21
16.1062915627
  0
LINE
  5
21C
100
AcDbEntity
  8
RACCORDO
100
AcDbLine
 62
253
  6
CONTINUOUS
 10
17.2752270646
 20
8.9258189895
 11
31.8048778957
 21
1.6609935739
  0
LINE
  5
21D
100
AcDbEntity
  8
RACCORDO
100
AcDbLine
 62
253
  6
CONTINUOUS
 10
15.9303306581
 20
9.5982671927
 11
1.4006798269
 21
16.8630926083
  0
LWPOLYLINE
  5
21E
100
AcDbEntity
  8
RACCORDO
100
AcDbPolyline
 62
7
  6
CONTINUOUS
 90
49
 70
0
 10
17.8979330997
 20
46.2721422712
 10
17.8728247683
 20
46.2571504621
 10
17.8424740243
 20
46.2380747206
 10
17.8124366989
 20
46.2181390136
 10
17.7827005918
 20
46.197334287
 10
17.7532935119
 20
46.1756785282
 10
17.7242818806
 20
46.1532223029
 10
17.6956685316
 20
46.1299720985
 10
17.6674589897
 20
46.1059350385
 10
17.6397182673
 20
46.0811718465
 10
17.6124464782
 20
46.0556903347
 10
17.5856467312
 20
46.0294993769
 10
17.559383065
 20
46.0026706257
 10
17.5336551566
 20
45.9752149024
 10
17.5084624196
 20
45.9471416339
 10
17.4838638097
 20
45.9185286991
 10
17.459864062
 20
45.889397318
 10
17.4364536755
 20
45.8597497881
 10
17.4136665606
 20
45.8296433491
 10
17.3915075174
 20
45.799100699
 10
17.3699667669
 20
45.7681224973
 10
17.3490552553
 20
45.7367378087
 10
17.3287729592
 20
45.7049586937
 10
17.30911836
 20
45.6727936081
 10
17.2901013203
 20
45.6402678864
 10
17.2717244363
 20
45.6073949153
 10
17.2539868207
 20
45.574179653
 10
17.2368935022
 20
45.5406360378
 10
17.2204478638
 20
45.5067735019
 10
17.2046529916
 20
45.4725983076
 10
17.1895141154
 20
45.438119596
 10
17.1750349049
 20
45.4033396012
 10
17.1612235032
 20
45.3682693794
 10
17.1480927246
 20
45.3329300561
 10
17.1356469864
 20
45.2973195943
 10
17.1238978298
 20
45.2614519261
 10
17.1128659089
 20
45.2253710109
 10
17.1025589544
 20
45.1890813554
 10
17.0929866432
 20
45.1525899121
 10
17.0841684861
 20
45.1159427124
 10
17.0761135217
 20
45.0791452684
 10
17.0688316362
 20
45.0422031119
 10
17.0623405889
 20
45.0051601267
 10
17.056650225
 20
44.9680224976
 10
17.0517717701
 20
44.930795729
 10
17.0477209138
 20
44.8935192297
 10
17.0445097647
 20
44.8562083496
 10
17.0421497851
 20
44.8188592084
 10
17.0408552419
 20
44.7880838415
  0
LINE
  5
21F
100
AcDbEntity
  8
RACCORDO
100
AcDbLine
 62
7
  6
CONTINUOUS
 10
17.8979341074
 20
46.2721428692
 11
20.5273815975
 21
47.8053515948
  0
LINE
  5
220
100
AcDbEntity
  8
RACCORDO
100
AcDbLine
 62
253
  6
CONTINUOUS
 10
18.2713005835
 20
46.2581150402
 11
20.9016438734
 21
47.7918460991
  0
LINE
  5
221
100
AcDbEntity
  8
RACCORDO
100
AcDbLine
 62
7
  6
CONTINUOUS
 10
34.215373797
 20
17.7887885356
 11
35.8085126813
 21
18.2305044171
  0
LINE
  5
222
100
AcDbEntity
  8
RACCORDO
100
AcDbLine
 62
7
  6
CONTINUOUS
 10
34.5126329484
 20
17.1189637796
 11
36.7959121494
 21
17.736804683
  0
LWPOLYLINE
  5
223
100
AcDbEntity
  8
RACCORDO
100
AcDbPolyline
 62
7
  6
CONTINUOUS
 90
43
 70
0
 10
17.0408851033
 20
9.2100512209
 10
17.0421792862
 20
9.1802698165
 10
17.0445062496
 20
9.1447058375
 10
17.047662001
 20
9.1095354863
 10
17.0516381155
 20
9.0747608127
 10
17.0564250153
 20
9.0403950678
 10
17.0620104406
 20
9.00646644
 10
17.068383744
 20
8.9729843277
 10
17.0755347615
 20
8.9399565047
 10
17.083448317
 20
8.9074114633
 10
17.0921114573
 20
8.8753607773
 10
17.1015123483
 20
8.8438117281
 10
17.1116335349
 20
8.8127884745
 10
17.1224602437
 20
8.7823016785
 10
17.1339779024
 20
8.7523608036
 10
17.1461652954
 20
8.7229901629
 10
17.1589997568
 20
8.694211482
 10
17.1724684495
 20
8.6660225357
 10
17.1865632841
 20
8.6384141537
 10
17.2012619496
 20
8.6114053503
 10
17.2165507083
 20
8.584997359
 10
17.2324372351
 20
8.5591586337
 10
17.2489092703
 20
8.5338953953
 10
17.2659465594
 20
8.5092246581
 10
17.28354815
 20
8.485135519
 10
17.3016985475
 20
8.4616391105
 10
17.3203800213
 20
8.4387480393
 10
17.3395896602
 20
8.4164565385
 10
17.3593103141
 20
8.3947766061
 10
17.3795245481
 20
8.3737195036
 10
17.4002300062
 20
8.3532807011
 10
17.4214081358
 20
8.3334723142
 10
17.4430415142
 20
8.3143043575
 10
17.4651306047
 20
8.2957714507
 10
17.4876570578
 20
8.2778849296
 10
17.5106025297
 20
8.2606548089
 10
17.5339688936
 20
8.2440762846
 10
17.5577379017
 20
8.2281600145
 10
17.581890643
 20
8.2129160592
 10
17.6064292712
 20
8.1983411025
 10
17.6313422778
 20
8.1844413312
 10
17.6566034902
 20
8.17123049
 10
17.6610268479
 20
8.1690059383
  0
LWPOLYLINE
  5
224
100
AcDbEntity
  8
RACCORDO
100
AcDbPolyline
 62
7
  6
CONTINUOUS
 90
34
 70
0
 10
17.0408553068
 20
44.7880862685
 10
17.0065432418
 20
43.6978474841
 10
16.9742086359
 20
42.6031607039
 10
16.9440286721
 20
41.509487804
 10
16.9160035875
 20
40.4168363951
 10
16.8901335609
 20
39.325213078
 10
16.8664187541
 20
38.2346240333
 10
16.8448593305
 20
37.1450756913
 10
16.8254554396
 20
36.0565749537
 10
16.808207224
 20
34.9691287091
 10
16.7931148172
 20
33.8827437067
 10
16.7801783254
 20
32.7974267158
 10
16.7693978489
 20
31.7131846543
 10
16.7607734785
 20
30.6300242569
 10
16.7543052786
 20
29.5479522061
 10
16.7499933075
 20
28.4669753396
 10
16.7478376161
 20
27.3871003667
 10
16.7478382282
 20
26.308333969
 10
16.7499951608
 20
25.2306829423
 10
16.7543084241
 20
24.154153963
 10
16.7607780013
 20
23.0787537033
 10
16.769403868
 20
22.0044889516
 10
16.7801859942
 20
20.9313663412
 10
16.7931243228
 20
19.8593925301
 10
16.8082187878
 20
18.7885743422
 10
16.8254693172
 20
17.7189184547
 10
16.8448758116
 20
16.6504314959
 10
16.8664381628
 20
15.583120215
 10
16.8901562554
 20
14.5169913764
 10
16.9160299601
 20
13.4520512579
 10
16.9440591498
 20
12.388305879
 10
16.9742436802
 20
11.3257616705
 10
17.0065833479
 20
10.2644260201
 10
17.0408850182
 20
9.2100535045
  0
LINE
  5
225
100
AcDbEntity
  8
RACCORDO
100
AcDbLine
 62
253
  6
CONTINUOUS
 10
35.5411123224
 20
40.4721118746
 11
32.8173121101
 21
38.9851092769
  0
LINE
  5
226
100
AcDbEntity
  8
RACCORDO
100
AcDbLine
 62
253
  6
CONTINUOUS
 10
34.2405181708
 20
17.2550211684
 11
34.5126329484
 21
17.1189637796
  0
LINE
  5
227
100
AcDbEntity
  8
RACCORDO
100
AcDbLine
 62
253
  6
CONTINUOUS
 10
36.1063671479
 20
39.4963470321
 11
33.4026444941
 21
38.0203053637
  0
LINE
  5
228
100
AcDbEntity
  8
RACCORDO
100
AcDbLine
 62
253
  6
CONTINUOUS
 10
35.8085126813
 20
18.2305044171
 11
36.7959121494
 21
17.736804683
  0
LINE
  5
229
100
AcDbEntity
  8
RACCORDO
100
AcDbLine
 62
7
  6
CONTINUOUS
 10
35.9721390745
 20
18.2198800469
 11
36.9609522551
 21
17.7254734566
  0
LINE
  5
22A
100
AcDbEntity
  8
RACCORDO
100
AcDbLine
 62
7
  6
CONTINUOUS
 10
34.5126329484
 20
23.3073285411
 11
36.7959121494
 21
24.8944247318
  0
LINE
  5
22B
100
AcDbEntity
  8
RACCORDO
100
AcDbLine
 62
7
  6
CONTINUOUS
 10
34.215373797
 20
17.4018681327
 11
34.215373797
 21
22.7373643623
  0
LINE
  5
22C
100
AcDbEntity
  8
RACCORDO
100
AcDbLine
 62
253
  6
CONTINUOUS
 10
17.2752270646
 20
44.5080134055
 11
31.8048778957
 21
37.2431879899
  0
LINE
  5
22D
100
AcDbEntity
  8
RACCORDO
100
AcDbLine
 62
253
  6
CONTINUOUS
 10
15.9303306581
 20
45.1804616087
 11
1.4006798269
 21
52.4452870243
  0
LINE
  5
22E
100
AcDbEntity
  8
RACCORDO
100
AcDbLine
 62
7
  6
CONTINUOUS
 10
36.1063671479
 20
2.4689965151
 11
36.1063671479
 21
3.1858497258
  0
LINE
  5
22F
100
AcDbEntity
  8
RACCORDO
100
AcDbLine
 62
7
  6
CONTINUOUS
 10
36.1063671479
 20
38.7794938214
 11
36.1063671479
 21
39.4963470321
  0
LINE
  5
230
100
AcDbEntity
  8
RACCORDO
100
AcDbLine
 62
253
  6
CONTINUOUS
 10
18.2713005835
 20
46.2581150402
 11
32.8173121101
 21
38.9851092769
  0
LINE
  5
231
100
AcDbEntity
  8
RACCORDO
100
AcDbLine
 62
253
  6
CONTINUOUS
 10
16.9427648724
 20
46.9223828957
 11
2.3967533459
 21
54.195388659
  0
LINE
  5
232
100
AcDbEntity
  8
DRAFT
100
AcDbLine
 62
7
  6
CONTINUOUS
 10
37.0931713008
 20
27.9543351487
 11
36.1063671479
 21
38.7794938214
  0
LINE
  5
233
100
AcDbEntity
  8
RACCORDO
100
AcDbLine
 62
7
  6
CONTINUOUS
 10
37.0931713008
 20
27.9543351487
 11
37.0931713008
 21
25.4643889107
  0
LINE
  5
234
100
AcDbEntity
  8
RACCORDO
100
AcDbLine
 62
7
  6
CONTINUOUS
 10
37.0931713008
 20
17.4539003299
 11
37.0931713008
 21
14.9639540919
  0
LINE
  5
235
100
AcDbEntity
  8
DRAFT
100
AcDbLine
 62
7
  6
CONTINUOUS
 10
36.1063671479
 20
3.1858497258
 11
37.0931713008
 21
14.9639540919
  0
LINE
  5
236
100
AcDbEntity
  8
RACCORDO
100
AcDbLine
 62
7
  6
CONTINUOUS
 10
5.0270966357
 20
55.7291197179
 11
19.6665650847
 21
48.4093854934
  0
LINE
  5
237
100
AcDbEntity
  8
RACCORDO
100
AcDbLine
 62
7
  6
CONTINUOUS
 10
35.5411123224
 20
40.4721118746
 11
20.9016438734
 21
47.7918460991
  0
LINE
  5
238
100
AcDbEntity
  8
RACCORDO
100
AcDbLine
 62
253
  6
CONTINUOUS
 10
33.4026444941
 20
1.3340835665
 11
36.1063671479
 21
2.4689965151
  0
LINE
  5
239
100
AcDbEntity
  8
RACCORDO
100
AcDbLine
 62
7
  6
CONTINUOUS
 10
33.1565529014
 20
0.8841704491
 11
35.880324863
 21
2.0274992827
  0
SPLINE
  5
23A
100
AcDbEntity
  8
RACCORDO
100
AcDbSpline
 62
253
  6
CONTINUOUS
 70
0
 71
3
 72
16
 73
12
 74
10
 42
0.0000001
 43
0.0000001
 44
0.0000000001
 12
0.0130086678
 22
-0.3864322493
 32
0.0
 13
0.345336665
 23
-0.1729612195
 33
0.0
 40
0.0
 40
0.0
 40
0.0
 40
0.0
 40
0.0847852531
 40
0.1804086526
 40
0.2793348504
 40
0.3829853327
 40
0.492468143
 40
0.6085657073
 40
0.7317548248
 40
0.8622416218
 40
1.0
 40
1.0
 40
1.0
 40
1.0
 10
1.1663380468
 20
17.147324639
 30
0.0
 10
1.1667056945
 20
17.136403387
 30
0.0
 10
1.1692203639
 20
17.1132220617
 30
0.0
 10
1.1786144298
 20
17.0783507342
 30
0.0
 10
1.1942388054
 20
17.0431286042
 30
0.0
 10
1.2156223571
 20
17.0089731809
 30
0.0
 10
1.2425715787
 20
16.9761246315
 30
0.0
 10
1.2748664464
 20
16.9448056521
 30
0.0
 10
1.3122603816
 20
16.9152276437
 30
0.0
 10
1.3544726769
 20
16.8875950639
 30
0.0
 10
1.384822154
 20
16.871034894
 30
0.0
 10
1.4006798269
 20
16.8630926083
 30
0.0
 11
1.1663380468
 21
17.147324639
 31
0.0
 11
1.1698539141
 21
17.1147603852
 31
0.0
 11
1.1793853345
 21
17.0790789444
 31
0.0
 11
1.1947704272
 21
17.0441051767
 31
0.0
 11
1.215894686
 21
17.0100993801
 31
0.0
 11
1.2426008902
 21
16.9773146483
 31
0.0
 11
1.2746902745
 21
16.945994987
 31
0.0
 11
1.3119240084
 21
16.916373498
 31
0.0
 11
1.3540249737
 21
16.8886706441
 31
0.0
 11
1.4006798269
 21
16.8630926083
 31
0.0
  0
SPLINE
  5
23B
100
AcDbEntity
  8
RACCORDO
100
AcDbSpline
 62
253
  6
CONTINUOUS
 70
0
 71
3
 72
17
 73
13
 74
11
 42
0.0000001
 43
0.0000001
 44
0.0000000001
 12
-0.0125444238
 22
-0.3849747185
 32
0.0
 13
0.3441649648
 23
-0.1717703072
 33
0.0
 40
0.0
 40
0.0
 40
0.0
 40
0.0
 40
0.0241492627
 40
0.1098626921
 40
0.1982921867
 40
0.2912770481
 40
0.3902793802
 40
0.4963514224
 40
0.6101607007
 40
0.7320406791
 40
0.8620456261
 40
1.0
 40
1.0
 40
1.0
 40
1.0
 10
1.1663092946
 20
52.7253572627
 30
0.0
 10
1.1662083151
 20
52.7222583108
 30
0.0
 10
1.1661129722
 20
52.7081487406
 30
0.0
 10
1.1689559363
 20
52.6827441909
 30
0.0
 10
1.1787182501
 20
52.6497439374
 30
0.0
 10
1.1943890203
 20
52.6172300934
 30
0.0
 10
1.2157956937
 20
52.5854344389
 30
0.0
 10
1.2427461859
 20
52.5545654387
 30
0.0
 10
1.2750272918
 20
52.5248234858
 30
0.0
 10
1.3123991332
 20
52.4964062232
 30
0.0
 10
1.3545865167
 20
52.4695099669
 30
0.0
 10
1.3848534817
 20
52.45318585
 30
0.0
 10
1.4006798358
 20
52.4452870283
 30
0.0
 11
1.1663092946
 21
52.7253572627
 31
0.0
 11
1.1662471134
 21
52.7160570313
 31
0.0
 11
1.1698539229
 21
52.683285362
 31
0.0
 11
1.1793853437
 21
52.6506338157
 31
0.0
 11
1.1947704366
 21
52.6183454069
 31
0.0
 11
1.2158946956
 21
52.5866604474
 31
0.0
 11
1.2426008999
 21
52.5558147577
 31
0.0
 11
1.2746902841
 21
52.5260379119
 31
0.0
 11
1.3119240178
 21
52.4975515291
 31
0.0
 11
1.3540249828
 21
52.4705676239
 31
0.0
 11
1.4006798358
 21
52.4452870283
 31
0.0
  0
SPLINE
  5
23C
100
AcDbEntity
  8
RACCORDO
100
AcDbSpline
 62
253
  6
CONTINUOUS
 70
0
 71
3
 72
16
 73
12
 74
10
 42
0.0000001
 43
0.0000001
 44
0.0000000001
 12
0.3362084196
 22
0.1960720216
 32
0.0
 13
0.3503187667
 23
-0.1687809142
 33
0.0
 40
0.0
 40
0.0
 40
0.0
 40
0.0
 40
0.0310772089
 40
0.1384341802
 40
0.2476541712
 40
0.3600467628
 40
0.4767234344
 40
0.5985564197
 40
0.7261662236
 40
0.8599297092
 40
1.0
 40
1.0
 40
1.0
 40
1.0
 10
2.0233872392
 20
54.2094158545
 30
0.0
 10
2.0268700457
 20
54.2114469782
 30
0.0
 10
2.0425764673
 20
54.2201647778
 30
0.0
 10
2.0720994395
 20
54.2330558161
 30
0.0
 10
2.1133550151
 20
54.2443805221
 30
0.0
 10
2.156956651
 20
54.2501178723
 30
0.0
 10
2.2025546851
 20
54.2502473282
 30
0.0
 10
2.2497969019
 20
54.244792396
 30
0.0
 10
2.2983292099
 20
54.2338141866
 30
0.0
 10
2.3477876642
 20
54.2174120515
 30
0.0
 10
2.3803969287
 20
54.2032690562
 30
0.0
 10
2.3967533459
 20
54.195388659
 30
0.0
 11
2.0233872392
 21
54.2094158545
 31
0.0
 11
2.0339620767
 21
54.2152849148
 31
0.0
 11
2.0722071861
 21
54.2320207474
 31
0.0
 11
2.1131444732
 21
54.2433312024
 31
0.0
 11
2.1564627426
 21
54.2491303005
 31
0.0
 11
2.2018326991
 21
54.2493739583
 31
0.0
 11
2.2489094513
 21
54.2440603236
 31
0.0
 11
2.2973351327
 21
54.2332297893
 31
0.0
 11
2.346741623
 21
54.2169646866
 31
0.0
 11
2.3967533459
 21
54.195388659
 31
0.0
  0
SPLINE
  5
23D
100
AcDbEntity
  8
RACCORDO
100
AcDbSpline
 62
253
  6
CONTINUOUS
 70
0
 71
3
 72
20
 73
16
 74
14
 42
0.0000001
 43
0.0000001
 44
0.0000000001
 12
-0.7976489874
 22
0.3988200845
 32
0.0
 13
-0.0301774773
 23
0.8907947486
 33
0.0
 40
0.0
 40
0.0
 40
0.0
 40
0.0
 40
0.0008117238
 40
0.0728038253
 40
0.1454384502
 40
0.2192896261
 40
0.2948800959
 40
0.3726648721
 40
0.4530200924
 40
0.5362389249
 40
0.6225314267
 40
0.7120290863
 40
0.8047895266
 40
0.9008026006
 40
1.0
 40
1.0
 40
1.0
 40
1.0
 10
1.7864557484
 20
16.106291489
 30
0.0
 10
1.7862399248
 20
16.1063993996
 30
0.0
 10
1.7668889765
 20
16.1160906415
 30
0.0
 10
1.7293731227
 20
16.1377249527
 30
0.0
 10
1.6771264759
 20
16.1764785863
 30
0.0
 10
1.6287672165
 20
16.2215589184
 30
0.0
 10
1.5845355906
 20
16.272723613
 30
0.0
 10
1.5446447599
 20
16.3297029781
 30
0.0
 10
1.5092822268
 20
16.3922032911
 30
0.0
 10
1.4786115793
 20
16.4599083661
 30
0.0
 10
1.45277347
 20
16.5324807103
 30
0.0
 10
1.4318861
 20
16.6095615649
 30
0.0
 10
1.4160450803
 20
16.6907729603
 30
0.0
 10
1.4053229221
 20
16.775713072
 30
0.0
 10
1.4016776693
 20
16.8336377675
 30
0.0
 10
1.4006798269
 20
16.8630926083
 30
0.0
 11
1.7864557484
 21
16.106291489
 31
0.0
 11
1.7858084904
 21
16.1066156455
 31
0.0
 11
1.7302129667
 21
16.138655284
 31
0.0
 11
1.6781874018
 21
16.1771853261
 31
0.0
 11
1.62998905
 21
16.2220151718
 31
0.0
 11
1.5858564148
 21
16.2729228944
 31
0.0
 11
1.546007667
 21
16.3296567368
 31
0.0
 11
1.5106399415
 21
16.3919359613
 31
0.0
 11
1.4799281431
 21
16.4594524957
 31
0.0
 11
1.4540242477
 21
16.5318720954
 31
0.0
 11
1.4330562536
 21
16.6088367691
 31
0.0
 11
1.4171278733
 21
16.6899658288
 31
0.0
 11
1.406317954
 21
16.7748573458
 31
0.0
 11
1.4006798269
 21
16.8630926083
 31
0.0
  0
SPLINE
  5
23E
100
AcDbEntity
  8
RACCORDO
100
AcDbSpline
 62
253
  6
CONTINUOUS
 70
0
 71
3
 72
25
 73
21
 74
19
 42
0.0000001
 43
0.0000001
 44
0.0000000001
 12
-0.0662125668
 22
1.1601957825
 32
0.0
 13
-1.031408765
 23
0.5351492576
 33
0.0
 40
0.0
 40
0.0
 40
0.0
 40
0.0
 40
0.0425932447
 40
0.0963498673
 40
0.1517884076
 40
0.208679044
 40
0.266766585
 40
0.3257759812
 40
0.3854174746
 40
0.4453914929
 40
0.505393386
 40
0.5651180802
 40
0.6242647275
 40
0.6825414206
 40
0.7396700522
 40
0.79539141
 40
0.8494706135
 40
0.9017030211
 40
0.9519207555
 40
1.0
 40
1.0
 40
1.0
 40
1.0
 10
17.5275501562
 20
45.9683521785
 30
0.0
 10
17.5266100869
 20
45.9848243461
 30
0.0
 10
17.5234185346
 20
46.0220327046
 30
0.0
 10
17.5149537564
 20
46.0802476419
 30
0.0
 10
17.5018674691
 20
46.1432700916
 30
0.0
 10
17.4847767868
 20
46.2070609209
 30
0.0
 10
17.4638108992
 20
46.2711401091
 30
0.0
 10
17.4391282961
 20
46.3350234237
 30
0.0
 10
17.4109155642
 20
46.3982281502
 30
0.0
 10
17.3793860385
 20
46.4602763553
 30
0.0
 10
17.3447781789
 20
46.52069877
 30
0.0
 10
17.3073537322
 20
46.5790384049
 30
0.0
 10
17.2673956912
 20
46.6348541048
 30
0.0
 10
17.2252060461
 20
46.6877239623
 30
0.0
 10
17.1811034176
 20
46.7372485346
 30
0.0
 10
17.1354202973
 20
46.7830539731
 30
0.0
 10
17.0885009355
 20
46.8247944866
 30
0.0
 10
17.0406962111
 20
46.8621559946
 30
0.0
 10
16.9923685767
 20
46.8948541036
 30
0.0
 10
16.9592946572
 20
46.9138063717
 30
0.0
 10
16.9427648724
 20
46.9223828957
 30
0.0
 11
17.5275501562
 21
45.9683521785
 31
0.0
 11
17.5233619814
 21
46.0176716861
 31
0.0
 11
17.5144382014
 21
46.079494879
 31
0.0
 11
17.5013937526
 21
46.1425785963
 31
0.0
 11
17.484327796
 21
46.2064432906
 31
0.0
 11
17.4633700627
 21
46.2706034777
 31
0.0
 11
17.4386798685
 21
46.3345714272
 31
0.0
 11
17.4104449023
 21
46.3978608701
 31
0.0
 11
17.3788797996
 21
46.4599906951
 31
0.0
 11
17.3442245106
 21
46.5204886061
 31
0.0
 11
17.3067424766
 21
46.5788947124
 31
0.0
 11
17.2667186272
 21
46.6347650248
 31
0.0
 11
17.2244572139
 21
46.6876748304
 31
0.0
 11
17.1802794981
 21
46.7372219215
 31
0.0
 11
17.1345213081
 21
46.783029653
 31
0.0
 11
17.0875304867
 21
46.8247498053
 31
0.0
 11
17.0396642471
 21
46.8620652319
 31
0.0
 11
16.9912864568
 21
46.8946922697
 31
0.0
 11
16.9427648724
 21
46.9223828957
 31
0.0
  0
SPLINE
  5
23F
100
AcDbEntity
  8
RACCORDO
100
AcDbSpline
 62
253
  6
CONTINUOUS
 70
0
 71
3
 72
28
 73
24
 74
22
 42
0.0000001
 43
0.0000001
 44
0.0000000001
 12
-1.8305278701
 22
-1.0170265374
 32
0.0
 13
-0.0696856294
 23
-2.0929212059
 33
0.0
 40
0.0
 40
0.0
 40
0.0
 40
0.0
 40
0.0416975477
 40
0.0846967506
 40
0.1289384831
 40
0.1743439983
 40
0.2208185934
 40
0.2682536628
 40
0.3165283036
 40
0.3655117939
 40
0.4150652026
 40
0.4650434201
 40
0.5152964742
 40
0.5656716387
 40
0.6160146981
 40
0.6661720194
 40
0.7159917787
 40
0.7653258781
 40
0.8140313759
 40
0.861972763
 40
0.9090232456
 40
0.9550664986
 40
1.0
 40
1.0
 40
1.0
 40
1.0
 10
16.9427648724
 20
46.9223828957
 30
0.0
 10
16.9173220314
 20
46.9082470582
 30
0.0
 10
16.8665836657
 20
46.8778093999
 30
0.0
 10
16.7923470169
 20
46.8268352118
 30
0.0
 10
16.7191344737
 20
46.7700709646
 30
0.0
 10
16.6473090107
 20
46.7077988882
 30
0.0
 10
16.5772215503
 20
46.6403252942
 30
0.0
 10
16.5092165885
 20
46.5679827518
 30
0.0
 10
16.4436282702
 20
46.4911275957
 30
0.0
 10
16.3807793704
 20
46.4101386193
 30
0.0
 10
16.3209792253
 20
46.3254148898
 30
0.0
 10
16.2645223805
 20
46.2373740219
 30
0.0
 10
16.2116869606
 20
46.1464499556
 30
0.0
 10
16.1627333907
 20
46.0530910147
 30
0.0
 10
16.1179029158
 20
45.9577573822
 30
0.0
 10
16.0774165195
 20
45.8609190254
 30
0.0
 10
16.0414737485
 20
45.7630531583
 30
0.0
 10
16.010251837
 20
45.6646421603
 30
0.0
 10
15.9839047063
 20
45.5661706759
 30
0.0
 10
15.9625623445
 20
45.4681238445
 30
0.0
 10
15.9463301616
 20
45.3709831311
 30
0.0
 10
15.9352886825
 20
45.2752301337
 30
0.0
 10
15.9313743979
 20
45.2118090347
 30
0.0
 10
15.9303306581
 20
45.1804616087
 30
0.0
 11
16.9427648724
 21
46.9223828957
 31
0.0
 11
16.867841883
 21
46.8775388749
 31
0.0
 11
16.7935671273
 21
46.8266355435
 31
0.0
 11
16.7203069698
 21
46.7699240955
 31
0.0
 11
16.6484244349
 21
46.7076854808
 31
0.0
 11
16.5782751006
 21
46.6402276549
 31
0.0
 11
16.5102057661
 21
46.5678841249
 31
0.0
 11
16.4445534126
 21
46.491013061
 31
0.0
 11
16.3816427846
 21
46.4099947614
 31
0.0
 11
16.3217851479
 21
46.3252301582
 31
0.0
 11
16.2652764544
 21
46.2371384118
 31
0.0
 11
16.2123963574
 21
46.1461555398
 31
0.0
 11
16.1634063368
 21
46.0527315095
 31
0.0
 11
16.1185488131
 21
45.9573287089
 31
0.0
 11
16.0780455398
 21
45.8604188556
 31
0.0
 11
16.0420968909
 21
45.7624814441
 31
0.0
 11
16.0108806453
 21
45.6640008899
 31
0.0
 11
15.9845512724
 21
45.5654646592
 31
0.0
 11
15.9632388754
 21
45.4673597871
 31
0.0
 11
15.9470488651
 21
45.370171536
 31
0.0
 11
15.9360613954
 21
45.2743813257
 31
0.0
 11
15.9303306581
 21
45.1804616087
 31
0.0
  0
SPLINE
  5
240
100
AcDbEntity
  8
RACCORDO
100
AcDbSpline
 62
253
  6
CONTINUOUS
 70
0
 71
3
 72
28
 73
24
 74
22
 42
0.0000001
 43
0.0000001
 44
0.0000000001
 12
-0.8194507692
 22
-0.4888567836
 32
0.0
 13
-0.0320460519
 23
-0.953443583
 33
0.0
 40
0.0
 40
0.0
 40
0.0
 40
0.0
 40
0.0175500625
 40
0.0617810371
 40
0.1072633528
 40
0.1539166744
 40
0.2016445311
 40
0.2503364283
 40
0.2998694503
 40
0.3501107845
 40
0.400919355
 40
0.4521478915
 40
0.5036442694
 40
0.555253664
 40
0.6068198365
 40
0.6581872464
 40
0.7092023364
 40
0.7597154785
 40
0.8095824374
 40
0.8586667019
 40
0.9068407943
 40
0.9539880746
 40
1.0
 40
1.0
 40
1.0
 40
1.0
 10
17.507087399
 20
45.9455780087
 30
0.0
 10
17.502293595
 20
45.9427181863
 30
0.0
 10
17.4855468244
 20
45.9324336235
 30
0.0
 10
17.4572696244
 20
45.9133253772
 30
0.0
 10
17.4227867915
 20
45.8869933374
 30
0.0
 10
17.3889572179
 20
45.858087735
 30
0.0
 10
17.3559462079
 20
45.8267507937
 30
0.0
 10
17.3239160384
 20
45.7931369913
 30
0.0
 10
17.2930241017
 20
45.7574119179
 30
0.0
 10
17.2634224308
 20
45.7197516659
 30
0.0
 10
17.2352567266
 20
45.6803418148
 30
0.0
 10
17.2086657216
 20
45.6393766296
 30
0.0
 10
17.1837804137
 20
45.5970580268
 30
0.0
 10
17.1607234654
 20
45.5535946737
 30
0.0
 10
17.1396085081
 20
45.5092008169
 30
0.0
 10
17.1205396297
 20
45.4640953125
 30
0.0
 10
17.1036108218
 20
45.4185004417
 30
0.0
 10
17.0889055633
 20
45.3726409384
 30
0.0
 10
17.076496363
 20
45.3267426403
 30
0.0
 10
17.066444439
 20
45.2810316748
 30
0.0
 10
17.0587994908
 20
45.2357324867
 30
0.0
 10
17.0535995984
 20
45.1910716353
 30
0.0
 10
17.0517566045
 20
45.1614870664
 30
0.0
 10
17.0512651043
 20
45.146863808
 30
0.0
 11
17.507087399
 21
45.9455780087
 31
0.0
 11
17.4928162302
 21
45.9368169338
 31
0.0
 11
17.4578340526
 21
45.9132221904
 31
0.0
 11
17.423329717
 21
45.8869147199
 31
0.0
 11
17.3894741913
 21
45.8580248337
 31
0.0
 11
17.3564349585
 21
45.826695487
 31
0.0
 11
17.3243753586
 21
45.7930815713
 31
0.0
 11
17.2934541103
 21
45.7573495116
 31
0.0
 11
17.2638241686
 21
45.7196760862
 31
0.0
 11
17.2356321401
 21
45.6802477324
 31
0.0
 11
17.2090174189
 21
45.6392594281
 31
0.0
 11
17.1841117226
 21
45.5969140536
 31
0.0
 11
17.1610382092
 21
45.5534210391
 31
0.0
 11
17.139911062
 21
45.5089956578
 31
0.0
 11
17.1208347339
 21
45.463857593
 31
0.0
 11
17.1039035995
 21
45.4182301895
 31
0.0
 11
17.08920139
 21
45.3723391356
 31
0.0
 11
17.0768008588
 21
45.3264115931
 31
0.0
 11
17.0667632792
 21
45.2806745754
 31
0.0
 11
17.0591383045
 21
45.2353543209
 31
0.0
 11
17.0539636638
 21
45.1906753258
 31
0.0
 11
17.0512651043
 21
45.146863808
 31
0.0
  0
SPLINE
  5
241
100
AcDbEntity
  8
RACCORDO
100
AcDbSpline
 62
253
  6
CONTINUOUS
 70
0
 71
3
 72
25
 73
21
 74
19
 42
0.0000001
 43
0.0000001
 44
0.0000000001
 12
-1.0559679718
 22
-0.45758257
 32
0.0
 13
-1.0289757472
 23
0.5154212622
 33
0.0
 40
0.0
 40
0.0
 40
0.0
 40
0.0
 40
0.0482360729
 40
0.0988635853
 40
0.1516735299
 40
0.2064206424
 40
0.2628300558
 40
0.3206031148
 40
0.3794226084
 40
0.4389576057
 40
0.4988680322
 40
0.5588090879
 40
0.6184355899
 40
0.6774063073
 40
0.7353883612
 40
0.792061766
 40
0.8471242104
 40
0.9002962082
 40
0.9513267928
 40
1.0
 40
1.0
 40
1.0
 40
1.0
 10
17.0512651043
 20
45.146863808
 30
0.0
 10
17.0342865216
 20
45.1395064793
 30
0.0
 10
16.9989649663
 20
45.12561248
 30
0.0
 10
16.9436113745
 20
45.1075892049
 30
0.0
 10
16.884940605
 20
45.0919836095
 30
0.0
 10
16.8233881105
 20
45.0789122067
 30
0.0
 10
16.7594072614
 20
45.0684714648
 30
0.0
 10
16.6934713718
 20
45.0607390985
 30
0.0
 10
16.6260684327
 20
45.055772679
 30
0.0
 10
16.5576977839
 20
45.0536092888
 30
0.0
 10
16.4888661535
 20
45.0542651391
 30
0.0
 10
16.4200838136
 20
45.0577354367
 30
0.0
 10
16.3518606766
 20
45.0639944063
 30
0.0
 10
16.2847023969
 20
45.0729954991
 30
0.0
 10
16.2191065354
 20
45.084671754
 30
0.0
 10
16.1555586271
 20
45.0989364086
 30
0.0
 10
16.0945288542
 20
45.115683445
 30
0.0
 10
16.0364669086
 20
45.1347892477
 30
0.0
 10
15.9818037535
 20
45.1561112821
 30
0.0
 10
15.9470251747
 20
45.1720992068
 30
0.0
 10
15.9303306581
 20
45.1804616088
 30
0.0
 11
17.0512651043
 21
45.146863808
 31
0.0
 11
16.999638705
 21
45.1264594482
 31
0.0
 11
16.9442604564
 21
45.108348473
 31
0.0
 11
16.8855425202
 21
45.0926656765
 31
0.0
 11
16.8239219142
 21
45.0795277804
 31
0.0
 11
16.75985726
 21
45.0690325656
 31
0.0
 11
16.6938253692
 21
45.0612581445
 31
0.0
 11
16.6263176952
 21
45.0562623795
 31
0.0
 11
16.5578366748
 21
45.0540824525
 31
0.0
 11
16.4888919893
 21
45.0547345878
 31
0.0
 11
16.4199967709
 21
45.0582139319
 31
0.0
 11
16.3516637836
 21
45.0644945892
 31
0.0
 11
16.2844016067
 21
45.0735298148
 31
0.0
 11
16.2187108503
 21
45.0852523626
 31
0.0
 11
16.1550804284
 21
45.0995749856
 31
0.0
 11
16.0939839211
 21
45.1163910854
 31
0.0
 11
16.035876049
 21
45.1355755053
 31
0.0
 11
15.9811892896
 21
45.1569854621
 31
0.0
 11
15.9303306581
 21
45.1804616088
 31
0.0
  0
SPLINE
  5
242
100
AcDbEntity
  8
RACCORDO
100
AcDbSpline
 62
253
  6
CONTINUOUS
 70
0
 71
3
 72
18
 73
14
 74
12
 42
0.0000001
 43
0.0000001
 44
0.0000000001
 12
-1.1953432562
 22
-35.5689730313
 32
0.0
 13
1.2353920203
 23
-35.5676045659
 33
0.0
 40
0.0
 40
0.0
 40
0.0
 40
0.0
 40
0.0922589273
 40
0.1842528778
 40
0.2759800973
 40
0.3674388756
 40
0.4586275483
 40
0.5495444966
 40
0.6401881483
 40
0.7305569781
 40
0.8206495082
 40
0.9104643091
 40
1.0
 40
1.0
 40
1.0
 40
1.0
 10
15.9303306581
 20
45.1804616087
 30
0.0
 10
15.8935702959
 20
44.0866098435
 30
0.0
 10
15.8267112938
 20
41.9018218274
 30
0.0
 10
15.7463530005
 20
38.628832301
 30
0.0
 10
15.6860727836
 20
35.3649038261
 30
0.0
 10
15.6458740684
 20
32.110220165
 30
0.0
 10
15.6257590923
 20
28.8649625943
 30
0.0
 10
15.62572899
 20
25.629312393
 30
0.0
 10
15.6457837725
 20
22.4034501191
 30
0.0
 10
15.6859223262
 20
19.1875559832
 30
0.0
 10
15.7461424377
 20
15.9818090435
 30
0.0
 10
15.8264406953
 20
12.7863900008
 30
0.0
 10
15.8934600987
 20
10.6597905427
 30
0.0
 10
15.9303306581
 20
9.5982671927
 30
0.0
 11
15.9303306581
 21
45.1804616087
 31
0.0
 11
15.8299269759
 21
41.8985892503
 31
0.0
 11
15.7495973053
 21
38.6255973015
 31
0.0
 11
15.6893461294
 21
35.3616684948
 31
0.0
 11
15.6491768109
 21
32.1069850667
 31
0.0
 11
15.6290915913
 21
28.8617287233
 31
0.0
 11
15.6290915913
 21
25.6260806387
 31
0.0
 11
15.6491768109
 21
22.4002214503
 31
0.0
 11
15.6893461294
 21
19.1843312495
 31
0.0
 11
15.7495973053
 21
15.9785895781
 31
0.0
 11
15.8299269759
 21
12.7831754248
 31
0.0
 11
15.9303306581
 21
9.5982671927
 31
0.0
  0
LINE
  5
243
100
AcDbEntity
  8
RACCORDO
100
AcDbLine
 62
253
  6
CONTINUOUS
 10
17.0512651043
 20
45.146863808
 11
17.0393272942
 21
44.7881361709
  0
SPLINE
  5
244
100
AcDbEntity
  8
RACCORDO
100
AcDbSpline
 62
253
  6
CONTINUOUS
 70
0
 71
3
 72
13
 73
9
 74
7
 42
0.0000001
 43
0.0000001
 44
0.0000000001
 12
-0.5659823036
 22
-17.1775153892
 32
0.0
 13
-0.0121044403
 23
-17.1868512343
 33
0.0
 40
0.0
 40
0.0
 40
0.0
 40
0.0
 40
0.1698525683
 40
0.3600411373
 40
0.5496782801
 40
0.7387604619
 40
0.9272842415
 40
1.0
 40
1.0
 40
1.0
 40
1.0
 10
17.0393272942
 20
44.7881361709
 30
0.0
 10
17.0072827783
 20
43.8155878023
 30
0.0
 10
16.9448720296
 20
41.7538645267
 30
0.0
 10
16.8675767683
 20
38.6057195918
 30
0.0
 10
16.8073913471
 20
35.3470141901
 30
0.0
 10
16.7672558483
 20
32.0975385354
 30
0.0
 10
16.7512649054
 20
29.5177044109
 30
0.0
 10
16.7484155708
 20
28.0210773103
 30
0.0
 10
16.7481221763
 20
27.6044923358
 30
0.0
 11
17.0393272942
 21
44.7881361709
 31
0.0
 11
16.9510193198
 21
41.8702439438
 31
0.0
 11
16.8708159737
 21
38.602489848
 31
0.0
 11
16.8106595474
 21
35.3437841185
 31
0.0
 11
16.7705533982
 21
32.0943086998
 31
0.0
 11
16.7504997643
 21
28.8542450075
 31
0.0
 11
16.7481221763
 21
27.6044923358
 31
0.0
  0
SPLINE
  5
245
100
AcDbEntity
  8
RACCORDO
100
AcDbSpline
 62
253
  6
CONTINUOUS
 70
0
 71
3
 72
25
 73
21
 74
19
 42
0.0000001
 43
0.0000001
 44
0.0000000001
 12
-1.0141229447
 22
-0.5003479066
 32
0.0
 13
-1.011594616
 23
0.5049393045
 33
0.0
 40
0.0
 40
0.0
 40
0.0
 40
0.0
 40
0.0276410127
 40
0.0806721521
 40
0.1356753951
 40
0.1924124709
 40
0.2506169538
 40
0.3099999728
 40
0.3702554387
 40
0.4310649351
 40
0.4921023898
 40
0.553038618
 40
0.6135458142
 40
0.6733020676
 40
0.7319959735
 40
0.789331428
 40
0.8450327098
 40
0.8988499839
 40
0.9505653995
 40
1.0
 40
1.0
 40
1.0
 40
1.0
 10
17.0279062425
 20
9.6096289929
 30
0.0
 10
17.0185624475
 20
9.6050189519
 30
0.0
 10
16.9910496834
 20
9.5920492209
 30
0.0
 10
16.9437736948
 20
9.5724946616
 30
0.0
 10
16.8850906349
 20
9.552087291
 30
0.0
 10
16.8235255563
 20
9.5343248586
 30
0.0
 10
16.7595320964
 20
9.5193380118
 30
0.0
 10
16.6935836782
 20
9.5072378111
 30
0.0
 10
16.6261682898
 20
9.4981139093
 30
0.0
 10
16.5577851922
 20
9.492034005
 30
0.0
 10
16.488940981
 20
9.4890432102
 30
0.0
 10
16.4201457538
 20
9.4891636982
 30
0.0
 10
16.3519092138
 20
9.4923945248
 30
0.0
 10
16.2847367723
 20
9.4987116583
 30
0.0
 10
16.2191257239
 20
9.5080681847
 30
0.0
 10
16.1555612972
 20
9.5203948074
 30
0.0
 10
16.0945134309
 20
9.5356002553
 30
0.0
 10
16.0364313689
 20
9.5535730486
 30
0.0
 10
15.9817465757
 20
9.574179571
 30
0.0
 10
15.9469999322
 20
9.5899467104
 30
0.0
 10
15.9303306736
 20
9.5982672013
 30
0.0
 11
17.0279062425
 21
9.6096289929
 31
0.0
 11
16.9996387051
 21
9.5962888381
 31
0.0
 11
16.9442604568
 21
9.5733066842
 31
0.0
 11
16.885542521
 21
9.5528254898
 31
0.0
 11
16.8239219156
 21
9.5349976896
 31
0.0
 11
16.7598572622
 21
9.51995597
 31
0.0
 11
16.6938253723
 21
9.5078122813
 31
0.0
 11
16.6263176992
 21
9.498657005
 31
0.0
 11
16.5578366799
 21
9.4925582808
 31
0.0
 11
16.4888919956
 21
9.4895614994
 31
0.0
 11
16.4199967783
 21
9.4896889648
 31
0.0
 11
16.3516637921
 21
9.4929397283
 31
0.0
 11
16.2844016165
 21
9.4992895956
 31
0.0
 11
16.2187108612
 21
9.5086913069
 31
0.0
 11
16.1550804404
 21
9.5210748882
 31
0.0
 11
16.0939839341
 21
9.5363481728
 31
0.0
 11
16.035876063
 21
9.5543974867
 31
0.0
 11
15.9811893044
 21
9.5750884949
 31
0.0
 11
15.9303306736
 21
9.5982672013
 31
0.0
  0
SPLINE
  5
246
100
AcDbEntity
  8
RACCORDO
100
AcDbSpline
 62
253
  6
CONTINUOUS
 70
0
 71
3
 72
20
 73
16
 74
14
 42
0.0000001
 43
0.0000001
 44
0.0000000001
 12
0.0308742766
 22
-0.8968859887
 32
0.0
 13
0.8030844326
 23
-0.4015875601
 33
0.0
 40
0.0
 40
0.0
 40
0.0
 40
0.0
 40
0.0985799809
 40
0.1940624976
 40
0.2863907963
 40
0.3755655571
 40
0.4616540669
 40
0.5447956873
 40
0.6252058004
 40
0.703179437
 40
0.7790901895
 40
0.8533853013
 40
0.9265740754
 40
0.9992116039
 40
1.0
 40
1.0
 40
1.0
 40
1.0
 10
15.9303306581
 20
9.5982671927
 30
0.0
 10
15.9313451866
 20
9.5687955249
 30
0.0
 10
15.9350528219
 20
9.5108190674
 30
0.0
 10
15.9459540395
 20
9.4257851514
 30
0.0
 10
15.9620592113
 20
9.3444380336
 30
0.0
 10
15.9832946181
 20
9.2671806477
 30
0.0
 10
16.0095629835
 20
9.1943922436
 30
0.0
 10
16.0407438229
 20
9.1264331851
 30
0.0
 10
16.0766935499
 20
9.06364277
 30
0.0
 10
16.1172449309
 20
9.0063390351
 30
0.0
 10
16.1622061726
 20
8.9548173795
 30
0.0
 10
16.2113593869
 20
8.9093487871
 30
0.0
 10
16.2644595329
 20
8.8701764311
 30
0.0
 10
16.3025573981
 20
8.8482570425
 30
0.0
 10
16.3222070342
 20
8.8384158582
 30
0.0
 10
16.3224180838
 20
8.8383103215
 30
0.0
 11
15.9303306581
 21
9.5982671927
 31
0.0
 11
15.9360613929
 21
9.5099856264
 31
0.0
 11
15.9470488616
 21
9.4250053347
 31
0.0
 11
15.9632388709
 21
9.3437454604
 31
0.0
 11
15.9845512658
 21
9.2666085863
 31
0.0
 11
16.010880638
 21
9.1939762483
 31
0.0
 11
16.0420968829
 21
9.1262074906
 31
0.0
 11
16.0780455302
 21
9.0636378052
 31
0.0
 11
16.1185488015
 21
9.006576701
 31
0.0
 11
16.1634063242
 21
8.9553065347
 31
0.0
 11
16.2123963439
 21
8.910080855
 31
0.0
 11
16.2652764398
 21
8.8711235475
 31
0.0
 11
16.3217851319
 21
8.8386273247
 31
0.0
 11
16.3224180838
 21
8.8383103215
 31
0.0
  0
SPLINE
  5
247
100
AcDbEntity
  8
RACCORDO
100
AcDbSpline
 62
253
  6
CONTINUOUS
 70
0
 71
3
 72
18
 73
14
 74
12
 42
0.0000001
 43
0.0000001
 44
0.0000000001
 12
-1.1938132444
 22
35.5685624457
 32
0.0
 13
1.1537594971
 23
35.5698842216
 33
0.0
 40
0.0
 40
0.0
 40
0.0
 40
0.0
 40
0.0894855579
 40
0.179260963
 40
0.269324597
 40
0.3596747926
 40
0.4503098352
 40
0.541227963
 40
0.6324273678
 40
0.7239061957
 40
0.8156625471
 40
0.9076944778
 40
1.0
 40
1.0
 40
1.0
 40
1.0
 10
1.4006798269
 20
16.8630926083
 30
0.0
 10
1.3650701455
 20
17.9240501597
 30
0.0
 10
1.3003435668
 20
20.049629334
 30
0.0
 10
1.2227973977
 20
23.2436682409
 30
0.0
 10
1.1646414884
 20
26.448378889
 30
0.0
 10
1.1258791309
 20
29.6635807495
 30
0.0
 10
1.106512465
 20
32.8890947727
 30
0.0
 10
1.1065425672
 20
36.1247407766
 30
0.0
 10
1.1259694278
 20
39.3703381998
 30
0.0
 10
1.1647919526
 20
42.6257057529
 30
0.0
 10
1.2230079809
 20
45.8906620928
 30
0.0
 10
1.3006142094
 20
49.1650235071
 30
0.0
 10
1.3651803693
 20
51.350854779
 30
0.0
 10
1.4006798269
 20
52.4452870243
 30
0.0
 11
1.4006798269
 21
16.8630926083
 31
0.0
 11
1.3037157005
 21
20.0462810625
 31
0.0
 11
1.226137905
 21
23.2403192783
 31
0.0
 11
1.1679507697
 21
26.4450289294
 31
0.0
 11
1.1291575423
 21
29.6602310846
 31
0.0
 11
1.1097603874
 21
32.8857462407
 31
0.0
 11
1.1097603874
 21
36.1213943253
 31
0.0
 11
1.1291575423
 21
39.366994701
 31
0.0
 11
1.1679507697
 21
42.6223661747
 31
0.0
 11
1.226137905
 21
45.8873270016
 31
0.0
 11
1.3037157005
 21
49.161694888
 31
0.0
 11
1.4006798269
 21
52.4452870243
 31
0.0
  0
SPLINE
  5
248
100
AcDbEntity
  8
RACCORDO
100
AcDbSpline
 62
253
  6
CONTINUOUS
 70
0
 71
3
 72
28
 73
24
 74
22
 42
0.0000001
 43
0.0000001
 44
0.0000000001
 12
0.0684317997
 22
2.0895789942
 32
0.0
 13
1.8140637533
 23
1.0393247727
 33
0.0
 40
0.0
 40
0.0
 40
0.0
 40
0.0
 40
0.0450256147
 40
0.0911759379
 40
0.1383438722
 40
0.1864086546
 40
0.235239214
 40
0.2846959261
 40
0.334631902
 40
0.3848952683
 40
0.4353306012
 40
0.4857808477
 40
0.5360885575
 40
0.5860979619
 40
0.635656248
 40
0.6846156795
 40
0.7328349287
 40
0.7801811281
 40
0.8265315071
 40
0.8717759104
 40
0.9158184386
 40
0.9585796051
 40
1.0
 40
1.0
 40
1.0
 40
1.0
 10
1.4006798269
 20
52.4452870243
 30
0.0
 10
1.4017068882
 20
52.4766485506
 30
0.0
 10
1.4055589205
 20
52.5401085383
 30
0.0
 10
1.4164219823
 20
52.6359460175
 30
0.0
 10
1.4323914096
 20
52.7332134222
 30
0.0
 10
1.4533880971
 20
52.8314286187
 30
0.0
 10
1.4793083647
 20
52.9301092367
 30
0.0
 10
1.510024383
 20
53.0287690675
 30
0.0
 10
1.5453847401
 20
53.1269221957
 30
0.0
 10
1.5852150888
 20
53.2240847857
 30
0.0
 10
1.6293191177
 20
53.3197779913
 30
0.0
 10
1.6774794204
 20
53.4135300453
 30
0.0
 10
1.7294586518
 20
53.5048788079
 30
0.0
 10
1.7850005942
 20
53.5933738512
 30
0.0
 10
1.8438316156
 20
53.6785789979
 30
0.0
 10
1.9056619322
 20
53.7600742723
 30
0.0
 10
1.9701872109
 20
53.8374581427
 30
0.0
 10
2.0370899159
 20
53.9103492462
 30
0.0
 10
2.1060413211
 20
53.9783886302
 30
0.0
 10
2.1767025925
 20
54.0412409628
 30
0.0
 10
2.2487285033
 20
54.0985973227
 30
0.0
 10
2.3217622354
 20
54.1501723627
 30
0.0
 10
2.3717069336
 20
54.1810389115
 30
0.0
 10
2.3967533459
 20
54.195388659
 30
0.0
 11
1.4006798269
 21
52.4452870243
 31
0.0
 11
1.4063179556
 21
52.5392530456
 31
0.0
 11
1.4171278762
 21
52.6351320305
 31
0.0
 11
1.4330562566
 21
52.7324510966
 31
0.0
 11
1.4540242525
 21
52.8307281691
 31
0.0
 11
1.4799281481
 21
52.9294771385
 31
0.0
 11
1.5106399466
 21
53.0282099163
 31
0.0
 11
1.5460076731
 21
53.1264377889
 31
0.0
 11
1.5858564222
 21
53.2236749043
 31
0.0
 11
1.6299890578
 21
53.319440149
 31
0.0
 11
1.67818741
 21
53.4132600136
 31
0.0
 11
1.7302129756
 21
53.5046701512
 31
0.0
 11
1.7858085003
 21
53.593218482
 31
0.0
 11
1.8446988501
 21
53.6784667287
 31
0.0
 11
1.9065928556
 21
53.7599933395
 31
0.0
 11
1.9711842807
 21
53.8373948676
 31
0.0
 11
2.0381536299
 21
53.9102883902
 31
0.0
 11
2.1071693635
 21
53.9783130165
 31
0.0
 11
2.1778902993
 21
54.0411324308
 31
0.0
 11
2.2499665698
 21
54.0984358222
 31
0.0
 11
2.3230411026
 21
54.149939265
 31
0.0
 11
2.3967533459
 21
54.195388659
 31
0.0
  0
SPLINE
  5
249
100
AcDbEntity
  8
RACCORDO
100
AcDbSpline
 62
253
  6
CONTINUOUS
 70
0
 71
3
 72
17
 73
13
 74
11
 42
0.0000001
 43
0.0000001
 44
0.0000000001
 12
-0.0125447531
 22
-0.3849748609
 32
0.0
 13
0.3441651013
 23
-0.1717703752
 33
0.0
 40
0.0
 40
0.0
 40
0.0
 40
0.0
 40
0.024149653
 40
0.1098630479
 40
0.1982925071
 40
0.2912773314
 40
0.390279624
 40
0.4963516238
 40
0.6101608568
 40
0.7320407864
 40
0.8620456814
 40
1.0
 40
1.0
 40
1.0
 40
1.0
 10
17.040856543
 20
44.7880837991
 30
0.0
 10
17.0407555592
 20
44.784984796
 30
0.0
 10
17.04066021
 20
44.7708751743
 30
0.0
 10
17.0435031803
 20
44.7454705735
 30
0.0
 10
17.0532654943
 20
44.7124703203
 30
0.0
 10
17.0689362647
 20
44.6799564765
 30
0.0
 10
17.0903429383
 20
44.6481608222
 30
0.0
 10
17.1172934306
 20
44.6172918223
 30
0.0
 10
17.1495745365
 20
44.5875498696
 30
0.0
 10
17.1869463779
 20
44.5591326072
 30
0.0
 10
17.2291337612
 20
44.5322363509
 30
0.0
 10
17.2594007261
 20
44.5159122342
 30
0.0
 10
17.2752270801
 20
44.5080134125
 30
0.0
 11
17.040856543
 21
44.7880837991
 31
0.0
 11
17.0407943569
 21
44.7787834138
 31
0.0
 11
17.0444011668
 21
44.7460117447
 31
0.0
 11
17.0539325879
 21
44.7133601986
 31
0.0
 11
17.069317681
 21
44.6810717901
 31
0.0
 11
17.0904419402
 21
44.6493868308
 31
0.0
 11
17.1171481446
 21
44.6185411412
 31
0.0
 11
17.1492375288
 21
44.5887642956
 31
0.0
 11
17.1864712625
 21
44.560277913
 31
0.0
 11
17.2285722274
 21
44.5332940079
 31
0.0
 11
17.2752270801
 21
44.5080134125
 31
0.0
  0
SPLINE
  5
24A
100
AcDbEntity
  8
RACCORDO
100
AcDbSpline
 62
253
  6
CONTINUOUS
 70
0
 71
3
 72
16
 73
12
 74
10
 42
0.0000001
 43
0.0000001
 44
0.0000000001
 12
0.3362084196
 22
0.1960720216
 32
0.0
 13
0.3503187667
 23
-0.1687809142
 33
0.0
 40
0.0
 40
0.0
 40
0.0
 40
0.0
 40
0.0310772089
 40
0.1384341802
 40
0.2476541712
 40
0.3600467628
 40
0.4767234344
 40
0.5985564197
 40
0.7261662236
 40
0.8599297092
 40
1.0
 40
1.0
 40
1.0
 40
1.0
 10
17.8979344769
 20
46.2721422356
 30
0.0
 10
17.9014172833
 20
46.2741733594
 30
0.0
 10
17.917123705
 20
46.282891159
 30
0.0
 10
17.9466466771
 20
46.2957821972
 30
0.0
 10
17.9879022527
 20
46.3071069033
 30
0.0
 10
18.0315038886
 20
46.3128442534
 30
0.0
 10
18.0771019227
 20
46.3129737094
 30
0.0
 10
18.1243441395
 20
46.3075187772
 30
0.0
 10
18.1728764476
 20
46.2965405678
 30
0.0
 10
18.2223349018
 20
46.2801384327
 30
0.0
 10
18.2549441664
 20
46.2659954374
 30
0.0
 10
18.2713005835
 20
46.2581150402
 30
0.0
 11
17.8979344769
 21
46.2721422356
 31
0.0
 11
17.9085093144
 21
46.278011296
 31
0.0
 11
17.9467544237
 21
46.2947471286
 31
0.0
 11
17.9876917108
 21
46.3060575836
 31
0.0
 11
18.0310099802
 21
46.3118566817
 31
0.0
 11
18.0763799368
 21
46.3121003395
 31
0.0
 11
18.1234566889
 21
46.3067867047
 31
0.0
 11
18.1718823703
 21
46.2959561705
 31
0.0
 11
18.2212888607
 21
46.2796910678
 31
0.0
 11
18.2713005835
 21
46.2581150402
 31
0.0
  0
SPLINE
  5
24B
100
AcDbEntity
  8
RACCORDO
100
AcDbSpline
 62
253
  6
CONTINUOUS
 70
0
 71
3
 72
20
 73
16
 74
14
 42
0.0000001
 43
0.0000001
 44
0.0000000001
 12
-0.7976489851
 22
0.3988200835
 32
0.0
 13
-0.0301772195
 23
0.8907947547
 33
0.0
 40
0.0
 40
0.0
 40
0.0
 40
0.0
 40
0.0008117077
 40
0.0728038098
 40
0.1454384346
 40
0.2192896097
 40
0.2948800785
 40
0.3726648555
 40
0.4530200759
 40
0.5362389063
 40
0.6225314051
 40
0.7120290676
 40
0.8047895037
 40
0.9008025762
 40
1.0
 40
1.0
 40
1.0
 40
1.0
 10
17.6610029831
 20
8.1690178716
 30
0.0
 10
17.6607871639
 20
8.1691257801
 30
0.0
 10
17.6414362196
 20
8.1788170197
 30
0.0
 10
17.6039203694
 20
8.2004513276
 30
0.0
 10
17.5516737219
 20
8.2392049596
 30
0.0
 10
17.503314462
 20
8.2842852902
 30
0.0
 10
17.4590828353
 20
8.3354499835
 30
0.0
 10
17.4191920037
 20
8.3924293477
 30
0.0
 10
17.3838294699
 20
8.4549296597
 30
0.0
 10
17.3531588219
 20
8.5226347326
 30
0.0
 10
17.3273207119
 20
8.5952070756
 30
0.0
 10
17.3064333412
 20
8.6722879284
 30
0.0
 10
17.2905923201
 20
8.7534993226
 30
0.0
 10
17.279870164
 20
8.8384394395
 30
0.0
 10
17.2762248987
 20
8.8963641413
 30
0.0
 10
17.2752270646
 20
8.9258189895
 30
0.0
 11
17.6610029831
 21
8.1690178716
 31
0.0
 11
17.6603557379
 21
8.1693420217
 31
0.0
 11
17.6047602132
 21
8.201381659
 31
0.0
 11
17.5527346476
 21
8.2399116996
 31
0.0
 11
17.5045362955
 21
8.2847415436
 31
0.0
 11
17.4604036599
 21
8.3356492645
 31
0.0
 11
17.4205549107
 21
8.3923831066
 31
0.0
 11
17.3851871843
 21
8.4546623304
 31
0.0
 11
17.3544753857
 21
8.5221788625
 31
0.0
 11
17.3285714901
 21
8.594598459
 31
0.0
 11
17.3076034942
 21
8.6715631346
 31
0.0
 11
17.2916751139
 21
8.7526921904
 31
0.0
 11
17.2808651933
 21
8.8375837056
 31
0.0
 11
17.2752270646
 21
8.9258189895
 31
0.0
  0
SPLINE
  5
24C
100
AcDbEntity
  8
RACCORDO
100
AcDbSpline
 62
253
  6
CONTINUOUS
 70
0
 71
3
 72
18
 73
14
 74
12
 42
0.0000001
 43
0.0000001
 44
0.0000000001
 12
-1.193813245
 22
35.5685624457
 32
0.0
 13
1.1537594966
 23
35.5698842217
 33
0.0
 40
0.0
 40
0.0
 40
0.0
 40
0.0
 40
0.0894855579
 40
0.179260963
 40
0.269324597
 40
0.3596747926
 40
0.4503098352
 40
0.541227963
 40
0.6324273678
 40
0.7239061957
 40
0.8156625471
 40
0.9076944778
 40
1.0
 40
1.0
 40
1.0
 40
1.0
 10
17.2752270646
 20
8.9258189895
 30
0.0
 10
17.2396173831
 20
9.9867765409
 30
0.0
 10
17.1748908045
 20
12.1123557152
 30
0.0
 10
17.0973446354
 20
15.306394622
 30
0.0
 10
17.039188726
 20
18.5111052702
 30
0.0
 10
17.0004263685
 20
21.7263071306
 30
0.0
 10
16.9810597027
 20
24.9518211538
 30
0.0
 10
16.9810898048
 20
28.1874671578
 30
0.0
 10
17.0005166655
 20
31.4330645809
 30
0.0
 10
17.0393391902
 20
34.6884321341
 30
0.0
 10
17.0975552185
 20
37.9533884739
 30
0.0
 10
17.175161447
 20
41.2277498882
 30
0.0
 10
17.239727607
 20
43.4135811602
 30
0.0
 10
17.2752270646
 20
44.5080134055
 30
0.0
 11
17.2752270646
 21
8.9258189895
 31
0.0
 11
17.1782629382
 21
12.1090074437
 31
0.0
 11
17.1006851426
 21
15.3030456594
 31
0.0
 11
17.0424980074
 21
18.5077553105
 31
0.0
 11
17.0037047799
 21
21.7229574657
 31
0.0
 11
16.9843076251
 21
24.9484726218
 31
0.0
 11
16.9843076251
 21
28.1841207064
 31
0.0
 11
17.0037047799
 21
31.4297210821
 31
0.0
 11
17.0424980074
 21
34.6850925558
 31
0.0
 11
17.1006851426
 21
37.9500533828
 31
0.0
 11
17.1782629382
 21
41.2244212691
 31
0.0
 11
17.2752270646
 21
44.5080134055
 31
0.0
  0
SPLINE
  5
24D
100
AcDbEntity
  8
RACCORDO
100
AcDbSpline
 62
253
  6
CONTINUOUS
 70
0
 71
3
 72
28
 73
24
 74
22
 42
0.0000001
 43
0.0000001
 44
0.0000000001
 12
0.068432361
 22
2.0895789736
 32
0.0
 13
1.8140644896
 23
1.0393234832
 33
0.0
 40
0.0
 40
0.0
 40
0.0
 40
0.0
 40
0.0450256033
 40
0.0911759268
 40
0.1383438626
 40
0.186408643
 40
0.2352392035
 40
0.2846959164
 40
0.3346318918
 40
0.3848952571
 40
0.4353305903
 40
0.4857808372
 40
0.536088547
 40
0.5860979511
 40
0.635656237
 40
0.6846156695
 40
0.7328349193
 40
0.7801811179
 40
0.8265314958
 40
0.8717759011
 40
0.9158184278
 40
0.9585795947
 40
1.0
 40
1.0
 40
1.0
 40
1.0
 10
17.2752270646
 20
44.5080134055
 30
0.0
 10
17.276254134
 20
44.5393749235
 30
0.0
 10
17.2801061537
 20
44.6028349038
 30
0.0
 10
17.2909692179
 20
44.6986723763
 30
0.0
 10
17.3069386437
 20
44.7959397808
 30
0.0
 10
17.3279353304
 20
44.8941549778
 30
0.0
 10
17.3538555974
 20
44.9928355959
 30
0.0
 10
17.3845716153
 20
45.0914954278
 30
0.0
 10
17.4199319716
 20
45.1896485556
 30
0.0
 10
17.4597623194
 20
45.286811145
 30
0.0
 10
17.5038663476
 20
45.3825043505
 30
0.0
 10
17.5520266498
 20
45.4762564052
 30
0.0
 10
17.6040058805
 20
45.5676051681
 30
0.0
 10
17.6595478219
 20
45.6561002115
 30
0.0
 10
17.7183788427
 20
45.741305359
 30
0.0
 10
17.7802091589
 20
45.8228006346
 30
0.0
 10
17.8447344371
 20
45.9001845061
 30
0.0
 10
17.9116371408
 20
45.9730756093
 30
0.0
 10
17.9805885446
 20
46.0411149949
 30
0.0
 10
18.051249816
 20
46.1039673262
 30
0.0
 10
18.1232757231
 20
46.1613236928
 30
0.0
 10
18.1963094683
 20
46.212898723
 30
0.0
 10
18.2462541548
 20
46.2437653069
 30
0.0
 10
18.2713005835
 20
46.2581150402
 30
0.0
 11
17.2752270646
 21
44.5080134055
 31
0.0
 11
17.2808651916
 21
44.6019794029
 31
0.0
 11
17.2916751109
 21
44.6978583885
 31
0.0
 11
17.3076034912
 21
44.7951774576
 31
0.0
 11
17.3285714853
 21
44.8934545262
 31
0.0
 11
17.3544753808
 21
44.992203498
 31
0.0
 11
17.3851871792
 21
45.0909362773
 31
0.0
 11
17.4205549047
 21
45.1891641491
 31
0.0
 11
17.4604036524
 21
45.2864012629
 31
0.0
 11
17.5045362877
 21
45.3821665082
 31
0.0
 11
17.5527346394
 21
45.4759863736
 31
0.0
 11
17.6047602044
 21
45.5673965116
 31
0.0
 11
17.660355728
 21
45.6559448422
 31
0.0
 11
17.7192460767
 21
45.741193089
 31
0.0
 11
17.7811400825
 21
45.822719702
 31
0.0
 11
17.8457315075
 21
45.9001212316
 31
0.0
 11
17.9127008549
 21
45.9730147538
 31
0.0
 11
17.9817165857
 21
46.0410393793
 31
0.0
 11
18.0524375238
 21
46.103858797
 31
0.0
 11
18.1245137906
 21
46.1611621882
 31
0.0
 11
18.1975883239
 21
46.2126656316
 31
0.0
 11
18.2713005835
 21
46.2581150402
 31
0.0
  0
SPLINE
  5
24E
100
AcDbEntity
  8
RACCORDO
100
AcDbSpline
 62
253
  6
CONTINUOUS
 70
0
 71
3
 72
25
 73
21
 74
19
 42
0.0000001
 43
0.0000001
 44
0.0000000001
 12
-0.0520881207
 22
1.1716055646
 32
0.0
 13
-1.0409833503
 23
0.5401170573
 33
0.0
 40
0.0
 40
0.0
 40
0.0
 40
0.0
 40
0.0513991233
 40
0.1046613124
 40
0.1595899495
 40
0.2159573269
 40
0.2735106
 40
0.3319772495
 40
0.3910701822
 40
0.4504925814
 40
0.509942599
 40
0.5691179671
 40
0.6277206051
 40
0.6854612902
 40
0.7420644733
 40
0.7972733261
 40
0.8508551286
 40
0.9026071214
 40
0.9523629711
 40
1.0
 40
1.0
 40
1.0
 40
1.0
 10
33.4026444941
 20
38.0203053637
 30
0.0
 10
33.4017520662
 20
38.04037853
 30
0.0
 10
33.3984834578
 20
38.0811987994
 30
0.0
 10
33.389500994
 20
38.1429740239
 30
0.0
 10
33.3764147065
 20
38.2059964738
 30
0.0
 10
33.3593240241
 20
38.2697873034
 30
0.0
 10
33.3383581363
 20
38.3338664918
 30
0.0
 10
33.3136755331
 20
38.3977498066
 30
0.0
 10
33.285462801
 20
38.460954533
 30
0.0
 10
33.2539332752
 20
38.5230027382
 30
0.0
 10
33.2193254155
 20
38.5834251529
 30
0.0
 10
33.1819009688
 20
38.6417647876
 30
0.0
 10
33.1419429278
 20
38.6975804873
 30
0.0
 10
33.0997532828
 20
38.7504503446
 30
0.0
 10
33.0556506543
 20
38.7999749168
 30
0.0
 10
33.0099675342
 20
38.845780355
 30
0.0
 10
32.9630481725
 20
38.8875208683
 30
0.0
 10
32.9152434483
 20
38.9248823761
 30
0.0
 10
32.8669158141
 20
38.957580485
 30
0.0
 10
32.8338418947
 20
38.9765327529
 30
0.0
 10
32.8173121101
 20
38.9851092769
 30
0.0
 11
33.4026444941
 21
38.0203053637
 31
0.0
 11
33.397909219
 21
38.0803980677
 31
0.0
 11
33.3889854389
 21
38.142221261
 31
0.0
 11
33.37594099
 21
38.2053049786
 31
0.0
 11
33.3588750332
 21
38.2691696731
 31
0.0
 11
33.3379172998
 21
38.3333298604
 31
0.0
 11
33.3132271055
 21
38.3972978101
 31
0.0
 11
33.2849921391
 21
38.460587253
 31
0.0
 11
33.2534270363
 21
38.522717078
 31
0.0
 11
33.2187717472
 21
38.583214989
 31
0.0
 11
33.1812897132
 21
38.6416210952
 31
0.0
 11
33.1412658638
 21
38.6974914074
 31
0.0
 11
33.0990044506
 21
38.7504012128
 31
0.0
 11
33.0548267348
 21
38.7999483037
 31
0.0
 11
33.0090685449
 21
38.8457560349
 31
0.0
 11
32.9620777237
 21
38.887476187
 31
0.0
 11
32.9142114842
 21
38.9247916134
 31
0.0
 11
32.8658336942
 21
38.957418651
 31
0.0
 11
32.8173121101
 21
38.9851092769
 31
0.0
  0
SPLINE
  5
24F
100
AcDbEntity
  8
RACCORDO
100
AcDbSpline
 62
253
  6
CONTINUOUS
 70
0
 71
3
 72
28
 73
24
 74
22
 42
0.0000001
 43
0.0000001
 44
0.0000000001
 12
-1.8305278688
 22
-1.0170265443
 32
0.0
 13
-0.0696863146
 23
-2.0929211853
 33
0.0
 40
0.0
 40
0.0
 40
0.0
 40
0.0
 40
0.0416975599
 40
0.0846967625
 40
0.1289384939
 40
0.1743440109
 40
0.2208186048
 40
0.2682536734
 40
0.3165283146
 40
0.3655118057
 40
0.4150652141
 40
0.4650434312
 40
0.5152964853
 40
0.56567165
 40
0.6160147095
 40
0.6661720298
 40
0.7159917886
 40
0.7653258886
 40
0.8140313876
 40
0.8619727726
 40
0.9090232567
 40
0.9550665099
 40
1.0
 40
1.0
 40
1.0
 40
1.0
 10
32.8173121101
 20
38.9851092769
 30
0.0
 10
32.7918692616
 20
38.9709734352
 30
0.0
 10
32.7411308863
 20
38.9405357765
 30
0.0
 10
32.6668942344
 20
38.8895615793
 30
0.0
 10
32.5936816901
 20
38.8327973331
 30
0.0
 10
32.5218562288
 20
38.7705252551
 30
0.0
 10
32.451768769
 20
38.7030516607
 30
0.0
 10
32.3837638088
 20
38.6307091181
 30
0.0
 10
32.3181754908
 20
38.5538539611
 30
0.0
 10
32.2553265913
 20
38.4728649834
 30
0.0
 10
32.195526447
 20
38.388141253
 30
0.0
 10
32.1390696034
 20
38.3001003849
 30
0.0
 10
32.0862341846
 20
38.2091763181
 30
0.0
 10
32.0372806158
 20
38.1158173763
 30
0.0
 10
31.9924501422
 20
38.0204837436
 30
0.0
 10
31.9519637475
 20
37.923645387
 30
0.0
 10
31.9160209778
 20
37.82577952
 30
0.0
 10
31.8847990671
 20
37.7273685207
 30
0.0
 10
31.8584519381
 20
37.6288970359
 30
0.0
 10
31.8371095766
 20
37.5308502039
 30
0.0
 10
31.8208773974
 20
37.4337094903
 30
0.0
 10
31.8098359134
 20
37.3379564996
 30
0.0
 10
31.8059216455
 20
37.2745354077
 30
0.0
 10
31.8048778957
 20
37.2431879899
 30
0.0
 11
32.8173121101
 21
38.9851092769
 31
0.0
 11
32.7423890974
 21
38.9402652449
 31
0.0
 11
32.6681143436
 21
38.8893619117
 31
0.0
 11
32.5948541882
 21
38.8326504648
 31
0.0
 11
32.5229716513
 21
38.7704118465
 31
0.0
 11
32.4528223195
 21
38.7029540215
 31
0.0
 11
32.3847529869
 21
38.6306104919
 31
0.0
 11
32.3191006334
 21
38.5537394266
 31
0.0
 11
32.2561900051
 21
38.4727211248
 31
0.0
 11
32.1963323696
 21
38.3879565214
 31
0.0
 11
32.1398236774
 21
38.299864775
 31
0.0
 11
32.0869435816
 21
38.2088819025
 31
0.0
 11
32.0379535618
 21
38.1154578711
 31
0.0
 11
31.9930960391
 21
38.0200550695
 31
0.0
 11
31.9525927678
 21
37.9231452176
 31
0.0
 11
31.9166441205
 21
37.8252078067
 31
0.0
 11
31.8854278756
 21
37.7267272506
 31
0.0
 11
31.8590985034
 21
37.6281910171
 31
0.0
 11
31.8377861086
 21
37.5300861489
 31
0.0
 11
31.8215960993
 21
37.4328978944
 31
0.0
 11
31.8106086305
 21
37.3371076834
 31
0.0
 11
31.8048778957
 21
37.2431879899
 31
0.0
  0
SPLINE
  5
250
100
AcDbEntity
  8
RACCORDO
100
AcDbSpline
 62
253
  6
CONTINUOUS
 70
0
 71
3
 72
28
 73
24
 74
22
 42
0.0000001
 43
0.0000001
 44
0.0000000001
 12
-0.8585632156
 22
-0.4687194828
 32
0.0
 13
-0.0328592703
 23
-0.9776241697
 33
0.0
 40
0.0
 40
0.0
 40
0.0
 40
0.0
 40
0.0418520466
 40
0.0849891018
 40
0.1293465483
 40
0.174846037
 40
0.2213934778
 40
0.2688811112
 40
0.3171890617
 40
0.3661878003
 40
0.4157397367
 40
0.4657012259
 40
0.5159239001
 40
0.5662567634
 40
0.6165474471
 40
0.6666442748
 40
0.7163974908
 40
0.7656611694
 40
0.8142946426
 40
0.8621647731
 40
0.9091472425
 40
0.9551282953
 40
1.0
 40
1.0
 40
1.0
 40
1.0
 10
33.4026444941
 20
38.0203053637
 30
0.0
 10
33.3906669515
 20
38.0137664072
 30
0.0
 10
33.3667787728
 20
37.9996772448
 30
0.0
 10
33.3318151791
 20
37.9760505561
 30
0.0
 10
33.2973323508
 20
37.9497183609
 30
0.0
 10
33.2635027845
 20
37.9208126136
 30
0.0
 10
33.2304917939
 20
37.889475527
 30
0.0
 10
33.198461652
 20
37.8558615849
 30
0.0
 10
33.1675697524
 20
37.8201363758
 30
0.0
 10
33.1379681283
 20
37.782475994
 30
0.0
 10
33.1098024846
 20
37.7430660254
 30
0.0
 10
33.0832115574
 20
37.7021007433
 30
0.0
 10
33.0583263463
 20
37.6597820724
 30
0.0
 10
33.0352695108
 20
37.6163186818
 30
0.0
 10
33.0141546761
 20
37.5719248133
 30
0.0
 10
32.9950859248
 20
37.5268193159
 30
0.0
 10
32.978157245
 20
37.4812244641
 30
0.0
 10
32.963452114
 20
37.435364991
 30
0.0
 10
32.9510430423
 20
37.389466734
 30
0.0
 10
32.9409912416
 20
37.3437558207
 30
0.0
 10
32.9333464243
 20
37.2984566931
 30
0.0
 10
32.9281467191
 20
37.2537965832
 30
0.0
 10
32.9263038258
 20
37.2242127435
 30
0.0
 10
32.925812342
 20
37.2095901892
 30
0.0
 11
33.4026444941
 21
38.0203053637
 31
0.0
 11
33.3673617964
 21
37.9995422582
 31
0.0
 11
33.3323796097
 21
37.975947368
 31
0.0
 11
33.2978752756
 21
37.9496397462
 31
0.0
 11
33.2640197575
 21
37.9207497117
 31
0.0
 11
33.2309805438
 21
37.8894202208
 31
0.0
 11
33.1989209719
 21
37.855806165
 31
0.0
 11
33.1679997605
 21
37.8200739691
 31
0.0
 11
33.138369865
 21
37.7824004128
 31
0.0
 11
33.1101778939
 21
37.7429719368
 31
0.0
 11
33.0835632496
 21
37.7019835338
 31
0.0
 11
33.0586576502
 21
37.659638091
 31
0.0
 11
33.0355842506
 21
37.6161450404
 31
0.0
 11
33.0144572287
 21
37.5717196523
 31
0.0
 11
32.9953810284
 21
37.5265815954
 31
0.0
 11
32.9784500224
 21
37.4809542113
 31
0.0
 11
32.9637479408
 21
37.4350631874
 31
0.0
 11
32.9513475373
 21
37.3891356854
 31
0.0
 11
32.9413100839
 21
37.3433987215
 31
0.0
 11
32.9336852355
 21
37.2980785279
 31
0.0
 11
32.9285107129
 21
37.2533996021
 31
0.0
 11
32.925812342
 21
37.2095901892
 31
0.0
  0
SPLINE
  5
251
100
AcDbEntity
  8
RACCORDO
100
AcDbSpline
 62
253
  6
CONTINUOUS
 70
0
 71
3
 72
25
 73
21
 74
19
 42
0.0000001
 43
0.0000001
 44
0.0000000001
 12
-1.0559679718
 22
-0.45758257
 32
0.0
 13
-1.0289757472
 23
0.5154212622
 33
0.0
 40
0.0
 40
0.0
 40
0.0
 40
0.0
 40
0.0482360729
 40
0.0988635853
 40
0.1516735299
 40
0.2064206424
 40
0.2628300558
 40
0.3206031148
 40
0.3794226084
 40
0.4389576057
 40
0.4988680322
 40
0.5588090879
 40
0.6184355899
 40
0.6774063073
 40
0.7353883612
 40
0.792061766
 40
0.8471242104
 40
0.9002962082
 40
0.9513267928
 40
1.0
 40
1.0
 40
1.0
 40
1.0
 10
32.925812342
 20
37.2095901892
 30
0.0
 10
32.9088337593
 20
37.2022328605
 30
0.0
 10
32.873512204
 20
37.1883388612
 30
0.0
 10
32.8181586121
 20
37.170315586
 30
0.0
 10
32.7594878427
 20
37.1547099907
 30
0.0
 10
32.6979353481
 20
37.1416385879
 30
0.0
 10
32.633954499
 20
37.1311978459
 30
0.0
 10
32.5680186094
 20
37.1234654797
 30
0.0
 10
32.5006156704
 20
37.1184990602
 30
0.0
 10
32.4322450216
 20
37.11633567
 30
0.0
 10
32.3634133912
 20
37.1169915203
 30
0.0
 10
32.2946310512
 20
37.1204618178
 30
0.0
 10
32.2264079142
 20
37.1267207875
 30
0.0
 10
32.1592496345
 20
37.1357218803
 30
0.0
 10
32.0936537731
 20
37.1473981352
 30
0.0
 10
32.0301058647
 20
37.1616627898
 30
0.0
 10
31.9690760918
 20
37.1784098262
 30
0.0
 10
31.9110141463
 20
37.1975156288
 30
0.0
 10
31.8563509912
 20
37.2188376633
 30
0.0
 10
31.8215724124
 20
37.234825588
 30
0.0
 10
31.8048778958
 20
37.2431879899
 30
0.0
 11
32.925812342
 21
37.2095901892
 31
0.0
 11
32.8741859427
 21
37.1891858294
 31
0.0
 11
32.818807694
 21
37.1710748542
 31
0.0
 11
32.7600897578
 21
37.1553920577
 31
0.0
 11
32.6984691518
 21
37.1422541615
 31
0.0
 11
32.6344044976
 21
37.1317589467
 31
0.0
 11
32.5683726069
 21
37.1239845257
 31
0.0
 11
32.5008649328
 21
37.1189887607
 31
0.0
 11
32.4323839124
 21
37.1168088337
 31
0.0
 11
32.363439227
 21
37.117460969
 31
0.0
 11
32.2945440086
 21
37.1209403131
 31
0.0
 11
32.2262110212
 21
37.1272209704
 31
0.0
 11
32.1589488444
 21
37.136256196
 31
0.0
 11
32.0932580879
 21
37.1479787438
 31
0.0
 11
32.0296276661
 21
37.1623013668
 31
0.0
 11
31.9685311587
 21
37.1791174666
 31
0.0
 11
31.9104232867
 21
37.1983018865
 31
0.0
 11
31.8557365273
 21
37.2197118433
 31
0.0
 11
31.8048778958
 21
37.2431879899
 31
0.0
  0
SPLINE
  5
252
100
AcDbEntity
  8
RACCORDO
100
AcDbSpline
 62
253
  6
CONTINUOUS
 70
0
 71
3
 72
18
 73
14
 74
12
 42
0.0000001
 43
0.0000001
 44
0.0000000001
 12
-1.1953432557
 22
-35.5689730313
 32
0.0
 13
1.2353920209
 23
-35.5676045659
 33
0.0
 40
0.0
 40
0.0
 40
0.0
 40
0.0
 40
0.0922589273
 40
0.1842528778
 40
0.2759800973
 40
0.3674388756
 40
0.4586275483
 40
0.5495444966
 40
0.6401881483
 40
0.7305569781
 40
0.8206495082
 40
0.9104643091
 40
1.0
 40
1.0
 40
1.0
 40
1.0
 10
31.8048778957
 20
37.2431879899
 30
0.0
 10
31.7681175336
 20
36.1493362247
 30
0.0
 10
31.7012585315
 20
33.9645482085
 30
0.0
 10
31.6209002382
 20
30.6915586821
 30
0.0
 10
31.5606200213
 20
27.4276302073
 30
0.0
 10
31.5204213061
 20
24.1729465461
 30
0.0
 10
31.50030633
 20
20.9276889755
 30
0.0
 10
31.5002762277
 20
17.6920387742
 30
0.0
 10
31.5203310102
 20
14.4661765002
 30
0.0
 10
31.5604695639
 20
11.2502823643
 30
0.0
 10
31.6206896754
 20
8.0445354246
 30
0.0
 10
31.700987933
 20
4.8491163819
 30
0.0
 10
31.7680073363
 20
2.7225169239
 30
0.0
 10
31.8048778957
 20
1.6609935739
 30
0.0
 11
31.8048778957
 21
37.2431879899
 31
0.0
 11
31.7044742136
 21
33.9613156315
 31
0.0
 11
31.6241445429
 21
30.6883236826
 31
0.0
 11
31.5638933671
 21
27.424394876
 31
0.0
 11
31.5237240486
 21
24.1697114478
 31
0.0
 11
31.5036388289
 21
20.9244551045
 31
0.0
 11
31.5036388289
 21
17.6888070199
 31
0.0
 11
31.5237240486
 21
14.4629478314
 31
0.0
 11
31.5638933671
 21
11.2470576307
 31
0.0
 11
31.6241445429
 21
8.0413159592
 31
0.0
 11
31.7044742136
 21
4.845901806
 31
0.0
 11
31.8048778957
 21
1.6609935739
 31
0.0
  0
SPLINE
  5
253
100
AcDbEntity
  8
RACCORDO
100
AcDbSpline
 62
253
  6
CONTINUOUS
 70
0
 71
3
 72
18
 73
14
 74
12
 42
0.0000001
 43
0.0000001
 44
0.0000000001
 12
-1.1934639518
 22
-35.5120619332
 32
0.0
 13
1.2334485937
 23
-35.5106956215
 33
0.0
 40
0.0
 40
0.0
 40
0.0
 40
0.0
 40
0.0922588846
 40
0.1842528057
 40
0.2759800029
 40
0.3674387661
 40
0.4586274311
 40
0.5495443794
 40
0.6401880389
 40
0.7305568846
 40
0.8206494389
 40
0.9104642722
 40
1.0
 40
1.0
 40
1.0
 40
1.0
 10
32.925812342
 20
37.2095901892
 30
0.0
 10
32.889109791
 20
36.117489114
 30
0.0
 10
32.8223559283
 20
33.9361976447
 30
0.0
 10
32.7421240073
 20
30.6684460386
 30
0.0
 10
32.6819385857
 20
27.4097406368
 30
0.0
 10
32.6418030866
 20
24.1602649819
 30
0.0
 10
32.6217197433
 20
20.9202000607
 30
0.0
 10
32.621689689
 20
17.6897268621
 30
0.0
 10
32.6417129346
 20
14.4690256551
 30
0.0
 10
32.6817883682
 20
11.2582763621
 30
0.0
 10
32.7419137802
 20
8.0576577548
 30
0.0
 10
32.8220857618
 20
4.8673502959
 30
0.0
 10
32.8889997695
 20
2.7441526097
 30
0.0
 10
32.925812342
 20
1.6843272843
 30
0.0
 11
32.925812342
 21
37.2095901892
 31
0.0
 11
32.8255665592
 21
33.9329703907
 31
0.0
 11
32.7453632127
 21
30.6652162948
 31
0.0
 11
32.685206786
 21
27.4065105651
 31
0.0
 11
32.6451006365
 21
24.1570351463
 31
0.0
 11
32.6250470021
 21
20.9169714539
 31
0.0
 11
32.6250470019
 21
17.686500372
 31
0.0
 11
32.6451006359
 21
14.465802249
 31
0.0
 11
32.685206785
 21
11.2550568883
 31
0.0
 11
32.7453632113
 21
8.0544435443
 31
0.0
 11
32.8255665574
 21
4.8641409196
 31
0.0
 11
32.925812342
 21
1.6843272843
 31
0.0
  0
SPLINE
  5
254
100
AcDbEntity
  8
RACCORDO
100
AcDbSpline
 62
253
  6
CONTINUOUS
 70
0
 71
3
 72
25
 73
21
 74
19
 42
0.0000001
 43
0.0000001
 44
0.0000000001
 12
-1.0211718518
 22
-0.5436298129
 32
0.0
 13
-1.0350780729
 23
0.5166611146
 33
0.0
 40
0.0
 40
0.0
 40
0.0
 40
0.0
 40
0.0497015166
 40
0.101529506
 40
0.1552848567
 40
0.2107347037
 40
0.2676186659
 40
0.325654426
 40
0.3845428393
 40
0.4439727134
 40
0.503625374
 40
0.5631791047
 40
0.6223135371
 40
0.6807140638
 40
0.7380763452
 40
0.7941109951
 40
0.8485485478
 40
0.9011448364
 40
0.9516869526
 40
1.0
 40
1.0
 40
1.0
 40
1.0
 10
32.925812342
 20
1.6843272843
 30
0.0
 10
32.908894412
 20
1.6753208755
 30
0.0
 10
32.8736859224
 20
1.6581214198
 30
0.0
 10
32.8183209321
 20
1.635221042
 30
0.0
 10
32.759637872
 20
1.6148136709
 30
0.0
 10
32.6980727931
 20
1.5970512382
 30
0.0
 10
32.6340793328
 20
1.582064391
 30
0.0
 10
32.5681309142
 20
1.56996419
 30
0.0
 10
32.5007155254
 20
1.5608402878
 30
0.0
 10
32.4323324274
 20
1.5547603833
 30
0.0
 10
32.3634882156
 20
1.5517695882
 30
0.0
 10
32.294692988
 20
1.551890076
 30
0.0
 10
32.2264564475
 20
1.5551209024
 30
0.0
 10
32.1592840055
 20
1.5614380358
 30
0.0
 10
32.0936729566
 20
1.5707945621
 30
0.0
 10
32.0301085296
 20
1.5831211848
 30
0.0
 10
31.9690606628
 20
1.5983266326
 30
0.0
 10
31.9109786005
 20
1.6162994259
 30
0.0
 10
31.8562938069
 20
1.6369059484
 30
0.0
 10
31.8215471633
 20
1.6526730878
 30
0.0
 10
31.8048779046
 20
1.6609935788
 30
0.0
 11
32.925812342
 21
1.6843272843
 31
0.0
 11
32.8741859427
 21
1.6590152188
 31
0.0
 11
32.8188076941
 21
1.6360330645
 31
0.0
 11
32.7600897581
 21
1.6155518698
 31
0.0
 11
32.6984691524
 21
1.5977240692
 31
0.0
 11
32.6344044986
 21
1.5826823492
 31
0.0
 11
32.5683726083
 21
1.5705386602
 31
0.0
 11
32.5008649348
 21
1.5613833836
 31
0.0
 11
32.4323839151
 21
1.5552846591
 31
0.0
 11
32.3634392302
 21
1.5522878774
 31
0.0
 11
32.2945440125
 21
1.5524153426
 31
0.0
 11
32.2262110258
 21
1.5556661059
 31
0.0
 11
32.1589488497
 21
1.5620159732
 31
0.0
 11
32.0932580939
 21
1.5714176843
 31
0.0
 11
32.0296276727
 21
1.5838012655
 31
0.0
 11
31.968531166
 21
1.5990745501
 31
0.0
 11
31.9104232945
 21
1.617123864
 31
0.0
 11
31.8557365357
 21
1.6378148723
 31
0.0
 11
31.8048779046
 21
1.6609935788
 31
0.0
  0
SPLINE
  5
255
100
AcDbEntity
  8
RACCORDO
100
AcDbSpline
 62
253
  6
CONTINUOUS
 70
0
 71
3
 72
20
 73
16
 74
14
 42
0.0000001
 43
0.0000001
 44
0.0000000001
 12
0.0308739865
 22
-0.8968866424
 32
0.0
 13
0.8030854599
 23
-0.4015869448
 33
0.0
 40
0.0
 40
0.0
 40
0.0
 40
0.0
 40
0.0985799347
 40
0.1940623809
 40
0.2863906098
 40
0.3755653095
 40
0.461653755
 40
0.5447953139
 40
0.62520537
 40
0.7031789519
 40
0.7790896496
 40
0.8533847078
 40
0.9265734296
 40
0.9992109067
 40
1.0
 40
1.0
 40
1.0
 40
1.0
 10
31.8048778957
 20
1.6609935739
 30
0.0
 10
31.8058924143
 20
1.6315218984
 30
0.0
 10
31.809600066
 20
1.5735454348
 30
0.0
 10
31.8205012791
 20
1.488511513
 30
0.0
 10
31.8366064543
 20
1.4071643965
 30
0.0
 10
31.8578418616
 20
1.3299070119
 30
0.0
 10
31.8841102286
 20
1.2571186089
 30
0.0
 10
31.9152910688
 20
1.1891595521
 30
0.0
 10
31.9512407972
 20
1.1263691377
 30
0.0
 10
31.9917921797
 20
1.0690654035
 30
0.0
 10
32.0367534229
 20
1.0175437489
 30
0.0
 10
32.0859066382
 20
0.9720751578
 30
0.0
 10
32.1390067853
 20
0.9329028031
 30
0.0
 10
32.1771048326
 20
0.910983311
 30
0.0
 10
32.1967546613
 20
0.9011420444
 30
0.0
 10
32.1969658977
 20
0.9010364145
 30
0.0
 11
31.8048778957
 21
1.6609935739
 31
0.0
 11
31.810608633
 21
1.5727119857
 31
0.0
 11
31.8215961027
 21
1.487731696
 31
0.0
 11
31.8377861131
 21
1.4064718252
 31
0.0
 11
31.85909851
 21
1.3293349491
 31
0.0
 11
31.8854278829
 21
1.2567026139
 31
0.0
 11
31.9166441286
 21
1.1889338583
 31
0.0
 11
31.9525927774
 21
1.1263641733
 31
0.0
 11
31.9930960507
 21
1.069303069
 31
0.0
 11
32.0379535745
 21
1.0180329041
 31
0.0
 11
32.0869435951
 21
0.9728072259
 31
0.0
 11
32.139823692
 21
0.9338499195
 31
0.0
 11
32.1963323855
 21
0.9013536979
 31
0.0
 11
32.1969658977
 21
0.9010364145
 31
0.0
  0
SPLINE
  5
256
100
AcDbEntity
  8
RACCORDO
100
AcDbSpline
 62
253
  6
CONTINUOUS
 70
0
 71
3
 72
28
 73
24
 74
22
 42
0.0000001
 43
0.0000001
 44
0.0000000001
 12
0.0250630497
 22
-0.7214801369
 32
0.0
 13
0.6656516328
 23
0.2794094632
 33
0.0
 40
0.0
 40
0.0
 40
0.0
 40
0.0
 40
0.0572003634
 40
0.1126332835
 40
0.1662617321
 40
0.2180896795
 40
0.2681594805
 40
0.3165548671
 40
0.3634029819
 40
0.4088761998
 40
0.4531911952
 40
0.4966058231
 40
0.5394122644
 40
0.581927617
 40
0.6244810976
 40
0.6674005046
 40
0.710998161
 40
0.7555591932
 40
0.8013322315
 40
0.8485241444
 40
0.8972969203
 40
0.9477672386
 40
1.0
 40
1.0
 40
1.0
 40
1.0
 10
32.925812342
 20
1.6843272843
 30
0.0
 10
32.9262902138
 20
1.6705709756
 30
0.0
 10
32.928036856
 20
1.6435028535
 30
0.0
 10
32.9331714588
 20
1.6037964437
 30
0.0
 10
32.9407575227
 20
1.5657975186
 30
0.0
 10
32.9507601731
 20
1.5296962987
 30
0.0
 10
32.9631335242
 20
1.495670113
 30
0.0
 10
32.9778207509
 20
1.4638875711
 30
0.0
 10
32.9947540519
 20
1.4345074936
 30
0.0
 10
33.0138544112
 20
1.4076787913
 30
0.0
 10
33.0350311811
 20
1.383539764
 30
0.0
 10
33.058181426
 20
1.3622172189
 30
0.0
 10
33.0831895235
 20
1.3438248713
 30
0.0
 10
33.1099272862
 20
1.3284613533
 30
0.0
 10
33.1382551635
 20
1.3162080661
 30
0.0
 10
33.1680242084
 20
1.3071276885
 30
0.0
 10
33.1990785974
 20
1.3012636371
 30
0.0
 10
33.2312577824
 20
1.2986405697
 30
0.0
 10
33.2643982507
 20
1.299265519
 30
0.0
 10
33.2983341169
 20
1.3031290121
 30
0.0
 10
33.3328983004
 20
1.3102065267
 30
0.0
 10
33.3679171806
 20
1.3204567451
 30
0.0
 10
33.3910548865
 20
1.3292187905
 30
0.0
 10
33.4026444941
 20
1.3340835665
 30
0.0
 11
32.925812342
 21
1.6843272843
 31
0.0
 11
32.9285109015
 21
1.6431217351
 31
0.0
 11
32.9336855422
 21
1.6034398324
 31
0.0
 11
32.9413105168
 21
1.5654829304
 31
0.0
 11
32.9513480965
 21
1.5294390906
 31
0.0
 11
32.9637486276
 21
1.4954866019
 31
0.0
 11
32.9784508371
 21
1.4637933067
 31
0.0
 11
32.9953819715
 21
1.4345161096
 31
0.0
 11
33.0144582997
 21
1.4077998407
 31
0.0
 11
33.0355854468
 21
1.3837767082
 31
0.0
 11
33.0586589602
 21
1.3625655266
 31
0.0
 11
33.0835646565
 21
1.3442713035
 31
0.0
 11
33.1101793777
 21
1.3289845367
 31
0.0
 11
33.1383714062
 21
1.3167809084
 31
0.0
 11
33.168001348
 21
1.3077207852
 31
0.0
 11
33.1989225962
 21
1.3018490278
 31
0.0
 11
33.2309821961
 21
1.2991947079
 31
0.0
 11
33.264021429
 21
1.2997709774
 31
0.0
 11
33.2978769546
 21
1.3035749923
 31
0.0
 11
33.3323812902
 21
1.3105879714
 31
0.0
 11
33.3673634678
 21
1.3207751242
 31
0.0
 11
33.4026444941
 21
1.3340835665
 31
0.0
  0
SPLINE
  5
257
100
AcDbEntity
  8
RACCORDO
100
AcDbSpline
 62
253
  6
CONTINUOUS
 70
0
 71
3
 72
16
 73
12
 74
10
 42
0.0000001
 43
0.0000001
 44
0.0000000001
 12
0.0130083115
 22
-0.3864324678
 32
0.0
 13
0.3453368496
 23
-0.172961312
 33
0.0
 40
0.0
 40
0.0
 40
0.0
 40
0.0
 40
0.0847857424
 40
0.1804090907
 40
0.2793352357
 40
0.3829856626
 40
0.4924684143
 40
0.6085659165
 40
0.7317549682
 40
0.8622416954
 40
1.0
 40
1.0
 40
1.0
 40
1.0
 10
17.0408852775
 20
9.2100512267
 30
0.0
 10
17.0412529173
 20
9.1991299055
 30
0.0
 10
17.0437675836
 20
9.1759485096
 30
0.0
 10
17.0531616674
 20
9.1410771154
 30
0.0
 10
17.0687860431
 20
9.1058549854
 30
0.0
 10
17.0901695947
 20
9.0716995621
 30
0.0
 10
17.1171188163
 20
9.0388510127
 30
0.0
 10
17.149413684
 20
9.0075320332
 30
0.0
 10
17.1868076192
 20
8.9779540248
 30
0.0
 10
17.2290199145
 20
8.9503214451
 30
0.0
 10
17.2593693916
 20
8.9337612752
 30
0.0
 10
17.2752270646
 20
8.9258189895
 30
0.0
 11
17.0408852775
 21
9.2100512267
 31
0.0
 11
17.0444011517
 21
9.1774867663
 31
0.0
 11
17.0539325721
 21
9.1418053256
 31
0.0
 11
17.0693176648
 21
9.1068315579
 31
0.0
 11
17.0904419236
 21
9.0728257613
 31
0.0
 11
17.1171481279
 21
9.0400410294
 31
0.0
 11
17.1492375122
 21
9.0087213682
 31
0.0
 11
17.1864712461
 21
8.9790998792
 31
0.0
 11
17.2285722113
 21
8.9513970253
 31
0.0
 11
17.2752270646
 21
8.9258189895
 31
0.0
  0
SPLINE
  5
258
100
AcDbEntity
  8
RACCORDO
100
AcDbSpline
 62
253
  6
CONTINUOUS
 70
0
 71
3
 72
18
 73
14
 74
12
 42
0.0000001
 43
0.0000001
 44
0.0000000001
 12
-0.0230321438
 22
-0.5402983543
 32
0.0
 13
-0.4990371946
 23
-0.2094985893
 33
0.0
 40
0.0
 40
0.0
 40
0.0
 40
0.0
 40
0.1121022107
 40
0.2202342203
 40
0.3242292018
 40
0.4240330766
 40
0.5197202016
 40
0.6115080996
 40
0.6997689402
 40
0.7850342451
 40
0.8679883447
 40
0.9494463501
 40
1.0
 40
1.0
 40
1.0
 40
1.0
 10
33.4026444941
 20
1.3340835665
 30
0.0
 10
33.4017838427
 20
1.3138940198
 30
0.0
 10
33.3987292007
 20
1.2742709888
 30
0.0
 10
33.3898858303
 20
1.2164404138
 30
0.0
 10
33.3769210683
 20
1.1616575065
 30
0.0
 10
33.3599254946
 20
1.1103377538
 30
0.0
 10
33.3390172069
 20
1.062867669
 30
0.0
 10
33.3143413303
 20
1.0196094188
 30
0.0
 10
33.2860701685
 20
0.9808987886
 30
0.0
 10
33.254404909
 20
0.9470447394
 30
0.0
 10
33.2195787073
 20
0.9183268371
 30
0.0
 10
33.1865214759
 20
0.8978739505
 30
0.0
 10
33.1649619695
 20
0.8877015074
 30
0.0
 10
33.1565525856
 20
0.8841712013
 30
0.0
 11
33.4026444941
 21
1.3340835665
 31
0.0
 11
33.397909219
 21
1.2736451366
 31
0.0
 11
33.3889854387
 21
1.215853445
 31
0.0
 11
33.3759409897
 21
1.1611478103
 31
0.0
 11
33.3588750327
 21
1.1099440916
 31
0.0
 11
33.3379172991
 21
1.0626315274
 31
0.0
 11
33.3132271046
 21
1.0195697766
 31
0.0
 11
33.2849921381
 21
0.9810861841
 31
0.0
 11
33.2534270351
 21
0.9474732932
 31
0.0
 11
33.2187717459
 21
0.918986621
 31
0.0
 11
33.1812897119
 21
0.8958427164
 31
0.0
 11
33.1565525856
 21
0.8841712013
 31
0.0
  0
ELLIPSE
  5
259
100
AcDbEntity
  8
RACCORDO
100
AcDbEllipse
 62
7
  6
CONTINUOUS
 10
5.0276134049
 20
55.0350902211
 30
0.0
 11
-0.3575389099
 21
0.7168491018
 31
0.0
 40
0.6116748051
 41
-0.6831523243
 42
0.039930908
  0
ELLIPSE
  5
25A
100
AcDbEntity
  8
RACCORDO
100
AcDbEllipse
 62
7
  6
CONTINUOUS
 10
19.6660483155
 20
47.7158727658
 30
0.0
 11
-0.3569596856
 21
0.7163376054
 31
0.0
 40
0.6127700112
 41
-1.9930299379
 42
-0.6836588249
  0
ELLIPSE
  5
25B
100
AcDbEntity
  8
RACCORDO
100
AcDbEllipse
 62
7
  6
CONTINUOUS
 10
20.9021606426
 20
47.0978166023
 30
0.0
 11
-0.3575389099
 21
0.7168491018
 31
0.0
 40
0.6116748051
 41
-0.6831523243
 42
0.039930908
  0
ELLIPSE
  5
25C
100
AcDbEntity
  8
RACCORDO
100
AcDbEllipse
 62
7
  6
CONTINUOUS
 10
36.7334466129
 20
25.2906978641
 30
0.0
 11
0.2299769236
 21
0.4440064614
 31
0.0
 40
0.6229838795
 41
-2.2734543063
 42
-0.8771909047
  0
ELLIPSE
  5
25D
100
AcDbEntity
  8
RACCORDO
100
AcDbEllipse
 62
7
  6
CONTINUOUS
 10
34.575098485
 20
22.9110554089
 30
0.0
 11
0.2299769236
 21
0.4440064614
 31
0.0
 40
0.6229838795
 41
0.8681383473
 42
2.2644017489
  0
ELLIPSE
  5
25E
100
AcDbEntity
  8
RACCORDO
100
AcDbEllipse
 62
7
  6
CONTINUOUS
 10
35.5405955532
 20
39.778599147
 30
0.0
 11
-0.3569596856
 21
0.7163376054
 31
0.0
 40
0.6127700112
 41
-2.2535417632
 42
-0.6836588249
  0
ELLIPSE
  5
25F
100
AcDbEntity
  8
RACCORDO
100
AcDbEllipse
 62
7
  6
CONTINUOUS
 10
35.7465830029
 20
17.7736410883
 30
0.0
 11
0.2267599918
 21
0.4456316896
 31
0.0
 40
0.6176975122
 41
0.0043594211
 42
0.5145444593
  0
ELLIPSE
  5
260
100
AcDbEntity
  8
RACCORDO
100
AcDbEllipse
 62
7
  6
CONTINUOUS
 10
35.5405955532
 20
2.7525159949
 30
0.0
 11
-0.3575389099
 21
0.7168491018
 31
0.0
 40
0.6116748051
 41
-3.1815330824
 42
-2.2548620396
  0
ELLIPSE
  5
261
100
AcDbEntity
  8
RACCORDO
100
AcDbEllipse
 62
7
  6
CONTINUOUS
 10
36.7334466129
 20
17.2802092833
 30
0.0
 11
0.2299769236
 21
0.4440064614
 31
0.0
 40
0.6229838795
 41
5.4059944025
 42
6.8022578041
  0
ELLIPSE
  5
262
100
AcDbEntity
  8
RACCORDO
100
AcDbEllipse
 62
7
  6
CONTINUOUS
 10
34.575098485
 20
17.5755591793
 30
0.0
 11
0.2299769236
 21
0.4440064614
 31
0.0
 40
0.6229838795
 41
2.2644017489
 42
3.6606651505
  0
ENDSEC
  0
SECTION
  2
OBJECTS
  0
DICTIONARY
  5
C
100
AcDbDictionary
280
0
281
1
  3
ACAD_GROUP
350
D
  3
ACAD_MLINESTYLE
350
17
  3
ACAD_LAYOUT
350
1A
  3
ACAD_PLOTSETTINGS
350
19
  3
ACAD_PLOTSTYLENAME
350
E
  0
DICTIONARY
  5
D
102
{ACAD_REACTORS
330
C
102
}
100
AcDbDictionary
280
0
281
1
  0
ACDBDICTIONARYWDFLT
  5
E
102
{ACAD_REACTORS
330
C
102
}
100
AcDbDictionary
281
1
  3
Normal
350
F
100
AcDbDictionaryWithDefault
340
F
  0
DICTIONARY
  5
17
102
{ACAD_REACTORS
330
C
102
}
100
AcDbDictionary
280
0
281
1
  3
Standard
350
18
  0
DICTIONARY
  5
19
102
{ACAD_REACTORS
330
C
102
}
100
AcDbDictionary
281
1
  0
DICTIONARY
  5
1A
102
{ACAD_REACTORS
330
C
102
}
100
AcDbDictionary
281
1
  3
Model
350
263
  3
Layout1
350
264
  0
ACDBPLACEHOLDER
  5
F
102
{ACAD_REACTORS
330
E
102
}
  0
MLINESTYLE
  5
18
102
{ACAD_REACTORS
330
17
102
}
100
AcDbMlineStyle
  2
STANDARD
 70
0
  3

 62
256
 51
90.0
 52
90.0
 71
2
 49
0.5
 62
256
  6
BYLAYER
 49
-0.5
 62
256
  6
BYLAYER
  0
LAYOUT
  5
263
102
{ACAD_REACTORS
330
1A
102
}
100
AcDbPlotSettings
  1

  2
none_device
  4
ISO_A4_(297.00_x_210.00_MM)
  6

 40
0.0
 41
0.0
 42
0.0
 43
0.0
 44
297.0
 45
210.0
 46
0.0
 47
0.0
 48
0.0
 49
0.0
140
0.0
141
0.0
142
1.0
143
1.0
 70
1024
 72
1
 73
0
 74
0
  7

 75
0
147
1.0
148
0.0
149
0.0
100
AcDbLayout
  1
Model
 70
0
 71
0
 10
0.0
 20
0.0
 11
297.0
 21
210.0
 12
0.0
 22
0.0
 32
0.0
 14
0.0
 24
0.0
 34
0.0
 15
0.0
 25
0.0
 35
0.0
146
0.0
 13
0.0
 23
0.0
 33
0.0
 16
1.0
 26
0.0
 36
0.0
 17
0.0
 27
1.0
 37
0.0
 76
0
330
20F
345
0
346
0
  0
LAYOUT
  5
264
102
{ACAD_REACTORS
330
1A
102
}
100
AcDbPlotSettings
  1

  2
none_device
  4
ISO_A4_(297.00_x_210.00_MM)
  6

 40
0.0
 41
0.0
 42
0.0
 43
0.0
 44
297.0
 45
210.0
 46
0.0
 47
0.0
 48
0.0
 49
0.0
140
0.0
141
0.0
142
1.0
143
1.0
 70
0
 72
1
 73
0
 74
0
  7

 75
0
147
1.0
148
0.0
149
0.0
100
AcDbLayout
  1
Layout1
 70
0
 71
1
 10
0.0
 20
0.0
 11
297.0
 21
210.0
 12
0.0
 22
0.0
 32
0.0
 14
0.0
 24
0.0
 34
0.0
 15
0.0
 25
0.0
 35
0.0
146
0.0
 13
0.0
 23
0.0
 33
0.0
 16
1.0
 26
0.0
 36
0.0
 17
0.0
 27
1.0
 37
0.0
 76
0
330
210
345
0
346
0
  0
ENDSEC
  0
EOF
