  0
SECTION
  2
HEADER
  9
$ACADVER
  1
AC1015
  9
$DWGCODEPAGE
  3
ANSI_1252
  9
$EXTMAX
 10
297.0
 20
210.0
 30
0.0
  9
$EXTMIN
 10
0.0
 20
0.0
 30
0.0
  9
$LIMMIN
 10
0.0
 20
0.0
  9
$LIMMAX
 10
297.0
 20
210.0
  9
$VIEWCTR
 10
148.5
 20
105.0
  9
$VIEWSIZE
 40
210.0
  9
$CLAYER
  8
0
  9
$LTSCALE
 40
16.335
  9
$CELTYPE
  6
BYLAYER
  9
$DIMSCALE
 40
1.0
  9
$DIMASZ
 40
3.0
  9
$DIMEXO
 40
1.85625
  9
$DIMDLI
 40
11.286
  9
$DIMEXE
 40
5.346
  9
$DIMCEN
 40
2.673
  9
$DIMLFAC
 40
1.0
  9
$DIMBLK
  1
_FILLED
  9
$DIMTXT
 40
3.0
  9
$DIMTOL
 70
1
  9
$DIMLIM
 70
0
  9
$DIMTFAC
 40
1.0
  9
$DIMTP
 40
0.01
  9
$DIMTM
 40
0.01
  9
$PDMODE
 70
3
  9
$PDSIZE
 40
3.0
  9
$HANDSEED
  5
45E
  9
$TILEMODE
 70
1
  9
$MEASUREMENT
 70
1
  9
$INSUNITS
 70
4
  0
ENDSEC
  0
SECTION
  2
CLASSES
  0
CLASS
  1
ACDBDICTIONARYWDFLT
  2
AcDbDictionaryWithDefault
  3
AutoCAD 2000
 90
0
280
0
281
0
  0
CLASS
  1
ACDBPLACEHOLDER
  2
AcDbPlaceHolder
  3
AutoCAD 2000
 90
0
280
0
281
0
  0
CLASS
  1
LAYOUT
  2
AcDbLayout
  3
AutoCAD 2000
 90
0
280
0
281
0
  0
ENDSEC
  0
SECTION
  2
TABLES
  0
TABLE
  2
VPORT
  5
8
100
AcDbSymbolTable
 70
2
  0
VPORT
  5
1F4
100
AcDbSymbolTableRecord
100
AcDbViewportTableRecord
  2
*ACTIVE
 70
0
 10
0.0
 20
0.0
 11
1.0
 21
1.0
 12
148.5
 22
105.0
 13
0.0
 23
0.0
 14
1.0
 24
1.0
 15
0.0
 25
0.0
 16
0.0
 26
0.0
 36
1.0
 17
0.0
 27
0.0
 37
0.0
 40
210.0
 41
1.4142857143
 42
50.0
 43
0.0
 44
0.0
 50
0.0
 51
0.0
 71
0
 72
100
 73
1
 74
1
 75
0
 76
0
 77
0
 78
0
  0
ENDTAB
  0
TABLE
  2
LTYPE
  5
5
100
AcDbSymbolTable
 70
6
  0
LTYPE
  5
14
100
AcDbSymbolTableRecord
100
AcDbLinetypeTableRecord
  2
BYBLOCK
 70
0
  3

 72
65
 73
0
 40
0.0
  0
LTYPE
  5
15
100
AcDbSymbolTableRecord
100
AcDbLinetypeTableRecord
  2
BYLAYER
 70
0
  3

 72
65
 73
0
 40
0.0
  0
LTYPE
  5
16
100
AcDbSymbolTableRecord
100
AcDbLinetypeTableRecord
  2
CONTINUOUS
 70
64
  3
Solid line
 72
65
 73
0
 40
0.0
  0
LTYPE
  5
1F5
100
AcDbSymbolTableRecord
100
AcDbLinetypeTableRecord
  2
CENTER
 70
64
  3
____ _ ____ _ ____ _ ____ _ ____ _ ____ _ ____
 72
65
 73
4
 40
0.6
 49
0.375
 74
0
 49
-0.075
 74
0
 49
0.075
 74
0
 49
-0.075
 74
0
  0
LTYPE
  5
1F6
100
AcDbSymbolTableRecord
100
AcDbLinetypeTableRecord
  2
HIDDEN
 70
64
  3
- - - - - - - - - - - - - - - - - - - -
 72
65
 73
2
 40
0.2
 49
0.1
 74
0
 49
-0.1
 74
0
  0
LTYPE
  5
1F7
100
AcDbSymbolTableRecord
100
AcDbLinetypeTableRecord
  2
PHANTOM
 70
64
  3
_____ _ _ _____ _ _ _____ _ _ _____
 72
65
 73
6
 40
0.8
 49
0.45
 74
0
 49
-0.05
 74
0
 49
0.1
 74
0
 49
-0.05
 74
0
 49
0.1
 74
0
 49
-0.05
 74
0
  0
LTYPE
  5
1F8
100
AcDbSymbolTableRecord
100
AcDbLinetypeTableRecord
  2
DOT
 70
64
  3
. . . . . . . . . . . . . . . . . . . .
 72
65
 73
2
 40
0.2
 49
0.1
 74
0
 49
-0.1
 74
0
  0
LTYPE
  5
1F9
100
AcDbSymbolTableRecord
100
AcDbLinetypeTableRecord
  2
DASHED
 70
64
  3
- - - - - - - - - - - - - - - - - - - -
 72
65
 73
2
 40
0.2
 49
0.1
 74
0
 49
-0.1
 74
0
  0
ENDTAB
  0
TABLE
  2
LAYER
  5
2
100
AcDbSymbolTable
 70
36
  0
LAYER
  5
10
100
AcDbSymbolTableRecord
100
AcDbLayerTableRecord
  2
0
 70
0
 62
7
  6
CONTINUOUS
370
-3
390
F
  0
LAYER
  5
1FA
100
AcDbSymbolTableRecord
100
AcDbLayerTableRecord
  2
DEFAULT_1
 70
0
 62
7
  6
CENTER
370
-3
390
F
  0
LAYER
  5
1FB
100
AcDbSymbolTableRecord
100
AcDbLayerTableRecord
  2
DEFAULT_2
 70
0
 62
7
  6
HIDDEN
370
-3
390
F
  0
LAYER
  5
1FC
100
AcDbSymbolTableRecord
100
AcDbLayerTableRecord
  2
DEFAULT_3
 70
0
 62
7
  6
PHANTOM
370
-3
390
F
  0
LAYER
  5
1FD
100
AcDbSymbolTableRecord
100
AcDbLayerTableRecord
  2
ASSI
 70
0
 62
7
  6
CONTINUOUS
370
-3
390
F
  0
LAYER
  5
1FE
100
AcDbSymbolTableRecord
100
AcDbLayerTableRecord
  2
COORDINATE
 70
0
 62
7
  6
CONTINUOUS
370
-3
390
F
  0
LAYER
  5
1FF
100
AcDbSymbolTableRecord
100
AcDbLayerTableRecord
  2
COORD_ORIGINE
 70
0
 62
7
  6
CONTINUOUS
370
-3
390
F
  0
LAYER
  5
200
100
AcDbSymbolTableRecord
100
AcDbLayerTableRecord
  2
COPY_PUBLISH
 70
0
 62
7
  6
CONTINUOUS
370
-3
390
F
  0
LAYER
  5
201
100
AcDbSymbolTableRecord
100
AcDbLayerTableRecord
  2
COSMETIC
 70
0
 62
7
  6
CONTINUOUS
370
-3
390
F
  0
LAYER
  5
202
100
AcDbSymbolTableRecord
100
AcDbLayerTableRecord
  2
CURVE
 70
0
 62
7
  6
CONTINUOUS
370
-3
390
F
  0
LAYER
  5
203
100
AcDbSymbolTableRecord
100
AcDbLayerTableRecord
  2
DRAFT
 70
0
 62
7
  6
CONTINUOUS
370
-3
390
F
  0
LAYER
  5
204
100
AcDbSymbolTableRecord
100
AcDbLayerTableRecord
  2
IMPORT
 70
0
 62
7
  6
CONTINUOUS
370
-3
390
F
  0
LAYER
  5
205
100
AcDbSymbolTableRecord
100
AcDbLayerTableRecord
  2
IMPORT_IGES
 70
0
 62
7
  6
CONTINUOUS
370
-3
390
F
  0
LAYER
  5
206
100
AcDbSymbolTableRecord
100
AcDbLayerTableRecord
  2
INTF_1
 70
0
 62
7
  6
CONTINUOUS
370
-3
390
F
  0
LAYER
  5
207
100
AcDbSymbolTableRecord
100
AcDbLayerTableRecord
  2
INTF_5
 70
0
 62
7
  6
CONTINUOUS
370
-3
390
F
  0
LAYER
  5
208
100
AcDbSymbolTableRecord
100
AcDbLayerTableRecord
  2
INTF_CYAN
 70
0
 62
7
  6
CONTINUOUS
370
-3
390
F
  0
LAYER
  5
209
100
AcDbSymbolTableRecord
100
AcDbLayerTableRecord
  2
LAY0001
 70
0
 62
7
  6
CONTINUOUS
370
-3
390
F
  0
LAYER
  5
20A
100
AcDbSymbolTableRecord
100
AcDbLayerTableRecord
  2
NOTE
 70
0
 62
7
  6
CONTINUOUS
370
-3
390
F
  0
LAYER
  5
20B
100
AcDbSymbolTableRecord
100
AcDbLayerTableRecord
  2
PIANI
 70
0
 62
7
  6
CONTINUOUS
370
-3
390
F
  0
LAYER
  5
20C
100
AcDbSymbolTableRecord
100
AcDbLayerTableRecord
  2
PIANI_ORIGINE
 70
0
 62
7
  6
CONTINUOUS
370
-3
390
F
  0
LAYER
  5
20D
100
AcDbSymbolTableRecord
100
AcDbLayerTableRecord
  2
PIANI_RIFERIMENTO
 70
0
 62
7
  6
CONTINUOUS
370
-3
390
F
  0
LAYER
  5
20E
100
AcDbSymbolTableRecord
100
AcDbLayerTableRecord
  2
PUNTI
 70
0
 62
7
  6
CONTINUOUS
370
-3
390
F
  0
LAYER
  5
20F
100
AcDbSymbolTableRecord
100
AcDbLayerTableRecord
  2
RACCORDO
 70
0
 62
7
  6
CONTINUOUS
370
-3
390
F
  0
LAYER
  5
210
100
AcDbSymbolTableRecord
100
AcDbLayerTableRecord
  2
RGB____0____0____0__
 70
0
 62
7
  6
CONTINUOUS
370
-3
390
F
  0
LAYER
  5
211
100
AcDbSymbolTableRecord
100
AcDbLayerTableRecord
  2
SMUSSO
 70
0
 62
7
  6
CONTINUOUS
370
-3
390
F
  0
LAYER
  5
212
100
AcDbSymbolTableRecord
100
AcDbLayerTableRecord
  2
SNAPLINE
 70
0
 62
7
  6
CONTINUOUS
370
-3
390
F
  0
LAYER
  5
213
100
AcDbSymbolTableRecord
100
AcDbLayerTableRecord
  2
SUPERFICI
 70
0
 62
7
  6
CONTINUOUS
370
-3
390
F
  0
LAYER
  5
214
100
AcDbSymbolTableRecord
100
AcDbLayerTableRecord
  2
TRASH
 70
0
 62
7
  6
CONTINUOUS
370
-3
390
F
  0
LAYER
  5
215
100
AcDbSymbolTableRecord
100
AcDbLayerTableRecord
  2
XSEC_DATUMS
 70
0
 62
7
  6
CONTINUOUS
370
-3
390
F
  0
ENDTAB
  0
TABLE
  2
STYLE
  5
3
100
AcDbSymbolTable
 70
1
  0
STYLE
  5
11
100
AcDbSymbolTableRecord
100
AcDbTextStyleTableRecord
  2
STANDARD
 70
0
 40
0.0
 41
0.8
 50
0.0
 71
0
 42
0.2
  3
txt
  4

  0
STYLE
  5
216
100
AcDbSymbolTableRecord
100
AcDbTextStyleTableRecord
  2
TEXTSTYLE_1
 70
0
 40
0.0
 41
0.8
 50
0.0
 71
0
 42
0.2
  3
gdt
  4

  0
ENDTAB
  0
TABLE
  2
VIEW
  5
6
100
AcDbSymbolTable
 70
0
  0
ENDTAB
  0
TABLE
  2
UCS
  5
7
100
AcDbSymbolTable
 70
0
  0
ENDTAB
  0
TABLE
  2
APPID
  5
9
100
AcDbSymbolTable
 70
1
  0
APPID
  5
217
100
AcDbSymbolTableRecord
100
AcDbRegAppTableRecord
  2
ACAD
 70
0
  0
ENDTAB
  0
TABLE
  2
BLOCK_RECORD
  5
1
100
AcDbSymbolTable
 70
0
  0
BLOCK_RECORD
  5
218
100
AcDbSymbolTableRecord
100
AcDbBlockTableRecord
  2
*Model_Space
  0
BLOCK_RECORD
  5
219
100
AcDbSymbolTableRecord
100
AcDbBlockTableRecord
  2
*Paper_Space
  0
ENDTAB
  0
TABLE
  2
DIMSTYLE
  5
A
100
AcDbSymbolTable
 70
1
100
AcDbDimStyleTable
 71
0
  0
DIMSTYLE
105
21A
100
AcDbSymbolTableRecord
100
AcDbDimStyleTableRecord
  2
STANDARD
 70
0
  3

  4

 40
1.0
 41
3.0
 42
0.0625
 43
0.38
 44
0.18
 45
0.0
 46
0.0
 47
0.01
 48
0.01
140
3.0
141
0.09
142
0.0
143
25.4
144
1.0
145
0.0
146
1.0
147
0.09
 71
1.0
 72
0.0
 73
0
 74
0
 75
0
 76
0
 77
1
 78
8
170
0
171
2
172
0
173
0
174
0
175
0
176
0
177
0
178
0
270
2
271
2
272
2
273
2
274
2
275
0
280
0
281
0
282
0
283
1
284
8
285
0
286
0
287
3
288
0
340
11
  0
ENDTAB
  0
ENDSEC
  0
SECTION
  2
BLOCKS
  0
BLOCK
  5
20
100
AcDbEntity
  8
0
100
AcDbBlockBegin
  2
*Model_Space
 70
0
 10
0.0
 20
0.0
 30
0.0
  3
*Model_Space
  1

  0
ENDBLK
  5
21
100
AcDbEntity
  8
0
100
AcDbBlockEnd
  0
BLOCK
  5
1C
100
AcDbEntity
  8
0
100
AcDbBlockBegin
  2
*Paper_Space
 70
0
 10
0.0
 20
0.0
 30
0.0
  3
*Paper_Space
  1

  0
ENDBLK
  5
1D
100
AcDbEntity
  8
0
100
AcDbBlockEnd
  0
ENDSEC
  0
SECTION
  2
ENTITIES
  0
LWPOLYLINE
  5
21B
100
AcDbEntity
  8
RACCORDO
100
AcDbPolyline
 62
7
  6
CONTINUOUS
 90
37
 70
0
 10
-21.5498554082
 20
18.4434094689
 10
-21.5815344923
 20
18.4243615628
 10
-21.6244251717
 20
18.3967061356
 10
-21.6664988698
 20
18.3674283263
 10
-21.707737971
 20
18.3365886179
 10
-21.7481335314
 20
18.3042407593
 10
-21.7876719298
 20
18.2704368543
 10
-21.8263390242
 20
18.2352281346
 10
-21.8641197337
 20
18.1986632887
 10
-21.9009889891
 20
18.1607970572
 10
-21.9369299131
 20
18.1216772215
 10
-21.9719234425
 20
18.08134928
 10
-22.0059360407
 20
18.039875286
 10
-22.0389469944
 20
17.9973027341
 10
-22.0709342665
 20
17.9536763084
 10
-22.101860195
 20
17.9090647173
 10
-22.1317012585
 20
17.8635155888
 10
-22.1604338227
 20
17.8170749462
 10
-22.188019037
 20
17.7698156298
 10
-22.2144320623
 20
17.7217851744
 10
-22.2396483806
 20
17.6730319706
 10
-22.2636285774
 20
17.6236324025
 10
-22.2863477087
 20
17.5736348674
 10
-22.3077811109
 20
17.5230883344
 10
-22.3278907589
 20
17.4720699614
 10
-22.3466527032
 20
17.4206279884
 10
-22.3640413883
 20
17.3688111843
 10
-22.3800217026
 20
17.3166951794
 10
-22.3945698191
 20
17.2643269775
 10
-22.407658983
 20
17.2117536865
 10
-22.4192577693
 20
17.1590455848
 10
-22.4293404303
 20
17.1062489449
 10
-22.4378786074
 20
17.0534092342
 10
-22.4448424984
 20
17.0005843705
 10
-22.4502020334
 20
16.9478184001
 10
-22.4539265855
 20
16.8951553502
 10
-22.4555644991
 20
16.8577394272
  0
LINE
  5
21C
100
AcDbEntity
  8
RACCORDO
100
AcDbLine
 62
7
  6
CONTINUOUS
 10
-21.5498658791
 20
18.4434035015
 11
-16.9417822335
 21
21.130338335
  0
LINE
  5
21D
100
AcDbEntity
  8
RACCORDO
100
AcDbLine
 62
253
  6
CONTINUOUS
 10
-16.9417822335
 20
20.9855041585
 11
-21.3165118315
 21
18.4346361084
  0
LINE
  5
21E
100
AcDbEntity
  8
RACCORDO
100
AcDbLine
 62
7
  6
CONTINUOUS
 10
-20.5395394496
 20
18.0971942535
 11
-18.6689706409
 21
19.1525432847
  0
LINE
  5
21F
100
AcDbEntity
  8
RACCORDO
100
AcDbLine
 62
253
  6
CONTINUOUS
 10
-20.4259471226
 20
18.0910411739
 11
-18.5530828094
 21
19.1476852969
  0
LINE
  5
220
100
AcDbEntity
  8
DRAFT
100
AcDbLine
 62
7
  6
CONTINUOUS
 10
-20.6684929315
 20
18.1106266583
 11
-18.7720027539
 21
19.1631398143
  0
LINE
  5
221
100
AcDbEntity
  8
RACCORDO
100
AcDbLine
 62
7
  6
CONTINUOUS
 10
-15.9257175983
 20
23.3147437396
 11
-17.5088892932
 21
22.5025466923
  0
LINE
  5
222
100
AcDbEntity
  8
RACCORDO
100
AcDbLine
 62
253
  6
CONTINUOUS
 10
-15.8130470239
 20
23.3080828145
 11
-17.3958036271
 21
22.4960987172
  0
LINE
  5
223
100
AcDbEntity
  8
RACCORDO
100
AcDbLine
 62
253
  6
CONTINUOUS
 10
-14.5579265041
 20
22.6805225546
 11
-16.1592072949
 21
21.8778005511
  0
LINE
  5
224
100
AcDbEntity
  8
RACCORDO
100
AcDbLine
 62
253
  6
CONTINUOUS
 10
-14.3811528004
 20
22.3756330158
 11
-15.9824335912
 21
21.5729110123
  0
LINE
  5
225
100
AcDbEntity
  8
RACCORDO
100
AcDbLine
 62
7
  6
CONTINUOUS
 10
-15.9239792127
 20
23.3156129724
 11
-15.9257156245
 21
23.3147447521
  0
LINE
  5
226
100
AcDbEntity
  8
RACCORDO
100
AcDbLine
 62
253
  6
CONTINUOUS
 10
-14.0296593323
 20
22.9439613746
 11
-14.5579265041
 21
22.6805225546
  0
LINE
  5
227
100
AcDbEntity
  8
RACCORDO
100
AcDbLine
 62
253
  6
CONTINUOUS
 10
-13.8528856287
 20
22.6390718358
 11
-14.3811528004
 21
22.3756330158
  0
LINE
  5
228
100
AcDbEntity
  8
RACCORDO
100
AcDbLine
 62
7
  6
CONTINUOUS
 10
-15.3891092563
 20
23.5761650721
 11
-15.9239764472
 21
23.3156143196
  0
LINE
  5
229
100
AcDbEntity
  8
RACCORDO
100
AcDbLine
 62
253
  6
CONTINUOUS
 10
-15.2785971452
 20
23.5684302811
 11
-15.8130470239
 21
23.3080828145
  0
LWPOLYLINE
  5
22A
100
AcDbEntity
  8
RACCORDO
100
AcDbPolyline
 62
7
  6
CONTINUOUS
 90
24
 70
0
 10
-7.1616093522
 20
-26.9832178757
 10
-7.1387579239
 20
-26.9942414227
 10
-7.1063734916
 20
-27.008520693
 10
-7.073310027
 20
-27.0215533741
 10
-7.0395969574
 20
-27.0333128602
 10
-7.0052418696
 20
-27.0437791317
 10
-6.9702846184
 20
-27.0529218887
 10
-6.9347683491
 20
-27.0607137435
 10
-6.8987026455
 20
-27.0671350345
 10
-6.8621258173
 20
-27.0721594067
 10
-6.8250840789
 20
-27.075761924
 10
-6.787594922
 20
-27.0779229805
 10
-6.7497012763
 20
-27.0786210644
 10
-6.7114432894
 20
-27.077836259
 10
-6.6728288222
 20
-27.0755483364
 10
-6.6338983845
 20
-27.0717390846
 10
-6.5946904982
 20
-27.0663913167
 10
-6.5552041103
 20
-27.0594809226
 10
-6.5154719748
 20
-27.0509879109
 10
-6.4755330828
 20
-27.0408952277
 10
-6.4353892483
 20
-27.0291748851
 10
-6.3950631396
 20
-27.0158018964
 10
-6.354604909
 20
-27.0007626077
 10
-6.3270404678
 20
-26.9895766329
  0
LINE
  5
22B
100
AcDbEntity
  8
RACCORDO
100
AcDbLine
 62
7
  6
CONTINUOUS
 10
-21.9246613761
 20
-19.6016918811
 11
-7.1615244776
 21
-26.9832603303
  0
LINE
  5
22C
100
AcDbEntity
  8
RACCORDO
100
AcDbLine
 62
7
  6
CONTINUOUS
 10
-7.1616117481
 20
-26.9832166859
 11
-7.1615248219
 21
-26.9832601582
  0
LINE
  5
22D
100
AcDbEntity
  8
RACCORDO
100
AcDbLine
 62
253
  6
CONTINUOUS
 10
-22.3090821734
 20
-18.8454900319
 11
-7.5549977251
 21
-26.2225322561
  0
LINE
  5
22E
100
AcDbEntity
  8
RACCORDO
100
AcDbLine
 62
253
  6
CONTINUOUS
 10
-14.3811528004
 20
21.6485881633
 11
-13.8528856287
 21
22.291540319
  0
LINE
  5
22F
100
AcDbEntity
  8
RACCORDO
100
AcDbLine
 62
7
  6
CONTINUOUS
 10
-14.3811528004
 20
21.559057697
 11
-13.8375250563
 21
22.2207051525
  0
LINE
  5
230
100
AcDbEntity
  8
RACCORDO
100
AcDbLine
 62
7
  6
CONTINUOUS
 10
-14.3811528004
 20
20.7301810846
 11
-15.2712129831
 21
20.2335001633
  0
LINE
  5
231
100
AcDbEntity
  8
RACCORDO
100
AcDbLine
 62
7
  6
CONTINUOUS
 10
-11.976977743
 20
20.4256862719
 11
-11.6234363538
 21
20.6070596968
  0
LINE
  5
232
100
AcDbEntity
  8
RACCORDO
100
AcDbLine
 62
7
  6
CONTINUOUS
 10
-6.7371877042
 20
23.9097940963
 11
-12.9731100654
 21
20.7257088091
  0
LINE
  5
233
100
AcDbEntity
  8
ASSI
100
AcDbLine
 62
7
  6
CONTINUOUS
 10
-11.6234363538
 20
20.6070596968
 11
-6.2872129478
 21
23.2065031623
  0
LINE
  5
234
100
AcDbEntity
  8
RACCORDO
100
AcDbLine
 62
253
  6
CONTINUOUS
 10
-0.5062451338
 20
-25.6813840678
 11
-1.0345123055
 21
-25.5728817907
  0
LINE
  5
235
100
AcDbEntity
  8
RACCORDO
100
AcDbLine
 62
253
  6
CONTINUOUS
 10
-0.5956589291
 20
-25.3618172618
 11
-1.0345123055
 21
-25.2716799351
  0
LINE
  5
236
100
AcDbEntity
  8
RACCORDO
100
AcDbLine
 62
7
  6
CONTINUOUS
 10
-4.1599380917
 20
-26.596368803
 11
-2.9233417596
 21
-27.2146669691
  0
LINE
  5
237
100
AcDbEntity
  8
RACCORDO
100
AcDbLine
 62
253
  6
CONTINUOUS
 10
-4.2249113882
 20
-26.4611503529
 11
-2.988315056
 21
-27.079448519
  0
LINE
  5
238
100
AcDbEntity
  8
RACCORDO
100
AcDbLine
 62
253
  6
CONTINUOUS
 10
-2.988315056
 20
-26.7394745848
 11
-4.2249113882
 21
-26.1211764188
  0
LINE
  5
239
100
AcDbEntity
  8
RACCORDO
100
AcDbLine
 62
253
  6
CONTINUOUS
 10
-2.8999267083
 20
-26.507780411
 11
-3.9401625778
 21
-25.9876624763
  0
LINE
  5
23A
100
AcDbEntity
  8
RACCORDO
100
AcDbLine
 62
7
  6
CONTINUOUS
 10
-2.7917987177
 20
-25.5056259728
 11
-2.2776086762
 21
-25.7627209935
  0
LWPOLYLINE
  5
23B
100
AcDbEntity
  8
RACCORDO
100
AcDbPolyline
 62
7
  6
CONTINUOUS
 90
5
 70
0
 10
-20.3547971491
 20
-12.2179704217
 10
-20.3487503823
 20
-12.2889560229
 10
-20.3290305434
 20
-12.3600610667
 10
-20.2990975069
 20
-12.4225248205
 10
-20.2596524155
 20
-12.478280601
  0
LWPOLYLINE
  5
23C
100
AcDbEntity
  8
RACCORDO
100
AcDbPolyline
 62
7
  6
CONTINUOUS
 90
27
 70
0
 10
-22.4555458437
 20
-18.6678429052
 10
-22.4537875168
 20
-18.7059322273
 10
-22.4498847988
 20
-18.7569781331
 10
-22.4442545728
 20
-18.8071163832
 10
-22.4369067345
 20
-18.8563403563
 10
-22.4278587884
 20
-18.9045935878
 10
-22.4171436459
 20
-18.951763617
 10
-22.4047822556
 20
-18.9978272514
 10
-22.3907980038
 20
-19.0427512051
 10
-22.3752478942
 20
-19.0864101807
 10
-22.3581669263
 20
-19.1287769068
 10
-22.3395915041
 20
-19.1698239566
 10
-22.319607606
 20
-19.2094296
 10
-22.2982848955
 20
-19.2475401651
 10
-22.2756632214
 20
-19.2841640461
 10
-22.2518034512
 20
-19.3192715518
 10
-22.2267890853
 20
-19.3528107329
 10
-22.2006647969
 20
-19.38479211
 10
-22.1734328627
 20
-19.4152656943
 10
-22.1451569887
 20
-19.444201558
 10
-22.1158991133
 20
-19.471579126
 10
-22.0856488305
 20
-19.4974415497
 10
-22.0544699164
 20
-19.5217581983
 10
-22.0224244831
 20
-19.5445047873
 10
-21.9894902095
 20
-19.5657149259
 10
-21.9556989898
 20
-19.5853755782
 10
-21.9245320391
 20
-19.6017565221
  0
LWPOLYLINE
  5
23D
100
AcDbEntity
  8
RACCORDO
100
AcDbPolyline
 62
7
  6
CONTINUOUS
 90
22
 70
0
 10
-22.4555644005
 20
16.8577479499
 10
-22.5082601572
 20
15.1511770693
 10
-22.5560682162
 20
13.4340853899
 10
-22.5985660635
 20
11.7195168078
 10
-22.6357528816
 20
10.0075007079
 10
-22.6676281361
 20
8.2980626154
 10
-22.6941913636
 20
6.5912265087
 10
-22.7154421084
 20
4.8870176257
 10
-22.7313800466
 20
3.1854621677
 10
-22.7420048936
 20
1.4865855667
 10
-22.7473163957
 20
-0.2095865653
 10
-22.7473144615
 20
-1.9030278227
 10
-22.7419990494
 20
-3.5937115845
 10
-22.7313701683
 20
-5.2816114947
 10
-22.7154279894
 20
-6.9667021622
 10
-22.694172714
 20
-8.6489584151
 10
-22.6676045832
 20
-10.3283543471
 10
-22.6357239701
 20
-12.0048651529
 10
-22.5985312543
 20
-13.678467303
 10
-22.5560268877
 20
-15.34913578
 10
-22.5082116051
 20
-17.01684199
 10
-22.4555459153
 20
-18.6678440971
  0
LINE
  5
23E
100
AcDbEntity
  8
DRAFT
100
AcDbLine
 62
7
  6
CONTINUOUS
 10
-13.3912033067
 20
17.3004826651
 11
-14.0867022476
 21
16.914495016
  0
LINE
  5
23F
100
AcDbEntity
  8
ASSI
100
AcDbLine
 62
7
  6
CONTINUOUS
 10
-10.2799334695
 20
20.6373766474
 11
-5.7218108413
 21
22.923802109
  0
LINE
  5
240
100
AcDbEntity
  8
RACCORDO
100
AcDbLine
 62
7
  6
CONTINUOUS
 10
-9.0191828301
 20
20.0070013277
 11
-5.6506673864
 21
21.6845941533
  0
LINE
  5
241
100
AcDbEntity
  8
RACCORDO
100
AcDbLine
 62
7
  6
CONTINUOUS
 10
-3.6118397523
 20
22.3471201204
 11
-8.6656294395
 21
19.8302246324
  0
LINE
  5
242
100
AcDbEntity
  8
DRAFT
100
AcDbLine
 62
7
  6
CONTINUOUS
 10
-4.1260097979
 20
21.5356936038
 11
-8.1091696129
 21
19.5519947191
  0
LINE
  5
243
100
AcDbEntity
  8
DRAFT
100
AcDbLine
 62
7
  6
CONTINUOUS
 10
7.4624203388
 20
27.2410601713
 11
-3.004635132
 21
22.2089927692
  0
LINE
  5
244
100
AcDbEntity
  8
RACCORDO
100
AcDbLine
 62
253
  6
CONTINUOUS
 10
-1.0345123055
 20
-25.1423905736
 11
-0.5956589291
 21
-25.3618172618
  0
LINE
  5
245
100
AcDbEntity
  8
RACCORDO
100
AcDbLine
 62
7
  6
CONTINUOUS
 10
-1.0345123055
 20
-25.138770424
 11
-0.5722438779
 21
-25.3699046379
  0
LINE
  5
246
100
AcDbEntity
  8
RACCORDO
100
AcDbLine
 62
7
  6
CONTINUOUS
 10
-8.9187171023
 20
-20.9054651779
 11
-21.222375095
 21
-14.7536361816
  0
LINE
  5
247
100
AcDbEntity
  8
RACCORDO
100
AcDbLine
 62
7
  6
CONTINUOUS
 10
-8.7064894867
 20
-20.7993513701
 11
-21.0101474793
 21
-14.6475223737
  0
LINE
  5
248
100
AcDbEntity
  8
RACCORDO
100
AcDbLine
 62
7
  6
CONTINUOUS
 10
-8.9250202046
 20
-20.6488091079
 11
-21.2286781972
 21
-14.4969801116
  0
LINE
  5
249
100
AcDbEntity
  8
RACCORDO
100
AcDbLine
 62
7
  6
CONTINUOUS
 10
-9.0890774149
 20
-19.3820744226
 11
-21.1200799572
 21
-13.3665731514
  0
LWPOLYLINE
  5
24A
100
AcDbEntity
  8
RACCORDO
100
AcDbPolyline
 62
7
  6
CONTINUOUS
 90
4
 70
0
 10
-20.2596524155
 20
-12.478280601
 10
-20.2081408443
 20
-12.5289673459
 10
-20.1494538713
 20
-12.5680577979
 10
-20.1413610715
 20
-12.5722445282
  0
LINE
  5
24B
100
AcDbEntity
  8
RACCORDO
100
AcDbLine
 62
7
  6
CONTINUOUS
 10
-19.8258750155
 20
-1.3867417756
 11
-19.8258750155
 21
-11.720151817
  0
LINE
  5
24C
100
AcDbEntity
  8
DRAFT
100
AcDbLine
 62
7
  6
CONTINUOUS
 10
-19.7557814202
 20
-1.3792884993
 11
-19.7557814202
 21
-11.6803874628
  0
LINE
  5
24D
100
AcDbEntity
  8
DRAFT
100
AcDbLine
 62
7
  6
CONTINUOUS
 10
-18.7720027539
 20
19.1631398143
 11
-18.7720027539
 21
19.0944139926
  0
LINE
  5
24E
100
AcDbEntity
  8
DRAFT
100
AcDbLine
 62
7
  6
CONTINUOUS
 10
-21.6287421033
 20
12.1271034183
 11
-21.8085259716
 21
12.0368619213
  0
LINE
  5
24F
100
AcDbEntity
  8
ASSI
100
AcDbLine
 62
7
  6
CONTINUOUS
 10
-5.3301860012
 20
18.1625029133
 11
-0.6918067167
 21
20.4088000467
  0
LWPOLYLINE
  5
250
100
AcDbEntity
  8
RACCORDO
100
AcDbPolyline
 62
7
  6
CONTINUOUS
 90
6
 70
0
 10
-10.4422775569
 20
-17.4217332604
 10
-10.3793259046
 20
-17.4453009864
 10
-10.3126096807
 20
-17.4561134932
 10
-10.2471929973
 20
-17.4535149279
 10
-10.1849880473
 20
-17.4384841632
 10
-10.1640154352
 20
-17.4303530528
  0
LINE
  5
251
100
AcDbEntity
  8
RACCORDO
100
AcDbLine
 62
253
  6
CONTINUOUS
 10
-10.5231886145
 20
-17.2580531733
 11
-20.2190159736
 21
-12.4101394938
  0
LINE
  5
252
100
AcDbEntity
  8
RACCORDO
100
AcDbLine
 62
253
  6
CONTINUOUS
 10
-20.2190159736
 20
-12.2930163935
 11
-10.5231886145
 21
-17.1409300731
  0
LINE
  5
253
100
AcDbEntity
  8
DRAFT
100
AcDbLine
 62
7
  6
CONTINUOUS
 10
-0.6632812454
 20
-21.9389051394
 11
-0.6756238402
 21
-21.932733842
  0
LINE
  5
254
100
AcDbEntity
  8
DRAFT
100
AcDbLine
 62
7
  6
CONTINUOUS
 10
-9.6683624707
 20
-17.2168874584
 11
-9.2710168486
 21
-17.4155602694
  0
LINE
  5
255
100
AcDbEntity
  8
RACCORDO
100
AcDbLine
 62
253
  6
CONTINUOUS
 10
-20.0253724643
 20
-11.9373756642
 11
-10.3295431587
 21
-16.785290317
  0
LINE
  5
256
100
AcDbEntity
  8
DRAFT
100
AcDbLine
 62
7
  6
CONTINUOUS
 10
0.0438255358
 20
-21.7477216943
 11
-0.1290086611
 21
-21.6613045959
  0
LINE
  5
257
100
AcDbEntity
  8
DRAFT
100
AcDbLine
 62
7
  6
CONTINUOUS
 10
-9.2825673053
 20
-17.0507334517
 11
-9.2775648429
 21
-17.0532346829
  0
LINE
  5
258
100
AcDbEntity
  8
RACCORDO
100
AcDbLine
 62
7
  6
CONTINUOUS
 10
-10.4452206588
 20
-17.4203153135
 11
-20.1413610593
 21
-12.5722445036
  0
LINE
  5
259
100
AcDbEntity
  8
RACCORDO
100
AcDbLine
 62
7
  6
CONTINUOUS
 10
-17.6447751878
 20
22.2801102498
 11
-17.6447751878
 21
21.9401363157
  0
LINE
  5
25A
100
AcDbEntity
  8
RACCORDO
100
AcDbLine
 62
253
  6
CONTINUOUS
 10
-17.5715518831
 20
22.1917219022
 11
-17.5715518831
 21
21.8517479681
  0
LINE
  5
25B
100
AcDbEntity
  8
RACCORDO
100
AcDbLine
 62
7
  6
CONTINUOUS
 10
-16.9417822335
 20
20.9368768394
 11
-16.9417822335
 21
21.4341313414
  0
LINE
  5
25C
100
AcDbEntity
  8
RACCORDO
100
AcDbLine
 62
253
  6
CONTINUOUS
 10
-16.8685589288
 20
20.8451442747
 11
-16.8685589288
 21
21.397519689
  0
LINE
  5
25D
100
AcDbEntity
  8
RACCORDO
100
AcDbLine
 62
253
  6
CONTINUOUS
 10
-16.3349555509
 20
21.233449802
 11
-16.3349555509
 21
21.5734237361
  0
LINE
  5
25E
100
AcDbEntity
  8
DRAFT
100
AcDbLine
 62
7
  6
CONTINUOUS
 10
-9.1485626196
 20
15.1791623215
 11
-9.8320275253
 21
14.7871576548
  0
LINE
  5
25F
100
AcDbEntity
  8
RACCORDO
100
AcDbLine
 62
7
  6
CONTINUOUS
 10
-5.4008966793
 20
16.2400530241
 11
-5.7585758286
 21
16.0404570722
  0
LINE
  5
260
100
AcDbEntity
  8
DRAFT
100
AcDbLine
 62
7
  6
CONTINUOUS
 10
1.4817004394
 20
20.0462209927
 11
10.3662357584
 21
24.9083654542
  0
LINE
  5
261
100
AcDbEntity
  8
DRAFT
100
AcDbLine
 62
7
  6
CONTINUOUS
 10
-0.1550009656
 20
20.2643519129
 11
10.3662357584
 21
25.7891524615
  0
LINE
  5
262
100
AcDbEntity
  8
DRAFT
100
AcDbLine
 62
7
  6
CONTINUOUS
 10
8.3876855538
 20
22.9743157134
 11
2.1291772849
 21
19.7224825699
  0
LINE
  5
263
100
AcDbEntity
  8
RACCORDO
100
AcDbLine
 62
7
  6
CONTINUOUS
 10
-5.7585758286
 20
17.3164853147
 11
-5.4008966793
 21
17.4957898596
  0
LINE
  5
264
100
AcDbEntity
  8
ASSI
100
AcDbLine
 62
7
  6
CONTINUOUS
 10
-5.4008966793
 20
17.4957898596
 11
-0.1264046102
 21
20.1260989934
  0
LINE
  5
265
100
AcDbEntity
  8
RACCORDO
100
AcDbLine
 62
7
  6
CONTINUOUS
 10
-5.4008966793
 20
16.2400530241
 11
-0.0558684321
 21
18.8863826161
  0
LINE
  5
266
100
AcDbEntity
  8
RACCORDO
100
AcDbLine
 62
7
  6
CONTINUOUS
 10
0.7419835278
 20
20.1702084803
 11
0.0593812633
 21
19.8420454537
  0
LINE
  5
267
100
AcDbEntity
  8
RACCORDO
100
AcDbLine
 62
7
  6
CONTINUOUS
 10
-18.8704162012
 20
-11.3200729218
 11
-9.3262039747
 21
-16.0921790351
  0
LINE
  5
268
100
AcDbEntity
  8
RACCORDO
100
AcDbLine
 62
253
  6
CONTINUOUS
 10
-15.9824335912
 20
21.2329370781
 11
-15.9824335912
 21
21.5729110123
  0
LINE
  5
269
100
AcDbEntity
  8
RACCORDO
100
AcDbLine
 62
253
  6
CONTINUOUS
 10
-15.6237349428
 20
20.9548541748
 11
-15.6237349428
 21
20.2227322817
  0
LINE
  5
26A
100
AcDbEntity
  8
RACCORDO
100
AcDbLine
 62
253
  6
CONTINUOUS
 10
-15.2712129831
 20
21.0844335553
 11
-15.2712129831
 21
20.2335001633
  0
LINE
  5
26B
100
AcDbEntity
  8
RACCORDO
100
AcDbLine
 62
7
  6
CONTINUOUS
 10
-14.3811528004
 20
20.7301810846
 11
-14.3811528004
 21
22.3756330158
  0
LINE
  5
26C
100
AcDbEntity
  8
RACCORDO
100
AcDbLine
 62
7
  6
CONTINUOUS
 10
-20.3305455789
 20
-12.3545982094
 11
-20.4318091251
 21
-12.6284194543
  0
LINE
  5
26D
100
AcDbEntity
  8
RACCORDO
100
AcDbLine
 62
7
  6
CONTINUOUS
 10
-2.5790771034
 20
16.6414234921
 11
-4.1622487983
 21
15.8292264449
  0
LINE
  5
26E
100
AcDbEntity
  8
RACCORDO
100
AcDbLine
 62
253
  6
CONTINUOUS
 10
-2.466406529
 20
16.634762567
 11
-4.0491631322
 21
15.8227784697
  0
LINE
  5
26F
100
AcDbEntity
  8
RACCORDO
100
AcDbLine
 62
253
  6
CONTINUOUS
 10
-1.2112860092
 20
16.0072023071
 11
-2.8125668
 21
15.2044803036
  0
LINE
  5
270
100
AcDbEntity
  8
RACCORDO
100
AcDbLine
 62
253
  6
CONTINUOUS
 10
-1.0345123055
 20
15.7023127683
 11
-2.6357930963
 21
14.8995907648
  0
LINE
  5
271
100
AcDbEntity
  8
RACCORDO
100
AcDbLine
 62
253
  6
CONTINUOUS
 10
-21.8764776085
 20
7.1356330812
 11
-21.6643031095
 21
7.2417203307
  0
LINE
  5
272
100
AcDbEntity
  8
RACCORDO
100
AcDbLine
 62
7
  6
CONTINUOUS
 10
-21.5288229945
 20
7.3027919577
 11
-21.3166451465
 21
7.4088808817
  0
LINE
  5
273
100
AcDbEntity
  8
RACCORDO
100
AcDbLine
 62
253
  6
CONTINUOUS
 10
-21.3035428147
 20
7.2894277551
 11
-21.0913639617
 21
7.3955171816
  0
LINE
  5
274
100
AcDbEntity
  8
RACCORDO
100
AcDbLine
 62
7
  6
CONTINUOUS
 10
-2.5773387178
 20
16.6422927249
 11
-2.5790751297
 21
16.6414245047
  0
LINE
  5
275
100
AcDbEntity
  8
RACCORDO
100
AcDbLine
 62
253
  6
CONTINUOUS
 10
-0.6830188374
 20
16.2706411272
 11
-1.2112860092
 21
16.0072023071
  0
LINE
  5
276
100
AcDbEntity
  8
RACCORDO
100
AcDbLine
 62
253
  6
CONTINUOUS
 10
-0.5062451338
 20
15.9657515883
 11
-1.0345123055
 21
15.7023127683
  0
LINE
  5
277
100
AcDbEntity
  8
DRAFT
100
AcDbLine
 62
7
  6
CONTINUOUS
 10
8.1462245798
 20
20.5771726032
 11
4.2753520463
 21
18.6493951892
  0
LINE
  5
278
100
AcDbEntity
  8
DRAFT
100
AcDbLine
 62
7
  6
CONTINUOUS
 10
8.3259772799
 20
20.4872962532
 11
4.4551047463
 21
18.5595188392
  0
LINE
  5
279
100
AcDbEntity
  8
RACCORDO
100
AcDbLine
 62
7
  6
CONTINUOUS
 10
-2.0424687614
 20
16.9028448247
 11
-2.5773359523
 21
16.6422940721
  0
LINE
  5
27A
100
AcDbEntity
  8
RACCORDO
100
AcDbLine
 62
253
  6
CONTINUOUS
 10
-1.9319566503
 20
16.8951100336
 11
-2.466406529
 21
16.634762567
  0
LINE
  5
27B
100
AcDbEntity
  8
RACCORDO
100
AcDbLine
 62
7
  6
CONTINUOUS
 10
3.8673314797
 20
18.6075345044
 11
-0.8288166914
 21
16.405517425
  0
LINE
  5
27C
100
AcDbEntity
  8
RACCORDO
100
AcDbLine
 62
253
  6
CONTINUOUS
 10
-13.8528856287
 20
22.6390718358
 11
-13.8528856287
 21
22.291540319
  0
LINE
  5
27D
100
AcDbEntity
  8
RACCORDO
100
AcDbLine
 62
7
  6
CONTINUOUS
 10
-13.7806877717
 20
22.726944468
 11
-13.7806877717
 21
22.3794129512
  0
LINE
  5
27E
100
AcDbEntity
  8
DRAFT
100
AcDbLine
 62
7
  6
CONTINUOUS
 10
-13.3912033067
 20
17.3004826651
 11
-13.3912033067
 21
16.5681632172
  0
LINE
  5
27F
100
AcDbEntity
  8
RACCORDO
100
AcDbLine
 62
7
  6
CONTINUOUS
 10
-12.121373457
 20
20.2415292708
 11
-12.121373457
 21
18.9580389679
  0
LINE
  5
280
100
AcDbEntity
  8
RACCORDO
100
AcDbLine
 62
253
  6
CONTINUOUS
 10
-11.9749268476
 20
19.8984594398
 11
-11.9749268476
 21
18.7745748588
  0
LWPOLYLINE
  5
281
100
AcDbEntity
  8
RACCORDO
100
AcDbPolyline
 62
7
  6
CONTINUOUS
 90
22
 70
0
 10
4.1754854277
 20
16.7790702496
 10
4.181537184
 20
16.7828774018
 10
4.1923673661
 20
16.7903088199
 10
4.2028406956
 20
16.7983197962
 10
4.2129257609
 20
16.8068932908
 10
4.222591024
 20
16.8160082586
 10
4.2318335799
 20
16.8256693961
 10
4.2406244548
 20
16.8358574959
 10
4.2489339038
 20
16.8465489359
 10
4.2567546388
 20
16.8577488965
 10
4.2640597805
 20
16.8694361921
 10
4.2708235541
 20
16.8815862299
 10
4.2770377044
 20
16.8942070345
 10
4.2826796412
 20
16.9072846886
 10
4.2877230464
 20
16.9207895425
 10
4.2921524861
 20
16.9347159836
 10
4.2959471635
 20
16.9490469284
 10
4.2990861396
 20
16.9637605387
 10
4.3015538296
 20
16.9788555325
 10
4.3033305892
 20
16.994325496
 10
4.3043944042
 20
17.0101490562
 10
4.3047266537
 20
17.0253718735
  0
LINE
  5
282
100
AcDbEntity
  8
RACCORDO
100
AcDbLine
 62
7
  6
CONTINUOUS
 10
-0.0845412999
 20
14.182009686
 11
4.1754889694
 21
16.7790720043
  0
LINE
  5
283
100
AcDbEntity
  8
DRAFT
100
AcDbLine
 62
7
  6
CONTINUOUS
 10
-7.1870737981
 20
11.3699170917
 11
-5.3233980911
 21
12.4388374829
  0
LINE
  5
284
100
AcDbEntity
  8
RACCORDO
100
AcDbLine
 62
253
  6
CONTINUOUS
 10
-5.5423180356
 20
12.64230291
 11
-7.4151823488
 21
11.585658787
  0
LINE
  5
285
100
AcDbEntity
  8
RACCORDO
100
AcDbLine
 62
7
  6
CONTINUOUS
 10
-1.0345123055
 20
14.0568608372
 11
-1.5188888458
 21
13.7865638494
  0
LINE
  5
286
100
AcDbEntity
  8
RACCORDO
100
AcDbLine
 62
7
  6
CONTINUOUS
 10
4.6348936338
 20
18.0755952751
 11
-0.9682689769
 21
14.9663619767
  0
LINE
  5
287
100
AcDbEntity
  8
RACCORDO
100
AcDbLine
 62
253
  6
CONTINUOUS
 10
-1.0289081061
 20
14.0540587374
 11
-1.5188888458
 21
13.7865638494
  0
LINE
  5
288
100
AcDbEntity
  8
RACCORDO
100
AcDbLine
 62
253
  6
CONTINUOUS
 10
-6.5390548981
 20
11.0459076416
 11
-1.9724894613
 21
13.5389299406
  0
LINE
  5
289
100
AcDbEntity
  8
RACCORDO
100
AcDbLine
 62
253
  6
CONTINUOUS
 10
-0.6740508871
 20
13.4450644322
 11
-6.173222158
 21
10.4429051959
  0
LINE
  5
28A
100
AcDbEntity
  8
RACCORDO
100
AcDbLine
 62
7
  6
CONTINUOUS
 10
4.6348936338
 20
17.4766342785
 11
-0.7653532223
 21
14.6218303875
  0
LINE
  5
28B
100
AcDbEntity
  8
RACCORDO
100
AcDbLine
 62
253
  6
CONTINUOUS
 10
-0.3098355649
 20
14.3940715588
 11
-1.0292849409
 21
14.0542471548
  0
LINE
  5
28C
100
AcDbEntity
  8
RACCORDO
100
AcDbLine
 62
253
  6
CONTINUOUS
 10
0.0438255358
 20
13.7841458682
 11
-0.6740508871
 21
13.4450644322
  0
LWPOLYLINE
  5
28D
100
AcDbEntity
  8
RACCORDO
100
AcDbPolyline
 62
7
  6
CONTINUOUS
 90
10
 70
0
 10
-9.3595049979
 20
-7.5692432173
 10
-9.3583858142
 20
-8.858809226
 10
-9.3540976989
 20
-10.1595678737
 10
-9.3466361858
 20
-11.4586958395
 10
-9.3360013003
 20
-12.7561793635
 10
-9.3221931179
 20
-14.052006457
 10
-9.3052117466
 20
-15.3461664457
 10
-9.2850572988
 20
-16.6386484197
 10
-9.2617299336
 20
-17.9294408242
 10
-9.2400451376
 20
-18.9954622439
  0
LINE
  5
28E
100
AcDbEntity
  8
RACCORDO
100
AcDbLine
 62
253
  6
CONTINUOUS
 10
-1.0345123055
 20
14.9752679158
 11
-0.5062451338
 21
15.6182200716
  0
LINE
  5
28F
100
AcDbEntity
  8
RACCORDO
100
AcDbLine
 62
7
  6
CONTINUOUS
 10
-1.0345123055
 20
14.8857374495
 11
-0.4908845614
 21
15.547384905
  0
LINE
  5
290
100
AcDbEntity
  8
DRAFT
100
AcDbLine
 62
7
  6
CONTINUOUS
 10
8.3259772799
 20
16.8646035962
 11
4.3310443615
 21
14.7458114111
  0
LINE
  5
291
100
AcDbEntity
  8
DRAFT
100
AcDbLine
 62
7
  6
CONTINUOUS
 10
5.1349943603
 20
14.3438364117
 11
19.8441641917
 21
21.0501882449
  0
LINE
  5
292
100
AcDbEntity
  8
RACCORDO
100
AcDbLine
 62
7
  6
CONTINUOUS
 10
-10.1417136048
 20
-6.186322407
 11
-20.0536218246
 21
-1.2303682971
  0
LINE
  5
293
100
AcDbEntity
  8
RACCORDO
100
AcDbLine
 62
253
  6
CONTINUOUS
 10
-10.2716581289
 20
-5.9144031959
 11
-20.1835663487
 21
-0.958449086
  0
LWPOLYLINE
  5
294
100
AcDbEntity
  8
RACCORDO
100
AcDbPolyline
 62
7
  6
CONTINUOUS
 90
49
 70
0
 10
-10.141706278
 20
-6.1863262267
 10
-10.1296466946
 20
-6.1924992057
 10
-10.1089704481
 20
-6.2037367689
 10
-10.0876742806
 20
-6.2161560004
 10
-10.0658029666
 20
-6.2297855388
 10
-10.0434218357
 20
-6.2446370306
 10
-10.0206140988
 20
-6.2607037367
 10
-9.9974352816
 20
-6.2779922741
 10
-9.9739404035
 20
-6.2965057555
 10
-9.950207761
 20
-6.3162238782
 10
-9.9262958361
 20
-6.3371370354
 10
-9.9022582804
 20
-6.3592359634
 10
-9.8781613415
 20
-6.382495245
 10
-9.854060632
 20
-6.4068950984
 10
-9.830009884
 20
-6.4324140608
 10
-9.8060684236
 20
-6.4590202819
 10
-9.7822861461
 20
-6.4866884201
 10
-9.7587188184
 20
-6.5153829198
 10
-9.7354306163
 20
-6.5450522627
 10
-9.7124689858
 20
-6.5756607921
 10
-9.6898857287
 20
-6.6071634571
 10
-9.6677467795
 20
-6.6394889289
 10
-9.6460977071
 20
-6.6725882491
 10
-9.6249822253
 20
-6.7064111918
 10
-9.6044578681
 20
-6.7408789962
 10
-9.5845639459
 20
-6.7759356119
 10
-9.5653379579
 20
-6.8115236431
 10
-9.5468286489
 20
-6.8475579331
 10
-9.529068008
 20
-6.8839771759
 10
-9.5120860156
 20
-6.9207190542
 10
-9.4959218521
 20
-6.9576935952
 10
-9.4805995219
 20
-6.9948354073
 10
-9.4661400539
 20
-7.0320803033
 10
-9.4525713346
 20
-7.0693378567
 10
-9.4399084571
 20
-7.1065410632
 10
-9.4281631244
 20
-7.1436255819
 10
-9.4173513627
 20
-7.1805035698
 10
-9.4074782012
 20
-7.2171110801
 10
-9.3985464868
 20
-7.2533830912
 10
-9.3905619091
 20
-7.2892294056
 10
-9.3835193732
 20
-7.3245891713
 10
-9.3774115183
 20
-7.3593998193
 10
-9.3722326629
 20
-7.3935683532
 10
-9.3679669478
 20
-7.4270385176
 10
-9.3645956293
 20
-7.459755735
 10
-9.3620998107
 20
-7.4916307357
 10
-9.3604531116
 20
-7.5225999241
 10
-9.3596241968
 20
-7.5526256747
 10
-9.3595050919
 20
-7.5692373271
  0
LINE
  5
295
100
AcDbEntity
  8
DRAFT
100
AcDbLine
 62
7
  6
CONTINUOUS
 10
-0.6756238402
 20
8.0317451289
 11
0.0438255358
 21
8.4548946273
  0
LINE
  5
296
100
AcDbEntity
  8
RACCORDO
100
AcDbLine
 62
7
  6
CONTINUOUS
 10
-8.3930808946
 20
5.4381516693
 11
-8.302382134
 21
5.4835010496
  0
LINE
  5
297
100
AcDbEntity
  8
DRAFT
100
AcDbLine
 62
7
  6
CONTINUOUS
 10
22.7479796113
 20
19.5982805351
 11
-0.6632812454
 21
7.9389712912
  0
LINE
  5
298
100
AcDbEntity
  8
RACCORDO
100
AcDbLine
 62
7
  6
CONTINUOUS
 10
-20.2770582927
 20
-1.1876788588
 11
-20.2772195813
 21
-1.1877564413
  0
LINE
  5
299
100
AcDbEntity
  8
RACCORDO
100
AcDbLine
 62
253
  6
CONTINUOUS
 10
-20.542233689
 20
-1.7311417813
 11
-19.8258750155
 21
-1.3867417756
  0
LWPOLYLINE
  5
29A
100
AcDbEntity
  8
RACCORDO
100
AcDbPolyline
 62
7
  6
CONTINUOUS
 90
22
 70
0
 10
-20.2772186504
 20
-1.1877563719
 10
-20.2757324871
 20
-1.1870598698
 10
-20.2716527598
 20
-1.1853702201
 10
-20.2670897821
 20
-1.1838205117
 10
-20.2620203994
 20
-1.1824468083
 10
-20.2563097893
 20
-1.181258788
 10
-20.2497022852
 20
-1.1802729945
 10
-20.2421059701
 20
-1.1795635116
 10
-20.2335481429
 20
-1.1792178434
 10
-20.2239703012
 20
-1.1793137065
 10
-20.2133534607
 20
-1.1799317718
 10
-20.2017499738
 20
-1.1811451839
 10
-20.1892228053
 20
-1.1830141498
 10
-20.1758051012
 20
-1.1855932781
 10
-20.1615566924
 20
-1.1889264571
 10
-20.1465800095
 20
-1.1930371542
 10
-20.1309317904
 20
-1.1979491719
 10
-20.1146656922
 20
-1.2036815165
 10
-20.0978669495
 20
-1.2102353258
 10
-20.0805974523
 20
-1.2176117802
 10
-20.0629055567
 20
-1.2258123679
 10
-20.053642898
 20
-1.2303578993
  0
LINE
  5
29B
100
AcDbEntity
  8
DRAFT
100
AcDbLine
 62
7
  6
CONTINUOUS
 10
7.9582309863
 20
-6.4671226782
 11
1.6498074021
 21
-7.9448211092
  0
LINE
  5
29C
100
AcDbEntity
  8
DRAFT
100
AcDbLine
 62
7
  6
CONTINUOUS
 10
6.9936540989
 20
-5.9848342345
 11
1.6498074021
 21
-7.1686977881
  0
LINE
  5
29D
100
AcDbEntity
  8
RACCORDO
100
AcDbLine
 62
253
  6
CONTINUOUS
 10
-6.4636197479
 20
16.0189213089
 11
-6.4636197479
 21
17.1428058899
  0
LINE
  5
29E
100
AcDbEntity
  8
RACCORDO
100
AcDbLine
 62
253
  6
CONTINUOUS
 10
-5.7585758286
 20
16.0404570722
 11
-5.7585758286
 21
17.3164853147
  0
LINE
  5
29F
100
AcDbEntity
  8
ASSI
100
AcDbLine
 62
253
  6
CONTINUOUS
 10
-5.6506673864
 20
21.6845941533
 11
-5.6506673864
 21
22.9504619491
  0
LINE
  5
2A0
100
AcDbEntity
  8
RACCORDO
100
AcDbLine
 62
7
  6
CONTINUOUS
 10
-5.5362325549
 20
21.8223498721
 11
-5.5362325549
 21
22.944940844
  0
LINE
  5
2A1
100
AcDbEntity
  8
DRAFT
100
AcDbLine
 62
7
  6
CONTINUOUS
 10
-5.4008966793
 20
17.4957898596
 11
-5.4008966793
 21
16.2400530241
  0
LINE
  5
2A2
100
AcDbEntity
  8
RACCORDO
100
AcDbLine
 62
253
  6
CONTINUOUS
 10
-8.9998848221
 20
1.1375987588
 11
-8.787705969
 21
1.2436881853
  0
LINE
  5
2A3
100
AcDbEntity
  8
RACCORDO
100
AcDbLine
 62
7
  6
CONTINUOUS
 10
-4.2981346929
 20
15.6067900024
 11
-4.2981346929
 21
15.2668160683
  0
LINE
  5
2A4
100
AcDbEntity
  8
RACCORDO
100
AcDbLine
 62
7
  6
CONTINUOUS
 10
-4.2981346929
 20
-26.1379246298
 11
-4.2981346929
 21
-26.3727620052
  0
LINE
  5
2A5
100
AcDbEntity
  8
RACCORDO
100
AcDbLine
 62
253
  6
CONTINUOUS
 10
-4.2249113882
 20
15.5184016547
 11
-4.2249113882
 21
15.1784277206
  0
LINE
  5
2A6
100
AcDbEntity
  8
RACCORDO
100
AcDbLine
 62
253
  6
CONTINUOUS
 10
-4.2249113882
 20
-26.1211764188
 11
-4.2249113882
 21
-26.4611503529
  0
LINE
  5
2A7
100
AcDbEntity
  8
RACCORDO
100
AcDbLine
 62
7
  6
CONTINUOUS
 10
-3.5951417386
 20
14.2635376308
 11
-3.5951417386
 21
14.7608110939
  0
LINE
  5
2A8
100
AcDbEntity
  8
RACCORDO
100
AcDbLine
 62
253
  6
CONTINUOUS
 10
-3.5219184339
 20
14.1718240272
 11
-3.5219184339
 21
14.7241994416
  0
LINE
  5
2A9
100
AcDbEntity
  8
RACCORDO
100
AcDbLine
 62
253
  6
CONTINUOUS
 10
-2.988315056
 20
-27.079448519
 11
-2.988315056
 21
-26.7394745848
  0
LINE
  5
2AA
100
AcDbEntity
  8
RACCORDO
100
AcDbLine
 62
253
  6
CONTINUOUS
 10
-2.988315056
 20
14.5601295545
 11
-2.988315056
 21
14.9001034887
  0
LINE
  5
2AB
100
AcDbEntity
  8
RACCORDO
100
AcDbLine
 62
7
  6
CONTINUOUS
 10
-2.917020541
 20
21.6071552528
 11
-2.917020541
 21
21.8346542753
  0
LINE
  5
2AC
100
AcDbEntity
  8
RACCORDO
100
AcDbLine
 62
253
  6
CONTINUOUS
 10
-2.6357930963
 20
-27.0799612428
 11
-2.6357930963
 21
-26.7399873087
  0
LINE
  5
2AD
100
AcDbEntity
  8
RACCORDO
100
AcDbLine
 62
253
  6
CONTINUOUS
 10
-2.6357930963
 20
14.5596168307
 11
-2.6357930963
 21
14.8995907648
  0
LINE
  5
2AE
100
AcDbEntity
  8
RACCORDO
100
AcDbLine
 62
253
  6
CONTINUOUS
 10
-2.2770944479
 20
14.2815339274
 11
-2.2770944479
 21
13.5494120342
  0
LINE
  5
2AF
100
AcDbEntity
  8
RACCORDO
100
AcDbLine
 62
253
  6
CONTINUOUS
 10
-2.2770944479
 20
-25.2895740269
 11
-2.2770944479
 21
-25.7629781077
  0
LINE
  5
2B0
100
AcDbEntity
  8
RACCORDO
100
AcDbLine
 62
253
  6
CONTINUOUS
 10
-8.6535808003
 20
0.5241846771
 11
-8.4601104494
 21
0.6209198526
  0
LINE
  5
2B1
100
AcDbEntity
  8
RACCORDO
100
AcDbLine
 62
7
  6
CONTINUOUS
 10
-8.9998848221
 20
1.1375987588
 11
-21.3035428147
 21
7.2894277551
  0
LINE
  5
2B2
100
AcDbEntity
  8
RACCORDO
100
AcDbLine
 62
7
  6
CONTINUOUS
 10
-21.0913639617
 20
7.3955171816
 11
-8.787705969
 21
1.2436881853
  0
LINE
  5
2B3
100
AcDbEntity
  8
RACCORDO
100
AcDbLine
 62
7
  6
CONTINUOUS
 10
-8.9953653842
 20
1.3996660988
 11
-21.2990233768
 21
7.5514950951
  0
LINE
  5
2B4
100
AcDbEntity
  8
DRAFT
100
AcDbLine
 62
7
  6
CONTINUOUS
 10
7.9582309863
 20
-6.4671226782
 11
6.9936540989
 21
-5.9848342345
  0
LINE
  5
2B5
100
AcDbEntity
  8
RACCORDO
100
AcDbLine
 62
253
  6
CONTINUOUS
 10
-1.9245724882
 20
14.4111133078
 11
-1.9245724882
 21
13.560141714
  0
LINE
  5
2B6
100
AcDbEntity
  8
RACCORDO
100
AcDbLine
 62
253
  6
CONTINUOUS
 10
-1.9245724882
 20
-25.1415996272
 11
-1.9245724882
 21
-25.8884908316
  0
LINE
  5
2B7
100
AcDbEntity
  8
RACCORDO
100
AcDbLine
 62
7
  6
CONTINUOUS
 10
-1.0345123055
 20
-24.7679885155
 11
-1.0345123055
 21
-26.2999266432
  0
LINE
  5
2B8
100
AcDbEntity
  8
RACCORDO
100
AcDbLine
 62
7
  6
CONTINUOUS
 10
-1.0345123055
 20
14.0568608372
 11
-1.0345123055
 21
15.7023127683
  0
LINE
  5
2B9
100
AcDbEntity
  8
DRAFT
100
AcDbLine
 62
7
  6
CONTINUOUS
 10
-0.6756238402
 20
8.0317451289
 11
-0.6756238402
 21
-22.0193363824
  0
LINE
  5
2BA
100
AcDbEntity
  8
DRAFT
100
AcDbLine
 62
7
  6
CONTINUOUS
 10
-0.6632812454
 20
7.9389712912
 11
-0.6632812454
 21
-21.9389051394
  0
LINE
  5
2BB
100
AcDbEntity
  8
RACCORDO
100
AcDbLine
 62
253
  6
CONTINUOUS
 10
-0.5062451338
 20
15.9657515883
 11
-0.5062451338
 21
15.6182200716
  0
LINE
  5
2BC
100
AcDbEntity
  8
RACCORDO
100
AcDbLine
 62
253
  6
CONTINUOUS
 10
-0.5062451338
 20
-25.6813840678
 11
-0.5062451338
 21
-26.0289155845
  0
LINE
  5
2BD
100
AcDbEntity
  8
RACCORDO
100
AcDbLine
 62
7
  6
CONTINUOUS
 10
-0.4340472768
 20
16.0536242205
 11
-0.4340472768
 21
15.7060927038
  0
LINE
  5
2BE
100
AcDbEntity
  8
RACCORDO
100
AcDbLine
 62
7
  6
CONTINUOUS
 10
-0.4340472768
 20
-25.5935114356
 11
-0.4340472768
 21
-25.9410429523
  0
LINE
  5
2BF
100
AcDbEntity
  8
ASSI
100
AcDbLine
 62
253
  6
CONTINUOUS
 10
-0.0558684321
 20
18.8863826161
 11
-0.0558684321
 21
20.1524550459
  0
LINE
  5
2C0
100
AcDbEntity
  8
DRAFT
100
AcDbLine
 62
7
  6
CONTINUOUS
 10
0.0438255358
 20
13.7841458682
 11
0.0438255358
 21
8.4548946273
  0
LINE
  5
2C1
100
AcDbEntity
  8
DRAFT
100
AcDbLine
 62
7
  6
CONTINUOUS
 10
0.0438255358
 20
-21.7477216943
 11
0.0438255358
 21
-24.045884022
  0
LINE
  5
2C2
100
AcDbEntity
  8
RACCORDO
100
AcDbLine
 62
7
  6
CONTINUOUS
 10
0.0593812633
 20
19.0245432149
 11
0.0593812633
 21
20.1471131949
  0
LWPOLYLINE
  5
2C3
100
AcDbEntity
  8
RACCORDO
100
AcDbPolyline
 62
7
  6
CONTINUOUS
 90
7
 70
0
 10
-20.1869275843
 20
-11.9249826008
 10
-20.2058958106
 20
-11.9366637596
 10
-20.2552758822
 20
-11.9769173621
 10
-20.2966700738
 20
-12.0270325488
 10
-20.3284055142
 20
-12.0863410371
 10
-20.3479670212
 20
-12.1511753346
 10
-20.3547971491
 20
-12.2179704217
  0
LINE
  5
2C4
100
AcDbEntity
  8
0
100
AcDbLine
 62
7
  6
CONTINUOUS
 10
6.1325737111
 20
-3.2666321284
 11
11.8101618021
 21
-6.1054261739
  0
LINE
  5
2C5
100
AcDbEntity
  8
DRAFT
100
AcDbLine
 62
7
  6
CONTINUOUS
 10
1.6498074021
 20
-1.5362331212
 11
1.6498074021
 21
-7.9448211092
  0
LINE
  5
2C6
100
AcDbEntity
  8
RACCORDO
100
AcDbLine
 62
7
  6
CONTINUOUS
 10
-19.1035875373
 20
-11.3103954764
 11
-20.1869500636
 21
-11.9249925833
  0
LINE
  5
2C7
100
AcDbEntity
  8
DRAFT
100
AcDbLine
 62
7
  6
CONTINUOUS
 10
1.6498074021
 20
-1.5362331212
 11
22.7479796113
 21
9.6536024304
  0
LINE
  5
2C8
100
AcDbEntity
  8
RACCORDO
100
AcDbLine
 62
253
  6
CONTINUOUS
 10
-21.8045855861
 20
-13.7862356791
 11
-21.5970948679
 21
-13.68249032
  0
LINE
  5
2C9
100
AcDbEntity
  8
DRAFT
100
AcDbLine
 62
7
  6
CONTINUOUS
 10
5.9629854696
 20
0.7513467128
 11
9.9242880966
 21
2.7161820189
  0
LINE
  5
2CA
100
AcDbEntity
  8
DRAFT
100
AcDbLine
 62
7
  6
CONTINUOUS
 10
-8.3073811465
 20
5.2862895087
 11
-21.8085259716
 21
12.0368619213
  0
LINE
  5
2CB
100
AcDbEntity
  8
RACCORDO
100
AcDbLine
 62
7
  6
CONTINUOUS
 10
-8.4462972136
 20
5.4210654483
 11
-21.6030634049
 21
11.999448544
  0
LINE
  5
2CC
100
AcDbEntity
  8
RACCORDO
100
AcDbLine
 62
253
  6
CONTINUOUS
 10
-8.5452528024
 20
5.5143729417
 11
-21.5560175763
 21
12.0197553287
  0
LINE
  5
2CD
100
AcDbEntity
  8
DRAFT
100
AcDbLine
 62
7
  6
CONTINUOUS
 10
13.6586070784
 20
-5.2363693142
 11
14.7516465845
 21
-5.7828890673
  0
LINE
  5
2CE
100
AcDbEntity
  8
0
100
AcDbLine
 62
7
  6
CONTINUOUS
 10
13.5495650565
 20
-4.8680939157
 11
14.2566718377
 21
-5.2216473063
  0
LINE
  5
2CF
100
AcDbEntity
  8
0
100
AcDbLine
 62
7
  6
CONTINUOUS
 10
14.9637786188
 20
-5.5609142387
 11
13.5638515146
 21
-4.8609506866
  0
LINE
  5
2D0
100
AcDbEntity
  8
0
100
AcDbLine
 62
7
  6
CONTINUOUS
 10
14.2566718377
 20
-4.5145405251
 11
14.9637786188
 21
-4.8680939157
  0
LINE
  5
2D1
100
AcDbEntity
  8
RACCORDO
100
AcDbLine
 62
253
  6
CONTINUOUS
 10
4.246968684
 20
16.9550777002
 11
4.246968684
 21
17.2715603836
  0
LINE
  5
2D2
100
AcDbEntity
  8
RACCORDO
100
AcDbLine
 62
7
  6
CONTINUOUS
 10
4.3047269696
 20
17.025375806
 11
4.3047269696
 21
17.3020939098
  0
LINE
  5
2D3
100
AcDbEntity
  8
RACCORDO
100
AcDbLine
 62
253
  6
CONTINUOUS
 10
4.6348936338
 20
18.0755952751
 11
4.6348936338
 21
17.4766342785
  0
LINE
  5
2D4
100
AcDbEntity
  8
RACCORDO
100
AcDbLine
 62
253
  6
CONTINUOUS
 10
4.6348936338
 20
-19.18604776
 11
4.6348936338
 21
-19.4810319695
  0
LINE
  5
2D5
100
AcDbEntity
  8
0
100
AcDbLine
 62
7
  6
CONTINUOUS
 10
4.6400196135
 20
-6.5062530258
 11
4.6400196135
 21
-4.0718993058
  0
LINE
  5
2D6
100
AcDbEntity
  8
RACCORDO
100
AcDbLine
 62
7
  6
CONTINUOUS
 10
4.7752237336
 20
18.3353008064
 11
4.7752237336
 21
17.6528983521
  0
LINE
  5
2D7
100
AcDbEntity
  8
RACCORDO
100
AcDbLine
 62
7
  6
CONTINUOUS
 10
4.7752237336
 20
-19.1131342077
 11
4.7752237336
 21
-19.3934083154
  0
LINE
  5
2D8
100
AcDbEntity
  8
DRAFT
100
AcDbLine
 62
7
  6
CONTINUOUS
 10
9.9242880966
 20
0.5111355785
 11
1.6498074021
 21
-4.7405271152
  0
LINE
  5
2D9
100
AcDbEntity
  8
DRAFT
100
AcDbLine
 62
7
  6
CONTINUOUS
 10
9.9242880966
 20
0.9841312113
 11
1.6498074021
 21
-3.8745017114
  0
LINE
  5
2DA
100
AcDbEntity
  8
0
100
AcDbLine
 62
7
  6
CONTINUOUS
 10
15.3880426876
 20
4.5135533615
 11
14.9637786188
 21
4.3014213271
  0
LINE
  5
2DB
100
AcDbEntity
  8
0
100
AcDbLine
 62
7
  6
CONTINUOUS
 10
18.9235765935
 20
6.0691882801
 11
11.8525087816
 21
2.5336543742
  0
LINE
  5
2DC
100
AcDbEntity
  8
RACCORDO
100
AcDbLine
 62
253
  6
CONTINUOUS
 10
-21.222375095
 20
-14.7536361816
 11
-21.0101474793
 21
-14.6475223737
  0
LINE
  5
2DD
100
AcDbEntity
  8
DRAFT
100
AcDbLine
 62
7
  6
CONTINUOUS
 10
1.6498074021
 20
-3.1200722134
 11
9.9242880966
 21
0.9841312113
  0
LINE
  5
2DE
100
AcDbEntity
  8
0
100
AcDbLine
 62
7
  6
CONTINUOUS
 10
15.3526873485
 20
-3.9665327697
 11
16.0597941297
 21
-4.3200861603
  0
LINE
  5
2DF
100
AcDbEntity
  8
ASSI
100
AcDbLine
 62
7
  6
CONTINUOUS
 10
13.1606563268
 20
-2.2594832639
 11
13.2313670049
 21
-2.2948386029
  0
LINE
  5
2E0
100
AcDbEntity
  8
0
100
AcDbLine
 62
7
  6
CONTINUOUS
 10
17.0850989624
 20
-3.1003269627
 11
17.7922057436
 21
-3.4538803533
  0
LINE
  5
2E1
100
AcDbEntity
  8
0
100
AcDbLine
 62
7
  6
CONTINUOUS
 10
18.4993125248
 20
-3.7931472857
 11
17.0993854206
 21
-3.0931837336
  0
LINE
  5
2E2
100
AcDbEntity
  8
DRAFT
100
AcDbLine
 62
253
  6
CONTINUOUS
 10
-22.3090821734
 20
16.6826991595
 11
-21.6815135304
 21
16.368914838
  0
LINE
  5
2E3
100
AcDbEntity
  8
DRAFT
100
AcDbLine
 62
253
  6
CONTINUOUS
 10
-8.1825663682
 20
9.6194412569
 11
-7.5549977251
 21
9.3056569354
  0
LINE
  5
2E4
100
AcDbEntity
  8
RACCORDO
100
AcDbLine
 62
253
  6
CONTINUOUS
 10
-8.4194378344
 20
9.8395982751
 11
-21.4302026083
 21
16.344980662
  0
LINE
  5
2E5
100
AcDbEntity
  8
RACCORDO
100
AcDbLine
 62
7
  6
CONTINUOUS
 10
4.775093808
 20
18.336008096
 11
4.774476189
 21
18.349549249
  0
LINE
  5
2E6
100
AcDbEntity
  8
RACCORDO
100
AcDbLine
 62
7
  6
CONTINUOUS
 10
4.774476189
 20
-19.4349877991
 11
4.775093808
 21
-19.3935104265
  0
LINE
  5
2E7
100
AcDbEntity
  8
DRAFT
100
AcDbLine
 62
7
  6
CONTINUOUS
 10
1.6498074021
 20
-5.6851873943
 11
9.9242880966
 21
-1.2209152291
  0
LINE
  5
2E8
100
AcDbEntity
  8
0
100
AcDbLine
 62
7
  6
CONTINUOUS
 10
19.9135260871
 20
2.9761373219
 11
12.8424582753
 21
-0.559396584
  0
LINE
  5
2E9
100
AcDbEntity
  8
0
100
AcDbLine
 62
7
  6
CONTINUOUS
 10
13.1606563268
 20
-1.266322962
 11
16.0597941297
 21
0.1832459394
  0
LINE
  5
2EA
100
AcDbEntity
  8
0
100
AcDbLine
 62
7
  6
CONTINUOUS
 10
16.6961902327
 20
0.5014439909
 11
19.5953280356
 21
1.9510128924
  0
LINE
  5
2EB
100
AcDbEntity
  8
0
100
AcDbLine
 62
7
  6
CONTINUOUS
 10
17.7922057436
 20
-2.7467735721
 11
18.4993125248
 21
-3.1003269627
  0
LINE
  5
2EC
100
AcDbEntity
  8
0
100
AcDbLine
 62
7
  6
CONTINUOUS
 10
18.8882212544
 20
-2.1987658167
 11
19.5953280356
 21
-2.5523192073
  0
LINE
  5
2ED
100
AcDbEntity
  8
ASSI
100
AcDbLine
 62
7
  6
CONTINUOUS
 10
19.9135260871
 20
-2.6617764358
 11
20.3377901559
 21
-2.8739084702
  0
LINE
  5
2EE
100
AcDbEntity
  8
DRAFT
100
AcDbLine
 62
7
  6
CONTINUOUS
 10
-0.6756238402
 20
7.9451425886
 11
-0.6632812454
 21
7.9389712912
  0
LINE
  5
2EF
100
AcDbEntity
  8
RACCORDO
100
AcDbLine
 62
7
  6
CONTINUOUS
 10
9.9242880966
 20
2.7161820189
 11
9.7921798273
 21
2.7822361535
  0
LINE
  5
2F0
100
AcDbEntity
  8
DRAFT
100
AcDbLine
 62
253
  6
CONTINUOUS
 10
-21.3165118315
 20
18.4346361084
 11
-20.6684929315
 21
18.1106266583
  0
LINE
  5
2F1
100
AcDbEntity
  8
DRAFT
100
AcDbLine
 62
253
  6
CONTINUOUS
 10
-7.1870737981
 20
11.3699170917
 11
-6.5390548981
 21
11.0459076416
  0
LINE
  5
2F2
100
AcDbEntity
  8
ASSI
100
AcDbLine
 62
7
  6
CONTINUOUS
 10
16.6961902327
 20
-0.4917163109
 11
16.7669009109
 21
-0.52707165
  0
LINE
  5
2F3
100
AcDbEntity
  8
RACCORDO
100
AcDbLine
 62
253
  6
CONTINUOUS
 10
-7.4151823488
 20
11.585658787
 11
-20.4259471226
 21
18.0910411739
  0
LINE
  5
2F4
100
AcDbEntity
  8
DRAFT
100
AcDbLine
 62
7
  6
CONTINUOUS
 10
7.9582309863
 20
-10.0672730602
 11
7.9582309863
 21
-6.4671226782
  0
LINE
  5
2F5
100
AcDbEntity
  8
DRAFT
100
AcDbLine
 62
7
  6
CONTINUOUS
 10
8.1462245798
 20
22.8488559769
 11
8.1462245798
 21
20.5771726032
  0
LINE
  5
2F6
100
AcDbEntity
  8
DRAFT
100
AcDbLine
 62
7
  6
CONTINUOUS
 10
8.3259772799
 20
16.8646035962
 11
8.3259772799
 21
20.4872962532
  0
LINE
  5
2F7
100
AcDbEntity
  8
DRAFT
100
AcDbLine
 62
7
  6
CONTINUOUS
 10
8.3876855538
 20
22.9743157134
 11
8.3876855538
 21
23.8255854805
  0
LINE
  5
2F8
100
AcDbEntity
  8
RACCORDO
100
AcDbLine
 62
253
  6
CONTINUOUS
 10
-10.3295431587
 20
-16.785290317
 11
-9.3262039747
 21
-16.0921790351
  0
LINE
  5
2F9
100
AcDbEntity
  8
ASSI
100
AcDbLine
 62
253
  6
CONTINUOUS
 10
13.2313670049
 20
-2.2948386029
 11
14.9991339579
 21
-1.4109551265
  0
LINE
  5
2FA
100
AcDbEntity
  8
ASSI
100
AcDbLine
 62
253
  6
CONTINUOUS
 10
16.7669009109
 20
-0.52707165
 11
18.5346678638
 21
0.3568118265
  0
LINE
  5
2FB
100
AcDbEntity
  8
ASSI
100
AcDbLine
 62
7
  6
CONTINUOUS
 10
13.1606563268
 20
-2.494564825
 11
14.8951766836
 21
-1.6273046466
  0
LINE
  5
2FC
100
AcDbEntity
  8
ASSI
100
AcDbLine
 62
7
  6
CONTINUOUS
 10
16.6961902327
 20
-0.7267978721
 11
18.4307105896
 21
0.1404623063
  0
LINE
  5
2FD
100
AcDbEntity
  8
0
100
AcDbLine
 62
7
  6
CONTINUOUS
 10
11.8525087816
 20
2.5336543742
 11
10.5507255646
 21
3.1845459827
  0
LINE
  5
2FE
100
AcDbEntity
  8
DRAFT
100
AcDbLine
 62
7
  6
CONTINUOUS
 10
21.8844226703
 20
-2.4293745948
 11
22.7479796113
 21
-2.8611530654
  0
LINE
  5
2FF
100
AcDbEntity
  8
DRAFT
100
AcDbLine
 62
7
  6
CONTINUOUS
 10
-5.3233980911
 20
12.4388374829
 11
-5.3967082731
 21
12.4754925739
  0
LINE
  5
300
100
AcDbEntity
  8
DRAFT
100
AcDbLine
 62
7
  6
CONTINUOUS
 10
-18.7074221153
 20
19.130849495
 11
-18.7720027539
 21
19.1631398143
  0
LINE
  5
301
100
AcDbEntity
  8
RACCORDO
100
AcDbLine
 62
7
  6
CONTINUOUS
 10
-18.5530828094
 20
19.1476852969
 11
-5.5423180356
 21
12.64230291
  0
LINE
  5
302
100
AcDbEntity
  8
DRAFT
100
AcDbLine
 62
7
  6
CONTINUOUS
 10
-13.3912033067
 20
17.3004826651
 11
-9.1485626196
 21
15.1791623215
  0
LINE
  5
303
100
AcDbEntity
  8
DRAFT
100
AcDbLine
 62
7
  6
CONTINUOUS
 10
9.9242880966
 20
2.7161820189
 11
9.9242880966
 21
-1.2209152291
  0
LINE
  5
304
100
AcDbEntity
  8
DRAFT
100
AcDbLine
 62
7
  6
CONTINUOUS
 10
10.3662357584
 20
25.7891524615
 11
10.3662357584
 21
24.9083654542
  0
LINE
  5
305
100
AcDbEntity
  8
0
100
AcDbLine
 62
7
  6
CONTINUOUS
 10
13.1606563268
 20
-5.0625482805
 11
15.3526873485
 21
-3.9665327697
  0
LINE
  5
306
100
AcDbEntity
  8
0
100
AcDbLine
 62
7
  6
CONTINUOUS
 10
16.6961902327
 20
-3.2947813275
 11
18.8882212544
 21
-2.1987658167
  0
LINE
  5
307
100
AcDbEntity
  8
0
100
AcDbLine
 62
7
  6
CONTINUOUS
 10
13.9429174501
 20
-5.3785245001
 11
14.2566718377
 21
-5.2216473063
  0
LINE
  5
308
100
AcDbEntity
  8
0
100
AcDbLine
 62
7
  6
CONTINUOUS
 10
14.9637786188
 20
-4.8680939157
 11
16.0597941297
 21
-4.3200861603
  0
LINE
  5
309
100
AcDbEntity
  8
0
100
AcDbLine
 62
7
  6
CONTINUOUS
 10
16.6961902327
 20
-4.0018881087
 11
17.7922057436
 21
-3.4538803533
  0
LINE
  5
30A
100
AcDbEntity
  8
0
100
AcDbLine
 62
7
  6
CONTINUOUS
 10
18.4993125248
 20
-3.1003269627
 11
19.5953280356
 21
-2.5523192073
  0
LINE
  5
30B
100
AcDbEntity
  8
0
100
AcDbLine
 62
7
  6
CONTINUOUS
 10
19.9135260871
 20
-3.0860405046
 11
18.4993125248
 21
-3.7931472857
  0
LINE
  5
30C
100
AcDbEntity
  8
0
100
AcDbLine
 62
7
  6
CONTINUOUS
 10
17.7922057436
 20
-4.1467006763
 11
14.9637786188
 21
-5.5609142387
  0
LINE
  5
30D
100
AcDbEntity
  8
DRAFT
100
AcDbLine
 62
7
  6
CONTINUOUS
 10
7.9582309863
 20
-7.9164329379
 11
13.6586070784
 21
-5.2363693142
  0
LINE
  5
30E
100
AcDbEntity
  8
DRAFT
100
AcDbLine
 62
7
  6
CONTINUOUS
 10
21.8844226703
 20
-2.4293745948
 11
14.7516465845
 21
-5.7828890673
  0
LINE
  5
30F
100
AcDbEntity
  8
RACCORDO
100
AcDbLine
 62
7
  6
CONTINUOUS
 10
-9.2776483312
 20
-17.0486149512
 11
-10.1640178058
 21
-17.4303540804
  0
LINE
  5
310
100
AcDbEntity
  8
0
100
AcDbLine
 62
7
  6
CONTINUOUS
 10
14.9637786188
 20
4.3014213271
 11
13.7761709714
 21
4.8952251508
  0
LINE
  5
311
100
AcDbEntity
  8
0
100
AcDbLine
 62
7
  6
CONTINUOUS
 10
14.1879299596
 20
5.1136097255
 11
15.3880426876
 21
4.5135533615
  0
LINE
  5
312
100
AcDbEntity
  8
RACCORDO
100
AcDbLine
 62
7
  6
CONTINUOUS
 10
-16.8685589288
 20
20.8451442747
 11
-15.6237349428
 21
20.2227322817
  0
LINE
  5
313
100
AcDbEntity
  8
RACCORDO
100
AcDbLine
 62
7
  6
CONTINUOUS
 10
-3.5219184339
 20
14.1718240272
 11
-2.2770944479
 21
13.5494120342
  0
LINE
  5
314
100
AcDbEntity
  8
RACCORDO
100
AcDbLine
 62
7
  6
CONTINUOUS
 10
-6.4636197479
 20
16.0189213089
 11
-11.9749268476
 21
18.7745748588
  0
LINE
  5
315
100
AcDbEntity
  8
RACCORDO
100
AcDbLine
 62
7
  6
CONTINUOUS
 10
-17.5065785866
 20
21.716529518
 11
-16.2699822545
 21
21.0982313519
  0
LINE
  5
316
100
AcDbEntity
  8
RACCORDO
100
AcDbLine
 62
7
  6
CONTINUOUS
 10
-4.1599380917
 20
15.0432092705
 11
-2.9233417596
 21
14.4249111044
  0
LINE
  5
317
100
AcDbEntity
  8
RACCORDO
100
AcDbLine
 62
253
  6
CONTINUOUS
 10
-17.5715518831
 20
21.8517479681
 11
-16.3349555509
 21
21.233449802
  0
LINE
  5
318
100
AcDbEntity
  8
RACCORDO
100
AcDbLine
 62
253
  6
CONTINUOUS
 10
-4.2249113882
 20
15.1784277206
 11
-2.988315056
 21
14.5601295545
  0
LINE
  5
319
100
AcDbEntity
  8
RACCORDO
100
AcDbLine
 62
253
  6
CONTINUOUS
 10
-2.988315056
 20
14.9001034887
 11
-4.2249113882
 21
15.5184016547
  0
LINE
  5
31A
100
AcDbEntity
  8
RACCORDO
100
AcDbLine
 62
253
  6
CONTINUOUS
 10
-16.3349555509
 20
21.5734237361
 11
-17.5715518831
 21
22.1917219022
  0
LINE
  5
31B
100
AcDbEntity
  8
RACCORDO
100
AcDbLine
 62
7
  6
CONTINUOUS
 10
-1.0292849409
 20
14.0542471548
 11
-1.0345123055
 21
14.0568608372
  0
LINE
  5
31C
100
AcDbEntity
  8
DRAFT
100
AcDbLine
 62
7
  6
CONTINUOUS
 10
-4.2862227533
 20
15.682716061
 11
-5.4008966793
 21
16.2400530241
  0
LINE
  5
31D
100
AcDbEntity
  8
DRAFT
100
AcDbLine
 62
7
  6
CONTINUOUS
 10
-12.121373457
 20
19.6002914129
 11
-14.3811528004
 21
20.7301810846
  0
LINE
  5
31E
100
AcDbEntity
  8
ASSI
100
AcDbLine
 62
7
  6
CONTINUOUS
 10
13.2313670049
 20
-2.2948386029
 11
13.1606563268
 21
-2.1569888612
  0
LINE
  5
31F
100
AcDbEntity
  8
0
100
AcDbLine
 62
7
  6
CONTINUOUS
 10
12.8424582753
 20
-0.559396584
 11
11.8525087816
 21
2.5336543742
  0
LINE
  5
320
100
AcDbEntity
  8
0
100
AcDbLine
 62
7
  6
CONTINUOUS
 10
12.8424582753
 20
-5.6200862276
 11
12.8424582753
 21
-0.559396584
  0
LINE
  5
321
100
AcDbEntity
  8
0
100
AcDbLine
 62
7
  6
CONTINUOUS
 10
13.1606563268
 20
-5.4704836383
 11
13.1606563268
 21
-1.266322962
  0
LINE
  5
322
100
AcDbEntity
  8
0
100
AcDbLine
 62
7
  6
CONTINUOUS
 10
14.2566718377
 20
-5.5354016939
 11
14.2566718377
 21
-5.2216473063
  0
LINE
  5
323
100
AcDbEntity
  8
RACCORDO
100
AcDbLine
 62
253
  6
CONTINUOUS
 10
-8.5816887779
 20
-20.3976840832
 11
-8.3741980624
 21
-20.2939387255
  0
LINE
  5
324
100
AcDbEntity
  8
DRAFT
100
AcDbLine
 62
7
  6
CONTINUOUS
 10
7.9582309863
 20
-10.0672730602
 11
22.7479796113
 21
-2.8611530654
  0
LINE
  5
325
100
AcDbEntity
  8
RACCORDO
100
AcDbLine
 62
7
  6
CONTINUOUS
 10
-2.8626365898
 20
14.4037956699
 11
-2.2382305054
 21
14.2734191001
  0
LINE
  5
326
100
AcDbEntity
  8
RACCORDO
100
AcDbLine
 62
253
  6
CONTINUOUS
 10
-2.6357930963
 20
14.5596168307
 11
-1.9245724882
 21
14.4111133078
  0
LINE
  5
327
100
AcDbEntity
  8
RACCORDO
100
AcDbLine
 62
253
  6
CONTINUOUS
 10
-2.8125668
 20
15.2044803036
 11
-4.0491631322
 21
15.8227784697
  0
LINE
  5
328
100
AcDbEntity
  8
RACCORDO
100
AcDbLine
 62
253
  6
CONTINUOUS
 10
-16.1592072949
 20
21.8778005511
 11
-17.3958036271
 21
22.4960987172
  0
LINE
  5
329
100
AcDbEntity
  8
RACCORDO
100
AcDbLine
 62
253
  6
CONTINUOUS
 10
-6.4636197479
 20
17.1428058899
 11
-11.9749268476
 21
19.8984594398
  0
LINE
  5
32A
100
AcDbEntity
  8
RACCORDO
100
AcDbLine
 62
253
  6
CONTINUOUS
 10
-6.0407973681
 20
17.2451954544
 11
-12.1165520178
 21
20.2830727793
  0
LINE
  5
32B
100
AcDbEntity
  8
DRAFT
100
AcDbLine
 62
7
  6
CONTINUOUS
 10
-14.3811528004
 20
21.4297301766
 11
-12.9731100654
 21
20.7257088091
  0
LINE
  5
32C
100
AcDbEntity
  8
DRAFT
100
AcDbLine
 62
7
  6
CONTINUOUS
 10
-1.0345123055
 20
14.7564099291
 11
-0.3098355649
 21
14.3940715588
  0
LINE
  5
32D
100
AcDbEntity
  8
DRAFT
100
AcDbLine
 62
7
  6
CONTINUOUS
 10
-11.6234363538
 20
20.6070596968
 11
-5.4008966793
 21
17.4957898596
  0
LINE
  5
32E
100
AcDbEntity
  8
RACCORDO
100
AcDbLine
 62
7
  6
CONTINUOUS
 10
-15.8130470239
 20
23.3080828145
 11
-14.5579265041
 21
22.6805225546
  0
LINE
  5
32F
100
AcDbEntity
  8
RACCORDO
100
AcDbLine
 62
7
  6
CONTINUOUS
 10
-2.466406529
 20
16.634762567
 11
-1.2112860092
 21
16.0072023071
  0
LINE
  5
330
100
AcDbEntity
  8
DRAFT
100
AcDbLine
 62
7
  6
CONTINUOUS
 10
-5.3301860012
 20
18.1625029133
 11
-10.2799334695
 21
20.6373766474
  0
LINE
  5
331
100
AcDbEntity
  8
0
100
AcDbLine
 62
7
  6
CONTINUOUS
 10
18.9235765935
 20
6.0691882801
 11
17.4133753664
 21
6.8242888936
  0
LINE
  5
332
100
AcDbEntity
  8
RACCORDO
100
AcDbLine
 62
253
  6
CONTINUOUS
 10
-15.2785971452
 20
23.5684302811
 11
-14.0296593323
 21
22.9439613746
  0
LINE
  5
333
100
AcDbEntity
  8
RACCORDO
100
AcDbLine
 62
253
  6
CONTINUOUS
 10
-1.9319566503
 20
16.8951100336
 11
-0.6830188374
 21
16.2706411272
  0
LINE
  5
334
100
AcDbEntity
  8
RACCORDO
100
AcDbLine
 62
7
  6
CONTINUOUS
 10
-15.1678221857
 20
23.5750201722
 11
-13.9188843728
 21
22.9505512657
  0
LINE
  5
335
100
AcDbEntity
  8
RACCORDO
100
AcDbLine
 62
7
  6
CONTINUOUS
 10
-1.8211816908
 20
16.9016999247
 11
-0.5722438779
 21
16.2772310183
  0
LINE
  5
336
100
AcDbEntity
  8
0
100
AcDbLine
 62
7
  6
CONTINUOUS
 10
14.9637786188
 20
-5.5609142387
 11
14.9637786188
 21
-4.8680939157
  0
LINE
  5
337
100
AcDbEntity
  8
0
100
AcDbLine
 62
7
  6
CONTINUOUS
 10
15.3526873485
 20
-0.3681530274
 11
15.3526873485
 21
-3.9665327697
  0
LINE
  5
338
100
AcDbEntity
  8
0
100
AcDbLine
 62
7
  6
CONTINUOUS
 10
16.0597941297
 20
-4.3200861603
 11
16.0597941297
 21
0.1832459394
  0
LINE
  5
339
100
AcDbEntity
  8
0
100
AcDbLine
 62
7
  6
CONTINUOUS
 10
16.6961902327
 20
-4.0018881087
 11
16.6961902327
 21
0.5014439909
  0
LINE
  5
33A
100
AcDbEntity
  8
ASSI
100
AcDbLine
 62
7
  6
CONTINUOUS
 10
15.4334574668
 20
-0.1299223921
 11
14.9991339579
 21
-1.4109551265
  0
LINE
  5
33B
100
AcDbEntity
  8
RACCORDO
100
AcDbLine
 62
253
  6
CONTINUOUS
 10
-2.2776086762
 20
-25.7627209935
 11
-2.8999267083
 21
-26.507780411
  0
LINE
  5
33C
100
AcDbEntity
  8
RACCORDO
100
AcDbLine
 62
253
  6
CONTINUOUS
 10
-1.9245724882
 20
-25.8884908316
 11
-2.6357930963
 21
-26.7399873087
  0
LINE
  5
33D
100
AcDbEntity
  8
RACCORDO
100
AcDbLine
 62
7
  6
CONTINUOUS
 10
-8.703760377
 20
-20.6641834866
 11
-8.4915379592
 21
-20.5580722776
  0
LINE
  5
33E
100
AcDbEntity
  8
RACCORDO
100
AcDbLine
 62
253
  6
CONTINUOUS
 10
-8.9187171023
 20
-20.9054651779
 11
-8.7064894867
 21
-20.7993513701
  0
LINE
  5
33F
100
AcDbEntity
  8
DRAFT
100
AcDbLine
 62
7
  6
CONTINUOUS
 10
2.4132127182
 20
15.7047272327
 11
5.1349943603
 21
14.3438364117
  0
LINE
  5
340
100
AcDbEntity
  8
ASSI
100
AcDbLine
 62
7
  6
CONTINUOUS
 10
16.7669009109
 20
-0.52707165
 11
16.6961902327
 21
-0.3892219083
  0
LINE
  5
341
100
AcDbEntity
  8
0
100
AcDbLine
 62
7
  6
CONTINUOUS
 10
17.7922057436
 20
-4.1467006763
 11
17.7922057436
 21
-3.4538803533
  0
LINE
  5
342
100
AcDbEntity
  8
0
100
AcDbLine
 62
7
  6
CONTINUOUS
 10
18.4993125248
 20
-3.7931472857
 11
18.4993125248
 21
-3.1003269627
  0
LINE
  5
343
100
AcDbEntity
  8
0
100
AcDbLine
 62
7
  6
CONTINUOUS
 10
18.8882212544
 20
1.3996139256
 11
18.8882212544
 21
-2.1987658167
  0
LINE
  5
344
100
AcDbEntity
  8
ASSI
100
AcDbLine
 62
7
  6
CONTINUOUS
 10
18.9689913727
 20
1.6378445609
 11
18.5346678638
 21
0.3568118265
  0
LINE
  5
345
100
AcDbEntity
  8
DRAFT
100
AcDbLine
 62
7
  6
CONTINUOUS
 10
22.7479796113
 20
-9.7747422568
 11
-0.6632812454
 21
-21.9389051394
  0
LINE
  5
346
100
AcDbEntity
  8
RACCORDO
100
AcDbLine
 62
7
  6
CONTINUOUS
 10
-16.2092770847
 20
21.0771159173
 11
-15.5848710003
 21
20.9467393476
  0
LINE
  5
347
100
AcDbEntity
  8
RACCORDO
100
AcDbLine
 62
253
  6
CONTINUOUS
 10
-15.9824335912
 20
21.2329370781
 11
-15.2712129831
 21
21.0844335553
  0
LINE
  5
348
100
AcDbEntity
  8
DRAFT
100
AcDbLine
 62
7
  6
CONTINUOUS
 10
-1.2914379541
 20
20.1184076818
 11
-4.1260097979
 21
21.5356936038
  0
LINE
  5
349
100
AcDbEntity
  8
ASSI
100
AcDbLine
 62
253
  6
CONTINUOUS
 10
-0.1264046102
 20
20.1260989934
 11
-0.6918067167
 21
20.4088000467
  0
LINE
  5
34A
100
AcDbEntity
  8
ASSI
100
AcDbLine
 62
253
  6
CONTINUOUS
 10
-5.7218108413
 20
22.923802109
 11
-6.2872129478
 21
23.2065031623
  0
LINE
  5
34B
100
AcDbEntity
  8
DRAFT
100
AcDbLine
 62
7
  6
CONTINUOUS
 10
-2.917020541
 20
21.6071552528
 11
-0.5818417284
 21
20.4395658466
  0
LINE
  5
34C
100
AcDbEntity
  8
DRAFT
100
AcDbLine
 62
7
  6
CONTINUOUS
 10
0.0593812633
 20
20.1189543507
 11
0.3417244443
 21
19.9777827602
  0
LINE
  5
34D
100
AcDbEntity
  8
ASSI
100
AcDbLine
 62
7
  6
CONTINUOUS
 10
0.0496399043
 20
20.162031478
 11
-0.4245446937
 21
20.399123777
  0
LINE
  5
34E
100
AcDbEntity
  8
ASSI
100
AcDbLine
 62
7
  6
CONTINUOUS
 10
-5.5459727963
 20
22.9598378283
 11
-6.0201574747
 21
23.1969301675
  0
LINE
  5
34F
100
AcDbEntity
  8
RACCORDO
100
AcDbLine
 62
253
  6
CONTINUOUS
 10
-6.7371877042
 20
23.9097940963
 11
-3.6118397523
 21
22.3471201204
  0
LINE
  5
350
100
AcDbEntity
  8
RACCORDO
100
AcDbLine
 62
253
  6
CONTINUOUS
 10
0.7419835278
 20
20.1702084803
 11
3.8673314797
 21
18.6075345044
  0
LINE
  5
351
100
AcDbEntity
  8
RACCORDO
100
AcDbLine
 62
7
  6
CONTINUOUS
 10
-6.4615733937
 20
24.0178579092
 11
-3.1746391429
 21
22.3743907838
  0
LINE
  5
352
100
AcDbEntity
  8
RACCORDO
100
AcDbLine
 62
7
  6
CONTINUOUS
 10
1.1868689245
 20
20.1936367501
 11
4.4738031753
 21
18.5501696247
  0
LINE
  5
353
100
AcDbEntity
  8
0
100
AcDbLine
 62
7
  6
CONTINUOUS
 10
19.5953280356
 20
-2.5523192073
 11
19.5953280356
 21
1.9510128924
  0
LINE
  5
354
100
AcDbEntity
  8
0
100
AcDbLine
 62
7
  6
CONTINUOUS
 10
19.9135260871
 20
-3.0860405046
 11
19.9135260871
 21
2.9761373219
  0
LINE
  5
355
100
AcDbEntity
  8
ASSI
100
AcDbLine
 62
7
  6
CONTINUOUS
 10
20.3377901559
 20
-3.1565325006
 11
20.3377901559
 21
-2.8739084702
  0
LINE
  5
356
100
AcDbEntity
  8
RACCORDO
100
AcDbLine
 62
253
  6
CONTINUOUS
 10
-0.6740508871
 20
-24.4000477893
 11
0.0438255358
 21
-24.045884022
  0
LINE
  5
357
100
AcDbEntity
  8
RACCORDO
100
AcDbLine
 62
7
  6
CONTINUOUS
 10
3.8673314797
 20
-19.9525153559
 11
0.0438255358
 21
-21.8253979919
  0
LINE
  5
358
100
AcDbEntity
  8
RACCORDO
100
AcDbLine
 62
7
  6
CONTINUOUS
 10
4.6348936338
 20
-19.4810319695
 11
-0.0174769541
 21
-21.7170704494
  0
LINE
  5
359
100
AcDbEntity
  8
DRAFT
100
AcDbLine
 62
7
  6
CONTINUOUS
 10
-0.6756238402
 20
-22.0193363824
 11
0.0438255358
 21
-21.7477216943
  0
LINE
  5
35A
100
AcDbEntity
  8
0
100
AcDbLine
 62
7
  6
CONTINUOUS
 10
19.9135260871
 20
2.9761373219
 11
18.9235765935
 21
6.0691882801
  0
LINE
  5
35B
100
AcDbEntity
  8
DRAFT
100
AcDbLine
 62
7
  6
CONTINUOUS
 10
22.7479796113
 20
19.5982805351
 11
22.7479796113
 21
9.6536024304
  0
LINE
  5
35C
100
AcDbEntity
  8
DRAFT
100
AcDbLine
 62
7
  6
CONTINUOUS
 10
22.7479796113
 20
-2.8611530654
 11
22.7479796113
 21
-9.7747422568
  0
LINE
  5
35D
100
AcDbEntity
  8
RACCORDO
100
AcDbLine
 62
253
  6
CONTINUOUS
 10
-0.5062451338
 20
-26.0289155845
 11
-1.0345123055
 21
-26.2999266432
  0
LINE
  5
35E
100
AcDbEntity
  8
RACCORDO
100
AcDbLine
 62
7
  6
CONTINUOUS
 10
-0.5699331713
 20
-26.1634793948
 11
-1.0986154348
 21
-26.4347034034
  0
LINE
  5
35F
100
AcDbEntity
  8
RACCORDO
100
AcDbLine
 62
7
  6
CONTINUOUS
 10
-1.100353822
 20
-26.435572637
 11
-1.0986174046
 21
-26.434704414
  0
LINE
  5
360
100
AcDbEntity
  8
RACCORDO
100
AcDbLine
 62
7
  6
CONTINUOUS
 10
-0.8086797465
 20
-24.6728150677
 11
-0.0870491214
 21
-24.3167991678
  0
LINE
  5
361
100
AcDbEntity
  8
RACCORDO
100
AcDbLine
 62
253
  6
CONTINUOUS
 10
-1.0345123055
 20
-26.2999266432
 11
-2.6357930963
 21
-27.0799612428
  0
LINE
  5
362
100
AcDbEntity
  8
RACCORDO
100
AcDbLine
 62
7
  6
CONTINUOUS
 10
-1.1003565859
 20
-26.4355739834
 11
-2.7020546889
 21
-27.215811869
  0
LINE
  5
363
100
AcDbEntity
  8
RACCORDO
100
AcDbLine
 62
253
  6
CONTINUOUS
 10
-6.173222158
 20
-26.7083765201
 11
-0.6740508871
 21
-24.4000477893
  0
LINE
  5
364
100
AcDbEntity
  8
RACCORDO
100
AcDbLine
 62
7
  6
CONTINUOUS
 10
-6.3270294035
 20
-26.9895722185
 11
-0.8191068488
 21
-24.6775700542
  0
LINE
  5
365
100
AcDbEntity
  8
DRAFT
100
AcDbLine
 62
7
  6
CONTINUOUS
 10
-2.917020541
 20
21.6071552528
 11
-4.1260097979
 21
21.5356936038
  0
LINE
  5
366
100
AcDbEntity
  8
DRAFT
100
AcDbLine
 62
7
  6
CONTINUOUS
 10
8.1462245798
 20
20.5771726032
 11
8.3259772799
 21
20.4872962532
  0
LINE
  5
367
100
AcDbEntity
  8
DRAFT
100
AcDbLine
 62
7
  6
CONTINUOUS
 10
7.4624203388
 20
27.2410601713
 11
10.3662357584
 21
25.7891524615
  0
LINE
  5
368
100
AcDbEntity
  8
DRAFT
100
AcDbLine
 62
7
  6
CONTINUOUS
 10
19.8441641917
 20
21.0501882449
 11
22.7479796113
 21
19.5982805351
  0
ARC
  5
369
100
AcDbEntity
  8
RACCORDO
100
AcDbCircle
 62
7
  6
CONTINUOUS
 10
-9.5178991697
 20
-16.4743899714
 40
0.4275888769
100
AcDbArc
 50
58.2960939096
 51
63.3642695164
  0
ARC
  5
36A
100
AcDbEntity
  8
RACCORDO
100
AcDbCircle
 62
253
  6
CONTINUOUS
 10
-3.9512575595
 20
-26.1212260494
 40
0.2736538332
100
AcDbArc
 50
177.0272169969
 51
179.9896086669
  0
ARC
  5
36B
100
AcDbEntity
  8
RACCORDO
100
AcDbCircle
 62
7
  6
CONTINUOUS
 10
-0.6840476751
 20
-25.9410427557
 40
0.2500003968
100
AcDbArc
 50
297.1601719691
 51
0.0000315264
  0
ARC
  5
36C
100
AcDbEntity
  8
RACCORDO
100
AcDbCircle
 62
7
  6
CONTINUOUS
 10
-0.6840475433
 20
-25.593512095
 40
0.2500002666
100
AcDbArc
 50
0.000151117
 51
63.4365832535
  0
ARC
  5
36D
100
AcDbEntity
  8
RACCORDO
100
AcDbCircle
 62
7
  6
CONTINUOUS
 10
-2.8115383282
 20
-26.9910607433
 40
0.2499992954
100
AcDbArc
 50
243.4349021267
 51
295.9722454555
  0
ARC
  5
36E
100
AcDbEntity
  8
RACCORDO
100
AcDbCircle
 62
7
  6
CONTINUOUS
 10
-4.0481361889
 20
-26.3727621226
 40
0.2499985039
100
AcDbArc
 50
179.9999730928
 51
243.4370632661
  0
ARC
  5
36F
100
AcDbEntity
  8
RACCORDO
100
AcDbCircle
 62
7
  6
CONTINUOUS
 10
-0.8917323191
 20
-24.5044888411
 40
0.1877001513
100
AcDbArc
 50
292.7709493523
 51
296.256748339
  0
ARC
  5
370
100
AcDbEntity
  8
RACCORDO
100
AcDbCircle
 62
7
  6
CONTINUOUS
 10
-1.141406432
 20
-26.3512909821
 40
0.0937479893
100
AcDbArc
 50
297.1567006962
 51
299.3030104152
  0
ARC
  5
371
100
AcDbEntity
  8
ASSI
100
AcDbCircle
 62
7
  6
CONTINUOUS
 10
16.1490359194
 20
4.9388505942
 40
1.7774754485
100
AcDbArc
 50
63.4446609324
 51
65.083837365
  0
ARC
  5
372
100
AcDbEntity
  8
RACCORDO
100
AcDbCircle
 62
253
  6
CONTINUOUS
 10
-19.7439501295
 20
16.8847865419
 40
1.3857020372
100
AcDbArc
 50
119.48312046
 51
123.2325025892
  0
ARC
  5
373
100
AcDbEntity
  8
0
100
AcDbCircle
 62
7
  6
CONTINUOUS
 10
13.976844475
 20
-1.7203486268
 40
1.1536305934
100
AcDbArc
 50
15.5760345452
 51
20.3028287791
  0
ARC
  5
374
100
AcDbEntity
  8
0
100
AcDbCircle
 62
7
  6
CONTINUOUS
 10
17.5123783809
 20
0.0474183262
 40
1.1536305934
100
AcDbArc
 50
15.5760345452
 51
20.3028287791
  0
ARC
  5
375
100
AcDbEntity
  8
0
100
AcDbCircle
 62
7
  6
CONTINUOUS
 10
14.0527853168
 20
-1.6925113682
 40
1.07274882
100
AcDbArc
 50
20.3157712503
 51
22.5386324697
  0
ARC
  5
376
100
AcDbEntity
  8
0
100
AcDbCircle
 62
7
  6
CONTINUOUS
 10
17.5883192227
 20
0.0752555847
 40
1.07274882
100
AcDbArc
 50
20.3157712503
 51
22.5386324697
  0
ARC
  5
377
100
AcDbEntity
  8
RACCORDO
100
AcDbCircle
 62
7
  6
CONTINUOUS
 10
-21.8010560808
 20
12.8978475993
 40
0.9116413244
100
AcDbArc
 50
284.9745544201
 51
285.5921752389
  0
ARC
  5
378
100
AcDbEntity
  8
RACCORDO
100
AcDbCircle
 62
253
  6
CONTINUOUS
 10
-16.1642875557
 20
21.9803822156
 40
0.4432010345
100
AcDbArc
 50
259.0877208697
 51
262.3346116587
  0
ARC
  5
379
100
AcDbEntity
  8
RACCORDO
100
AcDbCircle
 62
7
  6
CONTINUOUS
 10
-8.9665113325
 20
0.8860996543
 40
0.3998010949
100
AcDbArc
 50
62.6407730654
 51
63.4335262744
  0
ARC
  5
37A
100
AcDbEntity
  8
RACCORDO
100
AcDbCircle
 62
7
  6
CONTINUOUS
 10
-21.4785873358
 20
12.2495615765
 40
0.2793763471
100
AcDbArc
 50
239.4483768049
 51
243.5449277114
  0
ARC
  5
37B
100
AcDbEntity
  8
RACCORDO
100
AcDbCircle
 62
7
  6
CONTINUOUS
 10
-2.811191186
 20
14.6495153311
 40
0.251047369
100
AcDbArc
 50
243.4631702977
 51
258.175002862
  0
ARC
  5
37C
100
AcDbEntity
  8
RACCORDO
100
AcDbCircle
 62
7
  6
CONTINUOUS
 10
-16.1578316809
 20
21.3228355786
 40
0.251047369
100
AcDbArc
 50
243.4631702977
 51
258.175002862
  0
ARC
  5
37D
100
AcDbEntity
  8
RACCORDO
100
AcDbCircle
 62
7
  6
CONTINUOUS
 10
-14.0306921142
 20
22.3794145487
 40
0.2500044269
100
AcDbArc
 50
320.5924959386
 51
359.9991037808
  0
ARC
  5
37E
100
AcDbEntity
  8
RACCORDO
100
AcDbCircle
 62
7
  6
CONTINUOUS
 10
-0.6840500473
 20
15.7060942223
 40
0.2500027706
100
AcDbArc
 50
320.5925765273
 51
359.9996519884
  0
ARC
  5
37F
100
AcDbEntity
  8
RACCORDO
100
AcDbCircle
 62
7
  6
CONTINUOUS
 10
-14.0306900247
 20
22.726943224
 40
0.2500021202
100
AcDbArc
 50
0.0018403594
 51
63.4346144876
  0
ARC
  5
380
100
AcDbEntity
  8
RACCORDO
100
AcDbCircle
 62
7
  6
CONTINUOUS
 10
-17.3947730555
 20
22.2801091354
 40
0.2500019648
100
AcDbArc
 50
117.1590003956
 51
179.9982785534
  0
ARC
  5
381
100
AcDbEntity
  8
RACCORDO
100
AcDbCircle
 62
7
  6
CONTINUOUS
 10
-15.2796251024
 20
23.3514115412
 40
0.250001424
100
AcDbArc
 50
63.4352355626
 51
115.9737880832
  0
ARC
  5
382
100
AcDbEntity
  8
RACCORDO
100
AcDbCircle
 62
7
  6
CONTINUOUS
 10
-1.9329855863
 20
16.6780915122
 40
0.2500012342
100
AcDbArc
 50
63.4334738355
 51
115.9719157382
  0
ARC
  5
383
100
AcDbEntity
  8
RACCORDO
100
AcDbCircle
 62
7
  6
CONTINUOUS
 10
-4.0481334152
 20
15.2668166978
 40
0.2500010154
100
AcDbArc
 50
179.9973938
 51
243.4448192666
  0
ARC
  5
384
100
AcDbEntity
  8
RACCORDO
100
AcDbCircle
 62
7
  6
CONTINUOUS
 10
-17.3947739101
 20
21.9401369452
 40
0.2500010154
100
AcDbArc
 50
179.9973938
 51
243.4448192666
  0
ARC
  5
385
100
AcDbEntity
  8
RACCORDO
100
AcDbCircle
 62
7
  6
CONTINUOUS
 10
-0.684047845
 20
16.053623935
 40
0.2500005676
100
AcDbArc
 50
359.9999858707
 51
63.4332365049
  0
ARC
  5
386
100
AcDbEntity
  8
RACCORDO
100
AcDbCircle
 62
7
  6
CONTINUOUS
 10
-4.0481360802
 20
15.6067901589
 40
0.2499986126
100
AcDbArc
 50
117.1565718893
 51
180.0000358743
  0
ARC
  5
387
100
AcDbEntity
  8
RACCORDO
100
AcDbCircle
 62
253
  6
CONTINUOUS
 10
-13.8530609015
 20
22.2334712926
 40
0.0201077554
100
AcDbArc
 50
320.5893125075
 51
322.4421538361
  0
ARC
  5
388
100
AcDbEntity
  8
RACCORDO
100
AcDbCircle
 62
253
  6
CONTINUOUS
 10
545.5859100324
 20
-8.4401122171
 40
554.3068403698
100
AcDbArc
 50
178.1101799316
 51
178.5574459429
  0
ARC
  5
389
100
AcDbEntity
  8
RACCORDO
100
AcDbCircle
 62
7
  6
CONTINUOUS
 10
532.4610788621
 20
-1.8457333278
 40
554.2659887917
100
AcDbArc
 50
178.1101778121
 51
178.5597545595
  0
ARC
  5
38A
100
AcDbEntity
  8
RACCORDO
100
AcDbCircle
 62
253
  6
CONTINUOUS
 10
531.5125965812
 20
-1.9038217231
 40
553.2438503626
100
AcDbArc
 50
178.1097502461
 51
178.5578756284
  0
ARC
  5
38B
100
AcDbEntity
  8
RACCORDO
100
AcDbCircle
 62
253
  6
CONTINUOUS
 10
534.9917935677
 20
-8.9036424354
 40
542.1513871857
100
AcDbArc
 50
178.0774557645
 51
178.8333949856
  0
ARC
  5
38C
100
AcDbEntity
  8
RACCORDO
100
AcDbCircle
 62
7
  6
CONTINUOUS
 10
528.967371388
 20
-8.0915620406
 40
537.479544604
100
AcDbArc
 50
179.0928298529
 51
179.9834789555
  0
ARC
  5
38D
100
AcDbEntity
  8
RACCORDO
100
AcDbCircle
 62
253
  6
CONTINUOUS
 10
517.793660617
 20
-7.9550501504
 40
527.0067604626
100
AcDbArc
 50
179.9772730965
 51
180.9809560687
  0
ARC
  5
38E
100
AcDbEntity
  8
RACCORDO
100
AcDbCircle
 62
7
  6
CONTINUOUS
 10
516.6161358802
 20
-8.2392786583
 40
525.1289534226
100
AcDbArc
 50
179.0553657395
 51
181.3151431448
  0
ARC
  5
38F
100
AcDbEntity
  8
RACCORDO
100
AcDbCircle
 62
7
  6
CONTINUOUS
 10
516.2155234303
 20
-8.1333105555
 40
524.940500247
100
AcDbArc
 50
179.0550158974
 51
181.3387436944
  0
ARC
  5
390
100
AcDbEntity
  8
RACCORDO
100
AcDbCircle
 62
253
  6
CONTINUOUS
 10
516.0926272488
 20
-8.4936905442
 40
523.9500471529
100
AcDbArc
 50
178.0532042068
 51
181.5238028233
  0
ARC
  5
391
100
AcDbEntity
  8
RACCORDO
100
AcDbCircle
 62
253
  6
CONTINUOUS
 10
515.6092428377
 20
-8.548867197
 40
522.7656324807
100
AcDbArc
 50
178.8290195869
 51
181.2588976505
  0
ARC
  5
392
100
AcDbEntity
  8
RACCORDO
100
AcDbCircle
 62
253
  6
CONTINUOUS
 10
509.7225898509
 20
-8.0852837266
 40
518.9346428705
100
AcDbArc
 50
180.9863043218
 51
181.2473816715
  0
ARC
  5
393
100
AcDbEntity
  8
RACCORDO
100
AcDbCircle
 62
253
  6
CONTINUOUS
 10
497.5695979339
 20
-1.9240474693
 40
518.8158761495
100
AcDbArc
 50
179.9785057829
 51
181.2637654729
  0
ARC
  5
394
100
AcDbEntity
  8
RACCORDO
100
AcDbCircle
 62
253
  6
CONTINUOUS
 10
498.2036525812
 20
-1.9237714415
 40
518.7459220354
100
AcDbArc
 50
179.978723945
 51
181.1824183355
  0
ARC
  5
395
100
AcDbEntity
  8
RACCORDO
100
AcDbCircle
 62
253
  6
CONTINUOUS
 10
493.1585960744
 20
-8.8811133925
 40
500.3131311242
100
AcDbArc
 50
181.2773442635
 51
181.9846663011
  0
ARC
  5
396
100
AcDbEntity
  8
RACCORDO
100
AcDbCircle
 62
253
  6
CONTINUOUS
 10
490.9407420134
 20
-8.9398853238
 40
498.7952409782
100
AcDbArc
 50
181.5493964099
 51
181.9856263395
  0
ARC
  5
397
100
AcDbEntity
  8
RACCORDO
100
AcDbCircle
 62
253
  6
CONTINUOUS
 10
517.020217533
 20
-1.0813954362
 40
539.6217717797
100
AcDbArc
 50
178.1135090866
 51
181.8864909134
  0
ARC
  5
398
100
AcDbEntity
  8
RACCORDO
100
AcDbCircle
 62
7
  6
CONTINUOUS
 10
513.6637535231
 20
-1.4633411504
 40
535.3988190418
100
AcDbArc
 50
179.0910991486
 51
179.9852096501
  0
ARC
  5
399
100
AcDbEntity
  8
RACCORDO
100
AcDbCircle
 62
7
  6
CONTINUOUS
 10
503.39323907
 20
-1.6278302542
 40
525.1289534206
100
AcDbArc
 50
179.0553657395
 51
181.315143145
  0
ARC
  5
39A
100
AcDbEntity
  8
RACCORDO
100
AcDbCircle
 62
7
  6
CONTINUOUS
 10
502.9926266228
 20
-1.5218621514
 40
524.9405002477
100
AcDbArc
 50
179.0550158974
 51
181.3387436944
  0
SPLINE
  5
39B
100
AcDbEntity
  8
RACCORDO
100
AcDbSpline
 62
253
  6
CONTINUOUS
 70
0
 71
3
 72
11
 73
7
 74
5
 42
0.0000001
 43
0.0000001
 44
0.0000000001
 12
-0.3586335921
 22
-0.217744845
 32
0.0
 13
0.0000000033
 23
-0.4195603305
 33
0.0
 40
0.0
 40
0.0
 40
0.0
 40
0.0
 40
0.2345987475
 40
0.4936433664
 40
0.7561526099
 40
1.0
 40
1.0
 40
1.0
 40
1.0
 10
-10.3295451051
 20
-16.7852893437
 30
0.0
 10
-10.3575901023
 20
-16.8023168997
 30
0.0
 10
-10.4103200906
 20
-16.8486005998
 30
0.0
 10
-10.4712923639
 20
-16.9360092048
 30
0.0
 10
-10.5119547059
 20
-17.0359174398
 30
0.0
 10
-10.5231886148
 20
-17.1068271759
 30
0.0
 10
-10.5231886145
 20
-17.1409300731
 30
0.0
 11
-10.3295451051
 21
-16.7852893437
 31
0.0
 11
-10.4047896631
 21
-16.848743203
 31
0.0
 11
-10.4674735883
 21
-16.937530146
 31
0.0
 11
-10.508735472
 21
-17.0396474238
 31
0.0
 11
-10.5231886145
 21
-17.1409300731
 31
0.0
  0
SPLINE
  5
39C
100
AcDbEntity
  8
RACCORDO
100
AcDbSpline
 62
253
  6
CONTINUOUS
 70
0
 71
3
 72
11
 73
7
 74
5
 42
0.0000001
 43
0.0000001
 44
0.0000000001
 12
-0.1684337701
 22
0.0847613059
 32
0.0
 13
-0.0000000015
 23
0.188558781
 33
0.0
 40
0.0
 40
0.0
 40
0.0
 40
0.0
 40
0.2170835201
 40
0.4506974028
 40
0.7115247267
 40
1.0
 40
1.0
 40
1.0
 40
1.0
 10
-20.1413741767
 20
-12.5722706749
 30
0.0
 10
-20.1535622419
 20
-12.5661372474
 30
0.0
 10
-20.1766364471
 20
-12.548497847
 30
0.0
 10
-20.2013150015
 20
-12.510376409
 30
0.0
 10
-20.2159566255
 20
-12.4629094006
 30
0.0
 10
-20.2190159735
 20
-12.4282710091
 30
0.0
 10
-20.2190159736
 20
-12.4101394938
 30
0.0
 11
-20.1413741767
 21
-12.5722706749
 31
0.0
 11
-20.1740635753
 21
-12.5476350498
 31
0.0
 11
-20.1986069952
 21
-12.511056114
 31
0.0
 11
-20.2138131935
 21
-12.4642846477
 31
0.0
 11
-20.2190159736
 21
-12.4101394938
 31
0.0
  0
SPLINE
  5
39D
100
AcDbEntity
  8
RACCORDO
100
AcDbSpline
 62
253
  6
CONTINUOUS
 70
0
 71
3
 72
11
 73
7
 74
5
 42
0.0000001
 43
0.0000001
 44
0.0000000001
 12
-0.35863359
 22
-0.2177448475
 32
0.0
 13
0.0
 23
-0.41956033
 33
0.0
 40
0.0
 40
0.0
 40
0.0
 40
0.0
 40
0.2345987474
 40
0.4936433667
 40
0.7561526103
 40
1.0
 40
1.0
 40
1.0
 40
1.0
 10
-20.0253724643
 20
-11.9373756642
 30
0.0
 10
-20.0534174613
 20
-11.9544032203
 30
0.0
 10
-20.1061474492
 20
-12.0006869207
 30
0.0
 10
-20.1671197222
 20
-12.0880955258
 30
0.0
 10
-20.2077820644
 20
-12.1880037605
 30
0.0
 10
-20.2190159736
 20
-12.2589134964
 30
0.0
 10
-20.2190159736
 20
-12.2930163935
 30
0.0
 11
-20.0253724643
 21
-11.9373756642
 31
0.0
 11
-20.1006170217
 21
-12.0008295238
 31
0.0
 11
-20.1633009467
 21
-12.089616467
 31
0.0
 11
-20.2045628306
 21
-12.1917337446
 31
0.0
 11
-20.2190159736
 21
-12.2930163935
 31
0.0
  0
SPLINE
  5
39E
100
AcDbEntity
  8
RACCORDO
100
AcDbSpline
 62
253
  6
CONTINUOUS
 70
0
 71
3
 72
13
 73
9
 74
7
 42
0.0000001
 43
0.0000001
 44
0.0000000001
 12
0.71819087
 22
-0.3162768994
 32
0.0
 13
-0.7208096357
 23
-0.3102622632
 33
0.0
 40
0.0
 40
0.0
 40
0.0
 40
0.0
 40
0.2633012059
 40
0.5499513615
 40
0.6834476688
 40
0.8021591693
 40
0.9055798481
 40
1.0
 40
1.0
 40
1.0
 40
1.0
 10
-10.3295430561
 20
-16.7852902461
 30
0.0
 10
-10.2665095487
 20
-16.8130489425
 30
0.0
 10
-10.153918785
 20
-16.9126857157
 30
0.0
 10
-10.0717587668
 20
-17.0763325319
 30
0.0
 10
-10.0504929994
 20
-17.2169013737
 30
0.0
 10
-10.0608443874
 20
-17.3106987301
 30
0.0
 10
-10.0978064472
 20
-17.3872065819
 30
0.0
 10
-10.1406594436
 20
-17.420297555
 30
0.0
 10
-10.163345762
 20
-17.4300625584
 30
0.0
 11
-10.3295430561
 21
-16.7852902461
 31
0.0
 11
-10.1693529844
 21
-16.9158009943
 31
0.0
 11
-10.0691397611
 21
-17.1171935358
 31
0.0
 11
-10.0547548799
 21
-17.2209621729
 31
0.0
 11
-10.0668505714
 21
-17.3133321801
 31
0.0
 11
-10.1042549655
 21
-17.3853580084
 31
0.0
 11
-10.163345762
 21
-17.4300625584
 31
0.0
  0
SPLINE
  5
39F
100
AcDbEntity
  8
RACCORDO
100
AcDbSpline
 62
253
  6
CONTINUOUS
 70
0
 71
3
 72
9
 73
5
 74
3
 42
0.0000001
 43
0.0000001
 44
0.0000000001
 12
0.1455090885
 22
0.0825213245
 32
0.0
 13
0.1455433123
 23
-0.0824609489
 33
0.0
 40
0.0
 40
0.0
 40
0.0
 40
0.0
 40
0.4587604525
 40
1.0
 40
1.0
 40
1.0
 40
1.0
 10
-20.1864471718
 20
-11.924705959
 30
0.0
 10
-20.1641959001
 20
-11.9120867856
 30
0.0
 10
-20.1054611121
 20
-11.9013852181
 30
0.0
 10
-20.0516303965
 20
-11.9224986219
 30
0.0
 10
-20.0253724643
 20
-11.9373756642
 30
0.0
 11
-20.1864471718
 21
-11.924705959
 31
0.0
 11
-20.111337621
 21
-11.9089636893
 31
0.0
 11
-20.0253724643
 21
-11.9373756642
 31
0.0
  0
LINE
  5
3A0
100
AcDbEntity
  8
RACCORDO
100
AcDbLine
 62
253
  6
CONTINUOUS
 10
-20.0253724643
 20
-11.9373756642
 11
-19.8043953359
 21
-11.8192674797
  0
LINE
  5
3A1
100
AcDbEntity
  8
RACCORDO
100
AcDbLine
 62
253
  6
CONTINUOUS
 10
-19.8043953359
 20
-11.8192674797
 11
-19.0477547397
 21
-11.4148570878
  0
LINE
  5
3A2
100
AcDbEntity
  8
RACCORDO
100
AcDbLine
 62
253
  6
CONTINUOUS
 10
-19.0477547397
 20
-11.4148570878
 11
-18.8704162012
 21
-11.3200729218
  0
SPLINE
  5
3A3
100
AcDbEntity
  8
RACCORDO
100
AcDbSpline
 62
253
  6
CONTINUOUS
 70
0
 71
3
 72
13
 73
9
 74
7
 42
0.0000001
 43
0.0000001
 44
0.0000000001
 12
-0.1532227183
 22
0.0766089139
 32
0.0
 13
0.1532264299
 23
-0.07660149
 33
0.0
 40
0.0
 40
0.0
 40
0.0
 40
0.0
 40
0.2803772962
 40
0.434168645
 40
0.5774113964
 40
0.7943801926
 40
0.8895486722
 40
1.0
 40
1.0
 40
1.0
 40
1.0
 10
-20.2190159736
 20
-12.4101394938
 30
0.0
 10
-20.2333360308
 20
-12.4029796937
 30
0.0
 10
-20.2510249758
 20
-12.3831697328
 30
0.0
 10
-20.2640325102
 20
-12.3526419525
 30
0.0
 10
-20.2692846594
 20
-12.3241419868
 30
0.0
 10
-20.2612762208
 20
-12.2939741263
 30
0.0
 10
-20.2363435432
 20
-12.2864410904
 30
0.0
 10
-20.2246573278
 20
-12.2901961481
 30
0.0
 10
-20.2190159736
 20
-12.2930163935
 30
0.0
 11
-20.2190159736
 21
-12.4101394938
 31
0.0
 11
-20.2528843499
 21
-12.3760825701
 31
0.0
 11
-20.2632900042
 21
-12.3518790482
 31
0.0
 11
-20.2669475134
 21
-12.3276146562
 31
0.0
 11
-20.2528883508
 21
-12.2932079368
 31
0.0
 11
-20.237340627
 21
-12.2883031109
 31
0.0
 11
-20.2190159736
 21
-12.2930163935
 31
0.0
  0
SPLINE
  5
3A4
100
AcDbEntity
  8
RACCORDO
100
AcDbSpline
 62
253
  6
CONTINUOUS
 70
0
 71
3
 72
13
 73
9
 74
7
 42
0.0000001
 43
0.0000001
 44
0.0000000001
 12
0.1532227183
 22
-0.0766089138
 32
0.0
 13
-0.1532264299
 23
0.07660149
 33
0.0
 40
0.0
 40
0.0
 40
0.0
 40
0.0
 40
0.2803772962
 40
0.434168645
 40
0.5774113964
 40
0.7943801926
 40
0.8895486722
 40
1.0
 40
1.0
 40
1.0
 40
1.0
 10
-10.5231886145
 20
-17.1409300731
 30
0.0
 10
-10.5088685573
 20
-17.1480898731
 30
0.0
 10
-10.4911796123
 20
-17.1678998341
 30
0.0
 10
-10.4781720779
 20
-17.1984276143
 30
0.0
 10
-10.4729199288
 20
-17.2269275801
 30
0.0
 10
-10.4809283673
 20
-17.2570954406
 30
0.0
 10
-10.5058610449
 20
-17.2646284765
 30
0.0
 10
-10.5175472603
 20
-17.2608734188
 30
0.0
 10
-10.5231886145
 20
-17.2580531733
 30
0.0
 11
-10.5231886145
 21
-17.1409300731
 31
0.0
 11
-10.4893202382
 21
-17.1749869968
 31
0.0
 11
-10.478914584
 21
-17.1991905187
 31
0.0
 11
-10.4752570747
 21
-17.2234549107
 31
0.0
 11
-10.4893162373
 21
-17.25786163
 31
0.0
 11
-10.5048639611
 21
-17.2627664559
 31
0.0
 11
-10.5231886145
 21
-17.2580531733
 31
0.0
  0
SPLINE
  5
3A5
100
AcDbEntity
  8
RACCORDO
100
AcDbSpline
 62
7
  6
CONTINUOUS
 70
0
 71
3
 72
10
 73
6
 74
4
 42
0.0000001
 43
0.0000001
 44
0.0000000001
 12
0.210378215
 22
0.1192790895
 32
0.0
 13
0.2163081034
 23
-0.1081540517
 33
0.0
 40
0.0
 40
0.0
 40
0.0
 40
0.0
 40
0.2280784972
 40
0.4661382489
 40
1.0
 40
1.0
 40
1.0
 40
1.0
 10
-19.103583566
 20
-11.3104068737
 30
0.0
 10
-19.0875893169
 20
-11.3013385419
 30
0.0
 10
-19.0519201958
 20
-11.2875704819
 30
0.0
 10
-18.9706828918
 20
-11.2812967821
 30
0.0
 10
-18.9089090755
 20
-11.3008264847
 30
0.0
 10
-18.8704162012
 20
-11.3200729218
 30
0.0
 11
-19.103583566
 21
-11.3104068737
 31
0.0
 11
-19.0521575807
 21
-11.290461352
 31
0.0
 11
-18.994801977
 21
-11.2854706214
 31
0.0
 11
-18.8704162012
 21
-11.3200729218
 31
0.0
  0
SPLINE
  5
3A6
100
AcDbEntity
  8
RACCORDO
100
AcDbSpline
 62
253
  6
CONTINUOUS
 70
0
 71
3
 72
11
 73
7
 74
5
 42
0.0000001
 43
0.0000001
 44
0.0000000001
 12
-0.1690081552
 22
0.0843870467
 32
0.0
 13
0.0
 23
0.1889045531
 33
0.0
 40
0.0
 40
0.0
 40
0.0
 40
0.0
 40
0.2170868256
 40
0.4506471309
 40
0.7114626697
 40
1.0
 40
1.0
 40
1.0
 40
1.0
 10
-10.4452336604
 20
-17.4203413303
 30
0.0
 10
-10.4574634751
 20
-17.4142348916
 30
0.0
 10
-10.480628504
 20
-17.3966255128
 30
0.0
 10
-10.5054148334
 20
-17.3584737759
 30
0.0
 10
-10.5201172365
 20
-17.3109274263
 30
0.0
 10
-10.5231886145
 20
-17.2762218451
 30
0.0
 10
-10.5231886145
 20
-17.2580531733
 30
0.0
 11
-10.4452336604
 21
-17.4203413303
 31
0.0
 11
-10.4780493695
 21
-17.395747797
 31
0.0
 11
-10.5026932683
 21
-17.3591512666
 31
0.0
 11
-10.5179635909
 21
-17.3123081717
 31
0.0
 11
-10.5231886145
 21
-17.2580531733
 31
0.0
  0
SPLINE
  5
3A7
100
AcDbEntity
  8
RACCORDO
100
AcDbSpline
 62
7
  6
CONTINUOUS
 70
0
 71
3
 72
9
 73
5
 74
3
 42
0.0000001
 43
0.0000001
 44
0.0000000001
 12
-0.0018919397
 22
-0.0771244523
 32
0.0
 13
0.0223863563
 23
-0.0738282577
 33
0.0
 40
0.0
 40
0.0
 40
0.0
 40
0.0
 40
0.2577545304
 40
1.0
 40
1.0
 40
1.0
 40
1.0
 10
-21.6298068609
 20
12.0853975863
 30
0.0
 10
-21.6299694129
 20
12.078771194
 30
0.0
 10
-21.6298024615
 20
12.053069507
 30
0.0
 10
-21.6261371023
 20
12.0272368526
 30
0.0
 10
-21.6205983784
 20
12.0089706227
 30
0.0
 11
-21.6298068609
 21
12.0853975863
 31
0.0
 11
-21.6296509228
 21
12.0655130403
 31
0.0
 11
-21.6205983784
 21
12.0089706227
 31
0.0
  0
SPLINE
  5
3A8
100
AcDbEntity
  8
RACCORDO
100
AcDbSpline
 62
7
  6
CONTINUOUS
 70
0
 71
3
 72
13
 73
9
 74
7
 42
0.0000001
 43
0.0000001
 44
0.0000000001
 12
0.0658235532
 22
1.9951482153
 32
0.0
 13
1.7386144048
 23
0.9809021829
 33
0.0
 40
0.0
 40
0.0
 40
0.0
 40
0.0
 40
0.2475997169
 40
0.3771765417
 40
0.5078237256
 40
0.6373138893
 40
0.7635662444
 40
1.0
 40
1.0
 40
1.0
 40
1.0
 10
-21.5034389701
 20
16.4326504689
 30
0.0
 10
-21.498006339
 20
16.5973165133
 30
0.0
 10
-21.4524430076
 20
16.8478659525
 30
0.0
 10
-21.3356072803
 20
17.1653008135
 30
0.0
 10
-21.2188060137
 20
17.3975091101
 30
0.0
 10
-21.0775223884
 20
17.6131162249
 30
0.0
 10
-20.8668173726
 20
17.8641969882
 30
0.0
 10
-20.6765618273
 20
18.0198881245
 30
0.0
 10
-20.5395394496
 20
18.0971942535
 30
0.0
 11
-21.5034389701
 21
16.4326504689
 31
0.0
 11
-21.4204251028
 21
16.9198962742
 31
0.0
 11
-21.3313603191
 21
17.1627447296
 31
0.0
 11
-21.2141326134
 21
17.3957157862
 31
0.0
 11
-21.0722434204
 21
17.6117849847
 31
0.0
 11
-20.9097474859
 21
17.8044343927
 31
0.0
 11
-20.5395394496
 21
18.0971942535
 31
0.0
  0
SPLINE
  5
3A9
100
AcDbEntity
  8
RACCORDO
100
AcDbSpline
 62
7
  6
CONTINUOUS
 70
0
 71
3
 72
9
 73
5
 74
3
 42
0.0000001
 43
0.0000001
 44
0.0000000001
 12
-0.0455328651
 22
-0.0229894615
 32
0.0
 13
-0.0490373462
 23
-0.014039082
 33
0.0
 40
0.0
 40
0.0
 40
0.0
 40
0.0
 40
0.2547506432
 40
1.0
 40
1.0
 40
1.0
 40
1.0
 10
-8.3935095777
 20
5.4379494943
 30
0.0
 10
-8.3973760866
 20
5.435997301
 30
0.0
 10
-8.4127040919
 20
5.4286421393
 30
0.0
 10
-8.4286826285
 20
5.4225911284
 30
0.0
 10
-8.4408643121
 20
5.4191035895
 30
0.0
 11
-8.3935095777
 21
5.4379494943
 31
0.0
 11
-8.4052279431
 21
5.4323344733
 31
0.0
 11
-8.4408643121
 21
5.4191035895
 31
0.0
  0
SPLINE
  5
3AA
100
AcDbEntity
  8
RACCORDO
100
AcDbSpline
 62
253
  6
CONTINUOUS
 70
0
 71
3
 72
11
 73
7
 74
5
 42
0.0000001
 43
0.0000001
 44
0.0000000001
 12
0.1028816912
 22
0.0581284283
 32
0.0
 13
0.1056922194
 23
-0.0528461097
 33
0.0
 40
0.0
 40
0.0
 40
0.0
 40
0.0
 40
0.2226024327
 40
0.4579696398
 40
0.7158399617
 40
1.0
 40
1.0
 40
1.0
 40
1.0
 10
-20.5395354584
 20
18.0971871828
 30
0.0
 10
-20.5319015534
 20
18.1015003593
 30
0.0
 10
-20.5146965805
 20
18.1079293564
 30
0.0
 10
-20.4862259077
 20
18.1097559752
 30
0.0
 10
-20.4558770337
 20
18.1040977215
 30
0.0
 10
-20.435958291
 20
18.0960467581
 30
0.0
 10
-20.4259471226
 20
18.0910411739
 30
0.0
 11
-20.5395354584
 21
18.0971871828
 31
0.0
 11
-20.5149376058
 21
18.1065073551
 31
0.0
 11
-20.4872032747
 21
18.1085944832
 31
0.0
 11
-20.4571843831
 21
18.1033597713
 31
0.0
 11
-20.4259471226
 21
18.0910411739
 31
0.0
  0
SPLINE
  5
3AB
100
AcDbEntity
  8
RACCORDO
100
AcDbSpline
 62
253
  6
CONTINUOUS
 70
0
 71
3
 72
11
 73
7
 74
5
 42
0.0000001
 43
0.0000001
 44
0.0000000001
 12
-0.2563311843
 22
-0.0323845334
 32
0.0
 13
-0.2310920748
 23
0.1155460385
 33
0.0
 40
0.0
 40
0.0
 40
0.0
 40
0.0
 40
0.2603110252
 40
0.5235205621
 40
0.7746216658
 40
1.0
 40
1.0
 40
1.0
 40
1.0
 10
-8.1666659633
 20
9.8040606573
 30
0.0
 10
-8.1889079077
 20
9.8012506402
 30
0.0
 10
-8.2340836309
 20
9.7987884523
 30
0.0
 10
-8.300800197
 20
9.8036096465
 30
0.0
 10
-8.3633622047
 20
9.8165429527
 30
0.0
 10
-8.4020767855
 20
9.8309177506
 30
0.0
 10
-8.4194378344
 20
9.8395982751
 30
0.0
 11
-8.1666659633
 21
9.8040606573
 31
0.0
 11
-8.2338122551
 21
9.8002164284
 31
0.0
 11
-8.301634398
 21
9.8052018812
 31
0.0
 11
-8.3650974846
 21
9.8186711606
 31
0.0
 11
-8.4194378344
 21
9.8395982751
 31
0.0
  0
SPLINE
  5
3AC
100
AcDbEntity
  8
RACCORDO
100
AcDbSpline
 62
253
  6
CONTINUOUS
 70
0
 71
3
 72
15
 73
11
 74
9
 42
0.0000001
 43
0.0000001
 44
0.0000000001
 12
0.0659724749
 22
1.9996621934
 32
0.0
 13
1.6738483216
 23
1.0960077789
 33
0.0
 40
0.0
 40
0.0
 40
0.0
 40
0.0
 40
0.1194149001
 40
0.2450341732
 40
0.3747354255
 40
0.5061180794
 40
0.6366618436
 40
0.7639098617
 40
0.885614054
 40
1.0
 40
1.0
 40
1.0
 40
1.0
 10
-21.4302026083
 20
16.344980662
 30
0.0
 10
-21.4275765761
 20
16.4245771491
 30
0.0
 10
-21.410566766
 20
16.5876608849
 30
0.0
 10
-21.3544655774
 20
16.8317384602
 30
0.0
 10
-21.2687034584
 20
17.0755184182
 30
0.0
 10
-21.155869225
 20
17.3116190658
 30
0.0
 10
-21.0193585951
 20
17.5329584068
 30
0.0
 10
-20.8632465216
 20
17.7328771313
 30
0.0
 10
-20.6922542545
 20
17.9053788134
 30
0.0
 10
-20.5671888176
 20
18.0020726467
 30
0.0
 10
-20.503367243
 20
18.0438619422
 30
0.0
 11
-21.4302026083
 21
16.344980662
 31
0.0
 11
-21.406324895
 21
16.5827038749
 31
0.0
 11
-21.3506224375
 21
16.8277863176
 31
0.0
 11
-21.2648019715
 21
17.0726842461
 31
0.0
 11
-21.1514985417
 21
17.3098756153
 31
0.0
 11
-21.0141966938
 21
17.5320603278
 31
0.0
 11
-20.8571124496
 21
17.7324134389
 31
0.0
 11
-20.6851010069
 21
17.9047623862
 31
0.0
 11
-20.503367243
 21
18.0438619422
 31
0.0
  0
SPLINE
  5
3AD
100
AcDbEntity
  8
RACCORDO
100
AcDbSpline
 62
7
  6
CONTINUOUS
 70
0
 71
3
 72
8
 73
4
 74
2
 42
0.0000001
 43
0.0000001
 44
0.0000000001
 12
-0.0548327168
 22
0.0324052546
 32
0.0
 13
-0.0475922955
 23
0.0423284865
 33
0.0
 40
0.0
 40
0.0
 40
0.0
 40
0.0
 40
1.0
 40
1.0
 40
1.0
 40
1.0
 10
-8.4408643121
 20
5.4191035895
 30
0.0
 10
-8.4591418844
 20
5.429905341
 30
0.0
 10
-8.4762840999
 20
5.4427656491
 30
0.0
 10
-8.4921481984
 20
5.4568751446
 30
0.0
 11
-8.4408643121
 21
5.4191035895
 31
0.0
 11
-8.4921481984
 21
5.4568751446
 31
0.0
  0
SPLINE
  5
3AE
100
AcDbEntity
  8
RACCORDO
100
AcDbSpline
 62
7
  6
CONTINUOUS
 70
0
 71
3
 72
9
 73
5
 74
3
 42
0.0000001
 43
0.0000001
 44
0.0000000001
 12
-0.0585360217
 22
0.0520618133
 32
0.0
 13
-0.0475331441
 23
0.0622695628
 33
0.0
 40
0.0
 40
0.0
 40
0.0
 40
0.0
 40
0.2525355785
 40
1.0
 40
1.0
 40
1.0
 40
1.0
 10
-8.4921481984
 20
5.4568751446
 30
0.0
 10
-8.4970756744
 20
5.4612576313
 30
0.0
 10
-8.5161253603
 20
5.4791271108
 30
0.0
 10
-8.5334096911
 20
5.4988581808
 30
0.0
 10
-8.5452528024
 20
5.5143729417
 30
0.0
 11
-8.4921481984
 21
5.4568751446
 31
0.0
 11
-8.5065845371
 21
5.4704017114
 31
0.0
 11
-8.5452528024
 21
5.5143729417
 31
0.0
  0
SPLINE
  5
3AF
100
AcDbEntity
  8
RACCORDO
100
AcDbSpline
 62
253
  6
CONTINUOUS
 70
0
 71
3
 72
11
 73
7
 74
5
 42
0.0000001
 43
0.0000001
 44
0.0000000001
 12
-0.0695016768
 22
0.3043446997
 32
0.0
 13
-0.2792220297
 23
0.139611022
 33
0.0
 40
0.0
 40
0.0
 40
0.0
 40
0.0
 40
0.2563727097
 40
0.5204951895
 40
0.7737346678
 40
1.0
 40
1.0
 40
1.0
 40
1.0
 10
-7.2366839033
 20
11.3396522593
 30
0.0
 10
-7.2426233477
 20
11.3656608177
 30
0.0
 10
-7.2607692888
 20
11.4171741127
 30
0.0
 10
-7.3016722391
 20
11.4870605811
 30
0.0
 10
-7.3530944314
 20
11.5455154866
 30
0.0
 10
-7.3941229268
 20
11.5751290757
 30
0.0
 10
-7.4151823485
 20
11.5856587871
 30
0.0
 11
-7.2366839033
 21
11.3396522593
 31
0.0
 11
-7.2627722951
 21
11.415315294
 31
0.0
 11
-7.3044435773
 21
11.4864638288
 31
0.0
 11
-7.3571549333
 21
11.5453824207
 31
0.0
 11
-7.4151823485
 21
11.5856587871
 31
0.0
  0
SPLINE
  5
3B0
100
AcDbEntity
  8
RACCORDO
100
AcDbSpline
 62
253
  6
CONTINUOUS
 70
0
 71
3
 72
15
 73
11
 74
9
 42
0.0000001
 43
0.0000001
 44
0.0000000001
 12
-1.8213244136
 22
-1.0275660248
 32
0.0
 13
-0.068954933
 23
-2.0900621455
 33
0.0
 40
0.0
 40
0.0
 40
0.0
 40
0.0
 40
0.1118379243
 40
0.2320159223
 40
0.3587165354
 40
0.4895581921
 40
0.621841726
 40
0.7527616401
 40
0.8796096139
 40
1.0
 40
1.0
 40
1.0
 40
1.0
 10
-7.4151823488
 20
11.585658787
 30
0.0
 10
-7.4830800627
 20
11.5473518366
 30
0.0
 10
-7.6170122151
 20
11.4552576536
 30
0.0
 10
-7.8009362082
 20
11.284826414
 30
0.0
 10
-7.9701066577
 20
11.0821925916
 30
0.0
 10
-8.1188880996
 20
10.8541013531
 30
0.0
 10
-8.2423867915
 20
10.6081119737
 30
0.0
 10
-8.3364931557
 20
10.3523781238
 30
0.0
 10
-8.3980814507
 20
10.0954522274
 30
0.0
 10
-8.4166706641
 20
9.923472738
 30
0.0
 10
-8.4194378344
 20
9.8395982751
 30
0.0
 11
-7.4151823488
 21
11.585658787
 31
0.0
 11
-7.6087193373
 21
11.4543532952
 31
0.0
 11
-7.7937977338
 21
11.2843362587
 31
0.0
 11
-7.9641249576
 21
11.0813819704
 31
0.0
 11
-8.1138973664
 21
10.8523974049
 31
0.0
 11
-8.2380175796
 21
10.6051748073
 31
0.0
 11
-8.3322622641
 21
10.3481276764
 31
0.0
 11
-8.3934271304
 21
10.09001131
 31
0.0
 11
-8.4194378344
 21
9.8395982751
 31
0.0
  0
SPLINE
  5
3B1
100
AcDbEntity
  8
RACCORDO
100
AcDbSpline
 62
253
  6
CONTINUOUS
 70
0
 71
3
 72
11
 73
7
 74
5
 42
0.0000001
 43
0.0000001
 44
0.0000000001
 12
-0.0039319102
 22
-0.1199193187
 32
0.0
 13
0.107316737
 23
-0.053658372
 33
0.0
 40
0.0
 40
0.0
 40
0.0
 40
0.0
 40
0.2010920437
 40
0.4266530287
 40
0.6918365394
 40
1.0
 40
1.0
 40
1.0
 40
1.0
 10
-21.5034275566
 20
16.4326500929
 30
0.0
 10
-21.5036911152
 20
16.4246118193
 30
0.0
 10
-21.5003836387
 20
16.407291258
 30
0.0
 10
-21.485139824
 20
16.3836393103
 30
0.0
 10
-21.4610789791
 20
16.362215449
 30
0.0
 10
-21.4412263073
 20
16.3504925117
 30
0.0
 10
-21.4302026083
 20
16.3449806619
 30
0.0
 11
-21.5034275566
 21
16.4326500929
 31
0.0
 11
-21.4992197121
 21
16.4088920669
 31
0.0
 11
-21.4851748241
 21
16.3857580538
 31
0.0
 11
-21.4618204037
 21
16.3641493048
 31
0.0
 11
-21.4302026083
 21
16.3449806619
 31
0.0
  0
SPLINE
  5
3B2
100
AcDbEntity
  8
RACCORDO
100
AcDbSpline
 62
7
  6
CONTINUOUS
 70
0
 71
3
 72
9
 73
5
 74
3
 42
0.0000001
 43
0.0000001
 44
0.0000000001
 12
-0.0830879435
 22
-0.075584401
 32
0.0
 13
-0.1002681278
 23
-0.050625197
 33
0.0
 40
0.0
 40
0.0
 40
0.0
 40
0.0
 40
0.2537765546
 40
1.0
 40
1.0
 40
1.0
 40
1.0
 10
-8.3018185595
 20
5.5025213931
 30
0.0
 10
-8.3088471502
 20
5.4961275435
 30
0.0
 10
-8.3372092055
 20
5.4717015892
 30
0.0
 10
-8.3685687684
 20
5.450542064
 30
0.0
 10
-8.3935095777
 20
5.4379494943
 30
0.0
 11
-8.3018185595
 21
5.5025213931
 31
0.0
 11
-8.3234354466
 21
5.4839404407
 31
0.0
 11
-8.3935095777
 21
5.4379494943
 31
0.0
  0
SPLINE
  5
3B3
100
AcDbEntity
  8
RACCORDO
100
AcDbSpline
 62
7
  6
CONTINUOUS
 70
0
 71
3
 72
10
 73
6
 74
4
 42
0.0000001
 43
0.0000001
 44
0.0000000001
 12
0.0548748944
 22
-0.0113001785
 32
0.0
 13
0.0541289649
 23
0.014456944
 33
0.0
 40
0.0
 40
0.0
 40
0.0
 40
0.0
 40
0.1782256531
 40
0.4056993186
 40
1.0
 40
1.0
 40
1.0
 40
1.0
 10
-21.6205983784
 20
12.0089706227
 30
0.0
 10
-21.6173383405
 20
12.0082992954
 30
0.0
 10
-21.6096707944
 20
12.0081347304
 30
0.0
 10
-21.5911467931
 20
12.0105138939
 30
0.0
 10
-21.57622
 20
12.014301075
 30
0.0
 10
-21.5654970397
 20
12.0171649989
 30
0.0
 11
-21.6205983784
 21
12.0089706227
 31
0.0
 11
-21.610630967
 21
12.0083727437
 31
0.0
 11
-21.5979645588
 21
12.0097815286
 31
0.0
 11
-21.5654970397
 21
12.0171649989
 31
0.0
  0
SPLINE
  5
3B4
100
AcDbEntity
  8
ASSI
100
AcDbSpline
 62
7
  6
CONTINUOUS
 70
0
 71
3
 72
17
 73
13
 74
11
 42
0.0000001
 43
0.0000001
 44
0.0000000001
 12
0.9525127272
 22
-0.4762563636
 32
0.0
 13
-0.0000586355
 23
1.0649416021
 33
0.0
 40
0.0
 40
0.0
 40
0.0
 40
0.0
 40
0.129825922
 40
0.2748070512
 40
0.4262226163
 40
0.5743898362
 40
0.7100958581
 40
0.8263347758
 40
0.8762939073
 40
0.9210597763
 40
0.9616998
 40
1.0
 40
1.0
 40
1.0
 40
1.0
 10
8.3169748757
 20
-6.5155083933
 30
0.0
 10
8.3581951567
 20
-6.5361185338
 30
0.0
 10
8.4508730694
 20
-6.5690140346
 30
0.0
 10
8.6004843706
 20
-6.5948610926
 30
0.0
 10
8.7588126859
 20
-6.5986278476
 30
0.0
 10
8.9128137565
 20
-6.5799668707
 30
0.0
 10
9.0498864967
 20
-6.5404904014
 30
0.0
 10
9.1460273905
 20
-6.4902949066
 30
0.0
 10
9.2029459606
 20
-6.4410989498
 30
0.0
 10
9.2329282543
 20
-6.403090044
 30
0.0
 10
9.251606637
 20
-6.3628277757
 30
0.0
 10
9.2558644287
 20
-6.3346498525
 30
0.0
 10
9.2558636801
 20
-6.321054027
 30
0.0
 11
8.3169748757
 21
-6.5155083933
 31
0.0
 11
8.4466065498
 21
-6.56357745
 31
0.0
 11
8.5985893074
 21
-6.5907712154
 31
0.0
 11
8.7597895339
 21
-6.5947261392
 31
0.0
 11
8.9163558824
 21
-6.575117853
 31
0.0
 11
9.0547913136
 21
-6.5336284633
 31
0.0
 11
9.1631792824
 21
-6.47383354
 31
0.0
 11
9.2030741863
 21
-6.4386338927
 31
0.0
 11
9.2321878179
 21
-6.4008831992
 31
0.0
 11
9.2499293526
 21
-6.3614074902
 31
0.0
 11
9.2558636801
 21
-6.321054027
 31
0.0
  0
SPLINE
  5
3B5
100
AcDbEntity
  8
ASSI
100
AcDbSpline
 62
7
  6
CONTINUOUS
 70
0
 71
3
 72
11
 73
7
 74
5
 42
0.0000001
 43
0.0000001
 44
0.0000000001
 12
0.0000145746
 22
-0.2647042062
 32
0.0
 13
0.2367586399
 23
-0.11837932
 33
0.0
 40
0.0
 40
0.0
 40
0.0
 40
0.0
 40
0.2065358893
 40
0.4344465054
 40
0.697705174
 40
1.0
 40
1.0
 40
1.0
 40
1.0
 10
8.1559035306
 20
-6.3210540299
 30
0.0
 10
8.155904534
 20
-6.3392776695
 30
0.0
 10
8.1639223026
 20
-6.3779094664
 30
0.0
 10
8.1975498547
 20
-6.4306394362
 30
0.0
 10
8.2499750199
 20
-6.4779390249
 30
0.0
 10
8.2931179051
 20
-6.503579908
 30
0.0
 10
8.3169748757
 20
-6.5155083933
 30
0.0
 11
8.1559035306
 21
-6.3210540299
 31
0.0
 11
8.1664481348
 21
-6.3746984208
 31
0.0
 11
8.1977364111
 21
-6.426279617
 31
0.0
 11
8.2486474063
 21
-6.4738628509
 31
0.0
 11
8.3169748757
 21
-6.5155083933
 31
0.0
  0
SPLINE
  5
3B6
100
AcDbEntity
  8
ASSI
100
AcDbSpline
 62
7
  6
CONTINUOUS
 70
0
 71
3
 72
9
 73
5
 74
3
 42
0.0000001
 43
0.0000001
 44
0.0000000001
 12
0.0
 22
-0.063238136
 32
0.0
 13
0.0154923047
 23
-0.0613110947
 33
0.0
 40
0.0
 40
0.0
 40
0.0
 40
0.0
 40
0.7472239209
 40
1.0
 40
1.0
 40
1.0
 40
1.0
 10
20.044896937
 20
-3.2274618608
 30
0.0
 10
20.044896937
 20
-3.2432128768
 30
0.0
 10
20.0469307369
 20
-3.2643631961
 30
0.0
 10
20.0514888842
 20
-3.2849477118
 30
0.0
 10
20.0527942456
 20
-3.2901137045
 30
0.0
 11
20.044896937
 21
-3.2274618608
 31
0.0
 11
20.0493457981
 21
-3.274505013
 31
0.0
 11
20.0527942456
 21
-3.2901137045
 31
0.0
  0
SPLINE
  5
3B7
100
AcDbEntity
  8
ASSI
100
AcDbSpline
 62
7
  6
CONTINUOUS
 70
0
 71
3
 72
18
 73
14
 74
12
 42
0.0000001
 43
0.0000001
 44
0.0000000001
 12
-0.0000270645
 22
-3.2373307895
 32
0.0
 13
-3.002611959
 23
1.2102198416
 33
0.0
 40
0.0
 40
0.0
 40
0.0
 40
0.0
 40
0.0382435344
 40
0.0786262863
 40
0.1228272464
 40
0.1718792531
 40
0.2262203216
 40
0.2858043957
 40
0.4187380657
 40
0.5649876258
 40
0.7164359324
 40
0.864206037
 40
1.0
 40
1.0
 40
1.0
 40
1.0
 10
13.9206968946
 20
4.1423223012
 30
0.0
 10
13.9206965496
 20
4.1010533107
 30
0.0
 10
13.9083546207
 20
4.0157856913
 30
0.0
 10
13.8544150422
 20
3.8932680629
 30
0.0
 10
13.7672874508
 20
3.7770604851
 30
0.0
 10
13.6493361095
 20
3.6689606439
 30
0.0
 10
13.502928681
 20
3.5705419232
 30
0.0
 10
13.2647619784
 20
3.4500337505
 30
0.0
 10
12.9143613747
 20
3.3380184676
 30
0.0
 10
12.4535322342
 20
3.267522178
 30
0.0
 10
11.9712402541
 20
3.2618079736
 30
0.0
 10
11.5041555843
 20
3.3212330517
 30
0.0
 10
11.2082774779
 20
3.406356488
 30
0.0
 10
11.0723652855
 20
3.4611366708
 30
0.0
 11
13.9206968946
 21
4.1423223012
 31
0.0
 11
13.9034414292
 21
4.0197237077
 31
0.0
 11
13.8519884955
 21
3.8995424418
 31
0.0
 11
13.7673666401
 21
3.7841527319
 31
0.0
 11
13.6512550876
 21
3.67582556
 31
0.0
 11
13.5059160339
 21
3.5767073939
 31
0.0
 11
13.3342462682
 21
3.4887452493
 31
0.0
 11
12.9258695325
 21
3.3529888843
 31
0.0
 11
12.4581945911
 21
3.2792134155
 31
0.0
 11
11.9679430132
 21
3.2732155725
 31
0.0
 11
11.4936298471
 21
3.3354660638
 31
0.0
 11
11.0723652855
 21
3.4611366708
 31
0.0
  0
SPLINE
  5
3B8
100
AcDbEntity
  8
ASSI
100
AcDbSpline
 62
7
  6
CONTINUOUS
 70
0
 71
3
 72
18
 73
14
 74
12
 42
0.0000001
 43
0.0000001
 44
0.0000000001
 12
-0.0000280728
 22
-3.3579454145
 32
0.0
 13
-3.0298756994
 23
1.4476362298
 33
0.0
 40
0.0
 40
0.0
 40
0.0
 40
0.0
 40
0.0382714418
 40
0.0788369803
 40
0.123467234
 40
0.1732084125
 40
0.228457525
 40
0.2890959835
 40
0.4241760977
 40
0.5719068134
 40
0.7233240722
 40
0.8688787958
 40
1.0
 40
1.0
 40
1.0
 40
1.0
 10
17.4562308005
 20
5.9100892542
 30
0.0
 10
17.4562304424
 20
5.86725145
 30
0.0
 10
17.4428742655
 20
5.7785441913
 30
0.0
 10
17.3847079014
 20
5.6515778618
 30
0.0
 10
17.2910151532
 20
5.5316885744
 30
0.0
 10
17.1644905169
 20
5.4207938265
 30
0.0
 10
17.0078217454
 20
5.3206022824
 30
0.0
 10
16.7537886443
 20
5.1993846187
 30
0.0
 10
16.3826521063
 20
5.0901895664
 30
0.0
 10
15.898936442
 20
5.0283480427
 30
0.0
 10
15.3994326421
 20
5.0365074695
 30
0.0
 10
14.9249084424
 20
5.1137948043
 30
0.0
 10
14.6294790968
 20
5.2142922063
 30
0.0
 10
14.4970521134
 20
5.2775641415
 30
0.0
 11
17.4562308005
 21
5.9100892542
 31
0.0
 11
17.4376578084
 21
5.7829250252
 31
0.0
 11
17.3823109842
 21
5.6584591136
 31
0.0
 11
17.2913706317
 21
5.539338767
 31
0.0
 11
17.1667853648
 21
5.4280871685
 31
0.0
 11
17.011172918
 21
5.3270736202
 31
0.0
 11
16.8278544918
 21
5.2384411367
 31
0.0
 11
16.3941707359
 21
5.1055359634
 31
0.0
 11
15.9023672656
 21
5.040601707
 31
0.0
 11
15.3939880155
 21
5.0491366628
 31
0.0
 11
14.9120244074
 21
5.1303901331
 31
0.0
 11
14.4970521134
 21
5.2775641415
 31
0.0
  0
SPLINE
  5
3B9
100
AcDbEntity
  8
ASSI
100
AcDbSpline
 62
7
  6
CONTINUOUS
 70
0
 71
3
 72
11
 73
7
 74
5
 42
0.0000001
 43
0.0000001
 44
0.0000000001
 12
0.0
 22
-0.252025148
 32
0.0
 13
-0.2254459387
 23
-0.1126534685
 33
0.0
 40
0.0
 40
0.0
 40
0.0
 40
0.0
 40
0.2895796029
 40
0.5496503397
 40
0.7828257904
 40
1.0
 40
1.0
 40
1.0
 40
1.0
 10
14.9991339579
 20
-1.4109551265
 30
0.0
 10
14.9991339579
 20
-1.4352822405
 30
0.0
 10
14.9951771387
 20
-1.4816286217
 30
0.0
 10
14.9753964211
 20
-1.5450208532
 30
0.0
 10
14.9422655352
 20
-1.5957641461
 30
0.0
 10
14.9113642375
 20
-1.6192061715
 30
0.0
 10
14.8950438897
 20
-1.6273613142
 30
0.0
 11
14.9991339579
 21
-1.4109551265
 31
0.0
 11
14.992207963
 21
-1.4836070839
 31
0.0
 11
14.9717868193
 21
-1.5458890298
 31
0.0
 11
14.9388655827
 21
-1.5945680196
 31
0.0
 11
14.8950438897
 21
-1.6273613142
 31
0.0
  0
SPLINE
  5
3BA
100
AcDbEntity
  8
ASSI
100
AcDbSpline
 62
7
  6
CONTINUOUS
 70
0
 71
3
 72
11
 73
7
 74
5
 42
0.0000001
 43
0.0000001
 44
0.0000000001
 12
0.0
 22
-0.252025148
 32
0.0
 13
-0.2254459387
 23
-0.1126534685
 33
0.0
 40
0.0
 40
0.0
 40
0.0
 40
0.0
 40
0.2895796029
 40
0.5496503397
 40
0.7828257904
 40
1.0
 40
1.0
 40
1.0
 40
1.0
 10
18.5346678638
 20
0.3568118265
 30
0.0
 10
18.5346678638
 20
0.3324847124
 30
0.0
 10
18.5307110446
 20
0.2861383313
 30
0.0
 10
18.510930327
 20
0.2227460998
 30
0.0
 10
18.4777994411
 20
0.1720028069
 30
0.0
 10
18.4468981435
 20
0.1485607814
 30
0.0
 10
18.4305777956
 20
0.1404056388
 30
0.0
 11
18.5346678638
 21
0.3568118265
 31
0.0
 11
18.5277418689
 21
0.2841598691
 31
0.0
 11
18.5073207252
 21
0.2218779231
 31
0.0
 11
18.4743994886
 21
0.1731989334
 31
0.0
 11
18.4305777956
 21
0.1404056388
 31
0.0
  0
SPLINE
  5
3BB
100
AcDbEntity
  8
ASSI
100
AcDbSpline
 62
7
  6
CONTINUOUS
 70
0
 71
3
 72
12
 73
8
 74
6
 42
0.0000001
 43
0.0000001
 44
0.0000000001
 12
0.7540465313
 22
-0.3770232657
 32
0.0
 13
-0.000007048
 23
-0.8430496511
 33
0.0
 40
0.0
 40
0.0
 40
0.0
 40
0.0
 40
0.3022587084
 40
0.5649697199
 40
0.7926794951
 40
0.8977787138
 40
1.0
 40
1.0
 40
1.0
 40
1.0
 10
16.9436776062
 20
6.5288076879
 30
0.0
 10
17.019649983
 20
6.4908214994
 30
0.0
 10
17.1569640487
 20
6.4092642516
 30
0.0
 10
17.3237012905
 20
6.2588977699
 30
0.0
 10
17.4150004415
 20
6.1149185336
 30
0.0
 10
17.4504264242
 20
5.9972329066
 30
0.0
 10
17.4562310407
 20
5.9388151274
 30
0.0
 10
17.4562308005
 20
5.9100892542
 30
0.0
 11
16.9436776062
 21
6.5288076879
 31
0.0
 11
17.1612880581
 21
6.3962238869
 31
0.0
 11
17.3230369234
 21
6.2449294786
 31
0.0
 11
17.4225994668
 21
6.0807952984
 31
0.0
 11
17.4478138111
 21
5.9958548442
 31
0.0
 11
17.4562308005
 21
5.9100892542
 31
0.0
  0
SPLINE
  5
3BC
100
AcDbEntity
  8
ASSI
100
AcDbSpline
 62
7
  6
CONTINUOUS
 70
0
 71
3
 72
11
 73
7
 74
5
 42
0.0000001
 43
0.0000001
 44
0.0000000001
 12
0.6808699051
 22
-0.3749041586
 32
0.0
 13
-0.000006498
 23
-0.7772624754
 33
0.0
 40
0.0
 40
0.0
 40
0.0
 40
0.0
 40
0.2993528047
 40
0.5609354575
 40
0.7901490738
 40
1.0
 40
1.0
 40
1.0
 40
1.0
 10
13.4660311644
 20
4.7306667762
 30
0.0
 10
13.5339712697
 20
4.6932572391
 30
0.0
 10
13.6566475965
 20
4.6137951049
 30
0.0
 10
13.8044292072
 20
4.4696482074
 30
0.0
 10
13.8984303732
 20
4.3112663693
 30
0.0
 10
13.9206973491
 20
4.1966920513
 30
0.0
 10
13.9206968946
 20
4.1423223012
 30
0.0
 11
13.4660311644
 21
4.7306667762
 31
0.0
 11
13.6598485579
 21
4.6019313876
 31
0.0
 11
13.8031126574
 21
4.4576616349
 31
0.0
 11
13.891042579
 21
4.3027132272
 31
0.0
 11
13.9206968946
 21
4.1423223012
 31
0.0
  0
SPLINE
  5
3BD
100
AcDbEntity
  8
ASSI
100
AcDbSpline
 62
7
  6
CONTINUOUS
 70
0
 71
3
 72
11
 73
7
 74
5
 42
0.0000001
 43
0.0000001
 44
0.0000000001
 12
-0.0000145746
 22
0.2647042062
 32
0.0
 13
-0.2367586399
 23
0.11837932
 33
0.0
 40
0.0
 40
0.0
 40
0.0
 40
0.0
 40
0.2065358893
 40
0.4344465054
 40
0.697705174
 40
1.0
 40
1.0
 40
1.0
 40
1.0
 10
9.2558636801
 20
-6.321054027
 30
0.0
 10
9.2558626767
 20
-6.3028303875
 30
0.0
 10
9.2478449081
 20
-6.2641985906
 30
0.0
 10
9.2142173559
 20
-6.2114686207
 30
0.0
 10
9.1617921908
 20
-6.1641690321
 30
0.0
 10
9.1186493056
 20
-6.138528149
 30
0.0
 10
9.094792335
 20
-6.1265996637
 30
0.0
 11
9.2558636801
 21
-6.321054027
 31
0.0
 11
9.2453190758
 21
-6.2674096362
 31
0.0
 11
9.2140307996
 21
-6.21582844
 31
0.0
 11
9.1631198044
 21
-6.1682452061
 31
0.0
 11
9.094792335
 21
-6.1265996637
 31
0.0
  0
SPLINE
  5
3BE
100
AcDbEntity
  8
ASSI
100
AcDbSpline
 62
7
  6
CONTINUOUS
 70
0
 71
3
 72
11
 73
7
 74
5
 42
0.0000001
 43
0.0000001
 44
0.0000000001
 12
-0.4304760393
 22
-0.2152380197
 32
0.0
 13
0.0
 23
-0.4812868433
 33
0.0
 40
0.0
 40
0.0
 40
0.0
 40
0.0
 40
0.3024673256
 40
0.5655230414
 40
0.7934184043
 40
1.0
 40
1.0
 40
1.0
 40
1.0
 10
20.3377901559
 20
-2.8739084702
 30
0.0
 10
20.2943885104
 20
-2.8956092929
 30
0.0
 10
20.2159263719
 20
-2.9421911836
 30
0.0
 10
20.1206493585
 20
-3.0282389646
 30
0.0
 10
20.059552298
 20
-3.124087483
 30
0.0
 10
20.044896937
 20
-3.1943201928
 30
0.0
 10
20.044896937
 20
-3.2274618608
 30
0.0
 11
20.3377901559
 21
-2.8739084702
 31
0.0
 11
20.2134767326
 21
-2.9496569329
 31
0.0
 11
20.1210070955
 21
-3.036133848
 31
0.0
 11
20.0641236155
 21
-3.1299135842
 31
0.0
 11
20.044896937
 21
-3.2274618608
 31
0.0
  0
SPLINE
  5
3BF
100
AcDbEntity
  8
ASSI
100
AcDbSpline
 62
7
  6
CONTINUOUS
 70
0
 71
3
 72
9
 73
5
 74
3
 42
0.0000001
 43
0.0000001
 44
0.0000000001
 12
0.0
 22
-0.2107928412
 32
0.0
 13
-0.157524614
 23
-0.1400700464
 33
0.0
 40
0.0
 40
0.0
 40
0.0
 40
0.0
 40
0.5445496966
 40
1.0
 40
1.0
 40
1.0
 40
1.0
 10
13.2313670049
 20
-2.2948386029
 30
0.0
 10
13.2313670049
 20
-2.3331009955
 30
0.0
 10
13.2225131358
 20
-2.4041863239
 30
0.0
 10
13.1845933433
 20
-2.4673259614
 30
0.0
 10
13.1606784655
 20
-2.4885909431
 30
0.0
 11
13.2313670049
 21
-2.2948386029
 31
0.0
 11
13.2131052161
 21
-2.408163813
 31
0.0
 11
13.1606784655
 21
-2.4885909431
 31
0.0
  0
SPLINE
  5
3C0
100
AcDbEntity
  8
ASSI
100
AcDbSpline
 62
7
  6
CONTINUOUS
 70
0
 71
3
 72
9
 73
5
 74
3
 42
0.0000001
 43
0.0000001
 44
0.0000000001
 12
0.0
 22
-0.2107928412
 32
0.0
 13
-0.157524614
 23
-0.1400700464
 33
0.0
 40
0.0
 40
0.0
 40
0.0
 40
0.0
 40
0.5445496966
 40
1.0
 40
1.0
 40
1.0
 40
1.0
 10
16.7669009109
 20
-0.52707165
 30
0.0
 10
16.7669009109
 20
-0.5653340426
 30
0.0
 10
16.7580470418
 20
-0.6364193709
 30
0.0
 10
16.7201272492
 20
-0.6995590084
 30
0.0
 10
16.6962123714
 20
-0.7208239901
 30
0.0
 11
16.7669009109
 21
-0.52707165
 31
0.0
 11
16.748639122
 21
-0.6403968601
 31
0.0
 11
16.6962123714
 21
-0.7208239901
 31
0.0
  0
SPLINE
  5
3C1
100
AcDbEntity
  8
0
100
AcDbSpline
 62
7
  6
CONTINUOUS
 70
0
 71
3
 72
9
 73
5
 74
3
 42
0.0000001
 43
0.0000001
 44
0.0000000001
 12
0.1117370796
 22
-0.3990861853
 32
0.0
 13
0.0
 23
-0.4144332977
 33
0.0
 40
0.0
 40
0.0
 40
0.0
 40
0.0
 40
0.2373466072
 40
1.0
 40
1.0
 40
1.0
 40
1.0
 10
15.0881079448
 20
-1.4105792824
 30
0.0
 10
15.0969480837
 20
-1.4421531998
 30
0.0
 10
15.1288644958
 20
-1.5766639086
 30
0.0
 10
15.1405553141
 20
-1.7155764168
 30
0.0
 10
15.1405553141
 20
-1.820932737
 30
0.0
 11
15.0881079448
 21
-1.4105792824
 31
0.0
 11
15.1109592112
 21
-1.5062524889
 31
0.0
 11
15.1405553141
 21
-1.820932737
 31
0.0
  0
SPLINE
  5
3C2
100
AcDbEntity
  8
ASSI
100
AcDbSpline
 62
7
  6
CONTINUOUS
 70
0
 71
3
 72
17
 73
13
 74
11
 42
0.0000001
 43
0.0000001
 44
0.0000000001
 12
0.0
 22
-3.3418563017
 32
0.0
 13
-3.0818181348
 23
1.292439757
 33
0.0
 40
0.0
 40
0.0
 40
0.0
 40
0.0
 40
0.1317704061
 40
0.2730370032
 40
0.4175501563
 40
0.5584666333
 40
0.6895697312
 40
0.8065002988
 40
0.8593365238
 40
0.9086692497
 40
0.9552028612
 40
1.0
 40
1.0
 40
1.0
 40
1.0
 10
15.1405553141
 20
-1.820932737
 30
0.0
 10
15.1405553141
 20
-1.9677186577
 30
0.0
 10
15.1049556387
 20
-2.272322823
 30
0.0
 10
14.966713866
 20
-2.7186671493
 30
0.0
 10
14.751302066
 20
-3.144884278
 30
0.0
 10
14.4740648277
 20
-3.5199666063
 30
0.0
 10
14.1549812719
 20
-3.8169679114
 30
0.0
 10
13.8615265658
 20
-3.9874988156
 30
0.0
 10
13.6274407735
 20
-4.0599491338
 30
0.0
 10
13.4622356043
 20
-4.0813982699
 30
0.0
 10
13.3048276045
 20
-4.0710649458
 30
0.0
 10
13.2061698704
 20
-4.0424022746
 30
0.0
 10
13.1601509922
 20
-4.0231030735
 30
0.0
 11
15.1405553141
 21
-1.820932737
 31
0.0
 11
15.0934309006
 21
-2.2587617542
 31
0.0
 11
14.9556550431
 21
-2.710302782
 31
0.0
 11
14.7377249526
 21
-3.1412779969
 31
0.0
 11
14.4562336661
 21
-3.5188104678
 31
0.0
 11
14.1326146682
 21
-3.8141520294
 31
0.0
 11
13.7915181618
 21
-4.0048103078
 31
0.0
 11
13.6225342379
 21
-4.0560135956
 31
0.0
 11
13.4589211774
 21
-4.0762752813
 31
0.0
 11
13.3038046916
 21
-4.0652383496
 31
0.0
 11
13.1601509922
 21
-4.0231030735
 31
0.0
  0
SPLINE
  5
3C3
100
AcDbEntity
  8
ASSI
100
AcDbSpline
 62
7
  6
CONTINUOUS
 70
0
 71
3
 72
17
 73
13
 74
11
 42
0.0000001
 43
0.0000001
 44
0.0000000001
 12
0.0
 22
-3.3418563017
 32
0.0
 13
-3.0818181348
 23
1.292439757
 33
0.0
 40
0.0
 40
0.0
 40
0.0
 40
0.0
 40
0.1317704061
 40
0.2730370032
 40
0.4175501563
 40
0.5584666333
 40
0.6895697312
 40
0.8065002988
 40
0.8593365238
 40
0.9086692497
 40
0.9552028612
 40
1.0
 40
1.0
 40
1.0
 40
1.0
 10
18.6760892201
 20
-0.053165784
 30
0.0
 10
18.6760892201
 20
-0.1999517047
 30
0.0
 10
18.6404895446
 20
-0.50455587
 30
0.0
 10
18.5022477719
 20
-0.9509001963
 30
0.0
 10
18.286835972
 20
-1.377117325
 30
0.0
 10
18.0095987337
 20
-1.7521996534
 30
0.0
 10
17.6905151778
 20
-2.0492009584
 30
0.0
 10
17.3970604717
 20
-2.2197318626
 30
0.0
 10
17.1629746794
 20
-2.2921821808
 30
0.0
 10
16.9977695102
 20
-2.3136313169
 30
0.0
 10
16.8403615104
 20
-2.3032979929
 30
0.0
 10
16.7417037764
 20
-2.2746353216
 30
0.0
 10
16.6956848981
 20
-2.2553361205
 30
0.0
 11
18.6760892201
 21
-0.053165784
 31
0.0
 11
18.6289648065
 21
-0.4909948012
 31
0.0
 11
18.491188949
 21
-0.942535829
 31
0.0
 11
18.2732588585
 21
-1.373511044
 31
0.0
 11
17.991767572
 21
-1.7510435149
 31
0.0
 11
17.6681485741
 21
-2.0463850765
 31
0.0
 11
17.3270520678
 21
-2.2370433549
 31
0.0
 11
17.1580681438
 21
-2.2882466426
 31
0.0
 11
16.9944550833
 21
-2.3085083284
 31
0.0
 11
16.8393385975
 21
-2.2974713967
 31
0.0
 11
16.6956848981
 21
-2.2553361205
 31
0.0
  0
SPLINE
  5
3C4
100
AcDbEntity
  8
0
100
AcDbSpline
 62
7
  6
CONTINUOUS
 70
0
 71
3
 72
9
 73
5
 74
3
 42
0.0000001
 43
0.0000001
 44
0.0000000001
 12
0.1117370796
 22
-0.3990861853
 32
0.0
 13
0.0
 23
-0.4144332977
 33
0.0
 40
0.0
 40
0.0
 40
0.0
 40
0.0
 40
0.2373466072
 40
1.0
 40
1.0
 40
1.0
 40
1.0
 10
18.6236418507
 20
0.3571876706
 30
0.0
 10
18.6324819896
 20
0.3256137532
 30
0.0
 10
18.6643984017
 20
0.1911030443
 30
0.0
 10
18.6760892201
 20
0.0521905362
 30
0.0
 10
18.6760892201
 20
-0.053165784
 30
0.0
 11
18.6236418507
 21
0.3571876706
 31
0.0
 11
18.6464931172
 21
0.261514464
 31
0.0
 11
18.6760892201
 21
-0.053165784
 31
0.0
  0
SPLINE
  5
3C5
100
AcDbEntity
  8
ASSI
100
AcDbSpline
 62
7
  6
CONTINUOUS
 70
0
 71
3
 72
17
 73
13
 74
11
 42
0.0000001
 43
0.0000001
 44
0.0000000001
 12
-0.9525127272
 22
0.4762563636
 32
0.0
 13
0.0000586355
 23
-1.0649416021
 33
0.0
 40
0.0
 40
0.0
 40
0.0
 40
0.0
 40
0.129825922
 40
0.2748070512
 40
0.4262226163
 40
0.5743898362
 40
0.7100958581
 40
0.8263347758
 40
0.8762939073
 40
0.9210597763
 40
0.9616998
 40
1.0
 40
1.0
 40
1.0
 40
1.0
 10
9.094792335
 20
-6.1265996637
 30
0.0
 10
9.053572054
 20
-6.1059895232
 30
0.0
 10
8.9608941413
 20
-6.0730940224
 30
0.0
 10
8.8112828401
 20
-6.0472469644
 30
0.0
 10
8.6529545248
 20
-6.0434802094
 30
0.0
 10
8.4989534542
 20
-6.0621411863
 30
0.0
 10
8.361880714
 20
-6.1016176555
 30
0.0
 10
8.2657398201
 20
-6.1518131504
 30
0.0
 10
8.2088212501
 20
-6.2010091072
 30
0.0
 10
8.1788389564
 20
-6.239018013
 30
0.0
 10
8.1601605737
 20
-6.2792802812
 30
0.0
 10
8.155902782
 20
-6.3074582045
 30
0.0
 10
8.1559035306
 20
-6.3210540299
 30
0.0
 11
9.094792335
 21
-6.1265996637
 31
0.0
 11
8.9651606609
 21
-6.078530607
 31
0.0
 11
8.8131779033
 21
-6.0513368416
 31
0.0
 11
8.6519776768
 21
-6.0473819177
 31
0.0
 11
8.4954113283
 21
-6.066990204
 31
0.0
 11
8.3569758971
 21
-6.1084795937
 31
0.0
 11
8.2485879283
 21
-6.168274517
 31
0.0
 11
8.2086930243
 21
-6.2034741643
 31
0.0
 11
8.1795793928
 21
-6.2412248577
 31
0.0
 11
8.1618378581
 21
-6.2807005667
 31
0.0
 11
8.1559035306
 21
-6.3210540299
 31
0.0
  0
SPLINE
  5
3C6
100
AcDbEntity
  8
RACCORDO
100
AcDbSpline
 62
7
  6
CONTINUOUS
 70
0
 71
3
 72
11
 73
7
 74
5
 42
0.0000001
 43
0.0000001
 44
0.0000000001
 12
0.3343669946
 22
0.167212918
 32
0.0
 13
0.3343787637
 23
-0.1671893818
 33
0.0
 40
0.0
 40
0.0
 40
0.0
 40
0.0
 40
0.2288578497
 40
0.4670187184
 40
0.7224803298
 40
1.0
 40
1.0
 40
1.0
 40
1.0
 10
-21.6595502626
 20
7.5728381206
 30
0.0
 10
-21.6340427588
 20
7.5855941169
 30
0.0
 10
-21.5780540915
 20
7.6044051228
 30
0.0
 10
-21.4872309393
 20
7.6094092628
 30
0.0
 10
-21.3919733843
 20
7.5919215198
 30
0.0
 10
-21.3299556049
 20
7.5669612092
 30
0.0
 10
-21.2990233768
 20
7.5514950951
 30
0.0
 11
-21.6595502626
 21
7.5728381206
 31
0.0
 11
-21.5785161232
 21
7.6002899324
 31
0.0
 11
-21.4896565836
 21
7.6058877242
 31
0.0
 11
-21.3955758194
 21
7.5894642484
 31
0.0
 11
-21.2990233768
 21
7.5514950951
 31
0.0
  0
SPLINE
  5
3C7
100
AcDbEntity
  8
RACCORDO
100
AcDbSpline
 62
7
  6
CONTINUOUS
 70
0
 71
3
 72
12
 73
8
 74
6
 42
0.0000001
 43
0.0000001
 44
0.0000000001
 12
-0.2861448593
 22
-0.1430136799
 32
0.0
 13
-0.0051818787
 23
-0.3198514362
 33
0.0
 40
0.0
 40
0.0
 40
0.0
 40
0.0
 40
0.1081565702
 40
0.2185729604
 40
0.4523564991
 40
0.7118560315
 40
1.0
 40
1.0
 40
1.0
 40
1.0
 10
-21.5287808495
 20
7.3028127976
 30
0.0
 10
-21.5390969983
 20
7.2976568413
 30
0.0
 10
-21.5590517081
 20
7.2853337577
 30
0.0
 10
-21.5952154745
 20
7.2531010696
 30
0.0
 10
-21.6316607449
 20
7.1986964203
 30
0.0
 10
-21.657895304
 20
7.1188217811
 30
0.0
 10
-21.6638478651
 20
7.0602881515
 30
0.0
 10
-21.6643455741
 20
7.0295670641
 30
0.0
 11
-21.5287808495
 21
7.3028127976
 31
0.0
 11
-21.5582379469
 21
7.2846650503
 31
0.0
 11
-21.5846594808
 21
7.2612234383
 31
0.0
 11
-21.6271391919
 21
7.1996735236
 31
0.0
 11
-21.6541419741
 21
7.1211759221
 31
0.0
 11
-21.6643455741
 21
7.0295670641
 31
0.0
  0
SPLINE
  5
3C8
100
AcDbEntity
  8
ASSI
100
AcDbSpline
 62
7
  6
CONTINUOUS
 70
0
 71
3
 72
9
 73
5
 74
3
 42
0.0000001
 43
0.0000001
 44
0.0000000001
 12
-0.0000232576
 22
0.0180422949
 32
0.0
 13
-0.0161648812
 23
0.0080138356
 33
0.0
 40
0.0
 40
0.0
 40
0.0
 40
0.0
 40
0.4846513837
 40
1.0
 40
1.0
 40
1.0
 40
1.0
 10
0.0593813293
 20
20.1473118482
 30
0.0
 10
0.0593775721
 20
20.1502265892
 30
0.0
 10
0.0579457323
 20
20.1565038986
 30
0.0
 10
0.0528487942
 20
20.1604386727
 30
0.0
 10
0.0500719445
 20
20.1618153124
 30
0.0
 11
0.0593813293
 21
20.1473118482
 31
0.0
 11
0.057128802
 21
20.1557609716
 31
0.0
 11
0.0500719445
 21
20.1618153124
 31
0.0
  0
SPLINE
  5
3C9
100
AcDbEntity
  8
ASSI
100
AcDbSpline
 62
7
  6
CONTINUOUS
 70
0
 71
3
 72
9
 73
5
 74
3
 42
0.0000001
 43
0.0000001
 44
0.0000000001
 12
-0.0000205845
 22
0.018045091
 32
0.0
 13
-0.0161673677
 23
0.0080151077
 33
0.0
 40
0.0
 40
0.0
 40
0.0
 40
0.0
 40
0.4846631161
 40
1.0
 40
1.0
 40
1.0
 40
1.0
 10
-5.5362325006
 20
22.9451157905
 30
0.0
 10
-5.5362358261
 20
22.9480310539
 30
0.0
 10
-5.5376669384
 20
22.9543096532
 30
0.0
 10
-5.5427645965
 20
22.9582453721
 30
0.0
 10
-5.5455418102
 20
22.959622199
 30
0.0
 11
-5.5362325006
 21
22.9451157905
 31
0.0
 11
-5.5384843063
 21
22.9535667262
 31
0.0
 11
-5.5455418102
 21
22.959622199
 31
0.0
  0
SPLINE
  5
3CA
100
AcDbEntity
  8
RACCORDO
100
AcDbSpline
 62
7
  6
CONTINUOUS
 70
0
 71
3
 72
11
 73
7
 74
5
 42
0.0000001
 43
0.0000001
 44
0.0000000001
 12
0.2052602154
 22
-0.1026301077
 32
0.0
 13
0.2052778366
 23
0.1025948578
 33
0.0
 40
0.0
 40
0.0
 40
0.0
 40
0.0
 40
0.281640068
 40
0.5386315571
 40
0.7753635345
 40
1.0
 40
1.0
 40
1.0
 40
1.0
 10
-8.9250202046
 20
-20.6488091079
 30
0.0
 10
-8.9057503709
 20
-20.6584440247
 30
0.0
 10
-8.8673537974
 20
-20.6740646163
 30
0.0
 10
-8.8086871909
 20
-20.6854321496
 30
0.0
 10
-8.753217652
 20
-20.6830534496
 30
0.0
 10
-8.7191517697
 20
-20.6718756507
 30
0.0
 10
-8.7037808071
 20
-20.6641934686
 30
0.0
 11
-8.9250202046
 21
-20.6488091079
 31
0.0
 11
-8.8649519994
 21
-20.6726677277
 31
0.0
 11
-8.8069464708
 21
-20.6833250589
 31
0.0
 11
-8.7526942766
 21
-20.6804727254
 31
0.0
 11
-8.7037808071
 21
-20.6641934686
 31
0.0
  0
SPLINE
  5
3CB
100
AcDbEntity
  8
RACCORDO
100
AcDbSpline
 62
7
  6
CONTINUOUS
 70
0
 71
3
 72
15
 73
11
 74
9
 42
0.0000001
 43
0.0000001
 44
0.0000000001
 12
0.017249815
 22
-0.7349701913
 32
0.0
 13
0.6575583553
 23
-0.3287791776
 33
0.0
 40
0.0
 40
0.0
 40
0.0
 40
0.0
 40
0.1187674087
 40
0.2452214251
 40
0.3766806365
 40
0.510024992
 40
0.6419744355
 40
0.7693581274
 40
0.88939362
 40
1.0
 40
1.0
 40
1.0
 40
1.0
 10
-21.5924535517
 20
-13.8923016963
 30
0.0
 10
-21.5917706465
 20
-13.9213985313
 30
0.0
 10
-21.5853930229
 20
-13.9814170311
 30
0.0
 10
-21.5631774412
 20
-14.0712548161
 30
0.0
 10
-21.5287967669
 20
-14.1610105345
 30
0.0
 10
-21.4835405028
 20
-14.2473099058
 30
0.0
 10
-21.4291039335
 20
-14.3269332895
 30
0.0
 10
-21.3675082679
 20
-14.396911349
 30
0.0
 10
-21.3010634887
 20
-14.4546210737
 30
0.0
 10
-21.2529215804
 20
-14.48485842
 30
0.0
 10
-21.2286781972
 20
-14.4969801116
 30
0.0
 11
-21.5924535517
 21
-13.8923016963
 31
0.0
 11
-21.5836964452
 21
-13.9791759882
 31
0.0
 11
-21.5616811445
 21
-14.0694971691
 31
0.0
 11
-21.5272529304
 21
-14.1598021774
 31
0.0
 11
-21.4817351362
 21
-14.2466251581
 31
0.0
 11
-21.4268775471
 21
-14.3266297461
 31
0.0
 11
-21.3647921388
 21
-14.3967406372
 31
0.0
 11
-21.2978677678
 21
-14.454261303
 31
0.0
 11
-21.2286781972
 21
-14.4969801116
 31
0.0
  0
LINE
  5
3CC
100
AcDbEntity
  8
RACCORDO
100
AcDbLine
 62
7
  6
CONTINUOUS
 10
-21.5924535517
 20
-13.8923016963
 11
-21.5973839334
 21
-13.6803602432
  0
LINE
  5
3CD
100
AcDbEntity
  8
RACCORDO
100
AcDbLine
 62
7
  6
CONTINUOUS
 10
-8.3695567436
 20
-20.5037501004
 11
-8.3744871253
 21
-20.291808646
  0
SPLINE
  5
3CE
100
AcDbEntity
  8
RACCORDO
100
AcDbSpline
 62
7
  6
CONTINUOUS
 70
0
 71
3
 72
14
 73
10
 74
8
 42
0.0000001
 43
0.0000001
 44
0.0000000001
 12
0.0115948407
 22
-0.4940263017
 32
0.0
 13
-0.4419761712
 23
-0.2210282587
 33
0.0
 40
0.0
 40
0.0
 40
0.0
 40
0.0
 40
0.2911637322
 40
0.4250315136
 40
0.5511682713
 40
0.670279627
 40
0.783580389
 40
0.8927809219
 40
1.0
 40
1.0
 40
1.0
 40
1.0
 10
-8.3695567436
 20
-20.5037501004
 30
0.0
 10
-8.3684314112
 20
-20.5516976144
 30
0.0
 10
-8.3727095999
 20
-20.6222169965
 30
0.0
 10
-8.3935392625
 20
-20.710764789
 30
0.0
 10
-8.4153996333
 20
-20.7694655154
 30
0.0
 10
-8.4437112622
 20
-20.8215461807
 30
0.0
 10
-8.4782007355
 20
-20.8663404612
 30
0.0
 10
-8.5184660097
 20
-20.9032011476
 30
0.0
 10
-8.5489310058
 20
-20.9221771627
 30
0.0
 10
-8.5647270984
 20
-20.9300766447
 30
0.0
 11
-8.3695567436
 21
-20.5037501004
 31
0.0
 11
-8.3798231241
 21
-20.6472655199
 31
0.0
 11
-8.3952009272
 21
-20.7116057521
 31
0.0
 11
-8.417186583
 21
-20.7699316787
 31
0.0
 11
-8.4455130014
 21
-20.8215277493
 31
0.0
 11
-8.4798354347
 21
-20.8657627514
 31
0.0
 11
-8.5197355318
 21
-20.9020940762
 31
0.0
 11
-8.5647270984
 21
-20.9300766447
 31
0.0
  0
SPLINE
  5
3CF
100
AcDbEntity
  8
RACCORDO
100
AcDbSpline
 62
7
  6
CONTINUOUS
 70
0
 71
3
 72
15
 73
11
 74
9
 42
0.0000001
 43
0.0000001
 44
0.0000000001
 12
1.0538907088
 22
-0.5269453544
 32
0.0
 13
-0.0190867741
 23
-1.1781310316
 33
0.0
 40
0.0
 40
0.0
 40
0.0
 40
0.0
 40
0.110130069
 40
0.2293571139
 40
0.3558898861
 40
0.4871916186
 40
0.6202944602
 40
0.7520750931
 40
0.879518862
 40
1.0
 40
1.0
 40
1.0
 40
1.0
 10
-8.9953653842
 20
1.3996660988
 30
0.0
 10
-8.956677032
 20
1.3803219227
 30
0.0
 10
-8.8801014862
 20
1.3317905319
 30
0.0
 10
-8.7753395532
 20
1.2385272466
 30
0.0
 10
-8.6793722657
 20
1.1251362244
 30
0.0
 10
-8.5957752366
 20
0.9958740019
 30
0.0
 10
-8.5276183249
 20
0.8555668188
 30
0.0
 10
-8.4774427858
 20
0.70945054
 30
0.0
 10
-8.4471153208
 20
0.5630267693
 30
0.0
 10
-8.4406822339
 20
0.4654328491
 30
0.0
 10
-8.4414487659
 20
0.41811866
 30
0.0
 11
-8.9953653842
 21
1.3996660988
 31
0.0
 11
-8.8852277201
 21
1.3310471028
 31
0.0
 11
-8.7797952389
 21
1.2382052499
 31
0.0
 11
-8.6831118669
 21
1.1247121896
 31
0.0
 11
-8.5988861843
 21
0.9949373427
 31
0.0
 11
-8.5303431644
 21
0.8538753125
 31
0.0
 11
-8.4801051937
 21
0.7069517193
 31
0.0
 11
-8.4500917998
 21
0.5598165024
 31
0.0
 11
-8.4414487659
 21
0.41811866
 31
0.0
  0
SPLINE
  5
3D0
100
AcDbEntity
  8
ASSI
100
AcDbSpline
 62
7
  6
CONTINUOUS
 70
0
 71
3
 72
10
 73
6
 74
4
 42
0.0000001
 43
0.0000001
 44
0.0000000001
 12
0.1954125185
 22
0.0453558667
 32
0.0
 13
0.1794955328
 23
-0.0895799125
 33
0.0
 40
0.0
 40
0.0
 40
0.0
 40
0.0
 40
0.2275459385
 40
0.5979302152
 40
1.0
 40
1.0
 40
1.0
 40
1.0
 10
-0.619410611
 20
20.4348335614
 30
0.0
 10
-0.6045888361
 20
20.4382737425
 30
0.0
 10
-0.5643771504
 20
20.4421957833
 30
0.0
 10
-0.4976223621
 20
20.4310563229
 30
0.0
 10
-0.4494476143
 20
20.4115526026
 30
0.0
 10
-0.4253910375
 20
20.3995468105
 30
0.0
 11
-0.619410611
 21
20.4348335614
 31
0.0
 11
-0.5740262481
 21
20.4397262435
 31
0.0
 11
-0.5005169795
 21
20.4289034826
 31
0.0
 11
-0.4253910375
 21
20.3995468105
 31
0.0
  0
SPLINE
  5
3D1
100
AcDbEntity
  8
ASSI
100
AcDbSpline
 62
7
  6
CONTINUOUS
 70
0
 71
3
 72
10
 73
6
 74
4
 42
0.0000001
 43
0.0000001
 44
0.0000000001
 12
0.1960075781
 22
0.046500996
 32
0.0
 13
0.1802480043
 23
-0.0899553792
 33
0.0
 40
0.0
 40
0.0
 40
0.0
 40
0.0
 40
0.227419644
 40
0.5977626467
 40
1.0
 40
1.0
 40
1.0
 40
1.0
 10
-6.215851232
 20
23.2324464459
 30
0.0
 10
-6.2009925741
 20
23.2359715258
 30
0.0
 10
-6.1606320146
 20
23.2400630087
 30
0.0
 10
-6.0935666315
 20
23.2289884672
 30
0.0
 10
-6.0451725419
 20
23.2094149447
 30
0.0
 10
-6.0210050485
 20
23.1973538068
 30
0.0
 11
-6.215851232
 21
23.2324464459
 31
0.0
 11
-6.1703213905
 21
23.2375343392
 31
0.0
 11
-6.0964913427
 21
23.2268100191
 31
0.0
 11
-6.0210050485
 21
23.1973538068
 31
0.0
  0
SPLINE
  5
3D2
100
AcDbEntity
  8
RACCORDO
100
AcDbSpline
 62
7
  6
CONTINUOUS
 70
0
 71
3
 72
9
 73
5
 74
3
 42
0.0000001
 43
0.0000001
 44
0.0000000001
 12
-0.0110860342
 22
-0.0399468313
 32
0.0
 13
0.0000244836
 23
-0.0414565904
 33
0.0
 40
0.0
 40
0.0
 40
0.0
 40
0.0
 40
0.470196659
 40
1.0
 40
1.0
 40
1.0
 40
1.0
 10
-12.1165520178
 20
20.2830727793
 30
0.0
 10
-12.1182895566
 20
20.2768118237
 30
0.0
 10
-12.120718739
 20
20.2631419512
 30
0.0
 10
-12.1213782676
 20
20.2493108964
 30
0.0
 10
-12.1213739437
 20
20.2419896164
 30
0.0
 11
-12.1165520178
 21
20.2830727793
 31
0.0
 11
-12.1201826998
 21
20.263921132
 31
0.0
 11
-12.1213739437
 21
20.2419896164
 31
0.0
  0
SPLINE
  5
3D3
100
AcDbEntity
  8
RACCORDO
100
AcDbSpline
 62
7
  6
CONTINUOUS
 70
0
 71
3
 72
12
 73
8
 74
6
 42
0.0000001
 43
0.0000001
 44
0.0000000001
 12
0.0002238523
 22
-0.3790359227
 32
0.0
 13
0.2339640663
 23
-0.2982098196
 33
0.0
 40
0.0
 40
0.0
 40
0.0
 40
0.0
 40
0.1015870176
 40
0.2135875906
 40
0.4591399651
 40
0.7237133738
 40
1.0
 40
1.0
 40
1.0
 40
1.0
 10
-12.1213739437
 20
20.2419896164
 30
0.0
 10
-12.1213663636
 20
20.2291545734
 30
0.0
 10
-12.1191092194
 20
20.2021603176
 30
0.0
 10
-12.1076405358
 20
20.1452127319
 30
0.0
 10
-12.0812948724
 20
20.0707352589
 30
0.0
 10
-12.0354080929
 20
19.9823432577
 30
0.0
 10
-11.9964738951
 20
19.9259232348
 30
0.0
 10
-11.9749268476
 20
19.8984594398
 30
0.0
 11
-12.1213739437
 21
20.2419896164
 31
0.0
 11
-12.1185229775
 21
20.2035901702
 31
0.0
 11
-12.1103671092
 21
20.1619287352
 31
0.0
 11
-12.0802089931
 21
20.0738770107
 31
0.0
 11
-12.0343267307
 21
19.9847060136
 31
0.0
 11
-11.9749268476
 21
19.8984594398
 31
0.0
  0
LINE
  5
3D4
100
AcDbEntity
  8
RACCORDO
100
AcDbLine
 62
253
  6
CONTINUOUS
 10
4.246968684
 20
16.9550777002
 11
-0.1624948596
 21
14.281005723
  0
SPLINE
  5
3D5
100
AcDbEntity
  8
RACCORDO
100
AcDbSpline
 62
253
  6
CONTINUOUS
 70
0
 71
3
 72
11
 73
7
 74
5
 42
0.0000001
 43
0.0000001
 44
0.0000000001
 12
-0.1026843425
 22
0.0513470616
 32
0.0
 13
-0.1029781233
 23
-0.0507553057
 33
0.0
 40
0.0
 40
0.0
 40
0.0
 40
0.0
 40
0.2274030322
 40
0.4651083369
 40
0.721100729
 40
1.0
 40
1.0
 40
1.0
 40
1.0
 10
-13.9188845211
 20
22.9505509692
 30
0.0
 10
-13.926668098
 20
22.9544431284
 30
0.0
 10
-13.9438037093
 20
22.9601689888
 30
0.0
 10
-13.9716409988
 20
22.9616562692
 30
0.0
 10
-14.0009467637
 20
22.9562953974
 30
0.0
 10
-14.0200858245
 20
22.9486799139
 30
0.0
 10
-14.0296593323
 20
22.9439613746
 30
0.0
 11
-13.9188845211
 21
22.9505509692
 31
0.0
 11
-13.9436200211
 21
22.9589027232
 31
0.0
 11
-13.9708580921
 21
22.960588353
 31
0.0
 11
-13.9998144264
 21
22.9555601493
 31
0.0
 11
-14.0296593323
 21
22.9439613746
 31
0.0
  0
SPLINE
  5
3D6
100
AcDbEntity
  8
RACCORDO
100
AcDbSpline
 62
253
  6
CONTINUOUS
 70
0
 71
3
 72
11
 73
7
 74
5
 42
0.0000001
 43
0.0000001
 44
0.0000000001
 12
0.1695036322
 22
0.103342112
 32
0.0
 13
-0.007791677
 23
0.1983692598
 33
0.0
 40
0.0
 40
0.0
 40
0.0
 40
0.0
 40
0.2152781346
 40
0.4481703966
 40
0.7086664006
 40
1.0
 40
1.0
 40
1.0
 40
1.0
 10
4.1754899533
 20
16.7790730891
 30
0.0
 10
4.1876534285
 20
16.7864888548
 30
0.0
 10
4.2102530913
 20
16.8067730378
 30
0.0
 10
4.2334266175
 20
16.8482922831
 30
0.0
 10
4.2462468489
 20
16.8990856129
 30
0.0
 10
4.2477253431
 20
16.9358138234
 30
0.0
 10
4.246968684
 20
16.9550777002
 30
0.0
 11
4.1754899533
 21
16.7790730891
 31
0.0
 11
4.20753182
 21
16.8073540399
 31
0.0
 11
4.2307251756
 21
16.8473500123
 31
0.0
 11
4.2440635254
 21
16.8973145164
 31
0.0
 11
4.246968684
 21
16.9550777002
 31
0.0
  0
SPLINE
  5
3D7
100
AcDbEntity
  8
RACCORDO
100
AcDbSpline
 62
253
  6
CONTINUOUS
 70
0
 71
3
 72
11
 73
7
 74
5
 42
0.0000001
 43
0.0000001
 44
0.0000000001
 12
-0.0000014429
 22
-0.119182188
 32
0.0
 13
-0.1063496889
 23
-0.0537971895
 33
0.0
 40
0.0
 40
0.0
 40
0.0
 40
0.0
 40
0.2069627842
 40
0.4350648191
 40
0.6978060254
 40
1.0
 40
1.0
 40
1.0
 40
1.0
 10
-13.780687774
 20
22.7269444712
 30
0.0
 10
-13.7806878736
 20
22.7187223787
 30
0.0
 10
-13.7842869824
 20
22.7013064826
 30
0.0
 10
-13.7993363523
 20
22.6775112326
 30
0.0
 10
-13.822813291
 20
22.6560994334
 30
0.0
 10
-13.8421728836
 20
22.644490898
 30
0.0
 10
-13.8528856287
 20
22.6390718358
 30
0.0
 11
-13.780687774
 21
22.7269444712
 31
0.0
 11
-13.7854209565
 21
22.7027365753
 31
0.0
 11
-13.799441255
 21
22.6794450855
 31
0.0
 11
-13.8222153671
 21
22.6579529727
 31
0.0
 11
-13.8528856287
 21
22.6390718358
 31
0.0
  0
SPLINE
  5
3D8
100
AcDbEntity
  8
RACCORDO
100
AcDbSpline
 62
253
  6
CONTINUOUS
 70
0
 71
3
 72
11
 73
7
 74
5
 42
0.0000001
 43
0.0000001
 44
0.0000000001
 12
-0.0000057993
 22
-0.1191799056
 32
0.0
 13
-0.1063476524
 23
-0.0537961594
 33
0.0
 40
0.0
 40
0.0
 40
0.0
 40
0.0
 40
0.2069627968
 40
0.4350655478
 40
0.6978069319
 40
1.0
 40
1.0
 40
1.0
 40
1.0
 10
-13.7806877739
 20
22.3794106391
 30
0.0
 10
-13.780688174
 20
22.3711887035
 30
0.0
 10
-13.7842877834
 20
22.3537732611
 30
0.0
 10
-13.7993372786
 20
22.3299787317
 30
0.0
 10
-13.8228139125
 20
22.3085675269
 30
0.0
 10
-13.8421731209
 20
22.2969592612
 30
0.0
 10
-13.8528856287
 20
22.291540319
 30
0.0
 11
-13.7806877739
 21
22.3794106391
 31
0.0
 11
-13.7854216286
 21
22.3552033543
 31
0.0
 11
-13.7994421347
 21
22.3319124976
 31
0.0
 11
-13.8222160066
 21
22.310420973
 31
0.0
 11
-13.8528856287
 21
22.291540319
 31
0.0
  0
SPLINE
  5
3D9
100
AcDbEntity
  8
ASSI
100
AcDbSpline
 62
7
  6
CONTINUOUS
 70
0
 71
3
 72
11
 73
7
 74
5
 42
0.0000001
 43
0.0000001
 44
0.0000000001
 12
-0.0956695058
 22
0.0474289573
 32
0.0
 13
-0.1037137075
 23
-0.0254091953
 33
0.0
 40
0.0
 40
0.0
 40
0.0
 40
0.0
 40
0.1398851671
 40
0.3465287517
 40
0.6319756849
 40
1.0
 40
1.0
 40
1.0
 40
1.0
 10
-5.5455418102
 20
22.959622199
 30
0.0
 10
-5.5500027251
 20
22.9618337348
 30
0.0
 10
-5.562443434
 20
22.964165456
 30
0.0
 10
-5.5849221842
 20
22.9633617288
 30
0.0
 10
-5.6152556167
 20
22.9587081774
 30
0.0
 10
-5.637944331
 20
22.9535790164
 30
0.0
 10
-5.6506673864
 20
22.9504619491
 30
0.0
 11
-5.5455418102
 21
22.959622199
 31
0.0
 11
-5.5600280003
 21
22.9632644746
 31
0.0
 11
-5.5820929958
 21
22.9631028167
 31
0.0
 11
-5.6122752498
 21
22.9588508744
 31
0.0
 11
-5.6506673864
 21
22.9504619491
 31
0.0
  0
SPLINE
  5
3DA
100
AcDbEntity
  8
RACCORDO
100
AcDbSpline
 62
253
  6
CONTINUOUS
 70
0
 71
3
 72
11
 73
7
 74
5
 42
0.0000001
 43
0.0000001
 44
0.0000000001
 12
-0.1026843425
 22
0.0513470616
 32
0.0
 13
-0.1029781233
 23
-0.0507553057
 33
0.0
 40
0.0
 40
0.0
 40
0.0
 40
0.0
 40
0.2274030322
 40
0.4651083369
 40
0.721100729
 40
1.0
 40
1.0
 40
1.0
 40
1.0
 10
-15.167822334
 20
23.5750198756
 30
0.0
 10
-15.1756059109
 20
23.5789120348
 30
0.0
 10
-15.1927415222
 20
23.5846378953
 30
0.0
 10
-15.2205788117
 20
23.5861251757
 30
0.0
 10
-15.2498845766
 20
23.5807643039
 30
0.0
 10
-15.2690236374
 20
23.5731488203
 30
0.0
 10
-15.2785971452
 20
23.5684302811
 30
0.0
 11
-15.167822334
 21
23.5750198756
 31
0.0
 11
-15.192557834
 21
23.5833716297
 31
0.0
 11
-15.219795905
 21
23.5850572594
 31
0.0
 11
-15.2487522393
 21
23.5800290557
 31
0.0
 11
-15.2785971452
 21
23.5684302811
 31
0.0
  0
SPLINE
  5
3DB
100
AcDbEntity
  8
RACCORDO
100
AcDbSpline
 62
7
  6
CONTINUOUS
 70
0
 71
3
 72
15
 73
11
 74
9
 42
0.0000001
 43
0.0000001
 44
0.0000000001
 12
0.0119293375
 22
0.7363382978
 32
0.0
 13
-0.6586874208
 23
0.3293437104
 33
0.0
 40
0.0
 40
0.0
 40
0.0
 40
0.0
 40
0.1204780256
 40
0.2479159593
 40
0.3796913467
 40
0.5127935585
 40
0.6440982587
 40
0.7706354004
 40
0.8898674787
 40
1.0
 40
1.0
 40
1.0
 40
1.0
 10
-8.6535808003
 20
0.5241846771
 30
0.0
 10
-8.653101726
 20
0.5537555386
 30
0.0
 10
-8.6571253553
 20
0.6147501898
 30
0.0
 10
-8.6760917755
 20
0.7062602092
 30
0.0
 10
-8.7074700116
 20
0.7975745456
 30
0.0
 10
-8.7500881316
 20
0.8852570429
 30
0.0
 10
-8.8023578836
 20
0.9660348575
 30
0.0
 10
-8.8623539046
 20
1.0368950403
 30
0.0
 10
-8.9278410703
 20
1.0951773669
 30
0.0
 10
-8.9757038532
 20
1.1255082744
 30
0.0
 10
-8.9998848221
 20
1.1375987588
 30
0.0
 11
-8.6535808003
 21
0.5241846771
 31
0.0
 11
-8.6589867721
 21
0.6127440566
 31
0.0
 11
-8.6777565681
 21
0.704697683
 31
0.0
 11
-8.7091726153
 21
0.7965158154
 31
0.0
 11
-8.7520322535
 21
0.8846701734
 31
0.0
 11
-8.8046942565
 21
0.9657694596
 31
0.0
 11
-8.8651380351
 21
1.0366937097
 31
0.0
 11
-8.9310446232
 21
1.0947138125
 31
0.0
 11
-8.9998848221
 21
1.1375987588
 31
0.0
  0
SPLINE
  5
3DC
100
AcDbEntity
  8
RACCORDO
100
AcDbSpline
 62
253
  6
CONTINUOUS
 70
0
 71
3
 72
12
 73
8
 74
6
 42
0.0000001
 43
0.0000001
 44
0.0000000001
 12
-0.0000794019
 22
-0.2408686097
 32
0.0
 13
0.2154398873
 23
-0.1077188397
 33
0.0
 40
0.0
 40
0.0
 40
0.0
 40
0.0
 40
0.1021925206
 40
0.2072603108
 40
0.4349698524
 40
0.6976462351
 40
1.0
 40
1.0
 40
1.0
 40
1.0
 10
-9.3595045845
 20
-7.5692432175
 30
0.0
 10
-9.3595072892
 20
-7.5774482076
 30
0.0
 10
-9.3578489211
 20
-7.5941337793
 30
0.0
 10
-9.3477438827
 20
-7.6277578788
 30
0.0
 10
-9.321647872
 20
-7.66888396
 30
0.0
 10
-9.2740113245
 20
-7.7118514981
 30
0.0
 10
-9.2347712927
 20
-7.7351515705
 30
0.0
 10
-9.2130582724
 20
-7.7460079694
 30
0.0
 11
-9.3595045845
 21
-7.5692432175
 31
0.0
 11
-9.3571045166
 21
-7.5937409011
 31
0.0
 11
-9.3499098842
 21
-7.6180042179
 31
0.0
 11
-9.3214604417
 21
-7.6648970905
 31
0.0
 11
-9.2752529891
 21
-7.7081177721
 31
0.0
 11
-9.2130582724
 21
-7.7460079694
 31
0.0
  0
SPLINE
  5
3DD
100
AcDbEntity
  8
RACCORDO
100
AcDbSpline
 62
7
  6
CONTINUOUS
 70
0
 71
3
 72
11
 73
7
 74
5
 42
0.0000001
 43
0.0000001
 44
0.0000000001
 12
-0.2088998216
 22
0.1044499108
 32
0.0
 13
-0.2089169762
 23
-0.1044155944
 33
0.0
 40
0.0
 40
0.0
 40
0.0
 40
0.0
 40
0.2775578044
 40
0.5330330713
 40
0.7711824637
 40
1.0
 40
1.0
 40
1.0
 40
1.0
 10
-21.3035428147
 20
7.2894277551
 30
0.0
 10
-21.3228700733
 20
7.2990913844
 30
0.0
 10
-21.3616174222
 20
7.3146891697
 30
0.0
 10
-21.421129341
 20
7.3256254643
 30
0.0
 10
-21.4778676218
 20
7.3225161173
 30
0.0
 10
-21.5128462269
 20
7.3107768373
 30
0.0
 10
-21.5287808495
 20
7.3028127976
 30
0.0
 11
-21.3035428147
 21
7.2894277551
 31
0.0
 11
-21.363869775
 21
7.3131557083
 31
0.0
 11
-21.42264713
 21
7.3234270397
 31
0.0
 11
-21.4781595373
 21
7.3199453946
 31
0.0
 11
-21.5287808495
 21
7.3028127976
 31
0.0
  0
SPLINE
  5
3DE
100
AcDbEntity
  8
RACCORDO
100
AcDbSpline
 62
253
  6
CONTINUOUS
 70
0
 71
3
 72
9
 73
5
 74
3
 42
0.0000001
 43
0.0000001
 44
0.0000000001
 12
-0.0221872219
 22
0.0110907997
 32
0.0
 13
-0.0242893561
 23
0.0050304904
 33
0.0
 40
0.0
 40
0.0
 40
0.0
 40
0.0
 40
0.2486668508
 40
1.0
 40
1.0
 40
1.0
 40
1.0
 10
-0.5722501706
 20
-25.3699014088
 30
0.0
 10
-0.5740892461
 20
-25.368982104
 30
0.0
 10
-0.5816049659
 20
-25.3655289234
 30
0.0
 10
-0.5895757963
 20
-25.3630771198
 30
0.0
 10
-0.5956589291
 20
-25.3618172618
 30
0.0
 11
-0.5722501706
 21
-25.3699014088
 31
0.0
 11
-0.5778552087
 21
-25.3673266413
 31
0.0
 11
-0.5956589291
 21
-25.3618172618
 31
0.0
  0
SPLINE
  5
3DF
100
AcDbEntity
  8
RACCORDO
100
AcDbSpline
 62
253
  6
CONTINUOUS
 70
0
 71
3
 72
11
 73
7
 74
5
 42
0.0000001
 43
0.0000001
 44
0.0000000001
 12
-0.0000014429
 22
-0.119182188
 32
0.0
 13
-0.1063496889
 23
-0.0537971895
 33
0.0
 40
0.0
 40
0.0
 40
0.0
 40
0.0
 40
0.2069627842
 40
0.4350648191
 40
0.6978060254
 40
1.0
 40
1.0
 40
1.0
 40
1.0
 10
-0.4340472792
 20
-25.9410429491
 30
0.0
 10
-0.4340473787
 20
-25.9492650416
 30
0.0
 10
-0.4376464875
 20
-25.9666809377
 30
0.0
 10
-0.4526958574
 20
-25.9904761877
 30
0.0
 10
-0.4761727961
 20
-26.0118879869
 30
0.0
 10
-0.4955323887
 20
-26.0234965223
 30
0.0
 10
-0.5062451338
 20
-26.0289155845
 30
0.0
 11
-0.4340472792
 21
-25.9410429491
 31
0.0
 11
-0.4387804616
 21
-25.9652508451
 31
0.0
 11
-0.4528007601
 21
-25.9885423348
 31
0.0
 11
-0.4755748722
 21
-26.0100344476
 31
0.0
 11
-0.5062451338
 21
-26.0289155845
 31
0.0
  0
SPLINE
  5
3E0
100
AcDbEntity
  8
RACCORDO
100
AcDbSpline
 62
253
  6
CONTINUOUS
 70
0
 71
3
 72
12
 73
8
 74
6
 42
0.0000001
 43
0.0000001
 44
0.0000000001
 12
-0.0077411357
 22
-0.2398646418
 32
0.0
 13
0.2147308869
 23
-0.1071709744
 33
0.0
 40
0.0
 40
0.0
 40
0.0
 40
0.0
 40
0.0992853516
 40
0.2018946729
 40
0.4272391936
 40
0.6918164814
 40
1.0
 40
1.0
 40
1.0
 40
1.0
 10
-22.4555641122
 20
16.8577394147
 30
0.0
 10
-22.455820306
 20
16.8498010662
 30
0.0
 10
-22.4546035545
 20
16.8335538021
 30
0.0
 10
-22.4450487578
 20
16.8005211309
 30
0.0
 10
-22.4189380308
 20
16.7598195309
 30
0.0
 10
-22.3708419528
 20
16.7170976301
 30
0.0
 10
-22.331140819
 20
16.6937086896
 30
0.0
 10
-22.309081979
 20
16.682699247
 30
0.0
 11
-22.4555641122
 21
16.8577394147
 31
0.0
 11
-22.4538259084
 21
16.8339754557
 31
0.0
 11
-22.4470968775
 21
16.8102875104
 31
0.0
 11
-22.4189881299
 21
16.7640859977
 31
0.0
 11
-22.3723634099
 21
16.7209832225
 31
0.0
 11
-22.309081979
 21
16.682699247
 31
0.0
  0
SPLINE
  5
3E1
100
AcDbEntity
  8
RACCORDO
100
AcDbSpline
 62
253
  6
CONTINUOUS
 70
0
 71
3
 72
11
 73
7
 74
5
 42
0.0000001
 43
0.0000001
 44
0.0000000001
 12
0.2095460759
 22
0.1221712368
 32
0.0
 13
0.2185204315
 23
-0.1052814799
 33
0.0
 40
0.0
 40
0.0
 40
0.0
 40
0.0
 40
0.2233920235
 40
0.4591546752
 40
0.7164478085
 40
1.0
 40
1.0
 40
1.0
 40
1.0
 10
-21.5498554536
 20
18.4434095467
 30
0.0
 10
-21.534251813
 20
18.4525069066
 30
0.0
 10
-21.4990545845
 20
18.4662653672
 30
0.0
 10
-21.4406408358
 20
18.4709758527
 30
0.0
 10
-21.3782077562
 20
18.460482629
 30
0.0
 10
-21.337165814
 20
18.4445870398
 30
0.0
 10
-21.3165118315
 20
18.4346361084
 30
0.0
 11
-21.5498554536
 21
18.4434095467
 31
0.0
 11
-21.4994729323
 21
18.4633525047
 31
0.0
 11
-21.442524835
 21
18.4685698807
 31
0.0
 11
-21.3808704596
 21
18.4588938748
 31
0.0
 11
-21.3165118315
 21
18.4346361084
 31
0.0
  0
SPLINE
  5
3E2
100
AcDbEntity
  8
RACCORDO
100
AcDbSpline
 62
253
  6
CONTINUOUS
 70
0
 71
3
 72
11
 73
7
 74
5
 42
0.0000001
 43
0.0000001
 44
0.0000000001
 12
-0.0000013698
 22
-0.1191821853
 32
0.0
 13
-0.1063496865
 23
-0.0537971883
 33
0.0
 40
0.0
 40
0.0
 40
0.0
 40
0.0
 40
0.2069627866
 40
0.4350648202
 40
0.69780603
 40
1.0
 40
1.0
 40
1.0
 40
1.0
 10
-0.4340472789
 20
-25.5935114356
 30
0.0
 10
-0.4340473734
 20
-25.601733528
 30
0.0
 10
-0.4376464901
 20
-25.6191494238
 30
0.0
 10
-0.4526958576
 20
-25.6429446727
 30
0.0
 10
-0.4761727975
 20
-25.6643564704
 30
0.0
 10
-0.4955323891
 20
-25.6759650058
 30
0.0
 10
-0.5062451338
 20
-25.6813840678
 30
0.0
 11
-0.4340472789
 21
-25.5935114356
 31
0.0
 11
-0.4387804618
 21
-25.6177193312
 31
0.0
 11
-0.4528007609
 21
-25.6410108197
 31
0.0
 11
-0.4755748734
 21
-25.6625029316
 31
0.0
 11
-0.5062451338
 21
-25.6813840678
 31
0.0
  0
SPLINE
  5
3E3
100
AcDbEntity
  8
RACCORDO
100
AcDbSpline
 62
253
  6
CONTINUOUS
 70
0
 71
3
 72
12
 73
8
 74
6
 42
0.0000001
 43
0.0000001
 44
0.0000000001
 12
0.0080691497
 22
-0.2408855903
 32
0.0
 13
0.2155024181
 23
-0.1079337137
 33
0.0
 40
0.0
 40
0.0
 40
0.0
 40
0.0
 40
0.1048910284
 40
0.2122584632
 40
0.4422499851
 40
0.7031959448
 40
1.0
 40
1.0
 40
1.0
 40
1.0
 10
-22.4555454277
 20
-18.6678440808
 30
0.0
 10
-22.4552633006
 20
-18.6762663265
 30
0.0
 10
-22.4531080629
 20
-18.6932965168
 30
0.0
 10
-22.4423623417
 20
-18.7273354813
 30
0.0
 10
-22.4162190512
 20
-18.7686624907
 30
0.0
 10
-22.3690998575
 20
-18.8116715536
 30
0.0
 10
-22.3304028372
 20
-18.8348116439
 30
0.0
 10
-22.3090821733
 20
-18.8454900318
 30
0.0
 11
-22.4555454277
 21
-18.6678440808
 31
0.0
 11
-22.4524000725
 21
-18.6929285604
 31
0.0
 11
-22.4446790093
 21
-18.7176276372
 31
0.0
 11
-22.4158347781
 21
-18.7649646898
 31
0.0
 11
-22.3700769844
 21
-18.8081132862
 31
0.0
 11
-22.3090821733
 21
-18.8454900318
 31
0.0
  0
LINE
  5
3E4
100
AcDbEntity
  8
RACCORDO
100
AcDbLine
 62
253
  6
CONTINUOUS
 10
-9.1351667923
 20
-17.017917288
 11
-9.1358621276
 21
-16.9774463632
  0
SPLINE
  5
3E5
100
AcDbEntity
  8
RACCORDO
100
AcDbSpline
 62
253
  6
CONTINUOUS
 70
0
 71
3
 72
15
 73
11
 74
9
 42
0.0000001
 43
0.0000001
 44
0.0000000001
 12
0.000725551
 22
2.2085374455
 32
0.0
 13
-1.9753631703
 23
0.9877137846
 33
0.0
 40
0.0
 40
0.0
 40
0.0
 40
0.0
 40
0.1197979315
 40
0.2468575064
 40
0.3785198914
 40
0.5117247869
 40
0.6432845351
 40
0.7701503828
 40
0.8896904054
 40
1.0
 40
1.0
 40
1.0
 40
1.0
 10
-9.2130583863
 20
-7.7460080264
 30
0.0
 10
-9.2130294132
 20
-7.6578152871
 30
0.0
 10
-9.2278969001
 20
-7.475896037
 30
0.0
 10
-9.288532735
 20
-7.2031711054
 30
0.0
 10
-9.3860139476
 20
-6.9308349178
 30
0.0
 10
-9.5167423984
 20
-6.6691417892
 30
0.0
 10
-9.6758755209
 20
-6.4278720527
 30
0.0
 10
-9.8575812982
 20
-6.2160566325
 30
0.0
 10
-10.055092339
 20
-6.0416736865
 30
0.0
 10
-10.1990242921
 20
-5.9507212983
 30
0.0
 10
-10.2716581289
 20
-5.9144031959
 30
0.0
 11
-9.2130583863
 21
-7.7460080264
 31
0.0
 11
-9.2332712105
 21
-7.4822030178
 31
0.0
 11
-9.2933196993
 21
-7.2080872923
 31
0.0
 11
-9.3909344272
 21
-6.9341801132
 31
0.0
 11
-9.5224162245
 21
-6.6710088279
 31
0.0
 11
-9.6827665334
 21
-6.4287078154
 31
0.0
 11
-9.8658679571
 21
-6.2166248631
 31
0.0
 11
-10.0647109492
 21
-6.0429526967
 31
0.0
 11
-10.2716581289
 21
-5.9144031959
 31
0.0
  0
SPLINE
  5
3E6
100
AcDbEntity
  8
RACCORDO
100
AcDbSpline
 62
253
  6
CONTINUOUS
 70
0
 71
3
 72
19
 73
15
 74
13
 42
0.0000001
 43
0.0000001
 44
0.0000000001
 12
-1.4714838989
 22
0.7357182534
 32
0.0
 13
-0.0005978388
 23
-1.6451583072
 33
0.0
 40
0.0
 40
0.0
 40
0.0
 40
0.0
 40
0.1346090806
 40
0.256693341
 40
0.3141710499
 40
0.3700298732
 40
0.4250632888
 40
0.4801316133
 40
0.5360912779
 40
0.5937254271
 40
0.716234185
 40
0.7821960534
 40
0.8514992542
 40
1.0
 40
1.0
 40
1.0
 40
1.0
 10
-20.1835663487
 20
-0.958449086
 30
0.0
 10
-20.2495913803
 20
-0.9254376334
 30
0.0
 10
-20.381728569
 20
-0.8736716294
 30
0.0
 10
-20.5544738893
 20
-0.8496425131
 30
0.0
 10
-20.6836178918
 20
-0.8597491524
 30
0.0
 10
-20.7738940945
 20
-0.8808493123
 30
0.0
 10
-20.8584878917
 20
-0.9154622229
 30
0.0
 10
-20.9364823074
 20
-0.9632194202
 30
0.0
 10
-21.0070496528
 20
-1.0235948762
 30
0.0
 10
-21.0919595868
 20
-1.1218844057
 30
0.0
 10
-21.1572525103
 20
-1.2420296664
 30
0.0
 10
-21.2027219128
 20
-1.3760444736
 30
0.0
 10
-21.2370599592
 20
-1.5280782273
 30
0.0
 10
-21.246212115
 20
-1.6479806202
 30
0.0
 10
-21.2462417082
 20
-1.7294163655
 30
0.0
 11
-20.1835663487
 21
-0.958449086
 31
0.0
 11
-20.3906520402
 21
-0.8799821276
 31
0.0
 11
-20.5898913749
 21
-0.8546131337
 31
0.0
 11
-20.6841448262
 21
-0.8622202704
 31
0.0
 11
-20.7735922771
 21
-0.8832949248
 31
0.0
 11
-20.8573683993
 21
-0.9176288025
 31
0.0
 11
-20.9346631232
 21
-0.9648853593
 31
0.0
 11
-21.004729111
 21
-1.0246035615
 31
0.0
 11
-21.0668893296
 21
-1.0962026444
 31
0.0
 11
-21.1651743552
 21
-1.2721599417
 31
0.0
 11
-21.2003510243
 21
-1.3748181033
 31
0.0
 11
-21.2257345712
 21
-1.4859713191
 31
0.0
 11
-21.2462417082
 21
-1.7294163655
 31
0.0
  0
SPLINE
  5
3E7
100
AcDbEntity
  8
RACCORDO
100
AcDbSpline
 62
253
  6
CONTINUOUS
 70
0
 71
3
 72
11
 73
7
 74
5
 42
0.0000001
 43
0.0000001
 44
0.0000000001
 12
0.1389309039
 22
0.0712901785
 32
0.0
 13
-0.000739186
 23
0.1561522949
 33
0.0
 40
0.0
 40
0.0
 40
0.0
 40
0.0
 40
0.21754047
 40
0.4509586234
 40
0.7106393245
 40
1.0
 40
1.0
 40
1.0
 40
1.0
 10
-0.5699277988
 20
-26.1634762061
 30
0.0
 10
-0.5598534341
 20
-26.1583067064
 30
0.0
 10
-0.5408348607
 20
-26.1435739022
 30
0.0
 10
-0.5205282364
 20
-26.111990224
 30
0.0
 10
-0.5084668032
 20
-26.0726748971
 30
0.0
 10
-0.5061738366
 20
-26.043977029
 30
0.0
 10
-0.5062451338
 20
-26.0289155845
 30
0.0
 11
-0.5699277988
 21
-26.1634762061
 31
0.0
 11
-0.5429315157
 21
-26.1428570485
 31
0.0
 11
-0.5227328241
 21
-26.1125163792
 31
0.0
 11
-0.5103046373
 21
-26.0739176976
 31
0.0
 11
-0.5062451338
 21
-26.0289155845
 31
0.0
  0
SPLINE
  5
3E8
100
AcDbEntity
  8
RACCORDO
100
AcDbSpline
 62
7
  6
CONTINUOUS
 70
0
 71
3
 72
11
 73
7
 74
5
 42
0.0000001
 43
0.0000001
 44
0.0000000001
 12
0.1334232764
 22
0.0748828011
 32
0.0
 13
0.0
 23
0.1530006686
 33
0.0
 40
0.0
 40
0.0
 40
0.0
 40
0.0
 40
0.2171864146
 40
0.4511858794
 40
0.7111959599
 40
1.0
 40
1.0
 40
1.0
 40
1.0
 10
-1.0955235157
 20
-26.4330433122
 30
0.0
 10
-1.0858642747
 20
-26.4276221365
 30
0.0
 10
-1.0677364034
 20
-26.4125998911
 30
0.0
 10
-1.0484082527
 20
-26.381321905
 30
0.0
 10
-1.0368207262
 20
-26.3427434848
 30
0.0
 10
-1.0345123055
 20
-26.3146557136
 30
0.0
 10
-1.0345123055
 20
-26.2999266432
 30
0.0
 11
-1.0955235157
 21
-26.4330433122
 31
0.0
 11
-1.069771165
 21
-26.4120426651
 31
0.0
 11
-1.050486732
 21
-26.3818781299
 31
0.0
 11
-1.0385522322
 21
-26.3439287866
 31
0.0
 11
-1.0345123055
 21
-26.2999266432
 31
0.0
  0
SPLINE
  5
3E9
100
AcDbEntity
  8
ASSI
100
AcDbSpline
 62
7
  6
CONTINUOUS
 70
0
 71
3
 72
11
 73
7
 74
5
 42
0.0000001
 43
0.0000001
 44
0.0000000001
 12
-0.0964201633
 22
0.0478008667
 32
0.0
 13
-0.1045061947
 23
-0.0256948638
 33
0.0
 40
0.0
 40
0.0
 40
0.0
 40
0.0
 40
0.1396023896
 40
0.3461574467
 40
0.6317252722
 40
1.0
 40
1.0
 40
1.0
 40
1.0
 10
0.0500719445
 20
20.1618153124
 30
0.0
 10
0.0455851161
 20
20.1640396841
 30
0.0
 10
0.0330550312
 20
20.1663712569
 30
0.0
 10
0.0104113646
 20
20.1655307044
 30
0.0
 10
-0.0201648877
 20
20.1608031664
 30
0.0
 10
-0.0430394353
 20
20.1556093023
 30
0.0
 10
-0.0558684321
 20
20.1524550459
 30
0.0
 11
0.0500719445
 21
20.1618153124
 31
0.0
 11
0.0354984612
 21
20.1654661634
 31
0.0
 11
0.0132701112
 21
20.1652748322
 31
0.0
 11
-0.0171567871
 21
20.1609521612
 31
0.0
 11
-0.0558684321
 21
20.1524550459
 31
0.0
  0
SPLINE
  5
3EA
100
AcDbEntity
  8
RACCORDO
100
AcDbSpline
 62
253
  6
CONTINUOUS
 70
0
 71
3
 72
14
 73
10
 74
8
 42
0.0000001
 43
0.0000001
 44
0.0000000001
 12
-0.7955006672
 22
0.3977492674
 32
0.0
 13
-0.0299666865
 23
0.8888913257
 33
0.0
 40
0.0
 40
0.0
 40
0.0
 40
0.0
 40
0.1080856767
 40
0.2183123151
 40
0.3325062122
 40
0.452147137
 40
0.5782994461
 40
0.7116053185
 40
1.0
 40
1.0
 40
1.0
 40
1.0
 10
-21.9246613904
 20
-19.6016918736
 30
0.0
 10
-21.9533221331
 20
-19.5873615406
 30
0.0
 10
-22.0087756648
 20
-19.5532414502
 30
0.0
 10
-22.0829657298
 20
-19.4876665107
 30
0.0
 10
-22.147741565
 20
-19.4083292725
 30
0.0
 10
-22.2023982738
 20
-19.3162536792
 30
0.0
 10
-22.246428093
 20
-19.2125068719
 30
0.0
 10
-22.2915610607
 20
-19.0561825976
 30
0.0
 10
-22.3062014291
 20
-18.9309405422
 30
0.0
 10
-22.3090821734
 20
-18.8454900319
 30
0.0
 11
-21.9246613904
 21
-19.6016918736
 31
0.0
 11
-22.0065790279
 21
-19.5513861068
 31
0.0
 11
-22.0801934891
 21
-19.4866419588
 31
0.0
 11
-22.1446839951
 21
-19.4081808497
 31
0.0
 11
-22.1993314333
 21
-19.3168771705
 31
0.0
 11
-22.243526408
 21
-19.2137485659
 31
0.0
 11
-22.2767760398
 21
-19.0999445647
 31
0.0
 11
-22.3090821734
 21
-18.8454900319
 31
0.0
  0
SPLINE
  5
3EB
100
AcDbEntity
  8
RACCORDO
100
AcDbSpline
 62
253
  6
CONTINUOUS
 70
0
 71
3
 72
12
 73
8
 74
6
 42
0.0000001
 43
0.0000001
 44
0.0000000001
 12
-0.0143667242
 22
-0.337021057
 32
0.0
 13
-0.3110365509
 23
-0.1305597934
 33
0.0
 40
0.0
 40
0.0
 40
0.0
 40
0.0
 40
0.2890978441
 40
0.5488670609
 40
0.7821082425
 40
0.892142372
 40
1.0
 40
1.0
 40
1.0
 40
1.0
 10
-6.173222158
 20
-26.7083765201
 30
0.0
 10
-6.174606621
 20
-26.7408538738
 30
0.0
 10
-6.1826696832
 20
-26.8025345623
 30
0.0
 10
-6.2132772545
 20
-26.8858734943
 30
0.0
 10
-6.2542294396
 20
-26.9414962253
 30
0.0
 10
-6.2940903001
 20
-26.9732547077
 30
0.0
 10
-6.3158470711
 20
-26.9848777318
 30
0.0
 10
-6.327029626
 20
-26.9895716884
 30
0.0
 11
-6.173222158
 21
-26.7083765201
 31
0.0
 11
-6.1868227394
 21
-26.8049440164
 31
0.0
 11
-6.2182538674
 21
-26.8867401736
 31
0.0
 11
-6.2658368931
 21
-26.9493993671
 31
0.0
 11
-6.294921295
 21
-26.9724602907
 31
0.0
 11
-6.327029626
 21
-26.9895716884
 31
0.0
  0
SPLINE
  5
3EC
100
AcDbEntity
  8
RACCORDO
100
AcDbSpline
 62
7
  6
CONTINUOUS
 70
0
 71
3
 72
12
 73
8
 74
6
 42
0.0000001
 43
0.0000001
 44
0.0000000001
 12
-0.0057304564
 22
-0.3189914023
 32
0.0
 13
-0.2861226591
 23
-0.1411459416
 33
0.0
 40
0.0
 40
0.0
 40
0.0
 40
0.0
 40
0.2898787625
 40
0.5500437153
 40
0.7831991871
 40
0.8928445279
 40
1.0
 40
1.0
 40
1.0
 40
1.0
 10
-0.6740508871
 20
-24.4000477893
 30
0.0
 10
-0.6746045997
 20
-24.4308707336
 30
0.0
 10
-0.680587533
 20
-24.4894908678
 30
0.0
 10
-0.7066380314
 20
-24.5693752108
 30
0.0
 10
-0.7428013927
 20
-24.6236785544
 30
0.0
 10
-0.7786917006
 20
-24.6556494592
 30
0.0
 10
-0.7984749685
 20
-24.6677806914
 30
0.0
 10
-0.808694838
 20
-24.6728222114
 30
0.0
 11
-0.6740508871
 21
-24.4000477893
 31
0.0
 11
-0.6843303896
 21
-24.4919584866
 31
0.0
 11
-0.7112017155
 21
-24.5704922896
 31
0.0
 11
-0.7533470291
 21
-24.6317877824
 31
0.0
 11
-0.7795272776
 21
-24.6549891708
 31
0.0
 11
-0.808694838
 21
-24.6728222114
 31
0.0
  0
SPLINE
  5
3ED
100
AcDbEntity
  8
RACCORDO
100
AcDbSpline
 62
253
  6
CONTINUOUS
 70
0
 71
3
 72
11
 73
7
 74
5
 42
0.0000001
 43
0.0000001
 44
0.0000000001
 12
0.1426574499
 22
0.0695005464
 32
0.0
 13
0.000756365
 23
0.1586849138
 33
0.0
 40
0.0
 40
0.0
 40
0.0
 40
0.0
 40
0.2167636784
 40
0.4498677488
 40
0.709858521
 40
1.0
 40
1.0
 40
1.0
 40
1.0
 10
-2.7020547704
 20
-27.215811556
 30
0.0
 10
-2.6917471192
 20
-27.2107898246
 30
0.0
 10
-2.6721934253
 20
-27.1961822812
 30
0.0
 10
-2.6511712886
 20
-27.1643728366
 30
0.0
 10
-2.6384834893
 20
-27.1245067609
 30
0.0
 10
-2.6358662473
 20
-27.095308268
 30
0.0
 10
-2.6357930963
 20
-27.0799612428
 30
0.0
 11
-2.7020547704
 21
-27.215811556
 31
0.0
 11
-2.6743503246
 21
-27.1954239909
 31
0.0
 11
-2.6534458553
 21
-27.1649067548
 31
0.0
 11
-2.6403777599
 21
-27.1257740103
 31
0.0
 11
-2.6357930963
 21
-27.0799612428
 31
0.0
  0
SPLINE
  5
3EE
100
AcDbEntity
  8
RACCORDO
100
AcDbSpline
 62
7
  6
CONTINUOUS
 70
0
 71
3
 72
15
 73
11
 74
9
 42
0.0000001
 43
0.0000001
 44
0.0000000001
 12
-1.0521069983
 22
0.5260534992
 32
0.0
 13
-0.0276000616
 23
1.1759675406
 33
0.0
 40
0.0
 40
0.0
 40
0.0
 40
0.0
 40
0.1106080909
 40
0.2306493869
 40
0.3580390172
 40
0.48999025
 40
0.6233325093
 40
0.7547879143
 40
0.8812365719
 40
1.0
 40
1.0
 40
1.0
 40
1.0
 10
-21.222375095
 20
-14.7536361816
 30
0.0
 10
-21.2611656105
 20
-14.7342409238
 30
0.0
 10
-21.338198103
 20
-14.6858630984
 30
0.0
 10
-21.4445272589
 20
-14.5935376693
 30
0.0
 10
-21.5431086155
 20
-14.4815883863
 30
0.0
 10
-21.6302384082
 20
-14.354207399
 30
0.0
 10
-21.702682848
 20
-14.2161459172
 30
0.0
 10
-21.7577194313
 20
-14.0725495264
 30
0.0
 10
-21.7932842085
 20
-13.9288169011
 30
0.0
 10
-21.8034929601
 20
-13.832789658
 30
0.0
 10
-21.8045855861
 20
-13.7862356791
 30
0.0
 11
-21.222375095
 21
-14.7536361816
 31
0.0
 11
-21.3330847946
 21
-14.6852893934
 31
0.0
 11
-21.4401826335
 21
-14.5932649769
 31
0.0
 11
-21.5395477255
 21
-14.4811008153
 31
0.0
 11
-21.6273513022
 21
-14.353110043
 31
0.0
 11
-21.7002122548
 21
-14.2142107976
 31
0.0
 11
-21.7553247859
 21
-14.0697358771
 31
0.0
 11
-21.7905678087
 21
-13.9252310132
 31
0.0
 11
-21.8045855861
 21
-13.7862356791
 31
0.0
  0
SPLINE
  5
3EF
100
AcDbEntity
  8
RACCORDO
100
AcDbSpline
 62
253
  6
CONTINUOUS
 70
0
 71
3
 72
18
 73
14
 74
12
 42
0.0000001
 43
0.0000001
 44
0.0000000001
 12
0.0357198758
 22
-1.0294938715
 32
0.0
 13
0.9498359461
 23
0.3986793405
 33
0.0
 40
0.0
 40
0.0
 40
0.0
 40
0.0
 40
0.1464070216
 40
0.2804233489
 40
0.4031622197
 40
0.461345076
 40
0.51806629
 40
0.5740081007
 40
0.6299079474
 40
0.6865062655
 40
0.7444933924
 40
0.8666700761
 40
1.0
 40
1.0
 40
1.0
 40
1.0
 10
-6.8544127903
 20
-26.2079752367
 30
0.0
 10
-6.8526695767
 20
-26.2582169472
 30
0.0
 10
-6.8420355298
 20
-26.3544718811
 30
0.0
 10
-6.8014397869
 20
-26.4877422056
 30
0.0
 10
-6.7470761701
 20
-26.5826353972
 30
0.0
 10
-6.6929542271
 20
-26.6440161972
 30
0.0
 10
-6.6482119191
 20
-26.6822767121
 30
0.0
 10
-6.5990121467
 20
-26.7131638389
 30
0.0
 10
-6.5458100522
 20
-26.7363876476
 30
0.0
 10
-6.489102522
 20
-26.7517343299
 30
0.0
 10
-6.4081790043
 20
-26.7617209915
 30
0.0
 10
-6.2996897145
 20
-26.7529178677
 30
0.0
 10
-6.2154360095
 20
-26.7260951488
 30
0.0
 10
-6.173222158
 20
-26.7083765201
 30
0.0
 11
-6.8544127903
 21
-26.2079752367
 31
0.0
 11
-6.8367674938
 21
-26.3577552685
 31
0.0
 11
-6.7952730731
 21
-26.4894236794
 31
0.0
 11
-6.7313423693
 21
-26.5985046674
 31
0.0
 11
-6.6916154668
 21
-26.6433819443
 31
0.0
 11
-6.6471513588
 21
-26.6812887237
 31
0.0
 11
-6.5983290701
 21
-26.7119022319
 31
0.0
 11
-6.5455647937
 21
-26.7349620161
 31
0.0
 11
-6.4893081626
 21
-26.75027196
 31
0.0
 11
-6.4300387676
 21
-26.7577021455
 31
0.0
 11
-6.3045025375
 21
-26.7487385506
 31
0.0
 11
-6.173222158
 21
-26.7083765201
 31
0.0
  0
SPLINE
  5
3F0
100
AcDbEntity
  8
RACCORDO
100
AcDbSpline
 62
253
  6
CONTINUOUS
 70
0
 71
3
 72
14
 73
10
 74
8
 42
0.0000001
 43
0.0000001
 44
0.0000000001
 12
0.030958006
 22
-0.8975204102
 32
0.0
 13
0.8031766066
 23
-0.4017569209
 33
0.0
 40
0.0
 40
0.0
 40
0.0
 40
0.0
 40
0.2861087483
 40
0.4187800477
 40
0.5446951968
 40
0.6645247331
 40
0.779335963
 40
0.8905765122
 40
1.0
 40
1.0
 40
1.0
 40
1.0
 10
-7.5549977251
 20
-26.2225322561
 30
0.0
 10
-7.552045273
 20
-26.3081284031
 30
0.0
 10
-7.5369957847
 20
-26.4337114309
 30
0.0
 10
-7.490826145
 20
-26.5904039492
 30
0.0
 10
-7.4457394706
 20
-26.6946743066
 30
0.0
 10
-7.3897780293
 20
-26.7873835983
 30
0.0
 10
-7.323473573
 20
-26.8674552123
 30
0.0
 10
-7.247558831
 20
-26.9338610481
 30
0.0
 10
-7.1909071973
 20
-26.9685628108
 30
0.0
 10
-7.1616117355
 20
-26.9832166919
 30
0.0
 11
-7.5549977251
 21
-26.2225322561
 31
0.0
 11
-7.5219378766
 21
-26.4773376772
 31
0.0
 11
-7.4879130366
 21
-26.5915221014
 31
0.0
 11
-7.4426877329
 21
-26.6951630544
 31
0.0
 11
-7.3867661961
 21
-26.7871055835
 31
0.0
 11
-7.3207718835
 21
-26.8663251706
 31
0.0
 11
-7.2454404912
 21
-26.9319391863
 31
0.0
 11
-7.1616117355
 21
-26.9832166919
 31
0.0
  0
SPLINE
  5
3F1
100
AcDbEntity
  8
RACCORDO
100
AcDbSpline
 62
253
  6
CONTINUOUS
 70
0
 71
3
 72
15
 73
11
 74
9
 42
0.0000001
 43
0.0000001
 44
0.0000000001
 12
-0.6379489225
 22
-0.3395695208
 32
0.0
 13
-0.6466158644
 23
0.3227602998
 33
0.0
 40
0.0
 40
0.0
 40
0.0
 40
0.0
 40
0.1147770365
 40
0.2389907228
 40
0.3697449956
 40
0.5036293606
 40
0.6370149597
 40
0.7663076332
 40
0.8882044553
 40
1.0
 40
1.0
 40
1.0
 40
1.0
 10
-6.8544127903
 20
-26.2079752367
 30
0.0
 10
-6.8788200859
 20
-26.2209668312
 30
0.0
 10
-6.9318300117
 20
-26.2439936432
 30
0.0
 10
-7.0175015409
 20
-26.2690274454
 30
0.0
 10
-7.1099398935
 20
-26.2852673285
 30
0.0
 10
-7.2057421899
 20
-26.2921004871
 30
0.0
 10
-7.3013957498
 20
-26.2892816011
 30
0.0
 10
-7.3933976535
 20
-26.2769092987
 30
0.0
 10
-7.4783655076
 20
-26.2554543895
 30
0.0
 10
-7.5309013511
 20
-26.2345599131
 30
0.0
 10
-7.5549976086
 20
-26.222532192
 30
0.0
 11
-6.8544127903
 21
-26.2079752367
 31
0.0
 11
-6.9302824344
 21
-26.241505455
 31
0.0
 11
-7.0163501453
 21
-26.2670147685
 31
0.0
 11
-7.1093879147
 21
-26.2835476122
 31
0.0
 11
-7.2058965824
 21
-26.2904809291
 31
0.0
 11
-7.3022491066
 21
-26.287554937
 31
0.0
 11
-7.3948242892
 21
-26.2748788128
 31
0.0
 11
-7.4801404085
 21
-26.2529305627
 31
0.0
 11
-7.5549976086
 21
-26.222532192
 31
0.0
  0
SPLINE
  5
3F2
100
AcDbEntity
  8
RACCORDO
100
AcDbSpline
 62
253
  6
CONTINUOUS
 70
0
 71
3
 72
15
 73
11
 74
9
 42
0.0000001
 43
0.0000001
 44
0.0000000001
 12
-0.6597028802
 22
-0.2859186903
 32
0.0
 13
-0.6428578439
 23
0.3220111489
 33
0.0
 40
0.0
 40
0.0
 40
0.0
 40
0.0
 40
0.1118529215
 40
0.2344135773
 40
0.3646250062
 40
0.4988696174
 40
0.6332683318
 40
0.7639322287
 40
0.8872131891
 40
1.0
 40
1.0
 40
1.0
 40
1.0
 10
-6.8544127903
 20
9.2846857655
 30
0.0
 10
-6.8790093551
 20
9.2740254852
 30
0.0
 10
-6.9323316459
 20
9.2557002193
 30
0.0
 10
-7.0179136552
 20
9.2372704662
 30
0.0
 10
-7.1102636784
 20
9.227112305
 30
0.0
 10
-7.2059775836
 20
9.2256201993
 30
0.0
 10
-7.3015382523
 20
9.2328479478
 30
0.0
 10
-7.3934329033
 20
9.2485314388
 30
0.0
 10
-7.4782738872
 20
9.2720730505
 30
0.0
 10
-7.5308290963
 20
9.2935507319
 30
0.0
 10
-7.554997725
 20
9.3056569354
 30
0.0
 11
-6.8544127903
 21
9.2846857655
 31
0.0
 11
-6.9302824333
 21
9.2580119871
 31
0.0
 11
-7.0163501505
 21
9.2391010353
 31
0.0
 11
-7.1093879325
 21
9.2286611117
 31
0.0
 11
-7.2058966179
 21
9.2270859998
 31
0.0
 11
-7.3022491632
 21
9.2344341814
 31
0.0
 11
-7.3948243679
 21
9.2504302072
 31
0.0
 11
-7.4801405079
 21
9.2744713292
 31
0.0
 11
-7.554997725
 21
9.3056569354
 31
0.0
  0
SPLINE
  5
3F3
100
AcDbEntity
  8
RACCORDO
100
AcDbSpline
 62
253
  6
CONTINUOUS
 70
0
 71
3
 72
15
 73
11
 74
9
 42
0.0000001
 43
0.0000001
 44
0.0000000001
 12
-1.2258256345
 22
-0.6692411682
 32
0.0
 13
-0.0468626069
 23
-1.3958281139
 33
0.0
 40
0.0
 40
0.0
 40
0.0
 40
0.0
 40
0.1125352868
 40
0.2331217012
 40
0.3599666735
 40
0.49073593
 40
0.6227871675
 40
0.7533812707
 40
0.8798877602
 40
1.0
 40
1.0
 40
1.0
 40
1.0
 10
-6.173222158
 20
10.4429051959
 30
0.0
 10
-6.2192050378
 20
10.4178007803
 30
0.0
 10
-6.3099484308
 20
10.3572849693
 30
0.0
 10
-6.434747117
 20
10.2447335054
 30
0.0
 10
-6.5495308195
 20
10.1106207366
 30
0.0
 10
-6.6504808639
 20
9.9594108603
 30
0.0
 10
-6.7342787674
 20
9.7961101735
 30
0.0
 10
-6.7981379552
 20
9.6261242058
 30
0.0
 10
-6.839932571
 20
9.4551327267
 30
0.0
 10
-6.8525365327
 20
9.3405711126
 30
0.0
 10
-6.8544127903
 20
9.2846857655
 30
0.0
 11
-6.173222158
 21
10.4429051959
 31
0.0
 11
-6.3045025555
 21
10.3564912532
 31
0.0
 11
-6.4300387791
 21
10.2442259057
 31
0.0
 11
-6.5455648028
 21
10.1099235868
 31
0.0
 11
-6.6471513628
 21
9.9581492835
 31
0.0
 11
-6.7313423668
 21
9.7940629106
 31
0.0
 11
-6.7952730672
 21
9.6232447582
 31
0.0
 11
-6.8367674735
 21
9.4515056505
 31
0.0
 11
-6.8544127903
 21
9.2846857655
 31
0.0
  0
SPLINE
  5
3F4
100
AcDbEntity
  8
RACCORDO
100
AcDbSpline
 62
253
  6
CONTINUOUS
 70
0
 71
3
 72
15
 73
11
 74
9
 42
0.0000001
 43
0.0000001
 44
0.0000000001
 12
-1.8329907814
 22
-1.0117302153
 32
0.0
 13
-0.0698255972
 23
-2.0925051061
 33
0.0
 40
0.0
 40
0.0
 40
0.0
 40
0.0
 40
0.112307152
 40
0.2327593653
 40
0.3595552132
 40
0.4903461716
 40
0.6224718706
 40
0.7531720903
 40
0.879792512
 40
1.0
 40
1.0
 40
1.0
 40
1.0
 10
-6.5390548981
 20
11.0459076416
 30
0.0
 10
-6.6076742228
 20
11.0080327953
 30
0.0
 10
-6.7430671839
 20
10.9168144682
 30
0.0
 10
-6.9291777241
 20
10.7474462545
 30
0.0
 10
-7.1003505276
 20
10.5457855442
 30
0.0
 10
-7.2508911786
 20
10.3185460859
 30
0.0
 10
-7.3758514028
 20
10.0732519722
 30
0.0
 10
-7.4710770801
 20
9.8180243918
 30
0.0
 10
-7.5333996471
 20
9.5613911648
 30
0.0
 10
-7.5521998719
 20
9.3895018629
 30
0.0
 10
-7.5549977251
 20
9.3056569354
 30
0.0
 11
-6.5390548981
 21
11.0459076416
 31
0.0
 11
-6.734857279
 21
10.915717515
 31
0.0
 11
-6.9220903693
 21
10.7467733402
 31
0.0
 11
-7.0943906945
 21
10.5448174154
 31
0.0
 11
-7.2458979306
 21
10.3167163128
 31
0.0
 11
-7.3714584486
 21
10.0702261962
 31
0.0
 11
-7.4668012681
 21
9.8137300082
 31
0.0
 11
-7.5286829288
 21
9.5559522213
 31
0.0
 11
-7.5549977251
 21
9.3056569354
 31
0.0
  0
SPLINE
  5
3F5
100
AcDbEntity
  8
RACCORDO
100
AcDbSpline
 62
253
  6
CONTINUOUS
 70
0
 71
3
 72
15
 73
11
 74
9
 42
0.0000001
 43
0.0000001
 44
0.0000000001
 12
-0.0325364715
 22
0.7318350037
 32
0.0
 13
-0.650242775
 23
0.3373802426
 33
0.0
 40
0.0
 40
0.0
 40
0.0
 40
0.0
 40
0.1182341878
 40
0.2445920214
 40
0.3762598593
 40
0.5099675801
 40
0.6422895237
 40
0.7699078885
 40
0.8898863776
 40
1.0
 40
1.0
 40
1.0
 40
1.0
 10
-6.173222158
 20
10.4429051959
 30
0.0
 10
-6.1745044658
 20
10.471747835
 30
0.0
 10
-6.1819941015
 20
10.5312525654
 30
0.0
 10
-6.2054509395
 20
10.6203103728
 30
0.0
 10
-6.2406940587
 20
10.709470209
 30
0.0
 10
-6.2864091274
 20
10.7953772395
 30
0.0
 10
-6.3408813141
 20
10.874826883
 30
0.0
 10
-6.4020923218
 20
10.9448553562
 30
0.0
 10
-6.4677450032
 20
11.0028477195
 30
0.0
 10
-6.5151880356
 20
11.0335242548
 30
0.0
 10
-6.5390548981
 20
11.0459076416
 30
0.0
 11
-6.173222158
 21
10.4429051959
 31
0.0
 11
-6.1835583292
 21
10.5288996309
 31
0.0
 11
-6.2068293016
 21
10.6184911243
 31
0.0
 11
-6.242142573
 21
10.7082486198
 31
0.0
 11
-6.2881428695
 21
10.7947235326
 31
0.0
 11
-6.3430637837
 21
10.8745971454
 31
0.0
 11
-6.4047979584
 21
10.9448030457
 31
0.0
 11
-6.4709729253
 21
11.0026453771
 31
0.0
 11
-6.5390548981
 21
11.0459076416
 31
0.0
  0
SPLINE
  5
3F6
100
AcDbEntity
  8
RACCORDO
100
AcDbSpline
 62
7
  6
CONTINUOUS
 70
0
 71
3
 72
18
 73
14
 74
12
 42
0.0000001
 43
0.0000001
 44
0.0000000001
 12
-0.0134135809
 22
0.7337266168
 32
0.0
 13
-0.6563746932
 23
0.3281873466
 33
0.0
 40
0.0
 40
0.0
 40
0.0
 40
0.0
 40
0.1192703157
 40
0.2461936251
 40
0.378010233
 40
0.511529486
 40
0.6434260984
 40
0.7077860661
 40
0.7705655265
 40
0.8314374931
 40
0.8901316343
 40
0.94628876
 40
1.0
 40
1.0
 40
1.0
 40
1.0
 10
-0.6740508871
 20
13.4450644322
 30
0.0
 10
-0.6745841678
 20
13.4742350339
 30
0.0
 10
-0.6805631652
 20
13.5344151204
 30
0.0
 10
-0.7019574681
 20
13.6246062557
 30
0.0
 10
-0.7353059126
 20
13.714822108
 30
0.0
 10
-0.779364831
 20
13.8016584772
 30
0.0
 10
-0.8240073152
 20
13.8690984662
 30
0.0
 10
-0.8637229439
 20
13.9185172475
 30
0.0
 10
-0.89477115
 20
13.9524899966
 30
0.0
 10
-0.9270253711
 20
13.9833558652
 30
0.0
 10
-0.9602761737
 20
14.0106609327
 30
0.0
 10
-0.9939233207
 20
14.0345449819
 30
0.0
 10
-1.0171565399
 20
14.0481829543
 30
0.0
 10
-1.0289081061
 20
14.0540587374
 30
0.0
 11
-0.6740508871
 21
13.4450644322
 31
0.0
 11
-0.6822443039
 21
13.53220652
 31
0.0
 11
-0.7034499424
 21
13.6229030439
 31
0.0
 11
-0.7368571224
 21
13.7136848325
 31
0.0
 11
-0.7811875626
 21
13.8010660674
 31
0.0
 11
-0.8347409172
 21
13.8816934396
 31
0.0
 11
-0.8643503372
 21
13.9184902261
 31
0.0
 11
-0.8954605169
 21
13.9524705474
 31
0.0
 11
-0.9277929376
 21
13.9832942228
 31
0.0
 11
-0.9610678771
 21
14.0106443879
 31
0.0
 11
-0.994751741
 21
14.03438744
 31
0.0
 11
-1.0289081061
 21
14.0540587374
 31
0.0
  0
SPLINE
  5
3F7
100
AcDbEntity
  8
RACCORDO
100
AcDbSpline
 62
7
  6
CONTINUOUS
 70
0
 71
3
 72
14
 73
10
 74
8
 42
0.0000001
 43
0.0000001
 44
0.0000000001
 12
0.0083007154
 22
0.5123616133
 32
0.0
 13
0.4583141636
 23
0.2291974085
 33
0.0
 40
0.0
 40
0.0
 40
0.0
 40
0.0
 40
0.2877625065
 40
0.4211179911
 40
0.5474384167
 40
0.6672810377
 40
0.7816425718
 40
0.8919500956
 40
1.0
 40
1.0
 40
1.0
 40
1.0
 10
-21.8764776085
 20
7.1356330812
 30
0.0
 10
-21.8756813969
 20
7.1847792353
 30
0.0
 10
-21.8683465487
 20
7.2569830068
 30
0.0
 10
-21.8434785562
 20
7.3473009744
 30
0.0
 10
-21.818718303
 20
7.4074127554
 30
0.0
 10
-21.7876480403
 20
7.4608225055
 30
0.0
 10
-21.750589614
 20
7.5068536492
 30
0.0
 10
-21.7079849898
 20
7.5448592275
 30
0.0
 10
-21.6760571965
 20
7.5645832013
 30
0.0
 10
-21.6595502626
 20
7.5728381206
 30
0.0
 11
-21.8764776085
 21
7.1356330812
 31
0.0
 11
-21.8601496477
 21
7.2821841078
 31
0.0
 11
-21.841801959
 21
7.348010102
 31
0.0
 11
-21.8169383381
 21
7.4077746657
 31
0.0
 11
-21.7858641305
 21
7.4607433542
 31
0.0
 11
-21.7489612285
 21
7.5062668396
 31
0.0
 11
-21.7066835
 21
7.5437853932
 31
0.0
 11
-21.6595502626
 21
7.5728381206
 31
0.0
  0
SPLINE
  5
3F8
100
AcDbEntity
  8
RACCORDO
100
AcDbSpline
 62
7
  6
CONTINUOUS
 70
0
 71
3
 72
11
 73
7
 74
5
 42
0.0000001
 43
0.0000001
 44
0.0000000001
 12
-0.02949622
 22
-0.2382841434
 32
0.0
 13
-0.2147666167
 23
-0.1073529709
 33
0.0
 40
0.0
 40
0.0
 40
0.0
 40
0.0
 40
0.2825904614
 40
0.5393075485
 40
0.7752714517
 40
1.0
 40
1.0
 40
1.0
 40
1.0
 10
-8.3726882475
 20
-20.3600471799
 30
0.0
 10
-8.3754666976
 20
-20.3824927886
 30
0.0
 10
-8.3842650355
 20
-20.4250445871
 30
0.0
 10
-8.4092134991
 20
-20.4824312206
 30
0.0
 10
-8.4448528127
 20
-20.5283182681
 30
0.0
 10
-8.4754609335
 20
-20.550035806
 30
0.0
 10
-8.4915489968
 20
-20.5580775651
 30
0.0
 11
-8.3726882475
 21
-20.3600471799
 31
0.0
 11
-8.3870365008
 21
-20.4263634964
 31
0.0
 11
-8.4122219007
 21
-20.4826218257
 31
0.0
 11
-8.4474367552
 21
-20.5270039239
 31
0.0
 11
-8.4915489968
 21
-20.5580775651
 31
0.0
  0
SPLINE
  5
3F9
100
AcDbEntity
  8
RACCORDO
100
AcDbSpline
 62
253
  6
CONTINUOUS
 70
0
 71
3
 72
15
 73
11
 74
9
 42
0.0000001
 43
0.0000001
 44
0.0000000001
 12
0.0680382289
 22
2.0877762296
 32
0.0
 13
1.8095177737
 23
1.0435919759
 33
0.0
 40
0.0
 40
0.0
 40
0.0
 40
0.0
 40
0.1205970504
 40
0.2476819652
 40
0.3788130548
 40
0.5112388777
 40
0.6421143066
 40
0.7687075474
 40
0.8886146595
 40
1.0
 40
1.0
 40
1.0
 40
1.0
 10
-22.3090821734
 20
16.6826991595
 30
0.0
 10
-22.3063471035
 20
16.7666257112
 30
0.0
 10
-22.2879687062
 20
16.9387311171
 30
0.0
 10
-22.2271047228
 20
17.1959823088
 30
0.0
 10
-22.1341109438
 20
17.4522238951
 30
0.0
 10
-22.0120799265
 20
17.6988911674
 30
0.0
 10
-21.8650697679
 20
17.9278122751
 30
0.0
 10
-21.6979143659
 20
18.1314091876
 30
0.0
 10
-21.5161754978
 20
18.3029090128
 30
0.0
 10
-21.383696416
 20
18.3958891592
 30
0.0
 10
-21.3165118315
 20
18.4346361084
 30
0.0
 11
-22.3090821734
 21
16.6826991595
 31
0.0
 11
-22.2833727601
 21
16.9332971369
 31
0.0
 11
-22.22291473
 21
17.1917867392
 31
0.0
 11
-22.1297653392
 21
17.4493796415
 31
0.0
 11
-22.0070934333
 21
17.6973140642
 31
0.0
 11
-21.8590717356
 21
17.9271579359
 31
0.0
 11
-21.6907353058
 21
18.1310958084
 31
0.0
 11
-21.5078096635
 21
18.3021937073
 31
0.0
 11
-21.3165118315
 21
18.4346361084
 31
0.0
  0
LINE
  5
3FA
100
AcDbEntity
  8
RACCORDO
100
AcDbLine
 62
7
  6
CONTINUOUS
 10
-21.6677017988
 20
7.0295013841
 11
-21.6643031095
 21
7.2417203307
  0
SPLINE
  5
3FB
100
AcDbEntity
  8
RACCORDO
100
AcDbSpline
 62
7
  6
CONTINUOUS
 70
0
 71
3
 72
9
 73
5
 74
3
 42
0.0000001
 43
0.0000001
 44
0.0000000001
 12
0.1758083185
 22
-0.163945058
 32
0.0
 13
0.2150098545
 23
-0.1075049272
 33
0.0
 40
0.0
 40
0.0
 40
0.0
 40
0.0
 40
0.5187619424
 40
1.0
 40
1.0
 40
1.0
 40
1.0
 10
-21.2056003197
 20
-14.5086249783
 30
0.0
 10
-21.1751994315
 20
-14.5369744639
 30
0.0
 10
-21.1132574128
 20
-14.5881903937
 30
0.0
 10
-21.0446377876
 20
-14.6302772196
 30
0.0
 10
-21.0101474793
 20
-14.6475223737
 30
0.0
 11
-21.2056003197
 21
-14.5086249783
 31
0.0
 11
-21.1091360705
 21
-14.5876554451
 31
0.0
 11
-21.0101474793
 21
-14.6475223737
 31
0.0
  0
SPLINE
  5
3FC
100
AcDbEntity
  8
RACCORDO
100
AcDbSpline
 62
7
  6
CONTINUOUS
 70
0
 71
3
 72
9
 73
5
 74
3
 42
0.0000001
 43
0.0000001
 44
0.0000000001
 12
0.2189066471
 22
-0.1094533236
 32
0.0
 13
0.244285731
 23
0.0149877215
 33
0.0
 40
0.0
 40
0.0
 40
0.0
 40
0.0
 40
0.5286285311
 40
1.0
 40
1.0
 40
1.0
 40
1.0
 10
-8.7064894867
 20
-20.7993513701
 30
0.0
 10
-8.6679160536
 20
-20.8186380866
 30
0.0
 10
-8.5911089321
 20
-20.8482875986
 30
0.0
 10
-8.5086392014
 20
-20.8572013299
 30
0.0
 10
-8.4702560935
 20
-20.8548464018
 30
0.0
 11
-8.7064894867
 21
-20.7993513701
 31
0.0
 11
-8.5851287764
 21
-20.8441906675
 31
0.0
 11
-8.4702560935
 21
-20.8548464018
 31
0.0
  0
LINE
  5
3FD
100
AcDbEntity
  8
RACCORDO
100
AcDbLine
 62
7
  6
CONTINUOUS
 10
-8.443622102
 20
0.4925043788
 11
-8.4448049907
 21
0.4180529787
  0
SPLINE
  5
3FE
100
AcDbEntity
  8
RACCORDO
100
AcDbSpline
 62
7
  6
CONTINUOUS
 70
0
 71
3
 72
11
 73
7
 74
5
 42
0.0000001
 43
0.0000001
 44
0.0000000001
 12
-0.2617234823
 22
-0.2900781
 32
0.0
 13
-0.0063325859
 23
-0.3906461106
 33
0.0
 40
0.0
 40
0.0
 40
0.0
 40
0.0
 40
0.2224091242
 40
0.4619117677
 40
0.7210356577
 40
1.0
 40
1.0
 40
1.0
 40
1.0
 10
-21.5434176551
 20
7.60520216
 30
0.0
 10
-21.5628208852
 20
7.5836968213
 30
0.0
 10
-21.5977311358
 20
7.5339813665
 30
0.0
 10
-21.6349574998
 20
7.4471962473
 30
0.0
 10
-21.6581307638
 20
7.348165027
 30
0.0
 10
-21.6637142543
 20
7.2780457758
 30
0.0
 10
-21.6643031095
 20
7.2417203307
 30
0.0
 11
-21.5434176551
 21
7.60520216
 31
0.0
 11
-21.5938745931
 21
7.5344576774
 31
0.0
 11
-21.6314334409
 21
7.4487532314
 31
0.0
 11
-21.65511557
 21
7.3503230541
 31
0.0
 11
-21.6643031095
 21
7.2417203307
 31
0.0
  0
SPLINE
  5
3FF
100
AcDbEntity
  8
RACCORDO
100
AcDbSpline
 62
7
  6
CONTINUOUS
 70
0
 71
3
 72
14
 73
10
 74
8
 42
0.0000001
 43
0.0000001
 44
0.0000000001
 12
-0.3874088134
 22
0.1937044067
 32
0.0
 13
-0.00927011
 23
0.4330370087
 33
0.0
 40
0.0
 40
0.0
 40
0.0
 40
0.0
 40
0.1097769172
 40
0.2252040747
 40
0.3463367743
 40
0.4720733744
 40
0.6011807852
 40
0.7326656532
 40
1.0
 40
1.0
 40
1.0
 40
1.0
 10
-9.0890774149
 20
-19.3820744226
 30
0.0
 10
-9.1032535966
 20
-19.3749863317
 30
0.0
 10
-9.1302306402
 20
-19.3559569906
 30
0.0
 10
-9.1627985804
 20
-19.3175101244
 30
0.0
 10
-9.1884791193
 20
-19.2716604853
 30
0.0
 10
-9.2079823225
 20
-19.220855619
 30
0.0
 10
-9.2222038974
 20
-19.1668313934
 30
0.0
 10
-9.2352507614
 20
-19.09167071
 30
0.0
 10
-9.2392194811
 20
-19.0340508599
 30
0.0
 10
-9.2400455541
 20
-18.9954623046
 30
0.0
 11
-9.0890774149
 21
-19.3820744226
 31
0.0
 11
-9.1281756784
 21
-19.3550157412
 31
0.0
 11
-9.1609580544
 21
-19.3172681038
 31
0.0
 11
-9.1870229338
 21
-19.2717334585
 31
0.0
 11
-9.2068731104
 21
-19.2210187736
 31
0.0
 11
-9.2213424884
 21
-19.1670020532
 31
0.0
 11
-9.2312535358
 21
-19.110920225
 31
0.0
 11
-9.2400455541
 21
-18.9954623046
 31
0.0
  0
SPLINE
  5
400
100
AcDbEntity
  8
RACCORDO
100
AcDbSpline
 62
7
  6
CONTINUOUS
 70
0
 71
3
 72
22
 73
18
 74
16
 42
0.0000001
 43
0.0000001
 44
0.0000000001
 12
-0.3782715747
 22
-1.0228635762
 32
0.0
 13
-0.9754339669
 23
0.4877169834
 33
0.0
 40
0.0
 40
0.0
 40
0.0
 40
0.0
 40
0.1350715249
 40
0.2688719214
 40
0.3351811088
 40
0.4010036938
 40
0.4662559874
 40
0.5308311588
 40
0.5945908569
 40
0.6573540902
 40
0.71888132
 40
0.7788596519
 40
0.8369144116
 40
0.8927287877
 40
0.9464999025
 40
0.9731472579
 40
1.0
 40
1.0
 40
1.0
 40
1.0
 10
-20.4318091251
 20
-12.6284194543
 30
0.0
 10
-20.4488403646
 20
-12.674472702
 30
0.0
 10
-20.4854810633
 20
-12.7651590424
 30
0.0
 10
-20.5381272603
 20
-12.8751480546
 30
0.0
 10
-20.5843688718
 20
-12.9600650579
 30
0.0
 10
-20.6210394746
 20
-13.0217623451
 30
0.0
 10
-20.6598862168
 20
-13.0813663261
 30
0.0
 10
-20.7010235612
 20
-13.1384992868
 30
0.0
 10
-20.7445917813
 20
-13.1926567054
 30
0.0
 10
-20.7907554764
 20
-13.2431494772
 30
0.0
 10
-20.8396968217
 20
-13.2890071794
 30
0.0
 10
-20.8915793894
 20
-13.3288373944
 30
0.0
 10
-20.9465133354
 20
-13.3605746248
 30
0.0
 10
-21.004318821
 20
-13.3812211719
 30
0.0
 10
-21.0545719352
 20
-13.3852388829
 30
0.0
 10
-21.0930992995
 20
-13.3780456184
 30
0.0
 10
-21.1113489316
 20
-13.3709386642
 30
0.0
 10
-21.1200799572
 20
-13.3665731514
 30
0.0
 11
-20.4318091251
 21
-12.6284194543
 31
0.0
 11
-20.4870651464
 21
-12.7649678148
 31
0.0
 11
-20.5502324814
 21
-12.8965052204
 31
0.0
 11
-20.584849411
 21
-12.9599960385
 31
0.0
 11
-20.6215675036
 21
-13.021678517
 31
0.0
 11
-20.6604781104
 21
-13.081260452
 31
0.0
 11
-20.70170011
 21
-13.1383589228
 31
0.0
 11
-20.7453811687
 21
-13.1924605401
 31
0.0
 11
-20.7916963059
 21
-13.242858767
 31
0.0
 11
-20.8408355274
 21
-13.2885501194
 31
0.0
 11
-20.8929595282
 21
-13.3280674323
 31
0.0
 11
-20.9480745771
 21
-13.3592255311
 31
0.0
 11
-21.0057072846
 21
-13.3788100602
 31
0.0
 11
-21.0642278533
 21
-13.3825675451
 31
0.0
 11
-21.0927860373
 21
-13.3771862813
 31
0.0
 11
-21.1200799572
 21
-13.3665731514
 31
0.0
  0
SPLINE
  5
401
100
AcDbEntity
  8
RACCORDO
100
AcDbSpline
 62
253
  6
CONTINUOUS
 70
0
 71
3
 72
15
 73
11
 74
9
 42
0.0000001
 43
0.0000001
 44
0.0000000001
 12
-0.6502409974
 22
-0.3191649739
 32
0.0
 13
-0.647875148
 23
0.3239404696
 33
0.0
 40
0.0
 40
0.0
 40
0.0
 40
0.0
 40
0.1129076542
 40
0.2360603064
 40
0.3664730228
 40
0.5006012977
 40
0.6346471825
 40
0.7648182824
 40
0.8875873249
 40
1.0
 40
1.0
 40
1.0
 40
1.0
 10
-20.5422337163
 20
-1.7311333073
 30
0.0
 10
-20.5667061115
 20
-1.7431453635
 30
0.0
 10
-20.6199205288
 20
-1.764167401
 30
0.0
 10
-20.7057699095
 20
-1.7863062408
 30
0.0
 10
-20.7985659294
 20
-1.7998421379
 30
0.0
 10
-20.8948538118
 20
-1.8042529945
 30
0.0
 10
-20.9910611423
 20
-1.7993784124
 30
0.0
 10
-21.0836191652
 20
-1.7853961652
 30
0.0
 10
-21.1690829018
 20
-1.7628451397
 30
0.0
 10
-21.2219652486
 20
-1.7415547037
 30
0.0
 10
-21.2462417081
 20
-1.7294163654
 30
0.0
 11
-20.5422337163
 21
-1.7311333073
 31
0.0
 11
-20.618087944
 21
-1.761708211
 31
0.0
 11
-20.704373963
 21
-1.7843426176
 31
0.0
 11
-20.7978192659
 21
-1.7981792347
 31
0.0
 11
-20.8948699791
 21
-1.8026906095
 31
0.0
 11
-20.9918377828
 21
-1.7977060604
 31
0.0
 11
-21.0850374945
 21
-1.7834142515
 31
0.0
 11
-21.1709246024
 21
-1.7603599474
 31
0.0
 11
-21.2462417081
 21
-1.7294163654
 31
0.0
  0
SPLINE
  5
402
100
AcDbEntity
  8
RACCORDO
100
AcDbSpline
 62
253
  6
CONTINUOUS
 70
0
 71
3
 72
11
 73
7
 74
5
 42
0.0000001
 43
0.0000001
 44
0.0000000001
 12
0.0850761611
 22
0.0430359357
 32
0.0
 13
0.0000067456
 23
0.095341727
 33
0.0
 40
0.0
 40
0.0
 40
0.0
 40
0.0
 40
0.3021916565
 40
0.5649339077
 40
0.7930379825
 40
1.0
 40
1.0
 40
1.0
 40
1.0
 10
4.246968684
 20
16.9550777002
 30
0.0
 10
4.2555384527
 20
16.9594127338
 30
0.0
 10
4.2710254882
 20
16.9686990438
 30
0.0
 10
4.2898065111
 20
16.9858274676
 30
0.0
 10
4.3018461403
 20
17.0048625086
 30
0.0
 10
4.3047259752
 20
17.0187945014
 30
0.0
 10
4.3047264406
 20
17.0253718735
 30
0.0
 11
4.246968684
 21
16.9550777002
 31
0.0
 11
4.2715037622
 21
16.9701817063
 31
0.0
 11
4.2897226557
 21
16.9873744214
 31
0.0
 11
4.3009391256
 21
17.00600663
 31
0.0
 11
4.3047264406
 21
17.0253718735
 31
0.0
  0
SPLINE
  5
403
100
AcDbEntity
  8
RACCORDO
100
AcDbSpline
 62
253
  6
CONTINUOUS
 70
0
 71
3
 72
11
 73
7
 74
5
 42
0.0000001
 43
0.0000001
 44
0.0000000001
 12
-0.0017563531
 22
0.36674579
 32
0.0
 13
-0.3272560831
 23
0.1655566831
 33
0.0
 40
0.0
 40
0.0
 40
0.0
 40
0.0
 40
0.2466959546
 40
0.5118836955
 40
0.7705709668
 40
1.0
 40
1.0
 40
1.0
 40
1.0
 10
-15.9824335912
 20
21.5729110123
 30
0.0
 10
-15.9825780196
 20
21.6030692465
 30
0.0
 10
-15.9932310439
 20
21.6656984075
 30
0.0
 10
-16.0310495273
 20
21.752824687
 30
0.0
 10
-16.0863649607
 20
21.8274224833
 30
0.0
 10
-16.134179946
 20
21.8651393812
 30
0.0
 10
-16.1592072949
 20
21.8778005511
 30
0.0
 11
-15.9824335912
 21
21.5729110123
 31
0.0
 11
-15.9962069374
 21
21.6623322318
 31
0.0
 11
-16.0346375392
 21
21.7516749995
 31
0.0
 11
-16.0918760788
 21
21.8273370186
 31
0.0
 11
-16.1592072949
 21
21.8778005511
 31
0.0
  0
SPLINE
  5
404
100
AcDbEntity
  8
RACCORDO
100
AcDbSpline
 62
7
  6
CONTINUOUS
 70
0
 71
3
 72
11
 73
7
 74
5
 42
0.0000001
 43
0.0000001
 44
0.0000000001
 12
0.0
 22
0.3670486434
 32
0.0
 13
-0.328298287
 23
0.1641491435
 33
0.0
 40
0.0
 40
0.0
 40
0.0
 40
0.0
 40
0.2467927921
 40
0.5117852903
 40
0.7703247525
 40
1.0
 40
1.0
 40
1.0
 40
1.0
 10
-14.3811528004
 20
22.3756330158
 30
0.0
 10
-14.3811528004
 20
22.4058280023
 30
0.0
 10
-14.3915728038
 20
22.4685523408
 30
0.0
 10
-14.4293065775
 20
22.55578615
 30
0.0
 10
-14.4847651833
 20
22.6303822593
 30
0.0
 10
-14.5327925073
 20
22.6679555562
 30
0.0
 10
-14.5579265041
 20
22.6805225546
 30
0.0
 11
-14.3811528004
 21
22.3756330158
 31
0.0
 11
-14.3946087645
 21
22.4652129908
 31
0.0
 11
-14.4329283879
 21
22.5546116112
 31
0.0
 11
-14.4902781351
 21
22.630218247
 31
0.0
 11
-14.5579265041
 21
22.6805225546
 31
0.0
  0
SPLINE
  5
405
100
AcDbEntity
  8
RACCORDO
100
AcDbSpline
 62
253
  6
CONTINUOUS
 70
0
 71
3
 72
9
 73
5
 74
3
 42
0.0000001
 43
0.0000001
 44
0.0000000001
 12
0.0817963051
 22
-0.0408981526
 32
0.0
 13
0.0897943436
 23
-0.0173283083
 33
0.0
 40
0.0
 40
0.0
 40
0.0
 40
0.0
 40
0.477029415
 40
1.0
 40
1.0
 40
1.0
 40
1.0
 10
-16.3349555509
 20
21.5734237361
 30
0.0
 10
-16.3219491364
 20
21.5669205288
 30
0.0
 10
-16.2934857606
 20
21.5556458546
 30
0.0
 10
-16.2638413859
 20
21.548215801
 30
0.0
 10
-16.2481881191
 20
21.5451950691
 30
0.0
 11
-16.3349555509
 21
21.5734237361
 31
0.0
 11
-16.2945246567
 21
21.5570386969
 31
0.0
 11
-16.2481881191
 21
21.5451950691
 31
0.0
  0
SPLINE
  5
406
100
AcDbEntity
  8
RACCORDO
100
AcDbSpline
 62
253
  6
CONTINUOUS
 70
0
 71
3
 72
11
 73
7
 74
5
 42
0.0000001
 43
0.0000001
 44
0.0000000001
 12
0.2438822158
 22
-0.032953549
 32
0.0
 13
0.2206252767
 23
0.1090365024
 33
0.0
 40
0.0
 40
0.0
 40
0.0
 40
0.0
 40
0.2625073931
 40
0.5251729978
 40
0.7748327471
 40
1.0
 40
1.0
 40
1.0
 40
1.0
 10
-16.2234050428
 20
21.541141644
 30
0.0
 10
-16.2020647479
 20
21.5382581273
 30
0.0
 10
-16.1589297823
 20
21.5354328549
 30
0.0
 10
-16.0953173766
 20
21.5394074364
 30
0.0
 10
-16.0358025855
 20
21.5512365166
 30
0.0
 10
-15.9989927871
 20
21.5647271957
 30
0.0
 10
-15.9824335912
 20
21.5729110123
 30
0.0
 11
-16.2234050428
 21
21.541141644
 31
0.0
 11
-16.1589475706
 21
21.5368126747
 31
0.0
 11
-16.0944380728
 21
21.540943365
 31
0.0
 11
-16.0342430168
 21
21.5532534487
 31
0.0
 11
-15.9824335912
 21
21.5729110123
 31
0.0
  0
SPLINE
  5
407
100
AcDbEntity
  8
RACCORDO
100
AcDbSpline
 62
253
  6
CONTINUOUS
 70
0
 71
3
 72
13
 73
9
 74
7
 42
0.0000001
 43
0.0000001
 44
0.0000000001
 12
0.3242438587
 22
-0.1621219294
 32
0.0
 13
0.3249922966
 23
0.1606163349
 33
0.0
 40
0.0
 40
0.0
 40
0.0
 40
0.0
 40
0.1125245594
 40
0.2354259647
 40
0.4995815213
 40
0.7639633273
 40
0.8871315091
 40
1.0
 40
1.0
 40
1.0
 40
1.0
 10
-16.3349555509
 20
21.233449802
 30
0.0
 10
-16.3227937518
 20
21.2273689024
 30
0.0
 10
-16.2962969986
 20
21.216704786
 30
0.0
 10
-16.2378070541
 20
21.2013174754
 30
0.0
 10
-16.1588822146
 20
21.193857493
 30
0.0
 10
-16.0799073163
 20
21.2010978969
 30
0.0
 10
-16.0212680526
 20
21.2163107553
 30
0.0
 10
-15.9946607212
 20
21.226894237
 30
0.0
 10
-15.9824335912
 20
21.2329370781
 30
0.0
 11
-16.3349555509
 21
21.233449802
 31
0.0
 11
-16.2972212727
 21
21.2179544954
 31
0.0
 11
-16.2541856957
 21
21.2064232416
 31
0.0
 11
-16.1589060325
 21
21.1968386784
 31
0.0
 11
-16.0635164731
 21
21.206145938
 31
0.0
 11
-16.0203474617
 21
21.2175518201
 31
0.0
 11
-15.9824335912
 21
21.2329370781
 31
0.0
  0
SPLINE
  5
408
100
AcDbEntity
  8
RACCORDO
100
AcDbSpline
 62
253
  6
CONTINUOUS
 70
0
 71
3
 72
11
 73
7
 74
5
 42
0.0000001
 43
0.0000001
 44
0.0000000001
 12
0.0
 22
-0.1574187621
 32
0.0
 13
0.1407924118
 23
-0.0704142276
 33
0.0
 40
0.0
 40
0.0
 40
0.0
 40
0.0
 40
0.2897477756
 40
0.5495860029
 40
0.7828492609
 40
1.0
 40
1.0
 40
1.0
 40
1.0
 10
-16.3349555509
 20
21.233449802
 30
0.0
 10
-16.3349555509
 20
21.2182458899
 30
0.0
 10
-16.3325020805
 20
21.1892979266
 30
0.0
 10
-16.3201307931
 20
21.1497059116
 30
0.0
 10
-16.2994676013
 20
21.1180083384
 30
0.0
 10
-16.280183979
 20
21.103333436
 30
0.0
 10
-16.2699929202
 20
21.0982366022
 30
0.0
 11
-16.3349555509
 21
21.233449802
 31
0.0
 11
-16.3306364809
 21
21.1880430171
 31
0.0
 11
-16.3178911727
 21
21.1491759843
 31
0.0
 11
-16.2973413721
 21
21.118744667
 31
0.0
 11
-16.2699929202
 21
21.0982366022
 31
0.0
  0
SPLINE
  5
409
100
AcDbEntity
  8
RACCORDO
100
AcDbSpline
 62
253
  6
CONTINUOUS
 70
0
 71
3
 72
11
 73
7
 74
5
 42
0.0000001
 43
0.0000001
 44
0.0000000001
 12
0.0
 22
-0.157431766
 32
0.0
 13
0.1408139516
 23
-0.070400227
 33
0.0
 40
0.0
 40
0.0
 40
0.0
 40
0.0
 40
0.2897504308
 40
0.5495880475
 40
0.7828491195
 40
1.0
 40
1.0
 40
1.0
 40
1.0
 10
-17.5715518831
 20
21.8517479681
 30
0.0
 10
-17.5715518831
 20
21.8365426607
 30
0.0
 10
-17.5690979804
 20
21.807592173
 30
0.0
 10
-17.5567243488
 20
21.7679972008
 30
0.0
 10
-17.5360571495
 20
21.7362984646
 30
0.0
 10
-17.5167700937
 20
21.7216247
 30
0.0
 10
-17.5065774692
 20
21.7165288762
 30
0.0
 11
-17.5715518831
 21
21.8517479681
 31
0.0
 11
-17.5672319777
 21
21.8063370579
 31
0.0
 11
-17.554484245
 21
21.7674673654
 31
0.0
 11
-17.5339306693
 21
21.7370353526
 31
0.0
 11
-17.5065774692
 21
21.7165288762
 31
0.0
  0
SPLINE
  5
40A
100
AcDbEntity
  8
RACCORDO
100
AcDbSpline
 62
253
  6
CONTINUOUS
 70
0
 71
3
 72
11
 73
7
 74
5
 42
0.0000001
 43
0.0000001
 44
0.0000000001
 12
-0.1076203234
 22
0.0538101617
 32
0.0
 13
0.0000013459
 23
0.1203231795
 33
0.0
 40
0.0
 40
0.0
 40
0.0
 40
0.0
 40
0.3025823221
 40
0.5654825801
 40
0.7934322544
 40
1.0
 40
1.0
 40
1.0
 40
1.0
 10
-17.5715518831
 20
21.8517479681
 30
0.0
 10
-17.5824065522
 20
21.8571753026
 30
0.0
 10
-17.6020250254
 20
21.8688150329
 30
0.0
 10
-17.6258363949
 20
21.8903356608
 30
0.0
 10
-17.6411155934
 20
21.9142899462
 30
0.0
 10
-17.6447752784
 20
21.9318513543
 30
0.0
 10
-17.6447751857
 20
21.940136317
 30
0.0
 11
-17.5715518831
 21
21.8517479681
 31
0.0
 11
-17.602643556
 21
21.8706906736
 31
0.0
 11
-17.6257443922
 21
21.892300804
 31
0.0
 11
-17.6399713526
 21
21.9157500782
 31
0.0
 11
-17.6447751857
 21
21.940136317
 31
0.0
  0
SPLINE
  5
40B
100
AcDbEntity
  8
RACCORDO
100
AcDbSpline
 62
253
  6
CONTINUOUS
 70
0
 71
3
 72
11
 73
7
 74
5
 42
0.0000001
 43
0.0000001
 44
0.0000000001
 12
-0.1076203247
 22
0.0538101624
 32
0.0
 13
0.0000013061
 23
0.1203231809
 33
0.0
 40
0.0
 40
0.0
 40
0.0
 40
0.0
 40
0.3025823297
 40
0.5654825875
 40
0.7934322591
 40
1.0
 40
1.0
 40
1.0
 40
1.0
 10
-17.5715518831
 20
22.1917219022
 30
0.0
 10
-17.5824065526
 20
22.197149237
 30
0.0
 10
-17.6020250265
 20
22.2087889674
 30
0.0
 10
-17.6258363955
 20
22.2303095963
 30
0.0
 10
-17.6411155948
 20
22.2542638823
 30
0.0
 10
-17.6447752758
 20
22.2718252902
 30
0.0
 10
-17.6447751859
 20
22.2801102528
 30
0.0
 11
-17.5715518831
 21
22.1917219022
 31
0.0
 11
-17.6026435572
 21
22.2106646084
 31
0.0
 11
-17.6257443931
 21
22.2322747396
 31
0.0
 11
-17.6399713528
 21
22.2557240143
 31
0.0
 11
-17.6447751859
 21
22.2801102528
 31
0.0
  0
SPLINE
  5
40C
100
AcDbEntity
  8
RACCORDO
100
AcDbSpline
 62
253
  6
CONTINUOUS
 70
0
 71
3
 72
11
 73
7
 74
5
 42
0.0000001
 43
0.0000001
 44
0.0000000001
 12
0.0
 22
0.3659184285
 32
0.0
 13
0.3263519554
 23
0.165501352
 33
0.0
 40
0.0
 40
0.0
 40
0.0
 40
0.0
 40
0.2465996066
 40
0.5114086341
 40
0.7699756527
 40
1.0
 40
1.0
 40
1.0
 40
1.0
 10
-17.5715518831
 20
22.1917219022
 30
0.0
 10
-17.5715518831
 20
22.221800349
 30
0.0
 10
-17.5612091109
 20
22.2842853877
 30
0.0
 10
-17.5237254586
 20
22.3712558272
 30
0.0
 10
-17.4685861082
 20
22.4457547915
 30
0.0
 10
-17.4208265923
 20
22.483408937
 30
0.0
 10
-17.3958036271
 20
22.4960987172
 30
0.0
 11
-17.5715518831
 21
22.1917219022
 31
0.0
 11
-17.558193509
 21
22.2809629831
 31
0.0
 11
-17.5201382243
 21
22.3700759183
 31
0.0
 11
-17.4631361674
 21
22.4455918585
 31
0.0
 11
-17.3958036271
 21
22.4960987172
 31
0.0
  0
SPLINE
  5
40D
100
AcDbEntity
  8
RACCORDO
100
AcDbSpline
 62
253
  6
CONTINUOUS
 70
0
 71
3
 72
11
 73
7
 74
5
 42
0.0000001
 43
0.0000001
 44
0.0000000001
 12
0.0
 22
0.365918428
 32
0.0
 13
0.3263519549
 23
0.1655013517
 33
0.0
 40
0.0
 40
0.0
 40
0.0
 40
0.0
 40
0.2465994894
 40
0.5114083944
 40
0.7699753467
 40
1.0
 40
1.0
 40
1.0
 40
1.0
 10
-16.3349555509
 20
21.5734237361
 30
0.0
 10
-16.3349555509
 20
21.6035021686
 30
0.0
 10
-16.3246127889
 20
21.6659871779
 30
0.0
 10
-16.2871291654
 20
21.7529575887
 30
0.0
 10
-16.2319898242
 20
21.8274565749
 30
0.0
 10
-16.1842302933
 20
21.8651107541
 30
0.0
 10
-16.1592072949
 20
21.8778005511
 30
0.0
 11
-16.3349555509
 21
21.5734237361
 31
0.0
 11
-16.3215971892
 21
21.6626647754
 31
0.0
 11
-16.2835419365
 21
21.7517776754
 31
0.0
 11
-16.2265399139
 21
21.8272936108
 31
0.0
 11
-16.1592072949
 21
21.8778005511
 31
0.0
  0
SPLINE
  5
40E
100
AcDbEntity
  8
RACCORDO
100
AcDbSpline
 62
253
  6
CONTINUOUS
 70
0
 71
3
 72
11
 73
7
 74
5
 42
0.0000001
 43
0.0000001
 44
0.0000000001
 12
-0.1051440509
 22
0.0519595407
 32
0.0
 13
-0.1043498109
 23
-0.0535367376
 33
0.0
 40
0.0
 40
0.0
 40
0.0
 40
0.0
 40
0.2795168709
 40
0.5356964938
 40
0.7731447513
 40
1.0
 40
1.0
 40
1.0
 40
1.0
 10
-17.3958036271
 20
22.4960987172
 30
0.0
 10
-17.4056001391
 20
22.5009399066
 30
0.0
 10
-17.4251779465
 20
22.5087443335
 30
0.0
 10
-17.4551463218
 20
22.514197117
 30
0.0
 10
-17.4835616458
 20
22.5125747974
 30
0.0
 10
-17.5009983506
 20
22.5065947141
 30
0.0
 10
-17.508889118
 20
22.5025463508
 30
0.0
 11
-17.3958036271
 21
22.4960987172
 31
0.0
 11
-17.4263539213
 21
22.5079881405
 31
0.0
 11
-17.4559624681
 21
22.5130921953
 31
0.0
 11
-17.4837505591
 21
22.5112603602
 31
0.0
 11
-17.508889118
 21
22.5025463508
 31
0.0
  0
SPLINE
  5
40F
100
AcDbEntity
  8
RACCORDO
100
AcDbSpline
 62
7
  6
CONTINUOUS
 70
0
 71
3
 72
11
 73
7
 74
5
 42
0.0000001
 43
0.0000001
 44
0.0000000001
 12
-0.1028463418
 22
0.0514231709
 32
0.0
 13
-0.1033748983
 23
-0.0503521891
 33
0.0
 40
0.0
 40
0.0
 40
0.0
 40
0.0
 40
0.2790833933
 40
0.5352290697
 40
0.7729212505
 40
1.0
 40
1.0
 40
1.0
 40
1.0
 10
-15.8130470239
 20
23.3080828145
 30
0.0
 10
-15.8226145926
 20
23.3128665988
 30
0.0
 10
-15.8417461061
 20
23.3206173313
 30
0.0
 10
-15.8710650845
 20
23.3262111547
 30
0.0
 10
-15.8989478541
 20
23.3249773978
 30
0.0
 10
-15.9161543925
 20
23.3194241315
 30
0.0
 10
-15.92397914
 20
23.3156128275
 30
0.0
 11
-15.8130470239
 21
23.3080828145
 31
0.0
 11
-15.842884428
 21
23.3198953497
 31
0.0
 11
-15.8718639413
 21
23.3251558059
 31
0.0
 11
-15.8991571315
 21
23.3237148215
 31
0.0
 11
-15.92397914
 21
23.3156128275
 31
0.0
  0
SPLINE
  5
410
100
AcDbEntity
  8
RACCORDO
100
AcDbSpline
 62
253
  6
CONTINUOUS
 70
0
 71
3
 72
11
 73
7
 74
5
 42
0.0000001
 43
0.0000001
 44
0.0000000001
 12
-0.1022732388
 22
0.0517308249
 32
0.0
 13
-0.1030347983
 23
-0.0501968522
 33
0.0
 40
0.0
 40
0.0
 40
0.0
 40
0.0
 40
0.2789492198
 40
0.5349524055
 40
0.7726363297
 40
1.0
 40
1.0
 40
1.0
 40
1.0
 10
-15.2785971452
 20
23.5684302811
 30
0.0
 10
-15.2881068253
 20
23.5732403721
 30
0.0
 10
-15.3071353111
 20
23.5810421659
 30
0.0
 10
-15.3363351523
 20
23.5867001115
 30
0.0
 10
-15.3641373493
 20
23.5855063396
 30
0.0
 10
-15.3813003262
 20
23.5799690992
 30
0.0
 10
-15.3891091162
 20
23.5761647857
 30
0.0
 11
-15.2785971452
 21
23.5684302811
 31
0.0
 11
-15.3082747245
 21
23.5803206221
 31
0.0
 11
-15.3371290922
 21
23.5856423525
 31
0.0
 11
-15.3643345879
 21
23.5842439419
 31
0.0
 11
-15.3891091162
 21
23.5761647857
 31
0.0
  0
SPLINE
  5
411
100
AcDbEntity
  8
RACCORDO
100
AcDbSpline
 62
7
  6
CONTINUOUS
 70
0
 71
3
 72
12
 73
8
 74
6
 42
0.0000001
 43
0.0000001
 44
0.0000000001
 12
-0.4345619355
 22
-0.032159537
 32
0.0
 13
-0.4201960756
 23
-0.1153844428
 33
0.0
 40
0.0
 40
0.0
 40
0.0
 40
0.0
 40
0.1460665466
 40
0.2901900051
 40
0.5606459046
 40
0.7988834635
 40
1.0
 40
1.0
 40
1.0
 40
1.0
 10
-6.0407973681
 20
17.2451954544
 30
0.0
 10
-6.0619556885
 20
17.2436296436
 30
0.0
 10
-6.1038248143
 20
17.238220533
 30
0.0
 10
-6.18373473
 20
17.2223973031
 30
0.0
 10
-6.2754944971
 20
17.1982344333
 30
0.0
 10
-6.3742942538
 20
17.1688042851
 30
0.0
 10
-6.4354502881
 20
17.1505411298
 30
0.0
 10
-6.4636197479
 20
17.1428058899
 30
0.0
 11
-6.0407973681
 21
17.2451954544
 31
0.0
 11
-6.1039765111
 21
17.2374797261
 31
0.0
 11
-6.165629519
 21
17.2255224062
 31
0.0
 11
-6.2798264057
 21
17.1964022279
 31
0.0
 11
-6.3794616472
 21
17.1672514559
 31
0.0
 11
-6.4636197479
 21
17.1428058899
 31
0.0
  0
SPLINE
  5
412
100
AcDbEntity
  8
RACCORDO
100
AcDbSpline
 62
253
  6
CONTINUOUS
 70
0
 71
3
 72
13
 73
9
 74
7
 42
0.0000001
 43
0.0000001
 44
0.0000000001
 12
0.0395775355
 22
-0.0644304226
 32
0.0
 13
-0.0460923048
 23
-0.0599429738
 33
0.0
 40
0.0
 40
0.0
 40
0.0
 40
0.0
 40
0.3435705842
 40
0.6194195392
 40
0.7328971396
 40
0.8318708183
 40
0.9193401934
 40
1.0
 40
1.0
 40
1.0
 40
1.0
 10
-13.8528856287
 20
22.291540319
 30
0.0
 10
-13.8483530697
 20
22.2841615197
 30
0.0
 10
-13.8407968842
 20
22.270466884
 30
0.0
 10
-13.8342832486
 20
22.2530292791
 30
0.0
 10
-13.8322829667
 20
22.2408431908
 30
0.0
 10
-13.8323140471
 20
22.2332375218
 30
0.0
 10
-13.8338135733
 20
22.2266073628
 30
0.0
 10
-13.8358814477
 20
22.2228260301
 30
0.0
 10
-13.8371207132
 20
22.2212143672
 30
0.0
 11
-13.8528856287
 21
22.291540319
 31
0.0
 11
-13.840601784
 21
22.2686487465
 31
0.0
 11
-13.8337765756
 21
22.2489386359
 31
0.0
 11
-13.8324781272
 21
22.2404568144
 31
0.0
 11
-13.8326047584
 21
22.2329739698
 31
0.0
 11
-13.834156023
 21
22.2265444457
 31
0.0
 11
-13.8371207132
 21
22.2212143672
 31
0.0
  0
SPLINE
  5
413
100
AcDbEntity
  8
RACCORDO
100
AcDbSpline
 62
253
  6
CONTINUOUS
 70
0
 71
3
 72
12
 73
8
 74
6
 42
0.0000001
 43
0.0000001
 44
0.0000000001
 12
-0.283185754
 22
0.1415792069
 32
0.0
 13
0.0008830853
 23
0.3166039533
 33
0.0
 40
0.0
 40
0.0
 40
0.0
 40
0.0
 40
0.1077489786
 40
0.2176621873
 40
0.4506595427
 40
0.710343748
 40
1.0
 40
1.0
 40
1.0
 40
1.0
 10
-10.1417134612
 20
-6.1863221199
 30
0.0
 10
-10.1518844531
 20
-6.1812371149
 30
0.0
 10
-10.1715320211
 20
-6.1690471868
 30
0.0
 10
-10.2069992487
 20
-6.1370363561
 30
0.0
 10
-10.242348846
 20
-6.0827976426
 30
0.0
 10
-10.2669506821
 20
-6.0031885729
 30
0.0
 10
-10.2717433926
 20
-5.9449719674
 30
0.0
 10
-10.2716581289
 20
-5.9144031959
 30
0.0
 11
-10.1417134612
 21
-6.1863221199
 31
0.0
 11
-10.1707197675
 21
-6.1683668598
 31
0.0
 11
-10.1966064752
 21
-6.1451105671
 31
0.0
 11
-10.2377844765
 21
-6.0839050508
 31
0.0
 11
-10.2632188488
 21
-6.0057207304
 31
0.0
 11
-10.2716581289
 21
-5.9144031959
 31
0.0
  0
SPLINE
  5
414
100
AcDbEntity
  8
RACCORDO
100
AcDbSpline
 62
253
  6
CONTINUOUS
 70
0
 71
3
 72
11
 73
7
 74
5
 42
0.0000001
 43
0.0000001
 44
0.0000000001
 12
0.0017306169
 22
0.3673419508
 32
0.0
 13
-0.3293172695
 23
0.1627674411
 33
0.0
 40
0.0
 40
0.0
 40
0.0
 40
0.0
 40
0.2468893536
 40
0.5116863499
 40
0.7700780422
 40
1.0
 40
1.0
 40
1.0
 40
1.0
 10
-13.8528856287
 20
22.6390718358
 30
0.0
 10
-13.852743205
 20
22.6693027747
 30
0.0
 10
-13.8629336585
 20
22.7321201992
 30
0.0
 10
-13.900581844
 20
22.8194613661
 30
0.0
 10
-13.9561842327
 20
22.8940548164
 30
0.0
 10
-14.0044202419
 20
22.9314867717
 30
0.0
 10
-14.0296593323
 20
22.9439613746
 30
0.0
 11
-13.8528856287
 21
22.6390718358
 31
0.0
 11
-13.8660284559
 21
22.7288083148
 31
0.0
 11
-13.9042376388
 21
22.818261792
 31
0.0
 11
-13.9616975981
 21
22.8938131013
 31
0.0
 11
-14.0296593323
 21
22.9439613746
 31
0.0
  0
SPLINE
  5
415
100
AcDbEntity
  8
RACCORDO
100
AcDbSpline
 62
7
  6
CONTINUOUS
 70
0
 71
3
 72
12
 73
8
 74
6
 42
0.0000001
 43
0.0000001
 44
0.0000000001
 12
-0.2288947893
 22
-0.2740443819
 32
0.0
 13
-0.3495652491
 23
0.0727824462
 33
0.0
 40
0.0
 40
0.0
 40
0.0
 40
0.0
 40
0.2548335856
 40
0.5141953181
 40
0.6424651752
 40
0.7674743832
 40
1.0
 40
1.0
 40
1.0
 40
1.0
 10
-15.2712129831
 20
21.0844335553
 30
0.0
 10
-15.2906563431
 20
21.0611549844
 30
0.0
 10
-15.3352703774
 20
21.0184854384
 30
0.0
 10
-15.4009338899
 20
20.9780495023
 30
0.0
 10
-15.4579154232
 20
20.9557194544
 30
0.0
 10
-15.5141055188
 20
20.9419178701
 30
0.0
 10
-15.5578969356
 20
20.9411231996
 30
0.0
 10
-15.5849912273
 20
20.9467644607
 30
0.0
 11
-15.2712129831
 21
21.0844335553
 31
0.0
 11
-15.3368275851
 21
21.0213927037
 31
0.0
 11
-15.4158849124
 21
20.9731618748
 31
0.0
 11
-15.4585708926
 21
20.9565615199
 31
0.0
 11
-15.5019677306
 21
20.9461169815
 31
0.0
 11
-15.5849912273
 21
20.9467644607
 31
0.0
  0
SPLINE
  5
416
100
AcDbEntity
  8
RACCORDO
100
AcDbSpline
 62
253
  6
CONTINUOUS
 70
0
 71
3
 72
13
 73
9
 74
7
 42
0.0000001
 43
0.0000001
 44
0.0000000001
 12
-0.1069170449
 22
-0.2783411477
 32
0.0
 13
-0.2918757123
 23
0.0609394579
 33
0.0
 40
0.0
 40
0.0
 40
0.0
 40
0.0
 40
0.2769976636
 40
0.5361986962
 40
0.658214714
 40
0.775329196
 40
0.8886900049
 40
1.0
 40
1.0
 40
1.0
 40
1.0
 10
-15.9824335912
 20
21.2329370781
 30
0.0
 10
-15.9923055151
 20
21.2072371289
 30
0.0
 10
-16.0180425203
 20
21.159702036
 30
0.0
 10
-16.0653690948
 20
21.1127969143
 30
0.0
 10
-16.1086501704
 20
21.0881970778
 30
0.0
 10
-16.1420497762
 20
21.0768670689
 30
0.0
 10
-16.1760077251
 20
21.0727094699
 30
0.0
 10
-16.1984475395
 20
21.0748547833
 30
0.0
 10
-16.2092771008
 20
21.0771158402
 30
0.0
 11
-15.9824335912
 21
21.2329370781
 31
0.0
 11
-16.0223170728
 21
21.1606128891
 31
0.0
 11
-16.0778677568
 21
21.1068800052
 31
0.0
 11
-16.1095677842
 21
21.0890273161
 31
0.0
 11
-16.1426792955
 21
21.0779353435
 31
0.0
 11
-16.1762414555
 21
21.0739264619
 31
0.0
 11
-16.2092771008
 21
21.0771158402
 31
0.0
  0
SPLINE
  5
417
100
AcDbEntity
  8
RACCORDO
100
AcDbSpline
 62
253
  6
CONTINUOUS
 70
0
 71
3
 72
11
 73
7
 74
5
 42
0.0000001
 43
0.0000001
 44
0.0000000001
 12
-0.1076203234
 22
0.0538101617
 32
0.0
 13
0.0000013459
 23
0.1203231795
 33
0.0
 40
0.0
 40
0.0
 40
0.0
 40
0.0
 40
0.3025823221
 40
0.5654825801
 40
0.7934322544
 40
1.0
 40
1.0
 40
1.0
 40
1.0
 10
-4.2249113882
 20
15.1784277206
 30
0.0
 10
-4.2357660573
 20
15.1838550552
 30
0.0
 10
-4.2553845305
 20
15.1954947854
 30
0.0
 10
-4.2791959
 20
15.2170154133
 30
0.0
 10
-4.2944750985
 20
15.2409696987
 30
0.0
 10
-4.2981347835
 20
15.2585311069
 30
0.0
 10
-4.2981346909
 20
15.2668160695
 30
0.0
 11
-4.2249113882
 21
15.1784277206
 31
0.0
 11
-4.2560030611
 21
15.1973704261
 31
0.0
 11
-4.2791038973
 21
15.2189805565
 31
0.0
 11
-4.2933308577
 21
15.2424298307
 31
0.0
 11
-4.2981346909
 21
15.2668160695
 31
0.0
  0
SPLINE
  5
418
100
AcDbEntity
  8
RACCORDO
100
AcDbSpline
 62
253
  6
CONTINUOUS
 70
0
 71
3
 72
11
 73
7
 74
5
 42
0.0000001
 43
0.0000001
 44
0.0000000001
 12
-0.1076203225
 22
0.0538101613
 32
0.0
 13
0.0000013829
 23
0.1203231785
 33
0.0
 40
0.0
 40
0.0
 40
0.0
 40
0.0
 40
0.3025823249
 40
0.5654825874
 40
0.7934322572
 40
1.0
 40
1.0
 40
1.0
 40
1.0
 10
-4.2249113882
 20
15.5184016547
 30
0.0
 10
-4.2357660573
 20
15.5238289893
 30
0.0
 10
-4.2553845303
 20
15.5354687198
 30
0.0
 10
-4.2791959005
 20
15.5569893472
 30
0.0
 10
-4.2944750976
 20
15.5809436321
 30
0.0
 10
-4.2981347859
 20
15.5985050399
 30
0.0
 10
-4.2981346907
 20
15.6067900024
 30
0.0
 11
-4.2249113882
 21
15.5184016547
 31
0.0
 11
-4.2560030611
 21
15.5373443603
 31
0.0
 11
-4.2791038977
 21
15.5589544907
 31
0.0
 11
-4.2933308579
 21
15.5824037641
 31
0.0
 11
-4.2981346907
 21
15.6067900024
 31
0.0
  0
SPLINE
  5
419
100
AcDbEntity
  8
RACCORDO
100
AcDbSpline
 62
253
  6
CONTINUOUS
 70
0
 71
3
 72
11
 73
7
 74
5
 42
0.0000001
 43
0.0000001
 44
0.0000000001
 12
-0.1051368994
 22
0.0519560066
 32
0.0
 13
-0.104347279
 23
-0.0535241963
 33
0.0
 40
0.0
 40
0.0
 40
0.0
 40
0.0
 40
0.2795156184
 40
0.5356957389
 40
0.7731450427
 40
1.0
 40
1.0
 40
1.0
 40
1.0
 10
-4.0491631322
 20
15.8227784697
 30
0.0
 10
-4.058958934
 20
15.8276193081
 30
0.0
 10
-4.078535318
 20
15.8354232952
 30
0.0
 10
-4.1085014947
 20
15.8408764037
 30
0.0
 10
-4.1369149488
 20
15.8392555404
 30
0.0
 10
-4.1543508995
 20
15.8332771852
 30
0.0
 10
-4.1622414653
 20
15.8292297755
 30
0.0
 11
-4.0491631322
 21
15.8227784697
 31
0.0
 11
-4.0797111288
 21
15.8346672439
 31
0.0
 11
-4.1093175921
 21
15.8397716987
 31
0.0
 11
-4.1371040038
 21
15.837941321
 31
0.0
 11
-4.1622414653
 21
15.8292297755
 31
0.0
  0
SPLINE
  5
41A
100
AcDbEntity
  8
RACCORDO
100
AcDbSpline
 62
253
  6
CONTINUOUS
 70
0
 71
3
 72
12
 73
8
 74
6
 42
0.0000001
 43
0.0000001
 44
0.0000000001
 12
-0.283147197
 22
0.1416042788
 32
0.0
 13
0.0008830204
 23
0.3165806804
 33
0.0
 40
0.0
 40
0.0
 40
0.0
 40
0.0
 40
0.1077483257
 40
0.2176619287
 40
0.4506612792
 40
0.7103460718
 40
1.0
 40
1.0
 40
1.0
 40
1.0
 10
-20.0536426986
 20
-1.2303575006
 30
0.0
 10
-20.0638122441
 20
-1.2252716259
 30
0.0
 10
-20.0834568821
 20
-1.2130803075
 30
0.0
 10
-20.1189184658
 20
-1.1810682731
 30
0.0
 10
-20.1542619784
 20
-1.1268312428
 30
0.0
 10
-20.1788596601
 20
-1.0472274618
 30
0.0
 10
-20.1836516055
 20
-0.9890153652
 30
0.0
 10
-20.1835663487
 20
-0.958449086
 30
0.0
 11
-20.0536426986
 21
-1.2303575006
 31
0.0
 11
-20.0826445977
 21
-1.2124002782
 31
0.0
 11
-20.1085272309
 21
-1.1891430912
 31
0.0
 11
-20.1496984913
 21
-1.1279388142
 31
0.0
 11
-20.175128542
 21
-1.0497592479
 31
0.0
 11
-20.1835663487
 21
-0.958449086
 31
0.0
  0
SPLINE
  5
41B
100
AcDbEntity
  8
RACCORDO
100
AcDbSpline
 62
7
  6
CONTINUOUS
 70
0
 71
3
 72
11
 73
7
 74
5
 42
0.0000001
 43
0.0000001
 44
0.0000000001
 12
-0.1028463418
 22
0.0514231709
 32
0.0
 13
-0.1033748983
 23
-0.0503521891
 33
0.0
 40
0.0
 40
0.0
 40
0.0
 40
0.0
 40
0.2790833933
 40
0.5352290697
 40
0.7729212505
 40
1.0
 40
1.0
 40
1.0
 40
1.0
 10
-2.466406529
 20
16.634762567
 30
0.0
 10
-2.4759740977
 20
16.6395463514
 30
0.0
 10
-2.4951056112
 20
16.6472970839
 30
0.0
 10
-2.5244245896
 20
16.6528909073
 30
0.0
 10
-2.5523073592
 20
16.6516571504
 30
0.0
 10
-2.5695138976
 20
16.6461038841
 30
0.0
 10
-2.5773386451
 20
16.64229258
 30
0.0
 11
-2.466406529
 21
16.634762567
 31
0.0
 11
-2.4962439331
 21
16.6465751022
 31
0.0
 11
-2.5252234464
 21
16.6518355585
 31
0.0
 11
-2.5525166366
 21
16.6503945741
 31
0.0
 11
-2.5773386451
 21
16.64229258
 31
0.0
  0
SPLINE
  5
41C
100
AcDbEntity
  8
RACCORDO
100
AcDbSpline
 62
253
  6
CONTINUOUS
 70
0
 71
3
 72
11
 73
7
 74
5
 42
0.0000001
 43
0.0000001
 44
0.0000000001
 12
-0.1022732405
 22
0.0517308258
 32
0.0
 13
-0.1030347895
 23
-0.0501968744
 33
0.0
 40
0.0
 40
0.0
 40
0.0
 40
0.0
 40
0.2789499081
 40
0.5349528633
 40
0.7726365704
 40
1.0
 40
1.0
 40
1.0
 40
1.0
 10
-1.9319566503
 20
16.8951100336
 30
0.0
 10
-1.941466354
 20
16.8999201366
 30
0.0
 10
-1.9604948587
 20
16.907721934
 30
0.0
 10
-1.9896947118
 20
16.913379868
 30
0.0
 10
-2.0174968818
 20
16.9121860875
 30
0.0
 10
-2.0346598413
 20
16.9066488502
 30
0.0
 10
-2.0424686223
 20
16.902844539
 30
0.0
 11
-1.9319566503
 21
16.8951100336
 31
0.0
 11
-1.961634306
 21
16.9070003975
 31
0.0
 11
-1.9904886506
 21
16.9123221102
 31
0.0
 11
-2.0176941214
 21
16.9109236918
 31
0.0
 11
-2.0424686223
 21
16.902844539
 31
0.0
  0
SPLINE
  5
41D
100
AcDbEntity
  8
RACCORDO
100
AcDbSpline
 62
253
  6
CONTINUOUS
 70
0
 71
3
 72
14
 73
10
 74
8
 42
0.0000001
 43
0.0000001
 44
0.0000000001
 12
-0.5739126485
 22
-0.2762312851
 32
0.0
 13
0.0019596085
 23
-0.6369266919
 33
0.0
 40
0.0
 40
0.0
 40
0.0
 40
0.0
 40
0.1081476587
 40
0.2182150998
 40
0.3321766387
 40
0.4516335805
 40
0.577726307
 40
0.7111240011
 40
1.0
 40
1.0
 40
1.0
 40
1.0
 10
-20.2772195028
 20
-1.1877567505
 30
0.0
 10
-20.2979086059
 20
-1.1977146728
 30
0.0
 10
-20.3379020286
 20
-1.2216967527
 30
0.0
 10
-20.3911425171
 20
-1.2684764423
 30
0.0
 10
-20.4371621349
 20
-1.3254753904
 30
0.0
 10
-20.4753924832
 20
-1.3918602888
 30
0.0
 10
-20.5054334124
 20
-1.4667615588
 30
0.0
 10
-20.5349036363
 20
-1.5796290487
 30
0.0
 10
-20.5424223913
 20
-1.6698108402
 30
0.0
 10
-20.5422336967
 20
-1.731141785
 30
0.0
 11
-20.2772195028
 21
-1.1877567505
 31
0.0
 11
-20.3363175529
 21
-1.2231433764
 31
0.0
 11
-20.389096181
 21
-1.269286184
 31
0.0
 11
-20.4348880916
 21
-1.3256045133
 31
0.0
 11
-20.4731139632
 21
-1.3913906263
 31
0.0
 11
-20.5032898779
 21
-1.465818203
 31
0.0
 11
-20.5250335553
 21
-1.5479537977
 31
0.0
 11
-20.5422336967
 21
-1.731141785
 31
0.0
  0
SPLINE
  5
41E
100
AcDbEntity
  8
RACCORDO
100
AcDbSpline
 62
253
  6
CONTINUOUS
 70
0
 71
3
 72
13
 73
9
 74
7
 42
0.0000001
 43
0.0000001
 44
0.0000000001
 12
0.039914475
 22
-0.0649789448
 32
0.0
 13
-0.048415102
 23
-0.0589186429
 33
0.0
 40
0.0
 40
0.0
 40
0.0
 40
0.0
 40
0.3448134119
 40
0.6206437253
 40
0.7337389512
 40
0.8322193127
 40
0.9193069812
 40
1.0
 40
1.0
 40
1.0
 40
1.0
 10
-0.5062451338
 20
15.6182200716
 30
0.0
 10
-0.5016574517
 20
15.6107515344
 30
0.0
 10
-0.49402881
 20
15.5969089601
 30
0.0
 10
-0.4875036826
 20
15.5792760211
 30
0.0
 10
-0.4855936332
 20
15.5669895023
 30
0.0
 10
-0.4857315766
 20
15.5593492452
 30
0.0
 10
-0.4873844961
 20
15.5527131653
 30
0.0
 10
-0.4895825938
 20
15.5489699193
 30
0.0
 10
-0.4908848474
 20
15.5473851449
 30
0.0
 11
-0.5062451338
 21
15.6182200716
 31
0.0
 11
-0.4938319558
 21
15.5950393492
 31
0.0
 11
-0.4870295402
 21
15.5751351114
 31
0.0
 11
-0.4858011885
 21
15.5665985098
 31
0.0
 11
-0.4860371441
 21
15.5590922078
 31
0.0
 11
-0.4877357864
 21
15.5526719003
 31
0.0
 11
-0.4908848474
 21
15.5473851449
 31
0.0
  0
SPLINE
  5
41F
100
AcDbEntity
  8
RACCORDO
100
AcDbSpline
 62
7
  6
CONTINUOUS
 70
0
 71
3
 72
11
 73
7
 74
5
 42
0.0000001
 43
0.0000001
 44
0.0000000001
 12
0.208921703
 22
0.1044326845
 32
0.0
 13
0.2089104374
 23
-0.1044552187
 33
0.0
 40
0.0
 40
0.0
 40
0.0
 40
0.0
 40
0.2288188304
 40
0.4669679226
 40
0.7224424725
 40
1.0
 40
1.0
 40
1.0
 40
1.0
 10
-21.3166127805
 20
7.4088968338
 30
0.0
 10
-21.3006777072
 20
7.4168622221
 30
0.0
 10
-21.2656978014
 20
7.4286039396
 30
0.0
 10
-21.2089566434
 20
7.431715422
 30
0.0
 10
-21.1494415363
 20
7.4207796677
 30
0.0
 10
-21.1106921831
 20
7.4051812923
 30
0.0
 10
-21.0913639617
 20
7.3955171816
 30
0.0
 11
-21.3166127805
 21
7.4088968338
 31
0.0
 11
-21.2659894695
 21
7.4260329393
 31
0.0
 11
-21.2104744323
 21
7.4295166874
 31
0.0
 11
-21.1516940602
 21
7.4192459794
 31
0.0
 11
-21.0913639617
 21
7.3955171816
 31
0.0
  0
SPLINE
  5
420
100
AcDbEntity
  8
RACCORDO
100
AcDbSpline
 62
7
  6
CONTINUOUS
 70
0
 71
3
 72
11
 73
7
 74
5
 42
0.0000001
 43
0.0000001
 44
0.0000000001
 12
-0.3284173835
 22
-0.164238543
 32
0.0
 13
-0.3284293248
 23
0.1642146624
 33
0.0
 40
0.0
 40
0.0
 40
0.0
 40
0.0
 40
0.2245985754
 40
0.4613081224
 40
0.7183127275
 40
1.0
 40
1.0
 40
1.0
 40
1.0
 10
-8.5647270984
 20
-20.9300766447
 30
0.0
 10
-8.5893144572
 20
-20.942372559
 30
0.0
 10
-8.6438118429
 20
-20.9602672579
 30
0.0
 10
-8.7325617728
 20
-20.9640764661
 30
0.0
 10
-8.8264358445
 20
-20.9458820947
 30
0.0
 10
-8.8878789821
 20
-20.920884238
 30
0.0
 10
-8.9187171023
 20
-20.9054651779
 30
0.0
 11
-8.5647270984
 21
-20.9300766447
 31
0.0
 11
-8.6429734157
 21
-20.956135488
 31
0.0
 11
-8.7297718656
 21
-20.960704036
 31
0.0
 11
-8.8225886918
 21
-20.9436484513
 31
0.0
 11
-8.9187171023
 21
-20.9054651779
 31
0.0
  0
SPLINE
  5
421
100
AcDbEntity
  8
RACCORDO
100
AcDbSpline
 62
253
  6
CONTINUOUS
 70
0
 71
3
 72
11
 73
7
 74
5
 42
0.0000001
 43
0.0000001
 44
0.0000000001
 12
0.0017306169
 22
0.3673419503
 32
0.0
 13
-0.329317269
 23
0.1627674409
 33
0.0
 40
0.0
 40
0.0
 40
0.0
 40
0.0
 40
0.2468892362
 40
0.5116861101
 40
0.7700777364
 40
1.0
 40
1.0
 40
1.0
 40
1.0
 10
-0.5062451338
 20
15.9657515883
 30
0.0
 10
-0.5061027102
 20
15.9959825129
 30
0.0
 10
-0.5162931535
 20
16.0587999077
 30
0.0
 10
-0.5539413099
 20
16.1461410459
 30
0.0
 10
-0.6095436891
 20
16.2207345184
 30
0.0
 10
-0.6577797135
 20
16.2581665077
 30
0.0
 10
-0.6830188374
 20
16.2706411272
 30
0.0
 11
-0.5062451338
 21
15.9657515883
 31
0.0
 11
-0.5193879486
 21
16.0554880255
 31
0.0
 11
-0.5575970992
 21
16.1449414674
 31
0.0
 11
-0.6150570238
 21
16.2204927724
 31
0.0
 11
-0.6830188374
 21
16.2706411272
 31
0.0
  0
SPLINE
  5
422
100
AcDbEntity
  8
RACCORDO
100
AcDbSpline
 62
253
  6
CONTINUOUS
 70
0
 71
3
 72
11
 73
7
 74
5
 42
0.0000001
 43
0.0000001
 44
0.0000000001
 12
-0.0017563531
 22
0.3667457895
 32
0.0
 13
-0.3272560827
 23
0.1655566829
 33
0.0
 40
0.0
 40
0.0
 40
0.0
 40
0.0
 40
0.2466958371
 40
0.5118834552
 40
0.7705706608
 40
1.0
 40
1.0
 40
1.0
 40
1.0
 10
-2.6357930963
 20
14.8995907648
 30
0.0
 10
-2.6359375247
 20
14.9297489847
 30
0.0
 10
-2.6465905387
 20
14.9923781161
 30
0.0
 10
-2.6844089932
 20
15.079504367
 30
0.0
 10
-2.7397244175
 20
15.1541021851
 30
0.0
 10
-2.7875394177
 20
15.1918191168
 30
0.0
 10
-2.8125668
 20
15.2044803036
 30
0.0
 11
-2.6357930963
 21
14.8995907648
 31
0.0
 11
-2.6495664299
 21
14.9890119426
 31
0.0
 11
-2.6879969996
 21
15.078354675
 31
0.0
 11
-2.7452355051
 21
15.1540166895
 31
0.0
 11
-2.8125668
 21
15.2044803036
 31
0.0
  0
SPLINE
  5
423
100
AcDbEntity
  8
RACCORDO
100
AcDbSpline
 62
7
  6
CONTINUOUS
 70
0
 71
3
 72
11
 73
7
 74
5
 42
0.0000001
 43
0.0000001
 44
0.0000000001
 12
0.0
 22
0.3670486434
 32
0.0
 13
-0.328298287
 23
0.1641491435
 33
0.0
 40
0.0
 40
0.0
 40
0.0
 40
0.0
 40
0.2467927921
 40
0.5117852903
 40
0.7703247525
 40
1.0
 40
1.0
 40
1.0
 40
1.0
 10
-1.0345123055
 20
15.7023127683
 30
0.0
 10
-1.0345123055
 20
15.7325077548
 30
0.0
 10
-1.0449323089
 20
15.7952320933
 30
0.0
 10
-1.0826660826
 20
15.8824659026
 30
0.0
 10
-1.1381246884
 20
15.9570620118
 30
0.0
 10
-1.1861520124
 20
15.9946353087
 30
0.0
 10
-1.2112860092
 20
16.0072023071
 30
0.0
 11
-1.0345123055
 21
15.7023127683
 31
0.0
 11
-1.0479682697
 21
15.7918927433
 31
0.0
 11
-1.0862878931
 21
15.8812913637
 31
0.0
 11
-1.1436376402
 21
15.9568979996
 31
0.0
 11
-1.2112860092
 21
16.0072023071
 31
0.0
  0
SPLINE
  5
424
100
AcDbEntity
  8
RACCORDO
100
AcDbSpline
 62
253
  6
CONTINUOUS
 70
0
 71
3
 72
13
 73
9
 74
7
 42
0.0000001
 43
0.0000001
 44
0.0000000001
 12
0.3242438585
 22
-0.1621219293
 32
0.0
 13
0.3249922964
 23
0.1606163348
 33
0.0
 40
0.0
 40
0.0
 40
0.0
 40
0.0
 40
0.1125245899
 40
0.2354260292
 40
0.4995816495
 40
0.7639634918
 40
0.8871317035
 40
1.0
 40
1.0
 40
1.0
 40
1.0
 10
-2.988315056
 20
14.9001034887
 30
0.0
 10
-2.9761532536
 20
14.8940225875
 30
0.0
 10
-2.949656493
 20
14.8833584686
 30
0.0
 10
-2.8911665326
 20
14.8679711571
 30
0.0
 10
-2.8122416765
 20
14.8605111793
 30
0.0
 10
-2.7332667622
 20
14.8677515895
 30
0.0
 10
-2.6746275173
 20
14.8829644589
 30
0.0
 10
-2.6480202053
 20
14.8935479341
 30
0.0
 10
-2.6357930963
 20
14.8995907648
 30
0.0
 11
-2.988315056
 21
14.9001034887
 31
0.0
 11
-2.9505807674
 21
14.8846081785
 31
0.0
 11
-2.9075451779
 21
14.8730769236
 31
0.0
 11
-2.8122654911
 21
14.863492365
 31
0.0
 11
-2.7168759196
 21
14.8727996361
 31
0.0
 11
-2.6737069002
 21
14.8842055303
 31
0.0
 11
-2.6357930963
 21
14.8995907648
 31
0.0
  0
SPLINE
  5
425
100
AcDbEntity
  8
RACCORDO
100
AcDbSpline
 62
253
  6
CONTINUOUS
 70
0
 71
3
 72
13
 73
9
 74
7
 42
0.0000001
 43
0.0000001
 44
0.0000000001
 12
0.3242438587
 22
-0.1621219294
 32
0.0
 13
0.3249922966
 23
0.1606163349
 33
0.0
 40
0.0
 40
0.0
 40
0.0
 40
0.0
 40
0.1125245594
 40
0.2354259647
 40
0.4995815213
 40
0.7639633273
 40
0.8871315091
 40
1.0
 40
1.0
 40
1.0
 40
1.0
 10
-2.988315056
 20
14.5601295545
 30
0.0
 10
-2.9761532569
 20
14.554048655
 30
0.0
 10
-2.9496565038
 20
14.5433845386
 30
0.0
 10
-2.8911665592
 20
14.527997228
 30
0.0
 10
-2.8122417197
 20
14.5205372455
 30
0.0
 10
-2.7332668214
 20
14.5277776495
 30
0.0
 10
-2.6746275577
 20
14.5429905079
 30
0.0
 10
-2.6480202264
 20
14.5535739896
 30
0.0
 10
-2.6357930963
 20
14.5596168307
 30
0.0
 11
-2.988315056
 21
14.5601295545
 31
0.0
 11
-2.9505807778
 21
14.5446342479
 31
0.0
 11
-2.9075452008
 21
14.5331029941
 31
0.0
 11
-2.8122655376
 21
14.523518431
 31
0.0
 11
-2.7168759782
 21
14.5328256905
 31
0.0
 11
-2.6737069668
 21
14.5442315727
 31
0.0
 11
-2.6357930963
 21
14.5596168307
 31
0.0
  0
SPLINE
  5
426
100
AcDbEntity
  8
RACCORDO
100
AcDbSpline
 62
253
  6
CONTINUOUS
 70
0
 71
3
 72
11
 73
7
 74
5
 42
0.0000001
 43
0.0000001
 44
0.0000000001
 12
0.0
 22
-0.1574187621
 32
0.0
 13
0.1407924118
 23
-0.0704142276
 33
0.0
 40
0.0
 40
0.0
 40
0.0
 40
0.0
 40
0.2897477756
 40
0.5495860029
 40
0.7828492609
 40
1.0
 40
1.0
 40
1.0
 40
1.0
 10
-2.988315056
 20
14.5601295545
 30
0.0
 10
-2.988315056
 20
14.5449256425
 30
0.0
 10
-2.9858615856
 20
14.5159776792
 30
0.0
 10
-2.9734902982
 20
14.4763856642
 30
0.0
 10
-2.9528271064
 20
14.444688091
 30
0.0
 10
-2.9335434841
 20
14.4300131886
 30
0.0
 10
-2.9233524253
 20
14.4249163547
 30
0.0
 11
-2.988315056
 21
14.5601295545
 31
0.0
 11
-2.983995986
 21
14.5147227697
 31
0.0
 11
-2.9712506778
 21
14.4758557369
 31
0.0
 11
-2.9507008772
 21
14.4454244196
 31
0.0
 11
-2.9233524253
 21
14.4249163547
 31
0.0
  0
SPLINE
  5
427
100
AcDbEntity
  8
RACCORDO
100
AcDbSpline
 62
253
  6
CONTINUOUS
 70
0
 71
3
 72
11
 73
7
 74
5
 42
0.0000001
 43
0.0000001
 44
0.0000000001
 12
0.0
 22
-0.157431766
 32
0.0
 13
0.1408139516
 23
-0.070400227
 33
0.0
 40
0.0
 40
0.0
 40
0.0
 40
0.0
 40
0.2897504308
 40
0.5495880475
 40
0.7828491195
 40
1.0
 40
1.0
 40
1.0
 40
1.0
 10
-4.2249113882
 20
15.1784277206
 30
0.0
 10
-4.2249113882
 20
15.1632224133
 30
0.0
 10
-4.2224574855
 20
15.1342719256
 30
0.0
 10
-4.2100838539
 20
15.0946769534
 30
0.0
 10
-4.1894166546
 20
15.0629782172
 30
0.0
 10
-4.1701295988
 20
15.0483044525
 30
0.0
 10
-4.1599369743
 20
15.0432086287
 30
0.0
 11
-4.2249113882
 21
15.1784277206
 31
0.0
 11
-4.2205914828
 21
15.1330168105
 31
0.0
 11
-4.2078437501
 21
15.094147118
 31
0.0
 11
-4.1872901744
 21
15.0637151052
 31
0.0
 11
-4.1599369743
 21
15.0432086287
 31
0.0
  0
SPLINE
  5
428
100
AcDbEntity
  8
RACCORDO
100
AcDbSpline
 62
7
  6
CONTINUOUS
 70
0
 71
3
 72
12
 73
8
 74
6
 42
0.0000001
 43
0.0000001
 44
0.0000000001
 12
-0.2288947893
 22
-0.2740443819
 32
0.0
 13
-0.3495652491
 23
0.0727824462
 33
0.0
 40
0.0
 40
0.0
 40
0.0
 40
0.0
 40
0.2548335856
 40
0.5141953181
 40
0.6424651752
 40
0.7674743832
 40
1.0
 40
1.0
 40
1.0
 40
1.0
 10
-1.9245724882
 20
14.4111133078
 30
0.0
 10
-1.9440158482
 20
14.387834737
 30
0.0
 10
-1.9886298825
 20
14.345165191
 30
0.0
 10
-2.054293395
 20
14.3047292548
 30
0.0
 10
-2.1112749283
 20
14.282399207
 30
0.0
 10
-2.1674650239
 20
14.2685976227
 30
0.0
 10
-2.2112564407
 20
14.2678029522
 30
0.0
 10
-2.2383507324
 20
14.2734442133
 30
0.0
 11
-1.9245724882
 21
14.4111133078
 31
0.0
 11
-1.9901870902
 21
14.3480724563
 31
0.0
 11
-2.0692444175
 21
14.2998416273
 31
0.0
 11
-2.1119303977
 21
14.2832412724
 31
0.0
 11
-2.1553272357
 21
14.2727967341
 31
0.0
 11
-2.2383507324
 21
14.2734442133
 31
0.0
  0
SPLINE
  5
429
100
AcDbEntity
  8
RACCORDO
100
AcDbSpline
 62
253
  6
CONTINUOUS
 70
0
 71
3
 72
13
 73
9
 74
7
 42
0.0000001
 43
0.0000001
 44
0.0000000001
 12
-0.1069170449
 22
-0.2783411477
 32
0.0
 13
-0.2918757123
 23
0.060939458
 33
0.0
 40
0.0
 40
0.0
 40
0.0
 40
0.0
 40
0.2769976636
 40
0.5361986962
 40
0.658214714
 40
0.775329196
 40
0.8886900049
 40
1.0
 40
1.0
 40
1.0
 40
1.0
 10
-2.6357930963
 20
14.5596168307
 30
0.0
 10
-2.6456650202
 20
14.5339168815
 30
0.0
 10
-2.6714020254
 20
14.4863817885
 30
0.0
 10
-2.7187285999
 20
14.4394766669
 30
0.0
 10
-2.7620096755
 20
14.4148768304
 30
0.0
 10
-2.7954092813
 20
14.4035468215
 30
0.0
 10
-2.8293672302
 20
14.3993892225
 30
0.0
 10
-2.8518070446
 20
14.4015345359
 30
0.0
 10
-2.8626366059
 20
14.4037955928
 30
0.0
 11
-2.6357930963
 21
14.5596168307
 31
0.0
 11
-2.6756765779
 21
14.4872926416
 31
0.0
 11
-2.7312272619
 21
14.4335597577
 31
0.0
 11
-2.7629272893
 21
14.4157070687
 31
0.0
 11
-2.7960388006
 21
14.404615096
 31
0.0
 11
-2.8296009606
 21
14.4006062144
 31
0.0
 11
-2.8626366059
 21
14.4037955928
 31
0.0
  0
SPLINE
  5
42A
100
AcDbEntity
  8
RACCORDO
100
AcDbSpline
 62
7
  6
CONTINUOUS
 70
0
 71
3
 72
9
 73
5
 74
3
 42
0.0000001
 43
0.0000001
 44
0.0000000001
 12
-0.0457891744
 22
-0.0255603899
 32
0.0
 13
-0.0495166566
 23
-0.0172650731
 33
0.0
 40
0.0
 40
0.0
 40
0.0
 40
0.0
 40
0.2394952714
 40
1.0
 40
1.0
 40
1.0
 40
1.0
 10
-1.9245724882
 20
13.560141714
 30
0.0
 10
-1.9282279185
 20
13.5581011832
 30
0.0
 10
-1.9437046842
 20
13.5499648776
 30
0.0
 10
-1.9599369108
 20
13.5433066638
 30
0.0
 10
-1.9724894613
 20
13.5389299406
 30
0.0
 11
-1.9245724882
 21
13.560141714
 31
0.0
 11
-1.9356844746
 21
13.5542887501
 31
0.0
 11
-1.9724894613
 21
13.5389299406
 31
0.0
  0
SPLINE
  5
42B
100
AcDbEntity
  8
RACCORDO
100
AcDbSpline
 62
253
  6
CONTINUOUS
 70
0
 71
3
 72
11
 73
7
 74
5
 42
0.0000001
 43
0.0000001
 44
0.0000000001
 12
0.0
 22
0.3659184282
 32
0.0
 13
0.3263519551
 23
0.1655013518
 33
0.0
 40
0.0
 40
0.0
 40
0.0
 40
0.0
 40
0.2465991784
 40
0.5114081618
 40
0.7699752382
 40
1.0
 40
1.0
 40
1.0
 40
1.0
 10
-4.2249113882
 20
15.5184016547
 30
0.0
 10
-4.2249113882
 20
15.5484800493
 30
0.0
 10
-4.2145686456
 20
15.6109650304
 30
0.0
 10
-4.1770850449
 20
15.6979354383
 30
0.0
 10
-4.1219456932
 20
15.7724344643
 30
0.0
 10
-4.0741861424
 20
15.8100886667
 30
0.0
 10
-4.0491631322
 20
15.8227784697
 30
0.0
 11
-4.2249113882
 21
15.5184016547
 31
0.0
 11
-4.2115530595
 21
15.6076425839
 31
0.0
 11
-4.1734978168
 21
15.6967555195
 31
0.0
 11
-4.1164957792
 21
15.7722715006
 31
0.0
 11
-4.0491631322
 21
15.8227784697
 31
0.0
  0
SPLINE
  5
42C
100
AcDbEntity
  8
RACCORDO
100
AcDbSpline
 62
253
  6
CONTINUOUS
 70
0
 71
3
 72
11
 73
7
 74
5
 42
0.0000001
 43
0.0000001
 44
0.0000000001
 12
0.0
 22
0.3659184285
 32
0.0
 13
0.3263519554
 23
0.165501352
 33
0.0
 40
0.0
 40
0.0
 40
0.0
 40
0.0
 40
0.2465996066
 40
0.5114086341
 40
0.7699756527
 40
1.0
 40
1.0
 40
1.0
 40
1.0
 10
-2.988315056
 20
14.9001034887
 30
0.0
 10
-2.988315056
 20
14.9301819355
 30
0.0
 10
-2.9779722839
 20
14.9926669742
 30
0.0
 10
-2.9404886316
 20
15.0796374137
 30
0.0
 10
-2.8853492811
 20
15.154136378
 30
0.0
 10
-2.8375897652
 20
15.1917905235
 30
0.0
 10
-2.8125668
 20
15.2044803036
 30
0.0
 11
-2.988315056
 21
14.9001034887
 31
0.0
 11
-2.974956682
 21
14.9893445695
 31
0.0
 11
-2.9369013972
 21
15.0784575048
 31
0.0
 11
-2.8798993404
 21
15.153973445
 31
0.0
 11
-2.8125668
 21
15.2044803036
 31
0.0
  0
SPLINE
  5
42D
100
AcDbEntity
  8
RACCORDO
100
AcDbSpline
 62
7
  6
CONTINUOUS
 70
0
 71
3
 72
12
 73
8
 74
6
 42
0.0000001
 43
0.0000001
 44
0.0000000001
 12
0.2760270103
 22
0.1379542592
 32
0.0
 13
-0.0072404314
 23
0.3084961332
 33
0.0
 40
0.0
 40
0.0
 40
0.0
 40
0.0
 40
0.1073765344
 40
0.216732257
 40
0.4487227458
 40
0.7085174001
 40
1.0
 40
1.0
 40
1.0
 40
1.0
 10
-8.7037808071
 20
-20.6641934686
 30
0.0
 10
-8.6939011992
 20
-20.6592557852
 30
0.0
 10
-8.6748459667
 20
-20.6473925603
 30
0.0
 10
-8.6406146731
 20
-20.6160998474
 30
0.0
 10
-8.6069431467
 20
-20.5628471525
 30
0.0
 10
-8.5844620594
 20
-20.484686371
 30
0.0
 10
-8.5809852913
 20
-20.4276578349
 30
0.0
 10
-8.5816887779
 20
-20.3976840832
 30
0.0
 11
-8.7037808071
 21
-20.6641934686
 31
0.0
 11
-8.6756389124
 21
-20.6467028969
 31
0.0
 11
-8.6506802511
 21
-20.6239917206
 31
0.0
 11
-8.6114893771
 21
-20.5640842954
 31
0.0
 11
-8.5881133811
 21
-20.4874003617
 31
0.0
 11
-8.5816887779
 21
-20.3976840832
 31
0.0
  0
SPLINE
  5
42E
100
AcDbEntity
  8
RACCORDO
100
AcDbSpline
 62
253
  6
CONTINUOUS
 70
0
 71
3
 72
11
 73
7
 74
5
 42
0.0000001
 43
0.0000001
 44
0.0000000001
 12
-0.1026843522
 22
0.0513470349
 32
0.0
 13
-0.1029781204
 23
-0.0507553043
 33
0.0
 40
0.0
 40
0.0
 40
0.0
 40
0.0
 40
0.2274032722
 40
0.4651087917
 40
0.721101419
 40
1.0
 40
1.0
 40
1.0
 40
1.0
 10
-0.5722440284
 20
16.2772307217
 30
0.0
 10
-0.5800276143
 20
16.2811228829
 30
0.0
 10
-0.5971632427
 20
16.2868487464
 30
0.0
 10
-0.6250005591
 20
16.2883360185
 30
0.0
 10
-0.6543063118
 20
16.2829751345
 30
0.0
 10
-0.6734453536
 20
16.2753596546
 30
0.0
 10
-0.6830188374
 20
16.2706411272
 30
0.0
 11
-0.5722440284
 21
16.2772307217
 31
0.0
 11
-0.5969795556
 21
16.285582479
 31
0.0
 11
-0.624217651
 21
16.287268101
 31
0.0
 11
-0.6531740088
 21
16.2822398795
 31
0.0
 11
-0.6830188374
 21
16.2706411272
 31
0.0
  0
SPLINE
  5
42F
100
AcDbEntity
  8
RACCORDO
100
AcDbSpline
 62
253
  6
CONTINUOUS
 70
0
 71
3
 72
11
 73
7
 74
5
 42
0.0000001
 43
0.0000001
 44
0.0000000001
 12
-0.1026843522
 22
0.0513470349
 32
0.0
 13
-0.1029781204
 23
-0.0507553043
 33
0.0
 40
0.0
 40
0.0
 40
0.0
 40
0.0
 40
0.2274032722
 40
0.4651087917
 40
0.721101419
 40
1.0
 40
1.0
 40
1.0
 40
1.0
 10
-1.8211818413
 20
16.9016996281
 30
0.0
 10
-1.8289654272
 20
16.9055917894
 30
0.0
 10
-1.8461010556
 20
16.9113176528
 30
0.0
 10
-1.873938372
 20
16.9128049249
 30
0.0
 10
-1.9032441247
 20
16.907444041
 30
0.0
 10
-1.9223831665
 20
16.8998285611
 30
0.0
 10
-1.9319566503
 20
16.8951100336
 30
0.0
 11
-1.8211818413
 21
16.9016996281
 31
0.0
 11
-1.8459173685
 21
16.9100513854
 31
0.0
 11
-1.8731554639
 21
16.9117370075
 31
0.0
 11
-1.9021118217
 21
16.906708786
 31
0.0
 11
-1.9319566503
 21
16.8951100336
 31
0.0
  0
SPLINE
  5
430
100
AcDbEntity
  8
RACCORDO
100
AcDbSpline
 62
253
  6
CONTINUOUS
 70
0
 71
3
 72
11
 73
7
 74
5
 42
0.0000001
 43
0.0000001
 44
0.0000000001
 12
0.0
 22
0.2523287195
 32
0.0
 13
0.1609736044
 23
0.1943123294
 33
0.0
 40
0.0
 40
0.0
 40
0.0
 40
0.0
 40
0.2352280484
 40
0.4870806614
 40
0.7456469788
 40
1.0
 40
1.0
 40
1.0
 40
1.0
 10
-2.988315056
 20
-26.7394745848
 30
0.0
 10
-2.988315056
 20
-26.7196896541
 30
0.0
 10
-2.9837842482
 20
-26.6786643516
 30
0.0
 10
-2.96603465
 20
-26.6182346099
 30
0.0
 10
-2.9382102349
 20
-26.5599534879
 30
0.0
 10
-2.9135747492
 20
-26.5242550537
 30
0.0
 10
-2.8999267083
 20
-26.507780411
 30
0.0
 11
-2.988315056
 21
-26.7394745848
 31
0.0
 11
-2.9822914289
 21
-26.6804262379
 31
0.0
 11
-2.9646313554
 21
-26.6193797025
 31
0.0
 11
-2.9365387738
 21
-26.5604938107
 31
0.0
 11
-2.8999267083
 21
-26.507780411
 31
0.0
  0
SPLINE
  5
431
100
AcDbEntity
  8
RACCORDO
100
AcDbSpline
 62
253
  6
CONTINUOUS
 70
0
 71
3
 72
11
 73
7
 74
5
 42
0.0000001
 43
0.0000001
 44
0.0000000001
 12
-0.1076203225
 22
0.0538101613
 32
0.0
 13
0.0000013829
 23
0.1203231785
 33
0.0
 40
0.0
 40
0.0
 40
0.0
 40
0.0
 40
0.3025823249
 40
0.5654825874
 40
0.7934322572
 40
1.0
 40
1.0
 40
1.0
 40
1.0
 10
-4.2249113882
 20
-26.4611503529
 30
0.0
 10
-4.2357660573
 20
-26.4557230183
 30
0.0
 10
-4.2553845303
 20
-26.4440832879
 30
0.0
 10
-4.2791959005
 20
-26.4225626604
 30
0.0
 10
-4.2944750976
 20
-26.3986083755
 30
0.0
 10
-4.2981347859
 20
-26.3810469677
 30
0.0
 10
-4.2981346907
 20
-26.3727620052
 30
0.0
 11
-4.2249113882
 21
-26.4611503529
 31
0.0
 11
-4.2560030611
 21
-26.4422076473
 31
0.0
 11
-4.2791038977
 21
-26.4205975169
 31
0.0
 11
-4.2933308579
 21
-26.3971482435
 31
0.0
 11
-4.2981346907
 21
-26.3727620052
 31
0.0
  0
SPLINE
  5
432
100
AcDbEntity
  8
RACCORDO
100
AcDbSpline
 62
253
  6
CONTINUOUS
 70
0
 71
3
 72
9
 73
5
 74
3
 42
0.0000001
 43
0.0000001
 44
0.0000000001
 12
-0.0147717041
 22
0.0073858521
 32
0.0
 13
-0.0141984423
 23
0.0084355374
 33
0.0
 40
0.0
 40
0.0
 40
0.0
 40
0.0
 40
0.254942895
 40
1.0
 40
1.0
 40
1.0
 40
1.0
 10
-4.2249113882
 20
-26.1211764188
 30
0.0
 10
-4.2261667018
 20
-26.1205487619
 30
0.0
 10
-4.2310693909
 20
-26.1180447347
 30
0.0
 10
-4.2358854417
 20
-26.1153701318
 30
0.0
 10
-4.2394116584
 20
-26.1132751461
 30
0.0
 11
-4.2249113882
 21
-26.1211764188
 31
0.0
 11
-4.2286608822
 21
-26.1192609073
 31
0.0
 11
-4.2394116584
 21
-26.1132751461
 31
0.0
  0
SPLINE
  5
433
100
AcDbEntity
  8
RACCORDO
100
AcDbSpline
 62
253
  6
CONTINUOUS
 70
0
 71
3
 72
11
 73
7
 74
5
 42
0.0000001
 43
0.0000001
 44
0.0000000001
 12
0.0
 22
-0.1574304331
 32
0.0
 13
0.1408073423
 23
-0.0704104653
 33
0.0
 40
0.0
 40
0.0
 40
0.0
 40
0.0
 40
0.2897501958
 40
0.5495852128
 40
0.7828460584
 40
1.0
 40
1.0
 40
1.0
 40
1.0
 10
-2.988315056
 20
-27.079448519
 30
0.0
 10
-2.988315056
 20
-27.0946536852
 30
0.0
 10
-2.9858613646
 20
-27.1236038884
 30
0.0
 10
-2.9734874851
 20
-27.163197966
 30
0.0
 10
-2.9528218805
 20
-27.1948977829
 30
0.0
 10
-2.9335339255
 20
-27.2095700242
 30
0.0
 10
-2.9233416357
 20
-27.2146666609
 30
0.0
 11
-2.988315056
 21
-27.079448519
 31
0.0
 11
-2.983995243
 21
-27.1248590128
 31
0.0
 11
-2.9712477953
 21
-27.1637280036
 31
0.0
 11
-2.9506950649
 21
-27.1941601691
 31
0.0
 11
-2.9233416357
 21
-27.2146666609
 31
0.0
  0
SPLINE
  5
434
100
AcDbEntity
  8
RACCORDO
100
AcDbSpline
 62
253
  6
CONTINUOUS
 70
0
 71
3
 72
11
 73
7
 74
5
 42
0.0000001
 43
0.0000001
 44
0.0000000001
 12
0.0
 22
-0.1574304331
 32
0.0
 13
0.1408073423
 23
-0.0704104653
 33
0.0
 40
0.0
 40
0.0
 40
0.0
 40
0.0
 40
0.2897501958
 40
0.5495852128
 40
0.7828460584
 40
1.0
 40
1.0
 40
1.0
 40
1.0
 10
-4.2249113882
 20
-26.4611503529
 30
0.0
 10
-4.2249113882
 20
-26.4763555192
 30
0.0
 10
-4.2224576968
 20
-26.5053057223
 30
0.0
 10
-4.2100838173
 20
-26.5448997999
 30
0.0
 10
-4.1894182126
 20
-26.5765996169
 30
0.0
 10
-4.1701302577
 20
-26.5912718581
 30
0.0
 10
-4.1599379679
 20
-26.5963684948
 30
0.0
 11
-4.2249113882
 21
-26.4611503529
 31
0.0
 11
-4.2205915752
 21
-26.5065608467
 31
0.0
 11
-4.2078441275
 21
-26.5454298375
 31
0.0
 11
-4.1872913971
 21
-26.575862003
 31
0.0
 11
-4.1599379679
 21
-26.5963684948
 31
0.0
  0
SPLINE
  5
435
100
AcDbEntity
  8
RACCORDO
100
AcDbSpline
 62
253
  6
CONTINUOUS
 70
0
 71
3
 72
11
 73
7
 74
5
 42
0.0000001
 43
0.0000001
 44
0.0000000001
 12
-0.0000019555
 22
-0.1191818406
 32
0.0
 13
-0.1063493789
 23
-0.0537970327
 33
0.0
 40
0.0
 40
0.0
 40
0.0
 40
0.0
 40
0.206962976
 40
0.435065309
 40
0.6978069212
 40
1.0
 40
1.0
 40
1.0
 40
1.0
 10
-0.4340472786
 20
16.0536238712
 30
0.0
 10
-0.4340474135
 20
16.045401795
 30
0.0
 10
-0.4376466201
 20
16.0279859529
 30
0.0
 10
-0.4526960265
 20
16.0041907905
 30
0.0
 10
-0.4761729343
 20
15.9827791072
 30
0.0
 10
-0.4955324517
 20
15.9711706187
 30
0.0
 10
-0.5062451338
 20
15.9657515883
 30
0.0
 11
-0.4340472786
 21
16.0536238712
 31
0.0
 11
-0.4387805709
 21
16.0294160466
 31
0.0
 11
-0.452800921
 21
16.006124639
 31
0.0
 11
-0.4755750437
 21
15.9846325999
 31
0.0
 11
-0.5062451338
 21
15.9657515883
 31
0.0
  0
SPLINE
  5
436
100
AcDbEntity
  8
RACCORDO
100
AcDbSpline
 62
253
  6
CONTINUOUS
 70
0
 71
3
 72
13
 73
9
 74
7
 42
0.0000001
 43
0.0000001
 44
0.0000000001
 12
0.1276934635
 22
0.3370670904
 32
0.0
 13
-0.3225548801
 23
0.1608670051
 33
0.0
 40
0.0
 40
0.0
 40
0.0
 40
0.0
 40
0.2701264394
 40
0.5327826693
 40
0.6577241283
 40
0.7769941193
 40
0.8907279222
 40
1.0
 40
1.0
 40
1.0
 40
1.0
 10
-0.5062451338
 20
-25.6813840678
 30
0.0
 10
-0.4947473402
 20
-25.6510338235
 30
0.0
 10
-0.4812637052
 20
-25.5873071289
 30
0.0
 10
-0.4890526325
 20
-25.5071887297
 30
0.0
 10
-0.5104666128
 20
-25.4498558227
 30
0.0
 10
-0.532965734
 20
-25.4128625438
 30
0.0
 10
-0.5613466547
 20
-25.3826757518
 30
0.0
 10
-0.5839101818
 20
-25.3676766857
 30
0.0
 10
-0.5956589291
 20
-25.3618172618
 30
0.0
 11
-0.5062451338
 21
-25.6813840678
 31
0.0
 11
-0.4861626261
 21
-25.5861122348
 31
0.0
 11
-0.4960953299
 21
-25.4919618766
 31
0.0
 11
-0.5120235552
 21
-25.4498383887
 31
0.0
 11
-0.5345385387
 21
-25.4132156052
 31
0.0
 11
-0.5627758248
 21
-25.3834966221
 31
0.0
 11
-0.5956589291
 21
-25.3618172618
 31
0.0
  0
SPLINE
  5
437
100
AcDbEntity
  8
RACCORDO
100
AcDbSpline
 62
253
  6
CONTINUOUS
 70
0
 71
3
 72
11
 73
7
 74
5
 42
0.0000001
 43
0.0000001
 44
0.0000000001
 12
-0.0000013698
 22
-0.1191821853
 32
0.0
 13
-0.1063496865
 23
-0.0537971883
 33
0.0
 40
0.0
 40
0.0
 40
0.0
 40
0.0
 40
0.2069627866
 40
0.4350648202
 40
0.69780603
 40
1.0
 40
1.0
 40
1.0
 40
1.0
 10
-0.4340472789
 20
15.7060927038
 30
0.0
 10
-0.4340473734
 20
15.6978706114
 30
0.0
 10
-0.4376464901
 20
15.6804547156
 30
0.0
 10
-0.4526958576
 20
15.6566594667
 30
0.0
 10
-0.4761727975
 20
15.6352476689
 30
0.0
 10
-0.4955323891
 20
15.6236391336
 30
0.0
 10
-0.5062451338
 20
15.6182200716
 30
0.0
 11
-0.4340472789
 21
15.7060927038
 31
0.0
 11
-0.4387804618
 21
15.6818848082
 31
0.0
 11
-0.4528007609
 21
15.6585933197
 31
0.0
 11
-0.4755748734
 21
15.6371012078
 31
0.0
 11
-0.5062451338
 21
15.6182200716
 31
0.0
  0
SPLINE
  5
438
100
AcDbEntity
  8
RACCORDO
100
AcDbSpline
 62
253
  6
CONTINUOUS
 70
0
 71
3
 72
13
 73
9
 74
7
 42
0.0000001
 43
0.0000001
 44
0.0000000001
 12
0.3242438589
 22
-0.1621219295
 32
0.0
 13
0.3249922968
 23
0.160616335
 33
0.0
 40
0.0
 40
0.0
 40
0.0
 40
0.0
 40
0.1125245356
 40
0.2354259129
 40
0.4995814041
 40
0.7639631741
 40
0.8871313456
 40
1.0
 40
1.0
 40
1.0
 40
1.0
 10
-2.988315056
 20
-26.7394745848
 30
0.0
 10
-2.9761532594
 20
-26.7455554831
 30
0.0
 10
-2.9496565123
 20
-26.7562195975
 30
0.0
 10
-2.8911665822
 20
-26.771606907
 30
0.0
 10
-2.8122417587
 20
-26.7790668934
 30
0.0
 10
-2.7332668742
 20
-26.7718264953
 30
0.0
 10
-2.6746275934
 20
-26.7566136464
 30
0.0
 10
-2.6480202441
 20
-26.7460301586
 30
0.0
 10
-2.6357930963
 20
-26.7399873087
 30
0.0
 11
-2.988315056
 21
-26.7394745848
 31
0.0
 11
-2.950580786
 21
-26.7549698887
 31
0.0
 11
-2.9075452192
 21
-26.7665011416
 31
0.0
 11
-2.8122655802
 21
-26.7760857084
 31
0.0
 11
-2.7168760327
 21
-26.7667784595
 31
0.0
 11
-2.6737070228
 21
-26.7553725864
 31
0.0
 11
-2.6357930963
 21
-26.7399873087
 31
0.0
  0
SPLINE
  5
439
100
AcDbEntity
  8
RACCORDO
100
AcDbSpline
 62
253
  6
CONTINUOUS
 70
0
 71
3
 72
13
 73
9
 74
7
 42
0.0000001
 43
0.0000001
 44
0.0000000001
 12
0.3242438589
 22
-0.1621219295
 32
0.0
 13
0.3249922968
 23
0.160616335
 33
0.0
 40
0.0
 40
0.0
 40
0.0
 40
0.0
 40
0.1125245356
 40
0.2354259129
 40
0.4995814041
 40
0.7639631741
 40
0.8871313456
 40
1.0
 40
1.0
 40
1.0
 40
1.0
 10
-2.988315056
 20
-27.079448519
 30
0.0
 10
-2.9761532594
 20
-27.0855294173
 30
0.0
 10
-2.9496565123
 20
-27.0961935316
 30
0.0
 10
-2.8911665822
 20
-27.1115808412
 30
0.0
 10
-2.8122417587
 20
-27.1190408275
 30
0.0
 10
-2.7332668742
 20
-27.1118004294
 30
0.0
 10
-2.6746275934
 20
-27.0965875805
 30
0.0
 10
-2.6480202441
 20
-27.0860040927
 30
0.0
 10
-2.6357930963
 20
-27.0799612428
 30
0.0
 11
-2.988315056
 21
-27.079448519
 31
0.0
 11
-2.950580786
 21
-27.0949438228
 31
0.0
 11
-2.9075452192
 21
-27.1064750757
 31
0.0
 11
-2.8122655802
 21
-27.1160596425
 31
0.0
 11
-2.7168760327
 21
-27.1067523936
 31
0.0
 11
-2.6737070228
 21
-27.0953465205
 31
0.0
 11
-2.6357930963
 21
-27.0799612428
 31
0.0
  0
SPLINE
  5
43A
100
AcDbEntity
  8
RACCORDO
100
AcDbSpline
 62
253
  6
CONTINUOUS
 70
0
 71
3
 72
13
 73
9
 74
7
 42
0.0000001
 43
0.0000001
 44
0.0000000001
 12
-0.1868382044
 22
0.3017261022
 32
0.0
 13
-0.3164708648
 23
0.1606030733
 33
0.0
 40
0.0
 40
0.0
 40
0.0
 40
0.0
 40
0.1018786908
 40
0.218994501
 40
0.4830122473
 40
0.75597586
 40
0.8838496227
 40
1.0
 40
1.0
 40
1.0
 40
1.0
 10
-2.6357930963
 20
-26.7399873087
 30
0.0
 10
-2.6421380402
 20
-26.7297408219
 30
0.0
 10
-2.6571527093
 20
-26.7085648896
 30
0.0
 10
-2.6939582047
 20
-26.6648072503
 30
0.0
 10
-2.7495903142
 20
-26.6107492942
 30
0.0
 10
-2.8114018358
 20
-26.5618638483
 30
0.0
 10
-2.862518189
 20
-26.5282284833
 30
0.0
 10
-2.8876739716
 20
-26.5139984469
 30
0.0
 10
-2.8999267083
 20
-26.507780411
 30
0.0
 11
-2.6357930963
 21
-26.7399873087
 31
0.0
 11
-2.6564700312
 21
-26.710327511
 31
0.0
 11
-2.6830828455
 21
-26.6784016041
 31
0.0
 11
-2.7498573064
 21
-26.6126721245
 31
0.0
 11
-2.8259881945
 21
-26.5527696927
 31
0.0
 11
-2.8639596835
 21
-26.5279178111
 31
0.0
 11
-2.8999267083
 21
-26.507780411
 31
0.0
  0
SPLINE
  5
43B
100
AcDbEntity
  8
RACCORDO
100
AcDbSpline
 62
7
  6
CONTINUOUS
 70
0
 71
3
 72
12
 73
8
 74
6
 42
0.0000001
 43
0.0000001
 44
0.0000000001
 12
-0.367024693
 22
0.0766416464
 32
0.0
 13
-0.3353577997
 23
0.1676788998
 33
0.0
 40
0.0
 40
0.0
 40
0.0
 40
0.0
 40
0.0966568082
 40
0.2081720402
 40
0.465795317
 40
0.7452204074
 40
1.0
 40
1.0
 40
1.0
 40
1.0
 10
-1.9245724882
 20
-25.8884908316
 30
0.0
 10
-1.9363976334
 20
-25.8860215193
 30
0.0
 10
-1.9617231137
 20
-25.8800176803
 30
0.0
 10
-2.0178524058
 20
-25.8645445066
 30
0.0
 10
-2.0949775198
 20
-25.8394560321
 30
0.0
 10
-2.1875482158
 20
-25.8043814694
 30
0.0
 10
-2.2486136734
 20
-25.777218495
 30
0.0
 10
-2.2770944479
 20
-25.7629781077
 30
0.0
 11
-1.9245724882
 21
-25.8884908316
 31
0.0
 11
-1.9598636799
 21
-25.8802497253
 31
0.0
 11
-2.0001926822
 21
-25.869213961
 31
0.0
 11
-2.092136613
 21
-25.8396057821
 31
0.0
 11
-2.1900499453
 21
-25.8023321785
 31
0.0
 11
-2.2770944479
 21
-25.7629781077
 31
0.0
  0
ELLIPSE
  5
43C
100
AcDbEntity
  8
RACCORDO
100
AcDbEllipse
 62
7
  6
CONTINUOUS
 10
-18.5530828094
 20
18.9308818243
 30
0.0
 11
-0.1116009943
 21
0.2239381218
 31
0.0
 40
0.6122032814
 41
-0.6832419393
 42
0.031533549
  0
ELLIPSE
  5
43D
100
AcDbEntity
  8
RACCORDO
100
AcDbEllipse
 62
7
  6
CONTINUOUS
 10
-5.5423180356
 20
12.4254994374
 30
0.0
 11
-0.1116009943
 21
0.2239381218
 31
0.0
 40
0.6122032814
 41
-1.9351986739
 42
-0.6832419393
  0
ELLIPSE
  5
43E
100
AcDbEntity
  8
RACCORDO
100
AcDbEllipse
 62
7
  6
CONTINUOUS
 10
-19.1187413089
 20
-1.7403745813
 30
0.0
 11
-0.4472606553
 21
0.8944879452
 31
0.0
 40
0.6123267458
 41
0.836922462
 42
0.8860222965
  0
ELLIPSE
  5
43F
100
AcDbEntity
  8
RACCORDO
100
AcDbEllipse
 62
7
  6
CONTINUOUS
 10
4.2752237336
 20
17.6502329212
 30
0.0
 11
0.499996712
 21
0.0035883639
 31
0.0
 40
0.5053247124
 41
-0.7715714568
 42
-0.0036478305
  0
ELLIPSE
  5
440
100
AcDbEntity
  8
ASSI
100
AcDbEllipse
 62
7
  6
CONTINUOUS
 10
-6.289281793
 20
22.7724753323
 30
0.0
 11
0.2257019663
 21
0.4461636818
 31
0.0
 40
0.6159267166
 41
0.4796180937
 42
0.6817883054
  0
ELLIPSE
  5
441
100
AcDbEntity
  8
RACCORDO
100
AcDbEllipse
 62
7
  6
CONTINUOUS
 10
-0.3097817109
 20
-23.8691463486
 30
0.0
 11
-0.2236445579
 21
0.4471998343
 31
0.0
 40
0.6124778111
 41
-3.1448859382
 42
-2.255529033
  0
ELLIPSE
  5
442
100
AcDbEntity
  8
RACCORDO
100
AcDbEllipse
 62
7
  6
CONTINUOUS
 10
-0.3097817109
 20
13.9610154415
 30
0.0
 11
-0.2237046003
 21
0.4472532382
 31
0.0
 40
0.6122950388
 41
-2.2557482655
 42
-0.6847996396
  0
ELLIPSE
  5
443
100
AcDbEntity
  8
RACCORDO
100
AcDbEllipse
 62
7
  6
CONTINUOUS
 10
4.5681645887
 20
-19.4431100746
 30
0.0
 11
1.004787277
 21
0.6140102217
 31
0.0
 40
0.0864918533
 41
-2.394139661
 42
-1.4170939816
  0
ELLIPSE
  5
444
100
AcDbEntity
  8
RACCORDO
100
AcDbEllipse
 62
7
  6
CONTINUOUS
 10
-7.4503619981
 20
23.3942182226
 30
0.0
 11
0.9927147821
 21
0.620457446
 31
0.0
 40
0.0764819879
 41
0.0471960648
 42
0.7226967466
  0
ELLIPSE
  5
445
100
AcDbEntity
  8
RACCORDO
100
AcDbEllipse
 62
7
  6
CONTINUOUS
 10
0.7357590854
 20
19.3011576809
 30
0.0
 11
0.4535199836
 21
0.8912633791
 31
0.0
 40
0.6176975122
 41
0.0043323816
 42
0.6803507382
  0
ELLIPSE
  5
446
100
AcDbEntity
  8
RACCORDO
100
AcDbEllipse
 62
7
  6
CONTINUOUS
 10
-11.621373457
 20
20.2499556636
 30
0.0
 11
0.4999985559
 21
0.0023864752
 31
0.0
 40
0.5035541159
 41
2.3596088132
 42
3.0002042076
  0
ELLIPSE
  5
447
100
AcDbEntity
  8
ASSI
100
AcDbEllipse
 62
7
  6
CONTINUOUS
 10
-0.6938815454
 20
19.9747752085
 30
0.0
 11
0.2267599918
 21
0.4456316896
 31
0.0
 40
0.6176975122
 41
0.478716007
 42
0.6832596203
  0
ELLIPSE
  5
448
100
AcDbEntity
  8
DRAFT
100
AcDbEllipse
 62
7
  6
CONTINUOUS
 10
341.9903670134
 20
170.0246295751
 30
0.0
 11
220.5149115959
 21
448.7546221111
 31
0.0
 40
0.607010042
 41
-4.0728997214
 42
-4.0630329279
  0
ELLIPSE
  5
449
100
AcDbEntity
  8
DRAFT
100
AcDbEllipse
 62
7
  6
CONTINUOUS
 10
-7.132047568
 20
10.1006568218
 30
0.0
 11
0.6615447348
 21
1.3462638663
 31
0.0
 40
0.607010042
 41
0.7328850719
 42
2.2102855858
  0
ELLIPSE
  5
44A
100
AcDbEntity
  8
ASSI
100
AcDbEllipse
 62
7
  6
CONTINUOUS
 10
-0.1284495223
 20
19.6920591969
 30
0.0
 11
0.221538876
 21
0.4482453432
 31
0.0
 40
0.6088015717
 41
0.4739173217
 42
0.6760875334
  0
ELLIPSE
  5
44B
100
AcDbEntity
  8
RACCORDO
100
AcDbEllipse
 62
7
  6
CONTINUOUS
 10
-1.4909732977
 20
13.3685346376
 30
0.0
 11
30.5620697111
 21
17.056795564
 31
0.0
 40
0.0108183174
 41
1.5656720487
 42
1.5789463719
  0
ELLIPSE
  5
44C
100
AcDbEntity
  8
RACCORDO
100
AcDbEllipse
 62
7
  6
CONTINUOUS
 10
-6.1100663573
 20
16.2183912384
 30
0.0
 11
0.4998587701
 21
0.0223649649
 31
0.0
 40
0.5313301283
 41
-2.3799630874
 42
-0.8149845248
  0
ELLIPSE
  5
44D
100
AcDbEntity
  8
RACCORDO
100
AcDbEllipse
 62
7
  6
CONTINUOUS
 10
-6.1100663573
 20
17.4943021137
 30
0.0
 11
0.4999985559
 21
0.0023864752
 31
0.0
 40
0.5035541159
 41
-1.4342147631
 42
-0.7936193687
  0
ELLIPSE
  5
44E
100
AcDbEntity
  8
RACCORDO
100
AcDbEllipse
 62
7
  6
CONTINUOUS
 10
-11.621373457
 20
18.9740447882
 30
0.0
 11
0.4998587701
 21
0.0223649649
 31
0.0
 40
0.5313301283
 41
3.1178197826
 42
3.9032222197
  0
ELLIPSE
  5
44F
100
AcDbEntity
  8
RACCORDO
100
AcDbEllipse
 62
7
  6
CONTINUOUS
 10
4.2752237336
 20
-19.7402208615
 30
0.0
 11
0.4992854398
 21
0.3051799344
 31
0.0
 40
0.0875604994
 41
0.0012204515
 42
0.7144759824
  0
ELLIPSE
  5
450
100
AcDbEntity
  8
RACCORDO
100
AcDbEllipse
 62
7
  6
CONTINUOUS
 10
4.2752237336
 20
18.6821133524
 30
0.0
 11
-0.3677755055
 21
0.6017952119
 31
0.0
 40
0.5628736564
 41
-3.1652208572
 42
-2.4519653264
  0
ELLIPSE
  5
451
100
AcDbEntity
  8
RACCORDO
100
AcDbEllipse
 62
7
  6
CONTINUOUS
 10
-16.6917822335
 20
20.9448792394
 30
0.0
 11
0.249929385
 21
0.0111824824
 31
0.0
 40
0.5313301283
 41
3.11775715
 42
3.9032222197
  0
ELLIPSE
  5
452
100
AcDbEntity
  8
ASSI
100
AcDbEllipse
 62
7
  6
CONTINUOUS
 10
-5.7238497699
 20
22.4897593207
 30
0.0
 11
0.2205149116
 21
0.4487546221
 31
0.0
 40
0.607010042
 41
0.4701638168
 42
0.6747074301
  0
ELLIPSE
  5
453
100
AcDbEntity
  8
RACCORDO
100
AcDbEllipse
 62
7
  6
CONTINUOUS
 10
-15.4469582475
 20
20.3224672464
 30
0.0
 11
0.249929385
 21
0.0111824824
 31
0.0
 40
0.5313301283
 41
-2.3799630874
 42
-0.8149845248
  0
ELLIPSE
  5
454
100
AcDbEntity
  8
RACCORDO
100
AcDbEllipse
 62
7
  6
CONTINUOUS
 10
-3.3451417386
 20
14.2715589919
 30
0.0
 11
0.249929385
 21
0.0111824824
 31
0.0
 40
0.5313301283
 41
3.1178369227
 42
3.9032222197
  0
ELLIPSE
  5
455
100
AcDbEntity
  8
RACCORDO
100
AcDbEllipse
 62
7
  6
CONTINUOUS
 10
-0.3396946243
 20
19.0266715576
 30
0.0
 11
0.3990734437
 21
-0.0028235347
 31
0.0
 40
0.4946372042
 41
-0.7760807437
 42
0.00345839
  0
ELLIPSE
  5
456
100
AcDbEntity
  8
RACCORDO
100
AcDbEllipse
 62
7
  6
CONTINUOUS
 10
-2.1003177526
 20
13.6491469989
 30
0.0
 11
0.249929385
 21
0.0111824824
 31
0.0
 40
0.5313301283
 41
-2.3799630874
 42
-1.0578528148
  0
ELLIPSE
  5
457
100
AcDbEntity
  8
RACCORDO
100
AcDbEllipse
 62
7
  6
CONTINUOUS
 10
-5.9353084425
 20
21.8244784667
 30
0.0
 11
0.3990734437
 21
-0.0028235347
 31
0.0
 40
0.4946372042
 41
-0.7731718616
 42
0.0034582156
  0
ELLIPSE
  5
458
100
AcDbEntity
  8
DRAFT
100
AcDbEllipse
 62
7
  6
CONTINUOUS
 10
-20.6124978329
 20
16.8408819543
 30
0.0
 11
0.6802799754
 21
1.3368950687
 31
0.0
 40
0.6176975122
 41
0.741437262
 42
2.218837776
  0
ELLIPSE
  5
459
100
AcDbEntity
  8
DRAFT
100
AcDbEllipse
 62
7
  6
CONTINUOUS
 10
334.6570522975
 20
173.6912869331
 30
0.0
 11
226.7599917994
 21
445.6316895703
 31
0.0
 40
0.6176975122
 41
-4.0643475312
 42
-4.0544807378
  0
ELLIPSE
  5
45A
100
AcDbEntity
  8
RACCORDO
100
AcDbEllipse
 62
7
  6
CONTINUOUS
 10
-3.6179564948
 20
21.478015471
 30
0.0
 11
0.4410298232
 21
0.8975092442
 31
0.0
 40
0.607010042
 41
5.3929141747
 42
6.9549838552
  0
ELLIPSE
  5
45B
100
AcDbEntity
  8
RACCORDO
100
AcDbEllipse
 62
7
  6
CONTINUOUS
 10
4.5681645887
 20
17.3849549293
 30
0.0
 11
-0.7481377634
 21
1.1968341901
 31
0.0
 40
0.5621794334
 41
5.2383362084
 42
6.2153818878
  0
ENDSEC
  0
SECTION
  2
OBJECTS
  0
DICTIONARY
  5
C
100
AcDbDictionary
280
0
281
1
  3
ACAD_GROUP
350
D
  3
ACAD_MLINESTYLE
350
17
  3
ACAD_LAYOUT
350
1A
  3
ACAD_PLOTSETTINGS
350
19
  3
ACAD_PLOTSTYLENAME
350
E
  0
DICTIONARY
  5
D
102
{ACAD_REACTORS
330
C
102
}
100
AcDbDictionary
280
0
281
1
  0
ACDBDICTIONARYWDFLT
  5
E
102
{ACAD_REACTORS
330
C
102
}
100
AcDbDictionary
281
1
  3
Normal
350
F
100
AcDbDictionaryWithDefault
340
F
  0
DICTIONARY
  5
17
102
{ACAD_REACTORS
330
C
102
}
100
AcDbDictionary
280
0
281
1
  3
Standard
350
18
  0
DICTIONARY
  5
19
102
{ACAD_REACTORS
330
C
102
}
100
AcDbDictionary
281
1
  0
DICTIONARY
  5
1A
102
{ACAD_REACTORS
330
C
102
}
100
AcDbDictionary
281
1
  3
Model
350
45C
  3
Layout1
350
45D
  0
ACDBPLACEHOLDER
  5
F
102
{ACAD_REACTORS
330
E
102
}
  0
MLINESTYLE
  5
18
102
{ACAD_REACTORS
330
17
102
}
100
AcDbMlineStyle
  2
STANDARD
 70
0
  3

 62
256
 51
90.0
 52
90.0
 71
2
 49
0.5
 62
256
  6
BYLAYER
 49
-0.5
 62
256
  6
BYLAYER
  0
LAYOUT
  5
45C
102
{ACAD_REACTORS
330
1A
102
}
100
AcDbPlotSettings
  1

  2
none_device
  4
ISO_A4_(297.00_x_210.00_MM)
  6

 40
0.0
 41
0.0
 42
0.0
 43
0.0
 44
297.0
 45
210.0
 46
0.0
 47
0.0
 48
0.0
 49
0.0
140
0.0
141
0.0
142
1.0
143
1.0
 70
1024
 72
1
 73
0
 74
0
  7

 75
0
147
1.0
148
0.0
149
0.0
100
AcDbLayout
  1
Model
 70
0
 71
0
 10
0.0
 20
0.0
 11
297.0
 21
210.0
 12
0.0
 22
0.0
 32
0.0
 14
0.0
 24
0.0
 34
0.0
 15
0.0
 25
0.0
 35
0.0
146
0.0
 13
0.0
 23
0.0
 33
0.0
 16
1.0
 26
0.0
 36
0.0
 17
0.0
 27
1.0
 37
0.0
 76
0
330
218
345
0
346
0
  0
LAYOUT
  5
45D
102
{ACAD_REACTORS
330
1A
102
}
100
AcDbPlotSettings
  1

  2
none_device
  4
ISO_A4_(297.00_x_210.00_MM)
  6

 40
0.0
 41
0.0
 42
0.0
 43
0.0
 44
297.0
 45
210.0
 46
0.0
 47
0.0
 48
0.0
 49
0.0
140
0.0
141
0.0
142
1.0
143
1.0
 70
0
 72
1
 73
0
 74
0
  7

 75
0
147
1.0
148
0.0
149
0.0
100
AcDbLayout
  1
Layout1
 70
0
 71
1
 10
0.0
 20
0.0
 11
297.0
 21
210.0
 12
0.0
 22
0.0
 32
0.0
 14
0.0
 24
0.0
 34
0.0
 15
0.0
 25
0.0
 35
0.0
146
0.0
 13
0.0
 23
0.0
 33
0.0
 16
1.0
 26
0.0
 36
0.0
 17
0.0
 27
1.0
 37
0.0
 76
0
330
219
345
0
346
0
  0
ENDSEC
  0
EOF
