  0
SECTION
  2
HEADER
  9
$ACADVER
  1
AC1021
  9
$DWGCODEPAGE
  3
ANSI_1252
  9
$EXTMAX
 10
279.4
 20
215.9
 30
0.0
  9
$EXTMIN
 10
0.0
 20
0.0
 30
0.0
  9
$LIMMIN
 10
0.0
 20
0.0
  9
$LIMMAX
 10
279.4
 20
215.9
  9
$VIEWCTR
 10
139.7
 20
107.95
  9
$VIEWSIZE
 40
215.9
  9
$CLAYER
  8
0
  9
$LTSCALE
 40
15.367
  9
$CELTYPE
  6
BYLAYER
  9
$DIMSCALE
 40
1.0
  9
$DIMASZ
 40
3.0
  9
$DIMEXO
 40
0.5
  9
$DIMDLI
 40
10.6172
  9
$DIMEXE
 40
1.5
  9
$DIMCEN
 40
2.5146
  9
$DIMLFAC
 40
1.0
  9
$DIMBLK
  1
_FILLED
  9
$DIMALT
 70
0
  9
$DIMALTF
 40
0.0393700787
  9
$DIMTXT
 40
3.0
  9
$DIMTOL
 70
1
  9
$DIMLIM
 70
0
  9
$DIMTFAC
 40
1.0
  9
$DIMTP
 40
0.01
  9
$DIMTM
 40
0.01
  9
$DIMGAP
 40
0.625
  9
$DIMDSEP
 70
44
  9
$AUNITS
 70
0
  9
$PDMODE
 70
3
  9
$PDSIZE
 40
3.0
  9
$HANDSEED
  5
570
  9
$TILEMODE
 70
1
  9
$MEASUREMENT
 70
1
  9
$INSUNITS
 70
4
  0
ENDSEC
  0
SECTION
  2
CLASSES
  0
CLASS
  1
ACDBDICTIONARYWDFLT
  2
AcDbDictionaryWithDefault
  3
AutoCAD 2000
 90
0
 91
1
280
0
281
0
  0
CLASS
  1
ACDBPLACEHOLDER
  2
AcDbPlaceHolder
  3
AutoCAD 2000
 90
0
 91
1
280
0
281
0
  0
CLASS
  1
LAYOUT
  2
AcDbLayout
  3
AutoCAD 2000
 90
0
 91
0
280
0
281
0
  0
ENDSEC
  0
SECTION
  2
TABLES
  0
TABLE
  2
VPORT
  5
8
100
AcDbSymbolTable
 70
2
  0
VPORT
  5
1F4
100
AcDbSymbolTableRecord
100
AcDbViewportTableRecord
  2
*ACTIVE
 70
0
 10
0.0
 20
0.0
 11
1.0
 21
1.0
 12
139.7
 22
107.95
 13
0.0
 23
0.0
 14
1.0
 24
1.0
 15
0.0
 25
0.0
 16
0.0
 26
0.0
 36
1.0
 17
0.0
 27
0.0
 37
0.0
 40
215.9
 41
1.2941176471
 42
50.0
 43
0.0
 44
0.0
 50
0.0
 51
0.0
 71
0
 72
100
 73
1
 74
1
 75
0
 76
0
 77
0
 78
0
  0
ENDTAB
  0
TABLE
  2
LTYPE
  5
5
100
AcDbSymbolTable
 70
6
  0
LTYPE
  5
14
100
AcDbSymbolTableRecord
100
AcDbLinetypeTableRecord
  2
BYBLOCK
 70
0
  3

 72
65
 73
0
 40
0.0
  0
LTYPE
  5
15
100
AcDbSymbolTableRecord
100
AcDbLinetypeTableRecord
  2
BYLAYER
 70
0
  3

 72
65
 73
0
 40
0.0
  0
LTYPE
  5
16
100
AcDbSymbolTableRecord
100
AcDbLinetypeTableRecord
  2
CONTINUOUS
 70
64
  3
Solid line
 72
65
 73
0
 40
0.0
  0
LTYPE
  5
1F5
100
AcDbSymbolTableRecord
100
AcDbLinetypeTableRecord
  2
CENTER
 70
64
  3
____ _ ____ _ ____ _ ____ _ ____ _ ____ _ ____
 72
65
 73
4
 40
0.6
 49
0.375
 74
0
 49
-0.075
 74
0
 49
0.075
 74
0
 49
-0.075
 74
0
  0
LTYPE
  5
1F6
100
AcDbSymbolTableRecord
100
AcDbLinetypeTableRecord
  2
HIDDEN
 70
64
  3
- - - - - - - - - - - - - - - - - - - -
 72
65
 73
2
 40
0.2
 49
0.1
 74
0
 49
-0.1
 74
0
  0
LTYPE
  5
1F7
100
AcDbSymbolTableRecord
100
AcDbLinetypeTableRecord
  2
PHANTOM
 70
64
  3
_____ _ _ _____ _ _ _____ _ _ _____
 72
65
 73
6
 40
0.8
 49
0.45
 74
0
 49
-0.05
 74
0
 49
0.1
 74
0
 49
-0.05
 74
0
 49
0.1
 74
0
 49
-0.05
 74
0
  0
LTYPE
  5
1F8
100
AcDbSymbolTableRecord
100
AcDbLinetypeTableRecord
  2
DOT
 70
64
  3
. . . . . . . . . . . . . . . . . . . .
 72
65
 73
2
 40
0.2
 49
0.1
 74
0
 49
-0.1
 74
0
  0
LTYPE
  5
1F9
100
AcDbSymbolTableRecord
100
AcDbLinetypeTableRecord
  2
DASHED
 70
64
  3
- - - - - - - - - - - - - - - - - - - -
 72
65
 73
2
 40
0.2
 49
0.1
 74
0
 49
-0.1
 74
0
  0
ENDTAB
  0
TABLE
  2
LAYER
  5
2
100
AcDbSymbolTable
 70
36
  0
LAYER
  5
10
100
AcDbSymbolTableRecord
100
AcDbLayerTableRecord
  2
0
 70
0
 62
7
  6
CONTINUOUS
370
-3
390
F
  0
LAYER
  5
1FA
100
AcDbSymbolTableRecord
100
AcDbLayerTableRecord
  2
DEFAULT_1
 70
0
 62
7
  6
CENTER
370
-3
390
F
  0
LAYER
  5
1FB
100
AcDbSymbolTableRecord
100
AcDbLayerTableRecord
  2
DEFAULT_2
 70
0
 62
7
  6
HIDDEN
370
-3
390
F
  0
LAYER
  5
1FC
100
AcDbSymbolTableRecord
100
AcDbLayerTableRecord
  2
DEFAULT_3
 70
0
 62
7
  6
PHANTOM
370
-3
390
F
  0
LAYER
  5
1FD
100
AcDbSymbolTableRecord
100
AcDbLayerTableRecord
  2
ASSI
 70
0
 62
7
  6
CONTINUOUS
370
-3
390
F
  0
LAYER
  5
1FE
100
AcDbSymbolTableRecord
100
AcDbLayerTableRecord
  2
COORDINATE
 70
0
 62
7
  6
CONTINUOUS
370
-3
390
F
  0
LAYER
  5
1FF
100
AcDbSymbolTableRecord
100
AcDbLayerTableRecord
  2
COORD_ORIGINE
 70
0
 62
7
  6
CONTINUOUS
370
-3
390
F
  0
LAYER
  5
200
100
AcDbSymbolTableRecord
100
AcDbLayerTableRecord
  2
CURVE
 70
0
 62
7
  6
CONTINUOUS
370
-3
390
F
  0
LAYER
  5
201
100
AcDbSymbolTableRecord
100
AcDbLayerTableRecord
  2
CURVE_COSTR_MODELLO
 70
0
 62
7
  6
CONTINUOUS
370
-3
390
F
  0
LAYER
  5
202
100
AcDbSymbolTableRecord
100
AcDbLayerTableRecord
  2
CURVE_SKETCH
 70
0
 62
7
  6
CONTINUOUS
370
-3
390
F
  0
LAYER
  5
203
100
AcDbSymbolTableRecord
100
AcDbLayerTableRecord
  2
DRAFT
 70
0
 62
7
  6
CONTINUOUS
370
-3
390
F
  0
LAYER
  5
204
100
AcDbSymbolTableRecord
100
AcDbLayerTableRecord
  2
IGES
 70
0
 62
7
  6
CONTINUOUS
370
-3
390
F
  0
LAYER
  5
205
100
AcDbSymbolTableRecord
100
AcDbLayerTableRecord
  2
INTF_6
 70
0
 62
7
  6
CONTINUOUS
370
-3
390
F
  0
LAYER
  5
206
100
AcDbSymbolTableRecord
100
AcDbLayerTableRecord
  2
NOTE
 70
0
 62
7
  6
CONTINUOUS
370
-3
390
F
  0
LAYER
  5
207
100
AcDbSymbolTableRecord
100
AcDbLayerTableRecord
  2
PIANI
 70
0
 62
7
  6
CONTINUOUS
370
-3
390
F
  0
LAYER
  5
208
100
AcDbSymbolTableRecord
100
AcDbLayerTableRecord
  2
PIANI_ORIGINE
 70
0
 62
7
  6
CONTINUOUS
370
-3
390
F
  0
LAYER
  5
209
100
AcDbSymbolTableRecord
100
AcDbLayerTableRecord
  2
PIANI_RIFERIMENTO
 70
0
 62
7
  6
CONTINUOUS
370
-3
390
F
  0
LAYER
  5
20A
100
AcDbSymbolTableRecord
100
AcDbLayerTableRecord
  2
PIANI_SFORMO
 70
0
 62
7
  6
CONTINUOUS
370
-3
390
F
  0
LAYER
  5
20B
100
AcDbSymbolTableRecord
100
AcDbLayerTableRecord
  2
PUNTI
 70
0
 62
7
  6
CONTINUOUS
370
-3
390
F
  0
LAYER
  5
20C
100
AcDbSymbolTableRecord
100
AcDbLayerTableRecord
  2
RACCORDO
 70
0
 62
7
  6
CONTINUOUS
370
-3
390
F
  0
LAYER
  5
20D
100
AcDbSymbolTableRecord
100
AcDbLayerTableRecord
  2
SMUSSO
 70
0
 62
7
  6
CONTINUOUS
370
-3
390
F
  0
LAYER
  5
20E
100
AcDbSymbolTableRecord
100
AcDbLayerTableRecord
  2
SNAPLINE
 70
0
 62
7
  6
CONTINUOUS
370
-3
390
F
  0
LAYER
  5
20F
100
AcDbSymbolTableRecord
100
AcDbLayerTableRecord
  2
SOLIDO
 70
0
 62
7
  6
CONTINUOUS
370
-3
390
F
  0
LAYER
  5
210
100
AcDbSymbolTableRecord
100
AcDbLayerTableRecord
  2
SUPERFICI
 70
0
 62
7
  6
CONTINUOUS
370
-3
390
F
  0
LAYER
  5
211
100
AcDbSymbolTableRecord
100
AcDbLayerTableRecord
  2
TRASH
 70
0
 62
7
  6
CONTINUOUS
370
-3
390
F
  0
LAYER
  5
212
100
AcDbSymbolTableRecord
100
AcDbLayerTableRecord
  2
XSEC_DATUMS
 70
0
 62
7
  6
CONTINUOUS
370
-3
390
F
  0
ENDTAB
  0
TABLE
  2
STYLE
  5
3
100
AcDbSymbolTable
 70
1
  0
STYLE
  5
11
100
AcDbSymbolTableRecord
100
AcDbTextStyleTableRecord
  2
STANDARD
 70
0
 40
0.0
 41
0.8
 50
0.0
 71
0
 42
0.2
  3
txt
  4

  0
STYLE
  5
213
100
AcDbSymbolTableRecord
100
AcDbTextStyleTableRecord
  2
TEXTSTYLE_1
 70
0
 40
0.0
 41
0.8
 50
0.0
 71
0
 42
0.2
  3
gdt
  4

  0
ENDTAB
  0
TABLE
  2
VIEW
  5
6
100
AcDbSymbolTable
 70
0
  0
ENDTAB
  0
TABLE
  2
UCS
  5
7
100
AcDbSymbolTable
 70
0
  0
ENDTAB
  0
TABLE
  2
APPID
  5
9
100
AcDbSymbolTable
 70
1
  0
APPID
  5
214
100
AcDbSymbolTableRecord
100
AcDbRegAppTableRecord
  2
ACAD
 70
0
  0
ENDTAB
  0
TABLE
  2
BLOCK_RECORD
  5
1
100
AcDbSymbolTable
 70
0
  0
BLOCK_RECORD
  5
215
100
AcDbSymbolTableRecord
100
AcDbBlockTableRecord
  2
*Model_Space
  0
BLOCK_RECORD
  5
216
100
AcDbSymbolTableRecord
100
AcDbBlockTableRecord
  2
*Paper_Space
  0
ENDTAB
  0
TABLE
  2
DIMSTYLE
  5
A
100
AcDbSymbolTable
 70
1
100
AcDbDimStyleTable
 71
0
  0
DIMSTYLE
105
217
100
AcDbSymbolTableRecord
100
AcDbDimStyleTableRecord
  2
STANDARD
 70
0
  3

  4

 40
1.0
 41
3.0
 42
0.5
 43
0.38
 44
1.5
 45
0.0
 46
0.0
 47
0.01
 48
0.01
140
3.0
141
0.09
142
0.0
143
25.4
144
1.0
145
0.0
146
1.0
147
0.625
 71
1.0
 72
0.0
 73
0
 74
0
 75
0
 76
0
 77
1
 78
8
170
0
171
2
172
0
173
0
174
0
175
0
176
0
177
0
178
0
270
2
271
2
272
2
273
2
274
2
275
0
280
0
281
0
282
0
283
1
284
8
285
0
286
0
287
3
288
0
340
11
278
44
  0
ENDTAB
  0
ENDSEC
  0
SECTION
  2
BLOCKS
  0
BLOCK
  5
20
100
AcDbEntity
  8
0
100
AcDbBlockBegin
  2
*Model_Space
 70
0
 10
0.0
 20
0.0
 30
0.0
  3
*Model_Space
  1

  0
ENDBLK
  5
21
100
AcDbEntity
  8
0
100
AcDbBlockEnd
  0
BLOCK
  5
1C
100
AcDbEntity
  8
0
100
AcDbBlockBegin
  2
*Paper_Space
 70
0
 10
0.0
 20
0.0
 30
0.0
  3
*Paper_Space
  1

  0
ENDBLK
  5
1D
100
AcDbEntity
  8
0
100
AcDbBlockEnd
  0
ENDSEC
  0
SECTION
  2
ENTITIES
  0
LWPOLYLINE
  5
218
100
AcDbEntity
  8
RACCORDO
100
AcDbPolyline
 62
7
  6
CONTINUOUS
 90
24
 70
0
 10
-10.7020742994
 20
-31.7184328199
 10
-10.6792209222
 20
-31.7294574629
 10
-10.64683748
 20
-31.743736609
 10
-10.6137731237
 20
-31.7567699972
 10
-10.5800574533
 20
-31.7685306028
 10
-10.5456988775
 20
-31.7789978851
 10
-10.5107374499
 20
-31.7881416213
 10
-10.4752161679
 20
-31.7959343513
 10
-10.4391451059
 20
-31.8023561307
 10
-10.402562503
 20
-31.8073804826
 10
-10.3655146923
 20
-31.8109826225
 10
-10.328019877
 20
-31.8131429002
 10
-10.2901209721
 20
-31.813839736
 10
-10.2518581242
 20
-31.8130531653
 10
-10.2132400185
 20
-31.8107633101
 10
-10.1743071844
 20
-31.80695208
 10
-10.1350981288
 20
-31.8016022806
 10
-10.0956124869
 20
-31.7946900201
 10
-10.0558830556
 20
-31.7861957518
 10
-10.0159486155
 20
-31.7761024869
 10
-9.9758112256
 20
-31.7643823854
 10
-9.9354941322
 20
-31.7510111808
 10
-9.895047604
 20
-31.735975551
 10
-9.8674969045
 20
-31.7247949409
  0
LINE
  5
219
100
AcDbEntity
  8
RACCORDO
100
AcDbLine
 62
7
  6
CONTINUOUS
 10
-10.7019823104
 20
-31.7184788252
 11
-25.5358803999
 21
-24.3015297805
  0
LINE
  5
21A
100
AcDbEntity
  8
RACCORDO
100
AcDbLine
 62
253
  6
CONTINUOUS
 10
-11.095450789
 20
-30.9578793285
 11
-25.9202968667
 21
-23.5454562897
  0
LWPOLYLINE
  5
21B
100
AcDbEntity
  8
RACCORDO
100
AcDbPolyline
 62
253
  6
CONTINUOUS
 90
25
 70
0
 10
-25.5358803906
 20
-24.3015297852
 10
-25.5646472399
 20
-24.2860620662
 10
-25.591918517
 20
-24.2692693466
 10
-25.6183005668
 20
-24.2508518577
 10
-25.6437604145
 20
-24.2308325717
 10
-25.6682661647
 20
-24.2092364712
 10
-25.6917882829
 20
-24.1860898676
 10
-25.7142974432
 20
-24.1614214649
 10
-25.7357653535
 20
-24.1352620379
 10
-25.7561659444
 20
-24.1076438322
 10
-25.775473688
 20
-24.0786012731
 10
-25.7936644694
 20
-24.048170387
 10
-25.8107163995
 20
-24.0163884641
 10
-25.8266081724
 20
-23.9832949925
 10
-25.841319893
 20
-23.9489310067
 10
-25.85483392
 20
-23.9133384863
 10
-25.8671335036
 20
-23.8765610934
 10
-25.8782030186
 20
-23.8386448109
 10
-25.8880288473
 20
-23.7996373323
 10
-25.8965986454
 20
-23.7595879039
 10
-25.9039019359
 20
-23.7185453657
 10
-25.909930193
 20
-23.6765586766
 10
-25.9146759484
 20
-23.6336791034
 10
-25.9181329776
 20
-23.58996029
 10
-25.9202968667
 20
-23.5454562897
  0
LINE
  5
21C
100
AcDbEntity
  8
RACCORDO
100
AcDbLine
 62
253
  6
CONTINUOUS
 10
-4.0305069605
 20
-30.3827623775
 11
-4.5587741322
 21
-30.2742601004
  0
LINE
  5
21D
100
AcDbEntity
  8
RACCORDO
100
AcDbLine
 62
253
  6
CONTINUOUS
 10
-4.1199207558
 20
-30.0631955715
 11
-4.5587741322
 21
-29.9730582448
  0
LWPOLYLINE
  5
21E
100
AcDbEntity
  8
RACCORDO
100
AcDbPolyline
 62
7
  6
CONTINUOUS
 90
34
 70
0
 10
-5.448834315
 20
-30.5898691413
 10
-5.456713438
 20
-30.5881928124
 10
-5.464933687
 20
-30.5863249063
 10
-5.4734915482
 20
-30.5842755009
 10
-5.4823899788
 20
-30.5820650885
 10
-5.4916164138
 20
-30.5796952498
 10
-5.5011429881
 20
-30.5771485559
 10
-5.5109631764
 20
-30.5744381477
 10
-5.5210690746
 20
-30.5715765141
 10
-5.5314298576
 20
-30.568546019
 10
-5.5420363789
 20
-30.5653614872
 10
-5.5528782903
 20
-30.5620372161
 10
-5.5639220673
 20
-30.5585555631
 10
-5.5751559158
 20
-30.5549329563
 10
-5.5865668666
 20
-30.5511854866
 10
-5.598118687
 20
-30.5472958325
 10
-5.6097968189
 20
-30.5432819309
 10
-5.6215855504
 20
-30.5391616432
 10
-5.6334458644
 20
-30.5349184226
 10
-5.6453603121
 20
-30.5305715569
 10
-5.6573103254
 20
-30.5261406474
 10
-5.669254003
 20
-30.521610554
 10
-5.6811708526
 20
-30.5170016679
 10
-5.6930394198
 20
-30.5123352432
 10
-5.7048149985
 20
-30.5075983567
 10
-5.716473819
 20
-30.5028121894
 10
-5.7279917561
 20
-30.4979993789
 10
-5.7393221088
 20
-30.4931500019
 10
-5.7504273712
 20
-30.4882921643
 10
-5.7612917229
 20
-30.4834422298
 10
-5.7718984085
 20
-30.4785762184
 10
-5.7822204668
 20
-30.4737050109
 10
-5.7922221634
 20
-30.4688706414
 10
-5.801870503
 20
-30.4640993033
  0
LWPOLYLINE
  5
21F
100
AcDbEntity
  8
RACCORDO
100
AcDbPolyline
 62
253
  6
CONTINUOUS
 90
31
 70
0
 10
-6.5125768827
 20
-31.7808268287
 10
-6.5031167333
 20
-31.7853163221
 10
-6.4932011468
 20
-31.7895530242
 10
-6.4828571089
 20
-31.7935254014
 10
-6.4721127607
 20
-31.797222643
 10
-6.4609973552
 20
-31.8006346792
 10
-6.4495411816
 20
-31.8037522114
 10
-6.4377754323
 20
-31.8065667526
 10
-6.425732125
 20
-31.8090706449
 10
-6.4134440524
 20
-31.811257072
 10
-6.4009446648
 20
-31.8131200839
 10
-6.388267983
 20
-31.8146546118
 10
-6.3754485171
 20
-31.8158564801
 10
-6.3625211456
 20
-31.8167224205
 10
-6.3495210705
 20
-31.8172500764
 10
-6.3364837271
 20
-31.8174380138
 10
-6.3234446558
 20
-31.8172857286
 10
-6.3104392908
 20
-31.8167936427
 10
-6.2975029165
 20
-31.815963093
 10
-6.2846705774
 20
-31.81479632
 10
-6.2719773702
 20
-31.8132965052
 10
-6.259458221
 20
-31.8114677885
 10
-6.2471474243
 20
-31.8093152191
 10
-6.2350782195
 20
-31.8068446491
 10
-6.2232831018
 20
-31.8040627453
 10
-6.2117916792
 20
-31.800976366
 10
-6.2006378627
 20
-31.7975944913
 10
-6.1898587071
 20
-31.7939287322
 10
-6.1794849411
 20
-31.7899904464
 10
-6.1695416371
 20
-31.7857900939
 10
-6.1600549231
 20
-31.7813395526
  0
LWPOLYLINE
  5
220
100
AcDbEntity
  8
RACCORDO
100
AcDbPolyline
 62
253
  6
CONTINUOUS
 90
31
 70
0
 10
-6.5125768827
 20
-31.4408528946
 10
-6.5031179124
 20
-31.445341857
 10
-6.493203636
 20
-31.4495780815
 10
-6.4828610323
 20
-31.4535500403
 10
-6.4721182618
 20
-31.4572469197
 10
-6.4610045426
 20
-31.4606586658
 10
-6.4495500653
 20
-31.4637760078
 10
-6.4377859599
 20
-31.4665904667
 10
-6.4257442695
 20
-31.4690943696
 10
-6.4134578152
 20
-31.4712808893
 10
-6.4009600508
 20
-31.4731440732
 10
-6.3882849681
 20
-31.4746788544
 10
-6.3754670596
 20
-31.4758810564
 10
-6.3625411963
 20
-31.4767474082
 10
-6.3495425631
 20
-31.4772755512
 10
-6.3365065648
 20
-31.477464048
 10
-6.3234686969
 20
-31.4773123887
 10
-6.3104644177
 20
-31.476820989
 10
-6.2975290832
 20
-31.4759911863
 10
-6.2846977776
 20
-31.4748252266
 10
-6.2720055364
 20
-31.4733262887
 10
-6.2594872073
 20
-31.4714985012
 10
-6.247177043
 20
-31.4693469005
 10
-6.2351083122
 20
-31.4668773371
 10
-6.2233135413
 20
-31.4640964806
 10
-6.2118236788
 20
-31.4610115705
 10
-6.200671197
 20
-31.4576312669
 10
-6.1898893872
 20
-31.4539658257
 10
-6.1795081981
 20
-31.4500258278
 10
-6.1695544859
 20
-31.4458218802
 10
-6.1600549231
 20
-31.4413656184
  0
LWPOLYLINE
  5
221
100
AcDbEntity
  8
RACCORDO
100
AcDbPolyline
 62
253
  6
CONTINUOUS
 90
5
 70
0
 10
-4.0965120305
 20
-30.0712797849
 10
-4.09808573
 20
-30.0705113699
 10
-4.1051134299
 20
-30.0675051644
 10
-4.1123978114
 20
-30.0650645414
 10
-4.1199207558
 20
-30.0631955715
  0
LINE
  5
222
100
AcDbEntity
  8
RACCORDO
100
AcDbLine
 62
7
  6
CONTINUOUS
 10
-7.7725882661
 20
-31.2535529389
 11
-6.4476035863
 21
-31.9160452788
  0
LINE
  5
223
100
AcDbEntity
  8
RACCORDO
100
AcDbLine
 62
253
  6
CONTINUOUS
 10
-7.8375615625
 20
-31.1183344888
 11
-6.5125768827
 21
-31.7808268287
  0
LINE
  5
224
100
AcDbEntity
  8
RACCORDO
100
AcDbLine
 62
253
  6
CONTINUOUS
 10
-6.5125768827
 20
-31.4408528946
 11
-7.734980253
 21
-30.8296512094
  0
LINE
  5
225
100
AcDbEntity
  8
RACCORDO
100
AcDbLine
 62
253
  6
CONTINUOUS
 10
-6.4241885351
 20
-31.2091587208
 11
-7.4350231629
 21
-30.7037414068
  0
LINE
  5
226
100
AcDbEntity
  8
RACCORDO
100
AcDbLine
 62
7
  6
CONTINUOUS
 10
-5.8013562746
 20
-30.4643564174
 11
-6.2866593029
 21
-30.2217049033
  0
LINE
  5
227
100
AcDbEntity
  8
RACCORDO
100
AcDbLine
 62
253
  6
CONTINUOUS
 10
-4.5587741322
 20
-29.8437688833
 11
-4.1199207558
 21
-30.0631955715
  0
LINE
  5
228
100
AcDbEntity
  8
RACCORDO
100
AcDbLine
 62
7
  6
CONTINUOUS
 10
-4.5587741322
 20
-29.8401487338
 11
-4.0965057046
 21
-30.0712829476
  0
LWPOLYLINE
  5
229
100
AcDbEntity
  8
RACCORDO
100
AcDbPolyline
 62
253
  6
CONTINUOUS
 90
16
 70
0
 10
-7.8375615625
 20
-31.1183344888
 10
-7.8465182638
 20
-31.1136167832
 10
-7.8549770459
 20
-31.108669387
 10
-7.8629140238
 20
-31.103505308
 10
-7.8703081173
 20
-31.0981370637
 10
-7.8771365068
 20
-31.0925799341
 10
-7.8833758847
 20
-31.0868522896
 10
-7.889008128
 20
-31.080970996
 10
-7.8940193071
 20
-31.0749508521
 10
-7.8983958927
 20
-31.0688080781
 10
-7.9021259869
 20
-31.0625592672
 10
-7.9051993016
 20
-31.0562215302
 10
-7.9076073617
 20
-31.0498122947
 10
-7.9093436013
 20
-31.0433490859
 10
-7.9104033344
 20
-31.0368494164
 10
-7.9107848669
 20
-31.0299529271
  0
LWPOLYLINE
  5
22A
100
AcDbEntity
  8
RACCORDO
100
AcDbPolyline
 62
7
  6
CONTINUOUS
 90
22
 70
0
 10
-7.7725882661
 20
-31.2535529389
 10
-7.784244832
 20
-31.2473343546
 10
-7.7956002147
 20
-31.2404807486
 10
-7.8066110602
 20
-31.2330094846
 10
-7.8172396223
 20
-31.2249382167
 10
-7.8274411109
 20
-31.2162944612
 10
-7.8371660347
 20
-31.2071174813
 10
-7.8463405532
 20
-31.1974844573
 10
-7.8549788223
 20
-31.1873904412
 10
-7.8631493169
 20
-31.1767406557
 10
-7.8708501129
 20
-31.1654916776
 10
-7.8779836368
 20
-31.1537390908
 10
-7.8844706409
 20
-31.1415914486
 10
-7.8902742728
 20
-31.1291157566
 10
-7.8953849164
 20
-31.1163337377
 10
-7.8997839546
 20
-31.1032907812
 10
-7.903455546
 20
-31.0900372518
 10
-7.9063905314
 20
-31.0766136631
 10
-7.9085841814
 20
-31.0630444782
 10
-7.9100299533
 20
-31.0493597173
 10
-7.9107206378
 20
-31.0356127553
 10
-7.9107848669
 20
-31.0299529271
  0
LWPOLYLINE
  5
22B
100
AcDbEntity
  8
RACCORDO
100
AcDbPolyline
 62
253
  6
CONTINUOUS
 90
17
 70
0
 10
-26.0665713728
 20
-23.3717573807
 10
-26.0652493533
 20
-23.384070562
 10
-26.0628236502
 20
-23.3963105293
 10
-26.0592996372
 20
-23.4084501674
 10
-26.0546851212
 20
-23.4204625831
 10
-26.0489903248
 20
-23.4323211651
 10
-26.0422278636
 20
-23.4439996431
 10
-26.0344127187
 20
-23.4554721456
 10
-26.025562203
 20
-23.4667132572
 10
-26.0156959232
 20
-23.4776980756
 10
-26.0048357362
 20
-23.4884022659
 10
-25.9930057007
 20
-23.498802115
 10
-25.9802320239
 20
-23.5088745839
 10
-25.9665430035
 20
-23.518597359
 10
-25.9519689649
 20
-23.5279489014
 10
-25.9365421942
 20
-23.5369084943
 10
-25.9202968665
 20
-23.5454562896
  0
LWPOLYLINE
  5
22C
100
AcDbEntity
  8
RACCORDO
100
AcDbPolyline
 62
7
  6
CONTINUOUS
 90
27
 70
0
 10
-26.066760501
 20
-23.3678088246
 10
-26.0649971475
 20
-23.4059286517
 10
-26.0610868865
 20
-23.4569964952
 10
-26.0554483237
 20
-23.5071476027
 10
-26.0480924955
 20
-23.5563758623
 10
-26.0390374755
 20
-23.604626172
 10
-26.0283162206
 20
-23.6517888391
 10
-26.0159504165
 20
-23.6978408223
 10
-26.0019637653
 20
-23.7427489255
 10
-25.9864127992
 20
-23.7863905626
 10
-25.969332976
 20
-23.8287387237
 10
-25.9507607036
 20
-23.8697661099
 10
-25.930780717
 20
-23.9093537236
 10
-25.9094624302
 20
-23.9474486007
 10
-25.8868457132
 20
-23.9840584076
 10
-25.8629905607
 20
-24.0191541894
 10
-25.8379799718
 20
-24.0526846156
 10
-25.8118587403
 20
-24.0846594272
 10
-25.7846294702
 20
-24.1151276264
 10
-25.7563557774
 20
-24.1440591735
 10
-25.7270995868
 20
-24.1714336078
 10
-25.6968509417
 20
-24.1972933385
 10
-25.6656734378
 20
-24.221607639
 10
-25.6336292639
 20
-24.2443522472
 10
-25.6006970262
 20
-24.2655603052
 10
-25.5669088998
 20
-24.2852185794
 10
-25.5357583091
 20
-24.3015908055
  0
LWPOLYLINE
  5
22D
100
AcDbEntity
  8
RACCORDO
100
AcDbPolyline
 62
253
  6
CONTINUOUS
 90
5
 70
0
 10
-25.9202968667
 20
-23.5454562897
 10
-25.9736034071
 20
-21.8779161449
 10
-26.0215816465
 20
-20.2073699788
 10
-26.0642308356
 20
-18.5338434389
 10
-26.0855410063
 20
-17.5765386696
  0
LWPOLYLINE
  5
22E
100
AcDbEntity
  8
RACCORDO
100
AcDbPolyline
 62
7
  6
CONTINUOUS
 90
5
 70
0
 10
-26.2308086935
 20
-17.4524636976
 10
-26.2104484011
 20
-18.3663728517
 10
-26.167735565
 20
-20.0410761292
 10
-26.1196857731
 20
-21.7128020909
 10
-26.0667606681
 20
-23.3678093282
  0
LWPOLYLINE
  5
22F
100
AcDbEntity
  8
RACCORDO
100
AcDbPolyline
 62
253
  6
CONTINUOUS
 90
18
 70
0
 10
-26.066779475
 20
12.2448180964
 10
-26.0665712609
 20
12.2334252856
 10
-26.0652492379
 20
12.2222512868
 10
-26.0628235318
 20
12.2110913594
 10
-26.0592995162
 20
12.199970226
 10
-26.0546849981
 20
12.1889125235
 10
-26.0489901999
 20
12.1779427481
 10
-26.0422277374
 20
12.1670852012
 10
-26.0344125917
 20
12.1563639357
 10
-26.0255620756
 20
12.1458027026
 10
-26.0156957958
 20
12.1354248983
 10
-26.0048356092
 20
12.1252535128
 10
-25.9930055745
 20
12.1153110789
 10
-25.980231899
 20
12.1056196222
 10
-25.9665428801
 20
12.0962006123
 10
-25.9519688436
 20
12.0870749153
 10
-25.9365420752
 20
12.0782627474
 10
-25.9202967502
 20
12.0697836302
  0
LWPOLYLINE
  5
230
100
AcDbEntity
  8
RACCORDO
100
AcDbPolyline
 62
253
  6
CONTINUOUS
 90
12
 70
0
 10
-26.2135166887
 20
-5.4503610379
 10
-26.2135166887
 20
-5.0414295234
 10
-26.2081846807
 20
-3.3422408353
 10
-26.1975207522
 20
-1.6403306047
 10
-26.1815250654
 20
0.0642750422
 10
-26.160197857
 20
1.7715499423
 10
-26.1335394644
 20
3.4814678939
 10
-26.1015502995
 20
5.1940026554
 10
-26.0642308356
 20
6.909127944
 10
-26.0215816465
 20
8.6268174391
 10
-25.9736034071
 20
10.3470447827
 10
-25.9202968667
 20
12.0697835779
  0
LWPOLYLINE
  5
231
100
AcDbEntity
  8
RACCORDO
100
AcDbPolyline
 62
7
  6
CONTINUOUS
 90
12
 70
0
 10
-26.0667792896
 20
12.244827127
 10
-26.119734508
 20
10.5339833368
 10
-26.1677770369
 20
8.8126298605
 10
-26.2104833215
 20
7.0938112941
 10
-26.247852536
 20
5.377557249
 10
-26.2798841403
 20
3.6638934451
 10
-26.306577667
 20
1.9528440342
 10
-26.3279326556
 20
0.2444344385
 10
-26.3439487792
 20
-1.461308949
 10
-26.3546257507
 20
-3.1643605124
 10
-26.3599633137
 20
-4.8646944512
 10
-26.3599625422
 20
-5.5405508833
  0
LWPOLYLINE
  5
232
100
AcDbEntity
  8
RACCORDO
100
AcDbPolyline
 62
253
  6
CONTINUOUS
 90
43
 70
0
 10
-25.9202968667
 20
12.0697835779
 10
-25.9181329641
 20
12.1165028957
 10
-25.9146759135
 20
12.1637602837
 10
-25.9099301348
 20
12.2114972716
 10
-25.9039018611
 20
12.2596541737
 10
-25.8965985643
 20
12.3081720678
 10
-25.8880287619
 20
12.3569929147
 10
-25.8782029249
 20
12.4060575377
 10
-25.8671334012
 20
12.4553042065
 10
-25.8548338073
 20
12.5046706377
 10
-25.8413197661
 20
12.5540953315
 10
-25.8266080286
 20
12.6035177676
 10
-25.8107162418
 20
12.6528770273
 10
-25.7936643058
 20
12.7021122713
 10
-25.7754735238
 20
12.7511626156
 10
-25.7561657787
 20
12.7999673118
 10
-25.7357651826
 20
12.8484663209
 10
-25.7142972653
 20
12.8965995871
 10
-25.6917880967
 20
12.9443069177
 10
-25.6682659674
 20
12.9915293351
 10
-25.6437602042
 20
13.0382087199
 10
-25.6183003458
 20
13.0842870811
 10
-25.5919182906
 20
13.1297076164
 10
-25.5646470111
 20
13.1744143035
 10
-25.5365193744
 20
13.2183515408
 10
-25.5075705131
 20
13.2614653227
 10
-25.4778367033
 20
13.3037023473
 10
-25.4473540796
 20
13.3450096165
 10
-25.4161609404
 20
13.3853361356
 10
-25.384296199
 20
13.4246323766
 10
-25.351798256
 20
13.4628493793
 10
-25.3187078716
 20
13.4999400447
 10
-25.2850663792
 20
13.5358587837
 10
-25.2509141317
 20
13.5705609562
 10
-25.2162934968
 20
13.6040042241
 10
-25.1812481538
 20
13.636147021
 10
-25.1458213223
 20
13.6669482717
 10
-25.1100581584
 20
13.6963695711
 10
-25.0740026602
 20
13.7243755321
 10
-25.0376969353
 20
13.7509320981
 10
-25.0011853955
 20
13.7760066386
 10
-24.9645147378
 20
13.7995681826
 10
-24.9277308566
 20
13.8215877338
  0
LWPOLYLINE
  5
233
100
AcDbEntity
  8
RACCORDO
100
AcDbPolyline
 62
253
  6
CONTINUOUS
 90
70
 70
0
 10
-24.9280107237
 20
-18.2066763202
 10
-24.722103345
 20
-18.3039006552
 10
-24.5166149405
 20
-18.3894669677
 10
-24.3119697056
 20
-18.4631976154
 10
-24.1086471901
 20
-18.5249235566
 10
-23.9070092663
 20
-18.5745389378
 10
-23.7073045594
 20
-18.6119671286
 10
-23.5098641413
 20
-18.6371073541
 10
-23.31519423
 20
-18.6498554599
 10
-23.1238016504
 20
-18.6501552008
 10
-22.9360654642
 20
-18.6379896872
 10
-22.7524038883
 20
-18.6133696426
 10
-22.5733562353
 20
-18.5763697577
 10
-22.3993990314
 20
-18.5271210719
 10
-22.230768082
 20
-18.4657237124
 10
-22.0676312049
 20
-18.3922365812
 10
-21.9101865966
 20
-18.3067016485
 10
-21.7589348977
 20
-18.2093417728
 10
-21.6144628876
 20
-18.1005502627
 10
-21.4771909566
 20
-17.980732447
 10
-21.3472164357
 20
-17.8500663383
 10
-21.2246121318
 20
-17.7086550252
 10
-21.1095786005
 20
-17.5567060993
 10
-21.0024211165
 20
-17.3945974752
 10
-20.9033746093
 20
-17.2226774021
 10
-20.8126434372
 20
-17.0412956947
 10
-20.7304189258
 20
-16.8508294921
 10
-20.6568840839
 20
-16.6517049094
 10
-20.5921962134
 20
-16.4443648183
 10
-20.5364756872
 20
-16.2292142548
 10
-20.4898247665
 20
-16.006646775
 10
-20.452351851
 20
-15.777179557
 10
-20.4241247531
 20
-15.5412278878
 10
-20.4051910298
 20
-15.2990302848
 10
-20.3956168288
 20
-15.0508153658
 10
-20.3954780165
 20
-14.7973242628
 10
-20.4047785266
 20
-14.5395964538
 10
-20.423444118
 20
-14.2785126346
 10
-20.4514167268
 20
-14.0143006889
 10
-20.4886874596
 20
-13.7470411019
 10
-20.5352624632
 20
-13.4769670359
 10
-20.5910308382
 20
-13.2049441542
 10
-20.6557813944
 20
-12.9320040536
 10
-20.7292695907
 20
-12.6590223134
 10
-20.8113880591
 20
-12.3862614348
 10
-20.9021005039
 20
-12.1138395832
 10
-21.0013479792
 20
-11.842037452
 10
-21.108852229
 20
-11.5717121133
 10
-21.2242259665
 20
-11.3038391115
 10
-21.3470881007
 20
-11.0392271193
 10
-21.4772758078
 20
-10.7781555239
 10
-21.6147005256
 20
-10.5207996935
 10
-21.7592209959
 20
-10.2674811109
 10
-21.9104322867
 20
-10.0189638329
 10
-22.0678339309
 20
-9.7760722571
 10
-22.2309621206
 20
-9.5394785915
 10
-22.3995853205
 20
-9.3094767406
 10
-22.5735277115
 20
-9.0863039303
 10
-22.7525463551
 20
-8.8703031154
 10
-22.9361708328
 20
-8.6620723842
 10
-23.1238738866
 20
-8.4622119936
 10
-23.3152424593
 20
-8.2711470099
 10
-23.5098935974
 20
-8.0892451385
 10
-23.7073196254
 20
-7.9169588488
 10
-23.9070152781
 20
-7.7546903807
 10
-24.1086490589
 20
-7.6026712873
 10
-24.311969185
 20
-7.4610764755
 10
-24.5166127349
 20
-7.3301628936
 10
-24.7221013052
 20
-7.2102405597
 10
-24.9280107237
 20
-7.1015563263
  0
LWPOLYLINE
  5
234
100
AcDbEntity
  8
RACCORDO
100
AcDbPolyline
 62
7
  6
CONTINUOUS
 90
52
 70
0
 10
-24.8000885145
 20
-18.4318540793
 10
-25.0344411532
 20
-18.3078437049
 10
-25.2673142976
 20
-18.170978453
 10
-25.4982691477
 20
-18.0216015562
 10
-25.7268756994
 20
-17.8600686482
 10
-25.952709717
 20
-17.6867483995
 10
-26.175335865
 20
-17.5020361396
 10
-26.39440483
 20
-17.3062685205
 10
-26.6094112022
 20
-17.0999366526
 10
-26.8196845445
 20
-16.8837496798
 10
-27.0247563715
 20
-16.6582821298
 10
-27.2243049106
 20
-16.4239750675
 10
-27.4178972364
 20
-16.181417017
 10
-27.6051093832
 20
-15.9312271994
 10
-27.7856406951
 20
-15.6738909011
 10
-27.9592441808
 20
-15.4098173939
 10
-28.1256082783
 20
-15.1395120138
 10
-28.2843596948
 20
-14.8636066887
 10
-28.4351637071
 20
-14.5827107962
 10
-28.5776977784
 20
-14.2974524479
 10
-28.7116887508
 20
-14.0083989892
 10
-28.8368921683
 20
-13.7160781715
 10
-28.9530502962
 20
-13.4210698181
 10
-29.0598975321
 20
-13.1240145569
 10
-29.1571958062
 20
-12.8255303831
 10
-29.2447116865
 20
-12.5262797998
 10
-29.3222562986
 20
-12.22683436
 10
-29.3896716484
 20
-11.9276662742
 10
-29.4467983059
 20
-11.629235952
 10
-29.4934275607
 20
-11.3323154996
 10
-29.52937316
 20
-11.0378195771
 10
-29.5545205417
 20
-10.746480918
 10
-29.5687995766
 20
-10.4587517899
 10
-29.5721355157
 20
-10.1750892171
 10
-29.5644435997
 20
-9.8958342461
 10
-29.5456569362
 20
-9.6218037246
 10
-29.5158019473
 20
-9.3540990648
 10
-29.4749040675
 20
-9.0931796139
 10
-29.4230164217
 20
-8.8396040263
 10
-29.360375435
 20
-8.5944855563
 10
-29.2871773257
 20
-8.3583560117
 10
-29.2035624796
 20
-8.1314925888
 10
-29.1098168412
 20
-7.9145081514
 10
-29.0061369649
 20
-7.7076925825
 10
-28.8927978994
 20
-7.511458326
 10
-28.7703263512
 20
-7.3265070035
 10
-28.639155017
 20
-7.1532054489
 10
-28.4995885025
 20
-6.9916920198
 10
-28.3520825491
 20
-6.8422546871
 10
-28.1971032537
 20
-6.7051219574
 10
-28.0351011354
 20
-6.5804555639
 10
-27.8665665774
 20
-6.4684049795
  0
LWPOLYLINE
  5
235
100
AcDbEntity
  8
RACCORDO
100
AcDbPolyline
 62
253
  6
CONTINUOUS
 90
27
 70
0
 10
-19.5243730875
 20
16.5403976032
 10
-19.5292515873
 20
16.5284417015
 10
-19.5345972289
 20
16.5167574274
 10
-19.540395819
 20
16.505376879
 10
-19.5466325041
 20
16.4943303656
 10
-19.5532900983
 20
16.4836494038
 10
-19.5603487474
 20
16.4733662784
 10
-19.5677884032
 20
16.4635100474
 10
-19.5755894393
 20
16.4541065712
 10
-19.5837307586
 20
16.4451813135
 10
-19.592190294
 20
16.4367585508
 10
-19.6009448309
 20
16.4288614782
 10
-19.6099702511
 20
16.421511881
 10
-19.6192418175
 20
16.4147298927
 10
-19.6287342867
 20
16.4085339683
 10
-19.6384217551
 20
16.4029410184
 10
-19.6482777796
 20
16.3979663164
 10
-19.6582754255
 20
16.3936234641
 10
-19.6683873614
 20
16.3899243364
 10
-19.6785859595
 20
16.3868790393
 10
-19.6888433712
 20
16.3844958876
 10
-19.6991315792
 20
16.3827813906
 10
-19.7094224978
 20
16.3817402302
 10
-19.7196880027
 20
16.3813752532
 10
-19.7299000087
 20
16.3816874537
 10
-19.7400305938
 20
16.3826759657
 10
-19.7500521196
 20
16.38433808
  0
LWPOLYLINE
  5
236
100
AcDbEntity
  8
RACCORDO
100
AcDbPolyline
 62
7
  6
CONTINUOUS
 90
14
 70
0
 10
-17.3794645525
 20
17.5281656775
 10
-17.3709791848
 20
17.5390964478
 10
-17.3630958663
 20
17.5505041563
 10
-17.3558437249
 20
17.5623548211
 10
-17.3492465492
 20
17.5746190576
 10
-17.3433330996
 20
17.5872532758
 10
-17.3381329891
 20
17.6001991824
 10
-17.3336640307
 20
17.6134121175
 10
-17.3299384896
 20
17.6268555052
 10
-17.3269692361
 20
17.6404824058
 10
-17.3247643639
 20
17.6542547578
 10
-17.3233309506
 20
17.6681292457
 10
-17.3226737545
 20
17.6820525704
 10
-17.3226272679
 20
17.686875133
  0
LINE
  5
237
100
AcDbEntity
  8
RACCORDO
100
AcDbLine
 62
253
  6
CONTINUOUS
 10
-17.9230922967
 20
16.9560486883
 11
-17.3948251249
 21
17.5990008441
  0
LINE
  5
238
100
AcDbEntity
  8
RACCORDO
100
AcDbLine
 62
7
  6
CONTINUOUS
 10
-17.9230922967
 20
16.866518222
 11
-17.3794645525
 21
17.5281656775
  0
LWPOLYLINE
  5
239
100
AcDbEntity
  8
RACCORDO
100
AcDbPolyline
 62
7
  6
CONTINUOUS
 90
30
 70
0
 10
-18.8131524794
 20
16.3918940803
 10
-18.8210316024
 20
16.3827596771
 10
-18.8292518515
 20
16.3737622361
 10
-18.8378097126
 20
16.3649232495
 10
-18.8467081432
 20
16.3562667197
 10
-18.8559345782
 20
16.3478120404
 10
-18.8654611525
 20
16.3395741477
 10
-18.8752813408
 20
16.3315753941
 10
-18.885387239
 20
16.3238375173
 10
-18.895748022
 20
16.3163749775
 10
-18.9063545433
 20
16.3092101996
 10
-18.9171964547
 20
16.3023648944
 10
-18.9282402317
 20
16.2958529227
 10
-18.9394740802
 20
16.2896964036
 10
-18.950885031
 20
16.2839167397
 10
-18.9624368515
 20
16.2785272162
 10
-18.9741149833
 20
16.2735492585
 10
-18.9859037148
 20
16.2690035613
 10
-18.9977640288
 20
16.2649027761
 10
-19.0096784765
 20
16.2612671506
 10
-19.0216284899
 20
16.2581161656
 10
-19.0335721674
 20
16.2554616293
 10
-19.0454890171
 20
16.2533219969
 10
-19.0573575843
 20
16.2517148594
 10
-19.0691331629
 20
16.2506506987
 10
-19.0807919834
 20
16.2501453933
 10
-19.0923099205
 20
16.2502137594
 10
-19.1036402732
 20
16.2508641578
 10
-19.1147455356
 20
16.2521075506
 10
-19.1256098874
 20
16.253955046
  0
LWPOLYLINE
  5
23A
100
AcDbEntity
  8
RACCORDO
100
AcDbPolyline
 62
7
  6
CONTINUOUS
 90
37
 70
0
 10
-25.1610751879
 20
13.8303605647
 10
-25.1927564659
 20
13.811311302
 10
-25.2356488501
 20
13.78365474
 10
-25.2777234035
 20
13.7543759723
 10
-25.3189634416
 20
13.7235352484
 10
-25.3593601484
 20
13.6911861048
 10
-25.3988996218
 20
13.6573807737
 10
-25.4375675534
 20
13.6221708873
 10
-25.4753487834
 20
13.5856049044
 10
-25.5122182061
 20
13.5477378866
 10
-25.5481589419
 20
13.5086176895
 10
-25.5831519277
 20
13.4682896326
 10
-25.6171637278
 20
13.4268160784
 10
-25.6501735149
 20
13.3842444256
 10
-25.682159362
 20
13.3406193843
 10
-25.7130837495
 20
13.296009683
 10
-25.7429230698
 20
13.2504627771
 10
-25.771653867
 20
13.2040248954
 10
-25.7992372126
 20
13.1567687854
 10
-25.8256483008
 20
13.1087419702
 10
-25.8508627602
 20
13.0599929366
 10
-25.8748410329
 20
13.0105979428
 10
-25.897558415
 20
12.9606054457
 10
-25.9189901574
 20
12.9100644121
 10
-25.939098198
 20
12.8590520394
 10
-25.9578587851
 20
12.807616673
 10
-25.9752462058
 20
12.7558069847
 10
-25.9912256138
 20
12.7036985211
 10
-26.0057731307
 20
12.6513383482
 10
-26.0188619709
 20
12.5987734987
 10
-26.0304610363
 20
12.546074018
 10
-26.0405443603
 20
12.493286198
 10
-26.049083786
 20
12.4404551763
 10
-26.0560495665
 20
12.3876384117
 10
-26.0614114834
 20
12.3348801092
 10
-26.0651391302
 20
12.2822253911
 10
-26.066779475
 20
12.2448180964
  0
LINE
  5
23B
100
AcDbEntity
  8
RACCORDO
100
AcDbLine
 62
7
  6
CONTINUOUS
 10
-25.1610849042
 20
13.8303551269
 11
-20.5721100774
 21
16.5061477688
  0
LINE
  5
23C
100
AcDbEntity
  8
RACCORDO
100
AcDbLine
 62
253
  6
CONTINUOUS
 10
-20.5721100774
 20
16.3613135923
 11
-24.9277308566
 21
13.8215877338
  0
LWPOLYLINE
  5
23D
100
AcDbEntity
  8
RACCORDO
100
AcDbPolyline
 62
253
  6
CONTINUOUS
 90
17
 70
0
 10
-25.1610752868
 20
13.8303607343
 10
-25.1586262419
 20
13.8317625937
 10
-25.1459897707
 20
13.8382143535
 10
-25.1328175799
 20
13.8436709962
 10
-25.1191394739
 20
13.8481201752
 10
-25.1049864021
 20
13.8515518234
 10
-25.0903903884
 20
13.853958176
 10
-25.0753844591
 20
13.8553337882
 10
-25.0600025679
 20
13.8556755474
 10
-25.0442795193
 20
13.8549826803
 10
-25.0282508896
 20
13.8532567546
 10
-25.0119529466
 20
13.8505016757
 10
-24.9954225675
 20
13.8467236773
 10
-24.9786971554
 20
13.8419313079
 10
-24.9618145546
 20
13.8361354111
 10
-24.9448129653
 20
13.8293491013
 10
-24.9277308566
 20
13.8215877338
  0
LINE
  5
23E
100
AcDbEntity
  8
RACCORDO
100
AcDbLine
 62
7
  6
CONTINUOUS
 10
-19.5560434718
 20
18.6663994493
 11
-21.1392171371
 21
17.8542013912
  0
LINE
  5
23F
100
AcDbEntity
  8
RACCORDO
100
AcDbLine
 62
253
  6
CONTINUOUS
 10
-19.4433748678
 20
18.6597375134
 11
-21.026131471
 21
17.847753416
  0
LINE
  5
240
100
AcDbEntity
  8
RACCORDO
100
AcDbLine
 62
253
  6
CONTINUOUS
 10
-18.0998660003
 20
17.9879830796
 11
-19.7011467912
 21
17.1852610761
  0
LINE
  5
241
100
AcDbEntity
  8
RACCORDO
100
AcDbLine
 62
253
  6
CONTINUOUS
 10
-17.9230922967
 20
17.6830935408
 11
-19.5243730875
 21
16.8803715373
  0
LINE
  5
242
100
AcDbEntity
  8
RACCORDO
100
AcDbLine
 62
7
  6
CONTINUOUS
 10
-19.5543070587
 20
18.6672676702
 11
-19.5560434698
 21
18.6663994503
  0
LINE
  5
243
100
AcDbEntity
  8
RACCORDO
100
AcDbLine
 62
253
  6
CONTINUOUS
 10
-17.5715988286
 20
18.2514218996
 11
-18.0998660003
 21
17.9879830796
  0
LINE
  5
244
100
AcDbEntity
  8
RACCORDO
100
AcDbLine
 62
253
  6
CONTINUOUS
 10
-17.3948251249
 20
17.9465323608
 11
-17.9230922967
 21
17.6830935408
  0
LINE
  5
245
100
AcDbEntity
  8
RACCORDO
100
AcDbLine
 62
7
  6
CONTINUOUS
 10
-19.0194371002
 20
18.927819771
 11
-19.5543070579
 21
18.6672676706
  0
LINE
  5
246
100
AcDbEntity
  8
RACCORDO
100
AcDbLine
 62
253
  6
CONTINUOUS
 10
-18.9089249891
 20
18.9200849799
 11
-19.4433748678
 21
18.6597375134
  0
LWPOLYLINE
  5
247
100
AcDbEntity
  8
RACCORDO
100
AcDbPolyline
 62
7
  6
CONTINUOUS
 90
23
 70
0
 10
-21.2751030317
 20
17.2917910146
 10
-21.2747846237
 20
17.2791774623
 10
-21.273826007
 20
17.2665545141
 10
-21.2722242327
 20
17.2539609739
 10
-21.2699800728
 20
17.2414399005
 10
-21.2670960328
 20
17.2290264755
 10
-21.2635742086
 20
17.2167477085
 10
-21.2594208434
 20
17.2046407817
 10
-21.2546459885
 20
17.1927454144
 10
-21.2492581937
 20
17.181091135
 10
-21.2432698331
 20
17.1697121601
 10
-21.2366977919
 20
17.1586457653
 10
-21.2295583581
 20
17.1479229518
 10
-21.2218685651
 20
17.1375725825
 10
-21.2136512453
 20
17.1276277693
 10
-21.2049322116
 20
17.118120447
 10
-21.1957309955
 20
17.1090723842
 10
-21.186074546
 20
17.1005106665
 10
-21.1760001442
 20
17.0924670034
 10
-21.1655275944
 20
17.0849554709
 10
-21.1546849044
 20
17.0779954621
 10
-21.1435211546
 20
17.0716157477
 10
-21.1369001046
 20
17.0681810542
  0
LWPOLYLINE
  5
248
100
AcDbEntity
  8
RACCORDO
100
AcDbPolyline
 62
253
  6
CONTINUOUS
 90
19
 70
0
 10
-21.201879727
 20
17.2034026669
 10
-21.2016608558
 20
17.1927416747
 10
-21.2010043001
 20
17.1823202582
 10
-21.1999109624
 20
17.1721646808
 10
-21.1983825126
 20
17.1622988267
 10
-21.196422194
 20
17.15274963
 10
-21.1940356109
 20
17.1435463939
 10
-21.1912292781
 20
17.1347136673
 10
-21.188009761
 20
17.1262716265
 10
-21.1843849919
 20
17.118241112
 10
-21.1803639088
 20
17.1106420267
 10
-21.1759565356
 20
17.1034934049
 10
-21.1711739078
 20
17.0968131773
 10
-21.1660279349
 20
17.0906179763
 10
-21.160531406
 20
17.084923196
 10
-21.1546980627
 20
17.0797430597
 10
-21.1485424739
 20
17.0750904683
 10
-21.1420799186
 20
17.0709769358
 10
-21.1369064305
 20
17.0681842168
  0
LINE
  5
249
100
AcDbEntity
  8
RACCORDO
100
AcDbLine
 62
7
  6
CONTINUOUS
 10
-21.2751030317
 20
17.6317649487
 11
-21.2751030317
 21
17.2917910146
  0
LINE
  5
24A
100
AcDbEntity
  8
RACCORDO
100
AcDbLine
 62
253
  6
CONTINUOUS
 10
-21.201879727
 20
17.5433766011
 11
-21.201879727
 21
17.2034026669
  0
LINE
  5
24B
100
AcDbEntity
  8
RACCORDO
100
AcDbLine
 62
7
  6
CONTINUOUS
 10
-20.5721100774
 20
16.7857860403
 11
-20.5721100774
 21
16.3318119386
  0
LINE
  5
24C
100
AcDbEntity
  8
RACCORDO
100
AcDbLine
 62
253
  6
CONTINUOUS
 10
-20.4988867727
 20
16.7491743879
 11
-20.4988867727
 21
16.2401002437
  0
LWPOLYLINE
  5
24D
100
AcDbEntity
  8
RACCORDO
100
AcDbPolyline
 62
253
  6
CONTINUOUS
 90
31
 70
0
 10
-21.201879727
 20
17.5433766011
 10
-21.201640372
 20
17.5547591012
 10
-21.2009223668
 20
17.5663573269
 10
-21.1997267767
 20
17.5781401878
 10
-21.1980555793
 20
17.5900784552
 10
-21.1959126444
 20
17.6021375062
 10
-21.1933046889
 20
17.6142772101
 10
-21.1902395169
 20
17.6264619109
 10
-21.1867249626
 20
17.6386610363
 10
-21.1827704813
 20
17.6508417083
 10
-21.1783867175
 20
17.6629709962
 10
-21.1735856379
 20
17.67501566
 10
-21.1683804324
 20
17.6869425708
 10
-21.1627853435
 20
17.6987191223
 10
-21.1568155405
 20
17.710313412
 10
-21.1504872186
 20
17.7216939825
 10
-21.1438175675
 20
17.7328299001
 10
-21.13682476
 20
17.7436908036
 10
-21.1295278513
 20
17.7542470882
 10
-21.1219467088
 20
17.7644700084
 10
-21.1141019576
 20
17.7743317488
 10
-21.1060149514
 20
17.7838054612
 10
-21.0977076992
 20
17.7928653591
 10
-21.0892028124
 20
17.8014867787
 10
-21.0805234473
 20
17.8096462443
 10
-21.0716932214
 20
17.8173215508
 10
-21.062736175
 20
17.8244917999
 10
-21.0536767158
 20
17.8311374543
 10
-21.0445395123
 20
17.837240423
 10
-21.0353494259
 20
17.8427841054
 10
-21.026131471
 20
17.847753416
  0
LWPOLYLINE
  5
24E
100
AcDbEntity
  8
RACCORDO
100
AcDbPolyline
 62
253
  6
CONTINUOUS
 90
31
 70
0
 10
-19.8768950471
 20
16.8808842611
 10
-19.8766556922
 20
16.8922667613
 10
-19.875937687
 20
16.903864987
 10
-19.8747420969
 20
16.9156478479
 10
-19.8730708994
 20
16.9275861153
 10
-19.8709279645
 20
16.9396451663
 10
-19.8683200091
 20
16.9517848702
 10
-19.8652548371
 20
16.963969571
 10
-19.8617402828
 20
16.9761686964
 10
-19.8577858015
 20
16.9883493684
 10
-19.8534020377
 20
17.0004786563
 10
-19.8486009581
 20
17.0125233201
 10
-19.8433957526
 20
17.0244502309
 10
-19.8378006637
 20
17.0362267824
 10
-19.8318308607
 20
17.0478210721
 10
-19.8255025388
 20
17.0592016426
 10
-19.8188328877
 20
17.0703375602
 10
-19.8118400802
 20
17.0811984637
 10
-19.8045431715
 20
17.0917547483
 10
-19.796962029
 20
17.1019776685
 10
-19.7891172778
 20
17.1118394089
 10
-19.7810302715
 20
17.1213131213
 10
-19.7727230193
 20
17.1303730192
 10
-19.7642181326
 20
17.1389944388
 10
-19.7555387675
 20
17.1471539044
 10
-19.7467085415
 20
17.1548292109
 10
-19.7377514952
 20
17.16199946
 10
-19.728692036
 20
17.1686451144
 10
-19.7195548325
 20
17.1747480831
 10
-19.7103647461
 20
17.1802917655
 10
-19.7011467912
 20
17.1852610761
  0
LWPOLYLINE
  5
24F
100
AcDbEntity
  8
RACCORDO
100
AcDbPolyline
 62
7
  6
CONTINUOUS
 90
20
 70
0
 10
-21.2751030317
 20
17.6317649487
 10
-21.2746991596
 20
17.6459695607
 10
-21.273480548
 20
17.6602009846
 10
-21.2714401605
 20
17.6744031824
 10
-21.268575409
 20
17.6885205773
 10
-21.2648890867
 20
17.7024943465
 10
-21.2603897943
 20
17.7162642937
 10
-21.2550912009
 20
17.7297723051
 10
-21.2490094594
 20
17.7429670689
 10
-21.242161978
 20
17.7558029019
 10
-21.2345713075
 20
17.7682312132
 10
-21.226264921
 20
17.7802031319
 10
-21.217268513
 20
17.7916787623
 10
-21.2076072047
 20
17.8026222772
 10
-21.1973179323
 20
17.8129886446
 10
-21.1864436614
 20
17.8227340593
 10
-21.1750094978
 20
17.8318350647
 10
-21.1630573416
 20
17.8402562155
 10
-21.1506547101
 20
17.8479518494
 10
-21.1392099791
 20
17.854205063
  0
LINE
  5
250
100
AcDbEntity
  8
RACCORDO
100
AcDbLine
 62
7
  6
CONTINUOUS
 10
-17.9230922967
 20
16.0809428798
 11
-18.8131524794
 21
15.5842619585
  0
LINE
  5
251
100
AcDbEntity
  8
RACCORDO
100
AcDbLine
 62
7
  6
CONTINUOUS
 10
-15.5542725783
 20
15.7508244665
 11
-15.2007311891
 21
15.9321978913
  0
LINE
  5
252
100
AcDbEntity
  8
RACCORDO
100
AcDbLine
 62
7
  6
CONTINUOUS
 10
-10.2005092351
 20
19.2212469089
 11
-16.5150495617
 21
16.0764706043
  0
LINE
  5
253
100
AcDbEntity
  8
ASSI
100
AcDbLine
 62
7
  6
CONTINUOUS
 10
-9.2589773485
 20
18.2288761395
 11
-13.8572283048
 21
15.962514842
  0
LINE
  5
254
100
AcDbEntity
  8
ASSI
100
AcDbLine
 62
7
  6
CONTINUOUS
 10
-15.2007311891
 20
15.9321978913
 11
-9.8645077831
 21
18.5316413568
  0
LINE
  5
255
100
AcDbEntity
  8
RACCORDO
100
AcDbLine
 62
7
  6
CONTINUOUS
 10
8.5731370209
 20
27.3964044205
 11
-9.2491757053
 21
18.9914511121
  0
LINE
  5
256
100
AcDbEntity
  8
ASSI
100
AcDbLine
 62
7
  6
CONTINUOUS
 10
8.5731370209
 20
27.3964044205
 11
-9.2491757053
 21
18.9914511121
  0
LINE
  5
257
100
AcDbEntity
  8
RACCORDO
100
AcDbLine
 62
253
  6
CONTINUOUS
 10
9.0120217714
 20
27.3640014855
 11
-9.0027981322
 21
18.8682623256
  0
LINE
  5
258
100
AcDbEntity
  8
ASSI
100
AcDbLine
 62
253
  6
CONTINUOUS
 10
9.0120217714
 20
27.3640014855
 11
-9.0027981322
 21
18.8682623256
  0
LWPOLYLINE
  5
259
100
AcDbEntity
  8
ASSI
100
AcDbPolyline
 62
7
  6
CONTINUOUS
 90
7
 70
0
 10
-9.210101317
 20
18.2488047066
 10
-9.2181840681
 20
18.246089336
 10
-9.2262921209
 20
18.2431315425
 10
-9.2344254753
 20
18.2399313261
 10
-9.2425841314
 20
18.2364886868
 10
-9.2507680891
 20
18.2328036246
 10
-9.2589773485
 20
18.2288761395
  0
LWPOLYLINE
  5
25A
100
AcDbEntity
  8
RACCORDO
100
AcDbPolyline
 62
253
  6
CONTINUOUS
 90
31
 70
0
 10
-6.1600549231
 20
-31.4413656184
 10
-6.1649389402
 20
-31.4337445213
 10
-6.1702895436
 20
-31.4259014656
 10
-6.176092122
 20
-31.417857869
 10
-6.1823308296
 20
-31.4096356969
 10
-6.18898863
 20
-31.4012574025
 10
-6.1960473419
 20
-31.3927458649
 10
-6.2034876897
 20
-31.3841243275
 10
-6.2112893551
 20
-31.3754163338
 10
-6.2194310336
 20
-31.3666456637
 10
-6.2278904919
 20
-31.3578362678
 10
-6.2366446289
 20
-31.349012203
 10
-6.2456695391
 20
-31.3401975657
 10
-6.2549405771
 20
-31.331416427
 10
-6.2644324258
 20
-31.3226927664
 10
-6.274119165
 20
-31.3140504062
 10
-6.2839743421
 20
-31.305512947
 10
-6.2939710447
 20
-31.2971037028
 10
-6.304081974
 20
-31.2888456374
 10
-6.3142795191
 20
-31.280761302
 10
-6.3245358326
 20
-31.2728727732
 10
-6.3348229067
 20
-31.2652015928
 10
-6.3451126495
 20
-31.2577687092
 10
-6.355376962
 20
-31.2505944202
 10
-6.3655878144
 20
-31.2436983172
 10
-6.375717323
 20
-31.2370992319
 10
-6.3857378263
 20
-31.2308151852
 10
-6.3956219603
 20
-31.2248633375
 10
-6.4053427337
 20
-31.2192599419
 10
-6.4148736008
 20
-31.2140203002
 10
-6.4241885351
 20
-31.2091587208
  0
LWPOLYLINE
  5
25B
100
AcDbEntity
  8
RACCORDO
100
AcDbPolyline
 62
253
  6
CONTINUOUS
 90
31
 70
0
 10
-19.5243730875
 20
16.8803715373
 10
-19.5246667894
 20
16.8917697557
 10
-19.525439718
 20
16.9033867367
 10
-19.5266906622
 20
16.9151911208
 10
-19.5284175073
 20
16.9271534508
 10
-19.5306161996
 20
16.9392387541
 10
-19.5332797733
 20
16.9514064227
 10
-19.5364001917
 20
16.963620415
 10
-19.5399694308
 20
16.9758498957
 10
-19.5439778226
 20
16.9880616784
 10
-19.5484145032
 20
17.0002225148
 10
-19.5532672694
 20
17.0122988203
 10
-19.5585226846
 20
17.0242571163
 10
-19.5641662602
 20
17.0360644637
 10
-19.5701825845
 20
17.0476886442
 10
-19.5765552149
 20
17.0590978851
 10
-19.5832667133
 20
17.0702609453
 10
-19.590298657
 20
17.0811471634
 10
-19.597631741
 20
17.0917266439
 10
-19.6052458508
 20
17.101970364
 10
-19.6131201185
 20
17.1118502457
 10
-19.6212329512
 20
17.1213391925
 10
-19.629562106
 20
17.1304111849
 10
-19.6380847436
 20
17.1390413432
 10
-19.6467774872
 20
17.1472059933
 10
-19.655616507
 20
17.154882751
 10
-19.6645775606
 20
17.1620505596
 10
-19.6736360504
 20
17.168689745
 10
-19.6827671283
 20
17.1747821
 10
-19.6919457646
 20
17.1803109293
 10
-19.7011467912
 20
17.1852610761
  0
LWPOLYLINE
  5
25C
100
AcDbEntity
  8
RACCORDO
100
AcDbPolyline
 62
253
  6
CONTINUOUS
 90
19
 70
0
 10
-19.8768950471
 20
16.540910327
 10
-19.876676176
 20
16.5302493348
 10
-19.8760196202
 20
16.5198279183
 10
-19.8749262826
 20
16.5096723409
 10
-19.8733978327
 20
16.4998064868
 10
-19.8714375142
 20
16.4902572901
 10
-19.8690509311
 20
16.481054054
 10
-19.8662445983
 20
16.4722213274
 10
-19.8630250812
 20
16.4637792866
 10
-19.8594003121
 20
16.4557487721
 10
-19.855379229
 20
16.4481496868
 10
-19.8509718558
 20
16.441001065
 10
-19.846189228
 20
16.4343208374
 10
-19.8410432551
 20
16.4281256364
 10
-19.8355467262
 20
16.4224308561
 10
-19.8297133829
 20
16.4172507198
 10
-19.8235577941
 20
16.4125981284
 10
-19.8170952388
 20
16.4084845959
 10
-19.8119217507
 20
16.4056918769
  0
LWPOLYLINE
  5
25D
100
AcDbEntity
  8
RACCORDO
100
AcDbPolyline
 62
7
  6
CONTINUOUS
 90
34
 70
0
 10
-17.9230922967
 20
17.6830935408
 10
-17.9232923527
 20
17.6934953494
 10
-17.9238925901
 20
17.7040737175
 10
-17.9248915481
 20
17.7148047356
 10
-17.9262867837
 20
17.7256641887
 10
-17.9280751319
 20
17.7366274812
 10
-17.9302527133
 20
17.7476696921
 10
-17.9328145378
 20
17.758765839
 10
-17.9357547121
 20
17.7698908324
 10
-17.939066707
 20
17.7810194029
 10
-17.9427429842
 20
17.7921263607
 10
-17.9467751444
 20
17.8031865819
 10
-17.9511541417
 20
17.8141749631
 10
-17.9558700423
 20
17.8250666207
 10
-17.9609121123
 20
17.8358369078
 10
-17.9662689729
 20
17.8464613991
 10
-17.9719284972
 20
17.8569160236
 10
-17.9778778351
 20
17.8671771137
 10
-17.9841035069
 20
17.8772214201
 10
-17.9905914394
 20
17.887026175
 10
-17.9973269282
 20
17.8965691721
 10
-18.0042946675
 20
17.9058288124
 10
-18.0114789245
 20
17.9147840948
 10
-18.0188634402
 20
17.9234147268
 10
-18.0264313945
 20
17.9317011995
 10
-18.034165716
 20
17.9396247068
 10
-18.0420489219
 20
17.9471672829
 10
-18.0500630214
 20
17.9543119066
 10
-18.0581899518
 20
17.9610423494
 10
-18.0664113628
 20
17.9673433379
 10
-18.0747084596
 20
17.9732006852
 10
-18.0830624529
 20
17.978601122
 10
-18.0914546021
 20
17.9835323266
 10
-18.0998660003
 20
17.9879830796
  0
LWPOLYLINE
  5
25E
100
AcDbEntity
  8
RACCORDO
100
AcDbPolyline
 62
253
  6
CONTINUOUS
 90
31
 70
0
 10
-17.3948251249
 20
17.9465323608
 10
-17.395015373
 20
17.9580130232
 10
-17.3956926375
 20
17.969703178
 10
-17.3968550644
 20
17.981570772
 10
-17.398499471
 20
17.9935832761
 10
-17.4006213506
 20
18.005707741
 10
-17.4032148795
 20
18.0179108862
 10
-17.406272943
 20
18.0301592419
 10
-17.4097871561
 20
18.0424192301
 10
-17.4137478778
 20
18.054657222
 10
-17.4181442445
 20
18.0668396585
 10
-17.4229641997
 20
18.0789331375
 10
-17.4281945228
 20
18.0909044948
 10
-17.4338208765
 20
18.1027209193
 10
-17.4398278251
 20
18.1143499972
 10
-17.44619887
 20
18.1257597994
 10
-17.4529165067
 20
18.1369189988
 10
-17.4599623362
 20
18.1477970507
 10
-17.4673170987
 20
18.1583642242
 10
-17.4749607311
 20
18.168591672
 10
-17.4828721842
 20
18.1784512098
 10
-17.4910295184
 20
18.1879155216
 10
-17.4994101846
 20
18.196958521
 10
-17.5079913444
 20
18.2055556378
 10
-17.516749704
 20
18.2136835612
 10
-17.5256632141
 20
18.2213216204
 10
-17.5347055345
 20
18.2284470393
 10
-17.5438461033
 20
18.2350363111
 10
-17.5530577761
 20
18.2410711979
 10
-17.5623171399
 20
18.2465376786
 10
-17.5715988286
 20
18.2514218996
  0
LINE
  5
25F
100
AcDbEntity
  8
RACCORDO
100
AcDbLine
 62
253
  6
CONTINUOUS
 10
-19.8768950471
 20
16.540910327
 11
-19.8768950471
 21
16.8808842611
  0
LINE
  5
260
100
AcDbEntity
  8
RACCORDO
100
AcDbLine
 62
253
  6
CONTINUOUS
 10
-19.5243730875
 20
16.5403976032
 11
-19.5243730875
 21
16.8803715373
  0
LINE
  5
261
100
AcDbEntity
  8
RACCORDO
100
AcDbLine
 62
253
  6
CONTINUOUS
 10
-19.165674439
 20
16.2623146999
 11
-19.165674439
 21
15.5734940769
  0
LINE
  5
262
100
AcDbEntity
  8
RACCORDO
100
AcDbLine
 62
253
  6
CONTINUOUS
 10
-18.8131524794
 20
16.3918940803
 11
-18.8131524794
 21
15.5842619585
  0
LINE
  5
263
100
AcDbEntity
  8
RACCORDO
100
AcDbLine
 62
7
  6
CONTINUOUS
 10
-17.9230922967
 20
16.0809428798
 11
-17.9230922967
 21
17.6830935408
  0
LINE
  5
264
100
AcDbEntity
  8
RACCORDO
100
AcDbLine
 62
253
  6
CONTINUOUS
 10
-17.3948251249
 20
17.9465323608
 11
-17.3948251249
 21
17.5990008441
  0
LINE
  5
265
100
AcDbEntity
  8
RACCORDO
100
AcDbLine
 62
7
  6
CONTINUOUS
 10
-17.3226272679
 20
18.034404993
 11
-17.3226272679
 21
17.6868734763
  0
LWPOLYLINE
  5
266
100
AcDbEntity
  8
RACCORDO
100
AcDbPolyline
 62
253
  6
CONTINUOUS
 90
16
 70
0
 10
-17.3226272679
 20
18.034404993
 10
-17.3229285384
 20
18.0282701641
 10
-17.323908257
 20
18.021767216
 10
-17.325564946
 20
18.0152986517
 10
-17.3278940976
 20
18.008882085
 10
-17.3308893778
 20
18.0025349739
 10
-17.3345426367
 20
17.9962745971
 10
-17.3388439348
 20
17.9901179939
 10
-17.3437815673
 20
17.9840819235
 10
-17.3493420926
 20
17.978182821
 10
-17.3555103817
 20
17.9724367396
 10
-17.362269643
 20
17.9668593239
 10
-17.3696014569
 20
17.9614657717
 10
-17.377485855
 20
17.9562707672
 10
-17.3859013808
 20
17.9512884437
 10
-17.3948251249
 20
17.9465323608
  0
LINE
  5
267
100
AcDbEntity
  8
RACCORDO
100
AcDbLine
 62
253
  6
CONTINUOUS
 10
-17.3226272679
 20
17.6868734763
 11
-17.3226737545
 21
17.6820525704
  0
LWPOLYLINE
  5
268
100
AcDbEntity
  8
RACCORDO
100
AcDbPolyline
 62
253
  6
CONTINUOUS
 90
15
 70
0
 10
-17.3229315844
 20
17.680707731
 10
-17.3239143837
 20
17.6742055914
 10
-17.3255739891
 20
17.6677379242
 10
-17.3279059086
 20
17.6613222714
 10
-17.3309037844
 20
17.6549761508
 10
-17.3345593594
 20
17.6487169862
 10
-17.3388625608
 20
17.642561904
 10
-17.3438016875
 20
17.6365275387
 10
-17.3493634006
 20
17.6306301532
 10
-17.3555332208
 20
17.624885222
 10
-17.362293828
 20
17.6193089811
 10
-17.3696247104
 20
17.6139180761
 10
-17.3775047063
 20
17.6087274816
 10
-17.3859126013
 20
17.6037506255
 10
-17.3948251249
 20
17.5990008441
  0
LWPOLYLINE
  5
269
100
AcDbEntity
  8
RACCORDO
100
AcDbPolyline
 62
7
  6
CONTINUOUS
 90
5
 70
0
 10
-15.6938468532
 20
15.6082109738
 10
-15.6958833965
 20
15.5990895759
 10
-15.6973977553
 20
15.5892559783
 10
-15.698354139
 20
15.5787978184
 10
-15.6986861253
 20
15.5672520001
  0
LWPOLYLINE
  5
26A
100
AcDbEntity
  8
RACCORDO
100
AcDbPolyline
 62
253
  6
CONTINUOUS
 90
47
 70
0
 10
-23.7655099603
 20
-3.9427365942
 10
-23.7103911304
 20
-3.8441230878
 10
-23.6442118552
 20
-3.7340056907
 10
-23.575224272
 20
-3.6271320644
 10
-23.5035471107
 20
-3.5236834422
 10
-23.4291781458
 20
-3.4236669347
 10
-23.3521228706
 20
-3.3270770586
 10
-23.2725119152
 20
-3.2340763114
 10
-23.1903420687
 20
-3.1446706516
 10
-23.1056199824
 20
-3.0588558249
 10
-23.0184913606
 20
-2.9767791452
 10
-22.9289529508
 20
-2.8984473733
 10
-22.8370115561
 20
-2.8238554986
 10
-22.7428282041
 20
-2.7531332937
 10
-22.6464023094
 20
-2.6862894326
 10
-22.5477380505
 20
-2.6233170049
 10
-22.4470037949
 20
-2.5643224988
 10
-22.3441995968
 20
-2.5093138297
 10
-22.2393289554
 20
-2.4582848198
 10
-22.1325655469
 20
-2.4113208852
 10
-22.0239050526
 20
-2.3684283136
 10
-21.9133552284
 20
-2.3296024924
 10
-21.8011079635
 20
-2.2949125352
 10
-21.6871567012
 20
-2.2643664118
 10
-21.5715112606
 20
-2.2379577376
 10
-21.4543881613
 20
-2.2157341257
 10
-21.3357929297
 20
-2.1977057431
 10
-21.2157230677
 20
-2.1838638905
 10
-21.0943830803
 20
-2.1742278911
 10
-20.9717864982
 20
-2.1688033097
 10
-20.8479225052
 20
-2.1675858941
 10
-20.7229590578
 20
-2.1705802284
 10
-20.5968867802
 20
-2.177790526
 10
-20.4697173848
 20
-2.1892137013
 10
-20.3416504064
 20
-2.204843363
 10
-20.212656968
 20
-2.2246943704
 10
-20.0827678789
 20
-2.2487527955
 10
-19.9522721339
 20
-2.2769690333
 10
-19.8211637274
 20
-2.3093611304
 10
-19.6894501607
 20
-2.3459117603
 10
-19.557440595
 20
-2.3865182122
 10
-19.4251337738
 20
-2.4311981793
 10
-19.2925319657
 20
-2.4799344553
 10
-19.1599495008
 20
-2.532571924
 10
-19.0274913241
 20
-2.589058961
 10
-18.8950529955
 20
-2.6494474333
 10
-18.7626346405
 20
-2.7137374013
  0
LWPOLYLINE
  5
26B
100
AcDbEntity
  8
RACCORDO
100
AcDbPolyline
 62
253
  6
CONTINUOUS
 90
18
 70
0
 10
-23.5265726385
 20
-3.7955851413
 10
-23.5135120729
 20
-3.7738601865
 10
-23.4454089282
 20
-3.6683973563
 10
-23.3746109297
 20
-3.5662602647
 10
-23.3011580738
 20
-3.4675070048
 10
-23.225091213
 20
-3.3721925967
 10
-23.146457736
 20
-3.2803716238
 10
-23.0653006303
 20
-3.192095151
 10
-22.9816660304
 20
-3.1074140469
 10
-22.8956079996
 20
-3.0263798068
 10
-22.8071737207
 20
-2.9490374697
 10
-22.7164134929
 20
-2.8754315468
 10
-22.6233883035
 20
-2.8056091997
 10
-22.528151851
 20
-2.7396104579
 10
-22.4307562463
 20
-2.6774711348
 10
-22.3312620901
 20
-2.6192285997
 10
-22.2297267055
 20
-2.5649162674
 10
-22.1484332265
 20
-2.524962104
  0
LINE
  5
26C
100
AcDbEntity
  8
RACCORDO
100
AcDbLine
 62
7
  6
CONTINUOUS
 10
-10.8098839561
 20
14.4388426676
 11
-9.9700090332
 21
15.2785384048
  0
LINE
  5
26D
100
AcDbEntity
  8
ASSI
100
AcDbLine
 62
7
  6
CONTINUOUS
 10
-10.8098839561
 20
14.4388426676
 11
-9.9700090332
 21
15.2785384048
  0
LINE
  5
26E
100
AcDbEntity
  8
0
100
AcDbLine
 62
253
  6
CONTINUOUS
 10
-10.7566829213
 20
14.4122421502
 11
-9.8715809518
 21
15.2812417646
  0
LINE
  5
26F
100
AcDbEntity
  8
ASSI
100
AcDbLine
 62
253
  6
CONTINUOUS
 10
-10.7566829213
 20
14.4122421502
 11
-9.8715809518
 21
15.2812417646
  0
LWPOLYLINE
  5
270
100
AcDbEntity
  8
RACCORDO
100
AcDbPolyline
 62
7
  6
CONTINUOUS
 90
3
 70
0
 10
-9.9700274199
 20
15.2785279431
 10
-9.9650056211
 20
15.282966244
 10
-9.9573271931
 20
15.2879795151
  0
LWPOLYLINE
  5
271
100
AcDbEntity
  8
ASSI
100
AcDbPolyline
 62
7
  6
CONTINUOUS
 90
3
 70
0
 10
-9.9700274199
 20
15.2785279431
 10
-9.9650056211
 20
15.282966244
 10
-9.9573271931
 20
15.2879795151
  0
LINE
  5
272
100
AcDbEntity
  8
RACCORDO
100
AcDbLine
 62
7
  6
CONTINUOUS
 10
-9.9573502602
 20
15.2879670699
 11
-9.6354025374
 21
15.4616652524
  0
LINE
  5
273
100
AcDbEntity
  8
ASSI
100
AcDbLine
 62
7
  6
CONTINUOUS
 10
-9.9573502602
 20
15.2879670699
 11
-9.6354025374
 21
15.4616652524
  0
LINE
  5
274
100
AcDbEntity
  8
RACCORDO
100
AcDbLine
 62
253
  6
CONTINUOUS
 10
-9.870642272
 20
15.2807724247
 11
-9.5438984788
 21
15.4570581972
  0
LINE
  5
275
100
AcDbEntity
  8
ASSI
100
AcDbLine
 62
253
  6
CONTINUOUS
 10
-9.870642272
 20
15.2807724247
 11
-9.5438984788
 21
15.4570581972
  0
LINE
  5
276
100
AcDbEntity
  8
RACCORDO
100
AcDbLine
 62
7
  6
CONTINUOUS
 10
-9.6354019782
 20
15.4616655106
 11
-9.6312355961
 21
15.4637489942
  0
LINE
  5
277
100
AcDbEntity
  8
ASSI
100
AcDbLine
 62
7
  6
CONTINUOUS
 10
-9.6354019782
 20
15.4616655106
 11
-9.6312355961
 21
15.4637489942
  0
LINE
  5
278
100
AcDbEntity
  8
0
100
AcDbLine
 62
7
  6
CONTINUOUS
 10
-10.2509837208
 20
15.9520221745
 11
-9.5438769396
 21
16.3055755651
  0
LINE
  5
279
100
AcDbEntity
  8
0
100
AcDbLine
 62
7
  6
CONTINUOUS
 10
-7.7925390425
 20
16.827691123
 11
-9.190323549
 21
16.1287988698
  0
LINE
  5
27A
100
AcDbEntity
  8
DRAFT
100
AcDbLine
 62
7
  6
CONTINUOUS
 10
12.1289459038
 20
25.5286832504
 11
11.4218391226
 21
25.1751298598
  0
LINE
  5
27B
100
AcDbEntity
  8
ASSI
100
AcDbLine
 62
7
  6
CONTINUOUS
 10
12.1289459038
 20
25.5286832504
 11
11.4218391226
 21
25.1751298598
  0
LINE
  5
27C
100
AcDbEntity
  8
DRAFT
100
AcDbLine
 62
7
  6
CONTINUOUS
 10
-9.5438769396
 20
16.8581337544
 11
-9.210101317
 21
17.0214541096
  0
LINE
  5
27D
100
AcDbEntity
  8
RACCORDO
100
AcDbLine
 62
7
  6
CONTINUOUS
 10
-7.1335432911
 20
17.6877639369
 11
-9.190323549
 21
16.6813570591
  0
LWPOLYLINE
  5
27E
100
AcDbEntity
  8
RACCORDO
100
AcDbPolyline
 62
7
  6
CONTINUOUS
 90
4
 70
0
 10
-9.9573271931
 20
15.2879795151
 10
-9.9532242991
 20
15.2899802854
 10
-9.9396036008
 20
15.2940955344
 10
-9.9242602184
 20
15.2952675046
  0
LWPOLYLINE
  5
27F
100
AcDbEntity
  8
ASSI
100
AcDbPolyline
 62
7
  6
CONTINUOUS
 90
4
 70
0
 10
-9.9573271931
 20
15.2879795151
 10
-9.9532242991
 20
15.2899802854
 10
-9.9396036008
 20
15.2940955344
 10
-9.9242602184
 20
15.2952675046
  0
LINE
  5
280
100
AcDbEntity
  8
RACCORDO
100
AcDbLine
 62
7
  6
CONTINUOUS
 10
11.4226658567
 20
25.1709376482
 11
-6.0009084168
 21
16.6855899676
  0
LINE
  5
281
100
AcDbEntity
  8
ASSI
100
AcDbLine
 62
7
  6
CONTINUOUS
 10
11.4226658567
 20
25.1709376482
 11
-6.0009084168
 21
16.6855899676
  0
LINE
  5
282
100
AcDbEntity
  8
RACCORDO
100
AcDbLine
 62
7
  6
CONTINUOUS
 10
12.7074111328
 20
25.5163068048
 11
-5.7878042662
 21
16.5790378924
  0
LINE
  5
283
100
AcDbEntity
  8
ASSI
100
AcDbLine
 62
7
  6
CONTINUOUS
 10
12.7074111328
 20
25.5163068048
 11
-5.7878042662
 21
16.5790378924
  0
LINE
  5
284
100
AcDbEntity
  8
RACCORDO
100
AcDbLine
 62
7
  6
CONTINUOUS
 10
11.2216087141
 20
26.2592080141
 11
-6.7475485269
 21
17.7406375229
  0
LINE
  5
285
100
AcDbEntity
  8
ASSI
100
AcDbLine
 62
7
  6
CONTINUOUS
 10
11.2216087141
 20
26.2592080141
 11
-6.7475485269
 21
17.7406375229
  0
LINE
  5
286
100
AcDbEntity
  8
RACCORDO
100
AcDbLine
 62
7
  6
CONTINUOUS
 10
-9.6312366285
 20
15.4637485174
 11
-9.6176662409
 21
15.4700157721
  0
LINE
  5
287
100
AcDbEntity
  8
ASSI
100
AcDbLine
 62
7
  6
CONTINUOUS
 10
-9.6312366285
 20
15.4637485174
 11
-9.6176662409
 21
15.4700157721
  0
LINE
  5
288
100
AcDbEntity
  8
RACCORDO
100
AcDbLine
 62
253
  6
CONTINUOUS
 10
-9.5438984788
 20
15.4570581972
 11
-9.5313423558
 21
15.4628570309
  0
LINE
  5
289
100
AcDbEntity
  8
ASSI
100
AcDbLine
 62
253
  6
CONTINUOUS
 10
-9.5438984788
 20
15.4570581972
 11
-9.5313423558
 21
15.4628570309
  0
LWPOLYLINE
  5
28A
100
AcDbEntity
  8
RACCORDO
100
AcDbPolyline
 62
253
  6
CONTINUOUS
 90
58
 70
0
 10
-9.5313423558
 20
15.4628570309
 10
-9.5154427911
 20
15.4699971436
 10
-9.4991648338
 20
15.4769093958
 10
-9.4825084837
 20
15.4835937873
 10
-9.4654600996
 20
15.4900552636
 10
-9.4480333228
 20
15.4962888794
 10
-9.4302690776
 20
15.5022797979
 10
-9.4121673298
 20
15.5080271604
 10
-9.3937281136
 20
15.5135318257
 10
-9.3749924559
 20
15.5187815334
 10
-9.3559596895
 20
15.5237757098
 10
-9.3366304815
 20
15.5285149287
 10
-9.3170478609
 20
15.5329886505
 10
-9.2972112668
 20
15.5371962855
 10
-9.27712126
 20
15.5411384235
 10
-9.2568225516
 20
15.544806294
 10
-9.2363146776
 20
15.5481992853
 10
-9.2155981021
 20
15.5513180092
 10
-9.1947189277
 20
15.5541555311
 10
-9.1736767922
 20
15.556711225
 10
-9.152472058
 20
15.558985717
 10
-9.1311519148
 20
15.5609739502
 10
-9.1097161072
 20
15.562675287
 10
-9.0881648907
 20
15.5640903651
 10
-9.0665462214
 20
15.565216041
 10
-9.0448599502
 20
15.5660516702
 10
-9.0231062263
 20
15.5665978972
 10
-9.0013334534
 20
15.5668535115
 10
-8.9795415903
 20
15.5668178662
 10
-8.9577306783
 20
15.5664916082
 10
-8.9359492446
 20
15.565875468
 10
-8.9141973556
 20
15.5649688004
 10
-8.892474945
 20
15.5637722506
 10
-8.8708303407
 20
15.5622884847
 10
-8.8492637176
 20
15.5605168635
 10
-8.8277749009
 20
15.5584580262
 10
-8.806411695
 20
15.5561165558
 10
-8.7851743798
 20
15.5534918236
 10
-8.7640626754
 20
15.5505844584
 10
-8.7431235472
 20
15.5474009299
 10
-8.7223573833
 20
15.5439406247
 10
-8.7017637956
 20
15.5402041563
 10
-8.6813885851
 20
15.5361998346
 10
-8.661232231
 20
15.5319270623
 10
-8.6412942541
 20
15.5273864367
 10
-8.6216190188
 20
15.5225880598
 10
-8.6022071032
 20
15.5175313553
 10
-8.5830579293
 20
15.5122168997
 10
-8.5642141264
 20
15.5066565236
 10
-8.5456763662
 20
15.5008496747
 10
-8.5274439772
 20
15.4947969055
 10
-8.5095575738
 20
15.4885117044
 10
-8.4920179478
 20
15.4819935583
 10
-8.4748243075
 20
15.4752429803
 10
-8.4580148921
 20
15.4682749983
 10
-8.441602448
 20
15.4610946214
 10
-8.4255742288
 20
15.4536968404
 10
-8.4099302345
 20
15.4460816554
  0
LWPOLYLINE
  5
28B
100
AcDbEntity
  8
ASSI
100
AcDbPolyline
 62
253
  6
CONTINUOUS
 90
58
 70
0
 10
-9.5313423558
 20
15.4628570309
 10
-9.5154427911
 20
15.4699971436
 10
-9.4991648338
 20
15.4769093958
 10
-9.4825084837
 20
15.4835937873
 10
-9.4654600996
 20
15.4900552636
 10
-9.4480333228
 20
15.4962888794
 10
-9.4302690776
 20
15.5022797979
 10
-9.4121673298
 20
15.5080271604
 10
-9.3937281136
 20
15.5135318257
 10
-9.3749924559
 20
15.5187815334
 10
-9.3559596895
 20
15.5237757098
 10
-9.3366304815
 20
15.5285149287
 10
-9.3170478609
 20
15.5329886505
 10
-9.2972112668
 20
15.5371962855
 10
-9.27712126
 20
15.5411384235
 10
-9.2568225516
 20
15.544806294
 10
-9.2363146776
 20
15.5481992853
 10
-9.2155981021
 20
15.5513180092
 10
-9.1947189277
 20
15.5541555311
 10
-9.1736767922
 20
15.556711225
 10
-9.152472058
 20
15.558985717
 10
-9.1311519148
 20
15.5609739502
 10
-9.1097161072
 20
15.562675287
 10
-9.0881648907
 20
15.5640903651
 10
-9.0665462214
 20
15.565216041
 10
-9.0448599502
 20
15.5660516702
 10
-9.0231062263
 20
15.5665978972
 10
-9.0013334534
 20
15.5668535115
 10
-8.9795415903
 20
15.5668178662
 10
-8.9577306783
 20
15.5664916082
 10
-8.9359492446
 20
15.565875468
 10
-8.9141973556
 20
15.5649688004
 10
-8.892474945
 20
15.5637722506
 10
-8.8708303407
 20
15.5622884847
 10
-8.8492637176
 20
15.5605168635
 10
-8.8277749009
 20
15.5584580262
 10
-8.806411695
 20
15.5561165558
 10
-8.7851743798
 20
15.5534918236
 10
-8.7640626754
 20
15.5505844584
 10
-8.7431235472
 20
15.5474009299
 10
-8.7223573833
 20
15.5439406247
 10
-8.7017637956
 20
15.5402041563
 10
-8.6813885851
 20
15.5361998346
 10
-8.661232231
 20
15.5319270623
 10
-8.6412942541
 20
15.5273864367
 10
-8.6216190188
 20
15.5225880598
 10
-8.6022071032
 20
15.5175313553
 10
-8.5830579293
 20
15.5122168997
 10
-8.5642141264
 20
15.5066565236
 10
-8.5456763662
 20
15.5008496747
 10
-8.5274439772
 20
15.4947969055
 10
-8.5095575738
 20
15.4885117044
 10
-8.4920179478
 20
15.4819935583
 10
-8.4748243075
 20
15.4752429803
 10
-8.4580148921
 20
15.4682749983
 10
-8.441602448
 20
15.4610946214
 10
-8.4255742288
 20
15.4536968404
 10
-8.4099302345
 20
15.4460816554
  0
LINE
  5
28C
100
AcDbEntity
  8
ASSI
100
AcDbLine
 62
7
  6
CONTINUOUS
 10
-9.552479337
 20
15.4975122425
 11
-9.6179445132
 21
15.4698863731
  0
LINE
  5
28D
100
AcDbEntity
  8
RACCORDO
100
AcDbLine
 62
7
  6
CONTINUOUS
 10
-9.5524318208
 20
15.4975305098
 11
-9.6179443839
 21
15.4698864334
  0
LWPOLYLINE
  5
28E
100
AcDbEntity
  8
RACCORDO
100
AcDbPolyline
 62
7
  6
CONTINUOUS
 90
5
 70
0
 10
-9.6312355961
 20
15.4637489942
 10
-9.6145980144
 20
15.469211319
 10
-9.5980111167
 20
15.4709341103
 10
-9.5805006962
 20
15.4694552834
 10
-9.5623611922
 20
15.4648026992
  0
LWPOLYLINE
  5
28F
100
AcDbEntity
  8
ASSI
100
AcDbPolyline
 62
7
  6
CONTINUOUS
 90
5
 70
0
 10
-9.6312355961
 20
15.4637489942
 10
-9.6145980144
 20
15.469211319
 10
-9.5980111167
 20
15.4709341103
 10
-9.5805006962
 20
15.4694552834
 10
-9.5623611922
 20
15.4648026992
  0
LWPOLYLINE
  5
290
100
AcDbEntity
  8
RACCORDO
100
AcDbPolyline
 62
253
  6
CONTINUOUS
 90
3
 70
0
 10
-9.6176662409
 20
15.4700157721
 10
-9.6011268894
 20
15.4754331146
 10
-9.5846875167
 20
15.4770882882
  0
LWPOLYLINE
  5
291
100
AcDbEntity
  8
ASSI
100
AcDbPolyline
 62
253
  6
CONTINUOUS
 90
3
 70
0
 10
-9.6176662409
 20
15.4700157721
 10
-9.6011268894
 20
15.4754331146
 10
-9.5846875167
 20
15.4770882882
  0
LWPOLYLINE
  5
292
100
AcDbEntity
  8
RACCORDO
100
AcDbPolyline
 62
253
  6
CONTINUOUS
 90
70
 70
0
 10
-24.9280107237
 20
-7.1015563263
 10
-25.1339180262
 20
-7.0043319531
 10
-25.3394063907
 20
-6.9187656207
 10
-25.5440516222
 20
-6.8450349714
 10
-25.747374194
 20
-6.7833090583
 10
-25.9490122105
 20
-6.7336937235
 10
-26.1487169769
 20
-6.6962655623
 10
-26.3461573827
 20
-6.6711253307
 10
-26.5408272485
 20
-6.6583772021
 10
-26.7322197951
 20
-6.6580774448
 10
-26.9199559818
 20
-6.6702429586
 10
-27.1036175708
 20
-6.6948630098
 10
-27.2826652336
 20
-6.7318628995
 10
-27.456622437
 20
-6.7811115851
 10
-27.6252533825
 20
-6.8425089427
 10
-27.788390256
 20
-6.9159960721
 10
-27.9458348623
 20
-7.0015310037
 10
-28.0970865595
 20
-7.0988908786
 10
-28.2415585684
 20
-7.2076823881
 10
-28.3788304991
 20
-7.3275002037
 10
-28.5088050204
 20
-7.4581663126
 10
-28.6314093242
 20
-7.5995776256
 10
-28.7464428546
 20
-7.751526551
 10
-28.8536003374
 20
-7.9136351745
 10
-28.9526468435
 20
-8.0855552471
 10
-29.043378015
 20
-8.2669369542
 10
-29.1256025261
 20
-8.4574031566
 10
-29.1991373675
 20
-8.6565277392
 10
-29.2638252373
 20
-8.8638678299
 10
-29.3195457626
 20
-9.0790183929
 10
-29.3661966828
 20
-9.3015858725
 10
-29.4036695983
 20
-9.5310530904
 10
-29.4318966964
 20
-9.7670047598
 10
-29.4508304196
 20
-10.0092023628
 10
-29.46040462
 20
-10.2574172814
 10
-29.4605434315
 20
-10.510908384
 10
-29.4512429207
 20
-10.7686361927
 10
-29.4325773293
 20
-11.0297200119
 10
-29.4046047207
 20
-11.2939319576
 10
-29.3673339881
 20
-11.5611915447
 10
-29.3207589846
 20
-11.8312656108
 10
-29.2649906096
 20
-12.1032884925
 10
-29.2002400533
 20
-12.3762285931
 10
-29.1267518568
 20
-12.6492103332
 10
-29.0446333882
 20
-12.9219712117
 10
-28.9539209435
 20
-13.1943930632
 10
-28.8546734687
 20
-13.4661951948
 10
-28.7471692198
 20
-13.7365205339
 10
-28.6317954829
 20
-14.0043935361
 10
-28.5089333487
 20
-14.2690055282
 10
-28.3787456412
 20
-14.5300771234
 10
-28.2413209234
 20
-14.7874329538
 10
-28.0968004536
 20
-15.0407515367
 10
-27.9455891635
 20
-15.289268815
 10
-27.7881875204
 20
-15.5321603914
 10
-27.6250593329
 20
-15.7687540581
 10
-27.4564361355
 20
-15.9987559103
 10
-27.2824937448
 20
-16.2219287207
 10
-27.1034750949
 20
-16.4379295324
 10
-26.9198506088
 20
-16.6461602594
 10
-26.7321475548
 20
-16.8460206499
 10
-26.5407790041
 20
-17.0370856445
 10
-26.3461278961
 20
-17.2189875311
 10
-26.1487018759
 20
-17.3912738247
 10
-25.9490061822
 20
-17.5535422723
 10
-25.747372338
 20
-17.705561334
 10
-25.544052174
 20
-17.8471561269
 10
-25.339408628
 20
-17.9780697106
 10
-25.1339200872
 20
-18.0979920593
 10
-24.9280107237
 20
-18.2066763202
  0
LWPOLYLINE
  5
293
100
AcDbEntity
  8
RACCORDO
100
AcDbPolyline
 62
7
  6
CONTINUOUS
 90
27
 70
0
 10
-15.6986861253
 20
15.5672520001
 10
-15.6984098889
 20
15.556360179
 10
-15.6976187048
 20
15.544500329
 10
-15.6963069344
 20
15.5322875124
 10
-15.6944541766
 20
15.5197817074
 10
-15.6921313469
 20
15.5070047596
 10
-15.6893368107
 20
15.4939998033
 10
-15.6860591126
 20
15.4808128247
 10
-15.6823513629
 20
15.4674553121
 10
-15.6782133478
 20
15.4539597485
 10
-15.673639144
 20
15.4403622976
 10
-15.6686696518
 20
15.4266711097
 10
-15.6633051838
 20
15.4129119386
 10
-15.6575431392
 20
15.3991139343
 10
-15.651416585
 20
15.3852851542
 10
-15.64492604
 20
15.3714468343
 10
-15.6380709943
 20
15.3576233002
 10
-15.6308799827
 20
15.3438243402
 10
-15.6233536844
 20
15.3300680539
 10
-15.615493045
 20
15.3163754266
 10
-15.6073246056
 20
15.3027590619
 10
-15.5988490773
 20
15.2892344044
 10
-15.5900688062
 20
15.275820425
 10
-15.5810111213
 20
15.262534274
 10
-15.5716862795
 20
15.2493920321
 10
-15.5620886822
 20
15.2364083819
 10
-15.5522216829
 20
15.2235976343
  0
LWPOLYLINE
  5
294
100
AcDbEntity
  8
RACCORDO
100
AcDbPolyline
 62
253
  6
CONTINUOUS
 90
34
 70
0
 10
-14.4768159725
 20
-12.6220044684
 10
-14.4780418894
 20
-12.4831955343
 10
-14.4819109445
 20
-12.3377779224
 10
-14.4887171419
 20
-12.1856898466
 10
-14.4987416126
 20
-12.0271835359
 10
-14.5123056297
 20
-11.8619284696
 10
-14.5298291944
 20
-11.6889912229
 10
-14.5516967315
 20
-11.5083367004
 10
-14.5782977525
 20
-11.3199904896
 10
-14.6101822035
 20
-11.1231109444
 10
-14.6478151392
 20
-10.9177449658
 10
-14.6916679619
 20
-10.7039847586
 10
-14.7424267638
 20
-10.4810872083
 10
-14.8006362629
 20
-10.2492171109
 10
-14.8668426854
 20
-10.0086006541
 10
-14.9418623065
 20
-9.7586579677
 10
-15.0263171361
 20
-9.499702134
 10
-15.1207975452
 20
-9.2322037632
 10
-15.2261837245
 20
-8.9559435624
 10
-15.3433625253
 20
-8.6709427505
 10
-15.47271644
 20
-8.3785427543
 10
-15.6143006413
 20
-8.0806405501
 10
-15.7690284431
 20
-7.7772627979
 10
-15.9368712987
 20
-7.4703611304
 10
-16.1159962382
 20
-7.1646553923
 10
-16.3062523927
 20
-6.8613397715
 10
-16.5076673721
 20
-6.5612784691
 10
-16.7180498946
 20
-6.2683431894
 10
-16.936561245
 20
-5.98394974
 10
-17.1631598412
 20
-5.7083928455
 10
-17.3964895658
 20
-5.4435046932
 10
-17.6358501457
 20
-5.1901417894
 10
-17.8807721362
 20
-4.9488611352
 10
-18.1301096433
 20
-4.7208081761
  0
LINE
  5
295
100
AcDbEntity
  8
RACCORDO
100
AcDbLine
 62
7
  6
CONTINUOUS
 10
-15.6986682923
 20
15.5672546034
 11
-15.6986682923
 21
14.3264377132
  0
LINE
  5
296
100
AcDbEntity
  8
RACCORDO
100
AcDbLine
 62
253
  6
CONTINUOUS
 10
-15.5522216829
 20
15.2235976343
 11
-15.5522216829
 21
14.1430143235
  0
LINE
  5
297
100
AcDbEntity
  8
DRAFT
100
AcDbLine
 62
7
  6
CONTINUOUS
 10
-20.601306617
 20
-2.2644640966
 11
-20.584459174
 21
-2.2405651704
  0
LINE
  5
298
100
AcDbEntity
  8
RACCORDO
100
AcDbLine
 62
7
  6
CONTINUOUS
 10
-8.9781915146
 20
11.6084924888
 11
-9.3358706639
 21
11.408896537
  0
LINE
  5
299
100
AcDbEntity
  8
RACCORDO
100
AcDbLine
 62
7
  6
CONTINUOUS
 10
-9.3358706639
 20
12.6416235093
 11
-8.9781915146
 21
12.8209280541
  0
LINE
  5
29A
100
AcDbEntity
  8
DRAFT
100
AcDbLine
 62
7
  6
CONTINUOUS
 10
15.6644798097
 20
23.7609162975
 11
14.9573730285
 21
23.4073629069
  0
LINE
  5
29B
100
AcDbEntity
  8
ASSI
100
AcDbLine
 62
7
  6
CONTINUOUS
 10
15.6644798097
 20
23.7609162975
 11
14.9573730285
 21
23.4073629069
  0
LINE
  5
29C
100
AcDbEntity
  8
ASSI
100
AcDbLine
 62
7
  6
CONTINUOUS
 10
-8.9781915146
 20
12.8209280541
 11
-3.7036994455
 21
15.451237188
  0
LINE
  5
29D
100
AcDbEntity
  8
DRAFT
100
AcDbLine
 62
7
  6
CONTINUOUS
 10
-8.9781915146
 20
11.6084924888
 11
-3.6533574444
 21
14.2448239207
  0
LINE
  5
29E
100
AcDbEntity
  8
ASSI
100
AcDbLine
 62
7
  6
CONTINUOUS
 10
-4.3092298802
 20
15.7540024053
 11
-8.9074808365
 21
13.4876411078
  0
LINE
  5
29F
100
AcDbEntity
  8
RACCORDO
100
AcDbLine
 62
7
  6
CONTINUOUS
 10
-2.890902604
 20
15.5664435933
 11
-3.5297633805
 21
15.2538414682
  0
LINE
  5
2A0
100
AcDbEntity
  8
RACCORDO
100
AcDbLine
 62
7
  6
CONTINUOUS
 10
14.9581997626
 20
23.4031706952
 11
-1.774670515
 21
15.254198517
  0
LINE
  5
2A1
100
AcDbEntity
  8
ASSI
100
AcDbLine
 62
7
  6
CONTINUOUS
 10
14.9581997626
 20
23.4031706952
 11
-1.774670515
 21
15.254198517
  0
LINE
  5
2A2
100
AcDbEntity
  8
RACCORDO
100
AcDbLine
 62
7
  6
CONTINUOUS
 10
16.2429450387
 20
23.7485398518
 11
-1.5589086604
 21
15.1463175897
  0
LINE
  5
2A3
100
AcDbEntity
  8
ASSI
100
AcDbLine
 62
7
  6
CONTINUOUS
 10
16.2429450387
 20
23.7485398518
 11
-1.5589086604
 21
15.1463175897
  0
LINE
  5
2A4
100
AcDbEntity
  8
RACCORDO
100
AcDbLine
 62
7
  6
CONTINUOUS
 10
14.75714262
 20
24.4914410612
 11
-3.8726689355
 21
15.6596766748
  0
LINE
  5
2A5
100
AcDbEntity
  8
ASSI
100
AcDbLine
 62
7
  6
CONTINUOUS
 10
14.75714262
 20
24.4914410612
 11
-3.8726689355
 21
15.6596766748
  0
LWPOLYLINE
  5
2A6
100
AcDbEntity
  8
RACCORDO
100
AcDbPolyline
 62
7
  6
CONTINUOUS
 90
18
 70
0
 10
-2.890902604
 20
15.5664435933
 10
-2.8625280832
 20
15.5796255501
 10
-2.8342936312
 20
15.5913599419
 10
-2.806199248
 20
15.6016467686
 10
-2.778194935
 20
15.6104989032
 10
-2.7503306907
 20
15.6179034727
 10
-2.722756511
 20
15.6238218583
 10
-2.6954873824
 20
15.6282452796
 10
-2.6685083184
 20
15.631182517
 10
-2.6419243558
 20
15.6326212929
 10
-2.6157193969
 20
15.6325541563
 10
-2.5899095394
 20
15.6309885584
 10
-2.5646481132
 20
15.6279345749
 10
-2.5399583599
 20
15.6233887906
 10
-2.5158170377
 20
15.6173546207
 10
-2.4923077515
 20
15.6098523879
 10
-2.4694119713
 20
15.6008669733
 10
-2.4498639867
 20
15.5917842865
  0
LWPOLYLINE
  5
2A7
100
AcDbEntity
  8
ASSI
100
AcDbPolyline
 62
7
  6
CONTINUOUS
 90
7
 70
0
 10
-4.2603538486
 20
15.7739309724
 10
-4.2684365998
 20
15.7712156018
 10
-4.2765446526
 20
15.7682578083
 10
-4.284678007
 20
15.7650575919
 10
-4.2928366631
 20
15.7616149526
 10
-4.3010206208
 20
15.7579298904
 10
-4.3092298802
 20
15.7540024053
  0
LINE
  5
2A8
100
AcDbEntity
  8
RACCORDO
100
AcDbLine
 62
7
  6
CONTINUOUS
 10
-9.8995379666
 20
12.509345845
 11
-9.9871215476
 21
12.4833706396
  0
LWPOLYLINE
  5
2A9
100
AcDbEntity
  8
RACCORDO
100
AcDbPolyline
 62
7
  6
CONTINUOUS
 90
4
 70
0
 10
-9.9871215476
 20
12.4833706396
 10
-10.0203158869
 20
12.4737068358
 10
-10.0307653193
 20
12.4707467004
 10
-10.0409145832
 20
12.4679440845
  0
LWPOLYLINE
  5
2AA
100
AcDbEntity
  8
ASSI
100
AcDbPolyline
 62
7
  6
CONTINUOUS
 90
16
 70
0
 10
-4.2603538486
 20
15.7739309724
 10
-4.2481960107
 20
15.7774207416
 10
-4.2354660317
 20
15.7801435675
 10
-4.2221714509
 20
15.7820834078
 10
-4.2083157376
 20
15.7832372282
 10
-4.1939154866
 20
15.7835753391
 10
-4.1790021447
 20
15.7830426503
 10
-4.1635956656
 20
15.7816184041
 10
-4.1477105725
 20
15.7792932121
 10
-4.1313748703
 20
15.7760307967
 10
-4.1146474453
 20
15.7718275636
 10
-4.0975166192
 20
15.7666606194
 10
-4.0799028526
 20
15.7604590897
 10
-4.0618155254
 20
15.7532023557
 10
-4.0432948356
 20
15.7448705733
 10
-4.0335787137
 20
15.7401356756
  0
LINE
  5
2AB
100
AcDbEntity
  8
DRAFT
100
AcDbLine
 62
7
  6
CONTINUOUS
 10
-14.0086039149
 20
-15.4270242033
 11
-14.0197354691
 21
-15.4268091539
  0
LWPOLYLINE
  5
2AC
100
AcDbEntity
  8
RACCORDO
100
AcDbPolyline
 62
253
  6
CONTINUOUS
 90
18
 70
0
 10
-24.6011443549
 20
-6.5524365705
 10
-24.8213541836
 20
-6.4484593666
 10
-25.0411159527
 20
-6.3569497671
 10
-25.2599760264
 20
-6.2780977418
 10
-25.4774216125
 20
-6.2120839275
 10
-25.6930656939
 20
-6.1590216595
 10
-25.9066422394
 20
-6.1189933084
 10
-26.1177970615
 20
-6.0921068888
 10
-26.3259888384
 20
-6.0784735613
 10
-26.5306756546
 20
-6.0781531994
 10
-26.731452192
 20
-6.0911637391
 10
-26.9278711351
 20
-6.1174938382
 10
-27.1193556603
 20
-6.157063716
 10
-27.3053961143
 20
-6.2097332703
 10
-27.4857403326
 20
-6.2753953784
 10
-27.6602088546
 20
-6.3539870239
 10
-27.8285897221
 20
-6.4454633145
 10
-27.8665665822
 20
-6.4684049824
  0
LWPOLYLINE
  5
2AD
100
AcDbEntity
  8
RACCORDO
100
AcDbPolyline
 62
253
  6
CONTINUOUS
 90
22
 70
0
 10
-18.1301096433
 20
-4.7208081761
 10
-18.3830170676
 20
-4.5066976791
 10
-18.6390277932
 20
-4.3068670032
 10
-18.897523629
 20
-4.1217651733
 10
-19.1578023639
 20
-3.951862418
 10
-19.4192344742
 20
-3.7975373353
 10
-19.6813099805
 20
-3.6590770027
 10
-19.9433621633
 20
-3.5368344483
 10
-20.2047223372
 20
-3.4311223869
 10
-20.4648775296
 20
-3.3421633883
 10
-20.7232026874
 20
-3.2702048154
 10
-20.9789911731
 20
-3.2154774232
 10
-21.2316090509
 20
-3.1781496671
 10
-21.4805934742
 20
-3.158345662
 10
-21.7250972653
 20
-3.156189466
 10
-21.9639536196
 20
-3.1716696902
 10
-22.1967016402
 20
-3.2046889441
 10
-22.4226410824
 20
-3.2550787551
 10
-22.6403886695
 20
-3.3223343515
 10
-22.8499141468
 20
-3.4061877574
 10
-23.0503882114
 20
-3.5060405263
 10
-23.1680265985
 20
-3.5745573447
  0
LWPOLYLINE
  5
2AE
100
AcDbEntity
  8
RACCORDO
100
AcDbPolyline
 62
253
  6
CONTINUOUS
 90
43
 70
0
 10
-10.3948673152
 20
-30.9432795144
 10
-10.3933776869
 20
-30.9730082538
 10
-10.3910081399
 20
-31.0021610989
 10
-10.3877586742
 20
-31.0307380497
 10
-10.3836230824
 20
-31.0587745838
 10
-10.3786075719
 20
-31.0862352237
 10
-10.3727307647
 20
-31.1130135364
 10
-10.3659894493
 20
-31.1391056442
 10
-10.3583868372
 20
-31.1645154249
 10
-10.3499511846
 20
-31.1891480781
 10
-10.3406794615
 20
-31.2130004209
 10
-10.330574698
 20
-31.2360756362
 10
-10.31967424
 20
-31.2582884728
 10
-10.3079751401
 20
-31.2796357984
 10
-10.2954803457
 20
-31.3001207451
 10
-10.2822360446
 20
-31.3196674587
 10
-10.2682394023
 20
-31.3382725207
 10
-10.2534932532
 20
-31.3559393495
 10
-10.2380522881
 20
-31.3726023454
 10
-10.221913973
 20
-31.3882577279
 10
-10.2050808418
 20
-31.4029092774
 10
-10.1876151874
 20
-31.4165027359
 10
-10.1695146624
 20
-31.4290341932
 10
-10.1507816141
 20
-31.4405075596
 10
-10.1314853777
 20
-31.4508803074
 10
-10.1116237879
 20
-31.4601483738
 10
-10.09119901
 20
-31.4683158218
 10
-10.0702868743
 20
-31.475352313
 10
-10.0488856517
 20
-31.4812536142
 10
-10.0269970714
 20
-31.4860239587
 10
-10.0047021512
 20
-31.4896457082
 10
-9.9819994293
 20
-31.4921146272
 10
-9.9588903675
 20
-31.4934349512
 10
-9.9354603692
 20
-31.4936017492
 10
-9.9117079717
 20
-31.4926106884
 10
-9.8876346376
 20
-31.4904661016
 10
-9.8633301582
 20
-31.487176056
 10
-9.8387929513
 20
-31.482735911
 10
-9.8140245991
 20
-31.4771503073
 10
-9.7891196396
 20
-31.4704412337
 10
-9.7641095856
 20
-31.4626160198
 10
-9.7389629244
 20
-31.4536673361
 10
-9.7136796558
 20
-31.4435951825
  0
LWPOLYLINE
  5
2AF
100
AcDbEntity
  8
RACCORDO
100
AcDbPolyline
 62
253
  6
CONTINUOUS
 90
25
 70
0
 10
-11.095450789
 20
-30.9578793285
 10
-11.0932357104
 20
-31.0024089236
 10
-11.0896973125
 20
-31.0461684213
 10
-11.0848400097
 20
-31.0891037682
 10
-11.0786698161
 20
-31.1311614256
 10
-11.0711944103
 20
-31.1722900214
 10
-11.062422948
 20
-31.2124402819
 10
-11.0523657922
 20
-31.2515634241
 10
-11.0410354013
 20
-31.2896101446
 10
-11.0284463645
 20
-31.3265322641
 10
-11.0146142045
 20
-31.3622838509
 10
-10.9995557738
 20
-31.3968211918
 10
-10.9832899936
 20
-31.4301016671
 10
-10.9658366573
 20
-31.462084293
 10
-10.9472171726
 20
-31.4927295308
 10
-10.927455014
 20
-31.5219992974
 10
-10.9065741996
 20
-31.5498576148
 10
-10.8846003541
 20
-31.5762700094
 10
-10.861561423
 20
-31.6012032975
 10
-10.8374856113
 20
-31.6246267479
 10
-10.812402332
 20
-31.6465116129
 10
-10.7863432568
 20
-31.6668305127
 10
-10.7593402004
 20
-31.6855585049
 10
-10.7314262184
 20
-31.7026725769
 10
-10.7020735555
 20
-31.7184331926
  0
LWPOLYLINE
  5
2B0
100
AcDbEntity
  8
RACCORDO
100
AcDbPolyline
 62
253
  6
CONTINUOUS
 90
10
 70
0
 10
-11.3935569372
 20
-15.8388518962
 10
-11.3825144996
 20
-17.5299089438
 10
-11.3659510536
 20
-19.2182350243
 10
-11.3438668618
 20
-20.9038042244
 10
-11.3162622531
 20
-22.5865906753
 10
-11.2831376481
 20
-24.2665685519
 10
-11.2444935723
 20
-25.9437120706
 10
-11.2003306169
 20
-27.6179954936
 10
-11.1506494394
 20
-29.2893931288
 10
-11.095450789
 20
-30.9578793285
  0
LWPOLYLINE
  5
2B1
100
AcDbEntity
  8
RACCORDO
100
AcDbPolyline
 62
253
  6
CONTINUOUS
 90
13
 70
0
 10
-11.095450789
 20
4.6573605391
 10
-11.1506494394
 20
2.9355677989
 10
-11.2003306169
 20
1.2161919243
 10
-11.2444935723
 20
-0.5007406877
 10
-11.2831376481
 20
-2.2152036703
 10
-11.3162622531
 20
-3.9271707117
 10
-11.3438668618
 20
-5.6366155553
 10
-11.3659510536
 20
-7.3435119637
 10
-11.3825144996
 20
-9.047833731
 10
-11.3935569372
 20
-10.7495547071
 10
-11.3990781954
 20
-12.4486487701
 10
-11.3990781954
 20
-14.1450898412
 10
-11.3935569372
 20
-15.8388518962
  0
LWPOLYLINE
  5
2B2
100
AcDbEntity
  8
RACCORDO
100
AcDbPolyline
 62
7
  6
CONTINUOUS
 90
22
 70
0
 10
-7.7749045204
 20
11.1720394626
 10
-7.7847112527
 20
11.1667285299
 10
-7.7957228774
 20
11.1600618795
 10
-7.806386541
 20
11.1528302562
 10
-7.8166732392
 20
11.1450510391
 10
-7.8265619257
 20
11.1367367482
 10
-7.8360251179
 20
11.127905767
 10
-7.8450333791
 20
11.1185806749
 10
-7.8535627365
 20
11.1087809058
 10
-7.8615875613
 20
11.0985295988
 10
-7.8690820747
 20
11.0878530125
 10
-7.8760231712
 20
11.076776903
 10
-7.8823881879
 20
11.0653295385
 10
-7.8881559278
 20
11.0535404653
 10
-7.8933072273
 20
11.0414391505
 10
-7.8978243682
 20
11.0290556932
 10
-7.9016898086
 20
11.0164250944
 10
-7.904887598
 20
11.0035860187
 10
-7.9074051858
 20
10.9905743723
 10
-7.9092321368
 20
10.9774258993
 10
-7.9103596627
 20
10.9641805518
 10
-7.9107848672
 20
10.9496055303
  0
LINE
  5
2B3
100
AcDbEntity
  8
RACCORDO
100
AcDbLine
 62
7
  6
CONTINUOUS
 10
-6.1917253073
 20
11.9842403671
 11
-7.7748989727
 21
11.1720423089
  0
LINE
  5
2B4
100
AcDbEntity
  8
RACCORDO
100
AcDbLine
 62
253
  6
CONTINUOUS
 10
-6.0790567034
 20
11.9775784311
 11
-7.6618133066
 21
11.1655943338
  0
LINE
  5
2B5
100
AcDbEntity
  8
RACCORDO
100
AcDbLine
 62
253
  6
CONTINUOUS
 10
-4.7355478359
 20
11.3058239974
 11
-6.3368286267
 21
10.5031019939
  0
LINE
  5
2B6
100
AcDbEntity
  8
RACCORDO
100
AcDbLine
 62
253
  6
CONTINUOUS
 10
-4.5587741322
 20
11.0009344586
 11
-6.1600549231
 21
10.1982124551
  0
LINE
  5
2B7
100
AcDbEntity
  8
RACCORDO
100
AcDbLine
 62
7
  6
CONTINUOUS
 10
-6.1899888943
 20
11.985108588
 11
-6.1917253054
 21
11.9842403681
  0
LINE
  5
2B8
100
AcDbEntity
  8
RACCORDO
100
AcDbLine
 62
253
  6
CONTINUOUS
 10
-4.2072806642
 20
11.5692628174
 11
-4.7355478359
 21
11.3058239974
  0
LINE
  5
2B9
100
AcDbEntity
  8
RACCORDO
100
AcDbLine
 62
253
  6
CONTINUOUS
 10
-4.0305069605
 20
11.2643732786
 11
-4.5587741322
 21
11.0009344586
  0
LINE
  5
2BA
100
AcDbEntity
  8
RACCORDO
100
AcDbLine
 62
7
  6
CONTINUOUS
 10
-5.6551189358
 20
12.2456606888
 11
-6.1899888935
 21
11.9851085884
  0
LINE
  5
2BB
100
AcDbEntity
  8
RACCORDO
100
AcDbLine
 62
253
  6
CONTINUOUS
 10
-5.5446068247
 20
12.2379258977
 11
-6.0790567034
 21
11.9775784311
  0
LINE
  5
2BC
100
AcDbEntity
  8
RACCORDO
100
AcDbLine
 62
7
  6
CONTINUOUS
 10
18.1393535439
 20
21.4628192586
 11
1.1979288983
 21
13.2122803011
  0
LINE
  5
2BD
100
AcDbEntity
  8
ASSI
100
AcDbLine
 62
7
  6
CONTINUOUS
 10
18.1393535439
 20
21.4628192586
 11
1.1979288983
 21
13.2122803011
  0
LINE
  5
2BE
100
AcDbEntity
  8
RACCORDO
100
AcDbLine
 62
7
  6
CONTINUOUS
 10
0.1760633399
 20
14.0329606214
 11
-4.5074735396
 21
11.7813366261
  0
LINE
  5
2BF
100
AcDbEntity
  8
RACCORDO
100
AcDbLine
 62
7
  6
CONTINUOUS
 10
18.2926765259
 20
22.7236741082
 11
0.323519285
 21
14.205103617
  0
LINE
  5
2C0
100
AcDbEntity
  8
ASSI
100
AcDbLine
 62
7
  6
CONTINUOUS
 10
18.2926765259
 20
22.7236741082
 11
0.323519285
 21
14.205103617
  0
LWPOLYLINE
  5
2C1
100
AcDbEntity
  8
RACCORDO
100
AcDbPolyline
 62
7
  6
CONTINUOUS
 90
18
 70
0
 10
-5.6551189358
 20
12.2456606888
 10
-5.6428979761
 20
12.251213055
 10
-5.6302688524
 20
12.256147495
 10
-5.6172700532
 20
12.260426124
 10
-5.6039248027
 20
12.2640186979
 10
-5.5902990734
 20
12.2668869251
 10
-5.5765001146
 20
12.268996397
 10
-5.5626011325
 20
12.2703326451
 10
-5.5486317113
 20
12.2708910327
 10
-5.5346308597
 20
12.2706666798
 10
-5.5206573954
 20
12.2696580735
 10
-5.5067516401
 20
12.267866606
 10
-5.4929182003
 20
12.2652876137
 10
-5.4791501388
 20
12.2619063515
 10
-5.4655490899
 20
12.257734253
 10
-5.4522632593
 20
12.252817742
 10
-5.439329104
 20
12.2471809517
 10
-5.4338258602
 20
12.2445127861
  0
LWPOLYLINE
  5
2C2
100
AcDbEntity
  8
RACCORDO
100
AcDbPolyline
 62
253
  6
CONTINUOUS
 90
5
 70
0
 10
22.7386181826
 20
20.4587040686
 10
22.7793645394
 20
20.4736703606
 10
22.8116387814
 20
20.4833649817
 10
22.8350951125
 20
20.487684061
 10
22.8494822142
 20
20.4865813224
  0
LWPOLYLINE
  5
2C3
100
AcDbEntity
  8
ASSI
100
AcDbPolyline
 62
253
  6
CONTINUOUS
 90
5
 70
0
 10
22.7386181826
 20
20.4587040686
 10
22.7793645394
 20
20.4736703606
 10
22.8116387814
 20
20.4833649817
 10
22.8350951125
 20
20.487684061
 10
22.8494822142
 20
20.4865813224
  0
LWPOLYLINE
  5
2C4
100
AcDbEntity
  8
0
100
AcDbPolyline
 62
7
  6
CONTINUOUS
 90
22
 70
0
 10
-19.8676359449
 20
-3.7802928511
 10
-20.0550350006
 20
-3.6907736173
 10
-20.2417045464
 20
-3.6098343999
 10
-20.4276445822
 20
-3.537475199
 10
-20.6130954272
 20
-3.4736241079
 10
-20.7978167623
 20
-3.4183530332
 10
-20.9810876303
 20
-3.3718776948
 10
-21.1629023629
 20
-3.3342324669
 10
-21.3432666285
 20
-3.3053829753
 10
-21.5214764754
 20
-3.285441818
 10
-21.6975234841
 20
-3.2744438091
 10
-21.8714160742
 20
-3.2723541345
 10
-22.0424755524
 20
-3.2791809501
 10
-22.210690847
 20
-3.2949591018
 10
-22.3760730299
 20
-3.3196537438
 10
-22.5379766235
 20
-3.3531684941
 10
-22.6963880335
 20
-3.3955378221
 10
-22.8513208543
 20
-3.4467272584
 10
-23.0021703917
 20
-3.5065370137
 10
-23.1489206881
 20
-3.5750007763
 10
-23.2915877011
 20
-3.6520848577
 10
-23.3559766389
 20
-3.6905318207
  0
LWPOLYLINE
  5
2C5
100
AcDbEntity
  8
0
100
AcDbPolyline
 62
7
  6
CONTINUOUS
 90
71
 70
0
 10
-19.8676359449
 20
-3.7802928511
 10
-19.6802368892
 20
-3.878172673
 10
-19.4935673435
 20
-3.9839030014
 10
-19.3076273076
 20
-4.0974838363
 10
-19.1221764626
 20
-4.2190835902
 10
-18.9374551276
 20
-4.3485338505
 10
-18.7541842595
 20
-4.4853293802
 10
-18.5723695269
 20
-4.6294988849
 10
-18.3920052613
 20
-4.7810136589
 10
-18.2137954144
 20
-4.9392823485
 10
-18.0377484057
 20
-5.1043313483
 10
-17.8638558157
 20
-5.2761342637
 10
-17.6927963374
 20
-5.4540205576
 10
-17.5245810428
 20
-5.6380140039
 10
-17.35919886
 20
-5.8280908287
 10
-17.1972952663
 20
-6.0235091727
 10
-17.0388838563
 20
-6.2242899106
 10
-16.8839510356
 20
-6.4304121678
 10
-16.7331014982
 20
-6.6410714604
 10
-16.5863512018
 20
-6.8562855194
 10
-16.4436841887
 20
-7.0760366139
 10
-16.3056572805
 20
-7.2994670676
 10
-16.1722886107
 20
-7.5265912596
 10
-16.0435600457
 20
-7.7573948108
 10
-15.9199740059
 20
-7.9909769078
 10
-15.8015505885
 20
-8.2273484092
 10
-15.6882696962
 20
-8.4664984565
 10
-15.5805734582
 20
-8.7074936603
 10
-15.4784836993
 20
-8.9503412314
 10
-15.3819785947
 20
-9.1950339591
 10
-15.2914347984
 20
-9.4406168213
 10
-15.2068756073
 20
-9.6870932965
 10
-15.1282777244
 20
-9.9344599061
 10
-15.055947913
 20
-10.181751192
 10
-14.9899106688
 20
-10.4289668599
 10
-14.930141496
 20
-10.6761072041
 10
-14.8768736704
 20
-10.9222076497
 10
-14.8301325994
 20
-11.1672641326
 10
-14.7898928756
 20
-11.4112807168
 10
-14.7563115524
 20
-11.6533050193
 10
-14.7294146509
 20
-11.893329254
 10
-14.7091761501
 20
-12.1313612069
 10
-14.6956750395
 20
-12.3664718526
 10
-14.6889376492
 20
-12.5986497744
 10
-14.6889376492
 20
-12.827906389
 10
-14.6956750395
 20
-13.0533469205
 10
-14.7091761501
 20
-13.2749564557
 10
-14.7294146509
 20
-13.4927499077
 10
-14.7563115524
 20
-13.705877241
 10
-14.7898928756
 20
-13.9143202202
 10
-14.8301325994
 20
-14.1180970806
 10
-14.8768736704
 20
-14.3164124926
 10
-14.930141496
 20
-14.5092451125
 10
-14.9899106688
 20
-14.6966162839
 10
-15.055947913
 20
-14.8777947076
 10
-15.1282777244
 20
-15.0527561821
 10
-15.2068756073
 20
-15.2215249089
 10
-15.2914347984
 20
-15.383442193
 10
-15.3819785947
 20
-15.5384812588
 10
-15.4784836993
 20
-15.6866688819
 10
-15.5805734582
 20
-15.8274266942
 10
-15.6882696962
 20
-15.96072566
 10
-15.8015505885
 20
-16.086594815
 10
-15.9199740059
 20
-16.204542899
 10
-16.0435600457
 20
-16.3145389562
 10
-16.1722886107
 20
-16.4166139424
 10
-16.3056572805
 20
-16.5103694645
 10
-16.4436841887
 20
-16.59577301
 10
-16.5863512018
 20
-16.6728570915
 10
-16.7331014982
 20
-16.741320854
 10
-16.8139226843
 20
-16.7746397253
  0
LINE
  5
2C6
100
AcDbEntity
  8
RACCORDO
100
AcDbLine
 62
253
  6
CONTINUOUS
 10
3.5259463266
 20
-19.0977814085
 11
4.3179831367
 21
-19.7537220576
  0
LINE
  5
2C7
100
AcDbEntity
  8
ASSI
100
AcDbLine
 62
253
  6
CONTINUOUS
 10
3.5259463266
 20
-19.0977814085
 11
4.3179831367
 21
-19.7537220576
  0
LWPOLYLINE
  5
2C8
100
AcDbEntity
  8
RACCORDO
100
AcDbPolyline
 62
253
  6
CONTINUOUS
 90
34
 70
0
 10
-9.7136796558
 20
5.7944760576
 10
-9.7149676139
 20
5.8148107455
 10
-9.7170385549
 20
5.8355063331
 10
-9.719887793
 20
5.8565159926
 10
-9.7235088814
 20
5.8777921859
 10
-9.7278936266
 20
5.8992867715
 10
-9.7330321075
 20
5.9209511141
 10
-9.7389126973
 20
5.942736194
 10
-9.7455220902
 20
5.9645927184
 10
-9.7528453312
 20
5.9864712329
 10
-9.7608658502
 20
6.0083222331
 10
-9.7695654993
 20
6.0300962771
 10
-9.7789245939
 20
6.0517440971
 10
-9.7889219574
 20
6.0732167107
 10
-9.799534969
 20
6.0944655321
 10
-9.8107396148
 20
6.1154424819
 10
-9.8225105421
 20
6.1361000956
 10
-9.834821117
 20
6.1563916315
 10
-9.8476434847
 20
6.1762711762
 10
-9.860948632
 20
6.1956937483
 10
-9.8747064536
 20
6.2146154006
 10
-9.8888858199
 20
6.2329933192
 10
-9.9034546473
 20
6.2507859206
 10
-9.9183799712
 20
6.2679529455
 10
-9.9336280202
 20
6.2844555503
 10
-9.9491642926
 20
6.3002563946
 10
-9.9649536347
 20
6.315319726
 10
-9.9809603201
 20
6.3296114608
 10
-9.9971481306
 20
6.3430992612
 10
-10.0134804382
 20
6.3557526083
 10
-10.029920288
 20
6.3675428717
 10
-10.0464304816
 20
6.3784433734
 10
-10.0629736616
 20
6.3884294491
 10
-10.0795123959
 20
6.3974785034
  0
LWPOLYLINE
  5
2C9
100
AcDbEntity
  8
RACCORDO
100
AcDbPolyline
 62
253
  6
CONTINUOUS
 90
18
 70
0
 10
-7.8375615625
 20
-31.1183344888
 10
-7.837321087
 20
-31.1295033892
 10
-7.8366003149
 20
-31.1404014272
 10
-7.8354012069
 20
-31.1509989529
 10
-7.8337270257
 20
-31.1612671339
 10
-7.831582326
 20
-31.1711780339
 10
-7.8289729428
 20
-31.1807046886
 10
-7.8259059755
 20
-31.1898211791
 10
-7.8223897682
 20
-31.1985027025
 10
-7.8184338874
 20
-31.2067256392
 10
-7.8140490957
 20
-31.2144676173
 10
-7.8092473227
 20
-31.2217075734
 10
-7.8040416324
 20
-31.2284258101
 10
-7.7984461878
 20
-31.2346040491
 10
-7.7924762123
 20
-31.2402254817
 10
-7.7861479481
 20
-31.2452748136
 10
-7.7794786125
 20
-31.2497383074
 10
-7.7725882661
 20
-31.2535529389
  0
LINE
  5
2CA
100
AcDbEntity
  8
DRAFT
100
AcDbLine
 62
253
  6
CONTINUOUS
 10
-10.2509837208
 20
15.9520221745
 11
-10.2509837208
 21
14.9976236626
  0
LINE
  5
2CB
100
AcDbEntity
  8
RACCORDO
100
AcDbLine
 62
253
  6
CONTINUOUS
 10
-10.0409145832
 20
11.3873607737
 11
-10.0409145832
 21
12.4679440845
  0
LINE
  5
2CC
100
AcDbEntity
  8
DRAFT
100
AcDbLine
 62
7
  6
CONTINUOUS
 10
-9.5438769396
 20
16.3055755651
 11
-9.5438769396
 21
16.8581337544
  0
LINE
  5
2CD
100
AcDbEntity
  8
RACCORDO
100
AcDbLine
 62
253
  6
CONTINUOUS
 10
-9.3358706639
 20
11.408896537
 11
-9.3358706639
 21
12.6416235093
  0
LINE
  5
2CE
100
AcDbEntity
  8
ASSI
100
AcDbLine
 62
253
  6
CONTINUOUS
 10
-9.210101317
 20
17.0214541096
 11
-9.210101317
 21
18.2488047066
  0
LINE
  5
2CF
100
AcDbEntity
  8
DRAFT
100
AcDbLine
 62
7
  6
CONTINUOUS
 10
-9.190323549
 20
16.1287988698
 11
-9.190323549
 21
16.6813570591
  0
LINE
  5
2D0
100
AcDbEntity
  8
ASSI
100
AcDbLine
 62
7
  6
CONTINUOUS
 10
-9.0847518097
 20
17.1704772383
 11
-9.0847518097
 21
18.2583728466
  0
LINE
  5
2D1
100
AcDbEntity
  8
DRAFT
100
AcDbLine
 62
7
  6
CONTINUOUS
 10
-8.9781915146
 20
12.8209280541
 11
-8.9781915146
 21
11.6084924888
  0
LINE
  5
2D2
100
AcDbEntity
  8
DRAFT
100
AcDbLine
 62
253
  6
CONTINUOUS
 10
-8.8367701584
 20
15.9520221745
 11
-8.8367701584
 21
15.5850412856
  0
LWPOLYLINE
  5
2D3
100
AcDbEntity
  8
RACCORDO
100
AcDbPolyline
 62
253
  6
CONTINUOUS
 90
21
 70
0
 10
-10.4500128142
 20
2.9162310573
 10
-10.4996449077
 20
1.1985839767
 10
-10.5437635955
 20
-0.5165961284
 10
-10.5823693865
 20
-2.2293355387
 10
-10.6154617719
 20
-3.9396079734
 10
-10.6430392252
 20
-5.6473345908
 10
-10.6651014916
 20
-7.3525152413
 10
-10.6816488259
 20
-9.0551500745
 10
-10.6926804665
 20
-10.7551606967
 10
-10.6981961595
 20
-12.4525469842
 10
-10.6981961589
 20
-14.1473090608
 10
-10.6926804646
 20
-15.8393689047
 10
-10.6816488228
 20
-17.5287263947
 10
-10.6651014872
 20
-19.2153816519
 10
-10.6430392196
 20
-20.8992570186
 10
-10.6154617646
 20
-22.5803524119
 10
-10.5823693775
 20
-24.2586679147
 10
-10.5437635862
 20
-25.9341261172
 10
-10.4996449001
 20
-27.6067012164
 10
-10.4500128097
 20
-29.2764190155
 10
-10.3948673152
 20
-30.9432795144
  0
LINE
  5
2D4
100
AcDbEntity
  8
RACCORDO
100
AcDbLine
 62
253
  6
CONTINUOUS
 10
-10.3948673152
 20
4.6363451134
 11
-10.4500128142
 21
2.9162310573
  0
LWPOLYLINE
  5
2D5
100
AcDbEntity
  8
RACCORDO
100
AcDbPolyline
 62
253
  6
CONTINUOUS
 90
27
 70
0
 10
-6.1600549231
 20
9.858238521
 10
-6.1649334229
 20
9.8462826193
 10
-6.1702790644
 20
9.8345983452
 10
-6.1760776546
 20
9.8232177968
 10
-6.1823143397
 20
9.8121712834
 10
-6.1889719339
 20
9.8014903216
 10
-6.196030583
 20
9.7912071962
 10
-6.2034702388
 20
9.7813509652
 10
-6.2112712749
 20
9.771947489
 10
-6.2194125942
 20
9.7630222313
 10
-6.2278721296
 20
9.7545994686
 10
-6.2366266665
 20
9.746702396
 10
-6.2456520867
 20
9.7393527988
 10
-6.2549236531
 20
9.7325708105
 10
-6.2644161223
 20
9.7263748861
 10
-6.2741035906
 20
9.7207819362
 10
-6.2839596152
 20
9.7158072342
 10
-6.2939572611
 20
9.7114643819
 10
-6.304069197
 20
9.7077652542
 10
-6.3142677951
 20
9.7047199571
 10
-6.3245252068
 20
9.7023368054
 10
-6.3348134148
 20
9.7006223084
 10
-6.3451043334
 20
9.6995811479
 10
-6.3553698383
 20
9.699216171
 10
-6.3655818442
 20
9.6995283715
 10
-6.3757124294
 20
9.7005168835
 10
-6.3857339551
 20
9.7021789978
  0
LINE
  5
2D6
100
AcDbEntity
  8
RACCORDO
100
AcDbLine
 62
253
  6
CONTINUOUS
 10
-4.5587741322
 20
10.2738896061
 11
-4.0305069605
 21
10.9168417619
  0
LINE
  5
2D7
100
AcDbEntity
  8
RACCORDO
100
AcDbLine
 62
7
  6
CONTINUOUS
 10
-4.5587741322
 20
10.1843591398
 11
-3.959361628
 21
10.9139020348
  0
LWPOLYLINE
  5
2D8
100
AcDbEntity
  8
RACCORDO
100
AcDbPolyline
 62
7
  6
CONTINUOUS
 90
5
 70
0
 10
-3.9593614637
 20
10.9139064129
 10
-3.9597100102
 20
10.9135172765
 10
-3.9612084345
 20
10.9123739313
 10
-3.963228357
 20
10.9114483253
 10
-3.9657577108
 20
10.9107131736
  0
LINE
  5
2D9
100
AcDbEntity
  8
RACCORDO
100
AcDbLine
 62
7
  6
CONTINUOUS
 10
-23.2532365049
 20
-3.6313634123
 11
-23.1680265902
 21
-3.5745573396
  0
LINE
  5
2DA
100
AcDbEntity
  8
DRAFT
100
AcDbLine
 62
7
  6
CONTINUOUS
 10
-23.1680265912
 20
-3.5745573402
 11
-21.6715528721
 21
-2.6529420799
  0
LINE
  5
2DB
100
AcDbEntity
  8
0
100
AcDbLine
 62
7
  6
CONTINUOUS
 10
-27.8665665857
 20
-6.4684049846
 11
-23.3559805345
 21
-3.6905246352
  0
LWPOLYLINE
  5
2DC
100
AcDbEntity
  8
RACCORDO
100
AcDbPolyline
 62
253
  6
CONTINUOUS
 90
43
 70
0
 10
-10.0795123959
 20
6.3974785034
 10
-10.1171642418
 20
6.3758929346
 10
-10.1546980399
 20
6.3527629609
 10
-10.1920678957
 20
6.3281175783
 10
-10.229228145
 20
6.3019882745
 10
-10.2661333431
 20
6.2744071635
 10
-10.302738284
 20
6.2454067526
 10
-10.3389989674
 20
6.2150224278
 10
-10.3748702394
 20
6.1832925954
 10
-10.4103057881
 20
6.1502567844
 10
-10.4452618782
 20
6.1159565332
 10
-10.479696198
 20
6.0804342079
 10
-10.5135654703
 20
6.0437329865
 10
-10.5468283141
 20
6.0058984342
 10
-10.5794440169
 20
5.9669776738
 10
-10.6113713969
 20
5.9270182752
 10
-10.6425714805
 20
5.8860697358
 10
-10.6730060296
 20
5.8441830809
 10
-10.7026363101
 20
5.8014100087
 10
-10.7314259722
 20
5.7578037841
 10
-10.7593399569
 20
5.7134184495
 10
-10.7863430191
 20
5.6683084177
 10
-10.8124021059
 20
5.6225296707
 10
-10.8374853992
 20
5.576139051
 10
-10.861561223
 20
5.5291934809
 10
-10.8846001634
 20
5.4817510361
 10
-10.9065740167
 20
5.433870738
 10
-10.9274548373
 20
5.3856118411
 10
-10.9472169984
 20
5.3370343529
 10
-10.9658364847
 20
5.2881983608
 10
-10.9832898278
 20
5.2391638203
 10
-10.9995556225
 20
5.1899915645
 10
-11.0146140707
 20
5.1407424838
 10
-11.0284462457
 20
5.0914768569
 10
-11.0410352943
 20
5.0422551531
 10
-11.0523656959
 20
4.9931389232
 10
-11.0624228611
 20
4.9441899643
 10
-11.0711943274
 20
4.8954699493
 10
-11.0786697384
 20
4.8470381124
 10
-11.084839948
 20
4.7989521782
 10
-11.0896972748
 20
4.7512709643
 10
-11.0932356951
 20
4.7040542612
 10
-11.095450789
 20
4.6573605391
  0
LWPOLYLINE
  5
2DD
100
AcDbEntity
  8
RACCORDO
100
AcDbPolyline
 62
253
  6
CONTINUOUS
 90
43
 70
0
 10
-9.7136796558
 20
5.7944760576
 10
-9.7389580995
 20
5.7801355427
 10
-9.7641011264
 20
5.7648028322
 10
-9.7891087364
 20
5.7484779261
 10
-9.8140128347
 20
5.7311375033
 10
-9.8387815163
 20
5.712804885
 10
-9.8633190653
 20
5.6935500345
 10
-9.8876235073
 20
5.6733700627
 10
-9.9116968168
 20
5.6522678587
 10
-9.9354492021
 20
5.6303220535
 10
-9.9588791967
 20
5.6075297248
 10
-9.9819882671
 20
5.5838937948
 10
-10.0046910206
 20
5.5595016606
 10
-10.0269860011
 20
5.5343504949
 10
-10.0488746647
 20
5.5084431249
 10
-10.0702759877
 20
5.4818754295
 10
-10.0911882297
 20
5.4546448612
 10
-10.1116131311
 20
5.4267539675
 10
-10.1314748886
 20
5.3983062693
 10
-10.1507713444
 20
5.3692997902
 10
-10.1695046563
 20
5.3397365066
 10
-10.1876054944
 20
5.3097258683
 10
-10.2050715218
 20
5.2792662145
 10
-10.2219050755
 20
5.2483592061
 10
-10.2380438369
 20
5.2171192756
 10
-10.2534852723
 20
5.1855450807
 10
-10.2682319154
 20
5.1536379637
 10
-10.2822290485
 20
5.1215163848
 10
-10.2954738284
 20
5.0891796803
 10
-10.3079690984
 20
5.0566285139
 10
-10.3196686702
 20
5.0239833361
 10
-10.330569597
 20
4.9912438537
 10
-10.3406748257
 20
4.9584103599
 10
-10.3499470088
 20
4.9256041845
 10
-10.3583831193
 20
4.8928250736
 10
-10.3659861842
 20
4.8600732811
 10
-10.3727279369
 20
4.8274708985
 10
-10.3786051421
 20
4.7950176336
 10
-10.3836210351
 20
4.7627137787
 10
-10.387757055
 20
4.7306823023
 10
-10.3910070148
 20
4.6989641941
 10
-10.3933771015
 20
4.6675184644
 10
-10.3948673152
 20
4.6363451134
  0
LINE
  5
2DE
100
AcDbEntity
  8
RACCORDO
100
AcDbLine
 62
7
  6
CONTINUOUS
 10
-5.448834315
 20
8.9012341741
 11
-4.5587741322
 21
9.398530985
  0
LINE
  5
2DF
100
AcDbEntity
  8
RACCORDO
100
AcDbLine
 62
253
  6
CONTINUOUS
 10
-10.0795123959
 20
6.3974785034
 11
-5.5604812575
 21
8.8645504316
  0
LINE
  5
2E0
100
AcDbEntity
  8
RACCORDO
100
AcDbLine
 62
253
  6
CONTINUOUS
 10
-4.2159903834
 20
8.7958262274
 11
-9.7136796558
 21
5.7944760576
  0
LINE
  5
2E1
100
AcDbEntity
  8
RACCORDO
100
AcDbLine
 62
7
  6
CONTINUOUS
 10
1.0575987985
 20
13.29910243
 11
-4.4339445298
 21
10.3362888191
  0
LWPOLYLINE
  5
2E2
100
AcDbEntity
  8
RACCORDO
100
AcDbPolyline
 62
7
  6
CONTINUOUS
 90
13
 70
0
 10
-5.448834315
 20
8.9012341741
 10
-5.4567046066
 20
8.8970268659
 10
-5.4648914757
 20
8.8930164566
 10
-5.4733796645
 20
8.8892096941
 10
-5.4821538877
 20
8.8856167695
 10
-5.4911972447
 20
8.8822399959
 10
-5.5004910902
 20
8.879073676
 10
-5.510017995
 20
8.8761260569
 10
-5.5197599276
 20
8.8733989597
 10
-5.5296964144
 20
8.8708762271
 10
-5.5398079125
 20
8.8685548798
 10
-5.5500759916
 20
8.8664452585
 10
-5.5604812575
 20
8.8645504316
  0
LINE
  5
2E3
100
AcDbEntity
  8
RACCORDO
100
AcDbLine
 62
7
  6
CONTINUOUS
 10
1.0575987985
 20
12.8017724731
 11
-4.3005525386
 21
9.9692220928
  0
LINE
  5
2E4
100
AcDbEntity
  8
DRAFT
100
AcDbLine
 62
7
  6
CONTINUOUS
 10
19.2000137156
 20
21.9931493445
 11
18.1393535439
 21
21.4628192586
  0
LINE
  5
2E5
100
AcDbEntity
  8
ASSI
100
AcDbLine
 62
7
  6
CONTINUOUS
 10
19.2000137156
 20
21.9931493445
 11
18.1393535439
 21
21.4628192586
  0
LWPOLYLINE
  5
2E6
100
AcDbEntity
  8
RACCORDO
100
AcDbPolyline
 62
253
  6
CONTINUOUS
 90
5
 70
0
 10
22.5008999544
 20
20.3501363333
 10
22.5703369899
 20
20.3840502183
 10
22.6335414959
 20
20.4136526501
 10
22.68983628
 20
20.4386264593
 10
22.7386181826
 20
20.4587040686
  0
LWPOLYLINE
  5
2E7
100
AcDbEntity
  8
ASSI
100
AcDbPolyline
 62
253
  6
CONTINUOUS
 90
5
 70
0
 10
22.5008999544
 20
20.3501363333
 10
22.5703369899
 20
20.3840502183
 10
22.6335414959
 20
20.4136526501
 10
22.68983628
 20
20.4386264593
 10
22.7386181826
 20
20.4587040686
  0
LINE
  5
2E8
100
AcDbEntity
  8
DRAFT
100
AcDbLine
 62
7
  6
CONTINUOUS
 10
-3.8090750192
 20
9.7201922477
 11
1.8601282141
 21
12.4740025451
  0
LINE
  5
2E9
100
AcDbEntity
  8
ASSI
100
AcDbLine
 62
7
  6
CONTINUOUS
 10
-3.8090750192
 20
9.7201922477
 11
1.8601282141
 21
12.4740025451
  0
LINE
  5
2EA
100
AcDbEntity
  8
RACCORDO
100
AcDbLine
 62
253
  6
CONTINUOUS
 10
2.482229202
 20
11.4010370567
 11
21.9880658873
 21
20.8759794275
  0
LINE
  5
2EB
100
AcDbEntity
  8
ASSI
100
AcDbLine
 62
253
  6
CONTINUOUS
 10
2.482229202
 20
11.4010370567
 11
21.9880658873
 21
20.8759794275
  0
LINE
  5
2EC
100
AcDbEntity
  8
RACCORDO
100
AcDbLine
 62
253
  6
CONTINUOUS
 10
2.8198975359
 20
10.8186453296
 11
22.5462725115
 21
20.4009573296
  0
LINE
  5
2ED
100
AcDbEntity
  8
ASSI
100
AcDbLine
 62
253
  6
CONTINUOUS
 10
2.8198975359
 20
10.8186453296
 11
22.5462725115
 21
20.4009573296
  0
LINE
  5
2EE
100
AcDbEntity
  8
RACCORDO
100
AcDbLine
 62
7
  6
CONTINUOUS
 10
19.7784789446
 20
21.9807728989
 11
1.1979288983
 21
13.0022685277
  0
LINE
  5
2EF
100
AcDbEntity
  8
ASSI
100
AcDbLine
 62
7
  6
CONTINUOUS
 10
19.7784789446
 20
21.9807728989
 11
1.1979288983
 21
13.0022685277
  0
LWPOLYLINE
  5
2F0
100
AcDbEntity
  8
RACCORDO
100
AcDbPolyline
 62
253
  6
CONTINUOUS
 90
11
 70
0
 10
22.5462725115
 20
20.4009573296
 10
22.6003173898
 20
20.4265602304
 10
22.649719561
 20
20.4490195976
 10
22.6941104515
 20
20.4681672463
 10
22.7331540051
 20
20.4838575282
 10
22.766551851
 20
20.4959701249
 10
22.7940535646
 20
20.504414138
 10
22.8154547451
 20
20.5091267175
 10
22.8305947155
 20
20.5100723863
 10
22.8393607705
 20
20.5072441292
 10
22.84082448
 20
20.5055161472
  0
LWPOLYLINE
  5
2F1
100
AcDbEntity
  8
ASSI
100
AcDbPolyline
 62
253
  6
CONTINUOUS
 90
11
 70
0
 10
22.5462725115
 20
20.4009573296
 10
22.6003173898
 20
20.4265602304
 10
22.649719561
 20
20.4490195976
 10
22.6941104515
 20
20.4681672463
 10
22.7331540051
 20
20.4838575282
 10
22.766551851
 20
20.4959701249
 10
22.7940535646
 20
20.504414138
 10
22.8154547451
 20
20.5091267175
 10
22.8305947155
 20
20.5100723863
 10
22.8393607705
 20
20.5072441292
 10
22.84082448
 20
20.5055161472
  0
LINE
  5
2F2
100
AcDbEntity
  8
RACCORDO
100
AcDbLine
 62
253
  6
CONTINUOUS
 10
-3.8517750612
 20
9.7448333541
 11
-4.5587741322
 21
9.4108897217
  0
LINE
  5
2F3
100
AcDbEntity
  8
RACCORDO
100
AcDbLine
 62
253
  6
CONTINUOUS
 10
-3.4981139605
 20
9.1349076635
 11
-4.2159903834
 21
8.7958262274
  0
LWPOLYLINE
  5
2F4
100
AcDbEntity
  8
RACCORDO
100
AcDbPolyline
 62
253
  6
CONTINUOUS
 90
9
 70
0
 10
21.9880658873
 20
20.8759794275
 10
22.0489560488
 20
20.9018996003
 10
22.1093011878
 20
20.921136506
 10
22.1686521842
 20
20.9335469736
 10
22.2265673168
 20
20.9390386378
 10
22.282615551
 20
20.9375706267
 10
22.3363797463
 20
20.9291538662
 10
22.3874597616
 20
20.9138509981
 10
22.4229387679
 20
20.8983427571
  0
LWPOLYLINE
  5
2F5
100
AcDbEntity
  8
ASSI
100
AcDbPolyline
 62
253
  6
CONTINUOUS
 90
9
 70
0
 10
21.9880658873
 20
20.8759794275
 10
22.0489560488
 20
20.9018996003
 10
22.1093011878
 20
20.921136506
 10
22.1686521842
 20
20.9335469736
 10
22.2265673168
 20
20.9390386378
 10
22.282615551
 20
20.9375706267
 10
22.3363797463
 20
20.9291538662
 10
22.3874597616
 20
20.9138509981
 10
22.4229387679
 20
20.8983427571
  0
LWPOLYLINE
  5
2F6
100
AcDbEntity
  8
RACCORDO
100
AcDbPolyline
 62
7
  6
CONTINUOUS
 90
105
 70
0
 10
-18.7366540528
 20
-2.7692008615
 10
-18.6177845285
 20
-2.8302273202
 10
-18.4876422687
 20
-2.9006930317
 10
-18.3576256125
 20
-2.974913449
 10
-18.2278175814
 20
-3.0528459627
 10
-18.0982919972
 20
-3.1344478353
 10
-17.9691196034
 20
-3.2196766704
 10
-17.8403725206
 20
-3.3084881347
 10
-17.7121245491
 20
-3.400832498
 10
-17.5844486262
 20
-3.4966593945
 10
-17.4574174217
 20
-3.5959176407
 10
-17.3311043364
 20
-3.6985506066
 10
-17.2055830237
 20
-3.8044996506
 10
-17.0809250582
 20
-3.9137067048
 10
-16.9572009272
 20
-4.0261099413
 10
-16.8344822329
 20
-4.1416447498
 10
-16.7128390221
 20
-4.260246874
 10
-16.5923394815
 20
-4.3818490305
 10
-16.4730520178
 20
-4.5063818248
 10
-16.3550441918
 20
-4.6337757769
 10
-16.2383819939
 20
-4.7639582278
 10
-16.123131097
 20
-4.8968548253
 10
-16.0093565516
 20
-5.0323910313
 10
-15.8971216501
 20
-5.1704894348
 10
-15.786489049
 20
-5.3110711746
 10
-15.6775209721
 20
-5.4540570966
 10
-15.5702777374
 20
-5.5993654853
 10
-15.4648187507
 20
-5.7469134145
 10
-15.3612031316
 20
-5.8966175659
 10
-15.2594879756
 20
-6.0483923626
 10
-15.1597292332
 20
-6.2021512393
 10
-15.0619826279
 20
-6.3578072282
 10
-14.9663018365
 20
-6.5152712838
 10
-14.8727392705
 20
-6.6744534389
 10
-14.7813469081
 20
-6.835263732
 10
-14.6921748874
 20
-6.9976099116
 10
-14.6052722814
 20
-7.161398236
 10
-14.5206873319
 20
-7.326535709
 10
-14.4384660911
 20
-7.4929278188
 10
-14.3586536316
 20
-7.6604781791
 10
-14.2812941414
 20
-7.8290913907
 10
-14.2064294572
 20
-7.9986710551
 10
-14.1341002935
 20
-8.1691189329
 10
-14.0643464868
 20
-8.3403379496
 10
-13.9972055696
 20
-8.5122301303
 10
-13.9327138381
 20
-8.6846955697
 10
-13.8709065822
 20
-8.8576360506
 10
-13.8118168351
 20
-9.0309525348
 10
-13.7554763682
 20
-9.2045436276
 10
-13.7019158166
 20
-9.3783102197
 10
-13.651163417
 20
-9.5521530317
 10
-13.6032460189
 20
-9.7259702493
 10
-13.5581893925
 20
-9.8996625322
 10
-13.5160168729
 20
-10.0731308084
 10
-13.4767501736
 20
-10.2462736264
 10
-13.4404100882
 20
-10.418991812
 10
-13.4070148971
 20
-10.5911872174
 10
-13.3765809402
 20
-10.7627600303
 10
-13.3491238563
 20
-10.9336122759
 10
-13.3246569198
 20
-11.1036467849
 10
-13.3031911934
 20
-11.2727652122
 10
-13.2847371443
 20
-11.4408707758
 10
-13.2693028587
 20
-11.6078683806
 10
-13.2568939811
 20
-11.7736626348
 10
-13.2475159216
 20
-11.9381547977
 10
-13.2411712911
 20
-12.1012560827
 10
-13.2378602758
 20
-12.2628863021
 10
-13.2375835039
 20
-12.4229533689
 10
-13.2403394809
 20
-12.5813662978
 10
-13.2461244459
 20
-12.7380466212
 10
-13.2549344657
 20
-12.892906074
 10
-13.2667634571
 20
-13.0458550658
 10
-13.281603189
 20
-13.1968134852
 10
-13.2994447076
 20
-13.3456949122
 10
-13.3202771233
 20
-13.4924143055
 10
-13.3440875846
 20
-13.6368943389
 10
-13.3708617776
 20
-13.7790502726
 10
-13.4005842369
 20
-13.9188027753
 10
-13.4332388053
 20
-14.0560833746
 10
-13.4688055646
 20
-14.1908081351
 10
-13.5072653793
 20
-14.3229047904
 10
-13.5486028175
 20
-14.4523222798
 10
-13.5927953168
 20
-14.5789839481
 10
-13.6398193844
 20
-14.7028169403
 10
-13.6896587434
 20
-14.8237749776
 10
-13.7422876891
 20
-14.9417856121
 10
-13.7976792734
 20
-15.0567788174
 10
-13.855816097
 20
-15.1687109923
 10
-13.916672231
 20
-15.2775185373
 10
-13.9802150386
 20
-15.3831298561
 10
-14.0464168809
 20
-15.4854899012
 10
-14.1152489624
 20
-15.5845409507
 10
-14.1866739536
 20
-15.6802163742
 10
-14.2606492823
 20
-15.7724516113
 10
-14.3371371908
 20
-15.8611904162
 10
-14.4161001446
 20
-15.9463801677
 10
-14.497493332
 20
-16.0279672483
 10
-14.581275206
 20
-16.1059027857
 10
-14.6674049648
 20
-16.1801416394
 10
-14.7558373128
 20
-16.2506405683
 10
-14.8465280049
 20
-16.3173578064
 10
-14.9394332175
 20
-16.3802546951
 10
-15.0345072784
 20
-16.439296303
 10
-15.1317034972
 20
-16.4944471257
 10
-15.1584406264
 20
-16.5087382888
  0
LWPOLYLINE
  5
2F7
100
AcDbEntity
  8
RACCORDO
100
AcDbPolyline
 62
253
  6
CONTINUOUS
 90
122
 70
0
 10
-18.7626346405
 20
-2.7137374013
 10
-18.6302680756
 20
-2.7818399086
 10
-18.4979818917
 20
-2.8538134005
 10
-18.3657759629
 20
-2.9296578166
 10
-18.2335459678
 20
-3.009425581
 10
-18.1013957233
 20
-3.0930640271
 10
-17.9696371851
 20
-3.1804153973
 10
-17.8382715622
 20
-3.2714951704
 10
-17.7072966337
 20
-3.3662873811
 10
-17.5770190921
 20
-3.4645870487
 10
-17.4474451899
 20
-3.5664047129
 10
-17.3185671789
 20
-3.6717291142
 10
-17.1906706569
 20
-3.780322528
 10
-17.0637845686
 20
-3.8921690862
 10
-16.9378780369
 20
-4.0072837255
 10
-16.8131468566
 20
-4.1254748956
 10
-16.6896006937
 20
-4.2467349095
 10
-16.567227546
 20
-4.3710703265
 10
-16.4461906522
 20
-4.4983109374
 10
-16.3264768814
 20
-4.6284728936
 10
-16.2080966502
 20
-4.7615387312
 10
-16.0912484911
 20
-4.897287805
 10
-15.9759270835
 20
-5.0357327754
 10
-15.8621347195
 20
-5.1768595142
 10
-15.7500813721
 20
-5.3204072025
 10
-15.6397736785
 20
-5.4663740435
 10
-15.5312017392
 20
-5.6147602486
 10
-15.4245507885
 20
-5.7653080427
 10
-15.3198252916
 20
-5.9180159013
 10
-15.2170173464
 20
-6.0728836737
 10
-15.1162937381
 20
-6.229655693
 10
-15.0176545989
 20
-6.3883362978
 10
-14.9210962432
 20
-6.5489194118
 10
-14.8267798722
 20
-6.7111338126
 10
-14.7347062145
 20
-6.8749839766
 10
-14.6448709482
 20
-7.0404636636
 10
-14.557427892
 20
-7.2072856688
 10
-14.4723803881
 20
-7.3754499386
 10
-14.3897215435
 20
-7.5449547763
 10
-14.3095900645
 20
-7.7155106273
 10
-14.2319892484
 20
-7.8871167451
 10
-14.1569123573
 20
-8.0597721722
 10
-14.0844833248
 20
-8.2331871727
 10
-14.0147044589
 20
-8.4073633247
 10
-13.9475701836
 20
-8.5822974227
 10
-13.8831929274
 20
-8.7576927109
 10
-13.8215752467
 20
-8.9335516236
 10
-13.7627115597
 20
-9.1098702105
 10
-13.7067024552
 20
-9.2863423176
 10
-13.65355201
 20
-9.4629670448
 10
-13.6032534381
 20
-9.6397439246
 10
-13.5558914435
 20
-9.8163676516
 10
-13.5114704154
 20
-9.9928362149
 10
-13.4699836254
 20
-10.1691504335
 10
-13.4314995386
 20
-10.3450094618
 10
-13.3960227383
 20
-10.5204093872
 10
-13.3635467157
 20
-10.6953531292
 10
-13.3341237552
 20
-10.8695503151
 10
-13.3077582051
 20
-11.0429936578
 10
-13.2844442321
 20
-11.2156896647
 10
-13.2642193047
 20
-11.3873688803
 10
-13.2470864233
 20
-11.5580337173
 10
-13.2330415335
 20
-11.7276811938
 10
-13.2221119868
 20
-11.8960339929
 10
-13.214302818
 20
-12.0631056855
 10
-13.2096084066
 20
-12.2288823625
 10
-13.2080406502
 20
-12.3930457503
 10
-13.2096076553
 20
-12.5555919512
 10
-13.2143013145
 20
-12.716524816
 10
-13.2221097817
 20
-12.8755379821
 10
-13.2330387081
 20
-13.032612459
 10
-13.247083028
 20
-13.1877674846
 10
-13.2642153488
 20
-13.3407543052
 10
-13.2844397165
 20
-13.4915668054
 10
-13.3077531397
 20
-13.6402115858
 10
-13.3341181354
 20
-13.7864592013
 10
-13.3635405312
 20
-13.9303118062
 10
-13.3960159847
 20
-14.0717679517
 10
-13.4314922137
 20
-14.2105930193
 10
-13.4699757339
 20
-14.3467853809
 10
-13.5114619553
 20
-14.4803475969
 10
-13.5558823937
 20
-14.6110515633
 10
-13.6032437655
 20
-14.7388937034
 10
-13.6535416938
 20
-14.8638787412
 10
-13.7066914927
 20
-14.9857912474
 10
-13.7626999414
 20
-15.1046267232
 10
-13.8215629699
 20
-15.2203910089
 10
-13.8831800281
 20
-15.3328843936
 10
-13.9475567155
 20
-15.4421004892
 10
-14.0146904578
 20
-15.5480471932
 10
-14.0844688109
 20
-15.6505464131
 10
-14.1568973562
 20
-15.7495927169
 10
-14.2319737803
 20
-15.8451931771
 10
-14.3095741188
 20
-15.9371886237
 10
-14.3897050934
 20
-16.0255748517
 10
-14.472363423
 20
-16.1103578026
 10
-14.5574104199
 20
-16.191393671
 10
-14.6448529785
 20
-16.2686775168
 10
-14.7346877551
 20
-16.3422160805
 10
-14.8267609454
 20
-16.4118832032
 10
-14.9210768906
 20
-16.4776720892
 10
-15.0176348425
 20
-16.5395913634
 10
-15.1162735557
 20
-16.5975380985
 10
-15.2169966982
 20
-16.6515062403
 10
-15.3198041552
 20
-16.7015036586
 10
-15.4245291496
 20
-16.7474483865
 10
-15.5311795408
 20
-16.7893359067
 10
-15.6397509064
 20
-16.8271724985
 10
-15.7500581474
 20
-16.8608924437
 10
-15.8621112084
 20
-16.8904894666
 10
-15.9759034072
 20
-16.9159715201
 10
-16.0912247701
 20
-16.937294264
 10
-16.2080731215
 20
-16.9544492069
 10
-16.3264536655
 20
-16.967446401
 10
-16.4461675193
 20
-16.9762693339
 10
-16.5672041925
 20
-16.980913961
 10
-16.6895768899
 20
-16.9813857288
 10
-16.8131222449
 20
-16.9776823483
 10
-16.9378520046
 20
-16.9698007916
 10
-17.0637567582
 20
-16.9577452952
 10
-17.1906413484
 20
-16.9415244391
 10
-17.2239945778
 20
-16.9362043966
  0
LINE
  5
2F8
100
AcDbEntity
  8
RACCORDO
100
AcDbLine
 62
253
  6
CONTINUOUS
 10
3.5259463266
 20
-14.7676543896
 11
4.3179831367
 21
-15.4235950387
  0
LINE
  5
2F9
100
AcDbEntity
  8
ASSI
100
AcDbLine
 62
253
  6
CONTINUOUS
 10
3.5259463266
 20
-14.7676543896
 11
4.3179831367
 21
-15.4235950387
  0
LWPOLYLINE
  5
2FA
100
AcDbEntity
  8
RACCORDO
100
AcDbPolyline
 62
7
  6
CONTINUOUS
 90
25
 70
0
 10
3.6986426367
 20
-19.7080388971
 10
3.6704464158
 20
-19.6763937925
 10
3.6294275022
 20
-19.6184544115
 10
3.5948421925
 20
-19.5532087882
 10
3.566769461
 20
-19.4802099678
 10
3.5451303334
 20
-19.3999049051
 10
3.5306263045
 20
-19.314892748
 10
3.5234912058
 20
-19.2253646862
 10
3.5234912058
 20
-19.1311295299
 10
3.5306263045
 20
-19.0342128572
 10
3.5451303334
 20
-18.9341813384
 10
3.566769461
 20
-18.8314683032
 10
3.5948421925
 20
-18.7293993182
 10
3.6294275022
 20
-18.6283395584
 10
3.6704464158
 20
-18.5279238489
 10
3.7169605162
 20
-18.4303822314
 10
3.7692322055
 20
-18.335532166
 10
3.8269990815
 20
-18.2435561927
 10
3.8885355204
 20
-18.1572319727
 10
3.9538396696
 20
-18.0768734346
 10
4.0229133816
 20
-18.0021666497
 10
4.0940365909
 20
-17.9349474943
 10
4.1666359423
 20
-17.8758279268
 10
4.2412847908
 20
-17.8241959887
 10
4.3179831367
 20
-17.78005168
  0
LWPOLYLINE
  5
2FB
100
AcDbEntity
  8
ASSI
100
AcDbPolyline
 62
7
  6
CONTINUOUS
 90
25
 70
0
 10
3.6986426367
 20
-19.7080388971
 10
3.6704464158
 20
-19.6763937925
 10
3.6294275022
 20
-19.6184544115
 10
3.5948421925
 20
-19.5532087882
 10
3.566769461
 20
-19.4802099678
 10
3.5451303334
 20
-19.3999049051
 10
3.5306263045
 20
-19.314892748
 10
3.5234912058
 20
-19.2253646862
 10
3.5234912058
 20
-19.1311295299
 10
3.5306263045
 20
-19.0342128572
 10
3.5451303334
 20
-18.9341813384
 10
3.566769461
 20
-18.8314683032
 10
3.5948421925
 20
-18.7293993182
 10
3.6294275022
 20
-18.6283395584
 10
3.6704464158
 20
-18.5279238489
 10
3.7169605162
 20
-18.4303822314
 10
3.7692322055
 20
-18.335532166
 10
3.8269990815
 20
-18.2435561927
 10
3.8885355204
 20
-18.1572319727
 10
3.9538396696
 20
-18.0768734346
 10
4.0229133816
 20
-18.0021666497
 10
4.0940365909
 20
-17.9349474943
 10
4.1666359423
 20
-17.8758279268
 10
4.2412847908
 20
-17.8241959887
 10
4.3179831367
 20
-17.78005168
  0
LWPOLYLINE
  5
2FC
100
AcDbEntity
  8
ASSI
100
AcDbPolyline
 62
7
  6
CONTINUOUS
 90
6
 70
0
 10
-9.0847518097
 20
18.2583705359
 10
-9.0848086507
 20
18.2596851091
 10
-9.0856188771
 20
18.263122783
 10
-9.0873465567
 20
18.2659447444
 10
-9.0899467235
 20
18.2682020326
 10
-9.0915261197
 20
18.2691094406
  0
LWPOLYLINE
  5
2FD
100
AcDbEntity
  8
RACCORDO
100
AcDbPolyline
 62
253
  6
CONTINUOUS
 90
31
 70
0
 10
-6.1600549231
 20
10.1982124551
 10
-6.1603499
 20
10.2096381628
 10
-6.1611257532
 20
10.2212762159
 10
-6.1623803563
 20
10.2330947167
 10
-6.1641102706
 20
10.245061273
 10
-6.1663107547
 20
10.2571430866
 10
-6.1689757776
 20
10.2693070436
 10
-6.1720980349
 20
10.2815198048
 10
-6.1756689691
 20
10.2937478973
 10
-6.1796787929
 20
10.3059578063
 10
-6.1841165162
 20
10.3181160666
 10
-6.188969976
 20
10.3301893548
 10
-6.1942258698
 20
10.3421445802
 10
-6.1998697923
 20
10.3539489758
 10
-6.2058862745
 20
10.365570188
 10
-6.2122588263
 20
10.3769763652
 10
-6.2189699819
 20
10.3881362453
 10
-6.2260013471
 20
10.399019241
 10
-6.2333336503
 20
10.4095955241
 10
-6.2409467951
 20
10.4198361071
 10
-6.2488199153
 20
10.4297129223
 10
-6.2569314321
 20
10.4391988994
 10
-6.2652591133
 20
10.448268039
 10
-6.2737801344
 20
10.4568954843
 10
-6.2824711408
 20
10.4650575891
 10
-6.2913083121
 20
10.4727319826
 10
-6.3002674273
 20
10.4798976308
 10
-6.3093239311
 20
10.4865348939
 10
-6.3184530014
 20
10.4926255804
 10
-6.3276296171
 20
10.4981529969
 10
-6.3368286267
 20
10.5031019939
  0
LWPOLYLINE
  5
2FE
100
AcDbEntity
  8
RACCORDO
100
AcDbPolyline
 62
7
  6
CONTINUOUS
 90
23
 70
0
 10
-7.9107848672
 20
10.6096319324
 10
-7.9104664593
 20
10.5970183801
 10
-7.9095078426
 20
10.5843954319
 10
-7.9079060683
 20
10.5718018917
 10
-7.9056619084
 20
10.5592808183
 10
-7.9027778683
 20
10.5468673932
 10
-7.8992560441
 20
10.5345886263
 10
-7.8951026789
 20
10.5224816995
 10
-7.8903278241
 20
10.5105863322
 10
-7.8849400292
 20
10.4989320528
 10
-7.8789516687
 20
10.4875530779
 10
-7.8723796275
 20
10.4764866831
 10
-7.8652401937
 20
10.4657638696
 10
-7.8575504007
 20
10.4554135003
 10
-7.8493330809
 20
10.4454686871
 10
-7.8406140471
 20
10.4359613647
 10
-7.8314128311
 20
10.426913302
 10
-7.8217563816
 20
10.4183515843
 10
-7.8116819798
 20
10.4103079212
 10
-7.80120943
 20
10.4027963887
 10
-7.79036674
 20
10.3958363799
 10
-7.7792029902
 20
10.3894566655
 10
-7.7725819402
 20
10.386021972
  0
LWPOLYLINE
  5
2FF
100
AcDbEntity
  8
RACCORDO
100
AcDbPolyline
 62
253
  6
CONTINUOUS
 90
18
 70
0
 10
-6.5125768827
 20
-31.7808268287
 10
-6.5123363015
 20
-31.7919981569
 10
-6.5116152103
 20
-31.8028985223
 10
-6.5104155685
 20
-31.8134982536
 10
-6.508740636
 20
-31.8237685078
 10
-6.5065949695
 20
-31.8336813163
 10
-6.5039844148
 20
-31.8432096655
 10
-6.5009160814
 20
-31.8523276141
 10
-6.4973983201
 20
-31.8610103523
 10
-6.4934407109
 20
-31.86923424
 10
-6.489054029
 20
-31.8769768937
 10
-6.4842502159
 20
-31.8842172428
 10
-6.4790423513
 20
-31.8909355801
 10
-6.4734446059
 20
-31.8971136295
 10
-6.4674722243
 20
-31.9027345703
 10
-6.46114149
 20
-31.9077830882
 10
-6.4544696691
 20
-31.912245435
 10
-6.4476095912
 20
-31.9160422761
  0
LWPOLYLINE
  5
300
100
AcDbEntity
  8
RACCORDO
100
AcDbPolyline
 62
253
  6
CONTINUOUS
 90
19
 70
0
 10
-7.8375615625
 20
10.5212435847
 10
-7.8373426913
 20
10.5105825925
 10
-7.8366861356
 20
10.500161176
 10
-7.835592798
 20
10.4900055986
 10
-7.8340643481
 20
10.4801397445
 10
-7.8321040296
 20
10.4705905478
 10
-7.8297174465
 20
10.4613873117
 10
-7.8269111137
 20
10.4525545851
 10
-7.8236915966
 20
10.4441125443
 10
-7.8200668275
 20
10.4360820298
 10
-7.8160457444
 20
10.4284829445
 10
-7.8116383712
 20
10.4213343227
 10
-7.8068557434
 20
10.4146540951
 10
-7.8017097705
 20
10.408458894
 10
-7.7962132416
 20
10.4027641138
 10
-7.7903798983
 20
10.3975839775
 10
-7.7842243094
 20
10.3929313861
 10
-7.7777617542
 20
10.3888178536
 10
-7.7725882661
 20
10.3860251346
  0
LWPOLYLINE
  5
301
100
AcDbEntity
  8
RACCORDO
100
AcDbPolyline
 62
253
  6
CONTINUOUS
 90
19
 70
0
 10
-6.5125768827
 20
9.8587512448
 10
-6.5123580115
 20
9.8480902526
 10
-6.5117014558
 20
9.837668836
 10
-6.5106081182
 20
9.8275132587
 10
-6.5090796683
 20
9.8176474046
 10
-6.5071193497
 20
9.8080982079
 10
-6.5047327667
 20
9.7988949718
 10
-6.5019264339
 20
9.7900622452
 10
-6.4987069168
 20
9.7816202044
 10
-6.4950821476
 20
9.7735896899
 10
-6.4910610645
 20
9.7659906046
 10
-6.4866536914
 20
9.7588419828
 10
-6.4818710635
 20
9.7521617552
 10
-6.4767250906
 20
9.7459665541
 10
-6.4712285618
 20
9.7402717739
 10
-6.4653952185
 20
9.7350916376
 10
-6.4592396296
 20
9.7304390462
 10
-6.4527770744
 20
9.7263255137
 10
-6.4476035863
 20
9.7235327947
  0
LWPOLYLINE
  5
302
100
AcDbEntity
  8
RACCORDO
100
AcDbPolyline
 62
7
  6
CONTINUOUS
 90
24
 70
0
 10
-6.4326071024
 20
17.1722396031
 10
-6.4331802868
 20
17.2067120092
 10
-6.4348793998
 20
17.2404619302
 10
-6.4377044413
 20
17.273489366
 10
-6.4416648759
 20
17.3058509234
 10
-6.446751239
 20
17.3374899956
 10
-6.4529351374
 20
17.3682367621
 10
-6.4602177528
 20
17.3980722896
 10
-6.4685979035
 20
17.4270155113
 10
-6.4780436507
 20
17.4549534072
 10
-6.4885675092
 20
17.48189957
 10
-6.5001569643
 20
17.507840407
 10
-6.512742533
 20
17.5326221199
 10
-6.5263177189
 20
17.5562194213
 10
-6.5408890184
 20
17.5786575986
 10
-6.5564064385
 20
17.5998587158
 10
-6.5728897258
 20
17.6198358058
 10
-6.5903191337
 20
17.6385758356
 10
-6.6085854284
 20
17.6559617712
 10
-6.6276740843
 20
17.6719706975
 10
-6.647599627
 20
17.6866255296
 10
-6.6682963994
 20
17.699877978
 10
-6.689788914
 20
17.7117338392
 10
-9.9188235312
 20
19.3262750251
  0
LINE
  5
303
100
AcDbEntity
  8
RACCORDO
100
AcDbLine
 62
7
  6
CONTINUOUS
 10
-7.9107848672
 20
10.9496058665
 11
-7.9107848672
 21
10.6096319324
  0
LINE
  5
304
100
AcDbEntity
  8
RACCORDO
100
AcDbLine
 62
7
  6
CONTINUOUS
 10
-7.9107848672
 20
-30.9034468455
 11
-7.9107848672
 21
-31.0299461411
  0
LINE
  5
305
100
AcDbEntity
  8
RACCORDO
100
AcDbLine
 62
253
  6
CONTINUOUS
 10
-7.8375615625
 20
10.8612175188
 11
-7.8375615625
 21
10.5212435847
  0
LINE
  5
306
100
AcDbEntity
  8
RACCORDO
100
AcDbLine
 62
253
  6
CONTINUOUS
 10
-7.8375615625
 20
-30.8727106764
 11
-7.8375615625
 21
-31.1183344888
  0
LINE
  5
307
100
AcDbEntity
  8
RACCORDO
100
AcDbLine
 62
7
  6
CONTINUOUS
 10
-7.207791913
 20
9.6496528564
 11
-7.207791913
 21
10.103626958
  0
LINE
  5
308
100
AcDbEntity
  8
RACCORDO
100
AcDbLine
 62
253
  6
CONTINUOUS
 10
-7.1345686083
 20
9.5579411615
 11
-7.1345686083
 21
10.0670153057
  0
LINE
  5
309
100
AcDbEntity
  8
RACCORDO
100
AcDbLine
 62
253
  6
CONTINUOUS
 10
-6.5125768827
 20
-31.7808268287
 11
-6.5125768827
 21
-31.4408528946
  0
LINE
  5
30A
100
AcDbEntity
  8
RACCORDO
100
AcDbLine
 62
253
  6
CONTINUOUS
 10
-6.5125768827
 20
9.8587512448
 11
-6.5125768827
 21
10.1987251789
  0
LINE
  5
30B
100
AcDbEntity
  8
RACCORDO
100
AcDbLine
 62
7
  6
CONTINUOUS
 10
-6.4326071024
 20
17.1722396031
 11
-6.4326071024
 21
16.9014393104
  0
LINE
  5
30C
100
AcDbEntity
  8
RACCORDO
100
AcDbLine
 62
253
  6
CONTINUOUS
 10
-6.1600549231
 20
-31.7813395526
 11
-6.1600549231
 21
-31.4413656184
  0
LINE
  5
30D
100
AcDbEntity
  8
RACCORDO
100
AcDbLine
 62
253
  6
CONTINUOUS
 10
-6.1600549231
 20
9.858238521
 11
-6.1600549231
 21
10.1982124551
  0
LINE
  5
30E
100
AcDbEntity
  8
RACCORDO
100
AcDbLine
 62
253
  6
CONTINUOUS
 10
-5.8013562746
 20
-30.4643564174
 11
-5.8013562746
 21
-30.0179944044
  0
LINE
  5
30F
100
AcDbEntity
  8
RACCORDO
100
AcDbLine
 62
253
  6
CONTINUOUS
 10
-5.8013562746
 20
8.8913349947
 11
-5.8013562746
 21
9.5801556176
  0
LINE
  5
310
100
AcDbEntity
  8
RACCORDO
100
AcDbLine
 62
253
  6
CONTINUOUS
 10
-5.448834315
 20
-30.5898691413
 11
-5.448834315
 21
-29.8700200047
  0
LINE
  5
311
100
AcDbEntity
  8
RACCORDO
100
AcDbLine
 62
253
  6
CONTINUOUS
 10
-5.448834315
 20
8.9012341741
 11
-5.448834315
 21
9.7097349981
  0
LWPOLYLINE
  5
312
100
AcDbEntity
  8
RACCORDO
100
AcDbPolyline
 62
253
  6
CONTINUOUS
 90
22
 70
0
 10
-6.5125768827
 20
-31.4408528946
 10
-6.512357028
 20
-31.4299483834
 10
-6.5116980108
 20
-31.4188511397
 10
-6.51060147
 20
-31.4075887664
 10
-6.5090701391
 20
-31.396189317
 10
-6.5071078238
 20
-31.384681107
 10
-6.504719378
 20
-31.3730926408
 10
-6.5019107079
 20
-31.3614526588
 10
-6.4986888024
 20
-31.3497901962
 10
-6.4950617048
 20
-31.3381343903
 10
-6.4910384252
 20
-31.3265141998
 10
-6.4866289827
 20
-31.3149585664
 10
-6.4818444461
 20
-31.3034964645
 10
-6.4766968127
 20
-31.2921565538
 10
-6.4711988447
 20
-31.2809668734
 10
-6.465364111
 20
-31.2699550135
 10
-6.4592058945
 20
-31.259146282
 10
-6.4527406203
 20
-31.2485697341
 10
-6.4459882535
 20
-31.238257413
 10
-6.4389673947
 20
-31.2282363449
 10
-6.4316946737
 20
-31.2185289397
 10
-6.4241885351
 20
-31.2091587208
  0
LWPOLYLINE
  5
313
100
AcDbEntity
  8
RACCORDO
100
AcDbPolyline
 62
253
  6
CONTINUOUS
 90
31
 70
0
 10
-7.8375615625
 20
10.8612175188
 10
-7.837321087
 20
10.8726268947
 10
-7.8366003149
 20
10.8842457049
 10
-7.8354012069
 20
10.8960423386
 10
-7.8337270257
 20
10.9079847008
 10
-7.831582326
 20
10.9200403006
 10
-7.8289729428
 20
10.9321763384
 10
-7.8259059755
 20
10.9443597962
 10
-7.8223897682
 20
10.9565575269
 10
-7.8184338874
 20
10.9687363444
 10
-7.8140490957
 20
10.9808631141
 10
-7.8092473227
 20
10.9929048433
 10
-7.8040416324
 20
11.0048287702
 10
-7.7984461878
 20
11.0166024539
 10
-7.7924762123
 20
11.028193862
 10
-7.7861479481
 20
11.0395714581
 10
-7.7794786125
 20
11.0507042876
 10
-7.7724863503
 20
11.0615620617
 10
-7.7651901854
 20
11.07211524
 10
-7.7576099681
 20
11.0823351107
 10
-7.7497663217
 20
11.0921938691
 10
-7.7416805861
 20
11.1016646926
 10
-7.7333747601
 20
11.1107218144
 10
-7.7248714409
 20
11.1193405929
 10
-7.7161937634
 20
11.1274975793
 10
-7.7073653365
 20
11.1351705811
 10
-7.6984101796
 20
11.1423387227
 10
-7.6893526567
 20
11.1489825018
 10
-7.6802174102
 20
11.1550838431
 10
-7.6710292942
 20
11.1606261467
 10
-7.6618133066
 20
11.1655943338
  0
LWPOLYLINE
  5
314
100
AcDbEntity
  8
RACCORDO
100
AcDbPolyline
 62
253
  6
CONTINUOUS
 90
31
 70
0
 10
-6.5125768827
 20
10.1987251789
 10
-6.5123363015
 20
10.2101370883
 10
-6.5116152103
 20
10.221758545
 10
-6.5104155685
 20
10.2335579181
 10
-6.508740636
 20
10.2455031047
 10
-6.5065949695
 20
10.2575615798
 10
-6.5039844148
 20
10.2697004836
 10
-6.5009160814
 20
10.2818867657
 10
-6.4973983201
 20
10.2940872651
 10
-6.4934407109
 20
10.306268762
 10
-6.489054029
 20
10.3183980976
 10
-6.4842502159
 20
10.3304422598
 10
-6.4790423513
 20
10.3423684618
 10
-6.4734446059
 20
10.3541442565
 10
-6.4674722243
 20
10.3657375789
 10
-6.46114149
 20
10.3771168311
 10
-6.4544696691
 20
10.3882509988
 10
-6.4474749008
 20
10.3991098304
 10
-6.4401761639
 20
10.4096638664
 10
-6.4325932213
 20
10.4198845092
 10
-6.424746803
 20
10.4297437981
 10
-6.4166585117
 20
10.4392146143
 10
-6.4083505439
 20
10.4482710423
 10
-6.3998453716
 20
10.4568886589
 10
-6.3911659088
 20
10.4650442728
 10
-6.3823338183
 20
10.4727173213
 10
-6.3733750353
 20
10.4798850689
 10
-6.3643196984
 20
10.4865239754
 10
-6.3551945296
 20
10.4926157728
 10
-6.3460225251
 20
10.4981464202
 10
-6.3368286267
 20
10.5031019939
  0
LWPOLYLINE
  5
315
100
AcDbEntity
  8
RACCORDO
100
AcDbPolyline
 62
253
  6
CONTINUOUS
 90
21
 70
0
 10
-9.7136796558
 20
-31.4435951825
 10
-9.7149676145
 20
-31.4643872686
 10
-9.7170385567
 20
-31.4847253983
 10
-9.7198877964
 20
-31.5045635526
 10
-9.7235088868
 20
-31.523856844
 10
-9.7278936343
 20
-31.5425616179
 10
-9.7330321179
 20
-31.5606355511
 10
-9.7389127105
 20
-31.5780377479
 10
-9.7455221063
 20
-31.5947288327
 10
-9.7528453503
 20
-31.6106710386
 10
-9.7608658723
 20
-31.6258282935
 10
-9.7695655243
 20
-31.6401663012
 10
-9.7789246217
 20
-31.6536526192
 10
-9.7889219878
 20
-31.6662567323
 10
-9.7995350016
 20
-31.6779501211
 10
-9.8107396493
 20
-31.6887063273
 10
-9.8225105782
 20
-31.6985010129
 10
-9.8348211544
 20
-31.7073120156
 10
-9.8476435228
 20
-31.7151193988
 10
-9.8609486704
 20
-31.7219054969
 10
-9.8674869013
 20
-31.7247908809
  0
LINE
  5
316
100
AcDbEntity
  8
RACCORDO
100
AcDbLine
 62
7
  6
CONTINUOUS
 10
22.9150504301
 20
18.6851008035
 11
19.2901513538
 21
16.7845956187
  0
LINE
  5
317
100
AcDbEntity
  8
ASSI
100
AcDbLine
 62
7
  6
CONTINUOUS
 10
22.9150504301
 20
18.6851008035
 11
19.2901513538
 21
16.7845956187
  0
LINE
  5
318
100
AcDbEntity
  8
RACCORDO
100
AcDbLine
 62
253
  6
CONTINUOUS
 10
22.5008999544
 20
20.3501363333
 11
-3.4981139605
 21
7.1230655359
  0
LINE
  5
319
100
AcDbEntity
  8
ASSI
100
AcDbLine
 62
253
  6
CONTINUOUS
 10
22.5008999544
 20
20.3501363333
 11
-3.4981139605
 21
7.1230655359
  0
LINE
  5
31A
100
AcDbEntity
  8
RACCORDO
100
AcDbLine
 62
253
  6
CONTINUOUS
 10
22.9150504301
 20
18.9185027586
 11
-3.4981139605
 21
5.4807317524
  0
LINE
  5
31B
100
AcDbEntity
  8
ASSI
100
AcDbLine
 62
253
  6
CONTINUOUS
 10
22.9150504301
 20
18.9185027586
 11
-3.4981139605
 21
5.4807317524
  0
LWPOLYLINE
  5
31C
100
AcDbEntity
  8
RACCORDO
100
AcDbPolyline
 62
7
  6
CONTINUOUS
 90
30
 70
0
 10
-22.1484332265
 20
-2.524962104
 10
-22.130075597
 20
-2.5163602494
 10
-22.0255865584
 20
-2.470287429
 10
-21.9192646056
 20
-2.4282611019
 10
-21.8111717806
 20
-2.3902989786
 10
-21.7013616757
 20
-2.3564149058
 10
-21.5898958186
 20
-2.3266254061
 10
-21.4768391983
 20
-2.300943008
 10
-21.3622504764
 20
-2.2793777947
 10
-21.2461943091
 20
-2.2619407469
 10
-21.128738547
 20
-2.2486384797
 10
-21.0099471756
 20
-2.2394760598
 10
-20.8898875626
 20
-2.2344582101
 10
-20.7686309635
 20
-2.233585041
 10
-20.6462480143
 20
-2.2368553099
 10
-20.522808943
 20
-2.2442667088
 10
-20.3983877795
 20
-2.2558119299
 10
-20.2730616503
 20
-2.2714818156
 10
-20.1469040967
 20
-2.291266157
 10
-20.0199900803
 20
-2.3151498183
 10
-19.8923993291
 20
-2.3431152258
 10
-19.7642079115
 20
-2.3751439093
 10
-19.6354916627
 20
-2.4112125318
 10
-19.506329954
 20
-2.4512953104
 10
-19.3767988277
 20
-2.4953661804
 10
-19.2469727826
 20
-2.5433953082
 10
-19.1169284855
 20
-2.5953505956
 10
-18.9867421774
 20
-2.6511984144
 10
-18.856496248
 20
-2.7108970617
 10
-18.7366542978
 20
-2.76920076
  0
LWPOLYLINE
  5
31D
100
AcDbEntity
  8
RACCORDO
100
AcDbPolyline
 62
253
  6
CONTINUOUS
 90
34
 70
0
 10
-10.3948673152
 20
4.6363451134
 10
-10.4121616464
 20
4.6292176468
 10
-10.430187108
 20
4.6225043603
 10
-10.4489037677
 20
4.6162201259
 10
-10.4682701623
 20
4.6103788652
 10
-10.4882433894
 20
4.6049935185
 10
-10.5087792018
 20
4.6000760158
 10
-10.5298321064
 20
4.5956372511
 10
-10.5513554645
 20
4.5916870575
 10
-10.573301595
 20
4.5882341861
 10
-10.5956218805
 20
4.5852862859
 10
-10.6182668745
 20
4.5828498875
 10
-10.6411864113
 20
4.5809303883
 10
-10.664329717
 20
4.5795320406
 10
-10.6876455219
 20
4.5786579421
 10
-10.7110821743
 20
4.5783100293
 10
-10.7345877546
 20
4.5784890729
 10
-10.7581101907
 20
4.5791946762
 10
-10.7815973729
 20
4.5804252761
 10
-10.80499727
 20
4.5821781464
 10
-10.8282580437
 20
4.5844494041
 10
-10.8513281643
 20
4.5872340175
 10
-10.8741565241
 20
4.5905258179
 10
-10.8966925513
 20
4.5943175128
 10
-10.9188863215
 20
4.5986007026
 10
-10.9406886686
 20
4.6033658986
 10
-10.9620512936
 20
4.6086025444
 10
-10.9829268716
 20
4.6142990392
 10
-11.0032691566
 20
4.6204427635
 10
-11.0230330843
 20
4.627020107
 10
-11.0421748712
 20
4.6340164989
 10
-11.0606521124
 20
4.6414164399
 10
-11.0784238749
 20
4.649203537
 10
-11.0954507889
 20
4.6573605391
  0
LINE
  5
31E
100
AcDbEntity
  8
RACCORDO
100
AcDbLine
 62
253
  6
CONTINUOUS
 10
3.5259463266
 20
-10.4375273706
 11
4.3179831367
 21
-11.0934680198
  0
LINE
  5
31F
100
AcDbEntity
  8
ASSI
100
AcDbLine
 62
253
  6
CONTINUOUS
 10
3.5259463266
 20
-10.4375273706
 11
4.3179831367
 21
-11.0934680198
  0
LWPOLYLINE
  5
320
100
AcDbEntity
  8
RACCORDO
100
AcDbPolyline
 62
7
  6
CONTINUOUS
 90
25
 70
0
 10
3.6986426367
 20
-15.3779118782
 10
3.6704464158
 20
-15.3462667736
 10
3.6294275022
 20
-15.2883273925
 10
3.5948421925
 20
-15.2230817693
 10
3.566769461
 20
-15.1500829488
 10
3.5451303334
 20
-15.0697778862
 10
3.5306263045
 20
-14.984765729
 10
3.5234912058
 20
-14.8952376673
 10
3.5234912058
 20
-14.801002511
 10
3.5306263045
 20
-14.7040858383
 10
3.5451303334
 20
-14.6040543195
 10
3.566769461
 20
-14.5013412843
 10
3.5948421925
 20
-14.3992722993
 10
3.6294275022
 20
-14.2982125395
 10
3.6704464158
 20
-14.19779683
 10
3.7169605162
 20
-14.1002552124
 10
3.7692322055
 20
-14.0054051471
 10
3.8269990815
 20
-13.9134291738
 10
3.8885355204
 20
-13.8271049538
 10
3.9538396696
 20
-13.7467464156
 10
4.0229133816
 20
-13.6720396308
 10
4.0940365909
 20
-13.6048204753
 10
4.1666359423
 20
-13.5457009079
 10
4.2412847908
 20
-13.4940689698
 10
4.3179831367
 20
-13.4499246611
  0
LWPOLYLINE
  5
321
100
AcDbEntity
  8
ASSI
100
AcDbPolyline
 62
7
  6
CONTINUOUS
 90
25
 70
0
 10
3.6986426367
 20
-15.3779118782
 10
3.6704464158
 20
-15.3462667736
 10
3.6294275022
 20
-15.2883273925
 10
3.5948421925
 20
-15.2230817693
 10
3.566769461
 20
-15.1500829488
 10
3.5451303334
 20
-15.0697778862
 10
3.5306263045
 20
-14.984765729
 10
3.5234912058
 20
-14.8952376673
 10
3.5234912058
 20
-14.801002511
 10
3.5306263045
 20
-14.7040858383
 10
3.5451303334
 20
-14.6040543195
 10
3.566769461
 20
-14.5013412843
 10
3.5948421925
 20
-14.3992722993
 10
3.6294275022
 20
-14.2982125395
 10
3.6704464158
 20
-14.19779683
 10
3.7169605162
 20
-14.1002552124
 10
3.7692322055
 20
-14.0054051471
 10
3.8269990815
 20
-13.9134291738
 10
3.8885355204
 20
-13.8271049538
 10
3.9538396696
 20
-13.7467464156
 10
4.0229133816
 20
-13.6720396308
 10
4.0940365909
 20
-13.6048204753
 10
4.1666359423
 20
-13.5457009079
 10
4.2412847908
 20
-13.4940689698
 10
4.3179831367
 20
-13.4499246611
  0
LWPOLYLINE
  5
322
100
AcDbEntity
  8
RACCORDO
100
AcDbPolyline
 62
253
  6
CONTINUOUS
 90
14
 70
0
 10
-17.3948251249
 20
17.5990008441
 10
-17.3904775638
 20
17.591647975
 10
-17.3866274155
 20
17.5845551468
 10
-17.3832851938
 20
17.5777417285
 10
-17.3804600256
 20
17.5712263262
 10
-17.378159626
 20
17.5650267321
 10
-17.3763902768
 20
17.5591598759
 10
-17.3751568097
 20
17.5536417788
 10
-17.3744625931
 20
17.5484875096
 10
-17.3743095227
 20
17.5437111435
 10
-17.3746980166
 20
17.5393257238
 10
-17.3756270139
 20
17.535343226
 10
-17.3770939775
 20
17.5317745257
 10
-17.3790508701
 20
17.5286985792
  0
LWPOLYLINE
  5
323
100
AcDbEntity
  8
ASSI
100
AcDbPolyline
 62
7
  6
CONTINUOUS
 90
6
 70
0
 10
-3.5297633806
 20
15.4808767715
 10
-3.5298018647
 20
15.4819632364
 10
-3.5305501021
 20
15.4854259278
 10
-3.5322119696
 20
15.4882761292
 10
-3.5347426873
 20
15.4905639947
 10
-3.5365376887
 20
15.4916152454
  0
LWPOLYLINE
  5
324
100
AcDbEntity
  8
RACCORDO
100
AcDbPolyline
 62
7
  6
CONTINUOUS
 90
20
 70
0
 10
-3.9583091035
 20
11.3522459108
 10
-3.9587145709
 20
11.3664785265
 10
-3.9599377549
 20
11.3807357673
 10
-3.9619853421
 20
11.3949613013
 10
-3.9648593398
 20
11.4090984614
 10
-3.9685566452
 20
11.4230891083
 10
-3.9730690855
 20
11.4368753025
 10
-3.9783830885
 20
11.450398993
 10
-3.9844822633
 20
11.4636081374
 10
-3.9913496417
 20
11.4764577941
 10
-3.9989627236
 20
11.4888990964
 10
-4.0072937765
 20
11.5008825088
 10
-4.0163171914
 20
11.5123680695
 10
-4.0260073547
 20
11.5233192059
 10
-4.0363271443
 20
11.5336906839
 10
-4.047234213
 20
11.5434392152
 10
-4.0587029235
 20
11.5525406706
 10
-4.0706909529
 20
11.560959218
 10
-4.0831317722
 20
11.5686497826
 10
-4.0965128067
 20
11.5758562592
  0
LWPOLYLINE
  5
325
100
AcDbEntity
  8
RACCORDO
100
AcDbPolyline
 62
7
  6
CONTINUOUS
 90
23
 70
0
 10
-3.9583091035
 20
-30.2948897453
 10
-3.9586275115
 20
-30.282276193
 10
-3.9595861281
 20
-30.2696532449
 10
-3.9611879024
 20
-30.2570597047
 10
-3.9634320623
 20
-30.2445386313
 10
-3.9663161024
 20
-30.2321252062
 10
-3.9698379266
 20
-30.2198464393
 10
-3.9739912918
 20
-30.2077395125
 10
-3.9787661466
 20
-30.1958441452
 10
-3.9841539415
 20
-30.1841898657
 10
-3.990142302
 20
-30.1728108909
 10
-3.9967143432
 20
-30.1617444961
 10
-4.003853777
 20
-30.1510216826
 10
-4.01154357
 20
-30.1406713132
 10
-4.0197608898
 20
-30.1307265
 10
-4.0284799236
 20
-30.1212191777
 10
-4.0376811396
 20
-30.1121711149
 10
-4.0473375891
 20
-30.1036093973
 10
-4.0574119909
 20
-30.0955657342
 10
-4.0678845407
 20
-30.0880542016
 10
-4.0787272308
 20
-30.0810941929
 10
-4.0898909805
 20
-30.0747144784
 10
-4.0965120305
 20
-30.0712797849
  0
LWPOLYLINE
  5
326
100
AcDbEntity
  8
RACCORDO
100
AcDbPolyline
 62
7
  6
CONTINUOUS
 90
34
 70
0
 10
-4.5587741322
 20
11.0009344586
 10
-4.5589741883
 20
11.0113362672
 10
-4.5595744257
 20
11.0219146353
 10
-4.5605733837
 20
11.0326456534
 10
-4.5619686193
 20
11.0435051065
 10
-4.5637569675
 20
11.0544683989
 10
-4.5659345488
 20
11.0655106099
 10
-4.5684963733
 20
11.0766067568
 10
-4.5714365476
 20
11.0877317502
 10
-4.5747485426
 20
11.0988603206
 10
-4.5784248197
 20
11.1099672785
 10
-4.58245698
 20
11.1210274997
 10
-4.5868359773
 20
11.1320158809
 10
-4.5915518779
 20
11.1429075385
 10
-4.5965939479
 20
11.1536778256
 10
-4.6019508085
 20
11.1643023169
 10
-4.6076103327
 20
11.1747569414
 10
-4.6135596707
 20
11.1850180315
 10
-4.6197853424
 20
11.1950623379
 10
-4.6262732749
 20
11.2048670928
 10
-4.6330087638
 20
11.2144100899
 10
-4.639976503
 20
11.2236697301
 10
-4.6471607601
 20
11.2326250126
 10
-4.6545452757
 20
11.2412556445
 10
-4.6621132301
 20
11.2495421173
 10
-4.6698475516
 20
11.2574656246
 10
-4.6777307575
 20
11.2650082007
 10
-4.685744857
 20
11.2721528244
 10
-4.6938717874
 20
11.2788832672
 10
-4.7020931984
 20
11.2851842557
 10
-4.7103902951
 20
11.291041603
 10
-4.7187442885
 20
11.2964420398
 10
-4.7271364376
 20
11.3013732444
 10
-4.7355478359
 20
11.3058239974
  0
LWPOLYLINE
  5
327
100
AcDbEntity
  8
RACCORDO
100
AcDbPolyline
 62
253
  6
CONTINUOUS
 90
31
 70
0
 10
-4.0305069605
 20
11.2643732786
 10
-4.0306960813
 20
11.2758237876
 10
-4.0313702646
 20
11.2874901413
 10
-4.0325285805
 20
11.2993408395
 10
-4.034169162
 20
11.3113463013
 10
-4.0362882241
 20
11.3234714197
 10
-4.0388790757
 20
11.3356754493
 10
-4.041933893
 20
11.3479222422
 10
-4.045444815
 20
11.3601808814
 10
-4.0494023326
 20
11.3724181012
 10
-4.0537957209
 20
11.3846005838
 10
-4.0586128972
 20
11.3966946842
 10
-4.0638405239
 20
11.4086668745
 10
-4.0694641888
 20
11.4204841772
 10
-4.0754685341
 20
11.4321143472
 10
-4.0818371502
 20
11.4435255954
 10
-4.08855261
 20
11.4546866749
 10
-4.0955964801
 20
11.4655669297
 10
-4.1029494231
 20
11.4761364806
 10
-4.1105912698
 20
11.4863663323
 10
-4.1185010764
 20
11.4962284446
 10
-4.1266571527
 20
11.5056957696
 10
-4.135037137
 20
11.5147423472
 10
-4.1436180509
 20
11.5233433673
 10
-4.1523763578
 20
11.5314752358
 10
-4.161288048
 20
11.5391156583
 10
-4.1703286799
 20
11.5462436778
 10
-4.1794734375
 20
11.5528397293
 10
-4.1886972358
 20
11.5588857241
 10
-4.1979747913
 20
11.5643650938
 10
-4.2072806642
 20
11.5692628174
  0
LINE
  5
328
100
AcDbEntity
  8
RACCORDO
100
AcDbLine
 62
7
  6
CONTINUOUS
 10
-4.5587741322
 20
9.398515302
 11
-4.5587741322
 21
11.0009344586
  0
LINE
  5
329
100
AcDbEntity
  8
RACCORDO
100
AcDbLine
 62
7
  6
CONTINUOUS
 10
-4.5587741322
 20
-29.496408893
 11
-4.5587741322
 21
-31.0013049529
  0
LINE
  5
32A
100
AcDbEntity
  8
RACCORDO
100
AcDbLine
 62
253
  6
CONTINUOUS
 10
-4.0305069605
 20
11.2643732786
 11
-4.0305069605
 21
10.9168417619
  0
LINE
  5
32B
100
AcDbEntity
  8
RACCORDO
100
AcDbLine
 62
253
  6
CONTINUOUS
 10
-4.0305069605
 20
-30.3827623775
 11
-4.0305069605
 21
-30.7302938943
  0
LINE
  5
32C
100
AcDbEntity
  8
RACCORDO
100
AcDbLine
 62
7
  6
CONTINUOUS
 10
-3.9583091035
 20
11.3522459108
 11
-3.9583091035
 21
10.9168410183
  0
LINE
  5
32D
100
AcDbEntity
  8
RACCORDO
100
AcDbLine
 62
7
  6
CONTINUOUS
 10
-3.9583091035
 20
-30.2948897453
 11
-3.9583091035
 21
-30.6424212621
  0
LINE
  5
32E
100
AcDbEntity
  8
ASSI
100
AcDbLine
 62
253
  6
CONTINUOUS
 10
-3.6533574444
 20
14.2448239207
 11
-3.6533574444
 21
15.471873888
  0
LINE
  5
32F
100
AcDbEntity
  8
ASSI
100
AcDbLine
 62
7
  6
CONTINUOUS
 10
-3.5297633805
 20
14.3929830237
 11
-3.5297633805
 21
15.480878632
  0
LINE
  5
330
100
AcDbEntity
  8
ASSI
100
AcDbLine
 62
7
  6
CONTINUOUS
 10
-3.4981139605
 20
5.4807317524
 11
-3.4981139605
 21
-25.1275488561
  0
LINE
  5
331
100
AcDbEntity
  8
RACCORDO
100
AcDbLine
 62
7
  6
CONTINUOUS
 10
-3.4981139605
 20
-28.7817247672
 11
-3.4981139605
 21
9.1349076635
  0
LWPOLYLINE
  5
332
100
AcDbEntity
  8
RACCORDO
100
AcDbPolyline
 62
7
  6
CONTINUOUS
 90
22
 70
0
 10
-4.2159903834
 20
-29.1358885344
 10
-4.2166098373
 20
-29.1537344057
 10
-4.217819064
 20
-29.1712753808
 10
-4.2196199866
 20
-29.188480043
 10
-4.2220138825
 20
-29.2053150984
 10
-4.2250000549
 20
-29.2217521161
 10
-4.2285767294
 20
-29.2377669062
 10
-4.2327409393
 20
-29.2533236189
 10
-4.2374912825
 20
-29.2683979049
 10
-4.2428301363
 20
-29.2829805256
 10
-4.2487562127
 20
-29.2970418328
 10
-4.2552654157
 20
-29.3105486935
 10
-4.2623585751
 20
-29.3234828887
 10
-4.2700383663
 20
-29.3358223599
 10
-4.2782936212
 20
-29.3475241102
 10
-4.2871018928
 20
-29.3585403285
 10
-4.2964565984
 20
-29.3688478146
 10
-4.3063426971
 20
-29.3784157306
 10
-4.3167167682
 20
-29.3871955178
 10
-4.3275628104
 20
-29.3951709824
 10
-4.3388600999
 20
-29.4023242785
 10
-4.3506349769
 20
-29.4086635753
  0
LWPOLYLINE
  5
333
100
AcDbEntity
  8
RACCORDO
100
AcDbPolyline
 62
7
  6
CONTINUOUS
 90
4
 70
0
 10
-3.9583091035
 20
10.9168350788
 10
-3.9583272124
 20
10.9164084205
 10
-3.9587457401
 20
10.914866105
 10
-3.9593614637
 20
10.9139064129
  0
LWPOLYLINE
  5
334
100
AcDbEntity
  8
RACCORDO
100
AcDbPolyline
 62
253
  6
CONTINUOUS
 90
16
 70
0
 10
-3.9583091035
 20
11.3522459108
 10
-3.9586123245
 20
11.3460912665
 10
-3.9595938303
 20
11.3395897573
 10
-3.9612520081
 20
11.3331226813
 10
-3.9635823467
 20
11.3267076332
 10
-3.9665785058
 20
11.3203620664
 10
-3.970232334
 20
11.3141032449
 10
-3.9745338904
 20
11.3079481971
 10
-3.9794714719
 20
11.3019136687
 10
-3.985031645
 20
11.2960160777
 10
-3.9911992822
 20
11.2902714695
 10
-3.9979576035
 20
11.2846954732
 10
-4.0052882218
 20
11.2793032594
 10
-4.0131711927
 20
11.2741094984
 10
-4.0215850694
 20
11.2691283208
 10
-4.0305069605
 20
11.2643732786
  0
LWPOLYLINE
  5
335
100
AcDbEntity
  8
RACCORDO
100
AcDbPolyline
 62
253
  6
CONTINUOUS
 90
4
 70
0
 10
22.9150504301
 20
18.9185027586
 10
22.9830050198
 20
18.9575433019
 10
23.0425241101
 20
18.9998869611
 10
23.0929700081
 20
19.045080039
  0
LWPOLYLINE
  5
336
100
AcDbEntity
  8
ASSI
100
AcDbPolyline
 62
253
  6
CONTINUOUS
 90
4
 70
0
 10
22.9150504301
 20
18.9185027586
 10
22.9830050198
 20
18.9575433019
 10
23.0425241101
 20
18.9998869611
 10
23.0929700081
 20
19.045080039
  0
LWPOLYLINE
  5
337
100
AcDbEntity
  8
ASSI
100
AcDbPolyline
 62
7
  6
CONTINUOUS
 90
18
 70
0
 10
17.3968914236
 20
14.3926534626
 10
17.5118913656
 20
14.4560706847
 10
17.6247058516
 20
14.5292546772
 10
17.7353348817
 20
14.6122054402
 10
17.8444646043
 20
14.7055847532
 10
17.9514088708
 20
14.8087308367
 10
18.0541092363
 20
14.9196583522
 10
18.1524834872
 20
15.0385180426
 10
18.2466138369
 20
15.1651591651
 10
18.3346884804
 20
15.2971441527
 10
18.4165901058
 20
15.4345765274
 10
18.4924360249
 20
15.5773527672
 10
18.5607663684
 20
15.7227247392
 10
18.6214355435
 20
15.8707427281
 10
18.6745891429
 20
16.0213564492
 10
18.7192040751
 20
16.1716669149
 10
18.7551149279
 20
16.3216682506
 10
18.7682708163
 20
16.3936176103
  0
LINE
  5
338
100
AcDbEntity
  8
RACCORDO
100
AcDbLine
 62
7
  6
CONTINUOUS
 10
18.0255036712
 20
13.4042311585
 11
4.3179831367
 21
6.2270400559
  0
LINE
  5
339
100
AcDbEntity
  8
ASSI
100
AcDbLine
 62
7
  6
CONTINUOUS
 10
18.0255036712
 20
13.4042311585
 11
4.3179831367
 21
6.2270400559
  0
LINE
  5
33A
100
AcDbEntity
  8
RACCORDO
100
AcDbLine
 62
7
  6
CONTINUOUS
 10
18.0255036712
 20
15.2180723713
 11
4.3179831367
 21
8.2007104335
  0
LINE
  5
33B
100
AcDbEntity
  8
ASSI
100
AcDbLine
 62
7
  6
CONTINUOUS
 10
18.0255036712
 20
15.2180723713
 11
4.3179831367
 21
8.2007104335
  0
LINE
  5
33C
100
AcDbEntity
  8
RACCORDO
100
AcDbLine
 62
7
  6
CONTINUOUS
 10
17.1875555167
 20
13.9724778889
 11
3.5365426072
 21
6.9873528667
  0
LINE
  5
33D
100
AcDbEntity
  8
ASSI
100
AcDbLine
 62
7
  6
CONTINUOUS
 10
17.1875555167
 20
13.9724778889
 11
3.5365426072
 21
6.9873528667
  0
LINE
  5
33E
100
AcDbEntity
  8
RACCORDO
100
AcDbLine
 62
7
  6
CONTINUOUS
 10
22.9150504301
 20
15.0004766159
 11
19.2901513538
 21
13.1472889228
  0
LINE
  5
33F
100
AcDbEntity
  8
ASSI
100
AcDbLine
 62
7
  6
CONTINUOUS
 10
22.9150504301
 20
15.0004766159
 11
19.2901513538
 21
13.1472889228
  0
LINE
  5
340
100
AcDbEntity
  8
DRAFT
100
AcDbLine
 62
7
  6
CONTINUOUS
 10
21.1507281913
 20
14.8316157008
 11
18.5446192794
 21
13.5229653827
  0
LINE
  5
341
100
AcDbEntity
  8
ASSI
100
AcDbLine
 62
7
  6
CONTINUOUS
 10
21.1507281913
 20
14.8316157008
 11
18.5446192794
 21
13.5229653827
  0
LINE
  5
342
100
AcDbEntity
  8
RACCORDO
100
AcDbLine
 62
7
  6
CONTINUOUS
 10
22.9123243169
 20
15.7067233468
 11
21.1445573639
 21
14.8348323256
  0
LINE
  5
343
100
AcDbEntity
  8
ASSI
100
AcDbLine
 62
7
  6
CONTINUOUS
 10
22.9123243169
 20
15.7067233468
 11
21.1445573639
 21
14.8348323256
  0
LWPOLYLINE
  5
344
100
AcDbEntity
  8
RACCORDO
100
AcDbPolyline
 62
7
  6
CONTINUOUS
 90
11
 70
0
 10
4.3179831367
 20
6.2270400559
 10
4.2412847908
 20
6.1917609025
 10
4.1666359423
 20
6.166091695
 10
4.0940365909
 20
6.1500324334
 10
4.0229133816
 20
6.1436013496
 10
3.9538396696
 20
6.1467802117
 10
3.8885355204
 20
6.1595143238
 10
3.8269990815
 20
6.1821156959
 10
3.7692322055
 20
6.2142723179
 10
3.7169605162
 20
6.2549934644
 10
3.6986426367
 20
6.2727232164
  0
LWPOLYLINE
  5
345
100
AcDbEntity
  8
ASSI
100
AcDbPolyline
 62
7
  6
CONTINUOUS
 90
11
 70
0
 10
4.3179831367
 20
6.2270400559
 10
4.2412847908
 20
6.1917609025
 10
4.1666359423
 20
6.166091695
 10
4.0940365909
 20
6.1500324334
 10
4.0229133816
 20
6.1436013496
 10
3.9538396696
 20
6.1467802117
 10
3.8885355204
 20
6.1595143238
 10
3.8269990815
 20
6.1821156959
 10
3.7692322055
 20
6.2142723179
 10
3.7169605162
 20
6.2549934644
 10
3.6986426367
 20
6.2727232164
  0
LWPOLYLINE
  5
346
100
AcDbEntity
  8
DRAFT
100
AcDbPolyline
 62
7
  6
CONTINUOUS
 90
5
 70
0
 10
18.5446192794
 20
13.5229653827
 10
18.4271095397
 20
13.4692261919
 10
18.3118731478
 20
13.4276820367
 10
18.1989101034
 20
13.3983329171
 10
18.0876029956
 20
13.3811518445
  0
LWPOLYLINE
  5
347
100
AcDbEntity
  8
ASSI
100
AcDbPolyline
 62
7
  6
CONTINUOUS
 90
5
 70
0
 10
18.5446192794
 20
13.5229653827
 10
18.4271095397
 20
13.4692261919
 10
18.3118731478
 20
13.4276820367
 10
18.1989101034
 20
13.3983329171
 10
18.0876029956
 20
13.3811518445
  0
LWPOLYLINE
  5
348
100
AcDbEntity
  8
RACCORDO
100
AcDbPolyline
 62
7
  6
CONTINUOUS
 90
25
 70
0
 10
3.6986426367
 20
-11.0477848593
 10
3.6704464158
 20
-11.0161397547
 10
3.6294275022
 20
-10.9582003736
 10
3.5948421925
 20
-10.8929547504
 10
3.566769461
 20
-10.8199559299
 10
3.5451303334
 20
-10.7396508673
 10
3.5306263045
 20
-10.6546387101
 10
3.5234912058
 20
-10.5651106484
 10
3.5234912058
 20
-10.4708754921
 10
3.5306263045
 20
-10.3739588194
 10
3.5451303334
 20
-10.2739273006
 10
3.566769461
 20
-10.1712142654
 10
3.5948421925
 20
-10.0691452804
 10
3.6294275022
 20
-9.9680855206
 10
3.6704464158
 20
-9.867669811
 10
3.7169605162
 20
-9.7701281935
 10
3.7692322055
 20
-9.6752781282
 10
3.8269990815
 20
-9.5833021549
 10
3.8885355204
 20
-9.4969779349
 10
3.9538396696
 20
-9.4166193967
 10
4.0229133816
 20
-9.3419126119
 10
4.0940365909
 20
-9.2746934564
 10
4.1666359423
 20
-9.215573889
 10
4.2412847908
 20
-9.1639419509
 10
4.3179831367
 20
-9.1197976422
  0
LWPOLYLINE
  5
349
100
AcDbEntity
  8
ASSI
100
AcDbPolyline
 62
7
  6
CONTINUOUS
 90
25
 70
0
 10
3.6986426367
 20
-11.0477848593
 10
3.6704464158
 20
-11.0161397547
 10
3.6294275022
 20
-10.9582003736
 10
3.5948421925
 20
-10.8929547504
 10
3.566769461
 20
-10.8199559299
 10
3.5451303334
 20
-10.7396508673
 10
3.5306263045
 20
-10.6546387101
 10
3.5234912058
 20
-10.5651106484
 10
3.5234912058
 20
-10.4708754921
 10
3.5306263045
 20
-10.3739588194
 10
3.5451303334
 20
-10.2739273006
 10
3.566769461
 20
-10.1712142654
 10
3.5948421925
 20
-10.0691452804
 10
3.6294275022
 20
-9.9680855206
 10
3.6704464158
 20
-9.867669811
 10
3.7169605162
 20
-9.7701281935
 10
3.7692322055
 20
-9.6752781282
 10
3.8269990815
 20
-9.5833021549
 10
3.8885355204
 20
-9.4969779349
 10
3.9538396696
 20
-9.4166193967
 10
4.0229133816
 20
-9.3419126119
 10
4.0940365909
 20
-9.2746934564
 10
4.1666359423
 20
-9.215573889
 10
4.2412847908
 20
-9.1639419509
 10
4.3179831367
 20
-9.1197976422
  0
LWPOLYLINE
  5
34A
100
AcDbEntity
  8
RACCORDO
100
AcDbPolyline
 62
253
  6
CONTINUOUS
 90
16
 70
0
 10
-3.9583091035
 20
-30.6424212621
 10
-3.958610374
 20
-30.6485560909
 10
-3.9595900926
 20
-30.6550590391
 10
-3.9612467816
 20
-30.6615276034
 10
-3.9635759331
 20
-30.6679441701
 10
-3.9665712134
 20
-30.6742912812
 10
-3.9702244723
 20
-30.680551658
 10
-3.9745257703
 20
-30.6867082611
 10
-3.9794634029
 20
-30.6927443316
 10
-3.9850239282
 20
-30.698643434
 10
-3.9911922173
 20
-30.7043895155
 10
-3.9979514786
 20
-30.7099669311
 10
-4.0052832924
 20
-30.7153604834
 10
-4.0131676906
 20
-30.7205554879
 10
-4.0215832163
 20
-30.7255378114
 10
-4.0305069605
 20
-30.7302938943
  0
LWPOLYLINE
  5
34B
100
AcDbEntity
  8
RACCORDO
100
AcDbPolyline
 62
253
  6
CONTINUOUS
 90
16
 70
0
 10
-3.9583091035
 20
-30.2948897453
 10
-3.9586123245
 20
-30.3010443896
 10
-3.9595938303
 20
-30.3075458988
 10
-3.9612520081
 20
-30.3140129749
 10
-3.9635823467
 20
-30.3204280229
 10
-3.9665785058
 20
-30.3267735898
 10
-3.970232334
 20
-30.3330324112
 10
-3.9745338904
 20
-30.339187459
 10
-3.9794714719
 20
-30.3452219874
 10
-3.985031645
 20
-30.3511195785
 10
-3.9911992822
 20
-30.3568641867
 10
-3.9979576035
 20
-30.3624401829
 10
-4.0052882218
 20
-30.3678323968
 10
-4.0131711927
 20
-30.3730261577
 10
-4.0215850694
 20
-30.3780073354
 10
-4.0305069605
 20
-30.3827623775
  0
LWPOLYLINE
  5
34C
100
AcDbEntity
  8
ASSI
100
AcDbPolyline
 62
7
  6
CONTINUOUS
 90
18
 70
0
 10
17.3968914236
 20
10.0625264437
 10
17.5118913656
 20
10.1259436657
 10
17.6247058516
 20
10.1991276583
 10
17.7353348817
 20
10.2820784213
 10
17.8444646043
 20
10.3754577343
 10
17.9514088708
 20
10.4786038177
 10
18.0541092363
 20
10.5895313333
 10
18.1524834872
 20
10.7083910237
 10
18.2466138369
 20
10.8350321462
 10
18.3346884804
 20
10.9670171338
 10
18.4165901058
 20
11.1044495085
 10
18.4924360249
 20
11.2472257483
 10
18.5607663684
 20
11.3925977203
 10
18.6214355435
 20
11.5406157092
 10
18.6745891429
 20
11.6912294303
 10
18.7192040751
 20
11.841539896
 10
18.7551149279
 20
11.9915412316
 10
18.7682708163
 20
12.0634905914
  0
LINE
  5
34D
100
AcDbEntity
  8
RACCORDO
100
AcDbLine
 62
7
  6
CONTINUOUS
 10
22.9150504301
 20
14.3549737845
 11
19.2901513538
 21
12.4544685997
  0
LINE
  5
34E
100
AcDbEntity
  8
ASSI
100
AcDbLine
 62
7
  6
CONTINUOUS
 10
22.9150504301
 20
14.3549737845
 11
19.2901513538
 21
12.4544685997
  0
LINE
  5
34F
100
AcDbEntity
  8
RACCORDO
100
AcDbLine
 62
7
  6
CONTINUOUS
 10
18.0255036712
 20
9.0741041396
 11
4.3179831367
 21
1.896913037
  0
LINE
  5
350
100
AcDbEntity
  8
ASSI
100
AcDbLine
 62
7
  6
CONTINUOUS
 10
18.0255036712
 20
9.0741041396
 11
4.3179831367
 21
1.896913037
  0
LINE
  5
351
100
AcDbEntity
  8
RACCORDO
100
AcDbLine
 62
7
  6
CONTINUOUS
 10
18.0255036712
 20
10.8879453524
 11
4.3179831367
 21
3.8705834146
  0
LINE
  5
352
100
AcDbEntity
  8
ASSI
100
AcDbLine
 62
7
  6
CONTINUOUS
 10
18.0255036712
 20
10.8879453524
 11
4.3179831367
 21
3.8705834146
  0
LINE
  5
353
100
AcDbEntity
  8
RACCORDO
100
AcDbLine
 62
7
  6
CONTINUOUS
 10
17.1875555167
 20
9.64235087
 11
3.5365426072
 21
2.6572258478
  0
LINE
  5
354
100
AcDbEntity
  8
ASSI
100
AcDbLine
 62
7
  6
CONTINUOUS
 10
17.1875555167
 20
9.64235087
 11
3.5365426072
 21
2.6572258478
  0
LINE
  5
355
100
AcDbEntity
  8
DRAFT
100
AcDbLine
 62
7
  6
CONTINUOUS
 10
21.1507281913
 20
10.5014886818
 11
18.5446192794
 21
9.1928383638
  0
LINE
  5
356
100
AcDbEntity
  8
ASSI
100
AcDbLine
 62
7
  6
CONTINUOUS
 10
21.1507281913
 20
10.5014886818
 11
18.5446192794
 21
9.1928383638
  0
LINE
  5
357
100
AcDbEntity
  8
ASSI
100
AcDbLine
 62
7
  6
CONTINUOUS
 10
19.1646583766
 20
10.1669870567
 11
17.5770307211
 21
9.373173229
  0
LINE
  5
358
100
AcDbEntity
  8
RACCORDO
100
AcDbLine
 62
7
  6
CONTINUOUS
 10
22.9123243169
 20
11.3765963278
 11
21.1445573639
 21
10.5047053067
  0
LINE
  5
359
100
AcDbEntity
  8
ASSI
100
AcDbLine
 62
7
  6
CONTINUOUS
 10
22.9123243169
 20
11.3765963278
 11
21.1445573639
 21
10.5047053067
  0
LWPOLYLINE
  5
35A
100
AcDbEntity
  8
RACCORDO
100
AcDbPolyline
 62
7
  6
CONTINUOUS
 90
11
 70
0
 10
4.3179831367
 20
1.896913037
 10
4.2412847908
 20
1.8616338836
 10
4.1666359423
 20
1.8359646761
 10
4.0940365909
 20
1.8199054144
 10
4.0229133816
 20
1.8134743307
 10
3.9538396696
 20
1.8166531928
 10
3.8885355204
 20
1.8293873049
 10
3.8269990815
 20
1.8519886769
 10
3.7692322055
 20
1.884145299
 10
3.7169605162
 20
1.9248664455
 10
3.6986426367
 20
1.9425961975
  0
LWPOLYLINE
  5
35B
100
AcDbEntity
  8
ASSI
100
AcDbPolyline
 62
7
  6
CONTINUOUS
 90
11
 70
0
 10
4.3179831367
 20
1.896913037
 10
4.2412847908
 20
1.8616338836
 10
4.1666359423
 20
1.8359646761
 10
4.0940365909
 20
1.8199054144
 10
4.0229133816
 20
1.8134743307
 10
3.9538396696
 20
1.8166531928
 10
3.8885355204
 20
1.8293873049
 10
3.8269990815
 20
1.8519886769
 10
3.7692322055
 20
1.884145299
 10
3.7169605162
 20
1.9248664455
 10
3.6986426367
 20
1.9425961975
  0
LWPOLYLINE
  5
35C
100
AcDbEntity
  8
DRAFT
100
AcDbPolyline
 62
7
  6
CONTINUOUS
 90
5
 70
0
 10
18.5446192794
 20
9.1928383638
 10
18.4271095397
 20
9.139099173
 10
18.3118731478
 20
9.0975550178
 10
18.1989101034
 20
9.0682058981
 10
18.0876029956
 20
9.0510248256
  0
LWPOLYLINE
  5
35D
100
AcDbEntity
  8
ASSI
100
AcDbPolyline
 62
7
  6
CONTINUOUS
 90
5
 70
0
 10
18.5446192794
 20
9.1928383638
 10
18.4271095397
 20
9.139099173
 10
18.3118731478
 20
9.0975550178
 10
18.1989101034
 20
9.0682058981
 10
18.0876029956
 20
9.0510248256
  0
LWPOLYLINE
  5
35E
100
AcDbEntity
  8
DRAFT
100
AcDbPolyline
 62
7
  6
CONTINUOUS
 90
8
 70
0
 10
-20.4889832206
 20
-2.2474054468
 10
-20.5074480899
 20
-2.2489556457
 10
-20.7511260559
 20
-2.2892190921
 10
-20.9882437726
 20
-2.3486003832
 10
-21.2168889
 20
-2.426653931
 10
-21.4370450902
 20
-2.523574482
 10
-21.6487286912
 20
-2.6391672898
 10
-21.6715041154
 20
-2.6530320392
  0
LINE
  5
35F
100
AcDbEntity
  8
RACCORDO
100
AcDbLine
 62
253
  6
CONTINUOUS
 10
-11.095450789
 20
4.6573605391
 11
-25.9202968667
 21
12.0697835779
  0
LINE
  5
360
100
AcDbEntity
  8
RACCORDO
100
AcDbLine
 62
253
  6
CONTINUOUS
 10
3.5259463266
 20
-6.1074003517
 11
4.3179831367
 21
-6.7633410009
  0
LINE
  5
361
100
AcDbEntity
  8
ASSI
100
AcDbLine
 62
253
  6
CONTINUOUS
 10
3.5259463266
 20
-6.1074003517
 11
4.3179831367
 21
-6.7633410009
  0
LWPOLYLINE
  5
362
100
AcDbEntity
  8
RACCORDO
100
AcDbPolyline
 62
7
  6
CONTINUOUS
 90
25
 70
0
 10
3.6986426367
 20
-6.7176578404
 10
3.6704464158
 20
-6.6860127357
 10
3.6294275022
 20
-6.6280733547
 10
3.5948421925
 20
-6.5628277315
 10
3.566769461
 20
-6.489828911
 10
3.5451303334
 20
-6.4095238483
 10
3.5306263045
 20
-6.3245116912
 10
3.5234912058
 20
-6.2349836294
 10
3.5234912058
 20
-6.1407484732
 10
3.5306263045
 20
-6.0438318004
 10
3.5451303334
 20
-5.9438002817
 10
3.566769461
 20
-5.8410872464
 10
3.5948421925
 20
-5.7390182614
 10
3.6294275022
 20
-5.6379585017
 10
3.6704464158
 20
-5.5375427921
 10
3.7169605162
 20
-5.4400011746
 10
3.7692322055
 20
-5.3451511093
 10
3.8269990815
 20
-5.2531751359
 10
3.8885355204
 20
-5.166850916
 10
3.9538396696
 20
-5.0864923778
 10
4.0229133816
 20
-5.011785593
 10
4.0940365909
 20
-4.9445664375
 10
4.1666359423
 20
-4.8854468701
 10
4.2412847908
 20
-4.833814932
 10
4.3179831367
 20
-4.7896706233
  0
LWPOLYLINE
  5
363
100
AcDbEntity
  8
ASSI
100
AcDbPolyline
 62
7
  6
CONTINUOUS
 90
25
 70
0
 10
3.6986426367
 20
-6.7176578404
 10
3.6704464158
 20
-6.6860127357
 10
3.6294275022
 20
-6.6280733547
 10
3.5948421925
 20
-6.5628277315
 10
3.566769461
 20
-6.489828911
 10
3.5451303334
 20
-6.4095238483
 10
3.5306263045
 20
-6.3245116912
 10
3.5234912058
 20
-6.2349836294
 10
3.5234912058
 20
-6.1407484732
 10
3.5306263045
 20
-6.0438318004
 10
3.5451303334
 20
-5.9438002817
 10
3.566769461
 20
-5.8410872464
 10
3.5948421925
 20
-5.7390182614
 10
3.6294275022
 20
-5.6379585017
 10
3.6704464158
 20
-5.5375427921
 10
3.7169605162
 20
-5.4400011746
 10
3.7692322055
 20
-5.3451511093
 10
3.8269990815
 20
-5.2531751359
 10
3.8885355204
 20
-5.166850916
 10
3.9538396696
 20
-5.0864923778
 10
4.0229133816
 20
-5.011785593
 10
4.0940365909
 20
-4.9445664375
 10
4.1666359423
 20
-4.8854468701
 10
4.2412847908
 20
-4.833814932
 10
4.3179831367
 20
-4.7896706233
  0
LINE
  5
364
100
AcDbEntity
  8
RACCORDO
100
AcDbLine
 62
253
  6
CONTINUOUS
 10
1.0575987985
 20
13.29910243
 11
1.0575987985
 21
12.8017724731
  0
LINE
  5
365
100
AcDbEntity
  8
RACCORDO
100
AcDbLine
 62
253
  6
CONTINUOUS
 10
1.0575987985
 20
-23.7613169744
 11
1.0575987985
 21
-24.0542627352
  0
LINE
  5
366
100
AcDbEntity
  8
RACCORDO
100
AcDbLine
 62
7
  6
CONTINUOUS
 10
1.1979288983
 20
13.5995275567
 11
1.1979288983
 21
12.9780431624
  0
LINE
  5
367
100
AcDbEntity
  8
RACCORDO
100
AcDbLine
 62
7
  6
CONTINUOUS
 10
1.1979288983
 20
-23.687108106
 11
1.1979288983
 21
-24.0073586767
  0
LINE
  5
368
100
AcDbEntity
  8
ASSI
100
AcDbLine
 62
7
  6
CONTINUOUS
 10
3.1133344436
 20
21.1242612931
 11
3.1133344436
 21
20.8802513987
  0
LWPOLYLINE
  5
369
100
AcDbEntity
  8
DRAFT
100
AcDbPolyline
 62
7
  6
CONTINUOUS
 90
6
 70
0
 10
-13.9912657575
 20
-15.4002162701
 10
-14.1588153468
 20
-15.5567203761
 10
-14.3496615768
 20
-15.707688388
 10
-14.5510092927
 20
-15.840923625
 10
-14.7626928937
 20
-15.9565164327
 10
-14.9731972146
 20
-16.0496532889
  0
LINE
  5
36A
100
AcDbEntity
  8
RACCORDO
100
AcDbLine
 62
7
  6
CONTINUOUS
 10
22.9150504301
 20
10.0248467656
 11
19.2901513538
 21
8.1243415808
  0
LINE
  5
36B
100
AcDbEntity
  8
ASSI
100
AcDbLine
 62
7
  6
CONTINUOUS
 10
22.9150504301
 20
10.0248467656
 11
19.2901513538
 21
8.1243415808
  0
LINE
  5
36C
100
AcDbEntity
  8
RACCORDO
100
AcDbLine
 62
7
  6
CONTINUOUS
 10
18.0255036712
 20
6.5578183334
 11
4.3179831367
 21
-0.4595436043
  0
LINE
  5
36D
100
AcDbEntity
  8
ASSI
100
AcDbLine
 62
7
  6
CONTINUOUS
 10
18.0255036712
 20
6.5578183334
 11
4.3179831367
 21
-0.4595436043
  0
LINE
  5
36E
100
AcDbEntity
  8
RACCORDO
100
AcDbLine
 62
7
  6
CONTINUOUS
 10
17.1875555167
 20
5.3122238511
 11
3.5365426072
 21
-1.6729011711
  0
LINE
  5
36F
100
AcDbEntity
  8
ASSI
100
AcDbLine
 62
7
  6
CONTINUOUS
 10
17.1875555167
 20
5.3122238511
 11
3.5365426072
 21
-1.6729011711
  0
LINE
  5
370
100
AcDbEntity
  8
RACCORDO
100
AcDbLine
 62
7
  6
CONTINUOUS
 10
22.9150504301
 20
10.6703495969
 11
19.2901513538
 21
8.8171619038
  0
LINE
  5
371
100
AcDbEntity
  8
ASSI
100
AcDbLine
 62
7
  6
CONTINUOUS
 10
22.9150504301
 20
10.6703495969
 11
19.2901513538
 21
8.8171619038
  0
LWPOLYLINE
  5
372
100
AcDbEntity
  8
DRAFT
100
AcDbPolyline
 62
7
  6
CONTINUOUS
 90
5
 70
0
 10
18.5446192794
 20
4.8627113449
 10
18.4271095397
 20
4.8089721541
 10
18.3118731478
 20
4.7674279989
 10
18.1989101034
 20
4.7380788792
 10
18.0876029956
 20
4.7208978066
  0
LWPOLYLINE
  5
373
100
AcDbEntity
  8
ASSI
100
AcDbPolyline
 62
7
  6
CONTINUOUS
 90
5
 70
0
 10
18.5446192794
 20
4.8627113449
 10
18.4271095397
 20
4.8089721541
 10
18.3118731478
 20
4.7674279989
 10
18.1989101034
 20
4.7380788792
 10
18.0876029956
 20
4.7208978066
  0
LINE
  5
374
100
AcDbEntity
  8
RACCORDO
100
AcDbLine
 62
253
  6
CONTINUOUS
 10
-10.0795123959
 20
6.3974785034
 11
-24.9277308566
 21
13.8215877338
  0
LINE
  5
375
100
AcDbEntity
  8
RACCORDO
100
AcDbLine
 62
253
  6
CONTINUOUS
 10
3.5259463266
 20
-1.7772733328
 11
4.3179831367
 21
-2.433213982
  0
LINE
  5
376
100
AcDbEntity
  8
ASSI
100
AcDbLine
 62
253
  6
CONTINUOUS
 10
3.5259463266
 20
-1.7772733328
 11
4.3179831367
 21
-2.433213982
  0
LWPOLYLINE
  5
377
100
AcDbEntity
  8
RACCORDO
100
AcDbPolyline
 62
7
  6
CONTINUOUS
 90
25
 70
0
 10
3.6986426367
 20
-2.3875308214
 10
3.6704464158
 20
-2.3558857168
 10
3.6294275022
 20
-2.2979463358
 10
3.5948421925
 20
-2.2327007125
 10
3.566769461
 20
-2.1597018921
 10
3.5451303334
 20
-2.0793968294
 10
3.5306263045
 20
-1.9943846723
 10
3.5234912058
 20
-1.9048566105
 10
3.5234912058
 20
-1.8106214543
 10
3.5306263045
 20
-1.7137047815
 10
3.5451303334
 20
-1.6136732628
 10
3.566769461
 20
-1.5109602275
 10
3.5948421925
 20
-1.4088912425
 10
3.6294275022
 20
-1.3078314827
 10
3.6704464158
 20
-1.2074157732
 10
3.7169605162
 20
-1.1098741557
 10
3.7692322055
 20
-1.0150240903
 10
3.8269990815
 20
-0.923048117
 10
3.8885355204
 20
-0.8367238971
 10
3.9538396696
 20
-0.7563653589
 10
4.0229133816
 20
-0.681658574
 10
4.0940365909
 20
-0.6144394186
 10
4.1666359423
 20
-0.5553198511
 10
4.2412847908
 20
-0.5036879131
 10
4.3179831367
 20
-0.4595436043
  0
LWPOLYLINE
  5
378
100
AcDbEntity
  8
ASSI
100
AcDbPolyline
 62
7
  6
CONTINUOUS
 90
25
 70
0
 10
3.6986426367
 20
-2.3875308214
 10
3.6704464158
 20
-2.3558857168
 10
3.6294275022
 20
-2.2979463358
 10
3.5948421925
 20
-2.2327007125
 10
3.566769461
 20
-2.1597018921
 10
3.5451303334
 20
-2.0793968294
 10
3.5306263045
 20
-1.9943846723
 10
3.5234912058
 20
-1.9048566105
 10
3.5234912058
 20
-1.8106214543
 10
3.5306263045
 20
-1.7137047815
 10
3.5451303334
 20
-1.6136732628
 10
3.566769461
 20
-1.5109602275
 10
3.5948421925
 20
-1.4088912425
 10
3.6294275022
 20
-1.3078314827
 10
3.6704464158
 20
-1.2074157732
 10
3.7169605162
 20
-1.1098741557
 10
3.7692322055
 20
-1.0150240903
 10
3.8269990815
 20
-0.923048117
 10
3.8885355204
 20
-0.8367238971
 10
3.9538396696
 20
-0.7563653589
 10
4.0229133816
 20
-0.681658574
 10
4.0940365909
 20
-0.6144394186
 10
4.1666359423
 20
-0.5553198511
 10
4.2412847908
 20
-0.5036879131
 10
4.3179831367
 20
-0.4595436043
  0
LWPOLYLINE
  5
379
100
AcDbEntity
  8
RACCORDO
100
AcDbPolyline
 62
253
  6
CONTINUOUS
 90
3
 70
0
 10
23.0929700081
 20
19.045080039
 10
23.133802245
 20
19.092638319
 10
23.1645833412
 20
19.1420522276
  0
LWPOLYLINE
  5
37A
100
AcDbEntity
  8
ASSI
100
AcDbPolyline
 62
253
  6
CONTINUOUS
 90
3
 70
0
 10
23.0929700081
 20
19.045080039
 10
23.133802245
 20
19.092638319
 10
23.1645833412
 20
19.1420522276
  0
LINE
  5
37B
100
AcDbEntity
  8
RACCORDO
100
AcDbLine
 62
7
  6
CONTINUOUS
 10
18.0255036712
 20
4.7439771207
 11
4.3179831367
 21
-2.433213982
  0
LINE
  5
37C
100
AcDbEntity
  8
ASSI
100
AcDbLine
 62
7
  6
CONTINUOUS
 10
18.0255036712
 20
4.7439771207
 11
4.3179831367
 21
-2.433213982
  0
LINE
  5
37D
100
AcDbEntity
  8
RACCORDO
100
AcDbLine
 62
7
  6
CONTINUOUS
 10
22.9150504301
 20
6.340222578
 11
19.2901513538
 21
4.4870348849
  0
LINE
  5
37E
100
AcDbEntity
  8
ASSI
100
AcDbLine
 62
7
  6
CONTINUOUS
 10
22.9150504301
 20
6.340222578
 11
19.2901513538
 21
4.4870348849
  0
LINE
  5
37F
100
AcDbEntity
  8
DRAFT
100
AcDbLine
 62
7
  6
CONTINUOUS
 10
21.1507281913
 20
6.1713616629
 11
18.5446192794
 21
4.8627113449
  0
LINE
  5
380
100
AcDbEntity
  8
ASSI
100
AcDbLine
 62
7
  6
CONTINUOUS
 10
21.1507281913
 20
6.1713616629
 11
18.5446192794
 21
4.8627113449
  0
LINE
  5
381
100
AcDbEntity
  8
RACCORDO
100
AcDbLine
 62
7
  6
CONTINUOUS
 10
22.9123243169
 20
7.0464693089
 11
21.1445573639
 21
6.1745782878
  0
LINE
  5
382
100
AcDbEntity
  8
ASSI
100
AcDbLine
 62
7
  6
CONTINUOUS
 10
22.9123243169
 20
7.0464693089
 11
21.1445573639
 21
6.1745782878
  0
LWPOLYLINE
  5
383
100
AcDbEntity
  8
RACCORDO
100
AcDbPolyline
 62
7
  6
CONTINUOUS
 90
11
 70
0
 10
4.3179831367
 20
-2.433213982
 10
4.2412847908
 20
-2.4684931354
 10
4.1666359423
 20
-2.4941623429
 10
4.0940365909
 20
-2.5102216045
 10
4.0229133816
 20
-2.5166526883
 10
3.9538396696
 20
-2.5134738261
 10
3.8885355204
 20
-2.500739714
 10
3.8269990815
 20
-2.478138342
 10
3.7692322055
 20
-2.4459817199
 10
3.7169605162
 20
-2.4052605734
 10
3.6986426367
 20
-2.3875308214
  0
LWPOLYLINE
  5
384
100
AcDbEntity
  8
ASSI
100
AcDbPolyline
 62
7
  6
CONTINUOUS
 90
11
 70
0
 10
4.3179831367
 20
-2.433213982
 10
4.2412847908
 20
-2.4684931354
 10
4.1666359423
 20
-2.4941623429
 10
4.0940365909
 20
-2.5102216045
 10
4.0229133816
 20
-2.5166526883
 10
3.9538396696
 20
-2.5134738261
 10
3.8885355204
 20
-2.500739714
 10
3.8269990815
 20
-2.478138342
 10
3.7692322055
 20
-2.4459817199
 10
3.7169605162
 20
-2.4052605734
 10
3.6986426367
 20
-2.3875308214
  0
LINE
  5
385
100
AcDbEntity
  8
DRAFT
100
AcDbLine
 62
7
  6
CONTINUOUS
 10
18.0876029956
 20
4.7208978066
 11
18.0418278379
 21
4.718804541
  0
LINE
  5
386
100
AcDbEntity
  8
ASSI
100
AcDbLine
 62
7
  6
CONTINUOUS
 10
18.0876029956
 20
4.7208978066
 11
18.0418278379
 21
4.718804541
  0
LWPOLYLINE
  5
387
100
AcDbEntity
  8
RACCORDO
100
AcDbPolyline
 62
253
  6
CONTINUOUS
 90
31
 70
0
 10
-6.5125768827
 20
9.8587512448
 10
-6.5031188645
 20
9.8542627112
 10
-6.4932056275
 20
9.8500268649
 10
-6.4828641424
 20
9.8460552302
 10
-6.4721225448
 20
9.8423586127
 10
-6.4610100591
 20
9.8389470696
 10
-6.4495569188
 20
9.8358298826
 10
-6.4377942839
 20
9.8330155325
 10
-6.4257541569
 20
9.8305116762
 10
-6.4134692948
 20
9.828325126
 10
-6.4009731208
 20
9.8264618307
 10
-6.3882996327
 20
9.8249268596
 10
-6.375483311
 20
9.8237243891
 10
-6.3625590247
 20
9.8228576905
 10
-6.3495619364
 20
9.8223291219
 10
-6.3365274069
 20
9.8221401213
 10
-6.3234908989
 20
9.822291203
 10
-6.3104878804
 20
9.8227819559
 10
-6.2975537283
 20
9.8236110448
 10
-6.2847236322
 20
9.824776214
 10
-6.2720324986
 20
9.8262742936
 10
-6.2595148557
 20
9.8281012077
 10
-6.24720476
 20
9.8302519859
 10
-6.2351357032
 20
9.8327207767
 10
-6.2233405212
 20
9.8355008632
 10
-6.2118513047
 20
9.8385846818
 10
-6.2006993122
 20
9.8419638425
 10
-6.1899148846
 20
9.8456291516
 10
-6.1795273626
 20
9.8495706371
 10
-6.1695650073
 20
9.8537775754
 10
-6.1600549231
 20
9.858238521
  0
LWPOLYLINE
  5
388
100
AcDbEntity
  8
RACCORDO
100
AcDbPolyline
 62
7
  6
CONTINUOUS
 90
7
 70
0
 10
-6.4476035137
 20
9.7235327584
 10
-6.4389530462
 20
9.7194128094
 10
-6.42711674
 20
9.7144138156
 10
-6.4150182404
 20
9.7100225326
 10
-6.4026867039
 20
9.7062533249
 10
-6.3901556244
 20
9.7031201537
 10
-6.3868983361
 20
9.7024173434
  0
LINE
  5
389
100
AcDbEntity
  8
RACCORDO
100
AcDbLine
 62
7
  6
CONTINUOUS
 10
-5.8013562746
 20
8.8913349947
 11
-7.1345686083
 21
9.5579411615
  0
LINE
  5
38A
100
AcDbEntity
  8
RACCORDO
100
AcDbLine
 62
7
  6
CONTINUOUS
 10
-19.165674439
 20
15.5734940769
 11
-20.4988867727
 21
16.2401002437
  0
LINE
  5
38B
100
AcDbEntity
  8
RACCORDO
100
AcDbLine
 62
7
  6
CONTINUOUS
 10
-15.5522216829
 20
14.1430143235
 11
-10.0409145832
 21
11.3873607737
  0
LINE
  5
38C
100
AcDbEntity
  8
RACCORDO
100
AcDbLine
 62
7
  6
CONTINUOUS
 10
-21.1369064305
 20
17.0681842168
 11
-19.8119217507
 21
16.4056918769
  0
LINE
  5
38D
100
AcDbEntity
  8
RACCORDO
100
AcDbLine
 62
7
  6
CONTINUOUS
 10
-7.7725882661
 20
10.3860251346
 11
-6.4476035863
 21
9.7235327947
  0
LINE
  5
38E
100
AcDbEntity
  8
RACCORDO
100
AcDbLine
 62
253
  6
CONTINUOUS
 10
-21.201879727
 20
17.2034026669
 11
-19.8768950471
 21
16.540910327
  0
LINE
  5
38F
100
AcDbEntity
  8
RACCORDO
100
AcDbLine
 62
253
  6
CONTINUOUS
 10
-7.8375615625
 20
10.5212435847
 11
-6.5125768827
 21
9.8587512448
  0
LWPOLYLINE
  5
390
100
AcDbEntity
  8
RACCORDO
100
AcDbPolyline
 62
253
  6
CONTINUOUS
 90
16
 70
0
 10
-21.201879727
 20
17.2034026669
 10
-21.2108567942
 20
17.208131676
 10
-21.2193284868
 20
17.2130882945
 10
-21.2272717561
 20
17.2182590371
 10
-21.2346649912
 20
17.2236298359
 10
-21.2414880774
 20
17.2291860787
 10
-21.2477224515
 20
17.2349126489
 10
-21.2533511516
 20
17.2407939663
 10
-21.2583588641
 20
17.2468140298
 10
-21.2627319646
 20
17.2529564609
 10
-21.2664585552
 20
17.2592045479
 10
-21.2695284973
 20
17.2655412919
 10
-21.2719334384
 20
17.2719494528
 10
-21.2736668356
 20
17.2784115959
 10
-21.2747239728
 20
17.2849101401
 10
-21.2751030317
 20
17.2917910146
  0
LWPOLYLINE
  5
391
100
AcDbEntity
  8
RACCORDO
100
AcDbPolyline
 62
253
  6
CONTINUOUS
 90
16
 70
0
 10
-21.201879727
 20
17.5433766011
 10
-21.2108567942
 20
17.5481056101
 10
-21.2193284868
 20
17.5530622286
 10
-21.2272717561
 20
17.5582329712
 10
-21.2346649912
 20
17.56360377
 10
-21.2414880774
 20
17.5691600129
 10
-21.2477224515
 20
17.574886583
 10
-21.2533511516
 20
17.5807679004
 10
-21.2583588641
 20
17.586787964
 10
-21.2627319646
 20
17.592930395
 10
-21.2664585552
 20
17.599178482
 10
-21.2695284973
 20
17.605515226
 10
-21.2719334384
 20
17.6119233869
 10
-21.2736668356
 20
17.6183855301
 10
-21.2747239728
 20
17.6248840742
 10
-21.2751030317
 20
17.6317649487
  0
LWPOLYLINE
  5
392
100
AcDbEntity
  8
RACCORDO
100
AcDbPolyline
 62
253
  6
CONTINUOUS
 90
16
 70
0
 10
-7.8375615625
 20
10.5212435847
 10
-7.8465386297
 20
10.5259725938
 10
-7.8550103224
 20
10.5309292123
 10
-7.8629535917
 20
10.5360999549
 10
-7.8703468268
 20
10.5414707537
 10
-7.877169913
 20
10.5470269965
 10
-7.883404287
 20
10.5527535667
 10
-7.8890329872
 20
10.5586348841
 10
-7.8940406997
 20
10.5646549476
 10
-7.8984138001
 20
10.5707973787
 10
-7.9021403908
 20
10.5770454657
 10
-7.9052103328
 20
10.5833822097
 10
-7.907615274
 20
10.5897903705
 10
-7.9093486712
 20
10.5962525137
 10
-7.9104058084
 20
10.6027510579
 10
-7.9107848672
 20
10.6096319324
  0
LWPOLYLINE
  5
393
100
AcDbEntity
  8
RACCORDO
100
AcDbPolyline
 62
253
  6
CONTINUOUS
 90
16
 70
0
 10
-7.8375615625
 20
10.8612175188
 10
-7.8465182638
 20
10.8659352244
 10
-7.8549770459
 20
10.8708826206
 10
-7.8629140238
 20
10.8760466997
 10
-7.8703081173
 20
10.8814149439
 10
-7.8771365068
 20
10.8869720736
 10
-7.8833758847
 20
10.892699718
 10
-7.889008128
 20
10.8985810117
 10
-7.8940193071
 20
10.9046011555
 10
-7.8983958927
 20
10.9107439296
 10
-7.9021259869
 20
10.9169927404
 10
-7.9051993016
 20
10.9233304774
 10
-7.9076073617
 20
10.929739713
 10
-7.9093436013
 20
10.9362029217
 10
-7.9104033344
 20
10.9427025912
 10
-7.9107848672
 20
10.9496055303
  0
LWPOLYLINE
  5
394
100
AcDbEntity
  8
RACCORDO
100
AcDbPolyline
 62
7
  6
CONTINUOUS
 90
37
 70
0
 10
-4.5588793736
 20
9.3984643559
 10
-4.5439770893
 20
9.3896659475
 10
-4.5290726407
 20
9.3800882934
 10
-4.5141941005
 20
9.3697451731
 10
-4.499349686
 20
9.3586416609
 10
-4.4845880065
 20
9.3468035237
 10
-4.4699963566
 20
9.3342849001
 10
-4.4556160838
 20
9.3211214485
 10
-4.441457591
 20
9.3073329743
 10
-4.4275587835
 20
9.2929599601
 10
-4.4139627903
 20
9.2780555075
 10
-4.400672063
 20
9.2626310025
 10
-4.3876648369
 20
9.2466612632
 10
-4.3749575396
 20
9.2301629342
 10
-4.3625830063
 20
9.2131753519
 10
-4.3505482972
 20
9.1957012062
 10
-4.3388600999
 20
9.1777410053
 10
-4.3275628104
 20
9.1593528884
 10
-4.3167167682
 20
9.1406294504
 10
-4.3063426971
 20
9.1216107615
 10
-4.2964565984
 20
9.1023295962
 10
-4.2871018928
 20
9.0828740033
 10
-4.2782936212
 20
9.063290901
 10
-4.2700383663
 20
9.0436107539
 10
-4.2623585751
 20
9.0238991511
 10
-4.2552654157
 20
9.0042106782
 10
-4.2487562127
 20
8.984565614
 10
-4.2428301363
 20
8.9649773099
 10
-4.2374912825
 20
8.9454834402
 10
-4.2327409393
 20
8.926115645
 10
-4.2285767294
 20
8.9068771947
 10
-4.2250000549
 20
8.8877945085
 10
-4.2220138825
 20
8.868906803
 10
-4.2196199866
 20
8.8502360947
 10
-4.217819064
 20
8.8318104975
 10
-4.2166098373
 20
8.8136639184
 10
-4.2159903834
 20
8.7958262274
  0
LINE
  5
395
100
AcDbEntity
  8
RACCORDO
100
AcDbLine
 62
253
  6
CONTINUOUS
 10
3.5259463266
 20
2.5528536861
 11
4.3179831367
 21
1.896913037
  0
LINE
  5
396
100
AcDbEntity
  8
ASSI
100
AcDbLine
 62
253
  6
CONTINUOUS
 10
3.5259463266
 20
2.5528536861
 11
4.3179831367
 21
1.896913037
  0
LWPOLYLINE
  5
397
100
AcDbEntity
  8
RACCORDO
100
AcDbPolyline
 62
7
  6
CONTINUOUS
 90
25
 70
0
 10
3.6986426367
 20
1.9425961975
 10
3.6704464158
 20
1.9742413021
 10
3.6294275022
 20
2.0321806832
 10
3.5948421925
 20
2.0974263064
 10
3.566769461
 20
2.1704251269
 10
3.5451303334
 20
2.2507301895
 10
3.5306263045
 20
2.3357423466
 10
3.5234912058
 20
2.4252704084
 10
3.5234912058
 20
2.5195055647
 10
3.5306263045
 20
2.6164222374
 10
3.5451303334
 20
2.7164537562
 10
3.566769461
 20
2.8191667914
 10
3.5948421925
 20
2.9212357764
 10
3.6294275022
 20
3.0222955362
 10
3.6704464158
 20
3.1227112457
 10
3.7169605162
 20
3.2202528632
 10
3.7692322055
 20
3.3151029286
 10
3.8269990815
 20
3.4070789019
 10
3.8885355204
 20
3.4934031219
 10
3.9538396696
 20
3.57376166
 10
4.0229133816
 20
3.6484684449
 10
4.0940365909
 20
3.7156876003
 10
4.1666359423
 20
3.7748071678
 10
4.2412847908
 20
3.8264391059
 10
4.3179831367
 20
3.8705834146
  0
LWPOLYLINE
  5
398
100
AcDbEntity
  8
ASSI
100
AcDbPolyline
 62
7
  6
CONTINUOUS
 90
25
 70
0
 10
3.6986426367
 20
1.9425961975
 10
3.6704464158
 20
1.9742413021
 10
3.6294275022
 20
2.0321806832
 10
3.5948421925
 20
2.0974263064
 10
3.566769461
 20
2.1704251269
 10
3.5451303334
 20
2.2507301895
 10
3.5306263045
 20
2.3357423466
 10
3.5234912058
 20
2.4252704084
 10
3.5234912058
 20
2.5195055647
 10
3.5306263045
 20
2.6164222374
 10
3.5451303334
 20
2.7164537562
 10
3.566769461
 20
2.8191667914
 10
3.5948421925
 20
2.9212357764
 10
3.6294275022
 20
3.0222955362
 10
3.6704464158
 20
3.1227112457
 10
3.7169605162
 20
3.2202528632
 10
3.7692322055
 20
3.3151029286
 10
3.8269990815
 20
3.4070789019
 10
3.8885355204
 20
3.4934031219
 10
3.9538396696
 20
3.57376166
 10
4.0229133816
 20
3.6484684449
 10
4.0940365909
 20
3.7156876003
 10
4.1666359423
 20
3.7748071678
 10
4.2412847908
 20
3.8264391059
 10
4.3179831367
 20
3.8705834146
  0
LWPOLYLINE
  5
399
100
AcDbEntity
  8
RACCORDO
100
AcDbPolyline
 62
253
  6
CONTINUOUS
 90
31
 70
0
 10
-4.0305069605
 20
-30.3827623775
 10
-4.0261638192
 20
-30.3705387966
 10
-4.0223160102
 20
-30.3581056062
 10
-4.0189744415
 20
-30.3454965471
 10
-4.0161484172
 20
-30.3327447032
 10
-4.0138464173
 20
-30.3198859443
 10
-4.0120755848
 20
-30.3069589106
 10
-4.0108408538
 20
-30.2940002172
 10
-4.0101453909
 20
-30.2810439544
 10
-4.0099910981
 20
-30.2681251835
 10
-4.010378448
 20
-30.2552789782
 10
-4.0113064298
 20
-30.2425406462
 10
-4.012772506
 20
-30.2299453008
 10
-4.0147726517
 20
-30.2175274564
 10
-4.0173014146
 20
-30.2053209159
 10
-4.0203518958
 20
-30.1933589913
 10
-4.0239157732
 20
-30.1816743383
 10
-4.0279833115
 20
-30.1702988939
 10
-4.0325433928
 20
-30.1592637576
 10
-4.0375835574
 20
-30.1485990792
 10
-4.043090042
 20
-30.1383339793
 10
-4.0490478061
 20
-30.1284964962
 10
-4.0554405865
 20
-30.1191134863
 10
-4.0622509134
 20
-30.1102105935
 10
-4.0694601512
 20
-30.1018121721
 10
-4.0770485807
 20
-30.0939411768
 10
-4.0849954908
 20
-30.0866190731
 10
-4.0932792077
 20
-30.0798658246
 10
-4.1018771182
 20
-30.0736998675
 10
-4.1107657269
 20
-30.0681380529
 10
-4.1199207558
 20
-30.0631955715
  0
LINE
  5
39A
100
AcDbEntity
  8
RACCORDO
100
AcDbLine
 62
7
  6
CONTINUOUS
 10
-15.1578385267
 20
-16.5084207661
 11
-15.1584538534
 21
-16.5087455078
  0
LINE
  5
39B
100
AcDbEntity
  8
RACCORDO
100
AcDbLine
 62
7
  6
CONTINUOUS
 10
22.9150504301
 20
2.9739930106
 11
4.3179831367
 21
-6.7633410009
  0
LINE
  5
39C
100
AcDbEntity
  8
ASSI
100
AcDbLine
 62
7
  6
CONTINUOUS
 10
22.9150504301
 20
2.9739930106
 11
4.3179831367
 21
-6.7633410009
  0
LWPOLYLINE
  5
39D
100
AcDbEntity
  8
RACCORDO
100
AcDbPolyline
 62
253
  6
CONTINUOUS
 90
18
 70
0
 10
-15.1584538534
 20
-16.5087455078
 10
-15.1925284888
 20
-16.5264332524
 10
-15.2939844853
 20
-16.5757532947
 10
-15.397395201
 20
-16.6210986697
 10
-15.5027047917
 20
-16.6624439218
 10
-15.6098503634
 20
-16.6997633598
 10
-15.7187745847
 20
-16.7330375962
 10
-15.8294201701
 20
-16.7622484338
 10
-15.9417192639
 20
-16.7873771773
 10
-16.0555963568
 20
-16.8084093793
 10
-16.170979318
 20
-16.825333715
 10
-16.2878080535
 20
-16.8381431859
 10
-16.4060232655
 20
-16.8468350079
 10
-16.5255441721
 20
-16.8514052385
 10
-16.6463149555
 20
-16.8518535223
 10
-16.7683140673
 20
-16.8481814249
 10
-16.8914824991
 20
-16.8403872483
 10
-16.9633043717
 20
-16.8335003786
  0
LINE
  5
39E
100
AcDbEntity
  8
RACCORDO
100
AcDbLine
 62
7
  6
CONTINUOUS
 10
22.9150504301
 20
4.7308222952
 11
4.3179831367
 21
-4.7896706233
  0
LINE
  5
39F
100
AcDbEntity
  8
ASSI
100
AcDbLine
 62
7
  6
CONTINUOUS
 10
22.9150504301
 20
4.7308222952
 11
4.3179831367
 21
-4.7896706233
  0
LINE
  5
3A0
100
AcDbEntity
  8
RACCORDO
100
AcDbLine
 62
7
  6
CONTINUOUS
 10
21.8516641451
 20
3.368687637
 11
3.5365426072
 21
-6.00302819
  0
LINE
  5
3A1
100
AcDbEntity
  8
ASSI
100
AcDbLine
 62
7
  6
CONTINUOUS
 10
21.8516641451
 20
3.368687637
 11
3.5365426072
 21
-6.00302819
  0
LINE
  5
3A2
100
AcDbEntity
  8
RACCORDO
100
AcDbLine
 62
7
  6
CONTINUOUS
 10
22.9123243169
 20
3.8990177229
 11
21.8516641451
 21
3.368687637
  0
LINE
  5
3A3
100
AcDbEntity
  8
ASSI
100
AcDbLine
 62
7
  6
CONTINUOUS
 10
22.9123243169
 20
3.8990177229
 11
21.8516641451
 21
3.368687637
  0
LWPOLYLINE
  5
3A4
100
AcDbEntity
  8
RACCORDO
100
AcDbPolyline
 62
7
  6
CONTINUOUS
 90
11
 70
0
 10
4.3179831367
 20
-6.7633410009
 10
4.2412847908
 20
-6.7986201543
 10
4.1666359423
 20
-6.8242893618
 10
4.0940365909
 20
-6.8403486234
 10
4.0229133816
 20
-6.8467797072
 10
3.9538396696
 20
-6.8436008451
 10
3.8885355204
 20
-6.8308667329
 10
3.8269990815
 20
-6.8082653609
 10
3.7692322055
 20
-6.7761087388
 10
3.7169605162
 20
-6.7353875923
 10
3.6986426367
 20
-6.7176578404
  0
LWPOLYLINE
  5
3A5
100
AcDbEntity
  8
ASSI
100
AcDbPolyline
 62
7
  6
CONTINUOUS
 90
11
 70
0
 10
4.3179831367
 20
-6.7633410009
 10
4.2412847908
 20
-6.7986201543
 10
4.1666359423
 20
-6.8242893618
 10
4.0940365909
 20
-6.8403486234
 10
4.0229133816
 20
-6.8467797072
 10
3.9538396696
 20
-6.8436008451
 10
3.8885355204
 20
-6.8308667329
 10
3.8269990815
 20
-6.8082653609
 10
3.7692322055
 20
-6.7761087388
 10
3.7169605162
 20
-6.7353875923
 10
3.6986426367
 20
-6.7176578404
  0
LWPOLYLINE
  5
3A6
100
AcDbEntity
  8
RACCORDO
100
AcDbPolyline
 62
253
  6
CONTINUOUS
 90
28
 70
0
 10
-16.6083730618
 20
-16.6938644087
 10
-16.4906888498
 20
-16.6443356637
 10
-16.2902147896
 20
-16.544482897
 10
-16.1010026107
 20
-16.4303652381
 10
-15.9230262396
 20
-16.3029122774
 10
-15.756395962
 20
-16.1631776346
 10
-15.6028974804
 20
-16.0140584775
 10
-15.4625548369
 20
-15.8575046246
 10
-15.3344279398
 20
-15.6944466131
 10
-15.2183959565
 20
-15.526766841
 10
-15.1140640068
 20
-15.3561640337
 10
-15.0205561284
 20
-15.1835492406
 10
-14.9369771363
 20
-15.0095370067
 10
-14.8627353992
 20
-14.8351619639
 10
-14.7972197564
 20
-14.6613591729
 10
-14.7396209306
 20
-14.488356085
 10
-14.6893975798
 20
-14.316916586
 10
-14.646009244
 20
-14.1477397136
 10
-14.6087753169
 20
-13.9807587487
 10
-14.577229044
 20
-13.8165297145
 10
-14.5509100875
 20
-13.655557753
 10
-14.5292736317
 20
-13.4975441363
 10
-14.5119342058
 20
-13.3428951271
 10
-14.498512194
 20
-13.1919583192
 10
-14.4885926272
 20
-13.0442255279
 10
-14.4818576844
 20
-12.8996872614
 10
-14.4780290872
 20
-12.7588704716
 10
-14.4768159725
 20
-12.6220044684
  0
LINE
  5
3A7
100
AcDbEntity
  8
DRAFT
100
AcDbLine
 62
7
  6
CONTINUOUS
 10
18.0876029956
 20
9.0510248256
 11
18.0418278379
 21
9.0489315599
  0
LINE
  5
3A8
100
AcDbEntity
  8
ASSI
100
AcDbLine
 62
7
  6
CONTINUOUS
 10
18.0876029956
 20
9.0510248256
 11
18.0418278379
 21
9.0489315599
  0
LWPOLYLINE
  5
3A9
100
AcDbEntity
  8
RACCORDO
100
AcDbPolyline
 62
7
  6
CONTINUOUS
 90
31
 70
0
 10
-5.7627027079
 20
9.5720837245
 10
-5.7612303245
 20
9.571783474
 10
-5.7503350901
 20
9.5699418269
 10
-5.7391942976
 20
9.5686943446
 10
-5.7278560985
 20
9.5680463529
 10
-5.7163437247
 20
9.5679940185
 10
-5.7046857258
 20
9.5685003194
 10
-5.6929155775
 20
9.5695647703
 10
-5.6810655997
 20
9.5711851197
 10
-5.6691608384
 20
9.5733212848
 10
-5.6572319616
 20
9.5759703743
 10
-5.6453085208
 20
9.5791286565
 10
-5.6334121866
 20
9.5827546542
 10
-5.6215705754
 20
9.5868436525
 10
-5.6098104335
 20
9.5913906717
 10
-5.5981506028
 20
9.5963538936
 10
-5.5866156571
 20
9.6017272334
 10
-5.5752295268
 20
9.6075046538
 10
-5.5640087785
 20
9.6136445532
 10
-5.552975041
 20
9.6201397948
 10
-5.5421494491
 20
9.6269834583
 10
-5.5315467003
 20
9.6341344276
 10
-5.5211855945
 20
9.6415847213
 10
-5.5110844892
 20
9.6493267088
 10
-5.5012564081
 20
9.6573199315
 10
-5.4917174283
 20
9.6655556924
 10
-5.4824831278
 20
9.6740258338
 10
-5.4735648246
 20
9.6826907983
 10
-5.4649751576
 20
9.691531543
 10
-5.4567277773
 20
9.7005493347
 10
-5.448834315
 20
9.7097349981
  0
LINE
  5
3AA
100
AcDbEntity
  8
RACCORDO
100
AcDbLine
 62
7
  6
CONTINUOUS
 10
-6.3868984166
 20
9.7024173602
 11
-5.7627028195
 21
9.5720847404
  0
LINE
  5
3AB
100
AcDbEntity
  8
RACCORDO
100
AcDbLine
 62
253
  6
CONTINUOUS
 10
-6.1600549231
 20
9.858238521
 11
-5.448834315
 21
9.7097349981
  0
LWPOLYLINE
  5
3AC
100
AcDbEntity
  8
RACCORDO
100
AcDbPolyline
 62
253
  6
CONTINUOUS
 90
14
 70
0
 10
-5.4338318652
 20
12.2445157888
 10
-5.4412592875
 20
12.2478353074
 10
-5.4488422302
 20
12.2504730075
 10
-5.4566886485
 20
12.2524858781
 10
-5.4647769398
 20
12.253868403
 10
-5.4730849075
 20
12.2546168633
 10
-5.4815900799
 20
12.2547293076
 10
-5.4902695426
 20
12.2542054587
 10
-5.4991016331
 20
12.2530464167
 10
-5.5080604161
 20
12.2512553813
 10
-5.517115753
 20
12.248838951
 10
-5.5262409218
 20
12.2458055796
 10
-5.5354129264
 20
12.2421642223
 10
-5.5446068247
 20
12.2379258977
  0
LWPOLYLINE
  5
3AD
100
AcDbEntity
  8
RACCORDO
100
AcDbPolyline
 62
253
  6
CONTINUOUS
 90
14
 70
0
 10
-4.0965128067
 20
11.5758562592
 10
-4.1038842838
 20
11.5791528699
 10
-4.1114654263
 20
11.5817946477
 10
-4.1193101776
 20
11.5838116368
 10
-4.1273971838
 20
11.585198343
 10
-4.135704436
 20
11.5859509887
 10
-4.1442093227
 20
11.5860675216
 10
-4.1528886878
 20
11.5855476221
 10
-4.1617189138
 20
11.5843927026
 10
-4.1706759601
 20
11.5826059054
 10
-4.1797354193
 20
11.5801921006
 10
-4.1888726228
 20
11.5771578658
 10
-4.1980627092
 20
11.5735114617
 10
-4.2072806642
 20
11.5692628174
  0
LWPOLYLINE
  5
3AE
100
AcDbEntity
  8
RACCORDO
100
AcDbPolyline
 62
253
  6
CONTINUOUS
 90
15
 70
0
 10
-7.6618133066
 20
11.1655943338
 10
-7.6710949952
 20
11.1698872203
 10
-7.680354359
 20
11.1735813581
 10
-7.6895660319
 20
11.1766655158
 10
-7.6987066006
 20
11.1791305492
 10
-7.7077489211
 20
11.1809678206
 10
-7.7166624312
 20
11.1821705494
 10
-7.7254207908
 20
11.1827353845
 10
-7.7340019505
 20
11.1826611103
 10
-7.7423826167
 20
11.1819479029
 10
-7.750539951
 20
11.1805976331
 10
-7.758451404
 20
11.1786139585
 10
-7.7660950364
 20
11.1760023546
 10
-7.773449799
 20
11.1727700329
 10
-7.7748989727
 20
11.1720423089
  0
LWPOLYLINE
  5
3AF
100
AcDbEntity
  8
RACCORDO
100
AcDbPolyline
 62
253
  6
CONTINUOUS
 90
15
 70
0
 10
-21.026131471
 20
17.847753416
 10
-21.0354373439
 20
17.8520567189
 10
-21.0447148993
 20
17.8557559855
 10
-21.0539386977
 20
17.8588410686
 10
-21.0630834552
 20
17.8613035069
 10
-21.0721240871
 20
17.8631365411
 10
-21.0810357774
 20
17.8643351384
 10
-21.0897940842
 20
17.8648960135
 10
-21.0983749981
 20
17.864817631
 10
-21.1067549825
 20
17.8641002082
 10
-21.1149110587
 20
17.8627457158
 10
-21.1228208653
 20
17.8607578712
 10
-21.1304627121
 20
17.8581421294
 10
-21.137815655
 20
17.8549056624
 10
-21.1392099791
 20
17.854205063
  0
LWPOLYLINE
  5
3B0
100
AcDbEntity
  8
RACCORDO
100
AcDbPolyline
 62
7
  6
CONTINUOUS
 90
16
 70
0
 10
-6.0790567034
 20
11.9775784311
 10
-6.0874677788
 20
11.981538915
 10
-6.0958599964
 20
11.9849998937
 10
-6.1042142442
 20
11.9879535775
 10
-6.1125114181
 20
11.9903933656
 10
-6.1207327165
 20
11.9923137318
 10
-6.1288596823
 20
11.9937102371
 10
-6.1368738477
 20
11.9945797457
 10
-6.144756967
 20
11.9949203323
 10
-6.1524913092
 20
11.9947311569
 10
-6.1600593168
 20
11.9940126651
 10
-6.1674437737
 20
11.9927665194
 10
-6.1746280363
 20
11.9909954968
 10
-6.1815958149
 20
11.9887036155
 10
-6.1883312741
 20
11.9858960924
 10
-6.1899888943
 20
11.985108588
  0
LWPOLYLINE
  5
3B1
100
AcDbEntity
  8
RACCORDO
100
AcDbPolyline
 62
7
  6
CONTINUOUS
 90
16
 70
0
 10
-19.4433748678
 20
18.6597375134
 10
-19.4517859433
 20
18.6636979972
 10
-19.4601781609
 20
18.667158976
 10
-19.4685324086
 20
18.6701126597
 10
-19.4768295826
 20
18.6725524478
 10
-19.4850508809
 20
18.674472814
 10
-19.4931778467
 20
18.6758693193
 10
-19.5011920121
 20
18.676738828
 10
-19.5090751315
 20
18.6770794145
 10
-19.5168094737
 20
18.6768902391
 10
-19.5243774812
 20
18.6761717473
 10
-19.5317619381
 20
18.6749256016
 10
-19.5389462007
 20
18.673154579
 10
-19.5459139794
 20
18.6708626977
 10
-19.5526494386
 20
18.6680551746
 10
-19.5543070587
 20
18.6672676702
  0
LWPOLYLINE
  5
3B2
100
AcDbEntity
  8
RACCORDO
100
AcDbPolyline
 62
253
  6
CONTINUOUS
 90
14
 70
0
 10
-5.5446068247
 20
12.2379258977
 10
-5.5538058344
 20
12.2422807344
 10
-5.5629824501
 20
12.2460288327
 10
-5.5721115203
 20
12.2491599197
 10
-5.5811680242
 20
12.2516654138
 10
-5.5901271394
 20
12.2535384478
 10
-5.5989643107
 20
12.2547738881
 10
-5.6076553171
 20
12.2553683486
 10
-5.6161763382
 20
12.2553201999
 10
-5.6245040194
 20
12.2546295742
 10
-5.6326155362
 20
12.2532983641
 10
-5.6404886563
 20
12.2513302184
 10
-5.6481018011
 20
12.2487305313
 10
-5.6551189358
 20
12.2456606888
  0
LWPOLYLINE
  5
3B3
100
AcDbEntity
  8
RACCORDO
100
AcDbPolyline
 62
253
  6
CONTINUOUS
 90
14
 70
0
 10
-18.9089249891
 20
18.9200849799
 10
-18.9181020967
 20
18.9244301569
 10
-18.9272627152
 20
18.9281736674
 10
-18.9363817597
 20
18.9313041393
 10
-18.9454360649
 20
18.9338123045
 10
-18.9543987552
 20
18.9356893909
 10
-18.9632395432
 20
18.9369284808
 10
-18.9719323016
 20
18.9375261164
 10
-18.9804551444
 20
18.9374810008
 10
-18.9887849363
 20
18.9367932306
 10
-18.9968989782
 20
18.9354646068
 10
-19.0047748414
 20
18.9334987272
 10
-19.0123906854
 20
18.9309010175
 10
-19.0194371002
 20
18.927819771
  0
LWPOLYLINE
  5
3B4
100
AcDbEntity
  8
RACCORDO
100
AcDbPolyline
 62
253
  6
CONTINUOUS
 90
31
 70
0
 10
-19.8768950471
 20
16.540910327
 10
-19.867437029
 20
16.5364217934
 10
-19.857523792
 20
16.5321859471
 10
-19.8471823068
 20
16.5282143124
 10
-19.8364407092
 20
16.5245176949
 10
-19.8253282235
 20
16.5211061518
 10
-19.8138750832
 20
16.5179889648
 10
-19.8021124484
 20
16.5151746147
 10
-19.7900723213
 20
16.5126707584
 10
-19.7777874592
 20
16.5104842082
 10
-19.7652912852
 20
16.5086209129
 10
-19.7526177972
 20
16.5070859419
 10
-19.7398014755
 20
16.5058834713
 10
-19.7268771891
 20
16.5050167727
 10
-19.7138801008
 20
16.5044882041
 10
-19.7008455713
 20
16.5042992035
 10
-19.6878090633
 20
16.5044502852
 10
-19.6748060448
 20
16.5049410381
 10
-19.6618718928
 20
16.505770127
 10
-19.6490417967
 20
16.5069352962
 10
-19.636350663
 20
16.5084333758
 10
-19.6238330201
 20
16.5102602899
 10
-19.6115229244
 20
16.5124110681
 10
-19.5994538676
 20
16.5148798589
 10
-19.5876586856
 20
16.5176599454
 10
-19.5761694692
 20
16.520743764
 10
-19.5650174767
 20
16.5241229247
 10
-19.554233049
 20
16.5277882338
 10
-19.543845527
 20
16.5317297193
 10
-19.5338831718
 20
16.5359366576
 10
-19.5243730875
 20
16.5403976032
  0
LWPOLYLINE
  5
3B5
100
AcDbEntity
  8
RACCORDO
100
AcDbPolyline
 62
253
  6
CONTINUOUS
 90
31
 70
0
 10
-6.5125768827
 20
10.1987251789
 10
-6.5031167333
 20
10.1942356855
 10
-6.4932011468
 20
10.1899989834
 10
-6.4828571089
 20
10.1860266063
 10
-6.4721127607
 20
10.1823293647
 10
-6.4609973552
 20
10.1789173284
 10
-6.4495411816
 20
10.1757997963
 10
-6.4377754323
 20
10.1729852551
 10
-6.425732125
 20
10.1704813627
 10
-6.4134440524
 20
10.1682949356
 10
-6.4009446648
 20
10.1664319237
 10
-6.388267983
 20
10.1648973959
 10
-6.3754485171
 20
10.1636955275
 10
-6.3625211456
 20
10.1628295872
 10
-6.3495210705
 20
10.1623019312
 10
-6.3364837271
 20
10.1621139938
 10
-6.3234446558
 20
10.1622662791
 10
-6.3104392908
 20
10.1627583649
 10
-6.2975029165
 20
10.1635889146
 10
-6.2846705774
 20
10.1647556877
 10
-6.2719773702
 20
10.1662555024
 10
-6.259458221
 20
10.1680842191
 10
-6.2471474243
 20
10.1702367885
 10
-6.2350782195
 20
10.1727073585
 10
-6.2232831018
 20
10.1754892624
 10
-6.2117916792
 20
10.1785756416
 10
-6.2006378627
 20
10.1819575163
 10
-6.1898587071
 20
10.1856232754
 10
-6.1794849411
 20
10.1895615612
 10
-6.1695416371
 20
10.1937619138
 10
-6.1600549231
 20
10.1982124551
  0
LWPOLYLINE
  5
3B6
100
AcDbEntity
  8
RACCORDO
100
AcDbPolyline
 62
253
  6
CONTINUOUS
 90
31
 70
0
 10
-19.8768950471
 20
16.8808842611
 10
-19.867437029
 20
16.8763957275
 10
-19.857523792
 20
16.8721598812
 10
-19.8471823068
 20
16.8681882466
 10
-19.8364407092
 20
16.864491629
 10
-19.8253282235
 20
16.8610800859
 10
-19.8138750832
 20
16.8579628989
 10
-19.8021124484
 20
16.8551485488
 10
-19.7900723213
 20
16.8526446926
 10
-19.7777874592
 20
16.8504581423
 10
-19.7652912852
 20
16.848594847
 10
-19.7526177972
 20
16.847059876
 10
-19.7398014755
 20
16.8458574054
 10
-19.7268771891
 20
16.8449907068
 10
-19.7138801008
 20
16.8444621382
 10
-19.7008455713
 20
16.8442731376
 10
-19.6878090633
 20
16.8444242193
 10
-19.6748060448
 20
16.8449149722
 10
-19.6618718928
 20
16.8457440611
 10
-19.6490417967
 20
16.8469092304
 10
-19.636350663
 20
16.8484073099
 10
-19.6238330201
 20
16.8502342241
 10
-19.6115229244
 20
16.8523850023
 10
-19.5994538676
 20
16.854853793
 10
-19.5876586856
 20
16.8576338795
 10
-19.5761694692
 20
16.8607176982
 10
-19.5650174767
 20
16.8640968588
 10
-19.554233049
 20
16.8677621679
 10
-19.543845527
 20
16.8717036534
 10
-19.5338831718
 20
16.8759105918
 10
-19.5243730875
 20
16.8803715373
  0
LWPOLYLINE
  5
3B7
100
AcDbEntity
  8
RACCORDO
100
AcDbPolyline
 62
7
  6
CONTINUOUS
 90
7
 70
0
 10
-19.8119216782
 20
16.4056918406
 10
-19.8032712107
 20
16.4015718916
 10
-19.7914349045
 20
16.3965728978
 10
-19.7793364048
 20
16.3921816148
 10
-19.7670048683
 20
16.3884124071
 10
-19.7544737888
 20
16.385279236
 10
-19.7512165006
 20
16.3845764256
  0
LINE
  5
3B8
100
AcDbEntity
  8
RACCORDO
100
AcDbLine
 62
253
  6
CONTINUOUS
 10
-6.5125768827
 20
10.1987251789
 11
-7.8375615625
 21
10.8612175188
  0
LINE
  5
3B9
100
AcDbEntity
  8
RACCORDO
100
AcDbLine
 62
253
  6
CONTINUOUS
 10
-19.8768950471
 20
16.8808842611
 11
-21.201879727
 21
17.5433766011
  0
LINE
  5
3BA
100
AcDbEntity
  8
DRAFT
100
AcDbLine
 62
7
  6
CONTINUOUS
 10
-17.9230922967
 20
16.0809428798
 11
-15.6986682923
 21
14.9687308776
  0
LINE
  5
3BB
100
AcDbEntity
  8
DRAFT
100
AcDbLine
 62
7
  6
CONTINUOUS
 10
-8.9781915146
 20
11.6084924888
 11
-7.8842509133
 21
11.0615221882
  0
LINE
  5
3BC
100
AcDbEntity
  8
RACCORDO
100
AcDbLine
 62
253
  6
CONTINUOUS
 10
-6.3368286267
 20
10.5031019939
 11
-7.6618133066
 21
11.1655943338
  0
LINE
  5
3BD
100
AcDbEntity
  8
RACCORDO
100
AcDbLine
 62
253
  6
CONTINUOUS
 10
-19.7011467912
 20
17.1852610761
 11
-21.026131471
 21
17.847753416
  0
LINE
  5
3BE
100
AcDbEntity
  8
RACCORDO
100
AcDbLine
 62
253
  6
CONTINUOUS
 10
-10.0409145832
 20
12.4679440845
 11
-15.5522216829
 21
15.2235976343
  0
LINE
  5
3BF
100
AcDbEntity
  8
RACCORDO
100
AcDbLine
 62
253
  6
CONTINUOUS
 10
-9.6180922034
 20
12.570333649
 11
-15.6938468532
 21
15.6082109738
  0
LINE
  5
3C0
100
AcDbEntity
  8
RACCORDO
100
AcDbLine
 62
7
  6
CONTINUOUS
 10
-17.9230922967
 20
16.7804919718
 11
-16.5150495617
 21
16.0764706043
  0
LINE
  5
3C1
100
AcDbEntity
  8
RACCORDO
100
AcDbLine
 62
7
  6
CONTINUOUS
 10
-4.5587741322
 20
10.0983328896
 11
-3.8517750612
 21
9.7448333541
  0
LINE
  5
3C2
100
AcDbEntity
  8
DRAFT
100
AcDbLine
 62
7
  6
CONTINUOUS
 10
-15.2007311891
 20
15.9321978913
 11
-8.9781915146
 21
12.8209280541
  0
LINE
  5
3C3
100
AcDbEntity
  8
RACCORDO
100
AcDbLine
 62
7
  6
CONTINUOUS
 10
-19.4433748678
 20
18.6597375134
 11
-18.0998660003
 21
17.9879830796
  0
LINE
  5
3C4
100
AcDbEntity
  8
RACCORDO
100
AcDbLine
 62
7
  6
CONTINUOUS
 10
-6.0790567034
 20
11.9775784311
 11
-4.7355478359
 21
11.3058239974
  0
LINE
  5
3C5
100
AcDbEntity
  8
DRAFT
100
AcDbLine
 62
7
  6
CONTINUOUS
 10
-13.8572283048
 20
15.962514842
 11
-8.9074808365
 21
13.4876411078
  0
LINE
  5
3C6
100
AcDbEntity
  8
RACCORDO
100
AcDbLine
 62
253
  6
CONTINUOUS
 10
-18.9089249891
 20
18.9200849799
 11
-17.5715988286
 21
18.2514218996
  0
LINE
  5
3C7
100
AcDbEntity
  8
RACCORDO
100
AcDbLine
 62
253
  6
CONTINUOUS
 10
-5.5446068247
 20
12.2379258977
 11
-4.2072806642
 21
11.5692628174
  0
LINE
  5
3C8
100
AcDbEntity
  8
RACCORDO
100
AcDbLine
 62
7
  6
CONTINUOUS
 10
-18.7981500296
 20
18.926674871
 11
-17.460823869
 21
18.2580117908
  0
LINE
  5
3C9
100
AcDbEntity
  8
RACCORDO
100
AcDbLine
 62
7
  6
CONTINUOUS
 10
-5.4338318652
 20
12.2445157888
 11
-4.0965057046
 21
11.5758527085
  0
LWPOLYLINE
  5
3CA
100
AcDbEntity
  8
RACCORDO
100
AcDbPolyline
 62
7
  6
CONTINUOUS
 90
22
 70
0
 10
-17.460823869
 20
18.2580117908
 10
-17.4491673031
 20
18.2517932064
 10
-17.4378119204
 20
18.2449396005
 10
-17.4268010749
 20
18.2374683364
 10
-17.4161725128
 20
18.2293970686
 10
-17.4059710243
 20
18.220753313
 10
-17.3962461005
 20
18.2115763332
 10
-17.3870715819
 20
18.2019433091
 10
-17.3784333129
 20
18.1918492931
 10
-17.3702628182
 20
18.1811995075
 10
-17.3625620223
 20
18.1699505294
 10
-17.3554284983
 20
18.1581979427
 10
-17.3489414943
 20
18.1460503004
 10
-17.3431378623
 20
18.1335746084
 10
-17.3380272188
 20
18.1207925895
 10
-17.3336281805
 20
18.107749633
 10
-17.3299565892
 20
18.0944961037
 10
-17.3270216037
 20
18.081072515
 10
-17.3248279538
 20
18.0675033301
 10
-17.3233821818
 20
18.0538185692
 10
-17.3226914973
 20
18.0400716072
 10
-17.3226272683
 20
18.034411779
  0
LINE
  5
3CB
100
AcDbEntity
  8
RACCORDO
100
AcDbLine
 62
253
  6
CONTINUOUS
 10
3.5259463266
 20
6.8829807051
 11
4.3179831367
 21
6.2270400559
  0
LINE
  5
3CC
100
AcDbEntity
  8
ASSI
100
AcDbLine
 62
253
  6
CONTINUOUS
 10
3.5259463266
 20
6.8829807051
 11
4.3179831367
 21
6.2270400559
  0
LWPOLYLINE
  5
3CD
100
AcDbEntity
  8
RACCORDO
100
AcDbPolyline
 62
7
  6
CONTINUOUS
 90
25
 70
0
 10
3.6986426367
 20
6.2727232164
 10
3.6704464158
 20
6.304368321
 10
3.6294275022
 20
6.3623077021
 10
3.5948421925
 20
6.4275533253
 10
3.566769461
 20
6.5005521458
 10
3.5451303334
 20
6.5808572084
 10
3.5306263045
 20
6.6658693656
 10
3.5234912058
 20
6.7553974273
 10
3.5234912058
 20
6.8496325836
 10
3.5306263045
 20
6.9465492563
 10
3.5451303334
 20
7.0465807751
 10
3.566769461
 20
7.1492938103
 10
3.5948421925
 20
7.2513627953
 10
3.6294275022
 20
7.3524225551
 10
3.6704464158
 20
7.4528382646
 10
3.7169605162
 20
7.5503798822
 10
3.7692322055
 20
7.6452299475
 10
3.8269990815
 20
7.7372059208
 10
3.8885355204
 20
7.8235301408
 10
3.9538396696
 20
7.903888679
 10
4.0229133816
 20
7.9785954638
 10
4.0940365909
 20
8.0458146193
 10
4.1666359423
 20
8.1049341867
 10
4.2412847908
 20
8.1565661248
 10
4.3179831367
 20
8.2007104335
  0
LWPOLYLINE
  5
3CE
100
AcDbEntity
  8
ASSI
100
AcDbPolyline
 62
7
  6
CONTINUOUS
 90
25
 70
0
 10
3.6986426367
 20
6.2727232164
 10
3.6704464158
 20
6.304368321
 10
3.6294275022
 20
6.3623077021
 10
3.5948421925
 20
6.4275533253
 10
3.566769461
 20
6.5005521458
 10
3.5451303334
 20
6.5808572084
 10
3.5306263045
 20
6.6658693656
 10
3.5234912058
 20
6.7553974273
 10
3.5234912058
 20
6.8496325836
 10
3.5306263045
 20
6.9465492563
 10
3.5451303334
 20
7.0465807751
 10
3.566769461
 20
7.1492938103
 10
3.5948421925
 20
7.2513627953
 10
3.6294275022
 20
7.3524225551
 10
3.6704464158
 20
7.4528382646
 10
3.7169605162
 20
7.5503798822
 10
3.7692322055
 20
7.6452299475
 10
3.8269990815
 20
7.7372059208
 10
3.8885355204
 20
7.8235301408
 10
3.9538396696
 20
7.903888679
 10
4.0229133816
 20
7.9785954638
 10
4.0940365909
 20
8.0458146193
 10
4.1666359423
 20
8.1049341867
 10
4.2412847908
 20
8.1565661248
 10
4.3179831367
 20
8.2007104335
  0
LWPOLYLINE
  5
3CF
100
AcDbEntity
  8
0
100
AcDbPolyline
 62
7
  6
CONTINUOUS
 90
15
 70
0
 10
15.9854651716
 20
-8.2932581805
 10
15.9467261586
 20
-8.2438829671
 10
15.8929468265
 20
-8.1900566418
 10
15.83364803
 20
-8.14429009
 10
15.7690976831
 20
-8.1065488038
 10
15.7008436968
 20
-8.0777140237
 10
15.6290542227
 20
-8.058025907
 10
15.5535611092
 20
-8.0472442964
 10
15.4754078118
 20
-8.0455299609
 10
15.3942440965
 20
-8.0530768974
 10
15.3104201973
 20
-8.069691109
 10
15.226030272
 20
-8.0949513733
 10
15.1413950225
 20
-8.1289059583
 10
15.056193747
 20
-8.171506596
 10
14.9715584975
 20
-8.2221872605
  0
LINE
  5
3D0
100
AcDbEntity
  8
RACCORDO
100
AcDbLine
 62
7
  6
CONTINUOUS
 10
2.8198975359
 20
10.8186453296
 11
1.8601282141
 21
12.4740025451
  0
LINE
  5
3D1
100
AcDbEntity
  8
ASSI
100
AcDbLine
 62
7
  6
CONTINUOUS
 10
2.8198975359
 20
10.8186453296
 11
1.8601282141
 21
12.4740025451
  0
LINE
  5
3D2
100
AcDbEntity
  8
ASSI
100
AcDbLine
 62
253
  6
CONTINUOUS
 10
9.6187168306
 20
17.3132364097
 11
9.6187168306
 21
17.0713666475
  0
LINE
  5
3D3
100
AcDbEntity
  8
ASSI
100
AcDbLine
 62
7
  6
CONTINUOUS
 10
10.3258236117
 20
17.6576001316
 11
10.3258236117
 21
17.4130552041
  0
LINE
  5
3D4
100
AcDbEntity
  8
RACCORDO
100
AcDbLine
 62
7
  6
CONTINUOUS
 10
22.9150504301
 20
-1.3561340084
 11
4.3179831367
 21
-11.0934680198
  0
LINE
  5
3D5
100
AcDbEntity
  8
ASSI
100
AcDbLine
 62
7
  6
CONTINUOUS
 10
22.9150504301
 20
-1.3561340084
 11
4.3179831367
 21
-11.0934680198
  0
LINE
  5
3D6
100
AcDbEntity
  8
RACCORDO
100
AcDbLine
 62
7
  6
CONTINUOUS
 10
22.9150504301
 20
0.4006952763
 11
4.3179831367
 21
-9.1197976422
  0
LINE
  5
3D7
100
AcDbEntity
  8
ASSI
100
AcDbLine
 62
7
  6
CONTINUOUS
 10
22.9150504301
 20
0.4006952763
 11
4.3179831367
 21
-9.1197976422
  0
LINE
  5
3D8
100
AcDbEntity
  8
RACCORDO
100
AcDbLine
 62
7
  6
CONTINUOUS
 10
21.8516641451
 20
-0.9614393819
 11
3.5365426072
 21
-10.333155209
  0
LINE
  5
3D9
100
AcDbEntity
  8
ASSI
100
AcDbLine
 62
7
  6
CONTINUOUS
 10
21.8516641451
 20
-0.9614393819
 11
3.5365426072
 21
-10.333155209
  0
LINE
  5
3DA
100
AcDbEntity
  8
RACCORDO
100
AcDbLine
 62
7
  6
CONTINUOUS
 10
22.9123243169
 20
-0.431109296
 11
21.8516641451
 21
-0.9614393819
  0
LINE
  5
3DB
100
AcDbEntity
  8
ASSI
100
AcDbLine
 62
7
  6
CONTINUOUS
 10
22.9123243169
 20
-0.431109296
 11
21.8516641451
 21
-0.9614393819
  0
LWPOLYLINE
  5
3DC
100
AcDbEntity
  8
RACCORDO
100
AcDbPolyline
 62
7
  6
CONTINUOUS
 90
11
 70
0
 10
4.3179831367
 20
-11.0934680198
 10
4.2412847908
 20
-11.1287471732
 10
4.1666359423
 20
-11.1544163807
 10
4.0940365909
 20
-11.1704756423
 10
4.0229133816
 20
-11.1769067261
 10
3.9538396696
 20
-11.173727864
 10
3.8885355204
 20
-11.1609937519
 10
3.8269990815
 20
-11.1383923798
 10
3.7692322055
 20
-11.1062357578
 10
3.7169605162
 20
-11.0655146112
 10
3.6986426367
 20
-11.0477848593
  0
LWPOLYLINE
  5
3DD
100
AcDbEntity
  8
ASSI
100
AcDbPolyline
 62
7
  6
CONTINUOUS
 90
11
 70
0
 10
4.3179831367
 20
-11.0934680198
 10
4.2412847908
 20
-11.1287471732
 10
4.1666359423
 20
-11.1544163807
 10
4.0940365909
 20
-11.1704756423
 10
4.0229133816
 20
-11.1769067261
 10
3.9538396696
 20
-11.173727864
 10
3.8885355204
 20
-11.1609937519
 10
3.8269990815
 20
-11.1383923798
 10
3.7692322055
 20
-11.1062357578
 10
3.7169605162
 20
-11.0655146112
 10
3.6986426367
 20
-11.0477848593
  0
LWPOLYLINE
  5
3DE
100
AcDbEntity
  8
RACCORDO
100
AcDbPolyline
 62
253
  6
CONTINUOUS
 90
57
 70
0
 10
-21.7425751783
 20
-18.7163878193
 10
-21.7165483926
 20
-18.7059709071
 10
-21.5420798674
 20
-18.62737926
 10
-21.3736989981
 20
-18.5359029684
 10
-21.2119412037
 20
-18.4317803632
 10
-21.0574340209
 20
-18.315432074
 10
-20.9106270389
 20
-18.1872915863
 10
-20.7716243506
 20
-18.0475492749
 10
-20.6405038237
 20
-17.8963153839
 10
-20.5174799469
 20
-17.7338119219
 10
-20.4028791977
 20
-17.5604430568
 10
-20.2969528216
 20
-17.3765812307
 10
-20.1999193703
 20
-17.1826005582
 10
-20.1119834604
 20
-16.9789043733
 10
-20.0333408139
 20
-16.7659483878
 10
-19.9641596601
 20
-16.5442062353
 10
-19.9045687322
 20
-16.3141110869
 10
-19.8546773928
 20
-16.0760838366
 10
-19.8146015698
 20
-15.8306775873
 10
-19.7844137873
 20
-15.5783364708
 10
-19.7641649082
 20
-15.3193155707
 10
-19.7539256764
 20
-15.053859384
 10
-19.7537772265
 20
-14.7827605239
 10
-19.7637237628
 20
-14.5071306729
 10
-19.7836858857
 20
-14.227911701
 10
-19.8136014997
 20
-13.9453473202
 10
-19.8534610953
 20
-13.6595236055
 10
-19.9032712467
 20
-13.3706899149
 10
-19.9629133509
 20
-13.0797720419
 10
-20.0321615481
 20
-12.7878732389
 10
-20.1107543114
 20
-12.4959299041
 10
-20.1985768148
 20
-12.2042227723
 10
-20.2955902397
 20
-11.9128782167
 10
-20.4017315449
 20
-11.6221964272
 10
-20.5167031476
 20
-11.3330940092
 10
-20.6400908622
 20
-11.0466142697
 10
-20.771487128
 20
-10.7636220539
 10
-20.9107178098
 20
-10.4844161551
 10
-21.0576881912
 20
-10.2091841217
 10
-21.2122472018
 20
-9.9382697661
 10
-21.3739617834
 20
-9.6724902177
 10
-21.5422967059
 20
-9.4127271372
 10
-21.7167559427
 20
-9.1596994219
 10
-21.8970918788
 20
-8.9137213933
 10
-22.0831164893
 20
-8.6750467651
 10
-22.2745699706
 20
-8.4440423339
 10
-22.4709492145
 20
-8.221347717
 10
-22.6716903161
 20
-8.0076048185
 10
-22.8763515061
 20
-7.8032681585
 10
-23.0845232676
 20
-7.6087310393
 10
-23.295662711
 20
-7.4244775163
 10
-23.5092294927
 20
-7.2509379241
 10
-23.7248690313
 20
-7.0883597778
 10
-23.9423120023
 20
-6.9369298677
 10
-24.1611702831
 20
-6.7969228828
 10
-24.3809322735
 20
-6.6686704537
 10
-24.6011443549
 20
-6.5524365705
  0
LINE
  5
3DF
100
AcDbEntity
  8
0
100
AcDbLine
 62
7
  6
CONTINUOUS
 10
-21.74257517
 20
-18.7163878161
 11
-16.8139192597
 21
-16.7746471848
  0
LINE
  5
3E0
100
AcDbEntity
  8
DRAFT
100
AcDbLine
 62
7
  6
CONTINUOUS
 10
-16.6083730577
 20
-16.6938644071
 11
-14.973196618
 21
-16.049654588
  0
LWPOLYLINE
  5
3E1
100
AcDbEntity
  8
RACCORDO
100
AcDbPolyline
 62
7
  6
CONTINUOUS
 90
16
 70
0
 10
-21.742575162
 20
-18.7163878129
 10
-21.9191486705
 20
-18.7794640459
 10
-22.1011328351
 20
-18.8315915301
 10
-22.2882039897
 20
-18.8725105403
 10
-22.4799872067
 20
-18.9019832644
 10
-22.6761776226
 20
-18.9198137366
 10
-22.8765670377
 20
-18.9258232671
 10
-23.0809842929
 20
-18.9198241393
 10
-23.2889393362
 20
-18.9016500129
 10
-23.4997643402
 20
-18.8712213997
 10
-23.7132030889
 20
-18.8284574265
 10
-23.928836738
 20
-18.7733213031
 10
-24.1457463661
 20
-18.705977752
 10
-24.3633923934
 20
-18.6265821985
 10
-24.5816214443
 20
-18.5351727616
 10
-24.8000885145
 20
-18.4318540793
  0
LINE
  5
3E2
100
AcDbEntity
  8
RACCORDO
100
AcDbLine
 62
7
  6
CONTINUOUS
 10
-16.6083730565
 20
-16.6938644066
 11
-16.6990734543
 21
-16.7254456703
  0
LWPOLYLINE
  5
3E3
100
AcDbEntity
  8
RACCORDO
100
AcDbPolyline
 62
7
  6
CONTINUOUS
 90
13
 70
0
 10
-3.9657577108
 20
10.9107131736
 10
-3.9687829252
 20
10.9101789392
 10
-3.9722894568
 20
10.909856541
 10
-3.9762641005
 20
10.9097188141
 10
-3.9806916966
 20
10.9097747568
 10
-3.9855561809
 20
10.9100339496
 10
-3.9908432546
 20
10.9104695948
 10
-3.9965364688
 20
10.9110892587
 10
-4.0026185629
 20
10.9119012028
 10
-4.0090742073
 20
10.9128791936
 10
-4.0158865773
 20
10.9140189197
 10
-4.0230369454
 20
10.9153378373
 10
-4.0305069605
 20
10.9168417619
  0
LINE
  5
3E4
100
AcDbEntity
  8
ASSI
100
AcDbLine
 62
7
  6
CONTINUOUS
 10
-8.3942072367
 20
15.4829364247
 11
-8.4695897854
 21
15.511117061
  0
LINE
  5
3E5
100
AcDbEntity
  8
RACCORDO
100
AcDbLine
 62
7
  6
CONTINUOUS
 10
-8.3942488205
 20
15.482953573
 11
-8.469627084
 21
15.5111296557
  0
LINE
  5
3E6
100
AcDbEntity
  8
RACCORDO
100
AcDbLine
 62
7
  6
CONTINUOUS
 10
-9.5623611922
 20
15.4648026992
 11
-9.5438984788
 21
15.4570581972
  0
LINE
  5
3E7
100
AcDbEntity
  8
ASSI
100
AcDbLine
 62
7
  6
CONTINUOUS
 10
-9.5623611922
 20
15.4648026992
 11
-9.5438984788
 21
15.4570581972
  0
LWPOLYLINE
  5
3E8
100
AcDbEntity
  8
RACCORDO
100
AcDbPolyline
 62
253
  6
CONTINUOUS
 90
14
 70
0
 10
-17.460823869
 20
18.2580117908
 10
-17.4682219498
 20
18.2613196846
 10
-17.4758021671
 20
18.2639593381
 10
-17.4836458135
 20
18.26597445
 10
-17.491731549
 20
18.267359538
 10
-17.5000373751
 20
18.2681108337
 10
-17.5085406942
 20
18.268226293
 10
-17.5172183718
 20
18.2677056019
 10
-17.5260467986
 20
18.2665501769
 10
-17.5350019555
 20
18.2647631616
 10
-17.5440594785
 20
18.2623494178
 10
-17.5531947249
 20
18.2593155126
 10
-17.5623828409
 20
18.2556697002
 10
-17.5715988286
 20
18.2514218996
  0
LWPOLYLINE
  5
3E9
100
AcDbEntity
  8
RACCORDO
100
AcDbPolyline
 62
253
  6
CONTINUOUS
 90
14
 70
0
 10
-18.7981500296
 20
18.926674871
 10
-18.8055481103
 20
18.9299827649
 10
-18.8131283276
 20
18.9326224184
 10
-18.820971974
 20
18.9346375303
 10
-18.8290577096
 20
18.9360226183
 10
-18.8373635356
 20
18.936773914
 10
-18.8458668548
 20
18.9368893733
 10
-18.8545445323
 20
18.9363686822
 10
-18.8633729592
 20
18.9352132572
 10
-18.8723281161
 20
18.9334262418
 10
-18.881385639
 20
18.9310124981
 10
-18.8905208855
 20
18.9279785929
 10
-18.8997090015
 20
18.9243327805
 10
-18.9089249891
 20
18.9200849799
  0
LINE
  5
3EA
100
AcDbEntity
  8
ASSI
100
AcDbLine
 62
7
  6
CONTINUOUS
 10
-8.322691995
 20
15.4504218574
 11
-8.3942072367
 21
15.4829364247
  0
LINE
  5
3EB
100
AcDbEntity
  8
RACCORDO
100
AcDbLine
 62
7
  6
CONTINUOUS
 10
-8.3226921259
 20
15.4504219235
 11
-8.3942488205
 21
15.482953573
  0
LWPOLYLINE
  5
3EC
100
AcDbEntity
  8
RACCORDO
100
AcDbPolyline
 62
7
  6
CONTINUOUS
 90
18
 70
0
 10
-18.7981500296
 20
18.926674871
 10
-18.8103558418
 20
18.9323720586
 10
-18.8229781206
 20
18.9374508666
 10
-18.8359783104
 20
18.9418727673
 10
-18.8493328917
 20
18.94560704
 10
-18.8629758795
 20
18.9486146264
 10
-18.8768001689
 20
18.9508600453
 10
-18.8907313029
 20
18.9523279974
 10
-18.9047399917
 20
18.9530137072
 10
-18.9187894881
 20
18.9529118726
 10
-18.9328218004
 20
18.9520199511
 10
-18.9467943465
 20
18.9503386671
 10
-18.9607002058
 20
18.9478634258
 10
-18.9745451118
 20
18.9445797998
 10
-18.9882273704
 20
18.9404984631
 10
-19.0015983001
 20
18.9356647575
 10
-19.0146210212
 20
18.9301026408
 10
-19.0194437397
 20
18.9278165364
  0
LWPOLYLINE
  5
3ED
100
AcDbEntity
  8
RACCORDO
100
AcDbPolyline
 62
253
  6
CONTINUOUS
 90
7
 70
0
 10
-8.3229556584
 20
15.4505543213
 10
-8.3251687003
 20
15.451615945
 10
-8.3402674594
 20
15.4567165423
 10
-8.3565731629
 20
15.4587207945
 10
-8.3738129728
 20
15.4575951649
 10
-8.3916984205
 20
15.4533584882
 10
-8.4099302345
 20
15.4460816554
  0
LWPOLYLINE
  5
3EE
100
AcDbEntity
  8
ASSI
100
AcDbPolyline
 62
253
  6
CONTINUOUS
 90
7
 70
0
 10
-8.3229556584
 20
15.4505543213
 10
-8.3251687003
 20
15.451615945
 10
-8.3402674594
 20
15.4567165423
 10
-8.3565731629
 20
15.4587207945
 10
-8.3738129728
 20
15.4575951649
 10
-8.3916984205
 20
15.4533584882
 10
-8.4099302345
 20
15.4460816554
  0
LWPOLYLINE
  5
3EF
100
AcDbEntity
  8
0
100
AcDbPolyline
 62
7
  6
CONTINUOUS
 90
40
 70
0
 10
-8.8367701584
 20
15.9520221745
 10
-8.8658965788
 20
15.9660044006
 10
-8.8960224867
 20
15.9793491873
 10
-8.9271478821
 20
15.9920565345
 10
-8.9593264619
 20
16.0041450047
 10
-8.9925045293
 20
16.0155960354
 10
-9.0265209935
 20
16.0263539393
 10
-9.061379955
 20
16.0364153339
 10
-9.0970773134
 20
16.0457836017
 10
-9.1334396765
 20
16.0544132029
 10
-9.1704699492
 20
16.0623004993
 10
-9.2081652268
 20
16.0694491291
 10
-9.2463434023
 20
16.0758244674
 10
-9.2850072876
 20
16.0814228353
 10
-9.3241540709
 20
16.0862479118
 10
-9.3635932094
 20
16.0902761081
 10
-9.4033260255
 20
16.093503505
 10
-9.4433511968
 20
16.0959340218
 10
-9.4834742138
 20
16.0975558281
 10
-9.5236954678
 20
16.0983649793
 10
-9.5640145675
 20
16.09836542
 10
-9.6042358289
 20
16.0975571539
 10
-9.6443587755
 20
16.0959362495
 10
-9.6843838839
 20
16.0935066384
 10
-9.7241168997
 20
16.0902801188
 10
-9.7635564019
 20
16.0862528168
 10
-9.8027038115
 20
16.0814286065
 10
-9.841369137
 20
16.0758309086
 10
-9.8795500337
 20
16.0694559631
 10
-9.9172488464
 20
16.06230753
 10
-9.9542826177
 20
16.0544203107
 10
-9.9906481135
 20
16.045790714
 10
-10.0263485679
 20
16.0364223311
 10
-10.061210726
 20
16.0263606375
 10
-10.0952305112
 20
16.0156022631
 10
-10.1284120002
 20
16.0041505781
 10
-10.1605941681
 20
15.9920611682
 10
-10.1917233401
 20
15.9793525619
 10
-10.221853191
 20
15.9660062307
 10
-10.2509837208
 20
15.9520221745
  0
LINE
  5
3F0
100
AcDbEntity
  8
RACCORDO
100
AcDbLine
 62
7
  6
CONTINUOUS
 10
-9.8715809518
 20
15.2812417646
 11
-7.5865179046
 21
14.138710241
  0
LINE
  5
3F1
100
AcDbEntity
  8
ASSI
100
AcDbLine
 62
7
  6
CONTINUOUS
 10
-9.8715809518
 20
15.2812417646
 11
-7.5865179046
 21
14.138710241
  0
LINE
  5
3F2
100
AcDbEntity
  8
RACCORDO
100
AcDbLine
 62
7
  6
CONTINUOUS
 10
-9.5438984788
 20
15.4570581972
 11
-7.2444226848
 21
14.3073203003
  0
LINE
  5
3F3
100
AcDbEntity
  8
ASSI
100
AcDbLine
 62
7
  6
CONTINUOUS
 10
-9.5438984788
 20
15.4570581972
 11
-7.2444226848
 21
14.3073203003
  0
LINE
  5
3F4
100
AcDbEntity
  8
RACCORDO
100
AcDbLine
 62
253
  6
CONTINUOUS
 10
-8.4099302345
 20
15.4460816554
 11
-6.6844249205
 21
14.5833289983
  0
LINE
  5
3F5
100
AcDbEntity
  8
ASSI
100
AcDbLine
 62
253
  6
CONTINUOUS
 10
-8.4099302345
 20
15.4460816554
 11
-6.6844249205
 21
14.5833289983
  0
LINE
  5
3F6
100
AcDbEntity
  8
RACCORDO
100
AcDbLine
 62
7
  6
CONTINUOUS
 10
-8.3229556584
 20
15.4505543213
 11
-6.6361207823
 21
14.6071368832
  0
LINE
  5
3F7
100
AcDbEntity
  8
ASSI
100
AcDbLine
 62
7
  6
CONTINUOUS
 10
-8.3229556584
 20
15.4505543213
 11
-6.6361207823
 21
14.6071368832
  0
LINE
  5
3F8
100
AcDbEntity
  8
ASSI
100
AcDbLine
 62
7
  6
CONTINUOUS
 10
-6.3898050918
 20
14.7285396412
 11
-8.8367701584
 21
15.9520221745
  0
LINE
  5
3F9
100
AcDbEntity
  8
0
100
AcDbLine
 62
7
  6
CONTINUOUS
 10
-9.190323549
 20
16.1287988698
 11
-9.5438769396
 21
16.3055755651
  0
LINE
  5
3FA
100
AcDbEntity
  8
DRAFT
100
AcDbLine
 62
7
  6
CONTINUOUS
 10
-9.190323549
 20
16.6813570591
 11
-9.5438769396
 21
16.8581337544
  0
LINE
  5
3FB
100
AcDbEntity
  8
0
100
AcDbLine
 62
7
  6
CONTINUOUS
 10
-4.9819893955
 20
15.4224162995
 11
-7.7925390425
 21
16.827691123
  0
LINE
  5
3FC
100
AcDbEntity
  8
DRAFT
100
AcDbLine
 62
7
  6
CONTINUOUS
 10
1.1213546816
 20
12.8433893113
 11
1.8601282141
 21
12.4740025451
  0
LINE
  5
3FD
100
AcDbEntity
  8
ASSI
100
AcDbLine
 62
7
  6
CONTINUOUS
 10
1.1213546816
 20
12.8433893113
 11
1.8601282141
 21
12.4740025451
  0
LWPOLYLINE
  5
3FE
100
AcDbEntity
  8
RACCORDO
100
AcDbPolyline
 62
253
  6
CONTINUOUS
 90
4
 70
0
 10
23.1645833412
 20
19.1420522276
 10
23.1849835133
 20
19.1927922904
 10
23.19478423
 20
19.2443148475
 10
23.1957104769
 20
19.2655555127
  0
LWPOLYLINE
  5
3FF
100
AcDbEntity
  8
ASSI
100
AcDbPolyline
 62
253
  6
CONTINUOUS
 90
4
 70
0
 10
23.1645833412
 20
19.1420522276
 10
23.1849835133
 20
19.1927922904
 10
23.19478423
 20
19.2443148475
 10
23.1957104767
 20
19.2655552899
  0
LINE
  5
400
100
AcDbEntity
  8
RACCORDO
100
AcDbLine
 62
7
  6
CONTINUOUS
 10
22.9150504301
 20
-3.9294317426
 11
4.3179831367
 21
-13.4499246611
  0
LINE
  5
401
100
AcDbEntity
  8
ASSI
100
AcDbLine
 62
7
  6
CONTINUOUS
 10
22.9150504301
 20
-3.9294317426
 11
4.3179831367
 21
-13.4499246611
  0
LINE
  5
402
100
AcDbEntity
  8
RACCORDO
100
AcDbLine
 62
7
  6
CONTINUOUS
 10
21.8516641451
 20
-5.2915664008
 11
3.5365426072
 21
-14.6632822279
  0
LINE
  5
403
100
AcDbEntity
  8
ASSI
100
AcDbLine
 62
7
  6
CONTINUOUS
 10
21.8516641451
 20
-5.2915664008
 11
3.5365426072
 21
-14.6632822279
  0
LINE
  5
404
100
AcDbEntity
  8
RACCORDO
100
AcDbLine
 62
7
  6
CONTINUOUS
 10
22.9123243169
 20
-4.7612363149
 11
21.8516641451
 21
-5.2915664008
  0
LINE
  5
405
100
AcDbEntity
  8
ASSI
100
AcDbLine
 62
7
  6
CONTINUOUS
 10
22.9123243169
 20
-4.7612363149
 11
21.8516641451
 21
-5.2915664008
  0
LWPOLYLINE
  5
406
100
AcDbEntity
  8
RACCORDO
100
AcDbPolyline
 62
7
  6
CONTINUOUS
 90
18
 70
0
 10
-9.6180922034
 20
12.570333649
 10
-9.6353868714
 20
12.5688413133
 10
-9.6525812696
 20
12.5668477355
 10
-9.6696396073
 20
12.5644405525
 10
-9.6865304408
 20
12.5617295989
 10
-9.7032347036
 20
12.5587725864
 10
-9.7197415235
 20
12.5555617383
 10
-9.7360349304
 20
12.5521515104
 10
-9.7521047233
 20
12.5486069807
 10
-9.7679478772
 20
12.5449130247
 10
-9.7835566889
 20
12.5411097424
 10
-9.7989257715
 20
12.5372461542
 10
-9.8140524995
 20
12.5333058805
 10
-9.8289335172
 20
12.5293198332
 10
-9.8435660431
 20
12.5253257472
 10
-9.857944668
 20
12.5213086178
 10
-9.872068221
 20
12.5172934572
 10
-9.8995379666
 20
12.509345845
  0
LINE
  5
407
100
AcDbEntity
  8
DRAFT
100
AcDbLine
 62
7
  6
CONTINUOUS
 10
18.0876029956
 20
13.3811518445
 11
18.0418278379
 21
13.3790585788
  0
LINE
  5
408
100
AcDbEntity
  8
ASSI
100
AcDbLine
 62
7
  6
CONTINUOUS
 10
18.0876029956
 20
13.3811518445
 11
18.0418278379
 21
13.3790585788
  0
LINE
  5
409
100
AcDbEntity
  8
RACCORDO
100
AcDbLine
 62
253
  6
CONTINUOUS
 10
-9.5846875167
 20
15.4770882882
 11
-9.5673779626
 21
15.4755169605
  0
LINE
  5
40A
100
AcDbEntity
  8
ASSI
100
AcDbLine
 62
253
  6
CONTINUOUS
 10
-9.5846875167
 20
15.4770882882
 11
-9.5673779626
 21
15.4755169605
  0
LINE
  5
40B
100
AcDbEntity
  8
RACCORDO
100
AcDbLine
 62
7
  6
CONTINUOUS
 10
-9.9242602184
 20
15.2952675046
 11
-9.9074246942
 21
15.2934470632
  0
LINE
  5
40C
100
AcDbEntity
  8
ASSI
100
AcDbLine
 62
7
  6
CONTINUOUS
 10
-9.9242602184
 20
15.2952675046
 11
-9.9074246942
 21
15.2934470632
  0
LINE
  5
40D
100
AcDbEntity
  8
RACCORDO
100
AcDbLine
 62
7
  6
CONTINUOUS
 10
-19.751216581
 20
16.3845764424
 11
-19.1256098874
 21
16.253955046
  0
LINE
  5
40E
100
AcDbEntity
  8
RACCORDO
100
AcDbLine
 62
253
  6
CONTINUOUS
 10
-19.5243730875
 20
16.5403976032
 11
-18.8131524794
 21
16.3918940803
  0
LWPOLYLINE
  5
40F
100
AcDbEntity
  8
ASSI
100
AcDbPolyline
 62
7
  6
CONTINUOUS
 90
11
 70
0
 10
-8.5482185537
 20
15.5350341955
 10
-8.6296155117
 20
15.5547702246
 10
-8.7133738
 20
15.5703774177
 10
-8.7988639289
 20
15.5818405886
 10
-8.8854839123
 20
15.5891545399
 10
-8.972749193
 20
15.5923197666
 10
-9.0600354045
 20
15.5913249603
 10
-9.1467176052
 20
15.5861693786
 10
-9.2323125883
 20
15.5768441117
 10
-9.3162176956
 20
15.5633437314
 10
-9.3978156415
 20
15.5456701489
  0
LWPOLYLINE
  5
410
100
AcDbEntity
  8
RACCORDO
100
AcDbPolyline
 62
7
  6
CONTINUOUS
 90
11
 70
0
 10
-8.5482505745
 20
15.5350429175
 10
-8.6296413751
 20
15.5547757531
 10
-8.7133928095
 20
15.5703804547
 10
-8.7988755398
 20
15.5818418539
 10
-8.885487739
 20
15.5891547703
 10
-8.9727451176
 20
15.5923197159
 10
-9.0600234799
 20
15.5913253814
 10
-9.146698053
 20
15.5861710197
 10
-9.2322858922
 20
15.576847702
 10
-9.3161844949
 20
15.5633499772
 10
-9.3977767106
 20
15.5456797347
  0
LWPOLYLINE
  5
411
100
AcDbEntity
  8
RACCORDO
100
AcDbPolyline
 62
253
  6
CONTINUOUS
 90
3
 70
0
 10
-9.5673779626
 20
15.4755169605
 10
-9.5494942836
 20
15.4707460076
 10
-9.5313423558
 20
15.4628570309
  0
LWPOLYLINE
  5
412
100
AcDbEntity
  8
ASSI
100
AcDbPolyline
 62
253
  6
CONTINUOUS
 90
3
 70
0
 10
-9.5673779626
 20
15.4755169605
 10
-9.5494942836
 20
15.4707460076
 10
-9.5313423558
 20
15.4628570309
  0
LWPOLYLINE
  5
413
100
AcDbEntity
  8
RACCORDO
100
AcDbPolyline
 62
7
  6
CONTINUOUS
 90
3
 70
0
 10
-9.9074246942
 20
15.2934470632
 10
-9.8894450472
 20
15.2886002737
 10
-9.870642272
 20
15.2807724247
  0
LWPOLYLINE
  5
414
100
AcDbEntity
  8
ASSI
100
AcDbPolyline
 62
7
  6
CONTINUOUS
 90
3
 70
0
 10
-9.9074246942
 20
15.2934470632
 10
-9.8894450472
 20
15.2886002737
 10
-9.870642272
 20
15.2807724247
  0
LINE
  5
415
100
AcDbEntity
  8
ASSI
100
AcDbLine
 62
7
  6
CONTINUOUS
 10
-8.4695897854
 20
15.511117061
 11
-8.5482185537
 21
15.5350341955
  0
LINE
  5
416
100
AcDbEntity
  8
RACCORDO
100
AcDbLine
 62
7
  6
CONTINUOUS
 10
-8.469627084
 20
15.5111296557
 11
-8.5482505745
 21
15.5350429175
  0
LWPOLYLINE
  5
417
100
AcDbEntity
  8
ASSI
100
AcDbPolyline
 62
7
  6
CONTINUOUS
 90
16
 70
0
 10
-9.0915261197
 20
18.2691094406
 10
-9.0933722003
 20
18.2699118258
 10
-9.0975757086
 20
18.2710901789
 10
-9.1025290297
 20
18.2717849157
 10
-9.1081884187
 20
18.2720139148
 10
-9.1145174264
 20
18.2717841947
 10
-9.1215201994
 20
18.2711285343
 10
-9.1291864844
 20
18.2700589785
 10
-9.1374738122
 20
18.268587173
 10
-9.1463492458
 20
18.2667461517
 10
-9.1557856106
 20
18.2645385593
 10
-9.1657502362
 20
18.2619791875
 10
-9.1761982981
 20
18.2591169081
 10
-9.1870921059
 20
18.2559710623
 10
-9.1984038163
 20
18.2525323945
 10
-9.210101317
 20
18.2488047066
  0
LWPOLYLINE
  5
418
100
AcDbEntity
  8
ASSI
100
AcDbPolyline
 62
7
  6
CONTINUOUS
 90
16
 70
0
 10
-3.5365376887
 20
15.4916152454
 10
-3.5380957287
 20
15.4923063407
 10
-3.542224065
 20
15.4935194595
 10
-3.5470980527
 20
15.4942510901
 10
-3.5526730792
 20
15.4945185118
 10
-3.558912807
 20
15.4943290044
 10
-3.5658207006
 20
15.4937164022
 10
-3.5733855058
 20
15.4926929297
 10
-3.5815651828
 20
15.491269559
 10
-3.5903287263
 20
15.4894791663
 10
-3.5996495788
 20
15.4873246869
 10
-3.6094950857
 20
15.4848204071
 10
-3.6198221367
 20
15.4820140633
 10
-3.6305940469
 20
15.4789246632
 10
-3.6417830258
 20
15.4755433258
 10
-3.6533574444
 20
15.471873888
  0
LWPOLYLINE
  5
419
100
AcDbEntity
  8
RACCORDO
100
AcDbPolyline
 62
7
  6
CONTINUOUS
 90
18
 70
0
 10
-6.6925046739
 20
17.71310463
 10
-6.7120526584
 20
17.7221873168
 10
-6.7349484386
 20
17.7311727315
 10
-6.7584577249
 20
17.7386749643
 10
-6.782599047
 20
17.7447091341
 10
-6.8072888003
 20
17.7492549185
 10
-6.8325502266
 20
17.7523089019
 10
-6.858360084
 20
17.7538744999
 10
-6.8845650429
 20
17.7539416365
 10
-6.9111490055
 20
17.7525028605
 10
-6.9381280695
 20
17.7495656232
 10
-6.9653971982
 20
17.7451422019
 10
-6.9929713778
 20
17.7392238163
 10
-7.0208356221
 20
17.7318192467
 10
-7.0488399351
 20
17.7229671121
 10
-7.0769343184
 20
17.7126802854
 10
-7.1051687704
 20
17.7009458937
 10
-7.1335432911
 20
17.6877639369
  0
LINE
  5
41A
100
AcDbEntity
  8
ASSI
100
AcDbLine
 62
253
  6
CONTINUOUS
 10
-9.8645077831
 20
18.5316413568
 11
-9.2589773485
 21
18.2288761395
  0
LINE
  5
41B
100
AcDbEntity
  8
ASSI
100
AcDbLine
 62
253
  6
CONTINUOUS
 10
-4.3092298802
 20
15.7540024053
 11
-3.7036994455
 21
15.451237188
  0
LINE
  5
41C
100
AcDbEntity
  8
0
100
AcDbLine
 62
7
  6
CONTINUOUS
 10
-6.4326071024
 20
16.9014393104
 11
-4.1967462307
 21
15.7835088746
  0
LINE
  5
41D
100
AcDbEntity
  8
0
100
AcDbLine
 62
7
  6
CONTINUOUS
 10
-3.5297633805
 20
15.4500174495
 11
-3.331467981
 21
15.3508697498
  0
LINE
  5
41E
100
AcDbEntity
  8
ASSI
100
AcDbLine
 62
7
  6
CONTINUOUS
 10
-9.5885693047
 20
18.5176268594
 11
-9.0915265149
 21
18.2691054645
  0
LINE
  5
41F
100
AcDbEntity
  8
ASSI
100
AcDbLine
 62
7
  6
CONTINUOUS
 10
-4.0335808755
 20
15.7401326448
 11
-3.5365380857
 21
15.4916112499
  0
LINE
  5
420
100
AcDbEntity
  8
RACCORDO
100
AcDbLine
 62
253
  6
CONTINUOUS
 10
-10.2005092351
 20
19.2212469089
 11
-7.1335432911
 21
17.6877639369
  0
LINE
  5
421
100
AcDbEntity
  8
RACCORDO
100
AcDbLine
 62
253
  6
CONTINUOUS
 10
-2.890902604
 20
15.5664435933
 11
0.1760633399
 21
14.0329606214
  0
LINE
  5
422
100
AcDbEntity
  8
RACCORDO
100
AcDbLine
 62
7
  6
CONTINUOUS
 10
-2.4498596009
 20
15.5917930599
 11
0.7764636422
 21
13.9786314384
  0
LINE
  5
423
100
AcDbEntity
  8
DRAFT
100
AcDbLine
 62
253
  6
CONTINUOUS
 10
18.5446192794
 20
4.8627113449
 11
19.2901513538
 21
4.4870348849
  0
LINE
  5
424
100
AcDbEntity
  8
ASSI
100
AcDbLine
 62
253
  6
CONTINUOUS
 10
18.5446192794
 20
4.8627113449
 11
19.2901513538
 21
4.4870348849
  0
LWPOLYLINE
  5
425
100
AcDbEntity
  8
DRAFT
100
AcDbPolyline
 62
7
  6
CONTINUOUS
 90
10
 70
0
 10
18.0255036712
 20
4.7439771207
 10
17.9329836656
 20
4.8046876375
 10
17.8403171853
 20
4.8660068639
 10
17.7475042301
 20
4.9279347998
 10
17.6545446153
 20
4.9904737217
 10
17.5614385257
 20
5.0536213531
 10
17.4681865157
 20
5.1173708646
 10
17.3747887698
 20
5.1817199799
 10
17.2812451035
 20
5.2466709754
 10
17.1875555167
 20
5.3122238511
  0
LWPOLYLINE
  5
426
100
AcDbEntity
  8
ASSI
100
AcDbPolyline
 62
7
  6
CONTINUOUS
 90
10
 70
0
 10
18.0255036712
 20
4.7439771207
 10
17.9329836656
 20
4.8046876375
 10
17.8403171853
 20
4.8660068639
 10
17.7475042301
 20
4.9279347998
 10
17.6545446153
 20
4.9904737217
 10
17.5614385257
 20
5.0536213531
 10
17.4681865157
 20
5.1173708646
 10
17.3747887698
 20
5.1817199799
 10
17.2812451035
 20
5.2466709754
 10
17.1875555167
 20
5.3122238511
  0
LWPOLYLINE
  5
427
100
AcDbEntity
  8
RACCORDO
100
AcDbPolyline
 62
7
  6
CONTINUOUS
 90
11
 70
0
 10
15.8059011659
 20
13.4219870425
 10
15.8030416047
 20
13.4969691106
 10
15.795010245
 20
13.5676680534
 10
15.7818070866
 20
13.6340838709
 10
15.7632538329
 20
13.6966546023
 10
15.7395287805
 20
13.7549422084
 10
15.7111668205
 20
13.8076325717
 10
15.6780626201
 20
13.8545985446
 10
15.6403215121
 20
13.8959672748
 10
15.5987943848
 20
13.9308060877
 10
15.5590951209
 20
13.9554310759
  0
LINE
  5
428
100
AcDbEntity
  8
RACCORDO
100
AcDbLine
 62
7
  6
CONTINUOUS
 10
15.8059011659
 20
13.4219870425
 11
15.8059011659
 21
13.2654953052
  0
LINE
  5
429
100
AcDbEntity
  8
RACCORDO
100
AcDbLine
 62
7
  6
CONTINUOUS
 10
15.8059011659
 20
9.7516527531
 11
15.8059011659
 21
8.9353682863
  0
LINE
  5
42A
100
AcDbEntity
  8
RACCORDO
100
AcDbLine
 62
253
  6
CONTINUOUS
 10
-5.801870503
 20
-30.4640993033
 11
-6.4241885351
 21
-31.2091587208
  0
LINE
  5
42B
100
AcDbEntity
  8
RACCORDO
100
AcDbLine
 62
253
  6
CONTINUOUS
 10
-5.448834315
 20
-30.5898691413
 11
-6.1600549231
 21
-31.4413656184
  0
LWPOLYLINE
  5
42C
100
AcDbEntity
  8
0
100
AcDbPolyline
 62
7
  6
CONTINUOUS
 90
13
 70
0
 10
14.9715584975
 20
-8.2221872605
 10
14.8871685723
 20
-8.2813169215
 10
14.803344673
 20
-8.3485266092
 10
14.7221809577
 20
-8.422143388
 10
14.6440276603
 20
-8.5020110209
 10
14.5685345468
 20
-8.588285745
 10
14.4967450727
 20
-8.6797633357
 10
14.4284910864
 20
-8.7768521021
 10
14.3639407395
 20
-8.8791437352
 10
14.304641943
 20
-8.9842090835
 10
14.2508626109
 20
-9.091814741
 10
14.2023348291
 20
-9.2021941136
 10
14.2006844969
 20
-9.2065176018
  0
LINE
  5
42D
100
AcDbEntity
  8
RACCORDO
100
AcDbLine
 62
7
  6
CONTINUOUS
 10
22.9150504301
 20
-5.6862610273
 11
4.3179831367
 21
-15.4235950387
  0
LINE
  5
42E
100
AcDbEntity
  8
ASSI
100
AcDbLine
 62
7
  6
CONTINUOUS
 10
22.9150504301
 20
-5.6862610273
 11
4.3179831367
 21
-15.4235950387
  0
LINE
  5
42F
100
AcDbEntity
  8
RACCORDO
100
AcDbLine
 62
7
  6
CONTINUOUS
 10
22.9150504301
 20
-8.2595587615
 11
4.3179831367
 21
-17.78005168
  0
LINE
  5
430
100
AcDbEntity
  8
ASSI
100
AcDbLine
 62
7
  6
CONTINUOUS
 10
22.9150504301
 20
-8.2595587615
 11
4.3179831367
 21
-17.78005168
  0
LWPOLYLINE
  5
431
100
AcDbEntity
  8
RACCORDO
100
AcDbPolyline
 62
7
  6
CONTINUOUS
 90
11
 70
0
 10
4.3179831367
 20
-15.4235950387
 10
4.2412847908
 20
-15.4588741921
 10
4.1666359423
 20
-15.4845433996
 10
4.0940365909
 20
-15.5006026613
 10
4.0229133816
 20
-15.507033745
 10
3.9538396696
 20
-15.5038548829
 10
3.8885355204
 20
-15.4911207708
 10
3.8269990815
 20
-15.4685193987
 10
3.7692322055
 20
-15.4363627767
 10
3.7169605162
 20
-15.3956416302
 10
3.6986426367
 20
-15.3779118782
  0
LWPOLYLINE
  5
432
100
AcDbEntity
  8
ASSI
100
AcDbPolyline
 62
7
  6
CONTINUOUS
 90
11
 70
0
 10
4.3179831367
 20
-15.4235950387
 10
4.2412847908
 20
-15.4588741921
 10
4.1666359423
 20
-15.4845433996
 10
4.0940365909
 20
-15.5006026613
 10
4.0229133816
 20
-15.507033745
 10
3.9538396696
 20
-15.5038548829
 10
3.8885355204
 20
-15.4911207708
 10
3.8269990815
 20
-15.4685193987
 10
3.7692322055
 20
-15.4363627767
 10
3.7169605162
 20
-15.3956416302
 10
3.6986426367
 20
-15.3779118782
  0
LWPOLYLINE
  5
433
100
AcDbEntity
  8
ASSI
100
AcDbPolyline
 62
7
  6
CONTINUOUS
 90
3
 70
0
 10
-9.3978156415
 20
15.5456701489
 10
-9.4767242507
 20
15.5237585404
 10
-9.552479337
 20
15.4975122425
  0
LWPOLYLINE
  5
434
100
AcDbEntity
  8
RACCORDO
100
AcDbPolyline
 62
7
  6
CONTINUOUS
 90
3
 70
0
 10
-9.3977767106
 20
15.5456797347
 10
-9.4766805166
 20
15.5237721321
 10
-9.5524318208
 20
15.4975305098
  0
LINE
  5
435
100
AcDbEntity
  8
0
100
AcDbLine
 62
7
  6
CONTINUOUS
 10
-7.7925390425
 20
16.827691123
 11
-6.4326071024
 21
16.9014393104
  0
LWPOLYLINE
  5
436
100
AcDbEntity
  8
ASSI
100
AcDbPolyline
 62
7
  6
CONTINUOUS
 90
10
 70
0
 10
16.5024862973
 20
10.0057670647
 10
16.5471690103
 20
9.9853097329
 10
16.6412993601
 20
9.9527989601
 10
16.739673611
 20
9.9323135206
 10
16.8423739764
 20
9.9240863705
 10
16.949318243
 20
9.9278845536
 10
17.0584479655
 20
9.9436349632
 10
17.1690769956
 20
9.9713132302
 10
17.2818914816
 20
10.0109437237
 10
17.3968914236
 20
10.0625264437
  0
LINE
  5
437
100
AcDbEntity
  8
DRAFT
100
AcDbLine
 62
253
  6
CONTINUOUS
 10
18.5446192794
 20
9.1928383638
 11
19.2901513538
 21
8.8171619038
  0
LINE
  5
438
100
AcDbEntity
  8
ASSI
100
AcDbLine
 62
253
  6
CONTINUOUS
 10
18.5446192794
 20
9.1928383638
 11
19.2901513538
 21
8.8171619038
  0
LINE
  5
439
100
AcDbEntity
  8
DRAFT
100
AcDbLine
 62
7
  6
CONTINUOUS
 10
21.1507281913
 20
6.1713616629
 11
21.1445573639
 21
6.1745782878
  0
LINE
  5
43A
100
AcDbEntity
  8
ASSI
100
AcDbLine
 62
7
  6
CONTINUOUS
 10
21.1507281913
 20
6.1713616629
 11
21.1445573639
 21
6.1745782878
  0
LWPOLYLINE
  5
43B
100
AcDbEntity
  8
DRAFT
100
AcDbPolyline
 62
7
  6
CONTINUOUS
 90
10
 70
0
 10
18.0255036712
 20
9.0741041396
 10
17.9329836656
 20
9.1348146565
 10
17.8403171853
 20
9.1961338828
 10
17.7475042301
 20
9.2580618187
 10
17.6545446153
 20
9.3206007406
 10
17.5614385257
 20
9.383748372
 10
17.4681865157
 20
9.4474978836
 10
17.3747887698
 20
9.5118469989
 10
17.2812451035
 20
9.5767979943
 10
17.1875555167
 20
9.64235087
  0
LWPOLYLINE
  5
43C
100
AcDbEntity
  8
ASSI
100
AcDbPolyline
 62
7
  6
CONTINUOUS
 90
10
 70
0
 10
18.0255036712
 20
9.0741041396
 10
17.9329836656
 20
9.1348146565
 10
17.8403171853
 20
9.1961338828
 10
17.7475042301
 20
9.2580618187
 10
17.6545446153
 20
9.3206007406
 10
17.5614385257
 20
9.383748372
 10
17.4681865157
 20
9.4474978836
 10
17.3747887698
 20
9.5118469989
 10
17.2812451035
 20
9.5767979943
 10
17.1875555167
 20
9.64235087
  0
LWPOLYLINE
  5
43D
100
AcDbEntity
  8
ASSI
100
AcDbPolyline
 62
7
  6
CONTINUOUS
 90
3
 70
0
 10
16.4113401617
 20
10.061598272
 10
16.4590943668
 20
10.029220077
 10
16.5024862973
 20
10.0057670647
  0
LINE
  5
43E
100
AcDbEntity
  8
RACCORDO
100
AcDbLine
 62
7
  6
CONTINUOUS
 10
12.1058146143
 20
25.6459776263
 11
12.1289459038
 21
25.5286832504
  0
LINE
  5
43F
100
AcDbEntity
  8
ASSI
100
AcDbLine
 62
7
  6
CONTINUOUS
 10
12.1058146143
 20
25.6459776263
 11
12.1289459038
 21
25.5286832504
  0
LINE
  5
440
100
AcDbEntity
  8
0
100
AcDbLine
 62
7
  6
CONTINUOUS
 10
18.1039982048
 20
21.4456010725
 11
18.1039982048
 21
21.1716293265
  0
LINE
  5
441
100
AcDbEntity
  8
ASSI
100
AcDbLine
 62
7
  6
CONTINUOUS
 10
18.1039982048
 20
21.4456010725
 11
18.1039982048
 21
21.1716293265
  0
LINE
  5
442
100
AcDbEntity
  8
0
100
AcDbLine
 62
7
  6
CONTINUOUS
 10
18.1039982048
 20
9.6366569708
 11
18.1039982048
 21
9.053555547
  0
LINE
  5
443
100
AcDbEntity
  8
ASSI
100
AcDbLine
 62
7
  6
CONTINUOUS
 10
18.1039982048
 20
9.6366569708
 11
18.1039982048
 21
9.053555547
  0
LINE
  5
444
100
AcDbEntity
  8
ASSI
100
AcDbLine
 62
7
  6
CONTINUOUS
 10
19.1646583766
 20
16.7128187372
 11
19.1646583766
 21
13.8343162852
  0
LINE
  5
445
100
AcDbEntity
  8
ASSI
100
AcDbLine
 62
7
  6
CONTINUOUS
 10
19.1646583766
 20
12.3826917183
 11
19.1646583766
 21
10.1669870567
  0
LINE
  5
446
100
AcDbEntity
  8
0
100
AcDbLine
 62
7
  6
CONTINUOUS
 10
20.4020952437
 20
8.7073247435
 11
20.4020952437
 21
5.7954377172
  0
LINE
  5
447
100
AcDbEntity
  8
0
100
AcDbLine
 62
7
  6
CONTINUOUS
 10
20.4020952437
 20
3.4443521395
 11
20.4020952437
 21
2.6269536667
  0
LINE
  5
448
100
AcDbEntity
  8
0
100
AcDbLine
 62
7
  6
CONTINUOUS
 10
20.4020952437
 20
-0.8857748794
 11
20.4020952437
 21
-1.7031733523
  0
LINE
  5
449
100
AcDbEntity
  8
0
100
AcDbLine
 62
7
  6
CONTINUOUS
 10
20.4020952437
 20
-5.2159018983
 11
20.4020952437
 21
-6.0333003712
  0
LINE
  5
44A
100
AcDbEntity
  8
0
100
AcDbLine
 62
7
  6
CONTINUOUS
 10
20.4020952437
 20
-9.5460289172
 11
20.4020952437
 21
-10.3634273901
  0
LINE
  5
44B
100
AcDbEntity
  8
0
100
AcDbLine
 62
7
  6
CONTINUOUS
 10
20.4374505827
 20
17.3861152988
 11
20.4374505827
 21
14.4734453399
  0
LINE
  5
44C
100
AcDbEntity
  8
ASSI
100
AcDbLine
 62
7
  6
CONTINUOUS
 10
20.4374505827
 20
17.3861152988
 11
20.4374505827
 21
14.4734453399
  0
LINE
  5
44D
100
AcDbEntity
  8
0
100
AcDbLine
 62
7
  6
CONTINUOUS
 10
20.4374505827
 20
13.0559882799
 11
20.4374505827
 21
10.143318321
  0
LINE
  5
44E
100
AcDbEntity
  8
ASSI
100
AcDbLine
 62
7
  6
CONTINUOUS
 10
20.4374505827
 20
13.0559882799
 11
20.4374505827
 21
10.143318321
  0
LINE
  5
44F
100
AcDbEntity
  8
0
100
AcDbLine
 62
7
  6
CONTINUOUS
 10
20.4374505827
 20
8.725861261
 11
20.4374505827
 21
5.8131913021
  0
LINE
  5
450
100
AcDbEntity
  8
ASSI
100
AcDbLine
 62
7
  6
CONTINUOUS
 10
20.4374505827
 20
8.725861261
 11
20.4374505827
 21
5.8131913021
  0
LINE
  5
451
100
AcDbEntity
  8
RACCORDO
100
AcDbLine
 62
7
  6
CONTINUOUS
 10
1.8601282141
 20
-23.3369261997
 11
2.8198975359
 21
-22.641338306
  0
LINE
  5
452
100
AcDbEntity
  8
ASSI
100
AcDbLine
 62
7
  6
CONTINUOUS
 10
1.8601282141
 20
-23.3369261997
 11
2.8198975359
 21
-22.641338306
  0
LINE
  5
453
100
AcDbEntity
  8
RACCORDO
100
AcDbLine
 62
253
  6
CONTINUOUS
 10
-3.4981139605
 20
-25.1275488561
 11
22.9150504301
 21
-11.2136874528
  0
LINE
  5
454
100
AcDbEntity
  8
ASSI
100
AcDbLine
 62
253
  6
CONTINUOUS
 10
-3.4981139605
 20
-25.1275488561
 11
22.9150504301
 21
-11.2136874528
  0
LINE
  5
455
100
AcDbEntity
  8
RACCORDO
100
AcDbLine
 62
7
  6
CONTINUOUS
 10
22.9150504301
 20
-10.0163880462
 11
4.3179831367
 21
-19.7537220576
  0
LINE
  5
456
100
AcDbEntity
  8
ASSI
100
AcDbLine
 62
7
  6
CONTINUOUS
 10
22.9150504301
 20
-10.0163880462
 11
4.3179831367
 21
-19.7537220576
  0
LINE
  5
457
100
AcDbEntity
  8
RACCORDO
100
AcDbLine
 62
7
  6
CONTINUOUS
 10
21.8516641451
 20
-9.6216934197
 11
3.5365426072
 21
-18.9934092468
  0
LINE
  5
458
100
AcDbEntity
  8
ASSI
100
AcDbLine
 62
7
  6
CONTINUOUS
 10
21.8516641451
 20
-9.6216934197
 11
3.5365426072
 21
-18.9934092468
  0
LINE
  5
459
100
AcDbEntity
  8
RACCORDO
100
AcDbLine
 62
7
  6
CONTINUOUS
 10
22.9123243169
 20
-9.0913633339
 11
21.8516641451
 21
-9.6216934197
  0
LINE
  5
45A
100
AcDbEntity
  8
ASSI
100
AcDbLine
 62
7
  6
CONTINUOUS
 10
22.9123243169
 20
-9.0913633339
 11
21.8516641451
 21
-9.6216934197
  0
LWPOLYLINE
  5
45B
100
AcDbEntity
  8
RACCORDO
100
AcDbPolyline
 62
7
  6
CONTINUOUS
 90
11
 70
0
 10
4.3179831367
 20
-19.7537220576
 10
4.2412847908
 20
-19.789001211
 10
4.1666359423
 20
-19.8146704186
 10
4.0940365909
 20
-19.8307296802
 10
4.0229133816
 20
-19.837160764
 10
3.9538396696
 20
-19.8339819018
 10
3.8885355204
 20
-19.8212477897
 10
3.8269990815
 20
-19.7986464177
 10
3.7692322055
 20
-19.7664897956
 10
3.7169605162
 20
-19.7257686491
 10
3.6986426367
 20
-19.7080388971
  0
LWPOLYLINE
  5
45C
100
AcDbEntity
  8
ASSI
100
AcDbPolyline
 62
7
  6
CONTINUOUS
 90
11
 70
0
 10
4.3179831367
 20
-19.7537220576
 10
4.2412847908
 20
-19.789001211
 10
4.1666359423
 20
-19.8146704186
 10
4.0940365909
 20
-19.8307296802
 10
4.0229133816
 20
-19.837160764
 10
3.9538396696
 20
-19.8339819018
 10
3.8885355204
 20
-19.8212477897
 10
3.8269990815
 20
-19.7986464177
 10
3.7692322055
 20
-19.7664897956
 10
3.7169605162
 20
-19.7257686491
 10
3.6986426367
 20
-19.7080388971
  0
LWPOLYLINE
  5
45D
100
AcDbEntity
  8
ASSI
100
AcDbPolyline
 62
7
  6
CONTINUOUS
 90
16
 70
0
 10
-9.8135765919
 20
18.5519834617
 10
-9.8014075541
 20
18.55534822
 10
-9.7886737664
 20
18.5579507768
 10
-9.7753828418
 20
18.5597753312
 10
-9.7615388315
 20
18.5608187956
 10
-9.7471578373
 20
18.5610520619
 10
-9.7322695592
 20
18.5604211371
 10
-9.7168943456
 20
18.5589059532
 10
-9.7010459162
 20
18.5564967593
 10
-9.6847482991
 20
18.5531564567
 10
-9.6680586724
 20
18.5488814965
 10
-9.650966085
 20
18.5436486587
 10
-9.6333905354
 20
18.5373854533
 10
-9.6153393094
 20
18.5300700082
 10
-9.5968540313
 20
18.5216833647
 10
-9.5885671325
 20
18.5176299051
  0
LWPOLYLINE
  5
45E
100
AcDbEntity
  8
ASSI
100
AcDbPolyline
 62
7
  6
CONTINUOUS
 90
10
 70
0
 10
16.5024862973
 20
14.3358940836
 10
16.5471690103
 20
14.3154367518
 10
16.6412993601
 20
14.2829259791
 10
16.739673611
 20
14.2624405395
 10
16.8423739764
 20
14.2542133894
 10
16.949318243
 20
14.2580115726
 10
17.0584479655
 20
14.2737619821
 10
17.1690769956
 20
14.3014402492
 10
17.2818914816
 20
14.3410707427
 10
17.3968914236
 20
14.3926534626
  0
LWPOLYLINE
  5
45F
100
AcDbEntity
  8
ASSI
100
AcDbPolyline
 62
7
  6
CONTINUOUS
 90
8
 70
0
 10
18.29129655
 20
13.5833874378
 10
18.2466138369
 20
13.6038447696
 10
18.1524834872
 20
13.6363555423
 10
18.0541092363
 20
13.6568409819
 10
17.9514088708
 20
13.6650681319
 10
17.8444646043
 20
13.6612699488
 10
17.7353348817
 20
13.6455195393
 10
17.6820881514
 20
13.6321977446
  0
LINE
  5
460
100
AcDbEntity
  8
0
100
AcDbLine
 62
7
  6
CONTINUOUS
 10
5.8119702835
 20
18.9489217633
 11
6.0569241603
 21
18.8264448249
  0
LINE
  5
461
100
AcDbEntity
  8
0
100
AcDbLine
 62
7
  6
CONTINUOUS
 10
9.3475041894
 20
17.1811548104
 11
9.5924580663
 21
17.0586778719
  0
LINE
  5
462
100
AcDbEntity
  8
DRAFT
100
AcDbLine
 62
253
  6
CONTINUOUS
 10
18.5446192794
 20
13.5229653827
 11
19.2901513538
 21
13.1472889228
  0
LINE
  5
463
100
AcDbEntity
  8
ASSI
100
AcDbLine
 62
253
  6
CONTINUOUS
 10
18.5446192794
 20
13.5229653827
 11
19.2901513538
 21
13.1472889228
  0
LINE
  5
464
100
AcDbEntity
  8
DRAFT
100
AcDbLine
 62
7
  6
CONTINUOUS
 10
21.1507281913
 20
10.5014886818
 11
21.1445573639
 21
10.5047053067
  0
LINE
  5
465
100
AcDbEntity
  8
ASSI
100
AcDbLine
 62
7
  6
CONTINUOUS
 10
21.1507281913
 20
10.5014886818
 11
21.1445573639
 21
10.5047053067
  0
LINE
  5
466
100
AcDbEntity
  8
RACCORDO
100
AcDbLine
 62
7
  6
CONTINUOUS
 10
15.6413485202
 20
23.8782106734
 11
15.6644798097
 21
23.7609162975
  0
LINE
  5
467
100
AcDbEntity
  8
ASSI
100
AcDbLine
 62
7
  6
CONTINUOUS
 10
15.6413485202
 20
23.8782106734
 11
15.6644798097
 21
23.7609162975
  0
LWPOLYLINE
  5
468
100
AcDbEntity
  8
RACCORDO
100
AcDbPolyline
 62
253
  6
CONTINUOUS
 90
13
 70
0
 10
22.9150504301
 20
18.9185027586
 10
22.9123236758
 20
19.0334428974
 10
22.903503089
 20
19.150889241
 10
22.8886258382
 20
19.2703382754
 10
22.8677550985
 20
19.3912768686
 10
22.8409803308
 20
19.5131881401
 10
22.8084163859
 20
19.6355537395
 10
22.7702032365
 20
19.7578501944
 10
22.7265038565
 20
19.8795537325
 10
22.6775032482
 20
20.0001461645
 10
22.6234105039
 20
20.1191123149
 10
22.564458382
 20
20.2359423078
 10
22.5008999544
 20
20.3501363333
  0
LWPOLYLINE
  5
469
100
AcDbEntity
  8
ASSI
100
AcDbPolyline
 62
253
  6
CONTINUOUS
 90
13
 70
0
 10
22.9150504301
 20
18.9185027586
 10
22.9123236758
 20
19.0334428974
 10
22.903503089
 20
19.150889241
 10
22.8886258382
 20
19.2703382754
 10
22.8677550985
 20
19.3912768686
 10
22.8409803308
 20
19.5131881401
 10
22.8084163859
 20
19.6355537395
 10
22.7702032365
 20
19.7578501944
 10
22.7265038565
 20
19.8795537325
 10
22.6775032482
 20
20.0001461645
 10
22.6234105039
 20
20.1191123149
 10
22.564458382
 20
20.2359423078
 10
22.5008999544
 20
20.3501363333
  0
LWPOLYLINE
  5
46A
100
AcDbEntity
  8
ASSI
100
AcDbPolyline
 62
7
  6
CONTINUOUS
 90
9
 70
0
 10
23.1957022852
 20
19.2655552967
 10
23.1948289788
 20
19.3258433018
 10
23.184212938
 20
19.4860944825
 10
23.1619746681
 20
19.6457720564
 10
23.1284757589
 20
19.8049177884
 10
23.0840819273
 20
19.9627957123
 10
23.02950975
 20
20.1176350584
 10
22.9653252206
 20
20.268566983
 10
22.8915893013
 20
20.4156541149
  0
LWPOLYLINE
  5
46B
100
AcDbEntity
  8
RACCORDO
100
AcDbPolyline
 62
7
  6
CONTINUOUS
 90
9
 70
0
 10
23.1957022855
 20
19.2655555194
 10
23.1948272844
 20
19.3259019622
 10
23.184208377
 20
19.4861387027
 10
23.1619694946
 20
19.6458015965
 10
23.1284721567
 20
19.8049324413
 10
23.0840820052
 20
19.9627954662
 10
23.0295154592
 20
20.1176203662
 10
22.9653383857
 20
20.2685385377
 10
22.8916117366
 20
20.4156126401
  0
LINE
  5
46C
100
AcDbEntity
  8
RACCORDO
100
AcDbLine
 62
7
  6
CONTINUOUS
 10
20.7910039733
 20
-10.1644255932
 11
20.7910039733
 21
-9.3469328583
  0
LINE
  5
46D
100
AcDbEntity
  8
ASSI
100
AcDbLine
 62
7
  6
CONTINUOUS
 10
20.7910039733
 20
-10.1644255932
 11
20.7910039733
 21
-9.3469328583
  0
LINE
  5
46E
100
AcDbEntity
  8
DRAFT
100
AcDbLine
 62
7
  6
CONTINUOUS
 10
21.1445573639
 20
6.1745782878
 11
21.1445573639
 21
9.0965916112
  0
LINE
  5
46F
100
AcDbEntity
  8
ASSI
100
AcDbLine
 62
7
  6
CONTINUOUS
 10
21.1445573639
 20
6.1745782878
 11
21.1445573639
 21
9.0965916112
  0
LINE
  5
470
100
AcDbEntity
  8
DRAFT
100
AcDbLine
 62
7
  6
CONTINUOUS
 10
21.1445573639
 20
10.5047053067
 11
21.1445573639
 21
13.4267186301
  0
LINE
  5
471
100
AcDbEntity
  8
ASSI
100
AcDbLine
 62
7
  6
CONTINUOUS
 10
21.1445573639
 20
10.5047053067
 11
21.1445573639
 21
13.4267186301
  0
LINE
  5
472
100
AcDbEntity
  8
DRAFT
100
AcDbLine
 62
7
  6
CONTINUOUS
 10
21.1445573639
 20
14.8348323256
 11
21.1445573639
 21
17.756845649
  0
LINE
  5
473
100
AcDbEntity
  8
ASSI
100
AcDbLine
 62
7
  6
CONTINUOUS
 10
21.1445573639
 20
14.8348323256
 11
21.1445573639
 21
17.756845649
  0
LINE
  5
474
100
AcDbEntity
  8
DRAFT
100
AcDbLine
 62
7
  6
CONTINUOUS
 10
21.8516641451
 20
4.1864374502
 11
21.8516641451
 21
3.368687637
  0
LINE
  5
475
100
AcDbEntity
  8
ASSI
100
AcDbLine
 62
7
  6
CONTINUOUS
 10
21.8516641451
 20
4.1864374502
 11
21.8516641451
 21
3.368687637
  0
LINE
  5
476
100
AcDbEntity
  8
DRAFT
100
AcDbLine
 62
7
  6
CONTINUOUS
 10
21.8516641451
 20
-0.1436895687
 11
21.8516641451
 21
-0.9614393819
  0
LINE
  5
477
100
AcDbEntity
  8
ASSI
100
AcDbLine
 62
7
  6
CONTINUOUS
 10
21.8516641451
 20
-0.1436895687
 11
21.8516641451
 21
-0.9614393819
  0
LINE
  5
478
100
AcDbEntity
  8
DRAFT
100
AcDbLine
 62
7
  6
CONTINUOUS
 10
21.8516641451
 20
-4.4738165876
 11
21.8516641451
 21
-5.2915664008
  0
LINE
  5
479
100
AcDbEntity
  8
ASSI
100
AcDbLine
 62
7
  6
CONTINUOUS
 10
21.8516641451
 20
-4.4738165876
 11
21.8516641451
 21
-5.2915664008
  0
LINE
  5
47A
100
AcDbEntity
  8
DRAFT
100
AcDbLine
 62
7
  6
CONTINUOUS
 10
21.8516641451
 20
-8.8039436065
 11
21.8516641451
 21
-9.6216934197
  0
LINE
  5
47B
100
AcDbEntity
  8
ASSI
100
AcDbLine
 62
7
  6
CONTINUOUS
 10
21.8516641451
 20
-8.8039436065
 11
21.8516641451
 21
-9.6216934197
  0
LINE
  5
47C
100
AcDbEntity
  8
RACCORDO
100
AcDbLine
 62
7
  6
CONTINUOUS
 10
22.9123243169
 20
18.6851008035
 11
22.9123243169
 21
15.7067233468
  0
LINE
  5
47D
100
AcDbEntity
  8
ASSI
100
AcDbLine
 62
7
  6
CONTINUOUS
 10
22.9123243169
 20
18.6851008035
 11
22.9123243169
 21
15.7067233468
  0
LINE
  5
47E
100
AcDbEntity
  8
RACCORDO
100
AcDbLine
 62
7
  6
CONTINUOUS
 10
22.9123243169
 20
14.3549737845
 11
22.9123243169
 21
11.3765963278
  0
LINE
  5
47F
100
AcDbEntity
  8
ASSI
100
AcDbLine
 62
7
  6
CONTINUOUS
 10
22.9123243169
 20
14.3549737845
 11
22.9123243169
 21
11.3765963278
  0
LINE
  5
480
100
AcDbEntity
  8
RACCORDO
100
AcDbLine
 62
7
  6
CONTINUOUS
 10
22.9123243169
 20
10.0248467656
 11
22.9123243169
 21
7.0464693089
  0
LINE
  5
481
100
AcDbEntity
  8
ASSI
100
AcDbLine
 62
7
  6
CONTINUOUS
 10
22.9123243169
 20
10.0248467656
 11
22.9123243169
 21
7.0464693089
  0
LINE
  5
482
100
AcDbEntity
  8
RACCORDO
100
AcDbLine
 62
7
  6
CONTINUOUS
 10
22.9123243169
 20
4.7308222952
 11
22.9123243169
 21
3.8990177229
  0
LINE
  5
483
100
AcDbEntity
  8
ASSI
100
AcDbLine
 62
7
  6
CONTINUOUS
 10
22.9123243169
 20
4.7308222952
 11
22.9123243169
 21
3.8990177229
  0
LINE
  5
484
100
AcDbEntity
  8
RACCORDO
100
AcDbLine
 62
7
  6
CONTINUOUS
 10
22.9123243169
 20
0.4006952763
 11
22.9123243169
 21
-0.431109296
  0
LINE
  5
485
100
AcDbEntity
  8
ASSI
100
AcDbLine
 62
7
  6
CONTINUOUS
 10
22.9123243169
 20
0.4006952763
 11
22.9123243169
 21
-0.431109296
  0
LINE
  5
486
100
AcDbEntity
  8
RACCORDO
100
AcDbLine
 62
7
  6
CONTINUOUS
 10
22.9123243169
 20
-3.9294317426
 11
22.9123243169
 21
-4.7612363149
  0
LINE
  5
487
100
AcDbEntity
  8
ASSI
100
AcDbLine
 62
7
  6
CONTINUOUS
 10
22.9123243169
 20
-3.9294317426
 11
22.9123243169
 21
-4.7612363149
  0
LINE
  5
488
100
AcDbEntity
  8
RACCORDO
100
AcDbLine
 62
7
  6
CONTINUOUS
 10
22.9123243169
 20
-8.2595587615
 11
22.9123243169
 21
-9.0913633339
  0
LINE
  5
489
100
AcDbEntity
  8
ASSI
100
AcDbLine
 62
7
  6
CONTINUOUS
 10
22.9123243169
 20
-8.2595587615
 11
22.9123243169
 21
-9.0913633339
  0
LINE
  5
48A
100
AcDbEntity
  8
RACCORDO
100
AcDbLine
 62
253
  6
CONTINUOUS
 10
22.9150504301
 20
15.0004766159
 11
22.9150504301
 21
14.3549737845
  0
LINE
  5
48B
100
AcDbEntity
  8
ASSI
100
AcDbLine
 62
253
  6
CONTINUOUS
 10
22.9150504301
 20
15.0004766159
 11
22.9150504301
 21
14.3549737845
  0
LINE
  5
48C
100
AcDbEntity
  8
RACCORDO
100
AcDbLine
 62
253
  6
CONTINUOUS
 10
22.9150504301
 20
10.6703495969
 11
22.9150504301
 21
10.0248467656
  0
LINE
  5
48D
100
AcDbEntity
  8
ASSI
100
AcDbLine
 62
253
  6
CONTINUOUS
 10
22.9150504301
 20
10.6703495969
 11
22.9150504301
 21
10.0248467656
  0
LINE
  5
48E
100
AcDbEntity
  8
RACCORDO
100
AcDbLine
 62
253
  6
CONTINUOUS
 10
22.9150504301
 20
6.340222578
 11
22.9150504301
 21
4.7308222952
  0
LINE
  5
48F
100
AcDbEntity
  8
ASSI
100
AcDbLine
 62
253
  6
CONTINUOUS
 10
22.9150504301
 20
6.340222578
 11
22.9150504301
 21
4.7308222952
  0
LINE
  5
490
100
AcDbEntity
  8
RACCORDO
100
AcDbLine
 62
253
  6
CONTINUOUS
 10
22.9150504301
 20
2.9739930106
 11
22.9150504301
 21
0.4006952763
  0
LINE
  5
491
100
AcDbEntity
  8
ASSI
100
AcDbLine
 62
253
  6
CONTINUOUS
 10
22.9150504301
 20
2.9739930106
 11
22.9150504301
 21
0.4006952763
  0
LINE
  5
492
100
AcDbEntity
  8
RACCORDO
100
AcDbLine
 62
253
  6
CONTINUOUS
 10
22.9150504301
 20
-1.3561340084
 11
22.9150504301
 21
-3.9294317426
  0
LINE
  5
493
100
AcDbEntity
  8
ASSI
100
AcDbLine
 62
253
  6
CONTINUOUS
 10
22.9150504301
 20
-1.3561340084
 11
22.9150504301
 21
-3.9294317426
  0
LINE
  5
494
100
AcDbEntity
  8
RACCORDO
100
AcDbLine
 62
253
  6
CONTINUOUS
 10
22.9150504301
 20
-5.6862610273
 11
22.9150504301
 21
-8.2595587615
  0
LINE
  5
495
100
AcDbEntity
  8
ASSI
100
AcDbLine
 62
253
  6
CONTINUOUS
 10
22.9150504301
 20
-5.6862610273
 11
22.9150504301
 21
-8.2595587615
  0
LINE
  5
496
100
AcDbEntity
  8
RACCORDO
100
AcDbLine
 62
253
  6
CONTINUOUS
 10
22.9150504301
 20
-10.0163880462
 11
22.9150504301
 21
-11.2136874528
  0
LINE
  5
497
100
AcDbEntity
  8
ASSI
100
AcDbLine
 62
253
  6
CONTINUOUS
 10
22.9150504301
 20
-10.0163880462
 11
22.9150504301
 21
-11.2136874528
  0
LINE
  5
498
100
AcDbEntity
  8
RACCORDO
100
AcDbLine
 62
253
  6
CONTINUOUS
 10
22.9150504301
 20
18.6851008035
 11
22.9150504301
 21
18.9185027586
  0
LINE
  5
499
100
AcDbEntity
  8
ASSI
100
AcDbLine
 62
253
  6
CONTINUOUS
 10
22.9150504301
 20
18.6851008035
 11
22.9150504301
 21
18.9185027586
  0
LINE
  5
49A
100
AcDbEntity
  8
RACCORDO
100
AcDbLine
 62
7
  6
CONTINUOUS
 10
23.1957106297
 20
15.3488989912
 11
23.1957106297
 21
14.7012097797
  0
LINE
  5
49B
100
AcDbEntity
  8
ASSI
100
AcDbLine
 62
7
  6
CONTINUOUS
 10
23.1957106297
 20
15.3488989912
 11
23.1957106297
 21
14.7012097797
  0
LINE
  5
49C
100
AcDbEntity
  8
RACCORDO
100
AcDbLine
 62
7
  6
CONTINUOUS
 10
23.1957106297
 20
11.0187719722
 11
23.1957106297
 21
10.3710827608
  0
LINE
  5
49D
100
AcDbEntity
  8
ASSI
100
AcDbLine
 62
7
  6
CONTINUOUS
 10
23.1957106297
 20
11.0187719722
 11
23.1957106297
 21
10.3710827608
  0
LINE
  5
49E
100
AcDbEntity
  8
RACCORDO
100
AcDbLine
 62
7
  6
CONTINUOUS
 10
23.1957106297
 20
6.6886449533
 11
23.1957106297
 21
5.010220715
  0
LINE
  5
49F
100
AcDbEntity
  8
ASSI
100
AcDbLine
 62
7
  6
CONTINUOUS
 10
23.1957106297
 20
6.6886449533
 11
23.1957106297
 21
5.010220715
  0
LINE
  5
4A0
100
AcDbEntity
  8
RACCORDO
100
AcDbLine
 62
7
  6
CONTINUOUS
 10
23.1957106297
 20
3.3892529613
 11
23.1957106297
 21
0.680093696
  0
LINE
  5
4A1
100
AcDbEntity
  8
ASSI
100
AcDbLine
 62
7
  6
CONTINUOUS
 10
23.1957106297
 20
3.3892529613
 11
23.1957106297
 21
0.680093696
  0
LINE
  5
4A2
100
AcDbEntity
  8
RACCORDO
100
AcDbLine
 62
7
  6
CONTINUOUS
 10
23.1957106297
 20
-0.9408740576
 11
23.1957106297
 21
-3.6500333229
  0
LINE
  5
4A3
100
AcDbEntity
  8
ASSI
100
AcDbLine
 62
7
  6
CONTINUOUS
 10
23.1957106297
 20
-0.9408740576
 11
23.1957106297
 21
-3.6500333229
  0
LINE
  5
4A4
100
AcDbEntity
  8
RACCORDO
100
AcDbLine
 62
7
  6
CONTINUOUS
 10
23.1957106297
 20
-5.2710010766
 11
23.1957106297
 21
-7.9801603418
  0
LINE
  5
4A5
100
AcDbEntity
  8
ASSI
100
AcDbLine
 62
7
  6
CONTINUOUS
 10
23.1957106297
 20
-5.2710010766
 11
23.1957106297
 21
-7.9801603418
  0
LINE
  5
4A6
100
AcDbEntity
  8
RACCORDO
100
AcDbLine
 62
7
  6
CONTINUOUS
 10
23.1957106297
 20
-9.6011280955
 11
23.1957106297
 21
-10.866358267
  0
LINE
  5
4A7
100
AcDbEntity
  8
ASSI
100
AcDbLine
 62
7
  6
CONTINUOUS
 10
23.1957106297
 20
-9.6011280955
 11
23.1957106297
 21
-10.866358267
  0
LINE
  5
4A8
100
AcDbEntity
  8
RACCORDO
100
AcDbLine
 62
7
  6
CONTINUOUS
 10
23.1957106297
 20
19.0313367986
 11
23.1957106297
 21
19.2658319406
  0
LINE
  5
4A9
100
AcDbEntity
  8
ASSI
100
AcDbLine
 62
7
  6
CONTINUOUS
 10
23.1957106297
 20
19.0313367986
 11
23.1957106297
 21
19.2658319406
  0
LWPOLYLINE
  5
4AA
100
AcDbEntity
  8
RACCORDO
100
AcDbPolyline
 62
253
  6
CONTINUOUS
 90
10
 70
0
 10
22.9150504301
 20
-11.2136874528
 10
22.9123235969
 20
-11.325289173
 10
22.9035028448
 20
-11.4334076765
 10
22.8886253946
 20
-11.5375809651
 10
22.8677544885
 20
-11.6373631623
 10
22.8409796293
 20
-11.7323286332
 10
22.8084156502
 20
-11.822073348
 10
22.7702025396
 20
-11.9062128795
 10
22.7265032887
 20
-11.9843873978
 10
22.677502831
 20
-12.0562645552
  0
LWPOLYLINE
  5
4AB
100
AcDbEntity
  8
ASSI
100
AcDbPolyline
 62
253
  6
CONTINUOUS
 90
10
 70
0
 10
22.9150504301
 20
-11.2136874528
 10
22.9123235969
 20
-11.325289173
 10
22.9035028448
 20
-11.4334076765
 10
22.8886253946
 20
-11.5375809651
 10
22.8677544885
 20
-11.6373631623
 10
22.8409796293
 20
-11.7323286332
 10
22.8084156502
 20
-11.822073348
 10
22.7702025396
 20
-11.9062128795
 10
22.7265032887
 20
-11.9843873978
 10
22.677502831
 20
-12.0562645552
  0
LINE
  5
4AC
100
AcDbEntity
  8
RACCORDO
100
AcDbLine
 62
7
  6
CONTINUOUS
 10
23.1913386599
 20
-10.9991176886
 11
23.1957023905
 21
-10.8664943701
  0
LINE
  5
4AD
100
AcDbEntity
  8
ASSI
100
AcDbLine
 62
7
  6
CONTINUOUS
 10
23.1913386599
 20
-10.9991176886
 11
23.1957023904
 21
-10.8664944524
  0
LINE
  5
4AE
100
AcDbEntity
  8
RACCORDO
100
AcDbLine
 62
253
  6
CONTINUOUS
 10
22.5008999544
 20
-12.2311705518
 11
22.4879897349
 21
-12.2405271672
  0
LINE
  5
4AF
100
AcDbEntity
  8
ASSI
100
AcDbLine
 62
253
  6
CONTINUOUS
 10
22.5008999544
 20
-12.2311705518
 11
22.4879897349
 21
-12.2405271672
  0
LINE
  5
4B0
100
AcDbEntity
  8
RACCORDO
100
AcDbLine
 62
7
  6
CONTINUOUS
 10
22.5766180834
 20
-12.1839725562
 11
22.562557329
 21
-12.1941650344
  0
LINE
  5
4B1
100
AcDbEntity
  8
ASSI
100
AcDbLine
 62
7
  6
CONTINUOUS
 10
22.5766184147
 20
-12.1839723149
 11
22.562557329
 21
-12.1941650344
  0
LINE
  5
4B2
100
AcDbEntity
  8
RACCORDO
100
AcDbLine
 62
253
  6
CONTINUOUS
 10
22.562557329
 20
-12.1941650344
 11
22.562459953
 21
-12.1942355927
  0
LINE
  5
4B3
100
AcDbEntity
  8
ASSI
100
AcDbLine
 62
253
  6
CONTINUOUS
 10
22.562557329
 20
-12.1941650344
 11
22.562459953
 21
-12.1942355927
  0
LINE
  5
4B4
100
AcDbEntity
  8
RACCORDO
100
AcDbLine
 62
7
  6
CONTINUOUS
 10
22.5441684757
 20
-12.2071788633
 11
22.562459953
 21
-12.1942355927
  0
LINE
  5
4B5
100
AcDbEntity
  8
ASSI
100
AcDbLine
 62
7
  6
CONTINUOUS
 10
22.5441684683
 20
-12.2071788684
 11
22.562459953
 21
-12.1942355927
  0
LINE
  5
4B6
100
AcDbEntity
  8
RACCORDO
100
AcDbLine
 62
253
  6
CONTINUOUS
 10
22.562459953
 20
-12.1942355927
 11
22.5462725115
 21
-12.2055728321
  0
LINE
  5
4B7
100
AcDbEntity
  8
ASSI
100
AcDbLine
 62
253
  6
CONTINUOUS
 10
22.562459953
 20
-12.1942355927
 11
22.5462725115
 21
-12.2055728321
  0
LINE
  5
4B8
100
AcDbEntity
  8
RACCORDO
100
AcDbLine
 62
253
  6
CONTINUOUS
 10
22.4432018049
 20
-12.2684618612
 11
22.4879897349
 21
-12.2405271672
  0
LINE
  5
4B9
100
AcDbEntity
  8
ASSI
100
AcDbLine
 62
253
  6
CONTINUOUS
 10
22.4432018049
 20
-12.2684618612
 11
22.4879897349
 21
-12.2405271672
  0
LINE
  5
4BA
100
AcDbEntity
  8
RACCORDO
100
AcDbLine
 62
253
  6
CONTINUOUS
 10
22.5754675481
 20
-12.1848084193
 11
22.5008999544
 21
-12.2311705518
  0
LINE
  5
4BB
100
AcDbEntity
  8
ASSI
100
AcDbLine
 62
253
  6
CONTINUOUS
 10
22.5754675481
 20
-12.1848084193
 11
22.5008999544
 21
-12.2311705518
  0
LINE
  5
4BC
100
AcDbEntity
  8
RACCORDO
100
AcDbLine
 62
253
  6
CONTINUOUS
 10
22.5462725115
 20
-12.2055728321
 11
22.4879897349
 21
-12.2405271672
  0
LINE
  5
4BD
100
AcDbEntity
  8
ASSI
100
AcDbLine
 62
253
  6
CONTINUOUS
 10
22.5462725115
 20
-12.2055728321
 11
22.4879897349
 21
-12.2405271672
  0
LWPOLYLINE
  5
4BE
100
AcDbEntity
  8
RACCORDO
100
AcDbPolyline
 62
7
  6
CONTINUOUS
 90
3
 70
0
 10
22.4431160362
 20
-12.2685072027
 10
22.4736608695
 20
-12.2516703862
 10
22.5441684757
 20
-12.2071788633
  0
LWPOLYLINE
  5
4BF
100
AcDbEntity
  8
ASSI
100
AcDbPolyline
 62
7
  6
CONTINUOUS
 90
3
 70
0
 10
22.4431160363
 20
-12.2685072027
 10
22.4736608618
 20
-12.2516703907
 10
22.5441684683
 20
-12.2071788684
  0
LINE
  5
4C0
100
AcDbEntity
  8
RACCORDO
100
AcDbLine
 62
253
  6
CONTINUOUS
 10
22.4879897349
 20
-12.2405271672
 11
2.8198975359
 21
-22.641338306
  0
LINE
  5
4C1
100
AcDbEntity
  8
ASSI
100
AcDbLine
 62
253
  6
CONTINUOUS
 10
22.4879897349
 20
-12.2405271672
 11
2.8198975359
 21
-22.641338306
  0
LINE
  5
4C2
100
AcDbEntity
  8
RACCORDO
100
AcDbLine
 62
7
  6
CONTINUOUS
 10
22.4432018049
 20
-12.2684618612
 11
2.7982054336
 21
-22.6570595458
  0
LINE
  5
4C3
100
AcDbEntity
  8
ASSI
100
AcDbLine
 62
7
  6
CONTINUOUS
 10
22.4432018049
 20
-12.2684618612
 11
2.7982054336
 21
-22.6570595458
  0
LINE
  5
4C4
100
AcDbEntity
  8
DRAFT
100
AcDbLine
 62
7
  6
CONTINUOUS
 10
-3.4981139605
 20
-26.1704529256
 11
1.8601282141
 21
-23.3369261997
  0
LINE
  5
4C5
100
AcDbEntity
  8
ASSI
100
AcDbLine
 62
7
  6
CONTINUOUS
 10
-3.4981139605
 20
-26.1704529256
 11
1.8601282141
 21
-23.3369261997
  0
LINE
  5
4C6
100
AcDbEntity
  8
RACCORDO
100
AcDbLine
 62
253
  6
CONTINUOUS
 10
-3.4981139605
 20
-25.9268667919
 11
22.5008999544
 21
-12.2311705518
  0
LINE
  5
4C7
100
AcDbEntity
  8
ASSI
100
AcDbLine
 62
253
  6
CONTINUOUS
 10
-3.4981139605
 20
-25.9268667919
 11
22.5008999544
 21
-12.2311705518
  0
LWPOLYLINE
  5
4C8
100
AcDbEntity
  8
RACCORDO
100
AcDbPolyline
 62
253
  6
CONTINUOUS
 90
34
 70
0
 10
-10.3948673152
 20
-30.9432795144
 10
-10.4121616469
 20
-30.9520830705
 10
-10.4301871081
 20
-30.9604687336
 10
-10.4489037667
 20
-30.9684179266
 10
-10.4682701596
 20
-30.9759130397
 10
-10.4882433841
 20
-30.9829374689
 10
-10.5087791934
 20
-30.9894756529
 10
-10.5298320942
 20
-30.9955131076
 10
-10.5513554479
 20
-31.001036458
 10
-10.5733015734
 20
-31.0060334684
 10
-10.5956218534
 20
-31.0104930687
 10
-10.6182668415
 20
-31.0144053796
 10
-10.6411863719
 20
-31.017761734
 10
-10.6643296708
 20
-31.0205546967
 10
-10.6876454686
 20
-31.0227780803
 10
-10.7110821136
 20
-31.0244269593
 10
-10.7345876862
 20
-31.025497681
 10
-10.7581101143
 20
-31.0259878733
 10
-10.7815972885
 20
-31.0258964504
 10
-10.8049971774
 20
-31.0252236148
 10
-10.8282579428
 20
-31.023970857
 10
-10.8513280551
 20
-31.0221409522
 10
-10.8741564066
 20
-31.0197379544
 10
-10.8966924256
 20
-31.0167671867
 10
-10.9188861877
 20
-31.0132352306
 10
-10.9406885269
 20
-31.0091499102
 10
-10.9620511441
 20
-31.0045202759
 10
-10.9829267146
 20
-30.9993565838
 10
-11.0032689925
 20
-30.993670273
 10
-11.0230329133
 20
-30.9874739405
 10
-11.0421746937
 20
-30.980781313
 10
-11.0606519288
 20
-30.9736072169
 10
-11.0784236858
 20
-30.965967545
 10
-11.0954505946
 20
-30.9578792215
  0
LINE
  5
4C9
100
AcDbEntity
  8
RACCORDO
100
AcDbLine
 62
7
  6
CONTINUOUS
 10
0.1760633399
 20
-24.6136917792
 11
-3.4981139605
 21
-26.4579243186
  0
LINE
  5
4CA
100
AcDbEntity
  8
RACCORDO
100
AcDbLine
 62
7
  6
CONTINUOUS
 10
1.0575987985
 20
-24.0542627352
 11
-3.4981139605
 21
-26.3139298488
  0
LINE
  5
4CB
100
AcDbEntity
  8
ASSI
100
AcDbLine
 62
7
  6
CONTINUOUS
 10
7.8904511456
 20
19.712442818
 11
7.6384692309
 21
19.8384337753
  0
LINE
  5
4CC
100
AcDbEntity
  8
ASSI
100
AcDbLine
 62
7
  6
CONTINUOUS
 10
4.3549172396
 20
21.4802097709
 11
4.102935325
 21
21.6062007283
  0
LINE
  5
4CD
100
AcDbEntity
  8
ASSI
100
AcDbLine
 62
7
  6
CONTINUOUS
 10
12.8643332468
 20
18.6397153297
 11
12.6068380425
 21
18.7684629319
  0
LINE
  5
4CE
100
AcDbEntity
  8
DRAFT
100
AcDbLine
 62
7
  6
CONTINUOUS
 10
21.1507281913
 20
14.8316157008
 11
21.1445573639
 21
14.8348323256
  0
LINE
  5
4CF
100
AcDbEntity
  8
ASSI
100
AcDbLine
 62
7
  6
CONTINUOUS
 10
21.1507281913
 20
14.8316157008
 11
21.1445573639
 21
14.8348323256
  0
LWPOLYLINE
  5
4D0
100
AcDbEntity
  8
DRAFT
100
AcDbPolyline
 62
7
  6
CONTINUOUS
 90
10
 70
0
 10
18.0255036712
 20
13.4042311585
 10
17.9329836656
 20
13.4649416754
 10
17.8403171853
 20
13.5262609018
 10
17.7475042301
 20
13.5881888376
 10
17.6545446153
 20
13.6507277595
 10
17.5614385257
 20
13.7138753909
 10
17.4681865157
 20
13.7776249025
 10
17.3747887698
 20
13.8419740178
 10
17.2812451035
 20
13.9069250133
 10
17.1875555167
 20
13.9724778889
  0
LWPOLYLINE
  5
4D1
100
AcDbEntity
  8
ASSI
100
AcDbPolyline
 62
7
  6
CONTINUOUS
 90
10
 70
0
 10
18.0255036712
 20
13.4042311585
 10
17.9329836656
 20
13.4649416754
 10
17.8403171853
 20
13.5262609018
 10
17.7475042301
 20
13.5881888376
 10
17.6545446153
 20
13.6507277595
 10
17.5614385257
 20
13.7138753909
 10
17.4681865157
 20
13.7776249025
 10
17.3747887698
 20
13.8419740178
 10
17.2812451035
 20
13.9069250133
 10
17.1875555167
 20
13.9724778889
  0
LWPOLYLINE
  5
4D2
100
AcDbEntity
  8
ASSI
100
AcDbPolyline
 62
7
  6
CONTINUOUS
 90
3
 70
0
 10
16.4113401617
 20
14.3917252909
 10
16.4590943668
 20
14.3593470959
 10
16.5024862973
 20
14.3358940836
  0
LWPOLYLINE
  5
4D3
100
AcDbEntity
  8
ASSI
100
AcDbPolyline
 62
7
  6
CONTINUOUS
 90
3
 70
0
 10
18.4165901058
 20
13.5044036761
 10
18.3346884804
 20
13.5599344255
 10
18.29129655
 20
13.5833874378
  0
LINE
  5
4D4
100
AcDbEntity
  8
ASSI
100
AcDbLine
 62
7
  6
CONTINUOUS
 10
18.4464372112
 20
13.4780650628
 11
18.4165901058
 21
13.5044036761
  0
LINE
  5
4D5
100
AcDbEntity
  8
RACCORDO
100
AcDbLine
 62
7
  6
CONTINUOUS
 10
19.1768824262
 20
22.1104437204
 11
19.2000137156
 21
21.9931493445
  0
LINE
  5
4D6
100
AcDbEntity
  8
ASSI
100
AcDbLine
 62
7
  6
CONTINUOUS
 10
19.1768824262
 20
22.1104437204
 11
19.2000137156
 21
21.9931493445
  0
LWPOLYLINE
  5
4D7
100
AcDbEntity
  8
RACCORDO
100
AcDbPolyline
 62
253
  6
CONTINUOUS
 90
9
 70
0
 10
23.1957105927
 20
-10.8664943765
 10
23.1947842288
 20
-10.8878753739
 10
23.1849835093
 20
-10.9393979301
 10
23.164583335
 20
-10.9901379911
 10
23.1338022374
 20
-11.0395518972
 10
23.0929700004
 20
-11.0871101749
 10
23.0425241034
 20
-11.1323032509
 10
22.9830050157
 20
-11.1746469086
 10
22.9150504301
 20
-11.2136874509
  0
LWPOLYLINE
  5
4D8
100
AcDbEntity
  8
ASSI
100
AcDbPolyline
 62
253
  6
CONTINUOUS
 90
9
 70
0
 10
23.1957105926
 20
-10.8664944588
 10
23.1947842288
 20
-10.8878753739
 10
23.1849835093
 20
-10.9393979301
 10
23.164583335
 20
-10.9901379911
 10
23.1338022374
 20
-11.0395518972
 10
23.0929700004
 20
-11.0871101749
 10
23.0425241034
 20
-11.1323032509
 10
22.9830050157
 20
-11.1746469086
 10
22.9150504301
 20
-11.2136874509
  0
LWPOLYLINE
  5
4D9
100
AcDbEntity
  8
RACCORDO
100
AcDbPolyline
 62
253
  6
CONTINUOUS
 90
3
 70
0
 10
22.677502831
 20
-12.0562645552
 10
22.6234102222
 20
-12.1215366079
 10
22.5644582413
 20
-12.1799222957
  0
LWPOLYLINE
  5
4DA
100
AcDbEntity
  8
ASSI
100
AcDbPolyline
 62
253
  6
CONTINUOUS
 90
3
 70
0
 10
22.677502831
 20
-12.0562645552
 10
22.6234102222
 20
-12.1215366079
 10
22.5644582413
 20
-12.1799222957
  0
LWPOLYLINE
  5
4DB
100
AcDbEntity
  8
ASSI
100
AcDbPolyline
 62
7
  6
CONTINUOUS
 90
10
 70
0
 10
22.6783609814
 20
-12.1024806502
 10
22.771081412
 20
-12.0130006646
 10
22.8562536451
 20
-11.9142864961
 10
22.9331332091
 20
-11.806875031
 10
23.0013380294
 20
-11.6909019652
 10
23.0602410976
 20
-11.5667897147
 10
23.1091382323
 20
-11.4352741833
 10
23.1476221474
 20
-11.2966043487
 10
23.1752087787
 20
-11.1510278618
 10
23.1913386599
 20
-10.9991176886
  0
LWPOLYLINE
  5
4DC
100
AcDbEntity
  8
RACCORDO
100
AcDbPolyline
 62
7
  6
CONTINUOUS
 90
10
 70
0
 10
22.6783888428
 20
-12.1024583412
 10
22.7711253641
 20
-12.0129541946
 10
22.8562881954
 20
-11.9142425664
 10
22.9331592415
 20
-11.8068349809
 10
23.001356501
 20
-11.6908671107
 10
23.060253099
 20
-11.5667612807
 10
23.1091450193
 20
-11.4352532253
 10
23.1476250593
 20
-11.2965918512
 10
23.1752092381
 20
-11.1510247453
 10
23.191338533
 20
-10.9991215463
  0
LINE
  5
4DD
100
AcDbEntity
  8
RACCORDO
100
AcDbLine
 62
253
  6
CONTINUOUS
 10
22.5644582413
 20
-12.1799222957
 11
22.5008999544
 21
-12.2311705518
  0
LINE
  5
4DE
100
AcDbEntity
  8
ASSI
100
AcDbLine
 62
253
  6
CONTINUOUS
 10
22.5644582413
 20
-12.1799222957
 11
22.5008999544
 21
-12.2311705518
  0
LINE
  5
4DF
100
AcDbEntity
  8
RACCORDO
100
AcDbLine
 62
7
  6
CONTINUOUS
 10
22.5766065709
 20
-12.1839568156
 11
22.6783609814
 21
-12.1024806502
  0
LINE
  5
4E0
100
AcDbEntity
  8
ASSI
100
AcDbLine
 62
7
  6
CONTINUOUS
 10
22.5766069022
 20
-12.1839565744
 11
22.6783609814
 21
-12.1024806502
  0
LWPOLYLINE
  5
4E1
100
AcDbEntity
  8
RACCORDO
100
AcDbPolyline
 62
7
  6
CONTINUOUS
 90
19
 70
0
 10
-4.6197853424
 20
-31.134421622
 10
-4.6135596707
 20
-31.1306030122
 10
-4.6076103327
 20
-31.12629126
 10
-4.6019508085
 20
-31.1214961349
 10
-4.5965939479
 20
-31.1162285141
 10
-4.5915518779
 20
-31.1105003266
 10
-4.5868359773
 20
-31.1043245302
 10
-4.58245698
 20
-31.0977151407
 10
-4.5784248197
 20
-31.0906871385
 10
-4.5747485426
 20
-31.0832564046
 10
-4.5714365476
 20
-31.0754398085
 10
-4.5684963733
 20
-31.0672550759
 10
-4.5659345488
 20
-31.0587206876
 10
-4.5637569675
 20
-31.0498560226
 10
-4.5619686193
 20
-31.040681191
 10
-4.5605733837
 20
-31.0312168962
 10
-4.5595744257
 20
-31.0214845817
 10
-4.5589741883
 20
-31.0115063827
 10
-4.5587741322
 20
-31.0013049529
  0
LWPOLYLINE
  5
4E2
100
AcDbEntity
  8
RACCORDO
100
AcDbPolyline
 62
253
  6
CONTINUOUS
 90
18
 70
0
 10
-4.0941894503
 20
-30.8648548582
 10
-4.0885983423
 20
-30.861741227
 10
-4.0818807055
 20
-30.85729565
 10
-4.0755096607
 20
-30.8522608541
 10
-4.0695027121
 20
-30.8466506512
 10
-4.0638763583
 20
-30.8404804395
 10
-4.0586460352
 20
-30.8337671422
 10
-4.0538260801
 20
-30.8265291573
 10
-4.0494297134
 20
-30.818786331
 10
-4.0454689917
 20
-30.8105598904
 10
-4.0419547786
 20
-30.8018723916
 10
-4.0388967151
 20
-30.7927476627
 10
-4.0363031861
 20
-30.7832107168
 10
-4.0341813066
 20
-30.7732877097
 10
-4.0325369
 20
-30.76300588
 10
-4.0313744731
 20
-30.7523934335
 10
-4.0306972086
 20
-30.7414794621
 10
-4.0305069605
 20
-30.7302938943
  0
LWPOLYLINE
  5
4E3
100
AcDbEntity
  8
RACCORDO
100
AcDbPolyline
 62
253
  6
CONTINUOUS
 90
18
 70
0
 10
-6.2263165156
 20
-31.9171901787
 10
-6.2189699819
 20
-31.9131962355
 10
-6.2122588263
 20
-31.9087514973
 10
-6.2058862745
 20
-31.9037138856
 10
-6.1998697923
 20
-31.8980972078
 10
-6.1942258698
 20
-31.8919168579
 10
-6.188969976
 20
-31.8851897753
 10
-6.1841165162
 20
-31.8779343975
 10
-6.1796787929
 20
-31.8701706101
 10
-6.1756689691
 20
-31.8619196924
 10
-6.1720980349
 20
-31.8532042585
 10
-6.1689757776
 20
-31.8440481957
 10
-6.1663107547
 20
-31.8344765991
 10
-6.1641102706
 20
-31.8245157027
 10
-6.1623803563
 20
-31.8141928075
 10
-6.1611257532
 20
-31.8035362064
 10
-6.1603499
 20
-31.7925751073
 10
-6.1600549231
 20
-31.7813395526
  0
LWPOLYLINE
  5
4E4
100
AcDbEntity
  8
RACCORDO
100
AcDbPolyline
 62
7
  6
CONTINUOUS
 90
22
 70
0
 10
-4.0941894503
 20
-30.8648548582
 10
-4.084382718
 20
-30.8595439255
 10
-4.0733710933
 20
-30.8528772751
 10
-4.0627074297
 20
-30.8456456518
 10
-4.0524207315
 20
-30.8378664347
 10
-4.0425320451
 20
-30.8295521438
 10
-4.0330688528
 20
-30.8207211626
 10
-4.0240605916
 20
-30.8113960705
 10
-4.0155312342
 20
-30.8015963014
 10
-4.0075064094
 20
-30.7913449943
 10
-4.0000118961
 20
-30.7806684081
 10
-3.9930707995
 20
-30.7695922985
 10
-3.9867057828
 20
-30.7581449341
 10
-3.9809380429
 20
-30.7463558609
 10
-3.9757867434
 20
-30.7342545461
 10
-3.9712696025
 20
-30.7218710888
 10
-3.9674041621
 20
-30.70924049
 10
-3.9642063727
 20
-30.6964014143
 10
-3.9616887849
 20
-30.6833897679
 10
-3.959861834
 20
-30.6702412949
 10
-3.958734308
 20
-30.6569959474
 10
-3.9583091035
 20
-30.6424209259
  0
LINE
  5
4E5
100
AcDbEntity
  8
RACCORDO
100
AcDbLine
 62
7
  6
CONTINUOUS
 10
-4.62287923
 20
-31.136082723
 11
-4.6197853424
 21
-31.134421622
  0
LINE
  5
4E6
100
AcDbEntity
  8
RACCORDO
100
AcDbLine
 62
253
  6
CONTINUOUS
 10
-4.0305069605
 20
-30.7302938943
 11
-4.5587741322
 21
-31.0013049529
  0
LINE
  5
4E7
100
AcDbEntity
  8
RACCORDO
100
AcDbLine
 62
7
  6
CONTINUOUS
 10
-4.094194998
 20
-30.8648577045
 11
-4.622879232
 21
-31.136082724
  0
LINE
  5
4E8
100
AcDbEntity
  8
RACCORDO
100
AcDbLine
 62
7
  6
CONTINUOUS
 10
-4.6246156466
 20
-31.1369509457
 11
-4.62287923
 21
-31.136082723
  0
LINE
  5
4E9
100
AcDbEntity
  8
RACCORDO
100
AcDbLine
 62
253
  6
CONTINUOUS
 10
-4.2159903834
 20
-29.1358885344
 11
-3.4981139605
 21
-28.7817247672
  0
LINE
  5
4EA
100
AcDbEntity
  8
RACCORDO
100
AcDbLine
 62
7
  6
CONTINUOUS
 10
-4.3506349769
 20
-29.4086635753
 11
-3.6289862282
 21
-29.0526387341
  0
LINE
  5
4EB
100
AcDbEntity
  8
RACCORDO
100
AcDbLine
 62
253
  6
CONTINUOUS
 10
-4.5587741322
 20
-31.0013049529
 11
-6.1600549231
 21
-31.7813395526
  0
LINE
  5
4EC
100
AcDbEntity
  8
RACCORDO
100
AcDbLine
 62
7
  6
CONTINUOUS
 10
-4.6246156458
 20
-31.1369509453
 11
-6.2263165156
 21
-31.9171901787
  0
LINE
  5
4ED
100
AcDbEntity
  8
RACCORDO
100
AcDbLine
 62
7
  6
CONTINUOUS
 10
-4.3506349769
 20
-29.4086635753
 11
-4.3610238394
 21
-29.4134013401
  0
LWPOLYLINE
  5
4EE
100
AcDbEntity
  8
RACCORDO
100
AcDbPolyline
 62
7
  6
CONTINUOUS
 90
18
 70
0
 10
-6.2263165156
 20
-31.9171901787
 10
-6.2385374754
 20
-31.9227425449
 10
-6.251166599
 20
-31.927676985
 10
-6.2641653983
 20
-31.931955614
 10
-6.2775106487
 20
-31.9355481879
 10
-6.291136378
 20
-31.9384164151
 10
-6.3049353369
 20
-31.940525887
 10
-6.3188343189
 20
-31.9418621351
 10
-6.3328037402
 20
-31.9424205227
 10
-6.3468045918
 20
-31.9421961698
 10
-6.360778056
 20
-31.9411875634
 10
-6.3746838113
 20
-31.939396096
 10
-6.3885172512
 20
-31.9368171037
 10
-6.4022853126
 20
-31.9334358415
 10
-6.4158863616
 20
-31.929263743
 10
-6.4291721921
 20
-31.9243472319
 10
-6.4421063475
 20
-31.9187104417
 10
-6.4476095912
 20
-31.9160422761
  0
LINE
  5
4EF
100
AcDbEntity
  8
RACCORDO
100
AcDbLine
 62
253
  6
CONTINUOUS
 10
-9.7136796558
 20
-31.4435951825
 11
-4.2159903834
 21
-29.1358885344
  0
LINE
  5
4F0
100
AcDbEntity
  8
RACCORDO
100
AcDbLine
 62
7
  6
CONTINUOUS
 10
-9.8674869013
 20
-31.7247908809
 11
-4.3610241737
 21
-29.4134014927
  0
LWPOLYLINE
  5
4F1
100
AcDbEntity
  8
RACCORDO
100
AcDbPolyline
 62
7
  6
CONTINUOUS
 90
5
 70
0
 10
8.8801391796
 20
27.484766767
 10
8.7971170067
 20
27.4712066355
 10
8.7157905839
 20
27.4507943389
 10
8.6366827983
 20
27.4237273082
 10
8.572684696
 20
27.3961907414
  0
LWPOLYLINE
  5
4F2
100
AcDbEntity
  8
ASSI
100
AcDbPolyline
 62
7
  6
CONTINUOUS
 90
5
 70
0
 10
8.8801391796
 20
27.484766767
 10
8.7971170067
 20
27.4712066355
 10
8.7157905839
 20
27.4507943389
 10
8.6366827983
 20
27.4237273082
 10
8.572684696
 20
27.3961907414
  0
LWPOLYLINE
  5
4F3
100
AcDbEntity
  8
RACCORDO
100
AcDbPolyline
 62
7
  6
CONTINUOUS
 90
4
 70
0
 10
9.1315591493
 20
27.4832035559
 10
9.0480240474
 20
27.4907684063
 10
8.9640281261
 20
27.4913018563
 10
8.8801391796
 20
27.484766767
  0
LWPOLYLINE
  5
4F4
100
AcDbEntity
  8
ASSI
100
AcDbPolyline
 62
7
  6
CONTINUOUS
 90
4
 70
0
 10
9.1315591493
 20
27.4832035559
 10
9.0480240474
 20
27.4907684063
 10
8.9640281261
 20
27.4913018563
 10
8.8801391796
 20
27.484766767
  0
LWPOLYLINE
  5
4F5
100
AcDbEntity
  8
RACCORDO
100
AcDbPolyline
 62
253
  6
CONTINUOUS
 90
9
 70
0
 10
9.4468946519
 20
27.3863648151
 10
9.4114156456
 20
27.4018730561
 10
9.3603356303
 20
27.4171759242
 10
9.306571435
 20
27.4255926847
 10
9.2505232009
 20
27.4270606957
 10
9.1926080682
 20
27.4215690316
 10
9.1332570719
 20
27.409158564
 10
9.0729119329
 20
27.3899216583
 10
9.0120217714
 20
27.3640014855
  0
LWPOLYLINE
  5
4F6
100
AcDbEntity
  8
ASSI
100
AcDbPolyline
 62
253
  6
CONTINUOUS
 90
9
 70
0
 10
9.4468946519
 20
27.3863648151
 10
9.4114156456
 20
27.4018730561
 10
9.3603356303
 20
27.4171759242
 10
9.306571435
 20
27.4255926847
 10
9.2505232009
 20
27.4270606957
 10
9.1926080682
 20
27.4215690316
 10
9.1332570719
 20
27.409158564
 10
9.0729119329
 20
27.3899216583
 10
9.0120217714
 20
27.3640014855
  0
LWPOLYLINE
  5
4F7
100
AcDbEntity
  8
RACCORDO
100
AcDbPolyline
 62
7
  6
CONTINUOUS
 90
5
 70
0
 10
9.4468946519
 20
27.3863648151
 10
9.3721720591
 20
27.4199731344
 10
9.2943068815
 20
27.4475501348
 10
9.2138942802
 20
27.468724548
 10
9.1315591493
 20
27.4832035559
  0
LWPOLYLINE
  5
4F8
100
AcDbEntity
  8
ASSI
100
AcDbPolyline
 62
7
  6
CONTINUOUS
 90
5
 70
0
 10
9.4468946519
 20
27.3863648151
 10
9.3721720591
 20
27.4199731344
 10
9.2943068815
 20
27.4475501348
 10
9.2138942802
 20
27.468724548
 10
9.1315591493
 20
27.4832035559
  0
LWPOLYLINE
  5
4F9
100
AcDbEntity
  8
RACCORDO
100
AcDbPolyline
 62
253
  6
CONTINUOUS
 90
9
 70
0
 10
9.0120217714
 20
27.3640014855
 10
8.9508032573
 20
27.3917057106
 10
8.8899566133
 20
27.4125643559
 10
8.8299447704
 20
27.4264187254
 10
8.7712243085
 20
27.4331634129
 10
8.7142419821
 20
27.4327471036
 10
8.659431322
 20
27.425172965
 10
8.6072093363
 20
27.4104986223
 10
8.5731370209
 20
27.3964044205
  0
LWPOLYLINE
  5
4FA
100
AcDbEntity
  8
ASSI
100
AcDbPolyline
 62
253
  6
CONTINUOUS
 90
9
 70
0
 10
9.0120217714
 20
27.3640014855
 10
8.9508032573
 20
27.3917057106
 10
8.8899566133
 20
27.4125643559
 10
8.8299447704
 20
27.4264187254
 10
8.7712243085
 20
27.4331634129
 10
8.7142419821
 20
27.4327471036
 10
8.659431322
 20
27.425172965
 10
8.6072093363
 20
27.4104986223
 10
8.5731370209
 20
27.3964044205
  0
LINE
  5
4FB
100
AcDbEntity
  8
DRAFT
100
AcDbLine
 62
7
  6
CONTINUOUS
 10
15.239366287
 20
23.2635899345
 11
14.9581997626
 21
23.4031706952
  0
LINE
  5
4FC
100
AcDbEntity
  8
ASSI
100
AcDbLine
 62
7
  6
CONTINUOUS
 10
15.239366287
 20
23.2635899345
 11
14.9581997626
 21
23.4031706952
  0
LINE
  5
4FD
100
AcDbEntity
  8
DRAFT
100
AcDbLine
 62
7
  6
CONTINUOUS
 10
11.7038323811
 20
25.0313568875
 11
11.4226658567
 21
25.1709376482
  0
LINE
  5
4FE
100
AcDbEntity
  8
ASSI
100
AcDbLine
 62
7
  6
CONTINUOUS
 10
11.7038323811
 20
25.0313568875
 11
11.4226658567
 21
25.1709376482
  0
LINE
  5
4FF
100
AcDbEntity
  8
ASSI
100
AcDbLine
 62
7
  6
CONTINUOUS
 10
10.9089011266
 20
24.9207322487
 11
11.1870711672
 21
24.7816472284
  0
LINE
  5
500
100
AcDbEntity
  8
ASSI
100
AcDbLine
 62
7
  6
CONTINUOUS
 10
14.4444350325
 20
23.1529652958
 11
14.7226050732
 21
23.0138802754
  0
LINE
  5
501
100
AcDbEntity
  8
DRAFT
100
AcDbLine
 62
7
  6
CONTINUOUS
 10
18.4181368676
 20
21.3234275967
 11
18.1393535439
 21
21.4628192586
  0
LINE
  5
502
100
AcDbEntity
  8
ASSI
100
AcDbLine
 62
7
  6
CONTINUOUS
 10
18.4181368676
 20
21.3234275967
 11
18.1393535439
 21
21.4628192586
  0
LINE
  5
503
100
AcDbEntity
  8
DRAFT
100
AcDbLine
 62
7
  6
CONTINUOUS
 10
19.4968980141
 20
21.8447071953
 11
19.2000137156
 21
21.9931493445
  0
LINE
  5
504
100
AcDbEntity
  8
ASSI
100
AcDbLine
 62
7
  6
CONTINUOUS
 10
19.4968980141
 20
21.8447071953
 11
19.2000137156
 21
21.9931493445
  0
LINE
  5
505
100
AcDbEntity
  8
DRAFT
100
AcDbLine
 62
7
  6
CONTINUOUS
 10
15.9613641082
 20
23.6124741482
 11
15.6644798097
 21
23.7609162975
  0
LINE
  5
506
100
AcDbEntity
  8
ASSI
100
AcDbLine
 62
7
  6
CONTINUOUS
 10
15.9613641082
 20
23.6124741482
 11
15.6644798097
 21
23.7609162975
  0
LINE
  5
507
100
AcDbEntity
  8
DRAFT
100
AcDbLine
 62
7
  6
CONTINUOUS
 10
12.4258302022
 20
25.3802411012
 11
12.1289459038
 21
25.5286832504
  0
LINE
  5
508
100
AcDbEntity
  8
ASSI
100
AcDbLine
 62
7
  6
CONTINUOUS
 10
12.4258302022
 20
25.3802411012
 11
12.1289459038
 21
25.5286832504
  0
LINE
  5
509
100
AcDbEntity
  8
RACCORDO
100
AcDbLine
 62
253
  6
CONTINUOUS
 10
9.0120217714
 20
27.3640014855
 11
11.2216087141
 21
26.2592080141
  0
LINE
  5
50A
100
AcDbEntity
  8
ASSI
100
AcDbLine
 62
253
  6
CONTINUOUS
 10
9.0120217714
 20
27.3640014855
 11
11.2216087141
 21
26.2592080141
  0
LINE
  5
50B
100
AcDbEntity
  8
RACCORDO
100
AcDbLine
 62
253
  6
CONTINUOUS
 10
21.9880658873
 20
20.8759794275
 11
19.7784789446
 21
21.9807728989
  0
LINE
  5
50C
100
AcDbEntity
  8
ASSI
100
AcDbLine
 62
253
  6
CONTINUOUS
 10
21.9880658873
 20
20.8759794275
 11
19.7784789446
 21
21.9807728989
  0
LINE
  5
50D
100
AcDbEntity
  8
RACCORDO
100
AcDbLine
 62
253
  6
CONTINUOUS
 10
18.2926765259
 20
22.7236741082
 11
16.2429450387
 21
23.7485398518
  0
LINE
  5
50E
100
AcDbEntity
  8
ASSI
100
AcDbLine
 62
253
  6
CONTINUOUS
 10
18.2926765259
 20
22.7236741082
 11
16.2429450387
 21
23.7485398518
  0
LINE
  5
50F
100
AcDbEntity
  8
RACCORDO
100
AcDbLine
 62
253
  6
CONTINUOUS
 10
14.75714262
 20
24.4914410612
 11
12.7074111328
 21
25.5163068048
  0
LINE
  5
510
100
AcDbEntity
  8
ASSI
100
AcDbLine
 62
253
  6
CONTINUOUS
 10
14.75714262
 20
24.4914410612
 11
12.7074111328
 21
25.5163068048
  0
LINE
  5
511
100
AcDbEntity
  8
RACCORDO
100
AcDbLine
 62
7
  6
CONTINUOUS
 10
9.4468946519
 20
27.3863648151
 11
11.6991596117
 21
26.2602323352
  0
LINE
  5
512
100
AcDbEntity
  8
ASSI
100
AcDbLine
 62
7
  6
CONTINUOUS
 10
9.4468946519
 20
27.3863648151
 11
11.6991596117
 21
26.2602323352
  0
LINE
  5
513
100
AcDbEntity
  8
RACCORDO
100
AcDbLine
 62
7
  6
CONTINUOUS
 10
22.4229387679
 20
20.8983427571
 11
20.1706738082
 21
22.024475237
  0
LINE
  5
514
100
AcDbEntity
  8
ASSI
100
AcDbLine
 62
7
  6
CONTINUOUS
 10
22.4229387679
 20
20.8983427571
 11
20.1706738082
 21
22.024475237
  0
LINE
  5
515
100
AcDbEntity
  8
RACCORDO
100
AcDbLine
 62
7
  6
CONTINUOUS
 10
18.7702274235
 20
22.7246984293
 11
16.6351399022
 21
23.79224219
  0
LINE
  5
516
100
AcDbEntity
  8
ASSI
100
AcDbLine
 62
7
  6
CONTINUOUS
 10
18.7702274235
 20
22.7246984293
 11
16.6351399022
 21
23.79224219
  0
LINE
  5
517
100
AcDbEntity
  8
RACCORDO
100
AcDbLine
 62
7
  6
CONTINUOUS
 10
15.2346935176
 20
24.4924653823
 11
13.0996059963
 21
25.5600091429
  0
LINE
  5
518
100
AcDbEntity
  8
ASSI
100
AcDbLine
 62
7
  6
CONTINUOUS
 10
15.2346935176
 20
24.4924653823
 11
13.0996059963
 21
25.5600091429
  0
LWPOLYLINE
  5
519
100
AcDbEntity
  8
RACCORDO
100
AcDbPolyline
 62
7
  6
CONTINUOUS
 90
8
 70
0
 10
22.4229387679
 20
20.8983427571
 10
22.5015348164
 20
20.8545174055
 10
22.5764253222
 20
20.8033896781
 10
22.6467575689
 20
20.7453435956
 10
22.7116162215
 20
20.681015517
 10
22.7704267425
 20
20.6109158654
 10
22.8228587895
 20
20.5352955006
 10
22.84082448
 20
20.5055161472
  0
LWPOLYLINE
  5
51A
100
AcDbEntity
  8
ASSI
100
AcDbPolyline
 62
7
  6
CONTINUOUS
 90
8
 70
0
 10
22.4229387679
 20
20.8983427571
 10
22.5015348164
 20
20.8545174055
 10
22.5764253222
 20
20.8033896781
 10
22.6467575689
 20
20.7453435956
 10
22.7116162215
 20
20.681015517
 10
22.7704267425
 20
20.6109158654
 10
22.8228587895
 20
20.5352955006
 10
22.84082448
 20
20.5055161472
  0
LINE
  5
51B
100
AcDbEntity
  8
ASSI
100
AcDbLine
 62
7
  6
CONTINUOUS
 10
17.0911830138
 20
20.9523561793
 11
17.2618099052
 21
20.7646665987
  0
LINE
  5
51C
100
AcDbEntity
  8
RACCORDO
100
AcDbLine
 62
253
  6
CONTINUOUS
 10
22.8494822142
 20
20.4865813224
 11
22.8537432031
 21
20.483234691
  0
LINE
  5
51D
100
AcDbEntity
  8
ASSI
100
AcDbLine
 62
253
  6
CONTINUOUS
 10
22.8494822142
 20
20.4865813224
 11
22.8537432031
 21
20.483234691
  0
LWPOLYLINE
  5
51E
100
AcDbEntity
  8
RACCORDO
100
AcDbPolyline
 62
253
  6
CONTINUOUS
 90
10
 70
0
 10
22.4879897349
 20
20.3724031682
 10
22.4429111549
 20
20.4463668121
 10
22.394278149
 20
20.516964216
 10
22.3424607249
 20
20.5836582636
 10
22.287853118
 20
20.6459415357
 10
22.2308707916
 20
20.7033401713
 10
22.1719472764
 20
20.7554174724
 10
22.111530872
 20
20.8017772265
 10
22.0500812361
 20
20.8420667212
 10
21.9880658873
 20
20.8759794275
  0
LWPOLYLINE
  5
51F
100
AcDbEntity
  8
ASSI
100
AcDbPolyline
 62
253
  6
CONTINUOUS
 90
10
 70
0
 10
22.4879897349
 20
20.3724031682
 10
22.4429111549
 20
20.4463668121
 10
22.394278149
 20
20.516964216
 10
22.3424607249
 20
20.5836582636
 10
22.287853118
 20
20.6459415357
 10
22.2308707916
 20
20.7033401713
 10
22.1719472764
 20
20.7554174724
 10
22.111530872
 20
20.8017772265
 10
22.0500812361
 20
20.8420667212
 10
21.9880658873
 20
20.8759794275
  0
LINE
  5
520
100
AcDbEntity
  8
RACCORDO
100
AcDbLine
 62
253
  6
CONTINUOUS
 10
22.5008999544
 20
20.3501363333
 11
22.4879897349
 21
20.3724031682
  0
LINE
  5
521
100
AcDbEntity
  8
ASSI
100
AcDbLine
 62
253
  6
CONTINUOUS
 10
22.5008999544
 20
20.3501363333
 11
22.4879897349
 21
20.3724031682
  0
LINE
  5
522
100
AcDbEntity
  8
RACCORDO
100
AcDbLine
 62
7
  6
CONTINUOUS
 10
22.8537432031
 20
20.483234691
 11
22.8408329837
 21
20.5055015257
  0
LINE
  5
523
100
AcDbEntity
  8
ASSI
100
AcDbLine
 62
7
  6
CONTINUOUS
 10
22.8537432031
 20
20.483234691
 11
22.8408329837
 21
20.5055015257
  0
LINE
  5
524
100
AcDbEntity
  8
RACCORDO
100
AcDbLine
 62
7
  6
CONTINUOUS
 10
22.8916117366
 20
20.4156126401
 11
22.8537415391
 21
20.4832253133
  0
LINE
  5
525
100
AcDbEntity
  8
ASSI
100
AcDbLine
 62
7
  6
CONTINUOUS
 10
22.8915893013
 20
20.4156541149
 11
22.8537415398
 21
20.4832253119
  0
ELLIPSE
  5
526
100
AcDbEntity
  8
ASSI
100
AcDbEllipse
 62
7
  6
CONTINUOUS
 10
-9.8665766284
 20
18.0976135268
 30
0.0
 11
0.2257019663
 21
0.4461636818
 31
0.0
 40
0.6159267166
 41
0.5380090616
 42
0.6817883054
  0
ELLIPSE
  5
527
100
AcDbEntity
  8
RACCORDO
100
AcDbEllipse
 62
7
  6
CONTINUOUS
 10
0.6979288983
 20
12.9753711157
 30
0.0
 11
0.499996712
 21
0.0035883639
 31
0.0
 40
0.5053247124
 41
-0.7715714568
 42
-0.0036265884
  0
ELLIPSE
  5
528
100
AcDbEntity
  8
RACCORDO
100
AcDbEllipse
 62
7
  6
CONTINUOUS
 10
-3.8517212071
 20
9.3117772367
 30
0.0
 11
-0.2237046003
 21
0.4472532382
 31
0.0
 40
0.6122950388
 41
-2.2557482655
 42
-0.6847996396
  0
ELLIPSE
  5
529
100
AcDbEntity
  8
RACCORDO
100
AcDbEllipse
 62
7
  6
CONTINUOUS
 10
-3.8517212071
 20
-28.6049870938
 30
0.0
 11
-0.2236445579
 21
0.4471998343
 31
0.0
 40
0.6124778111
 41
-3.144909013
 42
-2.255529033
  0
ELLIPSE
  5
52A
100
AcDbEntity
  8
RACCORDO
100
AcDbEllipse
 62
7
  6
CONTINUOUS
 10
0.8769726042
 20
-24.1043245756
 30
0.0
 11
0.9987332359
 21
0.6172510855
 31
0.0
 40
0.0815198604
 41
-2.3978073241
 42
-1.2985018509
  0
ELLIPSE
  5
52B
100
AcDbEntity
  8
RACCORDO
100
AcDbEllipse
 62
7
  6
CONTINUOUS
 10
-10.9137596842
 20
18.7057091128
 30
0.0
 11
0.9987332359
 21
0.6172510855
 31
0.0
 40
0.0815198604
 41
0.0503395054
 42
0.7263320369
  0
ELLIPSE
  5
52C
100
AcDbEntity
  8
RACCORDO
100
AcDbEllipse
 62
7
  6
CONTINUOUS
 10
-15.1986682923
 20
15.5750938581
 30
0.0
 11
0.4999985559
 21
0.0023864752
 31
0.0
 40
0.5035541159
 41
2.3596088132
 42
3.0002042076
  0
ELLIPSE
  5
52D
100
AcDbEntity
  8
ASSI
100
AcDbEllipse
 62
7
  6
CONTINUOUS
 10
-3.7057443576
 20
15.0171973914
 30
0.0
 11
0.221538876
 21
0.4482453432
 31
0.0
 40
0.6088015717
 41
0.5323082896
 42
0.6760875334
  0
ELLIPSE
  5
52E
100
AcDbEntity
  8
RACCORDO
100
AcDbEllipse
 62
7
  6
CONTINUOUS
 10
0.8769726042
 20
12.8103429686
 30
0.0
 11
-0.7417913999
 21
1.2002436976
 31
0.0
 40
0.5587454355
 41
5.1248137075
 42
6.2241191807
  0
ELLIPSE
  5
52F
100
AcDbEntity
  8
RACCORDO
100
AcDbEllipse
 62
7
  6
CONTINUOUS
 10
0.6979288983
 20
-24.3135448945
 30
0.0
 11
0.499366618
 21
0.3086255427
 31
0.0
 40
0.0815198604
 41
6.1080157147
 42
7.0007906979
  0
ELLIPSE
  5
530
100
AcDbEntity
  8
DRAFT
100
AcDbEllipse
 62
7
  6
CONTINUOUS
 10
-9.5127217974
 20
17.1727643498
 30
0.0
 11
0.4279673669
 21
-0.0030279657
 31
0.0
 40
0.4946372042
 41
-0.7818985079
 42
0.0034996501
  0
ELLIPSE
  5
531
100
AcDbEntity
  8
DRAFT
100
AcDbEllipse
 62
7
  6
CONTINUOUS
 10
-3.9577333682
 20
14.3952701352
 30
0.0
 11
0.4279673669
 21
-0.0030279657
 31
0.0
 40
0.4946372042
 41
-0.7760807437
 42
0.0034996507
  0
ELLIPSE
  5
532
100
AcDbEntity
  8
RACCORDO
100
AcDbEllipse
 62
7
  6
CONTINUOUS
 10
0.6979288983
 20
13.9057137746
 30
0.0
 11
-0.3708957
 21
0.6001218488
 31
0.0
 40
0.5587454355
 41
-3.1744788413
 42
-2.2817038581
  0
ELLIPSE
  5
533
100
AcDbEntity
  8
RACCORDO
100
AcDbEllipse
 62
7
  6
CONTINUOUS
 10
-15.1986682923
 20
14.3424842529
 30
0.0
 11
0.4998587701
 21
0.0223649649
 31
0.0
 40
0.5313301283
 41
3.1178240551
 42
3.9032222197
  0
ELLIPSE
  5
534
100
AcDbEntity
  8
RACCORDO
100
AcDbEllipse
 62
7
  6
CONTINUOUS
 10
-9.6873611926
 20
11.5868307031
 30
0.0
 11
0.4998587701
 21
0.0223649649
 31
0.0
 40
0.5313301283
 41
-2.3799630874
 42
-0.8149845248
  0
ELLIPSE
  5
535
100
AcDbEntity
  8
RACCORDO
100
AcDbEllipse
 62
7
  6
CONTINUOUS
 10
-9.6873611926
 20
12.8194403083
 30
0.0
 11
0.4999985559
 21
0.0023864752
 31
0.0
 40
0.5035541159
 41
-1.4342147631
 42
-0.7936193687
  0
ELLIPSE
  5
536
100
AcDbEntity
  8
RACCORDO
100
AcDbEllipse
 62
7
  6
CONTINUOUS
 10
-20.3221100774
 20
16.3398352084
 30
0.0
 11
0.249929385
 21
0.0111824824
 31
0.0
 40
0.5313301283
 41
3.1178240624
 42
3.9032222197
  0
ELLIPSE
  5
537
100
AcDbEntity
  8
RACCORDO
100
AcDbEllipse
 62
7
  6
CONTINUOUS
 10
-18.9888977437
 20
15.6732290416
 30
0.0
 11
0.249929385
 21
0.0111824824
 31
0.0
 40
0.5313301283
 41
-2.3799630874
 42
-0.8149845248
  0
ELLIPSE
  5
538
100
AcDbEntity
  8
RACCORDO
100
AcDbEllipse
 62
7
  6
CONTINUOUS
 10
-5.6245795793
 20
8.9910699594
 30
0.0
 11
0.249929385
 21
0.0111824824
 31
0.0
 40
0.5313301283
 41
-2.3799630874
 42
-1.3352760237
  0
ELLIPSE
  5
539
100
AcDbEntity
  8
RACCORDO
100
AcDbEllipse
 62
7
  6
CONTINUOUS
 10
-6.957791913
 20
9.6576761262
 30
0.0
 11
0.249929385
 21
0.0111824824
 31
0.0
 40
0.5313301283
 41
3.1178240563
 42
3.9032222197
  0
ELLIPSE
  5
53A
100
AcDbEntity
  8
RACCORDO
100
AcDbEllipse
 62
7
  6
CONTINUOUS
 10
22.1957106297
 20
19.0173132519
 30
0.0
 11
0.9999583873
 21
0.0185182689
 31
0.0
 40
0.4926324725
 41
-0.777067698
 42
-0.0091228271
  0
ELLIPSE
  5
53B
100
AcDbEntity
  8
RACCORDO
100
AcDbEllipse
 62
7
  6
CONTINUOUS
 10
22.1957106297
 20
14.687186233
 30
0.0
 11
0.9999583873
 21
0.0185182689
 31
0.0
 40
0.4926324725
 41
-0.777067698
 42
-0.0091228271
  0
ELLIPSE
  5
53C
100
AcDbEntity
  8
RACCORDO
100
AcDbEllipse
 62
7
  6
CONTINUOUS
 10
22.1957106297
 20
10.357059214
 30
0.0
 11
0.9999583873
 21
0.0185182689
 31
0.0
 40
0.4926324725
 41
-0.777067698
 42
-0.0091228271
  0
ELLIPSE
  5
53D
100
AcDbEntity
  8
RACCORDO
100
AcDbEllipse
 62
7
  6
CONTINUOUS
 10
22.1957106297
 20
4.8461360154
 30
0.0
 11
0.9981999775
 21
0.1839353155
 31
0.0
 40
0.3260568428
 41
-0.8279542495
 42
-0.0600093786
  0
ELLIPSE
  5
53E
100
AcDbEntity
  8
RACCORDO
100
AcDbEllipse
 62
7
  6
CONTINUOUS
 10
22.1957106297
 20
0.5160089964
 30
0.0
 11
0.9981999775
 21
0.1839353155
 31
0.0
 40
0.3260568428
 41
-0.8279542495
 42
-0.0600093786
  0
ELLIPSE
  5
53F
100
AcDbEntity
  8
RACCORDO
100
AcDbEllipse
 62
7
  6
CONTINUOUS
 10
22.1957106297
 20
-3.8141180225
 30
0.0
 11
0.9981999775
 21
0.1839353155
 31
0.0
 40
0.3260568428
 41
-0.8279542495
 42
-0.0600093786
  0
ELLIPSE
  5
540
100
AcDbEntity
  8
RACCORDO
100
AcDbEllipse
 62
7
  6
CONTINUOUS
 10
22.1957106297
 20
-8.1442450414
 30
0.0
 11
0.9981999775
 21
0.1839353155
 31
0.0
 40
0.3260568428
 41
-0.8279542495
 42
-0.0600093786
  0
ELLIPSE
  5
541
100
AcDbEntity
  8
DRAFT
100
AcDbEllipse
 62
7
  6
CONTINUOUS
 10
19.2901513538
 20
14.9659422707
 30
0.0
 11
0.9134242373
 21
1.8910797574
 31
0.0
 40
0.6016116119
 41
0.6764898932
 42
1.7252144339
  0
ELLIPSE
  5
542
100
AcDbEntity
  8
DRAFT
100
AcDbEllipse
 62
7
  6
CONTINUOUS
 10
19.2901513538
 20
10.6358152518
 30
0.0
 11
0.9134242373
 21
1.8910797574
 31
0.0
 40
0.6016116119
 41
0.6764898932
 42
1.7252144339
  0
ELLIPSE
  5
543
100
AcDbEntity
  8
DRAFT
100
AcDbEllipse
 62
7
  6
CONTINUOUS
 10
19.2901513538
 20
6.3056882329
 30
0.0
 11
0.9134242373
 21
1.8910797574
 31
0.0
 40
0.6016116119
 41
0.6764898932
 42
1.7252144339
  0
ELLIPSE
  5
544
100
AcDbEntity
  8
RACCORDO
100
AcDbEllipse
 62
7
  6
CONTINUOUS
 10
12.5056305838
 20
24.7389628604
 30
0.0
 11
0.6326681553
 21
0.7964311705
 31
0.0
 40
0.4624115311
 41
0.0971206469
 42
0.7643865656
  0
ELLIPSE
  5
545
100
AcDbEntity
  8
RACCORDO
100
AcDbEllipse
 62
7
  6
CONTINUOUS
 10
16.0411644898
 20
22.9711959074
 30
0.0
 11
0.6326681553
 21
0.7964311705
 31
0.0
 40
0.4624115311
 41
0.0971206469
 42
0.7643865656
  0
ELLIPSE
  5
546
100
AcDbEntity
  8
RACCORDO
100
AcDbEllipse
 62
7
  6
CONTINUOUS
 10
19.5766983957
 20
21.2034289545
 30
0.0
 11
0.6326681553
 21
0.7964311705
 31
0.0
 40
0.4624115311
 41
0.0971206469
 42
0.7643865656
  0
ELLIPSE
  5
547
100
AcDbEntity
  8
RACCORDO
100
AcDbEllipse
 62
7
  6
CONTINUOUS
 10
11.3987078331
 20
25.2924242358
 30
0.0
 11
0.1329812707
 21
1.0194318102
 31
0.0
 40
0.7061493168
 41
5.1568583673
 42
6.7102014016
  0
ELLIPSE
  5
548
100
AcDbEntity
  8
RACCORDO
100
AcDbEllipse
 62
7
  6
CONTINUOUS
 10
14.9342417391
 20
23.5246572828
 30
0.0
 11
0.1329812707
 21
1.0194318102
 31
0.0
 40
0.7061493168
 41
5.1568583673
 42
6.7102014016
  0
ELLIPSE
  5
549
100
AcDbEntity
  8
RACCORDO
100
AcDbEllipse
 62
7
  6
CONTINUOUS
 10
18.469775645
 20
21.7568903298
 30
0.0
 11
0.1329812707
 21
1.0194318102
 31
0.0
 40
0.7061493168
 41
5.1568583673
 42
6.7102014016
  0
ELLIPSE
  5
54A
100
AcDbEntity
  8
DRAFT
100
AcDbEllipse
 62
7
  6
CONTINUOUS
 10
19.2901513538
 20
14.9659422707
 30
0.0
 11
0.9134242373
 21
1.8910797574
 31
0.0
 40
0.6016116119
 41
2.7693580062
 42
3.8180825468
  0
ELLIPSE
  5
54B
100
AcDbEntity
  8
DRAFT
100
AcDbEllipse
 62
7
  6
CONTINUOUS
 10
19.2901513538
 20
10.6358152518
 30
0.0
 11
0.9134242373
 21
1.8910797574
 31
0.0
 40
0.6016116119
 41
2.7693580062
 42
3.8180825468
  0
ELLIPSE
  5
54C
100
AcDbEntity
  8
DRAFT
100
AcDbEllipse
 62
7
  6
CONTINUOUS
 10
19.2901513538
 20
6.3056882329
 30
0.0
 11
0.9134242373
 21
1.8910797574
 31
0.0
 40
0.6016116119
 41
2.7693580062
 42
3.8180825468
  0
ELLIPSE
  5
54D
100
AcDbEntity
  8
RACCORDO
100
AcDbEllipse
 62
7
  6
CONTINUOUS
 10
22.1957106297
 20
6.7026685001
 30
0.0
 11
0.9999541714
 21
-0.0188790458
 31
0.0
 40
0.5071053267
 41
-0.7583710599
 42
0.7815267739
  0
ELLIPSE
  5
54E
100
AcDbEntity
  8
RACCORDO
100
AcDbEllipse
 62
7
  6
CONTINUOUS
 10
22.1957106297
 20
11.032795519
 30
0.0
 11
0.9999541714
 21
-0.0188790458
 31
0.0
 40
0.5071053267
 41
-0.7583710599
 42
0.7815267739
  0
ELLIPSE
  5
54F
100
AcDbEntity
  8
RACCORDO
100
AcDbEllipse
 62
7
  6
CONTINUOUS
 10
22.1957106297
 20
15.3629225379
 30
0.0
 11
0.9999541714
 21
-0.0188790458
 31
0.0
 40
0.5071053267
 41
-0.7583710599
 42
0.7815267739
  0
ELLIPSE
  5
550
100
AcDbEntity
  8
RACCORDO
100
AcDbEllipse
 62
7
  6
CONTINUOUS
 10
22.1957106297
 20
3.5533376609
 30
0.0
 11
0.9841913157
 21
-0.2791058438
 31
0.0
 40
0.6345570966
 41
-0.5898970505
 42
0.9500007834
  0
ELLIPSE
  5
551
100
AcDbEntity
  8
RACCORDO
100
AcDbEllipse
 62
7
  6
CONTINUOUS
 10
22.1957106297
 20
-0.776789358
 30
0.0
 11
0.9841913157
 21
-0.2791058438
 31
0.0
 40
0.6345570966
 41
-0.5898970505
 42
0.9500007834
  0
ELLIPSE
  5
552
100
AcDbEntity
  8
RACCORDO
100
AcDbEllipse
 62
7
  6
CONTINUOUS
 10
22.1957106297
 20
-5.1069163769
 30
0.0
 11
0.9841913157
 21
-0.2791058438
 31
0.0
 40
0.6345570966
 41
-0.5898970505
 42
0.9500007834
  0
ELLIPSE
  5
553
100
AcDbEntity
  8
RACCORDO
100
AcDbEllipse
 62
7
  6
CONTINUOUS
 10
22.1957106297
 20
-9.4370433959
 30
0.0
 11
0.9841913157
 21
-0.2791058438
 31
0.0
 40
0.6345570966
 41
-0.5898970505
 42
0.9500007834
  0
ELLIPSE
  5
554
100
AcDbEntity
  8
ASSI
100
AcDbEllipse
 62
7
  6
CONTINUOUS
 10
22.1957106297
 20
19.0173132519
 30
0.0
 11
0.9999583873
 21
0.0185182689
 31
0.0
 40
0.4926324725
 41
-0.777067698
 42
-0.0091228271
  0
ELLIPSE
  5
555
100
AcDbEntity
  8
ASSI
100
AcDbEllipse
 62
7
  6
CONTINUOUS
 10
22.1957106297
 20
14.687186233
 30
0.0
 11
0.9999583873
 21
0.0185182689
 31
0.0
 40
0.4926324725
 41
-0.777067698
 42
-0.0091228271
  0
ELLIPSE
  5
556
100
AcDbEntity
  8
ASSI
100
AcDbEllipse
 62
7
  6
CONTINUOUS
 10
22.1957106297
 20
10.357059214
 30
0.0
 11
0.9999583873
 21
0.0185182689
 31
0.0
 40
0.4926324725
 41
-0.777067698
 42
-0.0091228271
  0
ELLIPSE
  5
557
100
AcDbEntity
  8
ASSI
100
AcDbEllipse
 62
7
  6
CONTINUOUS
 10
22.1957106297
 20
4.8461360154
 30
0.0
 11
0.9981999775
 21
0.1839353155
 31
0.0
 40
0.3260568428
 41
-0.8279542495
 42
-0.0600093786
  0
ELLIPSE
  5
558
100
AcDbEntity
  8
ASSI
100
AcDbEllipse
 62
7
  6
CONTINUOUS
 10
22.1957106297
 20
0.5160089964
 30
0.0
 11
0.9981999775
 21
0.1839353155
 31
0.0
 40
0.3260568428
 41
-0.8279542495
 42
-0.0600093786
  0
ELLIPSE
  5
559
100
AcDbEntity
  8
ASSI
100
AcDbEllipse
 62
7
  6
CONTINUOUS
 10
22.1957106297
 20
-3.8141180225
 30
0.0
 11
0.9981999775
 21
0.1839353155
 31
0.0
 40
0.3260568428
 41
-0.8279542495
 42
-0.0600093786
  0
ELLIPSE
  5
55A
100
AcDbEntity
  8
ASSI
100
AcDbEllipse
 62
7
  6
CONTINUOUS
 10
22.1957106297
 20
-8.1442450414
 30
0.0
 11
0.9981999775
 21
0.1839353155
 31
0.0
 40
0.3260568428
 41
-0.8279542495
 42
-0.0600093786
  0
ELLIPSE
  5
55B
100
AcDbEntity
  8
ASSI
100
AcDbEllipse
 62
7
  6
CONTINUOUS
 10
19.2901513538
 20
14.9659422707
 30
0.0
 11
0.9134242373
 21
1.8910797574
 31
0.0
 40
0.6016116119
 41
0.6764898932
 42
1.7252144339
  0
ELLIPSE
  5
55C
100
AcDbEntity
  8
ASSI
100
AcDbEllipse
 62
7
  6
CONTINUOUS
 10
19.2901513538
 20
10.6358152518
 30
0.0
 11
0.9134242373
 21
1.8910797574
 31
0.0
 40
0.6016116119
 41
0.6764898932
 42
1.7252144339
  0
ELLIPSE
  5
55D
100
AcDbEntity
  8
ASSI
100
AcDbEllipse
 62
7
  6
CONTINUOUS
 10
19.2901513538
 20
6.3056882329
 30
0.0
 11
0.9134242373
 21
1.8910797574
 31
0.0
 40
0.6016116119
 41
0.6764898932
 42
1.7252144339
  0
ELLIPSE
  5
55E
100
AcDbEntity
  8
ASSI
100
AcDbEllipse
 62
7
  6
CONTINUOUS
 10
12.5056305838
 20
24.7389628604
 30
0.0
 11
0.6326681553
 21
0.7964311705
 31
0.0
 40
0.4624115311
 41
0.0971206469
 42
0.7643865656
  0
ELLIPSE
  5
55F
100
AcDbEntity
  8
ASSI
100
AcDbEllipse
 62
7
  6
CONTINUOUS
 10
16.0411644898
 20
22.9711959074
 30
0.0
 11
0.6326681553
 21
0.7964311705
 31
0.0
 40
0.4624115311
 41
0.0971206469
 42
0.7643865656
  0
ELLIPSE
  5
560
100
AcDbEntity
  8
ASSI
100
AcDbEllipse
 62
7
  6
CONTINUOUS
 10
19.5766983957
 20
21.2034289545
 30
0.0
 11
0.6326681553
 21
0.7964311705
 31
0.0
 40
0.4624115311
 41
0.0971206469
 42
0.7643865656
  0
ELLIPSE
  5
561
100
AcDbEntity
  8
ASSI
100
AcDbEllipse
 62
7
  6
CONTINUOUS
 10
18.469775645
 20
21.7568903298
 30
0.0
 11
0.1329812707
 21
1.0194318102
 31
0.0
 40
0.7061493168
 41
5.1568583673
 42
6.7102014016
  0
ELLIPSE
  5
562
100
AcDbEntity
  8
ASSI
100
AcDbEllipse
 62
7
  6
CONTINUOUS
 10
11.3987078331
 20
25.2924242358
 30
0.0
 11
0.1329812707
 21
1.0194318102
 31
0.0
 40
0.7061493168
 41
5.1568583673
 42
6.7102014016
  0
ELLIPSE
  5
563
100
AcDbEntity
  8
ASSI
100
AcDbEllipse
 62
7
  6
CONTINUOUS
 10
19.2901513538
 20
14.9659422707
 30
0.0
 11
0.9134242373
 21
1.8910797574
 31
0.0
 40
0.6016116119
 41
2.7693580062
 42
3.8180825468
  0
ELLIPSE
  5
564
100
AcDbEntity
  8
ASSI
100
AcDbEllipse
 62
7
  6
CONTINUOUS
 10
19.2901513538
 20
10.6358152518
 30
0.0
 11
0.9134242373
 21
1.8910797574
 31
0.0
 40
0.6016116119
 41
2.7693580062
 42
3.8180825468
  0
ELLIPSE
  5
565
100
AcDbEntity
  8
ASSI
100
AcDbEllipse
 62
7
  6
CONTINUOUS
 10
19.2901513538
 20
6.3056882329
 30
0.0
 11
0.9134242373
 21
1.8910797574
 31
0.0
 40
0.6016116119
 41
2.7693580062
 42
3.8180825468
  0
ELLIPSE
  5
566
100
AcDbEntity
  8
ASSI
100
AcDbEllipse
 62
7
  6
CONTINUOUS
 10
22.1957106297
 20
6.7026685001
 30
0.0
 11
0.9999541714
 21
-0.0188790458
 31
0.0
 40
0.5071053267
 41
-0.7583710599
 42
0.7815267739
  0
ELLIPSE
  5
567
100
AcDbEntity
  8
ASSI
100
AcDbEllipse
 62
7
  6
CONTINUOUS
 10
22.1957106297
 20
11.032795519
 30
0.0
 11
0.9999541714
 21
-0.0188790458
 31
0.0
 40
0.5071053267
 41
-0.7583710599
 42
0.7815267739
  0
ELLIPSE
  5
568
100
AcDbEntity
  8
ASSI
100
AcDbEllipse
 62
7
  6
CONTINUOUS
 10
22.1957106297
 20
15.3629225379
 30
0.0
 11
0.9999541714
 21
-0.0188790458
 31
0.0
 40
0.5071053267
 41
-0.7583710599
 42
0.7815267739
  0
ELLIPSE
  5
569
100
AcDbEntity
  8
ASSI
100
AcDbEllipse
 62
7
  6
CONTINUOUS
 10
14.9342417391
 20
23.5246572828
 30
0.0
 11
0.1329812707
 21
1.0194318102
 31
0.0
 40
0.7061493168
 41
5.1568583673
 42
6.7102014016
  0
ELLIPSE
  5
56A
100
AcDbEntity
  8
ASSI
100
AcDbEllipse
 62
7
  6
CONTINUOUS
 10
22.1957106297
 20
3.5533376609
 30
0.0
 11
0.9841913157
 21
-0.2791058438
 31
0.0
 40
0.6345570966
 41
-0.5898970505
 42
0.9500007834
  0
ELLIPSE
  5
56B
100
AcDbEntity
  8
ASSI
100
AcDbEllipse
 62
7
  6
CONTINUOUS
 10
22.1957106297
 20
-0.776789358
 30
0.0
 11
0.9841913157
 21
-0.2791058438
 31
0.0
 40
0.6345570966
 41
-0.5898970505
 42
0.9500007834
  0
ELLIPSE
  5
56C
100
AcDbEntity
  8
ASSI
100
AcDbEllipse
 62
7
  6
CONTINUOUS
 10
22.1957106297
 20
-5.1069163769
 30
0.0
 11
0.9841913157
 21
-0.2791058438
 31
0.0
 40
0.6345570966
 41
-0.5898970505
 42
0.9500007834
  0
ELLIPSE
  5
56D
100
AcDbEntity
  8
ASSI
100
AcDbEllipse
 62
7
  6
CONTINUOUS
 10
22.1957106297
 20
-9.4370433959
 30
0.0
 11
0.9841913157
 21
-0.2791058438
 31
0.0
 40
0.6345570966
 41
-0.5898970505
 42
0.9500007834
  0
ENDSEC
  0
SECTION
  2
OBJECTS
  0
DICTIONARY
  5
C
100
AcDbDictionary
280
0
281
1
  3
ACAD_GROUP
350
D
  3
ACAD_MLINESTYLE
350
17
  3
ACAD_LAYOUT
350
1A
  3
ACAD_PLOTSETTINGS
350
19
  3
ACAD_PLOTSTYLENAME
350
E
  0
DICTIONARY
  5
D
102
{ACAD_REACTORS
330
C
102
}
100
AcDbDictionary
280
0
281
1
  0
ACDBDICTIONARYWDFLT
  5
E
102
{ACAD_REACTORS
330
C
102
}
100
AcDbDictionary
281
1
  3
Normal
350
F
100
AcDbDictionaryWithDefault
340
F
  0
DICTIONARY
  5
17
102
{ACAD_REACTORS
330
C
102
}
100
AcDbDictionary
280
0
281
1
  3
Standard
350
18
  0
DICTIONARY
  5
19
102
{ACAD_REACTORS
330
C
102
}
100
AcDbDictionary
281
1
  0
DICTIONARY
  5
1A
102
{ACAD_REACTORS
330
C
102
}
100
AcDbDictionary
281
1
  3
Model
350
56E
  3
Layout1
350
56F
  0
ACDBPLACEHOLDER
  5
F
102
{ACAD_REACTORS
330
E
102
}
  0
MLINESTYLE
  5
18
102
{ACAD_REACTORS
330
17
102
}
100
AcDbMlineStyle
  2
STANDARD
 70
0
  3

 62
256
 51
90.0
 52
90.0
 71
2
 49
0.5
 62
256
  6
BYLAYER
 49
-0.5
 62
256
  6
BYLAYER
  0
LAYOUT
  5
56E
102
{ACAD_REACTORS
330
1A
102
}
100
AcDbPlotSettings
  1

  2
none_device
  4
ANSI_A_(11.00_x_8.50_Inches)
  6

 40
0.0
 41
0.0
 42
0.0
 43
0.0
 44
279.4
 45
215.9
 46
0.0
 47
0.0
 48
0.0
 49
0.0
140
0.0
141
0.0
142
1.0
143
1.0
 70
1024
 72
1
 73
0
 74
0
  7

 75
0
147
1.0
148
0.0
149
0.0
100
AcDbLayout
  1
Model
 70
0
 71
0
 10
0.0
 20
0.0
 11
279.4
 21
215.9
 12
0.0
 22
0.0
 32
0.0
 14
0.0
 24
0.0
 34
0.0
 15
0.0
 25
0.0
 35
0.0
146
0.0
 13
0.0
 23
0.0
 33
0.0
 16
1.0
 26
0.0
 36
0.0
 17
0.0
 27
1.0
 37
0.0
 76
0
330
215
345
0
346
0
  0
LAYOUT
  5
56F
102
{ACAD_REACTORS
330
1A
102
}
100
AcDbPlotSettings
  1

  2
none_device
  4
ANSI_A_(11.00_x_8.50_Inches)
  6

 40
0.0
 41
0.0
 42
0.0
 43
0.0
 44
279.4
 45
215.9
 46
0.0
 47
0.0
 48
0.0
 49
0.0
140
0.0
141
0.0
142
1.0
143
1.0
 70
0
 72
1
 73
0
 74
0
  7

 75
0
147
1.0
148
0.0
149
0.0
100
AcDbLayout
  1
Layout1
 70
0
 71
1
 10
0.0
 20
0.0
 11
279.4
 21
215.9
 12
0.0
 22
0.0
 32
0.0
 14
0.0
 24
0.0
 34
0.0
 15
0.0
 25
0.0
 35
0.0
146
0.0
 13
0.0
 23
0.0
 33
0.0
 16
1.0
 26
0.0
 36
0.0
 17
0.0
 27
1.0
 37
0.0
 76
0
330
216
345
0
346
0
  0
ENDSEC
  0
EOF
