  0
SECTION
  2
HEADER
  9
$ACADVER
  1
AC1024
  9
$DWGCODEPAGE
  3
ANSI_1252
  9
$EXTMAX
 10
297.0
 20
210.0
 30
0.0
  9
$EXTMIN
 10
0.0
 20
0.0
 30
0.0
  9
$LIMMIN
 10
0.0
 20
0.0
  9
$LIMMAX
 10
297.0
 20
210.0
  9
$VIEWCTR
 10
148.5
 20
105.0
  9
$VIEWSIZE
 40
210.0
  9
$CLAYER
  8
0
  9
$LTSCALE
 40
16.335
  9
$CELTYPE
  6
BYLAYER
  9
$DIMSCALE
 40
1.0
  9
$DIMASZ
 40
3.0
  9
$DIMEXO
 40
0.5
  9
$DIMDLI
 40
11.286
  9
$DIMEXE
 40
1.5
  9
$DIMCEN
 40
2.673
  9
$DIMLFAC
 40
1.0
  9
$DIMBLK
  1
_FILLED
  9
$DIMALT
 70
0
  9
$DIMALTF
 40
0.0393700787
  9
$DIMTXT
 40
3.0
  9
$DIMTOL
 70
1
  9
$DIMLIM
 70
0
  9
$DIMTFAC
 40
1.0
  9
$DIMTP
 40
0.01
  9
$DIMTM
 40
0.01
  9
$DIMGAP
 40
0.625
  9
$DIMDSEP
 70
44
  9
$AUNITS
 70
0
  9
$PDMODE
 70
3
  9
$PDSIZE
 40
3.0
  9
$HANDSEED
  5
586
  9
$TILEMODE
 70
1
  9
$MEASUREMENT
 70
1
  9
$INSUNITS
 70
4
  0
ENDSEC
  0
SECTION
  2
CLASSES
  0
CLASS
  1
ACDBDICTIONARYWDFLT
  2
AcDbDictionaryWithDefault
  3
AutoCAD 2000
 90
0
 91
1
280
0
281
0
  0
CLASS
  1
ACDBPLACEHOLDER
  2
AcDbPlaceHolder
  3
AutoCAD 2000
 90
0
 91
1
280
0
281
0
  0
CLASS
  1
LAYOUT
  2
AcDbLayout
  3
AutoCAD 2000
 90
0
 91
0
280
0
281
0
  0
ENDSEC
  0
SECTION
  2
TABLES
  0
TABLE
  2
VPORT
  5
8
100
AcDbSymbolTable
 70
2
  0
VPORT
  5
1F4
100
AcDbSymbolTableRecord
100
AcDbViewportTableRecord
  2
*ACTIVE
 70
0
 10
0.0
 20
0.0
 11
1.0
 21
1.0
 12
148.5
 22
105.0
 13
0.0
 23
0.0
 14
1.0
 24
1.0
 15
0.0
 25
0.0
 16
0.0
 26
0.0
 36
1.0
 17
0.0
 27
0.0
 37
0.0
 40
210.0
 41
1.4142857143
 42
50.0
 43
0.0
 44
0.0
 50
0.0
 51
0.0
 71
0
 72
100
 73
1
 74
1
 75
0
 76
0
 77
0
 78
0
  0
ENDTAB
  0
TABLE
  2
LTYPE
  5
5
100
AcDbSymbolTable
 70
6
  0
LTYPE
  5
14
100
AcDbSymbolTableRecord
100
AcDbLinetypeTableRecord
  2
BYBLOCK
 70
0
  3

 72
65
 73
0
 40
0.0
  0
LTYPE
  5
15
100
AcDbSymbolTableRecord
100
AcDbLinetypeTableRecord
  2
BYLAYER
 70
0
  3

 72
65
 73
0
 40
0.0
  0
LTYPE
  5
16
100
AcDbSymbolTableRecord
100
AcDbLinetypeTableRecord
  2
CONTINUOUS
 70
64
  3
Solid line
 72
65
 73
0
 40
0.0
  0
LTYPE
  5
1F5
100
AcDbSymbolTableRecord
100
AcDbLinetypeTableRecord
  2
CENTER
 70
64
  3
____ _ ____ _ ____ _ ____ _ ____ _ ____ _ ____
 72
65
 73
4
 40
0.6
 49
0.375
 74
0
 49
-0.075
 74
0
 49
0.075
 74
0
 49
-0.075
 74
0
  0
LTYPE
  5
1F6
100
AcDbSymbolTableRecord
100
AcDbLinetypeTableRecord
  2
HIDDEN
 70
64
  3
- - - - - - - - - - - - - - - - - - - -
 72
65
 73
2
 40
0.2
 49
0.1
 74
0
 49
-0.1
 74
0
  0
LTYPE
  5
1F7
100
AcDbSymbolTableRecord
100
AcDbLinetypeTableRecord
  2
PHANTOM
 70
64
  3
_____ _ _ _____ _ _ _____ _ _ _____
 72
65
 73
6
 40
0.8
 49
0.45
 74
0
 49
-0.05
 74
0
 49
0.1
 74
0
 49
-0.05
 74
0
 49
0.1
 74
0
 49
-0.05
 74
0
  0
LTYPE
  5
1F8
100
AcDbSymbolTableRecord
100
AcDbLinetypeTableRecord
  2
DOT
 70
64
  3
. . . . . . . . . . . . . . . . . . . .
 72
65
 73
2
 40
0.2
 49
0.1
 74
0
 49
-0.1
 74
0
  0
LTYPE
  5
1F9
100
AcDbSymbolTableRecord
100
AcDbLinetypeTableRecord
  2
DASHED
 70
64
  3
- - - - - - - - - - - - - - - - - - - -
 72
65
 73
2
 40
0.2
 49
0.1
 74
0
 49
-0.1
 74
0
  0
ENDTAB
  0
TABLE
  2
LAYER
  5
2
100
AcDbSymbolTable
 70
36
  0
LAYER
  5
10
100
AcDbSymbolTableRecord
100
AcDbLayerTableRecord
  2
0
 70
0
 62
7
  6
CONTINUOUS
370
-3
390
F
  0
LAYER
  5
1FA
100
AcDbSymbolTableRecord
100
AcDbLayerTableRecord
  2
DEFAULT_1
 70
0
 62
7
  6
CENTER
370
-3
390
F
  0
LAYER
  5
1FB
100
AcDbSymbolTableRecord
100
AcDbLayerTableRecord
  2
DEFAULT_2
 70
0
 62
7
  6
HIDDEN
370
-3
390
F
  0
LAYER
  5
1FC
100
AcDbSymbolTableRecord
100
AcDbLayerTableRecord
  2
DEFAULT_3
 70
0
 62
7
  6
PHANTOM
370
-3
390
F
  0
LAYER
  5
1FD
100
AcDbSymbolTableRecord
100
AcDbLayerTableRecord
  2
320
 70
0
 62
7
  6
CONTINUOUS
370
-3
390
F
  0
LAYER
  5
1FE
100
AcDbSymbolTableRecord
100
AcDbLayerTableRecord
  2
ASSI
 70
0
 62
7
  6
CONTINUOUS
370
-3
390
F
  0
LAYER
  5
1FF
100
AcDbSymbolTableRecord
100
AcDbLayerTableRecord
  2
COORDINATE
 70
0
 62
7
  6
CONTINUOUS
370
-3
390
F
  0
LAYER
  5
200
100
AcDbSymbolTableRecord
100
AcDbLayerTableRecord
  2
COORD_ORIGINE
 70
0
 62
7
  6
CONTINUOUS
370
-3
390
F
  0
LAYER
  5
201
100
AcDbSymbolTableRecord
100
AcDbLayerTableRecord
  2
COPY-PUBBLISH
 70
0
 62
7
  6
CONTINUOUS
370
-3
390
F
  0
LAYER
  5
202
100
AcDbSymbolTableRecord
100
AcDbLayerTableRecord
  2
COSMETICHE
 70
0
 62
7
  6
CONTINUOUS
370
-3
390
F
  0
LAYER
  5
203
100
AcDbSymbolTableRecord
100
AcDbLayerTableRecord
  2
CURVA_CENTRALE
 70
0
 62
7
  6
CONTINUOUS
370
-3
390
F
  0
LAYER
  5
204
100
AcDbSymbolTableRecord
100
AcDbLayerTableRecord
  2
CURVE
 70
0
 62
7
  6
CONTINUOUS
370
-3
390
F
  0
LAYER
  5
205
100
AcDbSymbolTableRecord
100
AcDbLayerTableRecord
  2
DRAFT
 70
0
 62
7
  6
CONTINUOUS
370
-3
390
F
  0
LAYER
  5
206
100
AcDbSymbolTableRecord
100
AcDbLayerTableRecord
  2
IMPORTED
 70
0
 62
7
  6
CONTINUOUS
370
-3
390
F
  0
LAYER
  5
207
100
AcDbSymbolTableRecord
100
AcDbLayerTableRecord
  2
INCISIONI
 70
0
 62
7
  6
CONTINUOUS
370
-3
390
F
  0
LAYER
  5
208
100
AcDbSymbolTableRecord
100
AcDbLayerTableRecord
  2
INTF_1
 70
0
 62
7
  6
CONTINUOUS
370
-3
390
F
  0
LAYER
  5
209
100
AcDbSymbolTableRecord
100
AcDbLayerTableRecord
  2
INTF_11
 70
0
 62
7
  6
CONTINUOUS
370
-3
390
F
  0
LAYER
  5
20A
100
AcDbSymbolTableRecord
100
AcDbLayerTableRecord
  2
INTF_2
 70
0
 62
7
  6
CONTINUOUS
370
-3
390
F
  0
LAYER
  5
20B
100
AcDbSymbolTableRecord
100
AcDbLayerTableRecord
  2
INTF_5
 70
0
 62
7
  6
CONTINUOUS
370
-3
390
F
  0
LAYER
  5
20C
100
AcDbSymbolTableRecord
100
AcDbLayerTableRecord
  2
INTF_CYAN
 70
0
 62
7
  6
CONTINUOUS
370
-3
390
F
  0
LAYER
  5
20D
100
AcDbSymbolTableRecord
100
AcDbLayerTableRecord
  2
NOTE
 70
0
 62
7
  6
CONTINUOUS
370
-3
390
F
  0
LAYER
  5
20E
100
AcDbSymbolTableRecord
100
AcDbLayerTableRecord
  2
ON_OFF_ANCORINA
 70
0
 62
7
  6
CONTINUOUS
370
-3
390
F
  0
LAYER
  5
20F
100
AcDbSymbolTableRecord
100
AcDbLayerTableRecord
  2
ON_OFF_CONTATTI
 70
0
 62
7
  6
CONTINUOUS
370
-3
390
F
  0
LAYER
  5
210
100
AcDbSymbolTableRecord
100
AcDbLayerTableRecord
  2
ON_OFF_CORPO
 70
0
 62
7
  6
CONTINUOUS
370
-3
390
F
  0
LAYER
  5
211
100
AcDbSymbolTableRecord
100
AcDbLayerTableRecord
  2
ON_OFF_PORTATASTO
 70
0
 62
7
  6
CONTINUOUS
370
-3
390
F
  0
LAYER
  5
212
100
AcDbSymbolTableRecord
100
AcDbLayerTableRecord
  2
ON_OFF_SUPPORTO_PERNO
 70
0
 62
7
  6
CONTINUOUS
370
-3
390
F
  0
LAYER
  5
213
100
AcDbSymbolTableRecord
100
AcDbLayerTableRecord
  2
ON_OFF_TASTOTARGHETTA
 70
0
 62
7
  6
CONTINUOUS
370
-3
390
F
  0
LAYER
  5
214
100
AcDbSymbolTableRecord
100
AcDbLayerTableRecord
  2
PIANI
 70
0
 62
7
  6
CONTINUOUS
370
-3
390
F
  0
LAYER
  5
215
100
AcDbSymbolTableRecord
100
AcDbLayerTableRecord
  2
PIANI_ORIGINE
 70
0
 62
7
  6
CONTINUOUS
370
-3
390
F
  0
LAYER
  5
216
100
AcDbSymbolTableRecord
100
AcDbLayerTableRecord
  2
PIANI_RIFERIMENTO
 70
0
 62
7
  6
CONTINUOUS
370
-3
390
F
  0
LAYER
  5
217
100
AcDbSymbolTableRecord
100
AcDbLayerTableRecord
  2
PUNTI
 70
0
 62
7
  6
CONTINUOUS
370
-3
390
F
  0
LAYER
  5
218
100
AcDbSymbolTableRecord
100
AcDbLayerTableRecord
  2
RACCORDO
 70
0
 62
7
  6
CONTINUOUS
370
-3
390
F
  0
LAYER
  5
219
100
AcDbSymbolTableRecord
100
AcDbLayerTableRecord
  2
RGB__255__255__255__
 70
0
 62
7
  6
CONTINUOUS
370
-3
390
F
  0
LAYER
  5
21A
100
AcDbSymbolTableRecord
100
AcDbLayerTableRecord
  2
RGB____0____0____0__
 70
0
 62
7
  6
CONTINUOUS
370
-3
390
F
  0
LAYER
  5
21B
100
AcDbSymbolTableRecord
100
AcDbLayerTableRecord
  2
SMUSSO
 70
0
 62
7
  6
CONTINUOUS
370
-3
390
F
  0
LAYER
  5
21C
100
AcDbSymbolTableRecord
100
AcDbLayerTableRecord
  2
SNAPLINE
 70
0
 62
7
  6
CONTINUOUS
370
-3
390
F
  0
LAYER
  5
21D
100
AcDbSymbolTableRecord
100
AcDbLayerTableRecord
  2
SUPERFICI
 70
0
 62
7
  6
CONTINUOUS
370
-3
390
F
  0
LAYER
  5
21E
100
AcDbSymbolTableRecord
100
AcDbLayerTableRecord
  2
TRACCIABILITA
 70
0
 62
7
  6
CONTINUOUS
370
-3
390
F
  0
LAYER
  5
21F
100
AcDbSymbolTableRecord
100
AcDbLayerTableRecord
  2
TRASH
 70
0
 62
7
  6
CONTINUOUS
370
-3
390
F
  0
LAYER
  5
220
100
AcDbSymbolTableRecord
100
AcDbLayerTableRecord
  2
XSEC_DATUMS
 70
0
 62
7
  6
CONTINUOUS
370
-3
390
F
  0
ENDTAB
  0
TABLE
  2
STYLE
  5
3
100
AcDbSymbolTable
 70
1
  0
STYLE
  5
11
100
AcDbSymbolTableRecord
100
AcDbTextStyleTableRecord
  2
STANDARD
 70
0
 40
0.0
 41
0.8
 50
0.0
 71
0
 42
0.2
  3
txt
  4

  0
STYLE
  5
221
100
AcDbSymbolTableRecord
100
AcDbTextStyleTableRecord
  2
TEXTSTYLE_1
 70
0
 40
0.0
 41
0.8
 50
0.0
 71
0
 42
0.2
  3
gdt
  4

  0
ENDTAB
  0
TABLE
  2
VIEW
  5
6
100
AcDbSymbolTable
 70
0
  0
ENDTAB
  0
TABLE
  2
UCS
  5
7
100
AcDbSymbolTable
 70
0
  0
ENDTAB
  0
TABLE
  2
APPID
  5
9
100
AcDbSymbolTable
 70
1
  0
APPID
  5
222
100
AcDbSymbolTableRecord
100
AcDbRegAppTableRecord
  2
ACAD
 70
0
  0
ENDTAB
  0
TABLE
  2
BLOCK_RECORD
  5
1
100
AcDbSymbolTable
 70
0
  0
BLOCK_RECORD
  5
223
100
AcDbSymbolTableRecord
100
AcDbBlockTableRecord
  2
*Model_Space
  0
BLOCK_RECORD
  5
224
100
AcDbSymbolTableRecord
100
AcDbBlockTableRecord
  2
*Paper_Space
  0
BLOCK_RECORD
  5
225
100
AcDbSymbolTableRecord
100
AcDbBlockTableRecord
  2
_FILLED
  0
ENDTAB
  0
TABLE
  2
DIMSTYLE
  5
A
100
AcDbSymbolTable
 70
1
100
AcDbDimStyleTable
 71
0
  0
DIMSTYLE
105
226
100
AcDbSymbolTableRecord
100
AcDbDimStyleTableRecord
  2
STANDARD
 70
0
  3

  4

 40
1.0
 41
3.0
 42
0.5
 43
0.38
 44
1.5
 45
0.0
 46
0.0
 47
0.01
 48
0.01
140
3.0
141
0.09
142
0.0
143
25.4
144
1.0
145
0.0
146
1.0
147
0.625
 71
1
 72
0
 73
0
 74
0
 75
0
 76
0
 77
1
 78
8
 79
2
170
0
171
1
172
0
173
0
174
0
175
0
176
0
177
0
178
0
270
2
179
2
271
2
272
2
273
2
274
2
275
0
280
0
281
0
282
0
283
1
284
8
285
0
286
0
287
3
288
0
340
11
278
44
341
225
342
225
343
225
344
225
  0
ENDTAB
  0
ENDSEC
  0
SECTION
  2
BLOCKS
  0
BLOCK
  5
20
100
AcDbEntity
  8
0
100
AcDbBlockBegin
  2
*Model_Space
 70
0
 10
0.0
 20
0.0
 30
0.0
  3
*Model_Space
  1

  0
ENDBLK
  5
21
100
AcDbEntity
  8
0
100
AcDbBlockEnd
  0
BLOCK
  5
1C
100
AcDbEntity
  8
0
100
AcDbBlockBegin
  2
*Paper_Space
 70
0
 10
0.0
 20
0.0
 30
0.0
  3
*Paper_Space
  1

  0
ENDBLK
  5
1D
100
AcDbEntity
  8
0
100
AcDbBlockEnd
  0
BLOCK
  5
227
100
AcDbEntity
  8
0
100
AcDbBlockBegin
  2
_FILLED
 70
64
 10
0.0
 20
0.0
  3
_FILLED
  1

  0
SOLID
  5
228
100
AcDbEntity
  8
0
  6
BYBLOCK
 62
0
100
AcDbTrace
 10
0.0
 20
0.0
 11
-1.0
 21
0.3166666667
 12
-1.0
 22
-0.3166666667
 13
-1.0
 23
-0.3166666667
  0
ENDBLK
  5
229
100
AcDbEntity
  8
0
  6
BYBLOCK
 62
0
100
AcDbBlockEnd
  0
ENDSEC
  0
SECTION
  2
ENTITIES
  0
LINE
  5
22A
100
AcDbEntity
  8
ON_OFF_PORTATASTO
100
AcDbLine
 62
250
  6
CONTINUOUS
 10
-38.2815020911
 20
46.139829979
 11
-38.2819025849
 21
46.139317543
  0
LINE
  5
22B
100
AcDbEntity
  8
ON_OFF_PORTATASTO
100
AcDbLine
 62
250
  6
CONTINUOUS
 10
-38.8255303291
 20
45.5672005538
 11
-38.2972631573
 21
46.2101527096
  0
LINE
  5
22C
100
AcDbEntity
  8
ON_OFF_PORTATASTO
100
AcDbLine
 62
7
  6
CONTINUOUS
 10
-38.8255303291
 20
45.4776700875
 11
-38.2819025849
 21
46.139317543
  0
LWPOLYLINE
  5
22D
100
AcDbEntity
  8
ON_OFF_PORTATASTO
100
AcDbPolyline
 62
7
  6
CONTINUOUS
 90
36
 70
0
 10
-39.7155905118
 20
45.0030459458
 10
-39.7222311136
 20
44.9953072636
 10
-39.7291187209
 20
44.9876650253
 10
-39.7362513033
 20
44.9801322148
 10
-39.7436308021
 20
44.9727232879
 10
-39.7512499051
 20
44.9654499924
 10
-39.7590921542
 20
44.9583214363
 10
-39.7671540038
 20
44.9513510872
 10
-39.7754311798
 20
44.9445521081
 10
-39.7839056715
 20
44.9379333785
 10
-39.7925726185
 20
44.9315084612
 10
-39.8014265053
 20
44.9252905739
 10
-39.8104478822
 20
44.9192883116
 10
-39.8196305423
 20
44.9135151847
 10
-39.8289676723
 20
44.9079843355
 10
-39.8384384469
 20
44.9027040551
 10
-39.8480352838
 20
44.8976876399
 10
-39.8577500067
 20
44.8929480147
 10
-39.8675604047
 20
44.8884931681
 10
-39.8774574732
 20
44.8843360052
 10
-39.8874316156
 20
44.8804890544
 10
-39.897459189
 20
44.8769599764
 10
-39.907529709
 20
44.8737610709
 10
-39.917632112
 20
44.8709042465
 10
-39.9277412751
 20
44.8683967463
 10
-39.9378451679
 20
44.866250003
 10
-39.9479312425
 20
44.8644750185
 10
-39.9579729183
 20
44.8630784297
 10
-39.9679565444
 20
44.8620704787
 10
-39.9778681323
 20
44.8614609043
 10
-39.9876798599
 20
44.8612554302
 10
-39.9973764146
 20
44.8614627185
 10
-40.0069424702
 20
44.862090836
 10
-40.0163494254
 20
44.8631442111
 10
-40.0255699578
 20
44.8646275726
 10
-40.0294597772
 20
44.8653958469
  0
LWPOLYLINE
  5
22E
100
AcDbEntity
  8
ON_OFF_TASTOTARGHETTA
100
AcDbPolyline
 62
7
  6
CONTINUOUS
 90
5
 70
0
 10
-45.6623451719
 20
42.0750197141
 10
-45.5888867762
 20
42.1270029382
 10
-45.5147688233
 20
42.1728773069
 10
-45.4403700441
 20
42.2124137679
 10
-45.3660656211
 20
42.2454152448
  0
LINE
  5
22F
100
AcDbEntity
  8
ON_OFF_PORTATASTO
100
AcDbLine
 62
7
  6
CONTINUOUS
 10
-42.4813263749
 20
44.5302556919
 11
-41.4745481098
 21
45.1172996343
  0
LINE
  5
230
100
AcDbEntity
  8
ON_OFF_PORTATASTO
100
AcDbLine
 62
250
  6
CONTINUOUS
 10
-41.4745481098
 20
44.9724654578
 11
-42.2474235998
 21
44.5218082572
  0
LINE
  5
231
100
AcDbEntity
  8
ON_OFF_PORTATASTO
100
AcDbLine
 62
7
  6
CONTINUOUS
 10
-38.7240047864
 20
44.7487491166
 11
-39.7155905118
 21
44.195413824
  0
LINE
  5
232
100
AcDbEntity
  8
ON_OFF_PORTATASTO
100
AcDbLine
 62
7
  6
CONTINUOUS
 10
-40.4584815042
 20
47.2775513148
 11
-42.0416551695
 21
46.4653532566
  0
LINE
  5
233
100
AcDbEntity
  8
ON_OFF_PORTATASTO
100
AcDbLine
 62
250
  6
CONTINUOUS
 10
-40.3458129002
 20
47.2708893788
 11
-41.9285695034
 21
46.4589052815
  0
LINE
  5
234
100
AcDbEntity
  8
ON_OFF_PORTATASTO
100
AcDbLine
 62
250
  6
CONTINUOUS
 10
-39.0023040327
 20
46.5991349451
 11
-40.6035848236
 21
45.7964129416
  0
LINE
  5
235
100
AcDbEntity
  8
ON_OFF_PORTATASTO
100
AcDbLine
 62
250
  6
CONTINUOUS
 10
-38.8255303291
 20
46.2942454063
 11
-40.4268111199
 21
45.4915234028
  0
LINE
  5
236
100
AcDbEntity
  8
ON_OFF_PORTATASTO
100
AcDbLine
 62
7
  6
CONTINUOUS
 10
-40.4567451137
 20
47.2784195241
 11
-40.4584815273
 21
47.2775513029
  0
LINE
  5
237
100
AcDbEntity
  8
ON_OFF_PORTATASTO
100
AcDbLine
 62
250
  6
CONTINUOUS
 10
-38.474036861
 20
46.8625737651
 11
-39.0023040327
 21
46.5991349451
  0
LINE
  5
238
100
AcDbEntity
  8
ON_OFF_PORTATASTO
100
AcDbLine
 62
250
  6
CONTINUOUS
 10
-38.2972631573
 20
46.5576842263
 11
-38.8255303291
 21
46.2942454063
  0
LINE
  5
239
100
AcDbEntity
  8
ON_OFF_PORTATASTO
100
AcDbLine
 62
7
  6
CONTINUOUS
 10
-39.9218751326
 20
47.5389716364
 11
-40.4567450903
 21
47.2784195361
  0
LINE
  5
23A
100
AcDbEntity
  8
ON_OFF_PORTATASTO
100
AcDbLine
 62
250
  6
CONTINUOUS
 10
-39.8113630215
 20
47.5312368454
 11
-40.3458129002
 21
47.2708893788
  0
LWPOLYLINE
  5
23B
100
AcDbEntity
  8
ON_OFF_TASTOTARGHETTA
100
AcDbPolyline
 62
7
  6
CONTINUOUS
 90
9
 70
0
 10
-49.7377866582
 20
4.3214088509
 10
-49.7363885056
 20
4.2927411416
 10
-49.7270885849
 20
4.253188018
 10
-49.7093353533
 20
4.2141057287
 10
-49.6833190341
 20
4.175913035
 10
-49.6493183887
 20
4.139019166
 10
-49.6076977291
 20
4.1038194345
 10
-49.558903015
 20
4.0706910005
 10
-49.5034570749
 20
4.0399888308
  0
LWPOLYLINE
  5
23C
100
AcDbEntity
  8
ON_OFF_TASTOTARGHETTA
100
AcDbPolyline
 62
7
  6
CONTINUOUS
 90
15
 70
0
 10
-49.7377778938
 20
4.3214085906
 10
-49.7384577729
 20
4.2858061957
 10
-49.7345495762
 20
4.1636573183
 10
-49.7210321288
 20
4.0454940335
 10
-49.6980636651
 20
3.9314474835
 10
-49.665876915
 20
3.8221034105
 10
-49.6250584343
 20
3.7187851213
 10
-49.5764405775
 20
3.6224674098
 10
-49.5204730686
 20
3.533085459
 10
-49.4575061782
 20
3.4506784393
 10
-49.3884745966
 20
3.375982342
 10
-49.3140018739
 20
3.3091435024
 10
-49.2338132484
 20
3.2497191302
 10
-49.1482241759
 20
3.1980442004
 10
-49.1172572457
 20
3.1819585703
  0
LINE
  5
23D
100
AcDbEntity
  8
ON_OFF_TASTOTARGHETTA
100
AcDbLine
 62
7
  6
CONTINUOUS
 10
-49.7377808121
 20
4.3216032503
 11
-49.7377866582
 21
4.3214088509
  0
LWPOLYLINE
  5
23E
100
AcDbEntity
  8
ON_OFF_TASTOTARGHETTA
100
AcDbPolyline
 62
7
  6
CONTINUOUS
 90
13
 70
0
 10
-49.5034570997
 20
4.0399888196
 10
-49.3989091614
 20
7.0267856166
 10
-49.2677051478
 20
10.0257820252
 10
-49.1098615878
 20
13.0365939354
 10
-48.9253983933
 20
16.0588356759
 10
-48.714339122
 20
19.0921202998
 10
-48.4767109726
 20
22.1360596356
 10
-48.2125445206
 20
25.1902640319
 10
-47.921873437
 20
28.2543423723
 10
-47.6047347451
 20
31.3279023633
 10
-47.2611691032
 20
34.4105505511
 10
-46.8912208026
 20
37.501892371
 10
-46.4949374787
 20
40.6015321639
  0
LWPOLYLINE
  5
23F
100
AcDbEntity
  8
ON_OFF_TASTOTARGHETTA
100
AcDbPolyline
 62
7
  6
CONTINUOUS
 90
10
 70
0
 10
-46.7307951533
 20
40.8656519041
 10
-46.7313060498
 20
40.8610458493
 10
-46.7299655973
 20
40.8286452978
 10
-46.7201357507
 20
40.7955218615
 10
-46.7019218336
 20
40.762030447
 10
-46.6755190021
 20
40.7285299039
 10
-46.6412101537
 20
40.6953791793
 10
-46.5993628963
 20
40.6629334724
 10
-46.5504256095
 20
40.6315404281
 10
-46.49492264
 20
40.6015364125
  0
LWPOLYLINE
  5
240
100
AcDbEntity
  8
ON_OFF_TASTOTARGHETTA
100
AcDbPolyline
 62
7
  6
CONTINUOUS
 90
13
 70
0
 10
-46.7307869782
 20
40.8658036609
 10
-47.1181662676
 20
37.837925251
 10
-47.4901911122
 20
34.7334740155
 10
-47.8356083748
 20
31.6377090228
 10
-48.1543647378
 20
28.5510756097
 10
-48.4464209952
 20
25.4739651836
 10
-48.7117417151
 20
22.4067486375
 10
-48.950291211
 20
19.349811414
 10
-49.1620392836
 20
16.3035365319
 10
-49.3469578812
 20
13.2682914367
 10
-49.5050195171
 20
10.2444631257
 10
-49.6362025409
 20
7.2324853147
 10
-49.7377808121
 20
4.3216032503
  0
LWPOLYLINE
  5
241
100
AcDbEntity
  8
ON_OFF_TASTOTARGHETTA
100
AcDbPolyline
 62
7
  6
CONTINUOUS
 90
18
 70
0
 10
-46.4949374787
 20
40.6015321639
 10
-46.4795123057
 20
40.6992028582
 10
-46.4589800084
 20
40.7979007395
 10
-46.4334441765
 20
40.8971323589
 10
-46.4030354615
 20
40.9964001901
 10
-46.3679056008
 20
41.095209852
 10
-46.3282256375
 20
41.1930724332
 10
-46.2841923066
 20
41.2895057214
 10
-46.2360288088
 20
41.3840210034
 10
-46.1839795147
 20
41.4761310987
 10
-46.1283146853
 20
41.5653673161
 10
-46.0693095678
 20
41.6512957541
 10
-46.0072428317
 20
41.7335020111
 10
-45.9424187352
 20
41.8115843512
 10
-45.8751699829
 20
41.8851416758
 10
-45.80583804
 20
41.9537913191
 10
-45.7347789191
 20
42.0171869845
 10
-45.6623451719
 20
42.0750197141
  0
LWPOLYLINE
  5
242
100
AcDbEntity
  8
ON_OFF_PORTATASTO
100
AcDbPolyline
 62
250
  6
CONTINUOUS
 90
27
 70
0
 10
-40.4268111199
 20
45.1515494686
 10
-40.431695137
 20
45.1395808104
 10
-40.4370457405
 20
45.1278876063
 10
-40.4428483188
 20
45.1165017881
 10
-40.4490870265
 20
45.1054544479
 10
-40.4557448268
 20
45.0947757537
 10
-40.4628035388
 20
45.084494867
 10
-40.4702438865
 20
45.0746398625
 10
-40.4780455519
 20
45.0652376522
 10
-40.4861872304
 20
45.0563139117
 10
-40.4946466887
 20
45.0478930098
 10
-40.5034008257
 20
45.0399979421
 10
-40.5124257359
 20
45.0326502686
 10
-40.5216967739
 20
45.0258700541
 10
-40.5311886227
 20
45.0196758139
 10
-40.5408753618
 20
45.0140844633
 10
-40.5507305389
 20
45.0091112711
 10
-40.5607272416
 20
45.004769818
 10
-40.5708381708
 20
45.0010719596
 10
-40.5810357159
 20
44.998027794
 10
-40.5912920294
 20
44.9956456342
 10
-40.6015791035
 20
44.9939319853
 10
-40.6118688464
 20
44.992891527
 10
-40.6221331588
 20
44.9925271005
 10
-40.6323440112
 20
44.992839701
 10
-40.6424735198
 20
44.9938284749
 10
-40.6524940231
 20
44.9954907221
  0
LINE
  5
243
100
AcDbEntity
  8
ON_OFF_PORTATASTO
100
AcDbLine
 62
7
  6
CONTINUOUS
 10
-36.4567106107
 20
44.361976332
 11
-36.1031692215
 21
44.5433497568
  0
LINE
  5
244
100
AcDbEntity
  8
ON_OFF_PORTATASTO
100
AcDbLine
 62
7
  6
CONTINUOUS
 10
-31.0967764401
 20
47.8368710498
 11
-37.4113167667
 21
44.6920947453
  0
LINE
  5
245
100
AcDbEntity
  8
ON_OFF_PORTATASTO
100
AcDbLine
 62
7
  6
CONTINUOUS
 10
-30.1614153809
 20
46.840028005
 11
-34.7596663372
 21
44.5736667075
  0
LINE
  5
246
100
AcDbEntity
  8
ON_OFF_PORTATASTO
100
AcDbLine
 62
7
  6
CONTINUOUS
 10
-36.1031692215
 20
44.5433497568
 11
-30.7669458155
 21
47.1427932223
  0
LINE
  5
247
100
AcDbEntity
  8
ON_OFF_PORTATASTO
100
AcDbLine
 62
7
  6
CONTINUOUS
 10
-38.8255303291
 20
44.6996524345
 11
-38.7240047864
 21
44.7487491166
  0
LWPOLYLINE
  5
248
100
AcDbEntity
  8
ON_OFF_PORTATASTO
100
AcDbPolyline
 62
7
  6
CONTINUOUS
 90
7
 70
0
 10
-30.1614153809
 20
46.840028005
 10
-30.1532061215
 20
46.8439554901
 10
-30.1450221638
 20
46.8476405523
 10
-30.1368635077
 20
46.8510831916
 10
-30.1287301533
 20
46.854283408
 10
-30.1206221005
 20
46.8572412015
 10
-30.1125393494
 20
46.8599565721
  0
LINE
  5
249
100
AcDbEntity
  8
ON_OFF_CORPO
100
AcDbLine
 62
7
  6
CONTINUOUS
 10
-24.0873874299
 20
50.4624753046
 11
-30.143835114
 21
47.6062713549
  0
LINE
  5
24A
100
AcDbEntity
  8
ON_OFF_CORPO
100
AcDbLine
 62
7
  6
CONTINUOUS
 10
-24.0874447238
 20
50.462448279
 11
-24.0873874243
 21
50.4624753072
  0
LINE
  5
24B
100
AcDbEntity
  8
ON_OFF_CORPO
100
AcDbLine
 62
250
  6
CONTINUOUS
 10
-23.648248878
 20
50.4301920616
 11
-29.8974575409
 21
47.4830825684
  0
LWPOLYLINE
  5
24C
100
AcDbEntity
  8
ON_OFF_CORPO
100
AcDbPolyline
 62
250
  6
CONTINUOUS
 90
19
 70
0
 10
-24.0873874243
 20
50.4624753072
 10
-24.0677637359
 20
50.4710588213
 10
-24.0461444799
 20
50.4790421925
 10
-24.0239773198
 20
50.4857421738
 10
-24.0012930518
 20
50.4911494102
 10
-23.9781236816
 20
50.4952562104
 10
-23.95450194
 20
50.4980568136
 10
-23.9304612105
 20
50.4995473494
 10
-23.90603483
 20
50.4997258101
 10
-23.8812563109
 20
50.4985919501
 10
-23.8561598529
 20
50.4961472814
 10
-23.8307809141
 20
50.4923951706
 10
-23.8051555302
 20
50.4873408799
 10
-23.7793197074
 20
50.4809916103
 10
-23.753309283
 20
50.473356229
 10
-23.7271604689
 20
50.4644452482
 10
-23.7009097054
 20
50.4542710669
 10
-23.6745936159
 20
50.4428480038
 10
-23.648248878
 20
50.4301920616
  0
LWPOLYLINE
  5
24D
100
AcDbEntity
  8
ON_OFF_TASTOTARGHETTA
100
AcDbPolyline
 62
7
  6
CONTINUOUS
 90
16
 70
0
 10
-45.7182365033
 20
42.271021289
 10
-45.7368999478
 20
42.2632150272
 10
-45.8491083393
 20
42.2088799731
 10
-45.9573502781
 20
42.1436811806
 10
-46.0617251673
 20
42.0676428295
 10
-46.1614884155
 20
41.9813112749
 10
-46.2551345851
 20
41.8861358373
 10
-46.3426949577
 20
41.7823105858
 10
-46.4237678112
 20
41.6701726143
 10
-46.4966676616
 20
41.5521662837
 10
-46.5612681171
 20
41.4286696807
 10
-46.6172894854
 20
41.3000562592
 10
-46.6634278917
 20
41.1691985012
 10
-46.6994273772
 20
41.037281953
 10
-46.7253372102
 20
40.9037538111
 10
-46.7307951533
 20
40.8656519041
  0
LINE
  5
24E
100
AcDbEntity
  8
ON_OFF_TASTOTARGHETTA
100
AcDbLine
 62
7
  6
CONTINUOUS
 10
-45.7182406336
 20
42.2710313888
 11
-41.742133005
 21
43.8963429926
  0
LINE
  5
24F
100
AcDbEntity
  8
ON_OFF_TASTOTARGHETTA
100
AcDbLine
 62
7
  6
CONTINUOUS
 10
-45.3660656211
 20
42.2454152448
 11
-41.5264739122
 21
43.8149232519
  0
LWPOLYLINE
  5
250
100
AcDbEntity
  8
ON_OFF_TASTOTARGHETTA
100
AcDbPolyline
 62
7
  6
CONTINUOUS
 90
7
 70
0
 10
-45.7180707346
 20
42.2711008899
 10
-45.6603342347
 20
42.2891255163
 10
-45.6043333442
 20
42.2970711251
 10
-45.5462629159
 20
42.2966221494
 10
-45.4867589351
 20
42.2877835066
 10
-45.4264730874
 20
42.2706519972
 10
-45.3660656211
 20
42.2454152448
  0
LWPOLYLINE
  5
251
100
AcDbEntity
  8
ON_OFF_TASTOTARGHETTA
100
AcDbPolyline
 62
7
  6
CONTINUOUS
 90
14
 70
0
 10
-49.1182214482
 20
3.1824305376
 10
-49.1766849865
 20
3.2162647605
 10
-49.228777893
 20
3.2552657972
 10
-49.2769808508
 20
3.3006162735
 10
-49.3210669346
 20
3.3521008434
 10
-49.3608172967
 20
3.4094703897
 10
-49.3960238264
 20
3.472432718
 10
-49.426508009
 20
3.5406650489
 10
-49.4521152955
 20
3.6138184077
 10
-49.4727192436
 20
3.6915307069
 10
-49.4882210806
 20
3.7734215978
 10
-49.4985430942
 20
3.8590848313
 10
-49.5036306301
 20
3.9480889388
 10
-49.5034570997
 20
4.0399888196
  0
LINE
  5
252
100
AcDbEntity
  8
ON_OFF_CORPO
100
AcDbLine
 62
7
  6
CONTINUOUS
 10
-31.9749389597
 20
43.1813030187
 11
-31.1208376958
 21
43.9288073561
  0
LINE
  5
253
100
AcDbEntity
  8
ON_OFF_CORPO
100
AcDbLine
 62
250
  6
CONTINUOUS
 10
-31.821036405
 20
43.1043517413
 11
-30.8722378134
 21
43.9347346156
  0
LWPOLYLINE
  5
254
100
AcDbEntity
  8
ON_OFF_CORPO
100
AcDbPolyline
 62
250
  6
CONTINUOUS
 90
3
 70
0
 10
-28.3757704124
 20
46.7222390041
 10
-28.3697768261
 20
46.7255181826
 10
-28.3371208835
 20
46.7422359809
  0
LINE
  5
255
100
AcDbEntity
  8
ON_OFF_PORTATASTO
100
AcDbLine
 62
7
  6
CONTINUOUS
 10
-31.1534217532
 20
44.56317404
 11
-30.446314972
 21
44.9167274305
  0
LINE
  5
256
100
AcDbEntity
  8
ON_OFF_PORTATASTO
100
AcDbLine
 62
7
  6
CONTINUOUS
 10
-28.6949770749
 20
45.4388429885
 11
-30.0927615814
 21
44.7399507353
  0
LINE
  5
257
100
AcDbEntity
  8
ON_OFF_CORPO
100
AcDbLine
 62
250
  6
CONTINUOUS
 10
-28.3371208835
 20
46.7422359809
 11
-22.2805471548
 21
49.7463412
  0
LINE
  5
258
100
AcDbEntity
  8
ON_OFF_CORPO
100
AcDbLine
 62
250
  6
CONTINUOUS
 10
-27.3350451348
 20
45.6692031346
 11
-21.5735480694
 21
48.5269481534
  0
LINE
  5
259
100
AcDbEntity
  8
ON_OFF_PORTATASTO
100
AcDbLine
 62
7
  6
CONTINUOUS
 10
-30.446314972
 20
45.4768433091
 11
-30.1125393494
 21
45.6401636643
  0
LINE
  5
25A
100
AcDbEntity
  8
ON_OFF_PORTATASTO
100
AcDbLine
 62
7
  6
CONTINUOUS
 10
-28.0359813235
 20
46.3064734916
 11
-30.0927615814
 21
45.3000666138
  0
LWPOLYLINE
  5
25B
100
AcDbEntity
  8
ON_OFF_CORPO
100
AcDbPolyline
 62
7
  6
CONTINUOUS
 90
6
 70
0
 10
-31.0828258504
 20
43.9535152784
 10
-31.0873479729
 20
43.9513397671
 10
-31.0981497974
 20
43.9453929317
 10
-31.1082715126
 20
43.9387477545
 10
-31.1175871196
 20
43.9315778347
 10
-31.1208420148
 20
43.9288052894
  0
LINE
  5
25C
100
AcDbEntity
  8
ON_OFF_CORPO
100
AcDbLine
 62
250
  6
CONTINUOUS
 10
-30.8112141837
 20
43.9615910379
 11
-30.7644865934
 21
43.9841405545
  0
LINE
  5
25D
100
AcDbEntity
  8
ON_OFF_CORPO
100
AcDbLine
 62
250
  6
CONTINUOUS
 10
-30.7644865934
 20
43.9841405545
 11
-30.7519652299
 21
43.9901112748
  0
LINE
  5
25E
100
AcDbEntity
  8
ON_OFF_CORPO
100
AcDbLine
 62
250
  6
CONTINUOUS
 10
-30.8222729564
 20
43.9563366765
 11
-30.8112141837
 21
43.9615910379
  0
LINE
  5
25F
100
AcDbEntity
  8
ON_OFF_CORPO
100
AcDbLine
 62
250
  6
CONTINUOUS
 10
-30.7519652299
 20
43.9901112748
 11
-30.743387004
 21
43.9941533883
  0
LINE
  5
260
100
AcDbEntity
  8
ON_OFF_CORPO
100
AcDbLine
 62
250
  6
CONTINUOUS
 10
-30.8295577847
 20
43.9529257581
 11
-30.8222729564
 21
43.9563366765
  0
LINE
  5
261
100
AcDbEntity
  8
ON_OFF_CORPO
100
AcDbLine
 62
250
  6
CONTINUOUS
 10
-30.743387004
 20
43.9941533883
 11
-30.7346079519
 21
43.9982393908
  0
LINE
  5
262
100
AcDbEntity
  8
ON_OFF_CORPO
100
AcDbLine
 62
250
  6
CONTINUOUS
 10
-30.8706328886
 20
43.9339480899
 11
-30.8295577847
 21
43.9529257581
  0
LINE
  5
263
100
AcDbEntity
  8
ON_OFF_CORPO
100
AcDbLine
 62
250
  6
CONTINUOUS
 10
-30.7346079519
 20
43.9982393908
 11
-30.725619089
 21
44.0023660249
  0
LWPOLYLINE
  5
264
100
AcDbEntity
  8
ON_OFF_CORPO
100
AcDbPolyline
 62
250
  6
CONTINUOUS
 90
17
 70
0
 10
-31.048983565
 20
43.9691447673
 10
-31.0458552443
 20
43.9705547026
 10
-31.0334765423
 20
43.9754775369
 10
-31.0207284421
 20
43.9795245767
 10
-31.007635201
 20
43.9826881212
 10
-30.9942217332
 20
43.9849621508
 10
-30.980513562
 20
43.9863423384
 10
-30.9665367718
 20
43.9868260577
 10
-30.9523179577
 20
43.9864123883
 10
-30.9378841758
 20
43.9851021173
 10
-30.9232628908
 20
43.9828977379
 10
-30.9084819246
 20
43.9798034446
 10
-30.8935694025
 20
43.9758251253
 10
-30.8785537006
 20
43.97097035
 10
-30.863463391
 20
43.9652483564
 10
-30.8483271879
 20
43.9586700325
 10
-30.8331738927
 20
43.9512478956
  0
LINE
  5
265
100
AcDbEntity
  8
ON_OFF_CORPO
100
AcDbLine
 62
250
  6
CONTINUOUS
 10
-30.725619089
 20
44.0023660249
 11
-30.7164072816
 21
44.006528167
  0
LINE
  5
266
100
AcDbEntity
  8
ON_OFF_CORPO
100
AcDbLine
 62
250
  6
CONTINUOUS
 10
-30.7164072816
 20
44.006528167
 11
-30.7069594982
 21
44.0107204253
  0
LINE
  5
267
100
AcDbEntity
  8
ON_OFF_CORPO
100
AcDbLine
 62
250
  6
CONTINUOUS
 10
-30.7069594982
 20
44.0107204253
 11
-30.6972672271
 21
44.0149390789
  0
LINE
  5
268
100
AcDbEntity
  8
ON_OFF_CORPO
100
AcDbLine
 62
250
  6
CONTINUOUS
 10
-30.6972672271
 20
44.0149390789
 11
-30.6873178073
 21
44.0191784223
  0
LWPOLYLINE
  5
269
100
AcDbEntity
  8
ON_OFF_CORPO
100
AcDbPolyline
 62
250
  6
CONTINUOUS
 90
124
 70
0
 10
-30.6873178073
 20
44.0191784223
 10
-30.6770997166
 20
44.0234320403
 10
-30.6718884555
 20
44.0255634157
 10
-30.666605339
 20
44.0276955846
 10
-30.661250421
 20
44.0298285504
 10
-30.6558236476
 20
44.0319623097
 10
-30.6503211288
 20
44.0340946146
 10
-30.6447427497
 20
44.0362255389
 10
-30.6390886251
 20
44.0383550088
 10
-30.6333552095
 20
44.0404805557
 10
-30.6275422401
 20
44.0426022997
 10
-30.6216499796
 20
44.0447201207
 10
-30.6156756707
 20
44.0468311893
 10
-30.6096192322
 20
44.0489355526
 10
-30.6034807453
 20
44.0510331635
 10
-30.5972576959
 20
44.0531210515
 10
-30.5909499939
 20
44.055199267
 10
-30.5845577293
 20
44.0572677596
 10
-30.5780786583
 20
44.0593234071
 10
-30.5715126183
 20
44.0613662811
 10
-30.5648597718
 20
44.0633963101
 10
-30.5581183629
 20
44.0654101577
 10
-30.5512881958
 20
44.067407899
 10
-30.5443694663
 20
44.069389459
 10
-30.537361006
 20
44.0713512759
 10
-30.5302625607
 20
44.0732934316
 10
-30.5230743846
 20
44.0752158444
 10
-30.5157960715
 20
44.077114707
 10
-30.508427213
 20
44.0789901236
 10
-30.5009682176
 20
44.0808419899
 10
-30.4934199044
 20
44.0826661867
 10
-30.4857818917
 20
44.0844627871
 10
-30.4780545614
 20
44.0862317179
 10
-30.4702398778
 20
44.0879686402
 10
-30.4623378727
 20
44.089673531
 10
-30.4543485142
 20
44.0913464132
 10
-30.446273671
 20
44.0929830169
 10
-30.4381126393
 20
44.0945834572
 10
-30.4298661229
 20
44.096147619
 10
-30.4215381016
 20
44.0976708871
 10
-30.4131196149
 20
44.0991544768
 10
-30.4046196232
 20
44.1005971728
 10
-30.3960689872
 20
44.1019907146
 10
-30.3874596557
 20
44.1033353238
 10
-30.3787996799
 20
44.1046307787
 10
-30.3701440746
 20
44.1058681532
 10
-30.3615028918
 20
44.107045081
 10
-30.3528660795
 20
44.1081639284
 10
-30.344258497
 20
44.1092228688
 10
-30.3356858951
 20
44.1102208973
 10
-30.327142523
 20
44.1111590187
 10
-30.3186359885
 20
44.1120384207
 10
-30.3101678232
 20
44.1128589231
 10
-30.3017364954
 20
44.113620706
 10
-30.293345018
 20
44.1143254972
 10
-30.2849927709
 20
44.1149733527
 10
-30.2766803742
 20
44.1155642164
 10
-30.2684127006
 20
44.1160996482
 10
-30.2601893369
 20
44.1165796357
 10
-30.2520106964
 20
44.1170041913
 10
-30.2438828921
 20
44.1173749112
 10
-30.2358057584
 20
44.1176917379
 10
-30.2277794608
 20
44.117954729
 10
-30.2198106093
 20
44.1181656533
 10
-30.2118989923
 20
44.1183244303
 10
-30.2040448214
 20
44.1184311406
 10
-30.1962553408
 20
44.1184877948
 10
-30.188531121
 20
44.1184943104
 10
-30.1808715916
 20
44.1184507698
 10
-30.173282286
 20
44.1183594307
 10
-30.1657637132
 20
44.1182202527
 10
-30.1583153642
 20
44.1180332761
 10
-30.1509412447
 20
44.1178008801
 10
-30.143641723
 20
44.1175230528
 10
-30.1364164307
 20
44.1171998059
 10
-30.1292682691
 20
44.1168335541
 10
-30.1221974496
 20
44.1164242961
 10
-30.1152037607
 20
44.1159720332
 10
-30.108289469
 20
44.1154791831
 10
-30.1014548002
 20
44.1149457565
 10
-30.0946995284
 20
44.1143717428
 10
-30.0880252429
 20
44.1137595279
 10
-30.0814321289
 20
44.113109129
 10
-30.074920001
 20
44.1124205288
 10
-30.0684898922
 20
44.1116960614
 10
-30.0621419887
 20
44.110935753
 10
-30.0558761043
 20
44.1101395774
 10
-30.0496927126
 20
44.1093097902
 10
-30.0435920077
 20
44.1084464289
 10
-30.0375737955
 20
44.107549456
 10
-30.031637968
 20
44.1066210149
 10
-30.0257846943
 20
44.1056611503
 10
-30.0200138054
 20
44.1046698175
 10
-30.0143246861
 20
44.1036490257
 10
-30.0087175867
 20
44.10259885
 10
-30.003192257
 20
44.1015192154
 10
-29.9977473302
 20
44.1004119055
 10
-29.992383054
 20
44.0992770196
 10
-29.9870991807
 20
44.0981144583
 10
-29.9818936006
 20
44.0969257076
 10
-29.9767663576
 20
44.0957108376
 10
-29.9717174077
 20
44.0944697782
 10
-29.9667445092
 20
44.0932038042
 10
-29.9618477056
 20
44.0919129916
 10
-29.9570269533
 20
44.0905972645
 10
-29.952279881
 20
44.0892576702
 10
-29.9476065598
 20
44.087894303
 10
-29.9430069185
 20
44.0865070686
 10
-29.9384783719
 20
44.0850967312
 10
-29.9340208997
 20
44.0836633666
 10
-29.9296345221
 20
44.082206899
 10
-29.9253167155
 20
44.0807278652
 10
-29.9210673946
 20
44.0792263209
 10
-29.9168866447
 20
44.0777022105
 10
-29.912772197
 20
44.0761559042
 10
-29.9087238705
 20
44.0745874081
 10
-29.9047418462
 20
44.0729967162
 10
-29.900824399
 20
44.0713841807
 10
-29.8969714105
 20
44.0697498205
 10
-29.893182999
 20
44.0680936167
 10
-29.8894577942
 20
44.0664158657
 10
-29.8857953393
 20
44.0647166661
 10
-29.8821960911
 20
44.0629959193
 10
-29.8786600495
 20
44.0612536252
  0
LINE
  5
26A
100
AcDbEntity
  8
ON_OFF_PORTATASTO
100
AcDbLine
 62
250
  6
CONTINUOUS
 10
-9.0230424162
 20
-9.7265618004
 11
-9.5513095879
 21
-9.6180595233
  0
LINE
  5
26B
100
AcDbEntity
  8
ON_OFF_PORTATASTO
100
AcDbLine
 62
250
  6
CONTINUOUS
 10
-9.1124562115
 20
-9.4069949944
 11
-9.5513095879
 21
-9.3168576677
  0
LWPOLYLINE
  5
26C
100
AcDbEntity
  8
ON_OFF_PORTATASTO
100
AcDbPolyline
 62
7
  6
CONTINUOUS
 90
40
 70
0
 10
-10.4413697707
 20
-9.9336685642
 10
-10.4480259794
 20
-9.9322324973
 10
-10.4549365682
 20
-9.9306852005
 10
-10.4620946012
 20
-9.9290211082
 10
-10.4694920567
 20
-9.9272281558
 10
-10.4771215389
 20
-9.9253075586
 10
-10.4849764329
 20
-9.9232737136
 10
-10.4930477928
 20
-9.9211210615
 10
-10.501326404
 20
-9.9188447515
 10
-10.5098047625
 20
-9.9164602023
 10
-10.518472502
 20
-9.9139621669
 10
-10.5273190236
 20
-9.9113460616
 10
-10.5363359738
 20
-9.9086282417
 10
-10.5455115631
 20
-9.9058038308
 10
-10.5548337728
 20
-9.9028685824
 10
-10.5642933688
 20
-9.8998397212
 10
-10.5738771317
 20
-9.8967128104
 10
-10.5835715782
 20
-9.8934840157
 10
-10.5933664819
 20
-9.8901713826
 10
-10.6032471823
 20
-9.8867710031
 10
-10.6131986829
 20
-9.8832795401
 10
-10.6232095743
 20
-9.8797158206
 10
-10.6332637436
 20
-9.8760765879
 10
-10.6433446424
 20
-9.8723590972
 10
-10.6534394352
 20
-9.8685829074
 10
-10.6635305563
 20
-9.8647455772
 10
-10.6735998992
 20
-9.860845064
 10
-10.68363296
 20
-9.8569015631
 10
-10.693610741
 20
-9.8529136609
 10
-10.7035136407
 20
-9.8488801402
 10
-10.7133253446
 20
-9.8448216398
 10
-10.7230254895
 20
-9.8407380253
 10
-10.73259314
 20
-9.8366290421
 10
-10.7420102239
 20
-9.8325154337
 10
-10.751266501
 20
-9.8283950101
 10
-10.7603279744
 20
-9.8242717447
 10
-10.7691430282
 20
-9.8201782468
 10
-10.7776828888
 20
-9.8161294027
 10
-10.7859386861
 20
-9.8121201389
 10
-10.7938917303
 20
-9.8081558403
  0
LWPOLYLINE
  5
26D
100
AcDbEntity
  8
ON_OFF_TASTOTARGHETTA
100
AcDbPolyline
 62
7
  6
CONTINUOUS
 90
11
 70
0
 10
-19.0764627057
 20
-11.8384396106
 10
-19.0635354936
 20
-11.8448108313
 10
-18.9776980172
 20
-11.8818802195
 10
-18.8886467005
 20
-11.9114594028
 10
-18.7968714916
 20
-11.9333197931
 10
-18.7024661398
 20
-11.9472954025
 10
-18.6060385914
 20
-11.9531240989
 10
-18.5083150711
 20
-11.9506244252
 10
-18.4094336909
 20
-11.9396152435
 10
-18.3097999281
 20
-11.9198791243
 10
-18.2068952001
 20
-11.8902621291
  0
LINE
  5
26E
100
AcDbEntity
  8
ON_OFF_TASTOTARGHETTA
100
AcDbLine
 62
7
  6
CONTINUOUS
 10
-49.1182214482
 20
3.1824305376
 11
-19.0754150688
 21
-11.8389726521
  0
LINE
  5
26F
100
AcDbEntity
  8
ON_OFF_TASTOTARGHETTA
100
AcDbLine
 62
7
  6
CONTINUOUS
 10
-49.5034570997
 20
4.0399888196
 11
-19.4684197006
 21
-10.97752988
  0
LINE
  5
270
100
AcDbEntity
  8
ON_OFF_TASTOTARGHETTA
100
AcDbLine
 62
7
  6
CONTINUOUS
 10
-19.0763542145
 20
-11.8385019998
 11
-19.0754142326
 21
-11.8389730702
  0
LINE
  5
271
100
AcDbEntity
  8
ON_OFF_PORTATASTO
100
AcDbLine
 62
7
  6
CONTINUOUS
 10
-42.1775410641
 20
46.2429168142
 11
-42.1775410641
 21
45.9029428801
  0
LINE
  5
272
100
AcDbEntity
  8
ON_OFF_PORTATASTO
100
AcDbLine
 62
250
  6
CONTINUOUS
 10
-42.1043177594
 20
46.1545284665
 11
-42.1043177594
 21
45.8145545324
  0
LINE
  5
273
100
AcDbEntity
  8
ON_OFF_PORTATASTO
100
AcDbLine
 62
7
  6
CONTINUOUS
 10
-41.8194755116
 20
43.9614240516
 11
-41.8194755116
 21
43.8647277343
  0
LWPOLYLINE
  5
274
100
AcDbEntity
  8
ON_OFF_PORTATASTO
100
AcDbPolyline
 62
250
  6
CONTINUOUS
 90
31
 70
0
 10
-42.1043177594
 20
46.1545284665
 10
-42.1040771827
 20
46.1659402653
 10
-42.1033561056
 20
46.1775616052
 10
-42.1021564874
 20
46.1893608562
 10
-42.1004815885
 20
46.2013059155
 10
-42.0983359655
 20
46.2133642598
 10
-42.0957254639
 20
46.2255030326
 10
-42.0926571926
 20
46.2376891848
 10
-42.0891395023
 20
46.2498895562
 10
-42.0851819718
 20
46.2620709299
 10
-42.080795375
 20
46.2742001506
 10
-42.0759916534
 20
46.2862442047
 10
-42.0707838884
 20
46.2981703007
 10
-42.065186253
 20
46.3099459879
 10
-42.0592139895
 20
46.3215392073
 10
-42.0528833758
 20
46.3329183715
 10
-42.0462116747
 20
46.3440524696
 10
-42.0392170262
 20
46.3549112473
 10
-42.0319184076
 20
46.3654652456
 10
-42.0243355759
 20
46.3756858734
 10
-42.0164892644
 20
46.3855451631
 10
-42.0084010898
 20
46.3950159792
 10
-42.0000932564
 20
46.4040724001
 10
-41.9915882287
 20
46.4126900134
 10
-41.9829089128
 20
46.4208456374
 10
-41.9740770746
 20
46.4285186238
 10
-41.9651185471
 20
46.4356863369
 10
-41.9560631394
 20
46.4423254675
 10
-41.9469374546
 20
46.4484177594
 10
-41.9377645944
 20
46.4539490268
 10
-41.9285695034
 20
46.4589052815
  0
LINE
  5
275
100
AcDbEntity
  8
ON_OFF_PORTATASTO
100
AcDbLine
 62
7
  6
CONTINUOUS
 10
-29.7802784881
 20
40.2768859674
 11
-29.880629547
 21
40.2196443543
  0
LINE
  5
276
100
AcDbEntity
  8
ON_OFF_PORTATASTO
100
AcDbLine
 62
7
  6
CONTINUOUS
 10
-29.880629547
 20
40.2196443543
 11
-30.2383086963
 21
40.0200484024
  0
LINE
  5
277
100
AcDbEntity
  8
ON_OFF_PORTATASTO
100
AcDbLine
 62
7
  6
CONTINUOUS
 10
-30.2383086963
 20
41.2527753748
 11
-29.880629547
 21
41.4320799196
  0
LINE
  5
278
100
AcDbEntity
  8
ON_OFF_PORTATASTO
100
AcDbLine
 62
7
  6
CONTINUOUS
 10
-29.880629547
 20
41.4320799196
 11
-24.6061374779
 21
44.0623890535
  0
LINE
  5
279
100
AcDbEntity
  8
ON_OFF_CORPO
100
AcDbLine
 62
250
  6
CONTINUOUS
 10
-25.3872061672
 20
44.5386716921
 11
-21.5735480694
 21
46.4302742233
  0
LINE
  5
27A
100
AcDbEntity
  8
ON_OFF_CORPO
100
AcDbLine
 62
250
  6
CONTINUOUS
 10
-24.8759374723
 20
44.3212437924
 11
-21.3614483438
 21
46.0644563093
  0
LINE
  5
27B
100
AcDbEntity
  8
ON_OFF_CORPO
100
AcDbLine
 62
7
  6
CONTINUOUS
 10
-23.6011568192
 20
44.2463501177
 11
-20.6514191851
 21
45.70944173
  0
LINE
  5
27C
100
AcDbEntity
  8
ON_OFF_CORPO
100
AcDbLine
 62
7
  6
CONTINUOUS
 10
-22.3829511828
 20
43.7258293893
 11
-19.9494203704
 21
44.9328786125
  0
LINE
  5
27D
100
AcDbEntity
  8
ON_OFF_PORTATASTO
100
AcDbLine
 62
7
  6
CONTINUOUS
 10
-29.7802784881
 20
40.2768859674
 11
-24.5557954768
 21
42.8635334754
  0
LINE
  5
27E
100
AcDbEntity
  8
ON_OFF_PORTATASTO
100
AcDbLine
 62
7
  6
CONTINUOUS
 10
-25.2116679126
 20
44.3651542708
 11
-29.8099188689
 21
42.0987929733
  0
LINE
  5
27F
100
AcDbEntity
  8
ON_OFF_PORTATASTO
100
AcDbLine
 62
7
  6
CONTINUOUS
 10
-23.7933406364
 20
44.185153148
 11
-24.432201413
 21
43.8725510229
  0
LWPOLYLINE
  5
280
100
AcDbEntity
  8
ON_OFF_PORTATASTO
100
AcDbPolyline
 62
7
  6
CONTINUOUS
 90
7
 70
0
 10
-25.2116679126
 20
44.3651542708
 10
-25.2034586532
 20
44.3690817559
 10
-25.1952746955
 20
44.3727668181
 10
-25.1871160394
 20
44.3762094574
 10
-25.178982685
 20
44.3794096738
 10
-25.1708746322
 20
44.3823674673
 10
-25.1627918811
 20
44.3850828379
  0
LWPOLYLINE
  5
281
100
AcDbEntity
  8
ON_OFF_PORTATASTO
100
AcDbPolyline
 62
7
  6
CONTINUOUS
 90
20
 70
0
 10
-23.7933406364
 20
44.185153148
 10
-23.7671159917
 20
44.1973957376
 10
-23.7409615539
 20
44.2084087388
 10
-23.7148773232
 20
44.2181921514
 10
-23.6888068353
 20
44.2267641592
 10
-23.6628065545
 20
44.2341065785
 10
-23.637045873
 20
44.2401648582
 10
-23.6115393884
 20
44.2449227125
 10
-23.5862725033
 20
44.2483964272
 10
-23.5613708177
 20
44.2505803089
 10
-23.5368695505
 20
44.2514729883
 10
-23.5127334829
 20
44.2510758347
 10
-23.488982558
 20
44.249387262
 10
-23.4655796557
 20
44.2464033455
 10
-23.4425618961
 20
44.2421280099
 10
-23.4200605828
 20
44.2365714431
 10
-23.398075785
 20
44.2297179112
 10
-23.3766074334
 20
44.2215831481
 10
-23.3557866236
 20
44.2122245436
 10
-23.3522969723
 20
44.210503937
  0
LINE
  5
282
100
AcDbEntity
  8
ON_OFF_PORTATASTO
100
AcDbLine
 62
7
  6
CONTINUOUS
 10
-30.801975999
 20
41.1204977105
 11
-30.88955958
 21
41.094522505
  0
LWPOLYLINE
  5
283
100
AcDbEntity
  8
ON_OFF_PORTATASTO
100
AcDbPolyline
 62
7
  6
CONTINUOUS
 90
17
 70
0
 10
-25.1627918811
 20
44.3850828379
 10
-25.1517591563
 20
44.3882997357
 10
-25.1401620086
 20
44.3908835509
 10
-25.1279974681
 20
44.3928171591
 10
-25.1152386891
 20
44.3941016791
 10
-25.1019105524
 20
44.3946991658
 10
-25.0880968699
 20
44.3945376135
 10
-25.0738091177
 20
44.3935887274
 10
-25.0590588565
 20
44.3918521889
 10
-25.0439440961
 20
44.389307178
 10
-25.0285198904
 20
44.3859441142
 10
-25.0127737636
 20
44.3817558746
 10
-24.9967082468
 20
44.3767294948
 10
-24.9803819532
 20
44.3708736509
 10
-24.9637825371
 20
44.364162951
 10
-24.9468025674
 20
44.3565249175
 10
-24.9360197257
 20
44.3512833632
  0
LWPOLYLINE
  5
284
100
AcDbEntity
  8
ON_OFF_PORTATASTO
100
AcDbPolyline
 62
7
  6
CONTINUOUS
 90
5
 70
0
 10
-30.88955958
 20
41.094522505
 10
-30.9120009648
 20
41.0879620451
 10
-30.9227539193
 20
41.0848587012
 10
-30.9332033517
 20
41.0818985659
 10
-30.9433526156
 20
41.07909595
  0
LWPOLYLINE
  5
285
100
AcDbEntity
  8
ON_OFF_PORTATASTO
100
AcDbPolyline
 62
250
  6
CONTINUOUS
 90
31
 70
0
 10
-11.5051123384
 20
-11.1246262516
 10
-11.4956543202
 20
-11.1291147852
 10
-11.4857410832
 20
-11.1333506315
 10
-11.4753995981
 20
-11.1373222662
 10
-11.4646580005
 20
-11.1410188837
 10
-11.4535455148
 20
-11.1444304268
 10
-11.4420923745
 20
-11.1475476138
 10
-11.4303297396
 20
-11.1503619639
 10
-11.4182896126
 20
-11.1528658202
 10
-11.4060047505
 20
-11.1550523704
 10
-11.3935085765
 20
-11.1569156657
 10
-11.3808350884
 20
-11.1584506367
 10
-11.3680187667
 20
-11.1596531073
 10
-11.3550944804
 20
-11.1605198059
 10
-11.3420973921
 20
-11.1610483745
 10
-11.3290628626
 20
-11.1612373751
 10
-11.3160263546
 20
-11.1610862934
 10
-11.3030233361
 20
-11.1605955405
 10
-11.290089184
 20
-11.1597664516
 10
-11.2772590879
 20
-11.1586012823
 10
-11.2645679543
 20
-11.1571032028
 10
-11.2520503114
 20
-11.1552762887
 10
-11.2397402157
 20
-11.1531255105
 10
-11.2276711589
 20
-11.1506567197
 10
-11.2158759769
 20
-11.1478766332
 10
-11.2043867604
 20
-11.1447928146
 10
-11.1932347679
 20
-11.1414136539
 10
-11.1824503403
 20
-11.1377483448
 10
-11.1720628183
 20
-11.1338068593
 10
-11.162100463
 20
-11.129599921
 10
-11.1525903788
 20
-11.1251389754
  0
LWPOLYLINE
  5
286
100
AcDbEntity
  8
ON_OFF_PORTATASTO
100
AcDbPolyline
 62
250
  6
CONTINUOUS
 90
31
 70
0
 10
-11.5051123384
 20
-10.7846523174
 10
-11.4956543202
 20
-10.7891408511
 10
-11.4857410832
 20
-10.7933766974
 10
-11.4753995981
 20
-10.797348332
 10
-11.4646580005
 20
-10.8010449496
 10
-11.4535455148
 20
-10.8044564927
 10
-11.4420923745
 20
-10.8075736797
 10
-11.4303297396
 20
-10.8103880298
 10
-11.4182896126
 20
-10.812891886
 10
-11.4060047505
 20
-10.8150784363
 10
-11.3935085765
 20
-10.8169417316
 10
-11.3808350884
 20
-10.8184767026
 10
-11.3680187667
 20
-10.8196791732
 10
-11.3550944804
 20
-10.8205458718
 10
-11.3420973921
 20
-10.8210744404
 10
-11.3290628626
 20
-10.8212634409
 10
-11.3160263546
 20
-10.8211123593
 10
-11.3030233361
 20
-10.8206216064
 10
-11.290089184
 20
-10.8197925175
 10
-11.2772590879
 20
-10.8186273482
 10
-11.2645679543
 20
-10.8171292686
 10
-11.2520503114
 20
-10.8153023545
 10
-11.2397402157
 20
-10.8131515763
 10
-11.2276711589
 20
-10.8106827856
 10
-11.2158759769
 20
-10.807902699
 10
-11.2043867604
 20
-10.8048188804
 10
-11.1932347679
 20
-10.8014397198
 10
-11.1824503403
 20
-10.7977744107
 10
-11.1720628183
 20
-10.7938329252
 10
-11.162100463
 20
-10.7896259868
 10
-11.1525903788
 20
-10.7851650413
  0
LINE
  5
287
100
AcDbEntity
  8
ON_OFF_PORTATASTO
100
AcDbLine
 62
7
  6
CONTINUOUS
 10
-12.7651237218
 20
-10.5973523618
 11
-11.440139042
 21
-11.2598447017
  0
LINE
  5
288
100
AcDbEntity
  8
ON_OFF_PORTATASTO
100
AcDbLine
 62
250
  6
CONTINUOUS
 10
-12.8300970182
 20
-10.4621339117
 11
-11.5051123384
 21
-11.1246262516
  0
LINE
  5
289
100
AcDbEntity
  8
ON_OFF_PORTATASTO
100
AcDbLine
 62
250
  6
CONTINUOUS
 10
-11.5051123384
 20
-10.7846523174
 11
-12.8300970182
 21
-10.1221599775
  0
LINE
  5
28A
100
AcDbEntity
  8
ON_OFF_PORTATASTO
100
AcDbLine
 62
250
  6
CONTINUOUS
 10
-11.4167239908
 20
-10.5529581436
 11
-12.7417086706
 21
-9.8904658037
  0
LWPOLYLINE
  5
28B
100
AcDbEntity
  8
ON_OFF_PORTATASTO
100
AcDbPolyline
 62
250
  6
CONTINUOUS
 90
16
 70
0
 10
-12.8300970182
 20
-10.4621339117
 10
-12.8390740854
 20
-10.4574049026
 10
-12.8475457781
 20
-10.4524482841
 10
-12.8554890474
 20
-10.4472775415
 10
-12.8628822825
 20
-10.4419067427
 10
-12.8697053687
 20
-10.4363504999
 10
-12.8759397427
 20
-10.4306239297
 10
-12.8815684429
 20
-10.4247426123
 10
-12.8865761554
 20
-10.4187225488
 10
-12.8909492558
 20
-10.4125801177
 10
-12.8946758465
 20
-10.4063320307
 10
-12.8977457886
 20
-10.3999952867
 10
-12.9001507297
 20
-10.3935871258
 10
-12.9018841269
 20
-10.3871249827
 10
-12.9029412641
 20
-10.3806264385
 10
-12.9033203229
 20
-10.373745564
  0
LWPOLYLINE
  5
28C
100
AcDbEntity
  8
ON_OFF_PORTATASTO
100
AcDbPolyline
 62
250
  6
CONTINUOUS
 90
16
 70
0
 10
-12.8300970182
 20
-10.1221599775
 10
-12.8390740854
 20
-10.1174309685
 10
-12.8475457781
 20
-10.11247435
 10
-12.8554890474
 20
-10.1073036074
 10
-12.8628822825
 20
-10.1019328086
 10
-12.8697053687
 20
-10.0963765657
 10
-12.8759397427
 20
-10.0906499956
 10
-12.8815684429
 20
-10.0847686781
 10
-12.8865761554
 20
-10.0787486146
 10
-12.8909492558
 20
-10.0726061836
 10
-12.8946758465
 20
-10.0663580966
 10
-12.8977457886
 20
-10.0600213525
 10
-12.9001507297
 20
-10.0536131917
 10
-12.9018841269
 20
-10.0471510485
 10
-12.9029412641
 20
-10.0406525044
 10
-12.9033203229
 20
-10.0337716299
  0
LWPOLYLINE
  5
28D
100
AcDbEntity
  8
ON_OFF_PORTATASTO
100
AcDbPolyline
 62
250
  6
CONTINUOUS
 90
31
 70
0
 10
-40.4268111199
 20
45.4915234028
 10
-40.4271062092
 20
45.5029515317
 10
-40.4278823783
 20
45.5145921108
 10
-40.4291375016
 20
45.526413223
 10
-40.4308681422
 20
45.5383824669
 10
-40.4330695563
 20
45.550467013
 10
-40.4357357026
 20
45.5626336931
 10
-40.4388592672
 20
45.5748491381
 10
-40.4424316859
 20
45.5870798611
 10
-40.4464431586
 20
45.5992923159
 10
-40.4508826842
 20
45.6114530165
 10
-40.4557380874
 20
45.6235286188
 10
-40.4609960485
 20
45.6354860025
 10
-40.4666421519
 20
45.6472923908
 10
-40.4726609098
 20
45.6589154034
 10
-40.4790357966
 20
45.6703231376
 10
-40.4857493003
 20
45.6814842753
 10
-40.4927830323
 20
45.6923682635
 10
-40.5001177673
 20
45.7029453554
 10
-40.5077335017
 20
45.713186683
 10
-40.5156092596
 20
45.723064017
 10
-40.5237231868
 20
45.7325499755
 10
-40.5320528467
 20
45.7416184059
 10
-40.5405755475
 20
45.7502446792
 10
-40.5492681621
 20
45.7584054145
 10
-40.5581087021
 20
45.7660797748
 10
-40.5670711415
 20
45.7732449762
 10
-40.5761255185
 20
45.7798776027
 10
-40.5852450744
 20
45.7859592931
 10
-40.5944065388
 20
45.7914757589
 10
-40.6035848236
 20
45.7964129416
  0
LWPOLYLINE
  5
28E
100
AcDbEntity
  8
ON_OFF_PORTATASTO
100
AcDbPolyline
 62
250
  6
CONTINUOUS
 90
19
 70
0
 10
-42.1043177594
 20
45.8145545324
 10
-42.1040979047
 20
45.8038698759
 10
-42.1034388874
 20
45.7934316494
 10
-42.1023423467
 20
45.783265817
 10
-42.1008110158
 20
45.7733976984
 10
-42.0988487005
 20
45.7638518037
 10
-42.0964602547
 20
45.7546517833
 10
-42.0936515846
 20
45.7458204714
 10
-42.0904296791
 20
45.7373799143
 10
-42.0868025815
 20
45.729351206
 10
-42.0827793019
 20
45.7217542951
 10
-42.0783698593
 20
45.7146081043
 10
-42.0735853227
 20
45.707930539
 10
-42.0684376893
 20
45.7017382617
 10
-42.0629397214
 20
45.6960465493
 10
-42.0571049876
 20
45.6908694231
 10
-42.0509467712
 20
45.686218908
 10
-42.044481497
 20
45.6821076343
 10
-42.0393444629
 20
45.6793360823
  0
LWPOLYLINE
  5
28F
100
AcDbEntity
  8
ON_OFF_PORTATASTO
100
AcDbPolyline
 62
250
  6
CONTINUOUS
 90
19
 70
0
 10
-40.7793330795
 20
45.1520621925
 10
-40.7791132249
 20
45.1413775359
 10
-40.7784542076
 20
45.1309393095
 10
-40.7773576668
 20
45.120773477
 10
-40.7758263359
 20
45.1109053585
 10
-40.7738640207
 20
45.1013594638
 10
-40.7714755748
 20
45.0921594434
 10
-40.7686669047
 20
45.0833281315
 10
-40.7654449992
 20
45.0748875744
 10
-40.7618179016
 20
45.0668588661
 10
-40.757794622
 20
45.0592619552
 10
-40.7533851795
 20
45.0521157644
 10
-40.7486006429
 20
45.0454381991
 10
-40.7434530095
 20
45.0392459218
 10
-40.7379550415
 20
45.0335542094
 10
-40.7321203078
 20
45.0283770831
 10
-40.7259620914
 20
45.0237265681
 10
-40.7194968172
 20
45.0196152944
 10
-40.7143706542
 20
45.0168491788
  0
LINE
  5
290
100
AcDbEntity
  8
ON_OFF_PORTATASTO
100
AcDbLine
 62
7
  6
CONTINUOUS
 10
-41.4745481098
 20
45.3969379057
 11
-41.4745481098
 21
44.9429638041
  0
LINE
  5
291
100
AcDbEntity
  8
ON_OFF_PORTATASTO
100
AcDbLine
 62
250
  6
CONTINUOUS
 10
-41.4013248051
 20
45.3603262534
 11
-41.4013248051
 21
44.8512521092
  0
LINE
  5
292
100
AcDbEntity
  8
ON_OFF_PORTATASTO
100
AcDbLine
 62
250
  6
CONTINUOUS
 10
-40.7793330795
 20
45.1520621925
 11
-40.7793330795
 21
45.4920361266
  0
LINE
  5
293
100
AcDbEntity
  8
ON_OFF_PORTATASTO
100
AcDbLine
 62
250
  6
CONTINUOUS
 10
-40.4268111199
 20
45.1515494686
 11
-40.4268111199
 21
45.4915234028
  0
LINE
  5
294
100
AcDbEntity
  8
ON_OFF_PORTATASTO
100
AcDbLine
 62
250
  6
CONTINUOUS
 10
-40.0681124714
 20
44.8734665653
 11
-40.0681124714
 21
44.1846459424
  0
LINE
  5
295
100
AcDbEntity
  8
ON_OFF_PORTATASTO
100
AcDbLine
 62
250
  6
CONTINUOUS
 10
-39.7155905118
 20
45.0030459458
 11
-39.7155905118
 21
44.195413824
  0
LINE
  5
296
100
AcDbEntity
  8
ON_OFF_PORTATASTO
100
AcDbLine
 62
7
  6
CONTINUOUS
 10
-38.8255303291
 20
44.6996524345
 11
-38.8255303291
 21
46.2942454063
  0
LWPOLYLINE
  5
297
100
AcDbEntity
  8
ON_OFF_PORTATASTO
100
AcDbPolyline
 62
250
  6
CONTINUOUS
 90
31
 70
0
 10
-40.7793330795
 20
45.4920361266
 10
-40.7790926041
 20
45.5034455025
 10
-40.7783718319
 20
45.5150643127
 10
-40.777172724
 20
45.5268609463
 10
-40.7754985427
 20
45.5388033086
 10
-40.773353843
 20
45.5508589083
 10
-40.7707444598
 20
45.5629949462
 10
-40.7676774925
 20
45.575178404
 10
-40.7641612852
 20
45.5873761347
 10
-40.7602054044
 20
45.5995549521
 10
-40.7558206127
 20
45.6116817219
 10
-40.7510188397
 20
45.6237234511
 10
-40.7458131494
 20
45.635647378
 10
-40.7402177048
 20
45.6474210616
 10
-40.7342477293
 20
45.6590124697
 10
-40.7279194651
 20
45.6703900659
 10
-40.7212501295
 20
45.6815228954
 10
-40.7142578673
 20
45.6923806694
 10
-40.7069617024
 20
45.7029338477
 10
-40.6993814851
 20
45.7131537185
 10
-40.6915378387
 20
45.7230124769
 10
-40.6834521031
 20
45.7324833004
 10
-40.6751462771
 20
45.7415404222
 10
-40.6666429579
 20
45.7501592006
 10
-40.6579652804
 20
45.758316187
 10
-40.6491368535
 20
45.7659891889
 10
-40.6401816966
 20
45.7731573304
 10
-40.6311241737
 20
45.7798011096
 10
-40.6219889272
 20
45.7859024509
 10
-40.6128008112
 20
45.7914447544
 10
-40.6035848236
 20
45.7964129416
  0
LWPOLYLINE
  5
298
100
AcDbEntity
  8
ON_OFF_PORTATASTO
100
AcDbPolyline
 62
250
  6
CONTINUOUS
 90
16
 70
0
 10
-38.2250653003
 20
46.6455568585
 10
-38.2253666622
 20
46.6394211004
 10
-38.2263464629
 20
46.632918228
 10
-38.2280032191
 20
46.6264497391
 10
-38.2303324246
 20
46.6200332441
 10
-38.2333277457
 20
46.6136862032
 10
-38.236981031
 20
46.6074258976
 10
-38.2412823402
 20
46.6012693672
 10
-38.2462199689
 20
46.5952333692
 10
-38.2517804766
 20
46.5893343374
 10
-38.2579487345
 20
46.5835883244
 10
-38.2647079515
 20
46.5780109745
 10
-38.27203971
 20
46.5726174835
 10
-38.2799240433
 20
46.5674225353
 10
-38.2883394952
 20
46.5624402631
 10
-38.2972631573
 20
46.5576842263
  0
LWPOLYLINE
  5
299
100
AcDbEntity
  8
ON_OFF_PORTATASTO
100
AcDbPolyline
 62
250
  6
CONTINUOUS
 90
16
 70
0
 10
-38.2250653004
 20
46.2980230295
 10
-38.2253682368
 20
46.2918735848
 10
-38.2263494857
 20
46.2853718488
 10
-38.2280074531
 20
46.2789045406
 10
-38.2303376274
 20
46.272489259
 10
-38.2333336689
 20
46.2661434567
 10
-38.2369874293
 20
46.2598843948
 10
-38.2412889756
 20
46.2537290947
 10
-38.2462266009
 20
46.2476943134
 10
-38.2517868515
 20
46.2417964917
 10
-38.2579545808
 20
46.2360516871
 10
-38.2647130134
 20
46.2304755168
 10
-38.2720437763
 20
46.2250831373
 10
-38.2799269308
 20
46.2198892157
 10
-38.2883410223
 20
46.2149078887
 10
-38.2972631573
 20
46.2101527096
  0
LWPOLYLINE
  5
29A
100
AcDbEntity
  8
ON_OFF_PORTATASTO
100
AcDbPolyline
 62
7
  6
CONTINUOUS
 90
5
 70
0
 10
-36.5962848856
 20
44.2193628393
 10
-36.5983214289
 20
44.2102414413
 10
-36.5998357877
 20
44.2004078438
 10
-36.6007921714
 20
44.1899496839
 10
-36.6011241577
 20
44.1784038656
  0
LINE
  5
29B
100
AcDbEntity
  8
ON_OFF_CORPO
100
AcDbLine
 62
7
  6
CONTINUOUS
 10
-20.6441845569
 20
44.1429652747
 11
-20.1578496264
 21
44.3947725562
  0
LINE
  5
29C
100
AcDbEntity
  8
ON_OFF_PORTATASTO
100
AcDbLine
 62
7
  6
CONTINUOUS
 10
-27.0941633397
 20
40.5953922326
 11
-28.6773370051
 21
39.7831941744
  0
LINE
  5
29D
100
AcDbEntity
  8
ON_OFF_PORTATASTO
100
AcDbLine
 62
250
  6
CONTINUOUS
 10
-26.9814947358
 20
40.5887302966
 11
-28.564251339
 21
39.7767461993
  0
LINE
  5
29E
100
AcDbEntity
  8
ON_OFF_PORTATASTO
100
AcDbLine
 62
7
  6
CONTINUOUS
 10
-24.5485789275
 20
39.3226000264
 11
-26.1317525928
 21
38.5104019683
  0
LINE
  5
29F
100
AcDbEntity
  8
ON_OFF_PORTATASTO
100
AcDbLine
 62
250
  6
CONTINUOUS
 10
-24.4359103235
 20
39.3159380905
 11
-26.0186669267
 21
38.5039539931
  0
LINE
  5
2A0
100
AcDbEntity
  8
ON_OFF_CORPO
100
AcDbLine
 62
7
  6
CONTINUOUS
 10
-20.6441845569
 20
44.1429652747
 11
-21.9219039826
 21
43.4953057892
  0
LINE
  5
2A1
100
AcDbEntity
  8
ON_OFF_PORTATASTO
100
AcDbLine
 62
250
  6
CONTINUOUS
 10
-25.6379858683
 20
39.9169758629
 11
-27.2392666591
 21
39.1142538594
  0
LINE
  5
2A2
100
AcDbEntity
  8
ON_OFF_PORTATASTO
100
AcDbLine
 62
250
  6
CONTINUOUS
 10
-25.4612121646
 20
39.6120863241
 11
-27.0624929555
 21
38.8093643206
  0
LINE
  5
2A3
100
AcDbEntity
  8
ON_OFF_PORTATASTO
100
AcDbLine
 62
7
  6
CONTINUOUS
 10
-27.0924269493
 20
40.5962604419
 11
-27.0941633629
 21
40.5953922207
  0
LINE
  5
2A4
100
AcDbEntity
  8
ON_OFF_PORTATASTO
100
AcDbLine
 62
7
  6
CONTINUOUS
 10
-24.546842537
 20
39.3234682358
 11
-24.5485789506
 21
39.3226000146
  0
LINE
  5
2A5
100
AcDbEntity
  8
ON_OFF_PORTATASTO
100
AcDbLine
 62
250
  6
CONTINUOUS
 10
-25.1097186966
 20
40.1804146829
 11
-25.6379858683
 21
39.9169758629
  0
LINE
  5
2A6
100
AcDbEntity
  8
ON_OFF_PORTATASTO
100
AcDbLine
 62
250
  6
CONTINUOUS
 10
-24.9329449929
 20
39.8755251441
 11
-25.4612121646
 21
39.6120863241
  0
LINE
  5
2A7
100
AcDbEntity
  8
ON_OFF_PORTATASTO
100
AcDbLine
 62
7
  6
CONTINUOUS
 10
-20.2578067305
 20
42.417386195
 11
-20.2639773229
 21
42.4143668513
  0
LINE
  5
2A8
100
AcDbEntity
  8
ON_OFF_PORTATASTO
100
AcDbLine
 62
7
  6
CONTINUOUS
 10
-26.5575569682
 20
40.8568125542
 11
-27.0924269259
 21
40.5962604539
  0
LINE
  5
2A9
100
AcDbEntity
  8
ON_OFF_PORTATASTO
100
AcDbLine
 62
250
  6
CONTINUOUS
 10
-26.4470448571
 20
40.8490777632
 11
-26.9814947358
 21
40.5887302966
  0
LINE
  5
2AA
100
AcDbEntity
  8
ON_OFF_PORTATASTO
100
AcDbLine
 62
7
  6
CONTINUOUS
 10
-24.0119725559
 20
39.5840203481
 11
-24.5468425137
 21
39.3234682477
  0
LINE
  5
2AB
100
AcDbEntity
  8
ON_OFF_PORTATASTO
100
AcDbLine
 62
250
  6
CONTINUOUS
 10
-23.9014604448
 20
39.5762855571
 11
-24.4359103235
 21
39.3159380905
  0
LINE
  5
2AC
100
AcDbEntity
  8
ON_OFF_CORPO
100
AcDbLine
 62
7
  6
CONTINUOUS
 10
-19.5235216648
 20
42.0441390222
 11
-13.0878591649
 21
45.149997205
  0
LINE
  5
2AD
100
AcDbEntity
  8
ON_OFF_CORPO
100
AcDbLine
 62
7
  6
CONTINUOUS
 10
-14.7094238949
 20
45.7783246739
 11
-20.8323767134
 21
42.9505421546
  0
LINE
  5
2AE
100
AcDbEntity
  8
ON_OFF_CORPO
100
AcDbLine
 62
7
  6
CONTINUOUS
 10
-14.7094905981
 20
45.7782938602
 11
-14.7094238998
 21
45.7783246716
  0
LINE
  5
2AF
100
AcDbEntity
  8
ON_OFF_CORPO
100
AcDbLine
 62
250
  6
CONTINUOUS
 10
-14.2752688014
 20
45.7437020233
 11
-20.5470344952
 21
42.8471927867
  0
LWPOLYLINE
  5
2B0
100
AcDbEntity
  8
ON_OFF_CORPO
100
AcDbPolyline
 62
250
  6
CONTINUOUS
 90
3
 70
0
 10
-20.5470344952
 20
42.8471927867
 10
-20.5819138614
 20
42.8315867003
 10
-20.5887464156
 20
42.8287270057
  0
LWPOLYLINE
  5
2B1
100
AcDbEntity
  8
ON_OFF_CORPO
100
AcDbPolyline
 62
250
  6
CONTINUOUS
 90
19
 70
0
 10
-14.7094238998
 20
45.7783246716
 10
-14.6926159165
 20
45.7855934893
 10
-14.6711083737
 20
45.7935240557
 10
-14.6490561028
 20
45.8001697623
 10
-14.6264898897
 20
45.8055213822
 10
-14.6034411367
 20
45.8095715083
 10
-14.5799422157
 20
45.812314386
 10
-14.5560258329
 20
45.8137462653
 10
-14.5317252624
 20
45.8138652014
 10
-14.5070745603
 20
45.812670844
 10
-14.4821076
 20
45.8101648891
 10
-14.4568594456
 20
45.8063508753
 10
-14.431366591
 20
45.8012340468
 10
-14.4056650843
 20
45.7948219381
 10
-14.3797899863
 20
45.7871235663
 10
-14.3537767218
 20
45.7781490482
 10
-14.3276612018
 20
45.7679106415
 10
-14.3014797967
 20
45.7564229371
 10
-14.2752688014
 20
45.7437020233
  0
LWPOLYLINE
  5
2B2
100
AcDbEntity
  8
ON_OFF_PORTATASTO
100
AcDbPolyline
 62
250
  6
CONTINUOUS
 90
5
 70
0
 10
-9.0890474862
 20
-9.4150792078
 10
-9.0906211857
 20
-9.4143107928
 10
-9.0976488856
 20
-9.4113045872
 10
-9.1049332671
 20
-9.4088639643
 10
-9.1124562115
 20
-9.4069949944
  0
LINE
  5
2B3
100
AcDbEntity
  8
ON_OFF_PORTATASTO
100
AcDbLine
 62
7
  6
CONTINUOUS
 10
-11.362006498
 20
-9.4919060422
 11
-13.6653342078
 21
-8.3402421873
  0
LINE
  5
2B4
100
AcDbEntity
  8
ON_OFF_PORTATASTO
100
AcDbLine
 62
7
  6
CONTINUOUS
 10
-13.6379557819
 20
-8.0075212387
 11
-11.0158811053
 21
-9.318558577
  0
LINE
  5
2B5
100
AcDbEntity
  8
ON_OFF_PORTATASTO
100
AcDbLine
 62
250
  6
CONTINUOUS
 10
-9.5513095879
 20
-9.1875683062
 11
-9.1124562115
 21
-9.4069949944
  0
LINE
  5
2B6
100
AcDbEntity
  8
ON_OFF_PORTATASTO
100
AcDbLine
 62
7
  6
CONTINUOUS
 10
-9.5513095879
 20
-9.1839481566
 11
-9.0890411603
 21
-9.4150823705
  0
LINE
  5
2B7
100
AcDbEntity
  8
ON_OFF_PORTATASTO
100
AcDbLine
 62
7
  6
CONTINUOUS
 10
-13.5656643407
 20
-7.1289872771
 11
-10.1997324472
 21
-8.8119532238
  0
LWPOLYLINE
  5
2B8
100
AcDbEntity
  8
ON_OFF_PORTATASTO
100
AcDbPolyline
 62
7
  6
CONTINUOUS
 90
27
 70
0
 10
-36.6011241577
 20
44.1784038656
 10
-36.6008479213
 20
44.1675120445
 10
-36.6000567372
 20
44.1556521945
 10
-36.5987449668
 20
44.1434393779
 10
-36.596892209
 20
44.1309335728
 10
-36.5945693793
 20
44.1181566251
 10
-36.5917748431
 20
44.1051516688
 10
-36.588497145
 20
44.0919646902
 10
-36.5847893953
 20
44.0786071776
 10
-36.5806513802
 20
44.065111614
 10
-36.5760771764
 20
44.0515141631
 10
-36.5711076842
 20
44.0378229752
 10
-36.5657432162
 20
44.0240638041
 10
-36.5599811716
 20
44.0102657998
 10
-36.5538546174
 20
43.9964370197
 10
-36.5473640724
 20
43.9825986997
 10
-36.5405090267
 20
43.9687751657
 10
-36.5333180151
 20
43.9549762056
 10
-36.5257917168
 20
43.9412199194
 10
-36.5179310774
 20
43.9275272921
 10
-36.509762638
 20
43.9139109274
 10
-36.5012871097
 20
43.9003862699
 10
-36.4925068386
 20
43.8869722905
 10
-36.4834491537
 20
43.8736861395
 10
-36.4741243119
 20
43.8605438975
 10
-36.4645267146
 20
43.8475602473
 10
-36.4546597153
 20
43.8347494998
  0
LWPOLYLINE
  5
2B9
100
AcDbEntity
  8
ON_OFF_PORTATASTO
100
AcDbPolyline
 62
7
  6
CONTINUOUS
 90
31
 70
0
 10
-38.8255303291
 20
46.2942454063
 10
-38.825772371
 20
46.3056975218
 10
-38.8264985184
 20
46.3173603769
 10
-38.8277066475
 20
46.329202076
 10
-38.8293932131
 20
46.3411902842
 10
-38.831553586
 20
46.3532921488
 10
-38.8341820651
 20
46.3654743892
 10
-38.8372713779
 20
46.3777036528
 10
-38.8408129397
 20
46.3899464809
 10
-38.8447972039
 20
46.4021692327
 10
-38.8492132132
 20
46.4143384277
 10
-38.8540487746
 20
46.4264207568
 10
-38.8592907307
 20
46.4383830486
 10
-38.8649247091
 20
46.4501925192
 10
-38.8709352088
 20
46.4618168301
 10
-38.8773057852
 20
46.4732240969
 10
-38.884019005
 20
46.4843830405
 10
-38.8910564409
 20
46.4952630895
 10
-38.8983987668
 20
46.5058344334
 10
-38.9060259179
 20
46.516068068
 10
-38.9139169945
 20
46.5259359427
 10
-38.9220502661
 20
46.5354110557
 10
-38.9304035304
 20
46.5444673927
 10
-38.9389539308
 20
46.5530801145
 10
-38.9476778681
 20
46.5612256934
 10
-38.9565515499
 20
46.568881746
 10
-38.9655507257
 20
46.5760272558
 10
-38.9746505097
 20
46.5826427487
 10
-38.9838259693
 20
46.5887100911
 10
-38.993052194
 20
46.5942125385
 10
-39.0023040327
 20
46.5991349451
  0
LWPOLYLINE
  5
2BA
100
AcDbEntity
  8
ON_OFF_PORTATASTO
100
AcDbPolyline
 62
250
  6
CONTINUOUS
 90
31
 70
0
 10
-38.2972631573
 20
46.5576842263
 10
-38.2974534013
 20
46.5691647779
 10
-38.2981306521
 20
46.5808548161
 10
-38.2992930557
 20
46.5927222882
 10
-38.3009374292
 20
46.6047346657
 10
-38.3030592655
 20
46.6168590006
 10
-38.3056527418
 20
46.6290620157
 10
-38.3087107434
 20
46.6413102423
 10
-38.3122248858
 20
46.6535701033
 10
-38.3161855288
 20
46.665807973
 10
-38.3205818105
 20
46.6779902956
 10
-38.3254016743
 20
46.6900836675
 10
-38.3306318978
 20
46.70205492
 10
-38.3362581415
 20
46.7138712382
 10
-38.342264972
 20
46.7255002145
 10
-38.3486358963
 20
46.7369099301
 10
-38.355353413
 20
46.7480690612
 10
-38.3623991226
 20
46.7589470606
 10
-38.3697537667
 20
46.7695141979
 10
-38.377397288
 20
46.7797416321
 10
-38.385308634
 20
46.7896011721
 10
-38.3934658515
 20
46.7990654854
 10
-38.4018463836
 20
46.8081084797
 10
-38.4104273991
 20
46.8167055957
 10
-38.4191856123
 20
46.8248335317
 10
-38.4280988709
 20
46.8324715326
 10
-38.4371409366
 20
46.8395969209
 10
-38.4462815762
 20
46.846186416
 10
-38.4554937642
 20
46.8522217904
 10
-38.464753982
 20
46.8576888796
 10
-38.474036861
 20
46.8625737651
  0
LINE
  5
2BB
100
AcDbEntity
  8
ON_OFF_PORTATASTO
100
AcDbLine
 62
250
  6
CONTINUOUS
 10
-38.2972631573
 20
46.5576842263
 11
-38.2972631573
 21
46.2101527096
  0
LINE
  5
2BC
100
AcDbEntity
  8
ON_OFF_PORTATASTO
100
AcDbLine
 62
7
  6
CONTINUOUS
 10
-38.2250653003
 20
46.6455568585
 11
-38.2250653003
 21
46.2980253417
  0
LINE
  5
2BD
100
AcDbEntity
  8
ON_OFF_PORTATASTO
100
AcDbLine
 62
7
  6
CONTINUOUS
 10
-36.6011063247
 20
44.1784064689
 11
-36.6011063247
 21
42.9375895787
  0
LINE
  5
2BE
100
AcDbEntity
  8
ON_OFF_PORTATASTO
100
AcDbLine
 62
250
  6
CONTINUOUS
 10
-36.4546597153
 20
43.8347494998
 11
-36.4546597153
 21
42.754166189
  0
LINE
  5
2BF
100
AcDbEntity
  8
ON_OFF_PORTATASTO
100
AcDbLine
 62
250
  6
CONTINUOUS
 10
-25.4612121646
 20
38.8850414716
 11
-24.9329449929
 21
39.5279936274
  0
LINE
  5
2C0
100
AcDbEntity
  8
ON_OFF_PORTATASTO
100
AcDbLine
 62
7
  6
CONTINUOUS
 10
-25.3775695477
 20
38.8973121463
 11
-24.9175844205
 21
39.4571584608
  0
LWPOLYLINE
  5
2C1
100
AcDbEntity
  8
ON_OFF_PORTATASTO
100
AcDbPolyline
 62
7
  6
CONTINUOUS
 90
36
 70
0
 10
-26.3512723474
 20
38.3208868636
 10
-26.3579129492
 20
38.3131481814
 10
-26.3648005564
 20
38.305505943
 10
-26.3719331389
 20
38.2979731325
 10
-26.3793126377
 20
38.2905642057
 10
-26.3869317407
 20
38.2832909101
 10
-26.3947739897
 20
38.2761623541
 10
-26.4028358394
 20
38.2691920049
 10
-26.4111130154
 20
38.2623930259
 10
-26.419587507
 20
38.2557742963
 10
-26.4282544541
 20
38.249349379
 10
-26.4371083409
 20
38.2431314916
 10
-26.4461297178
 20
38.2371292294
 10
-26.4553123779
 20
38.2313561025
 10
-26.4646495078
 20
38.2258252533
 10
-26.4741202825
 20
38.2205449728
 10
-26.4837171194
 20
38.2155285577
 10
-26.4934318422
 20
38.2107889325
 10
-26.5032422403
 20
38.2063340859
 10
-26.5131393088
 20
38.202176923
 10
-26.5231134512
 20
38.1983299722
 10
-26.5331410246
 20
38.1948008942
 10
-26.5432115446
 20
38.1916019887
 10
-26.5533139476
 20
38.1887451643
 10
-26.5634231106
 20
38.1862376641
 10
-26.5735270035
 20
38.1840909208
 10
-26.5836130781
 20
38.1823159363
 10
-26.5936547539
 20
38.1809193475
 10
-26.6036383799
 20
38.1799113965
 10
-26.6135499679
 20
38.1793018221
 10
-26.6233616955
 20
38.179096348
 10
-26.6330582502
 20
38.1793036363
 10
-26.6426243058
 20
38.1799317538
 10
-26.652031261
 20
38.1809851289
 10
-26.6612517934
 20
38.1824684904
 10
-26.6651416128
 20
38.1832367647
  0
LINE
  5
2C2
100
AcDbEntity
  8
ON_OFF_PORTATASTO
100
AcDbLine
 62
7
  6
CONTINUOUS
 10
-26.0468905579
 20
37.6831091298
 11
-26.3512723474
 21
37.5132547418
  0
LINE
  5
2C3
100
AcDbEntity
  8
ON_OFF_PORTATASTO
100
AcDbLine
 62
7
  6
CONTINUOUS
 10
-22.8141022097
 20
36.7937978282
 11
-23.8056879351
 21
36.2404625357
  0
LINE
  5
2C4
100
AcDbEntity
  8
ON_OFF_CORPO
100
AcDbLine
 62
7
  6
CONTINUOUS
 10
-13.5372066605
 20
43.4835182001
 11
-12.4858027299
 21
44.0184764065
  0
LINE
  5
2C5
100
AcDbEntity
  8
ON_OFF_PORTATASTO
100
AcDbLine
 62
250
  6
CONTINUOUS
 10
-23.092401456
 20
38.6441836567
 11
-24.6936822469
 21
37.8414616532
  0
LINE
  5
2C6
100
AcDbEntity
  8
ON_OFF_PORTATASTO
100
AcDbLine
 62
250
  6
CONTINUOUS
 10
-22.9156277524
 20
38.3392941179
 11
-24.5169085432
 21
37.5365721144
  0
LINE
  5
2C7
100
AcDbEntity
  8
ON_OFF_PORTATASTO
100
AcDbLine
 62
250
  6
CONTINUOUS
 10
-22.5641342843
 20
38.9076224768
 11
-23.092401456
 21
38.6441836567
  0
LINE
  5
2C8
100
AcDbEntity
  8
ON_OFF_PORTATASTO
100
AcDbLine
 62
250
  6
CONTINUOUS
 10
-22.3873605806
 20
38.602732938
 11
-22.9156277524
 21
38.3392941179
  0
LINE
  5
2C9
100
AcDbEntity
  8
ON_OFF_CORPO
100
AcDbLine
 62
7
  6
CONTINUOUS
 10
-13.5372066605
 20
43.4835182001
 11
-17.2072090855
 21
41.664398594
  0
LINE
  5
2CA
100
AcDbEntity
  8
ON_OFF_PORTATASTO
100
AcDbLine
 62
7
  6
CONTINUOUS
 10
-15.6616126528
 20
40.1192891562
 11
-15.6677832452
 21
40.1162698124
  0
LINE
  5
2CB
100
AcDbEntity
  8
ON_OFF_PORTATASTO
100
AcDbLine
 62
7
  6
CONTINUOUS
 10
-22.9156277524
 20
36.7447011462
 11
-22.8141022097
 21
36.7937978282
  0
LINE
  5
2CC
100
AcDbEntity
  8
ON_OFF_CORPO
100
AcDbLine
 62
7
  6
CONTINUOUS
 10
-16.3415411495
 20
40.4531487646
 11
-9.9058786495
 21
43.5590069474
  0
LINE
  5
2CD
100
AcDbEntity
  8
ON_OFF_CORPO
100
AcDbLine
 62
7
  6
CONTINUOUS
 10
-11.5178521893
 20
44.3649937172
 11
-18.0058505939
 21
41.2853034867
  0
LWPOLYLINE
  5
2CE
100
AcDbEntity
  8
ON_OFF_PORTATASTO
100
AcDbPolyline
 62
7
  6
CONTINUOUS
 90
20
 70
0
 10
-15.6616126528
 20
40.1192891562
 10
-15.635388008
 20
40.1315317458
 10
-15.6092335703
 20
40.1425447469
 10
-15.5831493396
 20
40.1523281596
 10
-15.5570788517
 20
40.1609001674
 10
-15.5310785708
 20
40.1682425866
 10
-15.5053178894
 20
40.1743008663
 10
-15.4798114048
 20
40.1790587207
 10
-15.4545445196
 20
40.1825324354
 10
-15.429642834
 20
40.1847163171
 10
-15.4051415669
 20
40.1856089965
 10
-15.3810054992
 20
40.1852118429
 10
-15.3572545743
 20
40.1835232702
 10
-15.333851672
 20
40.1805393537
 10
-15.3108339125
 20
40.1762640181
 10
-15.2883325991
 20
40.1707074513
 10
-15.2663478013
 20
40.1638539193
 10
-15.2448794498
 20
40.1557191562
 10
-15.2240586399
 20
40.1463605517
 10
-15.2205689887
 20
40.1446399452
  0
LINE
  5
2CF
100
AcDbEntity
  8
ON_OFF_PORTATASTO
100
AcDbLine
 62
7
  6
CONTINUOUS
 10
-10.1997324472
 20
-7.0926346707
 11
-13.4297785017
 21
-5.4776116435
  0
LWPOLYLINE
  5
2D0
100
AcDbEntity
  8
ON_OFF_PORTATASTO
100
AcDbPolyline
 62
7
  6
CONTINUOUS
 90
13
 70
0
 10
-12.1912827406
 20
-9.1030889953
 10
-12.1882938946
 20
-9.1055784343
 10
-12.1848762836
 20
-9.1082158484
 10
-12.1810172417
 20
-9.1109867172
 10
-12.1767211521
 20
-9.113894238
 10
-12.1719938971
 20
-9.1169417558
 10
-12.1668258386
 20
-9.1201145792
 10
-12.1612317399
 20
-9.1234111576
 10
-12.1552122649
 20
-9.1268355992
 10
-12.1487349872
 20
-9.1303844707
 10
-12.1417930291
 20
-9.1340601978
 10
-12.1344081303
 20
-9.1378670823
 10
-10.7944059587
 20
-9.8078987261
  0
LWPOLYLINE
  5
2D1
100
AcDbEntity
  8
ON_OFF_PORTATASTO
100
AcDbPolyline
 62
250
  6
CONTINUOUS
 90
27
 70
0
 10
-27.0624929555
 20
38.4693903864
 10
-27.0673769726
 20
38.4574217282
 10
-27.072727576
 20
38.4457285241
 10
-27.0785301544
 20
38.4343427058
 10
-27.084768862
 20
38.4232953657
 10
-27.0914266624
 20
38.4126166715
 10
-27.0984853743
 20
38.4023357847
 10
-27.1059257221
 20
38.3924807803
 10
-27.1137273875
 20
38.38307857
 10
-27.121869066
 20
38.3741548295
 10
-27.1303285243
 20
38.3657339276
 10
-27.1390826613
 20
38.3578388599
 10
-27.1481075715
 20
38.3504911864
 10
-27.1573786095
 20
38.3437109718
 10
-27.1668704582
 20
38.3375167317
 10
-27.1765571974
 20
38.3319253811
 10
-27.1864123745
 20
38.3269521889
 10
-27.1964090771
 20
38.3226107358
 10
-27.2065200064
 20
38.3189128774
 10
-27.2167175515
 20
38.3158687118
 10
-27.226973865
 20
38.313486552
 10
-27.2372609391
 20
38.3117729031
 10
-27.2475506819
 20
38.3107324448
 10
-27.2578149944
 20
38.3103680183
 10
-27.2680258468
 20
38.3106806188
 10
-27.2781553554
 20
38.3116693927
 10
-27.2881758587
 20
38.3133316398
  0
LINE
  5
2D2
100
AcDbEntity
  8
ON_OFF_PORTATASTO
100
AcDbLine
 62
250
  6
CONTINUOUS
 10
-22.3715995144
 20
38.1848786907
 11
-22.3720000082
 21
38.1843662546
  0
LINE
  5
2D3
100
AcDbEntity
  8
ON_OFF_PORTATASTO
100
AcDbLine
 62
250
  6
CONTINUOUS
 10
-22.9156277524
 20
37.6122492655
 11
-22.3873605806
 21
38.2552014212
  0
LINE
  5
2D4
100
AcDbEntity
  8
ON_OFF_PORTATASTO
100
AcDbLine
 62
7
  6
CONTINUOUS
 10
-22.9156277524
 20
37.5227187991
 11
-22.3720000082
 21
38.1843662546
  0
LWPOLYLINE
  5
2D5
100
AcDbEntity
  8
ON_OFF_PORTATASTO
100
AcDbPolyline
 62
7
  6
CONTINUOUS
 90
36
 70
0
 10
-23.8056879351
 20
37.0480946574
 10
-23.8123285369
 20
37.0403559753
 10
-23.8192161442
 20
37.0327137369
 10
-23.8263487266
 20
37.0251809264
 10
-23.8337282254
 20
37.0177719996
 10
-23.8413473284
 20
37.010498704
 10
-23.8491895775
 20
37.003370148
 10
-23.8572514271
 20
36.9963997988
 10
-23.8655286031
 20
36.9896008198
 10
-23.8740030948
 20
36.9829820901
 10
-23.8826700418
 20
36.9765571729
 10
-23.8915239286
 20
36.9703392855
 10
-23.9005453055
 20
36.9643370232
 10
-23.9097279656
 20
36.9585638964
 10
-23.9190650956
 20
36.9530330472
 10
-23.9285358702
 20
36.9477527667
 10
-23.9381327071
 20
36.9427363515
 10
-23.94784743
 20
36.9379967263
 10
-23.957657828
 20
36.9335418798
 10
-23.9675548965
 20
36.9293847168
 10
-23.9775290389
 20
36.9255377661
 10
-23.9875566123
 20
36.922008688
 10
-23.9976271323
 20
36.9188097826
 10
-24.0077295353
 20
36.9159529582
 10
-24.0178386984
 20
36.913445458
 10
-24.0279425912
 20
36.9112987146
 10
-24.0380286658
 20
36.9095237302
 10
-24.0480703416
 20
36.9081271413
 10
-24.0580539677
 20
36.9071191903
 10
-24.0679655556
 20
36.906509616
 10
-24.0777772832
 20
36.9063041418
 10
-24.0874738379
 20
36.9065114302
 10
-24.0970398935
 20
36.9071395476
 10
-24.1064468487
 20
36.9081929227
 10
-24.1156673811
 20
36.9096762842
 10
-24.1195572005
 20
36.9104445586
  0
LINE
  5
2D6
100
AcDbEntity
  8
ON_OFF_PORTATASTO
100
AcDbLine
 62
7
  6
CONTINUOUS
 10
-20.546808034
 20
36.4070250436
 11
-20.1932666448
 21
36.5883984685
  0
LINE
  5
2D7
100
AcDbEntity
  8
ON_OFF_CORPO
100
AcDbLine
 62
7
  6
CONTINUOUS
 10
-10.3552261452
 20
41.8925279424
 11
-9.3038222145
 21
42.4274861489
  0
LINE
  5
2D8
100
AcDbEntity
  8
ON_OFF_CORPO
100
AcDbLine
 62
7
  6
CONTINUOUS
 10
-10.3552261452
 20
41.8925279424
 11
-14.0252285702
 21
40.0734083363
  0
LINE
  5
2D9
100
AcDbEntity
  8
ON_OFF_PORTATASTO
100
AcDbLine
 62
7
  6
CONTINUOUS
 10
-14.2515128042
 20
38.8850767166
 11
-18.8497637605
 21
36.6187154191
  0
LINE
  5
2DA
100
AcDbEntity
  8
ON_OFF_PORTATASTO
100
AcDbLine
 62
7
  6
CONTINUOUS
 10
-14.5364123953
 20
37.5218920207
 11
-14.2026367727
 21
37.6852123759
  0
LINE
  5
2DB
100
AcDbEntity
  8
ON_OFF_PORTATASTO
100
AcDbLine
 62
7
  6
CONTINUOUS
 10
-20.1932666448
 20
36.5883984685
 11
-14.8570432388
 21
39.187841934
  0
LINE
  5
2DC
100
AcDbEntity
  8
ON_OFF_CORPO
100
AcDbLine
 62
7
  6
CONTINUOUS
 10
-12.9031233139
 20
38.9859154549
 11
-6.7238981342
 21
41.9680166897
  0
LWPOLYLINE
  5
2DD
100
AcDbEntity
  8
ON_OFF_PORTATASTO
100
AcDbPolyline
 62
7
  6
CONTINUOUS
 90
7
 70
0
 10
-14.2515128042
 20
38.8850767166
 10
-14.2433035448
 20
38.8890042017
 10
-14.2351195871
 20
38.8926892639
 10
-14.226960931
 20
38.8961319032
 10
-14.2188275766
 20
38.8993321196
 10
-14.2107195238
 20
38.9022899131
 10
-14.2026367727
 20
38.9050052837
  0
LINE
  5
2DE
100
AcDbEntity
  8
ON_OFF_CORPO
100
AcDbLine
 62
7
  6
CONTINUOUS
 10
-8.335871674
 20
42.7740034596
 11
-14.5653473663
 21
39.8170274811
  0
LINE
  5
2DF
100
AcDbEntity
  8
ON_OFF_PORTATASTO
100
AcDbLine
 62
250
  6
CONTINUOUS
 10
-31.1534217532
 20
43.9002899832
 11
-31.1534217532
 21
44.56317404
  0
LINE
  5
2E0
100
AcDbEntity
  8
ON_OFF_PORTATASTO
100
AcDbLine
 62
250
  6
CONTINUOUS
 10
-30.9433526156
 20
39.9985126392
 11
-30.9433526156
 21
41.07909595
  0
LINE
  5
2E1
100
AcDbEntity
  8
ON_OFF_PORTATASTO
100
AcDbLine
 62
7
  6
CONTINUOUS
 10
-30.446314972
 20
44.9167274305
 11
-30.446314972
 21
45.4768433091
  0
LINE
  5
2E2
100
AcDbEntity
  8
ON_OFF_PORTATASTO
100
AcDbLine
 62
250
  6
CONTINUOUS
 10
-30.2383086963
 20
40.0200484024
 11
-30.2383086963
 21
41.2527753748
  0
LINE
  5
2E3
100
AcDbEntity
  8
ON_OFF_PORTATASTO
100
AcDbLine
 62
250
  6
CONTINUOUS
 10
-30.1125393494
 20
45.6401636643
 11
-30.1125393494
 21
46.8599565721
  0
LINE
  5
2E4
100
AcDbEntity
  8
ON_OFF_PORTATASTO
100
AcDbLine
 62
7
  6
CONTINUOUS
 10
-30.0927615814
 20
44.7399507353
 11
-30.0927615814
 21
45.3000666138
  0
LINE
  5
2E5
100
AcDbEntity
  8
ON_OFF_PORTATASTO
100
AcDbLine
 62
7
  6
CONTINUOUS
 10
-29.9871898421
 20
45.7891867929
 11
-29.9871898421
 21
46.8695247121
  0
LWPOLYLINE
  5
2E6
100
AcDbEntity
  8
ON_OFF_PORTATASTO
100
AcDbPolyline
 62
250
  6
CONTINUOUS
 90
27
 70
0
 10
-24.5169085432
 20
37.1965981803
 10
-24.5217925603
 20
37.1846295221
 10
-24.5271431638
 20
37.172936318
 10
-24.5329457421
 20
37.1615504997
 10
-24.5391844498
 20
37.1505031595
 10
-24.5458422501
 20
37.1398244654
 10
-24.5529009621
 20
37.1295435786
 10
-24.5603413098
 20
37.1196885741
 10
-24.5681429753
 20
37.1102863639
 10
-24.5762846537
 20
37.1013626234
 10
-24.584744112
 20
37.0929417214
 10
-24.5934982491
 20
37.0850466538
 10
-24.6025231592
 20
37.0776989802
 10
-24.6117941972
 20
37.0709187657
 10
-24.621286046
 20
37.0647245256
 10
-24.6309727851
 20
37.059133175
 10
-24.6408279622
 20
37.0541599828
 10
-24.6508246649
 20
37.0498185297
 10
-24.6609355941
 20
37.0461206713
 10
-24.6711331392
 20
37.0430765057
 10
-24.6813894527
 20
37.0406943459
 10
-24.6916765268
 20
37.038980697
 10
-24.7019662697
 20
37.0379402387
 10
-24.7122305821
 20
37.0375758122
 10
-24.7224414345
 20
37.0378884127
 10
-24.7325709432
 20
37.0388771866
 10
-24.7425914464
 20
37.0405394337
  0
LINE
  5
2E7
100
AcDbEntity
  8
ON_OFF_CORPO
100
AcDbLine
 62
7
  6
CONTINUOUS
 10
-7.1732456299
 20
40.3015376848
 11
-6.1218416992
 21
40.8364958912
  0
LINE
  5
2E8
100
AcDbEntity
  8
ON_OFF_PORTATASTO
100
AcDbLine
 62
7
  6
CONTINUOUS
 10
-15.2435191765
 20
36.6082227516
 11
-14.5364123953
 21
36.9617761422
  0
LINE
  5
2E9
100
AcDbEntity
  8
ON_OFF_PORTATASTO
100
AcDbLine
 62
7
  6
CONTINUOUS
 10
-14.1828590047
 20
36.7849994469
 11
-12.7850744982
 21
37.4838917002
  0
LINE
  5
2EA
100
AcDbEntity
  8
ON_OFF_CORPO
100
AcDbLine
 62
7
  6
CONTINUOUS
 10
-7.1732456299
 20
40.3015376848
 11
-10.8432480548
 21
38.4824180786
  0
LINE
  5
2EB
100
AcDbEntity
  8
ON_OFF_PORTATASTO
100
AcDbLine
 62
7
  6
CONTINUOUS
 10
-12.1260787468
 20
38.3515222032
 11
-14.1828590047
 21
37.3451153254
  0
LWPOLYLINE
  5
2EC
100
AcDbEntity
  8
ON_OFF_CORPO
100
AcDbPolyline
 62
7
  6
CONTINUOUS
 90
6
 70
0
 10
-15.1729232737
 20
35.9985639901
 10
-15.1774453926
 20
35.9963884805
 10
-15.1882472174
 20
35.9904416454
 10
-15.198368933
 20
35.9837964682
 10
-15.2076845405
 20
35.9766265483
 10
-15.2109394381
 20
35.9738540011
  0
LINE
  5
2ED
100
AcDbEntity
  8
ON_OFF_CORPO
100
AcDbLine
 62
250
  6
CONTINUOUS
 10
-14.901311607
 20
36.0066397496
 11
-14.8545840167
 21
36.0291892662
  0
LWPOLYLINE
  5
2EE
100
AcDbEntity
  8
ON_OFF_PORTATASTO
100
AcDbPolyline
 62
7
  6
CONTINUOUS
 90
7
 70
0
 10
-9.3017653359
 20
36.4102029825
 10
-9.2935560765
 20
36.4141304676
 10
-9.2853721188
 20
36.4178155298
 10
-9.2772134627
 20
36.4212581691
 10
-9.2690801083
 20
36.4244583855
 10
-9.2609720555
 20
36.427416179
 10
-9.2528893044
 20
36.4301315496
  0
LINE
  5
2EF
100
AcDbEntity
  8
ON_OFF_CORPO
100
AcDbLine
 62
7
  6
CONTINUOUS
 10
-5.1538911586
 20
41.1830132019
 11
-11.4937072693
 21
38.1736613923
  0
LINE
  5
2F0
100
AcDbEntity
  8
ON_OFF_CORPO
100
AcDbLine
 62
250
  6
CONTINUOUS
 10
-14.8545840167
 20
36.0291892662
 11
-14.8420626532
 21
36.0351599865
  0
LINE
  5
2F1
100
AcDbEntity
  8
ON_OFF_CORPO
100
AcDbLine
 62
250
  6
CONTINUOUS
 10
-14.9123703797
 20
36.0013853882
 11
-14.901311607
 21
36.0066397496
  0
LINE
  5
2F2
100
AcDbEntity
  8
ON_OFF_CORPO
100
AcDbLine
 62
250
  6
CONTINUOUS
 10
-14.8420626532
 20
36.0351599865
 11
-14.8334844273
 21
36.0392021
  0
LINE
  5
2F3
100
AcDbEntity
  8
ON_OFF_CORPO
100
AcDbLine
 62
250
  6
CONTINUOUS
 10
-14.919655208
 20
35.9979744697
 11
-14.9123703797
 21
36.0013853882
  0
LINE
  5
2F4
100
AcDbEntity
  8
ON_OFF_CORPO
100
AcDbLine
 62
250
  6
CONTINUOUS
 10
-14.8334844273
 20
36.0392021
 11
-14.8247053752
 21
36.0432881024
  0
LINE
  5
2F5
100
AcDbEntity
  8
ON_OFF_CORPO
100
AcDbLine
 62
250
  6
CONTINUOUS
 10
-14.9607303119
 20
35.9789968016
 11
-14.919655208
 21
35.9979744697
  0
LINE
  5
2F6
100
AcDbEntity
  8
ON_OFF_CORPO
100
AcDbLine
 62
250
  6
CONTINUOUS
 10
-14.8247053752
 20
36.0432881024
 11
-14.8157165123
 21
36.0474147365
  0
LWPOLYLINE
  5
2F7
100
AcDbEntity
  8
ON_OFF_CORPO
100
AcDbPolyline
 62
250
  6
CONTINUOUS
 90
17
 70
0
 10
-15.1390809883
 20
36.014193479
 10
-15.1359526676
 20
36.0156034142
 10
-15.1235739657
 20
36.0205262485
 10
-15.1108258654
 20
36.0245732884
 10
-15.0977326243
 20
36.0277368329
 10
-15.0843191565
 20
36.0300108625
 10
-15.0706109853
 20
36.03139105
 10
-15.0566341951
 20
36.0318747693
 10
-15.042415381
 20
36.0314610999
 10
-15.0279815991
 20
36.0301508289
 10
-15.0133603141
 20
36.0279464495
 10
-14.9985793479
 20
36.0248521562
 10
-14.9836668258
 20
36.0208738369
 10
-14.9686511239
 20
36.0160190617
 10
-14.9535608144
 20
36.0102970681
 10
-14.9384246112
 20
36.0037187441
 10
-14.923271316
 20
35.9962966072
  0
LINE
  5
2F8
100
AcDbEntity
  8
ON_OFF_CORPO
100
AcDbLine
 62
250
  6
CONTINUOUS
 10
-14.8157165123
 20
36.0474147365
 11
-14.8065047049
 21
36.0515768786
  0
LINE
  5
2F9
100
AcDbEntity
  8
ON_OFF_CORPO
100
AcDbLine
 62
250
  6
CONTINUOUS
 10
-14.8065047049
 20
36.0515768786
 11
-14.7970569215
 21
36.055769137
  0
LINE
  5
2FA
100
AcDbEntity
  8
ON_OFF_CORPO
100
AcDbLine
 62
250
  6
CONTINUOUS
 10
-14.7970569215
 20
36.055769137
 11
-14.7873646504
 21
36.0599877905
  0
LINE
  5
2FB
100
AcDbEntity
  8
ON_OFF_CORPO
100
AcDbLine
 62
250
  6
CONTINUOUS
 10
-14.7873646504
 20
36.0599877905
 11
-14.7774152306
 21
36.064227134
  0
LWPOLYLINE
  5
2FC
100
AcDbEntity
  8
ON_OFF_CORPO
100
AcDbPolyline
 62
250
  6
CONTINUOUS
 90
124
 70
0
 10
-14.7774152306
 20
36.064227134
 10
-14.7671971399
 20
36.068480752
 10
-14.7619858788
 20
36.0706121274
 10
-14.7567027623
 20
36.0727442962
 10
-14.7513478443
 20
36.0748772621
 10
-14.7459210709
 20
36.0770110213
 10
-14.7404185521
 20
36.0791433262
 10
-14.734840173
 20
36.0812742505
 10
-14.7291860484
 20
36.0834037205
 10
-14.7234526328
 20
36.0855292674
 10
-14.7176396634
 20
36.0876510114
 10
-14.7117474029
 20
36.0897688323
 10
-14.705773094
 20
36.0918799009
 10
-14.6997166555
 20
36.0939842642
 10
-14.6935781686
 20
36.0960818752
 10
-14.6873551192
 20
36.0981697632
 10
-14.6810474172
 20
36.1002479787
 10
-14.6746551526
 20
36.1023164712
 10
-14.6681760816
 20
36.1043721188
 10
-14.6616100416
 20
36.1064149928
 10
-14.6549571951
 20
36.1084450218
 10
-14.6482157862
 20
36.1104588694
 10
-14.6413856191
 20
36.1124566107
 10
-14.6344668896
 20
36.1144381706
 10
-14.6274584293
 20
36.1163999875
 10
-14.620359984
 20
36.1183421433
 10
-14.6131718079
 20
36.1202645561
 10
-14.6058934949
 20
36.1221634187
 10
-14.5985246363
 20
36.1240388352
 10
-14.5910656409
 20
36.1258907015
 10
-14.5835173277
 20
36.1277148983
 10
-14.575879315
 20
36.1295114987
 10
-14.5681519847
 20
36.1312804296
 10
-14.5603373011
 20
36.1330173519
 10
-14.552435296
 20
36.1347222426
 10
-14.5444459375
 20
36.1363951249
 10
-14.5363710943
 20
36.1380317286
 10
-14.5282100627
 20
36.1396321688
 10
-14.5199635462
 20
36.1411963306
 10
-14.5116355249
 20
36.1427195987
 10
-14.5032170382
 20
36.1442031884
 10
-14.4947170465
 20
36.1456458845
 10
-14.4861664105
 20
36.1470394262
 10
-14.477557079
 20
36.1483840354
 10
-14.4688971032
 20
36.1496794903
 10
-14.4602414979
 20
36.1509168649
 10
-14.4516003151
 20
36.1520937927
 10
-14.4429635028
 20
36.1532126401
 10
-14.4343559203
 20
36.1542715805
 10
-14.4257833184
 20
36.155269609
 10
-14.4172399463
 20
36.1562077304
 10
-14.4087334118
 20
36.1570871323
 10
-14.4002652465
 20
36.1579076348
 10
-14.3918339187
 20
36.1586694177
 10
-14.3834424413
 20
36.1593742089
 10
-14.3750901942
 20
36.1600220644
 10
-14.3667777975
 20
36.1606129281
 10
-14.3585101239
 20
36.1611483598
 10
-14.3502867602
 20
36.1616283474
 10
-14.3421081197
 20
36.1620529029
 10
-14.3339803154
 20
36.1624236229
 10
-14.3259031817
 20
36.1627404496
 10
-14.3178768841
 20
36.1630034406
 10
-14.3099080326
 20
36.1632143649
 10
-14.3019964156
 20
36.163373142
 10
-14.2941422447
 20
36.1634798523
 10
-14.2863527641
 20
36.1635365064
 10
-14.2786285443
 20
36.163543022
 10
-14.2709690149
 20
36.1634994814
 10
-14.2633797093
 20
36.1634081424
 10
-14.2558611365
 20
36.1632689643
 10
-14.2484127875
 20
36.1630819878
 10
-14.241038668
 20
36.1628495917
 10
-14.2337391463
 20
36.1625717644
 10
-14.2265138541
 20
36.1622485176
 10
-14.2193656924
 20
36.1618822658
 10
-14.2122948729
 20
36.1614730078
 10
-14.2053011841
 20
36.1610207448
 10
-14.1983868923
 20
36.1605278947
 10
-14.1915522235
 20
36.1599944682
 10
-14.1847969517
 20
36.1594204545
 10
-14.1781226662
 20
36.1588082396
 10
-14.1715295522
 20
36.1581578406
 10
-14.1650174243
 20
36.1574692405
 10
-14.1585873155
 20
36.1567447731
 10
-14.152239412
 20
36.1559844647
 10
-14.1459735276
 20
36.155188289
 10
-14.1397901359
 20
36.1543585018
 10
-14.133689431
 20
36.1534951405
 10
-14.1276712188
 20
36.1525981677
 10
-14.1217353913
 20
36.1516697266
 10
-14.1158821176
 20
36.150709862
 10
-14.1101112287
 20
36.1497185291
 10
-14.1044221094
 20
36.1486977373
 10
-14.09881501
 20
36.1476475617
 10
-14.0932896803
 20
36.1465679271
 10
-14.0878447535
 20
36.1454606172
 10
-14.0824804773
 20
36.1443257312
 10
-14.077196604
 20
36.14316317
 10
-14.0719910239
 20
36.1419744193
 10
-14.0668637809
 20
36.1407595493
 10
-14.061814831
 20
36.1395184898
 10
-14.0568419326
 20
36.1382525159
 10
-14.0519451289
 20
36.1369617033
 10
-14.0471243766
 20
36.1356459762
 10
-14.0423773043
 20
36.1343063819
 10
-14.0377039831
 20
36.1329430147
 10
-14.0331043418
 20
36.1315557803
 10
-14.0285757952
 20
36.1301454429
 10
-14.024118323
 20
36.1287120782
 10
-14.0197319454
 20
36.1272556106
 10
-14.0154141388
 20
36.1257765769
 10
-14.0111648179
 20
36.1242750326
 10
-14.006984068
 20
36.1227509221
 10
-14.0028696203
 20
36.1212046159
 10
-13.9988212938
 20
36.1196361198
 10
-13.9948392695
 20
36.1180454278
 10
-13.9909218223
 20
36.1164328924
 10
-13.9870688338
 20
36.1147985321
 10
-13.9832804223
 20
36.1131423284
 10
-13.9795552176
 20
36.1114645773
 10
-13.9758927626
 20
36.1097653778
 10
-13.9722935144
 20
36.108044631
 10
-13.9687574728
 20
36.1063023369
  0
LINE
  5
2FD
100
AcDbEntity
  8
ON_OFF_PORTATASTO
100
AcDbLine
 62
7
  6
CONTINUOUS
 10
-14.8920734224
 20
33.1655464222
 11
-14.9796570033
 21
33.1395712167
  0
LWPOLYLINE
  5
2FE
100
AcDbEntity
  8
ON_OFF_PORTATASTO
100
AcDbPolyline
 62
7
  6
CONTINUOUS
 90
17
 70
0
 10
-9.2528893044
 20
36.4301315496
 10
-9.2418565796
 20
36.4333484473
 10
-9.2302594319
 20
36.4359322626
 10
-9.2180948914
 20
36.4378658708
 10
-9.2053361124
 20
36.4391503907
 10
-9.1920079757
 20
36.4397478775
 10
-9.1781942932
 20
36.4395863252
 10
-9.163906541
 20
36.438637439
 10
-9.1491562798
 20
36.4369009005
 10
-9.1340415194
 20
36.4343558896
 10
-9.1186173137
 20
36.4309928258
 10
-9.1028711869
 20
36.4268045863
 10
-9.0868056701
 20
36.4217782064
 10
-9.0704793765
 20
36.4159223626
 10
-9.0538799604
 20
36.4092116627
 10
-9.0368999907
 20
36.4015736292
 10
-9.026117149
 20
36.3963320749
  0
LWPOLYLINE
  5
2FF
100
AcDbEntity
  8
ON_OFF_PORTATASTO
100
AcDbPolyline
 62
7
  6
CONTINUOUS
 90
5
 70
0
 10
-14.9796570033
 20
33.1395712167
 10
-15.0020983881
 20
33.1330107567
 10
-15.0128513426
 20
33.1299074129
 10
-15.023300775
 20
33.1269472776
 10
-15.0334500389
 20
33.1241446616
  0
LWPOLYLINE
  5
300
100
AcDbEntity
  8
ON_OFF_PORTATASTO
100
AcDbPolyline
 62
7
  6
CONTINUOUS
 90
6
 70
0
 10
-29.9871898421
 20
46.8695247253
 10
-29.9874470023
 20
46.8722331119
 10
-29.9884879811
 20
46.8751967477
 10
-29.9902872479
 20
46.8776530937
 10
-29.9928020376
 20
46.8796168432
 10
-29.9939646975
 20
46.8802558179
  0
LWPOLYLINE
  5
301
100
AcDbEntity
  8
ON_OFF_PORTATASTO
100
AcDbPolyline
 62
250
  6
CONTINUOUS
 90
19
 70
0
 10
-28.7399995949
 20
39.1323954502
 10
-28.7397797403
 20
39.1217107936
 10
-28.739120723
 20
39.1112725672
 10
-28.7380241822
 20
39.1011067347
 10
-28.7364928513
 20
39.0912386162
 10
-28.7345305361
 20
39.0816927215
 10
-28.7321420902
 20
39.0724927011
 10
-28.7293334201
 20
39.0636613892
 10
-28.7261115146
 20
39.0552208321
 10
-28.722484417
 20
39.0471921238
 10
-28.7184611374
 20
39.0395952129
 10
-28.7140516949
 20
39.0324490221
 10
-28.7092671583
 20
39.0257714568
 10
-28.7041195249
 20
39.0195791795
 10
-28.6986215569
 20
39.0138874671
 10
-28.6927868232
 20
39.0087103408
 10
-28.6866286068
 20
39.0040598258
 10
-28.6801633326
 20
38.9999485521
 10
-28.6750262985
 20
38.9971770001
  0
LWPOLYLINE
  5
302
100
AcDbEntity
  8
ON_OFF_PORTATASTO
100
AcDbPolyline
 62
250
  6
CONTINUOUS
 90
19
 70
0
 10
-27.4150149151
 20
38.4699031103
 10
-27.4147950604
 20
38.4592184537
 10
-27.4141360432
 20
38.4487802273
 10
-27.4130395024
 20
38.4386143948
 10
-27.4115081715
 20
38.4287462763
 10
-27.4095458562
 20
38.4192003816
 10
-27.4071574104
 20
38.4100003612
 10
-27.4043487403
 20
38.4011690493
 10
-27.4011268348
 20
38.3927284922
 10
-27.3974997372
 20
38.3846997839
 10
-27.3934764576
 20
38.377102873
 10
-27.3890670151
 20
38.3699566822
 10
-27.3842824785
 20
38.3632791169
 10
-27.3791348451
 20
38.3570868396
 10
-27.3736368771
 20
38.3513951271
 10
-27.3678021434
 20
38.3462180009
 10
-27.3616439269
 20
38.3415674859
 10
-27.3551786527
 20
38.3374562122
 10
-27.3500524898
 20
38.3346900966
  0
LINE
  5
303
100
AcDbEntity
  8
ON_OFF_PORTATASTO
100
AcDbLine
 62
7
  6
CONTINUOUS
 10
-29.880629547
 20
41.4320799196
 11
-29.880629547
 21
40.2196443543
  0
LINE
  5
304
100
AcDbEntity
  8
ON_OFF_PORTATASTO
100
AcDbLine
 62
250
  6
CONTINUOUS
 10
-29.7392081908
 20
44.0394876499
 11
-29.7392081908
 21
44.56317404
  0
LINE
  5
305
100
AcDbEntity
  8
ON_OFF_PORTATASTO
100
AcDbLine
 62
7
  6
CONTINUOUS
 10
-28.8132228996
 20
39.560757732
 11
-28.8132228996
 21
39.2207837978
  0
LINE
  5
306
100
AcDbEntity
  8
ON_OFF_PORTATASTO
100
AcDbLine
 62
250
  6
CONTINUOUS
 10
-28.7399995949
 20
39.4723693843
 11
-28.7399995949
 21
39.1323954502
  0
LINE
  5
307
100
AcDbEntity
  8
ON_OFF_PORTATASTO
100
AcDbLine
 62
7
  6
CONTINUOUS
 10
-28.1102299454
 20
38.2608047218
 11
-28.1102299454
 21
38.7147788235
  0
LINE
  5
308
100
AcDbEntity
  8
ON_OFF_PORTATASTO
100
AcDbLine
 62
250
  6
CONTINUOUS
 10
-28.0370066407
 20
38.169093027
 11
-28.0370066407
 21
38.6781671712
  0
LINE
  5
309
100
AcDbEntity
  8
ON_OFF_PORTATASTO
100
AcDbLine
 62
250
  6
CONTINUOUS
 10
-27.4150149151
 20
38.4699031103
 11
-27.4150149151
 21
38.8098770444
  0
LINE
  5
30A
100
AcDbEntity
  8
ON_OFF_PORTATASTO
100
AcDbLine
 62
7
  6
CONTINUOUS
 10
-27.3350451348
 20
45.7909491578
 11
-27.3350451348
 21
45.5125911759
  0
LINE
  5
30B
100
AcDbEntity
  8
ON_OFF_PORTATASTO
100
AcDbLine
 62
250
  6
CONTINUOUS
 10
-27.0624929555
 20
38.4693903864
 11
-27.0624929555
 21
38.8093643206
  0
LWPOLYLINE
  5
30C
100
AcDbEntity
  8
ON_OFF_PORTATASTO
100
AcDbPolyline
 62
250
  6
CONTINUOUS
 90
31
 70
0
 10
-28.7399995949
 20
39.4723693843
 10
-28.7397601784
 20
39.4837533641
 10
-28.7390420224
 20
39.4953527059
 10
-28.7378462437
 20
39.5071362897
 10
-28.7361748936
 20
39.519074722
 10
-28.7340318813
 20
39.5311335036
 10
-28.7314238722
 20
39.543272929
 10
-28.7283586317
 20
39.5554574853
 10
-28.7248440211
 20
39.5676564618
 10
-28.7208894912
 20
39.5798369935
 10
-28.7165056806
 20
39.5919661612
 10
-28.7117045577
 20
39.6040107149
 10
-28.7064993199
 20
39.6159375059
 10
-28.7009042133
 20
39.6277139227
 10
-28.6949344048
 20
39.6393080704
 10
-28.6886060899
 20
39.6506884923
 10
-28.6819364606
 20
39.661824253
 10
-28.6749436879
 20
39.6726849959
 10
-28.6676468209
 20
39.6832411262
 10
-28.6600657231
 20
39.6934639032
 10
-28.6522210217
 20
39.7033255076
 10
-28.6441340734
 20
39.7127990877
 10
-28.6358268884
 20
39.7218588561
 10
-28.627322076
 20
39.7304801522
 10
-28.6186427904
 20
39.7386395023
 10
-28.6098126485
 20
39.746314702
 10
-28.60085569
 20
39.7534848539
 10
-28.5917963198
 20
39.7601304226
 10
-28.582659205
 20
39.7662333177
 10
-28.5734692068
 20
39.7717769384
 10
-28.564251339
 20
39.7767461993
  0
LWPOLYLINE
  5
30D
100
AcDbEntity
  8
ON_OFF_PORTATASTO
100
AcDbPolyline
 62
250
  6
CONTINUOUS
 90
31
 70
0
 10
-27.4150149151
 20
38.8098770444
 10
-27.4147743385
 20
38.8212888432
 10
-27.4140532613
 20
38.832910183
 10
-27.4128536432
 20
38.844709434
 10
-27.4111787443
 20
38.8566544934
 10
-27.4090331213
 20
38.8687128377
 10
-27.4064226197
 20
38.8808516105
 10
-27.4033543483
 20
38.8930377627
 10
-27.399836658
 20
38.9052381341
 10
-27.3958791276
 20
38.9174195078
 10
-27.3914925308
 20
38.9295487285
 10
-27.3866888091
 20
38.9415927826
 10
-27.3814810441
 20
38.9535188786
 10
-27.3758834088
 20
38.9652945658
 10
-27.3699111453
 20
38.9768877852
 10
-27.3635805315
 20
38.9882669494
 10
-27.3569088305
 20
38.9994010475
 10
-27.3499141819
 20
39.0102598251
 10
-27.3426155633
 20
39.0208138235
 10
-27.3350327316
 20
39.0310344512
 10
-27.3271864202
 20
39.040893741
 10
-27.3190982456
 20
39.0503645571
 10
-27.3107904122
 20
39.0594209779
 10
-27.3022853845
 20
39.0680385913
 10
-27.2936060686
 20
39.0761942153
 10
-27.2847742304
 20
39.0838672017
 10
-27.2758157028
 20
39.0910349147
 10
-27.2667602951
 20
39.0976740453
 10
-27.2576346103
 20
39.1037663372
 10
-27.2484617501
 20
39.1092976047
 10
-27.2392666591
 20
39.1142538594
  0
LINE
  5
30E
100
AcDbEntity
  8
ON_OFF_CORPO
100
AcDbLine
 62
7
  6
CONTINUOUS
 10
-16.065036383
 20
35.2263517304
 11
-15.2109351191
 21
35.9738560678
  0
LINE
  5
30F
100
AcDbEntity
  8
ON_OFF_CORPO
100
AcDbLine
 62
250
  6
CONTINUOUS
 10
-15.9111338283
 20
35.149400453
 11
-14.9623352367
 21
35.9797833273
  0
LINE
  5
310
100
AcDbEntity
  8
ON_OFF_PORTATASTO
100
AcDbLine
 62
7
  6
CONTINUOUS
 10
-13.8703759114
 20
32.3219346791
 11
-13.9707269704
 21
32.2646930659
  0
LINE
  5
311
100
AcDbEntity
  8
ON_OFF_PORTATASTO
100
AcDbLine
 62
7
  6
CONTINUOUS
 10
-13.9707269704
 20
32.2646930659
 11
-14.3284061196
 21
32.0650971141
  0
LINE
  5
312
100
AcDbEntity
  8
ON_OFF_PORTATASTO
100
AcDbLine
 62
7
  6
CONTINUOUS
 10
-11.184260763
 20
32.6404409442
 11
-12.7674344284
 21
31.8282428861
  0
LINE
  5
313
100
AcDbEntity
  8
ON_OFF_PORTATASTO
100
AcDbLine
 62
250
  6
CONTINUOUS
 10
-11.0715921591
 20
32.6337790083
 11
-12.6543487623
 21
31.8217949109
  0
LINE
  5
314
100
AcDbEntity
  8
ON_OFF_PORTATASTO
100
AcDbLine
 62
7
  6
CONTINUOUS
 10
-14.3284061196
 20
33.2978240864
 11
-13.9707269704
 21
33.4771286312
  0
LINE
  5
315
100
AcDbEntity
  8
ON_OFF_PORTATASTO
100
AcDbLine
 62
7
  6
CONTINUOUS
 10
-11.1825243726
 20
32.6413091536
 11
-11.1842607862
 21
32.6404409323
  0
LINE
  5
316
100
AcDbEntity
  8
ON_OFF_PORTATASTO
100
AcDbLine
 62
7
  6
CONTINUOUS
 10
-13.9707269704
 20
33.4771286312
 11
-8.6962349012
 21
36.1074377651
  0
LINE
  5
317
100
AcDbEntity
  8
ON_OFF_CORPO
100
AcDbLine
 62
7
  6
CONTINUOUS
 10
-0.5907976492
 20
38.9014664472
 11
-4.447054409
 21
36.9887346656
  0
LINE
  5
318
100
AcDbEntity
  8
ON_OFF_CORPO
100
AcDbLine
 62
7
  6
CONTINUOUS
 10
0.0970568762
 20
38.1619958817
 11
-4.1048728364
 21
36.0778077672
  0
LINE
  5
319
100
AcDbEntity
  8
ON_OFF_PORTATASTO
100
AcDbLine
 62
7
  6
CONTINUOUS
 10
-13.8703759114
 20
32.3219346791
 11
-8.6458929001
 21
34.9085821871
  0
LINE
  5
31A
100
AcDbEntity
  8
ON_OFF_PORTATASTO
100
AcDbLine
 62
7
  6
CONTINUOUS
 10
-9.3017653359
 20
36.4102029825
 11
-13.9000162922
 21
34.143841685
  0
LINE
  5
31B
100
AcDbEntity
  8
ON_OFF_PORTATASTO
100
AcDbLine
 62
7
  6
CONTINUOUS
 10
-7.8834380597
 20
36.2302018597
 11
-8.5222988363
 21
35.9175997346
  0
LINE
  5
31C
100
AcDbEntity
  8
ON_OFF_PORTATASTO
100
AcDbLine
 62
7
  6
CONTINUOUS
 10
-10.6476543915
 20
32.9018612659
 11
-11.1825243492
 21
32.6413091655
  0
LINE
  5
31D
100
AcDbEntity
  8
ON_OFF_PORTATASTO
100
AcDbLine
 62
250
  6
CONTINUOUS
 10
-10.5371422804
 20
32.8941264748
 11
-11.0715921591
 21
32.6337790083
  0
LWPOLYLINE
  5
31E
100
AcDbEntity
  8
ON_OFF_PORTATASTO
100
AcDbPolyline
 62
7
  6
CONTINUOUS
 90
20
 70
0
 10
-7.8834380597
 20
36.2302018597
 10
-7.8572116486
 20
36.2424452297
 10
-7.8310554809
 20
36.2534588404
 10
-7.8049695566
 20
36.2632426917
 10
-7.7788974737
 20
36.2718149623
 10
-7.7528956342
 20
36.2791574736
 10
-7.727133244
 20
36.2852156894
 10
-7.7016244898
 20
36.2899733256
 10
-7.6763551851
 20
36.2934466663
 10
-7.6514519761
 20
36.2956300277
 10
-7.6269506781
 20
36.2965219676
 10
-7.602815476
 20
36.2961239282
 10
-7.5790655708
 20
36.2944345515
 10
-7.5556637978
 20
36.2914500549
 10
-7.5326473216
 20
36.2871742211
 10
-7.5101468379
 20
36.2816170401
 10
-7.4881620454
 20
36.2747626935
 10
-7.4666932453
 20
36.2666269998
 10
-7.445872036
 20
36.2572674045
 10
-7.4423943985
 20
36.255552643
  0
LWPOLYLINE
  5
31F
100
AcDbEntity
  8
ON_OFF_PORTATASTO
100
AcDbPolyline
 62
250
  6
CONTINUOUS
 90
31
 70
0
 10
-11.1525903788
 20
-10.7851650413
 10
-11.157468893
 20
-10.7775522592
 10
-11.162814546
 20
-10.7697157791
 10
-11.1686131431
 20
-10.7616767918
 10
-11.1748498272
 20
-10.7534563061
 10
-11.1815074129
 20
-10.7450773564
 10
-11.1885660525
 20
-10.7365650759
 10
-11.1960056995
 20
-10.7279435864
 10
-11.2038067262
 20
-10.7192355837
 10
-11.211948038
 20
-10.7104646266
 10
-11.2204075702
 20
-10.701654517
 10
-11.2291621066
 20
-10.6928294625
 10
-11.2381875261
 20
-10.6840137892
 10
-11.24745909
 20
-10.6752316571
 10
-11.2569515564
 20
-10.6665069719
 10
-11.2666390226
 20
-10.6578635421
 10
-11.2764950465
 20
-10.6493249627
 10
-11.2864926926
 20
-10.6409145712
 10
-11.2966046289
 20
-10.6326553615
 10
-11.3068032267
 20
-10.6245698993
 10
-11.3170606383
 20
-10.6166802625
 10
-11.3273488464
 20
-10.6090080008
 10
-11.3376397656
 20
-10.6015740589
 10
-11.3479052714
 20
-10.594398754
 10
-11.3581172781
 20
-10.5875017156
 10
-11.3682478628
 20
-10.5809017979
 10
-11.3782693881
 20
-10.5746170018
 10
-11.3881545284
 20
-10.5686644624
 10
-11.3978762989
 20
-10.5630604295
 10
-11.4074081312
 20
-10.557820219
 10
-11.4167239908
 20
-10.5529581436
  0
LWPOLYLINE
  5
320
100
AcDbEntity
  8
ON_OFF_PORTATASTO
100
AcDbPolyline
 62
250
  6
CONTINUOUS
 90
31
 70
0
 10
-27.0624929555
 20
38.8093643206
 10
-27.0627879324
 20
38.8207900282
 10
-27.0635637856
 20
38.8324280814
 10
-27.0648183887
 20
38.8442465822
 10
-27.066548303
 20
38.8562131385
 10
-27.0687487871
 20
38.8682949521
 10
-27.07141381
 20
38.8804589091
 10
-27.0745360673
 20
38.8926716702
 10
-27.0781070015
 20
38.9048997628
 10
-27.0821168253
 20
38.9171096717
 10
-27.0865545486
 20
38.9292679321
 10
-27.0914080084
 20
38.9413412203
 10
-27.0966639022
 20
38.9532964457
 10
-27.1023078247
 20
38.9651008413
 10
-27.1083243069
 20
38.9767220535
 10
-27.1146968587
 20
38.9881282307
 10
-27.1214080143
 20
38.9992881107
 10
-27.1284393795
 20
39.0101711064
 10
-27.1357716827
 20
39.0207473896
 10
-27.1433848275
 20
39.0309879725
 10
-27.1512579477
 20
39.0408647878
 10
-27.1593694645
 20
39.0503507649
 10
-27.1676971457
 20
39.0594199045
 10
-27.1762181668
 20
39.0680473498
 10
-27.1849091732
 20
39.0762094546
 10
-27.1937463445
 20
39.0838838481
 10
-27.2027054597
 20
39.0910494963
 10
-27.2117619635
 20
39.0976867593
 10
-27.2208910338
 20
39.1037774459
 10
-27.2300676495
 20
39.1093048624
 10
-27.2392666591
 20
39.1142538594
  0
LWPOLYLINE
  5
321
100
AcDbEntity
  8
ON_OFF_PORTATASTO
100
AcDbPolyline
 62
250
  6
CONTINUOUS
 90
31
 70
0
 10
-24.5169085432
 20
37.5365721144
 10
-24.5172036325
 20
37.5480002433
 10
-24.5179798016
 20
37.5596408224
 10
-24.5192349249
 20
37.5714619347
 10
-24.5209655655
 20
37.5834311786
 10
-24.5231669796
 20
37.5955157247
 10
-24.5258331259
 20
37.6076824047
 10
-24.5289566905
 20
37.6198978498
 10
-24.5325291092
 20
37.6321285727
 10
-24.5365405819
 20
37.6443410275
 10
-24.5409801075
 20
37.6565017281
 10
-24.5458355107
 20
37.6685773304
 10
-24.5510934718
 20
37.6805347141
 10
-24.5567395752
 20
37.6923411024
 10
-24.5627583331
 20
37.703964115
 10
-24.5691332199
 20
37.7153718493
 10
-24.5758467236
 20
37.7265329869
 10
-24.5828804556
 20
37.7374169752
 10
-24.5902151906
 20
37.7479940671
 10
-24.597830925
 20
37.7582353946
 10
-24.6057066829
 20
37.7681127286
 10
-24.6138206101
 20
37.7775986871
 10
-24.62215027
 20
37.7866671175
 10
-24.6306729708
 20
37.7952933909
 10
-24.6393655854
 20
37.8034541262
 10
-24.6482061254
 20
37.8111284864
 10
-24.6571685648
 20
37.8182936878
 10
-24.6662229418
 20
37.8249263143
 10
-24.6753424977
 20
37.8310080048
 10
-24.6845039621
 20
37.8365244706
 10
-24.6936822469
 20
37.8414616532
  0
LWPOLYLINE
  5
322
100
AcDbEntity
  8
ON_OFF_PORTATASTO
100
AcDbPolyline
 62
7
  6
CONTINUOUS
 90
31
 70
0
 10
-25.4612121646
 20
39.6120863241
 10
-25.4614542066
 20
39.6235384395
 10
-25.462180354
 20
39.6352012947
 10
-25.463388483
 20
39.6470429938
 10
-25.4650750487
 20
39.659031202
 10
-25.4672354216
 20
39.6711330666
 10
-25.4698639007
 20
39.683315307
 10
-25.4729532135
 20
39.6955445706
 10
-25.4764947753
 20
39.7077873987
 10
-25.4804790394
 20
39.7200101505
 10
-25.4848950487
 20
39.7321793455
 10
-25.4897306102
 20
39.7442616746
 10
-25.4949725663
 20
39.7562239664
 10
-25.5006065447
 20
39.768033437
 10
-25.5066170443
 20
39.7796577479
 10
-25.5129876208
 20
39.7910650147
 10
-25.5197008406
 20
39.8022239583
 10
-25.5267382764
 20
39.8131040073
 10
-25.5340806024
 20
39.8236753512
 10
-25.5417077534
 20
39.8339089858
 10
-25.5495988301
 20
39.8437768605
 10
-25.5577321017
 20
39.8532519735
 10
-25.566085366
 20
39.8623083105
 10
-25.5746357664
 20
39.8709210323
 10
-25.5833597037
 20
39.8790666112
 10
-25.5922333855
 20
39.8867226637
 10
-25.6012325613
 20
39.8938681735
 10
-25.6103323452
 20
39.9004836665
 10
-25.6195078049
 20
39.9065510089
 10
-25.6287340296
 20
39.9120534563
 10
-25.6379858683
 20
39.9169758629
  0
LWPOLYLINE
  5
323
100
AcDbEntity
  8
ON_OFF_PORTATASTO
100
AcDbPolyline
 62
250
  6
CONTINUOUS
 90
19
 70
0
 10
-26.1944151827
 20
37.8596032441
 10
-26.194195328
 20
37.8489185875
 10
-26.1935363107
 20
37.8384803611
 10
-26.19243977
 20
37.8283145286
 10
-26.1909084391
 20
37.8184464101
 10
-26.1889461238
 20
37.8089005154
 10
-26.186557678
 20
37.799700495
 10
-26.1837490079
 20
37.7908691831
 10
-26.1805271024
 20
37.782428626
 10
-26.1769000048
 20
37.7743999177
 10
-26.1728767252
 20
37.7668030068
 10
-26.1684672826
 20
37.759656816
 10
-26.163682746
 20
37.7529792506
 10
-26.1585351126
 20
37.7467869734
 10
-26.1530371447
 20
37.7410952609
 10
-26.1472024109
 20
37.7359181347
 10
-26.1410441945
 20
37.7312676197
 10
-26.1345789203
 20
37.727156346
 10
-26.1294418862
 20
37.724384794
  0
LWPOLYLINE
  5
324
100
AcDbEntity
  8
ON_OFF_PORTATASTO
100
AcDbPolyline
 62
250
  6
CONTINUOUS
 90
19
 70
0
 10
-24.8694305028
 20
37.1971109041
 10
-24.8692106482
 20
37.1864262476
 10
-24.8685516309
 20
37.1759880212
 10
-24.8674550901
 20
37.1658221887
 10
-24.8659237592
 20
37.1559540702
 10
-24.863961444
 20
37.1464081755
 10
-24.8615729981
 20
37.1372081551
 10
-24.858764328
 20
37.1283768432
 10
-24.8555424225
 20
37.1199362861
 10
-24.851915325
 20
37.1119075778
 10
-24.8478920453
 20
37.1043106669
 10
-24.8434826028
 20
37.0971644761
 10
-24.8386980662
 20
37.0904869107
 10
-24.8335504328
 20
37.0842946334
 10
-24.8280524648
 20
37.078602921
 10
-24.8222177311
 20
37.0734257948
 10
-24.8160595147
 20
37.0687752798
 10
-24.8095942405
 20
37.0646640061
 10
-24.8044680775
 20
37.0618978905
  0
LWPOLYLINE
  5
325
100
AcDbEntity
  8
ON_OFF_PORTATASTO
100
AcDbPolyline
 62
250
  6
CONTINUOUS
 90
31
 70
0
 10
-24.9329449929
 20
39.8755251441
 10
-24.9331351458
 20
39.8870032638
 10
-24.9338120998
 20
39.8986907665
 10
-24.9349739996
 20
39.910555619
 10
-24.9366176606
 20
39.9225653019
 10
-24.9387385778
 20
39.934686899
 10
-24.9413309382
 20
39.9468871872
 10
-24.9443876367
 20
39.9591327278
 10
-24.9479002952
 20
39.9713899582
 10
-24.9518592865
 20
39.9836252834
 10
-24.9562537595
 20
39.9958051689
 10
-24.9610716699
 20
40.0078962317
 10
-24.9662998126
 20
40.0198653327
 10
-24.9719238584
 20
40.0316796667
 10
-24.9779283928
 20
40.0433068528
 10
-24.9842969583
 20
40.0547150231
 10
-24.9910121001
 20
40.06587291
 10
-24.9980554132
 20
40.0767499318
 10
-25.0054075932
 20
40.0873162766
 10
-25.013048489
 20
40.097542984
 10
-25.0209571586
 20
40.1074020246
 10
-25.0291119256
 20
40.1168663765
 10
-25.0374904394
 20
40.1259100998
 10
-25.0460697361
 20
40.1345084073
 10
-25.0548263014
 20
40.1426377327
 10
-25.0637361352
 20
40.150275795
 10
-25.0727748174
 20
40.1574016597
 10
-25.0819175745
 20
40.1639957961
 10
-25.0911393481
 20
40.170040131
 10
-25.1004148629
 20
40.175518098
 10
-25.1097186966
 20
40.1804146829
  0
LWPOLYLINE
  5
326
100
AcDbEntity
  8
ON_OFF_PORTATASTO
100
AcDbPolyline
 62
7
  6
CONTINUOUS
 90
25
 70
0
 10
-27.3350451348
 20
45.7909491578
 10
-27.3355263912
 20
45.8228333954
 10
-27.3369835162
 20
45.8541541402
 10
-27.3394165095
 20
45.8849113921
 10
-27.3428330828
 20
45.9151705346
 10
-27.3472255245
 20
45.9448661842
 10
-27.3525707004
 20
45.9738021904
 10
-27.3588760755
 20
46.0019570215
 10
-27.3661341849
 20
46.0293522093
 10
-27.3742994989
 20
46.0558561977
 10
-27.3833590653
 20
46.0814321888
 10
-27.3933258364
 20
46.1061169806
 10
-27.4041931398
 20
46.1298894118
 10
-27.4159790094
 20
46.1527861225
 10
-27.4286654113
 20
46.1747704727
 10
-27.4421915708
 20
46.1957113806
 10
-27.4565703063
 20
46.215602489
 10
-27.4717887994
 20
46.2344501552
 10
-27.4877478199
 20
46.2521423691
 10
-27.5044305597
 20
46.2686517233
 10
-27.5218538268
 20
46.2840056252
 10
-27.539968815
 20
46.2981742862
 10
-27.5587739656
 20
46.311160664
 10
-27.5782708373
 20
46.322961801
 10
-27.5949376623
 20
46.3318242749
  0
LINE
  5
327
100
AcDbEntity
  8
ON_OFF_PORTATASTO
100
AcDbLine
 62
250
  6
CONTINUOUS
 10
-26.703794307
 20
38.1913074831
 11
-26.703794307
 21
37.5024868602
  0
LINE
  5
328
100
AcDbEntity
  8
ON_OFF_PORTATASTO
100
AcDbLine
 62
250
  6
CONTINUOUS
 10
-26.3512723474
 20
38.3208868636
 11
-26.3512723474
 21
37.5132547418
  0
LINE
  5
329
100
AcDbEntity
  8
ON_OFF_PORTATASTO
100
AcDbLine
 62
7
  6
CONTINUOUS
 10
-26.2676384874
 20
38.2879655258
 11
-26.2676384874
 21
37.9479915917
  0
LINE
  5
32A
100
AcDbEntity
  8
ON_OFF_PORTATASTO
100
AcDbLine
 62
250
  6
CONTINUOUS
 10
-26.1944151827
 20
38.1995771782
 11
-26.1944151827
 21
37.8596032441
  0
LINE
  5
32B
100
AcDbEntity
  8
ON_OFF_PORTATASTO
100
AcDbLine
 62
7
  6
CONTINUOUS
 10
-25.5646455331
 20
36.9880125157
 11
-25.5646455331
 21
37.4419866174
  0
LINE
  5
32C
100
AcDbEntity
  8
ON_OFF_PORTATASTO
100
AcDbLine
 62
250
  6
CONTINUOUS
 10
-25.4914222284
 20
36.8963008209
 11
-25.4914222284
 21
37.405374965
  0
LINE
  5
32D
100
AcDbEntity
  8
ON_OFF_PORTATASTO
100
AcDbLine
 62
7
  6
CONTINUOUS
 10
-25.4612121646
 20
38.8544019006
 11
-25.4612121646
 21
39.6120863241
  0
LINE
  5
32E
100
AcDbEntity
  8
ON_OFF_PORTATASTO
100
AcDbLine
 62
250
  6
CONTINUOUS
 10
-24.9329449929
 20
39.8755251441
 11
-24.9329449929
 21
39.5279936274
  0
LINE
  5
32F
100
AcDbEntity
  8
ON_OFF_PORTATASTO
100
AcDbLine
 62
250
  6
CONTINUOUS
 10
-24.8694305028
 20
37.1971109041
 11
-24.8694305028
 21
37.5370848383
  0
LINE
  5
330
100
AcDbEntity
  8
ON_OFF_PORTATASTO
100
AcDbLine
 62
7
  6
CONTINUOUS
 10
-24.8607471359
 20
39.9633977763
 11
-24.8607471359
 21
39.6158662595
  0
LINE
  5
331
100
AcDbEntity
  8
ON_OFF_PORTATASTO
100
AcDbLine
 62
250
  6
CONTINUOUS
 10
-24.5557954768
 20
42.8635334754
 11
-24.5557954768
 21
44.0830257535
  0
LINE
  5
332
100
AcDbEntity
  8
ON_OFF_PORTATASTO
100
AcDbLine
 62
250
  6
CONTINUOUS
 10
-24.5169085432
 20
37.1965981803
 11
-24.5169085432
 21
37.5365721144
  0
LINE
  5
333
100
AcDbEntity
  8
ON_OFF_PORTATASTO
100
AcDbLine
 62
7
  6
CONTINUOUS
 10
-24.432201413
 20
43.0116925784
 11
-24.432201413
 21
44.0920304975
  0
LINE
  5
334
100
AcDbEntity
  8
ON_OFF_PORTATASTO
100
AcDbLine
 62
250
  6
CONTINUOUS
 10
-24.1582098947
 20
36.918515277
 11
-24.1582098947
 21
36.229694654
  0
LWPOLYLINE
  5
335
100
AcDbEntity
  8
ON_OFF_PORTATASTO
100
AcDbPolyline
 62
250
  6
CONTINUOUS
 90
31
 70
0
 10
-26.1944151827
 20
38.1995771782
 10
-26.194174606
 20
38.2109889769
 10
-26.1934535289
 20
38.2226103168
 10
-26.1922539107
 20
38.2344095678
 10
-26.1905790118
 20
38.2463546272
 10
-26.1884333888
 20
38.2584129715
 10
-26.1858228872
 20
38.2705517443
 10
-26.1827546159
 20
38.2827378965
 10
-26.1792369256
 20
38.2949382679
 10
-26.1752793951
 20
38.3071196416
 10
-26.1708927983
 20
38.3192488623
 10
-26.1660890767
 20
38.3312929163
 10
-26.1608813117
 20
38.3432190124
 10
-26.1552836763
 20
38.3549946996
 10
-26.1493114128
 20
38.366587919
 10
-26.1429807991
 20
38.3779670831
 10
-26.136309098
 20
38.3891011812
 10
-26.1293144495
 20
38.3999599589
 10
-26.1220158309
 20
38.4105139573
 10
-26.1144329992
 20
38.420734585
 10
-26.1065866877
 20
38.4305938748
 10
-26.0984985131
 20
38.4400646909
 10
-26.0901906797
 20
38.4491211117
 10
-26.081685652
 20
38.4577387251
 10
-26.0730063361
 20
38.4658943491
 10
-26.0641744979
 20
38.4735673355
 10
-26.0552159704
 20
38.4807350485
 10
-26.0461605627
 20
38.4873741791
 10
-26.0370348779
 20
38.493466471
 10
-26.0278620177
 20
38.4989977385
 10
-26.0186669267
 20
38.5039539931
  0
LWPOLYLINE
  5
336
100
AcDbEntity
  8
ON_OFF_PORTATASTO
100
AcDbPolyline
 62
250
  6
CONTINUOUS
 90
31
 70
0
 10
-24.8694305028
 20
37.5370848383
 10
-24.8691900274
 20
37.5484942142
 10
-24.8684692552
 20
37.5601130244
 10
-24.8672701473
 20
37.571909658
 10
-24.865595966
 20
37.5838520203
 10
-24.8634512663
 20
37.59590762
 10
-24.8608418831
 20
37.6080436578
 10
-24.8577749158
 20
37.6202271157
 10
-24.8542587085
 20
37.6324248463
 10
-24.8503028277
 20
37.6446036638
 10
-24.845918036
 20
37.6567304336
 10
-24.841116263
 20
37.6687721627
 10
-24.8359105727
 20
37.6806960896
 10
-24.8303151282
 20
37.6924697733
 10
-24.8243451526
 20
37.7040611814
 10
-24.8180168884
 20
37.7154387775
 10
-24.8113475528
 20
37.726571607
 10
-24.8043552906
 20
37.7374293811
 10
-24.7970591257
 20
37.7479825594
 10
-24.7894789084
 20
37.7582024302
 10
-24.781635262
 20
37.7680611885
 10
-24.7735495264
 20
37.7775320121
 10
-24.7652437004
 20
37.7865891338
 10
-24.7567403812
 20
37.7952079123
 10
-24.7480627037
 20
37.8033648987
 10
-24.7392342768
 20
37.8110379005
 10
-24.7302791199
 20
37.8182060421
 10
-24.721221597
 20
37.8248498213
 10
-24.7120863505
 20
37.8309511625
 10
-24.7028982345
 20
37.8364934661
 10
-24.6936822469
 20
37.8414616532
  0
LWPOLYLINE
  5
337
100
AcDbEntity
  8
ON_OFF_PORTATASTO
100
AcDbPolyline
 62
250
  6
CONTINUOUS
 90
16
 70
0
 10
-24.8607471359
 20
39.6158662595
 10
-24.8610503569
 20
39.6097116153
 10
-24.8620318627
 20
39.603210106
 10
-24.8636900405
 20
39.59674303
 10
-24.8660203791
 20
39.5903279819
 10
-24.8690165382
 20
39.5839824151
 10
-24.8726703664
 20
39.5777235937
 10
-24.8769719228
 20
39.5715685458
 10
-24.8819095043
 20
39.5655340174
 10
-24.8874696774
 20
39.5596364264
 10
-24.8936373146
 20
39.5538918182
 10
-24.9003956359
 20
39.5483158219
 10
-24.9077262542
 20
39.5429236081
 10
-24.9156092251
 20
39.5377298471
 10
-24.9240231018
 20
39.5327486695
 10
-24.9329449929
 20
39.5279936274
  0
LWPOLYLINE
  5
338
100
AcDbEntity
  8
ON_OFF_PORTATASTO
100
AcDbPolyline
 62
250
  6
CONTINUOUS
 90
16
 70
0
 10
-24.8607471359
 20
39.9633974272
 10
-24.8610525344
 20
39.9572210862
 10
-24.8620365815
 20
39.9507184612
 10
-24.863697545
 20
39.9442503244
 10
-24.8660309472
 20
39.9378341938
 10
-24.8690304255
 20
39.9314876215
 10
-24.8726876946
 20
39.9252280814
 10
-24.8769926502
 20
39.9190727258
 10
-24.8819335891
 20
39.9130381675
 10
-24.8874971817
 20
39.9071406479
 10
-24.8936696356
 20
39.9013950367
 10
-24.9004330535
 20
39.8958182181
 10
-24.9077644885
 20
39.8904285279
 10
-24.915641383
 20
39.8852412903
 10
-24.9240427867
 20
39.880269132
 10
-24.9329449929
 20
39.8755251441
  0
LWPOLYLINE
  5
339
100
AcDbEntity
  8
ON_OFF_PORTATASTO
100
AcDbPolyline
 62
7
  6
CONTINUOUS
 90
5
 70
0
 10
-20.6863823089
 20
36.264411551
 10
-20.6884188522
 20
36.255290153
 10
-20.689933211
 20
36.2454565554
 10
-20.6908895947
 20
36.2349983955
 10
-20.691221581
 20
36.2234525772
  0
LINE
  5
33A
100
AcDbEntity
  8
ON_OFF_CONTATTI
100
AcDbLine
 62
250
  6
CONTINUOUS
 10
-4.3010754701
 20
34.7755739872
 11
-4.3695896766
 21
34.7376834195
  0
LINE
  5
33B
100
AcDbEntity
  8
ON_OFF_CONTATTI
100
AcDbLine
 62
7
  6
CONTINUOUS
 10
-4.3010754701
 20
34.7755739872
 11
-4.3696950822
 21
34.7377343626
  0
LWPOLYLINE
  5
33C
100
AcDbEntity
  8
ON_OFF_PORTATASTO
100
AcDbPolyline
 62
7
  6
CONTINUOUS
 90
23
 70
0
 10
-3.6854519362
 20
33.8189440717
 10
-3.6779285205
 20
33.8229663829
 10
-3.6706625454
 20
33.8275308918
 10
-3.6636540109
 20
33.8326375983
 10
-3.6568682638
 20
33.8382920054
 10
-3.6503399573
 20
33.8444886101
 10
-3.6441730513
 20
33.8512109038
 10
-3.6383738651
 20
33.8584780167
 10
-3.6329360793
 20
33.8662708185
 10
-3.6279446954
 20
33.8745154094
 10
-3.6234149972
 20
33.8832153226
 10
-3.6193317008
 20
33.8923670248
 10
-3.6157339563
 20
33.901886017
 10
-3.6126321301
 20
33.9117350589
 10
-3.6100158558
 20
33.9219513909
 10
-3.6078931839
 20
33.9325622347
 10
-3.6062520702
 20
33.9435810383
 10
-3.6051045589
 20
33.9549943538
 10
-3.6044948334
 20
33.96678906
 10
-3.6044206103
 20
33.9789762556
 10
-3.6048841729
 20
33.9915448419
 10
-3.6059365549
 20
34.0044484015
 10
-3.6075798778
 20
34.0176948296
  0
LINE
  5
33D
100
AcDbEntity
  8
ON_OFF_CONTATTI
100
AcDbLine
 62
7
  6
CONTINUOUS
 10
-4.3010754701
 20
34.7755739872
 11
-3.4853416135
 21
35.2057265795
  0
LINE
  5
33E
100
AcDbEntity
  8
ON_OFF_CORPO
100
AcDbLine
 62
7
  6
CONTINUOUS
 10
-0.9450894034
 20
37.1874595715
 11
-0.1113723797
 21
37.6191291971
  0
LINE
  5
33F
100
AcDbEntity
  8
ON_OFF_PORTATASTO
100
AcDbLine
 62
7
  6
CONTINUOUS
 10
-3.6823233041
 20
33.4608052711
 11
-9.2559585082
 21
30.6144156161
  0
LINE
  5
340
100
AcDbEntity
  8
ON_OFF_CORPO
100
AcDbLine
 62
7
  6
CONTINUOUS
 10
-0.9450894034
 20
37.1874595715
 11
-4.1048728364
 21
35.5858061326
  0
LINE
  5
341
100
AcDbEntity
  8
ON_OFF_PORTATASTO
100
AcDbLine
 62
250
  6
CONTINUOUS
 10
-9.7280832916
 20
31.9620245745
 11
-11.3293640824
 21
31.159302571
  0
LINE
  5
342
100
AcDbEntity
  8
ON_OFF_PORTATASTO
100
AcDbLine
 62
250
  6
CONTINUOUS
 10
-9.5513095879
 20
31.6571350357
 11
-11.1525903788
 21
30.8544130322
  0
LINE
  5
343
100
AcDbEntity
  8
ON_OFF_CONTATTI
100
AcDbLine
 62
7
  6
CONTINUOUS
 10
-3.3570541847
 20
34.9826348482
 11
-2.8620794379
 21
35.2301222216
  0
LINE
  5
344
100
AcDbEntity
  8
ON_OFF_PORTATASTO
100
AcDbLine
 62
7
  6
CONTINUOUS
 10
-3.6854519362
 20
33.8189440717
 11
-9.4879212918
 21
30.9177093939
  0
LINE
  5
345
100
AcDbEntity
  8
ON_OFF_CONTATTI
100
AcDbLine
 62
7
  6
CONTINUOUS
 10
-0.3939015254
 20
35.4106220739
 11
-1.7053658364
 21
34.7548899184
  0
LINE
  5
346
100
AcDbEntity
  8
ON_OFF_CONTATTI
100
AcDbLine
 62
7
  6
CONTINUOUS
 10
-2.4065895783
 20
34.4042780474
 11
-2.622655496
 21
34.2962450886
  0
LINE
  5
347
100
AcDbEntity
  8
ON_OFF_CONTATTI
100
AcDbLine
 62
7
  6
CONTINUOUS
 10
0.4546291823
 20
34.9863592903
 11
-0.6628387548
 21
34.4276253218
  0
LINE
  5
348
100
AcDbEntity
  8
ON_OFF_PORTATASTO
100
AcDbLine
 62
250
  6
CONTINUOUS
 10
-9.1998161199
 20
32.2254633946
 11
-9.7280832916
 21
31.9620245745
  0
LINE
  5
349
100
AcDbEntity
  8
ON_OFF_PORTATASTO
100
AcDbLine
 62
250
  6
CONTINUOUS
 10
-9.0230424162
 20
31.9205738557
 11
-9.5513095879
 21
31.6571350357
  0
LINE
  5
34A
100
AcDbEntity
  8
ON_OFF_PORTATASTO
100
AcDbLine
 62
7
  6
CONTINUOUS
 10
-9.5513095879
 20
30.0622735683
 11
-9.4499747691
 21
30.1113262176
  0
LINE
  5
34B
100
AcDbEntity
  8
ON_OFF_PORTATASTO
100
AcDbLine
 62
7
  6
CONTINUOUS
 10
-4.8226429432
 20
34.6998043014
 11
-9.5138858301
 21
32.4444756206
  0
LINE
  5
34C
100
AcDbEntity
  8
ON_OFF_PORTATASTO
100
AcDbLine
 62
250
  6
CONTINUOUS
 10
-8.8443105169
 20
30.4085916204
 11
-9.5513095879
 21
30.074647988
  0
LINE
  5
34D
100
AcDbEntity
  8
ON_OFF_CORPO
100
AcDbLine
 62
7
  6
CONTINUOUS
 10
4.1279361863
 20
36.5420995295
 11
0.1346653638
 21
34.6978747312
  0
LWPOLYLINE
  5
34E
100
AcDbEntity
  8
ON_OFF_CONTATTI
100
AcDbPolyline
 62
7
  6
CONTINUOUS
 90
10
 70
0
 10
0.4546002864
 20
34.9863448424
 10
0.4659967507
 20
34.9915134976
 10
0.4772171532
 20
34.995565394
 10
0.4882614939
 20
34.9985005315
 10
0.4992247528
 20
35.0003190629
 10
0.51001195
 20
35.0010208354
 10
0.5203381454
 20
35.000605391
 10
0.5301083592
 20
34.9990725771
 10
0.5394175712
 20
34.9964225464
 10
0.5482657815
 20
34.9926552988
  0
LWPOLYLINE
  5
34F
100
AcDbEntity
  8
ON_OFF_CORPO
100
AcDbPolyline
 62
7
  6
CONTINUOUS
 90
43
 70
0
 10
0.1346653493
 20
34.6978747245
 10
0.0527652478
 20
34.6610373556
 10
-0.0315362186
 20
34.6257193101
 10
-0.1182390497
 20
34.5919205882
 10
-0.2074511324
 20
34.5596051823
 10
-0.29906458
 20
34.5288090999
 10
-0.3927557321
 20
34.4996403633
 10
-0.4885343063
 20
34.4721039073
 10
-0.5863905849
 20
34.446194797
 10
-0.685971755
 20
34.422006251
 10
-0.7872840611
 20
34.3995445513
 10
-0.8903212587
 20
34.3788034158
 10
-0.9947117999
 20
34.3598572167
 10
-1.1004605453
 20
34.3427125052
 10
-1.2075626345
 20
34.3273627301
 10
-1.3156319383
 20
34.3138626099
 10
-1.424671881
 20
34.3022188896
 10
-1.5346790384
 20
34.2924248243
 10
-1.6452570082
 20
34.284514898
 10
-1.7564076039
 20
34.2784959665
 10
-1.868129012
 20
34.274361174
 10
-1.9800193898
 20
34.2721244378
 10
-2.09207696
 20
34.2717924245
 10
-2.2043034999
 20
34.2733584675
 10
-2.3163024978
 20
34.2768164843
 10
-2.428074652
 20
34.2821730728
 10
-2.5396192642
 20
34.289421635
 10
-2.6505377282
 20
34.2985362946
 10
-2.7608286504
 20
34.3095238166
 10
-2.8704934244
 20
34.3223774361
 10
-2.9791376242
 20
34.337050982
 10
-3.0867575318
 20
34.3535510568
 10
-3.1933568653
 20
34.3718710581
 10
-3.2985523537
 20
34.3919450069
 10
-3.4023388739
 20
34.41377926
 10
-3.504721549
 20
34.4373674607
 10
-3.6053324773
 20
34.4626245599
 10
-3.7041651903
 20
34.4895565981
 10
-3.8012261565
 20
34.5181575349
 10
-3.8961668801
 20
34.5483241997
 10
-3.9889796212
 20
34.5800622503
 10
-4.0796721196
 20
34.6133660289
 10
-4.1679190992
 20
34.6481153919
  0
LWPOLYLINE
  5
350
100
AcDbEntity
  8
ON_OFF_TASTOTARGHETTA
100
AcDbPolyline
 62
7
  6
CONTINUOUS
 90
22
 70
0
 10
-15.3140899684
 20
27.2194274184
 10
-15.3896248053
 20
27.1870411485
 10
-15.4652342796
 20
27.148110035
 10
-15.5405432087
 20
27.1028311544
 10
-15.6151784641
 20
27.0514363602
 10
-15.6887693522
 20
26.9941822011
 10
-15.7609490883
 20
26.9313468432
 10
-15.8313648982
 20
26.8632391335
 10
-15.8996609916
 20
26.7902054794
 10
-15.9654797641
 20
26.7126204772
 10
-16.0284874244
 20
26.6308846824
 10
-16.0883808008
 20
26.5454003739
 10
-16.1448683432
 20
26.456575513
 10
-16.1976739847
 20
26.3648435914
 10
-16.2465282841
 20
26.2706737102
 10
-16.2911764502
 20
26.1745478395
 10
-16.3313940711
 20
26.0769540872
 10
-16.3669856229
 20
25.9783752708
 10
-16.3977732753
 20
25.8792969083
 10
-16.4236030284
 20
25.7802122495
 10
-16.4443464931
 20
25.6816199519
 10
-16.4599000796
 20
25.5840134644
  0
LINE
  5
351
100
AcDbEntity
  8
ON_OFF_TASTOTARGHETTA
100
AcDbLine
 62
7
  6
CONTINUOUS
 10
-11.3375671887
 20
28.7204698901
 11
-15.3140899684
 21
27.2194274184
  0
LINE
  5
352
100
AcDbEntity
  8
ON_OFF_PORTATASTO
100
AcDbLine
 62
7
  6
CONTINUOUS
 10
-10.5971198469
 20
28.6939525201
 11
-10.1997324472
 21
28.827094976
  0
LINE
  5
353
100
AcDbEntity
  8
ON_OFF_PORTATASTO
100
AcDbLine
 62
7
  6
CONTINUOUS
 10
-11.9440064208
 20
9.1653579779
 11
-12.2137618986
 21
9.3002357168
  0
LWPOLYLINE
  5
354
100
AcDbEntity
  8
ON_OFF_PORTATASTO
100
AcDbPolyline
 62
7
  6
CONTINUOUS
 90
6
 70
0
 10
-24.432201413
 20
44.0920301406
 10
-24.4324226528
 20
44.0945524929
 10
-24.4334126351
 20
44.0975342938
 10
-24.435157159
 20
44.1000115661
 10
-24.4376140744
 20
44.1019992039
 10
-24.4389762871
 20
44.1027614145
  0
LWPOLYLINE
  5
355
100
AcDbEntity
  8
ON_OFF_PORTATASTO
100
AcDbPolyline
 62
7
  6
CONTINUOUS
 90
31
 70
0
 10
-22.9156277524
 20
38.3392941179
 10
-22.9158697943
 20
38.3507462334
 10
-22.9165959417
 20
38.3624090886
 10
-22.9178040708
 20
38.3742507877
 10
-22.9194906364
 20
38.3862389959
 10
-22.9216510093
 20
38.3983408605
 10
-22.9242794884
 20
38.4105231009
 10
-22.9273688012
 20
38.4227523645
 10
-22.930910363
 20
38.4349951926
 10
-22.9348946272
 20
38.4472179444
 10
-22.9393106365
 20
38.4593871393
 10
-22.9441461979
 20
38.4714694685
 10
-22.949388154
 20
38.4834317603
 10
-22.9550221324
 20
38.4952412309
 10
-22.9610326321
 20
38.5068655417
 10
-22.9674032085
 20
38.5182728086
 10
-22.9741164283
 20
38.5294317522
 10
-22.9811538642
 20
38.5403118012
 10
-22.9884961901
 20
38.550883145
 10
-22.9961233412
 20
38.5611167797
 10
-23.0040144178
 20
38.5709846544
 10
-23.0121476894
 20
38.5804597673
 10
-23.0205009537
 20
38.5895161044
 10
-23.0290513542
 20
38.5981288261
 10
-23.0377752915
 20
38.6062744051
 10
-23.0466489732
 20
38.6139304576
 10
-23.055648149
 20
38.6210759674
 10
-23.064747933
 20
38.6276914604
 10
-23.0739233926
 20
38.6337588027
 10
-23.0831496173
 20
38.6392612502
 10
-23.092401456
 20
38.6441836567
  0
LWPOLYLINE
  5
356
100
AcDbEntity
  8
ON_OFF_PORTATASTO
100
AcDbPolyline
 62
250
  6
CONTINUOUS
 90
31
 70
0
 10
-22.3873605806
 20
38.602732938
 10
-22.3875508246
 20
38.6142134895
 10
-22.3882280754
 20
38.6259035277
 10
-22.389390479
 20
38.6377709999
 10
-22.3910348525
 20
38.6497833773
 10
-22.3931566888
 20
38.6619077123
 10
-22.3957501651
 20
38.6741107274
 10
-22.3988081667
 20
38.6863589539
 10
-22.4023223091
 20
38.698618815
 10
-22.4062829521
 20
38.7108566847
 10
-22.4106792338
 20
38.7230390072
 10
-22.4154990976
 20
38.7351323792
 10
-22.4207293211
 20
38.7471036317
 10
-22.4263555649
 20
38.7589199498
 10
-22.4323623953
 20
38.7705489262
 10
-22.4387333196
 20
38.7819586417
 10
-22.4454508363
 20
38.7931177728
 10
-22.4524965459
 20
38.8039957723
 10
-22.45985119
 20
38.8145629096
 10
-22.4674947113
 20
38.8247903437
 10
-22.4754060573
 20
38.8346498837
 10
-22.4835632748
 20
38.844114197
 10
-22.4919438069
 20
38.8531571913
 10
-22.5005248224
 20
38.8617543073
 10
-22.5092830356
 20
38.8698822433
 10
-22.5181962942
 20
38.8775202443
 10
-22.5272383599
 20
38.8846456325
 10
-22.5363789996
 20
38.8912351277
 10
-22.5455911875
 20
38.8972705021
 10
-22.5548514053
 20
38.9027375912
 10
-22.5641342843
 20
38.9076224768
  0
LWPOLYLINE
  5
357
100
AcDbEntity
  8
ON_OFF_CORPO
100
AcDbPolyline
 62
7
  6
CONTINUOUS
 90
37
 70
0
 10
-21.4332181939
 20
48.7006029755
 10
-21.4334489276
 20
48.7224623977
 10
-21.4348482649
 20
48.7589666985
 10
-21.4374910836
 20
48.7954532396
 10
-21.4413528062
 20
48.8319175652
 10
-21.4464085716
 20
48.8683288936
 10
-21.4526289248
 20
48.9046188122
 10
-21.4599906757
 20
48.9407696377
 10
-21.4684751747
 20
48.9767654741
 10
-21.4780502205
 20
49.0125315473
 10
-21.4886956568
 20
49.0480485998
 10
-21.5003969871
 20
49.0833017084
 10
-21.5131193061
 20
49.1182174863
 10
-21.5268439465
 20
49.1527702644
 10
-21.5415605863
 20
49.186948627
 10
-21.5572409711
 20
49.2206979992
 10
-21.5738731312
 20
49.2539961767
 10
-21.5914480926
 20
49.2868245049
 10
-21.6099425526
 20
49.3191329387
 10
-21.6293498936
 20
49.3508998943
 10
-21.6496641317
 20
49.3821014081
 10
-21.6708648188
 20
49.4126864405
 10
-21.6929582132
 20
49.442642926
 10
-21.7159350723
 20
49.471930616
 10
-21.7397505522
 20
49.5004662477
 10
-21.7644275775
 20
49.5282502206
 10
-21.7899451757
 20
49.5552248664
 10
-21.8161838396
 20
49.581241636
 10
-21.8431422409
 20
49.6062824011
 10
-21.8708130016
 20
49.630318982
 10
-21.8990530455
 20
49.6532155436
 10
-21.9278464478
 20
49.6749537545
 10
-21.95718716
 20
49.6955211149
 10
-21.9869313097
 20
49.7148153705
 10
-22.0170138326
 20
49.7328027959
 10
-22.0474539079
 20
49.7495033181
 10
-22.0631055017
 20
49.7575200895
  0
LINE
  5
358
100
AcDbEntity
  8
ON_OFF_PORTATASTO
100
AcDbLine
 62
250
  6
CONTINUOUS
 10
-23.8056879351
 20
37.0480946574
 11
-23.8056879351
 21
36.2404625357
  0
LINE
  5
359
100
AcDbEntity
  8
ON_OFF_PORTATASTO
100
AcDbLine
 62
7
  6
CONTINUOUS
 10
-22.9156277524
 20
36.7447011462
 11
-22.9156277524
 21
38.3392941179
  0
LINE
  5
35A
100
AcDbEntity
  8
ON_OFF_PORTATASTO
100
AcDbLine
 62
250
  6
CONTINUOUS
 10
-22.3873605806
 20
38.602732938
 11
-22.3873605806
 21
38.2552014212
  0
LINE
  5
35B
100
AcDbEntity
  8
ON_OFF_PORTATASTO
100
AcDbLine
 62
7
  6
CONTINUOUS
 10
-22.3151627236
 20
38.6906055701
 11
-22.3151627236
 21
38.3430740534
  0
LINE
  5
35C
100
AcDbEntity
  8
ON_OFF_CORPO
100
AcDbLine
 62
250
  6
CONTINUOUS
 10
-21.5735480694
 20
48.5269481534
 11
-21.5735480694
 21
46.4302742233
  0
LINE
  5
35D
100
AcDbEntity
  8
ON_OFF_CORPO
100
AcDbLine
 62
7
  6
CONTINUOUS
 10
-21.4332179696
 20
48.700612746
 11
-21.4332179696
 21
46.6039388159
  0
LWPOLYLINE
  5
35E
100
AcDbEntity
  8
ON_OFF_CORPO
100
AcDbPolyline
 62
250
  6
CONTINUOUS
 90
18
 70
0
 10
-21.4332179699
 20
48.7006029755
 10
-21.4332727941
 20
48.6969106677
 10
-21.4341749433
 20
48.685152653
 10
-21.4361826075
 20
48.6734288865
 10
-21.4392913393
 20
48.6617653396
 10
-21.443494252
 20
48.6501878502
 10
-21.448782035
 20
48.6387220656
 10
-21.4551429743
 20
48.6273933856
 10
-21.462562979
 20
48.6162269062
 10
-21.4710256115
 20
48.6052473642
 10
-21.4805121249
 20
48.5944790823
 10
-21.4910015041
 20
48.5839459152
 10
-21.5024705121
 20
48.5736711965
 10
-21.5148937421
 20
48.5636776877
 10
-21.5282436732
 20
48.5539875271
 10
-21.5424907318
 20
48.5446221808
 10
-21.5576033567
 20
48.5356023959
 10
-21.5735480694
 20
48.5269481534
  0
LWPOLYLINE
  5
35F
100
AcDbEntity
  8
ON_OFF_CORPO
100
AcDbPolyline
 62
250
  6
CONTINUOUS
 90
18
 70
0
 10
-21.4332179697
 20
46.6039337736
 10
-21.4332727981
 20
46.6002366026
 10
-21.4341749597
 20
46.5884785905
 10
-21.4361826356
 20
46.5767548281
 10
-21.4392913781
 20
46.5650912864
 10
-21.4434943001
 20
46.5535138033
 10
-21.4487820909
 20
46.542048026
 10
-21.4551430364
 20
46.5307193542
 10
-21.4625630452
 20
46.5195528838
 10
-21.4710256798
 20
46.5085733514
 10
-21.480512193
 20
46.4978050797
 10
-21.4910015696
 20
46.487271923
 10
-21.5024705727
 20
46.4769972151
 10
-21.5148937953
 20
46.467003717
 10
-21.5282437166
 20
46.457313567
 10
-21.5424907631
 20
46.4479482312
 10
-21.5576033735
 20
46.4389284562
 10
-21.5735480694
 20
46.4302742233
  0
LWPOLYLINE
  5
360
100
AcDbEntity
  8
ON_OFF_PORTATASTO
100
AcDbPolyline
 62
250
  6
CONTINUOUS
 90
16
 70
0
 10
-22.3151627236
 20
38.6906055701
 10
-22.3154640855
 20
38.684469812
 10
-22.3164438862
 20
38.6779669397
 10
-22.3181006424
 20
38.6714984508
 10
-22.3204298479
 20
38.6650819558
 10
-22.323425169
 20
38.6587349149
 10
-22.3270784543
 20
38.6524746093
 10
-22.3313797635
 20
38.6463180788
 10
-22.3363173922
 20
38.6402820808
 10
-22.3418778999
 20
38.6343830491
 10
-22.3480461578
 20
38.6286370361
 10
-22.3548053748
 20
38.6230596861
 10
-22.3621371333
 20
38.6176661951
 10
-22.3700214666
 20
38.612471247
 10
-22.3784369185
 20
38.6074889748
 10
-22.3873605806
 20
38.602732938
  0
LWPOLYLINE
  5
361
100
AcDbEntity
  8
ON_OFF_PORTATASTO
100
AcDbPolyline
 62
250
  6
CONTINUOUS
 90
16
 70
0
 10
-22.3151627237
 20
38.3430717411
 10
-22.3154656601
 20
38.3369222964
 10
-22.316446909
 20
38.3304205604
 10
-22.3181048764
 20
38.3239532522
 10
-22.3204350507
 20
38.3175379706
 10
-22.3234310922
 20
38.3111921684
 10
-22.3270848526
 20
38.3049331065
 10
-22.3313863989
 20
38.2987778063
 10
-22.3363240242
 20
38.292743025
 10
-22.3418842749
 20
38.2868452033
 10
-22.3480520041
 20
38.2811003987
 10
-22.3548104367
 20
38.2755242284
 10
-22.3621411996
 20
38.2701318489
 10
-22.3700243541
 20
38.2649379274
 10
-22.3784384456
 20
38.2599566004
 10
-22.3873605806
 20
38.2552014212
  0
LINE
  5
362
100
AcDbEntity
  8
ON_OFF_PORTATASTO
100
AcDbLine
 62
250
  6
CONTINUOUS
 10
-11.362006498
 20
29.0790997063
 11
-10.5530167132
 21
29.5207510087
  0
LINE
  5
363
100
AcDbEntity
  8
ON_OFF_PORTATASTO
100
AcDbLine
 62
250
  6
CONTINUOUS
 10
-9.1058256537
 20
29.5080938544
 11
-10.5971198469
 21
28.6939525201
  0
LWPOLYLINE
  5
364
100
AcDbEntity
  8
ON_OFF_PORTATASTO
100
AcDbPolyline
 62
7
  6
CONTINUOUS
 90
13
 70
0
 10
-10.4413697707
 20
29.5574347513
 10
-10.4492400623
 20
29.553227443
 10
-10.4574269314
 20
29.5492170338
 10
-10.4659151202
 20
29.5454102712
 10
-10.4746893434
 20
29.5418173466
 10
-10.4837327004
 20
29.538440573
 10
-10.4930265459
 20
29.5352742531
 10
-10.5025534507
 20
29.5323266341
 10
-10.5122953833
 20
29.5295995368
 10
-10.5222318701
 20
29.5270768043
 10
-10.5323433682
 20
29.524755457
 10
-10.5426114473
 20
29.5226458356
 10
-10.5530167132
 20
29.5207510087
  0
LINE
  5
365
100
AcDbEntity
  8
ON_OFF_CORPO
100
AcDbLine
 62
7
  6
CONTINUOUS
 10
-8.8438193205
 20
30.4076565602
 11
-3.2558331894
 21
33.3430813926
  0
LINE
  5
366
100
AcDbEntity
  8
ON_OFF_CORPO
100
AcDbLine
 62
250
  6
CONTINUOUS
 10
6.0386927695
 20
35.1711094482
 11
-8.4906494162
 21
27.779266113
  0
LWPOLYLINE
  5
367
100
AcDbEntity
  8
ON_OFF_CORPO
100
AcDbPolyline
 62
250
  6
CONTINUOUS
 90
20
 70
0
 10
5.9064224021
 20
35.399242086
 10
5.9225668372
 20
35.4072059392
 10
5.9381081056
 20
35.4147440004
 10
5.9530117792
 20
35.4218395707
 10
5.9672448422
 20
35.4284769315
 10
5.9807757647
 20
35.4346413793
 10
5.9935745719
 20
35.4403192581
 10
6.005612911
 20
35.4454979899
 10
6.0168641139
 20
35.4501661025
 10
6.0273032561
 20
35.4543132546
 10
6.0369072122
 20
35.4579302593
 10
6.0456547067
 20
35.461009104
 10
6.0535263616
 20
35.4635429681
 10
6.0605047392
 20
35.4655262385
 10
6.0665743804
 20
35.4669545218
 10
6.0717218393
 20
35.4678246538
 10
6.0759357131
 20
35.4681347071
 10
6.0792066668
 20
35.4678839949
 10
6.0815274545
 20
35.4670730725
 10
6.0828440262
 20
35.4657912653
  0
LWPOLYLINE
  5
368
100
AcDbEntity
  8
ON_OFF_CORPO
100
AcDbPolyline
 62
250
  6
CONTINUOUS
 90
20
 70
0
 10
6.0386927695
 20
35.1711094482
 10
6.054837202
 20
35.1790733001
 10
6.0703784681
 20
35.1866113601
 10
6.0852821397
 20
35.1937069294
 10
6.099515201
 20
35.2003442894
 10
6.113046122
 20
35.2065087366
 10
6.1258449281
 20
35.212186615
 10
6.1378832665
 20
35.2173653466
 10
6.1491344689
 20
35.2220334591
 10
6.159573611
 20
35.2261806114
 10
6.1691775672
 20
35.2297976164
 10
6.1779250622
 20
35.2328764616
 10
6.1857967178
 20
35.2354103263
 10
6.1927750963
 20
35.2373935974
 10
6.1988447387
 20
35.2388218815
 10
6.203992199
 20
35.2396920144
 10
6.2082060742
 20
35.2400020687
 10
6.2114770296
 20
35.2397513574
 10
6.2137978189
 20
35.238940436
 10
6.2151143939
 20
35.237658627
  0
LINE
  5
369
100
AcDbEntity
  8
ON_OFF_CORPO
100
AcDbLine
 62
250
  6
CONTINUOUS
 10
-2.5103062537
 20
32.0572376338
 11
5.4064985545
 21
35.9028183453
  0
LINE
  5
36A
100
AcDbEntity
  8
ON_OFF_CORPO
100
AcDbLine
 62
250
  6
CONTINUOUS
 10
-2.1726379198
 20
31.4748459068
 11
5.9064224021
 21
35.399242086
  0
LINE
  5
36B
100
AcDbEntity
  8
ON_OFF_PORTATASTO
100
AcDbLine
 62
250
  6
CONTINUOUS
 10
-8.4906494162
 20
29.7986659298
 11
-9.1058256537
 21
29.5080938544
  0
LWPOLYLINE
  5
36C
100
AcDbEntity
  8
ON_OFF_CORPO
100
AcDbPolyline
 62
250
  6
CONTINUOUS
 90
16
 70
0
 10
5.4064985545
 20
35.9028183453
 10
5.4231251534
 20
35.9102965082
 10
5.4397012508
 20
35.9167921764
 10
5.4561901263
 20
35.9222909604
 10
5.4725552526
 20
35.9267806788
 10
5.4887603764
 20
35.9302513856
 10
5.504769599
 20
35.9326953924
 10
5.5205474557
 20
35.9341072849
 10
5.5360589943
 20
35.9344839355
 10
5.5512698526
 20
35.9338245098
 10
5.5661463343
 20
35.9321304686
 10
5.580655484
 20
35.9294055647
 10
5.5947651601
 20
35.9256558343
 10
5.6084441058
 20
35.9208895843
 10
5.6216620186
 20
35.9151173732
 10
5.6239349948
 20
35.9140000101
  0
LWPOLYLINE
  5
36D
100
AcDbEntity
  8
ON_OFF_TASTOTARGHETTA
100
AcDbPolyline
 62
7
  6
CONTINUOUS
 90
22
 70
0
 10
-14.8076119224
 20
26.2181471342
 10
-14.8433055996
 20
26.2031250243
 10
-14.8787367269
 20
26.1852243081
 10
-14.9139053044
 20
26.1644449854
 10
-14.9490004044
 20
26.1406498949
 10
-14.9838329545
 20
26.113976198
 10
-15.0178357378
 20
26.0848353789
 10
-15.050984136
 20
26.0531914701
 10
-15.0833027675
 20
26.019080439
 10
-15.1142982703
 20
25.9830216726
 10
-15.1439458707
 20
25.9449901612
 10
-15.1722703425
 20
25.9050109143
 10
-15.1988526447
 20
25.8636783479
 10
-15.2236678146
 20
25.8209696613
 10
-15.246740815
 20
25.7769076552
 10
-15.2677274926
 20
25.7321551468
 10
-15.2865985483
 20
25.6866831788
 10
-15.3033832813
 20
25.6405207086
 10
-15.317825436
 20
25.5944174256
 10
-15.329839594
 20
25.5486232263
 10
-15.3395111738
 20
25.5028882142
 10
-15.3468401753
 20
25.4572123894
  0
LINE
  5
36E
100
AcDbEntity
  8
ON_OFF_TASTOTARGHETTA
100
AcDbLine
 62
7
  6
CONTINUOUS
 10
-10.6938693566
 20
27.7709868011
 11
-14.8076119224
 21
26.2181471342
  0
LWPOLYLINE
  5
36F
100
AcDbEntity
  8
ON_OFF_PORTATASTO
100
AcDbPolyline
 62
250
  6
CONTINUOUS
 90
14
 70
0
 10
-38.2972631573
 20
46.2101527096
 10
-38.2929154726
 20
46.2027996226
 10
-38.2890652309
 20
46.1957065927
 10
-38.2857229471
 20
46.1888929908
 10
-38.2828977508
 20
46.1823774296
 10
-38.2805973547
 20
46.1761776972
 10
-38.2788280374
 20
46.1703107109
 10
-38.2775946328
 20
46.1647924856
 10
-38.2769005172
 20
46.1596381055
 10
-38.2767475897
 20
46.1548616652
 10
-38.2771362656
 20
46.1504762138
 10
-38.2780654815
 20
46.14649372
 10
-38.2795326996
 20
46.1429250562
 10
-38.2815020911
 20
46.139829979
  0
LWPOLYLINE
  5
370
100
AcDbEntity
  8
ON_OFF_CORPO
100
AcDbPolyline
 62
250
  6
CONTINUOUS
 90
40
 70
0
 10
-21.5735480694
 20
46.4302742233
 10
-21.5731440369
 20
46.4199975888
 10
-21.5724143179
 20
46.4095274015
 10
-21.5713558652
 20
46.398879067
 10
-21.5699646827
 20
46.3880629422
 10
-21.5682399679
 20
46.3771010693
 10
-21.5661860088
 20
46.3660276487
 10
-21.5638038706
 20
46.3548600601
 10
-21.5610949342
 20
46.3436169523
 10
-21.5580682955
 20
46.3323355201
 10
-21.5547292973
 20
46.3210365786
 10
-21.5510821598
 20
46.3097367257
 10
-21.5471379836
 20
46.2984669906
 10
-21.5429058686
 20
46.2872503967
 10
-21.5383917039
 20
46.2761006324
 10
-21.5336035008
 20
46.2650343948
 10
-21.52855069
 20
46.254071457
 10
-21.5232411984
 20
46.2432274121
 10
-21.5176807947
 20
46.2325125651
 10
-21.5118786555
 20
46.2219441308
 10
-21.5058443061
 20
46.2115391653
 10
-21.4995836412
 20
46.201307914
 10
-21.4931066466
 20
46.1912671711
 10
-21.4864235451
 20
46.1814333812
 10
-21.4795402849
 20
46.1718166149
 10
-21.4724657219
 20
46.162430675
 10
-21.4652126676
 20
46.1532942085
 10
-21.4577932602
 20
46.144424401
 10
-21.4502165919
 20
46.1358330121
 10
-21.4424976445
 20
46.1275384074
 10
-21.4346585847
 20
46.1195656569
 10
-21.4267119973
 20
46.1119261344
 10
-21.4186722566
 20
46.1046328681
 10
-21.4105656454
 20
46.0977094026
 10
-21.402406968
 20
46.0911645435
 10
-21.3942099933
 20
46.0850060558
 10
-21.3860002966
 20
46.0792511007
 10
-21.3777960082
 20
46.0739072804
 10
-21.369607425
 20
46.0689747259
 10
-21.3614483438
 20
46.0644563093
  0
LWPOLYLINE
  5
371
100
AcDbEntity
  8
ON_OFF_PORTATASTO
100
AcDbPolyline
 62
7
  6
CONTINUOUS
 90
27
 70
0
 10
-20.691221581
 20
36.2234525772
 10
-20.6909453446
 20
36.2125607562
 10
-20.6901541605
 20
36.2007009061
 10
-20.6888423901
 20
36.1884880896
 10
-20.6869896323
 20
36.1759822845
 10
-20.6846668026
 20
36.1632053367
 10
-20.6818722664
 20
36.1502003805
 10
-20.6785945683
 20
36.1370134019
 10
-20.6748868186
 20
36.1236558893
 10
-20.6707488035
 20
36.1101603256
 10
-20.6661745997
 20
36.0965628748
 10
-20.6612051075
 20
36.0828716868
 10
-20.6558406395
 20
36.0691125158
 10
-20.6500785949
 20
36.0553145115
 10
-20.6439520407
 20
36.0414857313
 10
-20.6374614957
 20
36.0276474114
 10
-20.63060645
 20
36.0138238773
 10
-20.6234154384
 20
36.0000249173
 10
-20.6158891401
 20
35.9862686311
 10
-20.6080285007
 20
35.9725760037
 10
-20.5998600613
 20
35.9589596391
 10
-20.591384533
 20
35.9454349816
 10
-20.5826042619
 20
35.9320210022
 10
-20.573546577
 20
35.9187348512
 10
-20.5642217352
 20
35.9055926092
 10
-20.5546241379
 20
35.892608959
 10
-20.5447571386
 20
35.8797982115
  0
LWPOLYLINE
  5
372
100
AcDbEntity
  8
ON_OFF_TASTOTARGHETTA
100
AcDbPolyline
 62
7
  6
CONTINUOUS
 90
22
 70
0
 10
-18.3473370773
 20
-11.006833506
 10
-18.3473091581
 20
-11.0499039233
 10
-18.3448053892
 20
-11.0913165956
 10
-18.3398257707
 20
-11.1310715229
 10
-18.3323224856
 20
-11.1693710226
 10
-18.3223433508
 20
-11.2060127772
 10
-18.3100318169
 20
-11.2403898343
 10
-18.2953495192
 20
-11.2724517319
 10
-18.2783348224
 20
-11.3022489319
 10
-18.2592462711
 20
-11.3293258682
 10
-18.2380545213
 20
-11.3536367532
 10
-18.2147889169
 20
-11.3752273744
 10
-18.189796034
 20
-11.3937795286
 10
-18.1630482943
 20
-11.4092481526
 10
-18.1345732761
 20
-11.4216783096
 10
-18.1048002907
 20
-11.430886985
 10
-18.073695131
 20
-11.4368202951
 10
-18.041292004
 20
-11.4395321238
 10
-18.0081228426
 20
-11.439001108
 10
-17.9743649577
 20
-11.4352201268
 10
-17.9398410383
 20
-11.4281963012
 10
-17.9045510844
 20
-11.4179296312
  0
LINE
  5
373
100
AcDbEntity
  8
ON_OFF_PORTATASTO
100
AcDbLine
 62
7
  6
CONTINUOUS
 10
-20.691203748
 20
36.2234551805
 11
-20.691203748
 21
34.9826382903
  0
LINE
  5
374
100
AcDbEntity
  8
ON_OFF_PORTATASTO
100
AcDbLine
 62
250
  6
CONTINUOUS
 10
-20.5447571386
 20
35.8797982115
 11
-20.5447571386
 21
34.7992149007
  0
LINE
  5
375
100
AcDbEntity
  8
ON_OFF_CORPO
100
AcDbLine
 62
7
  6
CONTINUOUS
 10
-19.9494203704
 20
44.9328786125
 11
-19.9494203704
 21
44.3661605038
  0
LWPOLYLINE
  5
376
100
AcDbEntity
  8
ON_OFF_TASTOTARGHETTA
100
AcDbPolyline
 62
7
  6
CONTINUOUS
 90
14
 70
0
 10
-19.4684197006
 20
-10.97752988
 10
-19.4684648005
 20
-11.0694939759
 10
-19.4631660921
 20
-11.1586036698
 10
-19.4525501637
 20
-11.2444138606
 10
-19.4366694436
 20
-11.3264941931
 10
-19.4156038702
 20
-11.4044373049
 10
-19.3894588952
 20
-11.477859508
 10
-19.3583596592
 20
-11.5463993656
 10
-19.3224620127
 20
-11.6097072523
 10
-19.2819550534
 20
-11.6674550972
 10
-19.2370461175
 20
-11.7193510931
 10
-19.1879548271
 20
-11.7651457358
 10
-19.1349210137
 20
-11.8046172259
 10
-19.0763542145
 20
-11.8385019998
  0
LWPOLYLINE
  5
377
100
AcDbEntity
  8
ON_OFF_TASTOTARGHETTA
100
AcDbPolyline
 62
7
  6
CONTINUOUS
 90
3
 70
0
 10
-19.2421194531
 20
-4.9870108221
 10
-19.3690701181
 20
-7.9881339051
 10
-19.4684197006
 20
-10.97752988
  0
LINE
  5
378
100
AcDbEntity
  8
ON_OFF_PORTATASTO
100
AcDbLine
 62
250
  6
CONTINUOUS
 10
-9.5513095879
 20
30.9300901832
 11
-9.0230424162
 21
31.573042339
  0
LINE
  5
379
100
AcDbEntity
  8
ON_OFF_PORTATASTO
100
AcDbLine
 62
7
  6
CONTINUOUS
 10
-9.5513095879
 20
30.8405597169
 11
-9.0076818438
 21
31.5022071724
  0
LWPOLYLINE
  5
37A
100
AcDbEntity
  8
ON_OFF_PORTATASTO
100
AcDbPolyline
 62
7
  6
CONTINUOUS
 90
36
 70
0
 10
-10.4413697707
 20
30.3659355752
 10
-10.4480103725
 20
30.3581968931
 10
-10.4548979798
 20
30.3505546547
 10
-10.4620305622
 20
30.3430218442
 10
-10.469410061
 20
30.3356129174
 10
-10.477029164
 20
30.3283396218
 10
-10.484871413
 20
30.3212110658
 10
-10.4929332627
 20
30.3142407166
 10
-10.5012104387
 20
30.3074417376
 10
-10.5096849303
 20
30.3008230079
 10
-10.5183518774
 20
30.2943980906
 10
-10.5272057642
 20
30.2881802033
 10
-10.5362271411
 20
30.282177941
 10
-10.5454098012
 20
30.2764048142
 10
-10.5547469311
 20
30.270873965
 10
-10.5642177058
 20
30.2655936845
 10
-10.5738145427
 20
30.2605772693
 10
-10.5835292655
 20
30.2558376441
 10
-10.5933396636
 20
30.2513827976
 10
-10.6032367321
 20
30.2472256346
 10
-10.6132108745
 20
30.2433786839
 10
-10.6232384479
 20
30.2398496058
 10
-10.6333089679
 20
30.2366507004
 10
-10.6434113709
 20
30.2337938759
 10
-10.6535205339
 20
30.2312863758
 10
-10.6636244268
 20
30.2291396324
 10
-10.6737105014
 20
30.227364648
 10
-10.6837521772
 20
30.2259680591
 10
-10.6937358032
 20
30.2249601081
 10
-10.7036473912
 20
30.2243505338
 10
-10.7134591188
 20
30.2241450596
 10
-10.7231556735
 20
30.224352348
 10
-10.7327217291
 20
30.2249804654
 10
-10.7421286843
 20
30.2260338405
 10
-10.7513492167
 20
30.227517202
 10
-10.7552390361
 20
30.2282854764
  0
LWPOLYLINE
  5
37B
100
AcDbEntity
  8
ON_OFF_CORPO
100
AcDbPolyline
 62
250
  6
CONTINUOUS
 90
18
 70
0
 10
6.4528432451
 20
33.7394758736
 10
6.4687879591
 20
33.7481301168
 10
6.4839005851
 20
33.7571499025
 10
6.4981476445
 20
33.7665152495
 10
6.5114975764
 20
33.776205411
 10
6.5239208069
 20
33.7861989206
 10
6.5353898153
 20
33.7964736401
 10
6.5458791947
 20
33.8070068081
 10
6.5553657081
 20
33.8177750907
 10
6.5638283405
 20
33.8287546335
 10
6.5712483449
 20
33.8399211136
 10
6.5776092838
 20
33.8512497943
 10
6.5828970662
 20
33.8627155795
 10
6.5870999782
 20
33.8742930694
 10
6.5902087092
 20
33.8859566167
 10
6.5922163725
 20
33.8976803835
 10
6.5931185207
 20
33.9094383985
 10
6.5931733449
 20
33.9131355374
  0
LINE
  5
37C
100
AcDbEntity
  8
ON_OFF_CORPO
100
AcDbLine
 62
250
  6
CONTINUOUS
 10
6.4528432451
 20
33.7394758736
 11
-8.4906494162
 21
26.1369323295
  0
LINE
  5
37D
100
AcDbEntity
  8
ON_OFF_PORTATASTO
100
AcDbLine
 62
250
  6
CONTINUOUS
 10
-15.2435191765
 20
35.9453386948
 11
-15.2435191765
 21
36.6082227516
  0
LWPOLYLINE
  5
37E
100
AcDbEntity
  8
ON_OFF_TASTOTARGHETTA
100
AcDbPolyline
 62
7
  6
CONTINUOUS
 90
6
 70
0
 10
-17.576828749
 20
4.0135488558
 10
-17.7859271848
 20
0.9873747364
 10
-17.9675352813
 20
-2.0278673037
 10
-18.1216262193
 20
-5.0317881171
 10
-18.2482268179
 20
-8.0247768512
 10
-18.3473370773
 20
-11.006833506
  0
LWPOLYLINE
  5
37F
100
AcDbEntity
  8
ON_OFF_TASTOTARGHETTA
100
AcDbPolyline
 62
7
  6
CONTINUOUS
 90
4
 70
0
 10
-18.6958437935
 20
4.0828726356
 10
-18.9054845559
 20
1.0488787573
 10
-19.0875842347
 20
-1.9745447412
 10
-19.2421194531
 20
-4.9870108221
  0
LWPOLYLINE
  5
380
100
AcDbEntity
  8
ON_OFF_TASTOTARGHETTA
100
AcDbPolyline
 62
7
  6
CONTINUOUS
 90
3
 70
0
 10
-17.0763914134
 20
10.0951955733
 10
-17.3403204317
 20
7.0494876127
 10
-17.576828749
 20
4.0135488558
  0
LWPOLYLINE
  5
381
100
AcDbEntity
  8
ON_OFF_TASTOTARGHETTA
100
AcDbPolyline
 62
7
  6
CONTINUOUS
 90
4
 70
0
 10
-17.9019595999
 20
13.2443854538
 10
-18.1940491922
 20
10.1810163677
 10
-18.4586886013
 20
7.1270484499
 10
-18.6958437935
 20
4.0828726356
  0
LINE
  5
382
100
AcDbEntity
  8
ON_OFF_TASTOTARGHETTA
100
AcDbLine
 62
7
  6
CONTINUOUS
 10
-16.7850525137
 20
13.1506681715
 11
-17.0763914134
 21
10.0951955733
  0
LINE
  5
383
100
AcDbEntity
  8
ON_OFF_TASTOTARGHETTA
100
AcDbLine
 62
7
  6
CONTINUOUS
 10
-17.5824573922
 20
16.3167636869
 11
-17.9019595999
 21
13.2443854538
  0
LINE
  5
384
100
AcDbEntity
  8
ON_OFF_TASTOTARGHETTA
100
AcDbLine
 62
7
  6
CONTINUOUS
 10
-16.4664166484
 20
16.2147242662
 11
-16.7850525137
 21
13.1506681715
  0
LINE
  5
385
100
AcDbEntity
  8
ON_OFF_TASTOTARGHETTA
100
AcDbLine
 62
7
  6
CONTINUOUS
 10
-16.1205214562
 20
19.286970144
 11
-16.4664166484
 21
16.2147242662
  0
LWPOLYLINE
  5
386
100
AcDbEntity
  8
ON_OFF_TASTOTARGHETTA
100
AcDbPolyline
 62
7
  6
CONTINUOUS
 90
4
 70
0
 10
-16.4599000796
 20
25.5840134644
 10
-16.8613817595
 20
22.4869728494
 10
-17.2355834088
 20
19.3977577039
 10
-17.5824573922
 20
16.3167636869
  0
LWPOLYLINE
  5
387
100
AcDbEntity
  8
ON_OFF_TASTOTARGHETTA
100
AcDbPolyline
 62
7
  6
CONTINUOUS
 90
3
 70
0
 10
-15.3468401753
 20
25.4572123894
 10
-15.7473292985
 20
22.3677995184
 10
-16.1205214562
 20
19.286970144
  0
LWPOLYLINE
  5
388
100
AcDbEntity
  8
ON_OFF_PORTATASTO
100
AcDbPolyline
 62
250
  6
CONTINUOUS
 90
27
 70
0
 10
-11.1525903788
 20
30.5144390981
 10
-11.1574743959
 20
30.5024704399
 10
-11.1628249993
 20
30.4907772358
 10
-11.1686275777
 20
30.4793914175
 10
-11.1748662853
 20
30.4683440773
 10
-11.1815240857
 20
30.4576653832
 10
-11.1885827976
 20
30.4473844964
 10
-11.1960231454
 20
30.4375294919
 10
-11.2038248108
 20
30.4281272817
 10
-11.2119664893
 20
30.4192035411
 10
-11.2204259476
 20
30.4107826392
 10
-11.2291800846
 20
30.4028875716
 10
-11.2382049948
 20
30.395539898
 10
-11.2474760328
 20
30.3887596835
 10
-11.2569678815
 20
30.3825654434
 10
-11.2666546207
 20
30.3769740928
 10
-11.2765097978
 20
30.3720009006
 10
-11.2865065004
 20
30.3676594475
 10
-11.2966174297
 20
30.3639615891
 10
-11.3068149748
 20
30.3609174235
 10
-11.3170712883
 20
30.3585352636
 10
-11.3273583624
 20
30.3568216148
 10
-11.3376481052
 20
30.3557811564
 10
-11.3479124177
 20
30.35541673
 10
-11.3581232701
 20
30.3557293305
 10
-11.3682527787
 20
30.3567181044
 10
-11.378273282
 20
30.3583803515
  0
LWPOLYLINE
  5
389
100
AcDbEntity
  8
ON_OFF_CORPO
100
AcDbPolyline
 62
250
  6
CONTINUOUS
 90
16
 70
0
 10
6.4039552268
 20
31.4198232801
 10
6.4094831213
 20
31.423118962
 10
6.4152989374
 20
31.4273339449
 10
6.4207551274
 20
31.4321188484
 10
6.4258332364
 20
31.4374574881
 10
6.4305160884
 20
31.4433318068
 10
6.4347878443
 20
31.4497219354
 10
6.4386340553
 20
31.45660626
 10
6.4420417121
 20
31.4639614953
 10
6.4449992888
 20
31.4717627632
 10
6.4474967817
 20
31.4799836769
 10
6.4495257435
 20
31.4885964302
 10
6.4510793114
 20
31.4975718915
 10
6.4521522306
 20
31.5068797026
 10
6.4527408722
 20
31.5164883809
 10
6.4528432451
 20
31.5263654264
  0
LWPOLYLINE
  5
38A
100
AcDbEntity
  8
ON_OFF_CORPO
100
AcDbPolyline
 62
250
  6
CONTINUOUS
 90
16
 70
0
 10
0.3473663204
 20
28.1521546145
 10
0.3529093253
 20
28.1554584432
 10
0.3587251443
 20
28.1596734188
 10
0.3641813382
 20
28.1644583156
 10
0.3692594521
 20
28.1697969495
 10
0.3739423097
 20
28.1756712636
 10
0.3782140718
 20
28.182061389
 10
0.3820602894
 20
28.1889457123
 10
0.3854679529
 20
28.1963009482
 10
0.3884255363
 20
28.2041022188
 10
0.3909230357
 20
28.2123231376
 10
0.3929520032
 20
28.2209358985
 10
0.394505576
 20
28.22991137
 10
0.3955784989
 20
28.239219194
 10
0.3961671428
 20
28.2488278879
 10
0.3962695164
 20
28.2587049517
  0
LWPOLYLINE
  5
38B
100
AcDbEntity
  8
ON_OFF_CORPO
100
AcDbPolyline
 62
250
  6
CONTINUOUS
 90
40
 70
0
 10
0.3962695164
 20
28.2587049517
 10
0.3772204745
 20
28.2479779493
 10
0.3581944627
 20
28.236312946
 10
0.3391914808
 20
28.2237099417
 10
0.320168109
 20
28.2101450302
 10
0.3011677671
 20
28.1956421176
 10
0.2823207153
 20
28.1802729231
 10
0.2636298691
 20
28.1640282057
 10
0.245092313
 20
28.1469172063
 10
0.2268295596
 20
28.1290393672
 10
0.2088456498
 20
28.110387406
 10
0.1911365429
 20
28.090968605
 10
0.1738116287
 20
28.0709042536
 10
0.1568816172
 20
28.0501985207
 10
0.1403357984
 20
28.0288472373
 10
0.1242514332
 20
28.0069591858
 10
0.1086341956
 20
27.9845378911
 10
0.0934784117
 20
27.9615798283
 10
0.0788443204
 20
27.938183205
 10
0.0647332496
 20
27.9143471906
 10
0.0511438715
 20
27.8900726158
 10
0.038132442
 20
27.8654601796
 10
0.0257002565
 20
27.8405090463
 10
0.0138460196
 20
27.8152200517
 10
0.0026221007
 20
27.7896964028
 10
-0.0079718855
 20
27.7639309216
 10
-0.0179355537
 20
27.7379307861
 10
-0.0272153789
 20
27.7118207373
 10
-0.0358101331
 20
27.685588137
 10
-0.0437210443
 20
27.6592456232
 10
-0.0508982715
 20
27.6329558512
 10
-0.0573343157
 20
27.606717652
 10
-0.0630366758
 20
27.5805321946
 10
-0.0679780078
 20
27.5545656398
 10
-0.072149642
 20
27.5288188834
 10
-0.0755602481
 20
27.5032910298
 10
-0.0782084904
 20
27.4781455532
 10
-0.0800939237
 20
27.4534369451
 10
-0.0812169933
 20
27.4291107142
 10
-0.0815776992
 20
27.4051668603
  0
LWPOLYLINE
  5
38C
100
AcDbEntity
  8
ON_OFF_CORPO
100
AcDbPolyline
 62
7
  6
CONTINUOUS
 90
24
 70
0
 10
6.4039550995
 20
31.4198235161
 10
6.4105784954
 20
31.4234643386
 10
6.4280747528
 20
31.4337622491
 10
6.4445750903
 20
31.4444776258
 10
6.4600825639
 20
31.4555692064
 10
6.4746374822
 20
31.4670209365
 10
6.4882980808
 20
31.4788412661
 10
6.501074715
 20
31.4910062925
 10
6.5129782742
 20
31.5034915829
 10
6.5240449589
 20
31.5163049172
 10
6.5342755829
 20
31.5294213796
 10
6.5436711091
 20
31.5428128705
 10
6.5522501517
 20
31.5564782659
 10
6.5600093944
 20
31.5703876527
 10
6.5669453445
 20
31.5845072611
 10
6.5730661793
 20
31.5988242339
 10
6.5783695355
 20
31.6133026846
 10
6.5828545394
 20
31.6279041985
 10
6.5865266816
 20
31.642607348
 10
6.5893873851
 20
31.6573711489
 10
6.5914422431
 20
31.67215694
 10
6.5927004118
 20
31.6869447454
 10
6.5931694392
 20
31.70170154
 10
6.593173345
 20
33.9131404663
  0
LINE
  5
38D
100
AcDbEntity
  8
ON_OFF_CORPO
100
AcDbLine
 62
250
  6
CONTINUOUS
 10
6.4528432451
 20
31.5263654264
 11
0.3962695164
 21
28.2587049517
  0
LINE
  5
38E
100
AcDbEntity
  8
ON_OFF_CORPO
100
AcDbLine
 62
7
  6
CONTINUOUS
 10
6.4039400492
 20
31.4198150892
 11
0.3447140301
 21
28.1507094918
  0
LWPOLYLINE
  5
38F
100
AcDbEntity
  8
ON_OFF_CORPO
100
AcDbPolyline
 62
250
  6
CONTINUOUS
 90
18
 70
0
 10
0.0429301513
 20
11.5863582579
 10
0.0508624037
 20
11.5826437697
 10
0.0619418145
 20
11.5782177579
 10
0.0733513933
 20
11.5745169811
 10
0.0850708616
 20
11.5715507337
 10
0.0970821861
 20
11.5693255534
 10
0.1093718451
 20
11.5678466845
 10
0.1219150513
 20
11.5671197945
 10
0.1346749816
 20
11.5671469139
 10
0.1476311358
 20
11.5679270935
 10
0.160761029
 20
11.5694580732
 10
0.1740225929
 20
11.5717312637
 10
0.1873928519
 20
11.5747383501
 10
0.2008494426
 20
11.5784699927
 10
0.2143499375
 20
11.5829072906
 10
0.2278649715
 20
11.5880321914
 10
0.241378848
 20
11.5938313779
 10
0.2548696993
 20
11.6002882373
  0
LINE
  5
390
100
AcDbEntity
  8
ON_OFF_CORPO
100
AcDbLine
 62
7
  6
CONTINUOUS
 10
0.0427468322
 20
11.5864497859
 11
0.0429301513
 21
11.5863582579
  0
LINE
  5
391
100
AcDbEntity
  8
ON_OFF_CORPO
100
AcDbLine
 62
250
  6
CONTINUOUS
 10
-0.0234295335
 20
11.7394378537
 11
0.2548696993
 21
11.6002882373
  0
LWPOLYLINE
  5
392
100
AcDbEntity
  8
ON_OFF_CORPO
100
AcDbPolyline
 62
250
  6
CONTINUOUS
 90
28
 70
0
 10
0.2548696993
 20
11.6002882373
 10
0.2632290396
 20
11.5959518875
 10
0.2715517573
 20
11.5910402761
 10
0.279809702
 20
11.5855700158
 10
0.2879749421
 20
11.5795596093
 10
0.2960198597
 20
11.5730293858
 10
0.3039172441
 20
11.5660014331
 10
0.3116403832
 20
11.5584995222
 10
0.3191631547
 20
11.5505490275
 10
0.3264601135
 20
11.5421768405
 10
0.3335065788
 20
11.5334112789
 10
0.3402787168
 20
11.5242819913
 10
0.3467536215
 20
11.5148198562
 10
0.3529093925
 20
11.5050568782
 10
0.3587252087
 20
11.4950260791
 10
0.3641813987
 20
11.484761387
 10
0.3692595077
 20
11.4742975208
 10
0.3739423597
 20
11.4636698732
 10
0.3782141155
 20
11.4529143909
 10
0.3820603265
 20
11.4420674529
 10
0.3854679834
 20
11.4311657475
 10
0.3884255601
 20
11.4202461485
 10
0.390923053
 20
11.4093455899
 10
0.3929520148
 20
11.3985009414
 10
0.3945055827
 20
11.3877488838
 10
0.3955785019
 20
11.3771257845
 10
0.3961671435
 20
11.3666675747
 10
0.3962695164
 20
11.356409628
  0
LWPOLYLINE
  5
393
100
AcDbEntity
  8
ON_OFF_CORPO
100
AcDbPolyline
 62
7
  6
CONTINUOUS
 90
23
 70
0
 10
0.0429280719
 20
11.5863596136
 10
0.0400957149
 20
11.5878694371
 10
0.036341148
 20
11.5902198859
 10
0.0326344417
 20
11.5929565477
 10
0.0289070661
 20
11.5961487492
 10
0.0250374039
 20
11.5999542794
 10
0.0210269486
 20
11.6044546098
 10
0.0169417463
 20
11.6096610586
 10
0.0127961249
 20
11.6156440157
 10
0.0086322755
 20
11.6224402693
 10
0.0045144698
 20
11.6300441392
 10
0.0004935911
 20
11.6384596709
 10
-0.0033819109
 20
11.6476829866
 10
-0.0070634348
 20
11.6576978611
 10
-0.0105087777
 20
11.668492676
 10
-0.0136777658
 20
11.680046861
 10
-0.0165334595
 20
11.6923357499
 10
-0.0190453675
 20
11.7053520978
 10
-0.0211813942
 20
11.719069578
 10
-0.0229128738
 20
11.7334613792
 10
-0.0242157853
 20
11.7485328433
 10
-0.0250637104
 20
11.7642697181
 10
-0.0254312243
 20
11.7806260283
  0
LWPOLYLINE
  5
394
100
AcDbEntity
  8
ON_OFF_PORTATASTO
100
AcDbPolyline
 62
7
  6
CONTINUOUS
 90
20
 70
0
 10
-19.5713150396
 20
42.0680357096
 10
-19.5743983927
 20
42.0847260875
 10
-19.5807048526
 20
42.1128831677
 10
-19.587964234
 20
42.1402806966
 10
-19.5961305814
 20
42.1667860451
 10
-19.6051907639
 20
42.1923617725
 10
-19.6151579125
 20
42.2170453195
 10
-19.6260254649
 20
42.24081638
 10
-19.6378113571
 20
42.2637116966
 10
-19.650497653
 20
42.2856945266
 10
-19.6640239825
 20
42.3066343352
 10
-19.6784033811
 20
42.3265251127
 10
-19.6936228132
 20
42.3453728688
 10
-19.7095828022
 20
42.363065098
 10
-19.7262665877
 20
42.3795742913
 10
-19.7436909302
 20
42.3949279576
 10
-19.7618066339
 20
42.4090961185
 10
-19.7806119071
 20
42.4220815599
 10
-19.8001085415
 20
42.4338814959
 10
-19.8167630664
 20
42.4427369841
  0
LINE
  5
395
100
AcDbEntity
  8
ON_OFF_PORTATASTO
100
AcDbLine
 62
7
  6
CONTINUOUS
 10
-11.9440064208
 20
9.1653579779
 11
-10.1997324472
 21
-7.0926346707
  0
LINE
  5
396
100
AcDbEntity
  8
ON_OFF_PORTATASTO
100
AcDbLine
 62
7
  6
CONTINUOUS
 10
-12.8200045071
 20
1.9327699193
 11
-12.1611209099
 21
-4.2588268983
  0
LWPOLYLINE
  5
397
100
AcDbEntity
  8
ON_OFF_PORTATASTO
100
AcDbPolyline
 62
7
  6
CONTINUOUS
 90
6
 70
0
 10
-14.0772872654
 20
38.914573437
 10
-14.0775444257
 20
38.9172818236
 10
-14.0785854044
 20
38.9202454594
 10
-14.0803846712
 20
38.9227018054
 10
-14.0828994609
 20
38.9246655548
 10
-14.0840621208
 20
38.9253045295
  0
LWPOLYLINE
  5
398
100
AcDbEntity
  8
ON_OFF_PORTATASTO
100
AcDbPolyline
 62
7
  6
CONTINUOUS
 90
8
 70
0
 10
-12.2003297976
 20
-9.090290704
 10
-12.200252365
 20
-9.0911984895
 10
-12.1998003512
 20
-9.0928088372
 10
-12.1989425747
 20
-9.094574326
 10
-12.1976624443
 20
-9.0964813422
 10
-12.1959607819
 20
-9.098535714
 10
-12.1938392012
 20
-9.1007429765
 10
-12.1912827406
 20
-9.1030889953
  0
LWPOLYLINE
  5
399
100
AcDbEntity
  8
ON_OFF_PORTATASTO
100
AcDbPolyline
 62
250
  6
CONTINUOUS
 90
18
 70
0
 10
-12.8300970182
 20
-10.4621339117
 10
-12.8298576017
 20
-10.473278475
 10
-12.8291394457
 20
-10.4841596607
 10
-12.827943667
 20
-10.4947474658
 10
-12.8262723169
 20
-10.505014548
 10
-12.8241293046
 20
-10.5149303173
 10
-12.8215212955
 20
-10.5244617336
 10
-12.818456055
 20
-10.5335810494
 10
-12.8149414444
 20
-10.5422654153
 10
-12.8109869145
 20
-10.5504914171
 10
-12.8066031039
 20
-10.5582367742
 10
-12.801801981
 20
-10.565480205
 10
-12.7965967432
 20
-10.5722017582
 10
-12.7910016366
 20
-10.5783830684
 10
-12.7850318281
 20
-10.5840074076
 10
-12.7787035132
 20
-10.5890595146
 10
-12.7720338839
 20
-10.593525646
 10
-12.7651237218
 20
-10.5973523618
  0
LWPOLYLINE
  5
39A
100
AcDbEntity
  8
ON_OFF_PORTATASTO
100
AcDbPolyline
 62
250
  6
CONTINUOUS
 90
19
 70
0
 10
-12.8300970182
 20
31.1774441618
 10
-12.8298771636
 20
31.1667595053
 10
-12.8292181463
 20
31.1563212789
 10
-12.8281216055
 20
31.1461554464
 10
-12.8265902746
 20
31.1362873279
 10
-12.8246279594
 20
31.1267414332
 10
-12.8222395135
 20
31.1175414128
 10
-12.8194308434
 20
31.1087101009
 10
-12.8162089379
 20
31.1002695438
 10
-12.8125818403
 20
31.0922408355
 10
-12.8085585607
 20
31.0846439246
 10
-12.8041491182
 20
31.0774977338
 10
-12.7993645816
 20
31.0708201684
 10
-12.7942169482
 20
31.0646278911
 10
-12.7887189802
 20
31.0589361787
 10
-12.7828842465
 20
31.0537590525
 10
-12.7767260301
 20
31.0491085375
 10
-12.7702607559
 20
31.0449972638
 10
-12.7651237218
 20
31.0422257117
  0
LINE
  5
39B
100
AcDbEntity
  8
ON_OFF_PORTATASTO
100
AcDbLine
 62
250
  6
CONTINUOUS
 10
-15.0334500389
 20
32.0435613508
 11
-15.0334500389
 21
33.1241446616
  0
LINE
  5
39C
100
AcDbEntity
  8
ON_OFF_CORPO
100
AcDbLine
 62
7
  6
CONTINUOUS
 10
-14.925321125
 20
42.7954679088
 11
-14.925321125
 21
42.7475536167
  0
LINE
  5
39D
100
AcDbEntity
  8
ON_OFF_PORTATASTO
100
AcDbLine
 62
7
  6
CONTINUOUS
 10
-14.5364123953
 20
36.9617761422
 11
-14.5364123953
 21
37.5218920207
  0
LINE
  5
39E
100
AcDbEntity
  8
ON_OFF_PORTATASTO
100
AcDbLine
 62
250
  6
CONTINUOUS
 10
-14.3284061196
 20
32.0650971141
 11
-14.3284061196
 21
33.2978240864
  0
LINE
  5
39F
100
AcDbEntity
  8
ON_OFF_PORTATASTO
100
AcDbLine
 62
250
  6
CONTINUOUS
 10
-14.2026367727
 20
37.6852123759
 11
-14.2026367727
 21
38.9050052837
  0
LINE
  5
3A0
100
AcDbEntity
  8
ON_OFF_PORTATASTO
100
AcDbLine
 62
7
  6
CONTINUOUS
 10
-14.1828590047
 20
36.7849994469
 11
-14.1828590047
 21
37.3451153254
  0
LINE
  5
3A1
100
AcDbEntity
  8
ON_OFF_PORTATASTO
100
AcDbLine
 62
7
  6
CONTINUOUS
 10
-14.0772872654
 20
37.8342355046
 11
-14.0772872654
 21
38.9145734237
  0
LINE
  5
3A2
100
AcDbEntity
  8
ON_OFF_PORTATASTO
100
AcDbLine
 62
7
  6
CONTINUOUS
 10
-13.9707269704
 20
33.4771286312
 11
-13.9707269704
 21
32.2646930659
  0
LINE
  5
3A3
100
AcDbEntity
  8
ON_OFF_PORTATASTO
100
AcDbLine
 62
250
  6
CONTINUOUS
 10
-13.8293056141
 20
36.0845363615
 11
-13.8293056141
 21
36.6082227516
  0
LINE
  5
3A4
100
AcDbEntity
  8
ON_OFF_CORPO
100
AcDbLine
 62
7
  6
CONTINUOUS
 10
-13.5464629016
 20
40.3107193551
 11
-13.5464629016
 21
40.3006663996
  0
LINE
  5
3A5
100
AcDbEntity
  8
ON_OFF_PORTATASTO
100
AcDbLine
 62
7
  6
CONTINUOUS
 10
-12.9033203229
 20
31.6058064436
 11
-12.9033203229
 21
31.2658325095
  0
LINE
  5
3A6
100
AcDbEntity
  8
ON_OFF_PORTATASTO
100
AcDbLine
 62
7
  6
CONTINUOUS
 10
-12.9033203229
 20
-10.0337716299
 11
-12.9033203229
 21
-10.373745564
  0
LINE
  5
3A7
100
AcDbEntity
  8
ON_OFF_PORTATASTO
100
AcDbLine
 62
250
  6
CONTINUOUS
 10
-12.8300970182
 20
31.517418096
 11
-12.8300970182
 21
31.1774441618
  0
LINE
  5
3A8
100
AcDbEntity
  8
ON_OFF_PORTATASTO
100
AcDbLine
 62
250
  6
CONTINUOUS
 10
-12.8300970182
 20
-10.1221599775
 11
-12.8300970182
 21
-10.4621339117
  0
LINE
  5
3A9
100
AcDbEntity
  8
ON_OFF_CORPO
100
AcDbLine
 62
7
  6
CONTINUOUS
 10
-12.7700057663
 20
40.6955878741
 11
-12.7700057663
 21
40.669231141
  0
LWPOLYLINE
  5
3AA
100
AcDbEntity
  8
ON_OFF_PORTATASTO
100
AcDbPolyline
 62
250
  6
CONTINUOUS
 90
22
 70
0
 10
-12.8300970182
 20
-10.1221599775
 10
-12.8298781471
 20
-10.1112801141
 10
-12.8292215913
 20
-10.1002021419
 10
-12.8281282537
 20
-10.0889532269
 10
-12.8265998038
 20
-10.0775589229
 10
-12.8246394853
 20
-10.0660494077
 10
-12.8222529022
 20
-10.0544595885
 10
-12.8194465694
 20
-10.0428205291
 10
-12.8162270523
 20
-10.0311589713
 10
-12.8126022832
 20
-10.0195036875
 10
-12.8085812001
 20
-10.0078835191
 10
-12.8041738269
 20
-9.9963275242
 10
-12.7993911991
 20
-9.9848646688
 10
-12.7942452262
 20
-9.9735234948
 10
-12.7887486973
 20
-9.9623321856
 10
-12.782915354
 20
-9.951318706
 10
-12.7767597652
 20
-9.9405105259
 10
-12.7702972099
 20
-9.9299344381
 10
-12.7635436964
 20
-9.919616628
 10
-12.7565159965
 20
-9.9095827225
 10
-12.749231615
 20
-9.899857718
 10
-12.7417086706
 20
-9.8904658037
  0
LWPOLYLINE
  5
3AB
100
AcDbEntity
  8
ON_OFF_PORTATASTO
100
AcDbPolyline
 62
250
  6
CONTINUOUS
 90
31
 70
0
 10
-12.8300970182
 20
31.517418096
 10
-12.8298576017
 20
31.5288020758
 10
-12.8291394457
 20
31.5404014175
 10
-12.827943667
 20
31.5521850014
 10
-12.8262723169
 20
31.5641234336
 10
-12.8241293046
 20
31.5761822152
 10
-12.8215212955
 20
31.5883216406
 10
-12.818456055
 20
31.600506197
 10
-12.8149414444
 20
31.6127051735
 10
-12.8109869145
 20
31.6248857051
 10
-12.8066031039
 20
31.6370148728
 10
-12.801801981
 20
31.6490594266
 10
-12.7965967432
 20
31.6609862176
 10
-12.7910016366
 20
31.6727626343
 10
-12.7850318281
 20
31.684356782
 10
-12.7787035132
 20
31.6957372039
 10
-12.7720338839
 20
31.7068729646
 10
-12.7650411112
 20
31.7177337076
 10
-12.7577442442
 20
31.7282898378
 10
-12.7501631464
 20
31.7385126148
 10
-12.742318445
 20
31.7483742193
 10
-12.7342314967
 20
31.7578477994
 10
-12.7259243117
 20
31.7669075678
 10
-12.7174194993
 20
31.7755288639
 10
-12.7087402137
 20
31.7836882139
 10
-12.6999100718
 20
31.7913634137
 10
-12.6909531133
 20
31.7985335655
 10
-12.6818937431
 20
31.8051791342
 10
-12.6727566283
 20
31.8112820294
 10
-12.6635666302
 20
31.81682565
 10
-12.6543487623
 20
31.8217949109
  0
LWPOLYLINE
  5
3AC
100
AcDbEntity
  8
ON_OFF_TASTOTARGHETTA
100
AcDbPolyline
 62
7
  6
CONTINUOUS
 90
16
 70
0
 10
-14.8076119224
 20
26.2181471342
 10
-14.8055205103
 20
26.2944302497
 10
-14.8095387837
 20
26.3730151295
 10
-14.819622764
 20
26.4530411378
 10
-14.8356620423
 20
26.5336318519
 10
-14.8574809859
 20
26.6139046525
 10
-14.8848406599
 20
26.6929803895
 10
-14.9174414488
 20
26.7699930288
 10
-14.9549263313
 20
26.8440991168
 10
-14.9968847837
 20
26.914487014
 10
-15.0428572939
 20
26.9803858191
 10
-15.0923403817
 20
27.0410737851
 10
-15.1447920975
 20
27.0958862146
 10
-15.1996379863
 20
27.144222776
 10
-15.2562773817
 20
27.1855540721
 10
-15.3140899664
 20
27.2194274192
  0
LWPOLYLINE
  5
3AD
100
AcDbEntity
  8
ON_OFF_TASTOTARGHETTA
100
AcDbPolyline
 62
7
  6
CONTINUOUS
 90
11
 70
0
 10
-17.9045510844
 20
-11.4179296312
 10
-17.9148169919
 20
-11.4918200871
 10
-17.9310573588
 20
-11.561764162
 10
-17.9530943214
 20
-11.6269958309
 10
-17.9806865316
 20
-11.6868006788
 10
-18.0135318005
 20
-11.7405237252
 10
-18.0512704079
 20
-11.7875765971
 10
-18.0934890418
 20
-11.8274439732
 10
-18.1397253253
 20
-11.8596892274
 10
-18.1894728803
 20
-11.8839592108
 10
-18.2062536139
 20
-11.8900650591
  0
LWPOLYLINE
  5
3AE
100
AcDbEntity
  8
ON_OFF_CONTATTI
100
AcDbPolyline
 62
250
  6
CONTINUOUS
 90
12
 70
0
 10
-4.1141913016
 20
34.626958784
 10
-4.0859914752
 20
34.681045843
 10
-4.0459798199
 20
34.7441800608
 10
-3.9994820463
 20
34.8061857367
 10
-3.9466193952
 20
34.8669028347
 10
-3.8875405247
 20
34.9261620519
 10
-3.8224477453
 20
34.9837699851
 10
-3.7515719135
 20
35.0395434528
 10
-3.6750787757
 20
35.0933713883
 10
-3.5930873719
 20
35.145172572
 10
-3.505838775
 20
35.1947902113
 10
-3.4853416135
 20
35.2057265795
  0
LWPOLYLINE
  5
3AF
100
AcDbEntity
  8
ON_OFF_CORPO
100
AcDbPolyline
 62
7
  6
CONTINUOUS
 90
57
 70
0
 10
6.529543332
 20
28.7142941831
 10
6.5752569167
 20
28.7452484441
 10
6.6200490196
 20
28.7784152726
 10
6.6638511472
 20
28.8137995427
 10
6.7066246575
 20
28.8514301004
 10
6.7482707071
 20
28.8912815193
 10
6.7886417945
 20
28.9332620711
 10
6.8276595217
 20
28.9773271101
 10
6.8652961617
 20
29.0234832714
 10
6.9014949048
 20
29.0717027022
 10
6.9362016452
 20
29.1219548861
 10
6.9693764344
 20
29.1742255917
 10
7.0009868423
 20
29.2285136586
 10
7.0310343483
 20
29.2848891017
 10
7.0594222905
 20
29.3432427867
 10
7.0859957175
 20
29.4032855728
 10
7.1107092843
 20
29.4648996578
 10
7.1335786166
 20
29.528109123
 10
7.1545710583
 20
29.5928125324
 10
7.1736512677
 20
29.6588660747
 10
7.1908418406
 20
29.726312306
 10
7.2061835297
 20
29.7953381207
 10
7.2196826959
 20
29.8660959079
 10
7.2312694495
 20
29.9383647927
 10
7.2408782696
 20
30.0117647053
 10
7.2485036778
 20
30.086155589
 10
7.2541598674
 20
30.1615602404
 10
7.2578464292
 20
30.2378193232
 10
7.259574358
 20
30.3148109426
 10
7.2593594696
 20
30.3925307046
 10
7.2572117537
 20
30.4709906178
 10
7.2531362117
 20
30.5501801302
 10
7.2471426388
 20
30.6299874842
 10
7.2392497575
 20
30.7102696471
 10
7.2294745271
 20
30.7909580197
 10
7.2178339214
 20
30.8719913818
 10
7.2043589058
 20
30.953232199
 10
7.1890819948
 20
31.0345712501
 10
7.1720213139
 20
31.115985428
 10
7.1531891437
 20
31.1974640155
 10
7.1326078025
 20
31.2789436921
 10
7.1103014602
 20
31.3603572769
 10
7.0862802175
 20
31.441687165
 10
7.0605556386
 20
31.5229017607
 10
7.0331609397
 20
31.6039019024
 10
7.0041408146
 20
31.6845679502
 10
6.9735333682
 20
31.7648116524
 10
6.9413599252
 20
31.844592731
 10
6.9076439374
 20
31.9238636063
 10
6.8724157476
 20
32.0025607889
 10
6.8357066279
 20
32.0806210254
 10
6.7975409907
 20
32.1579967746
 10
6.7579507283
 20
32.2346256757
 10
6.7169687537
 20
32.3104454488
 10
6.6746205678
 20
32.3854085893
 10
6.630939771
 20
32.4594536392
 10
6.593173345
 20
32.5208031894
  0
LINE
  5
3B0
100
AcDbEntity
  8
ON_OFF_CORPO
100
AcDbLine
 62
7
  6
CONTINUOUS
 10
6.5295433324
 20
28.7142941834
 11
6.1182762155
 21
28.4482900844
  0
LWPOLYLINE
  5
3B1
100
AcDbEntity
  8
ON_OFF_TASTOTARGHETTA
100
AcDbPolyline
 62
7
  6
CONTINUOUS
 90
16
 70
0
 10
-15.3468401753
 20
25.4572123894
 10
-15.4084351123
 20
25.4427571578
 10
-15.4753251812
 20
25.4315260302
 10
-15.5467936643
 20
25.4236393463
 10
-15.6220747867
 20
25.4191816111
 10
-15.7003619217
 20
25.4182005884
 10
-15.7808162336
 20
25.4207067898
 10
-15.8625756657
 20
25.4266733617
 10
-15.9447641772
 20
25.4360363731
 10
-16.0265011295
 20
25.4486955008
 10
-16.1069107226
 20
25.4645151037
 10
-16.1851313791
 20
25.4833256772
 10
-16.2603249754
 20
25.5049256688
 10
-16.3316858226
 20
25.5290836375
 10
-16.3984492994
 20
25.5555407341
 10
-16.4599000442
 20
25.5840134745
  0
LWPOLYLINE
  5
3B2
100
AcDbEntity
  8
ON_OFF_PORTATASTO
100
AcDbPolyline
 62
250
  6
CONTINUOUS
 90
15
 70
0
 10
-24.9329449929
 20
39.5279936274
 10
-24.92860184
 20
39.5206485259
 10
-24.9247540259
 20
39.5135609652
 10
-24.9214124571
 20
39.5067504921
 10
-24.918586437
 20
39.5002353384
 10
-24.9162844427
 20
39.4940341844
 10
-24.9145136144
 20
39.4881658095
 10
-24.9132788856
 20
39.4826467792
 10
-24.9125834236
 20
39.4774915588
 10
-24.9124291304
 20
39.472714111
 10
-24.9128164792
 20
39.4683274419
 10
-24.9137444601
 20
39.4643436461
 10
-24.9152105353
 20
39.4607737202
 10
-24.9172106796
 20
39.4576274421
 10
-24.9175844205
 20
39.4571584608
  0
LWPOLYLINE
  5
3B3
100
AcDbEntity
  8
ON_OFF_PORTATASTO
100
AcDbPolyline
 62
250
  6
CONTINUOUS
 90
31
 70
0
 10
-11.1525903788
 20
30.8544130322
 10
-11.1528853557
 20
30.8658387399
 10
-11.1536612089
 20
30.877476793
 10
-11.154915812
 20
30.8892952939
 10
-11.1566457263
 20
30.9012618501
 10
-11.1588462104
 20
30.9133436637
 10
-11.1615112333
 20
30.9255076207
 10
-11.1646334906
 20
30.9377203819
 10
-11.1682044248
 20
30.9499484744
 10
-11.1722142486
 20
30.9621583834
 10
-11.1766519719
 20
30.9743166437
 10
-11.1815054317
 20
30.9863899319
 10
-11.1867613255
 20
30.9983451573
 10
-11.192405248
 20
31.010149553
 10
-11.1984217302
 20
31.0217707652
 10
-11.204794282
 20
31.0331769424
 10
-11.2115054376
 20
31.0443368224
 10
-11.2185368028
 20
31.0552198181
 10
-11.225869106
 20
31.0657961012
 10
-11.2334822508
 20
31.0760366842
 10
-11.241355371
 20
31.0859134994
 10
-11.2494668878
 20
31.0953994765
 10
-11.257794569
 20
31.1044686161
 10
-11.2663155901
 20
31.1130960614
 10
-11.2750065965
 20
31.1212581662
 10
-11.2838437678
 20
31.1289325597
 10
-11.292802883
 20
31.1360982079
 10
-11.3018593868
 20
31.142735471
 10
-11.3109884571
 20
31.1488261575
 10
-11.3201650728
 20
31.1543535741
 10
-11.3293640824
 20
31.159302571
  0
LWPOLYLINE
  5
3B4
100
AcDbEntity
  8
ON_OFF_PORTATASTO
100
AcDbPolyline
 62
250
  6
CONTINUOUS
 90
18
 70
0
 10
-11.5051123384
 20
-11.1246262516
 10
-11.5048729219
 20
-11.1357708149
 10
-11.5041547659
 20
-11.1466520006
 10
-11.5029589871
 20
-11.1572398057
 10
-11.5012876371
 20
-11.1675068879
 10
-11.4991446248
 20
-11.1774226572
 10
-11.4965366157
 20
-11.1869540735
 10
-11.4934713752
 20
-11.1960733893
 10
-11.4899567646
 20
-11.2047577552
 10
-11.4860022346
 20
-11.212983757
 10
-11.4816184241
 20
-11.2207291141
 10
-11.4768173011
 20
-11.2279725449
 10
-11.4716120634
 20
-11.2346940981
 10
-11.4660169568
 20
-11.2408754083
 10
-11.4600471483
 20
-11.2464997475
 10
-11.4537188334
 20
-11.2515518545
 10
-11.4470492041
 20
-11.2560179859
 10
-11.440139042
 20
-11.2598447017
  0
LWPOLYLINE
  5
3B5
100
AcDbEntity
  8
ON_OFF_PORTATASTO
100
AcDbPolyline
 62
7
  6
CONTINUOUS
 90
31
 70
0
 10
-9.5513095879
 20
31.6571350357
 10
-9.5515516299
 20
31.6685871512
 10
-9.5522777773
 20
31.6802500064
 10
-9.5534859063
 20
31.6920917055
 10
-9.555172472
 20
31.7040799136
 10
-9.5573328449
 20
31.7161817783
 10
-9.559961324
 20
31.7283640187
 10
-9.5630506368
 20
31.7405932823
 10
-9.5665921986
 20
31.7528361103
 10
-9.5705764627
 20
31.7650588622
 10
-9.574992472
 20
31.7772280571
 10
-9.5798280335
 20
31.7893103863
 10
-9.5850699896
 20
31.801272678
 10
-9.590703968
 20
31.8130821486
 10
-9.5967144676
 20
31.8247064595
 10
-9.6030850441
 20
31.8361137264
 10
-9.6097982639
 20
31.84727267
 10
-9.6168356997
 20
31.858152719
 10
-9.6241780257
 20
31.8687240628
 10
-9.6318051767
 20
31.8789576975
 10
-9.6396962534
 20
31.8888255722
 10
-9.647829525
 20
31.8983006851
 10
-9.6561827893
 20
31.9073570222
 10
-9.6647331897
 20
31.9159697439
 10
-9.673457127
 20
31.9241153228
 10
-9.6823308088
 20
31.9317713754
 10
-9.6913299846
 20
31.9389168852
 10
-9.7004297686
 20
31.9455323782
 10
-9.7096052282
 20
31.9515997205
 10
-9.7188314529
 20
31.957102168
 10
-9.7280832916
 20
31.9620245745
  0
LWPOLYLINE
  5
3B6
100
AcDbEntity
  8
ON_OFF_PORTATASTO
100
AcDbPolyline
 62
250
  6
CONTINUOUS
 90
19
 70
0
 10
-11.5051123384
 20
30.5149518219
 10
-11.5048924837
 20
30.5042671654
 10
-11.5042334665
 20
30.493828939
 10
-11.5031369257
 20
30.4836631065
 10
-11.5016055948
 20
30.4737949879
 10
-11.4996432795
 20
30.4642490933
 10
-11.4972548337
 20
30.4550490729
 10
-11.4944461636
 20
30.446217761
 10
-11.4912242581
 20
30.4377772039
 10
-11.4875971605
 20
30.4297484955
 10
-11.4835738809
 20
30.4221515847
 10
-11.4791644384
 20
30.4150053939
 10
-11.4743799018
 20
30.4083278285
 10
-11.4692322684
 20
30.4021355512
 10
-11.4637343004
 20
30.3964438388
 10
-11.4578995667
 20
30.3912667126
 10
-11.4517413502
 20
30.3866161975
 10
-11.445276076
 20
30.3825049239
 10
-11.4401499131
 20
30.3797388083
  0
LWPOLYLINE
  5
3B7
100
AcDbEntity
  8
ON_OFF_PORTATASTO
100
AcDbPolyline
 62
7
  6
CONTINUOUS
 90
25
 70
0
 10
-11.4251425581
 20
37.8359978694
 10
-11.4256238831
 20
37.867884237
 10
-11.4270812014
 20
37.899207006
 10
-11.4295145132
 20
37.9299661763
 10
-11.4329315091
 20
37.9602270656
 10
-11.4373244984
 20
37.9899243563
 10
-11.4426704091
 20
38.0188620957
 10
-11.448976869
 20
38.0470191759
 10
-11.4562362504
 20
38.0744167047
 10
-11.4644025978
 20
38.1009220533
 10
-11.4734627803
 20
38.1264977806
 10
-11.4834299289
 20
38.1511813277
 10
-11.4942974813
 20
38.1749523881
 10
-11.5060833734
 20
38.1978477048
 10
-11.5187696694
 20
38.2198305348
 10
-11.5322959989
 20
38.2407703434
 10
-11.5466753974
 20
38.2606611209
 10
-11.5618948295
 20
38.279508877
 10
-11.5778548185
 20
38.2972011062
 10
-11.5945386041
 20
38.3137102994
 10
-11.6119629465
 20
38.3290639657
 10
-11.6300786503
 20
38.3432321267
 10
-11.6488839234
 20
38.3562175681
 10
-11.6683805578
 20
38.3680175041
 10
-11.6850350828
 20
38.3768729922
  0
LINE
  5
3B8
100
AcDbEntity
  8
ON_OFF_PORTATASTO
100
AcDbLine
 62
7
  6
CONTINUOUS
 10
-12.2003273687
 20
-9.0902879501
 11
-12.2003273687
 21
-9.0727456069
  0
LINE
  5
3B9
100
AcDbEntity
  8
ON_OFF_PORTATASTO
100
AcDbLine
 62
7
  6
CONTINUOUS
 10
-12.2003273687
 20
30.3058534335
 11
-12.2003273687
 21
30.7598275352
  0
LINE
  5
3BA
100
AcDbEntity
  8
ON_OFF_PORTATASTO
100
AcDbLine
 62
250
  6
CONTINUOUS
 10
-12.127104064
 20
-9.1415496735
 11
-12.127104064
 21
-9.1093572592
  0
LINE
  5
3BB
100
AcDbEntity
  8
ON_OFF_PORTATASTO
100
AcDbLine
 62
250
  6
CONTINUOUS
 10
-12.127104064
 20
30.2141417387
 11
-12.127104064
 21
30.7232158828
  0
LINE
  5
3BC
100
AcDbEntity
  8
ON_OFF_PORTATASTO
100
AcDbLine
 62
250
  6
CONTINUOUS
 10
-11.5051123384
 20
-11.1246262516
 11
-11.5051123384
 21
-10.7846523174
  0
LINE
  5
3BD
100
AcDbEntity
  8
ON_OFF_PORTATASTO
100
AcDbLine
 62
250
  6
CONTINUOUS
 10
-11.5051123384
 20
30.5149518219
 11
-11.5051123384
 21
30.8549257561
  0
LINE
  5
3BE
100
AcDbEntity
  8
ON_OFF_PORTATASTO
100
AcDbLine
 62
7
  6
CONTINUOUS
 10
-11.4251425581
 20
37.8359978694
 11
-11.4251425581
 21
37.5576398876
  0
LINE
  5
3BF
100
AcDbEntity
  8
ON_OFF_PORTATASTO
100
AcDbLine
 62
250
  6
CONTINUOUS
 10
-11.1525903788
 20
-11.1251389754
 11
-11.1525903788
 21
-10.7851650413
  0
LINE
  5
3C0
100
AcDbEntity
  8
ON_OFF_PORTATASTO
100
AcDbLine
 62
250
  6
CONTINUOUS
 10
-11.1525903788
 20
30.5144390981
 11
-11.1525903788
 21
30.8544130322
  0
LINE
  5
3C1
100
AcDbEntity
  8
ON_OFF_PORTATASTO
100
AcDbLine
 62
250
  6
CONTINUOUS
 10
-10.7938917303
 20
30.2363561948
 11
-10.7938917303
 21
29.5475355718
  0
LINE
  5
3C2
100
AcDbEntity
  8
ON_OFF_PORTATASTO
100
AcDbLine
 62
250
  6
CONTINUOUS
 10
-10.7938917303
 20
-9.3617938273
 11
-10.7938917303
 21
-9.8081558403
  0
LINE
  5
3C3
100
AcDbEntity
  8
ON_OFF_PORTATASTO
100
AcDbLine
 62
250
  6
CONTINUOUS
 10
-10.4413697707
 20
30.3659355752
 11
-10.4413697707
 21
29.5574347513
  0
LINE
  5
3C4
100
AcDbEntity
  8
ON_OFF_PORTATASTO
100
AcDbLine
 62
250
  6
CONTINUOUS
 10
-10.4413697707
 20
-9.2138194276
 11
-10.4413697707
 21
-9.9336685642
  0
LINE
  5
3C5
100
AcDbEntity
  8
ON_OFF_CORPO
100
AcDbLine
 62
7
  6
CONTINUOUS
 10
-10.3644823863
 20
38.7197290974
 11
-10.3644823863
 21
38.7096761419
  0
LINE
  5
3C6
100
AcDbEntity
  8
ON_OFF_PORTATASTO
100
AcDbLine
 62
7
  6
CONTINUOUS
 10
-10.1997324472
 20
28.827094976
 11
-10.1997324472
 21
27.1077764229
  0
LINE
  5
3C7
100
AcDbEntity
  8
ON_OFF_PORTATASTO
100
AcDbLine
 62
7
  6
CONTINUOUS
 10
-10.1997324472
 20
-8.8119532238
 11
-10.1997324472
 21
-7.0926346707
  0
LINE
  5
3C8
100
AcDbEntity
  8
ON_OFF_CORPO
100
AcDbLine
 62
7
  6
CONTINUOUS
 10
-9.588025251
 20
39.1045976164
 11
-9.588025251
 21
39.0782408833
  0
LINE
  5
3C9
100
AcDbEntity
  8
ON_OFF_PORTATASTO
100
AcDbLine
 62
7
  6
CONTINUOUS
 10
-9.5513095879
 20
-10.3451043758
 11
-9.5513095879
 21
-8.8402083159
  0
LINE
  5
3CA
100
AcDbEntity
  8
ON_OFF_PORTATASTO
100
AcDbLine
 62
7
  6
CONTINUOUS
 10
-9.5513095879
 20
30.0622735683
 11
-9.5513095879
 21
31.6571350357
  0
LWPOLYLINE
  5
3CB
100
AcDbEntity
  8
ON_OFF_PORTATASTO
100
AcDbPolyline
 62
250
  6
CONTINUOUS
 90
22
 70
0
 10
-11.5051123384
 20
-10.7846523174
 10
-11.5048934672
 20
-10.773772454
 10
-11.5042369115
 20
-10.7626944818
 10
-11.5031435739
 20
-10.7514455668
 10
-11.501615124
 20
-10.7400512628
 10
-11.4996548054
 20
-10.7285417476
 10
-11.4972682224
 20
-10.7169519284
 10
-11.4944618896
 20
-10.705312869
 10
-11.4912423725
 20
-10.6936513112
 10
-11.4876176033
 20
-10.6819960274
 10
-11.4835965202
 20
-10.670375859
 10
-11.4791891471
 20
-10.6588198641
 10
-11.4744065192
 20
-10.6473570087
 10
-11.4692605463
 20
-10.6360158347
 10
-11.4637640175
 20
-10.6248245256
 10
-11.4579306742
 20
-10.613811046
 10
-11.4517750853
 20
-10.6030028658
 10
-11.4453125301
 20
-10.592426778
 10
-11.4385590166
 20
-10.5821089679
 10
-11.4315313167
 20
-10.5720750624
 10
-11.4242469352
 20
-10.5623500579
 10
-11.4167239908
 20
-10.5529581436
  0
LWPOLYLINE
  5
3CC
100
AcDbEntity
  8
ON_OFF_PORTATASTO
100
AcDbPolyline
 62
250
  6
CONTINUOUS
 90
31
 70
0
 10
-11.5051123384
 20
30.8549257561
 10
-11.5048717618
 20
30.8663375548
 10
-11.5041506846
 20
30.8779588947
 10
-11.5029510665
 20
30.8897581457
 10
-11.5012761676
 20
30.9017032051
 10
-11.4991305446
 20
30.9137615494
 10
-11.496520043
 20
30.9259003221
 10
-11.4934517716
 20
30.9380864743
 10
-11.4899340813
 20
30.9502868457
 10
-11.4859765509
 20
30.9624682194
 10
-11.4815899541
 20
30.9745974402
 10
-11.4767862324
 20
30.9866414942
 10
-11.4715784674
 20
30.9985675903
 10
-11.4659808321
 20
31.0103432774
 10
-11.4600085686
 20
31.0219364969
 10
-11.4536779548
 20
31.033315661
 10
-11.4470062538
 20
31.0444497591
 10
-11.4400116052
 20
31.0553085368
 10
-11.4327129866
 20
31.0658625352
 10
-11.4251301549
 20
31.0760831629
 10
-11.4172838435
 20
31.0859424527
 10
-11.4091956689
 20
31.0954132687
 10
-11.4008878355
 20
31.1044696896
 10
-11.3923828078
 20
31.113087303
 10
-11.3837034919
 20
31.121242927
 10
-11.3748716537
 20
31.1289159134
 10
-11.3659131261
 20
31.1360836264
 10
-11.3568577184
 20
31.142722757
 10
-11.3477320337
 20
31.1488150489
 10
-11.3385591734
 20
31.1543463164
 10
-11.3293640824
 20
31.159302571
  0
LWPOLYLINE
  5
3CD
100
AcDbEntity
  8
ON_OFF_PORTATASTO
100
AcDbPolyline
 62
250
  6
CONTINUOUS
 90
16
 70
0
 10
-8.9508445592
 20
31.6609149712
 10
-8.9511477802
 20
31.6547603269
 10
-8.952129286
 20
31.6482588177
 10
-8.9537874638
 20
31.6417917416
 10
-8.9561178024
 20
31.6353766936
 10
-8.9591139615
 20
31.6290311268
 10
-8.9627677897
 20
31.6227723053
 10
-8.9670693461
 20
31.6166172575
 10
-8.9720069276
 20
31.6105827291
 10
-8.9775671007
 20
31.6046851381
 10
-8.9837347379
 20
31.5989405298
 10
-8.9904930593
 20
31.5933645336
 10
-8.9978236775
 20
31.5879723198
 10
-9.0057066484
 20
31.5827785588
 10
-9.0141205251
 20
31.5777973811
 10
-9.0230424162
 20
31.573042339
  0
LWPOLYLINE
  5
3CE
100
AcDbEntity
  8
ON_OFF_PORTATASTO
100
AcDbPolyline
 62
250
  6
CONTINUOUS
 90
16
 70
0
 10
-8.9508445592
 20
32.0084461388
 10
-8.9511499577
 20
32.0022697979
 10
-8.9521340048
 20
31.9957671728
 10
-8.9537949683
 20
31.989299036
 10
-8.9561283705
 20
31.9828829054
 10
-8.9591278488
 20
31.9765363331
 10
-8.9627851179
 20
31.9702767931
 10
-8.9670900735
 20
31.9641214374
 10
-8.9720310124
 20
31.9580868791
 10
-8.977594605
 20
31.9521893596
 10
-8.9837670589
 20
31.9464437483
 10
-8.9905304768
 20
31.9408669297
 10
-8.9978619118
 20
31.9354772395
 10
-9.0057388063
 20
31.930290002
 10
-9.01414021
 20
31.9253178436
 10
-9.0230424162
 20
31.9205738557
  0
LINE
  5
3CF
100
AcDbEntity
  8
ON_OFF_TASTOTARGHETTA
100
AcDbLine
 62
7
  6
CONTINUOUS
 10
-10.6938693566
 20
27.7709868011
 11
-13.8056156254
 21
-10.045035832
  0
LINE
  5
3D0
100
AcDbEntity
  8
ON_OFF_PORTATASTO
100
AcDbLine
 62
7
  6
CONTINUOUS
 10
-10.1997324472
 20
27.1077764229
 11
-11.9440064208
 21
9.1653579779
  0
LWPOLYLINE
  5
3D1
100
AcDbEntity
  8
ON_OFF_CONTATTI
100
AcDbPolyline
 62
250
  6
CONTINUOUS
 90
50
 70
0
 10
-4.0160792406
 20
34.5900136767
 10
-3.9934563551
 20
34.6444856972
 10
-3.9620866979
 20
34.7043639782
 10
-3.9245636224
 20
34.76353206
 10
-3.8811900906
 20
34.8215100787
 10
-3.8319068723
 20
34.8782907561
 10
-3.7767731976
 20
34.9338813705
 10
-3.7162697193
 20
34.9878238928
 10
-3.6503973677
 20
35.0400767923
 10
-3.5791552124
 20
35.0906815997
 10
-3.5030211147
 20
35.1393048783
 10
-3.4220044857
 20
35.1859326208
 10
-3.3360959143
 20
35.2305788344
 10
-3.2457450286
 20
35.2729521035
 10
-3.1506947484
 20
35.3131113015
 10
-3.0512021539
 20
35.350997555
 10
-2.9484881135
 20
35.3861428281
 10
-2.8421472448
 20
35.418520548
 10
-2.7325849302
 20
35.4481572876
 10
-2.6222381858
 20
35.4746647298
 10
-2.5111336689
 20
35.4978641232
 10
-2.3992447221
 20
35.5179342193
 10
-2.28892839
 20
35.535022955
 10
-2.1805379001
 20
35.5489968509
 10
-2.0737200249
 20
35.5599893865
 10
-1.9697721257
 20
35.5685489377
 10
-1.8689362913
 20
35.5746515073
 10
-1.770970433
 20
35.5783210924
 10
-1.6764456467
 20
35.5801780612
 10
-1.5855239066
 20
35.5802439301
 10
-1.4980432384
 20
35.5784971826
 10
-1.414088815
 20
35.5754936372
 10
-1.3337847417
 20
35.5712748366
 10
-1.2570069131
 20
35.5657992381
 10
-1.1834681866
 20
35.5594980325
 10
-1.1132016529
 20
35.5524119987
 10
-1.0461742214
 20
35.5445003578
 10
-0.9819994772
 20
35.5360719636
 10
-0.9206917304
 20
35.5271613231
 10
-0.862236671
 20
35.5177339293
 10
-0.8062049545
 20
35.5079951155
 10
-0.7526003709
 20
35.4979735937
 10
-0.7014191303
 20
35.487640652
 10
-0.652220518
 20
35.4771154873
 10
-0.605001373
 20
35.4664209481
 10
-0.5597648565
 20
35.455534186
 10
-0.5160797366
 20
35.4445058524
 10
-0.4738022695
 20
35.433352831
 10
-0.4330761991
 20
35.4220582382
 10
-0.3939015254
 20
35.4106220739
  0
LINE
  5
3D2
100
AcDbEntity
  8
ON_OFF_TASTOTARGHETTA
100
AcDbLine
 62
7
  6
CONTINUOUS
 10
-46.4949374787
 20
40.6015321639
 11
-16.4599000796
 21
25.5840134644
  0
LINE
  5
3D3
100
AcDbEntity
  8
ON_OFF_CORPO
100
AcDbLine
 62
250
  6
CONTINUOUS
 10
6.3077735223
 20
14.8102024162
 11
6.0905652075
 21
14.9188065736
  0
LINE
  5
3D4
100
AcDbEntity
  8
ON_OFF_CORPO
100
AcDbLine
 62
7
  6
CONTINUOUS
 10
6.3947480984
 20
14.8146750821
 11
6.1186344964
 21
14.9527318831
  0
LINE
  5
3D5
100
AcDbEntity
  8
ON_OFF_TASTOTARGHETTA
100
AcDbLine
 62
7
  6
CONTINUOUS
 10
-45.3660656211
 20
42.2454152448
 11
-15.3140899684
 21
27.2194274184
  0
LWPOLYLINE
  5
3D6
100
AcDbEntity
  8
ON_OFF_CORPO
100
AcDbPolyline
 62
250
  6
CONTINUOUS
 90
28
 70
0
 10
6.3114434281
 20
14.6043934564
 10
6.3198027518
 20
14.6000571158
 10
6.3281254546
 20
14.5951455149
 10
6.3363833861
 20
14.5896752662
 10
6.3445486149
 20
14.5836648717
 10
6.3525935232
 20
14.5771346604
 10
6.3604909002
 20
14.5701067198
 10
6.3682140339
 20
14.5626048206
 10
6.3757368017
 20
14.5546543367
 10
6.3830337588
 20
14.5462821594
 10
6.3900802241
 20
14.5375166062
 10
6.3968523637
 20
14.5283873255
 10
6.4033272714
 20
14.5189251956
 10
6.4094830466
 20
14.5091622209
 10
6.4152988681
 20
14.4991314232
 10
6.4207550643
 20
14.4888667306
 10
6.4258331801
 20
14.4784028619
 10
6.4305160393
 20
14.4677752099
 10
6.4347878025
 20
14.4570197213
 10
6.4386340209
 20
14.4461727753
 10
6.4420416848
 20
14.4352710603
 10
6.4449992682
 20
14.4243514503
 10
6.4474967671
 20
14.4134508795
 10
6.449525734
 20
14.4026062179
 10
6.4510793061
 20
14.3918541464
 10
6.4521522283
 20
14.3812310328
 10
6.4527408717
 20
14.3707728084
 10
6.4528432451
 20
14.3605148471
  0
LWPOLYLINE
  5
3D7
100
AcDbEntity
  8
ON_OFF_PORTATASTO
100
AcDbPolyline
 62
250
  6
CONTINUOUS
 90
14
 70
0
 10
-22.3873605806
 20
38.2552014212
 10
-22.3830128959
 20
38.2478483342
 10
-22.3791626542
 20
38.2407553044
 10
-22.3758203704
 20
38.2339417025
 10
-22.3729951741
 20
38.2274261413
 10
-22.370694778
 20
38.2212264089
 10
-22.3689254607
 20
38.2153594226
 10
-22.3676920561
 20
38.2098411973
 10
-22.3669979405
 20
38.2046868172
 10
-22.366845013
 20
38.1999103769
 10
-22.3672336889
 20
38.1955249254
 10
-22.3681629048
 20
38.1915424316
 10
-22.3696301229
 20
38.1879737678
 10
-22.3715995144
 20
38.1848786907
  0
LINE
  5
3D8
100
AcDbEntity
  8
ON_OFF_CORPO
100
AcDbLine
 62
7
  6
CONTINUOUS
 10
-20.1096133401
 20
45.3529750886
 11
-19.9494203704
 21
44.9328786125
  0
LWPOLYLINE
  5
3D9
100
AcDbEntity
  8
ON_OFF_PORTATASTO
100
AcDbPolyline
 62
7
  6
CONTINUOUS
 90
6
 70
0
 10
-8.5222988363
 20
36.1370788522
 10
-8.5225200761
 20
36.1396012045
 10
-8.5235100584
 20
36.1425830054
 10
-8.5252545823
 20
36.1450602778
 10
-8.5277114977
 20
36.1470479156
 10
-8.5290737104
 20
36.1478101262
  0
LWPOLYLINE
  5
3DA
100
AcDbEntity
  8
ON_OFF_PORTATASTO
100
AcDbPolyline
 62
250
  6
CONTINUOUS
 90
31
 70
0
 10
-9.0230424162
 20
31.9205738557
 10
-9.0232325691
 20
31.9320519754
 10
-9.0239095232
 20
31.9437394781
 10
-9.0250714229
 20
31.9556043306
 10
-9.0267150839
 20
31.9676140136
 10
-9.0288360011
 20
31.9797356106
 10
-9.0314283615
 20
31.9919358988
 10
-9.03448506
 20
32.0041814395
 10
-9.0379977185
 20
32.0164386698
 10
-9.0419567098
 20
32.0286739951
 10
-9.0463511828
 20
32.0408538805
 10
-9.0511690932
 20
32.0529449434
 10
-9.0563972359
 20
32.0649140444
 10
-9.0620212817
 20
32.0767283783
 10
-9.0680258161
 20
32.0883555645
 10
-9.0743943816
 20
32.0997637348
 10
-9.0811095235
 20
32.1109216217
 10
-9.0881528365
 20
32.1217986435
 10
-9.0955050165
 20
32.1323649883
 10
-9.1031459123
 20
32.1425916957
 10
-9.1110545819
 20
32.1524507362
 10
-9.1192093489
 20
32.1619150882
 10
-9.1275878627
 20
32.1709588115
 10
-9.1361671594
 20
32.179557119
 10
-9.1449237247
 20
32.1876864444
 10
-9.1538335585
 20
32.1953245066
 10
-9.1628722407
 20
32.2024503713
 10
-9.1720149978
 20
32.2090445078
 10
-9.1812367714
 20
32.2150888426
 10
-9.1905122862
 20
32.2205668096
 10
-9.1998161199
 20
32.2254633946
  0
LINE
  5
3DB
100
AcDbEntity
  8
ON_OFF_PORTATASTO
100
AcDbLine
 62
250
  6
CONTINUOUS
 10
-9.0230424162
 20
31.9205738557
 11
-9.0230424162
 21
31.573042339
  0
LINE
  5
3DC
100
AcDbEntity
  8
ON_OFF_PORTATASTO
100
AcDbLine
 62
250
  6
CONTINUOUS
 10
-9.0230424162
 20
-9.7265618004
 11
-9.0230424162
 21
-10.0740933171
  0
LINE
  5
3DD
100
AcDbEntity
  8
ON_OFF_PORTATASTO
100
AcDbLine
 62
7
  6
CONTINUOUS
 10
-8.9508445592
 20
32.0084464879
 11
-8.9508445592
 21
31.6609149712
  0
LINE
  5
3DE
100
AcDbEntity
  8
ON_OFF_PORTATASTO
100
AcDbLine
 62
7
  6
CONTINUOUS
 10
-8.9508445592
 20
-9.6386891682
 11
-8.9508445592
 21
-9.9862206849
  0
LINE
  5
3DF
100
AcDbEntity
  8
ON_OFF_PORTATASTO
100
AcDbLine
 62
250
  6
CONTINUOUS
 10
-8.6458929001
 20
34.9085821871
 11
-8.6458929001
 21
36.1280744651
  0
LINE
  5
3E0
100
AcDbEntity
  8
ON_OFF_PORTATASTO
100
AcDbLine
 62
7
  6
CONTINUOUS
 10
-8.5222988363
 20
35.05674129
 11
-8.5222988363
 21
36.1370792092
  0
LINE
  5
3E1
100
AcDbEntity
  8
ON_OFF_PORTATASTO
100
AcDbLine
 62
7
  6
CONTINUOUS
 10
-8.4906494162
 20
29.7986659298
 11
-8.4906494162
 21
-8.1330818793
  0
LINE
  5
3E2
100
AcDbEntity
  8
ON_OFF_CORPO
100
AcDbLine
 62
7
  6
CONTINUOUS
 10
-8.4906494162
 20
26.1369323295
 11
-8.4906494162
 21
-4.471348279
  0
LWPOLYLINE
  5
3E3
100
AcDbEntity
  8
ON_OFF_PORTATASTO
100
AcDbPolyline
 62
7
  6
CONTINUOUS
 90
22
 70
0
 10
-9.1058256537
 20
-8.436578591
 10
-9.1064470821
 20
-8.4544625269
 10
-9.1076608238
 20
-8.4720401997
 10
-9.1094688129
 20
-8.4892799893
 10
-9.1118723279
 20
-8.5061483741
 10
-9.1148706631
 20
-8.5226167553
 10
-9.1184620366
 20
-8.5386608254
 10
-9.1226434573
 20
-8.5542445132
 10
-9.1274135063
 20
-8.5693433008
 10
-9.1327745858
 20
-8.5839478845
 10
-9.1387254158
 20
-8.5980284645
 10
-9.1452618437
 20
-8.6115516372
 10
-9.152384633
 20
-8.6244989198
 10
-9.1600964902
 20
-8.6368481544
 10
-9.1683861011
 20
-8.6485560382
 10
-9.1772306129
 20
-8.659574271
 10
-9.1866232802
 20
-8.6698795253
 10
-9.1965489209
 20
-8.6794409174
 10
-9.2069636297
 20
-8.6882096953
 10
-9.2178511577
 20
-8.6961696597
 10
-9.229190604
 20
-8.7033030507
 10
-9.2404702752
 20
-8.7093536457
  0
LWPOLYLINE
  5
3E4
100
AcDbEntity
  8
ON_OFF_PORTATASTO
100
AcDbPolyline
 62
250
  6
CONTINUOUS
 90
16
 70
0
 10
-8.9508445592
 20
-9.9862206849
 10
-8.951145921
 20
-9.992356443
 10
-8.9521257218
 20
-9.9988593154
 10
-8.953782478
 20
-10.0053278043
 10
-8.9561116835
 20
-10.0117442993
 10
-8.9591070045
 20
-10.0180913402
 10
-8.9627602899
 20
-10.0243516458
 10
-8.967061599
 20
-10.0305081762
 10
-8.9719992278
 20
-10.0365441743
 10
-8.9775597355
 20
-10.042443206
 10
-8.9837279934
 20
-10.048189219
 10
-8.9904872104
 20
-10.053766569
 10
-8.9978189689
 20
-10.0591600599
 10
-9.0057033022
 20
-10.0643550081
 10
-9.0141187541
 20
-10.0693372803
 10
-9.0230424162
 20
-10.0740933171
  0
LWPOLYLINE
  5
3E5
100
AcDbEntity
  8
ON_OFF_PORTATASTO
100
AcDbPolyline
 62
250
  6
CONTINUOUS
 90
16
 70
0
 10
-8.9508445592
 20
-9.6386891682
 10
-8.9511477802
 20
-9.6448438125
 10
-8.952129286
 20
-9.6513453217
 10
-8.9537874638
 20
-9.6578123977
 10
-8.9561178024
 20
-9.6642274458
 10
-8.9591139615
 20
-9.6705730126
 10
-8.9627677897
 20
-9.6768318341
 10
-8.9670693461
 20
-9.6829868819
 10
-8.9720069276
 20
-9.6890214103
 10
-8.9775671007
 20
-9.6949190013
 10
-8.9837347379
 20
-9.7006636095
 10
-8.9904930593
 20
-9.7062396058
 10
-8.9978236775
 20
-9.7116318196
 10
-9.0057066484
 20
-9.7168255806
 10
-9.0141205251
 20
-9.7218067582
 10
-9.0230424162
 20
-9.7265618004
  0
LINE
  5
3E6
100
AcDbEntity
  8
ON_OFF_PORTATASTO
100
AcDbLine
 62
7
  6
CONTINUOUS
 10
-10.1997324472
 20
27.1077764229
 11
-10.7267590119
 21
27.3712897052
  0
LINE
  5
3E7
100
AcDbEntity
  8
ON_OFF_PORTATASTO
100
AcDbLine
 62
7
  6
CONTINUOUS
 10
-42.5935489924
 20
44.348460792
 11
-11.0158811053
 21
28.5596268484
  0
LINE
  5
3E8
100
AcDbEntity
  8
ON_OFF_PORTATASTO
100
AcDbLine
 62
7
  6
CONTINUOUS
 10
-11.362006498
 20
29.0790997063
 11
-42.2474235998
 21
44.5218082572
  0
LWPOLYLINE
  5
3E9
100
AcDbEntity
  8
ON_OFF_CORPO
100
AcDbPolyline
 62
7
  6
CONTINUOUS
 90
3
 70
0
 10
-12.512253136
 20
40.7915798544
 10
-12.5153051153
 20
40.8046100513
 10
-12.5193208939
 20
40.819845494
  0
LINE
  5
3EA
100
AcDbEntity
  8
ON_OFF_CORPO
100
AcDbLine
 62
7
  6
CONTINUOUS
 10
-12.6487841738
 20
44.8448959906
 11
-12.4858027299
 21
44.0184764065
  0
LWPOLYLINE
  5
3EB
100
AcDbEntity
  8
ON_OFF_PORTATASTO
100
AcDbPolyline
 62
7
  6
CONTINUOUS
 90
20
 70
0
 10
-3.6044155101
 20
-3.218463176
 10
-3.6044938077
 20
-3.2173138481
 10
-3.6051018902
 20
-3.2164571271
 10
-3.6062476726
 20
-3.215934878
 10
-3.6078872553
 20
-3.2157242511
 10
-3.6100084754
 20
-3.2158199201
 10
-3.6126234957
 20
-3.2162272112
 10
-3.6157249048
 20
-3.2169392528
 10
-3.61932356
 20
-3.2179581704
 10
-3.623408604
 20
-3.2192818383
 10
-3.6279400533
 20
-3.2208970086
 10
-3.6329329849
 20
-3.2228124288
 10
-3.6383723218
 20
-3.2250193513
 10
-3.6441728495
 20
-3.2274782854
 10
-3.6503409282
 20
-3.230194658
 10
-3.6568701977
 20
-3.2331630421
 10
-3.6636563627
 20
-3.2363276666
 10
-3.6706646583
 20
-3.2396699409
 10
-3.6779298495
 20
-3.2432084554
 10
-8.4906494162
 20
-5.6495419503
  0
LWPOLYLINE
  5
3EC
100
AcDbEntity
  8
ON_OFF_PORTATASTO
100
AcDbPolyline
 62
7
  6
CONTINUOUS
 90
7
 70
0
 10
-3.5944553384
 20
33.8585222252
 10
-3.5948677719
 20
33.8876959508
 10
-3.5961049256
 20
33.9165535705
 10
-3.598166933
 20
33.945079719
 10
-3.6010580831
 20
33.973290394
 10
-3.6047774101
 20
34.0011369299
 10
-3.6097490495
 20
34.0309085289
  0
LINE
  5
3ED
100
AcDbEntity
  8
ON_OFF_CORPO
100
AcDbLine
 62
250
  6
CONTINUOUS
 10
-4.1048728364
 20
35.5858061326
 11
-4.1048728364
 21
36.0778077672
  0
LINE
  5
3EE
100
AcDbEntity
  8
ON_OFF_PORTATASTO
100
AcDbLine
 62
250
  6
CONTINUOUS
 10
-3.6823233041
 20
33.7524562081
 11
-3.6823233041
 21
33.4608052711
  0
LINE
  5
3EF
100
AcDbEntity
  8
ON_OFF_PORTATASTO
100
AcDbLine
 62
250
  6
CONTINUOUS
 10
-3.6823233041
 20
-2.994217455
 11
-3.6823233041
 21
-3.1773267146
  0
LINE
  5
3F0
100
AcDbEntity
  8
ON_OFF_PORTATASTO
100
AcDbLine
 62
7
  6
CONTINUOUS
 10
-3.5944553384
 20
33.8585222252
 11
-3.5944553384
 21
33.5684745163
  0
LINE
  5
3F1
100
AcDbEntity
  8
ON_OFF_PORTATASTO
100
AcDbLine
 62
7
  6
CONTINUOUS
 10
-3.5944553384
 20
-2.9480595365
 11
-3.5944553384
 21
-3.0712606974
  0
LINE
  5
3F2
100
AcDbEntity
  8
ON_OFF_CORPO
100
AcDbLine
 62
7
  6
CONTINUOUS
 10
-3.3994805916
 20
35.4982431872
 11
-3.3994805916
 21
35.9312558891
  0
LWPOLYLINE
  5
3F3
100
AcDbEntity
  8
ON_OFF_CORPO
100
AcDbPolyline
 62
7
  6
CONTINUOUS
 90
24
 70
0
 10
-4.8766883855
 20
35.1513768282
 10
-4.8766133437
 20
35.1613162899
 10
-4.8742754887
 20
35.2077032825
 10
-4.8686650331
 20
35.2539972506
 10
-4.8597869471
 20
35.3001408721
 10
-4.8476500403
 20
35.3460818685
 10
-4.8322669978
 20
35.3917639896
 10
-4.8136544406
 20
35.4371312535
 10
-4.7918328929
 20
35.4821321191
 10
-4.7668266791
 20
35.5267111675
 10
-4.738663979
 20
35.5708135329
 10
-4.7073768952
 20
35.6143891488
 10
-4.6730011677
 20
35.6573840908
 10
-4.6355763042
 20
35.699745154
 10
-4.5951457355
 20
35.741424302
 10
-4.5517562878
 20
35.7823697019
 10
-4.5054584239
 20
35.8225303996
 10
-4.4563065234
 20
35.8618609326
 10
-4.4043594744
 20
35.9003111185
 10
-4.3496769081
 20
35.9378338976
 10
-4.2923189108
 20
35.974389812
 10
-4.2323509689
 20
36.0099351959
 10
-4.1698445249
 20
36.0444224541
 10
-4.1048728364
 20
36.0778077672
  0
LWPOLYLINE
  5
3F4
100
AcDbEntity
  8
ON_OFF_PORTATASTO
100
AcDbPolyline
 62
250
  6
CONTINUOUS
 90
7
 70
0
 10
-3.6823233041
 20
-3.1773267146
 10
-3.6824117907
 20
-3.1887697953
 10
-3.682673458
 20
-3.2002767434
 10
-3.6831083059
 20
-3.2118475588
 10
-3.6837163343
 20
-3.2234822415
 10
-3.6844975434
 20
-3.2351807914
 10
-3.6854519331
 20
-3.2469432087
  0
LWPOLYLINE
  5
3F5
100
AcDbEntity
  8
ON_OFF_PORTATASTO
100
AcDbPolyline
 62
250
  6
CONTINUOUS
 90
16
 70
0
 10
-3.5944553384
 20
33.8585222252
 10
-3.594866478
 20
33.8506718318
 10
-3.5960987698
 20
33.8428429557
 10
-3.5981488363
 20
33.8350570555
 10
-3.6010110582
 20
33.8273354716
 10
-3.6046775906
 20
33.8196993685
 10
-3.6091383836
 20
33.8121696761
 10
-3.6143812105
 20
33.8047670328
 10
-3.6203917011
 20
33.7975117288
 10
-3.6271533812
 20
33.7904236503
 10
-3.6346477173
 20
33.7835222252
 10
-3.6428541681
 20
33.77682637
 10
-3.6517502401
 20
33.7703544374
 10
-3.66131155
 20
33.7641241666
 10
-3.6715118908
 20
33.7581526343
 10
-3.6823233041
 20
33.7524562081
  0
LINE
  5
3F6
100
AcDbEntity
  8
ON_OFF_CORPO
100
AcDbLine
 62
7
  6
CONTINUOUS
 10
-0.0254456593
 20
11.8734902803
 11
6.0340781556
 21
14.8790587639
  0
LWPOLYLINE
  5
3F7
100
AcDbEntity
  8
ON_OFF_CORPO
100
AcDbPolyline
 62
250
  6
CONTINUOUS
 90
13
 70
0
 10
6.3077735223
 20
14.8102024162
 10
6.3158998565
 20
14.8138052532
 10
6.3239911344
 20
14.8168190493
 10
6.3320205824
 20
14.8192338319
 10
6.3399616317
 20
14.8210416108
 10
6.347788006
 20
14.822236404
 10
6.3554738082
 20
14.8228142582
 10
6.3629936067
 20
14.8227732613
 10
6.3703225189
 20
14.8221135489
 10
6.3774362941
 20
14.8208373039
 10
6.3843113932
 20
14.8189487494
 10
6.390925067
 20
14.8164541345
 10
6.3947480984
 20
14.8146750821
  0
LWPOLYLINE
  5
3F8
100
AcDbEntity
  8
ON_OFF_PORTATASTO
100
AcDbPolyline
 62
7
  6
CONTINUOUS
 90
18
 70
0
 10
-14.6106276591
 20
33.2265342261
 10
-14.6279223271
 20
33.2250418904
 10
-14.6451167253
 20
33.2230483126
 10
-14.662175063
 20
33.2206411297
 10
-14.6790658965
 20
33.217930176
 10
-14.6957701593
 20
33.2149731635
 10
-14.7122769792
 20
33.2117623154
 10
-14.7285703861
 20
33.2083520876
 10
-14.744640179
 20
33.2048075579
 10
-14.7604833329
 20
33.2011136019
 10
-14.7760921446
 20
33.1973103196
 10
-14.7914612272
 20
33.1934467313
 10
-14.8065879552
 20
33.1895064576
 10
-14.8214689729
 20
33.1855204103
 10
-14.8361014988
 20
33.1815263243
 10
-14.8504801237
 20
33.177509195
 10
-14.8646036767
 20
33.1734940344
 10
-14.8920734224
 20
33.1655464222
  0
LINE
  5
3F9
100
AcDbEntity
  8
ON_OFF_PORTATASTO
100
AcDbLine
 62
7
  6
CONTINUOUS
 10
-11.3794338723
 20
30.3586179373
 11
-10.7552382752
 21
30.2282853175
  0
LINE
  5
3FA
100
AcDbEntity
  8
ON_OFF_PORTATASTO
100
AcDbLine
 62
250
  6
CONTINUOUS
 10
-11.1525903788
 20
30.5144390981
 11
-10.4413697707
 21
30.3659355752
  0
LWPOLYLINE
  5
3FB
100
AcDbEntity
  8
ON_OFF_PORTATASTO
100
AcDbPolyline
 62
250
  6
CONTINUOUS
 90
15
 70
0
 10
-12.6543487623
 20
31.8217949109
 10
-12.6636545463
 20
31.8260981756
 10
-12.672932012
 20
31.829797415
 10
-12.6821557203
 20
31.8328824824
 10
-12.6913003879
 20
31.8353449171
 10
-12.7003409313
 20
31.8371779605
 10
-12.7092525368
 20
31.8383765804
 10
-12.7180107634
 20
31.8389374914
 10
-12.7265916024
 20
31.8388591581
 10
-12.7349715191
 20
31.8381417976
 10
-12.743127537
 20
31.8367873799
 10
-12.7510372936
 20
31.8347996216
 10
-12.7586790955
 20
31.8321839786
 10
-12.7660319966
 20
31.8289476247
 10
-12.7674344284
 20
31.8282428861
  0
LWPOLYLINE
  5
3FC
100
AcDbEntity
  8
ON_OFF_PORTATASTO
100
AcDbPolyline
 62
250
  6
CONTINUOUS
 90
15
 70
0
 10
-26.0186669267
 20
38.5039539931
 10
-26.0279707603
 20
38.5082564179
 10
-26.0372462752
 20
38.5119550666
 10
-26.0464680488
 20
38.515039802
 10
-26.0556108059
 20
38.5175021694
 10
-26.064649488
 20
38.5193354199
 10
-26.0735593219
 20
38.5205345289
 10
-26.0823158872
 20
38.52109621
 10
-26.0908951838
 20
38.5210189235
 10
-26.0992736977
 20
38.5203028815
 10
-26.1074284647
 20
38.5189500463
 10
-26.1153371342
 20
38.5169641259
 10
-26.1229780301
 20
38.5143505632
 10
-26.13033021
 20
38.5111165217
 10
-26.1317525928
 20
38.5104019683
  0
LWPOLYLINE
  5
3FD
100
AcDbEntity
  8
ON_OFF_PORTATASTO
100
AcDbPolyline
 62
250
  6
CONTINUOUS
 90
15
 70
0
 10
-28.564251339
 20
39.7767461993
 10
-28.573557123
 20
39.7810494639
 10
-28.5828345887
 20
39.7847487033
 10
-28.592058297
 20
39.7878337708
 10
-28.6012029646
 20
39.7902962055
 10
-28.610243508
 20
39.7921292489
 10
-28.6191551135
 20
39.7933278687
 10
-28.6279133401
 20
39.7938887798
 10
-28.6364941791
 20
39.7938104465
 10
-28.6448740958
 20
39.793093086
 10
-28.6530301137
 20
39.7917386682
 10
-28.6609398703
 20
39.78975091
 10
-28.6685816721
 20
39.787135267
 10
-28.6759345733
 20
39.783898913
 10
-28.6773370051
 20
39.7831941744
  0
LWPOLYLINE
  5
3FE
100
AcDbEntity
  8
ON_OFF_PORTATASTO
100
AcDbPolyline
 62
250
  6
CONTINUOUS
 90
15
 70
0
 10
-41.9285695034
 20
46.4589052815
 10
-41.937873337
 20
46.4632077062
 10
-41.9471488519
 20
46.4669063549
 10
-41.9563706254
 20
46.4699910903
 10
-41.9655133826
 20
46.4724534577
 10
-41.9745520647
 20
46.4742867082
 10
-41.9834618986
 20
46.4754858173
 10
-41.9922184639
 20
46.4760474983
 10
-42.0007977605
 20
46.4759702119
 10
-42.0091762743
 20
46.4752541698
 10
-42.0173310414
 20
46.4739013346
 10
-42.0252397109
 20
46.4719154142
 10
-42.0328806068
 20
46.4693018516
 10
-42.0402327867
 20
46.4660678101
 10
-42.0416551695
 20
46.4653532566
  0
LWPOLYLINE
  5
3FF
100
AcDbEntity
  8
ON_OFF_PORTATASTO
100
AcDbPolyline
 62
250
  6
CONTINUOUS
 90
31
 70
0
 10
-11.5051123384
 20
30.5149518219
 10
-11.495653366
 20
30.5104628586
 10
-11.4857390877
 20
30.5062266334
 10
-11.4753964823
 20
30.5022546741
 10
-11.4646537107
 20
30.4985577946
 10
-11.4535399908
 20
30.4951460485
 10
-11.4420855125
 20
30.4920287066
 10
-11.4303214056
 20
30.4892142476
 10
-11.4182797133
 20
30.4867103447
 10
-11.4059932574
 20
30.484523825
 10
-11.3934954919
 20
30.4826606414
 10
-11.3808204083
 20
30.4811258604
 10
-11.3680024989
 20
30.4799236588
 10
-11.355076634
 20
30.4790573073
 10
-11.3420779993
 20
30.4785291648
 10
-11.3290420004
 20
30.4783406685
 10
-11.3160041341
 20
30.4784923283
 10
-11.3029998576
 20
30.4789837283
 10
-11.2900645253
 20
30.4798135312
 10
-11.2772332194
 20
30.4809794914
 10
-11.2645409775
 20
30.4824784297
 10
-11.252022652
 20
30.4843062171
 10
-11.2397124979
 20
30.4864578162
 10
-11.2276437809
 20
30.4889273765
 10
-11.2158490235
 20
30.4917082293
 10
-11.2043591765
 20
30.494793134
 10
-11.1932067095
 20
30.4981734314
 10
-11.1824249026
 20
30.5018388694
 10
-11.1720437022
 20
30.5057788694
 10
-11.1620899697
 20
30.5099828238
 10
-11.1525903788
 20
30.5144390981
  0
LWPOLYLINE
  5
400
100
AcDbEntity
  8
ON_OFF_PORTATASTO
100
AcDbPolyline
 62
250
  6
CONTINUOUS
 90
31
 70
0
 10
-24.8694305028
 20
37.1971109041
 10
-24.8599715304
 20
37.1926219408
 10
-24.8500572521
 20
37.1883857156
 10
-24.8397146467
 20
37.1844137563
 10
-24.8289718751
 20
37.1807168768
 10
-24.8178581553
 20
37.1773051308
 10
-24.806403677
 20
37.1741877888
 10
-24.79463957
 20
37.1713733298
 10
-24.7825978777
 20
37.1688694269
 10
-24.7703114218
 20
37.1666829072
 10
-24.7578136563
 20
37.1648197236
 10
-24.7451385727
 20
37.1632849427
 10
-24.7323206633
 20
37.162082741
 10
-24.7193947984
 20
37.1612163895
 10
-24.7063961637
 20
37.160688247
 10
-24.6933601649
 20
37.1604997507
 10
-24.6803222986
 20
37.1606514105
 10
-24.667318022
 20
37.1611428105
 10
-24.6543826898
 20
37.1619726134
 10
-24.6415513839
 20
37.1631385736
 10
-24.628859142
 20
37.1646375119
 10
-24.6163408164
 20
37.1664652993
 10
-24.6040306623
 20
37.1686168984
 10
-24.5919619453
 20
37.1710864587
 10
-24.5801671879
 20
37.1738673115
 10
-24.5686773409
 20
37.1769522162
 10
-24.5575248739
 20
37.1803325136
 10
-24.546743067
 20
37.1839979516
 10
-24.5363618666
 20
37.1879379516
 10
-24.5264081341
 20
37.192141906
 10
-24.5169085432
 20
37.1965981803
  0
LWPOLYLINE
  5
401
100
AcDbEntity
  8
ON_OFF_PORTATASTO
100
AcDbPolyline
 62
250
  6
CONTINUOUS
 90
31
 70
0
 10
-11.5051123384
 20
30.8549257561
 10
-11.4956522821
 20
30.8504363045
 10
-11.4857367992
 20
30.8461996402
 10
-11.475392875
 20
30.8422272963
 10
-11.4646486506
 20
30.838530083
 10
-11.4535333776
 20
30.8351180695
 10
-11.4420773423
 20
30.8320005535
 10
-11.4303117359
 20
30.8291860216
 10
-11.4182685752
 20
30.8266821315
 10
-11.4059806498
 20
30.8244956993
 10
-11.3934814063
 20
30.8226326744
 10
-11.3808048669
 20
30.8210981263
 10
-11.3679855464
 20
30.819896231
 10
-11.3550583278
 20
30.8190302571
 10
-11.3420584067
 20
30.81850256
 10
-11.3290212065
 20
30.8183145737
 10
-11.315982263
 20
30.818466803
 10
-11.3029770129
 20
30.8189588265
 10
-11.2900407393
 20
30.8197893083
 10
-11.2772084781
 20
30.8209560094
 10
-11.2645153335
 20
30.8224557485
 10
-11.2519962534
 20
30.8242843831
 10
-11.2396855421
 20
30.8264368609
 10
-11.2276164256
 20
30.8289073303
 10
-11.2158213864
 20
30.8316891266
 10
-11.2043301639
 20
30.8347753536
 10
-11.1931765268
 20
30.8381570625
 10
-11.1823971463
 20
30.84182278
 10
-11.1720226713
 20
30.8457612272
 10
-11.1620783546
 20
30.8499619291
 10
-11.1525903788
 20
30.8544130322
  0
LWPOLYLINE
  5
402
100
AcDbEntity
  8
ON_OFF_PORTATASTO
100
AcDbPolyline
 62
250
  6
CONTINUOUS
 90
31
 70
0
 10
-27.4150149151
 20
38.4699031103
 10
-27.4055559427
 20
38.4654141469
 10
-27.3956416644
 20
38.4611779217
 10
-27.385299059
 20
38.4572059625
 10
-27.3745562874
 20
38.4535090829
 10
-27.3634425675
 20
38.4500973369
 10
-27.3519880892
 20
38.4469799949
 10
-27.3402239822
 20
38.444165536
 10
-27.32818229
 20
38.441661633
 10
-27.3158958341
 20
38.4394751134
 10
-27.3033980686
 20
38.4376119297
 10
-27.290722985
 20
38.4360771488
 10
-27.2779050756
 20
38.4348749471
 10
-27.2649792107
 20
38.4340085957
 10
-27.251980576
 20
38.4334804532
 10
-27.2389445771
 20
38.4332919569
 10
-27.2259067108
 20
38.4334436167
 10
-27.2129024343
 20
38.4339350166
 10
-27.199967102
 20
38.4347648196
 10
-27.1871357961
 20
38.4359307797
 10
-27.1744435542
 20
38.4374297181
 10
-27.1619252287
 20
38.4392575054
 10
-27.1496150746
 20
38.4414091046
 10
-27.1375463576
 20
38.4438786648
 10
-27.1257516002
 20
38.4466595176
 10
-27.1142617532
 20
38.4497444224
 10
-27.1031092862
 20
38.4531247197
 10
-27.0923274793
 20
38.4567901577
 10
-27.0819462789
 20
38.4607301577
 10
-27.0719925464
 20
38.4649341121
 10
-27.0624929555
 20
38.4693903864
  0
LWPOLYLINE
  5
403
100
AcDbEntity
  8
ON_OFF_PORTATASTO
100
AcDbPolyline
 62
250
  6
CONTINUOUS
 90
31
 70
0
 10
-24.8694305028
 20
37.5370848383
 10
-24.8599938471
 20
37.5326059269
 10
-24.8500980542
 20
37.5283761865
 10
-24.8397691942
 20
37.5244075352
 10
-24.8290324808
 20
37.5207105286
 10
-24.8179183957
 20
37.5172964983
 10
-24.8064633025
 20
37.5141769608
 10
-24.7947007925
 20
37.5113609464
 10
-24.7826605931
 20
37.5088554573
 10
-24.7703751308
 20
37.506667256
 10
-24.7578775795
 20
37.5048022909
 10
-24.7452021698
 20
37.503265709
 10
-24.7323837774
 20
37.5020617506
 10
-24.7194574595
 20
37.5011936982
 10
-24.7064582331
 20
37.5006638936
 10
-24.6934213665
 20
37.5004737751
 10
-24.6803822914
 20
37.5006238669
 10
-24.6673765466
 20
37.5011137672
 10
-24.6544395689
 20
37.5019421453
 10
-24.6416065788
 20
37.5031067481
 10
-24.628912497
 20
37.5046044086
 10
-24.6163918858
 20
37.5064310513
 10
-24.604078825
 20
37.5085817058
 10
-24.5920068289
 20
37.5110505202
 10
-24.5802087654
 20
37.5138307741
 10
-24.5687167395
 20
37.516914903
 10
-24.5575620395
 20
37.5202945115
 10
-24.5467750576
 20
37.5239603908
 10
-24.5363851612
 20
37.5279025574
 10
-24.5264206168
 20
37.5321102834
 10
-24.5169085432
 20
37.5365721144
  0
LWPOLYLINE
  5
404
100
AcDbEntity
  8
ON_OFF_PORTATASTO
100
AcDbPolyline
 62
250
  6
CONTINUOUS
 90
31
 70
0
 10
-40.7793330795
 20
45.1520621925
 10
-40.7698741071
 20
45.1475732291
 10
-40.7599598288
 20
45.143337004
 10
-40.7496172234
 20
45.1393650447
 10
-40.7388744518
 20
45.1356681651
 10
-40.7277607319
 20
45.1322564191
 10
-40.7163062537
 20
45.1291390771
 10
-40.7045421467
 20
45.1263246182
 10
-40.6925004544
 20
45.1238207152
 10
-40.6802139985
 20
45.1216341956
 10
-40.667716233
 20
45.1197710119
 10
-40.6550411494
 20
45.118236231
 10
-40.64222324
 20
45.1170340293
 10
-40.6292973751
 20
45.1161676779
 10
-40.6162987404
 20
45.1156395354
 10
-40.6032627416
 20
45.1154510391
 10
-40.5902248753
 20
45.1156026989
 10
-40.5772205987
 20
45.1160940988
 10
-40.5642852665
 20
45.1169239018
 10
-40.5514539606
 20
45.1180898619
 10
-40.5387617187
 20
45.1195888003
 10
-40.5262433931
 20
45.1214165877
 10
-40.513933239
 20
45.1235681868
 10
-40.501864522
 20
45.1260377471
 10
-40.4900697646
 20
45.1288185998
 10
-40.4785799176
 20
45.1319035046
 10
-40.4674274506
 20
45.1352838019
 10
-40.4566456437
 20
45.1389492399
 10
-40.4462644433
 20
45.1428892399
 10
-40.4363107108
 20
45.1470931943
 10
-40.4268111199
 20
45.1515494686
  0
LWPOLYLINE
  5
405
100
AcDbEntity
  8
ON_OFF_PORTATASTO
100
AcDbPolyline
 62
250
  6
CONTINUOUS
 90
31
 70
0
 10
-27.4150149151
 20
38.8098770444
 10
-27.4055548588
 20
38.8053875929
 10
-27.3956393759
 20
38.8011509286
 10
-27.3852954517
 20
38.7971785846
 10
-27.3745512273
 20
38.7934813713
 10
-27.3634359543
 20
38.7900693578
 10
-27.351979919
 20
38.7869518418
 10
-27.3402143126
 20
38.78413731
 10
-27.3281711519
 20
38.7816334199
 10
-27.3158832265
 20
38.7794469876
 10
-27.303383983
 20
38.7775839627
 10
-27.2907074436
 20
38.7760494146
 10
-27.2778881231
 20
38.7748475194
 10
-27.2649609045
 20
38.7739815454
 10
-27.2519609834
 20
38.7734538484
 10
-27.2389237832
 20
38.7732658621
 10
-27.2258848397
 20
38.7734180913
 10
-27.2128795896
 20
38.7739101149
 10
-27.199943316
 20
38.7747405966
 10
-27.1871110548
 20
38.7759072977
 10
-27.1744179102
 20
38.7774070369
 10
-27.1618988301
 20
38.7792356714
 10
-27.1495881188
 20
38.7813881492
 10
-27.1375190023
 20
38.7838586186
 10
-27.1257239631
 20
38.786640415
 10
-27.1142327406
 20
38.7897266419
 10
-27.1030791035
 20
38.7931083508
 10
-27.092299723
 20
38.7967740683
 10
-27.081925248
 20
38.8007125156
 10
-27.0719809313
 20
38.8049132175
 10
-27.0624929555
 20
38.8093643206
  0
LWPOLYLINE
  5
406
100
AcDbEntity
  8
ON_OFF_PORTATASTO
100
AcDbPolyline
 62
250
  6
CONTINUOUS
 90
31
 70
0
 10
-40.7793330795
 20
45.4920361266
 10
-40.7698964238
 20
45.4875572153
 10
-40.7600006309
 20
45.4833274748
 10
-40.7496717709
 20
45.4793588235
 10
-40.7389350575
 20
45.4756618169
 10
-40.7278209724
 20
45.4722477867
 10
-40.7163658791
 20
45.4691282492
 10
-40.7046033692
 20
45.4663122347
 10
-40.6925631698
 20
45.4638067456
 10
-40.6802777075
 20
45.4616185444
 10
-40.6677801562
 20
45.4597535793
 10
-40.6551047465
 20
45.4582169974
 10
-40.6422863541
 20
45.4570130389
 10
-40.6293600362
 20
45.4561449866
 10
-40.6163608098
 20
45.4556151819
 10
-40.6033239431
 20
45.4554250634
 10
-40.5902848681
 20
45.4555751552
 10
-40.5772791233
 20
45.4560650556
 10
-40.5643421456
 20
45.4568934337
 10
-40.5515091555
 20
45.4580580364
 10
-40.5388150737
 20
45.4595556969
 10
-40.5262944625
 20
45.4613823396
 10
-40.5139814016
 20
45.4635329942
 10
-40.5019094056
 20
45.4660018086
 10
-40.4901113421
 20
45.4687820624
 10
-40.4786193162
 20
45.4718661914
 10
-40.4674646162
 20
45.4752457999
 10
-40.4566776343
 20
45.4789116791
 10
-40.4462877379
 20
45.4828538458
 10
-40.4363231935
 20
45.4870615717
 10
-40.4268111199
 20
45.4915234028
  0
LINE
  5
407
100
AcDbEntity
  8
ON_OFF_PORTATASTO
100
AcDbLine
 62
7
  6
CONTINUOUS
 10
-41.4013248051
 20
44.8512521092
 11
-40.0681124714
 21
44.1846459424
  0
LINE
  5
408
100
AcDbEntity
  8
ON_OFF_PORTATASTO
100
AcDbLine
 62
7
  6
CONTINUOUS
 10
-28.0370066407
 20
38.169093027
 11
-26.703794307
 21
37.5024868602
  0
LINE
  5
409
100
AcDbEntity
  8
ON_OFF_PORTATASTO
100
AcDbLine
 62
7
  6
CONTINUOUS
 10
-25.4914222284
 20
36.8963008209
 11
-24.1582098947
 21
36.229694654
  0
LINE
  5
40A
100
AcDbEntity
  8
ON_OFF_PORTATASTO
100
AcDbLine
 62
7
  6
CONTINUOUS
 10
-12.127104064
 20
30.2141417387
 11
-10.7938917303
 21
29.5475355718
  0
LINE
  5
40B
100
AcDbEntity
  8
ON_OFF_PORTATASTO
100
AcDbLine
 62
7
  6
CONTINUOUS
 10
-15.0334500389
 20
32.0435613508
 11
-20.5447571386
 21
34.7992149007
  0
LINE
  5
40C
100
AcDbEntity
  8
ON_OFF_PORTATASTO
100
AcDbLine
 62
7
  6
CONTINUOUS
 10
-30.9433526156
 20
39.9985126392
 11
-36.4546597153
 21
42.754166189
  0
LINE
  5
40D
100
AcDbEntity
  8
ON_OFF_PORTATASTO
100
AcDbLine
 62
7
  6
CONTINUOUS
 10
-42.0393444629
 20
45.6793360823
 11
-40.7143597831
 21
45.0168437424
  0
LINE
  5
40E
100
AcDbEntity
  8
ON_OFF_PORTATASTO
100
AcDbLine
 62
7
  6
CONTINUOUS
 10
-28.6750262985
 20
38.9971770001
 11
-27.3500416187
 21
38.3346846602
  0
LINE
  5
40F
100
AcDbEntity
  8
ON_OFF_PORTATASTO
100
AcDbLine
 62
7
  6
CONTINUOUS
 10
-26.1294418862
 20
37.724384794
 11
-24.8044572064
 21
37.061892454
  0
LINE
  5
410
100
AcDbEntity
  8
ON_OFF_PORTATASTO
100
AcDbLine
 62
7
  6
CONTINUOUS
 10
-12.7651237218
 20
31.0422257117
 11
-11.440139042
 21
30.3797333718
  0
LINE
  5
411
100
AcDbEntity
  8
ON_OFF_PORTATASTO
100
AcDbLine
 62
250
  6
CONTINUOUS
 10
-42.1043177594
 20
45.8145545324
 11
-40.7793330795
 21
45.1520621925
  0
LINE
  5
412
100
AcDbEntity
  8
ON_OFF_PORTATASTO
100
AcDbLine
 62
250
  6
CONTINUOUS
 10
-28.7399995949
 20
39.1323954502
 11
-27.4150149151
 21
38.4699031103
  0
LINE
  5
413
100
AcDbEntity
  8
ON_OFF_PORTATASTO
100
AcDbLine
 62
250
  6
CONTINUOUS
 10
-26.1944151827
 20
37.8596032441
 11
-24.8694305028
 21
37.1971109041
  0
LINE
  5
414
100
AcDbEntity
  8
ON_OFF_PORTATASTO
100
AcDbLine
 62
250
  6
CONTINUOUS
 10
-12.8300970182
 20
31.1774441618
 11
-11.5051123384
 21
30.5149518219
  0
LINE
  5
415
100
AcDbEntity
  8
ON_OFF_PORTATASTO
100
AcDbLine
 62
250
  6
CONTINUOUS
 10
-11.5051123384
 20
30.8549257561
 11
-12.8300970182
 21
31.517418096
  0
LINE
  5
416
100
AcDbEntity
  8
ON_OFF_PORTATASTO
100
AcDbLine
 62
250
  6
CONTINUOUS
 10
-24.8694305028
 20
37.5370848383
 11
-26.1944151827
 21
38.1995771782
  0
LINE
  5
417
100
AcDbEntity
  8
ON_OFF_PORTATASTO
100
AcDbLine
 62
250
  6
CONTINUOUS
 10
-27.4150149151
 20
38.8098770444
 11
-28.7399995949
 21
39.4723693843
  0
LINE
  5
418
100
AcDbEntity
  8
ON_OFF_PORTATASTO
100
AcDbLine
 62
250
  6
CONTINUOUS
 10
-40.7793330795
 20
45.4920361266
 11
-42.1043177594
 21
46.1545284665
  0
LINE
  5
419
100
AcDbEntity
  8
ON_OFF_PORTATASTO
100
AcDbLine
 62
7
  6
CONTINUOUS
 10
-12.8165705541
 20
31.7950320004
 11
-13.8703759114
 21
32.3219346791
  0
LINE
  5
41A
100
AcDbEntity
  8
ON_OFF_PORTATASTO
100
AcDbLine
 62
7
  6
CONTINUOUS
 10
-20.691203748
 20
35.7323485973
 11
-22.8141022097
 21
36.7937978282
  0
LINE
  5
41B
100
AcDbEntity
  8
ON_OFF_PORTATASTO
100
AcDbLine
 62
7
  6
CONTINUOUS
 10
-28.7264731308
 20
39.7499832887
 11
-29.7802784881
 21
40.2768859674
  0
LINE
  5
41C
100
AcDbEntity
  8
ON_OFF_PORTATASTO
100
AcDbLine
 62
7
  6
CONTINUOUS
 10
-36.6011063247
 20
43.6872998857
 11
-38.7240047864
 21
44.7487491166
  0
LINE
  5
41D
100
AcDbEntity
  8
ON_OFF_PORTATASTO
100
AcDbLine
 62
250
  6
CONTINUOUS
 10
-11.3293640824
 20
31.159302571
 11
-12.6543487623
 21
31.8217949109
  0
LINE
  5
41E
100
AcDbEntity
  8
ON_OFF_PORTATASTO
100
AcDbLine
 62
250
  6
CONTINUOUS
 10
-24.6936822469
 20
37.8414616532
 11
-26.0186669267
 21
38.5039539931
  0
LINE
  5
41F
100
AcDbEntity
  8
ON_OFF_PORTATASTO
100
AcDbLine
 62
250
  6
CONTINUOUS
 10
-27.2392666591
 20
39.1142538594
 11
-28.564251339
 21
39.7767461993
  0
LINE
  5
420
100
AcDbEntity
  8
ON_OFF_PORTATASTO
100
AcDbLine
 62
250
  6
CONTINUOUS
 10
-40.6035848236
 20
45.7964129416
 11
-41.9285695034
 21
46.4589052815
  0
LINE
  5
421
100
AcDbEntity
  8
ON_OFF_PORTATASTO
100
AcDbLine
 62
250
  6
CONTINUOUS
 10
-15.0334500389
 20
33.1241446616
 11
-20.5447571386
 21
35.8797982115
  0
LINE
  5
422
100
AcDbEntity
  8
ON_OFF_PORTATASTO
100
AcDbLine
 62
250
  6
CONTINUOUS
 10
-30.9433526156
 20
41.07909595
 11
-36.4546597153
 21
43.8347494998
  0
LINE
  5
423
100
AcDbEntity
  8
ON_OFF_PORTATASTO
100
AcDbLine
 62
250
  6
CONTINUOUS
 10
-14.6106276591
 20
33.2265342261
 11
-20.6863823089
 21
36.264411551
  0
LINE
  5
424
100
AcDbEntity
  8
ON_OFF_PORTATASTO
100
AcDbLine
 62
250
  6
CONTINUOUS
 10
-30.5205302358
 20
41.1814855144
 11
-36.5962848856
 21
44.2193628393
  0
LINE
  5
425
100
AcDbEntity
  8
ON_OFF_PORTATASTO
100
AcDbLine
 62
7
  6
CONTINUOUS
 10
-38.8255303291
 20
45.3992015265
 11
-37.4113167667
 21
44.6920947453
  0
LINE
  5
426
100
AcDbEntity
  8
ON_OFF_PORTATASTO
100
AcDbLine
 62
7
  6
CONTINUOUS
 10
-9.5513095879
 20
30.7620911559
 11
-8.8443105169
 21
30.4085916204
  0
LINE
  5
427
100
AcDbEntity
  8
ON_OFF_PORTATASTO
100
AcDbLine
 62
7
  6
CONTINUOUS
 10
-36.1031692215
 20
44.5433497568
 11
-29.880629547
 21
41.4320799196
  0
LINE
  5
428
100
AcDbEntity
  8
ON_OFF_PORTATASTO
100
AcDbLine
 62
7
  6
CONTINUOUS
 10
-20.1932666448
 20
36.5883984685
 11
-13.9707269704
 21
33.4771286312
  0
LWPOLYLINE
  5
429
100
AcDbEntity
  8
ON_OFF_PORTATASTO
100
AcDbPolyline
 62
250
  6
CONTINUOUS
 90
16
 70
0
 10
-42.1043177594
 20
45.8145545324
 10
-42.1132956861
 20
45.8192840186
 10
-42.1217681364
 20
45.8242411578
 10
-42.129712055
 20
45.8294124605
 10
-42.1371058141
 20
45.8347838463
 10
-42.1439293062
 20
45.8403407062
 10
-42.1501639901
 20
45.8460679453
 10
-42.155792908
 20
45.8519499988
 10
-42.1608007139
 20
45.857970845
 10
-42.1651737532
 20
45.8641140729
 10
-42.1689001205
 20
45.8703629557
 10
-42.1719696823
 20
45.8767004975
 10
-42.1743740857
 20
45.8831094522
 10
-42.1761067886
 20
45.8895723846
 10
-42.1771630736
 20
45.896071702
 10
-42.1775410641
 20
45.9029420943
  0
LWPOLYLINE
  5
42A
100
AcDbEntity
  8
ON_OFF_PORTATASTO
100
AcDbPolyline
 62
250
  6
CONTINUOUS
 90
16
 70
0
 10
-42.1043177594
 20
46.1545284665
 10
-42.1132966624
 20
46.1592584947
 10
-42.121769991
 20
46.1642162361
 10
-42.1297146789
 20
46.1693881982
 10
-42.1371091055
 20
46.1747603104
 10
-42.1439331325
 20
46.1803179469
 10
-42.1501681645
 20
46.1860459646
 10
-42.1557972283
 20
46.1919287678
 10
-42.1608050084
 20
46.1979503482
 10
-42.165177873
 20
46.2040943108
 10
-42.1689039227
 20
46.2103439326
 10
-42.1719730189
 20
46.2166822023
 10
-42.1743768094
 20
46.2230918625
 10
-42.1761087573
 20
46.2295554718
 10
-42.1771641515
 20
46.2360554324
 10
-42.1775410641
 20
46.2429168142
  0
LWPOLYLINE
  5
42B
100
AcDbEntity
  8
ON_OFF_PORTATASTO
100
AcDbPolyline
 62
250
  6
CONTINUOUS
 90
16
 70
0
 10
-28.7399995949
 20
39.1323954502
 10
-28.7489775217
 20
39.1371249364
 10
-28.757449972
 20
39.1420820756
 10
-28.7653938906
 20
39.1472533783
 10
-28.7727876496
 20
39.152624764
 10
-28.7796111417
 20
39.158181624
 10
-28.7858458257
 20
39.1639088631
 10
-28.7914747436
 20
39.1697909166
 10
-28.7964825495
 20
39.1758117628
 10
-28.8008555888
 20
39.1819549907
 10
-28.804581956
 20
39.1882038735
 10
-28.8076515179
 20
39.1945414153
 10
-28.8100559212
 20
39.2009503699
 10
-28.8117886242
 20
39.2074133024
 10
-28.8128449092
 20
39.2139126198
 10
-28.8132228996
 20
39.220783012
  0
LWPOLYLINE
  5
42C
100
AcDbEntity
  8
ON_OFF_PORTATASTO
100
AcDbPolyline
 62
250
  6
CONTINUOUS
 90
16
 70
0
 10
-26.1944151827
 20
37.8596032441
 10
-26.2033931094
 20
37.8643327303
 10
-26.2118655597
 20
37.8692898694
 10
-26.2198094783
 20
37.8744611721
 10
-26.2272032374
 20
37.8798325579
 10
-26.2340267295
 20
37.8853894179
 10
-26.2402614134
 20
37.891116657
 10
-26.2458903313
 20
37.8969987105
 10
-26.2508981372
 20
37.9030195566
 10
-26.2552711765
 20
37.9091627846
 10
-26.2589975438
 20
37.9154116673
 10
-26.2620671056
 20
37.9217492091
 10
-26.264471509
 20
37.9281581638
 10
-26.2662042119
 20
37.9346210963
 10
-26.2672604969
 20
37.9411204136
 10
-26.2676384874
 20
37.9479908059
  0
LWPOLYLINE
  5
42D
100
AcDbEntity
  8
ON_OFF_PORTATASTO
100
AcDbPolyline
 62
250
  6
CONTINUOUS
 90
16
 70
0
 10
-28.7399995949
 20
39.4723693843
 10
-28.7489766621
 20
39.4770983934
 10
-28.7574483548
 20
39.4820550119
 10
-28.7653916241
 20
39.4872257545
 10
-28.7727848592
 20
39.4925965533
 10
-28.7796079454
 20
39.4981527961
 10
-28.7858423194
 20
39.5038793663
 10
-28.7914710196
 20
39.5097606837
 10
-28.7964787321
 20
39.5157807472
 10
-28.8008518325
 20
39.5219231783
 10
-28.8045784232
 20
39.5281712653
 10
-28.8076483652
 20
39.5345080093
 10
-28.8100533064
 20
39.5409161702
 10
-28.8117867036
 20
39.5473783133
 10
-28.8128438408
 20
39.5538768575
 10
-28.8132228996
 20
39.560757732
  0
LWPOLYLINE
  5
42E
100
AcDbEntity
  8
ON_OFF_PORTATASTO
100
AcDbPolyline
 62
250
  6
CONTINUOUS
 90
16
 70
0
 10
-26.1944151827
 20
38.1995771782
 10
-26.2033940857
 20
38.2043072063
 10
-26.2118674143
 20
38.2092649478
 10
-26.2198121022
 20
38.2144369099
 10
-26.2272065288
 20
38.2198090221
 10
-26.2340305558
 20
38.2253666586
 10
-26.2402655878
 20
38.2310946762
 10
-26.2458946516
 20
38.2369774794
 10
-26.2509024317
 20
38.2429990598
 10
-26.2552752963
 20
38.2491430225
 10
-26.259001346
 20
38.2553926442
 10
-26.2620704422
 20
38.2617309139
 10
-26.2644742327
 20
38.2681405742
 10
-26.2662061806
 20
38.2746041835
 10
-26.2672615748
 20
38.2811041441
 10
-26.2676384874
 20
38.2879655258
  0
LWPOLYLINE
  5
42F
100
AcDbEntity
  8
ON_OFF_PORTATASTO
100
AcDbPolyline
 62
250
  6
CONTINUOUS
 90
16
 70
0
 10
-12.8300970182
 20
31.1774441618
 10
-12.839074945
 20
31.1821736481
 10
-12.8475473953
 20
31.1871307872
 10
-12.8554913139
 20
31.1923020899
 10
-12.8628850729
 20
31.1976734757
 10
-12.869708565
 20
31.2032303356
 10
-12.875943249
 20
31.2089575748
 10
-12.8815721669
 20
31.2148396283
 10
-12.8865799728
 20
31.2208604744
 10
-12.8909530121
 20
31.2270037024
 10
-12.8946793793
 20
31.2332525851
 10
-12.8977489412
 20
31.2395901269
 10
-12.9001533445
 20
31.2459990816
 10
-12.9018860475
 20
31.252462014
 10
-12.9029423325
 20
31.2589613314
 10
-12.9033203229
 20
31.2658317237
  0
LWPOLYLINE
  5
430
100
AcDbEntity
  8
ON_OFF_PORTATASTO
100
AcDbPolyline
 62
250
  6
CONTINUOUS
 90
16
 70
0
 10
-12.8300970182
 20
31.517418096
 10
-12.8390740854
 20
31.5221471051
 10
-12.8475457781
 20
31.5271037236
 10
-12.8554890474
 20
31.5322744661
 10
-12.8628822825
 20
31.5376452649
 10
-12.8697053687
 20
31.5432015078
 10
-12.8759397427
 20
31.5489280779
 10
-12.8815684429
 20
31.5548093954
 10
-12.8865761554
 20
31.5608294589
 10
-12.8909492558
 20
31.5669718899
 10
-12.8946758465
 20
31.5732199769
 10
-12.8977457886
 20
31.579556721
 10
-12.9001507297
 20
31.5859648818
 10
-12.9018841269
 20
31.592427025
 10
-12.9029412641
 20
31.5989255691
 10
-12.9033203229
 20
31.6058064436
  0
LWPOLYLINE
  5
431
100
AcDbEntity
  8
ON_OFF_PORTATASTO
100
AcDbPolyline
 62
7
  6
CONTINUOUS
 90
37
 70
0
 10
-9.4499747691
 20
30.1113262176
 10
-9.4349967975
 20
30.1025937045
 10
-9.4200251555
 20
30.0930715388
 10
-9.4050880901
 20
30.0827732702
 10
-9.3901978736
 20
30.0717018935
 10
-9.3753994637
 20
30.0598848497
 10
-9.3607688057
 20
30.0473817769
 10
-9.346342947
 20
30.0342295234
 10
-9.3321371218
 20
30.0204465409
 10
-9.3181915083
 20
30.0060753842
 10
-9.3045501065
 20
29.9911701672
 10
-9.2912147744
 20
29.9757418741
 10
-9.2781637055
 20
29.9597655152
 10
-9.2654138588
 20
29.9432585311
 10
-9.2529977401
 20
29.926259936
 10
-9.2409211848
 20
29.9087707263
 10
-9.229190604
 20
29.8907907633
 10
-9.2178511577
 20
29.8723789659
 10
-9.2069636297
 20
29.8536282778
 10
-9.1965489209
 20
29.8345788751
 10
-9.1866232802
 20
29.8152637876
 10
-9.1772306129
 20
29.7957717314
 10
-9.1683861011
 20
29.7761498258
 10
-9.1600964902
 20
29.7564288271
 10
-9.152384633
 20
29.7366751894
 10
-9.1452618437
 20
29.7169439551
 10
-9.1387254158
 20
29.6972554774
 10
-9.1327745858
 20
29.6776234067
 10
-9.1274135063
 20
29.6580857468
 10
-9.1226434573
 20
29.6386742873
 10
-9.1184620366
 20
29.6193923148
 10
-9.1148706631
 20
29.6002664377
 10
-9.1118723279
 20
29.5813361221
 10
-9.1094688129
 20
29.5626234847
 10
-9.1076608238
 20
29.5441568108
 10
-9.1064470821
 20
29.5259702457
 10
-9.1058256537
 20
29.5080938544
  0
LWPOLYLINE
  5
432
100
AcDbEntity
  8
ON_OFF_PORTATASTO
100
AcDbPolyline
 62
250
  6
CONTINUOUS
 90
15
 70
0
 10
-9.0230424162
 20
31.573042339
 10
-9.0186992633
 20
31.5656972376
 10
-9.0148514492
 20
31.5586096769
 10
-9.0115098804
 20
31.5517992038
 10
-9.0086838603
 20
31.5452840501
 10
-9.006381866
 20
31.5390828961
 10
-9.0046110377
 20
31.5332145212
 10
-9.0033763089
 20
31.5276954908
 10
-9.0026808469
 20
31.5225402704
 10
-9.0025265537
 20
31.5177628227
 10
-9.0029139025
 20
31.5133761536
 10
-9.0038418834
 20
31.5093923577
 10
-9.0053079586
 20
31.5058224318
 10
-9.0073081029
 20
31.5026761538
 10
-9.0076818438
 20
31.5022071724
  0
LWPOLYLINE
  5
433
100
AcDbEntity
  8
ON_OFF_CORPO
100
AcDbPolyline
 62
7
  6
CONTINUOUS
 90
3
 70
0
 10
-9.3302726206
 20
39.2005895967
 10
-9.3333245999
 20
39.2136197936
 10
-9.3373403786
 20
39.2288552363
  0
LINE
  5
434
100
AcDbEntity
  8
ON_OFF_CORPO
100
AcDbLine
 62
7
  6
CONTINUOUS
 10
-9.4668036585
 20
43.253905733
 11
-9.3038222145
 21
42.4274861489
  0
LWPOLYLINE
  5
435
100
AcDbEntity
  8
ON_OFF_PORTATASTO
100
AcDbPolyline
 62
250
  6
CONTINUOUS
 90
7
 70
0
 10
-3.6854519331
 20
33.8189440732
 10
-3.6844975434
 20
33.8081360456
 10
-3.6837163343
 20
33.7972187047
 10
-3.6831083059
 20
33.7861920505
 10
-3.682673458
 20
33.775056083
 10
-3.6824117907
 20
33.7638108022
 10
-3.6823233041
 20
33.7524562081
  0
LINE
  5
436
100
AcDbEntity
  8
ON_OFF_CONTATTI
100
AcDbLine
 62
7
  6
CONTINUOUS
 10
-2.4065895783
 20
34.4042780474
 11
-2.4065895783
 21
34.2811434183
  0
LINE
  5
437
100
AcDbEntity
  8
ON_OFF_CONTATTI
100
AcDbLine
 62
7
  6
CONTINUOUS
 10
-2.1551104978
 20
34.8766377515
 11
-2.1551104978
 21
34.2726720135
  0
LINE
  5
438
100
AcDbEntity
  8
ON_OFF_CORPO
100
AcDbLine
 62
7
  6
CONTINUOUS
 10
-1.9499116902
 20
35.5967303812
 11
-1.9499116902
 21
35.8666029746
  0
LINE
  5
439
100
AcDbEntity
  8
ON_OFF_CONTATTI
100
AcDbLine
 62
7
  6
CONTINUOUS
 10
-1.7053658364
 20
34.7548899184
 11
-1.7053658364
 21
34.2812599364
  0
LINE
  5
43A
100
AcDbEntity
  8
ON_OFF_CORPO
100
AcDbLine
 62
250
  6
CONTINUOUS
 10
-0.6276888028
 20
-0.3293173365
 11
-0.6276888028
 21
6.6379118377
  0
LWPOLYLINE
  5
43B
100
AcDbEntity
  8
ON_OFF_CORPO
100
AcDbPolyline
 62
250
  6
CONTINUOUS
 90
46
 70
0
 10
-0.6276888028
 20
6.6379118377
 10
-0.6271840257
 20
6.6763991349
 10
-0.6256177627
 20
6.7154399043
 10
-0.6229900138
 20
6.7550341459
 10
-0.6193022037
 20
6.795245223
 10
-0.6145529076
 20
6.8360097723
 10
-0.6087378515
 20
6.8771377039
 10
-0.6018479134
 20
6.9186317056
 10
-0.5938922153
 20
6.9604890897
 10
-0.5848938491
 20
7.0025117025
 10
-0.5748437808
 20
7.0447015899
 10
-0.5637510445
 20
7.087056706
 10
-0.5516658338
 20
7.1293727599
 10
-0.5385830554
 20
7.1716418023
 10
-0.5245078026
 20
7.2138717825
 10
-0.509505549
 20
7.2558822568
 10
-0.4935767169
 20
7.2976595115
 10
-0.4767208839
 20
7.3392172603
 10
-0.4590022567
 20
7.3804161999
 10
-0.4404209372
 20
7.4212509396
 10
-0.4209768234
 20
7.46172687
 10
-0.4007338158
 20
7.50172086
 10
-0.3796904951
 20
7.5412322356
 10
-0.3578482806
 20
7.5802616706
 10
-0.3352753304
 20
7.6186880563
 10
-0.3119703795
 20
7.6565103711
 10
-0.2879346931
 20
7.6937296365
 10
-0.2632402242
 20
7.730227808
 10
-0.2378838644
 20
7.7660059374
 10
-0.2118687223
 20
7.8010629729
 10
-0.1852760764
 20
7.8352777151
 10
-0.1580967317
 20
7.8686556093
 10
-0.1303398833
 20
7.9011912102
 10
-0.1021143947
 20
7.9327469828
 10
-0.0734097299
 20
7.9633241512
 10
-0.0442364249
 20
7.9929214913
 10
-0.014734951
 20
8.0213977953
 10
0.0150974942
 20
8.0487435585
 10
0.0452581083
 20
8.0749682857
 10
0.0755980132
 20
8.099959283
 10
0.1061180664
 20
8.1237055618
 10
0.1368174103
 20
8.1462181106
 10
0.1675445947
 20
8.1674172024
 10
0.1982491361
 20
8.1872762612
 10
0.2289815181
 20
8.2058218628
 10
0.2597417405
 20
8.2230540073
  0
LWPOLYLINE
  5
43C
100
AcDbEntity
  8
ON_OFF_PORTATASTO
100
AcDbPolyline
 62
7
  6
CONTINUOUS
 90
5
 70
0
 10
-3.5944553384
 20
-3.0712606974
 10
-3.5950856634
 20
-3.1077303892
 10
-3.5969600156
 20
-3.1443658734
 10
-3.6000542511
 20
-3.1811274538
 10
-3.6044093522
 20
-3.2184596453
  0
LWPOLYLINE
  5
43D
100
AcDbEntity
  8
ON_OFF_PORTATASTO
100
AcDbPolyline
 62
250
  6
CONTINUOUS
 90
16
 70
0
 10
-3.5944553384
 20
-3.0712606974
 10
-3.5948664783
 20
-3.0791110936
 10
-3.5960987704
 20
-3.0869399696
 10
-3.5981488371
 20
-3.0947258698
 10
-3.6010110593
 20
-3.1024474536
 10
-3.6046775919
 20
-3.1100835567
 10
-3.6091383851
 20
-3.1176132489
 10
-3.6143812121
 20
-3.125015892
 10
-3.6203917029
 20
-3.1322711958
 10
-3.6271533829
 20
-3.1393592741
 10
-3.634647719
 20
-3.1462606989
 10
-3.6428541696
 20
-3.1529565538
 10
-3.6517502414
 20
-3.1594284861
 10
-3.661311551
 20
-3.1656587567
 10
-3.6715118913
 20
-3.1716302886
 10
-3.6823233041
 20
-3.1773267146
  0
LWPOLYLINE
  5
43E
100
AcDbEntity
  8
ON_OFF_CORPO
100
AcDbPolyline
 62
7
  6
CONTINUOUS
 90
67
 70
0
 10
6.529543332
 20
16.7631436109
 10
6.5752569167
 20
16.7940978718
 10
6.6200490196
 20
16.8272647003
 10
6.6638511472
 20
16.8626489705
 10
6.7066246575
 20
16.9002795282
 10
6.7482707071
 20
16.940130947
 10
6.7886417945
 20
16.9821114988
 10
6.8276595217
 20
17.0261765379
 10
6.8652961617
 20
17.0723326991
 10
6.9014949048
 20
17.12055213
 10
6.9362016452
 20
17.1708043139
 10
6.9693764344
 20
17.2230750194
 10
7.0009868423
 20
17.2773630864
 10
7.0310343483
 20
17.3337385295
 10
7.0594222905
 20
17.3920922144
 10
7.0859957175
 20
17.4521350006
 10
7.1107092843
 20
17.5137490856
 10
7.1335786166
 20
17.5769585508
 10
7.1545710583
 20
17.6416619602
 10
7.1736512677
 20
17.7077155025
 10
7.1908418406
 20
17.7751617338
 10
7.2061835297
 20
17.8441875485
 10
7.2196826959
 20
17.9149453357
 10
7.2312694495
 20
17.9872142204
 10
7.2408782696
 20
18.0606141331
 10
7.2485036778
 20
18.1350050167
 10
7.2541598674
 20
18.2104096682
 10
7.2578464292
 20
18.286668751
 10
7.259574358
 20
18.3636603704
 10
7.2593594696
 20
18.4413801324
 10
7.2572117537
 20
18.5198400455
 10
7.2531362117
 20
18.599029558
 10
7.2471426388
 20
18.678836912
 10
7.2392497575
 20
18.7591190749
 10
7.2294745271
 20
18.8398074475
 10
7.2178339214
 20
18.9208408095
 10
7.2043589058
 20
19.0020816268
 10
7.1890819948
 20
19.0834206779
 10
7.1720213139
 20
19.1648348558
 10
7.1531891437
 20
19.2463134432
 10
7.1326078025
 20
19.3277931199
 10
7.1103014602
 20
19.4092067047
 10
7.0862802175
 20
19.4905365928
 10
7.0605556386
 20
19.5717511885
 10
7.0331609397
 20
19.6527513302
 10
7.0041408146
 20
19.733417378
 10
6.9735333682
 20
19.8136610802
 10
6.9413599252
 20
19.8934421587
 10
6.9076439374
 20
19.9727130341
 10
6.8724157476
 20
20.0514102167
 10
6.8357066279
 20
20.1294704532
 10
6.7975409907
 20
20.2068462024
 10
6.7579507283
 20
20.2834751035
 10
6.7169687537
 20
20.3592948766
 10
6.6746205678
 20
20.4342580171
 10
6.630939771
 20
20.5083030669
 10
6.585960725
 20
20.5813691347
 10
6.5397095189
 20
20.6534096719
 10
6.4922040958
 20
20.7243894946
 10
6.4434965869
 20
20.7942229616
 10
6.3936673387
 20
20.8627919054
 10
6.3427868205
 20
20.9300019294
 10
6.2908661444
 20
20.9958402072
 10
6.2378967379
 20
21.0603126414
 10
6.1839083267
 20
21.1233732134
 10
6.1289480437
 20
21.1849565082
 10
6.1182762155
 20
21.1964222862
  0
LINE
  5
43F
100
AcDbEntity
  8
ON_OFF_CORPO
100
AcDbLine
 62
7
  6
CONTINUOUS
 10
6.5295433324
 20
16.7631436111
 11
6.1182762155
 21
16.4971395122
  0
LWPOLYLINE
  5
440
100
AcDbEntity
  8
ON_OFF_CORPO
100
AcDbPolyline
 62
250
  6
CONTINUOUS
 90
19
 70
0
 10
6.4528432451
 20
14.3605148471
 10
6.4674920645
 20
14.3682384014
 10
6.4814434273
 20
14.3762714805
 10
6.4946714401
 20
14.3845987317
 10
6.5071512631
 20
14.3932036908
 10
6.5188600874
 20
14.4020705068
 10
6.5297769854
 20
14.4111840354
 10
6.5398819811
 20
14.4205274161
 10
6.5491556701
 20
14.4300825203
 10
6.5575802196
 20
14.4398316821
 10
6.5651398069
 20
14.4497561425
 10
6.5718206687
 20
14.4598373329
 10
6.5776105609
 20
14.470057371
 10
6.5824987163
 20
14.4803969671
 10
6.5864760174
 20
14.4908365154
 10
6.5895351003
 20
14.5013573525
 10
6.5916702451
 20
14.5119397633
 10
6.5928773881
 20
14.5225636117
 10
6.5931733318
 20
14.5309951212
  0
LWPOLYLINE
  5
441
100
AcDbEntity
  8
ON_OFF_CORPO
100
AcDbPolyline
 62
250
  6
CONTINUOUS
 90
37
 70
0
 10
6.3114434281
 20
14.6043934564
 10
6.3202431735
 20
14.6089563727
 10
6.3285989467
 20
14.6136887851
 10
6.3365107474
 20
14.6185906937
 10
6.3439928742
 20
14.6236724243
 10
6.3510310285
 20
14.6289236511
 10
6.3575823157
 20
14.6343133965
 10
6.3636429292
 20
14.6398419541
 10
6.3692166755
 20
14.6455090303
 10
6.3742720787
 20
14.6512827666
 10
6.3788060592
 20
14.6571636117
 10
6.3828216967
 20
14.6631511169
 10
6.3862967549
 20
14.6692120773
 10
6.3892282798
 20
14.6753469127
 10
6.3916192253
 20
14.6815552033
 10
6.3934562167
 20
14.6878024855
 10
6.3947361778
 20
14.6940890556
 10
6.3954621848
 20
14.7004146173
 10
6.3956300911
 20
14.7067438175
 10
6.3952367282
 20
14.7130767002
 10
6.3942852647
 20
14.7194132216
 10
6.3927810604
 20
14.7257178974
 10
6.3907210251
 20
14.7319904722
 10
6.388108249
 20
14.7382312015
 10
6.3849573628
 20
14.744405368
 10
6.3812654217
 20
14.7505125662
 10
6.3770353705
 20
14.7565532016
 10
6.3722906738
 20
14.7624937729
 10
6.3670282649
 20
14.7683338767
 10
6.3612512104
 20
14.7740739163
 10
6.3549921751
 20
14.7796816015
 10
6.3482475349
 20
14.7851565861
 10
6.3410209139
 20
14.7904992163
 10
6.3333558485
 20
14.7956782396
 10
6.3252668508
 20
14.8006832387
 10
6.3167394087
 20
14.8055246308
 10
6.3077735223
 20
14.8102024162
  0
LINE
  5
442
100
AcDbEntity
  8
ON_OFF_CORPO
100
AcDbLine
 62
250
  6
CONTINUOUS
 10
0.2548696993
 20
11.6002882373
 11
6.3114434281
 21
14.6043934564
  0
LINE
  5
443
100
AcDbEntity
  8
ON_OFF_CORPO
100
AcDbLine
 62
250
  6
CONTINUOUS
 10
0.3962695164
 20
11.356409628
 11
6.4528432451
 21
14.3605148471
  0
LINE
  5
444
100
AcDbEntity
  8
ON_OFF_PORTATASTO
100
AcDbLine
 62
7
  6
CONTINUOUS
 10
-11.4251425581
 20
37.5576398876
 11
-12.7850744982
 21
37.4838917002
  0
LINE
  5
445
100
AcDbEntity
  8
ON_OFF_PORTATASTO
100
AcDbLine
 62
7
  6
CONTINUOUS
 10
-24.7437520367
 20
37.0407770195
 11
-24.1195564397
 21
36.9104443997
  0
LINE
  5
446
100
AcDbEntity
  8
ON_OFF_PORTATASTO
100
AcDbLine
 62
250
  6
CONTINUOUS
 10
-24.5169085432
 20
37.1965981803
 11
-23.8056879351
 21
37.0480946574
  0
LINE
  5
447
100
AcDbEntity
  8
ON_OFF_PORTATASTO
100
AcDbLine
 62
7
  6
CONTINUOUS
 10
-27.289336449
 20
38.3135692256
 11
-26.6651408519
 21
38.1832366058
  0
LINE
  5
448
100
AcDbEntity
  8
ON_OFF_PORTATASTO
100
AcDbLine
 62
250
  6
CONTINUOUS
 10
-27.0624929555
 20
38.4693903864
 11
-26.3512723474
 21
38.3208868636
  0
LWPOLYLINE
  5
449
100
AcDbEntity
  8
ON_OFF_PORTATASTO
100
AcDbPolyline
 62
250
  6
CONTINUOUS
 90
14
 70
0
 10
-9.0890411603
 20
32.2320532857
 10
-9.0964672157
 20
32.2353722629
 10
-9.1040500474
 20
32.2380100589
 10
-9.1118963588
 20
32.2400230373
 10
-9.1199845334
 20
32.2414056787
 10
-9.1282923669
 20
32.2421542662
 10
-9.1367973946
 20
32.2422668518
 10
-9.1454767104
 20
32.2417431599
 10
-9.1543085487
 20
32.2405843081
 10
-9.1632670762
 20
32.2387934936
 10
-9.1723224839
 20
32.2363772165
 10
-9.1814481687
 20
32.2333438236
 10
-9.1906210289
 20
32.2297022309
 10
-9.1998161199
 20
32.2254633946
  0
LWPOLYLINE
  5
44A
100
AcDbEntity
  8
ON_OFF_PORTATASTO
100
AcDbPolyline
 62
250
  6
CONTINUOUS
 90
14
 70
0
 10
-10.4263673209
 20
32.9007163659
 10
-10.4337933762
 20
32.9040353432
 10
-10.4413762079
 20
32.9066731392
 10
-10.4492225194
 20
32.9086861175
 10
-10.457310694
 20
32.910068759
 10
-10.4656185274
 20
32.9108173464
 10
-10.4741235551
 20
32.9109299321
 10
-10.482802871
 20
32.9104062402
 10
-10.4916347092
 20
32.9092473884
 10
-10.5005932367
 20
32.9074565739
 10
-10.5096486444
 20
32.9050402968
 10
-10.5187743292
 20
32.9020069039
 10
-10.5279471894
 20
32.8983653112
 10
-10.5371422804
 20
32.8941264748
  0
LWPOLYLINE
  5
44B
100
AcDbEntity
  8
ON_OFF_PORTATASTO
100
AcDbPolyline
 62
250
  6
CONTINUOUS
 90
14
 70
0
 10
-24.998943737
 20
40.187004574
 10
-25.0063697924
 20
40.1903235512
 10
-25.0139526241
 20
40.1929613473
 10
-25.0217989355
 20
40.1949743256
 10
-25.0298871101
 20
40.1963569671
 10
-25.0381949436
 20
40.1971055545
 10
-25.0466999712
 20
40.1972181402
 10
-25.0553792871
 20
40.1966944483
 10
-25.0642111254
 20
40.1955355965
 10
-25.0731696529
 20
40.193744782
 10
-25.0822250606
 20
40.1913285049
 10
-25.0913507454
 20
40.188295112
 10
-25.1005236056
 20
40.1846535192
 10
-25.1097186966
 20
40.1804146829
  0
LWPOLYLINE
  5
44C
100
AcDbEntity
  8
ON_OFF_PORTATASTO
100
AcDbPolyline
 62
250
  6
CONTINUOUS
 90
14
 70
0
 10
-26.3362698976
 20
40.8556676543
 10
-26.3436959529
 20
40.8589866315
 10
-26.3512787846
 20
40.8616244275
 10
-26.3591250961
 20
40.8636374059
 10
-26.3672132707
 20
40.8650200473
 10
-26.3755211041
 20
40.8657686348
 10
-26.3840261318
 20
40.8658812204
 10
-26.3927054477
 20
40.8653575286
 10
-26.4015372859
 20
40.8641986767
 10
-26.4104958134
 20
40.8624078623
 10
-26.4195512211
 20
40.8599915852
 10
-26.4286769059
 20
40.8569581923
 10
-26.4378497661
 20
40.8533165995
 10
-26.4470448571
 20
40.8490777632
  0
LWPOLYLINE
  5
44D
100
AcDbEntity
  8
ON_OFF_PORTATASTO
100
AcDbPolyline
 62
250
  6
CONTINUOUS
 90
14
 70
0
 10
-22.4533593247
 20
38.9142123679
 10
-22.4607574055
 20
38.9175202617
 10
-22.4683376228
 20
38.9201599152
 10
-22.4761812692
 20
38.9221750272
 10
-22.4842670047
 20
38.9235601152
 10
-22.4925728308
 20
38.9243114109
 10
-22.5010761499
 20
38.9244268702
 10
-22.5097538275
 20
38.923906179
 10
-22.5185822543
 20
38.922750754
 10
-22.5275374112
 20
38.9209637387
 10
-22.5365949342
 20
38.9185499949
 10
-22.5457301806
 20
38.9155160897
 10
-22.5549182966
 20
38.9118702773
 10
-22.5641342843
 20
38.9076224768
  0
LWPOLYLINE
  5
44E
100
AcDbEntity
  8
ON_OFF_PORTATASTO
100
AcDbPolyline
 62
250
  6
CONTINUOUS
 90
14
 70
0
 10
-23.7906854853
 20
39.5828754482
 10
-23.798083566
 20
39.586183342
 10
-23.8056637833
 20
39.5888229955
 10
-23.8135074297
 20
39.5908381074
 10
-23.8215931653
 20
39.5922231955
 10
-23.8298989913
 20
39.5929744911
 10
-23.8384023105
 20
39.5930899505
 10
-23.847079988
 20
39.5925692593
 10
-23.8559084149
 20
39.5914138343
 10
-23.8648635718
 20
39.589626819
 10
-23.8739210947
 20
39.5872130752
 10
-23.8830563412
 20
39.58417917
 10
-23.8922444572
 20
39.5805333576
 10
-23.9014604448
 20
39.5762855571
  0
LWPOLYLINE
  5
44F
100
AcDbEntity
  8
ON_OFF_PORTATASTO
100
AcDbPolyline
 62
250
  6
CONTINUOUS
 90
14
 70
0
 10
-38.3632619014
 20
46.8691636562
 10
-38.3706599822
 20
46.8724715501
 10
-38.3782401995
 20
46.8751112036
 10
-38.3860838459
 20
46.8771263155
 10
-38.3941695814
 20
46.8785114035
 10
-38.4024754075
 20
46.8792626992
 10
-38.4109787266
 20
46.8793781585
 10
-38.4196564042
 20
46.8788574674
 10
-38.428484831
 20
46.8777020424
 10
-38.4374399879
 20
46.875915027
 10
-38.4464975109
 20
46.8735012833
 10
-38.4556327573
 20
46.8704673781
 10
-38.4648208733
 20
46.8668215657
 10
-38.474036861
 20
46.8625737651
  0
LWPOLYLINE
  5
450
100
AcDbEntity
  8
ON_OFF_PORTATASTO
100
AcDbPolyline
 62
250
  6
CONTINUOUS
 90
14
 70
0
 10
-39.700588062
 20
47.5378267365
 10
-39.7079861427
 20
47.5411346304
 10
-39.71556636
 20
47.5437742838
 10
-39.7234100064
 20
47.5457893958
 10
-39.731495742
 20
47.5471744838
 10
-39.739801568
 20
47.5479257795
 10
-39.7483048872
 20
47.5480412388
 10
-39.7569825647
 20
47.5475205476
 10
-39.7658109916
 20
47.5463651226
 10
-39.7747661485
 20
47.5445781073
 10
-39.7838236714
 20
47.5421643636
 10
-39.7929589179
 20
47.5391304583
 10
-39.8021470339
 20
47.5354846459
 10
-39.8113630215
 20
47.5312368454
  0
LWPOLYLINE
  5
451
100
AcDbEntity
  8
ON_OFF_CORPO
100
AcDbPolyline
 62
7
  6
CONTINUOUS
 90
16
 70
0
 10
-14.9623352367
 20
35.9797833273
 10
-14.9785088534
 20
35.9871567912
 10
-14.9945525553
 20
35.9936733735
 10
-15.0104342311
 20
35.9993189232
 10
-15.0261210124
 20
36.0040820612
 10
-15.0415818335
 20
36.0079514317
 10
-15.0567875575
 20
36.0109161473
 10
-15.0716995911
 20
36.0129697096
 10
-15.0862944331
 20
36.0141091988
 10
-15.100565365
 20
36.0143289504
 10
-15.114501535
 20
36.0136240934
 10
-15.1280510413
 20
36.0119910929
 10
-15.1411486567
 20
36.0094360466
 10
-15.1538098853
 20
36.0059588604
 10
-15.1659654472
 20
36.0015795918
 10
-15.1729232737
 20
35.9985639901
  0
LWPOLYLINE
  5
452
100
AcDbEntity
  8
ON_OFF_CORPO
100
AcDbPolyline
 62
7
  6
CONTINUOUS
 90
16
 70
0
 10
-30.8722378134
 20
43.9347346156
 10
-30.8884114305
 20
43.9421080797
 10
-30.9044551327
 20
43.9486246621
 10
-30.9203368089
 20
43.9542702119
 10
-30.9360235905
 20
43.95903335
 10
-30.951484412
 20
43.9629027205
 10
-30.9666901363
 20
43.965867436
 10
-30.9816021702
 20
43.9679209982
 10
-30.9961970125
 20
43.9690604873
 10
-31.0104679446
 20
43.9692802387
 10
-31.0244041149
 20
43.9685753814
 10
-31.0379536215
 20
43.9669423807
 10
-31.0510512371
 20
43.9643873341
 10
-31.0637124657
 20
43.9609101475
 10
-31.0758680277
 20
43.9565308786
 10
-31.0828258504
 20
43.9535152784
  0
LWPOLYLINE
  5
453
100
AcDbEntity
  8
ON_OFF_CORPO
100
AcDbPolyline
 62
250
  6
CONTINUOUS
 90
13
 70
0
 10
-13.8817828965
 20
36.1107750027
 10
-13.8855259142
 20
36.1125194637
 10
-13.892143797
 20
36.1150239937
 10
-13.8990239441
 20
36.1169211827
 10
-13.9061435384
 20
36.1182047391
 10
-13.9134789687
 20
36.1188704059
 10
-13.9210059081
 20
36.1189159757
 10
-13.9286993944
 20
36.1183412974
 10
-13.9365339132
 20
36.1171482766
 10
-13.9444834824
 20
36.11534087
 10
-13.9525217382
 20
36.1129250716
 10
-13.9606220228
 20
36.1099088929
 10
-13.9687574728
 20
36.1063023369
  0
LWPOLYLINE
  5
454
100
AcDbEntity
  8
ON_OFF_CORPO
100
AcDbPolyline
 62
250
  6
CONTINUOUS
 90
13
 70
0
 10
-29.7916854732
 20
44.0657262911
 10
-29.7954284909
 20
44.0674707521
 10
-29.8020463737
 20
44.0699752821
 10
-29.8089265208
 20
44.0718724711
 10
-29.8160461151
 20
44.0731560274
 10
-29.8233815454
 20
44.0738216943
 10
-29.8309084848
 20
44.0738672641
 10
-29.8386019711
 20
44.0732925857
 10
-29.8464364899
 20
44.072099565
 10
-29.8543860591
 20
44.0702921584
 10
-29.8624243149
 20
44.0678763599
 10
-29.8705245995
 20
44.0648601813
 10
-29.8786600495
 20
44.0612536252
  0
LWPOLYLINE
  5
455
100
AcDbEntity
  8
ON_OFF_PORTATASTO
100
AcDbPolyline
 62
7
  6
CONTINUOUS
 90
14
 70
0
 10
-11.0715921591
 20
32.6337790083
 10
-11.0808435748
 20
32.6381082289
 10
-11.0900698898
 20
32.6418320513
 10
-11.0992456822
 20
32.644940335
 10
-11.1083455695
 20
32.6474246777
 10
-11.1173446006
 20
32.6492782713
 10
-11.1262183237
 20
32.6504959212
 10
-11.1349423476
 20
32.6510743229
 10
-11.143492642
 20
32.6510119485
 10
-11.1518459257
 20
32.6503088855
 10
-11.159979265
 20
32.648967078
 10
-11.167870277
 20
32.6469902476
 10
-11.175497425
 20
32.6443837625
 10
-11.1825243726
 20
32.6413091536
  0
LWPOLYLINE
  5
456
100
AcDbEntity
  8
ON_OFF_PORTATASTO
100
AcDbPolyline
 62
7
  6
CONTINUOUS
 90
14
 70
0
 10
-24.4359103235
 20
39.3159380905
 10
-24.4451617392
 20
39.3202673112
 10
-24.4543880542
 20
39.3239911335
 10
-24.4635638466
 20
39.3270994172
 10
-24.472663734
 20
39.3295837599
 10
-24.481662765
 20
39.3314373535
 10
-24.4905364881
 20
39.3326550034
 10
-24.499260512
 20
39.3332334051
 10
-24.5078108064
 20
39.3331710307
 10
-24.5161640901
 20
39.3324679677
 10
-24.5242974295
 20
39.3311261602
 10
-24.5321884414
 20
39.3291493298
 10
-24.5398155894
 20
39.3265428447
 10
-24.546842537
 20
39.3234682358
  0
LWPOLYLINE
  5
457
100
AcDbEntity
  8
ON_OFF_PORTATASTO
100
AcDbPolyline
 62
7
  6
CONTINUOUS
 90
14
 70
0
 10
-26.9814947358
 20
40.5887302966
 10
-26.9907461515
 20
40.5930595173
 10
-26.9999724665
 20
40.5967833397
 10
-27.0091482589
 20
40.5998916233
 10
-27.0182481462
 20
40.602375966
 10
-27.0272471773
 20
40.6042295597
 10
-27.0361209004
 20
40.6054472095
 10
-27.0448449243
 20
40.6060256112
 10
-27.0533952187
 20
40.6059632369
 10
-27.0617485024
 20
40.6052601738
 10
-27.0698818417
 20
40.6039183663
 10
-27.0777728537
 20
40.601941536
 10
-27.0854000017
 20
40.5993350508
 10
-27.0924269493
 20
40.5962604419
  0
LWPOLYLINE
  5
458
100
AcDbEntity
  8
ON_OFF_PORTATASTO
100
AcDbPolyline
 62
7
  6
CONTINUOUS
 90
14
 70
0
 10
-40.3458129002
 20
47.2708893788
 10
-40.3550643159
 20
47.2752185995
 10
-40.3642906309
 20
47.2789424219
 10
-40.3734664233
 20
47.2820507056
 10
-40.3825663107
 20
47.2845350482
 10
-40.3915653417
 20
47.2863886419
 10
-40.4004390648
 20
47.2876062917
 10
-40.4091630887
 20
47.2881846934
 10
-40.4177133831
 20
47.2881223191
 10
-40.4260666668
 20
47.287419256
 10
-40.4342000062
 20
47.2860774486
 10
-40.4420910181
 20
47.2841006182
 10
-40.4497181661
 20
47.281494133
 10
-40.4567451137
 20
47.2784195241
  0
LWPOLYLINE
  5
459
100
AcDbEntity
  8
ON_OFF_PORTATASTO
100
AcDbPolyline
 62
250
  6
CONTINUOUS
 90
14
 70
0
 10
-10.5371422804
 20
32.8941264748
 10
-10.5463412901
 20
32.8984813115
 10
-10.5555179058
 20
32.9022294098
 10
-10.564646976
 20
32.9053604969
 10
-10.5737034799
 20
32.9078659909
 10
-10.5826625951
 20
32.9097390249
 10
-10.5914997664
 20
32.9109744652
 10
-10.6001907728
 20
32.9115689257
 10
-10.6087117939
 20
32.9115207771
 10
-10.6170394751
 20
32.9108301513
 10
-10.6251509919
 20
32.9094989412
 10
-10.633024112
 20
32.9075307955
 10
-10.6406372568
 20
32.9049311084
 10
-10.6476543915
 20
32.9018612659
  0
LWPOLYLINE
  5
45A
100
AcDbEntity
  8
ON_OFF_PORTATASTO
100
AcDbPolyline
 62
250
  6
CONTINUOUS
 90
14
 70
0
 10
-23.9014604448
 20
39.5762855571
 10
-23.9106387296
 20
39.5806312534
 10
-23.919800194
 20
39.5843750054
 10
-23.9289197499
 20
39.5875055029
 10
-23.9379741269
 20
39.590013516
 10
-23.9469365663
 20
39.5918903803
 10
-23.9557771063
 20
39.5931292787
 10
-23.9644697209
 20
39.5937267566
 10
-23.9729924217
 20
39.5936814987
 10
-23.9813220817
 20
39.5929936005
 10
-23.9894360088
 20
39.5916648595
 10
-23.9973117667
 20
39.5896988714
 10
-24.0049275012
 20
39.5871010651
 10
-24.0119725559
 20
39.5840203481
  0
LWPOLYLINE
  5
45B
100
AcDbEntity
  8
ON_OFF_PORTATASTO
100
AcDbPolyline
 62
250
  6
CONTINUOUS
 90
14
 70
0
 10
-26.4470448571
 20
40.8490777632
 10
-26.4562438668
 20
40.8534325999
 10
-26.4654204825
 20
40.8571806982
 10
-26.4745495527
 20
40.8603117852
 10
-26.4836060566
 20
40.8628172793
 10
-26.4925651718
 20
40.8646903133
 10
-26.5014023431
 20
40.8659257536
 10
-26.5100933495
 20
40.8665202141
 10
-26.5186143706
 20
40.8664720654
 10
-26.5269420518
 20
40.8657814396
 10
-26.5350535686
 20
40.8644502296
 10
-26.5429266887
 20
40.8624820839
 10
-26.5505398335
 20
40.8598823968
 10
-26.5575569682
 20
40.8568125542
  0
LWPOLYLINE
  5
45C
100
AcDbEntity
  8
ON_OFF_PORTATASTO
100
AcDbPolyline
 62
250
  6
CONTINUOUS
 90
14
 70
0
 10
-39.8113630215
 20
47.5312368454
 10
-39.8205413063
 20
47.5355825417
 10
-39.8297027707
 20
47.5393262937
 10
-39.8388223266
 20
47.5424567912
 10
-39.8478767036
 20
47.5449648044
 10
-39.856839143
 20
47.5468416687
 10
-39.865679683
 20
47.548080567
 10
-39.8743722976
 20
47.5486780449
 10
-39.8828949984
 20
47.5486327871
 10
-39.8912246584
 20
47.5479448888
 10
-39.8993385855
 20
47.5466161478
 10
-39.9072143434
 20
47.5446501598
 10
-39.9148300779
 20
47.5420523535
 10
-39.9218751326
 20
47.5389716364
  0
LWPOLYLINE
  5
45D
100
AcDbEntity
  8
ON_OFF_PORTATASTO
100
AcDbPolyline
 62
7
  6
CONTINUOUS
 90
43
 70
0
 10
-13.8293056141
 20
36.6082227516
 10
-13.8563059628
 20
36.6212227441
 10
-13.8841775833
 20
36.6336765795
 10
-13.9129204756
 20
36.6455842578
 10
-13.9425772331
 20
36.6569608985
 10
-13.9731052623
 20
36.6677913822
 10
-14.0043767831
 20
36.6780303498
 10
-14.0363949161
 20
36.6876753212
 10
-14.0691565406
 20
36.6967287766
 10
-14.1025245139
 20
36.7051527975
 10
-14.1365013809
 20
36.7129447444
 10
-14.1710845967
 20
36.7201072567
 10
-14.206129384
 20
36.7266103352
 10
-14.2416376801
 20
36.732451214
 10
-14.2776075478
 20
36.737632659
 10
-14.3138883975
 20
36.7421329674
 10
-14.3504815347
 20
36.7459492827
 10
-14.387385654
 20
36.7490844615
 10
-14.4244462494
 20
36.7515253719
 10
-14.4616639777
 20
36.7532691019
 10
-14.499038182
 20
36.7543185635
 10
-14.5364123863
 20
36.754669361
 10
-14.5737865906
 20
36.7543185639
 10
-14.6111607948
 20
36.7532691026
 10
-14.6483785229
 20
36.7515253729
 10
-14.6854391181
 20
36.7490844629
 10
-14.722343237
 20
36.7459492845
 10
-14.7589363742
 20
36.7421329696
 10
-14.7952172242
 20
36.7376326614
 10
-14.8311870925
 20
36.7324512168
 10
-14.8666953893
 20
36.7266103382
 10
-14.9017401774
 20
36.72010726
 10
-14.9363233941
 20
36.7129447478
 10
-14.9703002621
 20
36.7051528011
 10
-15.0036682365
 20
36.6967287802
 10
-15.0364298621
 20
36.6876753248
 10
-15.0684479964
 20
36.6780303533
 10
-15.0997195184
 20
36.6677913856
 10
-15.1302475491
 20
36.6569609017
 10
-15.1599043082
 20
36.6455842605
 10
-15.1886472025
 20
36.6336765815
 10
-15.2165188252
 20
36.6212227452
 10
-15.2435191765
 20
36.6082227516
  0
LWPOLYLINE
  5
45E
100
AcDbEntity
  8
ON_OFF_PORTATASTO
100
AcDbPolyline
 62
7
  6
CONTINUOUS
 90
43
 70
0
 10
-29.7392081908
 20
44.56317404
 10
-29.7662085395
 20
44.5761740325
 10
-29.79408016
 20
44.5886278679
 10
-29.8228230523
 20
44.6005355461
 10
-29.8524798098
 20
44.6119121869
 10
-29.883007839
 20
44.6227426705
 10
-29.9142793598
 20
44.6329816382
 10
-29.9462974928
 20
44.6426266096
 10
-29.9790591173
 20
44.651680065
 10
-30.0124270906
 20
44.6601040859
 10
-30.0464039576
 20
44.6678960327
 10
-30.0809871734
 20
44.6750585451
 10
-30.1160319607
 20
44.6815616235
 10
-30.1515402568
 20
44.6874025024
 10
-30.1875101245
 20
44.6925839473
 10
-30.2237909741
 20
44.6970842558
 10
-30.2603841114
 20
44.700900571
 10
-30.2972882307
 20
44.7040357498
 10
-30.3343488261
 20
44.7064766602
 10
-30.3715665544
 20
44.7082203902
 10
-30.4089407587
 20
44.7092698519
 10
-30.446314963
 20
44.7096206494
 10
-30.4836891673
 20
44.7092698522
 10
-30.5210633715
 20
44.7082203909
 10
-30.5582810996
 20
44.7064766613
 10
-30.5953416948
 20
44.7040357512
 10
-30.6322458137
 20
44.7009005728
 10
-30.6688389509
 20
44.697084258
 10
-30.7051198009
 20
44.6925839498
 10
-30.7410896692
 20
44.6874025052
 10
-30.776597966
 20
44.6815616266
 10
-30.8116427541
 20
44.6750585483
 10
-30.8462259708
 20
44.6678960361
 10
-30.8802028388
 20
44.6601040894
 10
-30.9135708132
 20
44.6516800685
 10
-30.9463324388
 20
44.6426266132
 10
-30.9783505731
 20
44.6329816416
 10
-31.0096220951
 20
44.6227426739
 10
-31.0401501258
 20
44.61191219
 10
-31.0698068849
 20
44.6005355488
 10
-31.0985497792
 20
44.5886278699
 10
-31.1264214019
 20
44.5761740336
 10
-31.1534217532
 20
44.56317404
  0
LWPOLYLINE
  5
45F
100
AcDbEntity
  8
ON_OFF_CORPO
100
AcDbPolyline
 62
7
  6
CONTINUOUS
 90
51
 70
0
 10
-13.881762641
 20
36.1107648643
 10
-13.8921743066
 20
36.1158466478
 10
-13.9160072384
 20
36.1265942474
 10
-13.9406371585
 20
36.1365268404
 10
-13.9659520882
 20
36.1456293038
 10
-13.9919479947
 20
36.15393555
 10
-14.01872845
 20
36.1615050188
 10
-14.0462468557
 20
36.1683445654
 10
-14.0744470744
 20
36.1744618523
 10
-14.1034126565
 20
36.1798911568
 10
-14.1331222912
 20
36.184637649
 10
-14.1635205029
 20
36.1887005476
 10
-14.1946300097
 20
36.1920878015
 10
-14.226515584
 20
36.1948038594
 10
-14.2590502634
 20
36.1968333193
 10
-14.2919581442
 20
36.1981635517
 10
-14.3252503755
 20
36.1988033906
 10
-14.3588571346
 20
36.1987568827
 10
-14.3923756624
 20
36.1980397463
 10
-14.4257850523
 20
36.1966755228
 10
-14.4590586965
 20
36.1946852864
 10
-14.4917890279
 20
36.1921216082
 10
-14.5239160414
 20
36.1890264295
 10
-14.5554736143
 20
36.1854308777
 10
-14.5862031606
 20
36.1814016588
 10
-14.6160048242
 20
36.1769955547
 10
-14.6449748296
 20
36.1722396547
 10
-14.6731507176
 20
36.1671638789
 10
-14.7005220953
 20
36.1618040232
 10
-14.7271009767
 20
36.1561904181
 10
-14.7529526212
 20
36.1503392432
 10
-14.7780888969
 20
36.1442753276
 10
-14.8024995459
 20
36.1380281142
 10
-14.8262099486
 20
36.1316173665
 10
-14.8492251328
 20
36.1250670663
 10
-14.871540897
 20
36.1184035723
 10
-14.8931627925
 20
36.1116502712
 10
-14.9140565154
 20
36.1048434622
 10
-14.9342554859
 20
36.0979978354
 10
-14.9538561174
 20
36.0911037847
 10
-14.9728439903
 20
36.0841880357
 10
-14.9912150793
 20
36.0772742811
 10
-15.0090630885
 20
36.0703481536
 10
-15.0263325048
 20
36.0634518039
 10
-15.0430303775
 20
36.0566042782
 10
-15.0593139051
 20
36.0497609159
 10
-15.0750876312
 20
36.0429814994
 10
-15.090324064
 20
36.0363001861
 10
-15.1052271368
 20
36.0296488082
 10
-15.1197614578
 20
36.0230642591
 10
-15.1729273776
 20
35.9985620948
  0
LWPOLYLINE
  5
460
100
AcDbEntity
  8
ON_OFF_CORPO
100
AcDbPolyline
 62
7
  6
CONTINUOUS
 90
51
 70
0
 10
-29.7916652177
 20
44.0657161527
 10
-29.8020768833
 20
44.0707979362
 10
-29.8259098151
 20
44.0815455358
 10
-29.8505397352
 20
44.0914781288
 10
-29.875854665
 20
44.1005805922
 10
-29.9018505715
 20
44.1088868384
 10
-29.9286310267
 20
44.1164563071
 10
-29.9561494325
 20
44.1232958537
 10
-29.9843496512
 20
44.1294131406
 10
-30.0133152333
 20
44.1348424452
 10
-30.043024868
 20
44.1395889373
 10
-30.0734230797
 20
44.1436518359
 10
-30.1045325865
 20
44.1470390899
 10
-30.1364181607
 20
44.1497551477
 10
-30.1689528402
 20
44.1517846077
 10
-30.201860721
 20
44.15311484
 10
-30.2351529523
 20
44.153754679
 10
-30.2687597114
 20
44.153708171
 10
-30.3022782391
 20
44.1529910346
 10
-30.3356876291
 20
44.1516268112
 10
-30.3689612732
 20
44.1496365747
 10
-30.4016916047
 20
44.1470728966
 10
-30.4338186182
 20
44.1439777178
 10
-30.4653761911
 20
44.140382166
 10
-30.4961057373
 20
44.1363529471
 10
-30.525907401
 20
44.1319468431
 10
-30.5548774064
 20
44.1271909431
 10
-30.5830532943
 20
44.1221151672
 10
-30.610424672
 20
44.1167553115
 10
-30.6370035534
 20
44.1111417065
 10
-30.6628551979
 20
44.1052905315
 10
-30.6879914736
 20
44.099226616
 10
-30.7124021227
 20
44.0929794026
 10
-30.7361125254
 20
44.0865686548
 10
-30.7591277095
 20
44.0800183546
 10
-30.7814434737
 20
44.0733548606
 10
-30.8030653692
 20
44.0666015596
 10
-30.8239590921
 20
44.0597947505
 10
-30.8441580626
 20
44.0529491238
 10
-30.8637586941
 20
44.046055073
 10
-30.882746567
 20
44.039139324
 10
-30.901117656
 20
44.0322255695
 10
-30.9189656652
 20
44.025299442
 10
-30.9362350815
 20
44.0184030923
 10
-30.9529329542
 20
44.0115555666
 10
-30.9692164818
 20
44.0047122042
 10
-30.9849902079
 20
43.9979327877
 10
-31.0002266407
 20
43.9912514745
 10
-31.0151297135
 20
43.9846000965
 10
-31.0296640345
 20
43.9780155474
 10
-31.0828299543
 20
43.9535133831
  0
LINE
  5
461
100
AcDbEntity
  8
ON_OFF_PORTATASTO
100
AcDbLine
 62
7
  6
CONTINUOUS
 10
-40.3458129002
 20
47.2708893788
 11
-39.0023040327
 21
46.5991349451
  0
LINE
  5
462
100
AcDbEntity
  8
ON_OFF_PORTATASTO
100
AcDbLine
 62
7
  6
CONTINUOUS
 10
-26.9814947358
 20
40.5887302966
 11
-25.6379858683
 21
39.9169758629
  0
LINE
  5
463
100
AcDbEntity
  8
ON_OFF_PORTATASTO
100
AcDbLine
 62
7
  6
CONTINUOUS
 10
-24.4359103235
 20
39.3159380905
 11
-23.092401456
 21
38.6441836567
  0
LINE
  5
464
100
AcDbEntity
  8
ON_OFF_PORTATASTO
100
AcDbLine
 62
7
  6
CONTINUOUS
 10
-11.0715921591
 20
32.6337790083
 11
-9.7280832916
 21
31.9620245745
  0
LINE
  5
465
100
AcDbEntity
  8
ON_OFF_PORTATASTO
100
AcDbLine
 62
7
  6
CONTINUOUS
 10
-13.9000162922
 20
34.143841685
 11
-18.8497637605
 21
36.6187154191
  0
LINE
  5
466
100
AcDbEntity
  8
ON_OFF_PORTATASTO
100
AcDbLine
 62
7
  6
CONTINUOUS
 10
-29.8099188689
 20
42.0987929733
 11
-34.7596663372
 21
44.5736667075
  0
LINE
  5
467
100
AcDbEntity
  8
ON_OFF_PORTATASTO
100
AcDbLine
 62
250
  6
CONTINUOUS
 10
-39.8113630215
 20
47.5312368454
 11
-38.474036861
 21
46.8625737651
  0
LINE
  5
468
100
AcDbEntity
  8
ON_OFF_PORTATASTO
100
AcDbLine
 62
250
  6
CONTINUOUS
 10
-26.4470448571
 20
40.8490777632
 11
-25.1097186966
 21
40.1804146829
  0
LINE
  5
469
100
AcDbEntity
  8
ON_OFF_PORTATASTO
100
AcDbLine
 62
250
  6
CONTINUOUS
 10
-23.9014604448
 20
39.5762855571
 11
-22.5641342843
 21
38.9076224768
  0
LINE
  5
46A
100
AcDbEntity
  8
ON_OFF_PORTATASTO
100
AcDbLine
 62
250
  6
CONTINUOUS
 10
-10.5371422804
 20
32.8941264748
 11
-9.1998161199
 21
32.2254633946
  0
LINE
  5
46B
100
AcDbEntity
  8
ON_OFF_PORTATASTO
100
AcDbLine
 62
7
  6
CONTINUOUS
 10
-39.700588062
 20
47.5378267365
 11
-38.3632619014
 21
46.8691636562
  0
LINE
  5
46C
100
AcDbEntity
  8
ON_OFF_PORTATASTO
100
AcDbLine
 62
7
  6
CONTINUOUS
 10
-26.3362698976
 20
40.8556676543
 11
-24.998943737
 21
40.187004574
  0
LINE
  5
46D
100
AcDbEntity
  8
ON_OFF_PORTATASTO
100
AcDbLine
 62
7
  6
CONTINUOUS
 10
-23.7906854853
 20
39.5828754482
 11
-22.4533593247
 21
38.9142123679
  0
LINE
  5
46E
100
AcDbEntity
  8
ON_OFF_PORTATASTO
100
AcDbLine
 62
7
  6
CONTINUOUS
 10
-10.4263673209
 20
32.9007163659
 11
-9.0890411603
 21
32.2320532857
  0
LINE
  5
46F
100
AcDbEntity
  8
ON_OFF_CORPO
100
AcDbLine
 62
7
  6
CONTINUOUS
 10
-12.5858543119
 20
34.7915588016
 11
-14.9607303119
 21
35.9789968016
  0
LINE
  5
470
100
AcDbEntity
  8
ON_OFF_CORPO
100
AcDbLine
 62
7
  6
CONTINUOUS
 10
-28.4957568886
 20
42.7465100899
 11
-30.8706328886
 21
43.9339480899
  0
LINE
  5
471
100
AcDbEntity
  8
ON_OFF_CORPO
100
AcDbLine
 62
250
  6
CONTINUOUS
 10
-29.8786600495
 20
44.0612536252
 11
-27.8679918838
 21
43.0559195424
  0
LINE
  5
472
100
AcDbEntity
  8
ON_OFF_CORPO
100
AcDbLine
 62
250
  6
CONTINUOUS
 10
-13.9687574728
 20
36.1063023369
 11
-11.9580893071
 21
35.100968254
  0
LINE
  5
473
100
AcDbEntity
  8
ON_OFF_CORPO
100
AcDbLine
 62
7
  6
CONTINUOUS
 10
-29.7916854732
 20
44.0657262911
 11
-27.8196877456
 21
43.0797274273
  0
LINE
  5
474
100
AcDbEntity
  8
ON_OFF_CORPO
100
AcDbLine
 62
7
  6
CONTINUOUS
 10
-13.8817828965
 20
36.1107750027
 11
-11.9097851689
 21
35.1247761389
  0
LINE
  5
475
100
AcDbEntity
  8
ON_OFF_PORTATASTO
100
AcDbLine
 62
7
  6
CONTINUOUS
 10
-29.7392081908
 20
44.56317404
 11
-27.2922431242
 21
43.3396915066
  0
LINE
  5
476
100
AcDbEntity
  8
ON_OFF_PORTATASTO
100
AcDbLine
 62
7
  6
CONTINUOUS
 10
-13.8293056141
 20
36.6082227516
 11
-11.3823405475
 21
35.3847402183
  0
LINE
  5
477
100
AcDbEntity
  8
ON_OFF_PORTATASTO
100
AcDbLine
 62
7
  6
CONTINUOUS
 10
-14.1828590047
 20
36.7849994469
 11
-14.5364123953
 21
36.9617761422
  0
LINE
  5
478
100
AcDbEntity
  8
ON_OFF_PORTATASTO
100
AcDbLine
 62
7
  6
CONTINUOUS
 10
-30.0927615814
 20
44.7399507353
 11
-30.446314972
 21
44.9167274305
  0
LWPOLYLINE
  5
479
100
AcDbEntity
  8
ON_OFF_PORTATASTO
100
AcDbPolyline
 62
7
  6
CONTINUOUS
 90
17
 70
0
 10
-3.6097441183
 20
34.0309083821
 10
-3.6126776505
 20
34.0451225028
 10
-3.6161850246
 20
34.05924838
 10
-3.6203258869
 20
34.0736391275
 10
-3.6251201402
 20
34.0881804378
 10
-3.6305645006
 20
34.1028553192
 10
-3.6366622519
 20
34.1176807635
 10
-3.6434431477
 20
34.1325934382
 10
-3.6509167328
 20
34.1476105264
 10
-3.6590734624
 20
34.1627148449
 10
-3.6679144551
 20
34.1777915125
 10
-3.6774540816
 20
34.1928506987
 10
-3.6876779713
 20
34.207882234
 10
-3.6985441312
 20
34.2227407284
 10
-3.7100385635
 20
34.2373777186
 10
-3.7221752659
 20
34.2518416677
 10
-3.7349542385
 20
34.266132576
  0
LINE
  5
47A
100
AcDbEntity
  8
ON_OFF_CORPO
100
AcDbLine
 62
7
  6
CONTINUOUS
 10
-6.2848231431
 20
41.6629154753
 11
-6.1218416992
 21
40.8364958912
  0
LWPOLYLINE
  5
47B
100
AcDbEntity
  8
ON_OFF_CORPO
100
AcDbPolyline
 62
7
  6
CONTINUOUS
 90
4
 70
0
 10
-4.867114273
 20
35.041457214
 10
-4.8714709985
 20
35.0684799417
 10
-4.8756776948
 20
35.1148919129
 10
-4.8766883855
 20
35.1513768282
  0
LWPOLYLINE
  5
47C
100
AcDbEntity
  8
ON_OFF_CORPO
100
AcDbPolyline
 62
250
  6
CONTINUOUS
 90
40
 70
0
 10
-0.0815776992
 20
11.7151224422
 10
-0.0812169936
 20
11.69155211
 10
-0.0800939241
 20
11.6683888516
 10
-0.0782084907
 20
11.645632667
 10
-0.0755602483
 20
11.6232295257
 10
-0.072149642
 20
11.6012334581
 10
-0.0679780076
 20
11.5798065555
 10
-0.0630366757
 20
11.5589568998
 10
-0.0573343156
 20
11.538676409
 10
-0.0508982715
 20
11.5191029287
 10
-0.0437210444
 20
11.5002453929
 10
-0.0358101331
 20
11.4820948676
 10
-0.0272153789
 20
11.4647623958
 10
-0.0179355537
 20
11.4482618873
 10
-0.0079718855
 20
11.4325794322
 10
0.0026221007
 20
11.4177843449
 10
0.0138460196
 20
11.4038834043
 10
0.0257002565
 20
11.3908698314
 10
0.038132442
 20
11.378792603
 10
0.0511438715
 20
11.3676538965
 10
0.0647332496
 20
11.3574515346
 10
0.0788443204
 20
11.3482279618
 10
0.0934784117
 20
11.3399853836
 10
0.1086341956
 20
11.3327215946
 10
0.1242514333
 20
11.3264724228
 10
0.1403357984
 20
11.321240219
 10
0.1568816171
 20
11.3170226325
 10
0.1738116287
 20
11.3138484398
 10
0.1911365429
 20
11.3117245622
 10
0.2088456499
 20
11.3106440784
 10
0.2268295596
 20
11.3106150009
 10
0.245092313
 20
11.3116487964
 10
0.2636298691
 20
11.3137339982
 10
0.2823207152
 20
11.3168442184
 10
0.3011677671
 20
11.3209917177
 10
0.320168109
 20
11.3261642354
 10
0.3391914808
 20
11.3322986022
 10
0.3581944627
 20
11.3393737616
 10
0.3772204746
 20
11.3474107703
 10
0.3962695164
 20
11.356409628
  0
LINE
  5
47D
100
AcDbEntity
  8
ON_OFF_CORPO
100
AcDbLine
 62
7
  6
CONTINUOUS
 10
-0.3470286031
 20
0.0180118487
 11
-0.3470286031
 21
6.9852410229
  0
LINE
  5
47E
100
AcDbEntity
  8
ON_OFF_CORPO
100
AcDbLine
 62
250
  6
CONTINUOUS
 10
-0.0815776992
 20
27.4051668603
 11
-0.0815776992
 21
11.7151224422
  0
LINE
  5
47F
100
AcDbEntity
  8
ON_OFF_CORPO
100
AcDbLine
 62
7
  6
CONTINUOUS
 10
-0.0254456593
 20
27.4746326974
 11
-0.0254312243
 21
11.7806260283
  0
LINE
  5
480
100
AcDbEntity
  8
ON_OFF_CORPO
100
AcDbLine
 62
7
  6
CONTINUOUS
 10
0.0970568762
 20
38.1619958817
 11
0.0970568762
 21
37.5905171446
  0
LWPOLYLINE
  5
481
100
AcDbEntity
  8
ON_OFF_CORPO
100
AcDbPolyline
 62
250
  6
CONTINUOUS
 90
23
 70
0
 10
0.2597417405
 20
8.2230540073
 10
0.2596465744
 20
8.1887289882
 10
0.2583852432
 20
8.1550227737
 10
0.255959792
 20
8.121990014
 10
0.2523741533
 20
8.0896842678
 10
0.2476341409
 20
8.0581579146
 10
0.24174744
 20
8.0274620706
 10
0.2347235952
 20
7.9976465052
 10
0.2265739948
 20
7.9687595606
 10
0.2173118523
 20
7.9408480734
 10
0.2069521852
 20
7.9139572986
 10
0.1955117903
 20
7.8881308361
 10
0.1830092169
 20
7.8634105604
 10
0.1694647362
 20
7.8398365523
 10
0.154900309
 20
7.8174470341
 10
0.1393395496
 20
7.7962783076
 10
0.1228076879
 20
7.7763646952
 10
0.1053315282
 20
7.7577384843
 10
0.0869394059
 20
7.7404298751
 10
0.0676611416
 20
7.7244669313
 10
0.0475279925
 20
7.7098755347
 10
0.026572602
 20
7.6966793436
 10
0.0152257606
 20
7.6903023215
  0
LWPOLYLINE
  5
482
100
AcDbEntity
  8
ON_OFF_CORPO
100
AcDbPolyline
 62
7
  6
CONTINUOUS
 90
42
 70
0
 10
-0.0254454695
 20
27.4746384538
 10
-0.0254231845
 20
27.4796190064
 10
-0.0250142196
 20
27.4968178043
 10
-0.0240751095
 20
27.5145709803
 10
-0.0225870362
 20
27.5328493929
 10
-0.0205349231
 20
27.551608575
 10
-0.017908759
 20
27.5707890396
 10
-0.0146989004
 20
27.5903517876
 10
-0.010898132
 20
27.6102558747
 10
-0.0065060954
 20
27.6304387545
 10
-0.0015215403
 20
27.6508559074
 10
0.0040550374
 20
27.6714641053
 10
0.01021596
 20
27.6922033407
 10
0.0169554202
 20
27.713028826
 10
0.024265514
 20
27.733894979
 10
0.0321304212
 20
27.7547414764
 10
0.040537628
 20
27.7755238711
 10
0.049472255
 20
27.7961962092
 10
0.0589099269
 20
27.8166973865
 10
0.0688313005
 20
27.8369837487
 10
0.079215491
 20
27.8570121084
 10
0.0900308989
 20
27.8767243247
 10
0.1012525422
 20
27.8960802009
 10
0.1128539347
 20
27.915040066
 10
0.1247965933
 20
27.9335497219
 10
0.137050523
 20
27.9515737581
 10
0.1495848066
 20
27.9690782206
 10
0.162355276
 20
27.986015149
 10
0.1753257597
 20
28.0023528771
 10
0.1884641409
 20
28.0180676179
 10
0.2017287276
 20
28.0331271584
 10
0.2150824827
 20
28.0475089733
 10
0.2284898244
 20
28.0611947384
 10
0.2419080132
 20
28.0741616862
 10
0.2553005467
 20
28.0863970965
 10
0.2686281137
 20
28.0978884109
 10
0.2818400143
 20
28.1086167732
 10
0.2948985869
 20
28.1185784825
 10
0.3077654178
 20
28.1277722312
 10
0.3203850765
 20
28.1361882733
 10
0.3327122076
 20
28.1438292075
 10
0.3447140301
 20
28.1507094918
  0
LWPOLYLINE
  5
483
100
AcDbEntity
  8
ON_OFF_CORPO
100
AcDbPolyline
 62
7
  6
CONTINUOUS
 90
59
 70
0
 10
-0.3470289263
 20
6.9852400923
 10
-0.3469624208
 20
6.9926782354
 10
-0.3467144724
 20
7.0016926704
 10
-0.3462553696
 20
7.0114846997
 10
-0.3455569902
 20
7.0220370315
 10
-0.3445939885
 20
7.0333136083
 10
-0.3433412781
 20
7.0452994926
 10
-0.3417754193
 20
7.0579740696
 10
-0.3398783982
 20
7.0712846834
 10
-0.3376314781
 20
7.0852020315
 10
-0.3350167299
 20
7.0997021349
 10
-0.3320228799
 20
7.1147349628
 10
-0.3286372503
 20
7.1302662296
 10
-0.3248476689
 20
7.1462656795
 10
-0.3206479503
 20
7.1626865148
 10
-0.316031278
 20
7.1794931436
 10
-0.3109918996
 20
7.1966487782
 10
-0.3055298868
 20
7.2141036048
 10
-0.2996435338
 20
7.2318216718
 10
-0.2933347704
 20
7.2497605984
 10
-0.2866136084
 20
7.2678595454
 10
-0.2794832803
 20
7.2860836506
 10
-0.2719541383
 20
7.3043853401
 10
-0.2640528473
 20
7.3226841826
 10
-0.255792374
 20
7.3409391523
 10
-0.2471883616
 20
7.3591086745
 10
-0.2382781961
 20
7.3771128366
 10
-0.2290827947
 20
7.3949114771
 10
-0.2196234033
 20
7.4124676683
 10
-0.2099436788
 20
7.4297097869
 10
-0.2000709157
 20
7.4466024322
 10
-0.190031118
 20
7.4631142999
 10
-0.1798711729
 20
7.4791852642
 10
-0.1696215273
 20
7.4947879893
 10
-0.1593128262
 20
7.5098969187
 10
-0.1489955514
 20
7.5244610492
 10
-0.1387042169
 20
7.5384580555
 10
-0.1284693959
 20
7.5518740545
 10
-0.118336773
 20
7.5646772931
 10
-0.1083443926
 20
7.576849621
 10
-0.0985187397
 20
7.5883898588
 10
-0.0888885062
 20
7.5992955638
 10
-0.079486002
 20
7.6095607655
 10
-0.0703414723
 20
7.6191836052
 10
-0.061480862
 20
7.6281685931
 10
-0.0529348856
 20
7.6365168147
 10
-0.0447345569
 20
7.6442299926
 10
-0.0369084557
 20
7.6513137896
 10
-0.0294839985
 20
7.6577766677
 10
-0.0224950932
 20
7.6636232479
 10
-0.0159817091
 20
7.6688549708
 10
-0.0099723625
 20
7.6734848439
 10
-0.0044969495
 20
7.6775267229
 10
0.000401733
 20
7.6809875149
 10
0.0046957943
 20
7.6838870495
 10
0.0083610024
 20
7.6862488636
 10
0.0113609475
 20
7.6880906326
 10
0.0136683276
 20
7.6894381354
 10
0.0152189461
 20
7.6902988438
  0
LWPOLYLINE
  5
484
100
AcDbEntity
  8
ON_OFF_CORPO
100
AcDbPolyline
 62
250
  6
CONTINUOUS
 90
15
 70
0
 10
-0.0254456593
 20
27.4746326974
 10
-0.0254858139
 20
27.472628935
 10
-0.026047071
 20
27.4668834553
 10
-0.0272681239
 20
27.4611636174
 10
-0.0291449321
 20
27.4554883477
 10
-0.0316712854
 20
27.4498764253
 10
-0.0348388244
 20
27.4443464196
 10
-0.0386370678
 20
27.438916629
 10
-0.0430534476
 20
27.4336050204
 10
-0.0480733502
 20
27.4284291695
 10
-0.0536801651
 20
27.4234062027
 10
-0.0598553399
 20
27.4185527408
 10
-0.0665784412
 20
27.4138848434
 10
-0.0738272229
 20
27.4094179564
 10
-0.0815776992
 20
27.4051668603
  0
LWPOLYLINE
  5
485
100
AcDbEntity
  8
ON_OFF_CORPO
100
AcDbPolyline
 62
250
  6
CONTINUOUS
 90
15
 70
0
 10
-0.02544566
 20
11.7845796685
 10
-0.025485811
 20
11.7825845895
 10
-0.0260470597
 20
11.77683911
 10
-0.0272681043
 20
11.771119271
 10
-0.0291449049
 20
11.7654439992
 10
-0.0316712515
 20
11.7598320735
 10
-0.0348387849
 20
11.7543020635
 10
-0.0386370244
 20
11.7488722676
 10
-0.0430534022
 20
11.7435606526
 10
-0.0480733052
 20
11.7383847945
 10
-0.053680123
 20
11.7333618199
 10
-0.0598553035
 20
11.7285083495
 10
-0.0665784136
 20
11.7238404433
 10
-0.0738272074
 20
11.7193735473
 10
-0.0815776992
 20
11.7151224422
  0
LWPOLYLINE
  5
486
100
AcDbEntity
  8
ON_OFF_PORTATASTO
100
AcDbPolyline
 62
250
  6
CONTINUOUS
 90
31
 70
0
 10
-9.0230424162
 20
-9.7265618004
 10
-9.0186992633
 20
-9.7143381847
 10
-9.0148514492
 20
-9.7019049711
 10
-9.0115098804
 20
-9.6892959008
 10
-9.0086838603
 20
-9.676544063
 10
-9.006381866
 20
-9.6636853233
 10
-9.0046110377
 20
-9.6507583089
 10
-9.0033763089
 20
-9.6377996314
 10
-9.0026808469
 20
-9.6248433844
 10
-9.0025265537
 20
-9.6119246248
 10
-9.0029139025
 20
-9.5990784235
 10
-9.0038418834
 20
-9.5863400913
 10
-9.0053079586
 20
-9.5737447458
 10
-9.0073081029
 20
-9.5613269039
 10
-9.009836864
 20
-9.5491203661
 10
-9.0128873435
 20
-9.5371584429
 10
-9.0164512195
 20
-9.5254737895
 10
-9.0205187569
 20
-9.5140983437
 10
-9.0250788372
 20
-9.503063206
 10
-9.0301190007
 20
-9.4923985267
 10
-9.0356254842
 20
-9.4821334259
 10
-9.0415832473
 20
-9.4722959416
 10
-9.0479760272
 20
-9.4629129301
 10
-9.0547863536
 20
-9.4540100355
 10
-9.061995591
 20
-9.4456116124
 10
-9.0695840192
 20
-9.4377406165
 10
-9.0775309279
 20
-9.4304185121
 10
-9.0858146453
 20
-9.4236652612
 10
-9.0944125594
 20
-9.4174993001
 10
-9.1033011741
 20
-9.4119374808
 10
-9.1124562115
 20
-9.4069949944
  0
LINE
  5
487
100
AcDbEntity
  8
ON_OFF_CORPO
100
AcDbLine
 62
7
  6
CONTINUOUS
 10
6.0905652075
 20
14.9188065736
 11
6.1038087906
 21
14.932818584
  0
LWPOLYLINE
  5
488
100
AcDbEntity
  8
ON_OFF_CORPO
100
AcDbPolyline
 62
250
  6
CONTINUOUS
 90
3
 70
0
 10
6.2292435954
 20
11.0440174094
 10
6.2095117509
 20
11.0322880776
 10
6.2058458959
 20
11.0302839077
  0
LWPOLYLINE
  5
489
100
AcDbEntity
  8
ON_OFF_CORPO
100
AcDbPolyline
 62
7
  6
CONTINUOUS
 90
27
 70
0
 10
6.2057585697
 20
11.0302371959
 10
6.2303155549
 20
11.0441395174
 10
6.2558646488
 20
11.0600684192
 10
6.2807181741
 20
11.0771140139
 10
6.3048494149
 20
11.0952603298
 10
6.3282720138
 20
11.1145257818
 10
6.3509377572
 20
11.1348846129
 10
6.3727965354
 20
11.1563053183
 10
6.3938517845
 20
11.1788104962
 10
6.4140563279
 20
11.2023738001
 10
6.4333616587
 20
11.2269621306
 10
6.4517627347
 20
11.2525999143
 10
6.469218777
 20
11.2792707536
 10
6.4856766944
 20
11.306932398
 10
6.5011095648
 20
11.3355822354
 10
6.5154796923
 20
11.3652024721
 10
6.528740824
 20
11.3957516037
 10
6.5408571505
 20
11.427201041
 10
6.5517960118
 20
11.4595295203
 10
6.5615212836
 20
11.4927015859
 10
6.5699999354
 20
11.5266766086
 10
6.5772037614
 20
11.5614286493
 10
6.5831049438
 20
11.5969334429
 10
6.5876767532
 20
11.6331641027
 10
6.5908920628
 20
11.6701020114
 10
6.5927233418
 20
11.7077243759
 10
6.5931732101
 20
11.738032044
  0
LINE
  5
48A
100
AcDbEntity
  8
ON_OFF_CORPO
100
AcDbLine
 62
250
  6
CONTINUOUS
 10
0.2597417405
 20
8.2230540073
 11
6.4687879605
 21
11.5730285932
  0
LINE
  5
48B
100
AcDbEntity
  8
ON_OFF_CORPO
100
AcDbLine
 62
7
  6
CONTINUOUS
 10
0.0152257606
 20
7.6903023215
 11
6.2058458749
 21
11.0302838964
  0
LWPOLYLINE
  5
48C
100
AcDbEntity
  8
ON_OFF_CORPO
100
AcDbPolyline
 62
250
  6
CONTINUOUS
 90
21
 70
0
 10
-0.6276888028
 20
6.6379118377
 10
-0.6005988294
 20
6.6525089261
 10
-0.5746928191
 20
6.6676337824
 10
-0.5500118631
 20
6.683262416
 10
-0.5265951093
 20
6.699370037
 10
-0.5044797004
 20
6.7159310962
 10
-0.4837007148
 20
6.7329193248
 10
-0.4642911114
 20
6.7503077767
 10
-0.4462816767
 20
6.7680688708
 10
-0.4297009766
 20
6.786174435
 10
-0.4145753105
 20
6.804595751
 10
-0.40092867
 20
6.8233035993
 10
-0.3887827009
 20
6.8422683063
 10
-0.3781566682
 20
6.8614597907
 10
-0.3690674266
 20
6.8808476116
 10
-0.3615293928
 20
6.9004010169
 10
-0.3555545231
 20
6.9200889916
 10
-0.3511522946
 20
6.9398803072
 10
-0.3483296896
 20
6.9597435715
 10
-0.347091185
 20
6.9796472782
 10
-0.3470286031
 20
6.9852400923
  0
LWPOLYLINE
  5
48D
100
AcDbEntity
  8
ON_OFF_PORTATASTO
100
AcDbPolyline
 62
7
  6
CONTINUOUS
 90
17
 70
0
 10
-14.8061120476
 20
39.2081840388
 10
-14.7950652619
 20
39.2112872409
 10
-14.783463401
 20
39.2137602909
 10
-14.7713040173
 20
39.2155864551
 10
-14.7585619785
 20
39.2167664735
 10
-14.7452614529
 20
39.2172637063
 10
-14.731482656
 20
39.2170088694
 10
-14.7172372395
 20
39.215974684
 10
-14.7025364304
 20
39.2141603273
 10
-14.6874730274
 20
39.2115448718
 10
-14.6721010941
 20
39.2081193862
 10
-14.6564080934
 20
39.2038759033
 10
-14.6403922031
 20
39.1987985522
 10
-14.6241075775
 20
39.1928941673
 10
-14.6075451155
 20
39.1861383049
 10
-14.5906048265
 20
39.1784600022
 10
-14.5811056878
 20
39.1738261358
  0
LINE
  5
48E
100
AcDbEntity
  8
ON_OFF_PORTATASTO
100
AcDbLine
 62
7
  6
CONTINUOUS
 10
-40.6536546134
 20
44.9957283079
 11
-40.0294590164
 21
44.865395688
  0
LINE
  5
48F
100
AcDbEntity
  8
ON_OFF_PORTATASTO
100
AcDbLine
 62
250
  6
CONTINUOUS
 10
-40.4268111199
 20
45.1515494686
 11
-39.7155905118
 21
45.0030459458
  0
LWPOLYLINE
  5
490
100
AcDbEntity
  8
ON_OFF_CONTATTI
100
AcDbPolyline
 62
7
  6
CONTINUOUS
 90
9
 70
0
 10
-0.3123030377
 20
35.4217371481
 10
-0.3184197783
 20
35.4233366458
 10
-0.328189992
 20
35.4248694597
 10
-0.3385161874
 20
35.4252849041
 10
-0.3493033846
 20
35.4245831316
 10
-0.3602666435
 20
35.4227646003
 10
-0.3713109842
 20
35.4198294627
 10
-0.3825313867
 20
35.4157775663
 10
-0.393927851
 20
35.4106089111
  0
LINE
  5
491
100
AcDbEntity
  8
ON_OFF_CONTATTI
100
AcDbLine
 62
7
  6
CONTINUOUS
 10
-1.7053658364
 20
34.7548899184
 11
-2.1551104978
 21
34.8766377515
  0
LWPOLYLINE
  5
492
100
AcDbEntity
  8
ON_OFF_CONTATTI
100
AcDbPolyline
 62
7
  6
CONTINUOUS
 90
28
 70
0
 10
-0.3123131739
 20
35.4217131957
 10
-0.4210285205
 20
35.4529990415
 10
-0.5358835635
 20
35.4823527185
 10
-0.6531449874
 20
35.5086797887
 10
-0.7725181522
 20
35.5319418804
 10
-0.8937385239
 20
35.5521124332
 10
-1.0165678933
 20
35.5691717085
 10
-1.1407166907
 20
35.58309555
 10
-1.2659001538
 20
35.593866219
 10
-1.3918806713
 20
35.6014736187
 10
-1.5183670575
 20
35.6059069974
 10
-1.6450697804
 20
35.6071615521
 10
-1.7717515258
 20
35.605236779
 10
-1.8981227956
 20
35.6001354441
 10
-2.0238923862
 20
35.5918662319
 10
-2.1488219856
 20
35.5804383565
 10
-2.2726208602
 20
35.5658685242
 10
-2.3950056125
 20
35.5481785026
 10
-2.5157540487
 20
35.5273843273
 10
-2.6345889698
 20
35.5035127272
 10
-2.7512247933
 20
35.4765976755
 10
-2.8654363663
 20
35.4466629082
 10
-2.9769515445
 20
35.4137458043
 10
-3.0854977409
 20
35.3778891695
 10
-3.1908646325
 20
35.3391175519
 10
-3.2928114149
 20
35.2974647435
 10
-3.3910575523
 20
35.252983969
 10
-3.4853416135
 20
35.2057265795
  0
LWPOLYLINE
  5
493
100
AcDbEntity
  8
ON_OFF_CORPO
100
AcDbPolyline
 62
7
  6
CONTINUOUS
 90
17
 70
0
 10
-4.1679190992
 20
34.6481153919
 10
-4.2537105539
 20
34.6843148877
 10
-4.3370564898
 20
34.7219599678
 10
-4.4176616489
 20
34.7609168438
 10
-4.4955166026
 20
34.8011900285
 10
-4.5706307796
 20
34.842775009
 10
-4.6427372075
 20
34.8855244588
 10
-4.7118263726
 20
34.9294431723
 10
-4.7779077886
 20
34.974526355
 10
-4.8407430251
 20
35.0206122971
 10
-4.9003203502
 20
35.0677046604
 10
-4.9566514956
 20
35.1157997832
 10
-5.009533226
 20
35.1647249702
 10
-5.058953055
 20
35.214483253
 10
-5.1049234689
 20
35.2650716
 10
-5.1472786907
 20
35.3163082208
 10
-5.1896066463
 20
35.3733158644
  0
LWPOLYLINE
  5
494
100
AcDbEntity
  8
ON_OFF_PORTATASTO
100
AcDbPolyline
 62
7
  6
CONTINUOUS
 90
17
 70
0
 10
-14.0840621208
 20
38.9253045295
 10
-14.0861058574
 20
38.926182126
 10
-14.089968535
 20
38.9272708034
 10
-14.0944573419
 20
38.9279355847
 10
-14.0995835245
 20
38.9282002302
 10
-14.1053434889
 20
38.928082179
 10
-14.1117081186
 20
38.9275872528
 10
-14.118667677
 20
38.9267236351
 10
-14.1262226973
 20
38.9254922716
 10
-14.1343400324
 20
38.9239137523
 10
-14.1429510721
 20
38.9220228393
 10
-14.152028367
 20
38.9198113151
 10
-14.1615426504
 20
38.9172991971
 10
-14.1714037112
 20
38.9145564443
 10
-14.1815533718
 20
38.911604813
 10
-14.1919758476
 20
38.9084215828
 10
-14.2026367727
 20
38.9050052837
  0
LWPOLYLINE
  5
495
100
AcDbEntity
  8
ON_OFF_PORTATASTO
100
AcDbPolyline
 62
7
  6
CONTINUOUS
 90
17
 70
0
 10
-29.9939646975
 20
46.8802558179
 10
-29.9960084341
 20
46.8811334143
 10
-29.9998711117
 20
46.8822220918
 10
-30.0043599186
 20
46.8828868731
 10
-30.0094861012
 20
46.8831515186
 10
-30.0152460656
 20
46.8830334674
 10
-30.0216106953
 20
46.8825385411
 10
-30.0285702537
 20
46.8816749235
 10
-30.036125274
 20
46.88044356
 10
-30.0442426091
 20
46.8788650406
 10
-30.0528536488
 20
46.8769741277
 10
-30.0619309437
 20
46.8747626034
 10
-30.0714452271
 20
46.8722504855
 10
-30.0813062879
 20
46.8695077326
 10
-30.0914559485
 20
46.8665561013
 10
-30.1018784243
 20
46.8633728712
 10
-30.1125393494
 20
46.8599565721
  0
LWPOLYLINE
  5
496
100
AcDbEntity
  8
ON_OFF_PORTATASTO
100
AcDbPolyline
 62
7
  6
CONTINUOUS
 90
17
 70
0
 10
-8.5290737104
 20
36.1478101262
 10
-8.530856527
 20
36.1485905367
 10
-8.5346549309
 20
36.1497067558
 10
-8.5390764435
 20
36.1504010992
 10
-8.544129436
 20
36.1506981251
 10
-8.5498079767
 20
36.150614763
 10
-8.5560834748
 20
36.1501567317
 10
-8.562947108
 20
36.1493334967
 10
-8.5703987317
 20
36.1481465213
 10
-8.5784054242
 20
36.1466153317
 10
-8.5869019685
 20
36.1447738681
 10
-8.5958615754
 20
36.1426146007
 10
-8.6052553405
 20
36.1401567704
 10
-8.6149971355
 20
36.1374677554
 10
-8.6250309578
 20
36.1345687005
 10
-8.6353407359
 20
36.1314380054
 10
-8.6458929001
 20
36.1280744651
  0
LWPOLYLINE
  5
497
100
AcDbEntity
  8
ON_OFF_PORTATASTO
100
AcDbPolyline
 62
7
  6
CONTINUOUS
 90
17
 70
0
 10
-24.4389762871
 20
44.1027614145
 10
-24.4407591037
 20
44.1035418251
 10
-24.4445575076
 20
44.1046580441
 10
-24.4489790202
 20
44.1053523875
 10
-24.4540320127
 20
44.1056494134
 10
-24.4597105534
 20
44.1055660514
 10
-24.4659860515
 20
44.1051080201
 10
-24.4728496847
 20
44.1042847851
 10
-24.4803013084
 20
44.1030978097
 10
-24.4883080009
 20
44.1015666201
 10
-24.4968045452
 20
44.0997251565
 10
-24.5057641521
 20
44.0975658891
 10
-24.5151579172
 20
44.0951080587
 10
-24.5248997122
 20
44.0924190438
 10
-24.5349335345
 20
44.0895199888
 10
-24.5452433126
 20
44.0863892938
 10
-24.5557954768
 20
44.0830257535
  0
LWPOLYLINE
  5
498
100
AcDbEntity
  8
ON_OFF_CORPO
100
AcDbPolyline
 62
250
  6
CONTINUOUS
 90
9
 70
0
 10
-20.5470344952
 20
42.8471927867
 10
-20.5750103247
 20
42.8609547726
 10
-20.6029608025
 20
42.8732805001
 10
-20.6308406103
 20
42.8841499848
 10
-20.6586045446
 20
42.8935456034
 10
-20.6862075896
 20
42.9014521222
 10
-20.7136049903
 20
42.907856722
 10
-20.7407523252
 20
42.9127490187
 10
-20.7621692438
 20
42.9154384198
  0
LWPOLYLINE
  5
499
100
AcDbEntity
  8
ON_OFF_PORTATASTO
100
AcDbPolyline
 62
7
  6
CONTINUOUS
 90
20
 70
0
 10
-11.6850350828
 20
38.3768729922
 10
-11.688524734
 20
38.3785935988
 10
-11.7093455438
 20
38.3879522033
 10
-11.7308138954
 20
38.3960869664
 10
-11.7527986932
 20
38.4029404983
 10
-11.7753000065
 20
38.4084970651
 10
-11.7983177661
 20
38.4127724007
 10
-11.8217206684
 20
38.4157563172
 10
-11.8454715933
 20
38.4174448899
 10
-11.8696076609
 20
38.4178420436
 10
-11.8941089281
 20
38.4169493641
 10
-11.9190106137
 20
38.4147654824
 10
-11.9442774989
 20
38.4112917677
 10
-11.9697839834
 20
38.4065339134
 10
-11.9955446649
 20
38.4004756337
 10
-12.0215449458
 20
38.3931332144
 10
-12.0476154336
 20
38.3845612066
 10
-12.0736996644
 20
38.374777794
 10
-12.0998541021
 20
38.3637647929
 10
-12.1260787468
 20
38.3515222032
  0
LWPOLYLINE
  5
49A
100
AcDbEntity
  8
ON_OFF_PORTATASTO
100
AcDbPolyline
 62
7
  6
CONTINUOUS
 90
20
 70
0
 10
-19.8167630664
 20
42.4427369841
 10
-19.8202527176
 20
42.4444575906
 10
-19.8410735275
 20
42.4538161951
 10
-19.862541879
 20
42.4619509582
 10
-19.8845266768
 20
42.4688044901
 10
-19.9070279902
 20
42.4743610569
 10
-19.9300457497
 20
42.4786363925
 10
-19.953448652
 20
42.481620309
 10
-19.977199577
 20
42.4833088818
 10
-20.0013356446
 20
42.4837060354
 10
-20.0258369117
 20
42.4828133559
 10
-20.0507385974
 20
42.4806294743
 10
-20.0760054825
 20
42.4771557595
 10
-20.1015119671
 20
42.4723979052
 10
-20.1272726485
 20
42.4663396255
 10
-20.1532729294
 20
42.4589972062
 10
-20.1793434173
 20
42.4504251984
 10
-20.205427648
 20
42.4406417858
 10
-20.2315820857
 20
42.4296287847
 10
-20.2578067305
 20
42.417386195
  0
LWPOLYLINE
  5
49B
100
AcDbEntity
  8
ON_OFF_PORTATASTO
100
AcDbPolyline
 62
7
  6
CONTINUOUS
 90
20
 70
0
 10
-27.5949376623
 20
46.3318242749
 10
-27.5984152998
 20
46.3335390364
 10
-27.6192365091
 20
46.3428986317
 10
-27.6407053092
 20
46.3510343254
 10
-27.6626901017
 20
46.357888672
 10
-27.6851905855
 20
46.363445853
 10
-27.7082070616
 20
46.3677216868
 10
-27.7316088346
 20
46.3707061834
 10
-27.7553587398
 20
46.3723955601
 10
-27.7794939419
 20
46.3727935995
 10
-27.8039952399
 20
46.3719016596
 10
-27.8288984489
 20
46.3697182983
 10
-27.8541677537
 20
46.3662449575
 10
-27.8796765079
 20
46.3614873213
 10
-27.905438898
 20
46.3554291055
 10
-27.9314407375
 20
46.3480865942
 10
-27.9575128205
 20
46.3395143236
 10
-27.9835987448
 20
46.3297304723
 10
-28.0097549125
 20
46.3187168616
 10
-28.0359813235
 20
46.3064734916
  0
LINE
  5
49C
100
AcDbEntity
  8
ON_OFF_PORTATASTO
100
AcDbLine
 62
7
  6
CONTINUOUS
 10
-30.446314972
 20
45.4768433091
 11
-30.0927615814
 21
45.3000666138
  0
LINE
  5
49D
100
AcDbEntity
  8
ON_OFF_PORTATASTO
100
AcDbLine
 62
7
  6
CONTINUOUS
 10
-14.5364123953
 20
37.5218920207
 11
-14.1828590047
 21
37.3451153254
  0
LINE
  5
49E
100
AcDbEntity
  8
ON_OFF_PORTATASTO
100
AcDbLine
 62
7
  6
CONTINUOUS
 10
-9.9745248512
 20
36.0786168767
 11
-12.7850744982
 21
37.4838917002
  0
LINE
  5
49F
100
AcDbEntity
  8
ON_OFF_PORTATASTO
100
AcDbLine
 62
7
  6
CONTINUOUS
 10
-25.8844274279
 20
44.033568165
 11
-28.6949770749
 21
45.4388429885
  0
LINE
  5
4A0
100
AcDbEntity
  8
ON_OFF_CORPO
100
AcDbLine
 62
7
  6
CONTINUOUS
 10
-3.6100809061
 20
33.520205251
 11
-3.2558331894
 21
33.3430813926
  0
LINE
  5
4A1
100
AcDbEntity
  8
ON_OFF_PORTATASTO
100
AcDbLine
 62
250
  6
CONTINUOUS
 10
-8.6962349012
 20
36.1074377651
 11
-9.3017653359
 21
36.4102029825
  0
LINE
  5
4A2
100
AcDbEntity
  8
ON_OFF_PORTATASTO
100
AcDbLine
 62
250
  6
CONTINUOUS
 10
-14.2515128042
 20
38.8850767166
 11
-14.8570432388
 21
39.187841934
  0
LINE
  5
4A3
100
AcDbEntity
  8
ON_OFF_PORTATASTO
100
AcDbLine
 62
250
  6
CONTINUOUS
 10
-24.6061374779
 20
44.0623890535
 11
-25.2116679126
 21
44.3651542708
  0
LINE
  5
4A4
100
AcDbEntity
  8
ON_OFF_PORTATASTO
100
AcDbLine
 62
250
  6
CONTINUOUS
 10
-30.1614153809
 20
46.840028005
 11
-30.7669458155
 21
47.1427932223
  0
LINE
  5
4A5
100
AcDbEntity
  8
ON_OFF_PORTATASTO
100
AcDbLine
 62
7
  6
CONTINUOUS
 10
-8.3316427766
 20
36.0108899968
 11
-8.5222988363
 21
36.1062180267
  0
LINE
  5
4A6
100
AcDbEntity
  8
ON_OFF_PORTATASTO
100
AcDbLine
 62
7
  6
CONTINUOUS
 10
-9.1892950829
 20
36.43971615
 11
-11.4251425581
 21
37.5576398876
  0
LINE
  5
4A7
100
AcDbEntity
  8
ON_OFF_PORTATASTO
100
AcDbLine
 62
7
  6
CONTINUOUS
 10
-24.2415453533
 20
43.9658412852
 11
-24.432201413
 21
44.061169315
  0
LINE
  5
4A8
100
AcDbEntity
  8
ON_OFF_PORTATASTO
100
AcDbLine
 62
7
  6
CONTINUOUS
 10
-25.0991976596
 20
44.3946674383
 11
-27.3350451348
 21
45.5125911759
  0
LINE
  5
4A9
100
AcDbEntity
  8
ON_OFF_PORTATASTO
100
AcDbLine
 62
7
  6
CONTINUOUS
 10
-8.5290735414
 20
36.147811827
 11
-9.0261163312
 21
36.3963332219
  0
LINE
  5
4AA
100
AcDbEntity
  8
ON_OFF_PORTATASTO
100
AcDbLine
 62
7
  6
CONTINUOUS
 10
-14.0840619706
 20
38.9253060416
 11
-14.5811047604
 21
39.1738274365
  0
LINE
  5
4AB
100
AcDbEntity
  8
ON_OFF_PORTATASTO
100
AcDbLine
 62
7
  6
CONTINUOUS
 10
-24.4389761181
 20
44.1027631154
 11
-24.9360189079
 21
44.3512845103
  0
LINE
  5
4AC
100
AcDbEntity
  8
ON_OFF_PORTATASTO
100
AcDbLine
 62
7
  6
CONTINUOUS
 10
-29.9939645473
 20
46.88025733
 11
-30.4910073371
 21
47.1287787249
  0
LINE
  5
4AD
100
AcDbEntity
  8
ON_OFF_PORTATASTO
100
AcDbLine
 62
7
  6
CONTINUOUS
 10
-15.6677832452
 20
40.1162698124
 11
-20.2639773229
 21
42.4143668513
  0
LINE
  5
4AE
100
AcDbEntity
  8
ON_OFF_PORTATASTO
100
AcDbLine
 62
250
  6
CONTINUOUS
 10
-31.0967764401
 20
47.8368710498
 11
-28.0359813235
 21
46.3064734916
  0
LINE
  5
4AF
100
AcDbEntity
  8
ON_OFF_PORTATASTO
100
AcDbLine
 62
250
  6
CONTINUOUS
 10
-7.8834380597
 20
36.2302018597
 11
-4.8226429432
 21
34.6998043014
  0
LINE
  5
4B0
100
AcDbEntity
  8
ON_OFF_PORTATASTO
100
AcDbLine
 62
250
  6
CONTINUOUS
 10
-12.1260787468
 20
38.3515222032
 11
-15.6616126528
 21
40.1192891562
  0
LINE
  5
4B1
100
AcDbEntity
  8
ON_OFF_PORTATASTO
100
AcDbLine
 62
250
  6
CONTINUOUS
 10
-20.2578067305
 20
42.417386195
 11
-23.7933406364
 21
44.185153148
  0
LINE
  5
4B2
100
AcDbEntity
  8
ON_OFF_PORTATASTO
100
AcDbLine
 62
7
  6
CONTINUOUS
 10
-30.8150907362
 20
47.941899166
 11
-27.5949383205
 21
46.3318229582
  0
LINE
  5
4B3
100
AcDbEntity
  8
ON_OFF_PORTATASTO
100
AcDbLine
 62
7
  6
CONTINUOUS
 10
-7.4423950566
 20
36.2555513263
 11
-4.2222426409
 21
34.6454751184
  0
LINE
  5
4B4
100
AcDbEntity
  8
ON_OFF_PORTATASTO
100
AcDbLine
 62
7
  6
CONTINUOUS
 10
-11.6850357438
 20
38.3768716698
 11
-15.2205696497
 21
40.1446386228
  0
LINE
  5
4B5
100
AcDbEntity
  8
ON_OFF_PORTATASTO
100
AcDbLine
 62
7
  6
CONTINUOUS
 10
-19.8167637274
 20
42.4427356616
 11
-23.3522976333
 21
44.2105026146
  0
LINE
  5
4B6
100
AcDbEntity
  8
ON_OFF_CONTATTI
100
AcDbLine
 62
7
  6
CONTINUOUS
 10
-2.6500852446
 20
34.6291503781
 11
-3.3570541847
 21
34.9826348482
  0
LWPOLYLINE
  5
4B7
100
AcDbEntity
  8
ON_OFF_CORPO
100
AcDbPolyline
 62
250
  6
CONTINUOUS
 90
9
 70
0
 10
-28.3371208835
 20
46.7422359809
 10
-28.3081717581
 20
46.72753549
 10
-28.2792895789
 20
46.7114448917
 10
-28.2505211749
 20
46.693990275
 10
-28.2219131904
 20
46.6751999404
 10
-28.1935120097
 20
46.6551043539
 10
-28.1653636817
 20
46.6337360981
 10
-28.1375138454
 20
46.611129819
 10
-28.1155760421
 20
46.592141819
  0
LWPOLYLINE
  5
4B8
100
AcDbEntity
  8
ON_OFF_CORPO
100
AcDbPolyline
 62
250
  6
CONTINUOUS
 90
66
 70
0
 10
6.1182762155
 20
21.0644678472
 10
6.1259725221
 20
21.0555027845
 10
6.1789844209
 20
20.9912387343
 10
6.23106693
 20
20.9255464411
 10
6.2821748181
 20
20.8584829554
 10
6.3322637716
 20
20.790106449
 10
6.3812905971
 20
20.7204759092
 10
6.4292130647
 20
20.6496513135
 10
6.4759898271
 20
20.5776937446
 10
6.5215803114
 20
20.5046655917
 10
6.5659449344
 20
20.43063026
 10
6.6090452401
 20
20.3556519492
 10
6.650844056
 20
20.2797953512
 10
6.6913053629
 20
20.2031258341
 10
6.730394238
 20
20.1257095471
 10
6.7680767851
 20
20.0476135964
 10
6.8043203038
 20
19.9689057519
 10
6.8390933911
 20
19.8896542351
 10
6.872366047
 20
19.8099274463
 10
6.9041095821
 20
19.7297941306
 10
6.9342965849
 20
19.6493234601
 10
6.962900888
 20
19.5685851617
 10
6.9898976866
 20
19.4876492489
 10
7.0152636021
 20
19.406585836
 10
7.0389767406
 20
19.3254649194
 10
7.0610166393
 20
19.2443565023
 10
7.0813642547
 20
19.1633306398
 10
7.1000019576
 20
19.0824575033
 10
7.1169135996
 20
19.0018071624
 10
7.132084545
 20
18.9214494401
 10
7.1455016921
 20
18.8414537638
 10
7.1571534522
 20
18.7618892303
 10
7.167029751
 20
18.6828246065
 10
7.1751220368
 20
18.6043283219
 10
7.1814233046
 20
18.5264683199
 10
7.1859281049
 20
18.4493119626
 10
7.1886325448
 20
18.3729259565
 10
7.1895342867
 20
18.297376348
 10
7.1886325506
 20
18.222728478
 10
7.1859281164
 20
18.1490469078
 10
7.1814233219
 20
18.0763953469
 10
7.1751220597
 20
18.0048366095
 10
7.1670297797
 20
17.9344326077
 10
7.1571534867
 20
17.8652442791
 10
7.1455017322
 20
17.7973315014
 10
7.1320845907
 20
17.7307529674
 10
7.1169136508
 20
17.6655661857
 10
7.1000020143
 20
17.6018274822
 10
7.081364317
 20
17.5395920439
 10
7.0610167071
 20
17.4789137919
 10
7.0389768138
 20
17.4198452685
 10
7.0152636808
 20
17.3624374853
 10
6.9898977705
 20
17.3067399825
 10
6.962900977
 20
17.2528008622
 10
6.9342966785
 20
17.2006668606
 10
6.9041096807
 20
17.1503831867
 10
6.8723661509
 20
17.1019934009
 10
6.8390935005
 20
17.0555392627
 10
6.8043204183
 20
17.0110608272
 10
6.7680769037
 20
16.9685964942
 10
6.73039436
 20
16.9281830829
 10
6.6913054887
 20
16.889855664
 10
6.6508441871
 20
16.853647448
 10
6.609045377
 20
16.8195896603
 10
6.5659450762
 20
16.7877116489
 10
6.5295433327
 20
16.7631436114
  0
LWPOLYLINE
  5
4B9
100
AcDbEntity
  8
ON_OFF_CORPO
100
AcDbPolyline
 62
7
  6
CONTINUOUS
 90
33
 70
0
 10
-5.1896066463
 20
35.3733158644
 10
-5.2211173519
 20
35.4207310176
 10
-5.2524874267
 20
35.4737259363
 10
-5.2801022669
 20
35.5271819126
 10
-5.3039754475
 20
35.5810972723
 10
-5.3240212252
 20
35.6352781019
 10
-5.3402257445
 20
35.6897249352
 10
-5.3526028609
 20
35.7444372386
 10
-5.3611083991
 20
35.7992194973
 10
-5.3657288901
 20
35.8540712258
 10
-5.3664778028
 20
35.9089929096
 10
-5.3633513682
 20
35.9637904912
 10
-5.356335923
 20
36.0184646938
 10
-5.3454451306
 20
36.0730147942
 10
-5.3307162115
 20
36.127244564
 10
-5.3121351948
 20
36.1811529665
 10
-5.2897160515
 20
36.2347410385
 10
-5.2635379157
 20
36.2878156619
 10
-5.2335870781
 20
36.3403750145
 10
-5.199877248
 20
36.3924209186
 10
-5.1625286883
 20
36.4437657224
 10
-5.1215281165
 20
36.4944069056
 10
-5.0768888151
 20
36.5443469885
 10
-5.0287708941
 20
36.5934058801
 10
-4.9771616514
 20
36.6415803892
 10
-4.9220737892
 20
36.6888737071
 10
-4.863705524
 20
36.7351153171
 10
-4.8020469834
 20
36.7803003587
 10
-4.7371080399
 20
36.8244336925
 10
-4.6691165273
 20
36.8673593836
 10
-4.5981483903
 20
36.9090254537
 10
-4.5241276842
 20
36.949483881
 10
-4.447054409
 20
36.9887346656
  0
LINE
  5
4BA
100
AcDbEntity
  8
ON_OFF_CORPO
100
AcDbLine
 62
7
  6
CONTINUOUS
 10
-2.1726379198
 20
31.4748459068
 11
-3.2558331894
 21
33.3430813926
  0
LINE
  5
4BB
100
AcDbEntity
  8
ON_OFF_CORPO
100
AcDbLine
 62
250
  6
CONTINUOUS
 10
-4.447054409
 20
36.9887346656
 11
-4.1048728364
 21
36.0778077672
  0
LINE
  5
4BC
100
AcDbEntity
  8
ON_OFF_CONTATTI
100
AcDbLine
 62
7
  6
CONTINUOUS
 10
-2.66058008
 20
34.6343977958
 11
-2.8620794379
 21
35.2301222216
  0
LWPOLYLINE
  5
4BD
100
AcDbEntity
  8
ON_OFF_CORPO
100
AcDbPolyline
 62
250
  6
CONTINUOUS
 90
18
 70
0
 10
6.5928774125
 20
31.6944453701
 10
6.591670305
 20
31.6835294178
 10
6.5895352024
 20
31.6726445102
 10
6.586476171
 20
31.6618107324
 10
6.5824989313
 20
31.6510478499
 10
6.577610835
 20
31.6403762978
 10
6.5718209859
 20
31.6298156243
 10
6.5651401516
 20
31.6193851784
 10
6.5575805839
 20
31.6091047904
 10
6.5491560359
 20
31.5989929654
 10
6.539882337
 20
31.5890685271
 10
6.5297773703
 20
31.5793512769
 10
6.5188606281
 20
31.5698594031
 10
6.5071520306
 20
31.5606096968
 10
6.494672315
 20
31.5516192547
 10
6.4814441942
 20
31.5429045898
 10
6.467492547
 20
31.5344815258
 10
6.4528432451
 20
31.5263654264
  0
LINE
  5
4BE
100
AcDbEntity
  8
ON_OFF_PORTATASTO
100
AcDbLine
 62
7
  6
CONTINUOUS
 10
-12.8464830383
 20
-9.8750638311
 11
-12.2011406026
 21
-9.0896197747
  0
LINE
  5
4BF
100
AcDbEntity
  8
ON_OFF_PORTATASTO
100
AcDbLine
 62
250
  6
CONTINUOUS
 10
-12.7417086706
 20
-9.8904658037
 11
-12.1265898356
 21
-9.1418067877
  0
LWPOLYLINE
  5
4C0
100
AcDbEntity
  8
ON_OFF_CORPO
100
AcDbPolyline
 62
7
  6
CONTINUOUS
 90
10
 70
0
 10
6.1038087906
 20
14.932818584
 10
6.1072186661
 20
14.9365307312
 10
6.1101129362
 20
14.9398168011
 10
6.1125608485
 20
14.9426872889
 10
6.1145563315
 20
14.945170107
 10
6.1160874604
 20
14.9472974538
 10
6.1172153599
 20
14.9490756479
 10
6.1179388221
 20
14.9505284935
 10
6.1182497236
 20
14.9516837563
 10
6.1182703107
 20
14.9520178635
  0
LWPOLYLINE
  5
4C1
100
AcDbEntity
  8
ON_OFF_PORTATASTO
100
AcDbPolyline
 62
7
  6
CONTINUOUS
 90
18
 70
0
 10
-30.5205302358
 20
41.1814855144
 10
-30.5378249038
 20
41.1799931788
 10
-30.555019302
 20
41.1779996009
 10
-30.5720776397
 20
41.175592418
 10
-30.5889684732
 20
41.1728814644
 10
-30.605672736
 20
41.1699244519
 10
-30.6221795559
 20
41.1667136038
 10
-30.6384729628
 20
41.1633033759
 10
-30.6545427557
 20
41.1597588462
 10
-30.6703859096
 20
41.1560648902
 10
-30.6859947213
 20
41.1522616079
 10
-30.7013638039
 20
41.1483980197
 10
-30.7164905319
 20
41.1444577459
 10
-30.7313715496
 20
41.1404716987
 10
-30.7460040755
 20
41.1364776127
 10
-30.7603827004
 20
41.1324604833
 10
-30.7745062534
 20
41.1284453227
 10
-30.801975999
 20
41.1204977105
  0
LWPOLYLINE
  5
4C2
100
AcDbEntity
  8
ON_OFF_CONTATTI
100
AcDbPolyline
 62
7
  6
CONTINUOUS
 90
3
 70
0
 10
-0.3002623559
 20
35.4169193675
 10
-0.3091105662
 20
35.4206866151
 10
-0.3123030377
 20
35.4217371481
  0
LWPOLYLINE
  5
4C3
100
AcDbEntity
  8
ON_OFF_CORPO
100
AcDbPolyline
 62
250
  6
CONTINUOUS
 90
16
 70
0
 10
-21.1440148144
 20
46.0756394295
 10
-21.1462848797
 20
46.0767553372
 10
-21.1595027925
 20
46.0825275483
 10
-21.1731817382
 20
46.0872937984
 10
-21.1872914143
 20
46.0910435287
 10
-21.201800564
 20
46.0937684326
 10
-21.2166770457
 20
46.0954624738
 10
-21.231887904
 20
46.0961218995
 10
-21.2473994426
 20
46.0957452489
 10
-21.2631772993
 20
46.0943333564
 10
-21.2791865219
 20
46.0918893496
 10
-21.2953916457
 20
46.0884186428
 10
-21.311756772
 20
46.0839289244
 10
-21.3282456475
 20
46.0784301405
 10
-21.3448217449
 20
46.0719344722
 10
-21.3614483438
 20
46.0644563093
  0
LINE
  5
4C4
100
AcDbEntity
  8
ON_OFF_CORPO
100
AcDbLine
 62
7
  6
CONTINUOUS
 10
-3.8415531665
 20
35.7192794746
 11
-3.3994805916
 21
35.4982431872
  0
LINE
  5
4C5
100
AcDbEntity
  8
ON_OFF_CONTATTI
100
AcDbLine
 62
7
  6
CONTINUOUS
 10
-2.1551104978
 20
34.8766377515
 11
-2.8620794379
 21
35.2301222216
  0
LINE
  5
4C6
100
AcDbEntity
  8
ON_OFF_CORPO
100
AcDbLine
 62
7
  6
CONTINUOUS
 10
-19.4948066648
 20
43.5682763286
 11
-20.6441845569
 21
44.1429652747
  0
LINE
  5
4C7
100
AcDbEntity
  8
ON_OFF_CORPO
100
AcDbLine
 62
7
  6
CONTINUOUS
 10
-3.4115022652
 20
35.9372667259
 11
-3.3994805916
 21
35.9312558891
  0
LINE
  5
4C8
100
AcDbEntity
  8
ON_OFF_CORPO
100
AcDbLine
 62
250
  6
CONTINUOUS
 10
-20.1578496264
 20
44.3947725562
 11
-18.9801906396
 21
43.8059430629
  0
LINE
  5
4C9
100
AcDbEntity
  8
ON_OFF_CORPO
100
AcDbLine
 62
7
  6
CONTINUOUS
 10
-20.0260273904
 20
44.4044640138
 11
-18.90158805
 21
43.8422443435
  0
LINE
  5
4CA
100
AcDbEntity
  8
ON_OFF_CORPO
100
AcDbLine
 62
250
  6
CONTINUOUS
 10
-21.3614483438
 20
46.0644563093
 11
-20.6514191851
 21
45.70944173
  0
LINE
  5
4CB
100
AcDbEntity
  8
ON_OFF_CORPO
100
AcDbLine
 62
7
  6
CONTINUOUS
 10
-21.1440119035
 20
46.0756379741
 11
-20.3940132979
 21
45.7006386713
  0
LINE
  5
4CC
100
AcDbEntity
  8
ON_OFF_CORPO
100
AcDbLine
 62
7
  6
CONTINUOUS
 10
0.9848355133
 20
35.0905114799
 11
-0.3774943166
 21
35.7716763949
  0
LINE
  5
4CD
100
AcDbEntity
  8
ON_OFF_CORPO
100
AcDbLine
 62
7
  6
CONTINUOUS
 10
2.1617398926
 20
35.6340449235
 11
-0.9450894034
 21
37.1874595715
  0
LINE
  5
4CE
100
AcDbEntity
  8
ON_OFF_CORPO
100
AcDbLine
 62
7
  6
CONTINUOUS
 10
-7.0941818976
 20
40.2620058186
 11
-7.1732456299
 21
40.3015376848
  0
LINE
  5
4CF
100
AcDbEntity
  8
ON_OFF_CORPO
100
AcDbLine
 62
7
  6
CONTINUOUS
 10
-10.276162413
 20
41.8529960763
 11
-10.3552261452
 21
41.8925279424
  0
LINE
  5
4D0
100
AcDbEntity
  8
ON_OFF_CORPO
100
AcDbLine
 62
7
  6
CONTINUOUS
 10
-13.4581429283
 20
43.443986334
 11
-13.5372066605
 21
43.4835182001
  0
LINE
  5
4D1
100
AcDbEntity
  8
ON_OFF_CONTATTI
100
AcDbLine
 62
7
  6
CONTINUOUS
 10
0.5482657815
 20
34.9926552988
 11
0.6560531036
 21
34.9386688676
  0
LWPOLYLINE
  5
4D2
100
AcDbEntity
  8
ON_OFF_CONTATTI
100
AcDbPolyline
 62
7
  6
CONTINUOUS
 90
10
 70
0
 10
0.5103217142
 20
35.0053229538
 10
0.4128446605
 20
35.0553783854
 10
0.3172314587
 20
35.1043542611
 10
0.2234821087
 20
35.1522505807
 10
0.1316110275
 20
35.1990687684
 10
0.041603798
 20
35.2448074002
 10
-0.04658283
 20
35.2894622032
 10
-0.1329632734
 20
35.3330317533
 10
-0.2175231154
 20
35.3755174748
 10
-0.3002623559
 20
35.4169193675
  0
LWPOLYLINE
  5
4D3
100
AcDbEntity
  8
ON_OFF_CORPO
100
AcDbPolyline
 62
7
  6
CONTINUOUS
 90
50
 70
0
 10
-21.1440148257
 20
46.0756394068
 10
-21.1473896366
 20
46.0773793557
 10
-21.1518250959
 20
46.079813527
 10
-21.1567963601
 20
46.0827208283
 10
-21.1622758922
 20
46.0861255818
 10
-21.1682246052
 20
46.0900424916
 10
-21.1746176088
 20
46.0944927961
 10
-21.1814269742
 20
46.0994940089
 10
-21.1886073295
 20
46.1050483118
 10
-21.196125367
 20
46.1111637765
 10
-21.2039537914
 20
46.117851149
 10
-21.2120567135
 20
46.1251116729
 10
-21.2204019219
 20
46.1329476302
 10
-21.2289585668
 20
46.1413607878
 10
-21.2376944184
 20
46.1503493163
 10
-21.2465789283
 20
46.1599108108
 10
-21.255578491
 20
46.1700380441
 10
-21.2646578936
 20
46.1807195614
 10
-21.2737900153
 20
46.1919507834
 10
-21.2829372606
 20
46.2037119654
 10
-21.2920499561
 20
46.2159639295
 10
-21.3010974766
 20
46.2286877489
 10
-21.3100480786
 20
46.2418595128
 10
-21.3188532934
 20
46.2554259327
 10
-21.3274841744
 20
46.2693580586
 10
-21.3359137501
 20
46.2836261125
 10
-21.3441006707
 20
46.2981699986
 10
-21.3520213257
 20
46.3129551123
 10
-21.3596535574
 20
46.3279457427
 10
-21.3669635473
 20
46.3430761543
 10
-21.3739344117
 20
46.358307737
 10
-21.3805505733
 20
46.373601567
 10
-21.386786919
 20
46.3888888094
 10
-21.3926337319
 20
46.4041281925
 10
-21.398083767
 20
46.4192810222
 10
-21.4031226145
 20
46.4342813863
 10
-21.4077486322
 20
46.4490899937
 10
-21.411962451
 20
46.4636686487
 10
-21.4157596338
 20
46.4779542228
 10
-21.4191459851
 20
46.4919090544
 10
-21.4221306273
 20
46.5055008137
 10
-21.4247202012
 20
46.5186765998
 10
-21.4269276339
 20
46.5314028828
 10
-21.4287690601
 20
46.5436540604
 10
-21.4302606066
 20
46.5553917389
 10
-21.431422033
 20
46.566591494
 10
-21.4322745545
 20
46.5772313236
 10
-21.4328404835
 20
46.5872790569
 10
-21.4331449457
 20
46.596712456
 10
-21.4332181093
 20
46.6039337736
  0
LINE
  5
4D4
100
AcDbEntity
  8
ON_OFF_CONTATTI
100
AcDbLine
 62
7
  6
CONTINUOUS
 10
0.5180801429
 20
35.0007364817
 11
0.5103217142
 21
35.0053229538
  0
LINE
  5
4D5
100
AcDbEntity
  8
ON_OFF_CONTATTI
100
AcDbLine
 62
7
  6
CONTINUOUS
 10
-2.6500852446
 20
34.6291503781
 11
-2.4065895783
 21
34.4042780474
  0
LWPOLYLINE
  5
4D6
100
AcDbEntity
  8
ON_OFF_CORPO
100
AcDbPolyline
 62
250
  6
CONTINUOUS
 90
28
 70
0
 10
6.4528432451
 20
33.7394758736
 10
6.4523152286
 20
33.7901813778
 10
6.4505864328
 20
33.8414391012
 10
6.4476581876
 20
33.8932055884
 10
6.4435327463
 20
33.9454366755
 10
6.4382136072
 20
33.9980883852
 10
6.4317054591
 20
34.051116982
 10
6.4240136673
 20
34.1044779325
 10
6.4151446249
 20
34.1581256887
 10
6.4051060627
 20
34.21201459
 10
6.3939065005
 20
34.266098831
 10
6.3815552871
 20
34.3203328217
 10
6.3680628985
 20
34.3746709852
 10
6.3534407167
 20
34.4290675081
 10
6.3377010811
 20
34.4834762132
 10
6.3208573522
 20
34.5378509161
 10
6.3029238852
 20
34.5921455158
 10
6.283915798
 20
34.6463142217
 10
6.2638489929
 20
34.700311426
 10
6.2427404481
 20
34.7540917115
 10
6.2206081107
 20
34.807609393
 10
6.1974706853
 20
34.8608187496
 10
6.1733480539
 20
34.9136745022
 10
6.1482605531
 20
34.9661323373
 10
6.1222288231
 20
35.018148431
 10
6.0952747523
 20
35.0696790015
 10
6.0674215009
 20
35.1206803642
 10
6.0386927695
 20
35.1711094482
  0
LWPOLYLINE
  5
4D7
100
AcDbEntity
  8
ON_OFF_CORPO
100
AcDbPolyline
 62
7
  6
CONTINUOUS
 90
25
 70
0
 10
6.5931732741
 20
33.9131355374
 10
6.5927600695
 20
33.9548461643
 10
6.5908881183
 20
34.0117253967
 10
6.587523588
 20
34.0688693164
 10
6.5826845838
 20
34.1262381245
 10
6.5763901658
 20
34.183791101
 10
6.5686595404
 20
34.2414782877
 10
6.5595113734
 20
34.299260415
 10
6.5489641121
 20
34.3570968192
 10
6.5370387803
 20
34.4149297968
 10
6.5237548088
 20
34.47271918
 10
6.509130944
 20
34.5304237469
 10
6.4931920044
 20
34.5879805094
 10
6.4759590066
 20
34.6453474631
 10
6.45745141
 20
34.702483888
 10
6.4376975116
 20
34.7593262413
 10
6.4167194089
 20
34.815832581
 10
6.3945378608
 20
34.8719625177
 10
6.3711843168
 20
34.9276536394
 10
6.3466819189
 20
34.9828645469
 10
6.3210530693
 20
35.0375553236
 10
6.2943305785
 20
35.0916669057
 10
6.2665409596
 20
35.1451541789
 10
6.2377075043
 20
35.1979812436
 10
6.2151143569
 20
35.237658583
  0
LWPOLYLINE
  5
4D8
100
AcDbEntity
  8
ON_OFF_CORPO
100
AcDbPolyline
 62
7
  6
CONTINUOUS
 90
24
 70
0
 10
6.5931733295
 20
14.5309960686
 10
6.5931598198
 20
14.5337627059
 10
6.5926053197
 20
14.548616012
 10
6.5912340485
 20
14.5634778023
 10
6.589040475
 20
14.5783186484
 10
6.5860134146
 20
14.5931342263
 10
6.5821463435
 20
14.6078844673
 10
6.577437241
 20
14.6225243578
 10
6.5718745061
 20
14.6370435957
 10
6.5654548345
 20
14.6514048256
 10
6.5581802404
 20
14.665564584
 10
6.550038916
 20
14.6795082772
 10
6.541026051
 20
14.6932073017
 10
6.531147527
 20
14.7066205831
 10
6.5203989345
 20
14.719724343
 10
6.5087787412
 20
14.7324913074
 10
6.4962856545
 20
14.7448971391
 10
6.4829016988
 20
14.7569328662
 10
6.4686158843
 20
14.7685787142
 10
6.4534175871
 20
14.7798144059
 10
6.4372707605
 20
14.7906356618
 10
6.4201438074
 20
14.8010275146
 10
6.4020257612
 20
14.8109609789
 10
6.3947586366
 20
14.8146695274
  0
LINE
  5
4D9
100
AcDbEntity
  8
ON_OFF_CORPO
100
AcDbLine
 62
250
  6
CONTINUOUS
 10
6.0340781556
 20
14.8790587639
 11
6.0340781556
 21
31.2202661124
  0
LINE
  5
4DA
100
AcDbEntity
  8
ON_OFF_CORPO
100
AcDbLine
 62
7
  6
CONTINUOUS
 10
6.1182762155
 20
31.2656928973
 11
6.1182762155
 21
14.9520153214
  0
LINE
  5
4DB
100
AcDbEntity
  8
ON_OFF_CORPO
100
AcDbLine
 62
250
  6
CONTINUOUS
 10
6.4528432451
 20
14.3605148471
 11
6.4528432451
 21
11.5643743492
  0
LINE
  5
4DC
100
AcDbEntity
  8
ON_OFF_CORPO
100
AcDbLine
 62
250
  6
CONTINUOUS
 10
6.4528432451
 20
31.5263654264
 11
6.4528432451
 21
33.7394758736
  0
LINE
  5
4DD
100
AcDbEntity
  8
ON_OFF_CORPO
100
AcDbLine
 62
7
  6
CONTINUOUS
 10
6.593173345
 20
14.5310518784
 11
6.593173345
 21
11.7380389413
  0
LWPOLYLINE
  5
4DE
100
AcDbEntity
  8
ON_OFF_CORPO
100
AcDbPolyline
 62
250
  6
CONTINUOUS
 90
23
 70
0
 10
6.4528432451
 20
11.5643743492
 10
6.4525706726
 20
11.5323581015
 10
6.4513017344
 20
11.5008781564
 10
6.4490380006
 20
11.4699783171
 10
6.4457822512
 20
11.4397019277
 10
6.4415390855
 20
11.4100907353
 10
6.4363147528
 20
11.3811849433
 10
6.4301161196
 20
11.3530241622
 10
6.4229516567
 20
11.3256484219
 10
6.4148320219
 20
11.2990970385
 10
6.4057685746
 20
11.2734073581
 10
6.3957736802
 20
11.2486147805
 10
6.3848615596
 20
11.2247538667
 10
6.3730473351
 20
11.2018578686
 10
6.3603473599
 20
11.179958741
 10
6.3467795719
 20
11.1590871337
 10
6.3323628077
 20
11.1392721261
 10
6.3171171259
 20
11.120541447
 10
6.3010641074
 20
11.1029215094
 10
6.28422626
 20
11.0864369897
 10
6.2666269813
 20
11.0711108035
 10
6.2482908672
 20
11.0569643433
 10
6.2292435954
 20
11.0440174094
  0
LINE
  5
4DF
100
AcDbEntity
  8
ON_OFF_CORPO
100
AcDbLine
 62
250
  6
CONTINUOUS
 10
6.593173345
 20
31.7031576415
 11
6.5931694392
 21
31.70170154
  0
LWPOLYLINE
  5
4E0
100
AcDbEntity
  8
ON_OFF_CORPO
100
AcDbPolyline
 62
250
  6
CONTINUOUS
 90
16
 70
0
 10
6.5931185211
 20
11.7343368843
 10
6.5922163738
 20
11.7225788691
 10
6.5902087115
 20
11.710855102
 10
6.5870999813
 20
11.6991915544
 10
6.5828970701
 20
11.687614064
 10
6.5776092884
 20
11.6761482783
 10
6.57124835
 20
11.6648195969
 10
6.563828346
 20
11.6536531162
 10
6.5553657138
 20
11.6426735727
 10
6.5458792003
 20
11.6319052893
 10
6.5353898208
 20
11.6213721205
 10
6.523920812
 20
11.6110974002
 10
6.5114975808
 20
11.6011038898
 10
6.4981476482
 20
11.5914137275
 10
6.4839005877
 20
11.5820483797
 10
6.4687879605
 20
11.5730285932
  0
LINE
  5
4E1
100
AcDbEntity
  8
ON_OFF_PORTATASTO
100
AcDbLine
 62
250
  6
CONTINUOUS
 10
-10.7944059587
 20
-9.8078987261
 11
-11.4167239908
 21
-10.5529581436
  0
LINE
  5
4E2
100
AcDbEntity
  8
ON_OFF_PORTATASTO
100
AcDbLine
 62
250
  6
CONTINUOUS
 10
-10.4413697707
 20
-9.9336685642
 11
-11.1525903788
 21
-10.7851650413
  0
LWPOLYLINE
  5
4E3
100
AcDbEntity
  8
ON_OFF_PORTATASTO
100
AcDbPolyline
 62
250
  6
CONTINUOUS
 90
18
 70
0
 10
-12.8464827834
 20
-9.8750635208
 10
-12.8443280181
 20
-9.872818741
 10
-12.8412775387
 20
-9.8705442841
 10
-12.8377136627
 20
-9.8687156546
 10
-12.8336461253
 20
-9.8673378549
 10
-12.8290860449
 20
-9.8664146534
 10
-12.8240458814
 20
-9.865948572
 10
-12.8185393979
 20
-9.8659408827
 10
-12.8125816348
 20
-9.8663916066
 10
-12.806188855
 20
-9.8672995142
 10
-12.7993785285
 20
-9.8686621255
 10
-12.7921692911
 20
-9.8704757091
 10
-12.7845808629
 20
-9.8727352978
 10
-12.7766339542
 20
-9.8754347187
 10
-12.7683502368
 20
-9.8785666082
 10
-12.7597523227
 20
-9.8821224176
 10
-12.7508637081
 20
-9.8860924306
 10
-12.7417086706
 20
-9.8904658037
  0
LINE
  5
4E4
100
AcDbEntity
  8
ON_OFF_CORPO
100
AcDbLine
 62
7
  6
CONTINUOUS
 10
-3.2558331894
 20
-2.7701779452
 11
-2.1726379198
 21
-1.9851377289
  0
LWPOLYLINE
  5
4E5
100
AcDbEntity
  8
ON_OFF_CORPO
100
AcDbPolyline
 62
250
  6
CONTINUOUS
 90
4
 70
0
 10
-1.0418392784
 20
-1.3468004355
 10
-1.0144411721
 20
-1.3314462891
 10
-0.9878990594
 20
-1.3147586282
 10
-0.9672716843
 20
-1.3004383027
  0
LWPOLYLINE
  5
4E6
100
AcDbEntity
  8
ON_OFF_CORPO
100
AcDbPolyline
 62
250
  6
CONTINUOUS
 90
4
 70
0
 10
-1.2477938254
 20
-1.4960649372
 10
-1.222324847
 20
-1.4818520403
 10
-1.1975913197
 20
-1.4664877456
 10
-1.1732262314
 20
-1.4497028044
  0
LWPOLYLINE
  5
4E7
100
AcDbEntity
  8
ON_OFF_CORPO
100
AcDbPolyline
 62
250
  6
CONTINUOUS
 90
4
 70
0
 10
-1.2925817554
 20
-1.5239996312
 10
-1.2862066858
 20
-1.5205479718
 10
-1.2666553321
 20
-1.5089138907
 10
-1.2477938254
 20
-1.4960649372
  0
LWPOLYLINE
  5
4E8
100
AcDbEntity
  8
ON_OFF_CORPO
100
AcDbPolyline
 62
250
  6
CONTINUOUS
 90
20
 70
0
 10
-0.6276888028
 20
-0.3293173365
 10
-0.6005988503
 20
-0.3147202598
 10
-0.574692858
 20
-0.2995954153
 10
-0.5500119169
 20
-0.2839667937
 10
-0.526595175
 20
-0.2678591843
 10
-0.5044797752
 20
-0.2512981365
 10
-0.4837007962
 20
-0.234309919
 10
-0.4642911967
 20
-0.2169214776
 10
-0.4462817636
 20
-0.1991603935
 10
-0.4297010629
 20
-0.1810548386
 10
-0.4145753942
 20
-0.1626335312
 10
-0.4009287493
 20
-0.1439256906
 10
-0.388782774
 20
-0.1249609905
 10
-0.3781567339
 20
-0.105769512
 10
-0.3690674836
 20
-0.0863816959
 10
-0.3615294401
 20
-0.0668282946
 10
-0.35555456
 20
-0.0471403228
 10
-0.3511523205
 20
-0.027349009
 10
-0.3483297042
 20
-0.0074857455
 10
-0.3470911882
 20
0.0124179614
  0
LINE
  5
4E9
100
AcDbEntity
  8
ON_OFF_CORPO
100
AcDbLine
 62
250
  6
CONTINUOUS
 10
-1.2477938254
 20
-1.4960649372
 11
-2.1726379198
 21
-1.9851377289
  0
LINE
  5
4EA
100
AcDbEntity
  8
ON_OFF_CORPO
100
AcDbLine
 62
7
  6
CONTINUOUS
 10
-1.2925817554
 20
-1.5239996312
 11
-2.1943300221
 21
-2.0008589687
  0
LINE
  5
4EB
100
AcDbEntity
  8
ON_OFF_CORPO
100
AcDbLine
 62
250
  6
CONTINUOUS
 10
-8.4906494162
 20
-4.471348279
 11
-0.6276888028
 21
-0.3293173365
  0
LINE
  5
4EC
100
AcDbEntity
  8
ON_OFF_CORPO
100
AcDbLine
 62
250
  6
CONTINUOUS
 10
-8.4906494162
 20
-5.2706662148
 11
-1.0418392784
 21
-1.3468004355
  0
LINE
  5
4ED
100
AcDbEntity
  8
ON_OFF_CORPO
100
AcDbLine
 62
7
  6
CONTINUOUS
 10
-8.4906494162
 20
-5.5200791054
 11
-3.2558331894
 21
-2.7701779452
  0
LINE
  5
4EE
100
AcDbEntity
  8
ON_OFF_PORTATASTO
100
AcDbLine
 62
250
  6
CONTINUOUS
 10
-13.3765092886
 20
-4.8302485256
 11
-12.1611209099
 21
-4.2588268983
  0
LINE
  5
4EF
100
AcDbEntity
  8
ON_OFF_PORTATASTO
100
AcDbLine
 62
7
  6
CONTINUOUS
 10
-13.4123618471
 20
-5.265952804
 11
-12.3603544907
 21
-4.771345676
  0
LINE
  5
4F0
100
AcDbEntity
  8
ON_OFF_PORTATASTO
100
AcDbLine
 62
7
  6
CONTINUOUS
 10
-27.3350451348
 20
45.5125911759
 11
-28.6949770749
 21
45.4388429885
  0
LWPOLYLINE
  5
4F1
100
AcDbEntity
  8
ON_OFF_CORPO
100
AcDbPolyline
 62
250
  6
CONTINUOUS
 90
15
 70
0
 10
-14.0601053373
 20
45.7560010511
 10
-14.0733232501
 20
45.7617732623
 10
-14.0870021958
 20
45.7665395123
 10
-14.101111872
 20
45.7702892426
 10
-14.1156210217
 20
45.7730141466
 10
-14.1304975034
 20
45.7747081878
 10
-14.1457083616
 20
45.7753676135
 10
-14.1612199002
 20
45.7749909629
 10
-14.176997757
 20
45.7735790704
 10
-14.1930069796
 20
45.7711350636
 10
-14.2092121034
 20
45.7676643567
 10
-14.2255772296
 20
45.7631746384
 10
-14.2420661051
 20
45.7576758544
 10
-14.2586422026
 20
45.7511801862
 10
-14.2752688014
 20
45.7437020233
  0
LWPOLYLINE
  5
4F2
100
AcDbEntity
  8
ON_OFF_CORPO
100
AcDbPolyline
 62
250
  6
CONTINUOUS
 90
15
 70
0
 10
-23.4330854139
 20
50.4424910894
 10
-23.4463033267
 20
50.4482633006
 10
-23.4599822724
 20
50.4530295506
 10
-23.4740919485
 20
50.4567792809
 10
-23.4886010983
 20
50.4595041849
 10
-23.50347758
 20
50.4611982261
 10
-23.5186884382
 20
50.4618576518
 10
-23.5341999768
 20
50.4614810012
 10
-23.5499778336
 20
50.4600691086
 10
-23.5659870562
 20
50.4576251019
 10
-23.58219218
 20
50.454154395
 10
-23.5985573062
 20
50.4496646767
 10
-23.6150461817
 20
50.4441658927
 10
-23.6316222792
 20
50.4376702245
 10
-23.648248878
 20
50.4301920616
  0
LWPOLYLINE
  5
4F3
100
AcDbEntity
  8
ON_OFF_CORPO
100
AcDbPolyline
 62
7
  6
CONTINUOUS
 90
24
 70
0
 10
-14.0578530401
 20
45.7548938572
 10
-14.0745538665
 20
45.7630288628
 10
-14.1050274162
 20
45.7767840743
 10
-14.1355503608
 20
45.7891837025
 10
-14.1660713167
 20
45.8002346724
 10
-14.1965673743
 20
45.8099576037
 10
-14.2270367608
 20
45.8183773765
 10
-14.2574387951
 20
45.82550516
 10
-14.2877378178
 20
45.8313556056
 10
-14.3179318377
 20
45.8359495766
 10
-14.3479748882
 20
45.8392989603
 10
-14.3778298742
 20
45.8414185801
 10
-14.4075020983
 20
45.8423262809
 10
-14.4369484455
 20
45.8420362896
 10
-14.4661262641
 20
45.8405648263
 10
-14.4950364551
 20
45.8379254334
 10
-14.5236322059
 20
45.8341352092
 10
-14.5518736974
 20
45.8292134882
 10
-14.5797683021
 20
45.8231702236
 10
-14.6072713171
 20
45.8160238486
 10
-14.6343414619
 20
45.8077952747
 10
-14.6609876402
 20
45.7984902866
 10
-14.6871836486
 20
45.7881227107
 10
-14.7094944113
 20
45.778292067
  0
LWPOLYLINE
  5
4F4
100
AcDbEntity
  8
ON_OFF_CORPO
100
AcDbPolyline
 62
7
  6
CONTINUOUS
 90
24
 70
0
 10
-23.430825143
 20
50.4413799008
 10
-23.4466712244
 20
50.4491090664
 10
-23.4764325238
 20
50.4625969334
 10
-23.5064030455
 20
50.474853052
 10
-23.5365567333
 20
50.4858705682
 10
-23.5668613371
 20
50.4956423254
 10
-23.5972717728
 20
50.5041596274
 10
-23.6277561556
 20
50.5114190867
 10
-23.6582779414
 20
50.5174175726
 10
-23.6887743717
 20
50.5221510639
 10
-23.7192022733
 20
50.5256225653
 10
-23.7495215358
 20
50.5278370247
 10
-23.77966538
 20
50.5288015866
 10
-23.8095822996
 20
50.5285300079
 10
-23.8392341526
 20
50.5270383601
 10
-23.8685687689
 20
50.5243454032
 10
-23.8975401684
 20
50.5204733694
 10
-23.9261049886
 20
50.5154479809
 10
-23.9542127703
 20
50.5092991793
 10
-23.9818219965
 20
50.5020582686
 10
-24.0088924043
 20
50.4937590391
 10
-24.0353771553
 20
50.4844417817
 10
-24.061238422
 20
50.4741478896
 10
-24.0874462713
 20
50.4624476408
  0
LWPOLYLINE
  5
4F5
100
AcDbEntity
  8
ON_OFF_CORPO
100
AcDbPolyline
 62
250
  6
CONTINUOUS
 90
16
 70
0
 10
-22.063110714
 20
49.7575228645
 10
-22.0653836678
 20
49.7586402167
 10
-22.0786015806
 20
49.76441243
 10
-22.0922805265
 20
49.769178682
 10
-22.1063902032
 20
49.7729284142
 10
-22.1208993538
 20
49.77565332
 10
-22.1357758366
 20
49.7773473628
 10
-22.1509866962
 20
49.7780067899
 10
-22.1664982365
 20
49.7776301404
 10
-22.1822760951
 20
49.7762182487
 10
-22.1982853198
 20
49.7737742425
 10
-22.214490446
 20
49.7703035359
 10
-22.2308555747
 20
49.7658138175
 10
-22.2473444528
 20
49.7603150331
 10
-22.263920553
 20
49.753819364
 10
-22.2805471548
 20
49.7463412
  0
LINE
  5
4F6
100
AcDbEntity
  8
ON_OFF_CORPO
100
AcDbLine
 62
250
  6
CONTINUOUS
 10
-0.1113723797
 20
37.6191291971
 11
3.0439387929
 21
36.0414736108
  0
LINE
  5
4F7
100
AcDbEntity
  8
ON_OFF_CORPO
100
AcDbLine
 62
7
  6
CONTINUOUS
 10
0.0204498562
 20
37.6288206546
 11
3.1225413825
 21
36.0777748915
  0
LINE
  5
4F8
100
AcDbEntity
  8
ON_OFF_CORPO
100
AcDbLine
 62
7
  6
CONTINUOUS
 10
-6.0059625005
 20
40.7785562918
 11
-6.1218416992
 21
40.8364958912
  0
LINE
  5
4F9
100
AcDbEntity
  8
ON_OFF_CORPO
100
AcDbLine
 62
7
  6
CONTINUOUS
 10
-9.1879430158
 20
42.3695465495
 11
-9.3038222145
 21
42.4274861489
  0
LINE
  5
4FA
100
AcDbEntity
  8
ON_OFF_CORPO
100
AcDbLine
 62
7
  6
CONTINUOUS
 10
-12.3699235311
 20
43.9605368072
 11
-12.4858027299
 21
44.0184764065
  0
LINE
  5
4FB
100
AcDbEntity
  8
ON_OFF_CORPO
100
AcDbLine
 62
250
  6
CONTINUOUS
 10
-23.648248878
 20
50.4301920616
 11
-22.2805471548
 21
49.7463412
  0
LINE
  5
4FC
100
AcDbEntity
  8
ON_OFF_CORPO
100
AcDbLine
 62
250
  6
CONTINUOUS
 10
-14.2752688014
 20
45.7437020233
 11
-13.0878591649
 21
45.149997205
  0
LINE
  5
4FD
100
AcDbEntity
  8
ON_OFF_CORPO
100
AcDbLine
 62
250
  6
CONTINUOUS
 10
5.4064985545
 20
35.9028183453
 11
4.1279361863
 21
36.5420995295
  0
LINE
  5
4FE
100
AcDbEntity
  8
ON_OFF_CORPO
100
AcDbLine
 62
250
  6
CONTINUOUS
 10
-0.5907976492
 20
38.9014664472
 11
-5.1538911586
 21
41.1830132019
  0
LINE
  5
4FF
100
AcDbEntity
  8
ON_OFF_CORPO
100
AcDbLine
 62
250
  6
CONTINUOUS
 10
-6.7238981342
 20
41.9680166897
 11
-8.335871674
 21
42.7740034596
  0
LINE
  5
500
100
AcDbEntity
  8
ON_OFF_CORPO
100
AcDbLine
 62
250
  6
CONTINUOUS
 10
-9.9058786495
 20
43.5590069474
 11
-11.5178521893
 21
44.3649937172
  0
LINE
  5
501
100
AcDbEntity
  8
ON_OFF_CORPO
100
AcDbLine
 62
7
  6
CONTINUOUS
 10
-23.4308124378
 20
50.4413737264
 11
-22.063110714
 21
49.7575228645
  0
LINE
  5
502
100
AcDbEntity
  8
ON_OFF_CORPO
100
AcDbLine
 62
7
  6
CONTINUOUS
 10
-14.0578323612
 20
45.7548836881
 11
-12.8509804426
 21
45.1514577288
  0
LINE
  5
503
100
AcDbEntity
  8
ON_OFF_CORPO
100
AcDbLine
 62
7
  6
CONTINUOUS
 10
5.6239349948
 20
35.9140000101
 11
4.3054031796
 21
36.5732659177
  0
LINE
  5
504
100
AcDbEntity
  8
ON_OFF_CORPO
100
AcDbLine
 62
7
  6
CONTINUOUS
 10
-0.333391762
 20
38.8926633885
 11
-4.9558970003
 21
41.2039160077
  0
LINE
  5
505
100
AcDbEntity
  8
ON_OFF_CORPO
100
AcDbLine
 62
7
  6
CONTINUOUS
 10
-6.4870194119
 20
41.9694772135
 11
-8.1378775157
 21
42.7949062654
  0
LINE
  5
506
100
AcDbEntity
  8
ON_OFF_CORPO
100
AcDbLine
 62
7
  6
CONTINUOUS
 10
-9.6689999273
 20
43.5604674712
 11
-11.319858031
 21
44.385896523
  0
LWPOLYLINE
  5
507
100
AcDbEntity
  8
ON_OFF_CORPO
100
AcDbPolyline
 62
250
  6
CONTINUOUS
 90
43
 70
0
 10
-22.2805471548
 20
49.7463412
 10
-22.2538845187
 20
49.7326252981
 10
-22.2272681976
 20
49.7177141394
 10
-22.2007356985
 20
49.7016285366
 10
-22.1743250778
 20
49.684391112
 10
-22.1480728263
 20
49.6660258091
 10
-22.1220138481
 20
49.6465576754
 10
-22.0961841256
 20
49.6260132153
 10
-22.0706207325
 20
49.6044214553
 10
-22.0453597126
 20
49.5818134202
 10
-22.0204368524
 20
49.5582209964
 10
-21.9958868816
 20
49.5336767896
 10
-21.971743513
 20
49.5082150346
 10
-21.9480405622
 20
49.4818712211
 10
-21.9248113987
 20
49.4546821367
 10
-21.9020881397
 20
49.4266857808
 10
-21.8799025262
 20
49.3979211319
 10
-21.8582858184
 20
49.3684284403
 10
-21.8372682557
 20
49.3382492398
 10
-21.8168792987
 20
49.3074258421
 10
-21.7971474559
 20
49.2760011881
 10
-21.7781001894
 20
49.2440191269
 10
-21.7597640871
 20
49.2115243933
 10
-21.7421648228
 20
49.1785623918
 10
-21.7253269879
 20
49.1451790514
 10
-21.7092739793
 20
49.1114209539
 10
-21.694028306
 20
49.0773354213
 10
-21.679611548
 20
49.0429702935
 10
-21.6660437615
 20
49.0083738246
 10
-21.653343787
 20
48.973594277
 10
-21.6415295693
 20
48.9386800036
 10
-21.6306174641
 20
48.9036799883
 10
-21.6206225886
 20
48.8686431345
 10
-21.611559159
 20
48.8336178644
 10
-21.6034395413
 20
48.7986527993
 10
-21.5962750948
 20
48.763797367
 10
-21.5900764737
 20
48.729101076
 10
-21.5848521436
 20
48.694613411
 10
-21.580608982
 20
48.6603818136
 10
-21.5773532512
 20
48.6264523244
 10
-21.5750895449
 20
48.5928719027
 10
-21.5738206303
 20
48.5596883187
 10
-21.5735480694
 20
48.5269481534
  0
LWPOLYLINE
  5
508
100
AcDbEntity
  8
ON_OFF_CONTATTI
100
AcDbPolyline
 62
250
  6
CONTINUOUS
 90
5
 70
0
 10
0.5482657815
 20
34.9926552988
 10
0.5727887718
 20
34.9721509204
 10
0.5971545335
 20
34.950872656
 10
0.6212912837
 20
34.9288103787
 10
0.6256521588
 20
34.9246287039
  0
LWPOLYLINE
  5
509
100
AcDbEntity
  8
ON_OFF_CONTATTI
100
AcDbPolyline
 62
250
  6
CONTINUOUS
 90
6
 70
0
 10
0.4546291823
 20
34.9863592903
 10
0.4774896117
 20
34.9667805569
 10
0.50006715
 20
34.9464275104
 10
0.5223617972
 20
34.9253001507
 10
0.5444072956
 20
34.9034702638
 10
0.5553123802
 20
34.8921434631
  0
LINE
  5
50A
100
AcDbEntity
  8
ON_OFF_CORPO
100
AcDbLine
 62
7
  6
CONTINUOUS
 10
-0.0489918042
 20
38.5449998059
 11
0.0970568762
 21
38.1619958817
  0
LWPOLYLINE
  5
50B
100
AcDbEntity
  8
ON_OFF_CORPO
100
AcDbPolyline
 62
250
  6
CONTINUOUS
 90
30
 70
0
 10
6.1182762155
 20
18.6689775518
 10
6.12727237
 20
18.616252644
 10
6.1378885552
 20
18.543499203
 10
6.1469123569
 20
18.4696875048
 10
6.1546683008
 20
18.395552132
 10
6.1611602258
 20
18.320671737
 10
6.1663001984
 20
18.2455667905
 10
6.1703971089
 20
18.1723704581
 10
6.1735711634
 20
18.1016471827
 10
6.1758530091
 20
18.032879204
 10
6.1775341738
 20
17.9665480698
 10
6.1787465221
 20
17.9031773749
 10
6.1795399326
 20
17.8422515092
 10
6.1800422607
 20
17.7827061566
 10
6.1802845871
 20
17.7245428016
 10
6.1802846853
 20
17.6678022308
 10
6.1800428492
 20
17.611526052
 10
6.1795409127
 20
17.5557879666
 10
6.178747351
 20
17.5006058926
 10
6.177534599
 20
17.4449985695
 10
6.1758522353
 20
17.3886563096
 10
6.1735669799
 20
17.3320799546
 10
6.1703882994
 20
17.2755304524
 10
6.1662889158
 20
17.2187746092
 10
6.1611494218
 20
17.1622401799
 10
6.1546582359
 20
17.1070907963
 10
6.1469009348
 20
17.0536678807
 10
6.1378745464
 20
17.0016462093
 10
6.1272548267
 20
16.9510830303
 10
6.1182762155
 20
16.9149803461
  0
LWPOLYLINE
  5
50C
100
AcDbEntity
  8
ON_OFF_CORPO
100
AcDbPolyline
 62
250
  6
CONTINUOUS
 90
30
 70
0
 10
6.1182762155
 20
30.6201281241
 10
6.12727237
 20
30.5674032162
 10
6.1378885552
 20
30.4946497752
 10
6.1469123569
 20
30.420838077
 10
6.1546683008
 20
30.3467027042
 10
6.1611602258
 20
30.2718223092
 10
6.1663001984
 20
30.1967173627
 10
6.1703971089
 20
30.1235210303
 10
6.1735711634
 20
30.0527977549
 10
6.1758530091
 20
29.9840297763
 10
6.1775341738
 20
29.917698642
 10
6.1787465221
 20
29.8543279472
 10
6.1795399326
 20
29.7934020814
 10
6.1800422607
 20
29.7338567288
 10
6.1802845871
 20
29.6756933739
 10
6.1802846853
 20
29.6189528031
 10
6.1800428492
 20
29.5626766242
 10
6.1795409127
 20
29.5069385388
 10
6.178747351
 20
29.4517564648
 10
6.177534599
 20
29.3961491418
 10
6.1758522353
 20
29.3398068819
 10
6.1735669799
 20
29.2832305268
 10
6.1703882994
 20
29.2266810247
 10
6.1662889158
 20
29.1699251815
 10
6.1611494218
 20
29.1133907521
 10
6.1546582359
 20
29.0582413685
 10
6.1469009348
 20
29.0048184529
 10
6.1378745464
 20
28.9527967816
 10
6.1272548267
 20
28.9022336026
 10
6.1182762155
 20
28.8661309183
  0
LWPOLYLINE
  5
50D
100
AcDbEntity
  8
ON_OFF_CORPO
100
AcDbPolyline
 62
250
  6
CONTINUOUS
 90
26
 70
0
 10
-0.9851218772
 20
-1.3016049167
 10
-0.9581079358
 20
-1.2768743692
 10
-0.9320215091
 20
-1.2507497093
 10
-0.9068845509
 20
-1.2232529808
 10
-0.8827178786
 20
-1.1944070596
 10
-0.8595418643
 20
-1.1642361788
 10
-0.8373763535
 20
-1.1327660511
 10
-0.8162401174
 20
-1.1000234243
 10
-0.7961511086
 20
-1.0660361252
 10
-0.7771263066
 20
-1.0308328386
 10
-0.7591816744
 20
-0.9944431793
 10
-0.7423323491
 20
-0.9568978309
 10
-0.7265926662
 20
-0.9182286452
 10
-0.7119759852
 20
-0.8784684441
 10
-0.6984946562
 20
-0.8376509361
 10
-0.6861600515
 20
-0.7958105665
 10
-0.6749826142
 20
-0.7529825942
 10
-0.6649717084
 20
-0.7092030559
 10
-0.6561358315
 20
-0.664509106
 10
-0.6484826237
 20
-0.6189388852
 10
-0.6420184879
 20
-0.5725311669
 10
-0.6367487811
 20
-0.5253249295
 10
-0.6326780711
 20
-0.4773596656
 10
-0.6298098081
 20
-0.4286757449
 10
-0.6281462778
 20
-0.3793144085
 10
-0.6276888028
 20
-0.3293173365
  0
LWPOLYLINE
  5
50E
100
AcDbEntity
  8
ON_OFF_CORPO
100
AcDbPolyline
 62
250
  6
CONTINUOUS
 90
3
 70
0
 10
-1.0418392784
 20
-1.3468004355
 10
-1.0130402266
 20
-1.3249202088
 10
-0.9851218772
 20
-1.3016049167
  0
LWPOLYLINE
  5
50F
100
AcDbEntity
  8
ON_OFF_CORPO
100
AcDbPolyline
 62
7
  6
CONTINUOUS
 90
31
 70
0
 10
-0.9672378021
 20
-1.3004136576
 10
-0.9466959686
 20
-1.2852340157
 10
-0.9097725441
 20
-1.2564306325
 10
-0.8737164341
 20
-1.2262958655
 10
-0.8385928967
 20
-1.1948729636
 10
-0.8044290101
 20
-1.1621752757
 10
-0.7712165644
 20
-1.128179193
 10
-0.7389991377
 20
-1.0929092328
 10
-0.707821877
 20
-1.056394676
 10
-0.6776839583
 20
-1.0186092163
 10
-0.6486278892
 20
-0.9795761187
 10
-0.6206992571
 20
-0.9393267756
 10
-0.5939069046
 20
-0.8978380846
 10
-0.5682942024
 20
-0.8551346141
 10
-0.5439038527
 20
-0.811245853
 10
-0.5207486546
 20
-0.7661456623
 10
-0.4988624706
 20
-0.7198385289
 10
-0.478297127
 20
-0.6723706013
 10
-0.459091922
 20
-0.6237697619
 10
-0.4412761748
 20
-0.5740377911
 10
-0.4248955164
 20
-0.523223415
 10
-0.410002093
 20
-0.4714201449
 10
-0.3966219738
 20
-0.4186511098
 10
-0.3847819483
 20
-0.3649436295
 10
-0.3745187658
 20
-0.3103940181
 10
-0.3658508747
 20
-0.2550276945
 10
-0.3587963253
 20
-0.1988655848
 10
-0.3533780755
 20
-0.141992039
 10
-0.3496109439
 20
-0.0844465739
 10
-0.347506678
 20
-0.0262323309
 10
-0.3470286569
 20
0.0180081842
  0
LINE
  5
510
100
AcDbEntity
  8
ON_OFF_CORPO
100
AcDbLine
 62
250
  6
CONTINUOUS
 10
-1.2477938254
 20
-1.4960649372
 11
-1.0418392784
 21
-1.3468004355
  0
LINE
  5
511
100
AcDbEntity
  8
ON_OFF_CORPO
100
AcDbLine
 62
7
  6
CONTINUOUS
 10
-1.1732262314
 20
-1.4497028044
 11
-0.9672716843
 21
-1.3004383027
  0
LWPOLYLINE
  5
512
100
AcDbEntity
  8
ON_OFF_PORTATASTO
100
AcDbPolyline
 62
7
  6
CONTINUOUS
 90
21
 70
0
 10
-3.7349542385
 20
-3.3193699482
 10
-3.7221766691
 20
-3.3108922489
 10
-3.7100413382
 20
-3.3027506522
 10
-3.6985482457
 20
-3.2949451579
 10
-3.6876834652
 20
-3.287463214
 10
-3.6774609232
 20
-3.2803173727
 10
-3.6679223985
 20
-3.2735452904
 10
-3.6590822229
 20
-3.2671558876
 10
-3.6509260646
 20
-3.2611402439
 10
-3.6434527065
 20
-3.2555092549
 10
-3.636671548
 20
-3.2502697917
 10
-3.6305731898
 20
-3.2454149831
 10
-3.625128217
 20
-3.240935111
 10
-3.6203335277
 20
-3.2368268035
 10
-3.6161922239
 20
-3.2330934326
 10
-3.6126841961
 20
-3.2297353963
 10
-3.6098175858
 20
-3.2267586109
 10
-3.6075842517
 20
-3.2241571601
 10
-3.6059396602
 20
-3.2219136936
 10
-3.604885981
 20
-3.220030265
 10
-3.6044155101
 20
-3.218463176
  0
LWPOLYLINE
  5
513
100
AcDbEntity
  8
ON_OFF_PORTATASTO
100
AcDbPolyline
 62
7
  6
CONTINUOUS
 90
17
 70
0
 10
-9.6097982639
 20
-10.4767533595
 10
-9.6030850441
 20
-10.4723076103
 10
-9.5967144676
 20
-10.4672709453
 10
-9.590703968
 20
-10.4616571558
 10
-9.5850699896
 20
-10.4554816165
 10
-9.5798280335
 20
-10.4487612838
 10
-9.574992472
 20
-10.4415145808
 10
-9.5705764627
 20
-10.4337613274
 10
-9.5665921986
 20
-10.4255228203
 10
-9.5630506368
 20
-10.4168216601
 10
-9.559961324
 20
-10.4076816227
 10
-9.5573328449
 20
-10.39812782
 10
-9.555172472
 20
-10.3881864731
 10
-9.5534859063
 20
-10.3778847271
 10
-9.5522777773
 20
-10.3672508244
 10
-9.5515516299
 20
-10.3563140263
 10
-9.5513095879
 20
-10.3451043758
  0
LINE
  5
514
100
AcDbEntity
  8
ON_OFF_PORTATASTO
100
AcDbLine
 62
7
  6
CONTINUOUS
 10
-10.1997324472
 20
-8.8119532238
 11
-10.5971198469
 21
-9.062563319
  0
LINE
  5
515
100
AcDbEntity
  8
ON_OFF_PORTATASTO
100
AcDbLine
 62
7
  6
CONTINUOUS
 10
-4.8226429432
 20
-3.9619634776
 11
-8.4906494162
 21
-5.803098605
  0
LINE
  5
516
100
AcDbEntity
  8
ON_OFF_PORTATASTO
100
AcDbLine
 62
250
  6
CONTINUOUS
 10
-9.1058256537
 20
-8.436578591
 11
-8.4906494162
 21
-8.1330818793
  0
LINE
  5
517
100
AcDbEntity
  8
ON_OFF_PORTATASTO
100
AcDbLine
 62
7
  6
CONTINUOUS
 10
-9.2404702752
 20
-8.7093536457
 11
-8.6215216839
 21
-8.4039958462
  0
LINE
  5
518
100
AcDbEntity
  8
ON_OFF_PORTATASTO
100
AcDbLine
 62
7
  6
CONTINUOUS
 10
-9.2404702752
 20
-8.7093536457
 11
-9.2508591058
 21
-8.7140913947
  0
LINE
  5
519
100
AcDbEntity
  8
ON_OFF_PORTATASTO
100
AcDbLine
 62
250
  6
CONTINUOUS
 10
-10.5971198469
 20
-9.062563319
 11
-9.1058256537
 21
-8.436578591
  0
LINE
  5
51A
100
AcDbEntity
  8
ON_OFF_PORTATASTO
100
AcDbLine
 62
7
  6
CONTINUOUS
 10
-11.1499879857
 20
-9.5112685712
 11
-9.250859448
 21
-8.714091551
  0
LWPOLYLINE
  5
51B
100
AcDbEntity
  8
ON_OFF_TASTOTARGHETTA
100
AcDbPolyline
 62
7
  6
CONTINUOUS
 90
16
 70
0
 10
-18.3473370774
 20
-11.006833506
 10
-18.4097611486
 20
-11.0313682743
 10
-18.4774713335
 20
-11.0525709527
 10
-18.5497421362
 20
-11.0702143602
 10
-18.6257991954
 20
-11.0841094527
 10
-18.7048275811
 20
-11.0941073482
 10
-18.7859805263
 20
-11.100100922
 10
-18.8683884998
 20
-11.1020259547
 10
-18.9511685233
 20
-11.0998618202
 10
-19.0334336322
 20
-11.0936317065
 10
-19.1143023788
 20
-11.0834023674
 10
-19.1929082771
 20
-11.0692834077
 10
-19.2684090871
 20
-11.0514261082
 10
-19.3399958386
 20
-11.0300218048
 10
-19.4069014998
 20
-11.0052998387
 10
-19.4684091952
 20
-10.9775250989
  0
LINE
  5
51C
100
AcDbEntity
  8
ON_OFF_TASTOTARGHETTA
100
AcDbLine
 62
7
  6
CONTINUOUS
 10
-17.9045510844
 20
-11.4179296312
 11
-13.8056156254
 21
-10.045035832
  0
LINE
  5
51D
100
AcDbEntity
  8
ON_OFF_TASTOTARGHETTA
100
AcDbLine
 62
7
  6
CONTINUOUS
 10
-14.1034457896
 20
-10.5158742533
 11
-18.2068900485
 21
-11.8902775405
  0
LWPOLYLINE
  5
51E
100
AcDbEntity
  8
ON_OFF_CORPO
100
AcDbPolyline
 62
250
  6
CONTINUOUS
 90
22
 70
0
 10
5.9064224021
 20
35.399242086
 10
5.8874698132
 20
35.4312739269
 10
5.8678363759
 20
35.4627498368
 10
5.8475494391
 20
35.4936257621
 10
5.8266372807
 20
35.5238583467
 10
5.8051290614
 20
35.5534054436
 10
5.7830547616
 20
35.5822261475
 10
5.7604449857
 20
35.6102804057
 10
5.737331461
 20
35.6375286563
 10
5.7137470018
 20
35.663932365
 10
5.6897249627
 20
35.6894542944
 10
5.6652985562
 20
35.7140591581
 10
5.6405013136
 20
35.7377131799
 10
5.6153675795
 20
35.7603835963
 10
5.589932821
 20
35.7820383199
 10
5.5642329655
 20
35.8026466407
 10
5.5383042861
 20
35.8221796217
 10
5.5121828218
 20
35.840610186
 10
5.4859046558
 20
35.8579126939
 10
5.4595064425
 20
35.8740629976
 10
5.4330253627
 20
35.8890385162
 10
5.4064985545
 20
35.9028183453
  0
LWPOLYLINE
  5
51F
100
AcDbEntity
  8
ON_OFF_CORPO
100
AcDbPolyline
 62
7
  6
CONTINUOUS
 90
19
 70
0
 10
6.0828447448
 20
35.4657898049
 10
6.0713151423
 20
35.4852836767
 10
6.0511534982
 20
35.5176272822
 10
6.0299405447
 20
35.5495181485
 10
6.0076209429
 20
35.5809786861
 10
5.9842247919
 20
35.6119030041
 10
5.9598833613
 20
35.6420707938
 10
5.9345941901
 20
35.6714521883
 10
5.9083548816
 20
35.7000089461
 10
5.8813201557
 20
35.7275440024
 10
5.8534966742
 20
35.7540332029
 10
5.8248875522
 20
35.7794492419
 10
5.795663106
 20
35.8036289863
 10
5.7658419752
 20
35.8265535872
 10
5.735432152
 20
35.8482095649
 10
5.7046080774
 20
35.8684747854
 10
5.6734483338
 20
35.8873121305
 10
5.6419282433
 20
35.9047507839
 10
5.6239422421
 20
35.9139961993
  0
LINE
  5
520
100
AcDbEntity
  8
ON_OFF_CORPO
100
AcDbLine
 62
250
  6
CONTINUOUS
 10
6.0386927695
 20
35.1711094482
 11
5.9064224021
 21
35.399242086
  0
LINE
  5
521
100
AcDbEntity
  8
ON_OFF_CORPO
100
AcDbLine
 62
7
  6
CONTINUOUS
 10
6.2151143939
 20
35.237658627
 11
6.0828440262
 21
35.4657912653
  0
LWPOLYLINE
  5
522
100
AcDbEntity
  8
ON_OFF_CORPO
100
AcDbPolyline
 62
250
  6
CONTINUOUS
 90
56
 70
0
 10
6.593173345
 20
32.3344136455
 10
6.6090452401
 20
32.3068025214
 10
6.650844056
 20
32.2309459234
 10
6.6913053629
 20
32.1542764063
 10
6.730394238
 20
32.0768601194
 10
6.7680767851
 20
31.9987641687
 10
6.8043203038
 20
31.9200563242
 10
6.8390933911
 20
31.8408048073
 10
6.872366047
 20
31.7610780185
 10
6.9041095821
 20
31.6809447028
 10
6.9342965849
 20
31.6004740323
 10
6.962900888
 20
31.5197357339
 10
6.9898976866
 20
31.4387998211
 10
7.0152636021
 20
31.3577364083
 10
7.0389767406
 20
31.2766154917
 10
7.0610166393
 20
31.1955070745
 10
7.0813642547
 20
31.114481212
 10
7.1000019576
 20
31.0336080755
 10
7.1169135996
 20
30.9529577347
 10
7.132084545
 20
30.8726000124
 10
7.1455016921
 20
30.7926043361
 10
7.1571534522
 20
30.7130398026
 10
7.167029751
 20
30.6339751787
 10
7.1751220368
 20
30.5554788942
 10
7.1814233046
 20
30.4776188921
 10
7.1859281049
 20
30.4004625348
 10
7.1886325448
 20
30.3240765287
 10
7.1895342867
 20
30.2485269203
 10
7.1886325506
 20
30.1738790502
 10
7.1859281164
 20
30.10019748
 10
7.1814233219
 20
30.0275459191
 10
7.1751220597
 20
29.9559871817
 10
7.1670297797
 20
29.8855831799
 10
7.1571534867
 20
29.8163948513
 10
7.1455017322
 20
29.7484820736
 10
7.1320845907
 20
29.6819035396
 10
7.1169136508
 20
29.6167167579
 10
7.1000020143
 20
29.5529780544
 10
7.081364317
 20
29.4907426161
 10
7.0610167071
 20
29.4300643641
 10
7.0389768138
 20
29.3709958407
 10
7.0152636808
 20
29.3135880575
 10
6.9898977705
 20
29.2578905548
 10
6.962900977
 20
29.2039514345
 10
6.9342966785
 20
29.1518174329
 10
6.9041096807
 20
29.101533759
 10
6.8723661509
 20
29.0531439731
 10
6.8390935005
 20
29.0066898349
 10
6.8043204183
 20
28.9622113994
 10
6.7680769037
 20
28.9197470664
 10
6.73039436
 20
28.8793336551
 10
6.6913054887
 20
28.8410062363
 10
6.6508441871
 20
28.8047980202
 10
6.609045377
 20
28.7707402326
 10
6.5659450762
 20
28.7388622211
 10
6.5295433327
 20
28.7142941836
  0
LINE
  5
523
100
AcDbEntity
  8
ON_OFF_PORTATASTO
100
AcDbLine
 62
7
  6
CONTINUOUS
 10
-9.6154147111
 20
-10.4798821582
 11
-9.6097982639
 21
-10.4767533595
  0
LWPOLYLINE
  5
524
100
AcDbEntity
  8
ON_OFF_PORTATASTO
100
AcDbPolyline
 62
250
  6
CONTINUOUS
 90
18
 70
0
 10
-9.0867249005
 20
-10.2086542783
 10
-9.0811326719
 20
-10.2055399716
 10
-9.0744151551
 20
-10.2010943442
 10
-9.0680442309
 20
-10.1960595154
 10
-9.0620374004
 20
-10.190449297
 10
-9.0564111567
 20
-10.1842790823
 10
-9.0511809332
 20
-10.1775657909
 10
-9.0463610694
 20
-10.1703278221
 10
-9.0419647877
 20
-10.1625850251
 10
-9.0380041446
 20
-10.1543586282
 10
-9.0344900023
 20
-10.1456711858
 10
-9.0314320007
 20
-10.1365465239
 10
-9.0288385244
 20
-10.1270096551
 10
-9.0267166881
 20
-10.1170867342
 10
-9.0250723146
 20
-10.1068049973
 10
-9.023909911
 20
-10.0961926485
 10
-9.0232326601
 20
-10.0852787794
 10
-9.0230424162
 20
-10.0740933171
  0
LWPOLYLINE
  5
525
100
AcDbEntity
  8
ON_OFF_PORTATASTO
100
AcDbPolyline
 62
250
  6
CONTINUOUS
 90
18
 70
0
 10
-11.218851914
 20
-11.2609895737
 10
-11.2114849878
 20
-11.2569833271
 10
-11.204773512
 20
-11.2525358629
 10
-11.1984008894
 20
-11.2474953809
 10
-11.1923845604
 20
-11.2418756948
 10
-11.1867409673
 20
-11.2356921659
 10
-11.1814855195
 20
-11.2289616487
 10
-11.1766327095
 20
-11.2217026725
 10
-11.1721959817
 20
-11.2139353907
 10
-11.1681875411
 20
-11.2056813139
 10
-11.164618246
 20
-11.1969629597
 10
-11.1614977598
 20
-11.1878039975
 10
-11.1588341341
 20
-11.1782275142
 10
-11.1566353664
 20
-11.1682616222
 10
-11.1549083688
 20
-11.1579398631
 10
-11.1536572332
 20
-11.1472932602
 10
-11.1528841492
 20
-11.1363494952
 10
-11.1525903788
 20
-11.1251389754
  0
LINE
  5
526
100
AcDbEntity
  8
ON_OFF_PORTATASTO
100
AcDbLine
 62
250
  6
CONTINUOUS
 10
-9.0230424162
 20
-10.0740933171
 11
-9.5513095879
 21
-10.3451043758
  0
LINE
  5
527
100
AcDbEntity
  8
ON_OFF_PORTATASTO
100
AcDbLine
 62
7
  6
CONTINUOUS
 10
-9.0867304537
 20
-10.2086571274
 11
-9.6154146877
 21
-10.4798821469
  0
LINE
  5
528
100
AcDbEntity
  8
ON_OFF_PORTATASTO
100
AcDbLine
 62
7
  6
CONTINUOUS
 10
-9.6171511251
 20
-10.4807503796
 11
-9.6154147111
 21
-10.4798821582
  0
LINE
  5
529
100
AcDbEntity
  8
ON_OFF_PORTATASTO
100
AcDbLine
 62
250
  6
CONTINUOUS
 10
-9.5513095879
 20
-10.3451043758
 11
-11.1525903788
 21
-11.1251389754
  0
LINE
  5
52A
100
AcDbEntity
  8
ON_OFF_PORTATASTO
100
AcDbLine
 62
7
  6
CONTINUOUS
 10
-9.6171511015
 20
-10.4807503682
 11
-11.2188519713
 21
-11.2609896016
  0
LWPOLYLINE
  5
52B
100
AcDbEntity
  8
ON_OFF_PORTATASTO
100
AcDbPolyline
 62
7
  6
CONTINUOUS
 90
17
 70
0
 10
-30.7160146243
 20
47.1631353272
 10
-30.7049678386
 20
47.1662385293
 10
-30.6933659777
 20
47.1687115792
 10
-30.681206594
 20
47.1705377434
 10
-30.6684645552
 20
47.1717177619
 10
-30.6551640296
 20
47.1722149947
 10
-30.6413852327
 20
47.1719601577
 10
-30.6271398162
 20
47.1709259724
 10
-30.6124390071
 20
47.1691116157
 10
-30.5973756041
 20
47.1664961601
 10
-30.5820036708
 20
47.1630706746
 10
-30.5663106701
 20
47.1588271917
 10
-30.5502947798
 20
47.1537498405
 10
-30.5340101542
 20
47.1478454557
 10
-30.5174476922
 20
47.1410895932
 10
-30.5005074032
 20
47.1334112905
 10
-30.4910082645
 20
47.1287774241
  0
ARC
  5
52C
100
AcDbEntity
  8
ON_OFF_CORPO
100
AcDbCircle
 62
7
  6
CONTINUOUS
 10
-1.760058388
 20
-0.6399942025
 40
1.0
100
AcDbArc
 50
297.8702697007
 51
305.9325291988
  0
ARC
  5
52D
100
AcDbEntity
  8
ON_OFF_PORTATASTO
100
AcDbCircle
 62
7
  6
CONTINUOUS
 10
-9.2008445592
 20
-9.6386891682
 40
0.25
100
AcDbArc
 50
0.0
 51
63.4365697055
  0
ARC
  5
52E
100
AcDbEntity
  8
ON_OFF_PORTATASTO
100
AcDbCircle
 62
7
  6
CONTINUOUS
 10
-9.2008445592
 20
-9.9862206849
 40
0.25
100
AcDbArc
 50
297.160112624
 51
0.0000769831
  0
ARC
  5
52F
100
AcDbEntity
  8
ON_OFF_PORTATASTO
100
AcDbCircle
 62
7
  6
CONTINUOUS
 10
-11.3283356431
 20
-11.0362379039
 40
0.25
100
AcDbArc
 50
243.4349674067
 51
295.97219475
  0
ARC
  5
530
100
AcDbEntity
  8
ON_OFF_PORTATASTO
100
AcDbCircle
 62
7
  6
CONTINUOUS
 10
-12.6533203229
 20
-10.373745564
 40
0.25
100
AcDbArc
 50
180.0
 51
243.4353081232
  0
ARC
  5
531
100
AcDbEntity
  8
ON_OFF_PORTATASTO
100
AcDbCircle
 62
7
  6
CONTINUOUS
 10
-12.6533203229
 20
-10.0337716299
 40
0.25
100
AcDbArc
 50
140.5924423202
 51
180.0
  0
ARC
  5
532
100
AcDbEntity
  8
ON_OFF_PORTATASTO
100
AcDbCircle
 62
7
  6
CONTINUOUS
 10
-12.6533203229
 20
31.2658325095
 40
0.25
100
AcDbArc
 50
180.000180091
 51
243.4432215696
  0
ARC
  5
533
100
AcDbEntity
  8
ON_OFF_PORTATASTO
100
AcDbCircle
 62
7
  6
CONTINUOUS
 10
-11.3283356431
 20
30.6033401696
 40
0.25
100
AcDbArc
 50
243.4321631835
 51
258.2060367178
  0
ARC
  5
534
100
AcDbEntity
  8
ON_OFF_PORTATASTO
100
AcDbCircle
 62
7
  6
CONTINUOUS
 10
-12.6533203229
 20
31.6058064436
 40
0.25
100
AcDbArc
 50
117.1587468545
 51
180.0
  0
ARC
  5
535
100
AcDbEntity
  8
ON_OFF_PORTATASTO
100
AcDbCircle
 62
7
  6
CONTINUOUS
 10
-10.5381707197
 20
32.6771095682
 40
0.25
100
AcDbArc
 50
63.433410125
 51
115.9721801256
  0
ARC
  5
536
100
AcDbEntity
  8
ON_OFF_PORTATASTO
100
AcDbCircle
 62
7
  6
CONTINUOUS
 10
-9.2008445592
 20
32.0084464879
 40
0.25
100
AcDbArc
 50
359.9999199922
 51
63.4333224655
  0
ARC
  5
537
100
AcDbEntity
  8
ON_OFF_PORTATASTO
100
AcDbCircle
 62
7
  6
CONTINUOUS
 10
-9.2008445592
 20
31.6609149712
 40
0.25
100
AcDbArc
 50
320.5924423202
 51
360.0
  0
ARC
  5
538
100
AcDbEntity
  8
ON_OFF_PORTATASTO
100
AcDbCircle
 62
7
  6
CONTINUOUS
 10
-22.5651627236
 20
38.6906055701
 40
0.25
100
AcDbArc
 50
0.0015552359
 51
63.4349488229
  0
ARC
  5
539
100
AcDbEntity
  8
ON_OFF_PORTATASTO
100
AcDbCircle
 62
7
  6
CONTINUOUS
 10
-22.5651627236
 20
38.3430740534
 40
0.25
100
AcDbArc
 50
320.5921470292
 51
359.9994700668
  0
ARC
  5
53A
100
AcDbEntity
  8
ON_OFF_PORTATASTO
100
AcDbCircle
 62
7
  6
CONTINUOUS
 10
-23.9024888842
 20
39.3592686504
 40
0.25
100
AcDbArc
 50
63.4349488229
 51
115.9738727385
  0
ARC
  5
53B
100
AcDbEntity
  8
ON_OFF_PORTATASTO
100
AcDbCircle
 62
7
  6
CONTINUOUS
 10
-26.0176384874
 20
38.2879655258
 40
0.25
100
AcDbArc
 50
117.1586821941
 51
179.9985339793
  0
ARC
  5
53C
100
AcDbEntity
  8
ON_OFF_PORTATASTO
100
AcDbCircle
 62
7
  6
CONTINUOUS
 10
-26.0176384874
 20
37.9479915917
 40
0.25
100
AcDbArc
 50
180.000180091
 51
243.4432215696
  0
ARC
  5
53D
100
AcDbEntity
  8
ON_OFF_PORTATASTO
100
AcDbCircle
 62
7
  6
CONTINUOUS
 10
-24.6926538075
 20
37.2854992518
 40
0.25
100
AcDbArc
 50
243.4321631835
 51
258.2060367178
  0
ARC
  5
53E
100
AcDbEntity
  8
ON_OFF_PORTATASTO
100
AcDbCircle
 62
7
  6
CONTINUOUS
 10
-27.2382382198
 20
38.5582914579
 40
0.25
100
AcDbArc
 50
243.4321631835
 51
258.2060367178
  0
ARC
  5
53F
100
AcDbEntity
  8
ON_OFF_PORTATASTO
100
AcDbCircle
 62
7
  6
CONTINUOUS
 10
-25.1107471359
 20
39.9633977763
 40
0.25
100
AcDbArc
 50
359.9999199922
 51
63.4333224655
  0
ARC
  5
540
100
AcDbEntity
  8
ON_OFF_PORTATASTO
100
AcDbCircle
 62
7
  6
CONTINUOUS
 10
-25.1107471359
 20
39.6158662595
 40
0.25
100
AcDbArc
 50
320.5924423202
 51
360.0
  0
ARC
  5
541
100
AcDbEntity
  8
ON_OFF_PORTATASTO
100
AcDbCircle
 62
7
  6
CONTINUOUS
 10
-26.4480732964
 20
40.6320608565
 40
0.25
100
AcDbArc
 50
63.433410125
 51
115.9721801256
  0
ARC
  5
542
100
AcDbEntity
  8
ON_OFF_PORTATASTO
100
AcDbCircle
 62
7
  6
CONTINUOUS
 10
-28.5632228996
 20
39.560757732
 40
0.25
100
AcDbArc
 50
117.1587468545
 51
180.0
  0
ARC
  5
543
100
AcDbEntity
  8
ON_OFF_PORTATASTO
100
AcDbCircle
 62
7
  6
CONTINUOUS
 10
-28.5632228996
 20
39.2207837978
 40
0.25
100
AcDbArc
 50
180.000180091
 51
243.4432215696
  0
ARC
  5
544
100
AcDbEntity
  8
ON_OFF_PORTATASTO
100
AcDbCircle
 62
7
  6
CONTINUOUS
 10
-38.4750653003
 20
46.6455568585
 40
0.25
100
AcDbArc
 50
0.0015552359
 51
63.4349488229
  0
ARC
  5
545
100
AcDbEntity
  8
ON_OFF_PORTATASTO
100
AcDbCircle
 62
7
  6
CONTINUOUS
 10
-38.4750653003
 20
46.2980253417
 40
0.25
100
AcDbArc
 50
320.5921470292
 51
359.9994700668
  0
ARC
  5
546
100
AcDbEntity
  8
ON_OFF_PORTATASTO
100
AcDbCircle
 62
7
  6
CONTINUOUS
 10
-39.8123914609
 20
47.3142199388
 40
0.25
100
AcDbArc
 50
63.4349488229
 51
115.9738727385
  0
ARC
  5
547
100
AcDbEntity
  8
ON_OFF_PORTATASTO
100
AcDbCircle
 62
7
  6
CONTINUOUS
 10
-41.9275410641
 20
46.2429168142
 40
0.25
100
AcDbArc
 50
117.1586821941
 51
179.9985339793
  0
ARC
  5
548
100
AcDbEntity
  8
ON_OFF_PORTATASTO
100
AcDbCircle
 62
7
  6
CONTINUOUS
 10
-41.9275410641
 20
45.9029428801
 40
0.25
100
AcDbArc
 50
180.000180091
 51
243.4432215696
  0
ARC
  5
549
100
AcDbEntity
  8
ON_OFF_PORTATASTO
100
AcDbCircle
 62
7
  6
CONTINUOUS
 10
-40.6025563842
 20
45.2404505401
 40
0.25
100
AcDbArc
 50
243.4321631835
 51
258.2060367178
  0
ELLIPSE
  5
54A
100
AcDbEntity
  8
ON_OFF_TASTOTARGHETTA
100
AcDbEllipse
 62
7
  6
CONTINUOUS
 10
-41.4529461815
 20
43.1502973008
 30
0.0
 11
-0.2786191524
 21
0.7501668109
 31
0.0
 40
0.6610921126
 41
-0.0419546496
 42
0.0214395726
  0
ELLIPSE
  5
54B
100
AcDbEntity
  8
ON_OFF_TASTOTARGHETTA
100
AcDbEllipse
 62
7
  6
CONTINUOUS
 10
-14.371369207
 20
-9.7619311284
 30
0.0
 11
-0.2786191524
 21
0.7501668109
 31
0.0
 40
0.6610921126
 41
-3.1630322208
 42
-2.1868166574
  0
ELLIPSE
  5
54C
100
AcDbEntity
  8
ON_OFF_TASTOTARGHETTA
100
AcDbEllipse
 62
7
  6
CONTINUOUS
 10
-11.2596589644
 20
28.0536536922
 30
0.0
 11
-0.2783604326
 21
0.7500177284
 31
0.0
 40
0.6614719787
 41
-2.1862531203
 42
-1.0664708546
  0
ELLIPSE
  5
54D
100
AcDbEntity
  8
ON_OFF_PORTATASTO
100
AcDbEllipse
 62
7
  6
CONTINUOUS
 10
-3.8944553384
 20
33.5668712883
 30
0.0
 11
0.2999980272
 21
0.0021530184
 31
0.0
 40
0.5053247124
 41
-0.7890247493
 42
-0.0036265859
  0
ELLIPSE
  5
54E
100
AcDbEntity
  8
ON_OFF_PORTATASTO
100
AcDbEllipse
 62
7
  6
CONTINUOUS
 10
-30.7690146608
 20
46.7087653923
 30
0.0
 11
0.2257019663
 21
0.4461636818
 31
0.0
 40
0.6159267166
 41
0.5380090616
 42
0.6817883054
  0
ELLIPSE
  5
54F
100
AcDbEntity
  8
ON_OFF_PORTATASTO
100
AcDbEllipse
 62
7
  6
CONTINUOUS
 10
-14.8591120841
 20
38.753814104
 30
0.0
 11
0.2257019663
 21
0.4461636818
 31
0.0
 40
0.6159267166
 41
0.5380090616
 42
0.6817883054
  0
ELLIPSE
  5
550
100
AcDbEntity
  8
ON_OFF_PORTATASTO
100
AcDbEllipse
 62
7
  6
CONTINUOUS
 10
-8.8442566628
 20
29.9755355031
 30
0.0
 11
-0.2237046003
 21
0.4472532382
 31
0.0
 40
0.6122950388
 41
-2.2557482655
 42
-0.6847996396
  0
ELLIPSE
  5
551
100
AcDbEntity
  8
ON_OFF_PORTATASTO
100
AcDbEllipse
 62
7
  6
CONTINUOUS
 10
-8.8442566628
 20
-7.9563442058
 30
0.0
 11
-0.2236445579
 21
0.4471998343
 31
0.0
 40
0.6124778111
 41
-3.1449090135
 42
-2.255529033
  0
ELLIPSE
  5
552
100
AcDbEntity
  8
ON_OFF_PORTATASTO
100
AcDbEllipse
 62
7
  6
CONTINUOUS
 10
-36.1011063247
 20
44.1862457236
 30
0.0
 11
0.4999985559
 21
0.0023864752
 31
0.0
 40
0.5035541159
 41
2.3596088132
 42
3.0002042076
  0
ELLIPSE
  5
553
100
AcDbEntity
  8
ON_OFF_PORTATASTO
100
AcDbEllipse
 62
7
  6
CONTINUOUS
 10
-20.191203748
 20
36.2312944353
 30
0.0
 11
0.4999985559
 21
0.0023864752
 31
0.0
 40
0.5035541159
 41
2.3596088132
 42
3.0002042076
  0
ELLIPSE
  5
554
100
AcDbEntity
  8
ON_OFF_PORTATASTO
100
AcDbEllipse
 62
7
  6
CONTINUOUS
 10
-10.9488490477
 20
28.8713853724
 30
0.0
 11
2.0843106542
 21
0.660289632
 31
0.0
 40
0.1270056767
 41
-1.6431486533
 42
-1.4415850128
  0
ELLIPSE
  5
555
100
AcDbEntity
  8
ON_OFF_PORTATASTO
100
AcDbEllipse
 62
7
  6
CONTINUOUS
 10
-31.8100268892
 20
47.3213332538
 30
0.0
 11
0.9987332359
 21
0.6172510855
 31
0.0
 40
0.0815198604
 41
0.050339485
 42
0.7263320369
  0
ELLIPSE
  5
556
100
AcDbEntity
  8
ON_OFF_PORTATASTO
100
AcDbEllipse
 62
7
  6
CONTINUOUS
 10
-4.1217336789
 20
-3.452596274
 30
0.0
 11
0.9987332359
 21
0.6172510855
 31
0.0
 40
0.0815198604
 41
-2.3978073241
 42
-1.2239991452
  0
ELLIPSE
  5
557
100
AcDbEntity
  8
ON_OFF_PORTATASTO
100
AcDbEllipse
 62
7
  6
CONTINUOUS
 10
-26.5270176117
 20
37.6022218249
 30
0.0
 11
0.249929385
 21
0.0111824824
 31
0.0
 40
0.5313301283
 41
-2.3799630874
 42
-0.8149845248
  0
ELLIPSE
  5
558
100
AcDbEntity
  8
ON_OFF_PORTATASTO
100
AcDbEllipse
 62
7
  6
CONTINUOUS
 10
-8.9502688239
 20
35.0590284015
 30
0.0
 11
0.4279673669
 21
-0.0030279657
 31
0.0
 40
0.4946372042
 41
-0.7760807437
 42
0.0034996552
  0
ELLIPSE
  5
559
100
AcDbEntity
  8
ON_OFF_PORTATASTO
100
AcDbEllipse
 62
7
  6
CONTINUOUS
 10
-14.5052572531
 20
37.8365226161
 30
0.0
 11
0.4279673669
 21
-0.0030279657
 31
0.0
 40
0.4946372042
 41
-0.7818985079
 42
0.0034996556
  0
ELLIPSE
  5
55A
100
AcDbEntity
  8
ON_OFF_PORTATASTO
100
AcDbEllipse
 62
7
  6
CONTINUOUS
 10
-25.3146455331
 20
36.9960357856
 30
0.0
 11
0.249929385
 21
0.0111824824
 31
0.0
 40
0.5313301283
 41
3.1178240564
 42
3.9032222197
  0
ELLIPSE
  5
55B
100
AcDbEntity
  8
ON_OFF_PORTATASTO
100
AcDbEllipse
 62
7
  6
CONTINUOUS
 10
-23.9814331994
 20
36.3294296187
 30
0.0
 11
0.249929385
 21
0.0111824824
 31
0.0
 40
0.5313301283
 41
-2.3799630874
 42
-0.8149845248
  0
ELLIPSE
  5
55C
100
AcDbEntity
  8
ON_OFF_PORTATASTO
100
AcDbEllipse
 62
7
  6
CONTINUOUS
 10
-24.60818239
 20
43.6283492569
 30
0.0
 11
0.221538876
 21
0.4482453432
 31
0.0
 40
0.6088015717
 41
0.5323082896
 42
0.6760875334
  0
ELLIPSE
  5
55D
100
AcDbEntity
  8
ON_OFF_PORTATASTO
100
AcDbEllipse
 62
7
  6
CONTINUOUS
 10
-11.9503273687
 20
30.3138767034
 30
0.0
 11
0.249929385
 21
0.0111824824
 31
0.0
 40
0.5313301283
 41
3.1178240564
 42
3.9032222197
  0
ELLIPSE
  5
55E
100
AcDbEntity
  8
ON_OFF_PORTATASTO
100
AcDbEllipse
 62
7
  6
CONTINUOUS
 10
-10.617115035
 20
29.6472705365
 30
0.0
 11
0.249929385
 21
0.0111824824
 31
0.0
 40
0.5313301283
 41
-2.3799630874
 42
-1.3352760237
  0
ELLIPSE
  5
55F
100
AcDbEntity
  8
ON_OFF_PORTATASTO
100
AcDbEllipse
 62
7
  6
CONTINUOUS
 10
-24.8601714006
 20
43.0139796899
 30
0.0
 11
0.4279673669
 21
-0.0030279657
 31
0.0
 40
0.4946372042
 41
-0.7760807437
 42
0.0034996552
  0
ELLIPSE
  5
560
100
AcDbEntity
  8
ON_OFF_PORTATASTO
100
AcDbEllipse
 62
7
  6
CONTINUOUS
 10
-36.1011063247
 20
42.9536361184
 30
0.0
 11
0.4998587701
 21
0.0223649649
 31
0.0
 40
0.5313301283
 41
3.1178240563
 42
3.9032222197
  0
ELLIPSE
  5
561
100
AcDbEntity
  8
ON_OFF_PORTATASTO
100
AcDbEllipse
 62
7
  6
CONTINUOUS
 10
-30.4151598298
 20
45.7914739045
 30
0.0
 11
0.4279673669
 21
-0.0030279657
 31
0.0
 40
0.4946372042
 41
-0.7818985079
 42
0.0034996556
  0
ELLIPSE
  5
562
100
AcDbEntity
  8
ON_OFF_PORTATASTO
100
AcDbEllipse
 62
7
  6
CONTINUOUS
 10
-30.589799225
 20
41.4305921738
 30
0.0
 11
0.4999985559
 21
0.0023864752
 31
0.0
 40
0.5035541159
 41
-1.4342147631
 42
-0.7936193687
  0
ELLIPSE
  5
563
100
AcDbEntity
  8
ON_OFF_PORTATASTO
100
AcDbEllipse
 62
7
  6
CONTINUOUS
 10
-30.589799225
 20
40.1979825686
 30
0.0
 11
0.4998587701
 21
0.0223649649
 31
0.0
 40
0.5313301283
 41
-2.3799630874
 42
-0.8149845248
  0
ELLIPSE
  5
564
100
AcDbEntity
  8
ON_OFF_PORTATASTO
100
AcDbEllipse
 62
7
  6
CONTINUOUS
 10
-20.191203748
 20
34.9986848301
 30
0.0
 11
0.4998587701
 21
0.0223649649
 31
0.0
 40
0.5313301283
 41
3.1178240563
 42
3.9032222197
  0
ELLIPSE
  5
565
100
AcDbEntity
  8
ON_OFF_PORTATASTO
100
AcDbEllipse
 62
7
  6
CONTINUOUS
 10
-14.6798966483
 20
33.4756408854
 30
0.0
 11
0.4999985559
 21
0.0023864752
 31
0.0
 40
0.5035541159
 41
-1.4342147631
 42
-0.7936193687
  0
ELLIPSE
  5
566
100
AcDbEntity
  8
ON_OFF_PORTATASTO
100
AcDbEllipse
 62
7
  6
CONTINUOUS
 10
-14.6798966483
 20
32.2430312802
 30
0.0
 11
0.4998587701
 21
0.0223649649
 31
0.0
 40
0.5313301283
 41
-2.3799630874
 42
-0.8149845248
  0
ELLIPSE
  5
567
100
AcDbEntity
  8
ON_OFF_PORTATASTO
100
AcDbEllipse
 62
7
  6
CONTINUOUS
 10
-11.3623294787
 20
28.6456542515
 30
0.0
 11
-0.2230998035
 21
0.4477110033
 31
0.0
 40
0.6127700112
 41
-2.0519781227
 42
-0.6836588249
  0
ELLIPSE
  5
568
100
AcDbEntity
  8
ON_OFF_PORTATASTO
100
AcDbEllipse
 62
7
  6
CONTINUOUS
 10
-10.9488490477
 20
-8.8845753168
 30
0.0
 11
2.0785252686
 21
1.2769633287
 31
0.0
 40
0.1381385362
 41
-1.6876001174
 42
-1.4860364769
  0
ELLIPSE
  5
569
100
AcDbEntity
  8
ON_OFF_PORTATASTO
100
AcDbEllipse
 62
7
  6
CONTINUOUS
 10
-11.3623294787
 20
-9.0581376067
 30
0.0
 11
-0.2234618187
 21
0.4480306886
 31
0.0
 40
0.6116748051
 41
2.4584403293
 42
3.826759627
  0
ELLIPSE
  5
56A
100
AcDbEntity
  8
ON_OFF_PORTATASTO
100
AcDbEllipse
 62
7
  6
CONTINUOUS
 10
-42.2471006191
 20
44.0880398217
 30
0.0
 11
-0.2234618187
 21
0.4480306886
 31
0.0
 40
0.6116748051
 41
-0.6831523243
 42
0.6851669735
  0
ELLIPSE
  5
56B
100
AcDbEntity
  8
ON_OFF_PORTATASTO
100
AcDbEllipse
 62
7
  6
CONTINUOUS
 10
-8.4798719836
 20
30.2192725233
 30
0.0
 11
30.5620697111
 21
17.056795564
 31
0.0
 40
0.0108183174
 41
1.5965054654
 42
1.6289824221
  0
ELLIPSE
  5
56C
100
AcDbEntity
  8
ON_OFF_PORTATASTO
100
AcDbEllipse
 62
7
  6
CONTINUOUS
 10
-8.6982798133
 20
35.6733979686
 30
0.0
 11
0.221538876
 21
0.4482453432
 31
0.0
 40
0.6088015717
 41
0.5323082896
 42
0.6760875334
  0
ELLIPSE
  5
56D
100
AcDbEntity
  8
ON_OFF_PORTATASTO
100
AcDbEllipse
 62
7
  6
CONTINUOUS
 10
-12.8682679855
 20
-3.9051344156
 30
0.0
 11
-0.5421118934
 21
0.84734478
 31
0.0
 40
0.5457855875
 41
-3.2126424587
 42
-2.311807032
  0
ELLIPSE
  5
56E
100
AcDbEntity
  8
ON_OFF_PORTATASTO
100
AcDbEllipse
 62
7
  6
CONTINUOUS
 10
-4.1217336789
 20
33.4771866486
 30
0.0
 11
-0.7417913999
 21
1.2002436976
 31
0.0
 40
0.5587454355
 41
5.0503110018
 42
6.2241191807
  0
ELLIPSE
  5
56F
100
AcDbEntity
  8
ON_OFF_PORTATASTO
100
AcDbEllipse
 62
7
  6
CONTINUOUS
 10
-41.2245481098
 20
44.9509870739
 30
0.0
 11
0.249929385
 21
0.0111824824
 31
0.0
 40
0.5313301283
 41
3.1178240624
 42
3.9032222197
  0
ELLIPSE
  5
570
100
AcDbEntity
  8
ON_OFF_PORTATASTO
100
AcDbEllipse
 62
7
  6
CONTINUOUS
 10
-39.8913357761
 20
44.2843809071
 30
0.0
 11
0.249929385
 21
0.0111824824
 31
0.0
 40
0.5313301283
 41
-2.3799630874
 42
-0.8149845248
  0
ELLIPSE
  5
571
100
AcDbEntity
  8
ON_OFF_PORTATASTO
100
AcDbEllipse
 62
7
  6
CONTINUOUS
 10
-27.8602299454
 20
38.2688279917
 30
0.0
 11
0.249929385
 21
0.0111824824
 31
0.0
 40
0.5313301283
 41
3.1178240564
 42
3.9032222197
  0
ELLIPSE
  5
572
100
AcDbEntity
  8
ON_OFF_CORPO
100
AcDbEllipse
 62
7
  6
CONTINUOUS
 10
-2.1266883855
 20
34.6302881486
 30
0.0
 11
2.7499831596
 21
-0.0194567514
 31
0.0
 40
0.4946372042
 41
2.3771474383
 42
2.8933496507
  0
ELLIPSE
  5
573
100
AcDbEntity
  8
ON_OFF_CORPO
100
AcDbEllipse
 62
7
  6
CONTINUOUS
 10
-1.4549369433
 20
34.5259713631
 30
0.0
 11
2.7499831596
 21
-0.0194567514
 31
0.0
 40
0.4946372042
 41
0.4551058442
 42
2.3596941457
  0
ELLIPSE
  5
574
100
AcDbEntity
  8
ON_OFF_CORPO
100
AcDbEllipse
 62
7
  6
CONTINUOUS
 10
-5.2548388878
 20
40.794369957
 30
0.0
 11
0.3192637086
 21
0.396526327
 31
0.0
 40
0.466634772
 41
0.1011767287
 42
0.7684426374
  0
ELLIPSE
  5
575
100
AcDbEntity
  8
ON_OFF_CORPO
100
AcDbEllipse
 62
7
  6
CONTINUOUS
 10
-11.6187999184
 20
43.9763504724
 30
0.0
 11
0.3192637086
 21
0.396526327
 31
0.0
 40
0.466634772
 41
0.1011767287
 42
0.7684426374
  0
ELLIPSE
  5
576
100
AcDbEntity
  8
ON_OFF_CORPO
100
AcDbEllipse
 62
7
  6
CONTINUOUS
 10
-8.4368194031
 20
42.3853602147
 30
0.0
 11
0.3192637086
 21
0.396526327
 31
0.0
 40
0.466634772
 41
0.1011767287
 42
0.7684426374
  0
ELLIPSE
  5
577
100
AcDbEntity
  8
ON_OFF_CORPO
100
AcDbEllipse
 62
7
  6
CONTINUOUS
 10
3.9176105992
 20
36.2081452136
 30
0.0
 11
0.4032865956
 21
0.3533264821
 31
0.0
 40
0.2962875919
 41
0.120404562
 42
0.7876704806
  0
ELLIPSE
  5
578
100
AcDbEntity
  8
ON_OFF_CORPO
100
AcDbEllipse
 62
7
  6
CONTINUOUS
 10
-0.3928127771
 20
38.3633569017
 30
0.0
 11
-0.1508942909
 21
0.5560093409
 31
0.0
 40
0.6658609573
 41
4.8609073778
 42
6.4142504121
  0
ELLIPSE
  5
579
100
AcDbEntity
  8
ON_OFF_CORPO
100
AcDbEllipse
 62
7
  6
CONTINUOUS
 10
-6.63529112
 20
41.4845960732
 30
0.0
 11
0.0652113431
 21
0.5103744014
 31
0.0
 40
0.6997651453
 41
5.1570001223
 42
6.7103431565
  0
ELLIPSE
  5
57A
100
AcDbEntity
  8
ON_OFF_CORPO
100
AcDbEllipse
 62
7
  6
CONTINUOUS
 10
-32.0532304808
 20
42.9546030767
 30
0.0
 11
1.2141619185
 21
0.9541526469
 31
0.0
 40
0.2329077568
 41
0.1095198182
 42
0.114024621
  0
ELLIPSE
  5
57B
100
AcDbEntity
  8
ON_OFF_CORPO
100
AcDbEllipse
 62
7
  6
CONTINUOUS
 10
-12.9992521507
 20
44.6665765885
 30
0.0
 11
0.0652113431
 21
0.5103744014
 31
0.0
 40
0.6997651453
 41
5.1570001223
 42
6.7103431565
  0
ELLIPSE
  5
57C
100
AcDbEntity
  8
ON_OFF_CORPO
100
AcDbEllipse
 62
7
  6
CONTINUOUS
 10
-1.4549369433
 20
34.958984065
 30
0.0
 11
2.7499831596
 21
-0.0194567514
 31
0.0
 40
0.4946372042
 41
0.1994438157
 42
2.3596941457
  0
ELLIPSE
  5
57D
100
AcDbEntity
  8
ON_OFF_CORPO
100
AcDbEllipse
 62
7
  6
CONTINUOUS
 10
-20.4534343129
 20
45.1713321845
 30
0.0
 11
-0.1508942909
 21
0.5560093409
 31
0.0
 40
0.6658609573
 41
4.8609073778
 42
6.4142504121
  0
ELLIPSE
  5
57E
100
AcDbEntity
  8
ON_OFF_CORPO
100
AcDbEllipse
 62
7
  6
CONTINUOUS
 10
-21.50141419
 20
41.7384062687
 30
0.0
 11
2.7499831596
 21
-0.0194567514
 31
0.0
 40
0.4946372042
 41
1.2641159102
 42
1.425641475
  0
ELLIPSE
  5
57F
100
AcDbEntity
  8
ON_OFF_CORPO
100
AcDbEllipse
 62
7
  6
CONTINUOUS
 10
-16.1433279041
 20
34.9996517884
 30
0.0
 11
1.2141619185
 21
0.9541526469
 31
0.0
 40
0.2329077568
 41
0.1095198182
 42
0.114024621
  0
ELLIPSE
  5
580
100
AcDbEntity
  8
ON_OFF_CORPO
100
AcDbEllipse
 62
7
  6
CONTINUOUS
 10
5.8182762155
 20
14.9833366654
 30
0.0
 11
0.2999929097
 21
-0.0042158549
 31
0.0
 40
0.4892375088
 41
-0.7610696355
 42
-0.4263179473
  0
ELLIPSE
  5
581
100
AcDbEntity
  8
ON_OFF_CORPO
100
AcDbEllipse
 62
7
  6
CONTINUOUS
 10
-0.1113723797
 20
37.359321576
 30
0.0
 11
0.1304891768
 21
0.2701542511
 31
0.0
 40
0.6016116119
 41
-0.0082293075
 42
0.6764898932
  0
ELLIPSE
  5
582
100
AcDbEntity
  8
ON_OFF_CORPO
100
AcDbEllipse
 62
7
  6
CONTINUOUS
 10
-20.1578496264
 20
44.1349649351
 30
0.0
 11
0.1304891768
 21
0.2701542511
 31
0.0
 40
0.6016116119
 41
-0.0082293075
 42
0.6764898932
  0
ELLIPSE
  5
583
100
AcDbEntity
  8
ON_OFF_CORPO
100
AcDbEllipse
 62
7
  6
CONTINUOUS
 10
-9.8172716354
 20
43.0755863308
 30
0.0
 11
0.0652113431
 21
0.5103744014
 31
0.0
 40
0.6997651453
 41
5.1570001223
 42
6.7103431565
  0
ENDSEC
  0
SECTION
  2
OBJECTS
  0
DICTIONARY
  5
C
100
AcDbDictionary
280
0
281
1
  3
ACAD_GROUP
350
D
  3
ACAD_MLINESTYLE
350
17
  3
ACAD_LAYOUT
350
1A
  3
ACAD_PLOTSETTINGS
350
19
  3
ACAD_PLOTSTYLENAME
350
E
  0
DICTIONARY
  5
D
102
{ACAD_REACTORS
330
C
102
}
100
AcDbDictionary
280
0
281
1
  0
ACDBDICTIONARYWDFLT
  5
E
102
{ACAD_REACTORS
330
C
102
}
100
AcDbDictionary
281
1
  3
Normal
350
F
100
AcDbDictionaryWithDefault
340
F
  0
DICTIONARY
  5
17
102
{ACAD_REACTORS
330
C
102
}
100
AcDbDictionary
280
0
281
1
  3
Standard
350
18
  0
DICTIONARY
  5
19
102
{ACAD_REACTORS
330
C
102
}
100
AcDbDictionary
281
1
  0
DICTIONARY
  5
1A
102
{ACAD_REACTORS
330
C
102
}
100
AcDbDictionary
281
1
  3
Model
350
584
  3
Layout1
350
585
  0
ACDBPLACEHOLDER
  5
F
102
{ACAD_REACTORS
330
E
102
}
  0
MLINESTYLE
  5
18
102
{ACAD_REACTORS
330
17
102
}
100
AcDbMlineStyle
  2
STANDARD
 70
0
  3

 62
256
 51
90.0
 52
90.0
 71
2
 49
0.5
 62
256
  6
BYLAYER
 49
-0.5
 62
256
  6
BYLAYER
  0
LAYOUT
  5
584
102
{ACAD_REACTORS
330
1A
102
}
100
AcDbPlotSettings
  1

  2
none_device
  4
ISO_A4_(297.00_x_210.00_MM)
  6

 40
0.0
 41
0.0
 42
0.0
 43
0.0
 44
297.0
 45
210.0
 46
0.0
 47
0.0
 48
0.0
 49
0.0
140
0.0
141
0.0
142
1.0
143
1.0
 70
1024
 72
1
 73
0
 74
0
  7

 75
0
147
1.0
148
0.0
149
0.0
100
AcDbLayout
  1
Model
 70
0
 71
0
 10
0.0
 20
0.0
 11
297.0
 21
210.0
 12
0.0
 22
0.0
 32
0.0
 14
0.0
 24
0.0
 34
0.0
 15
0.0
 25
0.0
 35
0.0
146
0.0
 13
0.0
 23
0.0
 33
0.0
 16
1.0
 26
0.0
 36
0.0
 17
0.0
 27
1.0
 37
0.0
 76
0
330
223
345
0
346
0
  0
LAYOUT
  5
585
102
{ACAD_REACTORS
330
1A
102
}
100
AcDbPlotSettings
  1

  2
none_device
  4
ISO_A4_(297.00_x_210.00_MM)
  6

 40
0.0
 41
0.0
 42
0.0
 43
0.0
 44
297.0
 45
210.0
 46
0.0
 47
0.0
 48
0.0
 49
0.0
140
0.0
141
0.0
142
1.0
143
1.0
 70
0
 72
1
 73
0
 74
0
  7

 75
0
147
1.0
148
0.0
149
0.0
100
AcDbLayout
  1
Layout1
 70
0
 71
1
 10
0.0
 20
0.0
 11
297.0
 21
210.0
 12
0.0
 22
0.0
 32
0.0
 14
0.0
 24
0.0
 34
0.0
 15
0.0
 25
0.0
 35
0.0
146
0.0
 13
0.0
 23
0.0
 33
0.0
 16
1.0
 26
0.0
 36
0.0
 17
0.0
 27
1.0
 37
0.0
 76
0
330
224
345
0
346
0
  0
ENDSEC
  0
EOF
