  0
SECTION
  2
HEADER
  9
$ACADVER
  1
AC1015
  9
$DWGCODEPAGE
  3
ANSI_1252
  9
$EXTMAX
 10
297.0
 20
210.0
 30
0.0
  9
$EXTMIN
 10
0.0
 20
0.0
 30
0.0
  9
$LIMMIN
 10
0.0
 20
0.0
  9
$LIMMAX
 10
297.0
 20
210.0
  9
$VIEWCTR
 10
148.5
 20
105.0
  9
$VIEWSIZE
 40
210.0
  9
$CLAYER
  8
0
  9
$LTSCALE
 40
16.335
  9
$CELTYPE
  6
BYLAYER
  9
$DIMSCALE
 40
1.0
  9
$DIMASZ
 40
3.0
  9
$DIMEXO
 40
1.85625
  9
$DIMDLI
 40
11.286
  9
$DIMEXE
 40
5.346
  9
$DIMCEN
 40
2.673
  9
$DIMLFAC
 40
1.0
  9
$DIMBLK
  1
_FILLED
  9
$DIMTXT
 40
3.0
  9
$DIMTOL
 70
1
  9
$DIMLIM
 70
0
  9
$DIMTFAC
 40
1.0
  9
$DIMTP
 40
0.01
  9
$DIMTM
 40
0.01
  9
$PDMODE
 70
3
  9
$PDSIZE
 40
3.0
  9
$HANDSEED
  5
59B
  9
$TILEMODE
 70
1
  9
$MEASUREMENT
 70
1
  9
$INSUNITS
 70
4
  0
ENDSEC
  0
SECTION
  2
CLASSES
  0
CLASS
  1
ACDBDICTIONARYWDFLT
  2
AcDbDictionaryWithDefault
  3
AutoCAD 2000
 90
0
280
0
281
0
  0
CLASS
  1
ACDBPLACEHOLDER
  2
AcDbPlaceHolder
  3
AutoCAD 2000
 90
0
280
0
281
0
  0
CLASS
  1
LAYOUT
  2
AcDbLayout
  3
AutoCAD 2000
 90
0
280
0
281
0
  0
ENDSEC
  0
SECTION
  2
TABLES
  0
TABLE
  2
VPORT
  5
8
100
AcDbSymbolTable
 70
2
  0
VPORT
  5
1F4
100
AcDbSymbolTableRecord
100
AcDbViewportTableRecord
  2
*ACTIVE
 70
0
 10
0.0
 20
0.0
 11
1.0
 21
1.0
 12
148.5
 22
105.0
 13
0.0
 23
0.0
 14
1.0
 24
1.0
 15
0.0
 25
0.0
 16
0.0
 26
0.0
 36
1.0
 17
0.0
 27
0.0
 37
0.0
 40
210.0
 41
1.4142857143
 42
50.0
 43
0.0
 44
0.0
 50
0.0
 51
0.0
 71
0
 72
100
 73
1
 74
1
 75
0
 76
0
 77
0
 78
0
  0
ENDTAB
  0
TABLE
  2
LTYPE
  5
5
100
AcDbSymbolTable
 70
6
  0
LTYPE
  5
14
100
AcDbSymbolTableRecord
100
AcDbLinetypeTableRecord
  2
BYBLOCK
 70
0
  3

 72
65
 73
0
 40
0.0
  0
LTYPE
  5
15
100
AcDbSymbolTableRecord
100
AcDbLinetypeTableRecord
  2
BYLAYER
 70
0
  3

 72
65
 73
0
 40
0.0
  0
LTYPE
  5
16
100
AcDbSymbolTableRecord
100
AcDbLinetypeTableRecord
  2
CONTINUOUS
 70
64
  3
Solid line
 72
65
 73
0
 40
0.0
  0
LTYPE
  5
1F5
100
AcDbSymbolTableRecord
100
AcDbLinetypeTableRecord
  2
CENTER
 70
64
  3
____ _ ____ _ ____ _ ____ _ ____ _ ____ _ ____
 72
65
 73
4
 40
0.6
 49
0.375
 74
0
 49
-0.075
 74
0
 49
0.075
 74
0
 49
-0.075
 74
0
  0
LTYPE
  5
1F6
100
AcDbSymbolTableRecord
100
AcDbLinetypeTableRecord
  2
HIDDEN
 70
64
  3
- - - - - - - - - - - - - - - - - - - -
 72
65
 73
2
 40
0.2
 49
0.1
 74
0
 49
-0.1
 74
0
  0
LTYPE
  5
1F7
100
AcDbSymbolTableRecord
100
AcDbLinetypeTableRecord
  2
PHANTOM
 70
64
  3
_____ _ _ _____ _ _ _____ _ _ _____
 72
65
 73
6
 40
0.8
 49
0.45
 74
0
 49
-0.05
 74
0
 49
0.1
 74
0
 49
-0.05
 74
0
 49
0.1
 74
0
 49
-0.05
 74
0
  0
LTYPE
  5
1F8
100
AcDbSymbolTableRecord
100
AcDbLinetypeTableRecord
  2
DOT
 70
64
  3
. . . . . . . . . . . . . . . . . . . .
 72
65
 73
2
 40
0.2
 49
0.1
 74
0
 49
-0.1
 74
0
  0
LTYPE
  5
1F9
100
AcDbSymbolTableRecord
100
AcDbLinetypeTableRecord
  2
DASHED
 70
64
  3
- - - - - - - - - - - - - - - - - - - -
 72
65
 73
2
 40
0.2
 49
0.1
 74
0
 49
-0.1
 74
0
  0
ENDTAB
  0
TABLE
  2
LAYER
  5
2
100
AcDbSymbolTable
 70
36
  0
LAYER
  5
10
100
AcDbSymbolTableRecord
100
AcDbLayerTableRecord
  2
0
 70
0
 62
7
  6
CONTINUOUS
370
-3
390
F
  0
LAYER
  5
1FA
100
AcDbSymbolTableRecord
100
AcDbLayerTableRecord
  2
DEFAULT_1
 70
0
 62
7
  6
CENTER
370
-3
390
F
  0
LAYER
  5
1FB
100
AcDbSymbolTableRecord
100
AcDbLayerTableRecord
  2
DEFAULT_2
 70
0
 62
7
  6
HIDDEN
370
-3
390
F
  0
LAYER
  5
1FC
100
AcDbSymbolTableRecord
100
AcDbLayerTableRecord
  2
DEFAULT_3
 70
0
 62
7
  6
PHANTOM
370
-3
390
F
  0
LAYER
  5
1FD
100
AcDbSymbolTableRecord
100
AcDbLayerTableRecord
  2
ASSI
 70
0
 62
7
  6
CONTINUOUS
370
-3
390
F
  0
LAYER
  5
1FE
100
AcDbSymbolTableRecord
100
AcDbLayerTableRecord
  2
COLOR5
 70
0
 62
7
  6
CONTINUOUS
370
-3
390
F
  0
LAYER
  5
1FF
100
AcDbSymbolTableRecord
100
AcDbLayerTableRecord
  2
COORDINATE
 70
0
 62
7
  6
CONTINUOUS
370
-3
390
F
  0
LAYER
  5
200
100
AcDbSymbolTableRecord
100
AcDbLayerTableRecord
  2
COORD_ORIGINE
 70
0
 62
7
  6
CONTINUOUS
370
-3
390
F
  0
LAYER
  5
201
100
AcDbSymbolTableRecord
100
AcDbLayerTableRecord
  2
COPY_PUBLISH
 70
0
 62
7
  6
CONTINUOUS
370
-3
390
F
  0
LAYER
  5
202
100
AcDbSymbolTableRecord
100
AcDbLayerTableRecord
  2
COSMETIC
 70
0
 62
7
  6
CONTINUOUS
370
-3
390
F
  0
LAYER
  5
203
100
AcDbSymbolTableRecord
100
AcDbLayerTableRecord
  2
COSMETICHE
 70
0
 62
7
  6
CONTINUOUS
370
-3
390
F
  0
LAYER
  5
204
100
AcDbSymbolTableRecord
100
AcDbLayerTableRecord
  2
COSMETICI
 70
0
 62
7
  6
CONTINUOUS
370
-3
390
F
  0
LAYER
  5
205
100
AcDbSymbolTableRecord
100
AcDbLayerTableRecord
  2
CURVE
 70
0
 62
7
  6
CONTINUOUS
370
-3
390
F
  0
LAYER
  5
206
100
AcDbSymbolTableRecord
100
AcDbLayerTableRecord
  2
DRAFT
 70
0
 62
7
  6
CONTINUOUS
370
-3
390
F
  0
LAYER
  5
207
100
AcDbSymbolTableRecord
100
AcDbLayerTableRecord
  2
IMPORT_IGES
 70
0
 62
7
  6
CONTINUOUS
370
-3
390
F
  0
LAYER
  5
208
100
AcDbSymbolTableRecord
100
AcDbLayerTableRecord
  2
INTF_1
 70
0
 62
7
  6
CONTINUOUS
370
-3
390
F
  0
LAYER
  5
209
100
AcDbSymbolTableRecord
100
AcDbLayerTableRecord
  2
NOTE
 70
0
 62
7
  6
CONTINUOUS
370
-3
390
F
  0
LAYER
  5
20A
100
AcDbSymbolTableRecord
100
AcDbLayerTableRecord
  2
PIANI
 70
0
 62
7
  6
CONTINUOUS
370
-3
390
F
  0
LAYER
  5
20B
100
AcDbSymbolTableRecord
100
AcDbLayerTableRecord
  2
PIANI_ORIGINE
 70
0
 62
7
  6
CONTINUOUS
370
-3
390
F
  0
LAYER
  5
20C
100
AcDbSymbolTableRecord
100
AcDbLayerTableRecord
  2
PIANI_RIFERIMENTO
 70
0
 62
7
  6
CONTINUOUS
370
-3
390
F
  0
LAYER
  5
20D
100
AcDbSymbolTableRecord
100
AcDbLayerTableRecord
  2
PIANI_SFORMI
 70
0
 62
7
  6
CONTINUOUS
370
-3
390
F
  0
LAYER
  5
20E
100
AcDbSymbolTableRecord
100
AcDbLayerTableRecord
  2
PUNTI
 70
0
 62
7
  6
CONTINUOUS
370
-3
390
F
  0
LAYER
  5
20F
100
AcDbSymbolTableRecord
100
AcDbLayerTableRecord
  2
RACCORDO
 70
0
 62
7
  6
CONTINUOUS
370
-3
390
F
  0
LAYER
  5
210
100
AcDbSymbolTableRecord
100
AcDbLayerTableRecord
  2
RGB____0____0____0__
 70
0
 62
7
  6
CONTINUOUS
370
-3
390
F
  0
LAYER
  5
211
100
AcDbSymbolTableRecord
100
AcDbLayerTableRecord
  2
SIMBOLI
 70
0
 62
7
  6
CONTINUOUS
370
-3
390
F
  0
LAYER
  5
212
100
AcDbSymbolTableRecord
100
AcDbLayerTableRecord
  2
SMUSSO
 70
0
 62
7
  6
CONTINUOUS
370
-3
390
F
  0
LAYER
  5
213
100
AcDbSymbolTableRecord
100
AcDbLayerTableRecord
  2
SNAPLINE
 70
0
 62
7
  6
CONTINUOUS
370
-3
390
F
  0
LAYER
  5
214
100
AcDbSymbolTableRecord
100
AcDbLayerTableRecord
  2
SUPERFICI
 70
0
 62
7
  6
CONTINUOUS
370
-3
390
F
  0
LAYER
  5
215
100
AcDbSymbolTableRecord
100
AcDbLayerTableRecord
  2
TRASH
 70
0
 62
7
  6
CONTINUOUS
370
-3
390
F
  0
LAYER
  5
216
100
AcDbSymbolTableRecord
100
AcDbLayerTableRecord
  2
XSEC_DATUMS
 70
0
 62
7
  6
CONTINUOUS
370
-3
390
F
  0
ENDTAB
  0
TABLE
  2
STYLE
  5
3
100
AcDbSymbolTable
 70
1
  0
STYLE
  5
11
100
AcDbSymbolTableRecord
100
AcDbTextStyleTableRecord
  2
STANDARD
 70
0
 40
0.0
 41
0.8
 50
0.0
 71
0
 42
0.2
  3
txt
  4

  0
STYLE
  5
217
100
AcDbSymbolTableRecord
100
AcDbTextStyleTableRecord
  2
TEXTSTYLE_1
 70
0
 40
0.0
 41
0.8
 50
0.0
 71
0
 42
0.2
  3
gdt
  4

  0
ENDTAB
  0
TABLE
  2
VIEW
  5
6
100
AcDbSymbolTable
 70
0
  0
ENDTAB
  0
TABLE
  2
UCS
  5
7
100
AcDbSymbolTable
 70
0
  0
ENDTAB
  0
TABLE
  2
APPID
  5
9
100
AcDbSymbolTable
 70
1
  0
APPID
  5
218
100
AcDbSymbolTableRecord
100
AcDbRegAppTableRecord
  2
ACAD
 70
0
  0
ENDTAB
  0
TABLE
  2
BLOCK_RECORD
  5
1
100
AcDbSymbolTable
 70
0
  0
BLOCK_RECORD
  5
219
100
AcDbSymbolTableRecord
100
AcDbBlockTableRecord
  2
*Model_Space
  0
BLOCK_RECORD
  5
21A
100
AcDbSymbolTableRecord
100
AcDbBlockTableRecord
  2
*Paper_Space
  0
ENDTAB
  0
TABLE
  2
DIMSTYLE
  5
A
100
AcDbSymbolTable
 70
1
100
AcDbDimStyleTable
 71
0
  0
DIMSTYLE
105
21B
100
AcDbSymbolTableRecord
100
AcDbDimStyleTableRecord
  2
STANDARD
 70
0
  3

  4

 40
1.0
 41
3.0
 42
0.0625
 43
0.38
 44
0.18
 45
0.0
 46
0.0
 47
0.01
 48
0.01
140
3.0
141
0.09
142
0.0
143
25.4
144
1.0
145
0.0
146
1.0
147
0.09
 71
1.0
 72
0.0
 73
0
 74
0
 75
0
 76
0
 77
1
 78
8
170
0
171
2
172
0
173
0
174
0
175
0
176
0
177
0
178
0
270
2
271
2
272
2
273
2
274
2
275
0
280
0
281
0
282
0
283
1
284
8
285
0
286
0
287
3
288
0
340
11
  0
ENDTAB
  0
ENDSEC
  0
SECTION
  2
BLOCKS
  0
BLOCK
  5
20
100
AcDbEntity
  8
0
100
AcDbBlockBegin
  2
*Model_Space
 70
0
 10
0.0
 20
0.0
 30
0.0
  3
*Model_Space
  1

  0
ENDBLK
  5
21
100
AcDbEntity
  8
0
100
AcDbBlockEnd
  0
BLOCK
  5
1C
100
AcDbEntity
  8
0
100
AcDbBlockBegin
  2
*Paper_Space
 70
0
 10
0.0
 20
0.0
 30
0.0
  3
*Paper_Space
  1

  0
ENDBLK
  5
1D
100
AcDbEntity
  8
0
100
AcDbBlockEnd
  0
ENDSEC
  0
SECTION
  2
ENTITIES
  0
LWPOLYLINE
  5
21C
100
AcDbEntity
  8
RACCORDO
100
AcDbPolyline
 62
7
  6
CONTINUOUS
 90
22
 70
0
 10
-22.7129338135
 20
23.9870898738
 10
-22.7264395422
 20
23.9791106075
 10
-22.8041592189
 20
23.9290637038
 10
-22.8795995292
 20
23.8734460919
 10
-22.9527759238
 20
23.8123627941
 10
-23.0234004256
 20
23.7461668281
 10
-23.0908403589
 20
23.675607163
 10
-23.1548958865
 20
23.6011203094
 10
-23.2155669864
 20
23.522896449
 10
-23.2725255981
 20
23.4415031344
 10
-23.3256082738
 20
23.3573745512
 10
-23.37476869
 20
23.2707236696
 10
-23.4198688489
 20
23.1818815411
 10
-23.4607868194
 20
23.0911582079
 10
-23.4973803182
 20
22.9988449754
 10
-23.5295086686
 20
22.9052604506
 10
-23.5570250442
 20
22.8106998607
 10
-23.5797688381
 20
22.7154378584
 10
-23.5975899336
 20
22.6196928115
 10
-23.610294648
 20
22.5236815272
 10
-23.6176727815
 20
22.42772426
 10
-23.6187430094
 20
22.4012711438
  0
LINE
  5
21D
100
AcDbEntity
  8
RACCORDO
100
AcDbLine
 62
7
  6
CONTINUOUS
 10
-18.0894323894
 20
26.6830206517
 11
-22.7130462627
 21
23.987030273
  0
LINE
  5
21E
100
AcDbEntity
  8
RACCORDO
100
AcDbLine
 62
253
  6
CONTINUOUS
 10
-18.0894323894
 20
26.5381864753
 11
-22.4796922118
 21
23.9782628818
  0
LINE
  5
21F
100
AcDbEntity
  8
RACCORDO
100
AcDbLine
 62
7
  6
CONTINUOUS
 10
-18.6567201929
 20
28.0353320397
 11
-16.3693699833
 21
29.2057923773
  0
LINE
  5
220
100
AcDbEntity
  8
RACCORDO
100
AcDbLine
 62
253
  6
CONTINUOUS
 10
-18.5437623307
 20
28.028818007
 11
-16.2567774598
 21
29.199091397
  0
LINE
  5
221
100
AcDbEntity
  8
RACCORDO
100
AcDbLine
 62
253
  6
CONTINUOUS
 10
-17.2773631373
 20
27.3956184103
 11
-14.9663027377
 21
28.5538540359
  0
LINE
  5
222
100
AcDbEntity
  8
RACCORDO
100
AcDbLine
 62
253
  6
CONTINUOUS
 10
-17.1005888653
 20
27.0907278911
 11
-14.7895284656
 21
28.2489635168
  0
LINE
  5
223
100
AcDbEntity
  8
RACCORDO
100
AcDbLine
 62
7
  6
CONTINUOUS
 10
-9.3665144906
 20
30.6788001599
 11
-14.7895284656
 21
28.1742725937
  0
LINE
  5
224
100
AcDbEntity
  8
ASSI
100
AcDbLine
 62
7
  6
CONTINUOUS
 10
-9.3665223194
 20
30.6787965443
 11
-14.7895284656
 21
28.1742725937
  0
LINE
  5
225
100
AcDbEntity
  8
RACCORDO
100
AcDbLine
 62
253
  6
CONTINUOUS
 10
-8.9323641569
 20
30.6441723605
 11
-14.7895284656
 21
27.939142183
  0
LINE
  5
226
100
AcDbEntity
  8
ASSI
100
AcDbLine
 62
253
  6
CONTINUOUS
 10
-8.9323641569
 20
30.6441723605
 11
-14.7895284656
 21
27.939142183
  0
LINE
  5
227
100
AcDbEntity
  8
ASSI
100
AcDbLine
 62
7
  6
CONTINUOUS
 10
-9.3153792594
 20
30.6999636215
 11
-9.3673524039
 21
30.6784118074
  0
LWPOLYLINE
  5
228
100
AcDbEntity
  8
RACCORDO
100
AcDbPolyline
 62
7
  6
CONTINUOUS
 90
3
 70
0
 10
-9.3261805798
 20
30.6958908511
 10
-9.3466039218
 20
30.6876153716
 10
-9.3665568798
 20
30.6787804262
  0
LINE
  5
229
100
AcDbEntity
  8
RACCORDO
100
AcDbLine
 62
7
  6
CONTINUOUS
 10
-9.3054761429
 20
30.7035184316
 11
-9.3261805798
 21
30.6958908511
  0
LINE
  5
22A
100
AcDbEntity
  8
DRAFT
100
AcDbLine
 62
7
  6
CONTINUOUS
 10
-15.5003376831
 20
26.9642456746
 11
-14.7895284656
 21
27.815947847
  0
LINE
  5
22B
100
AcDbEntity
  8
RACCORDO
100
AcDbLine
 62
7
  6
CONTINUOUS
 10
-15.5003376831
 20
26.2518101093
 11
-16.3897796478
 21
25.754929523
  0
LINE
  5
22C
100
AcDbEntity
  8
DRAFT
100
AcDbLine
 62
7
  6
CONTINUOUS
 10
-12.1025226971
 20
26.515746233
 11
-13.8610335594
 21
25.6158983615
  0
LINE
  5
22D
100
AcDbEntity
  8
DRAFT
100
AcDbLine
 62
7
  6
CONTINUOUS
 10
-13.198538208
 20
25.2846506858
 11
-12.8449848174
 21
25.463694651
  0
LINE
  5
22E
100
AcDbEntity
  8
RACCORDO
100
AcDbLine
 62
7
  6
CONTINUOUS
 10
-7.6061986824
 20
30.1009895082
 11
-7.2941965851
 21
30.2569905569
  0
LINE
  5
22F
100
AcDbEntity
  8
RACCORDO
100
AcDbLine
 62
7
  6
CONTINUOUS
 10
-6.8716291841
 20
28.4504208944
 11
-11.430771255
 21
26.1798705119
  0
LINE
  5
230
100
AcDbEntity
  8
ASSI
100
AcDbLine
 62
7
  6
CONTINUOUS
 10
-6.8716291841
 20
28.4504208944
 11
-11.430771255
 21
26.1798705119
  0
LINE
  5
231
100
AcDbEntity
  8
DRAFT
100
AcDbLine
 62
7
  6
CONTINUOUS
 10
-6.5242195785
 20
27.3580908691
 11
-10.2026619319
 21
25.5658158504
  0
LINE
  5
232
100
AcDbEntity
  8
ASSI
100
AcDbLine
 62
7
  6
CONTINUOUS
 10
-6.5242195785
 20
27.3580908691
 11
-10.2026619319
 21
25.5658158504
  0
LINE
  5
233
100
AcDbEntity
  8
RACCORDO
100
AcDbLine
 62
7
  6
CONTINUOUS
 10
-12.1025226971
 20
26.515746233
 11
-7.4631060202
 21
28.7461593124
  0
LINE
  5
234
100
AcDbEntity
  8
ASSI
100
AcDbLine
 62
7
  6
CONTINUOUS
 10
-12.1025226971
 20
26.515746233
 11
-7.4631060202
 21
28.7461593124
  0
LWPOLYLINE
  5
235
100
AcDbEntity
  8
RACCORDO
100
AcDbPolyline
 62
7
  6
CONTINUOUS
 90
17
 70
0
 10
-23.6187219467
 20
-13.1242045198
 10
-23.6181090672
 20
-13.1399995075
 10
-23.6115399837
 20
-13.228582334
 10
-23.5998059393
 20
-13.3143799681
 10
-23.582974786
 20
-13.3972174399
 10
-23.5611343552
 20
-13.4769263783
 10
-23.5343910619
 20
-13.5532656236
 10
-23.5028331336
 20
-13.6260576349
 10
-23.466587511
 20
-13.6950913744
 10
-23.4258896336
 20
-13.7600047456
 10
-23.3809546387
 20
-13.8205471553
 10
-23.3320236339
 20
-13.8765067025
 10
-23.2795144454
 20
-13.9275584989
 10
-23.2237773251
 20
-13.9735293768
 10
-23.1652090184
 20
-14.0142580511
 10
-23.1044383297
 20
-14.0495348941
 10
-23.0876518586
 20
-14.0581539029
  0
LWPOLYLINE
  5
236
100
AcDbEntity
  8
0
100
AcDbPolyline
 62
7
  6
CONTINUOUS
 90
16
 70
0
 10
-24.1343409154
 20
-0.6915847039
 10
-24.1255434945
 20
-1.2950700716
 10
-24.0931253457
 20
-1.9975159251
 10
-24.0368892914
 20
-2.6988078613
 10
-23.9569244431
 20
-3.3978623434
 10
-23.8533287814
 20
-4.0938359008
 10
-23.7261756507
 20
-4.7860884584
 10
-23.5756207294
 20
-5.4735826501
 10
-23.4018349279
 20
-6.1554000562
 10
-23.2049621003
 20
-6.8310160194
 10
-22.9853550659
 20
-7.4994293421
 10
-22.743419457
 20
-8.1596427277
 10
-22.4794380963
 20
-8.811083262
 10
-22.193746778
 20
-9.4529922917
 10
-21.8868157165
 20
-10.0843926744
 10
-21.6017816704
 20
-10.6265107896
  0
LWPOLYLINE
  5
237
100
AcDbEntity
  8
RACCORDO
100
AcDbPolyline
 62
7
  6
CONTINUOUS
 90
7
 70
0
 10
-23.6187447779
 20
22.4013747318
 10
-23.7328453016
 20
18.4516284379
 10
-23.820163468
 20
14.4447483294
 10
-23.8783882458
 20
10.4520600876
 10
-23.9075119617
 20
6.4739430092
 10
-23.9075329109
 20
2.510710911
 10
-23.9065169425
 20
2.3727887734
  0
LINE
  5
238
100
AcDbEntity
  8
0
100
AcDbLine
 62
7
  6
CONTINUOUS
 10
-12.8449848174
 20
24.171640427
 11
-13.198538208
 21
23.9721704976
  0
LINE
  5
239
100
AcDbEntity
  8
DRAFT
100
AcDbLine
 62
7
  6
CONTINUOUS
 10
-8.2487907397
 20
22.8097769517
 11
-7.8952373491
 21
22.9888209169
  0
LINE
  5
23A
100
AcDbEntity
  8
RACCORDO
100
AcDbLine
 62
7
  6
CONTINUOUS
 10
-1.8416071097
 20
25.9354098572
 11
-6.4810237867
 21
23.7049967778
  0
LINE
  5
23B
100
AcDbEntity
  8
ASSI
100
AcDbLine
 62
7
  6
CONTINUOUS
 10
-1.8416071097
 20
25.9354098572
 11
-6.4810237867
 21
23.7049967778
  0
LINE
  5
23C
100
AcDbEntity
  8
DRAFT
100
AcDbLine
 62
7
  6
CONTINUOUS
 10
13.7208500494
 20
-27.7825548714
 11
14.4316592669
 21
-27.930852699
  0
LWPOLYLINE
  5
23D
100
AcDbEntity
  8
RACCORDO
100
AcDbPolyline
 62
7
  6
CONTINUOUS
 90
23
 70
0
 10
-21.1867420967
 20
-11.351896811
 10
-21.1656138447
 20
-11.3838233452
 10
-21.1451501369
 20
-11.4126202688
 10
-21.1252602969
 20
-11.4389011899
 10
-21.1061433514
 20
-11.4627871724
 10
-21.0879077262
 20
-11.4844737624
 10
-21.070219203
 20
-11.5046059004
 10
-21.0531335085
 20
-11.523302515
 10
-21.0367155469
 20
-11.5406511881
 10
-21.0205823899
 20
-11.5571736702
 10
-21.0047012143
 20
-11.5729845389
 10
-20.9891320648
 20
-11.5880951901
 10
-20.9736077006
 20
-11.6028199088
 10
-20.9580858098
 20
-11.6172374572
 10
-20.9426066697
 20
-11.6313446909
 10
-20.9270301766
 20
-11.6452973671
 10
-20.9113690678
 20
-11.6591065248
 10
-20.8956143164
 20
-11.6728005953
 10
-20.8795977276
 20
-11.6865410032
 10
-20.8633070436
 20
-11.7003490944
 10
-20.8467476096
 20
-11.7142301069
 10
-20.8297717878
 20
-11.7283148561
 10
-20.7945022527
 20
-11.7571697848
  0
LINE
  5
23E
100
AcDbEntity
  8
RACCORDO
100
AcDbLine
 62
7
  6
CONTINUOUS
 10
-21.2031989226
 20
-11.3252099987
 11
-21.1867420967
 21
-11.351896811
  0
LINE
  5
23F
100
AcDbEntity
  8
RACCORDO
100
AcDbLine
 62
7
  6
CONTINUOUS
 10
-21.2032068878
 20
-11.325196822
 11
-21.2032287202
 21
-11.3251602613
  0
LWPOLYLINE
  5
240
100
AcDbEntity
  8
0
100
AcDbPolyline
 62
7
  6
CONTINUOUS
 90
3
 70
0
 10
-21.5982763039
 20
-10.6329432112
 10
-21.3588857627
 20
-11.0598157405
 10
-21.2031720702
 20
-11.3252551697
  0
LINE
  5
241
100
AcDbEntity
  8
RACCORDO
100
AcDbLine
 62
7
  6
CONTINUOUS
 10
-21.5982168791
 20
-10.6330522109
 11
-21.5982763039
 21
-10.6329432112
  0
LINE
  5
242
100
AcDbEntity
  8
0
100
AcDbLine
 62
7
  6
CONTINUOUS
 10
-21.6019022429
 20
-10.6262894459
 11
-21.5982168791
 21
-10.6330522109
  0
LINE
  5
243
100
AcDbEntity
  8
RACCORDO
100
AcDbLine
 62
7
  6
CONTINUOUS
 10
-21.6017816704
 20
-10.6265107896
 11
-21.6019022429
 21
-10.6262894459
  0
LWPOLYLINE
  5
244
100
AcDbEntity
  8
RACCORDO
100
AcDbPolyline
 62
7
  6
CONTINUOUS
 90
4
 70
0
 10
-23.8379034527
 20
-4.1778151406
 10
-23.8202654673
 20
-5.3699187291
 10
-23.7329842535
 20
-9.2866317482
 10
-23.6187262929
 20
-13.1242173338
  0
LWPOLYLINE
  5
245
100
AcDbEntity
  8
0
100
AcDbPolyline
 62
7
  6
CONTINUOUS
 90
19
 70
0
 10
-21.1357323997
 20
10.0645874399
 10
-21.4020705453
 20
9.6089863749
 10
-21.712487282
 20
9.0426270251
 10
-22.0051187712
 20
8.4677741349
 10
-22.2797226011
 20
7.8849295688
 10
-22.5361099019
 20
7.2945521456
 10
-22.7740838421
 20
6.6971573343
 10
-22.9933618376
 20
6.093472124
 10
-23.1937104035
 20
5.4841497843
 10
-23.3749312345
 20
4.8697894644
 10
-23.5367987005
 20
4.2512476674
 10
-23.6792658189
 20
3.6291198517
 10
-23.8023936361
 20
3.0036670791
 10
-23.9061454874
 20
2.3755632599
 10
-23.9904929025
 20
1.7455524021
 10
-24.0554634603
 20
1.1140264098
 10
-24.1010545621
 20
0.481595064
 10
-24.1272684693
 20
-0.1509434088
 10
-24.1343409173
 20
-0.6920010899
  0
LINE
  5
246
100
AcDbEntity
  8
0
100
AcDbLine
 62
7
  6
CONTINUOUS
 10
-21.1025303645
 20
10.1196087415
 11
-21.1358960596
 21
10.0643152788
  0
LWPOLYLINE
  5
247
100
AcDbEntity
  8
0
100
AcDbPolyline
 62
7
  6
CONTINUOUS
 90
8
 70
0
 10
-20.4946799816
 20
11.0649568712
 10
-20.5634426324
 20
10.9634400647
 10
-20.6563892777
 20
10.8241553088
 10
-20.748101097
 20
10.6843140541
 10
-20.8385751293
 20
10.5439264
 10
-20.9278060883
 20
10.4030064976
 10
-21.015791225
 20
10.2615650146
 10
-21.1025303645
 20
10.1196087415
  0
LINE
  5
248
100
AcDbEntity
  8
RACCORDO
100
AcDbLine
 62
7
  6
CONTINUOUS
 10
-20.4959692568
 20
11.0630649872
 11
-20.4948428972
 21
11.064717853
  0
LINE
  5
249
100
AcDbEntity
  8
DRAFT
100
AcDbLine
 62
7
  6
CONTINUOUS
 10
-6.520081562
 20
21.7616820488
 11
-7.5862953882
 21
21.1660490878
  0
LINE
  5
24A
100
AcDbEntity
  8
RACCORDO
100
AcDbLine
 62
7
  6
CONTINUOUS
 10
-5.3454350371
 20
21.3796894618
 11
-3.0580848275
 21
22.5501497993
  0
LINE
  5
24B
100
AcDbEntity
  8
RACCORDO
100
AcDbLine
 62
253
  6
CONTINUOUS
 10
-5.2324771748
 20
21.3731754291
 11
-2.945492304
 21
22.543448819
  0
LINE
  5
24C
100
AcDbEntity
  8
DRAFT
100
AcDbLine
 62
7
  6
CONTINUOUS
 10
-7.5862953882
 20
22.4785292759
 11
-5.8092723446
 21
23.3691210567
  0
LINE
  5
24D
100
AcDbEntity
  8
0
100
AcDbLine
 62
7
  6
CONTINUOUS
 10
3.007168404
 20
28.1455420861
 11
2.6197903848
 21
27.9518530765
  0
LINE
  5
24E
100
AcDbEntity
  8
0
100
AcDbLine
 62
7
  6
CONTINUOUS
 10
1.1260123347
 20
27.2049640514
 11
-0.2870901253
 21
26.4984128214
  0
LINE
  5
24F
100
AcDbEntity
  8
0
100
AcDbLine
 62
7
  6
CONTINUOUS
 10
3.0021907775
 20
28.0369872557
 11
2.7389832725
 21
27.9053835032
  0
LINE
  5
250
100
AcDbEntity
  8
RACCORDO
100
AcDbLine
 62
7
  6
CONTINUOUS
 10
-5.8092723446
 20
23.3691210567
 11
-1.2501302737
 21
25.6396714391
  0
LINE
  5
251
100
AcDbEntity
  8
ASSI
100
AcDbLine
 62
7
  6
CONTINUOUS
 10
-5.8092723446
 20
23.3691210567
 11
-1.2501302737
 21
25.6396714391
  0
LINE
  5
252
100
AcDbEntity
  8
DRAFT
100
AcDbLine
 62
7
  6
CONTINUOUS
 10
-5.8092723446
 20
22.1566854914
 11
-0.902720668
 21
24.5473414139
  0
LINE
  5
253
100
AcDbEntity
  8
ASSI
100
AcDbLine
 62
7
  6
CONTINUOUS
 10
-5.8092723446
 20
22.1566854914
 11
-0.902720668
 21
24.5473414139
  0
LINE
  5
254
100
AcDbEntity
  8
DRAFT
100
AcDbLine
 62
7
  6
CONTINUOUS
 10
-6.5126766895
 20
21.7579796125
 11
-5.8092723446
 21
22.067997753
  0
LWPOLYLINE
  5
255
100
AcDbEntity
  8
RACCORDO
100
AcDbPolyline
 62
7
  6
CONTINUOUS
 90
14
 70
0
 10
7.6094023677
 20
-29.4066807479
 10
7.6304814737
 20
-29.4168916575
 10
7.689674416
 20
-29.4420433437
 10
7.751447661
 20
-29.4631450577
 10
7.815529058
 20
-29.4799232145
 10
7.8815205955
 20
-29.4921411107
 10
7.9491808575
 20
-29.4996424889
 10
8.0182260106
 20
-29.5022861217
 10
8.0882120013
 20
-29.4999756395
 10
8.1588810134
 20
-29.4926781382
 10
8.2300207445
 20
-29.4803704335
 10
8.3013216405
 20
-29.4630610608
 10
8.3725646173
 20
-29.4407811314
 10
8.4443184436
 20
-29.41325768
  0
LINE
  5
256
100
AcDbEntity
  8
RACCORDO
100
AcDbLine
 62
7
  6
CONTINUOUS
 10
7.6099154717
 20
-29.4069437217
 11
-23.0878746534
 21
-14.0580486591
  0
LINE
  5
257
100
AcDbEntity
  8
RACCORDO
100
AcDbLine
 62
253
  6
CONTINUOUS
 10
-9.6651113215
 20
-20.2054306923
 11
-23.4722625549
 21
-13.3018632221
  0
LINE
  5
258
100
AcDbEntity
  8
RACCORDO
100
AcDbLine
 62
253
  6
CONTINUOUS
 10
7.2164096596
 20
-28.6461993294
 11
-6.5907422843
 21
-21.7426152933
  0
LINE
  5
259
100
AcDbEntity
  8
RACCORDO
100
AcDbLine
 62
7
  6
CONTINUOUS
 10
10.5665475994
 20
-28.9941748808
 11
11.8329467927
 21
-29.6273744775
  0
LINE
  5
25A
100
AcDbEntity
  8
RACCORDO
100
AcDbLine
 62
253
  6
CONTINUOUS
 10
10.5015743029
 20
-28.8589564307
 11
11.7679734963
 21
-29.4921560274
  0
LINE
  5
25B
100
AcDbEntity
  8
RACCORDO
100
AcDbLine
 62
253
  6
CONTINUOUS
 10
11.7679734963
 20
-29.1988835478
 11
10.5015743029
 21
-28.5656839512
  0
LINE
  5
25C
100
AcDbEntity
  8
RACCORDO
100
AcDbLine
 62
253
  6
CONTINUOUS
 10
11.8563618439
 20
-28.967189374
 11
10.784165897
 21
-28.4310914006
  0
LINE
  5
25D
100
AcDbEntity
  8
RACCORDO
100
AcDbLine
 62
7
  6
CONTINUOUS
 10
-20.1679791754
 20
-12.2307612865
 11
-19.9929289691
 21
-12.3577667963
  0
LINE
  5
25E
100
AcDbEntity
  8
RACCORDO
100
AcDbLine
 62
7
  6
CONTINUOUS
 10
-20.3154622562
 20
-12.1227226802
 11
-20.1679791754
 21
-12.2307612865
  0
LINE
  5
25F
100
AcDbEntity
  8
RACCORDO
100
AcDbLine
 62
7
  6
CONTINUOUS
 10
-20.4135850197
 20
-12.0501068602
 11
-20.3154622562
 21
-12.1227226802
  0
LINE
  5
260
100
AcDbEntity
  8
RACCORDO
100
AcDbLine
 62
7
  6
CONTINUOUS
 10
-20.5018111979
 20
-11.9841395146
 11
-20.4135850197
 21
-12.0501068602
  0
LINE
  5
261
100
AcDbEntity
  8
RACCORDO
100
AcDbLine
 62
7
  6
CONTINUOUS
 10
-20.5811816232
 20
-11.9240844415
 11
-20.5018111979
 21
-11.9841395146
  0
LINE
  5
262
100
AcDbEntity
  8
RACCORDO
100
AcDbLine
 62
7
  6
CONTINUOUS
 10
-20.6296805126
 20
-11.8869654606
 11
-20.5811816232
 21
-11.9240844415
  0
LINE
  5
263
100
AcDbEntity
  8
RACCORDO
100
AcDbLine
 62
7
  6
CONTINUOUS
 10
-20.6750192769
 20
-11.8519018851
 11
-20.6296805126
 21
-11.8869654606
  0
LINE
  5
264
100
AcDbEntity
  8
RACCORDO
100
AcDbLine
 62
7
  6
CONTINUOUS
 10
-20.7174329907
 20
-11.8187128694
 11
-20.6750192769
 21
-11.8519018851
  0
LWPOLYLINE
  5
265
100
AcDbEntity
  8
RACCORDO
100
AcDbPolyline
 62
7
  6
CONTINUOUS
 90
5
 70
0
 10
-13.3614031557
 20
-16.6430268654
 10
-13.2688434575
 20
-16.7158154963
 10
-13.094956234
 20
-16.8591992518
 10
-12.9219405889
 20
-17.0079890585
 10
-12.8249234174
 20
-17.0939488446
  0
LINE
  5
266
100
AcDbEntity
  8
RACCORDO
100
AcDbLine
 62
7
  6
CONTINUOUS
 10
-20.7571462749
 20
-11.7872263098
 11
-20.7174329907
 21
-11.8187128694
  0
LINE
  5
267
100
AcDbEntity
  8
RACCORDO
100
AcDbLine
 62
7
  6
CONTINUOUS
 10
-20.7945022527
 20
-11.7571697848
 11
-20.7571462749
 21
-11.7872263098
  0
LINE
  5
268
100
AcDbEntity
  8
RACCORDO
100
AcDbLine
 62
7
  6
CONTINUOUS
 10
-12.824742945
 20
-17.0941105627
 11
-12.8249219184
 21
-17.0939503603
  0
LINE
  5
269
100
AcDbEntity
  8
0
100
AcDbLine
 62
7
  6
CONTINUOUS
 10
-20.0372411971
 20
-12.0897631617
 11
-19.9440751059
 21
-12.6532385764
  0
LINE
  5
26A
100
AcDbEntity
  8
RACCORDO
100
AcDbLine
 62
7
  6
CONTINUOUS
 10
-18.7928367343
 20
27.812777422
 11
-18.7928367343
 21
27.5195049425
  0
LINE
  5
26B
100
AcDbEntity
  8
RACCORDO
100
AcDbLine
 62
253
  6
CONTINUOUS
 10
-18.7196134296
 20
27.7243890744
 11
-18.7196134296
 21
27.4311165949
  0
LINE
  5
26C
100
AcDbEntity
  8
RACCORDO
100
AcDbLine
 62
7
  6
CONTINUOUS
 10
-18.0894323894
 20
27.0132942729
 11
-18.0894323894
 21
26.4728159137
  0
LINE
  5
26D
100
AcDbEntity
  8
RACCORDO
100
AcDbLine
 62
253
  6
CONTINUOUS
 10
-18.0162090847
 20
26.9766826205
 11
-18.0162090847
 21
26.381005936
  0
LINE
  5
26E
100
AcDbEntity
  8
RACCORDO
100
AcDbLine
 62
253
  6
CONTINUOUS
 10
-17.4532142363
 20
26.7979169982
 11
-17.4532142363
 21
27.0911894777
  0
LINE
  5
26F
100
AcDbEntity
  8
RACCORDO
100
AcDbLine
 62
253
  6
CONTINUOUS
 10
-17.1005888653
 20
26.7974554116
 11
-17.1005888653
 21
27.0907278911
  0
LINE
  5
270
100
AcDbEntity
  8
DRAFT
100
AcDbLine
 62
7
  6
CONTINUOUS
 10
-5.8092723446
 20
23.3258197865
 11
-6.5126766895
 21
22.4704151778
  0
LINE
  5
271
100
AcDbEntity
  8
DRAFT
100
AcDbLine
 62
7
  6
CONTINUOUS
 10
-5.8092723446
 20
23.3258197865
 11
-6.520081562
 21
22.4741176141
  0
LINE
  5
272
100
AcDbEntity
  8
RACCORDO
100
AcDbLine
 62
7
  6
CONTINUOUS
 10
-2.6925869164
 20
19.3148715364
 11
-3.078494492
 21
19.0992869451
  0
LINE
  5
273
100
AcDbEntity
  8
RACCORDO
100
AcDbLine
 62
7
  6
CONTINUOUS
 10
-2.7468176162
 20
20.0803807514
 11
-0.4594674066
 21
21.2508410889
  0
LINE
  5
274
100
AcDbEntity
  8
RACCORDO
100
AcDbLine
 62
253
  6
CONTINUOUS
 10
-2.633859754
 20
20.0738667186
 11
-0.3468748831
 21
21.2441401086
  0
LINE
  5
275
100
AcDbEntity
  8
RACCORDO
100
AcDbLine
 62
253
  6
CONTINUOUS
 10
-3.9660779815
 20
20.7399758324
 11
-1.6550175819
 21
21.898211458
  0
LINE
  5
276
100
AcDbEntity
  8
RACCORDO
100
AcDbLine
 62
253
  6
CONTINUOUS
 10
-3.7893037094
 20
20.4350853132
 11
-1.4782433098
 21
21.5933209388
  0
LINE
  5
277
100
AcDbEntity
  8
RACCORDO
100
AcDbLine
 62
253
  6
CONTINUOUS
 10
-1.3674605606
 20
19.440667122
 11
0.943599839
 21
20.5989027476
  0
LINE
  5
278
100
AcDbEntity
  8
RACCORDO
100
AcDbLine
 62
253
  6
CONTINUOUS
 10
-1.1906862886
 20
19.1357766028
 11
1.1203741111
 21
20.2940122284
  0
LWPOLYLINE
  5
279
100
AcDbEntity
  8
RACCORDO
100
AcDbPolyline
 62
7
  6
CONTINUOUS
 90
13
 70
0
 10
-20.6151308837
 20
-11.7463728116
 10
-20.6160568877
 20
-11.7460305241
 10
-20.6176729545
 20
-11.7454179622
 10
-20.6161205686
 20
-11.7460348745
 10
-20.6122012116
 20
-11.7476444519
 10
-20.6060110915
 20
-11.7502602501
 10
-20.5973960417
 20
-11.7539947734
 10
-20.5867686481
 20
-11.7587066271
 10
-20.5741496194
 20
-11.7644130078
 10
-20.5594458143
 20
-11.7711797596
 10
-20.5428928202
 20
-11.7789173939
 10
-20.5244831145
 20
-11.7876432861
 10
-20.5041499168
 20
-11.7974015151
  0
LWPOLYLINE
  5
27A
100
AcDbEntity
  8
RACCORDO
100
AcDbPolyline
 62
7
  6
CONTINUOUS
 90
13
 70
0
 10
-14.9726842902
 20
-14.601792468
 10
-13.8786712934
 20
-15.1311070389
 10
-13.5138176524
 20
-15.3080332693
 10
-13.1501535835
 20
-15.4849066234
 10
-12.7883273588
 20
-15.6615681882
 10
-12.4293438177
 20
-15.8376589573
 10
-12.0736674019
 20
-16.0130728772
 10
-11.7212112293
 20
-16.1879737526
 10
-11.3728929938
 20
-16.3620110787
 10
-11.0291240184
 20
-16.5350720758
 10
-10.6890733554
 20
-16.7076666112
 10
-10.3528702939
 20
-16.8798194235
 10
-10.0216185526
 20
-17.0510428289
  0
LINE
  5
27B
100
AcDbEntity
  8
RACCORDO
100
AcDbLine
 62
7
  6
CONTINUOUS
 10
-20.5041499168
 20
-11.7974015151
 11
-20.4581360674
 21
-11.8198485289
  0
LWPOLYLINE
  5
27C
100
AcDbEntity
  8
RACCORDO
100
AcDbPolyline
 62
7
  6
CONTINUOUS
 90
6
 70
0
 10
-16.7482716217
 20
-13.7335496854
 10
-16.4015731801
 20
-13.9050372219
 10
-16.0497313894
 20
-14.0778700593
 10
-15.6938342512
 20
-14.2516934508
 10
-15.3346355618
 20
-14.4263465363
 10
-14.9726842902
 20
-14.601792468
  0
LINE
  5
27D
100
AcDbEntity
  8
RACCORDO
100
AcDbLine
 62
7
  6
CONTINUOUS
 10
-20.4581360674
 20
-11.8198485289
 11
-20.4048944429
 21
-11.8462920461
  0
LINE
  5
27E
100
AcDbEntity
  8
RACCORDO
100
AcDbLine
 62
7
  6
CONTINUOUS
 10
12.4787827137
 20
-28.2221813754
 11
11.9325297571
 21
-27.9490548971
  0
LINE
  5
27F
100
AcDbEntity
  8
DRAFT
100
AcDbLine
 62
7
  6
CONTINUOUS
 10
14.4316592669
 20
-27.930852699
 11
13.7208500494
 21
-27.5754480903
  0
LINE
  5
280
100
AcDbEntity
  8
RACCORDO
100
AcDbLine
 62
7
  6
CONTINUOUS
 10
-17.0973363143
 20
-13.5594980234
 11
-16.7482716217
 21
-13.7335496854
  0
LINE
  5
281
100
AcDbEntity
  8
RACCORDO
100
AcDbLine
 62
7
  6
CONTINUOUS
 10
-17.3236964184
 20
-13.4457985598
 11
-17.0973363143
 21
-13.5594980234
  0
LINE
  5
282
100
AcDbEntity
  8
RACCORDO
100
AcDbLine
 62
7
  6
CONTINUOUS
 10
-20.4048944429
 20
-11.8462920461
 11
-20.3445913481
 21
-11.8766807249
  0
LINE
  5
283
100
AcDbEntity
  8
RACCORDO
100
AcDbLine
 62
7
  6
CONTINUOUS
 10
-17.5419949717
 20
-13.3354926208
 11
-17.3236964184
 21
-13.4457985598
  0
LINE
  5
284
100
AcDbEntity
  8
RACCORDO
100
AcDbLine
 62
7
  6
CONTINUOUS
 10
-17.7522606691
 20
-13.2286199023
 11
-17.5419949717
 21
-13.3354926208
  0
LINE
  5
285
100
AcDbEntity
  8
RACCORDO
100
AcDbLine
 62
7
  6
CONTINUOUS
 10
-20.3445913481
 20
-11.8766807249
 11
-20.27733879
 21
-11.9109720687
  0
LINE
  5
286
100
AcDbEntity
  8
RACCORDO
100
AcDbLine
 62
7
  6
CONTINUOUS
 10
-17.9545487702
 20
-13.125215852
 11
-17.7522606691
 21
-13.2286199023
  0
LINE
  5
287
100
AcDbEntity
  8
RACCORDO
100
AcDbLine
 62
7
  6
CONTINUOUS
 10
-18.1489256314
 20
-13.0253131145
 11
-17.9545487702
 21
-13.125215852
  0
LINE
  5
288
100
AcDbEntity
  8
RACCORDO
100
AcDbLine
 62
7
  6
CONTINUOUS
 10
-20.27733879
 20
-11.9109720687
 11
-20.1635134935
 21
-11.9696823618
  0
LINE
  5
289
100
AcDbEntity
  8
RACCORDO
100
AcDbLine
 62
7
  6
CONTINUOUS
 10
-18.4257919731
 20
-12.8821136983
 11
-18.1489256314
 21
-13.0253131145
  0
LINE
  5
28A
100
AcDbEntity
  8
RACCORDO
100
AcDbLine
 62
7
  6
CONTINUOUS
 10
-18.6852577289
 20
-12.747010488
 11
-18.4257919731
 21
-12.8821136983
  0
LINE
  5
28B
100
AcDbEntity
  8
RACCORDO
100
AcDbLine
 62
7
  6
CONTINUOUS
 10
-20.1635134935
 20
-11.9696823618
 11
-20.0343551481
 21
-12.0369738641
  0
LINE
  5
28C
100
AcDbEntity
  8
RACCORDO
100
AcDbLine
 62
7
  6
CONTINUOUS
 10
-10.0216185526
 20
-17.0510428289
 11
-9.7490659005
 21
-17.1932159547
  0
LINE
  5
28D
100
AcDbEntity
  8
RACCORDO
100
AcDbLine
 62
7
  6
CONTINUOUS
 10
-19.0045468271
 20
-12.5796931887
 11
-18.6852577289
 21
-12.747010488
  0
LINE
  5
28E
100
AcDbEntity
  8
RACCORDO
100
AcDbLine
 62
7
  6
CONTINUOUS
 10
-20.0343551481
 20
-12.0369738641
 11
-19.8898156787
 21
-12.1127927361
  0
LWPOLYLINE
  5
28F
100
AcDbEntity
  8
RACCORDO
100
AcDbPolyline
 62
7
  6
CONTINUOUS
 90
11
 70
0
 10
-9.7486291723
 20
-17.1934445474
 10
-9.499372969
 20
-17.324553556
 10
-9.1843147375
 20
-17.4918535966
 10
-8.8749595951
 20
-17.6579637244
 10
-8.5717214355
 20
-17.8226918123
 10
-8.2753058119
 20
-17.9856858152
 10
-7.9867288317
 20
-18.1463999528
 10
-7.7064296441
 20
-18.3045835474
 10
-7.4348496909
 20
-18.45998549
 10
-7.1729309859
 20
-18.6120480112
 10
-6.9210305695
 20
-18.760522984
  0
LWPOLYLINE
  5
290
100
AcDbEntity
  8
RACCORDO
100
AcDbPolyline
 62
7
  6
CONTINUOUS
 90
3
 70
0
 10
-19.8898156787
 20
-12.1127927361
 10
-19.6141428571
 20
-12.2581487783
 10
-19.0045468271
 20
-12.5796931887
  0
LWPOLYLINE
  5
291
100
AcDbEntity
  8
RACCORDO
100
AcDbPolyline
 62
7
  6
CONTINUOUS
 90
12
 70
0
 10
-6.9210305695
 20
-18.760522984
 10
-6.6794763885
 20
-18.9051967232
 10
-6.449068477
 20
-19.0455660936
 10
-6.2300282176
 20
-19.1814473567
 10
-6.0225636464
 20
-19.3126675295
 10
-5.8273441956
 20
-19.4387504163
 10
-5.6444236631
 20
-19.5595805632
 10
-5.4738751203
 20
-19.6750196956
 10
-5.3162811884
 20
-19.7845610238
 10
-5.1717613464
 20
-19.8879647891
 10
-5.0400079802
 20
-19.9852750366
 10
-4.9497691288
 20
-20.0539985345
  0
LINE
  5
292
100
AcDbEntity
  8
RACCORDO
100
AcDbLine
 62
7
  6
CONTINUOUS
 10
-4.9497701785
 20
-20.0539998934
 11
-4.8698196894
 21
-20.1159572905
  0
LINE
  5
293
100
AcDbEntity
  8
RACCORDO
100
AcDbLine
 62
7
  6
CONTINUOUS
 10
-4.8698196894
 20
-20.1159572905
 11
-4.7605413589
 21
-20.2013686296
  0
LINE
  5
294
100
AcDbEntity
  8
RACCORDO
100
AcDbLine
 62
7
  6
CONTINUOUS
 10
-4.7605413589
 20
-20.2013686296
 11
-4.6571785457
 21
-20.2830575005
  0
LINE
  5
295
100
AcDbEntity
  8
RACCORDO
100
AcDbLine
 62
7
  6
CONTINUOUS
 10
-4.6571785457
 20
-20.2830575005
 11
-4.5600290799
 21
-20.3607909886
  0
LWPOLYLINE
  5
296
100
AcDbEntity
  8
RACCORDO
100
AcDbPolyline
 62
7
  6
CONTINUOUS
 90
24
 70
0
 10
-4.5600290799
 20
-20.3607909886
 10
-4.46933795
 20
-20.4343647916
 10
-4.4264378862
 20
-20.4695673824
 10
-4.3852448049
 20
-20.5036464024
 10
-4.3457468298
 20
-20.5366068866
 10
-4.3079413184
 20
-20.5684458116
 10
-4.2719098581
 20
-20.5990876088
 10
-4.2376330203
 20
-20.6285403095
 10
-4.2051038566
 20
-20.6568009024
 10
-4.1744130801
 20
-20.6837793603
 10
-4.1455323315
 20
-20.7094868876
 10
-4.1184490799
 20
-20.7339197699
 10
-4.0932670018
 20
-20.7569657831
 10
-4.0699444295
 20
-20.7786405336
 10
-4.0484655766
 20
-20.7989343121
 10
-4.0289594099
 20
-20.8176945163
 10
-4.0113685834
 20
-20.8349391643
 10
-3.9956700856
 20
-20.8506504206
 10
-3.9820246908
 20
-20.8646156121
 10
-3.9703436429
 20
-20.8768628039
 10
-3.9605991851
 20
-20.8873524896
 10
-3.9530124704
 20
-20.8957567044
 10
-3.9474569376
 20
-20.9021045726
 10
-3.9463118642
 20
-20.903442339
  0
LINE
  5
297
100
AcDbEntity
  8
RACCORDO
100
AcDbLine
 62
253
  6
CONTINUOUS
 10
-16.7424050188
 20
25.744103903
 11
-16.7424050188
 21
26.5195058817
  0
LINE
  5
298
100
AcDbEntity
  8
RACCORDO
100
AcDbLine
 62
253
  6
CONTINUOUS
 10
-16.3897796478
 20
25.754929523
 11
-16.3897796478
 21
26.6491575841
  0
LINE
  5
299
100
AcDbEntity
  8
DRAFT
100
AcDbLine
 62
7
  6
CONTINUOUS
 10
-15.5003376831
 20
26.9642456746
 11
-15.5003376831
 21
26.2518101093
  0
LINE
  5
29A
100
AcDbEntity
  8
RACCORDO
100
AcDbLine
 62
7
  6
CONTINUOUS
 10
-14.7895284656
 20
27.815947847
 11
-14.7895284656
 21
28.2489635168
  0
LINE
  5
29B
100
AcDbEntity
  8
DRAFT
100
AcDbLine
 62
7
  6
CONTINUOUS
 10
-13.8610335594
 20
25.6158983615
 11
-13.8610335594
 21
24.3034181733
  0
LINE
  5
29C
100
AcDbEntity
  8
DRAFT
100
AcDbLine
 62
7
  6
CONTINUOUS
 10
-1.4782433098
 20
21.1603052691
 11
-2.1057439705
 21
20.408424648
  0
LINE
  5
29D
100
AcDbEntity
  8
RACCORDO
100
AcDbLine
 62
7
  6
CONTINUOUS
 10
0.4095648936
 20
18.2968588209
 11
-0.4798770711
 21
17.7999782347
  0
LINE
  5
29E
100
AcDbEntity
  8
DRAFT
100
AcDbLine
 62
7
  6
CONTINUOUS
 10
3.8073798796
 20
18.5607949446
 11
2.0488690173
 21
17.6609470732
  0
LINE
  5
29F
100
AcDbEntity
  8
DRAFT
100
AcDbLine
 62
7
  6
CONTINUOUS
 10
3.0649177593
 20
17.5087433627
 11
2.7113643687
 21
17.3296993975
  0
LINE
  5
2A0
100
AcDbEntity
  8
RACCORDO
100
AcDbLine
 62
7
  6
CONTINUOUS
 10
9.0382733926
 20
20.495469606
 11
4.4791313217
 21
18.2249192236
  0
LINE
  5
2A1
100
AcDbEntity
  8
ASSI
100
AcDbLine
 62
7
  6
CONTINUOUS
 10
9.0382733926
 20
20.495469606
 11
4.4791313217
 21
18.2249192236
  0
LINE
  5
2A2
100
AcDbEntity
  8
RACCORDO
100
AcDbLine
 62
7
  6
CONTINUOUS
 10
3.8073798796
 20
18.5607949446
 11
8.4467965565
 21
20.791208024
  0
LINE
  5
2A3
100
AcDbEntity
  8
ASSI
100
AcDbLine
 62
7
  6
CONTINUOUS
 10
3.8073798796
 20
18.5607949446
 11
8.4467965565
 21
20.791208024
  0
LINE
  5
2A4
100
AcDbEntity
  8
DRAFT
100
AcDbLine
 62
7
  6
CONTINUOUS
 10
-13.198538208
 20
23.9721704976
 11
-13.198538208
 21
25.2846506858
  0
LINE
  5
2A5
100
AcDbEntity
  8
DRAFT
100
AcDbLine
 62
7
  6
CONTINUOUS
 10
-12.8449848174
 20
25.463694651
 11
-12.8449848174
 21
24.171640427
  0
LINE
  5
2A6
100
AcDbEntity
  8
DRAFT
100
AcDbLine
 62
7
  6
CONTINUOUS
 10
0.4095648936
 20
19.0092943862
 11
1.1203741111
 21
19.8609965587
  0
LINE
  5
2A7
100
AcDbEntity
  8
0
100
AcDbLine
 62
7
  6
CONTINUOUS
 10
3.0649177593
 20
16.2166891387
 11
2.7113643687
 21
16.0172192093
  0
LINE
  5
2A8
100
AcDbEntity
  8
0
100
AcDbLine
 62
7
  6
CONTINUOUS
 10
17.5028574184
 20
20.8976975789
 11
17.1154793991
 21
20.7040085693
  0
LINE
  5
2A9
100
AcDbEntity
  8
0
100
AcDbLine
 62
7
  6
CONTINUOUS
 10
15.6217013491
 20
19.9571195443
 11
14.208598889
 21
19.2505683143
  0
LINE
  5
2AA
100
AcDbEntity
  8
0
100
AcDbLine
 62
7
  6
CONTINUOUS
 10
17.4978797919
 20
20.7891427485
 11
17.2346722868
 21
20.657538996
  0
LINE
  5
2AB
100
AcDbEntity
  8
DRAFT
100
AcDbLine
 62
7
  6
CONTINUOUS
 10
9.3856829982
 20
19.4031395807
 11
5.7072406448
 21
17.610864562
  0
LINE
  5
2AC
100
AcDbEntity
  8
ASSI
100
AcDbLine
 62
7
  6
CONTINUOUS
 10
9.3856829982
 20
19.4031395807
 11
5.7072406448
 21
17.610864562
  0
LINE
  5
2AD
100
AcDbEntity
  8
RACCORDO
100
AcDbLine
 62
7
  6
CONTINUOUS
 10
14.068295467
 20
17.9804585688
 11
9.42887879
 21
15.7500454894
  0
LINE
  5
2AE
100
AcDbEntity
  8
ASSI
100
AcDbLine
 62
7
  6
CONTINUOUS
 10
14.068295467
 20
17.9804585688
 11
9.42887879
 21
15.7500454894
  0
LINE
  5
2AF
100
AcDbEntity
  8
DRAFT
100
AcDbLine
 62
7
  6
CONTINUOUS
 10
-8.2487907397
 20
22.8097769517
 11
-8.2487907397
 21
21.4972967635
  0
LINE
  5
2B0
100
AcDbEntity
  8
DRAFT
100
AcDbLine
 62
7
  6
CONTINUOUS
 10
-7.5862953882
 20
21.1660490878
 11
-7.5862953882
 21
22.4785292759
  0
LINE
  5
2B1
100
AcDbEntity
  8
RACCORDO
100
AcDbLine
 62
7
  6
CONTINUOUS
 10
-6.5242195785
 20
28.1941879718
 11
-6.5242195785
 21
27.3580908691
  0
LINE
  5
2B2
100
AcDbEntity
  8
ASSI
100
AcDbLine
 62
7
  6
CONTINUOUS
 10
-6.5242195785
 20
28.1941879718
 11
-6.5242195785
 21
27.3580908691
  0
LINE
  5
2B3
100
AcDbEntity
  8
DRAFT
100
AcDbLine
 62
7
  6
CONTINUOUS
 10
-6.520081562
 20
21.7616820488
 11
-6.520081562
 21
22.4741176141
  0
LINE
  5
2B4
100
AcDbEntity
  8
DRAFT
100
AcDbLine
 62
7
  6
CONTINUOUS
 10
-6.5126766895
 20
21.7579796125
 11
-6.5126766895
 21
22.4704151778
  0
LINE
  5
2B5
100
AcDbEntity
  8
0
100
AcDbLine
 62
7
  6
CONTINUOUS
 10
2.9932839833
 20
27.8313820825
 11
2.966138292
 21
27.7602245297
  0
LINE
  5
2B6
100
AcDbEntity
  8
DRAFT
100
AcDbLine
 62
7
  6
CONTINUOUS
 10
9.3898210147
 20
13.8067307604
 11
8.3236071885
 21
13.2110977994
  0
LINE
  5
2B7
100
AcDbEntity
  8
RACCORDO
100
AcDbLine
 62
7
  6
CONTINUOUS
 10
10.5644675396
 20
13.4247381735
 11
12.8518177492
 21
14.595198511
  0
LINE
  5
2B8
100
AcDbEntity
  8
RACCORDO
100
AcDbLine
 62
253
  6
CONTINUOUS
 10
10.6774254019
 20
13.4182241407
 11
12.9644102727
 21
14.5884975307
  0
LINE
  5
2B9
100
AcDbEntity
  8
DRAFT
100
AcDbLine
 62
7
  6
CONTINUOUS
 10
8.0146652276
 20
15.0338696285
 11
7.661111837
 21
14.8548256633
  0
LINE
  5
2BA
100
AcDbEntity
  8
DRAFT
100
AcDbLine
 62
7
  6
CONTINUOUS
 10
8.3236071885
 20
14.5235779876
 11
10.1006302321
 21
15.4141697683
  0
LINE
  5
2BB
100
AcDbEntity
  8
RACCORDO
100
AcDbLine
 62
7
  6
CONTINUOUS
 10
10.1006302321
 20
15.4141697683
 11
14.659772303
 21
17.6847201508
  0
LINE
  5
2BC
100
AcDbEntity
  8
ASSI
100
AcDbLine
 62
7
  6
CONTINUOUS
 10
10.1006302321
 20
15.4141697683
 11
14.659772303
 21
17.6847201508
  0
LINE
  5
2BD
100
AcDbEntity
  8
DRAFT
100
AcDbLine
 62
7
  6
CONTINUOUS
 10
10.1006302321
 20
14.2017342031
 11
15.0071819087
 21
16.5923901255
  0
LINE
  5
2BE
100
AcDbEntity
  8
ASSI
100
AcDbLine
 62
7
  6
CONTINUOUS
 10
10.1006302321
 20
14.2017342031
 11
15.0071819087
 21
16.5923901255
  0
LINE
  5
2BF
100
AcDbEntity
  8
DRAFT
100
AcDbLine
 62
7
  6
CONTINUOUS
 10
9.3972258872
 20
13.8030283241
 11
10.1006302321
 21
14.1130464646
  0
LINE
  5
2C0
100
AcDbEntity
  8
DRAFT
100
AcDbLine
 62
7
  6
CONTINUOUS
 10
-5.8092723446
 20
23.3691210567
 11
-5.8092723446
 21
22.067997753
  0
LINE
  5
2C1
100
AcDbEntity
  8
ASSI
100
AcDbLine
 62
7
  6
CONTINUOUS
 10
-5.8092723446
 20
22.1566854914
 11
-5.8092723446
 21
23.3691210567
  0
LINE
  5
2C2
100
AcDbEntity
  8
RACCORDO
100
AcDbLine
 62
7
  6
CONTINUOUS
 10
-5.4815515785
 20
21.1571348441
 11
-5.4815515785
 21
20.8638623646
  0
LINE
  5
2C3
100
AcDbEntity
  8
RACCORDO
100
AcDbLine
 62
253
  6
CONTINUOUS
 10
-5.4083282738
 20
21.0687464965
 11
-5.4083282738
 21
20.7754740169
  0
LINE
  5
2C4
100
AcDbEntity
  8
RACCORDO
100
AcDbLine
 62
7
  6
CONTINUOUS
 10
-4.7781472336
 20
20.357651695
 11
-4.7781472336
 21
19.8171733358
  0
LINE
  5
2C5
100
AcDbEntity
  8
RACCORDO
100
AcDbLine
 62
253
  6
CONTINUOUS
 10
-4.7049239289
 20
20.3210400426
 11
-4.7049239289
 21
19.7253633581
  0
LINE
  5
2C6
100
AcDbEntity
  8
RACCORDO
100
AcDbLine
 62
253
  6
CONTINUOUS
 10
-4.1419290804
 20
20.1422744203
 11
-4.1419290804
 21
20.4355468998
  0
LINE
  5
2C7
100
AcDbEntity
  8
RACCORDO
100
AcDbLine
 62
253
  6
CONTINUOUS
 10
-3.7893037094
 20
20.1418128337
 11
-3.7893037094
 21
20.4350853132
  0
LINE
  5
2C8
100
AcDbEntity
  8
RACCORDO
100
AcDbLine
 62
253
  6
CONTINUOUS
 10
-3.4311198629
 20
19.0884613251
 11
-3.4311198629
 21
19.8638633038
  0
LINE
  5
2C9
100
AcDbEntity
  8
RACCORDO
100
AcDbLine
 62
253
  6
CONTINUOUS
 10
-3.078494492
 20
19.0992869451
 11
-3.078494492
 21
19.9935150061
  0
LINE
  5
2CA
100
AcDbEntity
  8
0
100
AcDbLine
 62
7
  6
CONTINUOUS
 10
-0.8643156868
 20
27.7548106209
 11
-0.9587509911
 21
26.821215676
  0
LINE
  5
2CB
100
AcDbEntity
  8
RACCORDO
100
AcDbLine
 62
7
  6
CONTINUOUS
 10
13.7208500494
 20
11.641216243
 11
12.8314080847
 21
11.1443356568
  0
LINE
  5
2CC
100
AcDbEntity
  8
RACCORDO
100
AcDbLine
 62
253
  6
CONTINUOUS
 10
8.2323524879
 20
8.622240532
 11
13.7424992799
 21
11.6303916278
  0
LINE
  5
2CD
100
AcDbEntity
  8
RACCORDO
100
AcDbLine
 62
253
  6
CONTINUOUS
 10
11.9438245952
 20
12.785024544
 11
14.2548849948
 21
13.9432601697
  0
LINE
  5
2CE
100
AcDbEntity
  8
RACCORDO
100
AcDbLine
 62
253
  6
CONTINUOUS
 10
12.1205988673
 20
12.4801340249
 11
14.4316592669
 21
13.6383696505
  0
LINE
  5
2CF
100
AcDbEntity
  8
RACCORDO
100
AcDbLine
 62
253
  6
CONTINUOUS
 10
21.0849475306
 20
15.6355165167
 11
14.1312465807
 21
12.1864260288
  0
LINE
  5
2D0
100
AcDbEntity
  8
ASSI
100
AcDbLine
 62
253
  6
CONTINUOUS
 10
21.0849475306
 20
15.6355165167
 11
14.1312465807
 21
12.1864260288
  0
LINE
  5
2D1
100
AcDbEntity
  8
RACCORDO
100
AcDbLine
 62
253
  6
CONTINUOUS
 10
21.7919501837
 20
14.4161179292
 11
14.8382456661
 21
10.9670329822
  0
LINE
  5
2D2
100
AcDbEntity
  8
ASSI
100
AcDbLine
 62
253
  6
CONTINUOUS
 10
21.7919501837
 20
14.4161179292
 11
14.8382456661
 21
10.9670329822
  0
LINE
  5
2D3
100
AcDbEntity
  8
RACCORDO
100
AcDbLine
 62
253
  6
CONTINUOUS
 10
14.4433141244
 20
11.9417045185
 11
13.7423781706
 21
11.6304521825
  0
LINE
  5
2D4
100
AcDbEntity
  8
RACCORDO
100
AcDbLine
 62
253
  6
CONTINUOUS
 10
14.7967194996
 20
11.3315929191
 11
14.0957835458
 21
11.020340583
  0
LINE
  5
2D5
100
AcDbEntity
  8
RACCORDO
100
AcDbLine
 62
7
  6
CONTINUOUS
 10
-2.8829341576
 20
19.8578261337
 11
-2.8829341576
 21
19.5645536542
  0
LINE
  5
2D6
100
AcDbEntity
  8
RACCORDO
100
AcDbLine
 62
253
  6
CONTINUOUS
 10
-2.8097108529
 20
19.769437786
 11
-2.8097108529
 21
19.4761653065
  0
LINE
  5
2D7
100
AcDbEntity
  8
RACCORDO
100
AcDbLine
 62
7
  6
CONTINUOUS
 10
-2.1795298127
 20
19.0583429845
 11
-2.1795298127
 21
18.5178646254
  0
LINE
  5
2D8
100
AcDbEntity
  8
RACCORDO
100
AcDbLine
 62
253
  6
CONTINUOUS
 10
-2.106306508
 20
19.0217313322
 11
-2.106306508
 21
18.4260546476
  0
LINE
  5
2D9
100
AcDbEntity
  8
RACCORDO
100
AcDbLine
 62
253
  6
CONTINUOUS
 10
-1.5433116596
 20
18.8429657098
 11
-1.5433116596
 21
19.1362381894
  0
LINE
  5
2DA
100
AcDbEntity
  8
RACCORDO
100
AcDbLine
 62
7
  6
CONTINUOUS
 10
-1.4782433098
 20
21.1603052691
 11
-1.4782433098
 21
21.5933209388
  0
LINE
  5
2DB
100
AcDbEntity
  8
RACCORDO
100
AcDbLine
 62
253
  6
CONTINUOUS
 10
-1.1906862886
 20
18.8425041233
 11
-1.1906862886
 21
19.1357766028
  0
LINE
  5
2DC
100
AcDbEntity
  8
RACCORDO
100
AcDbLine
 62
7
  6
CONTINUOUS
 10
-0.902720668
 20
24.5473414139
 11
-0.902720668
 21
25.3834385166
  0
LINE
  5
2DD
100
AcDbEntity
  8
ASSI
100
AcDbLine
 62
7
  6
CONTINUOUS
 10
-0.902720668
 20
24.5473414139
 11
-0.902720668
 21
25.3834385166
  0
LINE
  5
2DE
100
AcDbEntity
  8
RACCORDO
100
AcDbLine
 62
253
  6
CONTINUOUS
 10
-0.8325024421
 20
17.7891526147
 11
-0.8325024421
 21
18.5645545934
  0
LINE
  5
2DF
100
AcDbEntity
  8
RACCORDO
100
AcDbLine
 62
253
  6
CONTINUOUS
 10
-0.4798770711
 20
17.7999782347
 11
-0.4798770711
 21
18.6942062957
  0
LINE
  5
2E0
100
AcDbEntity
  8
DRAFT
100
AcDbLine
 62
7
  6
CONTINUOUS
 10
0.4095648936
 20
18.2968588209
 11
0.4095648936
 21
19.0092943862
  0
LINE
  5
2E1
100
AcDbEntity
  8
0
100
AcDbLine
 62
7
  6
CONTINUOUS
 10
2.344000728
 20
28.8139512904
 11
2.2871003
 21
28.2164277832
  0
LINE
  5
2E2
100
AcDbEntity
  8
0
100
AcDbLine
 62
7
  6
CONTINUOUS
 10
3.235725348
 20
27.5468098037
 11
3.296849329
 21
28.1275617589
  0
LINE
  5
2E3
100
AcDbEntity
  8
DRAFT
100
AcDbLine
 62
7
  6
CONTINUOUS
 10
10.1006302321
 20
15.3708684982
 11
9.3972258872
 21
14.5154638894
  0
LINE
  5
2E4
100
AcDbEntity
  8
DRAFT
100
AcDbLine
 62
7
  6
CONTINUOUS
 10
10.1006302321
 20
15.3708684982
 11
9.3898210147
 21
14.5191663257
  0
LINE
  5
2E5
100
AcDbEntity
  8
RACCORDO
100
AcDbLine
 62
253
  6
CONTINUOUS
 10
8.5981852279
 20
8.0192380862
 11
14.0957835458
 21
11.0205386012
  0
LINE
  5
2E6
100
AcDbEntity
  8
RACCORDO
100
AcDbLine
 62
7
  6
CONTINUOUS
 10
23.8185017871
 20
14.7006413708
 11
22.6871309372
 21
14.1349559458
  0
LINE
  5
2E7
100
AcDbEntity
  8
RACCORDO
100
AcDbLine
 62
7
  6
CONTINUOUS
 10
23.8185017871
 20
14.0078210477
 11
22.6871309372
 21
13.4421356228
  0
LINE
  5
2E8
100
AcDbEntity
  8
0
100
AcDbLine
 62
253
  6
CONTINUOUS
 10
21.9800241561
 20
12.9153771514
 11
22.545709581
 21
13.1982198639
  0
LINE
  5
2E9
100
AcDbEntity
  8
SMUSSO
100
AcDbLine
 62
7
  6
CONTINUOUS
 10
23.747791109
 20
13.5528556735
 11
22.545709581
 21
12.9518149095
  0
LINE
  5
2EA
100
AcDbEntity
  8
0
100
AcDbLine
 62
7
  6
CONTINUOUS
 10
1.5537519621
 20
28.4351647692
 11
1.5799935188
 21
27.8628743926
  0
LINE
  5
2EB
100
AcDbEntity
  8
0
100
AcDbLine
 62
7
  6
CONTINUOUS
 10
1.5799935188
 20
27.8628743926
 11
1.587895184
 21
27.6012036964
  0
LINE
  5
2EC
100
AcDbEntity
  8
RACCORDO
100
AcDbLine
 62
7
  6
CONTINUOUS
 10
1.1203741111
 20
19.8609965587
 11
1.1203741111
 21
20.2940122284
  0
LINE
  5
2ED
100
AcDbEntity
  8
DRAFT
100
AcDbLine
 62
7
  6
CONTINUOUS
 10
2.0488690173
 20
17.6609470732
 11
2.0488690173
 21
16.348466885
  0
LINE
  5
2EE
100
AcDbEntity
  8
0
100
AcDbLine
 62
7
  6
CONTINUOUS
 10
2.2871003
 20
28.8019222995
 11
2.2871003
 21
28.2164277832
  0
LINE
  5
2EF
100
AcDbEntity
  8
DRAFT
100
AcDbLine
 62
7
  6
CONTINUOUS
 10
2.7113643687
 20
16.0172192093
 11
2.7113643687
 21
17.3296993975
  0
LINE
  5
2F0
100
AcDbEntity
  8
DRAFT
100
AcDbLine
 62
7
  6
CONTINUOUS
 10
3.0649177593
 20
17.5087433627
 11
3.0649177593
 21
16.2166891387
  0
LINE
  5
2F1
100
AcDbEntity
  8
0
100
AcDbLine
 62
7
  6
CONTINUOUS
 10
2.2871003
 20
28.2164277832
 11
2.2827678863
 21
28.0686236231
  0
LINE
  5
2F2
100
AcDbEntity
  8
0
100
AcDbLine
 62
7
  6
CONTINUOUS
 10
2.9942070812
 20
27.8628743926
 11
2.9906537424
 21
27.7416490676
  0
LINE
  5
2F3
100
AcDbEntity
  8
0
100
AcDbLine
 62
7
  6
CONTINUOUS
 10
3.020448638
 20
28.4351647692
 11
2.9942070812
 21
27.8628743926
  0
LINE
  5
2F4
100
AcDbEntity
  8
DRAFT
100
AcDbLine
 62
7
  6
CONTINUOUS
 10
14.4316592669
 20
13.2053539808
 11
13.7208500494
 21
12.3536518083
  0
LINE
  5
2F5
100
AcDbEntity
  8
0
100
AcDbLine
 62
7
  6
CONTINUOUS
 10
23.0369990557
 20
9.9982756551
 11
22.545709581
 21
9.7526309177
  0
LINE
  5
2F6
100
AcDbEntity
  8
0
100
AcDbLine
 62
7
  6
CONTINUOUS
 10
24.0775736522
 20
9.8275497482
 11
23.540565074
 21
9.5590454591
  0
LINE
  5
2F7
100
AcDbEntity
  8
SMUSSO
100
AcDbLine
 62
7
  6
CONTINUOUS
 10
28.5561172211
 20
11.1486926175
 11
22.545709581
 21
8.1434887974
  0
LINE
  5
2F8
100
AcDbEntity
  8
SMUSSO
100
AcDbLine
 62
7
  6
CONTINUOUS
 10
28.6268278992
 20
11.026734738
 11
22.545709581
 21
7.9861755789
  0
LINE
  5
2F9
100
AcDbEntity
  8
0
100
AcDbLine
 62
7
  6
CONTINUOUS
 10
1.5230930908
 20
28.4034974718
 11
1.5799935188
 21
27.8628743926
  0
LINE
  5
2FA
100
AcDbEntity
  8
0
100
AcDbLine
 62
7
  6
CONTINUOUS
 10
1.8746093117
 20
27.8157247723
 11
1.7723260179
 21
28.8898234145
  0
LINE
  5
2FB
100
AcDbEntity
  8
RACCORDO
100
AcDbLine
 62
7
  6
CONTINUOUS
 10
28.9657652336
 20
9.4275526609
 11
29.2275078569
 21
9.5584239725
  0
LINE
  5
2FC
100
AcDbEntity
  8
RACCORDO
100
AcDbLine
 62
7
  6
CONTINUOUS
 10
29.0724577114
 20
8.614873496
 11
29.2275078569
 21
8.6923985687
  0
LINE
  5
2FD
100
AcDbEntity
  8
0
100
AcDbLine
 62
7
  6
CONTINUOUS
 10
5.4385162868
 20
27.7548106209
 11
5.5329515912
 21
26.821215676
  0
LINE
  5
2FE
100
AcDbEntity
  8
DRAFT
100
AcDbLine
 62
7
  6
CONTINUOUS
 10
7.661111837
 20
14.8548256633
 11
7.661111837
 21
13.5423454751
  0
LINE
  5
2FF
100
AcDbEntity
  8
DRAFT
100
AcDbLine
 62
7
  6
CONTINUOUS
 10
8.3236071885
 20
13.2110977994
 11
8.3236071885
 21
14.5235779876
  0
LINE
  5
300
100
AcDbEntity
  8
RACCORDO
100
AcDbLine
 62
7
  6
CONTINUOUS
 10
9.3856829982
 20
20.2392366835
 11
9.3856829982
 21
19.4031395807
  0
LINE
  5
301
100
AcDbEntity
  8
ASSI
100
AcDbLine
 62
7
  6
CONTINUOUS
 10
9.3856829982
 20
20.2392366835
 11
9.3856829982
 21
19.4031395807
  0
LINE
  5
302
100
AcDbEntity
  8
DRAFT
100
AcDbLine
 62
7
  6
CONTINUOUS
 10
9.3898210147
 20
13.8067307604
 11
9.3898210147
 21
14.5191663257
  0
LINE
  5
303
100
AcDbEntity
  8
DRAFT
100
AcDbLine
 62
7
  6
CONTINUOUS
 10
9.3972258872
 20
13.8030283241
 11
9.3972258872
 21
14.5154638894
  0
LINE
  5
304
100
AcDbEntity
  8
DRAFT
100
AcDbLine
 62
7
  6
CONTINUOUS
 10
10.1006302321
 20
15.4141697683
 11
10.1006302321
 21
14.1130464646
  0
LINE
  5
305
100
AcDbEntity
  8
ASSI
100
AcDbLine
 62
7
  6
CONTINUOUS
 10
10.1006302321
 20
14.2017342031
 11
10.1006302321
 21
15.4141697683
  0
LINE
  5
306
100
AcDbEntity
  8
RACCORDO
100
AcDbLine
 62
7
  6
CONTINUOUS
 10
10.4283509982
 20
13.2021835558
 11
10.4283509982
 21
12.9089110762
  0
LINE
  5
307
100
AcDbEntity
  8
RACCORDO
100
AcDbLine
 62
7
  6
CONTINUOUS
 10
10.4283509982
 20
-28.5804480424
 11
10.4283509982
 21
-28.770568083
  0
LINE
  5
308
100
AcDbEntity
  8
RACCORDO
100
AcDbLine
 62
253
  6
CONTINUOUS
 10
10.5015743029
 20
13.1137952081
 11
10.5015743029
 21
12.8205227286
  0
LINE
  5
309
100
AcDbEntity
  8
RACCORDO
100
AcDbLine
 62
253
  6
CONTINUOUS
 10
10.5015743029
 20
-28.5656839512
 11
10.5015743029
 21
-28.8589564307
  0
LINE
  5
30A
100
AcDbEntity
  8
0
100
AcDbLine
 62
7
  6
CONTINUOUS
 10
17.4889729976
 20
20.5835375753
 11
17.4618273063
 21
20.5123800225
  0
LINE
  5
30B
100
AcDbEntity
  8
SMUSSO
100
AcDbLine
 62
7
  6
CONTINUOUS
 10
28.6268278992
 20
5.1377619923
 11
22.545709581
 21
2.0972028332
  0
LINE
  5
30C
100
AcDbEntity
  8
SMUSSO
100
AcDbLine
 62
7
  6
CONTINUOUS
 10
28.5561172211
 20
5.086514791
 11
22.545709581
 21
2.0813109709
  0
LINE
  5
30D
100
AcDbEntity
  8
RACCORDO
100
AcDbLine
 62
253
  6
CONTINUOUS
 10
23.6187616459
 20
-1.8391038857
 11
27.8936370574
 21
-3.9765415915
  0
LINE
  5
30E
100
AcDbEntity
  8
ASSI
100
AcDbLine
 62
253
  6
CONTINUOUS
 10
23.6187616459
 20
-1.8391038857
 11
27.8936370574
 21
-3.9765415915
  0
LINE
  5
30F
100
AcDbEntity
  8
RACCORDO
100
AcDbLine
 62
7
  6
CONTINUOUS
 10
23.6896851909
 20
-1.7546657733
 11
28.1110765655
 21
-3.9653614606
  0
LINE
  5
310
100
AcDbEntity
  8
ASSI
100
AcDbLine
 62
7
  6
CONTINUOUS
 10
23.6896851909
 20
-1.7546657733
 11
28.1110765655
 21
-3.9653614606
  0
LINE
  5
311
100
AcDbEntity
  8
RACCORDO
100
AcDbLine
 62
253
  6
CONTINUOUS
 10
7.2164096596
 20
6.8819897872
 11
-23.4722625549
 21
22.2263258945
  0
LINE
  5
312
100
AcDbEntity
  8
0
100
AcDbLine
 62
7
  6
CONTINUOUS
 10
1.6611318138
 20
27.6582237594
 11
1.5781246897
 21
27.9036308508
  0
LINE
  5
313
100
AcDbEntity
  8
0
100
AcDbLine
 62
7
  6
CONTINUOUS
 10
1.3437569045
 20
28.5965294074
 11
1.2036720797
 21
29.0106843341
  0
LINE
  5
314
100
AcDbEntity
  8
RACCORDO
100
AcDbLine
 62
7
  6
CONTINUOUS
 10
11.1317553431
 20
12.4027004066
 11
11.1317553431
 21
11.8622220474
  0
LINE
  5
315
100
AcDbEntity
  8
RACCORDO
100
AcDbLine
 62
253
  6
CONTINUOUS
 10
11.2049786478
 20
12.3660887543
 11
11.2049786478
 21
11.7704120697
  0
LINE
  5
316
100
AcDbEntity
  8
RACCORDO
100
AcDbLine
 62
253
  6
CONTINUOUS
 10
11.7679734963
 20
-29.4921560274
 11
11.7679734963
 21
-29.1988835478
  0
LINE
  5
317
100
AcDbEntity
  8
RACCORDO
100
AcDbLine
 62
253
  6
CONTINUOUS
 10
11.7679734963
 20
12.1873231319
 11
11.7679734963
 21
12.4805956115
  0
LINE
  5
318
100
AcDbEntity
  8
RACCORDO
100
AcDbLine
 62
253
  6
CONTINUOUS
 10
12.1205988673
 20
-29.4926176139
 11
12.1205988673
 21
-29.1993451344
  0
LINE
  5
319
100
AcDbEntity
  8
RACCORDO
100
AcDbLine
 62
253
  6
CONTINUOUS
 10
12.1205988673
 20
12.1868615453
 11
12.1205988673
 21
12.4801340249
  0
LINE
  5
31A
100
AcDbEntity
  8
RACCORDO
100
AcDbLine
 62
253
  6
CONTINUOUS
 10
12.4787827137
 20
-28.2221813754
 11
12.4787827137
 21
-27.7197600939
  0
LINE
  5
31B
100
AcDbEntity
  8
RACCORDO
100
AcDbLine
 62
253
  6
CONTINUOUS
 10
12.4787827137
 20
11.1335100368
 11
12.4787827137
 21
11.9089120155
  0
LINE
  5
31C
100
AcDbEntity
  8
RACCORDO
100
AcDbLine
 62
253
  6
CONTINUOUS
 10
12.8314080847
 20
-28.347642962
 11
12.8314080847
 21
-27.5717422863
  0
LINE
  5
31D
100
AcDbEntity
  8
RACCORDO
100
AcDbLine
 62
253
  6
CONTINUOUS
 10
12.8314080847
 20
11.1443356568
 11
12.8314080847
 21
12.0385637178
  0
LINE
  5
31E
100
AcDbEntity
  8
DRAFT
100
AcDbLine
 62
7
  6
CONTINUOUS
 10
13.7208500494
 20
-27.7825548714
 11
13.7208500494
 21
-27.1983906774
  0
LINE
  5
31F
100
AcDbEntity
  8
DRAFT
100
AcDbLine
 62
7
  6
CONTINUOUS
 10
13.7208500494
 20
11.641216243
 11
13.7208500494
 21
12.3536518083
  0
LINE
  5
320
100
AcDbEntity
  8
RACCORDO
100
AcDbLine
 62
7
  6
CONTINUOUS
 10
14.0957835458
 20
11.020340583
 11
14.0957835458
 21
10.804230442
  0
LINE
  5
321
100
AcDbEntity
  8
RACCORDO
100
AcDbLine
 62
7
  6
CONTINUOUS
 10
14.0957835458
 20
-26.8241771425
 11
14.0957835458
 21
-26.6080670015
  0
LINE
  5
322
100
AcDbEntity
  8
0
100
AcDbLine
 62
7
  6
CONTINUOUS
 10
13.6313733275
 20
20.5069661137
 11
13.5369380232
 21
19.5733711689
  0
LINE
  5
323
100
AcDbEntity
  8
SMUSSO
100
AcDbLine
 62
7
  6
CONTINUOUS
 10
28.6268278992
 20
5.1377619923
 11
28.5561172211
 21
5.086514791
  0
LINE
  5
324
100
AcDbEntity
  8
DRAFT
100
AcDbLine
 62
7
  6
CONTINUOUS
 10
14.7967194996
 20
10.6608692463
 11
14.0957835458
 21
10.804230442
  0
LINE
  5
325
100
AcDbEntity
  8
RACCORDO
100
AcDbLine
 62
7
  6
CONTINUOUS
 10
11.8936914857
 20
12.0309809981
 11
12.5182601991
 21
11.9006757333
  0
LINE
  5
326
100
AcDbEntity
  8
RACCORDO
100
AcDbLine
 62
253
  6
CONTINUOUS
 10
12.1205988673
 20
12.1868615453
 11
12.8314080847
 21
12.0385637178
  0
LINE
  5
327
100
AcDbEntity
  8
DRAFT
100
AcDbLine
 62
7
  6
CONTINUOUS
 10
14.8152329218
 20
10.6516125352
 11
14.0957835458
 21
10.804230442
  0
LINE
  5
328
100
AcDbEntity
  8
RACCORDO
100
AcDbLine
 62
253
  6
CONTINUOUS
 10
8.2323524879
 20
8.622240532
 11
-22.4796922118
 21
23.9782628818
  0
LINE
  5
329
100
AcDbEntity
  8
0
100
AcDbLine
 62
7
  6
CONTINUOUS
 10
16.0494409764
 20
21.187320262
 11
16.0756825332
 21
20.6150298855
  0
LINE
  5
32A
100
AcDbEntity
  8
0
100
AcDbLine
 62
7
  6
CONTINUOUS
 10
16.0756825332
 20
20.6150298855
 11
16.0835841983
 21
20.3533591892
  0
LINE
  5
32B
100
AcDbEntity
  8
RACCORDO
100
AcDbLine
 62
7
  6
CONTINUOUS
 10
14.4316592669
 20
-28.3638683687
 11
14.4316592669
 21
-27.930852699
  0
LINE
  5
32C
100
AcDbEntity
  8
RACCORDO
100
AcDbLine
 62
7
  6
CONTINUOUS
 10
14.4316592669
 20
13.2053539808
 11
14.4316592669
 21
13.6383696505
  0
LINE
  5
32D
100
AcDbEntity
  8
RACCORDO
100
AcDbLine
 62
7
  6
CONTINUOUS
 10
14.7967194996
 20
-26.42215187
 11
14.7967194996
 21
-25.7824903931
  0
LINE
  5
32E
100
AcDbEntity
  8
RACCORDO
100
AcDbLine
 62
7
  6
CONTINUOUS
 10
14.7967194996
 20
10.6608692463
 11
14.7967194996
 21
11.3315929191
  0
LINE
  5
32F
100
AcDbEntity
  8
DRAFT
100
AcDbLine
 62
7
  6
CONTINUOUS
 10
14.8152329218
 20
-25.7606849083
 11
14.8152329218
 21
10.6516125352
  0
LINE
  5
330
100
AcDbEntity
  8
RACCORDO
100
AcDbLine
 62
7
  6
CONTINUOUS
 10
14.8382456661
 20
-26.0991180995
 11
14.8382456661
 21
10.9670329822
  0
LINE
  5
331
100
AcDbEntity
  8
ASSI
100
AcDbLine
 62
7
  6
CONTINUOUS
 10
14.8382456661
 20
-26.0991180995
 11
14.8382456661
 21
10.9670329822
  0
LINE
  5
332
100
AcDbEntity
  8
RACCORDO
100
AcDbLine
 62
7
  6
CONTINUOUS
 10
15.0071819087
 20
16.5923901255
 11
15.0071819087
 21
17.4284872282
  0
LINE
  5
333
100
AcDbEntity
  8
ASSI
100
AcDbLine
 62
7
  6
CONTINUOUS
 10
15.0071819087
 20
16.5923901255
 11
15.0071819087
 21
17.4284872282
  0
LINE
  5
334
100
AcDbEntity
  8
0
100
AcDbLine
 62
7
  6
CONTINUOUS
 10
16.7827893143
 20
21.5540777924
 11
16.7827893143
 21
20.9685832761
  0
LINE
  5
335
100
AcDbEntity
  8
0
100
AcDbLine
 62
7
  6
CONTINUOUS
 10
16.7827893143
 20
20.9685832761
 11
16.7784569007
 21
20.8207791159
  0
LINE
  5
336
100
AcDbEntity
  8
0
100
AcDbLine
 62
7
  6
CONTINUOUS
 10
17.4898960955
 20
20.6150298855
 11
17.4863427567
 21
20.4938045604
  0
LINE
  5
337
100
AcDbEntity
  8
0
100
AcDbLine
 62
7
  6
CONTINUOUS
 10
17.5161376523
 20
21.187320262
 11
17.4898960955
 21
20.6150298855
  0
LINE
  5
338
100
AcDbEntity
  8
0
100
AcDbLine
 62
7
  6
CONTINUOUS
 10
16.8396897423
 20
21.5661067832
 11
16.7827893143
 21
20.9685832761
  0
LINE
  5
339
100
AcDbEntity
  8
0
100
AcDbLine
 62
7
  6
CONTINUOUS
 10
17.7314143623
 20
20.2989652966
 11
17.7925383433
 21
20.8797172518
  0
LINE
  5
33A
100
AcDbEntity
  8
0
100
AcDbLine
 62
7
  6
CONTINUOUS
 10
22.9519911478
 20
-4.0001228022
 11
22.545709581
 21
-4.2629022894
  0
LINE
  5
33B
100
AcDbEntity
  8
RACCORDO
100
AcDbLine
 62
253
  6
CONTINUOUS
 10
21.9800241561
 20
-6.5701944337
 11
22.545709581
 21
-6.2873517212
  0
LINE
  5
33C
100
AcDbEntity
  8
RACCORDO
100
AcDbLine
 62
7
  6
CONTINUOUS
 10
21.9322802835
 20
-6.9228081361
 11
22.3377950325
 21
-6.7200507616
  0
LINE
  5
33D
100
AcDbEntity
  8
RACCORDO
100
AcDbLine
 62
253
  6
CONTINUOUS
 10
22.3426642785
 20
-6.7298676346
 11
27.8936370574
 21
-3.9765415915
  0
LINE
  5
33E
100
AcDbEntity
  8
ASSI
100
AcDbLine
 62
253
  6
CONTINUOUS
 10
22.3417836241
 20
-6.7303044461
 11
27.8936370574
 21
-3.9765415915
  0
LINE
  5
33F
100
AcDbEntity
  8
RACCORDO
100
AcDbLine
 62
253
  6
CONTINUOUS
 10
28.6006392105
 20
-5.1959405415
 11
21.7919501837
 21
-8.5730961236
  0
LINE
  5
340
100
AcDbEntity
  8
ASSI
100
AcDbLine
 62
253
  6
CONTINUOUS
 10
28.6006392105
 20
-5.1959405415
 11
21.7919501837
 21
-8.5730961236
  0
LINE
  5
341
100
AcDbEntity
  8
RACCORDO
100
AcDbLine
 62
253
  6
CONTINUOUS
 10
21.9938234501
 20
17.1687381228
 11
21.343628053
 21
17.1160837852
  0
LINE
  5
342
100
AcDbEntity
  8
RACCORDO
100
AcDbLine
 62
7
  6
CONTINUOUS
 10
21.9795822264
 20
17.2773834805
 11
21.343628053
 21
17.2258824303
  0
LINE
  5
343
100
AcDbEntity
  8
RACCORDO
100
AcDbLine
 62
7
  6
CONTINUOUS
 10
-18.0162090847
 20
26.381005936
 11
-16.7424050188
 21
25.744103903
  0
LINE
  5
344
100
AcDbEntity
  8
RACCORDO
100
AcDbLine
 62
7
  6
CONTINUOUS
 10
-4.7049239289
 20
19.7253633581
 11
-3.4311198629
 21
19.0884613251
  0
LINE
  5
345
100
AcDbEntity
  8
RACCORDO
100
AcDbLine
 62
7
  6
CONTINUOUS
 10
12.4787827137
 20
11.1335100368
 11
11.2049786478
 21
11.7704120697
  0
LINE
  5
346
100
AcDbEntity
  8
DRAFT
100
AcDbLine
 62
7
  6
CONTINUOUS
 10
8.3236071885
 20
13.2110977994
 11
7.661111837
 21
13.5423454751
  0
LINE
  5
347
100
AcDbEntity
  8
DRAFT
100
AcDbLine
 62
7
  6
CONTINUOUS
 10
2.7113643687
 20
16.0172192093
 11
2.0488690173
 21
16.348466885
  0
LINE
  5
348
100
AcDbEntity
  8
RACCORDO
100
AcDbLine
 62
7
  6
CONTINUOUS
 10
-0.8325024421
 20
17.7891526147
 11
-2.106306508
 21
18.4260546476
  0
LINE
  5
349
100
AcDbEntity
  8
DRAFT
100
AcDbLine
 62
7
  6
CONTINUOUS
 10
-7.5862953882
 20
21.1660490878
 11
-8.2487907397
 21
21.4972967635
  0
LINE
  5
34A
100
AcDbEntity
  8
DRAFT
100
AcDbLine
 62
7
  6
CONTINUOUS
 10
-13.198538208
 20
23.9721704976
 11
-13.8610335594
 21
24.3034181733
  0
LINE
  5
34B
100
AcDbEntity
  8
0
100
AcDbLine
 62
7
  6
CONTINUOUS
 10
-12.8449848174
 20
24.171640427
 11
-8.2487907397
 21
21.8735433882
  0
LINE
  5
34C
100
AcDbEntity
  8
0
100
AcDbLine
 62
7
  6
CONTINUOUS
 10
3.0649177593
 20
16.2166891387
 11
7.661111837
 21
13.9185920998
  0
LINE
  5
34D
100
AcDbEntity
  8
RACCORDO
100
AcDbLine
 62
7
  6
CONTINUOUS
 10
-18.6546401332
 20
27.2958981448
 11
-17.3882409398
 21
26.6626985481
  0
LINE
  5
34E
100
AcDbEntity
  8
RACCORDO
100
AcDbLine
 62
7
  6
CONTINUOUS
 10
-5.3433549773
 20
20.6402555668
 11
-4.076955784
 21
20.0070559702
  0
LINE
  5
34F
100
AcDbEntity
  8
RACCORDO
100
AcDbLine
 62
7
  6
CONTINUOUS
 10
-2.7447375565
 20
19.3409468564
 11
-1.4783383631
 21
18.7077472597
  0
LINE
  5
350
100
AcDbEntity
  8
RACCORDO
100
AcDbLine
 62
7
  6
CONTINUOUS
 10
10.5665475994
 20
12.6853042785
 11
11.8329467927
 21
12.0521046818
  0
LINE
  5
351
100
AcDbEntity
  8
DRAFT
100
AcDbLine
 62
7
  6
CONTINUOUS
 10
14.8152329218
 20
10.6516125352
 11
14.7967194996
 21
10.6608692463
  0
LINE
  5
352
100
AcDbEntity
  8
RACCORDO
100
AcDbLine
 62
253
  6
CONTINUOUS
 10
-18.7196134296
 20
27.4311165949
 11
-17.4532142363
 21
26.7979169982
  0
LINE
  5
353
100
AcDbEntity
  8
RACCORDO
100
AcDbLine
 62
253
  6
CONTINUOUS
 10
-5.4083282738
 20
20.7754740169
 11
-4.1419290804
 21
20.1422744203
  0
LINE
  5
354
100
AcDbEntity
  8
RACCORDO
100
AcDbLine
 62
253
  6
CONTINUOUS
 10
-2.8097108529
 20
19.4761653065
 11
-1.5433116596
 21
18.8429657098
  0
LINE
  5
355
100
AcDbEntity
  8
RACCORDO
100
AcDbLine
 62
253
  6
CONTINUOUS
 10
10.5015743029
 20
12.8205227286
 11
11.7679734963
 21
12.1873231319
  0
LINE
  5
356
100
AcDbEntity
  8
RACCORDO
100
AcDbLine
 62
253
  6
CONTINUOUS
 10
11.7679734963
 20
12.4805956115
 11
10.5015743029
 21
13.1137952081
  0
LINE
  5
357
100
AcDbEntity
  8
RACCORDO
100
AcDbLine
 62
253
  6
CONTINUOUS
 10
-1.5433116596
 20
19.1362381894
 11
-2.8097108529
 21
19.769437786
  0
LINE
  5
358
100
AcDbEntity
  8
RACCORDO
100
AcDbLine
 62
253
  6
CONTINUOUS
 10
-4.1419290804
 20
20.4355468998
 11
-5.4083282738
 21
21.0687464965
  0
LINE
  5
359
100
AcDbEntity
  8
RACCORDO
100
AcDbLine
 62
253
  6
CONTINUOUS
 10
-17.4532142363
 20
27.0911894777
 11
-18.7196134296
 21
27.7243890744
  0
LINE
  5
35A
100
AcDbEntity
  8
RACCORDO
100
AcDbLine
 62
7
  6
CONTINUOUS
 10
13.7423781706
 20
11.6304521825
 11
13.7208500494
 21
11.641216243
  0
LINE
  5
35B
100
AcDbEntity
  8
DRAFT
100
AcDbLine
 62
7
  6
CONTINUOUS
 10
10.4413723573
 20
13.2809550891
 11
9.3898210147
 21
13.8067307604
  0
LINE
  5
35C
100
AcDbEntity
  8
DRAFT
100
AcDbLine
 62
7
  6
CONTINUOUS
 10
2.0488690173
 20
17.4772067591
 11
0.4095648936
 21
18.2968588209
  0
LINE
  5
35D
100
AcDbEntity
  8
DRAFT
100
AcDbLine
 62
7
  6
CONTINUOUS
 10
-5.4685302194
 20
21.2359063774
 11
-6.520081562
 21
21.7616820488
  0
LINE
  5
35E
100
AcDbEntity
  8
DRAFT
100
AcDbLine
 62
7
  6
CONTINUOUS
 10
-13.8610335594
 20
25.4321580474
 11
-15.5003376831
 21
26.2518101093
  0
LINE
  5
35F
100
AcDbEntity
  8
DRAFT
100
AcDbLine
 62
7
  6
CONTINUOUS
 10
2.0488690173
 20
17.6609470732
 11
2.7113643687
 21
17.3296993975
  0
LINE
  5
360
100
AcDbEntity
  8
DRAFT
100
AcDbLine
 62
7
  6
CONTINUOUS
 10
7.661111837
 20
14.8548256633
 11
8.3236071885
 21
14.5235779876
  0
LINE
  5
361
100
AcDbEntity
  8
DRAFT
100
AcDbLine
 62
7
  6
CONTINUOUS
 10
-7.5862953882
 20
22.4785292759
 11
-8.2487907397
 21
22.8097769517
  0
LINE
  5
362
100
AcDbEntity
  8
DRAFT
100
AcDbLine
 62
7
  6
CONTINUOUS
 10
-13.198538208
 20
25.2846506858
 11
-13.8610335594
 21
25.6158983615
  0
LINE
  5
363
100
AcDbEntity
  8
RACCORDO
100
AcDbLine
 62
253
  6
CONTINUOUS
 10
11.9438245952
 20
12.785024544
 11
10.6774254019
 21
13.4182241407
  0
LINE
  5
364
100
AcDbEntity
  8
RACCORDO
100
AcDbLine
 62
253
  6
CONTINUOUS
 10
-1.3674605606
 20
19.440667122
 11
-2.633859754
 21
20.0738667186
  0
LINE
  5
365
100
AcDbEntity
  8
RACCORDO
100
AcDbLine
 62
253
  6
CONTINUOUS
 10
-3.9660779815
 20
20.7399758324
 11
-5.2324771748
 21
21.3731754291
  0
LINE
  5
366
100
AcDbEntity
  8
RACCORDO
100
AcDbLine
 62
253
  6
CONTINUOUS
 10
-17.2773631373
 20
27.3956184103
 11
-18.5437623307
 21
28.028818007
  0
LINE
  5
367
100
AcDbEntity
  8
DRAFT
100
AcDbLine
 62
7
  6
CONTINUOUS
 10
-12.8449848174
 20
25.463694651
 11
-7.8952373491
 21
22.9888209169
  0
LINE
  5
368
100
AcDbEntity
  8
DRAFT
100
AcDbLine
 62
7
  6
CONTINUOUS
 10
3.0649177593
 20
17.5087433627
 11
8.0146652276
 21
15.0338696285
  0
LINE
  5
369
100
AcDbEntity
  8
RACCORDO
100
AcDbLine
 62
7
  6
CONTINUOUS
 10
-15.5003376831
 20
26.9135304223
 11
-13.3885859962
 21
25.8576545788
  0
LINE
  5
36A
100
AcDbEntity
  8
DRAFT
100
AcDbLine
 62
7
  6
CONTINUOUS
 10
-5.8092723446
 20
22.067997753
 11
-4.8943279351
 21
21.6105255483
  0
LINE
  5
36B
100
AcDbEntity
  8
DRAFT
100
AcDbLine
 62
7
  6
CONTINUOUS
 10
0.4095648936
 20
18.9585791339
 11
2.5213165805
 21
17.9027032905
  0
LINE
  5
36C
100
AcDbEntity
  8
RACCORDO
100
AcDbLine
 62
7
  6
CONTINUOUS
 10
10.1006302321
 20
14.1130464646
 11
11.0155746415
 21
13.6555742599
  0
LINE
  5
36D
100
AcDbEntity
  8
RACCORDO
100
AcDbLine
 62
7
  6
CONTINUOUS
 10
13.7208500494
 20
12.302936556
 11
14.4433141244
 21
11.9417045185
  0
LINE
  5
36E
100
AcDbEntity
  8
DRAFT
100
AcDbLine
 62
7
  6
CONTINUOUS
 10
9.3972258872
 20
14.5154638894
 11
9.3898210147
 21
14.5191663257
  0
LINE
  5
36F
100
AcDbEntity
  8
DRAFT
100
AcDbLine
 62
7
  6
CONTINUOUS
 10
-6.5126766895
 20
22.4704151778
 11
-6.520081562
 21
22.4741176141
  0
LINE
  5
370
100
AcDbEntity
  8
RACCORDO
100
AcDbLine
 62
7
  6
CONTINUOUS
 10
-15.4779774466
 20
26.9910380424
 11
-13.3009247844
 21
25.9025117113
  0
LINE
  5
371
100
AcDbEntity
  8
ASSI
100
AcDbLine
 62
7
  6
CONTINUOUS
 10
-15.4779774466
 20
26.9910380424
 11
-13.3009247844
 21
25.9025117113
  0
LINE
  5
372
100
AcDbEntity
  8
DRAFT
100
AcDbLine
 62
7
  6
CONTINUOUS
 10
-5.8092723446
 20
22.1566854914
 11
-4.8066667234
 21
21.6553826808
  0
LINE
  5
373
100
AcDbEntity
  8
ASSI
100
AcDbLine
 62
7
  6
CONTINUOUS
 10
-5.8092723446
 20
22.1566854914
 11
-4.8066667234
 21
21.6553826808
  0
LINE
  5
374
100
AcDbEntity
  8
DRAFT
100
AcDbLine
 62
7
  6
CONTINUOUS
 10
0.4319251301
 20
19.0360867541
 11
2.6089777923
 21
17.947560423
  0
LINE
  5
375
100
AcDbEntity
  8
ASSI
100
AcDbLine
 62
7
  6
CONTINUOUS
 10
0.4319251301
 20
19.0360867541
 11
2.6089777923
 21
17.947560423
  0
LINE
  5
376
100
AcDbEntity
  8
RACCORDO
100
AcDbLine
 62
7
  6
CONTINUOUS
 10
10.1006302321
 20
14.2017342031
 11
11.1032358533
 21
13.7004313925
  0
LINE
  5
377
100
AcDbEntity
  8
ASSI
100
AcDbLine
 62
7
  6
CONTINUOUS
 10
10.1006302321
 20
14.2017342031
 11
11.1032358533
 21
13.7004313925
  0
LINE
  5
378
100
AcDbEntity
  8
RACCORDO
100
AcDbLine
 62
7
  6
CONTINUOUS
 10
13.7432102859
 20
12.3804441761
 11
14.1312465807
 21
12.1864260288
  0
LINE
  5
379
100
AcDbEntity
  8
ASSI
100
AcDbLine
 62
7
  6
CONTINUOUS
 10
13.7432102859
 20
12.3804441761
 11
14.1312465807
 21
12.1864260288
  0
LINE
  5
37A
100
AcDbEntity
  8
0
100
AcDbLine
 62
7
  6
CONTINUOUS
 10
16.0187821052
 20
21.1556529647
 11
16.0756825332
 21
20.6150298855
  0
LINE
  5
37B
100
AcDbEntity
  8
0
100
AcDbLine
 62
7
  6
CONTINUOUS
 10
16.370298326
 20
20.5678802652
 11
16.2680150322
 21
21.6419789074
  0
LINE
  5
37C
100
AcDbEntity
  8
RACCORDO
100
AcDbLine
 62
7
  6
CONTINUOUS
 10
21.343628053
 20
16.395185019
 11
21.343628053
 21
19.2372160407
  0
LINE
  5
37D
100
AcDbEntity
  8
RACCORDO
100
AcDbLine
 62
7
  6
CONTINUOUS
 10
-1.4175936701
 20
18.686623576
 11
-0.7930249567
 21
18.5563183112
  0
LINE
  5
37E
100
AcDbEntity
  8
RACCORDO
100
AcDbLine
 62
253
  6
CONTINUOUS
 10
-1.1906862886
 20
18.8425041233
 11
-0.4798770711
 21
18.6942062957
  0
LINE
  5
37F
100
AcDbEntity
  8
RACCORDO
100
AcDbLine
 62
7
  6
CONTINUOUS
 10
-4.016211091
 20
19.9859322865
 11
-3.3916423776
 21
19.8556270216
  0
LINE
  5
380
100
AcDbEntity
  8
RACCORDO
100
AcDbLine
 62
253
  6
CONTINUOUS
 10
-3.7893037094
 20
20.1418128337
 11
-3.078494492
 21
19.9935150061
  0
LINE
  5
381
100
AcDbEntity
  8
DRAFT
100
AcDbLine
 62
7
  6
CONTINUOUS
 10
-12.1025226971
 20
26.515746233
 11
-5.8092723446
 21
23.3691210567
  0
LINE
  5
382
100
AcDbEntity
  8
DRAFT
100
AcDbLine
 62
7
  6
CONTINUOUS
 10
3.8073798796
 20
18.5607949446
 11
10.1006302321
 21
15.4141697683
  0
LINE
  5
383
100
AcDbEntity
  8
ASSI
100
AcDbLine
 62
7
  6
CONTINUOUS
 10
10.1006302321
 20
15.4141697683
 11
9.42887879
 21
15.7500454894
  0
LINE
  5
384
100
AcDbEntity
  8
ASSI
100
AcDbLine
 62
7
  6
CONTINUOUS
 10
4.4791313217
 20
18.2249192236
 11
3.8073798796
 21
18.5607949446
  0
LINE
  5
385
100
AcDbEntity
  8
ASSI
100
AcDbLine
 62
7
  6
CONTINUOUS
 10
-5.8092723446
 20
23.3691210567
 11
-6.4810237867
 21
23.7049967778
  0
LINE
  5
386
100
AcDbEntity
  8
ASSI
100
AcDbLine
 62
7
  6
CONTINUOUS
 10
-11.430771255
 20
26.1798705119
 11
-12.1025226971
 21
26.515746233
  0
LINE
  5
387
100
AcDbEntity
  8
RACCORDO
100
AcDbLine
 62
7
  6
CONTINUOUS
 10
14.2548849948
 20
13.9432601697
 11
12.9644102727
 21
14.5884975307
  0
LINE
  5
388
100
AcDbEntity
  8
RACCORDO
100
AcDbLine
 62
7
  6
CONTINUOUS
 10
0.943599839
 20
20.5989027476
 11
-0.3468748831
 21
21.2441401086
  0
LINE
  5
389
100
AcDbEntity
  8
RACCORDO
100
AcDbLine
 62
7
  6
CONTINUOUS
 10
-1.6550175819
 20
21.898211458
 11
-2.945492304
 21
22.543448819
  0
LINE
  5
38A
100
AcDbEntity
  8
RACCORDO
100
AcDbLine
 62
7
  6
CONTINUOUS
 10
-14.9663027377
 20
28.5538540359
 11
-16.2567774598
 21
29.199091397
  0
LINE
  5
38B
100
AcDbEntity
  8
RACCORDO
100
AcDbLine
 62
7
  6
CONTINUOUS
 10
29.2243291922
 20
8.8354092573
 11
29.0518158792
 21
8.9216659138
  0
LINE
  5
38C
100
AcDbEntity
  8
0
100
AcDbLine
 62
7
  6
CONTINUOUS
 10
19.9342053011
 20
20.5069661137
 11
20.0286406055
 21
19.5733711689
  0
LWPOLYLINE
  5
38D
100
AcDbEntity
  8
RACCORDO
100
AcDbPolyline
 62
7
  6
CONTINUOUS
 90
43
 70
0
 10
21.9294026076
 20
14.6674805174
 10
21.926883869
 20
14.6964881925
 10
21.9235961868
 20
14.7255050832
 10
21.9195557706
 20
14.7544719448
 10
21.9147747825
 20
14.7833775907
 10
21.9092628642
 20
14.8122162187
 10
21.9030394781
 20
14.8409329986
 10
21.8961170858
 20
14.8695155334
 10
21.8885044433
 20
14.8979599634
 10
21.8802216662
 20
14.9262216795
 10
21.8712798448
 20
14.9542894155
 10
21.8616873427
 20
14.9821576518
 10
21.851463569
 20
15.0097884427
 10
21.8406205992
 20
15.0371654554
 10
21.8291640325
 20
15.0642877711
 10
21.8171040978
 20
15.0911389954
 10
21.8044483703
 20
15.1177082749
 10
21.7912020155
 20
15.1439873302
 10
21.7773714185
 20
15.1699628938
 10
21.762959445
 20
15.195627261
 10
21.7479707109
 20
15.2209663376
 10
21.7324144917
 20
15.2459582905
 10
21.716291562
 20
15.2705935646
 10
21.69960474
 20
15.2948574664
 10
21.6823657515
 20
15.3187223082
 10
21.6645703949
 20
15.3421810828
 10
21.6462231807
 20
15.3652140154
 10
21.6273481875
 20
15.3877770927
 10
21.6079349002
 20
15.4098687971
 10
21.5879928524
 20
15.4314624835
 10
21.5675789142
 20
15.4524838204
 10
21.5466935013
 20
15.4729230347
 10
21.5253392551
 20
15.4927656614
 10
21.5035819779
 20
15.5119421037
 10
21.4814264142
 20
15.5304427306
 10
21.4588753783
 20
15.5482576637
 10
21.4359977827
 20
15.5653284676
 10
21.4128021692
 20
15.5816470672
 10
21.3892931338
 20
15.5972073078
 10
21.3655396154
 20
15.6119633987
 10
21.3415725149
 20
15.6258994094
 10
21.3173831326
 20
15.6390235577
 10
21.3023907108
 20
15.6466947384
  0
LWPOLYLINE
  5
38E
100
AcDbEntity
  8
ASSI
100
AcDbPolyline
 62
7
  6
CONTINUOUS
 90
17
 70
0
 10
21.932280087
 20
14.5895850675
 10
21.9287184854
 20
14.676300639
 10
21.9192686027
 20
14.7563448944
 10
21.9040880277
 20
14.8363224442
 10
21.8833553609
 20
14.9158148506
 10
21.8574657481
 20
14.9938027824
 10
21.8266911963
 20
15.069926813
 10
21.7911169908
 20
15.1441513713
 10
21.7510306339
 20
15.2158981693
 10
21.7064480414
 20
15.2850511251
 10
21.6574796149
 20
15.3512166532
 10
21.6046246313
 20
15.4135284452
 10
21.5475863822
 20
15.4720704661
 10
21.4866579642
 20
15.5261650922
 10
21.4234803976
 20
15.5742560564
 10
21.3588261922
 20
15.6159622294
 10
21.3024053092
 20
15.646687438
  0
LWPOLYLINE
  5
38F
100
AcDbEntity
  8
RACCORDO
100
AcDbPolyline
 62
7
  6
CONTINUOUS
 90
4
 70
0
 10
21.9322802489
 20
14.589782491
 10
21.9320912964
 20
14.6095598671
 10
21.9311415311
 20
14.6385063256
 10
21.9294026076
 20
14.6674805174
  0
LINE
  5
390
100
AcDbEntity
  8
RACCORDO
100
AcDbLine
 62
253
  6
CONTINUOUS
 10
21.7919501837
 20
14.4161179292
 11
21.7919501837
 21
-8.5730961236
  0
LINE
  5
391
100
AcDbEntity
  8
ASSI
100
AcDbLine
 62
253
  6
CONTINUOUS
 10
21.7919501837
 20
14.4161179292
 11
21.7919501837
 21
-8.5730961236
  0
LINE
  5
392
100
AcDbEntity
  8
RACCORDO
100
AcDbLine
 62
7
  6
CONTINUOUS
 10
21.9322802835
 20
14.5897862789
 11
21.9322802835
 21
-7.9624658454
  0
LINE
  5
393
100
AcDbEntity
  8
ASSI
100
AcDbLine
 62
7
  6
CONTINUOUS
 10
21.9322802835
 20
14.5897862789
 11
21.9322802835
 21
-7.9624658454
  0
LINE
  5
394
100
AcDbEntity
  8
0
100
AcDbLine
 62
7
  6
CONTINUOUS
 10
21.9800241561
 20
-6.5701944337
 11
21.9800241561
 21
12.9153771514
  0
LINE
  5
395
100
AcDbEntity
  8
0
100
AcDbLine
 62
7
  6
CONTINUOUS
 10
21.9942192132
 20
15.9663360483
 11
21.9942192132
 21
17.1906095666
  0
LINE
  5
396
100
AcDbEntity
  8
0
100
AcDbLine
 62
7
  6
CONTINUOUS
 10
22.545709581
 20
-6.2873517212
 11
22.545709581
 21
13.1982198639
  0
LINE
  5
397
100
AcDbEntity
  8
0
100
AcDbLine
 62
253
  6
CONTINUOUS
 10
22.6871309372
 20
13.4421356228
 11
22.6871309372
 21
14.1349559458
  0
LINE
  5
398
100
AcDbEntity
  8
RACCORDO
100
AcDbLine
 62
253
  6
CONTINUOUS
 10
23.8185017871
 20
14.7006413708
 11
23.8185017871
 21
14.0078210477
  0
LINE
  5
399
100
AcDbEntity
  8
RACCORDO
100
AcDbLine
 62
7
  6
CONTINUOUS
 10
23.9649483966
 20
14.8774180661
 11
23.9649483966
 21
14.184597743
  0
LINE
  5
39A
100
AcDbEntity
  8
RACCORDO
100
AcDbLine
 62
7
  6
CONTINUOUS
 10
21.9942185494
 20
17.1979343287
 11
21.9938234501
 21
17.1687381228
  0
LINE
  5
39B
100
AcDbEntity
  8
RACCORDO
100
AcDbLine
 62
7
  6
CONTINUOUS
 10
-17.3274962468
 20
26.6415748644
 11
-16.7029275334
 21
26.5112695995
  0
LINE
  5
39C
100
AcDbEntity
  8
RACCORDO
100
AcDbLine
 62
253
  6
CONTINUOUS
 10
-17.1005888653
 20
26.7974554116
 11
-16.3897796478
 21
26.6491575841
  0
LWPOLYLINE
  5
39D
100
AcDbEntity
  8
ASSI
100
AcDbPolyline
 62
7
  6
CONTINUOUS
 90
5
 70
0
 10
-8.7151610084
 20
30.6554704306
 10
-8.7811225954
 20
30.6851333162
 10
-8.8491491371
 20
30.7090717882
 10
-8.9179186138
 20
30.7266918593
 10
-8.987001905
 20
30.7379022378
  0
LWPOLYLINE
  5
39E
100
AcDbEntity
  8
RACCORDO
100
AcDbPolyline
 62
7
  6
CONTINUOUS
 90
27
 70
0
 10
-8.7149392338
 20
30.6553597404
 10
-8.7302114004
 20
30.6628160101
 10
-8.7540874327
 20
30.6737629467
 10
-8.7779926336
 20
30.6838720328
 10
-8.8019019831
 20
30.6931469743
 10
-8.8258049066
 20
30.7015983562
 10
-8.849702159
 20
30.7092395652
 10
-8.8735759537
 20
30.7160766821
 10
-8.8974083508
 20
30.7221166146
 10
-8.9211969226
 20
30.7273700126
 10
-8.9449204748
 20
30.7318424979
 10
-8.9685616638
 20
30.7355412563
 10
-8.9921212846
 20
30.7384763626
 10
-9.0155775075
 20
30.7406541713
 10
-9.0389121015
 20
30.7420820646
 10
-9.0621290117
 20
30.7427685757
 10
-9.0852077611
 20
30.7427207484
 10
-9.1081277148
 20
30.7419463849
 10
-9.1308906774
 20
30.7404522542
 10
-9.1534751881
 20
30.7382460871
 10
-9.1758611423
 20
30.7353367461
 10
-9.1980507653
 20
30.7317299022
 10
-9.2200219066
 20
30.7274342714
 10
-9.241755237
 20
30.7224592116
 10
-9.2632558203
 20
30.7168084862
 10
-9.2845028126
 20
30.7104915075
 10
-9.3054761429
 20
30.7035184316
  0
LINE
  5
39F
100
AcDbEntity
  8
0
100
AcDbLine
 62
253
  6
CONTINUOUS
 10
21.9800241561
 20
12.9153771514
 11
21.9322802835
 21
12.9392490877
  0
LINE
  5
3A0
100
AcDbEntity
  8
RACCORDO
100
AcDbLine
 62
253
  6
CONTINUOUS
 10
-7.4631060202
 20
28.7461593124
 11
-6.8716291841
 21
28.4504208944
  0
LINE
  5
3A1
100
AcDbEntity
  8
ASSI
100
AcDbLine
 62
253
  6
CONTINUOUS
 10
-7.4631060202
 20
28.7461593124
 11
-6.8716291841
 21
28.4504208944
  0
LINE
  5
3A2
100
AcDbEntity
  8
RACCORDO
100
AcDbLine
 62
253
  6
CONTINUOUS
 10
-1.8416071097
 20
25.9354098572
 11
-1.2501302737
 21
25.6396714391
  0
LINE
  5
3A3
100
AcDbEntity
  8
ASSI
100
AcDbLine
 62
253
  6
CONTINUOUS
 10
-1.8416071097
 20
25.9354098572
 11
-1.2501302737
 21
25.6396714391
  0
LINE
  5
3A4
100
AcDbEntity
  8
RACCORDO
100
AcDbLine
 62
253
  6
CONTINUOUS
 10
8.4467965565
 20
20.791208024
 11
9.0382733926
 21
20.495469606
  0
LINE
  5
3A5
100
AcDbEntity
  8
ASSI
100
AcDbLine
 62
253
  6
CONTINUOUS
 10
8.4467965565
 20
20.791208024
 11
9.0382733926
 21
20.495469606
  0
LINE
  5
3A6
100
AcDbEntity
  8
RACCORDO
100
AcDbLine
 62
253
  6
CONTINUOUS
 10
14.068295467
 20
17.9804585688
 11
14.659772303
 21
17.6847201508
  0
LINE
  5
3A7
100
AcDbEntity
  8
ASSI
100
AcDbLine
 62
253
  6
CONTINUOUS
 10
14.068295467
 20
17.9804585688
 11
14.659772303
 21
17.6847201508
  0
LINE
  5
3A8
100
AcDbEntity
  8
RACCORDO
100
AcDbLine
 62
7
  6
CONTINUOUS
 10
-7.2406627025
 20
28.7578731376
 11
-6.6530294987
 21
28.4640565357
  0
LINE
  5
3A9
100
AcDbEntity
  8
ASSI
100
AcDbLine
 62
7
  6
CONTINUOUS
 10
-7.2406627025
 20
28.7578731376
 11
-6.6530294987
 21
28.4640565357
  0
LINE
  5
3AA
100
AcDbEntity
  8
RACCORDO
100
AcDbLine
 62
7
  6
CONTINUOUS
 10
-1.6191637921
 20
25.9471236824
 11
-1.0315305883
 21
25.6533070805
  0
LINE
  5
3AB
100
AcDbEntity
  8
ASSI
100
AcDbLine
 62
7
  6
CONTINUOUS
 10
-1.6191637921
 20
25.9471236824
 11
-1.0315305883
 21
25.6533070805
  0
LINE
  5
3AC
100
AcDbEntity
  8
RACCORDO
100
AcDbLine
 62
7
  6
CONTINUOUS
 10
8.6692398742
 20
20.8029218493
 11
9.256873078
 21
20.5091052474
  0
LINE
  5
3AD
100
AcDbEntity
  8
ASSI
100
AcDbLine
 62
7
  6
CONTINUOUS
 10
8.6692398742
 20
20.8029218493
 11
9.256873078
 21
20.5091052474
  0
LINE
  5
3AE
100
AcDbEntity
  8
RACCORDO
100
AcDbLine
 62
7
  6
CONTINUOUS
 10
14.2907387846
 20
17.9921723941
 11
14.8783719884
 21
17.6983557921
  0
LINE
  5
3AF
100
AcDbEntity
  8
ASSI
100
AcDbLine
 62
7
  6
CONTINUOUS
 10
14.2907387846
 20
17.9921723941
 11
14.8783719884
 21
17.6983557921
  0
LINE
  5
3B0
100
AcDbEntity
  8
SMUSSO
100
AcDbLine
 62
7
  6
CONTINUOUS
 10
23.747791109
 20
13.5528556735
 11
28.5561172211
 21
11.1486926175
  0
LINE
  5
3B1
100
AcDbEntity
  8
0
100
AcDbLine
 62
253
  6
CONTINUOUS
 10
22.6871309372
 20
14.1349559458
 11
21.9322802835
 21
14.5123812727
  0
LINE
  5
3B2
100
AcDbEntity
  8
RACCORDO
100
AcDbLine
 62
253
  6
CONTINUOUS
 10
-8.9323641569
 20
30.6441723605
 11
21.0849475306
 21
15.6355165167
  0
LINE
  5
3B3
100
AcDbEntity
  8
ASSI
100
AcDbLine
 62
253
  6
CONTINUOUS
 10
-8.9323641569
 20
30.6441723605
 11
21.0849475306
 21
15.6355165167
  0
LINE
  5
3B4
100
AcDbEntity
  8
RACCORDO
100
AcDbLine
 62
7
  6
CONTINUOUS
 10
-8.7149307843
 20
30.6553555591
 11
21.3023875387
 21
15.6466963976
  0
LINE
  5
3B5
100
AcDbEntity
  8
ASSI
100
AcDbLine
 62
7
  6
CONTINUOUS
 10
-8.7153548432
 20
30.6555669192
 11
21.3023875387
 21
15.6466963976
  0
LINE
  5
3B6
100
AcDbEntity
  8
RACCORDO
100
AcDbLine
 62
7
  6
CONTINUOUS
 10
-6.5870898039
 20
30.2569905569
 11
-4.2586626791
 21
29.0927769945
  0
LINE
  5
3B7
100
AcDbEntity
  8
RACCORDO
100
AcDbLine
 62
7
  6
CONTINUOUS
 10
23.8185017871
 20
15.0541947614
 11
21.4900746624
 21
16.2184083237
  0
LINE
  5
3B8
100
AcDbEntity
  8
0
100
AcDbLine
 62
7
  6
CONTINUOUS
 10
16.1568208282
 20
20.4103792522
 11
16.073813704
 21
20.6557863436
  0
LINE
  5
3B9
100
AcDbEntity
  8
0
100
AcDbLine
 62
7
  6
CONTINUOUS
 10
15.8394459188
 20
21.3486849002
 11
15.699361094
 21
21.762839827
  0
LWPOLYLINE
  5
3BA
100
AcDbEntity
  8
RACCORDO
100
AcDbPolyline
 62
7
  6
CONTINUOUS
 90
43
 70
0
 10
28.7380928467
 20
-4.9445938899
 10
28.7355744208
 20
-4.9155848872
 10
28.7322865507
 20
-4.8865633908
 10
28.728245673
 20
-4.8575917049
 10
28.7234640734
 20
-4.8286816618
 10
28.7179512419
 20
-4.7998385103
 10
28.7117270317
 20
-4.771118416
 10
28.7048041053
 20
-4.7425344597
 10
28.6971911907
 20
-4.7140897814
 10
28.6889082714
 20
-4.6858282214
 10
28.6799664
 20
-4.6577610195
 10
28.6703740539
 20
-4.6298936975
 10
28.660150326
 20
-4.6022635076
 10
28.6493072221
 20
-4.5748865311
 10
28.6378503945
 20
-4.5477639496
 10
28.6257900373
 20
-4.520912213
 10
28.6131337471
 20
-4.4943421131
 10
28.5998866242
 20
-4.4680620226
 10
28.5860552017
 20
-4.4420853716
 10
28.5716423218
 20
-4.4164199187
 10
28.5566525762
 20
-4.3910797337
 10
28.5410953401
 20
-4.3660867343
 10
28.5249713468
 20
-4.3414505388
 10
28.5082834616
 20
-4.3171857616
 10
28.4910434028
 20
-4.2933201854
 10
28.4732469882
 20
-4.2698607878
 10
28.4548987518
 20
-4.2468273408
 10
28.4360227886
 20
-4.2242639573
 10
28.416608633
 20
-4.2021720699
 10
28.3966657909
 20
-4.1805783942
 10
28.3762512241
 20
-4.1595572585
 10
28.355365355
 20
-4.1391184288
 10
28.3340108169
 20
-4.1192764044
 10
28.3122535278
 20
-4.1001007468
 10
28.2900982268
 20
-4.0816011552
 10
28.2675477739
 20
-4.0637874311
 10
28.2446711935
 20
-4.0467180517
 10
28.2214770681
 20
-4.0304011538
 10
28.1979698761
 20
-4.0148426656
 10
28.1742184722
 20
-4.000088353
 10
28.1502538948
 20
-3.9861541782
 10
28.1260677635
 20
-3.9730319746
 10
28.1110791107
 20
-3.9653627764
  0
LINE
  5
3BB
100
AcDbEntity
  8
RACCORDO
100
AcDbLine
 62
253
  6
CONTINUOUS
 10
25.8215824648
 20
-15.7356599184
 11
25.8215824648
 21
-20.1733514479
  0
LINE
  5
3BC
100
AcDbEntity
  8
ASSI
100
AcDbLine
 62
253
  6
CONTINUOUS
 10
25.8215824648
 20
-15.7356599184
 11
25.8215824648
 21
-20.1733514479
  0
LINE
  5
3BD
100
AcDbEntity
  8
RACCORDO
100
AcDbLine
 62
7
  6
CONTINUOUS
 10
25.9619125647
 20
-16.0041167654
 11
25.9619125647
 21
-19.9996913278
  0
LINE
  5
3BE
100
AcDbEntity
  8
ASSI
100
AcDbLine
 62
7
  6
CONTINUOUS
 10
25.9619125647
 20
-16.0041167654
 11
25.9619125647
 21
-19.9996913278
  0
LINE
  5
3BF
100
AcDbEntity
  8
RACCORDO
100
AcDbLine
 62
7
  6
CONTINUOUS
 10
26.3082727139
 20
-19.029944136
 11
26.3082727097
 21
-19.0298355349
  0
LINE
  5
3C0
100
AcDbEntity
  8
ASSI
100
AcDbLine
 62
7
  6
CONTINUOUS
 10
26.3082727139
 20
-15.8899813143
 11
26.3082727139
 21
-19.0299542848
  0
LINE
  5
3C1
100
AcDbEntity
  8
0
100
AcDbLine
 62
7
  6
CONTINUOUS
 10
26.3082727139
 20
-15.8899813143
 11
26.3082727139
 21
-19.0299542848
  0
LINE
  5
3C2
100
AcDbEntity
  8
ASSI
100
AcDbLine
 62
7
  6
CONTINUOUS
 10
26.3065725568
 20
-19.1053789579
 11
26.3082722553
 21
-19.0289779171
  0
LINE
  5
3C3
100
AcDbEntity
  8
RACCORDO
100
AcDbLine
 62
7
  6
CONTINUOUS
 10
26.3053297886
 20
-19.1291911139
 11
26.3075090384
 21
-19.0804972009
  0
LINE
  5
3C4
100
AcDbEntity
  8
RACCORDO
100
AcDbLine
 62
253
  6
CONTINUOUS
 10
12.4783199092
 20
-28.2219499731
 11
11.8563618439
 21
-28.967189374
  0
LINE
  5
3C5
100
AcDbEntity
  8
RACCORDO
100
AcDbLine
 62
253
  6
CONTINUOUS
 10
12.8314080847
 20
-28.347642962
 11
12.1205988673
 21
-29.1993451344
  0
LINE
  5
3C6
100
AcDbEntity
  8
DRAFT
100
AcDbLine
 62
7
  6
CONTINUOUS
 10
14.0957835458
 20
-26.6080670015
 11
14.8152329218
 21
-25.7606849083
  0
LWPOLYLINE
  5
3C7
100
AcDbEntity
  8
RACCORDO
100
AcDbPolyline
 62
7
  6
CONTINUOUS
 90
33
 70
0
 10
28.3994553953
 20
-14.8037902699
 10
28.4183576548
 20
-14.7911731092
 10
28.4368784078
 20
-14.7779089034
 10
28.4549958195
 20
-14.7640090484
 10
28.4726889082
 20
-14.7494861847
 10
28.4899593287
 20
-14.7343338991
 10
28.5067865781
 20
-14.7185632569
 10
28.5231489699
 20
-14.7021879191
 10
28.5390447187
 20
-14.6852021048
 10
28.5544536069
 20
-14.667618142
 10
28.5693553683
 20
-14.6494498114
 10
28.5837465918
 20
-14.6306900291
 10
28.5976062724
 20
-14.6113537738
 10
28.6109169699
 20
-14.591452952
 10
28.623678515
 20
-14.5709717368
 10
28.6358684575
 20
-14.5499271031
 10
28.6474710188
 20
-14.5283276045
 10
28.6584912021
 20
-14.5061384527
 10
28.6689157838
 20
-14.4833511078
 10
28.6787144815
 20
-14.459995385
 10
28.6878652281
 20
-14.436089198
 10
28.696352356
 20
-14.4116349316
 10
28.704154446
 20
-14.3866525117
 10
28.7112464742
 20
-14.3611840197
 10
28.7176148986
 20
-14.3352393091
 10
28.7232456565
 20
-14.3088309646
 10
28.7281203236
 20
-14.2820034041
 10
28.7322290137
 20
-14.2547657395
 10
28.7355612028
 20
-14.2271297823
 10
28.7381041535
 20
-14.1991415938
 10
28.7398497933
 20
-14.1708217676
 10
28.7407917147
 20
-14.1421693395
 10
28.7409692519
 20
-14.1230992108
  0
LINE
  5
3C8
100
AcDbEntity
  8
RACCORDO
100
AcDbLine
 62
7
  6
CONTINUOUS
 10
28.3801692293
 20
-14.8157649708
 11
28.3994553953
 21
-14.8037902699
  0
LWPOLYLINE
  5
3C9
100
AcDbEntity
  8
ASSI
100
AcDbPolyline
 62
7
  6
CONTINUOUS
 90
13
 70
0
 10
28.3426732616
 20
-14.836638897
 10
28.392714707
 20
-14.8080759036
 10
28.4476916629
 20
-14.7697270563
 10
28.4993591056
 20
-14.7256524105
 10
28.5471479482
 20
-14.6760996147
 10
28.5905492511
 20
-14.6213646898
 10
28.6290663227
 20
-14.5618619762
 10
28.6623143913
 20
-14.4980022728
 10
28.6900289927
 20
-14.4300853914
 10
28.7119253147
 20
-14.3585751954
 10
28.7277905407
 20
-14.2839741672
 10
28.7375080329
 20
-14.206585972
 10
28.7409692125
 20
-14.1231958255
  0
LWPOLYLINE
  5
3CA
100
AcDbEntity
  8
RACCORDO
100
AcDbPolyline
 62
7
  6
CONTINUOUS
 90
3
 70
0
 10
28.3432464197
 20
-14.8363428227
 10
28.3605123009
 20
-14.8270900138
 10
28.3801692293
 20
-14.8157649708
  0
LINE
  5
3CB
100
AcDbEntity
  8
RACCORDO
100
AcDbLine
 62
253
  6
CONTINUOUS
 10
25.8215824648
 20
-15.7356599184
 11
28.6006392105
 21
-14.296756791
  0
LINE
  5
3CC
100
AcDbEntity
  8
ASSI
100
AcDbLine
 62
253
  6
CONTINUOUS
 10
25.8215824648
 20
-15.7356599184
 11
28.6006392105
 21
-14.296756791
  0
LINE
  5
3CD
100
AcDbEntity
  8
RACCORDO
100
AcDbLine
 62
7
  6
CONTINUOUS
 10
28.343276732
 20
-14.8363271396
 11
28.3432447893
 21
-14.8363436765
  0
LINE
  5
3CE
100
AcDbEntity
  8
RACCORDO
100
AcDbLine
 62
7
  6
CONTINUOUS
 10
28.3432774804
 20
-14.8363267521
 11
25.9619125647
 21
-16.0693145314
  0
LINE
  5
3CF
100
AcDbEntity
  8
ASSI
100
AcDbLine
 62
7
  6
CONTINUOUS
 10
28.3432774804
 20
-14.8363267521
 11
25.9619125647
 21
-16.0693145314
  0
LINE
  5
3D0
100
AcDbEntity
  8
RACCORDO
100
AcDbLine
 62
7
  6
CONTINUOUS
 10
5.4810636852
 20
27.3341836495
 11
16.0575161984
 21
22.0459573929
  0
LINE
  5
3D1
100
AcDbEntity
  8
RACCORDO
100
AcDbLine
 62
7
  6
CONTINUOUS
 10
19.9767526995
 20
20.0863391424
 11
21.1093134779
 21
19.5200587532
  0
LWPOLYLINE
  5
3D2
100
AcDbEntity
  8
ASSI
100
AcDbPolyline
 62
7
  6
CONTINUOUS
 90
17
 70
0
 10
28.7409690943
 20
-5.0224700854
 10
28.737407711
 20
-4.9357597177
 10
28.727958224
 20
-4.855716857
 10
28.7127778459
 20
-4.7757389173
 10
28.6920449631
 20
-4.6962449144
 10
28.6661547807
 20
-4.6182550601
 10
28.6353795297
 20
-4.5421294683
 10
28.5998042085
 20
-4.467903018
 10
28.5597153614
 20
-4.3961525514
 10
28.5151278056
 20
-4.3269933335
 10
28.4661521989
 20
-4.2608204435
 10
28.4132888184
 20
-4.1985020505
 10
28.3562386271
 20
-4.1399522193
 10
28.2952965618
 20
-4.085851264
 10
28.2321128321
 20
-4.0377620831
 10
28.1674640385
 20
-3.9960654558
 10
28.1110916709
 20
-3.9653690573
  0
LWPOLYLINE
  5
3D3
100
AcDbEntity
  8
RACCORDO
100
AcDbPolyline
 62
7
  6
CONTINUOUS
 90
4
 70
0
 10
28.740969252
 20
-5.0222749401
 10
28.7407804629
 20
-5.0025060929
 10
28.7398312204
 20
-4.9735652361
 10
28.7380928467
 20
-4.9445938899
  0
LINE
  5
3D4
100
AcDbEntity
  8
RACCORDO
100
AcDbLine
 62
253
  6
CONTINUOUS
 10
28.6006392105
 20
-5.1959405415
 11
28.6006392105
 21
-14.296756791
  0
LINE
  5
3D5
100
AcDbEntity
  8
ASSI
100
AcDbLine
 62
253
  6
CONTINUOUS
 10
28.6006392105
 20
-5.1959405415
 11
28.6006392105
 21
-14.296756791
  0
LINE
  5
3D6
100
AcDbEntity
  8
SMUSSO
100
AcDbLine
 62
7
  6
CONTINUOUS
 10
28.6268278992
 20
11.026734738
 11
28.6268278992
 21
5.1377619923
  0
LINE
  5
3D7
100
AcDbEntity
  8
RACCORDO
100
AcDbLine
 62
7
  6
CONTINUOUS
 10
28.7409693103
 20
-5.0222715793
 11
28.7409693103
 21
-14.123096574
  0
LINE
  5
3D8
100
AcDbEntity
  8
ASSI
100
AcDbLine
 62
7
  6
CONTINUOUS
 10
28.7409693103
 20
-5.0222715793
 11
28.7409693103
 21
-14.123096574
  0
LWPOLYLINE
  5
3D9
100
AcDbEntity
  8
ASSI
100
AcDbPolyline
 62
7
  6
CONTINUOUS
 90
5
 70
0
 10
26.1940038894
 20
-19.6442439188
 10
26.2386930616
 20
-19.5106673351
 10
26.2723985395
 20
-19.375845145
 10
26.2950287524
 20
-19.240387208
 10
26.3065725568
 20
-19.1053789579
  0
LWPOLYLINE
  5
3DA
100
AcDbEntity
  8
RACCORDO
100
AcDbPolyline
 62
7
  6
CONTINUOUS
 90
34
 70
0
 10
25.613016961
 20
-20.685078422
 10
25.6317151776
 20
-20.6729465035
 10
25.6500351523
 20
-20.6602007222
 10
25.6679799188
 20
-20.6468357974
 10
25.6855289903
 20
-20.6328627904
 10
25.702662692
 20
-20.6182937225
 10
25.7193833431
 20
-20.603121309
 10
25.7356716432
 20
-20.5873558729
 10
25.7515070675
 20
-20.5710104664
 10
25.7668883516
 20
-20.5540786278
 10
25.781796355
 20
-20.5365718391
 10
25.7962117984
 20
-20.518503039
 10
25.8101316368
 20
-20.4998645712
 10
25.8235363854
 20
-20.4806697911
 10
25.8364088531
 20
-20.4609303789
 10
25.8487475597
 20
-20.4406323553
 10
25.8605315761
 20
-20.4197913029
 10
25.871745606
 20
-20.3984156285
 10
25.8823925248
 20
-20.3764749659
 10
25.8924592058
 20
-20.3539628228
 10
25.9019182193
 20
-20.3309060265
 10
25.9107495786
 20
-20.3073196143
 10
25.918938889
 20
-20.2832040539
 10
25.9264653307
 20
-20.2585797607
 10
25.9333045062
 20
-20.2334895636
 10
25.9394436655
 20
-20.2079428022
 10
25.9448696988
 20
-20.1819512849
 10
25.949564892
 20
-20.155559939
 10
25.9535201147
 20
-20.1287774014
 10
25.9567257222
 20
-20.1016147797
 10
25.9591697271
 20
-20.0741185075
 10
25.9608448668
 20
-20.0463090571
 10
25.9617456309
 20
-20.0181847794
 10
25.9619125055
 20
-19.9996937152
  0
LWPOLYLINE
  5
3DB
100
AcDbEntity
  8
ASSI
100
AcDbPolyline
 62
7
  6
CONTINUOUS
 90
14
 70
0
 10
25.5741324948
 20
-20.707690162
 10
25.6184168952
 20
-20.6816625938
 10
25.669108884
 20
-20.6459644256
 10
25.7164722352
 20
-20.6058340808
 10
25.7605033282
 20
-20.5612401657
 10
25.8008436135
 20
-20.5124378248
 10
25.8371434936
 20
-20.4597614731
 10
25.8693521203
 20
-20.4031171273
 10
25.8971881034
 20
-20.3426911708
 10
25.9203373096
 20
-20.2788270101
 10
25.9386478663
 20
-20.211454458
 10
25.9518697871
 20
-20.1406209814
 10
25.9596979088
 20
-20.0666400088
 10
25.9619124977
 20
-19.9997354728
  0
LINE
  5
3DC
100
AcDbEntity
  8
RACCORDO
100
AcDbLine
 62
253
  6
CONTINUOUS
 10
14.0957835458
 20
-26.8241771425
 11
14.7967194996
 21
-26.42215187
  0
LINE
  5
3DD
100
AcDbEntity
  8
RACCORDO
100
AcDbLine
 62
7
  6
CONTINUOUS
 10
13.9745502729
 20
-27.0903433894
 11
14.6762094591
 21
-26.6879033034
  0
LWPOLYLINE
  5
3DE
100
AcDbEntity
  8
RACCORDO
100
AcDbPolyline
 62
7
  6
CONTINUOUS
 90
3
 70
0
 10
25.5745544755
 20
-20.7074628889
 10
25.5939525678
 20
-20.6965898548
 10
25.613016961
 20
-20.685078422
  0
LINE
  5
3DF
100
AcDbEntity
  8
RACCORDO
100
AcDbLine
 62
253
  6
CONTINUOUS
 10
25.8215824648
 20
-20.1733514479
 11
14.8382456661
 21
-26.0991180995
  0
LINE
  5
3E0
100
AcDbEntity
  8
ASSI
100
AcDbLine
 62
253
  6
CONTINUOUS
 10
25.8215824648
 20
-20.1733514479
 11
14.8382456661
 21
-26.0991180995
  0
LINE
  5
3E1
100
AcDbEntity
  8
RACCORDO
100
AcDbLine
 62
7
  6
CONTINUOUS
 10
25.5745925495
 20
-20.707442351
 11
14.7844973054
 21
-26.5289462783
  0
LINE
  5
3E2
100
AcDbEntity
  8
ASSI
100
AcDbLine
 62
7
  6
CONTINUOUS
 10
25.5745925495
 20
-20.707442351
 11
14.7844973054
 21
-26.5289462783
  0
LINE
  5
3E3
100
AcDbEntity
  8
RACCORDO
100
AcDbLine
 62
253
  6
CONTINUOUS
 10
12.1205988673
 20
-29.4926176139
 11
14.4316592669
 21
-28.3638683687
  0
LINE
  5
3E4
100
AcDbEntity
  8
RACCORDO
100
AcDbLine
 62
253
  6
CONTINUOUS
 10
14.0957835458
 20
-26.8243751607
 11
8.5981852279
 21
-29.1320436297
  0
LINE
  5
3E5
100
AcDbEntity
  8
RACCORDO
100
AcDbLine
 62
7
  6
CONTINUOUS
 10
13.9536759802
 20
-27.1006598088
 11
8.44437798
 21
-29.4132393292
  0
LINE
  5
3E6
100
AcDbEntity
  8
RACCORDO
100
AcDbLine
 62
7
  6
CONTINUOUS
 10
0.4175722282
 20
29.0195536898
 11
-3.9051092885
 21
29.0195536898
  0
LWPOLYLINE
  5
3E7
100
AcDbEntity
  8
ASSI
100
AcDbPolyline
 62
7
  6
CONTINUOUS
 90
6
 70
0
 10
-8.987001905
 20
30.7379022378
 10
-9.0556905181
 20
30.7426518011
 10
-9.1234052831
 20
30.7410238763
 10
-9.1896878887
 20
30.7331746839
 10
-9.2538660602
 20
30.7193667418
 10
-9.3153792594
 20
30.6999636215
  0
LINE
  5
3E8
100
AcDbEntity
  8
SMUSSO
100
AcDbLine
 62
7
  6
CONTINUOUS
 10
28.5561172211
 20
11.1486926175
 11
28.6268278992
 21
11.026734738
  0
LWPOLYLINE
  5
3E9
100
AcDbEntity
  8
ASSI
100
AcDbPolyline
 62
7
  6
CONTINUOUS
 90
3
 70
0
 10
26.0981692971
 20
-19.8577736712
 10
26.1383347584
 20
-19.7763943586
 10
26.1940038894
 20
-19.6442439188
  0
LWPOLYLINE
  5
3EA
100
AcDbEntity
  8
RACCORDO
100
AcDbPolyline
 62
7
  6
CONTINUOUS
 90
16
 70
0
 10
26.0980737782
 20
-19.8579568091
 10
26.1194151029
 20
-19.8158859403
 10
26.1424600343
 20
-19.7674761204
 10
26.1639992429
 20
-19.7188666763
 10
26.1840356726
 20
-19.6700677557
 10
26.2025669209
 20
-19.6211038766
 10
26.2195865005
 20
-19.572015179
 10
26.2350977123
 20
-19.5228192538
 10
26.2491033649
 20
-19.4735383327
 10
26.2616006642
 20
-19.4242223528
 10
26.2725968118
 20
-19.3748920951
 10
26.2820990516
 20
-19.3255705914
 10
26.2901111008
 20
-19.2763134407
 10
26.2966452056
 20
-19.2271439491
 10
26.301714255
 20
-19.1780846302
 10
26.3053297886
 20
-19.1291911139
  0
LWPOLYLINE
  5
3EB
100
AcDbEntity
  8
ASSI
100
AcDbPolyline
 62
7
  6
CONTINUOUS
 90
3
 70
0
 10
26.0058599754
 20
-20.017181051
 10
26.066878452
 20
-19.9154788845
 10
26.0980494155
 20
-19.8580034693
  0
LWPOLYLINE
  5
3EC
100
AcDbEntity
  8
RACCORDO
100
AcDbPolyline
 62
7
  6
CONTINUOUS
 90
5
 70
0
 10
25.9917743794
 20
-20.0389882038
 10
26.0212675798
 20
-19.9926653337
 10
26.0492999314
 20
-19.9461084496
 10
26.075874879
 20
-19.8993286348
 10
26.0980710972
 20
-19.8579619381
  0
LINE
  5
3ED
100
AcDbEntity
  8
ASSI
100
AcDbLine
 62
7
  6
CONTINUOUS
 10
25.9573380944
 20
-20.0889418292
 11
26.0058599754
 21
-20.017181051
  0
LWPOLYLINE
  5
3EE
100
AcDbEntity
  8
RACCORDO
100
AcDbPolyline
 62
7
  6
CONTINUOUS
 90
3
 70
0
 10
25.9578203487
 20
-20.0892996868
 10
25.960819659
 20
-20.0850613607
 10
25.9917743794
 20
-20.0389882038
  0
LINE
  5
3EF
100
AcDbEntity
  8
RACCORDO
100
AcDbLine
 62
7
  6
CONTINUOUS
 10
12.0544662241
 20
-29.6284060384
 11
14.3658958084
 21
-28.499476479
  0
ARC
  5
3F0
100
AcDbEntity
  8
RACCORDO
100
AcDbCircle
 62
253
  6
CONTINUOUS
 10
-27.4207312163
 20
-31.5119731442
 40
21.4049937052
100
AcDbArc
 50
36.1553097298
 51
41.1894682093
  0
ARC
  5
3F1
100
AcDbEntity
  8
RACCORDO
100
AcDbCircle
 62
253
  6
CONTINUOUS
 10
-6.5786020985
 20
-18.9757128685
 40
2.7669290581
100
AcDbArc
 50
269.7486080698
 51
286.5260724791
  0
ARC
  5
3F2
100
AcDbEntity
  8
RACCORDO
100
AcDbCircle
 62
253
  6
CONTINUOUS
 10
-3.1234907072
 20
-20.4972884075
 40
1.0061098531
100
AcDbArc
 50
194.8587843138
 51
205.4505146405
  0
ARC
  5
3F3
100
AcDbEntity
  8
RACCORDO
100
AcDbCircle
 62
253
  6
CONTINUOUS
 10
-9.7462319819
 20
-17.162724009
 40
0.0283153292
100
AcDbArc
 50
242.3722202932
 51
250.3014448618
  0
ARC
  5
3F4
100
AcDbEntity
  8
RACCORDO
100
AcDbCircle
 62
253
  6
CONTINUOUS
 10
-20.3139483096
 20
-10.7992136142
 40
0.9948522601
100
AcDbArc
 50
210.5132965061
 51
252.3607141615
  0
ARC
  5
3F5
100
AcDbEntity
  8
RACCORDO
100
AcDbCircle
 62
253
  6
CONTINUOUS
 10
-20.3129924529
 20
-10.7996510529
 40
0.9946582016
100
AcDbArc
 50
210.5072384868
 51
252.3004857446
  0
ARC
  5
3F6
100
AcDbEntity
  8
RACCORDO
100
AcDbCircle
 62
253
  6
CONTINUOUS
 10
-22.8401804398
 20
-13.5631126197
 40
0.5534565011
100
AcDbArc
 50
239.0788330528
 51
239.5118919329
  0
ARC
  5
3F7
100
AcDbEntity
  8
RACCORDO
100
AcDbCircle
 62
253
  6
CONTINUOUS
 10
-22.8411675923
 20
-13.5648115757
 40
0.551491611
100
AcDbArc
 50
239.5107160651
 51
243.4304764045
  0
ARC
  5
3F8
100
AcDbEntity
  8
RACCORDO
100
AcDbCircle
 62
253
  6
CONTINUOUS
 10
-21.2176234571
 20
-11.5072149732
 40
0.2081595812
100
AcDbArc
 50
76.7619922966
 51
77.0641414854
  0
ARC
  5
3F9
100
AcDbEntity
  8
ASSI
100
AcDbCircle
 62
253
  6
CONTINUOUS
 10
24.3013516217
 20
-18.6939228157
 40
2.0912833171
100
AcDbArc
 50
322.6551149496
 51
324.1744091244
  0
ARC
  5
3FA
100
AcDbEntity
  8
RACCORDO
100
AcDbCircle
 62
253
  6
CONTINUOUS
 10
24.3477348875
 20
-18.7285753501
 40
2.0333881531
100
AcDbArc
 50
322.638549298
 51
327.1830019432
  0
ARC
  5
3FB
100
AcDbEntity
  8
ASSI
100
AcDbCircle
 62
253
  6
CONTINUOUS
 10
24.365572
 20
-18.740283014
 40
2.0120777303
100
AcDbArc
 50
324.1743948719
 51
325.7332443292
  0
ARC
  5
3FC
100
AcDbEntity
  8
ASSI
100
AcDbCircle
 62
253
  6
CONTINUOUS
 10
24.4262550969
 20
-18.7816486754
 40
1.938636898
100
AcDbArc
 50
325.7337824801
 51
327.244914712
  0
ARC
  5
3FD
100
AcDbEntity
  8
ASSI
100
AcDbCircle
 62
253
  6
CONTINUOUS
 10
24.527568359
 20
-18.8461253549
 40
1.8185484025
100
AcDbArc
 50
327.2262899353
 51
332.3048164338
  0
ARC
  5
3FE
100
AcDbEntity
  8
RACCORDO
100
AcDbCircle
 62
253
  6
CONTINUOUS
 10
24.5293690619
 20
-18.8471585738
 40
1.8164737963
100
AcDbArc
 50
327.3151546023
 51
332.3072747586
  0
ARC
  5
3FF
100
AcDbEntity
  8
RACCORDO
100
AcDbCircle
 62
253
  6
CONTINUOUS
 10
25.0068594908
 20
-19.0298895927
 40
1.3014135552
100
AcDbArc
 50
357.4908137132
 51
358.9900633532
  0
ARC
  5
400
100
AcDbEntity
  8
ASSI
100
AcDbCircle
 62
253
  6
CONTINUOUS
 10
25.0068594908
 20
-19.0298895927
 40
1.3014135552
100
AcDbArc
 50
357.4908137132
 51
358.9900633532
  0
ARC
  5
401
100
AcDbEntity
  8
RACCORDO
100
AcDbCircle
 62
253
  6
CONTINUOUS
 10
25.0087301027
 20
-19.0299299856
 40
1.2995425219
100
AcDbArc
 50
358.9903902989
 51
359.4463510685
  0
ARC
  5
402
100
AcDbEntity
  8
ASSI
100
AcDbCircle
 62
253
  6
CONTINUOUS
 10
25.0090463633
 20
-19.0299344059
 40
1.2992262325
100
AcDbArc
 50
358.9903394551
 51
359.9995653881
  0
ARC
  5
403
100
AcDbEntity
  8
RACCORDO
100
AcDbCircle
 62
253
  6
CONTINUOUS
 10
25.0093411649
 20
-19.0299359182
 40
1.2989314309
100
AcDbArc
 50
359.4463522942
 51
359.9996319994
  0
ARC
  5
404
100
AcDbEntity
  8
RACCORDO
100
AcDbCircle
 62
253
  6
CONTINUOUS
 10
25.3954207922
 20
-20.3754069575
 40
0.3772928899
100
AcDbArc
 50
298.3507534164
 51
302.1732567279
  0
ARC
  5
405
100
AcDbEntity
  8
ASSI
100
AcDbCircle
 62
253
  6
CONTINUOUS
 10
25.3954207922
 20
-20.3754069575
 40
0.3772928899
100
AcDbArc
 50
298.3507534164
 51
302.1732567279
  0
ARC
  5
406
100
AcDbEntity
  8
RACCORDO
100
AcDbCircle
 62
253
  6
CONTINUOUS
 10
10.777625911
 20
-28.5658196354
 40
0.2760516414
100
AcDbArc
 50
176.6125841937
 51
179.9718381105
  0
ARC
  5
407
100
AcDbEntity
  8
RACCORDO
100
AcDbCircle
 62
7
  6
CONTINUOUS
 10
10.679462725
 20
-28.769022058
 40
0.2518801684
100
AcDbArc
 50
225.1951126656
 51
243.3660348678
  0
ARC
  5
408
100
AcDbEntity
  8
RACCORDO
100
AcDbCircle
 62
7
  6
CONTINUOUS
 10
10.678701548
 20
-28.7705754273
 40
0.2503507315
100
AcDbArc
 50
179.9824575138
 51
181.2568727867
  0
ARC
  5
409
100
AcDbEntity
  8
RACCORDO
100
AcDbCircle
 62
7
  6
CONTINUOUS
 10
10.6784321589
 20
-28.7705326858
 40
0.2500823496
100
AcDbArc
 50
181.2680166287
 51
225.1187432989
  0
ARC
  5
40A
100
AcDbEntity
  8
RACCORDO
100
AcDbCircle
 62
7
  6
CONTINUOUS
 10
11.9447496171
 20
-29.4037640429
 40
0.2500035199
100
AcDbArc
 50
243.4313816633
 51
296.0311831108
  0
ARC
  5
40B
100
AcDbEntity
  8
RACCORDO
100
AcDbCircle
 62
253
  6
CONTINUOUS
 10
10.6016117866
 20
-28.3650341488
 40
0.2242049093
100
AcDbArc
 50
238.7013708025
 51
243.5006443617
  0
ARC
  5
40C
100
AcDbEntity
  8
RACCORDO
100
AcDbCircle
 62
7
  6
CONTINUOUS
 10
13.8813632082
 20
-26.9279981675
 40
0.1871847167
100
AcDbArc
 50
292.772238821
 51
299.8145785204
  0
ARC
  5
40D
100
AcDbEntity
  8
RACCORDO
100
AcDbCircle
 62
253
  6
CONTINUOUS
 10
25.8367129173
 20
-19.9996854438
 40
0.1251996309
100
AcDbArc
 50
356.5142797768
 51
359.9962147086
  0
ARC
  5
40E
100
AcDbEntity
  8
RACCORDO
100
AcDbCircle
 62
253
  6
CONTINUOUS
 10
10.6087891403
 20
-28.9098602613
 40
0.0942995476
100
AcDbArc
 50
238.1779257256
 51
243.3891742797
  0
ARC
  5
40F
100
AcDbEntity
  8
RACCORDO
100
AcDbCircle
 62
253
  6
CONTINUOUS
 10
17.8985608594
 20
-3.1123046834
 40
4.9129250101
100
AcDbArc
 50
14.898164495
 51
18.932054517
  0
ARC
  5
410
100
AcDbEntity
  8
RACCORDO
100
AcDbCircle
 62
7
  6
CONTINUOUS
 10
21.3234127166
 20
-4.5200469213
 40
2.9757521631
100
AcDbArc
 50
38.0335280835
 51
40.0547724937
  0
ARC
  5
411
100
AcDbEntity
  8
0
100
AcDbCircle
 62
7
  6
CONTINUOUS
 10
21.062230228
 20
-2.4723001994
 40
2.5416904263
100
AcDbArc
 50
350.0688012881
 51
350.6931527916
  0
ARC
  5
412
100
AcDbEntity
  8
RACCORDO
100
AcDbCircle
 62
253
  6
CONTINUOUS
 10
21.149422622
 20
-2.4577127769
 40
2.4914665813
100
AcDbArc
 50
349.3669429975
 51
350.0506609133
  0
ARC
  5
413
100
AcDbEntity
  8
RACCORDO
100
AcDbCircle
 62
253
  6
CONTINUOUS
 10
28.1650474428
 20
-14.4929246448
 40
0.3869136343
100
AcDbArc
 50
301.7611008579
 51
305.8649311485
  0
ARC
  5
414
100
AcDbEntity
  8
RACCORDO
100
AcDbCircle
 62
253
  6
CONTINUOUS
 10
28.1672739255
 20
-14.4964689982
 40
0.3827280749
100
AcDbArc
 50
298.0845335475
 51
301.7569996642
  0
ARC
  5
415
100
AcDbEntity
  8
ASSI
100
AcDbCircle
 62
253
  6
CONTINUOUS
 10
28.1672739255
 20
-14.4964689982
 40
0.3827280749
100
AcDbArc
 50
298.0845335475
 51
301.7569996642
  0
ARC
  5
416
100
AcDbEntity
  8
RACCORDO
100
AcDbCircle
 62
253
  6
CONTINUOUS
 10
28.1679068915
 20
-14.497618554
 40
0.3814158914
100
AcDbArc
 50
297.3733287844
 51
298.0819413642
  0
ARC
  5
417
100
AcDbEntity
  8
ASSI
100
AcDbCircle
 62
253
  6
CONTINUOUS
 10
28.1679068915
 20
-14.497618554
 40
0.3814158914
100
AcDbArc
 50
297.3733287844
 51
298.0819413642
  0
ARC
  5
418
100
AcDbEntity
  8
RACCORDO
100
AcDbCircle
 62
253
  6
CONTINUOUS
 10
28.6156947226
 20
-14.1230886433
 40
0.1252745714
100
AcDbArc
 50
355.9754533871
 51
359.9951668382
  0
ARC
  5
419
100
AcDbEntity
  8
0
100
AcDbCircle
 62
7
  6
CONTINUOUS
 10
0.103548343
 20
21.3053636933
 40
7.106882944
100
AcDbArc
 50
67.686268856
 51
72.1067398399
  0
ARC
  5
41A
100
AcDbEntity
  8
0
100
AcDbCircle
 62
7
  6
CONTINUOUS
 10
1.0381699037
 20
23.0391095697
 40
5.8965954325
100
AcDbArc
 50
77.771829247
 51
82.8478240416
  0
ARC
  5
41B
100
AcDbEntity
  8
0
100
AcDbCircle
 62
7
  6
CONTINUOUS
 10
2.7806891016
 20
25.2379318567
 40
4.0890884
100
AcDbArc
 50
112.6850114064
 51
120.4450909477
  0
ARC
  5
41C
100
AcDbEntity
  8
0
100
AcDbCircle
 62
7
  6
CONTINUOUS
 10
-0.144682838
 20
26.7388430125
 40
0.8182242562
100
AcDbArc
 50
174.2219726862
 51
177.2082821599
  0
ARC
  5
41D
100
AcDbEntity
  8
RACCORDO
100
AcDbCircle
 62
7
  6
CONTINUOUS
 10
-18.5420490361
 20
27.5206571125
 40
0.2513828728
100
AcDbArc
 50
227.8901001718
 51
243.391809364
  0
ARC
  5
41E
100
AcDbEntity
  8
RACCORDO
100
AcDbCircle
 62
7
  6
CONTINUOUS
 10
-5.2307638803
 20
20.8650145346
 40
0.2513828728
100
AcDbArc
 50
227.8901001718
 51
243.391809364
  0
ARC
  5
41F
100
AcDbEntity
  8
RACCORDO
100
AcDbCircle
 62
7
  6
CONTINUOUS
 10
-2.6321464594
 20
19.5657058242
 40
0.2513828728
100
AcDbArc
 50
227.8901001718
 51
243.391809364
  0
ARC
  5
420
100
AcDbEntity
  8
RACCORDO
100
AcDbCircle
 62
7
  6
CONTINUOUS
 10
-17.2760902524
 20
26.8873034074
 40
0.2510479896
100
AcDbArc
 50
243.4639078059
 51
258.1842216626
  0
ARC
  5
421
100
AcDbEntity
  8
RACCORDO
100
AcDbCircle
 62
7
  6
CONTINUOUS
 10
-3.9648050966
 20
20.2316608295
 40
0.2510479896
100
AcDbArc
 50
243.4639078059
 51
258.1842216626
  0
ARC
  5
422
100
AcDbEntity
  8
RACCORDO
100
AcDbCircle
 62
7
  6
CONTINUOUS
 10
-1.3661876757
 20
18.932352119
 40
0.2510479896
100
AcDbArc
 50
243.463907806
 51
258.1842216626
  0
ARC
  5
423
100
AcDbEntity
  8
RACCORDO
100
AcDbCircle
 62
7
  6
CONTINUOUS
 10
-18.5427407353
 20
27.519555467
 40
0.2501018855
100
AcDbArc
 50
185.5672705258
 51
227.838424453
  0
ARC
  5
424
100
AcDbEntity
  8
RACCORDO
100
AcDbCircle
 62
7
  6
CONTINUOUS
 10
-5.2314555795
 20
20.8639128891
 40
0.2501018855
100
AcDbArc
 50
185.5672705258
 51
227.838424453
  0
ARC
  5
425
100
AcDbEntity
  8
RACCORDO
100
AcDbCircle
 62
7
  6
CONTINUOUS
 10
-2.6328381586
 20
19.5646041787
 40
0.2501018855
100
AcDbArc
 50
185.5672705258
 51
227.838424453
  0
ARC
  5
426
100
AcDbEntity
  8
RACCORDO
100
AcDbCircle
 62
7
  6
CONTINUOUS
 10
-18.5428424548
 20
27.8127806785
 40
0.2499944952
100
AcDbArc
 50
117.0984601725
 51
180.0169140757
  0
ARC
  5
427
100
AcDbEntity
  8
RACCORDO
100
AcDbCircle
 62
7
  6
CONTINUOUS
 10
-5.231557299
 20
21.1571381006
 40
0.2499944952
100
AcDbArc
 50
117.0984601725
 51
180.0169140757
  0
ARC
  5
428
100
AcDbEntity
  8
RACCORDO
100
AcDbCircle
 62
7
  6
CONTINUOUS
 10
-2.6329398782
 20
19.8578293902
 40
0.2499944952
100
AcDbArc
 50
117.0984601725
 51
180.0169140757
  0
ARC
  5
429
100
AcDbEntity
  8
RACCORDO
100
AcDbCircle
 62
7
  6
CONTINUOUS
 10
-18.543628286
 20
27.5194499243
 40
0.2492082831
100
AcDbArc
 50
179.9864287195
 51
185.5629160692
  0
ARC
  5
42A
100
AcDbEntity
  8
RACCORDO
100
AcDbCircle
 62
7
  6
CONTINUOUS
 10
-5.2323431301
 20
20.8638073464
 40
0.2492082831
100
AcDbArc
 50
179.9864287195
 51
185.5629160692
  0
ARC
  5
42B
100
AcDbEntity
  8
RACCORDO
100
AcDbCircle
 62
7
  6
CONTINUOUS
 10
-2.6337257093
 20
19.5644986359
 40
0.2492082831
100
AcDbArc
 50
179.9864287195
 51
185.5629160692
  0
ARC
  5
42C
100
AcDbEntity
  8
RACCORDO
100
AcDbCircle
 62
253
  6
CONTINUOUS
 10
-5.301229708
 20
20.7245495731
 40
0.0942275762
100
AcDbArc
 50
241.305761132
 51
243.446768739
  0
ARC
  5
42D
100
AcDbEntity
  8
RACCORDO
100
AcDbCircle
 62
253
  6
CONTINUOUS
 10
-2.7026122871
 20
19.4252408627
 40
0.0942275762
100
AcDbArc
 50
241.3057611319
 51
243.4467687394
  0
ARC
  5
42E
100
AcDbEntity
  8
RACCORDO
100
AcDbCircle
 62
253
  6
CONTINUOUS
 10
-18.6125148638
 20
27.380192151
 40
0.0942275762
100
AcDbArc
 50
241.3057611318
 51
243.4467687393
  0
ARC
  5
42F
100
AcDbEntity
  8
0
100
AcDbCircle
 62
7
  6
CONTINUOUS
 10
2.4377996168
 20
30.5160080276
 40
5.3901631872
100
AcDbArc
 50
281.6996225
 51
282.7605554967
  0
ARC
  5
430
100
AcDbEntity
  8
0
100
AcDbCircle
 62
253
  6
CONTINUOUS
 10
2.167660743
 20
31.4585591578
 40
5.1619846616
100
AcDbArc
 50
257.3135216081
 51
260.3814600673
  0
ARC
  5
431
100
AcDbEntity
  8
0
100
AcDbCircle
 62
253
  6
CONTINUOUS
 10
2.1142954048
 20
31.2175641489
 40
4.9151534036
100
AcDbArc
 50
256.5889430313
 51
257.3034516696
  0
ARC
  5
432
100
AcDbEntity
  8
0
100
AcDbCircle
 62
253
  6
CONTINUOUS
 10
2.0568487535
 20
30.9831846015
 40
4.6738414418
100
AcDbArc
 50
254.2532481205
 51
256.6075663787
  0
ARC
  5
433
100
AcDbEntity
  8
0
100
AcDbCircle
 62
253
  6
CONTINUOUS
 10
1.9762639359
 20
30.6989988891
 40
4.3784514817
100
AcDbArc
 50
252.5248282408
 51
254.25896046
  0
ARC
  5
434
100
AcDbEntity
  8
0
100
AcDbCircle
 62
253
  6
CONTINUOUS
 10
2.6182127561
 20
30.6285914014
 40
4.3051887001
100
AcDbArc
 50
285.7382773706
 51
289.1918014063
  0
ARC
  5
435
100
AcDbEntity
  8
0
100
AcDbCircle
 62
253
  6
CONTINUOUS
 10
1.8798322428
 20
30.3971307183
 40
4.061557887
100
AcDbArc
 50
250.3362111348
 51
252.5436235263
  0
ARC
  5
436
100
AcDbEntity
  8
RACCORDO
100
AcDbCircle
 62
253
  6
CONTINUOUS
 10
-9.2079095919
 20
30.3345356208
 40
0.3790555142
100
AcDbArc
 50
106.9584652679
 51
110.4633615402
  0
ARC
  5
437
100
AcDbEntity
  8
RACCORDO
100
AcDbCircle
 62
253
  6
CONTINUOUS
 10
-9.2092842526
 20
30.3382753012
 40
0.3750712304
100
AcDbArc
 50
110.466341806
 51
114.7854624351
  0
ARC
  5
438
100
AcDbEntity
  8
ASSI
100
AcDbCircle
 62
253
  6
CONTINUOUS
 10
-9.2092842526
 20
30.3382753012
 40
0.3750712304
100
AcDbArc
 50
110.466341806
 51
114.7854624351
  0
ARC
  5
439
100
AcDbEntity
  8
RACCORDO
100
AcDbCircle
 62
253
  6
CONTINUOUS
 10
-8.7989420983
 20
30.4873078107
 40
0.1878775338
100
AcDbArc
 50
63.7585707141
 51
67.6413098676
  0
ARC
  5
43A
100
AcDbEntity
  8
RACCORDO
100
AcDbCircle
 62
253
  6
CONTINUOUS
 10
-8.7987028992
 20
30.4878124283
 40
0.1873191598
100
AcDbArc
 50
63.4376820763
 51
63.7559487814
  0
ARC
  5
43B
100
AcDbEntity
  8
0
100
AcDbCircle
 62
7
  6
CONTINUOUS
 10
14.5992373573
 20
14.0575191861
 40
7.106882944
100
AcDbArc
 50
67.686268856
 51
72.1067398399
  0
ARC
  5
43C
100
AcDbEntity
  8
0
100
AcDbCircle
 62
7
  6
CONTINUOUS
 10
4.3958629189
 20
21.5044168511
 40
6.8944922332
100
AcDbArc
 50
107.8100264724
 51
108.3073920916
  0
ARC
  5
43D
100
AcDbEntity
  8
0
100
AcDbCircle
 62
7
  6
CONTINUOUS
 10
18.8915519332
 20
14.256572344
 40
6.8944922331
100
AcDbArc
 50
107.8100264724
 51
108.3073920916
  0
ARC
  5
43E
100
AcDbEntity
  8
0
100
AcDbCircle
 62
7
  6
CONTINUOUS
 10
3.5725399283
 20
22.8998349233
 40
6.0403709299
100
AcDbArc
 50
101.7351526571
 51
102.2869627824
  0
ARC
  5
43F
100
AcDbEntity
  8
0
100
AcDbCircle
 62
7
  6
CONTINUOUS
 10
18.0682289426
 20
15.6519904161
 40
6.0403709299
100
AcDbArc
 50
101.7351526571
 51
102.2869627824
  0
ARC
  5
440
100
AcDbEntity
  8
0
100
AcDbCircle
 62
7
  6
CONTINUOUS
 10
15.533858918
 20
15.7912650625
 40
5.8965954325
100
AcDbArc
 50
77.771829247
 51
82.8478240416
  0
ARC
  5
441
100
AcDbEntity
  8
0
100
AcDbCircle
 62
7
  6
CONTINUOUS
 10
16.9334886311
 20
23.2681635205
 40
5.3901631872
100
AcDbArc
 50
281.6996225
 51
282.7605554967
  0
ARC
  5
442
100
AcDbEntity
  8
0
100
AcDbCircle
 62
7
  6
CONTINUOUS
 10
16.9657508755
 20
23.1245571687
 40
5.2429776907
100
AcDbArc
 50
282.7633305445
 51
283.450818507
  0
ARC
  5
443
100
AcDbEntity
  8
0
100
AcDbCircle
 62
253
  6
CONTINUOUS
 10
16.6633497573
 20
24.2107146507
 40
5.1619846616
100
AcDbArc
 50
257.3135216081
 51
260.3814600673
  0
ARC
  5
444
100
AcDbEntity
  8
0
100
AcDbCircle
 62
7
  6
CONTINUOUS
 10
16.9857541054
 20
23.0406249165
 40
5.1566947414
100
AcDbArc
 50
283.4515850811
 51
283.8510687139
  0
ARC
  5
445
100
AcDbEntity
  8
0
100
AcDbCircle
 62
253
  6
CONTINUOUS
 10
16.6099844192
 20
23.9697196417
 40
4.9151534036
100
AcDbArc
 50
256.5889430313
 51
257.3034516696
  0
ARC
  5
446
100
AcDbEntity
  8
0
100
AcDbCircle
 62
7
  6
CONTINUOUS
 10
4.9700355021
 20
25.0969958118
 40
4.7764385492
100
AcDbArc
 50
135.6625905485
 51
136.1913184751
  0
ARC
  5
447
100
AcDbEntity
  8
0
100
AcDbCircle
 62
7
  6
CONTINUOUS
 10
19.4657245164
 20
17.8491513047
 40
4.7764385492
100
AcDbArc
 50
135.6625905485
 51
136.1913184751
  0
ARC
  5
448
100
AcDbEntity
  8
0
100
AcDbCircle
 62
253
  6
CONTINUOUS
 10
16.5525377678
 20
23.7353400942
 40
4.6738414417
100
AcDbArc
 50
254.2532481205
 51
256.6075663787
  0
ARC
  5
449
100
AcDbEntity
  8
0
100
AcDbCircle
 62
7
  6
CONTINUOUS
 10
3.9404155898
 20
24.722408716
 40
4.3919541265
100
AcDbArc
 50
107.3701235364
 51
111.3144525631
  0
ARC
  5
44A
100
AcDbEntity
  8
0
100
AcDbCircle
 62
253
  6
CONTINUOUS
 10
16.4719529502
 20
23.4511543818
 40
4.3784514815
100
AcDbArc
 50
252.5248282408
 51
254.25896046
  0
ARC
  5
44B
100
AcDbEntity
  8
0
100
AcDbCircle
 62
253
  6
CONTINUOUS
 10
17.1139017704
 20
23.3807468942
 40
4.3051887001
100
AcDbArc
 50
285.7382773706
 51
289.1918014063
  0
ARC
  5
44C
100
AcDbEntity
  8
0
100
AcDbCircle
 62
7
  6
CONTINUOUS
 10
17.276378116
 20
17.9900873496
 40
4.0890884
100
AcDbArc
 50
112.6850114064
 51
120.4450909477
  0
ARC
  5
44D
100
AcDbEntity
  8
0
100
AcDbCircle
 62
253
  6
CONTINUOUS
 10
16.3755212571
 20
23.1492862111
 40
4.061557887
100
AcDbArc
 50
250.3362111348
 51
252.5436235263
  0
ARC
  5
44E
100
AcDbEntity
  8
RACCORDO
100
AcDbCircle
 62
253
  6
CONTINUOUS
 10
25.3498809006
 20
8.9335917813
 40
3.9224458048
100
AcDbArc
 50
33.1853127408
 51
35.0427222736
  0
ARC
  5
44F
100
AcDbEntity
  8
RACCORDO
100
AcDbCircle
 62
7
  6
CONTINUOUS
 10
25.5298761447
 20
9.0237615577
 40
3.7986315855
100
AcDbArc
 50
32.9040183206
 51
35.0797346479
  0
ARC
  5
450
100
AcDbEntity
  8
0
100
AcDbCircle
 62
7
  6
CONTINUOUS
 10
3.6826477719
 20
26.3880200376
 40
2.6922290832
100
AcDbArc
 50
81.9194076421
 51
82.8691808308
  0
ARC
  5
451
100
AcDbEntity
  8
0
100
AcDbCircle
 62
7
  6
CONTINUOUS
 10
18.1783367862
 20
19.1401755304
 40
2.6922290832
100
AcDbArc
 50
81.9194076421
 51
82.8691808308
  0
ARC
  5
452
100
AcDbEntity
  8
0
100
AcDbCircle
 62
253
  6
CONTINUOUS
 10
3.5448523624
 20
26.9504231736
 40
2.1348193016
100
AcDbArc
 50
54.0927749127
 51
55.0374838435
  0
ARC
  5
453
100
AcDbEntity
  8
0
100
AcDbCircle
 62
253
  6
CONTINUOUS
 10
18.0405413767
 20
19.7025786663
 40
2.1348193017
100
AcDbArc
 50
54.0927749127
 51
55.0374838435
  0
ARC
  5
454
100
AcDbEntity
  8
RACCORDO
100
AcDbCircle
 62
7
  6
CONTINUOUS
 10
20.0054601302
 20
17.6710459388
 40
2.1264884504
100
AcDbArc
 50
316.4346262771
 51
319.9237349075
  0
ARC
  5
455
100
AcDbEntity
  8
0
100
AcDbCircle
 62
7
  6
CONTINUOUS
 10
14.3510061764
 20
19.4909985054
 40
0.8182242562
100
AcDbArc
 50
174.2219726862
 51
177.2082821599
  0
ARC
  5
456
100
AcDbEntity
  8
RACCORDO
100
AcDbCircle
 62
7
  6
CONTINUOUS
 10
10.6791386964
 20
12.9100632463
 40
0.2513828728
100
AcDbArc
 50
227.8901001718
 51
243.391809364
  0
ARC
  5
457
100
AcDbEntity
  8
RACCORDO
100
AcDbCircle
 62
7
  6
CONTINUOUS
 10
11.9450974801
 20
12.2767095411
 40
0.2510479896
100
AcDbArc
 50
243.463907806
 51
258.1842216626
  0
ARC
  5
458
100
AcDbEntity
  8
RACCORDO
100
AcDbCircle
 62
7
  6
CONTINUOUS
 10
10.6784469972
 20
12.9089616007
 40
0.2501018855
100
AcDbArc
 50
185.5672705258
 51
227.838424453
  0
ARC
  5
459
100
AcDbEntity
  8
RACCORDO
100
AcDbCircle
 62
7
  6
CONTINUOUS
 10
10.6783452777
 20
13.2021868122
 40
0.2499944952
100
AcDbArc
 50
117.0984601725
 51
180.0169140757
  0
ARC
  5
45A
100
AcDbEntity
  8
RACCORDO
100
AcDbCircle
 62
7
  6
CONTINUOUS
 10
10.6775594466
 20
12.908856058
 40
0.2492082831
100
AcDbArc
 50
179.9864287195
 51
185.5629160692
  0
ARC
  5
45B
100
AcDbEntity
  8
RACCORDO
100
AcDbCircle
 62
7
  6
CONTINUOUS
 10
23.8383212833
 20
14.8773360628
 40
0.1266913751
100
AcDbArc
 50
0.0370857222
 51
10.1496132621
  0
ARC
  5
45C
100
AcDbEntity
  8
RACCORDO
100
AcDbCircle
 62
253
  6
CONTINUOUS
 10
10.6086728687
 20
12.7695982848
 40
0.0942275762
100
AcDbArc
 50
241.3057611321
 51
243.4467687394
  0
ARC
  5
45D
100
AcDbEntity
  8
0
100
AcDbCircle
 62
7
  6
CONTINUOUS
 10
18.5468500471
 20
21.7301225672
 40
0.0761375299
100
AcDbArc
 50
61.7686878375
 51
70.3047459381
  0
ARC
  5
45E
100
AcDbEntity
  8
0
100
AcDbCircle
 62
7
  6
CONTINUOUS
 10
12.1492603943
 20
47.8074439983
 40
68.4633318106
100
AcDbArc
 50
248.4503468407
 51
250.6607994537
  0
ARC
  5
45F
100
AcDbEntity
  8
0
100
AcDbCircle
 62
7
  6
CONTINUOUS
 10
4.0511610328
 20
28.9779670744
 40
0.0761375299
100
AcDbArc
 50
61.7686878375
 51
70.3047459381
  0
ARC
  5
460
100
AcDbEntity
  8
RACCORDO
100
AcDbCircle
 62
253
  6
CONTINUOUS
 10
531.3277148919
 20
4.2164548028
 40
555.0922179528
100
AcDbArc
 50
178.140722037
 51
180.1036664101
  0
ARC
  5
461
100
AcDbEntity
  8
RACCORDO
100
AcDbCircle
 62
253
  6
CONTINUOUS
 10
496.0370497581
 20
4.0810619459
 40
519.8000496993
100
AcDbArc
 50
180.999679689
 51
181.9164176302
  0
ARC
  5
462
100
AcDbEntity
  8
RACCORDO
100
AcDbCircle
 62
253
  6
CONTINUOUS
 10
523.7556560522
 20
-10.8821047706
 40
516.8446150627
100
AcDbArc
 50
178.0303400402
 51
181.9696599599
  0
ARC
  5
463
100
AcDbEntity
  8
RACCORDO
100
AcDbCircle
 62
253
  6
CONTINUOUS
 10
523.9309749154
 20
-10.8853118453
 40
516.3190487786
100
AcDbArc
 50
178.0303067513
 51
181.9696932487
  0
SPLINE
  5
464
100
AcDbEntity
  8
0
100
AcDbSpline
 62
7
  6
CONTINUOUS
 70
0
 71
3
 72
13
 73
9
 74
7
 42
0.0000001
 43
0.0000001
 44
0.0000000001
 12
-1.2513185088
 22
1.1732386706
 32
0.0
 13
-1.2557583849
 23
-0.6279638275
 33
0.0
 40
0.0
 40
0.0
 40
0.0
 40
0.0
 40
0.0874721457
 40
0.275226821
 40
0.4629814963
 40
0.6507361716
 40
0.8384908468
 40
1.0
 40
1.0
 40
1.0
 40
1.0
 10
24.432402581
 20
9.9219101987
 30
0.0
 10
24.3959174093
 20
9.9561187666
 30
0.0
 10
24.2750695832
 20
10.0536853447
 30
0.0
 10
24.0499080084
 20
10.1566413424
 30
0.0
 10
23.7573980469
 20
10.1951079955
 30
0.0
 10
23.4755780579
 20
10.161900603
 30
0.0
 10
23.2510207504
 20
10.0952834989
 30
0.0
 10
23.1053643758
 20
10.0324744773
 30
0.0
 10
23.0377588847
 20
9.9986671753
 30
0.0
 11
24.432402581
 21
9.9219101987
 31
0.0
 11
24.3177886612
 21
10.0144627273
 31
0.0
 11
24.04681167
 21
10.1421763795
 31
0.0
 11
23.759179709
 21
10.1831623212
 31
0.0
 11
23.4832927194
 21
10.1557896919
 31
0.0
 11
23.2401588166
 21
10.0863974995
 31
0.0
 11
23.0377588847
 21
9.9986671753
 31
0.0
  0
SPLINE
  5
465
100
AcDbEntity
  8
RACCORDO
100
AcDbSpline
 62
7
  6
CONTINUOUS
 70
0
 71
3
 72
11
 73
7
 74
5
 42
0.0000001
 43
0.0000001
 44
0.0000000001
 12
0.016111979
 22
-0.1017933502
 32
0.0
 13
-0.0921801801
 23
-0.0460900901
 33
0.0
 40
0.0
 40
0.0
 40
0.0
 40
0.0
 40
0.2078166067
 40
0.4324582549
 40
0.6939940559
 40
1.0
 40
1.0
 40
1.0
 40
1.0
 10
29.2845924432
 20
9.6364568228
 30
0.0
 10
29.2857085554
 20
9.6294053732
 30
0.0
 10
29.2848070906
 20
9.6140302369
 30
0.0
 10
29.2734907616
 20
9.5924333208
 30
0.0
 10
29.2537253679
 20
9.5732696436
 30
0.0
 10
29.2369104179
 20
9.563125253
 30
0.0
 10
29.2275078569
 20
9.5584239725
 30
0.0
 11
29.2845924432
 21
9.6364568228
 31
0.0
 11
29.2834219151
 21
9.6150711339
 31
0.0
 11
29.2731950922
 21
9.5943006457
 31
0.0
 11
29.2542712231
 21
9.5751067168
 31
0.0
 11
29.2275078569
 21
9.5584239725
 31
0.0
  0
SPLINE
  5
466
100
AcDbEntity
  8
RACCORDO
100
AcDbSpline
 62
7
  6
CONTINUOUS
 70
0
 71
3
 72
14
 73
10
 74
8
 42
0.0000001
 43
0.0000001
 44
0.0000000001
 12
2.0868733728
 22
-0.1263795114
 32
0.0
 13
1.2016174283
 23
-1.7108850958
 33
0.0
 40
0.0
 40
0.0
 40
0.0
 40
0.0
 40
0.1072432817
 40
0.21910681
 40
0.3362812852
 40
0.4590773549
 40
0.5874254219
 40
0.7209119527
 40
1.0
 40
1.0
 40
1.0
 40
1.0
 10
26.9582673513
 20
12.3405297818
 30
0.0
 10
27.032868401
 20
12.3360119973
 30
0.0
 10
27.184705916
 20
12.3137057434
 30
0.0
 10
27.4095541659
 20
12.2451115351
 30
0.0
 10
27.6331316232
 20
12.1428693717
 30
0.0
 10
27.8528224213
 20
12.0091224324
 30
0.0
 10
28.0661976187
 20
11.8461040291
 30
0.0
 10
28.342782978
 20
11.5893718323
 30
0.0
 10
28.5267121783
 20
11.3660578229
 30
0.0
 10
28.6384978655
 20
11.206895296
 30
0.0
 11
26.9582673513
 21
12.3405297818
 31
0.0
 11
27.1802258716
 21
12.3088129384
 31
0.0
 11
27.4041909343
 21
12.2414624415
 31
0.0
 11
27.627328315
 21
12.1403531672
 31
0.0
 11
27.8470061674
 21
12.0074938905
 31
0.0
 11
28.0606145296
 21
11.8450865581
 31
0.0
 11
28.265504357
 21
11.6555985286
 31
0.0
 11
28.6384978655
 21
11.206895296
 31
0.0
  0
SPLINE
  5
467
100
AcDbEntity
  8
RACCORDO
100
AcDbSpline
 62
7
  6
CONTINUOUS
 70
0
 71
3
 72
11
 73
7
 74
5
 42
0.0000001
 43
0.0000001
 44
0.0000000001
 12
0.8516498616
 22
-1.3159721414
 32
0.0
 13
0.24467405
 23
-1.5482973787
 33
0.0
 40
0.0
 40
0.0
 40
0.0
 40
0.0
 40
0.2532135597
 40
0.5067840227
 40
0.756886685
 40
1.0
 40
1.0
 40
1.0
 40
1.0
 10
28.7191379674
 20
11.0873048571
 30
0.0
 10
28.7910210651
 20
10.9762308603
 30
0.0
 10
28.9235339427
 20
10.7463618107
 30
0.0
 10
29.0860813298
 20
10.3851311663
 30
0.0
 10
29.2095849232
 20
10.0142972555
 30
0.0
 10
29.2647661363
 20
9.7619274899
 30
0.0
 10
29.2845939761
 20
9.6364569205
 30
0.0
 11
28.7191379674
 21
11.0873048571
 31
0.0
 11
28.9175297021
 21
10.7435284296
 31
0.0
 11
29.0805225862
 21
10.3810104946
 31
0.0
 11
29.2039558136
 21
10.0089103404
 31
0.0
 11
29.2845939761
 21
9.6364569205
 31
0.0
  0
SPLINE
  5
468
100
AcDbEntity
  8
RACCORDO
100
AcDbSpline
 62
7
  6
CONTINUOUS
 70
0
 71
3
 72
11
 73
7
 74
5
 42
0.0000001
 43
0.0000001
 44
0.0000000001
 12
0.0198685624
 22
0.1069377189
 32
0.0
 13
-0.0972848826
 23
0.0486424413
 33
0.0
 40
0.0
 40
0.0
 40
0.0
 40
0.0
 40
0.207521759
 40
0.4320157593
 40
0.6939026626
 40
1.0
 40
1.0
 40
1.0
 40
1.0
 10
29.284360049
 20
8.7531692535
 30
0.0
 10
29.2857344354
 20
8.7605665547
 30
0.0
 10
29.2850087438
 20
8.7768493935
 30
0.0
 10
29.2729719778
 20
8.799619106
 30
0.0
 10
29.2520248035
 20
8.8197552278
 30
0.0
 10
29.2342554067
 20
8.83044615
 30
0.0
 10
29.2243291922
 20
8.8354092573
 30
0.0
 11
29.284360049
 21
8.7531692535
 31
0.0
 11
29.2834755265
 21
8.7757236022
 31
0.0
 11
29.272679143
 21
8.7976248154
 31
0.0
 11
29.2526074474
 21
8.8178365569
 31
0.0
 11
29.2243291922
 21
8.8354092573
 31
0.0
  0
SPLINE
  5
469
100
AcDbEntity
  8
RACCORDO
100
AcDbSpline
 62
7
  6
CONTINUOUS
 70
0
 71
3
 72
9
 73
5
 74
3
 42
0.0000001
 43
0.0000001
 44
0.0000000001
 12
-0.1178124193
 22
-0.6347409751
 32
0.0
 13
-0.3546919016
 23
-0.5394159124
 33
0.0
 40
0.0
 40
0.0
 40
0.0
 40
0.0
 40
0.5153283366
 40
1.0
 40
1.0
 40
1.0
 40
1.0
 10
29.2843628382
 20
8.7531691438
 30
0.0
 10
29.2641254789
 20
8.6441358068
 30
0.0
 10
29.2076415624
 20
8.4351768058
 30
0.0
 10
29.1107020398
 20
8.2408730373
 30
0.0
 10
29.0533990018
 20
8.1537265015
 30
0.0
 11
29.2843628382
 21
8.7531691438
 31
0.0
 11
29.1951664294
 21
8.4326627098
 31
0.0
 11
29.0533990018
 21
8.1537265015
 31
0.0
  0
SPLINE
  5
46A
100
AcDbEntity
  8
RACCORDO
100
AcDbSpline
 62
7
  6
CONTINUOUS
 70
0
 71
3
 72
11
 73
7
 74
5
 42
0.0000001
 43
0.0000001
 44
0.0000000001
 12
-1.1114483742
 22
0.5557241873
 32
0.0
 13
-1.2175738016
 23
-0.2483161263
 33
0.0
 40
0.0
 40
0.0
 40
0.0
 40
0.0
 40
0.2682797624
 40
0.5228633269
 40
0.7657554117
 40
1.0
 40
1.0
 40
1.0
 40
1.0
 10
26.8070823094
 20
12.4227908643
 30
0.0
 10
26.7076892742
 20
12.472487382
 30
0.0
 10
26.507598932
 20
12.5573881784
 30
0.0
 10
26.1994593878
 20
12.6377633033
 30
0.0
 10
25.8960817191
 20
12.6648366909
 30
0.0
 10
25.6979071401
 20
12.6452659516
 30
0.0
 10
25.6028371155
 20
12.6258770487
 30
0.0
 11
26.8070823094
 21
12.4227908643
 31
0.0
 11
26.4996434576
 21
12.5517087693
 31
0.0
 11
26.1931640625
 21
12.6301361159
 31
0.0
 11
25.8924058191
 21
12.6555101074
 31
0.0
 11
25.6028371155
 21
12.6258770487
 31
0.0
  0
SPLINE
  5
46B
100
AcDbEntity
  8
RACCORDO
100
AcDbSpline
 62
7
  6
CONTINUOUS
 70
0
 71
3
 72
15
 73
11
 74
9
 42
0.0000001
 43
0.0000001
 44
0.0000000001
 12
2.226244273
 22
2.7038394897
 32
0.0
 13
-1.4825378388
 23
3.1731676769
 33
0.0
 40
0.0
 40
0.0
 40
0.0
 40
0.0
 40
0.1026232331
 40
0.2111578996
 40
0.3267816278
 40
0.4498617109
 40
0.5799957459
 40
0.7161396822
 40
0.8567619491
 40
1.0
 40
1.0
 40
1.0
 40
1.0
 10
28.6270371332
 20
7.0627021705
 30
0.0
 10
28.7031919282
 20
7.1551944206
 30
0.0
 10
28.8379044832
 20
7.3643484482
 30
0.0
 10
28.9774770568
 20
7.7215582162
 30
0.0
 10
29.0593167951
 20
8.1203463041
 30
0.0
 10
29.0836374491
 20
8.551581188
 30
0.0
 10
29.0513161793
 20
9.0060879666
 30
0.0
 10
28.9638198252
 20
9.4739673195
 30
0.0
 10
28.8235864343
 20
9.9446701977
 30
0.0
 10
28.6977322654
 20
10.2519176818
 30
0.0
 10
28.6269469885
 20
10.4034237995
 30
0.0
 11
28.6270371332
 21
7.0627021705
 31
0.0
 11
28.8236165894
 21
7.3636105278
 31
0.0
 11
28.9643896178
 21
7.7167173079
 31
0.0
 11
29.0480524739
 21
8.1129432339
 31
0.0
 11
29.0742612685
 21
8.5432233126
 31
0.0
 11
29.0434188179
 21
8.9979619842
 31
0.0
 11
28.9568230832
 21
9.4668654785
 31
0.0
 11
28.8168330155
 21
9.9390691624
 31
0.0
 11
28.6269469885
 21
10.4034237995
 31
0.0
  0
SPLINE
  5
46C
100
AcDbEntity
  8
RACCORDO
100
AcDbSpline
 62
7
  6
CONTINUOUS
 70
0
 71
3
 72
11
 73
7
 74
5
 42
0.0000001
 43
0.0000001
 44
0.0000000001
 12
-0.9738962661
 22
1.2058178482
 32
0.0
 13
-1.3863536691
 23
0.6931768348
 33
0.0
 40
0.0
 40
0.0
 40
0.0
 40
0.0
 40
0.2657007242
 40
0.5219716467
 40
0.7670919463
 40
1.0
 40
1.0
 40
1.0
 40
1.0
 10
27.9865059248
 20
11.4338086944
 30
0.0
 10
27.9002509437
 20
11.5406042529
 30
0.0
 10
27.7214395848
 20
11.7430795222
 30
0.0
 10
27.4314772403
 20
12.0142056573
 30
0.0
 10
27.1283127955
 20
12.2434792598
 30
0.0
 10
26.9147132877
 20
12.3689753752
 30
0.0
 10
26.8070823094
 20
12.4227908643
 30
0.0
 11
27.9865059248
 21
11.4338086944
 31
0.0
 11
27.7134169029
 21
11.742076928
 31
0.0
 11
27.4226961184
 21
12.012748627
 31
0.0
 11
27.1190008199
 21
12.2410447445
 31
0.0
 11
26.8070823094
 21
12.4227908643
 31
0.0
  0
SPLINE
  5
46D
100
AcDbEntity
  8
RACCORDO
100
AcDbSpline
 62
253
  6
CONTINUOUS
 70
0
 71
3
 72
11
 73
7
 74
5
 42
0.0000001
 43
0.0000001
 44
0.0000000001
 12
-0.2502192222
 22
1.626424944
 32
0.0
 13
-0.9007307404
 23
1.3771535466
 33
0.0
 40
0.0
 40
0.0
 40
0.0
 40
0.0
 40
0.2421100421
 40
0.4923057426
 40
0.7464158731
 40
1.0
 40
1.0
 40
1.0
 40
1.0
 10
29.2275078569
 20
9.5584239725
 30
0.0
 10
29.2073143281
 20
9.6896819097
 30
0.0
 10
29.1501019642
 20
9.9542942436
 30
0.0
 10
29.0205498203
 20
10.34343965
 30
0.0
 10
28.8489927299
 20
10.7228762351
 30
0.0
 10
28.7087310358
 20
10.9641293334
 30
0.0
 10
28.6325940297
 20
11.0805374266
 30
0.0
 11
29.2275078569
 21
9.5584239725
 31
0.0
 11
29.1442128373
 21
9.9480260284
 31
0.0
 11
29.0146758496
 21
10.3388290132
 31
0.0
 11
28.8425257116
 21
10.7199020432
 31
0.0
 11
28.6325940297
 21
11.0805374266
 31
0.0
  0
SPLINE
  5
46E
100
AcDbEntity
  8
RACCORDO
100
AcDbSpline
 62
253
  6
CONTINUOUS
 70
0
 71
3
 72
13
 73
9
 74
7
 42
0.0000001
 43
0.0000001
 44
0.0000000001
 12
-1.137072882
 22
1.6210389167
 32
0.0
 13
-1.9609654734
 23
0.2744381904
 33
0.0
 40
0.0
 40
0.0
 40
0.0
 40
0.0
 40
0.2825154862
 40
0.4174093858
 40
0.5467954858
 40
0.6700240717
 40
0.786703636
 40
1.0
 40
1.0
 40
1.0
 40
1.0
 10
28.5612819398
 20
11.1858094567
 30
0.0
 10
28.4542017071
 20
11.3384656559
 30
0.0
 10
28.2793571476
 20
11.553276616
 30
0.0
 10
28.0184942162
 20
11.8031612055
 30
0.0
 10
27.818674052
 20
11.9633765628
 30
0.0
 10
27.6142711131
 20
12.0970817091
 30
0.0
 10
27.3477520405
 20
12.2333585087
 30
0.0
 10
27.1362480721
 20
12.2983871874
 30
0.0
 10
26.9968258036
 20
12.3178994101
 30
0.0
 11
28.5612819398
 21
11.1858094567
 31
0.0
 11
28.2063934975
 21
11.6182270975
 31
0.0
 11
28.0132104068
 21
11.8026798371
 31
0.0
 11
27.8129910798
 21
11.9625165102
 31
0.0
 11
27.608457427
 21
12.0955689744
 31
0.0
 11
27.402387967
 21
12.200030866
 31
0.0
 11
26.9968258036
 21
12.3178994101
 31
0.0
  0
SPLINE
  5
46F
100
AcDbEntity
  8
RACCORDO
100
AcDbSpline
 62
7
  6
CONTINUOUS
 70
0
 71
3
 72
11
 73
7
 74
5
 42
0.0000001
 43
0.0000001
 44
0.0000000001
 12
0.0768772183
 22
0.0384386092
 32
0.0
 13
0.0157006903
 23
0.0845051578
 33
0.0
 40
0.0
 40
0.0
 40
0.0
 40
0.0
 40
0.2973937808
 40
0.5606885022
 40
0.7920084545
 40
1.0
 40
1.0
 40
1.0
 40
1.0
 10
29.2275078569
 20
8.6923985687
 30
0.0
 10
29.2351287924
 20
8.6962090365
 30
0.0
 10
29.2490611584
 20
8.7043485663
 30
0.0
 10
29.2665142789
 20
8.7190703604
 30
0.0
 10
29.2787822482
 20
8.7352871903
 30
0.0
 10
29.2832715121
 20
8.7473104674
 30
0.0
 10
29.284360049
 20
8.7531692535
 30
0.0
 11
29.2275078569
 21
8.6923985687
 31
0.0
 11
29.2494648874
 21
8.7054857273
 31
0.0
 11
29.2665775478
 21
8.7202944397
 31
0.0
 11
29.2783075137
 21
8.7363478563
 31
0.0
 11
29.284360049
 21
8.7531692535
 31
0.0
  0
SPLINE
  5
470
100
AcDbEntity
  8
RACCORDO
100
AcDbSpline
 62
253
  6
CONTINUOUS
 70
0
 71
3
 72
11
 73
7
 74
5
 42
0.0000001
 43
0.0000001
 44
0.0000000001
 12
1.2863648608
 22
-0.6431824304
 32
0.0
 13
0.9325283013
 23
-1.094901439
 33
0.0
 40
0.0
 40
0.0
 40
0.0
 40
0.0
 40
0.2314398005
 40
0.4761819756
 40
0.7329463619
 40
1.0
 40
1.0
 40
1.0
 40
1.0
 10
26.71763959
 20
12.417110507
 30
0.0
 10
26.8168782656
 20
12.3674911692
 30
0.0
 10
27.0147336215
 20
12.252401981
 30
0.0
 10
27.2979183866
 20
12.0434028996
 30
0.0
 10
27.5718915172
 20
11.7962508686
 30
0.0
 10
27.7427368219
 20
11.6117052074
 30
0.0
 10
27.8257485137
 20
11.5142394031
 30
0.0
 11
26.71763959
 21
12.417110507
 31
0.0
 11
27.0059287004
 21
12.2507286284
 31
0.0
 11
27.289703544
 21
12.0424800612
 31
0.0
 11
27.5644073211
 21
11.7956918802
 31
0.0
 11
27.8257485137
 21
11.5142394031
 31
0.0
  0
SPLINE
  5
471
100
AcDbEntity
  8
RACCORDO
100
AcDbSpline
 62
253
  6
CONTINUOUS
 70
0
 71
3
 72
15
 73
11
 74
9
 42
0.0000001
 43
0.0000001
 44
0.0000000001
 12
1.2867135125
 22
-2.9973982478
 32
0.0
 13
-1.960753183
 23
-2.6068131645
 33
0.0
 40
0.0
 40
0.0
 40
0.0
 40
0.0
 40
0.1455100505
 40
0.2878165134
 40
0.425147322
 40
0.5559877394
 40
0.6791942627
 40
0.7941253382
 40
0.9007899678
 40
1.0
 40
1.0
 40
1.0
 40
1.0
 10
28.6273308476
 20
10.2134005476
 30
0.0
 10
28.6897407636
 20
10.0680166908
 30
0.0
 10
28.8003228369
 20
9.7747097424
 30
0.0
 10
28.9226428902
 20
9.3282264072
 30
0.0
 10
28.9977538638
 20
8.8874787812
 30
0.0
 10
29.0239914978
 20
8.4618381416
 30
0.0
 10
29.0007083295
 20
8.0602506489
 30
0.0
 10
28.9281098149
 20
7.6910494868
 30
0.0
 10
28.8073929422
 20
7.3621292596
 30
0.0
 10
28.6921719137
 20
7.168170008
 30
0.0
 10
28.6273297849
 20
7.0819626687
 30
0.0
 11
28.6273308476
 21
10.2134005476
 31
0.0
 11
28.7944548171
 21
9.769156527
 31
0.0
 11
28.9164901307
 21
9.3212949813
 31
0.0
 11
28.9907873976
 21
8.8795391739
 31
0.0
 11
29.0157335868
 21
8.4534797753
 31
0.0
 11
28.9907871169
 21
8.0523667316
 31
0.0
 11
28.9164895754
 21
7.6849084038
 31
0.0
 11
28.7944539989
 21
7.3590824268
 31
0.0
 11
28.6273297849
 21
7.0819626687
 31
0.0
  0
SPLINE
  5
472
100
AcDbEntity
  8
RACCORDO
100
AcDbSpline
 62
253
  6
CONTINUOUS
 70
0
 71
3
 72
9
 73
5
 74
3
 42
0.0000001
 43
0.0000001
 44
0.0000000001
 12
0.2532844497
 22
0.4594213142
 32
0.0
 13
0.0938459941
 23
0.5161529674
 33
0.0
 40
0.0
 40
0.0
 40
0.0
 40
0.0
 40
0.2370105479
 40
1.0
 40
1.0
 40
1.0
 40
1.0
 10
29.0578520235
 20
8.1973796255
 30
0.0
 10
29.0778623856
 20
8.2336755247
 30
0.0
 10
29.155039203
 20
8.3908037946
 30
0.0
 10
29.2036400223
 20
8.5611254788
 30
0.0
 10
29.2275078569
 20
8.6923985687
 30
0.0
 11
29.0578520235
 21
8.1973796255
 31
0.0
 11
29.112840597
 21
8.3088987662
 31
0.0
 11
29.2275078569
 21
8.6923985687
 31
0.0
  0
SPLINE
  5
473
100
AcDbEntity
  8
RACCORDO
100
AcDbSpline
 62
253
  6
CONTINUOUS
 70
0
 71
3
 72
11
 73
7
 74
5
 42
0.0000001
 43
0.0000001
 44
0.0000000001
 12
1.1279168394
 22
0.1963909732
 32
0.0
 13
1.0240178947
 23
-0.5120089474
 33
0.0
 40
0.0
 40
0.0
 40
0.0
 40
0.0
 40
0.2289423501
 40
0.470116998
 40
0.7266073712
 40
1.0
 40
1.0
 40
1.0
 40
1.0
 10
25.6095344945
 20
12.6223489899
 30
0.0
 10
25.6956104718
 20
12.6373363935
 30
0.0
 10
25.8757988174
 20
12.6504455332
 30
0.0
 10
26.1527615123
 20
12.6208846037
 30
0.0
 10
26.4377891361
 20
12.5435716877
 30
0.0
 10
26.6243199419
 20
12.4637703311
 30
0.0
 10
26.71763959
 20
12.417110507
 30
0.0
 11
25.6095344945
 21
12.6223489899
 31
0.0
 11
25.8708749426
 21
12.6424595698
 31
0.0
 11
26.1455778166
 21
12.6145436121
 31
0.0
 11
26.4293515735
 21
12.5390173673
 31
0.0
 11
26.71763959
 21
12.417110507
 31
0.0
  0
SPLINE
  5
474
100
AcDbEntity
  8
0
100
AcDbSpline
 62
7
  6
CONTINUOUS
 70
0
 71
3
 72
9
 73
5
 74
3
 42
0.0000001
 43
0.0000001
 44
0.0000000001
 12
0.4880520957
 22
0.2609610194
 32
0.0
 13
0.5021129405
 23
0.2327618885
 33
0.0
 40
0.0
 40
0.0
 40
0.0
 40
0.0
 40
0.2571774263
 40
1.0
 40
1.0
 40
1.0
 40
1.0
 10
3.3705285203
 20
27.432281367
 30
0.0
 10
3.4123671809
 20
27.4546524614
 30
0.0
 10
3.5756176057
 20
27.5405723443
 30
0.0
 10
3.7411763249
 20
27.6221351454
 30
0.0
 10
3.8655032672
 20
27.6797687404
 30
0.0
 11
3.3705285203
 21
27.432281367
 31
0.0
 11
3.4964885002
 21
27.4985575917
 31
0.0
 11
3.8655032672
 21
27.6797687404
 31
0.0
  0
LINE
  5
475
100
AcDbEntity
  8
0
100
AcDbLine
 62
7
  6
CONTINUOUS
 10
3.0511075092
 20
28.4603978998
 11
3.020448638
 21
28.4351647692
  0
SPLINE
  5
476
100
AcDbEntity
  8
0
100
AcDbSpline
 62
7
  6
CONTINUOUS
 70
0
 71
3
 72
9
 73
5
 74
3
 42
0.0000001
 43
0.0000001
 44
0.0000000001
 12
-0.6437418152
 22
0.0914051423
 32
0.0
 13
-0.6479928939
 23
-0.0535129343
 33
0.0
 40
0.0
 40
0.0
 40
0.0
 40
0.0
 40
0.24475149
 40
1.0
 40
1.0
 40
1.0
 40
1.0
 10
4.7681900922
 20
28.6999654707
 30
0.0
 10
4.7156711693
 20
28.7074226523
 30
0.0
 10
4.5002105194
 20
28.7315271274
 30
0.0
 10
4.2821157753
 20
28.730300577
 30
0.0
 10
4.1189838861
 20
28.7168287223
 30
0.0
 11
4.7681900922
 21
28.6999654707
 31
0.0
 11
4.6100447482
 21
28.7177044529
 31
0.0
 11
4.1189838861
 21
28.7168287223
 31
0.0
  0
SPLINE
  5
477
100
AcDbEntity
  8
0
100
AcDbSpline
 62
7
  6
CONTINUOUS
 70
0
 71
3
 72
9
 73
5
 74
3
 42
0.0000001
 43
0.0000001
 44
0.0000000001
 12
-1.0973690193
 22
-0.0906235806
 32
0.0
 13
-1.0258981305
 23
-0.399955527
 33
0.0
 40
0.0
 40
0.0
 40
0.0
 40
0.0
 40
0.4850582188
 40
1.0
 40
1.0
 40
1.0
 40
1.0
 10
4.1189838861
 20
28.7168287223
 30
0.0
 10
3.9415545988
 20
28.7021761515
 30
0.0
 10
3.5778935726
 20
28.6414002157
 30
0.0
 10
3.2272001128
 20
28.5290491703
 30
0.0
 10
3.0511075092
 20
28.4603978998
 30
0.0
 11
4.1189838861
 21
28.7168287223
 31
0.0
 11
3.5918120877
 21
28.6310817493
 31
0.0
 11
3.0511075092
 21
28.4603978998
 31
0.0
  0
SPLINE
  5
478
100
AcDbEntity
  8
0
100
AcDbSpline
 62
7
  6
CONTINUOUS
 70
0
 71
3
 72
9
 73
5
 74
3
 42
0.0000001
 43
0.0000001
 44
0.0000000001
 12
-1.9392383268
 22
-1.1832089864
 32
0.0
 13
-1.496568806
 23
-1.7090671732
 33
0.0
 40
0.0
 40
0.0
 40
0.0
 40
0.0
 40
0.482167634
 40
1.0
 40
1.0
 40
1.0
 40
1.0
 10
2.230199872
 20
28.0499440812
 30
0.0
 10
1.9185205534
 20
27.859775722
 30
0.0
 10
1.3075706631
 20
27.4058837713
 30
0.0
 10
0.7714412109
 20
26.8674325018
 30
0.0
 10
0.5131172891
 20
26.5724290691
 30
0.0
 11
2.230199872
 21
28.0499440812
 31
0.0
 11
1.3467547037
 21
27.4024128798
 31
0.0
 11
0.5131172891
 21
26.5724290691
 31
0.0
  0
SPLINE
  5
479
100
AcDbEntity
  8
0
100
AcDbSpline
 62
7
  6
CONTINUOUS
 70
0
 71
3
 72
9
 73
5
 74
3
 42
0.0000001
 43
0.0000001
 44
0.0000000001
 12
0.5913552834
 22
-0.4176621013
 32
0.0
 13
0.5458992241
 23
-0.4755383678
 33
0.0
 40
0.0
 40
0.0
 40
0.0
 40
0.0
 40
0.2452957898
 40
1.0
 40
1.0
 40
1.0
 40
1.0
 10
2.8018745822
 20
27.8800743855
 30
0.0
 10
2.8502269026
 20
27.8459241339
 30
0.0
 10
3.0454649136
 20
27.7040526237
 30
0.0
 10
3.2331977061
 20
27.5519116364
 30
0.0
 10
3.3705285203
 20
27.432281367
 30
0.0
 11
2.8018745822
 21
27.8800743855
 31
0.0
 11
2.9455574376
 21
27.7757052509
 31
0.0
 11
3.3705285203
 21
27.432281367
 31
0.0
  0
SPLINE
  5
47A
100
AcDbEntity
  8
0
100
AcDbSpline
 62
7
  6
CONTINUOUS
 70
0
 71
3
 72
9
 73
5
 74
3
 42
0.0000001
 43
0.0000001
 44
0.0000000001
 12
0.5769268588
 22
-0.0743600027
 32
0.0
 13
0.558122149
 23
-0.1639319286
 33
0.0
 40
0.0
 40
0.0
 40
0.0
 40
0.0
 40
0.2442344533
 40
1.0
 40
1.0
 40
1.0
 40
1.0
 10
0.7086973329
 20
28.7631969607
 30
0.0
 10
0.7556658049
 20
28.7571432025
 30
0.0
 10
0.9474412631
 20
28.7283027404
 30
0.0
 10
1.1367481073
 20
28.6836340756
 30
0.0
 10
1.277351271
 20
28.6423360411
 30
0.0
 11
0.7086973329
 21
28.7631969607
 31
0.0
 11
0.8491948993
 21
28.7421113738
 31
0.0
 11
1.277351271
 21
28.6423360411
 31
0.0
  0
SPLINE
  5
47B
100
AcDbEntity
  8
0
100
AcDbSpline
 62
7
  6
CONTINUOUS
 70
0
 71
3
 72
9
 73
5
 74
3
 42
0.0000001
 43
0.0000001
 44
0.0000000001
 12
-0.2659486032
 22
0.2205631897
 32
0.0
 13
-0.2873089502
 23
0.1919123428
 33
0.0
 40
0.0
 40
0.0
 40
0.0
 40
0.0
 40
0.2587982878
 40
1.0
 40
1.0
 40
1.0
 40
1.0
 10
1.5537519592
 20
28.435164832
 30
0.0
 10
1.5308096115
 20
28.4541919573
 30
0.0
 10
1.4413818278
 20
28.5267638816
 30
0.0
 10
1.3483358996
 20
28.5949207887
 30
0.0
 10
1.277351271
 20
28.6423360411
 30
0.0
 11
1.5537519592
 21
28.435164832
 31
0.0
 11
1.484279766
 21
28.4914592342
 31
0.0
 11
1.277351271
 21
28.6423360411
 31
0.0
  0
SPLINE
  5
47C
100
AcDbEntity
  8
0
100
AcDbSpline
 62
7
  6
CONTINUOUS
 70
0
 71
3
 72
9
 73
5
 74
3
 42
0.0000001
 43
0.0000001
 44
0.0000000001
 12
-0.1274804469
 22
-0.1455814435
 32
0.0
 13
-0.0134783704
 23
-0.1930377025
 33
0.0
 40
0.0
 40
0.0
 40
0.0
 40
0.0
 40
0.507387869
 40
1.0
 40
1.0
 40
1.0
 40
1.0
 10
0.5131172891
 20
26.5724290691
 30
0.0
 10
0.4915566116
 20
26.547806983
 30
0.0
 10
0.4570365251
 20
26.492065602
 30
0.0
 10
0.4398205039
 20
26.4285150343
 30
0.0
 10
0.437607301
 20
26.396817463
 30
0.0
 11
0.5131172891
 21
26.5724290691
 31
0.0
 11
0.4609812663
 21
26.4892315658
 31
0.0
 11
0.437607301
 21
26.396817463
 31
0.0
  0
SPLINE
  5
47D
100
AcDbEntity
  8
0
100
AcDbSpline
 62
7
  6
CONTINUOUS
 70
0
 71
3
 72
11
 73
7
 74
5
 42
0.0000001
 43
0.0000001
 44
0.0000000001
 12
0.0954403462
 22
-0.0512796546
 32
0.0
 13
0.0081098893
 23
-0.1080402349
 33
0.0
 40
0.0
 40
0.0
 40
0.0
 40
0.0
 40
0.221508124
 40
0.4568752288
 40
0.7150321189
 40
1.0
 40
1.0
 40
1.0
 40
1.0
 10
4.0871765457
 20
29.0450476699
 30
0.0
 10
4.0942234831
 20
29.0412613832
 30
0.0
 10
4.1075670369
 20
29.0310281868
 30
0.0
 10
4.1226669292
 20
29.0096905029
 30
0.0
 10
4.1327477403
 20
28.9831866819
 30
0.0
 10
4.1358229464
 20
28.9636799088
 30
0.0
 10
4.136593299
 20
28.9534172432
 30
0.0
 11
4.0871765457
 21
29.0450476699
 31
0.0
 11
4.1062936272
 21
29.0305392299
 31
0.0
 11
4.1212687375
 21
29.0098987454
 31
0.0
 11
4.1315063866
 21
28.9838699123
 31
0.0
 11
4.136593299
 21
28.9534172432
 31
0.0
  0
SPLINE
  5
47E
100
AcDbEntity
  8
0
100
AcDbSpline
 62
7
  6
CONTINUOUS
 70
0
 71
3
 72
19
 73
15
 74
13
 42
0.0000001
 43
0.0000001
 44
0.0000000001
 12
-5.2787905855
 22
1.8680881322
 32
0.0
 13
-0.5635357
 23
-5.5711588409
 33
0.0
 40
0.0
 40
0.0
 40
0.0
 40
0.0
 40
0.1353256578
 40
0.2797534573
 40
0.4263167997
 40
0.5676766938
 40
0.6343836672
 40
0.6975444356
 40
0.7567514256
 40
0.8118556328
 40
0.863035017
 40
0.9108612555
 40
0.9561332768
 40
1.0
 40
1.0
 40
1.0
 40
1.0
 10
4.0617509021
 20
29.0550168533
 30
0.0
 10
3.8236322994
 20
29.1392836051
 30
0.0
 10
3.3149015468
 20
29.2683097781
 30
0.0
 10
2.5212752911
 20
29.3516720088
 30
0.0
 10
1.7122891404
 20
29.3291570427
 30
0.0
 10
1.0565908744
 20
29.2212786757
 30
0.0
 10
0.5697918385
 20
29.0804135191
 30
0.0
 10
0.2401387516
 20
28.9529776544
 30
0.0
 10
-0.0560228935
 20
28.8031862317
 30
0.0
 10
-0.3142628261
 20
28.6321981421
 30
0.0
 10
-0.5305880199
 20
28.4409092718
 30
0.0
 10
-0.7001718906
 20
28.2296769375
 30
0.0
 10
-0.8173972743
 20
28.0002485652
 30
0.0
 10
-0.8560755319
 20
27.8362734485
 30
0.0
 10
-0.8643156868
 20
27.7548106209
 30
0.0
 11
4.0617509021
 21
29.0550168533
 31
0.0
 11
3.3286329488
 21
29.2467204168
 31
0.0
 11
2.524566595
 21
29.3335043183
 31
0.0
 11
1.7042067629
 21
29.3100761005
 31
0.0
 11
0.9237622917
 21
29.1779052771
 31
0.0
 11
0.5651845948
 21
29.0732732726
 31
0.0
 11
0.2356814678
 21
28.9447696672
 31
0.0
 11
-0.059547519
 21
28.7939216391
 31
0.0
 11
-0.3159092444
 21
28.6221995931
 31
0.0
 11
-0.5292546445
 21
28.4308522211
 31
0.0
 11
-0.6953237431
 21
28.2207528118
 31
0.0
 11
-0.8088977871
 21
27.9941131246
 31
0.0
 11
-0.8643156868
 21
27.7548106209
 31
0.0
  0
SPLINE
  5
47F
100
AcDbEntity
  8
0
100
AcDbSpline
 62
7
  6
CONTINUOUS
 70
0
 71
3
 72
9
 73
5
 74
3
 42
0.0000001
 43
0.0000001
 44
0.0000000001
 12
-0.029686505
 22
0.0206390688
 32
0.0
 13
-0.0357969914
 23
0.0050828283
 33
0.0
 40
0.0
 40
0.0
 40
0.0
 40
0.0
 40
0.7456622822
 40
1.0
 40
1.0
 40
1.0
 40
1.0
 10
4.8017166283
 20
28.6869325058
 30
0.0
 10
4.7943379259
 20
28.6920624308
 30
0.0
 10
4.78305734
 20
28.6971999261
 30
0.0
 10
4.7712249339
 20
28.6995345524
 30
0.0
 10
4.7681900922
 20
28.6999654707
 30
0.0
 11
4.8017166283
 21
28.6869325058
 31
0.0
 11
4.7772080922
 21
28.6981656742
 31
0.0
 11
4.7681900922
 21
28.6999654707
 31
0.0
  0
SPLINE
  5
480
100
AcDbEntity
  8
0
100
AcDbSpline
 62
7
  6
CONTINUOUS
 70
0
 71
3
 72
11
 73
7
 74
5
 42
0.0000001
 43
0.0000001
 44
0.0000000001
 12
-0.1170061954
 22
1.1567325725
 32
0.0
 13
-0.9544335872
 23
0.6639105525
 33
0.0
 40
0.0
 40
0.0
 40
0.0
 40
0.0
 40
0.2305831964
 40
0.469922972
 40
0.7248063438
 40
1.0
 40
1.0
 40
1.0
 40
1.0
 10
5.4385162868
 20
27.7548106209
 30
0.0
 10
5.429523066
 20
27.8437183189
 30
0.0
 10
5.3848904427
 20
28.0230723412
 30
0.0
 10
5.2480503876
 20
28.2712489518
 30
0.0
 10
5.0503606988
 20
28.4969565485
 30
0.0
 10
4.8892814942
 20
28.6260152985
 30
0.0
 10
4.8017301381
 20
28.6869166226
 30
0.0
 11
5.4385162868
 21
27.7548106209
 31
0.0
 11
5.3751073999
 21
28.0152879214
 31
0.0
 11
5.2430871989
 21
28.260240972
 31
0.0
 11
5.0498256669
 21
28.4848856602
 31
0.0
 11
4.8017301381
 21
28.6869166226
 31
0.0
  0
SPLINE
  5
481
100
AcDbEntity
  8
0
100
AcDbSpline
 62
7
  6
CONTINUOUS
 70
0
 71
3
 72
9
 73
5
 74
3
 42
0.0000001
 43
0.0000001
 44
0.0000000001
 12
1.1723450557
 22
0.0142789549
 32
0.0
 13
1.1480684581
 23
0.2377722309
 33
0.0
 40
0.0
 40
0.0
 40
0.0
 40
0.0
 40
0.5072302643
 40
1.0
 40
1.0
 40
1.0
 40
1.0
 10
2.3662215486
 20
25.1146161625
 30
0.0
 10
2.5644378461
 20
25.1170304018
 30
0.0
 10
2.9552125207
 20
25.1395829733
 30
0.0
 10
3.3422436583
 20
25.198774427
 30
0.0
 10
3.5308214552
 20
25.2378300801
 30
0.0
 11
2.3662215486
 21
25.1146161625
 31
0.0
 11
2.9599001824
 21
25.1493356401
 31
0.0
 11
3.5308214552
 21
25.2378300801
 31
0.0
  0
SPLINE
  5
482
100
AcDbEntity
  8
0
100
AcDbSpline
 62
7
  6
CONTINUOUS
 70
0
 71
3
 72
9
 73
5
 74
3
 42
0.0000001
 43
0.0000001
 44
0.0000000001
 12
0.9892378315
 22
0.2241049464
 32
0.0
 13
0.9072219196
 23
0.4536109598
 33
0.0
 40
0.0
 40
0.0
 40
0.0
 40
0.0
 40
0.520840539
 40
1.0
 40
1.0
 40
1.0
 40
1.0
 10
3.6283633207
 20
25.2589730029
 30
0.0
 10
3.8001083758
 20
25.2978806499
 30
0.0
 10
4.1264425336
 20
25.3889348721
 30
0.0
 10
4.4402960169
 20
25.51763514
 30
0.0
 10
4.5851973389
 20
25.590085801
 30
0.0
 11
3.6283633207
 21
25.2589730029
 31
0.0
 11
4.1366587998
 21
25.4029425363
 31
0.0
 11
4.5851973389
 21
25.590085801
 31
0.0
  0
SPLINE
  5
483
100
AcDbEntity
  8
0
100
AcDbSpline
 62
7
  6
CONTINUOUS
 70
0
 71
3
 72
14
 73
10
 74
8
 42
0.0000001
 43
0.0000001
 44
0.0000000001
 12
0.1659842488
 22
-1.6409147225
 32
0.0
 13
-1.4751683016
 23
-0.7375841508
 33
0.0
 40
0.0
 40
0.0
 40
0.0
 40
0.0
 40
0.1029063546
 40
0.207532371
 40
0.3169817379
 40
0.4337828166
 40
0.5597356371
 40
0.6959255685
 40
1.0
 40
1.0
 40
1.0
 40
1.0
 10
5.5329506144
 20
26.8212175409
 30
0.0
 10
5.5386442257
 20
26.7649306901
 30
0.0
 10
5.5382539224
 20
26.6498436357
 30
0.0
 10
5.5010843585
 20
26.478403767
 30
0.0
 10
5.4282340541
 20
26.3105691975
 30
0.0
 10
5.3210475507
 20
26.1483105826
 30
0.0
 10
5.1810376585
 20
25.9931195131
 30
0.0
 10
4.9441465869
 20
25.7902089152
 30
0.0
 10
4.7347176598
 20
25.6648459615
 30
0.0
 10
4.5851973389
 20
25.590085801
 30
0.0
 11
5.5329506144
 21
26.8212175409
 31
0.0
 11
5.5323696707
 21
26.6514962885
 31
0.0
 11
5.4963875694
 21
26.4827310309
 31
0.0
 11
5.4253968571
 21
26.3167627682
 31
0.0
 11
5.3201717717
 21
26.1554018937
 31
0.0
 11
5.1818606637
 21
26.0004088795
 31
0.0
 11
5.0119706922
 21
25.8534736832
 31
0.0
 11
4.5851973389
 21
25.590085801
 31
0.0
  0
LINE
  5
484
100
AcDbEntity
  8
0
100
AcDbLine
 62
7
  6
CONTINUOUS
 10
4.136593299
 20
28.9534172432
 11
4.1541839442
 21
28.7190498562
  0
LINE
  5
485
100
AcDbEntity
  8
0
100
AcDbLine
 62
7
  6
CONTINUOUS
 10
0.437607301
 20
26.396817463
 11
0.4200166559
 21
26.1448594308
  0
SPLINE
  5
486
100
AcDbEntity
  8
0
100
AcDbSpline
 62
7
  6
CONTINUOUS
 70
0
 71
3
 72
9
 73
5
 74
3
 42
0.0000001
 43
0.0000001
 44
0.0000000001
 12
1.3395582596
 22
0.4177965489
 32
0.0
 13
1.3923442092
 23
-0.1742064582
 33
0.0
 40
0.0
 40
0.0
 40
0.0
 40
0.0
 40
0.5183099603
 40
1.0
 40
1.0
 40
1.0
 40
1.0
 10
2.6292276823
 20
28.9140727436
 30
0.0
 10
2.8606631451
 20
28.9862554478
 30
0.0
 10
3.3207720828
 20
29.0870111211
 30
0.0
 10
3.793288803
 20
29.0873967342
 30
0.0
 10
4.0168482488
 20
29.0594255623
 30
0.0
 11
2.6292276823
 21
28.9140727436
 31
0.0
 11
3.340954527
 21
29.0637368495
 31
0.0
 11
4.0168482488
 21
29.0594255623
 31
0.0
  0
SPLINE
  5
487
100
AcDbEntity
  8
0
100
AcDbSpline
 62
7
  6
CONTINUOUS
 70
0
 71
3
 72
9
 73
5
 74
3
 42
0.0000001
 43
0.0000001
 44
0.0000000001
 12
-0.5581118884
 22
0.1639289148
 32
0.0
 13
-0.5769162525
 23
0.0743586357
 33
0.0
 40
0.0
 40
0.0
 40
0.0
 40
0.0
 40
0.2560892103
 40
1.0
 40
1.0
 40
1.0
 40
1.0
 10
1.7723260179
 20
28.8898234145
 30
0.0
 10
1.7246838736
 20
28.90381689
 30
0.0
 10
1.5376733188
 20
28.9550509123
 30
0.0
 10
1.3467301547
 20
28.9922456037
 30
0.0
 10
1.2036720797
 20
29.0106843341
 30
0.0
 11
1.7723260179
 21
28.8898234145
 31
0.0
 11
1.6286431959
 21
28.9291371277
 31
0.0
 11
1.2036720797
 21
29.0106843341
 31
0.0
  0
SPLINE
  5
488
100
AcDbEntity
  8
0
100
AcDbSpline
 62
253
  6
CONTINUOUS
 70
0
 71
3
 72
13
 73
9
 74
7
 42
0.0000001
 43
0.0000001
 44
0.0000000001
 12
-0.1232536773
 22
-1.2177419822
 32
0.0
 13
1.0068727634
 23
-0.695912525
 33
0.0
 40
0.0
 40
0.0
 40
0.0
 40
0.0
 40
0.1090307788
 40
0.2189987191
 40
0.3321443526
 40
0.450434519
 40
0.7079351657
 40
1.0
 40
1.0
 40
1.0
 40
1.0
 10
-0.8643119117
 20
27.7548105254
 30
0.0
 10
-0.8687913931
 20
27.7105534065
 30
0.0
 10
-0.8702890544
 20
27.6207088506
 30
0.0
 10
-0.8494782552
 20
27.4861936899
 30
0.0
 10
-0.8058715037
 20
27.3532847144
 30
0.0
 10
-0.7155235487
 20
27.1746962459
 30
0.0
 10
-0.542758583
 20
26.9601629272
 30
0.0
 10
-0.3675235225
 20
26.818121379
 30
0.0
 10
-0.2694994802
 20
26.7503708536
 30
0.0
 11
-0.8643119117
 21
27.7548105254
 31
0.0
 11
-0.8665103345
 21
27.6213789254
 31
0.0
 11
-0.8461504022
 21
27.4883309594
 31
0.0
 11
-0.8033724883
 21
27.3566174005
 31
0.0
 11
-0.7384957917
 21
27.2271836656
 31
0.0
 11
-0.5444395759
 21
26.978838713
 31
0.0
 11
-0.2694994802
 21
26.7503708536
 31
0.0
  0
SPLINE
  5
489
100
AcDbEntity
  8
0
100
AcDbSpline
 62
7
  6
CONTINUOUS
 70
0
 71
3
 72
9
 73
5
 74
3
 42
0.0000001
 43
0.0000001
 44
0.0000000001
 12
1.4965688059
 22
1.7090671732
 32
0.0
 13
1.9392383267
 23
1.1832089864
 33
0.0
 40
0.0
 40
0.0
 40
0.0
 40
0.0
 40
0.5178322964
 40
1.0
 40
1.0
 40
1.0
 40
1.0
 10
-0.1939894921
 20
26.9259824597
 30
0.0
 10
0.064334395
 20
27.2209858527
 30
0.0
 10
0.6004638417
 20
27.7594371261
 30
0.0
 10
1.2114137273
 20
28.2133290852
 30
0.0
 10
1.5230930908
 20
28.4034974718
 30
0.0
 11
-0.1939894921
 21
26.9259824597
 31
0.0
 11
0.6396478023
 21
27.7559661671
 31
0.0
 11
1.5230930908
 21
28.4034974718
 31
0.0
  0
LINE
  5
48A
100
AcDbEntity
  8
0
100
AcDbLine
 62
7
  6
CONTINUOUS
 10
-0.2870901253
 20
26.4984128214
 11
-0.2694994802
 21
26.7503708536
  0
SPLINE
  5
48B
100
AcDbEntity
  8
0
100
AcDbSpline
 62
253
  6
CONTINUOUS
 70
0
 71
3
 72
14
 73
10
 74
8
 42
0.0000001
 43
0.0000001
 44
0.0000000001
 12
1.4322462496
 22
0.7161231248
 32
0.0
 13
-0.1612118234
 23
1.5931642719
 33
0.0
 40
0.0
 40
0.0
 40
0.0
 40
0.0
 40
0.3040577776
 40
0.440244719
 40
0.5662017727
 40
0.6830084595
 40
0.7924619902
 40
0.897091085
 40
1.0
 40
1.0
 40
1.0
 40
1.0
 10
4.5183361447
 20
26.5594994307
 30
0.0
 10
4.6634980153
 20
26.632080366
 30
0.0
 10
4.8668232379
 20
26.7537909144
 30
0.0
 10
5.0968204362
 20
26.9507863269
 30
0.0
 10
5.2327587745
 20
27.10146518
 30
0.0
 10
5.3368327476
 20
27.2590066441
 30
0.0
 10
5.4075763056
 20
27.4219606024
 30
0.0
 10
5.4436577274
 20
27.5884188537
 30
0.0
 10
5.4440426603
 20
27.7001602591
 30
0.0
 10
5.4385126157
 20
27.754810528
 30
0.0
 11
4.5183361447
 21
26.5594994307
 31
0.0
 11
4.9326703282
 21
26.8152079207
 31
0.0
 11
5.0976161404
 21
26.9578616453
 31
0.0
 11
5.2319082924
 21
27.1083491944
 31
0.0
 11
5.3340798144
 21
27.2650204876
 31
0.0
 11
5.4030132279
 21
27.4261633881
 31
0.0
 11
5.4379473256
 21
27.5900234533
 31
0.0
 11
5.4385126157
 21
27.754810528
 31
0.0
  0
SPLINE
  5
48C
100
AcDbEntity
  8
0
100
AcDbSpline
 62
253
  6
CONTINUOUS
 70
0
 71
3
 72
15
 73
11
 74
9
 42
0.0000001
 43
0.0000001
 44
0.0000000001
 12
3.9295981376
 22
-1.4213730872
 32
0.0
 13
3.7375974076
 23
1.8687987037
 33
0.0
 40
0.0
 40
0.0
 40
0.0
 40
0.0
 40
0.1192556176
 40
0.2459291734
 40
0.3773050017
 40
0.5103767428
 40
0.6420529517
 40
0.7693185465
 40
0.889404533
 40
1.0
 40
1.0
 40
1.0
 40
1.0
 10
0.437607301
 20
26.396817463
 30
0.0
 10
0.5938161853
 20
26.3403152212
 30
0.0
 10
0.9232482732
 20
26.2434245594
 30
0.0
 10
1.4406115499
 20
26.1468466013
 30
0.0
 10
1.9838398209
 20
26.0965783523
 30
0.0
 10
2.5363045881
 20
26.0942205137
 30
0.0
 10
3.0811630864
 20
26.1398207689
 30
0.0
 10
3.6018484669
 20
26.2319993693
 30
0.0
 10
4.0824617741
 20
26.367857566
 30
0.0
 10
4.3805490345
 20
26.4906058756
 30
0.0
 10
4.5183361447
 20
26.5594994307
 30
0.0
 11
0.437607301
 21
26.396817463
 31
0.0
 11
0.9151428975
 21
26.2543280817
 31
0.0
 11
1.4352639776
 21
26.1559750594
 31
0.0
 11
1.9818613963
 21
26.1047961294
 31
0.0
 11
2.5379311877
 21
26.1023907946
 31
0.0
 11
3.0862114675
 21
26.1488292709
 31
0.0
 11
3.6096785269
 21
26.2426736571
 31
0.0
 11
4.0920482874
 21
26.3809969105
 31
0.0
 11
4.5183361447
 21
26.5594994307
 31
0.0
  0
SPLINE
  5
48D
100
AcDbEntity
  8
0
100
AcDbSpline
 62
7
  6
CONTINUOUS
 70
0
 71
3
 72
9
 73
5
 74
3
 42
0.0000001
 43
0.0000001
 44
0.0000000001
 12
-0.7446962051
 22
0.2700674532
 32
0.0
 13
-0.6522013361
 23
0.4496023625
 33
0.0
 40
0.0
 40
0.0
 40
0.0
 40
0.0
 40
0.523637549
 40
1.0
 40
1.0
 40
1.0
 40
1.0
 10
0.4200166559
 20
26.1448594308
 30
0.0
 10
0.290033024
 20
26.1919985839
 30
0.0
 10
0.0461082035
 20
26.2946492724
 30
0.0
 10
-0.1835287163
 20
26.4270215936
 30
0.0
 10
-0.2870901253
 20
26.4984128214
 30
0.0
 11
0.4200166559
 21
26.1448594308
 31
0.0
 11
0.038494323
 21
26.307651655
 31
0.0
 11
-0.2870901253
 21
26.4984128214
 31
0.0
  0
LINE
  5
48E
100
AcDbEntity
  8
0
100
AcDbLine
 62
253
  6
CONTINUOUS
 10
1.305156137
 20
26.3691415633
 11
1.3108755599
 21
26.3681722576
  0
SPLINE
  5
48F
100
AcDbEntity
  8
0
100
AcDbSpline
 62
253
  6
CONTINUOUS
 70
0
 71
3
 72
11
 73
7
 74
5
 42
0.0000001
 43
0.0000001
 44
0.0000000001
 12
2.4609217233
 22
-0.4157102969
 32
0.0
 13
2.4020156686
 23
0.6776957336
 33
0.0
 40
0.0
 40
0.0
 40
0.0
 40
0.0
 40
0.2513654743
 40
0.5073778166
 40
0.7596247699
 40
1.0
 40
1.0
 40
1.0
 40
1.0
 10
1.3108755599
 20
26.3681722576
 30
0.0
 10
1.5170724787
 20
26.3333405189
 30
0.0
 10
1.93760302
 20
26.2869267178
 30
0.0
 10
2.5706345202
 20
26.2835155471
 30
0.0
 10
3.1915124904
 20
26.3450341847
 30
0.0
 10
3.5935056352
 20
26.4305005628
 30
0.0
 10
3.7859673248
 20
26.4848009855
 30
0.0
 11
1.3108755599
 21
26.3681722576
 31
0.0
 11
1.9343139951
 21
26.2981844622
 31
0.0
 11
2.5732565289
 21
26.2946744869
 31
0.0
 11
3.1996378285
 21
26.3578046755
 31
0.0
 11
3.7859673248
 21
26.4848009855
 31
0.0
  0
SPLINE
  5
490
100
AcDbEntity
  8
0
100
AcDbSpline
 62
253
  6
CONTINUOUS
 70
0
 71
3
 72
20
 73
16
 74
14
 42
0.0000001
 43
0.0000001
 44
0.0000000001
 12
2.8080651128
 22
0.9805421636
 32
0.0
 13
-2.4090404811
 23
1.7444817491
 33
0.0
 40
0.0
 40
0.0
 40
0.0
 40
0.0
 40
0.1656013981
 40
0.3124846218
 40
0.3786890381
 40
0.4402201511
 40
0.4975338106
 40
0.5513659586
 40
0.6027527306
 40
0.6529751043
 40
0.7034511497
 40
0.7555680184
 40
0.868922228
 40
0.9320920896
 40
1.0
 40
1.0
 40
1.0
 40
1.0
 10
4.0334639394
 20
26.5626703702
 30
0.0
 10
4.1884704422
 20
26.6167967546
 30
0.0
 10
4.4752240503
 20
26.7368453467
 30
0.0
 10
4.7966450624
 20
26.9353216909
 30
0.0
 10
5.0030793236
 20
27.1136816566
 30
0.0
 10
5.1268242894
 20
27.2498286323
 30
0.0
 10
5.2236382553
 20
27.3917968513
 30
0.0
 10
5.2923234067
 20
27.5384280181
 30
0.0
 10
5.3319252442
 20
27.6883044674
 30
0.0
 10
5.3416397317
 20
27.8397550182
 30
0.0
 10
5.3213110276
 20
27.990877678
 30
0.0
 10
5.2528480679
 20
28.1949113669
 30
0.0
 10
5.1242296268
 20
28.3867484256
 30
0.0
 10
4.9531638694
 20
28.5586749439
 30
0.0
 10
4.8514004125
 20
28.6400697983
 30
0.0
 10
4.796869444
 20
28.6795578351
 30
0.0
 11
4.0334639394
 21
26.5626703702
 31
0.0
 11
4.4863556322
 21
26.756317594
 31
0.0
 11
4.8552958502
 21
26.9902998375
 31
0.0
 11
5.0037443598
 21
27.1196764679
 31
0.0
 11
5.12620242
 21
27.2556848889
 31
0.0
 11
5.2215095668
 21
27.3970236849
 31
0.0
 11
5.2887346944
 21
27.5423426932
 31
0.0
 11
5.3272609512
 21
27.6902491064
 31
0.0
 11
5.3366915098
 21
27.8393294899
 31
0.0
 11
5.3169595836
 21
27.9881600317
 31
0.0
 11
5.2682326899
 21
28.1353157086
 31
0.0
 11
5.0860040044
 21
28.4189799888
 31
0.0
 11
4.9541506051
 21
28.5528336446
 31
0.0
 11
4.796869444
 21
28.6795578351
 31
0.0
  0
SPLINE
  5
491
100
AcDbEntity
  8
0
100
AcDbSpline
 62
253
  6
CONTINUOUS
 70
0
 71
3
 72
10
 73
6
 74
4
 42
0.0000001
 43
0.0000001
 44
0.0000000001
 12
-1.3899468603
 22
0.4969070696
 32
0.0
 13
-1.4739409382
 23
0.0797936157
 33
0.0
 40
0.0
 40
0.0
 40
0.0
 40
0.0
 40
0.2354019113
 40
0.4825056736
 40
1.0
 40
1.0
 40
1.0
 40
1.0
 10
4.061083311
 20
29.0535188613
 30
0.0
 10
3.9520179285
 20
29.0925098193
 30
0.0
 10
3.7248572206
 20
29.1626285442
 30
0.0
 10
3.2447093568
 20
29.2714829971
 30
0.0
 10
2.8695393617
 20
29.3153815176
 30
0.0
 10
2.6152873373
 20
29.3291457654
 30
0.0
 11
4.061083311
 21
29.0535188613
 31
0.0
 11
3.729292106
 21
29.1567398305
 31
0.0
 11
3.3736960323
 21
29.2379417696
 31
0.0
 11
2.6152873373
 21
29.3291457654
 31
0.0
  0
SPLINE
  5
492
100
AcDbEntity
  8
0
100
AcDbSpline
 62
253
  6
CONTINUOUS
 70
0
 71
3
 72
9
 73
5
 74
3
 42
0.0000001
 43
0.0000001
 44
0.0000000001
 12
-1.6253671908
 22
0.0879912631
 32
0.0
 13
-1.5851491486
 23
-0.3699501913
 33
0.0
 40
0.0
 40
0.0
 40
0.0
 40
0.0
 40
0.5084238712
 40
1.0
 40
1.0
 40
1.0
 40
1.0
 10
2.6152873373
 20
29.3291457654
 30
0.0
 10
2.3398288443
 20
29.3440580516
 30
0.0
 10
1.7954993729
 20
29.3365694882
 30
0.0
 10
1.2568032588
 20
29.255496673
 30
0.0
 10
0.9970627648
 20
29.194877112
 30
0.0
 11
2.6152873373
 21
29.3291457654
 31
0.0
 11
1.787784844
 21
29.317422174
 31
0.0
 11
0.9970627648
 21
29.194877112
 31
0.0
  0
SPLINE
  5
493
100
AcDbEntity
  8
0
100
AcDbSpline
 62
253
  6
CONTINUOUS
 70
0
 71
3
 72
22
 73
18
 74
16
 42
0.0000001
 43
0.0000001
 44
0.0000000001
 12
-3.3941795964
 22
-0.7921509419
 32
0.0
 13
2.856284558
 23
-1.9973974995
 33
0.0
 40
0.0
 40
0.0
 40
0.0
 40
0.0
 40
0.1710776108
 40
0.2502221371
 40
0.3244431544
 40
0.3934777604
 40
0.4572716545
 40
0.5160443359
 40
0.5703496505
 40
0.6211229528
 40
0.6696927945
 40
0.7176792904
 40
0.7667892025
 40
0.8185603089
 40
0.8742050828
 40
0.9345615816
 40
1.0
 40
1.0
 40
1.0
 40
1.0
 10
0.9970627648
 20
29.194877112
 30
0.0
 10
0.8035067194
 20
29.1497040151
 30
0.0
 10
0.5236383212
 20
29.0665637507
 30
0.0
 10
0.1767537112
 20
28.9182410032
 30
0.0
 10
-0.0516335881
 20
28.7966190278
 30
0.0
 10
-0.2523088617
 20
28.6631876677
 30
0.0
 10
-0.4229314751
 20
28.5193489808
 30
0.0
 10
-0.5614557775
 20
28.3665983258
 30
0.0
 10
-0.6660861596
 20
28.2064626019
 30
0.0
 10
-0.7350891835
 20
28.0405800753
 30
0.0
 10
-0.7670093919
 20
27.8710537806
 30
0.0
 10
-0.7609346189
 20
27.7005286627
 30
0.0
 10
-0.7170162414
 20
27.5319102879
 30
0.0
 10
-0.6364826427
 20
27.3676625452
 30
0.0
 10
-0.5208363827
 20
27.2096883532
 30
0.0
 10
-0.3718480926
 20
27.0596589317
 30
0.0
 10
-0.2562930735
 20
26.9695513042
 30
0.0
 10
-0.1939894921
 20
26.9259824597
 30
0.0
 11
0.9970627648
 21
29.194877112
 31
0.0
 11
0.4265807056
 21
29.0214090097
 31
0.0
 11
0.1732151892
 21
28.9123265783
 31
0.0
 11
-0.0547405641
 21
28.7900304062
 31
0.0
 11
-0.2545643722
 21
28.6559971878
 31
0.0
 11
-0.4238395206
 21
28.5118306347
 31
0.0
 11
-0.5605367958
 21
28.3592669646
 31
0.0
 11
-0.6630239867
 21
28.2001395915
 31
0.0
 11
-0.7300470376
 21
28.0363578005
 31
0.0
 11
-0.7608235767
 21
27.869894
 31
0.0
 11
-0.7549739845
 21
27.7027445705
 31
0.0
 11
-0.7125539361
 21
27.5369169965
 31
0.0
 11
-0.6341141104
 21
27.374415526
 31
0.0
 11
-0.5205650711
 21
27.2171869178
 31
0.0
 11
-0.3731989201
 21
27.0670633054
 31
0.0
 11
-0.1939894921
 21
26.9259824597
 31
0.0
  0
SPLINE
  5
494
100
AcDbEntity
  8
0
100
AcDbSpline
 62
7
  6
CONTINUOUS
 70
0
 71
3
 72
9
 73
5
 74
3
 42
0.0000001
 43
0.0000001
 44
0.0000000001
 12
0.0134783704
 22
0.193037702
 32
0.0
 13
0.1274804467
 23
0.1455814432
 33
0.0
 40
0.0
 40
0.0
 40
0.0
 40
0.0
 40
0.4926142146
 40
1.0
 40
1.0
 40
1.0
 40
1.0
 10
-0.2694994802
 20
26.7503708536
 30
0.0
 10
-0.2672862679
 20
26.7820685589
 30
0.0
 10
-0.2500701953
 20
26.8456191265
 30
0.0
 10
-0.215550081
 20
26.9013604748
 30
0.0
 10
-0.1939894921
 20
26.9259824597
 30
0.0
 11
-0.2694994802
 21
26.7503708536
 31
0.0
 11
-0.2461253533
 21
26.8427853312
 31
0.0
 11
-0.1939894921
 21
26.9259824597
 31
0.0
  0
SPLINE
  5
495
100
AcDbEntity
  8
0
100
AcDbSpline
 62
7
  6
CONTINUOUS
 70
0
 71
3
 72
9
 73
5
 74
3
 42
0.0000001
 43
0.0000001
 44
0.0000000001
 12
-0.5458959128
 22
0.4755354833
 32
0.0
 13
-0.5913516964
 23
0.4176595678
 33
0.0
 40
0.0
 40
0.0
 40
0.0
 40
0.0
 40
0.2546885217
 40
1.0
 40
1.0
 40
1.0
 40
1.0
 10
3.8655032672
 20
27.6797687404
 30
0.0
 10
3.8191587928
 20
27.7201398835
 30
0.0
 10
3.6352959869
 20
27.8764532508
 30
0.0
 10
3.4437630647
 20
28.0237996023
 30
0.0
 10
3.296849329
 20
28.1275617589
 30
0.0
 11
3.8655032672
 21
27.6797687404
 31
0.0
 11
3.7250057687
 21
27.7991806677
 31
0.0
 11
3.296849329
 21
28.1275617589
 31
0.0
  0
SPLINE
  5
496
100
AcDbEntity
  8
0
100
AcDbSpline
 62
7
  6
CONTINUOUS
 70
0
 71
3
 72
9
 73
5
 74
3
 42
0.0000001
 43
0.0000001
 44
0.0000000001
 12
-0.2646005329
 22
0.3179622526
 32
0.0
 13
-0.2887209004
 23
0.2962324725
 33
0.0
 40
0.0
 40
0.0
 40
0.0
 40
0.0
 40
0.2567850632
 40
1.0
 40
1.0
 40
1.0
 40
1.0
 10
3.296849329
 20
28.1275617589
 30
0.0
 10
3.2742008408
 20
28.1547777447
 30
0.0
 10
3.1850436507
 20
28.2599621197
 30
0.0
 10
3.0919796032
 20
28.3618581275
 30
0.0
 10
3.0204523746
 20
28.4352462603
 30
0.0
 11
3.296849329
 21
28.1275617589
 31
0.0
 11
3.2281547588
 21
28.2085804672
 31
0.0
 11
3.0204523746
 21
28.4352462603
 31
0.0
  0
SPLINE
  5
497
100
AcDbEntity
  8
0
100
AcDbSpline
 62
7
  6
CONTINUOUS
 70
0
 71
3
 72
8
 73
4
 74
2
 42
0.0000001
 43
0.0000001
 44
0.0000000001
 12
0.0160449254
 22
-0.002278225
 32
0.0
 13
0.0152572458
 23
-0.005463185
 33
0.0
 40
0.0
 40
0.0
 40
0.0
 40
0.0
 40
1.0
 40
1.0
 40
1.0
 40
1.0
 10
4.061083311
 20
29.0535188613
 30
0.0
 10
4.0664316194
 20
29.0527594529
 30
0.0
 10
4.0717349469
 20
29.0514715036
 30
0.0
 10
4.0768206955
 20
29.0496504419
 30
0.0
 11
4.061083311
 21
29.0535188613
 31
0.0
 11
4.0768206955
 21
29.0496504419
 31
0.0
  0
SPLINE
  5
498
100
AcDbEntity
  8
ASSI
100
AcDbSpline
 62
7
  6
CONTINUOUS
 70
0
 71
3
 72
10
 73
6
 74
4
 42
0.0000001
 43
0.0000001
 44
0.0000000001
 12
-1.5268087591
 22
-0.7634043795
 32
0.0
 13
-1.7068151406
 23
0.0267078508
 33
0.0
 40
0.0
 40
0.0
 40
0.0
 40
0.0
 40
0.2248408004
 40
0.4714101769
 40
1.0
 40
1.0
 40
1.0
 40
1.0
 10
24.2074105168
 20
9.7875120637
 30
0.0
 10
24.0929808823
 20
9.7302972465
 30
0.0
 10
23.842635073
 20
9.6307250391
 30
0.0
 10
23.2904278112
 20
9.4898163168
 30
0.0
 10
22.8463712921
 20
9.4538952299
 30
0.0
 10
22.5456362543
 20
9.4586010626
 30
0.0
 11
24.2074105168
 21
9.7875120637
 31
0.0
 11
23.8519060971
 21
9.6428548945
 31
0.0
 11
23.4445418557
 21
9.5369725493
 31
0.0
 11
22.5456362543
 21
9.4586010626
 31
0.0
  0
SPLINE
  5
499
100
AcDbEntity
  8
ASSI
100
AcDbSpline
 62
7
  6
CONTINUOUS
 70
0
 71
3
 72
12
 73
8
 74
6
 42
0.0000001
 43
0.0000001
 44
0.0000000001
 12
-0.0000596793
 22
-1.0838984987
 32
0.0
 13
-0.969468291
 23
-0.4847341455
 33
0.0
 40
0.0
 40
0.0
 40
0.0
 40
0.0
 40
0.1022210759
 40
0.2072808604
 40
0.4349774947
 40
0.6979889939
 40
1.0
 40
1.0
 40
1.0
 40
1.0
 10
24.8663387469
 20
10.5830071866
 30
0.0
 10
24.8663367134
 20
10.5460747631
 30
0.0
 10
24.8589024757
 20
10.4709833087
 30
0.0
 10
24.8134671691
 20
10.3196608602
 30
0.0
 10
24.6959993986
 20
10.1344649124
 30
0.0
 10
24.4814896024
 20
9.9412886617
 30
0.0
 10
24.3050072148
 20
9.8363104127
 30
0.0
 10
24.2074105168
 20
9.7875120637
 30
0.0
 11
24.8663387469
 21
10.5830071866
 31
0.0
 11
24.8555466835
 21
10.4727367618
 31
0.0
 11
24.8232017294
 21
10.3635528603
 31
0.0
 11
24.6952042356
 21
10.152538876
 31
0.0
 11
24.4869319826
 21
9.9578801917
 31
0.0
 11
24.2074105168
 21
9.7875120637
 31
0.0
  0
SPLINE
  5
49A
100
AcDbEntity
  8
ASSI
100
AcDbSpline
 62
7
  6
CONTINUOUS
 70
0
 71
3
 72
16
 73
12
 74
10
 42
0.0000001
 43
0.0000001
 44
0.0000000001
 12
2.7917801825
 22
0.0437527201
 32
0.0
 13
-0.0001537338
 23
-2.7921230031
 33
0.0
 40
0.0
 40
0.0
 40
0.0
 40
0.0
 40
0.1608475566
 40
0.3176449031
 40
0.4658907924
 40
0.6017712794
 40
0.7225487011
 40
0.8273219098
 40
0.917853396
 40
0.9595159414
 40
1.0
 40
1.0
 40
1.0
 40
1.0
 10
22.5456362581
 20
11.7074114524
 30
0.0
 10
22.6953199318
 20
11.7097572918
 30
0.0
 10
22.9913683542
 20
11.6998074663
 30
0.0
 10
23.4217806334
 20
11.6413540792
 30
0.0
 10
23.8208794641
 20
11.5419252773
 30
0.0
 10
24.173394338
 20
11.4054096006
 30
0.0
 10
24.4661676
 20
11.2363180691
 30
0.0
 10
24.6888170233
 20
11.0404041132
 30
0.0
 10
24.811188227
 20
10.8518523592
 30
0.0
 10
24.8586051505
 20
10.6973555433
 30
0.0
 10
24.8663408214
 20
10.6206860104
 30
0.0
 10
24.8663387469
 20
10.5830071866
 30
0.0
 11
22.5456362581
 21
11.7074114524
 31
0.0
 11
22.9944783545
 21
11.6920127944
 31
0.0
 11
23.4281732878
 21
11.6322186726
 31
0.0
 11
23.8294011637
 21
11.5305005049
 31
0.0
 11
24.18218562
 21
11.3909164109
 31
0.0
 11
24.4722998222
 21
11.2190015131
 31
0.0
 11
24.6882821965
 21
11.0216919029
 31
0.0
 11
24.8214324487
 21
10.8068286117
 31
0.0
 11
24.8551162915
 21
10.695485186
 31
0.0
 11
24.8663387469
 21
10.5830071866
 31
0.0
  0
SPLINE
  5
49B
100
AcDbEntity
  8
RACCORDO
100
AcDbSpline
 62
7
  6
CONTINUOUS
 70
0
 71
3
 72
10
 73
6
 74
4
 42
0.0000001
 43
0.0000001
 44
0.0000000001
 12
0.0176405146
 22
0.0971587308
 32
0.0
 13
-0.060821132
 23
0.0777932942
 33
0.0
 40
0.0
 40
0.0
 40
0.0
 40
0.0
 40
0.238701645
 40
0.4796360509
 40
1.0
 40
1.0
 40
1.0
 40
1.0
 10
23.6937380973
 20
-2.7790405417
 30
0.0
 10
23.6951417039
 20
-2.7713098921
 30
0.0
 10
23.6961689949
 20
-2.7553792715
 30
0.0
 10
23.6905086072
 20
-2.7227017155
 30
0.0
 10
23.6778146538
 20
-2.7001126843
 30
0.0
 10
23.6672649456
 20
-2.6866190757
 30
0.0
 11
23.6937380973
 21
-2.7790405417
 31
0.0
 11
23.6952373484
 21
-2.7555171546
 31
0.0
 11
23.6912504867
 21
-2.7320619866
 31
0.0
 11
23.6672649456
 21
-2.6866190757
 31
0.0
  0
SPLINE
  5
49C
100
AcDbEntity
  8
RACCORDO
100
AcDbSpline
 62
7
  6
CONTINUOUS
 70
0
 71
3
 72
11
 73
7
 74
5
 42
0.0000001
 43
0.0000001
 44
0.0000000001
 12
1.2319975348
 22
0.7968456039
 32
0.0
 13
0.2617721542
 23
1.4436953216
 33
0.0
 40
0.0
 40
0.0
 40
0.0
 40
0.0
 40
0.2390158699
 40
0.4829997052
 40
0.7355920452
 40
1.0
 40
1.0
 40
1.0
 40
1.0
 10
22.9519911478
 20
-4.0001228022
 30
0.0
 10
23.050146802
 20
-3.9366365538
 30
0.0
 10
23.2331718479
 20
-3.7830263756
 30
0.0
 10
23.4495833599
 20
-3.4921676947
 30
0.0
 10
23.6067460132
 20
-3.1523015025
 30
0.0
 10
23.670668127
 20
-2.906282041
 30
0.0
 10
23.6937396736
 20
-2.7790405318
 30
0.0
 11
22.9519911478
 21
-4.0001228022
 31
0.0
 11
23.2212671324
 21
-3.7754546696
 31
0.0
 11
23.4365405189
 21
-3.4894330833
 31
0.0
 11
23.5940769491
 21
-3.1539693551
 31
0.0
 11
23.6937396736
 21
-2.7790405318
 31
0.0
  0
SPLINE
  5
49D
100
AcDbEntity
  8
RACCORDO
100
AcDbSpline
 62
7
  6
CONTINUOUS
 70
0
 71
3
 72
11
 73
7
 74
5
 42
0.0000001
 43
0.0000001
 44
0.0000000001
 12
0.0275804188
 22
-0.1771737477
 32
0.0
 13
-0.1538966661
 23
-0.0920164797
 33
0.0
 40
0.0
 40
0.0
 40
0.0
 40
0.0
 40
0.2142272568
 40
0.4418334652
 40
0.7008103145
 40
1.0
 40
1.0
 40
1.0
 40
1.0
 10
23.6941599162
 20
-1.7059702432
 30
0.0
 10
23.6961294087
 20
-1.7186220585
 30
0.0
 10
23.6951289616
 20
-1.745792239
 30
0.0
 10
23.677674857
 20
-1.7847689006
 30
0.0
 10
23.6461442078
 20
-1.8202872061
 30
0.0
 10
23.6187679058
 20
-1.8397744749
 30
0.0
 10
23.6034198074
 20
-1.8489512688
 30
0.0
 11
23.6941599162
 21
-1.7059702432
 31
0.0
 11
23.6928075003
 21
-1.744359004
 31
0.0
 11
23.6768356069
 21
-1.7819153493
 31
0.0
 11
23.6466860144
 21
-1.8172332241
 31
0.0
 11
23.6034198074
 21
-1.8489512688
 31
0.0
  0
SPLINE
  5
49E
100
AcDbEntity
  8
RACCORDO
100
AcDbSpline
 62
7
  6
CONTINUOUS
 70
0
 71
3
 72
11
 73
7
 74
5
 42
0.0000001
 43
0.0000001
 44
0.0000000001
 12
-0.4105359368
 22
2.6346330972
 32
0.0
 13
-1.8079780377
 23
1.959858854
 33
0.0
 40
0.0
 40
0.0
 40
0.0
 40
0.0
 40
0.2457439682
 40
0.4988454118
 40
0.7525670776
 40
1.0
 40
1.0
 40
1.0
 40
1.0
 10
23.6941595945
 20
-1.7059701515
 30
0.0
 10
23.6605306845
 20
-1.4901550875
 30
0.0
 10
23.5560946604
 20
-1.0571383215
 30
0.0
 10
23.306090585
 20
-0.4344466794
 30
0.0
 10
22.9711671679
 20
0.1487126586
 30
0.0
 10
22.6951289827
 20
0.5008386951
 30
0.0
 10
22.5460112195
 20
0.6624832297
 30
0.0
 11
23.6941595945
 21
-1.7059701515
 31
0.0
 11
23.5427632551
 21
-1.0684416758
 31
0.0
 11
23.2921601303
 21
-0.4418187504
 31
0.0
 11
22.9546611034
 21
0.1445152402
 31
0.0
 11
22.5460112195
 21
0.6624832297
 31
0.0
  0
LINE
  5
49F
100
AcDbEntity
  8
RACCORDO
100
AcDbLine
 62
7
  6
CONTINUOUS
 10
23.5658348498
 20
-1.8714235913
 11
23.6034198074
 21
-1.8489512688
  0
SPLINE
  5
4A0
100
AcDbEntity
  8
0
100
AcDbSpline
 62
7
  6
CONTINUOUS
 70
0
 71
3
 72
9
 73
5
 74
3
 42
0.0000001
 43
0.0000001
 44
0.0000000001
 12
0.1641538987
 22
1.0015765246
 32
0.0
 13
-0.1495872738
 23
1.0038554102
 33
0.0
 40
0.0
 40
0.0
 40
0.0
 40
0.0
 40
0.4808984329
 40
1.0
 40
1.0
 40
1.0
 40
1.0
 10
23.5704628498
 20
-2.8833468369
 30
0.0
 10
23.596776634
 20
-2.7227946432
 30
0.0
 10
23.6200653272
 20
-2.3834528908
 30
0.0
 10
23.5917185125
 20
-2.0451245635
 30
0.0
 10
23.5658348498
 20
-1.8714235913
 30
0.0
 11
23.5704628498
 21
-2.8833468369
 31
0.0
 11
23.6072342281
 21
-2.3966511774
 31
0.0
 11
23.5658348498
 21
-1.8714235913
 31
0.0
  0
SPLINE
  5
4A1
100
AcDbEntity
  8
RACCORDO
100
AcDbSpline
 62
253
  6
CONTINUOUS
 70
0
 71
3
 72
11
 73
7
 74
5
 42
0.0000001
 43
0.0000001
 44
0.0000000001
 12
1.6560428825
 22
-1.9929216788
 32
0.0
 13
0.3824944837
 23
-2.5627939473
 33
0.0
 40
0.0
 40
0.0
 40
0.0
 40
0.0
 40
0.2495220682
 40
0.5041231297
 40
0.7566014877
 40
1.0
 40
1.0
 40
1.0
 40
1.0
 10
22.5459514092
 20
0.4853275571
 30
0.0
 10
22.6836911576
 20
0.3195682441
 30
0.0
 10
22.9381660877
 20
-0.0357152725
 30
0.0
 10
23.2467576188
 20
-0.6137497819
 30
0.0
 10
23.4762825697
 20
-1.2218586455
 30
0.0
 10
23.5723869446
 20
-1.6410245241
 30
0.0
 10
23.6034198074
 20
-1.8489512688
 30
0.0
 11
22.5459514092
 21
0.4853275571
 31
0.0
 11
22.9236320264
 21
-0.0394512959
 31
0.0
 11
23.2345809379
 21
-0.621291135
 31
0.0
 11
23.464657814
 21
-1.233716162
 31
0.0
 11
23.6034198074
 21
-1.8489512688
 31
0.0
  0
SPLINE
  5
4A2
100
AcDbEntity
  8
RACCORDO
100
AcDbSpline
 62
253
  6
CONTINUOUS
 70
0
 71
3
 72
11
 73
7
 74
5
 42
0.0000001
 43
0.0000001
 44
0.0000000001
 12
-0.2387958741
 22
-1.2718213575
 32
0.0
 13
-1.086598163
 23
-0.7027499322
 33
0.0
 40
0.0
 40
0.0
 40
0.0
 40
0.0
 40
0.2771004092
 40
0.5335229247
 40
0.7725666918
 40
1.0
 40
1.0
 40
1.0
 40
1.0
 10
23.5981083656
 20
-2.9174342739
 30
0.0
 10
23.5760515541
 20
-3.0349083467
 30
0.0
 10
23.5171895472
 20
-3.2585839447
 30
0.0
 10
23.376722087
 20
-3.5629371686
 30
0.0
 10
23.189973995
 20
-3.8156140933
 30
0.0
 10
23.0343671147
 20
-3.9468461244
 30
0.0
 10
22.9519909097
 20
-4.0001223717
 30
0.0
 11
23.5981083656
 21
-2.9174342739
 31
0.0
 11
23.5046190624
 21
-3.2636129802
 31
0.0
 11
23.3634084117
 21
-3.5638888723
 31
0.0
 11
23.1777571486
 21
-3.8113172224
 31
0.0
 11
22.9519909097
 21
-4.0001223717
 31
0.0
  0
LINE
  5
4A3
100
AcDbEntity
  8
RACCORDO
100
AcDbLine
 62
7
  6
CONTINUOUS
 10
23.6034198074
 20
-2.8881817533
 11
23.5658348498
 21
-2.9106540759
  0
SPLINE
  5
4A4
100
AcDbEntity
  8
RACCORDO
100
AcDbSpline
 62
7
  6
CONTINUOUS
 70
0
 71
3
 72
11
 73
7
 74
5
 42
0.0000001
 43
0.0000001
 44
0.0000000001
 12
0.1250422054
 22
0.0747640858
 32
0.0
 13
0.0260263124
 23
0.1433452222
 33
0.0
 40
0.0
 40
0.0
 40
0.0
 40
0.0
 40
0.2916577163
 40
0.5526675105
 40
0.7861764032
 40
1.0
 40
1.0
 40
1.0
 40
1.0
 10
23.6034198074
 20
-2.8881817533
 30
0.0
 10
23.6155763154
 20
-2.8809132458
 30
0.0
 10
23.637778515
 20
-2.865630549
 30
0.0
 10
23.6653572357
 20
-2.8389134334
 30
0.0
 10
23.6847153729
 20
-2.810119795
 30
0.0
 10
23.6918830841
 20
-2.7892574054
 30
0.0
 10
23.6937380973
 20
-2.7790405417
 30
0.0
 11
23.6034198074
 21
-2.8881817533
 31
0.0
 11
23.6382257982
 21
-2.8638086123
 31
0.0
 11
23.6652541902
 21
-2.8370605681
 31
0.0
 11
23.6838752871
 21
-2.8085897104
 31
0.0
 11
23.6937380973
 21
-2.7790405417
 31
0.0
  0
SPLINE
  5
4A5
100
AcDbEntity
  8
RACCORDO
100
AcDbSpline
 62
253
  6
CONTINUOUS
 70
0
 71
3
 72
12
 73
8
 74
6
 42
0.0000001
 43
0.0000001
 44
0.0000000001
 12
0.5725802042
 22
-2.1564940805
 32
0.0
 13
-1.0319532863
 23
-1.9782283044
 33
0.0
 40
0.0
 40
0.0
 40
0.0
 40
0.0
 40
0.280798403
 40
0.5433058357
 40
0.6664061621
 40
0.7835932657
 40
1.0
 40
1.0
 40
1.0
 40
1.0
 10
22.646334536
 20
-1.8491826502
 30
0.0
 10
22.6999277383
 20
-2.0510293481
 30
0.0
 10
22.7781851787
 20
-2.4489674703
 30
0.0
 10
22.800675013
 20
-2.9464129553
 30
0.0
 10
22.7673291649
 20
-3.3194653086
 30
0.0
 10
22.704510311
 20
-3.6535025286
 30
0.0
 10
22.62015614
 20
-3.8901119929
 30
0.0
 10
22.5457155931
 20
-4.0328126353
 30
0.0
 11
22.646334536
 21
-1.8491826502
 31
0.0
 11
22.764813654
 21
-2.4643993485
 31
0.0
 11
22.7874968688
 21
-3.0496701432
 31
0.0
 11
22.7624448679
 21
-3.3231884029
 31
0.0
 11
22.7134110616
 21
-3.5800190344
 31
0.0
 11
22.5457155931
 21
-4.0328126353
 31
0.0
  0
SPLINE
  5
4A6
100
AcDbEntity
  8
0
100
AcDbSpline
 62
7
  6
CONTINUOUS
 70
0
 71
3
 72
9
 73
5
 74
3
 42
0.0000001
 43
0.0000001
 44
0.0000000001
 12
0.4880520957
 22
0.2609610194
 32
0.0
 13
0.5021129405
 23
0.2327618885
 33
0.0
 40
0.0
 40
0.0
 40
0.0
 40
0.0
 40
0.2571774263
 40
1.0
 40
1.0
 40
1.0
 40
1.0
 10
17.8662175346
 20
20.1844368598
 30
0.0
 10
17.9080561953
 20
20.2068079543
 30
0.0
 10
18.07130662
 20
20.2927278371
 30
0.0
 10
18.2368653392
 20
20.3742906382
 30
0.0
 10
18.3611922815
 20
20.4319242332
 30
0.0
 11
17.8662175346
 21
20.1844368598
 31
0.0
 11
17.9921775145
 21
20.2507130845
 31
0.0
 11
18.3611922815
 21
20.4319242332
 31
0.0
  0
LINE
  5
4A7
100
AcDbEntity
  8
0
100
AcDbLine
 62
7
  6
CONTINUOUS
 10
17.5467965235
 20
21.2125533926
 11
17.5161376523
 21
21.187320262
  0
SPLINE
  5
4A8
100
AcDbEntity
  8
0
100
AcDbSpline
 62
7
  6
CONTINUOUS
 70
0
 71
3
 72
9
 73
5
 74
3
 42
0.0000001
 43
0.0000001
 44
0.0000000001
 12
-0.6437418152
 22
0.0914051423
 32
0.0
 13
-0.6479928939
 23
-0.0535129343
 33
0.0
 40
0.0
 40
0.0
 40
0.0
 40
0.0
 40
0.24475149
 40
1.0
 40
1.0
 40
1.0
 40
1.0
 10
19.2638791065
 20
21.4521209635
 30
0.0
 10
19.2113601837
 20
21.4595781451
 30
0.0
 10
18.9958995338
 20
21.4836826203
 30
0.0
 10
18.7778047896
 20
21.4824560698
 30
0.0
 10
18.6146729004
 20
21.4689842152
 30
0.0
 11
19.2638791065
 21
21.4521209635
 31
0.0
 11
19.1057337625
 21
21.4698599457
 31
0.0
 11
18.6146729004
 21
21.4689842152
 31
0.0
  0
SPLINE
  5
4A9
100
AcDbEntity
  8
0
100
AcDbSpline
 62
7
  6
CONTINUOUS
 70
0
 71
3
 72
9
 73
5
 74
3
 42
0.0000001
 43
0.0000001
 44
0.0000000001
 12
-1.0973690193
 22
-0.0906235806
 32
0.0
 13
-1.0258981305
 23
-0.399955527
 33
0.0
 40
0.0
 40
0.0
 40
0.0
 40
0.0
 40
0.4850582188
 40
1.0
 40
1.0
 40
1.0
 40
1.0
 10
18.6146729004
 20
21.4689842152
 30
0.0
 10
18.4372436131
 20
21.4543316443
 30
0.0
 10
18.0735825869
 20
21.3935557085
 30
0.0
 10
17.7228891271
 20
21.2812046631
 30
0.0
 10
17.5467965235
 20
21.2125533926
 30
0.0
 11
18.6146729004
 21
21.4689842152
 31
0.0
 11
18.0875011021
 21
21.3832372421
 31
0.0
 11
17.5467965235
 21
21.2125533926
 31
0.0
  0
SPLINE
  5
4AA
100
AcDbEntity
  8
0
100
AcDbSpline
 62
7
  6
CONTINUOUS
 70
0
 71
3
 72
9
 73
5
 74
3
 42
0.0000001
 43
0.0000001
 44
0.0000000001
 12
-1.9392383268
 22
-1.1832089864
 32
0.0
 13
-1.496568806
 23
-1.7090671732
 33
0.0
 40
0.0
 40
0.0
 40
0.0
 40
0.0
 40
0.482167634
 40
1.0
 40
1.0
 40
1.0
 40
1.0
 10
16.7258888864
 20
20.8020995741
 30
0.0
 10
16.4142095677
 20
20.6119312149
 30
0.0
 10
15.8032596774
 20
20.1580392641
 30
0.0
 10
15.2671302253
 20
19.6195879946
 30
0.0
 10
15.0088063034
 20
19.324584562
 30
0.0
 11
16.7258888864
 21
20.8020995741
 31
0.0
 11
15.842443718
 21
20.1545683726
 31
0.0
 11
15.0088063034
 21
19.324584562
 31
0.0
  0
SPLINE
  5
4AB
100
AcDbEntity
  8
0
100
AcDbSpline
 62
7
  6
CONTINUOUS
 70
0
 71
3
 72
9
 73
5
 74
3
 42
0.0000001
 43
0.0000001
 44
0.0000000001
 12
0.5913552834
 22
-0.4176621013
 32
0.0
 13
0.5458992241
 23
-0.4755383678
 33
0.0
 40
0.0
 40
0.0
 40
0.0
 40
0.0
 40
0.2452957898
 40
1.0
 40
1.0
 40
1.0
 40
1.0
 10
17.2975635965
 20
20.6322298784
 30
0.0
 10
17.3459159169
 20
20.5980796267
 30
0.0
 10
17.541153928
 20
20.4562081165
 30
0.0
 10
17.7288867204
 20
20.3040671292
 30
0.0
 10
17.8662175346
 20
20.1844368598
 30
0.0
 11
17.2975635965
 21
20.6322298784
 31
0.0
 11
17.441246452
 21
20.5278607437
 31
0.0
 11
17.8662175346
 21
20.1844368598
 31
0.0
  0
SPLINE
  5
4AC
100
AcDbEntity
  8
0
100
AcDbSpline
 62
7
  6
CONTINUOUS
 70
0
 71
3
 72
9
 73
5
 74
3
 42
0.0000001
 43
0.0000001
 44
0.0000000001
 12
0.5769268588
 22
-0.0743600027
 32
0.0
 13
0.558122149
 23
-0.1639319286
 33
0.0
 40
0.0
 40
0.0
 40
0.0
 40
0.0
 40
0.2442344533
 40
1.0
 40
1.0
 40
1.0
 40
1.0
 10
15.2043863472
 20
21.5153524535
 30
0.0
 10
15.2513548192
 20
21.5092986953
 30
0.0
 10
15.4431302775
 20
21.4804582332
 30
0.0
 10
15.6324371217
 20
21.4357895685
 30
0.0
 10
15.7730402854
 20
21.3944915339
 30
0.0
 11
15.2043863472
 21
21.5153524535
 31
0.0
 11
15.3448839136
 21
21.4942668666
 31
0.0
 11
15.7730402854
 21
21.3944915339
 31
0.0
  0
SPLINE
  5
4AD
100
AcDbEntity
  8
0
100
AcDbSpline
 62
7
  6
CONTINUOUS
 70
0
 71
3
 72
9
 73
5
 74
3
 42
0.0000001
 43
0.0000001
 44
0.0000000001
 12
-0.2659486032
 22
0.2205631897
 32
0.0
 13
-0.2873089502
 23
0.1919123428
 33
0.0
 40
0.0
 40
0.0
 40
0.0
 40
0.0
 40
0.2587982878
 40
1.0
 40
1.0
 40
1.0
 40
1.0
 10
16.0494409735
 20
21.1873203249
 30
0.0
 10
16.0264986258
 20
21.2063474502
 30
0.0
 10
15.9370708421
 20
21.2789193745
 30
0.0
 10
15.844024914
 20
21.3470762816
 30
0.0
 10
15.7730402854
 20
21.3944915339
 30
0.0
 11
16.0494409735
 21
21.1873203249
 31
0.0
 11
15.9799687803
 21
21.243614727
 31
0.0
 11
15.7730402854
 21
21.3944915339
 31
0.0
  0
SPLINE
  5
4AE
100
AcDbEntity
  8
0
100
AcDbSpline
 62
7
  6
CONTINUOUS
 70
0
 71
3
 72
9
 73
5
 74
3
 42
0.0000001
 43
0.0000001
 44
0.0000000001
 12
-0.1274804469
 22
-0.1455814435
 32
0.0
 13
-0.0134783704
 23
-0.1930377025
 33
0.0
 40
0.0
 40
0.0
 40
0.0
 40
0.0
 40
0.507387869
 40
1.0
 40
1.0
 40
1.0
 40
1.0
 10
15.0088063034
 20
19.324584562
 30
0.0
 10
14.9872456259
 20
19.2999624758
 30
0.0
 10
14.9527255394
 20
19.2442210948
 30
0.0
 10
14.9355095182
 20
19.1806705271
 30
0.0
 10
14.9332963153
 20
19.1489729558
 30
0.0
 11
15.0088063034
 21
19.324584562
 31
0.0
 11
14.9566702806
 21
19.2413870586
 31
0.0
 11
14.9332963153
 21
19.1489729558
 31
0.0
  0
SPLINE
  5
4AF
100
AcDbEntity
  8
0
100
AcDbSpline
 62
7
  6
CONTINUOUS
 70
0
 71
3
 72
11
 73
7
 74
5
 42
0.0000001
 43
0.0000001
 44
0.0000000001
 12
0.0954403462
 22
-0.0512796546
 32
0.0
 13
0.0081098893
 23
-0.1080402349
 33
0.0
 40
0.0
 40
0.0
 40
0.0
 40
0.0
 40
0.221508124
 40
0.4568752288
 40
0.7150321189
 40
1.0
 40
1.0
 40
1.0
 40
1.0
 10
18.5828655601
 20
21.7972031627
 30
0.0
 10
18.5899124974
 20
21.793416876
 30
0.0
 10
18.6032560513
 20
21.7831836797
 30
0.0
 10
18.6183559435
 20
21.7618459957
 30
0.0
 10
18.6284367547
 20
21.7353421748
 30
0.0
 10
18.6315119607
 20
21.7158354016
 30
0.0
 10
18.6322823134
 20
21.705572736
 30
0.0
 11
18.5828655601
 21
21.7972031627
 31
0.0
 11
18.6019826415
 21
21.7826947227
 31
0.0
 11
18.6169577519
 21
21.7620542382
 31
0.0
 11
18.6271954009
 21
21.7360254052
 31
0.0
 11
18.6322823134
 21
21.705572736
 31
0.0
  0
SPLINE
  5
4B0
100
AcDbEntity
  8
0
100
AcDbSpline
 62
7
  6
CONTINUOUS
 70
0
 71
3
 72
19
 73
15
 74
13
 42
0.0000001
 43
0.0000001
 44
0.0000000001
 12
-5.2787905855
 22
1.8680881322
 32
0.0
 13
-0.5635357
 23
-5.5711588409
 33
0.0
 40
0.0
 40
0.0
 40
0.0
 40
0.0
 40
0.1353256578
 40
0.2797534573
 40
0.4263167997
 40
0.5676766938
 40
0.6343836672
 40
0.6975444356
 40
0.7567514256
 40
0.8118556328
 40
0.863035017
 40
0.9108612555
 40
0.9561332768
 40
1.0
 40
1.0
 40
1.0
 40
1.0
 10
18.5574399164
 20
21.8071723462
 30
0.0
 10
18.3193213137
 20
21.8914390979
 30
0.0
 10
17.8105905612
 20
22.020465271
 30
0.0
 10
17.0169643054
 20
22.1038275016
 30
0.0
 10
16.2079781547
 20
22.0813125355
 30
0.0
 10
15.5522798887
 20
21.9734341685
 30
0.0
 10
15.0654808528
 20
21.832569012
 30
0.0
 10
14.7358277659
 20
21.7051331473
 30
0.0
 10
14.4396661208
 20
21.5553417245
 30
0.0
 10
14.1814261882
 20
21.3843536349
 30
0.0
 10
13.9651009944
 20
21.1930647647
 30
0.0
 10
13.7955171237
 20
20.9818324304
 30
0.0
 10
13.67829174
 20
20.752404058
 30
0.0
 10
13.6396134824
 20
20.5884289413
 30
0.0
 10
13.6313733275
 20
20.5069661137
 30
0.0
 11
18.5574399164
 21
21.8071723462
 31
0.0
 11
17.8243219632
 21
21.9988759096
 31
0.0
 11
17.0202556093
 21
22.0856598111
 31
0.0
 11
16.1998957772
 21
22.0622315934
 31
0.0
 11
15.419451306
 21
21.9300607699
 31
0.0
 11
15.0608736091
 21
21.8254287654
 31
0.0
 11
14.7313704821
 21
21.69692516
 31
0.0
 11
14.4361414954
 21
21.546077132
 31
0.0
 11
14.1797797699
 21
21.3743550859
 31
0.0
 11
13.9664343698
 21
21.183007714
 31
0.0
 11
13.8003652713
 21
20.9729083046
 31
0.0
 11
13.6867912273
 21
20.7462686174
 31
0.0
 11
13.6313733275
 21
20.5069661137
 31
0.0
  0
SPLINE
  5
4B1
100
AcDbEntity
  8
0
100
AcDbSpline
 62
7
  6
CONTINUOUS
 70
0
 71
3
 72
9
 73
5
 74
3
 42
0.0000001
 43
0.0000001
 44
0.0000000001
 12
-0.029686505
 22
0.0206390688
 32
0.0
 13
-0.0357969914
 23
0.0050828283
 33
0.0
 40
0.0
 40
0.0
 40
0.0
 40
0.0
 40
0.7456622822
 40
1.0
 40
1.0
 40
1.0
 40
1.0
 10
19.2974056426
 20
21.4390879986
 30
0.0
 10
19.2900269403
 20
21.4442179236
 30
0.0
 10
19.2787463543
 20
21.4493554189
 30
0.0
 10
19.2669139482
 20
21.4516900452
 30
0.0
 10
19.2638791065
 20
21.4521209635
 30
0.0
 11
19.2974056426
 21
21.4390879986
 31
0.0
 11
19.2728971066
 21
21.4503211671
 31
0.0
 11
19.2638791065
 21
21.4521209635
 31
0.0
  0
SPLINE
  5
4B2
100
AcDbEntity
  8
0
100
AcDbSpline
 62
7
  6
CONTINUOUS
 70
0
 71
3
 72
11
 73
7
 74
5
 42
0.0000001
 43
0.0000001
 44
0.0000000001
 12
-0.1170061954
 22
1.1567325725
 32
0.0
 13
-0.9544335872
 23
0.6639105525
 33
0.0
 40
0.0
 40
0.0
 40
0.0
 40
0.0
 40
0.2305831964
 40
0.469922972
 40
0.7248063438
 40
1.0
 40
1.0
 40
1.0
 40
1.0
 10
19.9342053011
 20
20.5069661137
 30
0.0
 10
19.9252120803
 20
20.5958738117
 30
0.0
 10
19.880579457
 20
20.775227834
 30
0.0
 10
19.743739402
 20
21.0234044447
 30
0.0
 10
19.5460497131
 20
21.2491120413
 30
0.0
 10
19.3849705086
 20
21.3781707913
 30
0.0
 10
19.2974191524
 20
21.4390721154
 30
0.0
 11
19.9342053011
 21
20.5069661137
 31
0.0
 11
19.8707964142
 21
20.7674434142
 31
0.0
 11
19.7387762133
 21
21.0123964648
 31
0.0
 11
19.5455146813
 21
21.2370411531
 31
0.0
 11
19.2974191524
 21
21.4390721154
 31
0.0
  0
SPLINE
  5
4B3
100
AcDbEntity
  8
0
100
AcDbSpline
 62
7
  6
CONTINUOUS
 70
0
 71
3
 72
9
 73
5
 74
3
 42
0.0000001
 43
0.0000001
 44
0.0000000001
 12
1.1723450557
 22
0.0142789549
 32
0.0
 13
1.1480684581
 23
0.2377722309
 33
0.0
 40
0.0
 40
0.0
 40
0.0
 40
0.0
 40
0.5072302643
 40
1.0
 40
1.0
 40
1.0
 40
1.0
 10
16.861910563
 20
17.8667716553
 30
0.0
 10
17.0601268605
 20
17.8691858947
 30
0.0
 10
17.4509015351
 20
17.8917384661
 30
0.0
 10
17.8379326726
 20
17.9509299198
 30
0.0
 10
18.0265104695
 20
17.989985573
 30
0.0
 11
16.861910563
 21
17.8667716553
 31
0.0
 11
17.4555891967
 21
17.901491133
 31
0.0
 11
18.0265104695
 21
17.989985573
 31
0.0
  0
SPLINE
  5
4B4
100
AcDbEntity
  8
0
100
AcDbSpline
 62
7
  6
CONTINUOUS
 70
0
 71
3
 72
9
 73
5
 74
3
 42
0.0000001
 43
0.0000001
 44
0.0000000001
 12
0.888957766
 22
0.2191961398
 32
0.0
 13
0.8189226373
 23
0.4094613187
 33
0.0
 40
0.0
 40
0.0
 40
0.0
 40
0.0
 40
0.5194642307
 40
1.0
 40
1.0
 40
1.0
 40
1.0
 10
18.2202614192
 20
18.0338802307
 30
0.0
 10
18.3741886732
 20
18.0718350821
 30
0.0
 10
18.6673619372
 20
18.1585950769
 30
0.0
 10
18.94971248
 20
18.2766543573
 30
0.0
 10
19.0808863532
 20
18.3422412939
 30
0.0
 11
18.2202614192
 21
18.0338802307
 31
0.0
 11
18.6758542848
 21
18.1704184058
 31
0.0
 11
19.0808863532
 21
18.3422412939
 31
0.0
  0
SPLINE
  5
4B5
100
AcDbEntity
  8
0
100
AcDbSpline
 62
7
  6
CONTINUOUS
 70
0
 71
3
 72
14
 73
10
 74
8
 42
0.0000001
 43
0.0000001
 44
0.0000000001
 12
0.1659842488
 22
-1.6409147225
 32
0.0
 13
-1.4751683016
 23
-0.7375841508
 33
0.0
 40
0.0
 40
0.0
 40
0.0
 40
0.0
 40
0.1029063546
 40
0.207532371
 40
0.3169817379
 40
0.4337828166
 40
0.5597356371
 40
0.6959255685
 40
1.0
 40
1.0
 40
1.0
 40
1.0
 10
20.0286396287
 20
19.5733730337
 30
0.0
 10
20.03433324
 20
19.5170861829
 30
0.0
 10
20.0339429367
 20
19.4019991286
 30
0.0
 10
19.9967733728
 20
19.2305592599
 30
0.0
 10
19.9239230684
 20
19.0627246903
 30
0.0
 10
19.816736565
 20
18.9004660754
 30
0.0
 10
19.6767266728
 20
18.7452750059
 30
0.0
 10
19.4398356012
 20
18.5423644081
 30
0.0
 10
19.2304066741
 20
18.4170014543
 30
0.0
 10
19.0808863532
 20
18.3422412939
 30
0.0
 11
20.0286396287
 21
19.5733730337
 31
0.0
 11
20.028058685
 21
19.4036517813
 31
0.0
 11
19.9920765837
 21
19.2348865238
 31
0.0
 11
19.9210858715
 21
19.0689182611
 31
0.0
 11
19.815860786
 21
18.9075573865
 31
0.0
 11
19.677549678
 21
18.7525643723
 31
0.0
 11
19.5076597065
 21
18.605629176
 31
0.0
 11
19.0808863532
 21
18.3422412939
 31
0.0
  0
LINE
  5
4B6
100
AcDbEntity
  8
0
100
AcDbLine
 62
7
  6
CONTINUOUS
 10
18.6322823134
 20
21.705572736
 11
18.6498729585
 21
21.471205349
  0
LINE
  5
4B7
100
AcDbEntity
  8
0
100
AcDbLine
 62
7
  6
CONTINUOUS
 10
14.9332963153
 20
19.1489729558
 11
14.9157056702
 21
18.8970149237
  0
SPLINE
  5
4B8
100
AcDbEntity
  8
0
100
AcDbSpline
 62
7
  6
CONTINUOUS
 70
0
 71
3
 72
11
 73
7
 74
5
 42
0.0000001
 43
0.0000001
 44
0.0000000001
 12
1.5905236038
 22
0.6200797985
 32
0.0
 13
1.6939145527
 23
-0.2119381491
 33
0.0
 40
0.0
 40
0.0
 40
0.0
 40
0.0
 40
0.2675235063
 40
0.522426606
 40
0.7659608668
 40
1.0
 40
1.0
 40
1.0
 40
1.0
 10
16.8396897423
 20
21.5661067832
 30
0.0
 10
16.9815238928
 20
21.6214020905
 30
0.0
 10
17.2641639738
 20
21.7156658253
 30
0.0
 10
17.6915062111
 20
21.8063654839
 30
0.0
 10
18.1079117646
 20
21.8418948487
 30
0.0
 10
18.3803898319
 20
21.8281149954
 30
0.0
 10
18.5125372631
 20
21.8115810552
 30
0.0
 11
16.8396897423
 21
21.5661067832
 31
0.0
 11
17.2733073279
 21
21.709446466
 31
0.0
 11
17.6992274141
 21
21.7985987097
 31
0.0
 11
18.113565106
 21
21.8327482621
 31
0.0
 11
18.5125372631
 21
21.8115810552
 31
0.0
  0
SPLINE
  5
4B9
100
AcDbEntity
  8
0
100
AcDbSpline
 62
7
  6
CONTINUOUS
 70
0
 71
3
 72
9
 73
5
 74
3
 42
0.0000001
 43
0.0000001
 44
0.0000000001
 12
-0.5581118884
 22
0.1639289148
 32
0.0
 13
-0.5769162525
 23
0.0743586357
 33
0.0
 40
0.0
 40
0.0
 40
0.0
 40
0.0
 40
0.2560892103
 40
1.0
 40
1.0
 40
1.0
 40
1.0
 10
16.2680150322
 20
21.6419789074
 30
0.0
 10
16.2203728879
 20
21.6559723828
 30
0.0
 10
16.0333623331
 20
21.7072064052
 30
0.0
 10
15.842419169
 20
21.7444010965
 30
0.0
 10
15.699361094
 20
21.762839827
 30
0.0
 11
16.2680150322
 21
21.6419789074
 31
0.0
 11
16.1243322102
 21
21.6812926205
 31
0.0
 11
15.699361094
 21
21.762839827
 31
0.0
  0
SPLINE
  5
4BA
100
AcDbEntity
  8
0
100
AcDbSpline
 62
253
  6
CONTINUOUS
 70
0
 71
3
 72
13
 73
9
 74
7
 42
0.0000001
 43
0.0000001
 44
0.0000000001
 12
-0.1232536773
 22
-1.2177419822
 32
0.0
 13
1.0068727634
 23
-0.695912525
 33
0.0
 40
0.0
 40
0.0
 40
0.0
 40
0.0
 40
0.1090307788
 40
0.2189987191
 40
0.3321443526
 40
0.450434519
 40
0.7079351657
 40
1.0
 40
1.0
 40
1.0
 40
1.0
 10
13.6313771027
 20
20.5069660182
 30
0.0
 10
13.6268976212
 20
20.4627088993
 30
0.0
 10
13.6253999599
 20
20.3728643435
 30
0.0
 10
13.6462107591
 20
20.2383491827
 30
0.0
 10
13.6898175106
 20
20.1054402072
 30
0.0
 10
13.7801654657
 20
19.9268517387
 30
0.0
 10
13.9529304313
 20
19.7123184201
 30
0.0
 10
14.1281654919
 20
19.5702768718
 30
0.0
 10
14.2261895341
 20
19.5025263464
 30
0.0
 11
13.6313771027
 21
20.5069660182
 31
0.0
 11
13.6291786798
 21
20.3735344182
 31
0.0
 11
13.6495386121
 21
20.2404864522
 31
0.0
 11
13.692316526
 21
20.1087728933
 31
0.0
 11
13.7571932226
 21
19.9793391585
 31
0.0
 11
13.9512494384
 21
19.7309942058
 31
0.0
 11
14.2261895341
 21
19.5025263464
 31
0.0
  0
SPLINE
  5
4BB
100
AcDbEntity
  8
0
100
AcDbSpline
 62
7
  6
CONTINUOUS
 70
0
 71
3
 72
9
 73
5
 74
3
 42
0.0000001
 43
0.0000001
 44
0.0000000001
 12
1.4965688059
 22
1.7090671732
 32
0.0
 13
1.9392383267
 23
1.1832089864
 33
0.0
 40
0.0
 40
0.0
 40
0.0
 40
0.0
 40
0.5178322964
 40
1.0
 40
1.0
 40
1.0
 40
1.0
 10
14.3016995222
 20
19.6781379526
 30
0.0
 10
14.5600234094
 20
19.9731413456
 30
0.0
 10
15.096152856
 20
20.5115926189
 30
0.0
 10
15.7071027416
 20
20.965484578
 30
0.0
 10
16.0187821052
 20
21.1556529647
 30
0.0
 11
14.3016995222
 21
19.6781379526
 31
0.0
 11
15.1353368166
 21
20.5081216599
 31
0.0
 11
16.0187821052
 21
21.1556529647
 31
0.0
  0
LINE
  5
4BC
100
AcDbEntity
  8
0
100
AcDbLine
 62
7
  6
CONTINUOUS
 10
14.208598889
 20
19.2505683143
 11
14.2261895341
 21
19.5025263464
  0
SPLINE
  5
4BD
100
AcDbEntity
  8
0
100
AcDbSpline
 62
253
  6
CONTINUOUS
 70
0
 71
3
 72
14
 73
10
 74
8
 42
0.0000001
 43
0.0000001
 44
0.0000000001
 12
1.4322462496
 22
0.7161231248
 32
0.0
 13
-0.1612118234
 23
1.5931642719
 33
0.0
 40
0.0
 40
0.0
 40
0.0
 40
0.0
 40
0.3040577776
 40
0.440244719
 40
0.5662017727
 40
0.6830084595
 40
0.7924619902
 40
0.897091085
 40
1.0
 40
1.0
 40
1.0
 40
1.0
 10
19.0140251591
 20
19.3116549236
 30
0.0
 10
19.1591870296
 20
19.3842358588
 30
0.0
 10
19.3625122522
 20
19.5059464072
 30
0.0
 10
19.5925094505
 20
19.7029418197
 30
0.0
 10
19.7284477888
 20
19.8536206729
 30
0.0
 10
19.832521762
 20
20.011162137
 30
0.0
 10
19.9032653199
 20
20.1741160952
 30
0.0
 10
19.9393467417
 20
20.3405743466
 30
0.0
 10
19.9397316746
 20
20.452315752
 30
0.0
 10
19.93420163
 20
20.5069660209
 30
0.0
 11
19.0140251591
 21
19.3116549236
 31
0.0
 11
19.4283593425
 21
19.5673634135
 31
0.0
 11
19.5933051547
 21
19.7100171381
 31
0.0
 11
19.7275973067
 21
19.8605046872
 31
0.0
 11
19.8297688288
 21
20.0171759805
 31
0.0
 11
19.8987022423
 21
20.1783188809
 31
0.0
 11
19.9336363399
 21
20.3421789462
 31
0.0
 11
19.93420163
 21
20.5069660209
 31
0.0
  0
SPLINE
  5
4BE
100
AcDbEntity
  8
0
100
AcDbSpline
 62
253
  6
CONTINUOUS
 70
0
 71
3
 72
15
 73
11
 74
9
 42
0.0000001
 43
0.0000001
 44
0.0000000001
 12
3.9295981376
 22
-1.4213730872
 32
0.0
 13
3.7375974076
 23
1.8687987037
 33
0.0
 40
0.0
 40
0.0
 40
0.0
 40
0.0
 40
0.1192556176
 40
0.2459291734
 40
0.3773050017
 40
0.5103767428
 40
0.6420529517
 40
0.7693185465
 40
0.889404533
 40
1.0
 40
1.0
 40
1.0
 40
1.0
 10
14.9332963153
 20
19.1489729558
 30
0.0
 10
15.0895051996
 20
19.092470714
 30
0.0
 10
15.4189372876
 20
18.9955800522
 30
0.0
 10
15.9363005643
 20
18.8990020942
 30
0.0
 10
16.4795288352
 20
18.8487338451
 30
0.0
 10
17.0319936024
 20
18.8463760065
 30
0.0
 10
17.5768521007
 20
18.8919762617
 30
0.0
 10
18.0975374812
 20
18.9841548622
 30
0.0
 10
18.5781507884
 20
19.1200130588
 30
0.0
 10
18.8762380489
 20
19.2427613685
 30
0.0
 10
19.0140251591
 20
19.3116549236
 30
0.0
 11
14.9332963153
 21
19.1489729558
 31
0.0
 11
15.4108319118
 21
19.0064835746
 31
0.0
 11
15.930952992
 21
18.9081305523
 31
0.0
 11
16.4775504106
 21
18.8569516223
 31
0.0
 11
17.0336202021
 21
18.8545462875
 31
0.0
 11
17.5819004818
 21
18.9009847637
 31
0.0
 11
18.1053675412
 21
18.99482915
 31
0.0
 11
18.5877373017
 21
19.1331524033
 31
0.0
 11
19.0140251591
 21
19.3116549236
 31
0.0
  0
SPLINE
  5
4BF
100
AcDbEntity
  8
0
100
AcDbSpline
 62
7
  6
CONTINUOUS
 70
0
 71
3
 72
9
 73
5
 74
3
 42
0.0000001
 43
0.0000001
 44
0.0000000001
 12
-0.7446962051
 22
0.2700674532
 32
0.0
 13
-0.6522013361
 23
0.4496023625
 33
0.0
 40
0.0
 40
0.0
 40
0.0
 40
0.0
 40
0.523637549
 40
1.0
 40
1.0
 40
1.0
 40
1.0
 10
14.9157056702
 20
18.8970149237
 30
0.0
 10
14.7857220383
 20
18.9441540767
 30
0.0
 10
14.5417972178
 20
19.0468047652
 30
0.0
 10
14.312160298
 20
19.1791770865
 30
0.0
 10
14.208598889
 20
19.2505683143
 30
0.0
 11
14.9157056702
 21
18.8970149237
 31
0.0
 11
14.5341833373
 21
19.0598071478
 31
0.0
 11
14.208598889
 21
19.2505683143
 31
0.0
  0
LINE
  5
4C0
100
AcDbEntity
  8
0
100
AcDbLine
 62
253
  6
CONTINUOUS
 10
15.8008451513
 20
19.1212970561
 11
15.8065645743
 21
19.1203277504
  0
SPLINE
  5
4C1
100
AcDbEntity
  8
0
100
AcDbSpline
 62
253
  6
CONTINUOUS
 70
0
 71
3
 72
11
 73
7
 74
5
 42
0.0000001
 43
0.0000001
 44
0.0000000001
 12
2.4609217233
 22
-0.4157102969
 32
0.0
 13
2.4020156686
 23
0.6776957336
 33
0.0
 40
0.0
 40
0.0
 40
0.0
 40
0.0
 40
0.2513654743
 40
0.5073778166
 40
0.7596247699
 40
1.0
 40
1.0
 40
1.0
 40
1.0
 10
15.8065645743
 20
19.1203277504
 30
0.0
 10
16.012761493
 20
19.0854960118
 30
0.0
 10
16.4332920343
 20
19.0390822107
 30
0.0
 10
17.0663235346
 20
19.0356710399
 30
0.0
 10
17.6872015047
 20
19.0971896775
 30
0.0
 10
18.0891946495
 20
19.1826560557
 30
0.0
 10
18.2816563392
 20
19.2369564783
 30
0.0
 11
15.8065645743
 21
19.1203277504
 31
0.0
 11
16.4300030094
 21
19.050339955
 31
0.0
 11
17.0689455432
 21
19.0468299798
 31
0.0
 11
17.6953268428
 21
19.1099601683
 31
0.0
 11
18.2816563392
 21
19.2369564783
 31
0.0
  0
SPLINE
  5
4C2
100
AcDbEntity
  8
0
100
AcDbSpline
 62
253
  6
CONTINUOUS
 70
0
 71
3
 72
20
 73
16
 74
14
 42
0.0000001
 43
0.0000001
 44
0.0000000001
 12
2.8080651128
 22
0.9805421636
 32
0.0
 13
-2.4090404811
 23
1.7444817491
 33
0.0
 40
0.0
 40
0.0
 40
0.0
 40
0.0
 40
0.1656013981
 40
0.3124846218
 40
0.3786890381
 40
0.4402201511
 40
0.4975338106
 40
0.5513659586
 40
0.6027527306
 40
0.6529751043
 40
0.7034511497
 40
0.7555680184
 40
0.868922228
 40
0.9320920896
 40
1.0
 40
1.0
 40
1.0
 40
1.0
 10
18.5291529537
 20
19.314825863
 30
0.0
 10
18.6841594565
 20
19.3689522474
 30
0.0
 10
18.9709130646
 20
19.4890008396
 30
0.0
 10
19.2923340767
 20
19.6874771837
 30
0.0
 10
19.4987683379
 20
19.8658371494
 30
0.0
 10
19.6225133038
 20
20.0019841252
 30
0.0
 10
19.7193272697
 20
20.1439523442
 30
0.0
 10
19.7880124211
 20
20.290583511
 30
0.0
 10
19.8276142585
 20
20.4404599602
 30
0.0
 10
19.837328746
 20
20.5919105111
 30
0.0
 10
19.8170000419
 20
20.7430331708
 30
0.0
 10
19.7485370823
 20
20.9470668598
 30
0.0
 10
19.6199186411
 20
21.1389039185
 30
0.0
 10
19.4488528838
 20
21.3108304367
 30
0.0
 10
19.3470894268
 20
21.3922252912
 30
0.0
 10
19.2925584584
 20
21.4317133279
 30
0.0
 11
18.5291529537
 21
19.314825863
 31
0.0
 11
18.9820446465
 21
19.5084730868
 31
0.0
 11
19.3509848645
 21
19.7424553303
 31
0.0
 11
19.4994333741
 21
19.8718319608
 31
0.0
 11
19.6218914343
 21
20.0078403817
 31
0.0
 11
19.7171985811
 21
20.1491791778
 31
0.0
 11
19.7844237087
 21
20.2944981861
 31
0.0
 11
19.8229499655
 21
20.4424045992
 31
0.0
 11
19.8323805241
 21
20.5914849827
 31
0.0
 11
19.8126485979
 21
20.7403155245
 31
0.0
 11
19.7639217043
 21
20.8874712014
 31
0.0
 11
19.5816930188
 21
21.1711354816
 31
0.0
 11
19.4498396195
 21
21.3049891375
 31
0.0
 11
19.2925584584
 21
21.4317133279
 31
0.0
  0
SPLINE
  5
4C3
100
AcDbEntity
  8
0
100
AcDbSpline
 62
253
  6
CONTINUOUS
 70
0
 71
3
 72
10
 73
6
 74
4
 42
0.0000001
 43
0.0000001
 44
0.0000000001
 12
-1.3899468603
 22
0.4969070696
 32
0.0
 13
-1.4739409382
 23
0.0797936157
 33
0.0
 40
0.0
 40
0.0
 40
0.0
 40
0.0
 40
0.2354019113
 40
0.4825056736
 40
1.0
 40
1.0
 40
1.0
 40
1.0
 10
18.5567723253
 20
21.8056743541
 30
0.0
 10
18.4477069428
 20
21.8446653121
 30
0.0
 10
18.220546235
 20
21.914784037
 30
0.0
 10
17.7403983711
 20
22.0236384899
 30
0.0
 10
17.365228376
 20
22.0675370105
 30
0.0
 10
17.1109763517
 20
22.0813012583
 30
0.0
 11
18.5567723253
 21
21.8056743541
 31
0.0
 11
18.2249811203
 21
21.9088953233
 31
0.0
 11
17.8693850467
 21
21.9900972624
 31
0.0
 11
17.1109763517
 21
22.0813012583
 31
0.0
  0
SPLINE
  5
4C4
100
AcDbEntity
  8
0
100
AcDbSpline
 62
253
  6
CONTINUOUS
 70
0
 71
3
 72
9
 73
5
 74
3
 42
0.0000001
 43
0.0000001
 44
0.0000000001
 12
-1.6253671908
 22
0.0879912631
 32
0.0
 13
-1.5851491486
 23
-0.3699501913
 33
0.0
 40
0.0
 40
0.0
 40
0.0
 40
0.0
 40
0.5084238712
 40
1.0
 40
1.0
 40
1.0
 40
1.0
 10
17.1109763517
 20
22.0813012583
 30
0.0
 10
16.8355178586
 20
22.0962135445
 30
0.0
 10
16.2911883872
 20
22.088724981
 30
0.0
 10
15.7524922732
 20
22.0076521658
 30
0.0
 10
15.4927517791
 20
21.9470326048
 30
0.0
 11
17.1109763517
 21
22.0813012583
 31
0.0
 11
16.2834738583
 21
22.0695776668
 31
0.0
 11
15.4927517791
 21
21.9470326048
 31
0.0
  0
SPLINE
  5
4C5
100
AcDbEntity
  8
0
100
AcDbSpline
 62
253
  6
CONTINUOUS
 70
0
 71
3
 72
22
 73
18
 74
16
 42
0.0000001
 43
0.0000001
 44
0.0000000001
 12
-3.3941795964
 22
-0.7921509419
 32
0.0
 13
2.856284558
 23
-1.9973974995
 33
0.0
 40
0.0
 40
0.0
 40
0.0
 40
0.0
 40
0.1710776108
 40
0.2502221371
 40
0.3244431544
 40
0.3934777604
 40
0.4572716545
 40
0.5160443359
 40
0.5703496505
 40
0.6211229528
 40
0.6696927945
 40
0.7176792904
 40
0.7667892025
 40
0.8185603089
 40
0.8742050828
 40
0.9345615816
 40
1.0
 40
1.0
 40
1.0
 40
1.0
 10
15.4927517791
 20
21.9470326048
 30
0.0
 10
15.2991957338
 20
21.901859508
 30
0.0
 10
15.0193273355
 20
21.8187192435
 30
0.0
 10
14.6724427256
 20
21.6703964961
 30
0.0
 10
14.4440554262
 20
21.5487745206
 30
0.0
 10
14.2433801526
 20
21.4153431605
 30
0.0
 10
14.0727575392
 20
21.2715044736
 30
0.0
 10
13.9342332368
 20
21.1187538186
 30
0.0
 10
13.8296028547
 20
20.9586180947
 30
0.0
 10
13.7605998309
 20
20.7927355681
 30
0.0
 10
13.7286796225
 20
20.6232092734
 30
0.0
 10
13.7347543954
 20
20.4526841555
 30
0.0
 10
13.7786727729
 20
20.2840657807
 30
0.0
 10
13.8592063716
 20
20.119818038
 30
0.0
 10
13.9748526317
 20
19.961843846
 30
0.0
 10
14.1238409217
 20
19.8118144246
 30
0.0
 10
14.2393959408
 20
19.721706797
 30
0.0
 10
14.3016995222
 20
19.6781379526
 30
0.0
 11
15.4927517791
 21
21.9470326048
 31
0.0
 11
14.9222697199
 21
21.7735645025
 31
0.0
 11
14.6689042036
 21
21.6644820712
 31
0.0
 11
14.4409484502
 21
21.542185899
 31
0.0
 11
14.2411246421
 21
21.4081526806
 31
0.0
 11
14.0718494937
 21
21.2639861276
 31
0.0
 11
13.9351522185
 21
21.1114224574
 31
0.0
 11
13.8326650276
 21
20.9522950843
 31
0.0
 11
13.7656419767
 21
20.7885132933
 31
0.0
 11
13.7348654376
 21
20.6220494928
 31
0.0
 11
13.7407150299
 21
20.4549000633
 31
0.0
 11
13.7831350783
 21
20.2890724893
 31
0.0
 11
13.8615749039
 21
20.1265710188
 31
0.0
 11
13.9751239433
 21
19.9693424107
 31
0.0
 11
14.1224900942
 21
19.8192187982
 31
0.0
 11
14.3016995222
 21
19.6781379526
 31
0.0
  0
SPLINE
  5
4C6
100
AcDbEntity
  8
0
100
AcDbSpline
 62
7
  6
CONTINUOUS
 70
0
 71
3
 72
9
 73
5
 74
3
 42
0.0000001
 43
0.0000001
 44
0.0000000001
 12
0.0134783704
 22
0.193037702
 32
0.0
 13
0.1274804467
 23
0.1455814432
 33
0.0
 40
0.0
 40
0.0
 40
0.0
 40
0.0
 40
0.4926142146
 40
1.0
 40
1.0
 40
1.0
 40
1.0
 10
14.2261895341
 20
19.5025263464
 30
0.0
 10
14.2284027464
 20
19.5342240517
 30
0.0
 10
14.2456188191
 20
19.5977746194
 30
0.0
 10
14.2801389333
 20
19.6535159676
 30
0.0
 10
14.3016995222
 20
19.6781379526
 30
0.0
 11
14.2261895341
 21
19.5025263464
 31
0.0
 11
14.249563661
 21
19.594940824
 31
0.0
 11
14.3016995222
 21
19.6781379526
 31
0.0
  0
SPLINE
  5
4C7
100
AcDbEntity
  8
0
100
AcDbSpline
 62
7
  6
CONTINUOUS
 70
0
 71
3
 72
9
 73
5
 74
3
 42
0.0000001
 43
0.0000001
 44
0.0000000001
 12
-0.5458959128
 22
0.4755354833
 32
0.0
 13
-0.5913516964
 23
0.4176595678
 33
0.0
 40
0.0
 40
0.0
 40
0.0
 40
0.0
 40
0.2546885217
 40
1.0
 40
1.0
 40
1.0
 40
1.0
 10
18.3611922815
 20
20.4319242332
 30
0.0
 10
18.3148478071
 20
20.4722953763
 30
0.0
 10
18.1309850012
 20
20.6286087437
 30
0.0
 10
17.939452079
 20
20.7759550951
 30
0.0
 10
17.7925383433
 20
20.8797172518
 30
0.0
 11
18.3611922815
 21
20.4319242332
 31
0.0
 11
18.2206947831
 21
20.5513361606
 31
0.0
 11
17.7925383433
 21
20.8797172518
 31
0.0
  0
SPLINE
  5
4C8
100
AcDbEntity
  8
0
100
AcDbSpline
 62
7
  6
CONTINUOUS
 70
0
 71
3
 72
9
 73
5
 74
3
 42
0.0000001
 43
0.0000001
 44
0.0000000001
 12
-0.2646005329
 22
0.3179622526
 32
0.0
 13
-0.2887209004
 23
0.2962324725
 33
0.0
 40
0.0
 40
0.0
 40
0.0
 40
0.0
 40
0.2567850632
 40
1.0
 40
1.0
 40
1.0
 40
1.0
 10
17.7925383433
 20
20.8797172518
 30
0.0
 10
17.7698898551
 20
20.9069332375
 30
0.0
 10
17.680732665
 20
21.0121176125
 30
0.0
 10
17.5876686175
 20
21.1140136204
 30
0.0
 10
17.516141389
 20
21.1874017531
 30
0.0
 11
17.7925383433
 21
20.8797172518
 31
0.0
 11
17.7238437732
 21
20.9607359601
 31
0.0
 11
17.516141389
 21
21.1874017531
 31
0.0
  0
SPLINE
  5
4C9
100
AcDbEntity
  8
0
100
AcDbSpline
 62
7
  6
CONTINUOUS
 70
0
 71
3
 72
8
 73
4
 74
2
 42
0.0000001
 43
0.0000001
 44
0.0000000001
 12
0.0160449254
 22
-0.002278225
 32
0.0
 13
0.0152572458
 23
-0.005463185
 33
0.0
 40
0.0
 40
0.0
 40
0.0
 40
0.0
 40
1.0
 40
1.0
 40
1.0
 40
1.0
 10
18.5567723253
 20
21.8056743541
 30
0.0
 10
18.5621206338
 20
21.8049149458
 30
0.0
 10
18.5674239612
 20
21.8036269964
 30
0.0
 10
18.5725097098
 20
21.8018059347
 30
0.0
 11
18.5567723253
 21
21.8056743541
 31
0.0
 11
18.5725097098
 21
21.8018059347
 31
0.0
  0
SPLINE
  5
4CA
100
AcDbEntity
  8
RACCORDO
100
AcDbSpline
 62
7
  6
CONTINUOUS
 70
0
 71
3
 72
28
 73
24
 74
22
 42
0.0000001
 43
0.0000001
 44
0.0000000001
 12
-14.2346496089
 22
3.2106318786
 32
0.0
 13
-2.380390127
 23
14.3967756596
 33
0.0
 40
0.0
 40
0.0
 40
0.0
 40
0.0
 40
0.0581423597
 40
0.1230656165
 40
0.1936729311
 40
0.2686118968
 40
0.3463273099
 40
0.4251963409
 40
0.5035499189
 40
0.5797391166
 40
0.6521822098
 40
0.7194216552
 40
0.7802120973
 40
0.8336499538
 40
0.8793969556
 40
0.8995808591
 40
0.9183424461
 40
0.9363058967
 40
0.9546633053
 40
0.9645680181
 40
0.975264669
 40
0.9870125571
 40
1.0
 40
1.0
 40
1.0
 40
1.0
 10
-6.9829689049
 20
-18.7239758673
 30
0.0
 10
-7.258847611
 20
-18.6617512961
 30
0.0
 10
-7.8399299757
 20
-18.5173363713
 30
0.0
 10
-8.7467692173
 20
-18.2618384736
 30
0.0
 10
-9.724867729
 20
-17.9592339999
 30
0.0
 10
-10.7551074265
 20
-17.6155957184
 30
0.0
 10
-11.816135615
 20
-17.2379868058
 30
0.0
 10
-12.8853561812
 20
-16.8344840212
 30
0.0
 10
-13.9399090057
 20
-16.4137029075
 30
0.0
 10
-14.9572809941
 20
-15.9846293992
 30
0.0
 10
-15.9160585077
 20
-15.5562986802
 30
0.0
 10
-16.7967148431
 20
-15.1373752559
 30
0.0
 10
-17.5828264563
 20
-14.7355904971
 30
0.0
 10
-18.2625170699
 20
-14.3564072774
 30
0.0
 10
-18.7553635494
 20
-14.0485923993
 30
0.0
 10
-19.0909951635
 20
-13.8094953541
 30
0.0
 10
-19.3078192168
 20
-13.6371519075
 30
0.0
 10
-19.5055046836
 20
-13.4558705249
 30
0.0
 10
-19.654402815
 20
-13.286478627
 30
0.0
 10
-19.7628119067
 20
-13.1307619405
 30
0.0
 10
-19.8391274536
 20
-12.9927951816
 30
0.0
 10
-19.9047570727
 20
-12.8329509243
 30
0.0
 10
-19.9337700456
 20
-12.7155643436
 30
0.0
 10
-19.9440751059
 20
-12.6532385764
 30
0.0
 11
-6.9829689049
 21
-18.7239758673
 31
0.0
 11
-7.806829998
 21
-18.5212901031
 31
0.0
 11
-8.7190629476
 21
-18.2656505399
 31
0.0
 11
-9.7036165734
 21
-17.9619881535
 31
0.0
 11
-10.7411300069
 21
-17.6164919207
 31
0.0
 11
-11.8096246729
 21
-17.2365314751
 31
0.0
 11
-12.8863931814
 21
-16.8302257159
 31
0.0
 11
-13.9482615677
 21
-16.4063224104
 31
0.0
 11
-14.9724829608
 21
-15.9738815869
 31
0.0
 11
-15.9373468157
 21
-15.5420105032
 31
0.0
 11
-16.8228930069
 21
-15.1195056774
 31
0.0
 11
-17.6119845971
 21
-14.7142586557
 31
0.0
 11
-18.2917399396
 21
-14.3321771591
 31
0.0
 11
-18.8556440172
 21
-13.9749143627
 31
0.0
 11
-19.0950320315
 21
-13.8033325711
 31
0.0
 11
-19.3087408081
 21
-13.6322170824
 31
0.0
 11
-19.500823329
 21
-13.4538499328
 31
0.0
 11
-19.6764018345
 21
-13.2515393687
 31
0.0
 11
-19.7585912793
 21
-13.1326513001
 31
0.0
 11
-19.8340636711
 21
-12.9960225878
 31
0.0
 11
-19.8986706796
 21
-12.8372350378
 31
0.0
 11
-19.9440751059
 21
-12.6532385764
 31
0.0
  0
SPLINE
  5
4CB
100
AcDbEntity
  8
0
100
AcDbSpline
 62
7
  6
CONTINUOUS
 70
0
 71
3
 72
9
 73
5
 74
3
 42
0.0000001
 43
0.0000001
 44
0.0000000001
 12
-0.0079955496
 22
-0.0542888589
 32
0.0
 13
0.0089492252
 23
-0.0541398226
 33
0.0
 40
0.0
 40
0.0
 40
0.0
 40
0.0
 40
0.2396739663
 40
1.0
 40
1.0
 40
1.0
 40
1.0
 10
-20.0382024583
 20
-12.0350387852
 30
0.0
 10
-20.0388412333
 20
-12.039375994
 30
0.0
 10
-20.0407209427
 20
-12.0575872385
 30
0.0
 10
-20.0394743014
 20
-12.0760548352
 30
0.0
 10
-20.0372061917
 20
-12.0897761407
 30
0.0
 11
-20.0382024583
 21
-12.0350387852
 31
0.0
 11
-20.0395626792
 21
-12.0481202422
 31
0.0
 11
-20.0372061917
 21
-12.0897761407
 31
0.0
  0
SPLINE
  5
4CC
100
AcDbEntity
  8
RACCORDO
100
AcDbSpline
 62
253
  6
CONTINUOUS
 70
0
 71
3
 72
22
 73
18
 74
16
 42
0.0000001
 43
0.0000001
 44
0.0000000001
 12
-12.492520644
 22
3.6790699507
 32
0.0
 13
-2.1203392911
 23
12.8492330134
 33
0.0
 40
0.0
 40
0.0
 40
0.0
 40
0.0
 40
0.1515078201
 40
0.3151916488
 40
0.480550776
 40
0.6369716526
 40
0.7086655974
 40
0.7744661485
 40
0.8333411641
 40
0.8843842338
 40
0.9268618299
 40
0.9447169957
 40
0.9602602408
 40
0.9734762456
 40
0.9844026144
 40
0.9931542069
 40
1.0
 40
1.0
 40
1.0
 40
1.0
 10
-8.2083003363
 20
-18.0231592048
 30
0.0
 10
-8.8392051931
 20
-17.8373565821
 30
0.0
 10
-10.1428894528
 20
-17.420648882
 30
0.0
 10
-12.1073637265
 20
-16.7178573856
 30
0.0
 10
-14.0683946503
 20
-15.9452373865
 30
0.0
 10
-15.6365208777
 20
-15.26705925
 30
0.0
 10
-16.791601457
 20
-14.7249208008
 30
0.0
 10
-17.5546692775
 20
-14.3447476732
 30
0.0
 10
-18.2277129139
 20
-13.9854674565
 30
0.0
 10
-18.7998051066
 20
-13.652981756
 30
0.0
 10
-19.2058996258
 20
-13.3899294689
 30
0.0
 10
-19.4713583575
 20
-13.1947756894
 30
0.0
 10
-19.6283702998
 20
-13.0669495897
 30
0.0
 10
-19.7546388153
 20
-12.9495334687
 30
0.0
 10
-19.8499361813
 20
-12.8427317632
 30
0.0
 10
-19.9144015152
 20
-12.7468914773
 30
0.0
 10
-19.9392232116
 20
-12.6825646181
 30
0.0
 10
-19.9440616796
 20
-12.6532435546
 30
0.0
 11
-8.2083003363
 21
-18.0231592048
 31
0.0
 11
-10.0890172238
 21
-17.4265219898
 31
0.0
 11
-12.0965689363
 21
-16.7098005098
 31
0.0
 11
-14.0998981707
 21
-15.9197904089
 31
0.0
 11
-15.968248342
 21
-15.1080512424
 31
0.0
 11
-16.8131137654
 21
-14.7106307516
 31
0.0
 11
-17.5796487165
 21
-14.327567477
 31
0.0
 11
-18.2553067932
 21
-13.9651307691
 31
0.0
 11
-18.8289558323
 21
-13.6292763503
 31
0.0
 11
-19.2912634923
 21
-13.3254898095
 31
0.0
 11
-19.4782032809
 21
-13.1872048287
 31
0.0
 11
-19.6346416943
 21
-13.0587494903
 31
0.0
 11
-19.759864714
 21
-12.9406742453
 31
0.0
 11
-19.8534056995
 21
-12.8334468847
 31
0.0
 11
-19.9149132711
 21
-12.7374966857
 31
0.0
 11
-19.9440616796
 21
-12.6532435546
 31
0.0
  0
SPLINE
  5
4CD
100
AcDbEntity
  8
0
100
AcDbSpline
 62
7
  6
CONTINUOUS
 70
0
 71
3
 72
20
 73
16
 74
14
 42
0.0000001
 43
0.0000001
 44
0.0000000001
 12
1.3160003949
 22
-7.9613627621
 32
0.0
 13
7.5053705491
 23
-2.96387702
 33
0.0
 40
0.0
 40
0.0
 40
0.0
 40
0.0
 40
0.0163964501
 40
0.0269265063
 40
0.0391765391
 40
0.0690384809
 40
0.106192172
 40
0.1505591427
 40
0.2019082529
 40
0.2599346426
 40
0.3242287328
 40
0.4697616856
 40
0.6342542518
 40
0.8127927845
 40
1.0
 40
1.0
 40
1.0
 40
1.0
 10
-20.0372061917
 20
-12.0897761407
 30
0.0
 10
-20.0300136135
 20
-12.1332888364
 30
0.0
 10
-19.9979321572
 20
-12.2007960368
 30
0.0
 10
-19.9372462971
 20
-12.2866094782
 30
0.0
 10
-19.8445280344
 20
-12.3940609489
 30
0.0
 10
-19.6879442798
 20
-12.5393932039
 30
0.0
 10
-19.4518853647
 20
-12.7242118097
 30
0.0
 10
-19.1579182865
 20
-12.9277384747
 30
0.0
 10
-18.808123674
 20
-13.1484886168
 30
0.0
 10
-18.4049826861
 20
-13.3846200963
 30
0.0
 10
-17.7738095838
 20
-13.7321747052
 30
0.0
 10
-16.8756418342
 20
-14.1877959569
 30
0.0
 10
-15.6850475355
 20
-14.7444570995
 30
0.0
 10
-14.377254398
 20
-15.3138811997
 30
0.0
 10
-13.4661811278
 20
-15.6853207941
 30
0.0
 10
-12.9978279538
 20
-15.8702738488
 30
0.0
 11
-20.0372061917
 21
-12.0897761407
 31
0.0
 11
-19.9873723622
 21
-12.2123419606
 31
0.0
 11
-19.9388774197
 21
-12.2821154836
 31
0.0
 11
-19.8747847934
 21
-12.3573719145
 31
0.0
 11
-19.7004335372
 21
-12.5237063326
 31
0.0
 11
-19.4655964831
 21
-12.7100831165
 31
0.0
 11
-19.1720753493
 21
-12.9150705374
 31
0.0
 11
-18.8222041841
 21
-13.1370645026
 31
0.0
 11
-18.4185657246
 21
-13.3743886452
 31
0.0
 11
-17.9643936147
 21
-13.6251797183
 31
0.0
 11
-16.9185758017
 21
-14.1594022089
 31
0.0
 11
-15.7169496351
 21
-14.7232884153
 31
0.0
 11
-14.3964931306
 21
-15.2994878334
 31
0.0
 11
-12.9978279538
 21
-15.8702738488
 31
0.0
  0
SPLINE
  5
4CE
100
AcDbEntity
  8
RACCORDO
100
AcDbSpline
 62
7
  6
CONTINUOUS
 70
0
 71
3
 72
11
 73
7
 74
5
 42
0.0000001
 43
0.0000001
 44
0.0000000001
 12
-0.64987884
 22
0.32493942
 32
0.0
 13
-0.64987884
 23
-0.32493942
 33
0.0
 40
0.0
 40
0.0
 40
0.0
 40
0.0
 40
0.235180256
 40
0.5
 40
0.764819744
 40
1.0
 40
1.0
 40
1.0
 40
1.0
 10
-6.5870898039
 20
30.2569905569
 30
0.0
 10
-6.6380360279
 20
30.2824636689
 30
0.0
 10
-6.7552560543
 20
30.3186504944
 30
0.0
 10
-6.9406431945
 20
30.3363874058
 30
0.0
 10
-7.1260303347
 20
30.3186504944
 30
0.0
 10
-7.2432503611
 20
30.2824636689
 30
0.0
 10
-7.2941965851
 20
30.2569905569
 30
0.0
 11
-6.5870898039
 21
30.2569905569
 31
0.0
 11
-6.7491871494
 21
30.3110648125
 31
0.0
 11
-6.9406431945
 21
30.3302459792
 31
0.0
 11
-7.1320992396
 21
30.3110648125
 31
0.0
 11
-7.2941965851
 21
30.2569905569
 31
0.0
  0
SPLINE
  5
4CF
100
AcDbEntity
  8
RACCORDO
100
AcDbSpline
 62
7
  6
CONTINUOUS
 70
0
 71
3
 72
11
 73
7
 74
5
 42
0.0000001
 43
0.0000001
 44
0.0000000001
 12
0.0
 22
0.3850279568
 32
0.0
 13
-0.3443794739
 23
0.1721897369
 33
0.0
 40
0.0
 40
0.0
 40
0.0
 40
0.0
 40
0.2065170284
 40
0.4344984102
 40
0.6975276291
 40
1.0
 40
1.0
 40
1.0
 40
1.0
 10
21.343628053
 20
19.2372160407
 30
0.0
 10
21.343628053
 20
19.2637209839
 30
0.0
 10
21.3318874372
 20
19.3199030506
 30
0.0
 10
21.2830461985
 20
19.3966035574
 30
0.0
 10
21.2067946057
 20
19.4654260149
 30
0.0
 10
21.1440352366
 20
19.5026978739
 30
0.0
 10
21.1093134779
 20
19.5200587532
 30
0.0
 11
21.343628053
 21
19.2372160407
 31
0.0
 11
21.3282467102
 21
19.3152290038
 31
0.0
 11
21.2827399262
 21
19.3902911217
 31
0.0
 11
21.2087642166
 21
19.4594571321
 31
0.0
 11
21.1093134779
 21
19.5200587532
 31
0.0
  0
SPLINE
  5
4D0
100
AcDbEntity
  8
RACCORDO
100
AcDbSpline
 62
7
  6
CONTINUOUS
 70
0
 71
3
 72
9
 73
5
 74
3
 42
0.0000001
 43
0.0000001
 44
0.0000000001
 12
-0.0380493135
 22
0.2129124682
 32
0.0
 13
-0.1934517395
 23
0.0967258697
 33
0.0
 40
0.0
 40
0.0
 40
0.0
 40
0.0
 40
0.2101581456
 40
1.0
 40
1.0
 40
1.0
 40
1.0
 10
23.9630300598
 20
14.89966151
 30
0.0
 10
23.960364602
 20
14.9145766065
 30
0.0
 10
23.9343958773
 20
14.9833873393
 30
0.0
 10
23.8694338807
 20
15.0287287146
 30
0.0
 10
23.8185017871
 20
15.0541947614
 30
0.0
 11
23.9630300598
 21
14.89966151
 31
0.0
 11
23.9477273297
 21
14.9424623204
 31
0.0
 11
23.8185017871
 21
15.0541947614
 31
0.0
  0
SPLINE
  5
4D1
100
AcDbEntity
  8
RACCORDO
100
AcDbSpline
 62
7
  6
CONTINUOUS
 70
0
 71
3
 72
9
 73
5
 74
3
 42
0.0000001
 43
0.0000001
 44
0.0000000001
 12
-0.2131767177
 22
0.1065883588
 32
0.0
 13
0.0
 23
0.238338816
 33
0.0
 40
0.0
 40
0.0
 40
0.0
 40
0.0
 40
0.5679988369
 40
1.0
 40
1.0
 40
1.0
 40
1.0
 10
21.4900746624
 20
16.2184083237
 30
0.0
 10
21.4497132865
 20
16.2385890117
 30
0.0
 10
21.38082996
 20
16.2823490766
 30
0.0
 10
21.343628053
 20
16.3608641371
 30
0.0
 10
21.343628053
 20
16.395185019
 30
0.0
 11
21.4900746624
 21
16.2184083237
 31
0.0
 11
21.3816831322
 21
16.2995130934
 31
0.0
 11
21.343628053
 21
16.395185019
 31
0.0
  0
SPLINE
  5
4D2
100
AcDbEntity
  8
RACCORDO
100
AcDbSpline
 62
7
  6
CONTINUOUS
 70
0
 71
3
 72
9
 73
5
 74
3
 42
0.0000001
 43
0.0000001
 44
0.0000000001
 12
-0.3626551165
 22
0.0
 32
0.0
 13
-0.3243685971
 23
0.1621842986
 33
0.0
 40
0.0
 40
0.0
 40
0.0
 40
0.0
 40
0.269221611
 40
1.0
 40
1.0
 40
1.0
 40
1.0
 10
-3.9051092885
 20
29.0195536898
 30
0.0
 10
-3.9376541534
 20
29.0195536898
 30
0.0
 10
-4.058196942
 20
29.0255587757
 30
0.0
 10
-4.1796488255
 20
29.0532700677
 30
0.0
 10
-4.2586626791
 20
29.0927769945
 30
0.0
 11
-3.9051092885
 21
29.0195536898
 31
0.0
 11
-4.0026254924
 21
29.0243603594
 31
0.0
 11
-4.2586626791
 21
29.0927769945
 31
0.0
  0
SPLINE
  5
4D3
100
AcDbEntity
  8
0
100
AcDbSpline
 62
7
  6
CONTINUOUS
 70
0
 71
3
 72
11
 73
7
 74
5
 42
0.0000001
 43
0.0000001
 44
0.0000000001
 12
0.0
 22
1.4681175865
 32
0.0
 13
1.313124289
 23
0.6565621445
 33
0.0
 40
0.0
 40
0.0
 40
0.0
 40
0.0
 40
0.2465737242
 40
0.5117943593
 40
0.7705111068
 40
1.0
 40
1.0
 40
1.0
 40
1.0
 10
21.9800241561
 20
12.9153771514
 30
0.0
 10
21.9800241561
 20
13.0360435584
 30
0.0
 10
22.0221259869
 20
13.2868120803
 30
0.0
 10
22.1723003423
 20
13.6361859498
 30
0.0
 10
22.3948976224
 20
13.9341221051
 30
0.0
 10
22.5866817907
 20
14.0847313725
 30
0.0
 10
22.6871309372
 20
14.1349559458
 30
0.0
 11
21.9800241561
 21
12.9153771514
 31
0.0
 11
22.0339729902
 21
13.2733337957
 31
0.0
 11
22.187066702
 21
13.6313495319
 31
0.0
 11
22.4168850804
 21
13.9337594594
 31
0.0
 11
22.6871309372
 21
14.1349559458
 31
0.0
  0
SPLINE
  5
4D4
100
AcDbEntity
  8
RACCORDO
100
AcDbSpline
 62
7
  6
CONTINUOUS
 70
0
 71
3
 72
9
 73
5
 74
3
 42
0.0000001
 43
0.0000001
 44
0.0000000001
 12
0.2131211538
 22
0.1065605769
 32
0.0
 13
-0.0
 23
0.2382766937
 33
0.0
 40
0.0
 40
0.0
 40
0.0
 40
0.0
 40
0.5671894298
 40
1.0
 40
1.0
 40
1.0
 40
1.0
 10
23.8185017871
 20
14.7006413708
 30
0.0
 10
23.8587951424
 20
14.7207880484
 30
0.0
 10
23.9274032065
 20
14.7647264317
 30
0.0
 10
23.9650126318
 20
14.8430418422
 30
0.0
 10
23.9650126318
 20
14.8774180661
 30
0.0
 11
23.8185017871
 21
14.7006413708
 31
0.0
 11
23.9266502985
 21
14.7816900435
 31
0.0
 11
23.9650126318
 21
14.8774180661
 31
0.0
  0
SPLINE
  5
4D5
100
AcDbEntity
  8
RACCORDO
100
AcDbSpline
 62
7
  6
CONTINUOUS
 70
0
 71
3
 72
9
 73
5
 74
3
 42
0.0000001
 43
0.0000001
 44
0.0000000001
 12
0.099203344
 22
0.2353740378
 32
0.0
 13
0.0
 23
0.2554256078
 33
0.0
 40
0.0
 40
0.0
 40
0.0
 40
0.0
 40
0.2334998814
 40
1.0
 40
1.0
 40
1.0
 40
1.0
 10
21.9339611276
 20
-6.8204448581
 30
0.0
 10
21.9416824506
 20
-6.8021249215
 30
0.0
 10
21.9698826973
 20
-6.7216268861
 30
0.0
 10
21.9800241561
 20
-6.6354556866
 30
0.0
 10
21.9800241561
 20
-6.5701944337
 30
0.0
 11
21.9339611276
 21
-6.8204448581
 31
0.0
 11
21.9538673544
 21
-6.7642230447
 31
0.0
 11
21.9800241561
 21
-6.5701944337
 31
0.0
  0
SPLINE
  5
4D6
100
AcDbEntity
  8
RACCORDO
100
AcDbSpline
 62
253
  6
CONTINUOUS
 70
0
 71
3
 72
12
 73
8
 74
6
 42
0.0000001
 43
0.0000001
 44
0.0000000001
 12
-0.1269433295
 22
-0.1406451517
 32
0.0
 13
-0.1783590469
 23
0.0639039748
 33
0.0
 40
0.0
 40
0.0
 40
0.0
 40
0.0
 40
0.3694637105
 40
0.6561539864
 40
0.768408772
 40
0.8612767806
 40
1.0
 40
1.0
 40
1.0
 40
1.0
 10
-9.6037520703
 20
-17.0870239557
 30
0.0
 10
-9.6193857215
 20
-17.1043450489
 30
0.0
 10
-9.648159542
 20
-17.1342198017
 30
0.0
 10
-9.6852934113
 20
-17.1657177267
 30
0.0
 10
-9.7119671855
 20
-17.1819343905
 30
0.0
 10
-9.7317408071
 20
-17.1905566278
 30
0.0
 10
-9.7475287592
 20
-17.1923372865
 30
0.0
 10
-9.7557762729
 20
-17.1893822981
 30
0.0
 11
-9.6037520703
 21
-17.0870239557
 31
0.0
 11
-9.652719976
 21
-17.1370442124
 31
0.0
 11
-9.6949406955
 21
-17.1712161738
 31
0.0
 11
-9.7132196207
 21
-17.1820884833
 31
0.0
 11
-9.7295009462
 21
-17.1887592734
 31
0.0
 11
-9.7557762729
 21
-17.1893822981
 31
0.0
  0
SPLINE
  5
4D7
100
AcDbEntity
  8
RACCORDO
100
AcDbSpline
 62
7
  6
CONTINUOUS
 70
0
 71
3
 72
10
 73
6
 74
4
 42
0.0000001
 43
0.0000001
 44
0.0000000001
 12
0.3471941063
 22
-0.0721526133
 32
0.0
 13
0.227214943
 23
0.2722556092
 33
0.0
 40
0.0
 40
0.0
 40
0.0
 40
0.0
 40
0.4827891464
 40
0.7436989725
 40
1.0
 40
1.0
 40
1.0
 40
1.0
 10
-16.7033751087
 20
26.511378966
 30
0.0
 10
-16.64750126
 20
26.4997674664
 30
0.0
 10
-16.5541609652
 20
26.5210906898
 30
0.0
 10
-16.4539517355
 20
26.5831673768
 30
0.0
 10
-16.4091914556
 20
26.6258977866
 30
0.0
 10
-16.3897796478
 20
26.6491575841
 30
0.0
 11
-16.7033751087
 21
26.511378966
 31
0.0
 11
-16.534242329
 21
26.5379219103
 31
0.0
 11
-16.4552887826
 21
26.5861569381
 31
0.0
 11
-16.3897796478
 21
26.6491575841
 31
0.0
  0
SPLINE
  5
4D8
100
AcDbEntity
  8
RACCORDO
100
AcDbSpline
 62
253
  6
CONTINUOUS
 70
0
 71
3
 72
11
 73
7
 74
5
 42
0.0000001
 43
0.0000001
 44
0.0000000001
 12
-2.28673019
 22
2.2211408525
 32
0.0
 13
-2.3752898369
 23
2.1261702281
 33
0.0
 40
0.0
 40
0.0
 40
0.0
 40
0.0
 40
0.2445502003
 40
0.4930481047
 40
0.7450300995
 40
1.0
 40
1.0
 40
1.0
 40
1.0
 10
-10.4993432528
 20
-19.2744895243
 30
0.0
 10
-10.6857500281
 20
-19.0934293775
 30
0.0
 10
-11.06361344
 20
-18.7304878719
 30
0.0
 10
-11.6381963018
 20
-18.1858455404
 30
0.0
 10
-12.2249548572
 20
-17.6379831418
 30
0.0
 10
-12.6228673943
 20
-17.2748131331
 30
0.0
 10
-12.8247431987
 20
-17.094109996
 30
0.0
 11
-10.4993432528
 21
-19.2744895243
 31
0.0
 11
-11.0611748872
 21
-18.7340104975
 31
0.0
 11
-11.6361854321
 21
-18.1891106842
 31
0.0
 11
-12.2236625508
 21
-17.6412564411
 31
0.0
 11
-12.8247431987
 21
-17.094109996
 31
0.0
  0
SPLINE
  5
4D9
100
AcDbEntity
  8
RACCORDO
100
AcDbSpline
 62
253
  6
CONTINUOUS
 70
0
 71
3
 72
13
 73
9
 74
7
 42
0.0000001
 43
0.0000001
 44
0.0000000001
 12
-2.650342626
 22
-0.1283722237
 32
0.0
 13
-2.6532207946
 23
0.0348551003
 33
0.0
 40
0.0
 40
0.0
 40
0.0
 40
0.0
 40
0.0947300145
 40
0.200854447
 40
0.3161829876
 40
0.4394424362
 40
0.7069339739
 40
1.0
 40
1.0
 40
1.0
 40
1.0
 10
-3.142782533
 20
-21.4995505671
 30
0.0
 10
-3.2264715314
 20
-21.5036041346
 30
0.0
 10
-3.4035442036
 20
-21.5187881203
 30
0.0
 10
-3.6818534049
 20
-21.5459373555
 30
0.0
 10
-3.9855227891
 20
-21.5734013587
 30
0.0
 10
-4.4319392552
 20
-21.6064349216
 30
0.0
 10
-5.0364293734
 20
-21.6320794456
 30
0.0
 10
-5.532355557
 20
-21.6317462517
 30
0.0
 10
-5.7915451818
 20
-21.6283413032
 30
0.0
 11
-3.142782533
 21
-21.4995505671
 31
0.0
 11
-3.3934372027
 21
-21.5183855183
 31
0.0
 11
-3.673788413
 21
-21.5448320648
 31
0.0
 11
-3.9786015025
 21
-21.5719667917
 31
0.0
 11
-4.3047844252
 21
-21.5959406053
 31
0.0
 11
-5.0139120062
 21
-21.6262575764
 31
0.0
 11
-5.7915451818
 21
-21.6283413032
 31
0.0
  0
SPLINE
  5
4DA
100
AcDbEntity
  8
RACCORDO
100
AcDbSpline
 62
253
  6
CONTINUOUS
 70
0
 71
3
 72
11
 73
7
 74
5
 42
0.0000001
 43
0.0000001
 44
0.0000000001
 12
0.291260946
 22
-0.0608804149
 32
0.0
 13
0.1066333044
 23
0.277792552
 33
0.0
 40
0.0
 40
0.0
 40
0.0
 40
0.0
 40
0.2240297614
 40
0.4626415955
 40
0.7223918003
 40
1.0
 40
1.0
 40
1.0
 40
1.0
 10
-17.3274935374
 20
26.641587836
 30
0.0
 10
-17.305743164
 20
26.6370414944
 30
0.0
 10
-17.258148964
 20
26.6379863607
 30
0.0
 10
-17.1917448513
 20
26.6690949567
 30
0.0
 10
-17.1362230229
 20
26.7241787216
 30
0.0
 10
-17.1104562918
 20
26.7717495815
 30
0.0
 10
-17.1005888653
 20
26.7974554116
 30
0.0
 11
-17.3274935374
 21
26.641587836
 31
0.0
 11
-17.2608372464
 21
26.6424067125
 31
0.0
 11
-17.1960152485
 21
26.671374816
 31
0.0
 11
-17.1404640758
 21
26.7251133778
 31
0.0
 11
-17.1005888653
 21
26.7974554116
 31
0.0
  0
SPLINE
  5
4DB
100
AcDbEntity
  8
RACCORDO
100
AcDbSpline
 62
253
  6
CONTINUOUS
 70
0
 71
3
 72
11
 73
7
 74
5
 42
0.0000001
 43
0.0000001
 44
0.0000000001
 12
-0.2184153719
 22
0.1052308597
 32
0.0
 13
-0.2095630365
 23
-0.1219103861
 33
0.0
 40
0.0
 40
0.0
 40
0.0
 40
0.0
 40
0.2834029711
 40
0.5408837194
 40
0.7766084299
 40
1.0
 40
1.0
 40
1.0
 40
1.0
 10
-22.4796922118
 20
23.9782628818
 30
0.0
 10
-22.5003254003
 20
23.9882037946
 30
0.0
 10
-22.5413541325
 20
24.0040787765
 30
0.0
 10
-22.6037499082
 20
24.014602834
 30
0.0
 10
-22.6621511324
 20
24.0099086579
 30
0.0
 10
-22.6973295656
 20
23.9961688605
 30
0.0
 10
-22.7129344375
 20
23.987090943
 30
0.0
 11
-22.4796922118
 21
23.9782628818
 31
0.0
 11
-22.5439870367
 21
24.0024935938
 31
0.0
 11
-22.6056530026
 21
24.0121955659
 31
0.0
 11
-22.6625661307
 21
24.0069987103
 31
0.0
 11
-22.7129344375
 21
23.987090943
 31
0.0
  0
SPLINE
  5
4DC
100
AcDbEntity
  8
RACCORDO
100
AcDbSpline
 62
253
  6
CONTINUOUS
 70
0
 71
3
 72
11
 73
7
 74
5
 42
0.0000001
 43
0.0000001
 44
0.0000000001
 12
-0.2144195844
 22
0.1070156069
 32
0.0
 13
0.0075960951
 23
0.2395211841
 33
0.0
 40
0.0
 40
0.0
 40
0.0
 40
0.0
 40
0.3083849459
 40
0.5733761065
 40
0.7989247649
 40
1.0
 40
1.0
 40
1.0
 40
1.0
 10
-23.4722625509
 20
22.2263259342
 30
0.0
 10
-23.4943038082
 20
22.2373266016
 30
0.0
 10
-23.5339868881
 20
22.2606911111
 30
0.0
 10
-23.5820705994
 20
22.3034592732
 30
0.0
 10
-23.6125416059
 20
22.3506437181
 30
0.0
 10
-23.6192564256
 20
22.3852173555
 30
0.0
 10
-23.6187472968
 20
22.4012712816
 30
0.0
 11
-23.4722625509
 21
22.2263259342
 31
0.0
 11
-23.535493416
 21
22.2645796015
 31
0.0
 11
-23.5821357913
 21
22.3076737773
 31
0.0
 11
-23.6102430699
 21
22.3538416713
 31
0.0
 11
-23.6187472968
 21
22.4012712816
 31
0.0
  0
SPLINE
  5
4DD
100
AcDbEntity
  8
RACCORDO
100
AcDbSpline
 62
253
  6
CONTINUOUS
 70
0
 71
3
 72
11
 73
7
 74
5
 42
0.0000001
 43
0.0000001
 44
0.0000000001
 12
-0.2153162923
 22
0.1078404177
 32
0.0
 13
-0.0080933734
 23
0.2406764607
 33
0.0
 40
0.0
 40
0.0
 40
0.0
 40
0.0
 40
0.2969408575
 40
0.5582579318
 40
0.7883930717
 40
1.0
 40
1.0
 40
1.0
 40
1.0
 10
-23.47225742
 20
-13.3018604327
 30
0.0
 10
-23.4935694882
 20
-13.2911863573
 30
0.0
 10
-23.5322613466
 20
-13.2680508782
 30
0.0
 10
-23.5793912506
 20
-13.22499837
 30
0.0
 10
-23.6100848952
 20
-13.1766565815
 30
0.0
 10
-23.6181505429
 20
-13.141193439
 30
0.0
 10
-23.6187214142
 20
-13.1242171701
 30
0.0
 11
-23.47225742
 21
-13.3018604327
 31
0.0
 11
-23.5332253902
 21
-13.2644951036
 31
0.0
 11
-23.5790151077
 21
-13.2213292879
 31
0.0
 11
-23.6078486555
 21
-13.1740012991
 31
0.0
 11
-23.6187214142
 21
-13.1242171701
 31
0.0
  0
SPLINE
  5
4DE
100
AcDbEntity
  8
RACCORDO
100
AcDbSpline
 62
7
  6
CONTINUOUS
 70
0
 71
3
 72
11
 73
7
 74
5
 42
0.0000001
 43
0.0000001
 44
0.0000000001
 12
-0.0
 22
-0.3052099127
 32
0.0
 13
-0.2647998271
 23
-0.1517700312
 33
0.0
 40
0.0
 40
0.0
 40
0.0
 40
0.0
 40
0.289280463
 40
0.5498709648
 40
0.7834291805
 40
1.0
 40
1.0
 40
1.0
 40
1.0
 10
14.0957835458
 20
-26.8241771425
 30
0.0
 10
14.0957835458
 20
-26.8536075641
 30
0.0
 10
14.0905228186
 20
-26.9097003247
 30
0.0
 10
14.0674671873
 20
-26.9866619737
 30
0.0
 10
14.0293527518
 20
-27.0492430951
 30
0.0
 10
13.9935464369
 20
-27.079450603
 30
0.0
 10
13.9744304651
 20
-27.090406923
 30
0.0
 11
14.0957835458
 21
-26.8241771425
 31
0.0
 11
14.0872256113
 21
-26.912052675
 31
0.0
 11
14.0633461739
 21
-26.987918066
 31
0.0
 11
14.025300748
 21
-27.048200688
 31
0.0
 11
13.9744304651
 21
-27.090406923
 31
0.0
  0
SPLINE
  5
4DF
100
AcDbEntity
  8
RACCORDO
100
AcDbSpline
 62
253
  6
CONTINUOUS
 70
0
 71
3
 72
11
 73
7
 74
5
 42
0.0000001
 43
0.0000001
 44
0.0000000001
 12
0.6454928782
 22
-0.3221997521
 32
0.0
 13
0.6368409129
 23
0.3389799224
 33
0.0
 40
0.0
 40
0.0
 40
0.0
 40
0.0
 40
0.2335938986
 40
0.4963430091
 40
0.7610638023
 40
1.0
 40
1.0
 40
1.0
 40
1.0
 10
7.2164096634
 20
-28.6461993643
 30
0.0
 10
7.2666707294
 20
-28.6712873297
 30
0.0
 10
7.3825558732
 20
-28.7063606907
 30
0.0
 10
7.5661153202
 20
-28.7203210523
 30
0.0
 10
7.7502078332
 20
-28.6984461426
 30
0.0
 10
7.8662731469
 20
-28.6586405376
 30
0.0
 10
7.9169945957
 20
-28.6316423464
 30
0.0
 11
7.2164096634
 21
-28.6461993643
 31
0.0
 11
7.3765963883
 21
-28.6985485765
 31
0.0
 11
7.5655107646
 21
-28.7141483595
 31
0.0
 11
7.7550437762
 21
-28.6906850539
 31
0.0
 11
7.9169945957
 21
-28.6316423464
 31
0.0
  0
SPLINE
  5
4E0
100
AcDbEntity
  8
RACCORDO
100
AcDbSpline
 62
253
  6
CONTINUOUS
 70
0
 71
3
 72
11
 73
7
 74
5
 42
0.0000001
 43
0.0000001
 44
0.0000000001
 12
0.641915247
 22
-0.3215392008
 32
0.0
 13
0.6587383541
 23
0.2854932971
 33
0.0
 40
0.0
 40
0.0
 40
0.0
 40
0.0
 40
0.2360057268
 40
0.5011365124
 40
0.7656585462
 40
1.0
 40
1.0
 40
1.0
 40
1.0
 10
7.2164153506
 20
6.8819923837
 30
0.0
 10
7.2669139088
 20
6.8566973528
 30
0.0
 10
7.3823818553
 20
6.8194915357
 30
0.0
 10
7.5651996791
 20
6.7978426765
 30
0.0
 10
7.7485843299
 20
6.8084522618
 30
0.0
 10
7.8655380278
 20
6.8387176844
 30
0.0
 10
7.9169945957
 20
6.8610186559
 30
0.0
 11
7.2164153506
 21
6.8819923837
 31
0.0
 11
7.3766002402
 21
6.826762973
 31
0.0
 11
7.5655125301
 21
6.803421086
 31
0.0
 11
7.7550440988
 21
6.815433111
 31
0.0
 11
7.9169945957
 21
6.8610186559
 31
0.0
  0
SPLINE
  5
4E1
100
AcDbEntity
  8
RACCORDO
100
AcDbSpline
 62
253
  6
CONTINUOUS
 70
0
 71
3
 72
11
 73
7
 74
5
 42
0.0000001
 43
0.0000001
 44
0.0000000001
 12
0.6488721154
 22
-0.3366690639
 32
0.0
 13
0.032467886
 23
-0.7302923504
 33
0.0
 40
0.0
 40
0.0
 40
0.0
 40
0.0
 40
0.2299305034
 40
0.4899408713
 40
0.7554252058
 40
1.0
 40
1.0
 40
1.0
 40
1.0
 10
8.2323524879
 20
8.622240532
 30
0.0
 10
8.2820843187
 20
8.5964370362
 30
0.0
 10
8.377389084
 20
8.5209096871
 30
0.0
 10
8.4899026368
 20
8.3735092238
 30
0.0
 10
8.5697449454
 20
8.2021772936
 30
0.0
 10
8.5955382858
 20
8.07877512
 30
0.0
 10
8.5981852279
 20
8.0192380862
 30
0.0
 11
8.2323524879
 21
8.622240532
 31
0.0
 11
8.3666192104
 21
8.5211261132
 31
0.0
 11
8.4832647606
 21
8.3710566036
 31
0.0
 11
8.5645735788
 21
8.1948377425
 31
0.0
 11
8.5981852279
 21
8.0192380862
 31
0.0
  0
SPLINE
  5
4E2
100
AcDbEntity
  8
RACCORDO
100
AcDbSpline
 62
253
  6
CONTINUOUS
 70
0
 71
3
 72
11
 73
7
 74
5
 42
0.0000001
 43
0.0000001
 44
0.0000000001
 12
0.0001361054
 22
-0.1202500526
 32
0.0
 13
0.1075549856
 23
-0.0537774928
 33
0.0
 40
0.0
 40
0.0
 40
0.0
 40
0.0
 40
0.2065403907
 40
0.4344721032
 40
0.6977363802
 40
1.0
 40
1.0
 40
1.0
 40
1.0
 10
-5.4815401928
 20
21.1570641077
 30
0.0
 10
-5.4815308224
 20
21.1487852768
 30
0.0
 10
-5.4778742355
 20
21.1312384186
 30
0.0
 10
-5.4625834494
 20
21.1072926656
 30
0.0
 10
-5.4387632821
 20
21.0858117475
 30
0.0
 10
-5.4191649268
 20
21.074164823
 30
0.0
 10
-5.4083282738
 20
21.0687464965
 30
0.0
 11
-5.4815401928
 21
21.1570641077
 31
0.0
 11
-5.4767288907
 21
21.1326980752
 31
0.0
 11
-5.4625004226
 21
21.1092717226
 31
0.0
 11
-5.4393661084
 21
21.0876614281
 31
0.0
 11
-5.4083282738
 21
21.0687464965
 31
0.0
  0
SPLINE
  5
4E3
100
AcDbEntity
  8
RACCORDO
100
AcDbSpline
 62
7
  6
CONTINUOUS
 70
0
 71
3
 72
12
 73
8
 74
6
 42
0.0000001
 43
0.0000001
 44
0.0000000001
 12
0.6566640463
 22
-0.3283320231
 32
0.0
 13
-0.0
 23
-0.7341727229
 33
0.0
 40
0.0
 40
0.0
 40
0.0
 40
0.0
 40
0.2294477004
 40
0.4879767789
 40
0.7530120336
 40
0.8802700824
 40
1.0
 40
1.0
 40
1.0
 40
1.0
 10
13.7423781706
 20
11.6304521825
 30
0.0
 10
13.7926015224
 20
11.6053405066
 30
0.0
 10
13.8882793542
 20
11.5296898721
 30
0.0
 10
13.998860003
 20
11.3804892655
 30
0.0
 10
14.0623422977
 20
11.2325242763
 30
0.0
 10
14.0901287885
 20
11.1101189916
 30
0.0
 10
14.0957835458
 20
11.0496413962
 30
0.0
 10
14.0957835458
 20
11.020340583
 30
0.0
 11
13.7423781706
 21
11.6304521825
 31
0.0
 11
13.8772672368
 21
11.5295474165
 31
0.0
 11
13.9916098084
 21
11.3780491874
 31
0.0
 11
14.0680327776
 21
11.1991035251
 31
0.0
 11
14.0884802369
 21
11.1079391022
 31
0.0
 11
14.0957835458
 21
11.020340583
 31
0.0
  0
SPLINE
  5
4E4
100
AcDbEntity
  8
RACCORDO
100
AcDbSpline
 62
253
  6
CONTINUOUS
 70
0
 71
3
 72
11
 73
7
 74
5
 42
0.0000001
 43
0.0000001
 44
0.0000000001
 12
0.3009028379
 22
0.7718448425
 32
0.0
 13
-0.5330103829
 23
0.6341820799
 33
0.0
 40
0.0
 40
0.0
 40
0.0
 40
0.0
 40
0.2232403339
 40
0.4620304974
 40
0.7211676156
 40
1.0
 40
1.0
 40
1.0
 40
1.0
 10
-20.7626335501
 20
10.6611909207
 30
0.0
 10
-20.7402423335
 20
10.7186265541
 30
0.0
 10
-20.7149353036
 20
10.8465016023
 30
0.0
 10
-20.7386872782
 20
11.0468493501
 30
0.0
 10
-20.819027803
 20
11.2479368882
 30
0.0
 10
-20.9040714008
 20
11.3712714598
 30
0.0
 10
-20.9536115861
 20
11.4302149603
 30
0.0
 11
-20.7626335501
 21
10.6611909207
 31
0.0
 11
-20.7252476202
 21
10.8423103824
 31
0.0
 11
-20.7460899515
 21
11.039028938
 31
0.0
 11
-20.8238126774
 21
11.2391407884
 31
0.0
 11
-20.9536115861
 21
11.4302149603
 31
0.0
  0
SPLINE
  5
4E5
100
AcDbEntity
  8
RACCORDO
100
AcDbSpline
 62
253
  6
CONTINUOUS
 70
0
 71
3
 72
11
 73
7
 74
5
 42
0.0000001
 43
0.0000001
 44
0.0000000001
 12
-0.1350450777
 22
0.0739176917
 32
0.0
 13
0.0
 23
0.153951285
 33
0.0
 40
0.0
 40
0.0
 40
0.0
 40
0.0
 40
0.2172561503
 40
0.451015807
 40
0.7110744724
 40
1.0
 40
1.0
 40
1.0
 40
1.0
 10
-5.3464716933
 20
20.6418936666
 30
0.0
 10
-5.3562514846
 20
20.647246691
 30
0.0
 10
-5.3746264391
 20
20.6622034935
 30
0.0
 10
-5.3942379087
 20
20.6935799409
 30
0.0
 10
-5.4059859161
 20
20.7323750447
 30
0.0
 10
-5.4083282738
 20
20.7606471982
 30
0.0
 10
-5.4083282738
 20
20.7754740169
 30
0.0
 11
-5.3464716933
 21
20.6418936666
 31
0.0
 11
-5.3725767025
 21
20.662803501
 31
0.0
 11
-5.3921215008
 21
20.6930211809
 31
0.0
 11
-5.4042293264
 21
20.7311828257
 31
0.0
 11
-5.4083282738
 21
20.7754740169
 31
0.0
  0
SPLINE
  5
4E6
100
AcDbEntity
  8
RACCORDO
100
AcDbSpline
 62
253
  6
CONTINUOUS
 70
0
 71
3
 72
11
 73
7
 74
5
 42
0.0000001
 43
0.0000001
 44
0.0000000001
 12
0.3107530504
 22
0.1304499247
 32
0.0
 13
0.0143537855
 23
0.3367174038
 33
0.0
 40
0.0
 40
0.0
 40
0.0
 40
0.0
 40
0.2172062338
 40
0.4506288642
 40
0.7106836975
 40
1.0
 40
1.0
 40
1.0
 40
1.0
 10
8.4443749592
 20
-29.4132320345
 30
0.0
 10
8.4668741258
 20
-29.4037871889
 30
0.0
 10
8.5101014095
 20
-29.3749575381
 30
0.0
 10
8.5580763439
 20
-29.3095587674
 30
0.0
 10
8.5887522729
 20
-29.2261892838
 30
0.0
 10
8.5968009666
 20
-29.1645162412
 30
0.0
 10
8.5981852279
 20
-29.1320436297
 30
0.0
 11
8.4443749592
 21
-29.4132320345
 31
0.0
 11
8.5055702659
 21
-29.3730587488
 31
0.0
 11
8.5531519119
 21
-29.3104107332
 31
0.0
 11
8.5845850338
 21
-29.2285968004
 31
0.0
 11
8.5981852279
 21
-29.1320436297
 31
0.0
  0
SPLINE
  5
4E7
100
AcDbEntity
  8
RACCORDO
100
AcDbSpline
 62
7
  6
CONTINUOUS
 70
0
 71
3
 72
10
 73
6
 74
4
 42
0.0000001
 43
0.0000001
 44
0.0000000001
 12
0.3471941063
 22
-0.0721526133
 32
0.0
 13
0.227214943
 23
0.2722556092
 33
0.0
 40
0.0
 40
0.0
 40
0.0
 40
0.0
 40
0.4827891464
 40
0.7436989725
 40
1.0
 40
1.0
 40
1.0
 40
1.0
 10
-3.3920899529
 20
19.8557363881
 30
0.0
 10
-3.3362161041
 20
19.8441248885
 30
0.0
 10
-3.2428758094
 20
19.8654481118
 30
0.0
 10
-3.1426665797
 20
19.9275247989
 30
0.0
 10
-3.0979062997
 20
19.9702552087
 30
0.0
 10
-3.078494492
 20
19.9935150061
 30
0.0
 11
-3.3920899529
 21
19.8557363881
 31
0.0
 11
-3.2229571732
 21
19.8822793324
 31
0.0
 11
-3.1440036268
 21
19.9305143602
 31
0.0
 11
-3.078494492
 21
19.9935150061
 31
0.0
  0
SPLINE
  5
4E8
100
AcDbEntity
  8
RACCORDO
100
AcDbSpline
 62
253
  6
CONTINUOUS
 70
0
 71
3
 72
9
 73
5
 74
3
 42
0.0000001
 43
0.0000001
 44
0.0000000001
 12
-0.155566828
 22
-0.0897296417
 32
0.0
 13
-0.1431371922
 23
-0.1084628543
 33
0.0
 40
0.0
 40
0.0
 40
0.0
 40
0.0
 40
0.2436854866
 40
1.0
 40
1.0
 40
1.0
 40
1.0
 10
-22.4796922118
 20
23.9782628818
 30
0.0
 10
-22.4923286712
 20
23.970974278
 30
0.0
 10
-22.5436749816
 20
23.9401858444
 30
0.0
 10
-22.5929868037
 20
23.9060379292
 30
0.0
 10
-22.6290723823
 20
23.8786939189
 30
0.0
 11
-22.4796922118
 21
23.9782628818
 31
0.0
 11
-22.5172325592
 21
23.9557693944
 31
0.0
 11
-22.6290723823
 21
23.8786939189
 31
0.0
  0
SPLINE
  5
4E9
100
AcDbEntity
  8
RACCORDO
100
AcDbSpline
 62
253
  6
CONTINUOUS
 70
0
 71
3
 72
11
 73
7
 74
5
 42
0.0000001
 43
0.0000001
 44
0.0000000001
 12
-1.519714945
 22
-1.151570868
 32
0.0
 13
-0.0621756531
 23
-1.9057237907
 33
0.0
 40
0.0
 40
0.0
 40
0.0
 40
0.0
 40
0.2391051244
 40
0.4970496752
 40
0.756564911
 40
1.0
 40
1.0
 40
1.0
 40
1.0
 10
-22.6290723823
 20
23.8786939189
 30
0.0
 10
-22.7501962594
 20
23.7869117536
 30
0.0
 10
-22.9753154499
 20
23.5601063185
 30
0.0
 10
-23.2361213784
 20
23.1525847564
 30
0.0
 10
-23.4137886714
 20
22.6996000717
 30
0.0
 10
-23.4672173097
 20
22.380965908
 30
0.0
 10
-23.4722625549
 20
22.2263258944
 30
0.0
 11
-22.6290723823
 21
23.8786939189
 31
0.0
 11
-22.9543390624
 21
23.5592315239
 31
0.0
 11
-23.221278401
 21
23.146142288
 31
0.0
 11
-23.400501463
 21
22.6849120263
 31
0.0
 11
-23.4722625549
 21
22.2263258944
 31
0.0
  0
SPLINE
  5
4EA
100
AcDbEntity
  8
RACCORDO
100
AcDbSpline
 62
253
  6
CONTINUOUS
 70
0
 71
3
 72
11
 73
7
 74
5
 42
0.0000001
 43
0.0000001
 44
0.0000000001
 12
0.0697659368
 22
2.0881963188
 32
0.0
 13
1.8291721634
 23
1.0097328103
 33
0.0
 40
0.0
 40
0.0
 40
0.0
 40
0.0
 40
0.2468079711
 40
0.5097388802
 40
0.7673924765
 40
1.0
 40
1.0
 40
1.0
 40
1.0
 10
7.2164096595
 20
6.8819897872
 30
0.0
 10
7.222149256
 20
7.0537842861
 30
0.0
 10
7.2882446739
 20
7.4074705838
 30
0.0
 10
7.5062391088
 20
7.8999836242
 30
0.0
 10
7.8209926797
 20
8.3248429316
 30
0.0
 10
8.0905260856
 20
8.5439500492
 30
0.0
 10
8.2323524879
 20
8.622240532
 30
0.0
 11
7.2164096595
 21
6.8819897872
 31
0.0
 11
7.3046057671
 21
7.3900626974
 31
0.0
 11
7.5255094558
 21
7.8930492187
 31
0.0
 11
7.8493172051
 21
8.3231065736
 31
0.0
 11
8.2323524879
 21
8.622240532
 31
0.0
  0
SPLINE
  5
4EB
100
AcDbEntity
  8
RACCORDO
100
AcDbSpline
 62
253
  6
CONTINUOUS
 70
0
 71
3
 72
11
 73
7
 74
5
 42
0.0000001
 43
0.0000001
 44
0.0000000001
 12
0.291260946
 22
-0.0608804149
 32
0.0
 13
0.1066333044
 23
0.277792552
 33
0.0
 40
0.0
 40
0.0
 40
0.0
 40
0.0
 40
0.2240297614
 40
0.4626415955
 40
0.7223918003
 40
1.0
 40
1.0
 40
1.0
 40
1.0
 10
-4.0162083816
 20
19.9859452581
 30
0.0
 10
-3.9944580082
 20
19.9813989165
 30
0.0
 10
-3.9468638082
 20
19.9823437828
 30
0.0
 10
-3.8804596955
 20
20.0134523788
 30
0.0
 10
-3.8249378671
 20
20.0685361437
 30
0.0
 10
-3.799171136
 20
20.1161070036
 30
0.0
 10
-3.7893037094
 20
20.1418128337
 30
0.0
 11
-4.0162083816
 21
19.9859452581
 31
0.0
 11
-3.9495520906
 21
19.9867641345
 31
0.0
 11
-3.8847300926
 21
20.0157322381
 31
0.0
 11
-3.8291789199
 21
20.0694707999
 31
0.0
 11
-3.7893037094
 21
20.1418128337
 31
0.0
  0
SPLINE
  5
4EC
100
AcDbEntity
  8
RACCORDO
100
AcDbSpline
 62
253
  6
CONTINUOUS
 70
0
 71
3
 72
11
 73
7
 74
5
 42
0.0000001
 43
0.0000001
 44
0.0000000001
 12
0.0285489444
 22
-0.8457749961
 32
0.0
 13
0.7259828468
 23
-0.4348554846
 33
0.0
 40
0.0
 40
0.0
 40
0.0
 40
0.0
 40
0.2874080274
 40
0.5471205789
 40
0.781920591
 40
1.0
 40
1.0
 40
1.0
 40
1.0
 10
-23.4722625549
 20
-13.3018632222
 30
0.0
 10
-23.4695274896
 20
-13.3828907299
 30
0.0
 10
-23.4521595247
 20
-13.5372183004
 30
0.0
 10
-23.3839694153
 20
-13.7488460658
 30
0.0
 10
-23.2762426078
 20
-13.9213925848
 30
0.0
 10
-23.1773525792
 20
-14.0062981775
 30
0.0
 10
-23.1245786092
 20
-14.0379091865
 30
0.0
 11
-23.4722625549
 21
-13.3018632222
 31
0.0
 11
-23.4429064602
 21
-13.5433060892
 31
0.0
 11
-23.3730717777
 21
-13.7516997002
 31
0.0
 11
-23.2655364384
 21
-13.9187873134
 31
0.0
 11
-23.1245786092
 21
-14.0379091865
 31
0.0
  0
SPLINE
  5
4ED
100
AcDbEntity
  8
RACCORDO
100
AcDbSpline
 62
253
  6
CONTINUOUS
 70
0
 71
3
 72
20
 73
16
 74
14
 42
0.0000001
 43
0.0000001
 44
0.0000000001
 12
-2.5515124319
 22
-2.6918232201
 32
0.0
 13
-1.7241583804
 23
3.28380965
 33
0.0
 40
0.0
 40
0.0
 40
0.0
 40
0.0
 40
0.0455394355
 40
0.0852460856
 40
0.1240260936
 40
0.1655580795
 40
0.2118014845
 40
0.2635178861
 40
0.3207948541
 40
0.3833557411
 40
0.5222163044
 40
0.6749173159
 40
0.8357684705
 40
0.9177503913
 40
1.0
 40
1.0
 40
1.0
 40
1.0
 10
-6.5907503342
 20
-21.7426112683
 30
0.0
 10
-6.6294818128
 20
-21.7834726382
 30
0.0
 10
-6.7112483438
 20
-21.852220644
 30
0.0
 10
-6.8536852024
 20
-21.9148949408
 30
0.0
 10
-7.0031608147
 20
-21.9307705078
 30
0.0
 10
-7.1592343712
 20
-21.9110327274
 30
0.0
 10
-7.3256266208
 20
-21.8643395848
 30
0.0
 10
-7.5051555505
 20
-21.7960960122
 30
0.0
 10
-7.6991391318
 20
-21.7101852272
 30
0.0
 10
-7.9869623747
 20
-21.5706554524
 30
0.0
 10
-8.3735033485
 20
-21.3645429714
 30
0.0
 10
-8.8499401675
 20
-21.0708537428
 30
0.0
 10
-9.2348745196
 20
-20.7647156312
 30
0.0
 10
-9.5045056408
 20
-20.4654812417
 30
0.0
 10
-9.6178327386
 20
-20.2954654446
 30
0.0
 10
-9.6651031893
 20
-20.2054347583
 30
0.0
 11
-6.5907503342
 21
-21.7426112683
 31
0.0
 11
-6.7214473168
 21
-21.8495986957
 31
0.0
 11
-6.8566977847
 21
-21.9078693636
 31
0.0
 11
-6.999505068
 21
-21.9250090734
 31
0.0
 11
-7.1526301944
 21
-21.9082543366
 31
0.0
 11
-7.3183044071
 21
-21.8638822571
 31
0.0
 11
-7.4980931427
 21
-21.7970394528
 31
0.0
 11
-7.6926672473
 21
-21.7117753131
 31
0.0
 11
-7.9016639596
 21
-21.6109785062
 31
0.0
 11
-8.3558533972
 21
-21.368159364
 31
0.0
 11
-8.8354153451
 21
-21.0668618169
 31
0.0
 11
-9.2963110557
 21
-20.6880627486
 31
0.0
 11
-9.4985796682
 21
-20.461032287
 31
0.0
 11
-9.6651031893
 21
-20.2054347583
 31
0.0
  0
SPLINE
  5
4EE
100
AcDbEntity
  8
RACCORDO
100
AcDbSpline
 62
253
  6
CONTINUOUS
 70
0
 71
3
 72
11
 73
7
 74
5
 42
0.0000001
 43
0.0000001
 44
0.0000000001
 12
0.1424251722
 22
0.0696833605
 32
0.0
 13
0.0006799474
 23
0.1585567346
 33
0.0
 40
0.0
 40
0.0
 40
0.0
 40
0.0
 40
0.216815895
 40
0.4498695085
 40
0.7100836583
 40
1.0
 40
1.0
 40
1.0
 40
1.0
 10
12.0544642323
 20
-29.628401963
 30
0.0
 10
12.0647575793
 20
-29.6233658096
 30
0.0
 10
12.0842856068
 20
-29.6087634703
 30
0.0
 10
12.1052859494
 20
-29.5769584957
 30
0.0
 10
12.1179167088
 20
-29.5371133296
 30
0.0
 10
12.120533158
 20
-29.5079403434
 30
0.0
 10
12.1205988673
 20
-29.4926176139
 30
0.0
 11
12.0544642323
 21
-29.628401963
 31
0.0
 11
12.0821351992
 21
-29.6080019605
 31
0.0
 11
12.1030020327
 21
-29.5775049618
 31
0.0
 11
12.1160380694
 21
-29.5383594146
 31
0.0
 11
12.1205988673
 21
-29.4926176139
 31
0.0
  0
SPLINE
  5
4EF
100
AcDbEntity
  8
RACCORDO
100
AcDbSpline
 62
253
  6
CONTINUOUS
 70
0
 71
3
 72
11
 73
7
 74
5
 42
0.0000001
 43
0.0000001
 44
0.0000000001
 12
-0.126569094
 22
0.0785311007
 32
0.0
 13
0.0
 23
0.1489525741
 33
0.0
 40
0.0
 40
0.0
 40
0.0
 40
0.0
 40
0.2173431982
 40
0.4519581297
 40
0.7123464431
 40
1.0
 40
1.0
 40
1.0
 40
1.0
 10
10.5590665737
 20
-28.9899856072
 30
0.0
 10
10.5498969298
 20
-28.984296207
 30
0.0
 10
10.5327973475
 20
-28.9690420775
 30
0.0
 10
10.5146381113
 20
-28.9381764554
 30
0.0
 10
10.5037701357
 20
-28.9005353227
 30
0.0
 10
10.5015743029
 20
-28.8732386766
 30
0.0
 10
10.5015743029
 20
-28.8589564307
 30
0.0
 11
10.5590665737
 21
-28.9899856072
 31
0.0
 11
10.5347408145
 21
-28.9686239071
 31
0.0
 11
10.5165857279
 21
-28.9387633888
 31
0.0
 11
10.50537098
 21
-28.9016346239
 31
0.0
 11
10.5015743029
 21
-28.8589564307
 31
0.0
  0
SPLINE
  5
4F0
100
AcDbEntity
  8
RACCORDO
100
AcDbSpline
 62
253
  6
CONTINUOUS
 70
0
 71
3
 72
11
 73
7
 74
5
 42
0.0000001
 43
0.0000001
 44
0.0000000001
 12
0.3024010856
 22
0.7722476771
 32
0.0
 13
-0.5334307606
 23
0.6350311134
 33
0.0
 40
0.0
 40
0.0
 40
0.0
 40
0.0
 40
0.2232362675
 40
0.4620166577
 40
0.7211548329
 40
1.0
 40
1.0
 40
1.0
 40
1.0
 10
-20.7603820593
 20
10.6647436909
 30
0.0
 10
-20.7378797628
 20
10.7222082539
 30
0.0
 10
-20.7123742052
 20
10.8501942734
 30
0.0
 10
-20.7359691479
 20
11.0507895881
 30
0.0
 10
-20.8162784518
 20
11.252154725
 30
0.0
 10
-20.9013749112
 20
11.3756629635
 30
0.0
 10
-20.950956441
 20
11.4346880825
 30
0.0
 11
-20.7603820593
 21
10.6647436909
 31
0.0
 11
-20.722715954
 21
10.8460115277
 31
0.0
 11
-20.7433955691
 21
11.0429601117
 31
0.0
 11
-20.8210796383
 21
11.2433437566
 31
0.0
 11
-20.950956441
 21
11.4346880825
 31
0.0
  0
SPLINE
  5
4F1
100
AcDbEntity
  8
RACCORDO
100
AcDbSpline
 62
253
  6
CONTINUOUS
 70
0
 71
3
 72
14
 73
10
 74
8
 42
0.0000001
 43
0.0000001
 44
0.0000000001
 12
-0.0300652606
 22
0.0503807179
 32
0.0
 13
0.0571149161
 23
-0.0134172646
 33
0.0
 40
0.0
 40
0.0
 40
0.0
 40
0.0
 40
0.1453224737
 40
0.2538472709
 40
0.3353152546
 40
0.410485729
 40
0.5041163316
 40
0.6303457926
 40
1.0
 40
1.0
 40
1.0
 40
1.0
 10
-21.2031949193
 20
-11.3252182783
 30
0.0
 10
-21.2046513053
 20
-11.3227777948
 30
0.0
 10
-21.2069813016
 20
-11.3183671763
 30
0.0
 10
-21.2089188778
 20
-11.3120524005
 30
0.0
 10
-21.2084818279
 20
-11.3066113889
 30
0.0
 10
-21.2049209073
 20
-11.3028020665
 30
0.0
 10
-21.1992399732
 20
-11.3011430541
 30
0.0
 10
-21.1876853062
 20
-11.3007466447
 30
0.0
 10
-21.1780624168
 20
-11.3026849658
 30
0.0
 10
-21.1710248271
 20
-11.3043382152
 30
0.0
 11
-21.2031949193
 21
-11.3252182783
 31
0.0
 11
-21.2070361673
 21
-11.3176065773
 31
0.0
 11
-21.208614848
 21
-11.3114382724
 31
0.0
 11
-21.2079384067
 21
-11.3067066765
 31
0.0
 11
-21.2050152851
 21
-11.3034043292
 31
0.0
 11
-21.1998539248
 21
-11.3015237698
 31
0.0
 11
-21.1924627673
 21
-11.301057538
 31
0.0
 11
-21.1710248271
 21
-11.3043382152
 31
0.0
  0
SPLINE
  5
4F2
100
AcDbEntity
  8
RACCORDO
100
AcDbSpline
 62
253
  6
CONTINUOUS
 70
0
 71
3
 72
11
 73
7
 74
5
 42
0.0000001
 43
0.0000001
 44
0.0000000001
 12
-0.3247092722
 22
-0.1606633027
 32
0.0
 13
-0.3240355638
 23
0.1620177819
 33
0.0
 40
0.0
 40
0.0
 40
0.0
 40
0.0
 40
0.235768032
 40
0.5003752359
 40
0.7647786019
 40
1.0
 40
1.0
 40
1.0
 40
1.0
 10
-17.1005888653
 20
26.7974554116
 30
0.0
 10
-17.1261075539
 20
26.7848289881
 30
0.0
 10
-17.1846130391
 20
26.7668340449
 30
0.0
 10
-17.2770699189
 20
26.7583296869
 30
0.0
 10
-17.3694383833
 20
26.7670617925
 30
0.0
 10
-17.4278075368
 20
26.7852136485
 30
0.0
 10
-17.4532142363
 20
26.7979169982
 30
0.0
 11
-17.1005888653
 21
26.7974554116
 31
0.0
 11
-17.1816821444
 21
26.7706309737
 31
0.0
 11
-17.2770906942
 21
26.7613114885
 31
0.0
 11
-17.3724003718
 21
26.7708800133
 31
0.0
 11
-17.4532142363
 21
26.7979169982
 31
0.0
  0
SPLINE
  5
4F3
100
AcDbEntity
  8
RACCORDO
100
AcDbSpline
 62
253
  6
CONTINUOUS
 70
0
 71
3
 72
11
 73
7
 74
5
 42
0.0000001
 43
0.0000001
 44
0.0000000001
 12
0.0
 22
-0.1574195909
 32
0.0
 13
0.1408088651
 23
-0.0703831735
 33
0.0
 40
0.0
 40
0.0
 40
0.0
 40
0.0
 40
0.2896627477
 40
0.5495780546
 40
0.7827595118
 40
1.0
 40
1.0
 40
1.0
 40
1.0
 10
-17.4532142363
 20
26.7979169982
 30
0.0
 10
-17.4532142363
 20
26.7827174678
 30
0.0
 10
-17.4507585696
 20
26.7537701429
 30
0.0
 10
-17.4383916567
 20
26.7141817524
 30
0.0
 10
-17.4177296294
 20
26.6824777549
 30
0.0
 10
-17.3984426487
 20
26.6678045056
 30
0.0
 10
-17.3882461865
 20
26.662707814
 30
0.0
 11
-17.4532142363
 21
26.7979169982
 31
0.0
 11
-17.4488957609
 21
26.752523361
 31
0.0
 11
-17.4361487136
 21
26.7136439024
 31
0.0
 11
-17.4156082371
 21
26.6832215936
 31
0.0
 11
-17.3882461865
 21
26.662707814
 31
0.0
  0
SPLINE
  5
4F4
100
AcDbEntity
  8
RACCORDO
100
AcDbSpline
 62
253
  6
CONTINUOUS
 70
0
 71
3
 72
11
 73
7
 74
5
 42
0.0000001
 43
0.0000001
 44
0.0000000001
 12
-0.1076172178
 22
0.0538086089
 32
0.0
 13
-0.000004788
 23
0.1203197072
 33
0.0
 40
0.0
 40
0.0
 40
0.0
 40
0.0
 40
0.3022933199
 40
0.5655420657
 40
0.7934540161
 40
1.0
 40
1.0
 40
1.0
 40
1.0
 10
-18.7196134296
 20
27.4311165949
 30
0.0
 10
-18.7304574183
 20
27.4365385892
 30
0.0
 10
-18.7500676543
 20
27.448193012
 30
0.0
 10
-18.7738963637
 20
27.4696924847
 30
0.0
 10
-18.7891840207
 20
27.4936597896
 30
0.0
 10
-18.7928249717
 20
27.5112209201
 30
0.0
 10
-18.7928253013
 20
27.5195047709
 30
0.0
 11
-18.7196134296
 21
27.4311165949
 31
0.0
 11
-18.7506712256
 21
27.4500460515
 31
0.0
 11
-18.7738118546
 21
27.4716736803
 31
0.0
 11
-18.7880344262
 21
27.4951193824
 31
0.0
 11
-18.7928253013
 21
27.5195047709
 31
0.0
  0
SPLINE
  5
4F5
100
AcDbEntity
  8
RACCORDO
100
AcDbSpline
 62
253
  6
CONTINUOUS
 70
0
 71
3
 72
11
 73
7
 74
5
 42
0.0000001
 43
0.0000001
 44
0.0000000001
 12
0.0
 22
0.3660312094
 32
0.0
 13
0.3265463486
 23
0.1653672532
 33
0.0
 40
0.0
 40
0.0
 40
0.0
 40
0.0
 40
0.2466562638
 40
0.5114566903
 40
0.7699992314
 40
1.0
 40
1.0
 40
1.0
 40
1.0
 10
-18.7196134296
 20
27.7243890744
 30
0.0
 10
-18.7196134296
 20
27.7544837046
 30
0.0
 10
-18.7092669444
 20
27.8169960069
 30
0.0
 10
-18.6717396705
 20
27.9039820243
 30
0.0
 10
-18.616586749
 20
27.9784975187
 30
0.0
 10
-18.5687976344
 20
28.0161398085
 30
0.0
 10
-18.5437623307
 20
28.028818007
 30
0.0
 11
-18.7196134296
 21
27.7243890744
 31
0.0
 11
-18.7062429589
 21
27.8136774354
 31
0.0
 11
-18.6681555633
 21
27.902805706
 31
0.0
 11
-18.6111301213
 21
27.9783293041
 31
0.0
 11
-18.5437623307
 21
28.028818007
 31
0.0
  0
SPLINE
  5
4F6
100
AcDbEntity
  8
RACCORDO
100
AcDbSpline
 62
253
  6
CONTINUOUS
 70
0
 71
3
 72
9
 73
5
 74
3
 42
0.0000001
 43
0.0000001
 44
0.0000000001
 12
-0.1042827884
 22
0.0515947415
 32
0.0
 13
-0.1035394014
 23
-0.0530707987
 33
0.0
 40
0.0
 40
0.0
 40
0.0
 40
0.0
 40
0.5366976106
 40
1.0
 40
1.0
 40
1.0
 40
1.0
 10
-18.5437623307
 20
28.028818007
 30
0.0
 10
-18.5624184385
 20
28.0380482651
 30
0.0
 10
-18.6003637859
 20
28.0505161049
 30
0.0
 10
-18.6407275631
 20
28.0435228801
 30
0.0
 10
-18.6567175804
 20
28.0353269375
 30
0.0
 11
-18.5437623307
 21
28.028818007
 31
0.0
 11
-18.603845408
 21
28.0458255356
 31
0.0
 11
-18.6567175804
 21
28.0353269375
 31
0.0
  0
SPLINE
  5
4F7
100
AcDbEntity
  8
RACCORDO
100
AcDbSpline
 62
253
  6
CONTINUOUS
 70
0
 71
3
 72
11
 73
7
 74
5
 42
0.0000001
 43
0.0000001
 44
0.0000000001
 12
0.0001361054
 22
-0.1202500526
 32
0.0
 13
0.1075549856
 23
-0.0537774928
 33
0.0
 40
0.0
 40
0.0
 40
0.0
 40
0.0
 40
0.2065403907
 40
0.4344721032
 40
0.6977363802
 40
1.0
 40
1.0
 40
1.0
 40
1.0
 10
-2.8829227719
 20
19.8577553973
 30
0.0
 10
-2.8829134015
 20
19.8494765664
 30
0.0
 10
-2.8792568146
 20
19.8319297082
 30
0.0
 10
-2.8639660285
 20
19.8079839551
 30
0.0
 10
-2.8401458613
 20
19.7865030371
 30
0.0
 10
-2.820547506
 20
19.7748561126
 30
0.0
 10
-2.8097108529
 20
19.769437786
 30
0.0
 11
-2.8829227719
 21
19.8577553973
 31
0.0
 11
-2.8781114698
 21
19.8333893648
 31
0.0
 11
-2.8638830017
 21
19.8099630122
 31
0.0
 11
-2.8407486875
 21
19.7883527177
 31
0.0
 11
-2.8097108529
 21
19.769437786
 31
0.0
  0
SPLINE
  5
4F8
100
AcDbEntity
  8
RACCORDO
100
AcDbSpline
 62
253
  6
CONTINUOUS
 70
0
 71
3
 72
11
 73
7
 74
5
 42
0.0000001
 43
0.0000001
 44
0.0000000001
 12
-0.326546397
 22
-0.1653672778
 32
0.0
 13
0.0
 23
-0.3660312636
 33
0.0
 40
0.0
 40
0.0
 40
0.0
 40
0.0
 40
0.2300181807
 40
0.4885559182
 40
0.7533507765
 40
1.0
 40
1.0
 40
1.0
 40
1.0
 10
-17.2773631373
 20
27.3956184103
 30
0.0
 10
-17.3024003401
 20
27.3829392502
 30
0.0
 10
-17.350190687
 20
27.3452956661
 30
0.0
 10
-17.4053423723
 20
27.2707782378
 30
0.0
 10
-17.4428683632
 20
27.1837940653
 30
0.0
 10
-17.4532142363
 20
27.1212832534
 30
0.0
 10
-17.4532142363
 20
27.0911894777
 30
0.0
 11
-17.2773631373
 21
27.3956184103
 31
0.0
 11
-17.3447356462
 21
27.3451253549
 31
0.0
 11
-17.4017586147
 21
27.2696020749
 31
0.0
 11
-17.4398444889
 21
27.1804753548
 31
0.0
 11
-17.4532142363
 21
27.0911894777
 31
0.0
  0
SPLINE
  5
4F9
100
AcDbEntity
  8
RACCORDO
100
AcDbSpline
 62
253
  6
CONTINUOUS
 70
0
 71
3
 72
9
 73
5
 74
3
 42
0.0000001
 43
0.0000001
 44
0.0000000001
 12
0.0811172758
 22
-0.0405586379
 32
0.0
 13
0.0890212403
 23
-0.0173272713
 33
0.0
 40
0.0
 40
0.0
 40
0.0
 40
0.0
 40
0.2319158409
 40
1.0
 40
1.0
 40
1.0
 40
1.0
 10
-17.4532142363
 20
27.0911894777
 30
0.0
 10
-17.4469434425
 20
27.0880540808
 30
0.0
 10
-17.4193227528
 20
27.0757040268
 30
0.0
 10
-17.3899420345
 20
27.0675327037
 30
0.0
 10
-17.3671500997
 20
27.0630964362
 30
0.0
 11
-17.4532142363
 21
27.0911894777
 31
0.0
 11
-17.4340374285
 21
27.0825504874
 31
0.0
 11
-17.3671500997
 21
27.0630964362
 31
0.0
  0
SPLINE
  5
4FA
100
AcDbEntity
  8
RACCORDO
100
AcDbSpline
 62
253
  6
CONTINUOUS
 70
0
 71
3
 72
10
 73
6
 74
4
 42
0.0000001
 43
0.0000001
 44
0.0000000001
 12
0.2665931066
 22
-0.0518902127
 32
0.0
 13
0.2434280637
 23
0.1204460729
 33
0.0
 40
0.0
 40
0.0
 40
0.0
 40
0.0
 40
0.5212737944
 40
0.7735855391
 40
1.0
 40
1.0
 40
1.0
 40
1.0
 10
-17.3671500997
 20
27.0630964362
 30
0.0
 10
-17.3208274329
 20
27.0540801002
 30
0.0
 10
-17.2494921627
 20
27.051396194
 30
0.0
 10
-17.1601472365
 20
27.067046216
 30
0.0
 10
-17.1189607432
 20
27.0816376469
 30
0.0
 10
-17.1005888653
 20
27.0907278911
 30
0.0
 11
-17.3671500997
 21
27.0630964362
 31
0.0
 11
-17.2256978593
 21
27.057178867
 31
0.0
 11
-17.1582737999
 21
27.069423566
 31
0.0
 11
-17.1005888653
 21
27.0907278911
 31
0.0
  0
SPLINE
  5
4FB
100
AcDbEntity
  8
RACCORDO
100
AcDbSpline
 62
253
  6
CONTINUOUS
 70
0
 71
3
 72
11
 73
7
 74
5
 42
0.0000001
 43
0.0000001
 44
0.0000000001
 12
-0.0015795713
 22
0.3667766459
 32
0.0
 13
-0.3273614738
 23
0.1654148375
 33
0.0
 40
0.0
 40
0.0
 40
0.0
 40
0.0
 40
0.2467432229
 40
0.5118843482
 40
0.7705350917
 40
1.0
 40
1.0
 40
1.0
 40
1.0
 10
-17.1005888653
 20
27.0907278911
 30
0.0
 10
-17.1007187814
 20
27.1208944417
 30
0.0
 10
-17.1113444343
 20
27.1835366361
 30
0.0
 10
-17.1491731456
 20
27.2706629575
 30
0.0
 10
-17.2044845896
 20
27.3452674552
 30
0.0
 10
-17.2523238138
 20
27.3829661101
 30
0.0
 10
-17.2773631373
 20
27.3956184103
 30
0.0
 11
-17.1005888653
 21
27.0907278911
 31
0.0
 11
-17.114332763
 21
27.1801786828
 31
0.0
 11
-17.1527579524
 21
27.2695138417
 31
0.0
 11
-17.2099963443
 21
27.3451689207
 31
0.0
 11
-17.2773631373
 21
27.3956184103
 31
0.0
  0
SPLINE
  5
4FC
100
AcDbEntity
  8
RACCORDO
100
AcDbSpline
 62
253
  6
CONTINUOUS
 70
0
 71
3
 72
9
 73
5
 74
3
 42
0.0000001
 43
0.0000001
 44
0.0000000001
 12
-0.1042827884
 22
0.0515947415
 32
0.0
 13
-0.1035394014
 23
-0.0530707987
 33
0.0
 40
0.0
 40
0.0
 40
0.0
 40
0.0
 40
0.5366976106
 40
1.0
 40
1.0
 40
1.0
 40
1.0
 10
-5.2324771748
 20
21.3731754291
 30
0.0
 10
-5.2511332826
 20
21.3824056872
 30
0.0
 10
-5.2890786301
 20
21.394873527
 30
0.0
 10
-5.3294424072
 20
21.3878803022
 30
0.0
 10
-5.3454324246
 20
21.3796843596
 30
0.0
 11
-5.2324771748
 21
21.3731754291
 31
0.0
 11
-5.2925602522
 21
21.3901829576
 31
0.0
 11
-5.3454324246
 21
21.3796843596
 31
0.0
  0
SPLINE
  5
4FD
100
AcDbEntity
  8
RACCORDO
100
AcDbSpline
 62
253
  6
CONTINUOUS
 70
0
 71
3
 72
11
 73
7
 74
5
 42
0.0000001
 43
0.0000001
 44
0.0000000001
 12
0.0
 22
0.3660312094
 32
0.0
 13
0.3265463486
 23
0.1653672532
 33
0.0
 40
0.0
 40
0.0
 40
0.0
 40
0.0
 40
0.2466562638
 40
0.5114566903
 40
0.7699992314
 40
1.0
 40
1.0
 40
1.0
 40
1.0
 10
-5.4083282738
 20
21.0687464965
 30
0.0
 10
-5.4083282738
 20
21.0988411266
 30
0.0
 10
-5.3979817886
 20
21.161353429
 30
0.0
 10
-5.3604545146
 20
21.2483394464
 30
0.0
 10
-5.3053015932
 20
21.3228549408
 30
0.0
 10
-5.2575124786
 20
21.3604972306
 30
0.0
 10
-5.2324771748
 20
21.3731754291
 30
0.0
 11
-5.4083282738
 21
21.0687464965
 31
0.0
 11
-5.3949578031
 21
21.1580348574
 31
0.0
 11
-5.3568704075
 21
21.2471631281
 31
0.0
 11
-5.2998449655
 21
21.3226867262
 31
0.0
 11
-5.2324771748
 21
21.3731754291
 31
0.0
  0
SPLINE
  5
4FE
100
AcDbEntity
  8
RACCORDO
100
AcDbSpline
 62
253
  6
CONTINUOUS
 70
0
 71
3
 72
11
 73
7
 74
5
 42
0.0000001
 43
0.0000001
 44
0.0000000001
 12
-0.326546397
 22
-0.1653672778
 32
0.0
 13
0.0
 23
-0.3660312636
 33
0.0
 40
0.0
 40
0.0
 40
0.0
 40
0.0
 40
0.2300181807
 40
0.4885559182
 40
0.7533507765
 40
1.0
 40
1.0
 40
1.0
 40
1.0
 10
-3.9660779815
 20
20.7399758324
 30
0.0
 10
-3.9911151842
 20
20.7272966723
 30
0.0
 10
-4.0389055311
 20
20.6896530882
 30
0.0
 10
-4.0940572164
 20
20.6151356599
 30
0.0
 10
-4.1315832073
 20
20.5281514874
 30
0.0
 10
-4.1419290804
 20
20.4656406755
 30
0.0
 10
-4.1419290804
 20
20.4355468998
 30
0.0
 11
-3.9660779815
 21
20.7399758324
 31
0.0
 11
-4.0334504904
 21
20.689482777
 31
0.0
 11
-4.0904734589
 21
20.613959497
 31
0.0
 11
-4.128559333
 21
20.5248327769
 31
0.0
 11
-4.1419290804
 21
20.4355468998
 31
0.0
  0
SPLINE
  5
4FF
100
AcDbEntity
  8
RACCORDO
100
AcDbSpline
 62
253
  6
CONTINUOUS
 70
0
 71
3
 72
11
 73
7
 74
5
 42
0.0000001
 43
0.0000001
 44
0.0000000001
 12
0.3240355412
 22
-0.1620177706
 32
0.0
 13
0.3247092495
 23
0.1606632915
 33
0.0
 40
0.0
 40
0.0
 40
0.0
 40
0.0
 40
0.2352016938
 40
0.4996084761
 40
0.7642196693
 40
1.0
 40
1.0
 40
1.0
 40
1.0
 10
-4.1419290804
 20
20.4355468998
 30
0.0
 10
-4.116524511
 20
20.4228446151
 30
0.0
 10
-4.0581574717
 20
20.4046931112
 30
0.0
 10
-3.9657906406
 20
20.3959593493
 30
0.0
 10
-3.8733312789
 20
20.4044630563
 30
0.0
 10
-3.8148237275
 20
20.4224582319
 30
0.0
 10
-3.7893037094
 20
20.4350853132
 30
0.0
 11
-4.1419290804
 21
20.4355468998
 31
0.0
 11
-4.0611221837
 21
20.4085116066
 31
0.0
 11
-3.9658114425
 21
20.3989413536
 31
0.0
 11
-3.8704013567
 21
20.4082599119
 31
0.0
 11
-3.7893037094
 21
20.4350853132
 31
0.0
  0
SPLINE
  5
500
100
AcDbEntity
  8
RACCORDO
100
AcDbSpline
 62
253
  6
CONTINUOUS
 70
0
 71
3
 72
11
 73
7
 74
5
 42
0.0000001
 43
0.0000001
 44
0.0000000001
 12
-0.0015795713
 22
0.3667766459
 32
0.0
 13
-0.3273614738
 23
0.1654148375
 33
0.0
 40
0.0
 40
0.0
 40
0.0
 40
0.0
 40
0.2467432229
 40
0.5118843482
 40
0.7705350917
 40
1.0
 40
1.0
 40
1.0
 40
1.0
 10
-3.7893037094
 20
20.4350853132
 30
0.0
 10
-3.7894336256
 20
20.4652518638
 30
0.0
 10
-3.8000592784
 20
20.5278940582
 30
0.0
 10
-3.8378879898
 20
20.6150203796
 30
0.0
 10
-3.8931994338
 20
20.6896248773
 30
0.0
 10
-3.941038658
 20
20.7273235322
 30
0.0
 10
-3.9660779815
 20
20.7399758324
 30
0.0
 11
-3.7893037094
 21
20.4350853132
 31
0.0
 11
-3.8030476072
 21
20.5245361049
 31
0.0
 11
-3.8414727965
 21
20.6138712638
 31
0.0
 11
-3.8987111885
 21
20.6895263428
 31
0.0
 11
-3.9660779815
 21
20.7399758324
 31
0.0
  0
SPLINE
  5
501
100
AcDbEntity
  8
RACCORDO
100
AcDbSpline
 62
253
  6
CONTINUOUS
 70
0
 71
3
 72
11
 73
7
 74
5
 42
0.0000001
 43
0.0000001
 44
0.0000000001
 12
-0.3247092722
 22
-0.1606633027
 32
0.0
 13
-0.3240355638
 23
0.1620177819
 33
0.0
 40
0.0
 40
0.0
 40
0.0
 40
0.0
 40
0.235768032
 40
0.5003752359
 40
0.7647786019
 40
1.0
 40
1.0
 40
1.0
 40
1.0
 10
-3.7893037094
 20
20.1418128337
 30
0.0
 10
-3.8148223981
 20
20.1291864101
 30
0.0
 10
-3.8733278832
 20
20.111191467
 30
0.0
 10
-3.9657847631
 20
20.102687109
 30
0.0
 10
-4.0581532275
 20
20.1114192146
 30
0.0
 10
-4.116522381
 20
20.1295710706
 30
0.0
 10
-4.1419290804
 20
20.1422744203
 30
0.0
 11
-3.7893037094
 21
20.1418128337
 31
0.0
 11
-3.8703969886
 21
20.1149883958
 31
0.0
 11
-3.9658055384
 21
20.1056689106
 31
0.0
 11
-4.061115216
 21
20.1152374354
 31
0.0
 11
-4.1419290804
 21
20.1422744203
 31
0.0
  0
SPLINE
  5
502
100
AcDbEntity
  8
RACCORDO
100
AcDbSpline
 62
253
  6
CONTINUOUS
 70
0
 71
3
 72
11
 73
7
 74
5
 42
0.0000001
 43
0.0000001
 44
0.0000000001
 12
0.0
 22
-0.1574195909
 32
0.0
 13
0.1408088651
 23
-0.0703831735
 33
0.0
 40
0.0
 40
0.0
 40
0.0
 40
0.0
 40
0.2896627477
 40
0.5495780546
 40
0.7827595118
 40
1.0
 40
1.0
 40
1.0
 40
1.0
 10
-4.1419290804
 20
20.1422744203
 30
0.0
 10
-4.1419290804
 20
20.1270748899
 30
0.0
 10
-4.1394734138
 20
20.098127565
 30
0.0
 10
-4.1271065008
 20
20.0585391745
 30
0.0
 10
-4.1064444736
 20
20.026835177
 30
0.0
 10
-4.0871574929
 20
20.0121619277
 30
0.0
 10
-4.0769610307
 20
20.007065236
 30
0.0
 11
-4.1419290804
 21
20.1422744203
 31
0.0
 11
-4.137610605
 21
20.0968807831
 31
0.0
 11
-4.1248635578
 21
20.0580013244
 31
0.0
 11
-4.1043230812
 21
20.0275790157
 31
0.0
 11
-4.0769610307
 21
20.007065236
 31
0.0
  0
SPLINE
  5
503
100
AcDbEntity
  8
RACCORDO
100
AcDbSpline
 62
253
  6
CONTINUOUS
 70
0
 71
3
 72
11
 73
7
 74
5
 42
0.0000001
 43
0.0000001
 44
0.0000000001
 12
-0.8009219928
 22
0.4014510182
 32
0.0
 13
-0.0309248751
 23
0.8953673049
 33
0.0
 40
0.0
 40
0.0
 40
0.0
 40
0.0
 40
0.2203046539
 40
0.454763106
 40
0.7133496386
 40
1.0
 40
1.0
 40
1.0
 40
1.0
 10
7.6093929213
 20
-29.4066778819
 30
0.0
 10
7.5505773072
 20
-29.3771973727
 30
0.0
 10
7.4391496413
 20
-29.2942999504
 30
0.0
 10
7.3163383962
 20
-29.1165355425
 30
0.0
 10
7.2388383684
 20
-28.8946163184
 30
0.0
 10
7.2193645351
 20
-28.7317517832
 30
0.0
 10
7.2164096596
 20
-28.6461993294
 30
0.0
 11
7.6093929213
 21
-29.4066778819
 31
0.0
 11
7.4503937985
 21
-29.2897391331
 31
0.0
 11
7.3286048994
 21
-29.1185984242
 31
0.0
 11
7.2494376577
 21
-28.9008770359
 31
0.0
 11
7.2164096596
 21
-28.6461993294
 31
0.0
  0
SPLINE
  5
504
100
AcDbEntity
  8
RACCORDO
100
AcDbSpline
 62
253
  6
CONTINUOUS
 70
0
 71
3
 72
11
 73
7
 74
5
 42
0.0000001
 43
0.0000001
 44
0.0000000001
 12
-0.1076172178
 22
0.0538086089
 32
0.0
 13
-0.000004788
 23
0.1203197072
 33
0.0
 40
0.0
 40
0.0
 40
0.0
 40
0.0
 40
0.3022933199
 40
0.5655420657
 40
0.7934540161
 40
1.0
 40
1.0
 40
1.0
 40
1.0
 10
-5.4083282738
 20
20.7754740169
 30
0.0
 10
-5.4191722624
 20
20.7808960113
 30
0.0
 10
-5.4387824985
 20
20.7925504341
 30
0.0
 10
-5.4626112078
 20
20.8140499068
 30
0.0
 10
-5.4778988649
 20
20.8380172117
 30
0.0
 10
-5.4815398158
 20
20.8555783422
 30
0.0
 10
-5.4815401455
 20
20.8638621929
 30
0.0
 11
-5.4083282738
 21
20.7754740169
 31
0.0
 11
-5.4393860697
 21
20.7944034736
 31
0.0
 11
-5.4625266987
 21
20.8160311024
 31
0.0
 11
-5.4767492704
 21
20.8394768045
 31
0.0
 11
-5.4815401455
 21
20.8638621929
 31
0.0
  0
SPLINE
  5
505
100
AcDbEntity
  8
RACCORDO
100
AcDbSpline
 62
253
  6
CONTINUOUS
 70
0
 71
3
 72
11
 73
7
 74
5
 42
0.0000001
 43
0.0000001
 44
0.0000000001
 12
-0.1076172178
 22
0.0538086089
 32
0.0
 13
-0.000004788
 23
0.1203197072
 33
0.0
 40
0.0
 40
0.0
 40
0.0
 40
0.0
 40
0.3022933199
 40
0.5655420657
 40
0.7934540161
 40
1.0
 40
1.0
 40
1.0
 40
1.0
 10
-2.8097108529
 20
19.4761653065
 30
0.0
 10
-2.8205548416
 20
19.4815873009
 30
0.0
 10
-2.8401650776
 20
19.4932417237
 30
0.0
 10
-2.863993787
 20
19.5147411964
 30
0.0
 10
-2.879281444
 20
19.5387085013
 30
0.0
 10
-2.882922395
 20
19.5562696317
 30
0.0
 10
-2.8829227246
 20
19.5645534825
 30
0.0
 11
-2.8097108529
 21
19.4761653065
 31
0.0
 11
-2.8407686489
 21
19.4950947631
 31
0.0
 11
-2.8639092779
 21
19.516722392
 31
0.0
 11
-2.8781318495
 21
19.5401680941
 31
0.0
 11
-2.8829227246
 21
19.5645534825
 31
0.0
  0
SPLINE
  5
506
100
AcDbEntity
  8
RACCORDO
100
AcDbSpline
 62
253
  6
CONTINUOUS
 70
0
 71
3
 72
11
 73
7
 74
5
 42
0.0000001
 43
0.0000001
 44
0.0000000001
 12
0.0
 22
-0.1574195909
 32
0.0
 13
0.1408088651
 23
-0.0703831735
 33
0.0
 40
0.0
 40
0.0
 40
0.0
 40
0.0
 40
0.2896627477
 40
0.5495780546
 40
0.7827595118
 40
1.0
 40
1.0
 40
1.0
 40
1.0
 10
-1.5433116596
 20
18.8429657098
 30
0.0
 10
-1.5433116596
 20
18.8277661794
 30
0.0
 10
-1.5408559929
 20
18.7988188546
 30
0.0
 10
-1.52848908
 20
18.7592304641
 30
0.0
 10
-1.5078270527
 20
18.7275264665
 30
0.0
 10
-1.488540072
 20
18.7128532173
 30
0.0
 10
-1.4783436098
 20
18.7077565256
 30
0.0
 11
-1.5433116596
 21
18.8429657098
 31
0.0
 11
-1.5389931842
 21
18.7975720727
 31
0.0
 11
-1.5262461369
 21
18.758692614
 31
0.0
 11
-1.5057056604
 21
18.7282703053
 31
0.0
 11
-1.4783436098
 21
18.7077565256
 31
0.0
  0
SPLINE
  5
507
100
AcDbEntity
  8
RACCORDO
100
AcDbSpline
 62
253
  6
CONTINUOUS
 70
0
 71
3
 72
11
 73
7
 74
5
 42
0.0000001
 43
0.0000001
 44
0.0000000001
 12
-0.3247092722
 22
-0.1606633027
 32
0.0
 13
-0.3240355638
 23
0.1620177819
 33
0.0
 40
0.0
 40
0.0
 40
0.0
 40
0.0
 40
0.235768032
 40
0.5003752359
 40
0.7647786019
 40
1.0
 40
1.0
 40
1.0
 40
1.0
 10
-1.1906862886
 20
18.8425041233
 30
0.0
 10
-1.2162049772
 20
18.8298776997
 30
0.0
 10
-1.2747104624
 20
18.8118827566
 30
0.0
 10
-1.3671673422
 20
18.8033783985
 30
0.0
 10
-1.4595358066
 20
18.8121105042
 30
0.0
 10
-1.5179049601
 20
18.8302623601
 30
0.0
 10
-1.5433116596
 20
18.8429657098
 30
0.0
 11
-1.1906862886
 21
18.8425041233
 31
0.0
 11
-1.2717795677
 21
18.8156796853
 31
0.0
 11
-1.3671881175
 21
18.8063602002
 31
0.0
 11
-1.4624977951
 21
18.8159287249
 31
0.0
 11
-1.5433116596
 21
18.8429657098
 31
0.0
  0
SPLINE
  5
508
100
AcDbEntity
  8
RACCORDO
100
AcDbSpline
 62
253
  6
CONTINUOUS
 70
0
 71
3
 72
11
 73
7
 74
5
 42
0.0000001
 43
0.0000001
 44
0.0000000001
 12
0.3240355412
 22
-0.1620177706
 32
0.0
 13
0.3247092495
 23
0.1606632915
 33
0.0
 40
0.0
 40
0.0
 40
0.0
 40
0.0
 40
0.2352016938
 40
0.4996084761
 40
0.7642196693
 40
1.0
 40
1.0
 40
1.0
 40
1.0
 10
-1.5433116596
 20
19.1362381894
 30
0.0
 10
-1.5179070902
 20
19.1235359047
 30
0.0
 10
-1.4595400508
 20
19.1053844008
 30
0.0
 10
-1.3671732198
 20
19.0966506389
 30
0.0
 10
-1.274713858
 20
19.1051543459
 30
0.0
 10
-1.2162063066
 20
19.1231495215
 30
0.0
 10
-1.1906862886
 20
19.1357766028
 30
0.0
 11
-1.5433116596
 21
19.1362381894
 31
0.0
 11
-1.4625047628
 21
19.1092028962
 31
0.0
 11
-1.3671940216
 21
19.0996326432
 31
0.0
 11
-1.2717839359
 21
19.1089512015
 31
0.0
 11
-1.1906862886
 21
19.1357766028
 31
0.0
  0
SPLINE
  5
509
100
AcDbEntity
  8
RACCORDO
100
AcDbSpline
 62
253
  6
CONTINUOUS
 70
0
 71
3
 72
11
 73
7
 74
5
 42
0.0000001
 43
0.0000001
 44
0.0000000001
 12
-0.0015795713
 22
0.3667766459
 32
0.0
 13
-0.3273614738
 23
0.1654148375
 33
0.0
 40
0.0
 40
0.0
 40
0.0
 40
0.0
 40
0.2467432229
 40
0.5118843482
 40
0.7705350917
 40
1.0
 40
1.0
 40
1.0
 40
1.0
 10
-1.1906862886
 20
19.1357766028
 30
0.0
 10
-1.1908162047
 20
19.1659431533
 30
0.0
 10
-1.2014418576
 20
19.2285853478
 30
0.0
 10
-1.2392705689
 20
19.3157116691
 30
0.0
 10
-1.2945820129
 20
19.3903161669
 30
0.0
 10
-1.3424212371
 20
19.4280148218
 30
0.0
 10
-1.3674605606
 20
19.440667122
 30
0.0
 11
-1.1906862886
 21
19.1357766028
 31
0.0
 11
-1.2044301863
 21
19.2252273945
 31
0.0
 11
-1.2428553757
 21
19.3145625533
 31
0.0
 11
-1.3000937676
 21
19.3902176324
 31
0.0
 11
-1.3674605606
 21
19.440667122
 31
0.0
  0
SPLINE
  5
50A
100
AcDbEntity
  8
RACCORDO
100
AcDbSpline
 62
253
  6
CONTINUOUS
 70
0
 71
3
 72
11
 73
7
 74
5
 42
0.0000001
 43
0.0000001
 44
0.0000000001
 12
-0.326546397
 22
-0.1653672778
 32
0.0
 13
0.0
 23
-0.3660312636
 33
0.0
 40
0.0
 40
0.0
 40
0.0
 40
0.0
 40
0.2300181807
 40
0.4885559182
 40
0.7533507765
 40
1.0
 40
1.0
 40
1.0
 40
1.0
 10
-1.3674605606
 20
19.440667122
 30
0.0
 10
-1.3924977634
 20
19.4279879618
 30
0.0
 10
-1.4402881103
 20
19.3903443778
 30
0.0
 10
-1.4954397956
 20
19.3158269495
 30
0.0
 10
-1.5329657865
 20
19.2288427769
 30
0.0
 10
-1.5433116596
 20
19.166331965
 30
0.0
 10
-1.5433116596
 20
19.1362381894
 30
0.0
 11
-1.3674605606
 21
19.440667122
 31
0.0
 11
-1.4348330695
 21
19.3901740666
 31
0.0
 11
-1.491856038
 21
19.3146507865
 31
0.0
 11
-1.5299419122
 21
19.2255240665
 31
0.0
 11
-1.5433116596
 21
19.1362381894
 31
0.0
  0
SPLINE
  5
50B
100
AcDbEntity
  8
RACCORDO
100
AcDbSpline
 62
253
  6
CONTINUOUS
 70
0
 71
3
 72
9
 73
5
 74
3
 42
0.0000001
 43
0.0000001
 44
0.0000000001
 12
-0.1042827884
 22
0.0515947415
 32
0.0
 13
-0.1035394014
 23
-0.0530707987
 33
0.0
 40
0.0
 40
0.0
 40
0.0
 40
0.0
 40
0.5366976106
 40
1.0
 40
1.0
 40
1.0
 40
1.0
 10
-2.633859754
 20
20.0738667186
 30
0.0
 10
-2.6525158618
 20
20.0830969768
 30
0.0
 10
-2.6904612092
 20
20.0955648166
 30
0.0
 10
-2.7308249864
 20
20.0885715918
 30
0.0
 10
-2.7468150037
 20
20.0803756492
 30
0.0
 11
-2.633859754
 21
20.0738667186
 31
0.0
 11
-2.6939428313
 21
20.0908742472
 31
0.0
 11
-2.7468150037
 21
20.0803756492
 31
0.0
  0
SPLINE
  5
50C
100
AcDbEntity
  8
RACCORDO
100
AcDbSpline
 62
253
  6
CONTINUOUS
 70
0
 71
3
 72
11
 73
7
 74
5
 42
0.0000001
 43
0.0000001
 44
0.0000000001
 12
0.0
 22
0.3660312094
 32
0.0
 13
0.3265463486
 23
0.1653672532
 33
0.0
 40
0.0
 40
0.0
 40
0.0
 40
0.0
 40
0.2466562638
 40
0.5114566903
 40
0.7699992314
 40
1.0
 40
1.0
 40
1.0
 40
1.0
 10
-2.8097108529
 20
19.769437786
 30
0.0
 10
-2.8097108529
 20
19.7995324162
 30
0.0
 10
-2.7993643677
 20
19.8620447185
 30
0.0
 10
-2.7618370938
 20
19.949030736
 30
0.0
 10
-2.7066841723
 20
20.0235462303
 30
0.0
 10
-2.6588950577
 20
20.0611885202
 30
0.0
 10
-2.633859754
 20
20.0738667186
 30
0.0
 11
-2.8097108529
 21
19.769437786
 31
0.0
 11
-2.7963403822
 21
19.858726147
 31
0.0
 11
-2.7582529866
 21
19.9478544177
 31
0.0
 11
-2.7012275446
 21
20.0233780157
 31
0.0
 11
-2.633859754
 21
20.0738667186
 31
0.0
  0
SPLINE
  5
50D
100
AcDbEntity
  8
RACCORDO
100
AcDbSpline
 62
253
  6
CONTINUOUS
 70
0
 71
3
 72
11
 73
7
 74
5
 42
0.0000001
 43
0.0000001
 44
0.0000000001
 12
-0.3247092722
 22
-0.1606633027
 32
0.0
 13
-0.3240355638
 23
0.1620177819
 33
0.0
 40
0.0
 40
0.0
 40
0.0
 40
0.0
 40
0.235768032
 40
0.5003752359
 40
0.7647786019
 40
1.0
 40
1.0
 40
1.0
 40
1.0
 10
12.1205988673
 20
12.1868615453
 30
0.0
 10
12.0950801786
 20
12.1742351218
 30
0.0
 10
12.0365746935
 20
12.1562401787
 30
0.0
 10
11.9441178136
 20
12.1477358206
 30
0.0
 10
11.8517493492
 20
12.1564679263
 30
0.0
 10
11.7933801957
 20
12.1746197822
 30
0.0
 10
11.7679734963
 20
12.1873231319
 30
0.0
 11
12.1205988673
 21
12.1868615453
 31
0.0
 11
12.0395055881
 21
12.1600371074
 31
0.0
 11
11.9440970383
 21
12.1507176222
 31
0.0
 11
11.8487873607
 21
12.160286147
 31
0.0
 11
11.7679734963
 21
12.1873231319
 31
0.0
  0
SPLINE
  5
50E
100
AcDbEntity
  8
RACCORDO
100
AcDbSpline
 62
253
  6
CONTINUOUS
 70
0
 71
3
 72
11
 73
7
 74
5
 42
0.0000001
 43
0.0000001
 44
0.0000000001
 12
0.0
 22
-0.1574195909
 32
0.0
 13
0.1408088651
 23
-0.0703831735
 33
0.0
 40
0.0
 40
0.0
 40
0.0
 40
0.0
 40
0.2896627477
 40
0.5495780546
 40
0.7827595118
 40
1.0
 40
1.0
 40
1.0
 40
1.0
 10
11.7679734963
 20
12.1873231319
 30
0.0
 10
11.7679734963
 20
12.1721236015
 30
0.0
 10
11.7704291629
 20
12.1431762767
 30
0.0
 10
11.7827960759
 20
12.1035878862
 30
0.0
 10
11.8034581031
 20
12.0718838886
 30
0.0
 10
11.8227450838
 20
12.0572106393
 30
0.0
 10
11.832941546
 20
12.0521139477
 30
0.0
 11
11.7679734963
 21
12.1873231319
 31
0.0
 11
11.7722919717
 21
12.1419294948
 31
0.0
 11
11.7850390189
 21
12.1030500361
 31
0.0
 11
11.8055794955
 21
12.0726277274
 31
0.0
 11
11.832941546
 21
12.0521139477
 31
0.0
  0
SPLINE
  5
50F
100
AcDbEntity
  8
RACCORDO
100
AcDbSpline
 62
253
  6
CONTINUOUS
 70
0
 71
3
 72
11
 73
7
 74
5
 42
0.0000001
 43
0.0000001
 44
0.0000000001
 12
-0.1076172178
 22
0.0538086089
 32
0.0
 13
-0.000004788
 23
0.1203197072
 33
0.0
 40
0.0
 40
0.0
 40
0.0
 40
0.0
 40
0.3022933199
 40
0.5655420657
 40
0.7934540161
 40
1.0
 40
1.0
 40
1.0
 40
1.0
 10
10.5015743029
 20
12.8205227286
 30
0.0
 10
10.4907303143
 20
12.8259447229
 30
0.0
 10
10.4711200782
 20
12.8375991458
 30
0.0
 10
10.4472913689
 20
12.8590986185
 30
0.0
 10
10.4320037118
 20
12.8830659234
 30
0.0
 10
10.4283627608
 20
12.9006270538
 30
0.0
 10
10.4283624312
 20
12.9089109046
 30
0.0
 11
10.5015743029
 21
12.8205227286
 31
0.0
 11
10.470516507
 21
12.8394521852
 31
0.0
 11
10.447375878
 21
12.8610798141
 31
0.0
 11
10.4331533063
 21
12.8845255162
 31
0.0
 11
10.4283624312
 21
12.9089109046
 31
0.0
  0
SPLINE
  5
510
100
AcDbEntity
  8
RACCORDO
100
AcDbSpline
 62
253
  6
CONTINUOUS
 70
0
 71
3
 72
9
 73
5
 74
3
 42
0.0000001
 43
0.0000001
 44
0.0000000001
 12
-0.1042827884
 22
0.0515947415
 32
0.0
 13
-0.1035394014
 23
-0.0530707987
 33
0.0
 40
0.0
 40
0.0
 40
0.0
 40
0.0
 40
0.5366976106
 40
1.0
 40
1.0
 40
1.0
 40
1.0
 10
10.6774254019
 20
13.4182241407
 30
0.0
 10
10.6587692941
 20
13.4274543989
 30
0.0
 10
10.6208239466
 20
13.4399222386
 30
0.0
 10
10.5804601695
 20
13.4329290139
 30
0.0
 10
10.5644701521
 20
13.4247330713
 30
0.0
 11
10.6774254019
 21
13.4182241407
 31
0.0
 11
10.6173423245
 21
13.4352316693
 31
0.0
 11
10.5644701521
 21
13.4247330713
 31
0.0
  0
SPLINE
  5
511
100
AcDbEntity
  8
RACCORDO
100
AcDbSpline
 62
253
  6
CONTINUOUS
 70
0
 71
3
 72
11
 73
7
 74
5
 42
0.0000001
 43
0.0000001
 44
0.0000000001
 12
-0.1350450777
 22
0.0739176917
 32
0.0
 13
0.0
 23
0.153951285
 33
0.0
 40
0.0
 40
0.0
 40
0.0
 40
0.0
 40
0.2172561503
 40
0.451015807
 40
0.7110744724
 40
1.0
 40
1.0
 40
1.0
 40
1.0
 10
-2.7478542725
 20
19.3425849562
 30
0.0
 10
-2.7576340637
 20
19.3479379805
 30
0.0
 10
-2.7760090183
 20
19.3628947831
 30
0.0
 10
-2.7956204878
 20
19.3942712304
 30
0.0
 10
-2.8073684953
 20
19.4330663343
 30
0.0
 10
-2.8097108529
 20
19.4613384878
 30
0.0
 10
-2.8097108529
 20
19.4761653065
 30
0.0
 11
-2.7478542725
 21
19.3425849562
 31
0.0
 11
-2.7739592816
 21
19.3634947905
 31
0.0
 11
-2.7935040799
 21
19.3937124705
 31
0.0
 11
-2.8056119055
 21
19.4318741153
 31
0.0
 11
-2.8097108529
 21
19.4761653065
 31
0.0
  0
SPLINE
  5
512
100
AcDbEntity
  8
RACCORDO
100
AcDbSpline
 62
253
  6
CONTINUOUS
 70
0
 71
3
 72
11
 73
7
 74
5
 42
0.0000001
 43
0.0000001
 44
0.0000000001
 12
0.0
 22
0.3660312094
 32
0.0
 13
0.3265463486
 23
0.1653672532
 33
0.0
 40
0.0
 40
0.0
 40
0.0
 40
0.0
 40
0.2466562638
 40
0.5114566903
 40
0.7699992314
 40
1.0
 40
1.0
 40
1.0
 40
1.0
 10
10.5015743029
 20
13.1137952081
 30
0.0
 10
10.5015743029
 20
13.1438898383
 30
0.0
 10
10.5119207881
 20
13.2064021406
 30
0.0
 10
10.5494480621
 20
13.293388158
 30
0.0
 10
10.6046009835
 20
13.3679036524
 30
0.0
 10
10.6523900981
 20
13.4055459423
 30
0.0
 10
10.6774254019
 20
13.4182241407
 30
0.0
 11
10.5015743029
 21
13.1137952081
 31
0.0
 11
10.5149447736
 21
13.2030835691
 31
0.0
 11
10.5530321692
 21
13.2922118398
 31
0.0
 11
10.6100576112
 21
13.3677354378
 31
0.0
 11
10.6774254019
 21
13.4182241407
 31
0.0
  0
SPLINE
  5
513
100
AcDbEntity
  8
RACCORDO
100
AcDbSpline
 62
253
  6
CONTINUOUS
 70
0
 71
3
 72
11
 73
7
 74
5
 42
0.0000001
 43
0.0000001
 44
0.0000000001
 12
-0.326546397
 22
-0.1653672778
 32
0.0
 13
0.0
 23
-0.3660312636
 33
0.0
 40
0.0
 40
0.0
 40
0.0
 40
0.0
 40
0.2300181807
 40
0.4885559182
 40
0.7533507765
 40
1.0
 40
1.0
 40
1.0
 40
1.0
 10
11.9438245952
 20
12.785024544
 30
0.0
 10
11.9187873925
 20
12.7723453839
 30
0.0
 10
11.8709970456
 20
12.7347017999
 30
0.0
 10
11.8158453603
 20
12.6601843715
 30
0.0
 10
11.7783193694
 20
12.573200199
 30
0.0
 10
11.7679734963
 20
12.5106893871
 30
0.0
 10
11.7679734963
 20
12.4805956115
 30
0.0
 11
11.9438245952
 21
12.785024544
 31
0.0
 11
11.8764520863
 21
12.7345314887
 31
0.0
 11
11.8194291178
 21
12.6590082086
 31
0.0
 11
11.7813432437
 21
12.5698814886
 31
0.0
 11
11.7679734963
 21
12.4805956115
 31
0.0
  0
SPLINE
  5
514
100
AcDbEntity
  8
RACCORDO
100
AcDbSpline
 62
253
  6
CONTINUOUS
 70
0
 71
3
 72
11
 73
7
 74
5
 42
0.0000001
 43
0.0000001
 44
0.0000000001
 12
0.3240355412
 22
-0.1620177706
 32
0.0
 13
0.3247092495
 23
0.1606632915
 33
0.0
 40
0.0
 40
0.0
 40
0.0
 40
0.0
 40
0.2352016938
 40
0.4996084761
 40
0.7642196693
 40
1.0
 40
1.0
 40
1.0
 40
1.0
 10
11.7679734963
 20
12.4805956115
 30
0.0
 10
11.7933780657
 20
12.4678933268
 30
0.0
 10
11.851745105
 20
12.4497418229
 30
0.0
 10
11.9441119361
 20
12.4410080609
 30
0.0
 10
12.0365712978
 20
12.449511768
 30
0.0
 10
12.0950788492
 20
12.4675069435
 30
0.0
 10
12.1205988673
 20
12.4801340249
 30
0.0
 11
11.7679734963
 21
12.4805956115
 31
0.0
 11
11.848780393
 21
12.4535603183
 31
0.0
 11
11.9440911342
 21
12.4439900652
 31
0.0
 11
12.03950122
 21
12.4533086236
 31
0.0
 11
12.1205988673
 21
12.4801340249
 31
0.0
  0
SPLINE
  5
515
100
AcDbEntity
  8
RACCORDO
100
AcDbSpline
 62
253
  6
CONTINUOUS
 70
0
 71
3
 72
11
 73
7
 74
5
 42
0.0000001
 43
0.0000001
 44
0.0000000001
 12
-0.0015795713
 22
0.3667766459
 32
0.0
 13
-0.3273614738
 23
0.1654148375
 33
0.0
 40
0.0
 40
0.0
 40
0.0
 40
0.0
 40
0.2467432229
 40
0.5118843482
 40
0.7705350917
 40
1.0
 40
1.0
 40
1.0
 40
1.0
 10
12.1205988673
 20
12.4801340249
 30
0.0
 10
12.1204689511
 20
12.5103005754
 30
0.0
 10
12.1098432983
 20
12.5729427699
 30
0.0
 10
12.0720145869
 20
12.6600690912
 30
0.0
 10
12.0167031429
 20
12.734673589
 30
0.0
 10
11.9688639187
 20
12.7723722439
 30
0.0
 10
11.9438245952
 20
12.785024544
 30
0.0
 11
12.1205988673
 21
12.4801340249
 31
0.0
 11
12.1068549695
 21
12.5695848165
 31
0.0
 11
12.0684297802
 21
12.6589199754
 31
0.0
 11
12.0111913882
 21
12.7345750545
 31
0.0
 11
11.9438245952
 21
12.785024544
 31
0.0
  0
SPLINE
  5
516
100
AcDbEntity
  8
RACCORDO
100
AcDbSpline
 62
253
  6
CONTINUOUS
 70
0
 71
3
 72
11
 73
7
 74
5
 42
0.0000001
 43
0.0000001
 44
0.0000000001
 12
0.0001361054
 22
-0.1202500526
 32
0.0
 13
0.1075549856
 23
-0.0537774928
 33
0.0
 40
0.0
 40
0.0
 40
0.0
 40
0.0
 40
0.2065403907
 40
0.4344721032
 40
0.6977363802
 40
1.0
 40
1.0
 40
1.0
 40
1.0
 10
-18.7928253486
 20
27.8127066856
 30
0.0
 10
-18.7928159782
 20
27.8044278547
 30
0.0
 10
-18.7891593913
 20
27.7868809965
 30
0.0
 10
-18.7738686052
 20
27.7629352435
 30
0.0
 10
-18.750048438
 20
27.7414543254
 30
0.0
 10
-18.7304500827
 20
27.7298074009
 30
0.0
 10
-18.7196134296
 20
27.7243890744
 30
0.0
 11
-18.7928253486
 21
27.8127066856
 31
0.0
 11
-18.7880140465
 21
27.7883406532
 31
0.0
 11
-18.7737855784
 21
27.7649143005
 31
0.0
 11
-18.7506512642
 21
27.743304006
 31
0.0
 11
-18.7196134296
 21
27.7243890744
 31
0.0
  0
SPLINE
  5
517
100
AcDbEntity
  8
RACCORDO
100
AcDbSpline
 62
7
  6
CONTINUOUS
 70
0
 71
3
 72
10
 73
6
 74
4
 42
0.0000001
 43
0.0000001
 44
0.0000000001
 12
0.3471941063
 22
-0.0721526133
 32
0.0
 13
0.227214943
 23
0.2722556092
 33
0.0
 40
0.0
 40
0.0
 40
0.0
 40
0.0
 40
0.4827891464
 40
0.7436989725
 40
1.0
 40
1.0
 40
1.0
 40
1.0
 10
-0.793472532
 20
18.5564276776
 30
0.0
 10
-0.7375986833
 20
18.5448161781
 30
0.0
 10
-0.6442583885
 20
18.5661394014
 30
0.0
 10
-0.5440491588
 20
18.6282160884
 30
0.0
 10
-0.4992888789
 20
18.6709464982
 30
0.0
 10
-0.4798770711
 20
18.6942062957
 30
0.0
 11
-0.793472532
 21
18.5564276776
 31
0.0
 11
-0.6243397523
 21
18.5829706219
 31
0.0
 11
-0.5453862059
 21
18.6312056497
 31
0.0
 11
-0.4798770711
 21
18.6942062957
 31
0.0
  0
SPLINE
  5
518
100
AcDbEntity
  8
RACCORDO
100
AcDbSpline
 62
253
  6
CONTINUOUS
 70
0
 71
3
 72
11
 73
7
 74
5
 42
0.0000001
 43
0.0000001
 44
0.0000000001
 12
0.291260946
 22
-0.0608804149
 32
0.0
 13
0.1066333044
 23
0.277792552
 33
0.0
 40
0.0
 40
0.0
 40
0.0
 40
0.0
 40
0.2240297614
 40
0.4626415955
 40
0.7223918003
 40
1.0
 40
1.0
 40
1.0
 40
1.0
 10
-1.4175909607
 20
18.6866365477
 30
0.0
 10
-1.3958405873
 20
18.6820902061
 30
0.0
 10
-1.3482463873
 20
18.6830350723
 30
0.0
 10
-1.2818422746
 20
18.7141436684
 30
0.0
 10
-1.2263204462
 20
18.7692274333
 30
0.0
 10
-1.2005537151
 20
18.8167982932
 30
0.0
 10
-1.1906862886
 20
18.8425041233
 30
0.0
 11
-1.4175909607
 21
18.6866365477
 31
0.0
 11
-1.3509346697
 21
18.6874554241
 31
0.0
 11
-1.2861126718
 21
18.7164235277
 31
0.0
 11
-1.2305614991
 21
18.7701620895
 31
0.0
 11
-1.1906862886
 21
18.8425041233
 31
0.0
  0
SPLINE
  5
519
100
AcDbEntity
  8
RACCORDO
100
AcDbSpline
 62
253
  6
CONTINUOUS
 70
0
 71
3
 72
11
 73
7
 74
5
 42
0.0000001
 43
0.0000001
 44
0.0000000001
 12
0.324035565
 22
-0.1620177825
 32
0.0
 13
0.3247092733
 23
0.1606633032
 33
0.0
 40
0.0
 40
0.0
 40
0.0
 40
0.0
 40
0.2352148089
 40
0.4996181444
 40
0.7642249797
 40
1.0
 40
1.0
 40
1.0
 40
1.0
 10
11.7679734963
 20
-29.1988835478
 30
0.0
 10
11.7933794841
 20
-29.2115865417
 30
0.0
 10
11.8517477867
 20
-29.229738284
 30
0.0
 10
11.9441153568
 20
-29.2384708398
 30
0.0
 10
12.0365730846
 20
-29.2299669975
 30
0.0
 10
12.0950794221
 20
-29.2119719323
 30
0.0
 10
12.1205988673
 20
-29.1993451344
 30
0.0
 11
11.7679734963
 21
-29.1988835478
 31
0.0
 11
11.8487850274
 21
-29.2259199842
 31
0.0
 11
11.9440946398
 21
-29.2354890504
 31
0.0
 11
12.0395031132
 21
-29.2261701531
 31
0.0
 11
12.1205988673
 21
-29.1993451344
 31
0.0
  0
SPLINE
  5
51A
100
AcDbEntity
  8
RACCORDO
100
AcDbSpline
 62
253
  6
CONTINUOUS
 70
0
 71
3
 72
11
 73
7
 74
5
 42
0.0000001
 43
0.0000001
 44
0.0000000001
 12
-0.1867481958
 22
0.3016987148
 32
0.0
 13
-0.3165037276
 23
0.1603820238
 33
0.0
 40
0.0
 40
0.0
 40
0.0
 40
0.0
 40
0.2188592847
 40
0.4829364118
 40
0.7559796598
 40
1.0
 40
1.0
 40
1.0
 40
1.0
 10
12.1205988673
 20
-29.1993451344
 30
0.0
 10
12.1069750084
 20
-29.1773352794
 30
0.0
 10
12.0709447678
 20
-29.132559966
 30
0.0
 10
12.006810678
 20
-29.0700985161
 30
0.0
 10
11.934153718
 20
-29.0127844791
 30
0.0
 10
11.882106293
 20
-28.980234866
 30
0.0
 10
11.8563618439
 20
-28.967189374
 30
0.0
 11
12.1205988673
 21
-29.1993451344
 31
0.0
 11
12.0733037537
 21
-29.1377532401
 31
0.0
 11
12.0065095153
 21
-29.0720404186
 31
0.0
 11
11.9303517911
 21
-29.0121576007
 31
0.0
 11
11.8563618439
 21
-28.967189374
 31
0.0
  0
SPLINE
  5
51B
100
AcDbEntity
  8
RACCORDO
100
AcDbSpline
 62
253
  6
CONTINUOUS
 70
0
 71
3
 72
9
 73
5
 74
3
 42
0.0000001
 43
0.0000001
 44
0.0000000001
 12
-0.1603864367
 22
-0.1936035553
 32
0.0
 13
0.0
 23
-0.2514083247
 33
0.0
 40
0.0
 40
0.0
 40
0.0
 40
0.0
 40
0.5131108688
 40
1.0
 40
1.0
 40
1.0
 40
1.0
 10
11.8563618439
 20
-28.967189374
 30
0.0
 10
11.828929836
 20
-29.0003027368
 30
0.0
 10
11.78645263
 20
-29.0742447274
 30
0.0
 10
11.7679734963
 20
-29.1580808876
 30
0.0
 10
11.7679734963
 20
-29.1988835478
 30
0.0
 11
11.8563618439
 21
-28.967189374
 31
0.0
 11
11.7916570827
 21
-29.0787885792
 31
0.0
 11
11.7679734963
 21
-29.1988835478
 31
0.0
  0
SPLINE
  5
51C
100
AcDbEntity
  8
RACCORDO
100
AcDbSpline
 62
253
  6
CONTINUOUS
 70
0
 71
3
 72
11
 73
7
 74
5
 42
0.0000001
 43
0.0000001
 44
0.0000000001
 12
-0.1076145995
 22
0.0538072997
 32
0.0
 13
-0.0000126884
 23
0.1203167792
 33
0.0
 40
0.0
 40
0.0
 40
0.0
 40
0.0
 40
0.3022877434
 40
0.5655235625
 40
0.7934458451
 40
1.0
 40
1.0
 40
1.0
 40
1.0
 10
10.5015743029
 20
-28.8589564307
 30
0.0
 10
10.4907307781
 20
-28.8535346683
 30
0.0
 10
10.4711210132
 20
-28.8418818252
 30
0.0
 10
10.4472939334
 20
-28.8203823323
 30
0.0
 10
10.4320050658
 20
-28.7964164876
 30
0.0
 10
10.4283632025
 20
-28.7788551997
 30
0.0
 10
10.4283623289
 20
-28.7705712228
 30
0.0
 11
10.5015743029
 21
-28.8589564307
 31
0.0
 11
10.4705175027
 21
-28.8400283298
 31
0.0
 11
10.44737863
 21
-28.8184022283
 31
0.0
 11
10.4331546355
 21
-28.7949567157
 31
0.0
 11
10.4283623289
 21
-28.7705712228
 31
0.0
  0
SPLINE
  5
51D
100
AcDbEntity
  8
RACCORDO
100
AcDbSpline
 62
253
  6
CONTINUOUS
 70
0
 71
3
 72
11
 73
7
 74
5
 42
0.0000001
 43
0.0000001
 44
0.0000000001
 12
-0.3247092493
 22
-0.1606632913
 32
0.0
 13
-0.3240355409
 23
0.1620177705
 33
0.0
 40
0.0
 40
0.0
 40
0.0
 40
0.0
 40
0.2357555305
 40
0.5003661117
 40
0.7647736174
 40
1.0
 40
1.0
 40
1.0
 40
1.0
 10
12.1205988673
 20
-29.4926176139
 30
0.0
 10
12.0950815335
 20
-29.5052433671
 30
0.0
 10
12.036577241
 20
-29.5232380879
 30
0.0
 10
11.9441210528
 20
-29.5317435913
 30
0.0
 10
11.8517510311
 20
-29.5230116096
 30
0.0
 10
11.7933807323
 20
-29.5048596454
 30
0.0
 10
11.7679734963
 20
-29.4921560274
 30
0.0
 11
12.1205988673
 21
-29.4926176139
 31
0.0
 11
12.0395100087
 21
-29.5194409753
 31
0.0
 11
11.9441003463
 21
-29.5287615861
 31
0.0
 11
11.8487891366
 21
-29.5191933769
 31
0.0
 11
11.7679734963
 21
-29.4921560274
 31
0.0
  0
SPLINE
  5
51E
100
AcDbEntity
  8
RACCORDO
100
AcDbSpline
 62
253
  6
CONTINUOUS
 70
0
 71
3
 72
11
 73
7
 74
5
 42
0.0000001
 43
0.0000001
 44
0.0000000001
 12
0.0
 22
-0.1574094607
 32
0.0
 13
0.1407307317
 23
-0.0705166609
 33
0.0
 40
0.0
 40
0.0
 40
0.0
 40
0.0
 40
0.2895574575
 40
0.5496374242
 40
0.7828358829
 40
1.0
 40
1.0
 40
1.0
 40
1.0
 10
11.7679734963
 20
-29.4921560274
 30
0.0
 10
11.7679734963
 20
-29.5073490551
 30
0.0
 10
11.7704424359
 20
-29.536295244
 30
0.0
 10
11.7827877224
 20
-29.5758912386
 30
0.0
 10
11.8034609604
 20
-29.6075966176
 30
0.0
 10
11.8227459452
 20
-29.6222575803
 30
0.0
 10
11.8329331669
 20
-29.6273621431
 30
0.0
 11
11.7679734963
 21
-29.4921560274
 31
0.0
 11
11.7722952326
 21
-29.5375297579
 31
0.0
 11
11.7850394227
 21
-29.5764346575
 31
0.0
 11
11.8055844746
 21
-29.6068542555
 31
0.0
 11
11.8329331669
 21
-29.6273621431
 31
0.0
  0
SPLINE
  5
51F
100
AcDbEntity
  8
RACCORDO
100
AcDbSpline
 62
7
  6
CONTINUOUS
 70
0
 71
3
 72
11
 73
7
 74
5
 42
0.0000001
 43
0.0000001
 44
0.0000000001
 12
-0.3676081367
 22
0.076700282
 32
0.0
 13
-0.3358793539
 23
0.1679396769
 33
0.0
 40
0.0
 40
0.0
 40
0.0
 40
0.0
 40
0.2080051117
 40
0.4656095261
 40
0.7451688962
 40
1.0
 40
1.0
 40
1.0
 40
1.0
 10
12.8314080847
 20
-28.347642962
 30
0.0
 10
12.8059199609
 20
-28.3423249451
 30
0.0
 10
12.7495166849
 20
-28.3273730631
 30
0.0
 10
12.6607712978
 20
-28.2985729447
 30
0.0
 10
12.5680216452
 20
-28.2634494715
 30
0.0
 10
12.5068507447
 20
-28.2362153909
 30
0.0
 10
12.4783199092
 20
-28.2219499731
 30
0.0
 11
12.8314080847
 21
-28.347642962
 31
0.0
 11
12.7557150333
 21
-28.3283584135
 31
0.0
 11
12.6636312832
 21
-28.2987174435
 31
0.0
 11
12.5655118916
 21
-28.2613854226
 31
0.0
 11
12.4783199092
 21
-28.2219499731
 31
0.0
  0
LINE
  5
520
100
AcDbEntity
  8
RACCORDO
100
AcDbLine
 62
253
  6
CONTINUOUS
 10
3.2333115744
 20
-1.4694271636
 11
3.2353569604
 21
-1.4762372692
  0
SPLINE
  5
521
100
AcDbEntity
  8
RACCORDO
100
AcDbSpline
 62
253
  6
CONTINUOUS
 70
0
 71
3
 72
11
 73
7
 74
5
 42
0.0000001
 43
0.0000001
 44
0.0000000001
 12
3.0196133459
 22
-8.6295230319
 32
0.0
 13
0.0000293706
 23
-9.1425780016
 33
0.0
 40
0.0
 40
0.0
 40
0.0
 40
0.0
 40
0.2614552866
 40
0.5168153815
 40
0.7636801073
 40
1.0
 40
1.0
 40
1.0
 40
1.0
 10
3.2355080557
 20
-1.476186146
 30
0.0
 10
3.49867268
 20
-2.2282642853
 30
0.0
 10
3.9628559513
 20
-3.7352165785
 30
0.0
 10
4.4733429903
 20
-6.0083639613
 30
0.0
 10
4.7841349802
 20
-8.240119297
 30
0.0
 10
4.8581123095
 20
-9.7133121481
 30
0.0
 10
4.8581146231
 20
-10.4335031656
 30
0.0
 11
3.2355080557
 21
-1.476186146
 31
0.0
 11
3.9379475904
 21
-3.7610215938
 31
0.0
 11
4.4468682591
 21
-6.0395273412
 31
0.0
 11
4.7548068122
 21
-8.2754013581
 31
0.0
 11
4.8581146231
 21
-10.4335031656
 31
0.0
  0
SPLINE
  5
522
100
AcDbEntity
  8
RACCORDO
100
AcDbSpline
 62
253
  6
CONTINUOUS
 70
0
 71
3
 72
18
 73
14
 74
12
 42
0.0000001
 43
0.0000001
 44
0.0000000001
 12
4.2674545891
 22
-1.0424129136
 32
0.0
 13
3.9291659378
 23
-1.9645478834
 33
0.0
 40
0.0
 40
0.0
 40
0.0
 40
0.0
 40
0.0147906486
 40
0.0369855771
 40
0.0664796666
 40
0.1030951696
 40
0.1466192605
 40
0.1967969433
 40
0.3159931355
 40
0.4582908688
 40
0.6212340979
 40
0.8024919304
 40
1.0
 40
1.0
 40
1.0
 40
1.0
 10
-21.1699556098
 20
-11.3045867728
 30
0.0
 10
-21.148916136
 20
-11.3097260939
 30
0.0
 10
-21.0978832882
 20
-11.3284362358
 30
0.0
 10
-21.0085749231
 20
-11.3670254245
 30
0.0
 10
-20.8917196013
 20
-11.4225020536
 30
0.0
 10
-20.7479838412
 20
-11.4939818563
 30
0.0
 10
-20.5781106895
 20
-11.5809302673
 30
0.0
 10
-20.3015651263
 20
-11.7248363733
 30
0.0
 10
-19.8979277213
 20
-11.9378277904
 30
0.0
 10
-19.3483701772
 20
-12.2280967364
 30
0.0
 10
-18.7171972132
 20
-12.5584261599
 30
0.0
 10
-18.0119647265
 20
-12.9215667845
 30
0.0
 10
-17.5168352122
 20
-13.1715056581
 30
0.0
 10
-17.2581545524
 20
-13.3008436781
 30
0.0
 11
-21.1699556098
 21
-11.3045867728
 31
0.0
 11
-21.1083151039
 21
-11.3251317661
 31
0.0
 11
-21.0185718597
 21
-11.3632438336
 31
0.0
 11
-20.9013049445
 21
-11.4183405338
 31
0.0
 11
-20.7571671768
 21
-11.4897321313
 31
0.0
 11
-20.5868764113
 21
-11.5766675223
 31
0.0
 11
-20.3912750456
 21
-11.678294718
 31
0.0
 11
-19.9278611879
 21
-11.9220681321
 31
0.0
 11
-19.3749301768
 21
-12.2136525309
 31
0.0
 11
-18.7406120438
 21
-12.5453247933
 31
0.0
 11
-18.0326561018
 21
-12.9097638723
 31
0.0
 11
-17.2581545524
 21
-13.3008436781
 31
0.0
  0
SPLINE
  5
523
100
AcDbEntity
  8
RACCORDO
100
AcDbSpline
 62
253
  6
CONTINUOUS
 70
0
 71
3
 72
9
 73
5
 74
3
 42
0.0000001
 43
0.0000001
 44
0.0000000001
 12
-0.4699542873
 22
0.6436714229
 32
0.0
 13
-0.3821817638
 23
0.699361875
 33
0.0
 40
0.0
 40
0.0
 40
0.0
 40
0.0
 40
0.2567165921
 40
1.0
 40
1.0
 40
1.0
 40
1.0
 10
-21.1699556098
 20
-11.3045867728
 30
0.0
 10
-21.2101706308
 20
-11.2495063948
 30
0.0
 10
-21.3635781106
 20
-11.0326135096
 30
0.0
 10
-21.5036160608
 20
-10.806155938
 30
0.0
 10
-21.5983058488
 20
-10.6328812454
 30
0.0
 11
-21.1699556098
 21
-11.3045867728
 31
0.0
 11
-21.2880540241
 21
-11.1375160447
 31
0.0
 11
-21.5983058488
 21
-10.6328812454
 31
0.0
  0
LINE
  5
524
100
AcDbEntity
  8
RACCORDO
100
AcDbLine
 62
253
  6
CONTINUOUS
 10
-21.5983058488
 20
-10.6328812454
 11
-21.6017816704
 21
-10.6265107896
  0
SPLINE
  5
525
100
AcDbEntity
  8
RACCORDO
100
AcDbSpline
 62
253
  6
CONTINUOUS
 70
0
 71
3
 72
11
 73
7
 74
5
 42
0.0000001
 43
0.0000001
 44
0.0000000001
 12
-0.0000263446
 22
-7.4571205492
 32
0.0
 13
-3.6496637409
 23
-6.5029686655
 33
0.0
 40
0.0
 40
0.0
 40
0.0
 40
0.0
 40
0.274699252
 40
0.5330349769
 40
0.7745545818
 40
1.0
 40
1.0
 40
1.0
 40
1.0
 10
4.8581146231
 20
-10.4335031656
 30
0.0
 10
4.8581122108
 20
-11.116324978
 30
0.0
 10
4.7949670277
 20
-12.4424903016
 30
0.0
 10
4.4940868769
 20
-14.3485347252
 30
0.0
 10
3.9913142992
 20
-16.0851085421
 30
0.0
 10
3.5097746278
 20
-17.1473767465
 30
0.0
 10
3.2355079716
 20
-17.63606491
 30
0.0
 11
4.8581146231
 21
-10.4335031656
 31
0.0
 11
4.7548068032
 21
-12.479361944
 31
0.0
 11
4.4468682221
 21
-14.3810315738
 31
0.0
 11
3.9379475219
 21
-16.1086738151
 31
0.0
 11
3.2355079716
 21
-17.63606491
 31
0.0
  0
SPLINE
  5
526
100
AcDbEntity
  8
RACCORDO
100
AcDbSpline
 62
253
  6
CONTINUOUS
 70
0
 71
3
 72
10
 73
6
 74
4
 42
0.0000001
 43
0.0000001
 44
0.0000000001
 12
7.6382429202
 22
-3.8189705087
 32
0.0
 13
7.563679261
 23
-3.9645991843
 33
0.0
 40
0.0
 40
0.0
 40
0.0
 40
0.0
 40
0.2245392974
 40
0.4720125618
 40
1.0
 40
1.0
 40
1.0
 40
1.0
 10
-17.2581545524
 20
-13.3008436781
 30
0.0
 10
-16.6864593194
 20
-13.5866799964
 30
0.0
 10
-15.47951857
 20
-14.1772305859
 30
0.0
 10
-12.9152752669
 20
-15.4129969632
 30
0.0
 10
-10.934927949
 20
-16.3892711002
 30
0.0
 10
-9.6037520703
 20
-17.0870239557
 30
0.0
 11
-17.2581545524
 21
-13.3008436781
 31
0.0
 11
-15.5373883044
 21
-14.1468957347
 31
0.0
 11
-13.6354090989
 21
-15.0681787387
 31
0.0
 11
-9.6037520703
 21
-17.0870239557
 31
0.0
  0
SPLINE
  5
527
100
AcDbEntity
  8
RACCORDO
100
AcDbSpline
 62
253
  6
CONTINUOUS
 70
0
 71
3
 72
9
 73
5
 74
3
 42
0.0000001
 43
0.0000001
 44
0.0000000001
 12
-0.4687957083
 22
0.6433083065
 32
0.0
 13
-0.3810281597
 23
0.6988794853
 33
0.0
 40
0.0
 40
0.0
 40
0.0
 40
0.0
 40
0.2567116304
 40
1.0
 40
1.0
 40
1.0
 40
1.0
 10
-21.1710248271
 20
-11.3043382152
 30
0.0
 10
-21.2111399307
 20
-11.2492899738
 30
0.0
 10
-21.3641611313
 20
-11.0325225381
 30
0.0
 10
-21.5038122792
 20
-10.806208542
 30
0.0
 10
-21.5982168791
 20
-10.6330522109
 30
0.0
 11
-21.1710248271
 21
-11.3043382152
 31
0.0
 11
-21.2888234765
 21
-11.1373674036
 31
0.0
 11
-21.5982168791
 21
-10.6330522109
 31
0.0
  0
LINE
  5
528
100
AcDbEntity
  8
RACCORDO
100
AcDbLine
 62
253
  6
CONTINUOUS
 10
-9.6037520703
 20
-17.0870239557
 11
-9.5923501057
 21
-17.092995102
  0
LINE
  5
529
100
AcDbEntity
  8
RACCORDO
100
AcDbLine
 62
253
  6
CONTINUOUS
 10
3.235356882
 20
-17.6360785774
 11
3.2333115729
 21
-17.6402323043
  0
SPLINE
  5
52A
100
AcDbEntity
  8
RACCORDO
100
AcDbSpline
 62
253
  6
CONTINUOUS
 70
0
 71
3
 72
9
 73
5
 74
3
 42
0.0000001
 43
0.0000001
 44
0.0000000001
 12
2.9797823284
 22
-1.5631753978
 32
0.0
 13
2.8951219747
 23
-1.7149019798
 33
0.0
 40
0.0
 40
0.0
 40
0.0
 40
0.0
 40
0.5187066331
 40
1.0
 40
1.0
 40
1.0
 40
1.0
 10
-9.5923501057
 20
-17.092995102
 30
0.0
 10
-9.0771391527
 20
-17.3632715845
 30
0.0
 10
-8.0888020867
 20
-17.8937946429
 30
0.0
 10
-7.1138305327
 20
-18.4487030193
 30
0.0
 10
-6.6493628651
 20
-18.7238266686
 30
0.0
 11
-9.5923501057
 21
-17.092995102
 31
0.0
 11
-8.0554212478
 21
-17.9202042733
 31
0.0
 11
-6.6493628651
 21
-18.7238266686
 31
0.0
  0
LINE
  5
52B
100
AcDbEntity
  8
RACCORDO
100
AcDbLine
 62
253
  6
CONTINUOUS
 10
-6.6493628651
 20
-18.7238266686
 11
-6.645699364
 21
-18.725996947
  0
SPLINE
  5
52C
100
AcDbEntity
  8
RACCORDO
100
AcDbSpline
 62
253
  6
CONTINUOUS
 70
0
 71
3
 72
11
 73
7
 74
5
 42
0.0000001
 43
0.0000001
 44
0.0000000001
 12
2.3133907839
 22
-1.3706130658
 32
0.0
 13
2.1264464219
 23
-1.6457772358
 33
0.0
 40
0.0
 40
0.0
 40
0.0
 40
0.0
 40
0.2884989417
 40
0.5535415506
 40
0.7917678974
 40
1.0
 40
1.0
 40
1.0
 40
1.0
 10
-6.645699364
 20
-18.725996947
 30
0.0
 10
-6.4232290997
 20
-18.8578037534
 30
0.0
 10
-5.9985108384
 20
-19.1143356593
 30
0.0
 10
-5.399076081
 20
-19.4943556381
 30
0.0
 10
-4.8700800127
 20
-19.8506782932
 30
0.0
 10
-4.5465554966
 20
-20.0864757156
 30
0.0
 10
-4.3989573601
 20
-20.200710267
 30
0.0
 11
-6.645699364
 21
-18.725996947
 31
0.0
 11
-5.9820456535
 21
-19.1276911428
 31
0.0
 11
-5.3806709757
 21
-19.5101354106
 31
0.0
 11
-4.8501751965
 21
-19.8691757323
 31
0.0
 11
-4.3989573601
 21
-20.200710267
 31
0.0
  0
SPLINE
  5
52D
100
AcDbEntity
  8
RACCORDO
100
AcDbSpline
 62
253
  6
CONTINUOUS
 70
0
 71
3
 72
15
 73
11
 74
9
 42
0.0000001
 43
0.0000001
 44
0.0000000001
 12
-3.8332420931
 22
-6.8187717018
 32
0.0
 13
-7.8209917005
 23
-0.1465649559
 33
0.0
 40
0.0
 40
0.0
 40
0.0
 40
0.0
 40
0.1326296713
 40
0.2602715948
 40
0.3841728543
 40
0.505782573
 40
0.6266597414
 40
0.7483743589
 40
0.8723957258
 40
1.0
 40
1.0
 40
1.0
 40
1.0
 10
3.233160433
 20
-17.640245965
 30
0.0
 10
3.0636932201
 20
-17.9417031147
 30
0.0
 10
2.6978101231
 20
-18.5154880394
 30
0.0
 10
2.0575454587
 20
-19.2892623578
 30
0.0
 10
1.3424361939
 20
-19.9534037993
 30
0.0
 10
0.5574101097
 20
-20.5032203558
 30
0.0
 10
-0.291379486
 20
-20.9358891499
 30
0.0
 10
-1.1974978018
 20
-21.2496301529
 30
0.0
 10
-2.1540506592
 20
-21.4439036412
 30
0.0
 10
-2.8101417713
 20
-21.493316888
 30
0.0
 10
-3.142805761
 20
-21.499550993
 30
0.0
 11
3.233160433
 21
-17.640245965
 31
0.0
 11
2.6731700066
 21
-18.5136133942
 31
0.0
 11
2.0351322265
 21
-19.2816196182
 31
0.0
 11
1.3239000173
 21
-19.9400260699
 31
0.0
 11
0.5443782536
 21
-20.4852517805
 31
0.0
 11
-0.2979227873
 21
-20.9148852342
 31
0.0
 11
-1.1972556675
 21
-21.2274351521
 31
0.0
 11
-2.1476374826
 21
-21.4222344688
 31
0.0
 11
-3.142805761
 21
-21.499550993
 31
0.0
  0
SPLINE
  5
52E
100
AcDbEntity
  8
RACCORDO
100
AcDbSpline
 62
253
  6
CONTINUOUS
 70
0
 71
3
 72
21
 73
17
 74
15
 42
0.0000001
 43
0.0000001
 44
0.0000000001
 12
1.5170810568
 22
-1.1741610328
 32
0.0
 13
-1.8735528639
 23
-0.4122968958
 33
0.0
 40
0.0
 40
0.0
 40
0.0
 40
0.0
 40
0.2372555118
 40
0.4425997445
 40
0.6146170348
 40
0.6878059824
 40
0.7523172679
 40
0.8080914055
 40
0.8551343274
 40
0.8935497006
 40
0.9236523476
 40
0.9462590871
 40
0.9634254209
 40
0.9713611326
 40
0.979739033
 40
1.0
 40
1.0
 40
1.0
 40
1.0
 10
-4.3989573601
 20
-20.200710267
 30
0.0
 10
-4.2789787459
 20
-20.2935689926
 30
0.0
 10
-4.056224533
 20
-20.4681902881
 30
0.0
 10
-3.7515280823
 20
-20.7164757067
 30
0.0
 10
-3.5331261578
 20
-20.9044864518
 30
0.0
 10
-3.3874810417
 20
-21.0387257325
 30
0.0
 10
-3.2989277924
 20
-21.1251545932
 30
0.0
 10
-3.2252093075
 20
-21.2027582358
 30
0.0
 10
-3.166506598
 20
-21.2714578486
 30
0.0
 10
-3.1227997381
 20
-21.3311864532
 30
0.0
 10
-3.0942281034
 20
-21.3821906945
 30
0.0
 10
-3.080033813
 20
-21.425050477
 30
0.0
 10
-3.0825261053
 20
-21.4569829161
 30
0.0
 10
-3.0941781988
 20
-21.4753953624
 30
0.0
 10
-3.1121854606
 20
-21.4907466392
 30
0.0
 10
-3.1301524301
 20
-21.4967664817
 30
0.0
 10
-3.142805761
 20
-21.499550993
 30
0.0
 11
-4.3989573601
 21
-20.200710267
 31
0.0
 11
-4.0411224467
 21
-20.4819800161
 31
0.0
 11
-3.7362359934
 21
-20.7314274796
 31
0.0
 11
-3.4869685948
 21
-20.9476735608
 31
0.0
 11
-3.3838886116
 21
-21.0430040332
 31
0.0
 11
-3.2955217596
 21
-21.1296479265
 31
0.0
 11
-3.2221164989
 21
-21.2074928499
 31
0.0
 11
-3.1638899154
 21
-21.2764425249
 31
0.0
 11
-3.1210486185
 21
-21.3364060872
 31
0.0
 11
-3.0937759165
 21
-21.3873086832
 31
0.0
 11
-3.082210126
 21
-21.4291063757
 31
0.0
 11
-3.0864807354
 21
-21.4617598764
 31
0.0
 11
-3.0945813898
 21
-21.4746494544
 31
0.0
 11
-3.1066658191
 21
-21.4852454987
 31
0.0
 11
-3.142805761
 21
-21.499550993
 31
0.0
  0
SPLINE
  5
52F
100
AcDbEntity
  8
RACCORDO
100
AcDbSpline
 62
253
  6
CONTINUOUS
 70
0
 71
3
 72
15
 73
11
 74
9
 42
0.0000001
 43
0.0000001
 44
0.0000000001
 12
-5.6886335929
 22
-10.0837030786
 32
0.0
 13
-11.1103210464
 23
3.256130553
 33
0.0
 40
0.0
 40
0.0
 40
0.0
 40
0.0
 40
0.1281732549
 40
0.2502978703
 40
0.3688691217
 40
0.4867085694
 40
0.6066107669
 40
0.7310089344
 40
0.861739366
 40
1.0
 40
1.0
 40
1.0
 40
1.0
 10
4.2370098382
 20
-18.0804491342
 30
0.0
 10
3.9939662769
 20
-18.5112694827
 30
0.0
 10
3.4539260764
 20
-19.3183986907
 30
0.0
 10
2.4632207568
 20
-20.3511974215
 30
0.0
 10
1.3287814137
 20
-21.1582232908
 30
0.0
 10
0.0685834126
 20
-21.7291127083
 30
0.0
 10
-1.297127487
 20
-22.0601627865
 30
0.0
 10
-2.7480918942
 20
-22.1526802201
 30
0.0
 10
-4.2650912389
 20
-22.0136981912
 30
0.0
 10
-5.279504616
 20
-21.7784060696
 30
0.0
 10
-5.7915446268
 20
-21.628341178
 30
0.0
 11
4.2370098382
 21
-18.0804491342
 31
0.0
 11
3.4062069581
 21
-19.3100237282
 31
0.0
 11
2.4240397191
 21
-20.3271278307
 31
0.0
 11
1.3043029737
 21
-21.1212938997
 31
0.0
 11
0.0621848969
 21
-21.6856189591
 31
0.0
 11
-1.2859213159
 21
-22.0167744246
 31
0.0
 11
-2.7228231061
 21
-22.1147257089
 31
0.0
 11
-4.2306492841
 21
-21.9832295094
 31
0.0
 11
-5.7915446268
 21
-21.628341178
 31
0.0
  0
LINE
  5
530
100
AcDbEntity
  8
RACCORDO
100
AcDbLine
 62
253
  6
CONTINUOUS
 10
4.2394726864
 20
-18.0760809681
 11
4.2370098382
 21
-18.0804491342
  0
SPLINE
  5
531
100
AcDbEntity
  8
RACCORDO
100
AcDbSpline
 62
253
  6
CONTINUOUS
 70
0
 71
3
 72
11
 73
7
 74
5
 42
0.0000001
 43
0.0000001
 44
0.0000000001
 12
-0.000033711
 22
-7.8013104585
 32
0.0
 13
-3.8298173344
 23
-6.7965391234
 33
0.0
 40
0.0
 40
0.0
 40
0.0
 40
0.0
 40
0.2747167331
 40
0.5330490966
 40
0.7745570855
 40
1.0
 40
1.0
 40
1.0
 40
1.0
 10
5.9427966142
 20
-10.5429392353
 30
0.0
 10
5.9427935272
 20
-11.257322743
 30
0.0
 10
5.8765096959
 20
-12.6447465021
 30
0.0
 10
5.5605379961
 20
-14.6386172317
 30
0.0
 10
5.0326844471
 20
-16.4547887598
 30
0.0
 10
4.5272744136
 20
-17.5653371054
 30
0.0
 10
4.2394726864
 20
-18.0760809681
 30
0.0
 11
5.9427966142
 21
-10.5429392353
 31
0.0
 11
5.8343215358
 21
-12.683342777
 31
0.0
 11
5.5109701535
 21
-14.672564434
 31
0.0
 11
4.9767033253
 21
-16.4793051126
 31
0.0
 11
4.2394726864
 21
-18.0760809681
 31
0.0
  0
SPLINE
  5
532
100
AcDbEntity
  8
RACCORDO
100
AcDbSpline
 62
253
  6
CONTINUOUS
 70
0
 71
3
 72
11
 73
7
 74
5
 42
0.0000001
 43
0.0000001
 44
0.0000000001
 12
3.1689327826
 22
-9.0261688148
 32
0.0
 13
0.0000377909
 23
-9.5662876004
 33
0.0
 40
0.0
 40
0.0
 40
0.0
 40
0.0
 40
0.2614578751
 40
0.5168240552
 40
0.7636907329
 40
1.0
 40
1.0
 40
1.0
 40
1.0
 10
4.2394727722
 20
-1.1717541962
 30
0.0
 10
4.5156535828
 20
-1.9584085025
 30
0.0
 10
5.0028196691
 20
-3.5347855424
 30
0.0
 10
5.5387440541
 20
-5.9129284065
 30
0.0
 10
5.8651186085
 20
-8.2479594435
 30
0.0
 10
5.9427936374
 20
-9.7894050981
 30
0.0
 10
5.9427966142
 20
-10.5429392353
 30
0.0
 11
4.2394727722
 21
-1.1717541962
 31
0.0
 11
4.9767033934
 21
-3.5618166538
 31
0.0
 11
5.5109701831
 21
-5.9455847416
 31
0.0
 11
5.8343215493
 21
-8.284940913
 31
0.0
 11
5.9427966142
 21
-10.5429392353
 31
0.0
  0
LINE
  5
533
100
AcDbEntity
  8
RACCORDO
100
AcDbLine
 62
253
  6
CONTINUOUS
 10
4.2370098312
 20
-1.1647414421
 11
4.2394727722
 21
-1.1717541962
  0
SPLINE
  5
534
100
AcDbEntity
  8
RACCORDO
100
AcDbSpline
 62
253
  6
CONTINUOUS
 70
0
 71
3
 72
31
 73
27
 74
25
 42
0.0000001
 43
0.0000001
 44
0.0000000001
 12
17.7645626408
 22
29.9097387658
 32
0.0
 13
11.5311642272
 23
-32.8207923491
 33
0.0
 40
0.0
 40
0.0
 40
0.0
 40
0.0
 40
0.0264692698
 40
0.0522402453
 40
0.0774416485
 40
0.1022180905
 40
0.1267228143
 40
0.1511170044
 40
0.1755615638
 40
0.2002116393
 40
0.2252125431
 40
0.2506937603
 40
0.3034672861
 40
0.3592317009
 40
0.3883846845
 40
0.4185296118
 40
0.44981592
 40
0.4821057588
 40
0.5152647148
 40
0.5492518915
 40
0.6195621057
 40
0.6926735701
 40
0.7680352999
 40
0.8449421197
 40
0.9225658773
 40
1.0
 40
1.0
 40
1.0
 40
1.0
 10
-20.9509564214
 20
11.4346880919
 30
0.0
 10
-20.7942180875
 20
11.6985844071
 30
0.0
 10
-20.4610484455
 20
12.2057789563
 30
0.0
 10
-19.8964176421
 20
12.905894225
 30
0.0
 10
-19.2775760825
 20
13.5314437726
 30
0.0
 10
-18.6084107796
 20
14.0800311146
 30
0.0
 10
-17.8922743684
 20
14.5489112676
 30
0.0
 10
-17.1333577336
 20
14.9363935535
 30
0.0
 10
-16.3359366431
 20
15.2413815257
 30
0.0
 10
-15.5043186096
 20
15.4633032783
 30
0.0
 10
-14.6426270544
 20
15.6014782234
 30
0.0
 10
-13.4459591632
 20
15.6754187503
 30
0.0
 10
-11.8880300576
 20
15.5531386807
 30
0.0
 10
-10.3316248088
 20
15.1701659719
 30
0.0
 10
-9.0753949468
 20
14.7181503044
 30
0.0
 10
-8.1157383768
 20
14.2878773457
 30
0.0
 10
-7.165012147
 20
13.7591325041
 30
0.0
 10
-6.2214763245
 20
13.1514218754
 30
0.0
 10
-5.2870074477
 20
12.4749831887
 30
0.0
 10
-4.0459649373
 20
11.4738077661
 30
0.0
 10
-2.5458488392
 20
10.0607880521
 30
0.0
 10
-0.868197176
 20
8.1531609545
 30
0.0
 10
0.6782035044
 20
6.0421716236
 30
0.0
 10
2.0664031382
 20
3.7626302558
 30
0.0
 10
3.2706159938
 20
1.3541361181
 30
0.0
 10
3.9393746359
 20
-0.3175916878
 30
0.0
 10
4.2370098312
 20
-1.1647414421
 30
0.0
 11
-20.9509564214
 21
11.4346880919
 31
0.0
 11
-20.4443448012
 21
12.2035952389
 31
0.0
 11
-19.8808171112
 21
12.9008499467
 31
0.0
 11
-19.2637533267
 21
13.5236063977
 31
0.0
 11
-18.5968019135
 21
14.0695612619
 31
0.0
 11
-17.8834970487
 21
14.536339738
 31
0.0
 11
-17.12774422
 21
14.9223224918
 31
0.0
 11
-16.3336308127
 21
15.2264703429
 31
0.0
 11
-15.5052527971
 21
15.4481056366
 31
0.0
 11
-14.6466454725
 21
15.5866904517
 31
0.0
 11
-13.7619668971
 21
15.6423630255
 31
0.0
 11
-11.9310364359
 21
15.5079100572
 31
0.0
 11
-10.0449471958
 21
15.0541442702
 31
0.0
 11
-9.0908648605
 21
14.71027232
 31
0.0
 11
-8.1344849462
 21
14.2801083496
 31
0.0
 11
-7.1812028549
 21
13.7549323843
 31
0.0
 11
-6.2356266388
 21
13.1485893449
 31
0.0
 11
-5.3008342312
 21
12.4727437611
 31
0.0
 11
-4.3802575958
 21
11.7308255619
 31
0.0
 11
-2.5966829679
 21
10.0570934013
 31
0.0
 11
-0.9144982311
 21
8.1494846637
 31
0.0
 11
0.6369120046
 21
6.0361540427
 31
0.0
 11
2.0296505761
 21
3.7518522142
 31
0.0
 11
3.2374663609
 21
1.3366896667
 31
0.0
 11
4.2370098312
 21
-1.1647414421
 31
0.0
  0
LINE
  5
535
100
AcDbEntity
  8
RACCORDO
100
AcDbLine
 62
253
  6
CONTINUOUS
 10
-20.9536115861
 20
11.4302149603
 11
-20.9509564214
 21
11.4346880919
  0
SPLINE
  5
536
100
AcDbEntity
  8
RACCORDO
100
AcDbSpline
 62
253
  6
CONTINUOUS
 70
0
 71
3
 72
9
 73
5
 74
3
 42
0.0000001
 43
0.0000001
 44
0.0000000001
 12
0.864319462
 22
4.0524062828
 32
0.0
 13
2.1140776563
 23
3.5636667179
 33
0.0
 40
0.0
 40
0.0
 40
0.0
 40
0.0
 40
0.5162112764
 40
1.0
 40
1.0
 40
1.0
 40
1.0
 10
-22.4182596515
 20
7.5687075005
 30
0.0
 10
-22.2695358339
 20
8.2660067737
 30
0.0
 10
-21.8873559695
 20
9.5992092384
 30
0.0
 10
-21.2945338965
 20
10.8555277027
 30
0.0
 10
-20.9536115861
 20
11.4302149603
 30
0.0
 11
-22.4182596515
 21
7.5687075005
 31
0.0
 11
-21.8188340336
 21
9.6219474722
 31
0.0
 11
-20.9536115861
 21
11.4302149603
 31
0.0
  0
SPLINE
  5
537
100
AcDbEntity
  8
RACCORDO
100
AcDbSpline
 62
253
  6
CONTINUOUS
 70
0
 71
3
 72
9
 73
5
 74
3
 42
0.0000001
 43
0.0000001
 44
0.0000000001
 12
-3.590443458
 22
2.5279933827
 32
0.0
 13
-3.1133316949
 23
3.0966434289
 33
0.0
 40
0.0
 40
0.0
 40
0.0
 40
0.0
 40
0.2420900623
 40
1.0
 40
1.0
 40
1.0
 40
1.0
 10
-10.4993435247
 20
-19.2744891751
 30
0.0
 10
-10.7890804181
 20
-19.0704884833
 30
0.0
 10
-11.9667647929
 20
-18.2008278329
 30
0.0
 10
-13.0667328361
 20
-17.2271358745
 30
0.0
 10
-13.8532745131
 20
-16.4448102651
 30
0.0
 11
-10.4993435247
 21
-19.2744891751
 31
0.0
 11
-11.3547370179
 21
-18.6433190562
 31
0.0
 11
-13.8532745131
 21
-16.4448102651
 31
0.0
  0
SPLINE
  5
538
100
AcDbEntity
  8
RACCORDO
100
AcDbSpline
 62
253
  6
CONTINUOUS
 70
0
 71
3
 72
9
 73
5
 74
3
 42
0.0000001
 43
0.0000001
 44
0.0000000001
 12
-0.8930955857
 22
0.8752857478
 32
0.0
 13
-0.7789697661
 23
0.9782387076
 33
0.0
 40
0.0
 40
0.0
 40
0.0
 40
0.0
 40
0.2455177059
 40
1.0
 40
1.0
 40
1.0
 40
1.0
 10
-9.6651113215
 20
-20.2054306923
 30
0.0
 10
-9.7382015813
 20
-20.133797976
 30
0.0
 10
-10.0307048118
 20
-19.8367469531
 30
0.0
 10
-10.303437226
 20
-19.5205104366
 30
0.0
 10
-10.4993435247
 20
-19.2744891751
 30
0.0
 11
-9.6651113215
 21
-20.2054306923
 31
0.0
 11
-9.8806392616
 21
-19.9867789233
 31
0.0
 11
-10.4993435247
 21
-19.2744891751
 31
0.0
  0
SPLINE
  5
539
100
AcDbEntity
  8
RACCORDO
100
AcDbSpline
 62
253
  6
CONTINUOUS
 70
0
 71
3
 72
11
 73
7
 74
5
 42
0.0000001
 43
0.0000001
 44
0.0000000001
 12
-0.1350450777
 22
0.0739176917
 32
0.0
 13
-0.0
 23
0.153951285
 33
0.0
 40
0.0
 40
0.0
 40
0.0
 40
0.0
 40
0.2172561503
 40
0.451015807
 40
0.7110744724
 40
1.0
 40
1.0
 40
1.0
 40
1.0
 10
-18.6577568492
 20
27.2975362445
 30
0.0
 10
-18.6675366404
 20
27.3028892689
 30
0.0
 10
-18.685911595
 20
27.3178460715
 30
0.0
 10
-18.7055230645
 20
27.3492225188
 30
0.0
 10
-18.717271072
 20
27.3880176226
 30
0.0
 10
-18.7196134296
 20
27.4162897761
 30
0.0
 10
-18.7196134296
 20
27.4311165949
 30
0.0
 11
-18.6577568492
 21
27.2975362445
 31
0.0
 11
-18.6838618583
 21
27.3184460789
 31
0.0
 11
-18.7034066566
 21
27.3486637588
 31
0.0
 11
-18.7155144822
 21
27.3868254037
 31
0.0
 11
-18.7196134296
 21
27.4311165949
 31
0.0
  0
SPLINE
  5
53A
100
AcDbEntity
  8
RACCORDO
100
AcDbSpline
 62
253
  6
CONTINUOUS
 70
0
 71
3
 72
11
 73
7
 74
5
 42
0.0000001
 43
0.0000001
 44
0.0000000001
 12
0.0001361054
 22
-0.1202500526
 32
0.0
 13
0.1075549856
 23
-0.0537774928
 33
0.0
 40
0.0
 40
0.0
 40
0.0
 40
0.0
 40
0.2065403907
 40
0.4344721032
 40
0.6977363802
 40
1.0
 40
1.0
 40
1.0
 40
1.0
 10
10.4283623839
 20
13.2021128194
 30
0.0
 10
10.4283717543
 20
13.1938339884
 30
0.0
 10
10.4320283412
 20
13.1762871303
 30
0.0
 10
10.4473191273
 20
13.1523413772
 30
0.0
 10
10.4711392946
 20
13.1308604592
 30
0.0
 10
10.4907376498
 20
13.1192135347
 30
0.0
 10
10.5015743029
 20
13.1137952081
 30
0.0
 11
10.4283623839
 21
13.2021128194
 31
0.0
 11
10.433173686
 21
13.1777467869
 31
0.0
 11
10.4474021541
 21
13.1543204343
 31
0.0
 11
10.4705364683
 21
13.1327101397
 31
0.0
 11
10.5015743029
 21
13.1137952081
 31
0.0
  0
SPLINE
  5
53B
100
AcDbEntity
  8
RACCORDO
100
AcDbSpline
 62
253
  6
CONTINUOUS
 70
0
 71
3
 72
9
 73
5
 74
3
 42
0.0000001
 43
0.0000001
 44
0.0000000001
 12
-0.7096583415
 22
-0.2590050955
 32
0.0
 13
-0.7546594314
 23
-0.0344636587
 33
0.0
 40
0.0
 40
0.0
 40
0.0
 40
0.0
 40
0.4940098399
 40
1.0
 40
1.0
 40
1.0
 40
1.0
 10
-5.8962144761
 20
-21.0043319696
 30
0.0
 10
-6.0130738773
 20
-21.0469823249
 30
0.0
 10
-6.2561195843
 20
-21.1166326792
 30
0.0
 10
-6.5071763208
 20
-21.1480681217
 30
0.0
 10
-6.6344597363
 20
-21.1538808791
 30
0.0
 11
-5.8962144761
 21
-21.0043319696
 31
0.0
 11
-6.2551628764
 21
-21.1064720599
 31
0.0
 11
-6.6344597363
 21
-21.1538808791
 31
0.0
  0
SPLINE
  5
53C
100
AcDbEntity
  8
RACCORDO
100
AcDbSpline
 62
253
  6
CONTINUOUS
 70
0
 71
3
 72
18
 73
14
 74
12
 42
0.0000001
 43
0.0000001
 44
0.0000000001
 12
-3.1270646677
 22
-0.143317799
 32
0.0
 13
-2.1605937932
 23
2.2651507429
 33
0.0
 40
0.0
 40
0.0
 40
0.0
 40
0.0
 40
0.0514318455
 40
0.1039409781
 40
0.1580958369
 40
0.2139727666
 40
0.3306895068
 40
0.4535558953
 40
0.5820789755
 40
0.715944056
 40
0.8550612188
 40
0.9267136897
 40
1.0
 40
1.0
 40
1.0
 40
1.0
 10
-6.6344597363
 20
-21.1538808791
 30
0.0
 10
-6.6880699719
 20
-21.156337912
 30
0.0
 10
-6.7970290028
 20
-21.1459760058
 30
0.0
 10
-6.9574405906
 20
-21.1068523399
 30
0.0
 10
-7.1183811531
 20
-21.0528329657
 30
0.0
 10
-7.3384091668
 20
-20.9656994219
 30
0.0
 10
-7.619126657
 20
-20.8379099435
 30
0.0
 10
-7.9641615191
 20
-20.6691458659
 30
0.0
 10
-8.322108569
 20
-20.4860872988
 30
0.0
 10
-8.6902540319
 20
-20.2861130509
 30
0.0
 10
-8.9979127369
 20
-20.0990045218
 30
0.0
 10
-9.2376254433
 20
-19.9244593682
 30
0.0
 10
-9.3516288101
 20
-19.8242408644
 30
0.0
 10
-9.4044094591
 20
-19.7689060177
 30
0.0
 11
-6.6344597363
 21
-21.1538808791
 31
0.0
 11
-6.7950438399
 21
-21.1423225471
 31
0.0
 11
-6.95513761
 21
-21.1050656247
 31
0.0
 11
-7.1161484887
 21
-21.052021142
 31
0.0
 11
-7.2790060894
 21
-20.9882059767
 31
0.0
 11
-7.61255725
 21
-20.8390938851
 31
0.0
 11
-7.9583665929
 21
-20.6707366012
 31
0.0
 11
-8.3163768578
 21
-20.4871840754
 31
0.0
 11
-8.683849498
 21
-20.2857842722
 31
0.0
 11
-9.0536565719
 21
-20.0558061685
 31
0.0
 11
-9.2342158795
 21
-19.9227365253
 31
0.0
 11
-9.4044094591
 21
-19.7689060177
 31
0.0
  0
SPLINE
  5
53D
100
AcDbEntity
  8
RACCORDO
100
AcDbSpline
 62
253
  6
CONTINUOUS
 70
0
 71
3
 72
9
 73
5
 74
3
 42
0.0000001
 43
0.0000001
 44
0.0000000001
 12
-0.7940031484
 22
0.8322049253
 32
0.0
 13
-0.6773281196
 23
0.9296411435
 33
0.0
 40
0.0
 40
0.0
 40
0.0
 40
0.0
 40
0.2455954237
 40
1.0
 40
1.0
 40
1.0
 40
1.0
 10
-9.4044094591
 20
-19.7689060177
 30
0.0
 10
-9.469410639
 20
-19.7007774439
 30
0.0
 10
-9.7286767237
 20
-19.4182320515
 30
0.0
 10
-9.9675689985
 20
-19.1173143612
 30
0.0
 10
-10.1378954762
 20
-18.8835391835
 30
0.0
 11
-9.4044094591
 21
-19.7689060177
 31
0.0
 11
-9.5955308775
 21
-19.5608855693
 31
0.0
 11
-10.1378954762
 21
-18.8835391835
 31
0.0
  0
SPLINE
  5
53E
100
AcDbEntity
  8
RACCORDO
100
AcDbSpline
 62
253
  6
CONTINUOUS
 70
0
 71
3
 72
9
 73
5
 74
3
 42
0.0000001
 43
0.0000001
 44
0.0000000001
 12
-1.3324269209
 22
-0.7181987419
 32
0.0
 13
-1.4218354648
 23
-0.5191867134
 33
0.0
 40
0.0
 40
0.0
 40
0.0
 40
0.0
 40
0.4444878934
 40
1.0
 40
1.0
 40
1.0
 40
1.0
 10
-4.5089598038
 20
-20.4013901247
 30
0.0
 10
-4.7063756822
 20
-20.50780034
 30
0.0
 10
-5.1618060846
 20
-20.7265816872
 30
0.0
 10
-5.6329322046
 20
-20.9081938013
 30
0.0
 10
-5.8962144761
 20
-21.0043319696
 30
0.0
 11
-4.5089598038
 21
-20.4013901247
 31
0.0
 11
-5.1143432774
 21
-20.694948154
 31
0.0
 11
-5.8962144761
 21
-21.0043319696
 31
0.0
  0
SPLINE
  5
53F
100
AcDbEntity
  8
RACCORDO
100
AcDbSpline
 62
253
  6
CONTINUOUS
 70
0
 71
3
 72
11
 73
7
 74
5
 42
0.0000001
 43
0.0000001
 44
0.0000000001
 12
-0.1350450777
 22
0.0739176917
 32
0.0
 13
0.0
 23
0.153951285
 33
0.0
 40
0.0
 40
0.0
 40
0.0
 40
0.0
 40
0.2172561503
 40
0.451015807
 40
0.7110744724
 40
1.0
 40
1.0
 40
1.0
 40
1.0
 10
10.5634308834
 20
12.6869423782
 30
0.0
 10
10.5536510921
 20
12.6922954026
 30
0.0
 10
10.5352761376
 20
12.7072522052
 30
0.0
 10
10.515664668
 20
12.7386286525
 30
0.0
 10
10.5039166606
 20
12.7774237563
 30
0.0
 10
10.5015743029
 20
12.8056959099
 30
0.0
 10
10.5015743029
 20
12.8205227286
 30
0.0
 11
10.5634308834
 21
12.6869423782
 31
0.0
 11
10.5373258742
 21
12.7078522126
 31
0.0
 11
10.5177810759
 21
12.7380698926
 31
0.0
 11
10.5056732503
 21
12.7762315374
 31
0.0
 11
10.5015743029
 21
12.8205227286
 31
0.0
  0
SPLINE
  5
540
100
AcDbEntity
  8
RACCORDO
100
AcDbSpline
 62
253
  6
CONTINUOUS
 70
0
 71
3
 72
15
 73
11
 74
9
 42
0.0000001
 43
0.0000001
 44
0.0000000001
 12
-0.9490473026
 22
-0.3982334018
 32
0.0
 13
-0.0357840743
 23
1.0285913304
 33
0.0
 40
0.0
 40
0.0
 40
0.0
 40
0.0
 40
0.1334452261
 40
0.2557288369
 40
0.3701302257
 40
0.4817633773
 40
0.5964855985
 40
0.7193325957
 40
0.8534662815
 40
1.0
 40
1.0
 40
1.0
 40
1.0
 10
8.5981852279
 20
-29.1320436297
 30
0.0
 10
8.5559699507
 20
-29.1497577452
 30
0.0
 10
8.4716795075
 20
-29.1765737149
 30
0.0
 10
8.3438652523
 20
-29.1870123353
 30
0.0
 10
8.2248319741
 20
-29.1644909932
 30
0.0
 10
8.1198995161
 20
-29.1090148511
 30
0.0
 10
8.0339656431
 20
-29.023228548
 30
0.0
 10
7.9700021002
 20
-28.9114318329
 30
0.0
 10
7.9293574592
 20
-28.7781307439
 30
0.0
 10
7.9187424535
 20
-28.6818834505
 30
0.0
 10
7.9169945957
 20
-28.6316423464
 30
0.0
 11
8.5981852279
 21
-29.1320436297
 31
0.0
 11
8.4669063205
 21
-29.1724060401
 31
0.0
 11
8.3413698483
 21
-29.1813679296
 31
0.0
 11
8.2258428957
 21
-29.1586292684
 31
0.0
 11
8.1242560869
 21
-29.1049558707
 31
0.0
 11
8.0400647989
 21
-29.0221717024
 31
0.0
 11
7.9761347657
 21
-28.9130893377
 31
0.0
 11
7.9346389879
 21
-28.7814211413
 31
0.0
 11
7.9169945957
 21
-28.6316423464
 31
0.0
  0
SPLINE
  5
541
100
AcDbEntity
  8
RACCORDO
100
AcDbSpline
 62
7
  6
CONTINUOUS
 70
0
 71
3
 72
10
 73
6
 74
4
 42
0.0000001
 43
0.0000001
 44
0.0000000001
 12
0.3471941063
 22
-0.0721526133
 32
0.0
 13
0.227214943
 23
0.2722556092
 33
0.0
 40
0.0
 40
0.0
 40
0.0
 40
0.0
 40
0.4827891464
 40
0.7436989725
 40
1.0
 40
1.0
 40
1.0
 40
1.0
 10
12.5178126238
 20
11.9007850997
 30
0.0
 10
12.5736864726
 20
11.8891736002
 30
0.0
 10
12.6670267673
 20
11.9104968235
 30
0.0
 10
12.767235997
 20
11.9725735105
 30
0.0
 10
12.811996277
 20
12.0153039203
 30
0.0
 10
12.8314080847
 20
12.0385637178
 30
0.0
 11
12.5178126238
 21
11.9007850997
 31
0.0
 11
12.6869454035
 21
11.927328044
 31
0.0
 11
12.7658989499
 21
11.9755630718
 31
0.0
 11
12.8314080847
 21
12.0385637178
 31
0.0
  0
SPLINE
  5
542
100
AcDbEntity
  8
RACCORDO
100
AcDbSpline
 62
253
  6
CONTINUOUS
 70
0
 71
3
 72
11
 73
7
 74
5
 42
0.0000001
 43
0.0000001
 44
0.0000000001
 12
0.291260946
 22
-0.0608804149
 32
0.0
 13
0.1066333044
 23
0.277792552
 33
0.0
 40
0.0
 40
0.0
 40
0.0
 40
0.0
 40
0.2240297614
 40
0.4626415955
 40
0.7223918003
 40
1.0
 40
1.0
 40
1.0
 40
1.0
 10
11.8936941951
 20
12.0309939698
 30
0.0
 10
11.9154445685
 20
12.0264476282
 30
0.0
 10
11.9630387685
 20
12.0273924944
 30
0.0
 10
12.0294428812
 20
12.0585010905
 30
0.0
 10
12.0849647096
 20
12.1135848554
 30
0.0
 10
12.1107314407
 20
12.1611557153
 30
0.0
 10
12.1205988673
 20
12.1868615453
 30
0.0
 11
11.8936941951
 21
12.0309939698
 31
0.0
 11
11.9603504861
 21
12.0318128462
 31
0.0
 11
12.0251724841
 21
12.0607809498
 31
0.0
 11
12.0807236568
 21
12.1145195115
 31
0.0
 11
12.1205988673
 21
12.1868615453
 31
0.0
  0
SPLINE
  5
543
100
AcDbEntity
  8
RACCORDO
100
AcDbSpline
 62
253
  6
CONTINUOUS
 70
0
 71
3
 72
11
 73
7
 74
5
 42
0.0000001
 43
0.0000001
 44
0.0000000001
 12
0.0468778125
 22
1.3929263999
 32
0.0
 13
1.2232136712
 23
0.6679744003
 33
0.0
 40
0.0
 40
0.0
 40
0.0
 40
0.0
 40
0.2465960029
 40
0.5093462192
 40
0.7670282444
 40
1.0
 40
1.0
 40
1.0
 40
1.0
 10
7.9169945957
 20
6.8610186558
 30
0.0
 10
7.9208478894
 20
6.97551535
 30
0.0
 10
7.9651667377
 20
7.2112529204
 30
0.0
 10
8.1114049548
 20
7.5392696791
 30
0.0
 10
8.3225449067
 20
7.8219605139
 30
0.0
 10
8.5031938158
 20
7.96736503
 30
0.0
 10
8.5981852279
 20
8.0192380862
 30
0.0
 11
7.9169945957
 21
6.8610186558
 31
0.0
 11
7.9761349814
 21
7.1995766014
 31
0.0
 11
8.1242560685
 21
7.5344822444
 31
0.0
 11
8.3413697227
 21
7.8205588539
 31
0.0
 11
8.5981852279
 21
8.0192380862
 31
0.0
  0
SPLINE
  5
544
100
AcDbEntity
  8
RACCORDO
100
AcDbSpline
 62
253
  6
CONTINUOUS
 70
0
 71
3
 72
32
 73
28
 74
26
 42
0.0000001
 43
0.0000001
 44
0.0000000001
 12
18.3709495419
 22
26.9527806327
 32
0.0
 13
10.7858803461
 23
-30.7832577234
 33
0.0
 40
0.0
 40
0.0
 40
0.0
 40
0.0
 40
0.0512059063
 40
0.1005392376
 40
0.1491601719
 40
0.1982717243
 40
0.248964092
 40
0.275203395
 40
0.3021302075
 40
0.3298058998
 40
0.3583021631
 40
0.3728888443
 40
0.3877242421
 40
0.4028216421
 40
0.4181889045
 40
0.4338261231
 40
0.4497250794
 40
0.4822169284
 40
0.5155547619
 40
0.5496877009
 40
0.5845832661
 40
0.6201995452
 40
0.6933569906
 40
0.7686483246
 40
0.8453948229
 40
0.9228015737
 40
1.0
 40
1.0
 40
1.0
 40
1.0
 10
-20.4946722516
 20
11.0649583871
 30
0.0
 10
-20.1811052112
 20
11.5250055738
 30
0.0
 10
-19.4800903766
 20
12.3743982182
 30
0.0
 10
-18.2078488964
 20
13.3983915767
 30
0.0
 10
-16.7679806113
 20
14.1213059131
 30
0.0
 10
-15.1962845989
 20
14.5333381368
 30
0.0
 10
-13.8196359153
 20
14.6146593793
 30
0.0
 10
-12.6923630341
 20
14.5328732439
 30
0.0
 10
-11.823006527
 20
14.3962558128
 30
0.0
 10
-10.9434663573
 20
14.1860753253
 30
0.0
 10
-10.2089387433
 20
13.955150027
 30
0.0
 10
-9.6181311279
 20
13.7369463825
 30
0.0
 10
-9.1697508894
 20
13.5542947929
 30
0.0
 10
-8.7212932145
 20
13.3502514357
 30
0.0
 10
-8.2749771802
 20
13.1217038687
 30
0.0
 10
-7.8312309055
 20
12.8701538684
 30
0.0
 10
-7.2367649574
 20
12.5077201323
 30
0.0
 10
-6.4970445738
 20
12.0145617775
 30
0.0
 10
-5.623504365
 20
11.3671225076
 30
0.0
 10
-4.7642551458
 20
10.6589218616
 30
0.0
 10
-3.9231807042
 20
9.891989581
 30
0.0
 10
-2.8202988395
 20
8.7850673541
 30
0.0
 10
-1.5085925038
 20
7.2696052472
 30
0.0
 10
-0.0729869937
 20
5.2825824718
 30
0.0
 10
1.215141752
 20
3.1427973055
 30
0.0
 10
2.3331615409
 20
0.886562892
 30
0.0
 10
2.9556094325
 20
-0.6773386378
 30
0.0
 10
3.2331604287
 20
-1.4694783217
 30
0.0
 11
-20.4946722516
 21
11.0649583871
 31
0.0
 11
-19.4264323101
 21
12.3489259695
 31
0.0
 11
-18.1704349101
 21
13.3548454466
 31
0.0
 11
-16.7534688579
 21
14.067141859
 31
0.0
 11
-15.204979792
 21
14.4774539164
 31
0.0
 11
-13.5548335264
 21
14.5825815323
 31
0.0
 11
-12.70112194
 21
14.5217278046
 31
0.0
 11
-11.8333108972
 21
14.3863758511
 31
0.0
 11
-10.9549267247
 21
14.1781383863
 31
0.0
 11
-10.0679404709
 21
13.9002581212
 31
0.0
 11
-9.6216021681
 21
13.7354586341
 31
0.0
 11
-9.173653136
 21
13.5524173731
 31
0.0
 11
-8.7256005589
 21
13.3480763266
 31
0.0
 11
-8.279268103
 21
13.119952048
 31
0.0
 11
-7.8350747884
 21
12.8692516344
 31
0.0
 11
-7.3920409827
 21
12.59969373
 31
0.0
 11
-6.5097093439
 21
12.0125665812
 31
0.0
 11
-5.6361322978
 21
11.3649999437
 31
0.0
 11
-4.7766725169
 21
10.657267615
 31
0.0
 11
-3.9352057885
 21
9.8907827455
 31
0.0
 11
-3.1149013763
 21
9.0681440483
 31
0.0
 11
-1.5508888229
 21
7.2658936456
 31
0.0
 11
-0.1106309848
 21
5.2766907683
 31
0.0
 11
1.1815724119
 21
3.1326599494
 31
0.0
 11
2.3029116686
 21
0.8704609411
 31
0.0
 11
3.2331604287
 21
-1.4694783217
 31
0.0
  0
SPLINE
  5
545
100
AcDbEntity
  8
RACCORDO
100
AcDbSpline
 62
253
  6
CONTINUOUS
 70
0
 71
3
 72
10
 73
6
 74
4
 42
0.0000001
 43
0.0000001
 44
0.0000000001
 12
0.3057986143
 22
0.4369089802
 32
0.0
 13
0.3953297635
 23
0.3579338313
 33
0.0
 40
0.0
 40
0.0
 40
0.0
 40
0.0
 40
0.2090045169
 40
0.4491687874
 40
1.0
 40
1.0
 40
1.0
 40
1.0
 10
-10.4993333073
 20
-19.2744840817
 30
0.0
 10
-10.4780288767
 20
-19.2440454316
 30
0.0
 10
-10.4291164136
 20
-19.180811897
 30
0.0
 10
-10.3115652115
 20
-19.0473763609
 30
0.0
 10
-10.2104829514
 20
-18.9492595514
 30
0.0
 10
-10.1378962937
 20
-18.8835391759
 30
0.0
 11
-10.4993333073
 21
-19.2744840817
 31
0.0
 11
-10.4316677809
 21
-19.1859127084
 31
0.0
 11
-10.3473377901
 21
-19.0895153278
 31
0.0
 11
-10.1378962937
 21
-18.8835391759
 31
0.0
  0
SPLINE
  5
546
100
AcDbEntity
  8
RACCORDO
100
AcDbSpline
 62
253
  6
CONTINUOUS
 70
0
 71
3
 72
9
 73
5
 74
3
 42
0.0000001
 43
0.0000001
 44
0.0000000001
 12
0.1777241277
 22
0.4779166922
 32
0.0
 13
0.31633877
 23
0.3999000036
 33
0.0
 40
0.0
 40
0.0
 40
0.0
 40
0.0
 40
0.4595146521
 40
1.0
 40
1.0
 40
1.0
 40
1.0
 10
-9.6650959368
 20
-20.2054461355
 30
0.0
 10
-9.6378736565
 20
-20.1322428946
 30
0.0
 10
-9.5596402002
 20
-19.9801057565
 30
0.0
 10
-9.4614033368
 20
-19.8409525309
 30
0.0
 10
-9.4044111801
 20
-19.7689058334
 30
0.0
 11
-9.6650959368
 21
-20.2054461355
 31
0.0
 11
-9.5617510238
 21
-19.9951660078
 31
0.0
 11
-9.4044111801
 21
-19.7689058334
 31
0.0
  0
SPLINE
  5
547
100
AcDbEntity
  8
RACCORDO
100
AcDbSpline
 62
253
  6
CONTINUOUS
 70
0
 71
3
 72
9
 73
5
 74
3
 42
0.0000001
 43
0.0000001
 44
0.0000000001
 12
-0.1818442955
 22
0.5658533572
 32
0.0
 13
0.0928878277
 23
0.5870512934
 33
0.0
 40
0.0
 40
0.0
 40
0.0
 40
0.0
 40
0.4968516987
 40
1.0
 40
1.0
 40
1.0
 40
1.0
 10
-6.5907813387
 20
-21.7426299097
 30
0.0
 10
-6.6208978877
 20
-21.6489148425
 30
0.0
 10
-6.6582171242
 20
-21.452228974
 30
0.0
 10
-6.6500401978
 20
-21.2523383857
 30
0.0
 10
-6.6344614135
 20
-21.153880432
 30
0.0
 11
-6.5907813387
 21
-21.7426299097
 31
0.0
 11
-6.6467508837
 21
-21.4526763045
 31
0.0
 11
-6.6344614135
 21
-21.153880432
 31
0.0
  0
SPLINE
  5
548
100
AcDbEntity
  8
RACCORDO
100
AcDbSpline
 62
253
  6
CONTINUOUS
 70
0
 71
3
 72
9
 73
5
 74
3
 42
0.0000001
 43
0.0000001
 44
0.0000000001
 12
-0.2633477992
 22
0.5812945517
 32
0.0
 13
0.0650299467
 23
0.6348437014
 33
0.0
 40
0.0
 40
0.0
 40
0.0
 40
0.0
 40
0.5043154419
 40
1.0
 40
1.0
 40
1.0
 40
1.0
 10
-5.7915456715
 20
-21.6283415614
 30
0.0
 10
-5.8358157921
 20
-21.5306229552
 30
0.0
 10
-5.8986698251
 20
-21.324660409
 30
0.0
 10
-5.9069589174
 20
-21.1092261415
 30
0.0
 10
-5.8962141373
 20
-21.0043320683
 30
0.0
 11
-5.7915456715
 21
-21.6283415614
 31
0.0
 11
-5.8853345878
 21
-21.3204737888
 31
0.0
 11
-5.8962141373
 21
-21.0043320683
 31
0.0
  0
SPLINE
  5
549
100
AcDbEntity
  8
RACCORDO
100
AcDbSpline
 62
253
  6
CONTINUOUS
 70
0
 71
3
 72
11
 73
7
 74
5
 42
0.0000001
 43
0.0000001
 44
0.0000000001
 12
-1.1092787197
 22
0.0119292295
 32
0.0
 13
-0.4769777906
 23
1.0015656602
 33
0.0
 40
0.0
 40
0.0
 40
0.0
 40
0.0
 40
0.2495567725
 40
0.4993670231
 40
0.7495442047
 40
1.0
 40
1.0
 40
1.0
 40
1.0
 10
-3.14280934
 20
-21.4995498965
 30
0.0
 10
-3.2350853457
 20
-21.4985575565
 30
0.0
 10
-3.4204804654
 20
-21.4704410252
 30
0.0
 10
-3.6754717285
 20
-21.3531619291
 30
0.0
 10
-3.8887222735
 20
-21.1701901896
 30
0.0
 10
-3.9921437958
 20
-21.0132613671
 30
0.0
 10
-4.031964413
 20
-20.9296453924
 30
0.0
 11
-3.14280934
 21
-21.4995498965
 31
0.0
 11
-3.4165120685
 21
-21.4579634791
 31
0.0
 11
-3.6683537307
 21
-21.3423167597
 31
0.0
 11
-3.8789435531
 21
-21.1615514757
 31
0.0
 11
-4.031964413
 21
-20.9296453924
 31
0.0
  0
SPLINE
  5
54A
100
AcDbEntity
  8
RACCORDO
100
AcDbSpline
 62
253
  6
CONTINUOUS
 70
0
 71
3
 72
10
 73
6
 74
4
 42
0.0000001
 43
0.0000001
 44
0.0000000001
 12
-0.5786818779
 22
-0.0618850462
 32
0.0
 13
-0.4606241786
 23
0.3557075215
 33
0.0
 40
0.0
 40
0.0
 40
0.0
 40
0.0
 40
0.5091845713
 40
0.7559968248
 40
1.0
 40
1.0
 40
1.0
 40
1.0
 10
-4.3989569558
 20
-20.200704009
 30
0.0
 10
-4.4971755838
 20
-20.2112076459
 30
0.0
 10
-4.6479574027
 20
-20.2017674975
 30
0.0
 10
-4.8306143709
 20
-20.1337099142
 30
0.0
 10
-4.9121702529
 20
-20.0830348311
 30
0.0
 10
-4.9496348403
 20
-20.0541035762
 30
0.0
 11
-4.3989569558
 21
-20.200704009
 31
0.0
 11
-4.6945285816
 21
-20.179433338
 31
0.0
 11
-4.8290804934
 21
-20.1291513264
 31
0.0
 11
-4.9496348403
 21
-20.0541035762
 31
0.0
  0
SPLINE
  5
54B
100
AcDbEntity
  8
RACCORDO
100
AcDbSpline
 62
253
  6
CONTINUOUS
 70
0
 71
3
 72
12
 73
8
 74
6
 42
0.0000001
 43
0.0000001
 44
0.0000000001
 12
-0.1300439272
 22
-0.143485851
 32
0.0
 13
-0.171537832
 23
0.0898575797
 33
0.0
 40
0.0
 40
0.0
 40
0.0
 40
0.0
 40
0.3752469856
 40
0.6625270698
 40
0.7733750572
 40
0.864128384
 40
1.0
 40
1.0
 40
1.0
 40
1.0
 10
-9.5923497654
 20
-17.0929942337
 30
0.0
 10
-9.6086159626
 20
-17.110941778
 30
0.0
 10
-9.6384194569
 20
-17.1416607546
 30
0.0
 10
-9.6769449099
 20
-17.1737508068
 30
0.0
 10
-9.7044925456
 20
-17.1895014848
 30
0.0
 10
-9.7246674873
 20
-17.1973692498
 30
0.0
 10
-9.7408552527
 20
-17.1975049331
 30
0.0
 10
-9.7486242935
 20
-17.1934352349
 30
0.0
 11
-9.5923497654
 21
-17.0929942337
 31
0.0
 11
-9.6434031846
 21
-17.1447038079
 31
0.0
 11
-9.6870882024
 21
-17.1791487857
 31
0.0
 11
-9.7058341484
 21
-17.1896062044
 31
0.0
 11
-9.7223935044
 21
-17.1954918458
 31
0.0
 11
-9.7486242935
 21
-17.1934352349
 31
0.0
  0
SPLINE
  5
54C
100
AcDbEntity
  8
RACCORDO
100
AcDbSpline
 62
253
  6
CONTINUOUS
 70
0
 71
3
 72
11
 73
7
 74
5
 42
0.0000001
 43
0.0000001
 44
0.0000000001
 12
-0.1954881962
 22
0.0804155951
 32
0.0
 13
-0.1906680264
 23
-0.0912579119
 33
0.0
 40
0.0
 40
0.0
 40
0.0
 40
0.0
 40
0.2279117069
 40
0.4667704855
 40
0.7229024319
 40
1.0
 40
1.0
 40
1.0
 40
1.0
 10
-8.7274727919
 20
30.6610608134
 30
0.0
 10
-8.7423241414
 20
30.6671700319
 30
0.0
 10
-8.7744888756
 20
30.6757648928
 30
0.0
 10
-8.8258319485
 20
30.6767771283
 30
0.0
 10
-8.8795740784
 20
30.6663512921
 30
0.0
 10
-8.9147560091
 20
30.6526030095
 30
0.0
 10
-8.9323672246
 20
30.6441738943
 30
0.0
 11
-8.7274727919
 21
30.6610608134
 31
0.0
 11
-8.7739698219
 21
30.6736700321
 31
0.0
 11
-8.8244417846
 21
30.6750351189
 31
0.0
 11
-8.8776684803
 21
30.6651236296
 31
0.0
 11
-8.9323672246
 21
30.6441738943
 31
0.0
  0
SPLINE
  5
54D
100
AcDbEntity
  8
RACCORDO
100
AcDbSpline
 62
253
  6
CONTINUOUS
 70
0
 71
3
 72
12
 73
8
 74
6
 42
0.0000001
 43
0.0000001
 44
0.0000000001
 12
-0.0137666663
 22
-0.2260779918
 32
0.0
 13
-0.2011354058
 23
-0.1041409047
 33
0.0
 40
0.0
 40
0.0
 40
0.0
 40
0.0
 40
0.1026075428
 40
0.2085419285
 40
0.4379208172
 40
0.7003753704
 40
1.0
 40
1.0
 40
1.0
 40
1.0
 10
25.9616809267
 20
-20.007297553
 30
0.0
 10
25.9612100721
 20
-20.0150299887
 30
0.0
 10
25.9587784847
 20
-20.0306908397
 30
0.0
 10
25.9479566659
 20
-20.06208806
 30
0.0
 10
25.9227178131
 20
-20.1003701014
 30
0.0
 10
25.8781053705
 20
-20.1407488378
 30
0.0
 10
25.8416708386
 20
-20.1629548603
 30
0.0
 10
25.8215824648
 20
-20.1733559203
 30
0.0
 11
25.9616809267
 21
-20.007297553
 31
0.0
 11
25.9581583475
 21
-20.0302693146
 31
0.0
 11
25.9504211875
 21
-20.0529813935
 31
0.0
 11
25.9226010822
 21
-20.0968586719
 31
0.0
 11
25.879164571
 21
-20.1374417956
 31
0.0
 11
25.8215824648
 21
-20.1733559203
 31
0.0
  0
SPLINE
  5
54E
100
AcDbEntity
  8
RACCORDO
100
AcDbSpline
 62
253
  6
CONTINUOUS
 70
0
 71
3
 72
11
 73
7
 74
5
 42
0.0000001
 43
0.0000001
 44
0.0000000001
 12
-0.2013023177
 22
0.1006518269
 32
0.0
 13
-0.2030086093
 23
-0.0971643861
 33
0.0
 40
0.0
 40
0.0
 40
0.0
 40
0.0
 40
0.2279891895
 40
0.4659716787
 40
0.7217722143
 40
1.0
 40
1.0
 40
1.0
 40
1.0
 10
21.3023875384
 20
15.646696397
 30
0.0
 10
21.2870892876
 20
15.6543455732
 30
0.0
 10
21.2534800823
 20
15.6656698203
 30
0.0
 10
21.1988944806
 20
15.6689607868
 30
0.0
 10
21.1413986735
 20
15.6590106323
 30
0.0
 10
21.1037786435
 20
15.6445260102
 30
0.0
 10
21.0849510983
 20
15.6355147329
 30
0.0
 11
21.3023875384
 21
15.646696397
 31
0.0
 11
21.253810441
 21
15.6632246443
 31
0.0
 11
21.2003741173
 21
15.6668782816
 31
0.0
 11
21.1435626983
 21
15.6575555261
 31
0.0
 11
21.0849510983
 21
15.6355147329
 31
0.0
  0
SPLINE
  5
54F
100
AcDbEntity
  8
RACCORDO
100
AcDbSpline
 62
253
  6
CONTINUOUS
 70
0
 71
3
 72
13
 73
9
 74
7
 42
0.0000001
 43
0.0000001
 44
0.0000000001
 12
-0.0000103696
 22
-0.2341380155
 32
0.0
 13
-0.2079210584
 23
-0.1076542794
 33
0.0
 40
0.0
 40
0.0
 40
0.0
 40
0.0
 40
0.1028082875
 40
0.2083807009
 40
0.4364803612
 40
0.5630388863
 40
0.6990105072
 40
1.0
 40
1.0
 40
1.0
 40
1.0
 10
21.9322802667
 20
14.589782491
 30
0.0
 10
21.9322799114
 20
14.5817587149
 30
0.0
 10
21.9306910789
 20
14.5654531798
 30
0.0
 10
21.9210431875
 20
14.5326077325
 30
0.0
 10
21.9017933266
 20
14.5014644636
 30
0.0
 10
21.8756683459
 20
14.473413275
 30
0.0
 10
21.8421011238
 20
14.4448555807
 30
0.0
 10
21.8128108683
 20
14.4269226219
 30
0.0
 10
21.7919501837
 20
14.4161216863
 30
0.0
 11
21.9322802667
 21
14.589782491
 31
0.0
 11
21.9299777376
 21
14.5658215392
 31
0.0
 11
21.9230927188
 21
14.5420812461
 31
0.0
 11
21.8958706719
 21
14.496132942
 31
0.0
 11
21.8757840339
 21
14.4743478095
 31
0.0
 11
21.8516149208
 21
14.4536260128
 31
0.0
 11
21.7919501837
 21
14.4161216863
 31
0.0
  0
SPLINE
  5
550
100
AcDbEntity
  8
RACCORDO
100
AcDbSpline
 62
253
  6
CONTINUOUS
 70
0
 71
3
 72
11
 73
7
 74
5
 42
0.0000001
 43
0.0000001
 44
0.0000000001
 12
-0.2013023177
 22
0.1006518269
 32
0.0
 13
-0.2030086093
 23
-0.0971643862
 33
0.0
 40
0.0
 40
0.0
 40
0.0
 40
0.0
 40
0.2279891895
 40
0.4659716787
 40
0.7217722143
 40
1.0
 40
1.0
 40
1.0
 40
1.0
 10
28.1110765652
 20
-3.9653614612
 30
0.0
 10
28.0957783144
 20
-3.9577122851
 30
0.0
 10
28.0621691091
 20
-3.946388038
 30
0.0
 10
28.0075835074
 20
-3.9430970715
 30
0.0
 10
27.9500877003
 20
-3.9530472259
 30
0.0
 10
27.9124676703
 20
-3.967531848
 30
0.0
 10
27.8936401251
 20
-3.9765431253
 30
0.0
 11
28.1110765652
 21
-3.9653614612
 31
0.0
 11
28.0624994678
 21
-3.948833214
 31
0.0
 11
28.0090631441
 21
-3.9451795766
 31
0.0
 11
27.9522517251
 21
-3.9545023322
 31
0.0
 11
27.8936401251
 21
-3.9765431253
 31
0.0
  0
SPLINE
  5
551
100
AcDbEntity
  8
RACCORDO
100
AcDbSpline
 62
7
  6
CONTINUOUS
 70
0
 71
3
 72
11
 73
7
 74
5
 42
0.0000001
 43
0.0000001
 44
0.0000000001
 12
0.0001081506
 22
-0.6311218249
 32
0.0
 13
-0.2554347102
 23
-0.5771203327
 33
0.0
 40
0.0
 40
0.0
 40
0.0
 40
0.0
 40
0.2479117022
 40
0.4977399725
 40
0.7487239606
 40
1.0
 40
1.0
 40
1.0
 40
1.0
 10
21.9322803853
 20
-7.9620246016
 30
0.0
 10
21.9322893226
 20
-8.0141787636
 30
0.0
 10
21.9250680051
 20
-8.1189743977
 30
0.0
 10
21.8962793864
 20
-8.2741100779
 30
0.0
 10
21.8519939024
 20
-8.426247735
 30
0.0
 10
21.8133450578
 20
-8.5247572864
 30
0.0
 10
21.7919501837
 20
-8.5730961236
 30
0.0
 11
21.9322803853
 21
-7.9620246016
 31
0.0
 11
21.9221394837
 21
-8.1181581096
 31
0.0
 11
21.8937773294
 21
-8.2732583089
 31
0.0
 11
21.8497452148
 21
-8.4254167793
 31
0.0
 11
21.7919501837
 21
-8.5730961236
 31
0.0
  0
SPLINE
  5
552
100
AcDbEntity
  8
RACCORDO
100
AcDbSpline
 62
253
  6
CONTINUOUS
 70
0
 71
3
 72
11
 73
7
 74
5
 42
0.0000001
 43
0.0000001
 44
0.0000000001
 12
0.2932824511
 22
0.5603986659
 32
0.0
 13
0.0276876519
 23
0.6318976616
 33
0.0
 40
0.0
 40
0.0
 40
0.0
 40
0.0
 40
0.2597203107
 40
0.5115737238
 40
0.7575831723
 40
1.0
 40
1.0
 40
1.0
 40
1.0
 10
26.1377705783
 20
-19.6913277597
 30
0.0
 10
26.1631610481
 20
-19.6428121212
 30
0.0
 10
26.2086128407
 20
-19.5447612409
 30
0.0
 10
26.2603342727
 20
-19.3933219516
 30
0.0
 10
26.2941939163
 20
-19.2406340521
 30
0.0
 10
26.3047879528
 20
-19.1379257877
 30
0.0
 10
26.3070252704
 20
-19.0868649122
 30
0.0
 11
26.1377705783
 21
-19.6913277597
 31
0.0
 11
26.2065987803
 21
-19.5421678896
 31
0.0
 11
26.2578624828
 21
-19.3913435704
 31
0.0
 11
26.2913783593
 21
-19.2393940621
 31
0.0
 11
26.3070252704
 21
-19.0868649122
 31
0.0
  0
LINE
  5
553
100
AcDbEntity
  8
RACCORDO
100
AcDbLine
 62
253
  6
CONTINUOUS
 10
26.0566062005
 20
-19.8305854302
 11
26.0582108533
 21
-19.8280866188
  0
SPLINE
  5
554
100
AcDbEntity
  8
RACCORDO
100
AcDbSpline
 62
253
  6
CONTINUOUS
 70
0
 71
3
 72
12
 73
8
 74
6
 42
0.0000001
 43
0.0000001
 44
0.0000000001
 12
-0.0158080556
 22
-0.2247712782
 32
0.0
 13
-0.2000961692
 23
-0.1036028242
 33
0.0
 40
0.0
 40
0.0
 40
0.0
 40
0.0
 40
0.1025862004
 40
0.2085779198
 40
0.4381376399
 40
0.7006203681
 40
1.0
 40
1.0
 40
1.0
 40
1.0
 10
28.7406603762
 20
-14.1318808941
 30
0.0
 10
28.7401198134
 20
-14.1395670379
 30
0.0
 10
28.7375643199
 20
-14.1551261976
 30
0.0
 10
28.7265736376
 20
-14.1862968399
 30
0.0
 10
28.7012947021
 20
-14.2242748035
 30
0.0
 10
28.6568460165
 20
-14.2643556922
 30
0.0
 10
28.6206074496
 20
-14.286422308
 30
0.0
 10
28.6006392105
 20
-14.2967611665
 30
0.0
 11
28.7406603762
 21
-14.1318808941
 31
0.0
 11
28.7369585465
 21
-14.1546979401
 31
0.0
 11
28.7290979861
 21
-14.1772500333
 31
0.0
 11
28.7011984206
 21
-14.2208066775
 31
0.0
 11
28.6578962993
 21
-14.2610928486
 31
0.0
 11
28.6006392105
 21
-14.2967611665
 31
0.0
  0
SPLINE
  5
555
100
AcDbEntity
  8
RACCORDO
100
AcDbSpline
 62
7
  6
CONTINUOUS
 70
0
 71
3
 72
13
 73
9
 74
7
 42
0.0000001
 43
0.0000001
 44
0.0000000001
 12
0.1926448458
 22
-0.239905314
 32
0.0
 13
-0.0001703269
 23
-0.3076793254
 33
0.0
 40
0.0
 40
0.0
 40
0.0
 40
0.0
 40
0.3124941105
 40
0.4532134968
 40
0.5833266499
 40
0.7027576051
 40
0.8116382221
 40
1.0
 40
1.0
 40
1.0
 40
1.0
 10
25.8215824648
 20
-15.7356599184
 30
0.0
 10
25.8416492581
 20
-15.7606495843
 30
0.0
 10
25.8698495824
 20
-15.7976648435
 30
0.0
 10
25.9029247587
 20
-15.8475442119
 30
0.0
 10
25.9232328186
 20
-15.8820538633
 30
0.0
 10
25.9397035013
 20
-15.9149873181
 30
0.0
 10
25.9553610833
 20
-15.9547074514
 30
0.0
 10
25.9619233817
 20
-15.9851538426
 30
0.0
 10
25.9619126874
 20
-16.0044721842
 30
0.0
 11
25.8215824648
 21
-15.7356599184
 31
0.0
 11
25.8793480997
 21
-15.812520622
 31
0.0
 11
25.9031851217
 21
-15.8486644899
 31
0.0
 11
25.9233759511
 21
-15.883233004
 31
0.0
 11
25.9396650693
 21
-15.9161718197
 31
0.0
 11
25.9517561691
 21
-15.9474140466
 31
0.0
 11
25.9619126874
 21
-16.0044721842
 31
0.0
  0
SPLINE
  5
556
100
AcDbEntity
  8
RACCORDO
100
AcDbSpline
 62
253
  6
CONTINUOUS
 70
0
 71
3
 72
15
 73
11
 74
9
 42
0.0000001
 43
0.0000001
 44
0.0000000001
 12
1.3222405915
 22
-0.649930609
 32
0.0
 13
-0.0102720014
 23
-1.473303928
 33
0.0
 40
0.0
 40
0.0
 40
0.0
 40
0.0
 40
0.1106145363
 40
0.2302560167
 40
0.3570701544
 40
0.488484861
 40
0.621515598
 40
0.7530405907
 40
0.8800661147
 40
1.0
 40
1.0
 40
1.0
 40
1.0
 10
27.8936370299
 20
-3.9765416051
 30
0.0
 10
27.9423900399
 20
-4.0005055295
 30
0.0
 10
28.0389924809
 20
-4.0606360675
 30
0.0
 10
28.1715699676
 20
-4.1763205471
 30
0.0
 10
28.293393868
 20
-4.317057243
 30
0.0
 10
28.399911417
 20
-4.4775718692
 30
0.0
 10
28.4871911869
 20
-4.6518813563
 30
0.0
 10
28.5519656038
 20
-4.8334889331
 30
0.0
 10
28.591808795
 20
-5.0155608941
 30
0.0
 10
28.6010498322
 20
-5.1370408692
 30
0.0
 10
28.6006391785
 20
-5.1959405573
 30
0.0
 11
27.8936370299
 21
-3.9765416051
 31
0.0
 11
28.0326412705
 21
-4.0616177589
 31
0.0
 11
28.1660669166
 21
-4.1768115428
 31
0.0
 11
28.2887872391
 21
-4.3176981043
 31
0.0
 11
28.3960871381
 21
-4.4788652808
 31
0.0
 11
28.4838437585
 21
-4.6541210029
 31
0.0
 11
28.54868563
 21
-4.8367315364
 31
0.0
 11
28.5881221747
 21
-5.0196810847
 31
0.0
 11
28.6006391785
 21
-5.1959405573
 31
0.0
  0
SPLINE
  5
557
100
AcDbEntity
  8
RACCORDO
100
AcDbSpline
 62
253
  6
CONTINUOUS
 70
0
 71
3
 72
15
 73
11
 74
9
 42
0.0000001
 43
0.0000001
 44
0.0000000001
 12
1.3222398597
 22
-0.6499319781
 32
0.0
 13
-0.0102734979
 23
-1.4733038648
 33
0.0
 40
0.0
 40
0.0
 40
0.0
 40
0.0
 40
0.110614507
 40
0.2302559619
 40
0.3570700824
 40
0.4884847822
 40
0.6215155237
 40
0.7530405322
 40
0.880066082
 40
1.0
 40
1.0
 40
1.0
 40
1.0
 10
21.0849474986
 20
15.6355165009
 30
0.0
 10
21.1337004687
 20
15.6115525324
 30
0.0
 10
21.2303029852
 20
15.5514222001
 30
0.0
 10
21.3628804773
 20
15.4357377647
 30
0.0
 10
21.4847044314
 20
15.2950011653
 30
0.0
 10
21.5912220398
 20
15.1344865943
 30
0.0
 10
21.6785018792
 20
14.9601771457
 30
0.0
 10
21.7432763972
 20
14.778569582
 30
0.0
 10
21.783119624
 20
14.5964976122
 30
0.0
 10
21.7923608698
 20
14.4750176171
 30
0.0
 10
21.7919501562
 20
14.4161179155
 30
0.0
 11
21.0849474986
 21
15.6355165009
 31
0.0
 11
21.2239517521
 21
15.5504404621
 31
0.0
 11
21.3573774287
 21
15.4352467806
 31
0.0
 11
21.4800977976
 21
15.294360302
 31
0.0
 11
21.5873977579
 21
15.1331931868
 31
0.0
 11
21.6751544534
 21
14.9579375025
 31
0.0
 11
21.7399964115
 21
14.7753269825
 31
0.0
 11
21.7794330527
 21
14.5923774229
 31
0.0
 11
21.7919501562
 21
14.4161179155
 31
0.0
  0
SPLINE
  5
558
100
AcDbEntity
  8
RACCORDO
100
AcDbSpline
 62
253
  6
CONTINUOUS
 70
0
 71
3
 72
13
 73
9
 74
7
 42
0.0000001
 43
0.0000001
 44
0.0000000001
 12
-0.0000010936
 22
-0.5708246855
 32
0.0
 13
-0.4626224694
 23
-0.3343968786
 33
0.0
 40
0.0
 40
0.0
 40
0.0
 40
0.0
 40
0.2851956711
 40
0.4183562496
 40
0.5451581818
 40
0.7809272212
 40
0.8920146988
 40
1.0
 40
1.0
 40
1.0
 40
1.0
 10
28.6006392091
 20
-14.2967567917
 30
0.0
 10
28.6006391052
 20
-14.3510223681
 30
0.0
 10
28.5945194035
 20
-14.4309387409
 30
0.0
 10
28.5715125437
 20
-14.5322578046
 30
0.0
 10
28.5410172836
 20
-14.6216307724
 30
0.0
 10
28.4971977715
 20
-14.7017580525
 30
0.0
 10
28.4402767663
 20
-14.7672930468
 30
0.0
 10
28.4083831705
 20
-14.7944429548
 30
0.0
 10
28.3917310283
 20
-14.8064796041
 30
0.0
 11
28.6006392091
 21
-14.2967567917
 31
0.0
 11
28.5869344787
 21
-14.4589756421
 31
0.0
 11
28.5699268436
 21
-14.533059817
 31
0.0
 11
28.5463458525
 21
-14.6014925829
 31
0.0
 11
28.4804335767
 21
-14.7188301245
 31
0.0
 11
28.4387371629
 21
-14.7666048477
 31
0.0
 11
28.3917310283
 21
-14.8064796041
 31
0.0
  0
SPLINE
  5
559
100
AcDbEntity
  8
RACCORDO
100
AcDbSpline
 62
253
  6
CONTINUOUS
 70
0
 71
3
 72
14
 73
10
 74
8
 42
0.0000001
 43
0.0000001
 44
0.0000000001
 12
0.5013953371
 22
0.3154021642
 32
0.0
 13
-0.0041598535
 23
0.5923331029
 33
0.0
 40
0.0
 40
0.0
 40
0.0
 40
0.0
 40
0.1077543449
 40
0.2182156058
 40
0.3329371175
 40
0.453137942
 40
0.5796628953
 40
0.7129896733
 40
1.0
 40
1.0
 40
1.0
 40
1.0
 10
25.596322182
 20
-20.6947634297
 30
0.0
 10
25.6143313574
 20
-20.6834347785
 30
0.0
 10
25.648917677
 20
-20.6573478646
 30
0.0
 10
25.6944561803
 20
-20.6095777964
 30
0.0
 10
25.7336096799
 20
-20.5534400627
 30
0.0
 10
25.765980451
 20
-20.489603742
 30
0.0
 10
25.7912832428
 20
-20.4187594904
 30
0.0
 10
25.815877651
 20
-20.3134444013
 30
0.0
 10
25.8219804058
 20
-20.230020038
 30
0.0
 10
25.8215824322
 20
-20.1733514655
 30
0.0
 11
25.596322182
 21
-20.6947634297
 31
0.0
 11
25.6473330521
 21
-20.6563979537
 31
0.0
 11
25.6926046731
 21
-20.6091564651
 31
0.0
 11
25.7316549859
 21
-20.5535420924
 31
0.0
 11
25.7640682652
 21
-20.4901471667
 31
0.0
 11
25.7894994872
 21
-20.4196470197
 31
0.0
 11
25.8076779945
 21
-20.3427918268
 31
0.0
 11
25.8215824322
 21
-20.1733514655
 31
0.0
  0
SPLINE
  5
55A
100
AcDbEntity
  8
RACCORDO
100
AcDbSpline
 62
253
  6
CONTINUOUS
 70
0
 71
3
 72
11
 73
7
 74
5
 42
0.0000001
 43
0.0000001
 44
0.0000000001
 12
0.3814942395
 22
0.116360615
 32
0.0
 13
0.3555051616
 23
-0.1808140691
 33
0.0
 40
0.0
 40
0.0
 40
0.0
 40
0.0
 40
0.2277480107
 40
0.4673433456
 40
0.7238121285
 40
1.0
 40
1.0
 40
1.0
 40
1.0
 10
-9.3184718924
 20
30.6971084556
 30
0.0
 10
-9.2895103743
 20
30.7059420885
 30
0.0
 10
-9.2277070271
 20
30.7169462738
 30
0.0
 10
-9.1309210659
 20
30.7127436568
 30
0.0
 10
-9.030566591
 20
30.6886381292
 30
0.0
 10
-8.9650929233
 20
30.660818565
 30
0.0
 10
-8.9323641854
 20
30.6441723473
 30
0.0
 11
-9.3184718924
 21
30.6971084556
 31
0.0
 11
-9.2291102826
 21
30.7134095623
 31
0.0
 11
-9.1336132066
 21
30.7099013013
 31
0.0
 11
-9.0339973752
 21
30.686658773
 31
0.0
 11
-8.9323641854
 21
30.6441723473
 31
0.0
  0
SPLINE
  5
55B
100
AcDbEntity
  8
RACCORDO
100
AcDbSpline
 62
253
  6
CONTINUOUS
 70
0
 71
3
 72
13
 73
9
 74
7
 42
0.0000001
 43
0.0000001
 44
0.0000000001
 12
-0.0000095692
 22
-0.2341384393
 32
0.0
 13
-0.2079214347
 23
-0.1076544743
 33
0.0
 40
0.0
 40
0.0
 40
0.0
 40
0.0
 40
0.1028083064
 40
0.2083807046
 40
0.4364802978
 40
0.5630388045
 40
0.6990104279
 40
1.0
 40
1.0
 40
1.0
 40
1.0
 10
28.7409692936
 20
-5.0222749401
 30
0.0
 10
28.7409689656
 20
-5.0302987322
 30
0.0
 10
28.7393801826
 20
-5.0466043029
 30
0.0
 10
28.7297323612
 20
-5.0794498314
 30
0.0
 10
28.7104825184
 20
-5.1105931858
 30
0.0
 10
28.6843575212
 20
-5.1386444454
 30
0.0
 10
28.650790251
 20
-5.1672022146
 30
0.0
 10
28.6214999384
 20
-5.1851352139
 30
0.0
 10
28.6006392105
 20
-5.195936172
 30
0.0
 11
28.7409692936
 21
-5.0222749401
 31
0.0
 11
28.7386668361
 21
-5.046235947
 31
0.0
 11
28.7317818678
 21
-5.0699762977
 31
0.0
 11
28.7045598587
 21
-5.1159247182
 31
0.0
 11
28.6844732087
 21
-5.1377099067
 31
0.0
 11
28.6603040639
 21
-5.1584317559
 31
0.0
 11
28.6006392105
 21
-5.195936172
 31
0.0
  0
SPLINE
  5
55C
100
AcDbEntity
  8
ASSI
100
AcDbSpline
 62
253
  6
CONTINUOUS
 70
0
 71
3
 72
10
 73
6
 74
4
 42
0.0000001
 43
0.0000001
 44
0.0000000001
 12
-0.2006181728
 22
0.0996762256
 32
0.0
 13
-0.2020637521
 23
-0.0967121569
 33
0.0
 40
0.0
 40
0.0
 40
0.0
 40
0.0
 40
0.2285679653
 40
0.4671938966
 40
1.0
 40
1.0
 40
1.0
 40
1.0
 10
-8.7153548432
 20
30.6555669192
 30
0.0
 10
-8.7306398057
 20
30.6631611833
 30
0.0
 10
-8.7642144396
 20
30.6743841768
 30
0.0
 10
-8.8394135536
 20
30.6788349804
 30
0.0
 10
-8.8964802911
 20
30.6613501701
 30
0.0
 10
-8.9323672246
 20
30.6441738943
 30
0.0
 11
-8.7153548432
 21
30.6555669192
 31
0.0
 11
-8.7638645232
 21
30.6719540261
 31
0.0
 11
-8.8172011138
 21
30.6755240925
 31
0.0
 11
-8.9323672246
 21
30.6441738943
 31
0.0
  0
SPLINE
  5
55D
100
AcDbEntity
  8
ASSI
100
AcDbSpline
 62
253
  6
CONTINUOUS
 70
0
 71
3
 72
10
 73
6
 74
4
 42
0.0000001
 43
0.0000001
 44
0.0000000001
 12
-0.200781953
 22
0.1003916428
 32
0.0
 13
-0.2024838338
 23
-0.096913217
 33
0.0
 40
0.0
 40
0.0
 40
0.0
 40
0.0
 40
0.228580067
 40
0.4671793332
 40
1.0
 40
1.0
 40
1.0
 40
1.0
 10
21.3023875384
 20
15.646696397
 30
0.0
 10
21.2870892876
 20
15.6543455732
 30
0.0
 10
21.2534682632
 20
15.6656669457
 30
0.0
 10
21.1781146869
 20
15.6702337216
 30
0.0
 10
21.120913622
 20
15.6527271879
 30
0.0
 10
21.0849510983
 20
15.6355147329
 30
0.0
 11
21.3023875384
 21
15.646696397
 31
0.0
 11
21.253810441
 21
15.6632246443
 31
0.0
 11
21.2003741173
 21
15.6668782816
 31
0.0
 11
21.0849510983
 21
15.6355147329
 31
0.0
  0
SPLINE
  5
55E
100
AcDbEntity
  8
ASSI
100
AcDbSpline
 62
253
  6
CONTINUOUS
 70
0
 71
3
 72
11
 73
7
 74
5
 42
0.0000001
 43
0.0000001
 44
0.0000000001
 12
-0.0003795412
 22
-0.2336257912
 32
0.0
 13
-0.2074664626
 23
-0.1074189056
 33
0.0
 40
0.0
 40
0.0
 40
0.0
 40
0.0
 40
0.2077573865
 40
0.4361966862
 40
0.6986401137
 40
1.0
 40
1.0
 40
1.0
 40
1.0
 10
21.932280102
 20
14.5895850675
 30
0.0
 10
21.9322538178
 20
14.5734059062
 30
0.0
 10
21.9252513288
 20
14.539193959
 30
0.0
 10
21.8960515801
 20
14.4923041822
 30
0.0
 10
21.8504487286
 20
14.4499756177
 30
0.0
 10
21.8127908735
 20
14.4269122693
 30
0.0
 10
21.7919501837
 20
14.4161216863
 30
0.0
 11
21.932280102
 21
14.5895850675
 31
0.0
 11
21.9230361272
 21
14.5419359071
 31
0.0
 11
21.8957966787
 21
14.4960414255
 31
0.0
 11
21.8515611525
 21
14.4535846242
 31
0.0
 11
21.7919501837
 21
14.4161216863
 31
0.0
  0
SPLINE
  5
55F
100
AcDbEntity
  8
ASSI
100
AcDbSpline
 62
7
  6
CONTINUOUS
 70
0
 71
3
 72
9
 73
5
 74
3
 42
0.0000001
 43
0.0000001
 44
0.0000000001
 12
0.0001080035
 22
-0.6302630089
 32
0.0
 13
-0.2550871205
 23
-0.5763350007
 33
0.0
 40
0.0
 40
0.0
 40
0.0
 40
0.0
 40
0.4975800296
 40
1.0
 40
1.0
 40
1.0
 40
1.0
 10
21.9322803853
 20
-7.9620246016
 30
0.0
 10
21.9322982988
 20
-8.0665600304
 30
0.0
 10
21.9035982319
 20
-8.2769334856
 30
0.0
 10
21.8346704715
 20
-8.4765753856
 30
0.0
 10
21.7919501837
 20
-8.5730961236
 30
0.0
 11
21.9322803853
 21
-7.9620246016
 31
0.0
 11
21.8937773294
 21
-8.2732583089
 31
0.0
 11
21.7919501837
 21
-8.5730961236
 31
0.0
  0
SPLINE
  5
560
100
AcDbEntity
  8
ASSI
100
AcDbSpline
 62
253
  6
CONTINUOUS
 70
0
 71
3
 72
11
 73
7
 74
5
 42
0.0000001
 43
0.0000001
 44
0.0000000001
 12
-0.000001145
 22
-0.5976944996
 32
0.0
 13
-0.5082215173
 23
-0.3145625602
 33
0.0
 40
0.0
 40
0.0
 40
0.0
 40
0.0
 40
0.2870875711
 40
0.5468790549
 40
0.7818074997
 40
1.0
 40
1.0
 40
1.0
 40
1.0
 10
28.6006392091
 20
-14.2967567917
 30
0.0
 10
28.6006390995
 20
-14.3539536791
 30
0.0
 10
28.5918304291
 20
-14.46326824
 30
0.0
 10
28.5478345863
 20
-14.6140402391
 30
0.0
 10
28.4745397633
 20
-14.7377558492
 30
0.0
 10
28.4056739003
 20
-14.7990196646
 30
0.0
 10
28.3687105257
 20
-14.8218980617
 30
0.0
 11
28.6006392091
 21
-14.2967567917
 31
0.0
 11
28.5853372079
 21
-14.4676637959
 31
0.0
 11
28.5400868232
 21
-14.6162000558
 31
0.0
 11
28.466829998
 21
-14.7359912623
 31
0.0
 11
28.3687105257
 21
-14.8218980617
 31
0.0
  0
SPLINE
  5
561
100
AcDbEntity
  8
ASSI
100
AcDbSpline
 62
253
  6
CONTINUOUS
 70
0
 71
3
 72
11
 73
7
 74
5
 42
0.0000001
 43
0.0000001
 44
0.0000000001
 12
1.3190421023
 22
-0.6483601567
 32
0.0
 13
-0.0102486521
 23
-1.4697407682
 33
0.0
 40
0.0
 40
0.0
 40
0.0
 40
0.0
 40
0.2300494809
 40
0.4883644565
 40
0.7530599022
 40
1.0
 40
1.0
 40
1.0
 40
1.0
 10
21.0849474986
 20
15.6355165009
 30
0.0
 10
21.1860958156
 20
15.585798195
 30
0.0
 10
21.3794253175
 20
15.4363714953
 30
0.0
 10
21.6020837013
 20
15.1380395095
 30
0.0
 10
21.7524922451
 20
14.7885143413
 30
0.0
 10
21.7927937572
 20
14.5370972252
 30
0.0
 10
21.7919501562
 20
14.4161179155
 30
0.0
 11
21.0849474986
 21
15.6355165009
 31
0.0
 11
21.3573774287
 21
15.4352467806
 31
0.0
 11
21.5873977579
 21
15.1331931868
 31
0.0
 11
21.7399964115
 21
14.7753269825
 31
0.0
 11
21.7919501562
 21
14.4161179155
 31
0.0
  0
SPLINE
  5
562
100
AcDbEntity
  8
ASSI
100
AcDbSpline
 62
253
  6
CONTINUOUS
 70
0
 71
3
 72
11
 73
7
 74
5
 42
0.0000001
 43
0.0000001
 44
0.0000000001
 12
-0.0000858754
 22
-0.2337809858
 32
0.0
 13
-0.20760402
 23
-0.1074901278
 33
0.0
 40
0.0
 40
0.0
 40
0.0
 40
0.0
 40
0.207757295
 40
0.4361725789
 40
0.6986099175
 40
1.0
 40
1.0
 40
1.0
 40
1.0
 10
25.9619125396
 20
-19.9997354728
 30
0.0
 10
25.9619065925
 20
-20.0159253745
 30
0.0
 10
25.9549370514
 20
-20.0501679419
 30
0.0
 10
25.9257459626
 20
-20.0971063697
 30
0.0
 10
25.8801226764
 20
-20.1394752778
 30
0.0
 10
25.8424390624
 20
-20.1625571008
 30
0.0
 10
25.8215824648
 20
-20.1733559203
 30
0.0
 11
25.9619125396
 21
-19.9997354728
 31
0.0
 11
25.9527134456
 21
-20.047426072
 31
0.0
 11
25.9254878333
 21
-20.0933633735
 31
0.0
 11
25.8812362121
 21
-20.1358600548
 31
0.0
 11
25.8215824648
 21
-20.1733559203
 31
0.0
  0
SPLINE
  5
563
100
AcDbEntity
  8
ASSI
100
AcDbSpline
 62
253
  6
CONTINUOUS
 70
0
 71
3
 72
11
 73
7
 74
5
 42
0.0000001
 43
0.0000001
 44
0.0000000001
 12
1.3190428329
 22
-0.6483587913
 32
0.0
 13
-0.0102471592
 23
-1.4697408319
 33
0.0
 40
0.0
 40
0.0
 40
0.0
 40
0.0
 40
0.2300495364
 40
0.4883645362
 40
0.7530599612
 40
1.0
 40
1.0
 40
1.0
 40
1.0
 10
27.8936370299
 20
-3.9765416051
 30
0.0
 10
27.9947854273
 20
-4.0262598182
 30
0.0
 10
28.1881147515
 20
-4.1756869248
 30
0.0
 10
28.4107730588
 20
-4.4740189179
 30
0.0
 10
28.5611815613
 20
-4.8235441709
 30
0.0
 10
28.6014826565
 20
-5.0749612713
 30
0.0
 10
28.6006391785
 20
-5.1959405573
 30
0.0
 11
27.8936370299
 21
-3.9765416051
 31
0.0
 11
28.1660669166
 21
-4.1768115428
 31
0.0
 11
28.3960871381
 21
-4.4788652808
 31
0.0
 11
28.54868563
 21
-4.8367315364
 31
0.0
 11
28.6006391785
 21
-5.1959405573
 31
0.0
  0
SPLINE
  5
564
100
AcDbEntity
  8
ASSI
100
AcDbSpline
 62
253
  6
CONTINUOUS
 70
0
 71
3
 72
10
 73
6
 74
4
 42
0.0000001
 43
0.0000001
 44
0.0000000001
 12
-0.200781953
 22
0.1003916428
 32
0.0
 13
-0.2024838338
 23
-0.0969132171
 33
0.0
 40
0.0
 40
0.0
 40
0.0
 40
0.0
 40
0.228580067
 40
0.4671793332
 40
1.0
 40
1.0
 40
1.0
 40
1.0
 10
28.1110765652
 20
-3.9653614612
 30
0.0
 10
28.0957783144
 20
-3.9577122851
 30
0.0
 10
28.06215729
 20
-3.9463909125
 30
0.0
 10
27.9868037137
 20
-3.9418241367
 30
0.0
 10
27.9296026488
 20
-3.9593306704
 30
0.0
 10
27.8936401251
 20
-3.9765431253
 30
0.0
 11
28.1110765652
 21
-3.9653614612
 31
0.0
 11
28.0624994678
 21
-3.948833214
 31
0.0
 11
28.0090631441
 21
-3.9451795766
 31
0.0
 11
27.8936401251
 21
-3.9765431253
 31
0.0
  0
SPLINE
  5
565
100
AcDbEntity
  8
ASSI
100
AcDbSpline
 62
253
  6
CONTINUOUS
 70
0
 71
3
 72
11
 73
7
 74
5
 42
0.0000001
 43
0.0000001
 44
0.0000000001
 12
-0.0001889529
 22
-0.2337265786
 32
0.0
 13
-0.2075557587
 23
-0.1074651398
 33
0.0
 40
0.0
 40
0.0
 40
0.0
 40
0.0
 40
0.2077573128
 40
0.4361810233
 40
0.6986205047
 40
1.0
 40
1.0
 40
1.0
 40
1.0
 10
28.7409692528
 20
-14.1231958255
 30
0.0
 10
28.7409561674
 20
-14.1393819608
 30
0.0
 10
28.7339750579
 20
-14.1736137871
 30
0.0
 10
28.704780924
 20
-14.2205351428
 30
0.0
 10
28.6591648044
 20
-14.2628898953
 30
0.0
 10
28.6214902271
 20
-14.2859652366
 30
0.0
 10
28.6006392105
 20
-14.2967611665
 30
0.0
 11
28.7409692528
 21
-14.1231958255
 31
0.0
 11
28.7317544024
 21
-14.1708718871
 31
0.0
 11
28.7045239285
 21
-14.2167941652
 31
0.0
 11
28.6602779502
 21
-14.259276854
 31
0.0
 11
28.6006392105
 21
-14.2967611665
 31
0.0
  0
SPLINE
  5
566
100
AcDbEntity
  8
ASSI
100
AcDbSpline
 62
253
  6
CONTINUOUS
 70
0
 71
3
 72
11
 73
7
 74
5
 42
0.0000001
 43
0.0000001
 44
0.0000000001
 12
-0.0003744863
 22
-0.2336284675
 32
0.0
 13
-0.207468832
 23
-0.1074201323
 33
0.0
 40
0.0
 40
0.0
 40
0.0
 40
0.0
 40
0.2077573839
 40
0.4361962699
 40
0.6986395931
 40
1.0
 40
1.0
 40
1.0
 40
1.0
 10
28.7409691332
 20
-5.0224700854
 30
0.0
 10
28.7409431991
 20
-5.0386494318
 30
0.0
 10
28.7339412769
 20
-5.0728619065
 30
0.0
 10
28.7047416769
 20
-5.1197525211
 30
0.0
 10
28.6591384732
 20
-5.1620817804
 30
0.0
 10
28.6214801743
 20
-5.185145447
 30
0.0
 10
28.6006392105
 20
-5.195936172
 30
0.0
 11
28.7409691332
 21
-5.0224700854
 31
0.0
 11
28.7317259307
 21
-5.0701199596
 31
0.0
 11
28.7044867199
 21
-5.1160151787
 31
0.0
 11
28.6602509162
 21
-5.1584726669
 31
0.0
 11
28.6006392105
 21
-5.195936172
 31
0.0
  0
SPLINE
  5
567
100
AcDbEntity
  8
ASSI
100
AcDbSpline
 62
7
  6
CONTINUOUS
 70
0
 71
3
 72
11
 73
7
 74
5
 42
0.0000001
 43
0.0000001
 44
0.0000000001
 12
0.1925811499
 22
-0.2398259919
 32
0.0
 13
-0.0001702705
 23
-0.3075775946
 33
0.0
 40
0.0
 40
0.0
 40
0.0
 40
0.0
 40
0.3125974675
 40
0.5834195436
 40
0.8115759217
 40
1.0
 40
1.0
 40
1.0
 40
1.0
 10
25.8215824648
 20
-15.7356599184
 30
0.0
 10
25.8416492581
 20
-15.7606495843
 30
0.0
 10
25.8779152889
 20
-15.8082688621
 30
0.0
 10
25.922723634
 20
-15.8785904599
 30
0.0
 10
25.9527105245
 20
-15.942574971
 30
0.0
 10
25.9619233817
 20
-15.9851538426
 30
0.0
 10
25.9619126874
 20
-16.0044721842
 30
0.0
 11
25.8215824648
 21
-15.7356599184
 31
0.0
 11
25.8793480997
 21
-15.812520622
 31
0.0
 11
25.9233759511
 21
-15.883233004
 31
0.0
 11
25.9517561691
 21
-15.9474140466
 31
0.0
 11
25.9619126874
 21
-16.0044721842
 31
0.0
  0
SPLINE
  5
568
100
AcDbEntity
  8
ASSI
100
AcDbSpline
 62
253
  6
CONTINUOUS
 70
0
 71
3
 72
11
 73
7
 74
5
 42
0.0000001
 43
0.0000001
 44
0.0000000001
 12
0.5005397441
 22
0.3148639544
 32
0.0
 13
-0.004152755
 23
0.5913223316
 33
0.0
 40
0.0
 40
0.0
 40
0.0
 40
0.0
 40
0.2178734337
 40
0.4526251496
 40
0.7124990749
 40
1.0
 40
1.0
 40
1.0
 40
1.0
 10
25.596322182
 20
-20.6947634297
 30
0.0
 10
25.6326736196
 20
-20.6718965994
 30
0.0
 10
25.7002681433
 20
-20.6108208812
 30
0.0
 10
25.7717320642
 20
-20.4878979637
 30
0.0
 10
25.8140686261
 20
-20.3383261943
 30
0.0
 10
25.8219804058
 20
-20.230020038
 30
0.0
 10
25.8215824322
 20
-20.1733514655
 30
0.0
 11
25.596322182
 21
-20.6947634297
 31
0.0
 11
25.6926046731
 21
-20.6091564651
 31
0.0
 11
25.7640682652
 21
-20.4901471667
 31
0.0
 11
25.8076779945
 21
-20.3427918268
 31
0.0
 11
25.8215824322
 21
-20.1733514655
 31
0.0
  0
SPLINE
  5
569
100
AcDbEntity
  8
ASSI
100
AcDbSpline
 62
253
  6
CONTINUOUS
 70
0
 71
3
 72
10
 73
6
 74
4
 42
0.0000001
 43
0.0000001
 44
0.0000000001
 12
0.3944091357
 22
0.1472132323
 32
0.0
 13
0.3752410301
 23
-0.1908519619
 33
0.0
 40
0.0
 40
0.0
 40
0.0
 40
0.0
 40
0.2279465028
 40
0.4673028276
 40
1.0
 40
1.0
 40
1.0
 40
1.0
 10
-9.3404305624
 20
30.6896711938
 30
0.0
 10
-9.3104625013
 20
30.7008567743
 30
0.0
 10
-9.2457977787
 20
30.7158881895
 30
0.0
 10
-9.1044852275
 20
30.7144422163
 30
0.0
 10
-8.9989941306
 20
30.6780611141
 30
0.0
 10
-8.9323641854
 20
30.6441723473
 30
0.0
 11
-9.3404305624
 21
30.6896711938
 31
0.0
 11
-9.2470504296
 21
30.711783811
 31
0.0
 11
-9.1462849255
 21
30.7114768793
 31
0.0
 11
-8.9323641854
 21
30.6441723473
 31
0.0
  0
SPLINE
  5
56A
100
AcDbEntity
  8
ASSI
100
AcDbSpline
 62
253
  6
CONTINUOUS
 70
0
 71
3
 72
9
 73
5
 74
3
 42
0.0000001
 43
0.0000001
 44
0.0000000001
 12
0.292840819
 22
0.5595548034
 32
0.0
 13
0.0276459591
 23
0.6309461342
 33
0.0
 40
0.0
 40
0.0
 40
0.0
 40
0.0
 40
0.5116436955
 40
1.0
 40
1.0
 40
1.0
 40
1.0
 10
26.1377705783
 20
-19.6913277597
 30
0.0
 10
26.1877139646
 20
-19.5958968639
 30
0.0
 10
26.2679442584
 20
-19.3994176613
 30
0.0
 10
26.302524911
 20
-19.189573753
 30
0.0
 10
26.3070252704
 20
-19.0868649122
 30
0.0
 11
26.1377705783
 21
-19.6913277597
 31
0.0
 11
26.2578624828
 21
-19.3913435704
 31
0.0
 11
26.3070252704
 21
-19.0868649122
 31
0.0
  0
SPLINE
  5
56B
100
AcDbEntity
  8
RACCORDO
100
AcDbSpline
 62
7
  6
CONTINUOUS
 70
0
 71
3
 72
11
 73
7
 74
5
 42
0.0000001
 43
0.0000001
 44
0.0000000001
 12
0.0
 22
-0.5046924485
 32
0.0
 13
-0.4521749469
 23
-0.2241702143
 33
0.0
 40
0.0
 40
0.0
 40
0.0
 40
0.0
 40
0.2883523528
 40
0.5492220546
 40
0.7829122029
 40
1.0
 40
1.0
 40
1.0
 40
1.0
 10
22.545709581
 20
-6.2873517212
 30
0.0
 10
22.545709581
 20
-6.3358614729
 30
0.0
 10
22.5374471434
 20
-6.4285656189
 30
0.0
 10
22.4980433989
 20
-6.5555423278
 30
0.0
 10
22.4317618
 20
-6.6574968729
 30
0.0
 10
22.3696830367
 20
-6.7043582559
 30
0.0
 10
22.3369624823
 20
-6.7205797952
 30
0.0
 11
22.545709581
 21
-6.2873517212
 31
0.0
 11
22.5316917547
 21
-6.4322042828
 31
0.0
 11
22.4907848727
 21
-6.5573470453
 31
0.0
 11
22.4248151084
 21
-6.655113214
 31
0.0
 11
22.3369624823
 21
-6.7205797952
 31
0.0
  0
SPLINE
  5
56C
100
AcDbEntity
  8
0
100
AcDbSpline
 62
7
  6
CONTINUOUS
 70
0
 71
3
 72
9
 73
5
 74
3
 42
0.0000001
 43
0.0000001
 44
0.0000000001
 12
0.0
 22
0.291002821
 32
0.0
 13
0.2602808358
 23
0.1301404179
 33
0.0
 40
0.0
 40
0.0
 40
0.0
 40
0.0
 40
0.5122337718
 40
1.0
 40
1.0
 40
1.0
 40
1.0
 10
22.545709581
 20
13.1982198639
 30
0.0
 10
22.545709581
 20
13.2479070214
 30
0.0
 10
22.5765392825
 20
13.3441582793
 30
0.0
 10
22.6448122034
 20
13.4209762559
 30
0.0
 10
22.6871309372
 20
13.4421356228
 30
0.0
 11
22.545709581
 21
13.1982198639
 31
0.0
 11
22.5871180902
 21
13.34141434
 31
0.0
 11
22.6871309372
 21
13.4421356228
 31
0.0
  0
SPLINE
  5
56D
100
AcDbEntity
  8
RACCORDO
100
AcDbSpline
 62
7
  6
CONTINUOUS
 70
0
 71
3
 72
10
 73
6
 74
4
 42
0.0000001
 43
0.0000001
 44
0.0000000001
 12
0.0822578487
 22
0.0037029537
 32
0.0
 13
0.0001457775
 23
-0.0823410244
 33
0.0
 40
0.0
 40
0.0
 40
0.0
 40
0.0
 40
0.0872933085
 40
0.2762998491
 40
1.0
 40
1.0
 40
1.0
 40
1.0
 10
21.9813271856
 20
17.2774892145
 30
0.0
 10
21.9837207055
 20
17.2775969622
 30
0.0
 10
21.9890133965
 20
17.2696251808
 30
0.0
 10
21.9928904629
 20
17.2441106222
 30
0.0
 10
21.9941730051
 20
17.2180075836
 30
0.0
 10
21.9942081715
 20
17.1981441797
 30
0.0
 11
21.9813271856
 21
17.2774892145
 31
0.0
 11
21.9866436484
 21
17.2726518446
 31
0.0
 11
21.9907206713
 21
17.257632345
 31
0.0
 11
21.9942081715
 21
17.1981441797
 31
0.0
  0
SPLINE
  5
56E
100
AcDbEntity
  8
RACCORDO
100
AcDbSpline
 62
7
  6
CONTINUOUS
 70
0
 71
3
 72
9
 73
5
 74
3
 42
0.0000001
 43
0.0000001
 44
0.0000000001
 12
0.0
 22
-0.2382766937
 32
0.0
 13
-0.2131211538
 23
-0.1065605769
 33
0.0
 40
0.0
 40
0.0
 40
0.0
 40
0.0
 40
0.4328105702
 40
1.0
 40
1.0
 40
1.0
 40
1.0
 10
23.9650126318
 20
14.184597743
 30
0.0
 10
23.9650126318
 20
14.1502215191
 30
0.0
 10
23.9274032065
 20
14.0719061087
 30
0.0
 10
23.8587951424
 20
14.0279677254
 30
0.0
 10
23.8185017871
 20
14.0078210477
 30
0.0
 11
23.9650126318
 21
14.184597743
 31
0.0
 11
23.9266502985
 21
14.0888697205
 31
0.0
 11
23.8185017871
 21
14.0078210477
 31
0.0
  0
SPLINE
  5
56F
100
AcDbEntity
  8
RACCORDO
100
AcDbSpline
 62
7
  6
CONTINUOUS
 70
0
 71
3
 72
9
 73
5
 74
3
 42
0.0000001
 43
0.0000001
 44
0.0000000001
 12
0.612952151
 22
0.7292994449
 32
0.0
 13
0.0249046295
 23
0.9523485597
 33
0.0
 40
0.0
 40
0.0
 40
0.0
 40
0.0
 40
0.5251854732
 40
1.0
 40
1.0
 40
1.0
 40
1.0
 10
21.6326239254
 20
16.3019984184
 30
0.0
 10
21.7399284472
 20
16.4296709097
 30
0.0
 10
21.9161251072
 20
16.7003344184
 30
0.0
 10
21.9898817568
 20
17.0180084792
 30
0.0
 10
21.9938234501
 20
17.1687381228
 30
0.0
 11
21.6326239254
 21
16.3019984184
 31
0.0
 11
21.8967453185
 21
16.7269344357
 31
0.0
 11
21.9938234501
 21
17.1687381228
 31
0.0
  0
ELLIPSE
  5
570
100
AcDbEntity
  8
RACCORDO
100
AcDbEllipse
 62
7
  6
CONTINUOUS
 10
-16.2567726134
 20
28.9825796549
 30
0.0
 11
-0.1118076343
 21
0.2236122655
 31
0.0
 40
0.6123559867
 41
-0.6847115264
 42
0.0052088184
  0
ELLIPSE
  5
571
100
AcDbEntity
  8
RACCORDO
100
AcDbEllipse
 62
7
  6
CONTINUOUS
 10
-2.9454874575
 20
22.326937077
 30
0.0
 11
-0.1118076343
 21
0.2236122655
 31
0.0
 40
0.6123559867
 41
-0.6847115264
 42
0.0052088184
  0
ELLIPSE
  5
572
100
AcDbEntity
  8
RACCORDO
100
AcDbEllipse
 62
7
  6
CONTINUOUS
 10
-0.3468700367
 20
21.0276283666
 30
0.0
 11
-0.1118076343
 21
0.2236122655
 31
0.0
 40
0.6123559867
 41
-0.6847115264
 42
0.0052088184
  0
ELLIPSE
  5
573
100
AcDbEntity
  8
RACCORDO
100
AcDbEllipse
 62
7
  6
CONTINUOUS
 10
14.4431526463
 20
-26.24517041
 30
0.0
 11
-0.2233122296
 21
0.4479547973
 31
0.0
 40
0.611934274
 41
-3.1056268491
 42
-2.2544093696
  0
ELLIPSE
  5
574
100
AcDbEntity
  8
RACCORDO
100
AcDbEllipse
 62
7
  6
CONTINUOUS
 10
14.4431526463
 20
11.5081783124
 30
0.0
 11
-0.2231311538
 21
0.4477949923
 31
0.0
 40
0.6124818573
 41
-2.2537489731
 42
-0.6834093579
  0
ELLIPSE
  5
575
100
AcDbEntity
  8
RACCORDO
100
AcDbEllipse
 62
7
  6
CONTINUOUS
 10
12.9644151192
 20
14.3719857887
 30
0.0
 11
-0.1118076343
 21
0.2236122655
 31
0.0
 40
0.6123559867
 41
-0.6847115264
 42
0.0052088184
  0
ELLIPSE
  5
576
100
AcDbEntity
  8
RACCORDO
100
AcDbEllipse
 62
7
  6
CONTINUOUS
 10
14.2548801484
 20
-28.2754728738
 30
0.0
 11
-0.1118076343
 21
0.2236122655
 31
0.0
 40
0.6123559867
 41
-3.1477742112
 42
-2.2555352685
  0
ELLIPSE
  5
577
100
AcDbEntity
  8
RACCORDO
100
AcDbEllipse
 62
7
  6
CONTINUOUS
 10
14.2548801484
 20
13.7267532741
 30
0.0
 11
-0.1118022285
 21
0.2236074604
 31
0.0
 40
0.6123888851
 41
-2.2554957904
 42
-0.684726879
  0
ELLIPSE
  5
578
100
AcDbEntity
  8
RACCORDO
100
AcDbEllipse
 62
7
  6
CONTINUOUS
 10
0.9435949925
 20
20.382395852
 30
0.0
 11
-0.1118022285
 21
0.2236074604
 31
0.0
 40
0.6123888851
 41
-2.2554957904
 42
-0.684726879
  0
ELLIPSE
  5
579
100
AcDbEntity
  8
RACCORDO
100
AcDbEllipse
 62
7
  6
CONTINUOUS
 10
-1.6550224283
 20
21.6817045624
 30
0.0
 11
-0.1118022285
 21
0.2236074604
 31
0.0
 40
0.6123888851
 41
-2.2554957904
 42
-0.684726879
  0
ELLIPSE
  5
57A
100
AcDbEntity
  8
RACCORDO
100
AcDbEllipse
 62
7
  6
CONTINUOUS
 10
-14.9663075842
 20
28.3373471403
 30
0.0
 11
-0.1118022285
 21
0.2236074604
 31
0.0
 40
0.6123888851
 41
-2.2554957904
 42
-0.684726879
  0
ELLIPSE
  5
57B
100
AcDbEntity
  8
RACCORDO
100
AcDbEllipse
 62
7
  6
CONTINUOUS
 10
-17.8394323894
 20
26.4807409007
 30
0.0
 11
0.249929385
 21
0.0111824824
 31
0.0
 40
0.5313301283
 41
3.1178151515
 42
3.9032222197
  0
ELLIPSE
  5
57C
100
AcDbEntity
  8
RACCORDO
100
AcDbEllipse
 62
7
  6
CONTINUOUS
 10
-16.5656283235
 20
25.8438388677
 30
0.0
 11
0.249929385
 21
0.0111824824
 31
0.0
 40
0.5313301283
 41
-2.3799630874
 42
-0.8144027484
  0
ELLIPSE
  5
57D
100
AcDbEntity
  8
RACCORDO
100
AcDbEllipse
 62
7
  6
CONTINUOUS
 10
-4.5281472336
 20
19.8250983228
 30
0.0
 11
0.249929385
 21
0.0111824824
 31
0.0
 40
0.5313301283
 41
3.1178151515
 42
3.9032222197
  0
ELLIPSE
  5
57E
100
AcDbEntity
  8
RACCORDO
100
AcDbEllipse
 62
7
  6
CONTINUOUS
 10
-3.2543431677
 20
19.1881962898
 30
0.0
 11
0.249929385
 21
0.0111824824
 31
0.0
 40
0.5313301283
 41
-2.3799630874
 42
-0.8144027484
  0
ELLIPSE
  5
57F
100
AcDbEntity
  8
RACCORDO
100
AcDbEllipse
 62
7
  6
CONTINUOUS
 10
-1.9295298127
 20
18.5257896123
 30
0.0
 11
0.249929385
 21
0.0111824824
 31
0.0
 40
0.5313301283
 41
3.1178151515
 42
3.9032222197
  0
ELLIPSE
  5
580
100
AcDbEntity
  8
RACCORDO
100
AcDbEllipse
 62
7
  6
CONTINUOUS
 10
-0.6557257468
 20
17.8888875794
 30
0.0
 11
0.249929385
 21
0.0111824824
 31
0.0
 40
0.5313301283
 41
-2.3799630874
 42
-0.8144027484
  0
ELLIPSE
  5
581
100
AcDbEntity
  8
RACCORDO
100
AcDbEllipse
 62
7
  6
CONTINUOUS
 10
11.3817553431
 20
11.8701470344
 30
0.0
 11
0.249929385
 21
0.0111824824
 31
0.0
 40
0.5313301283
 41
3.1178151515
 42
3.9032222197
  0
ELLIPSE
  5
582
100
AcDbEntity
  8
RACCORDO
100
AcDbEllipse
 62
7
  6
CONTINUOUS
 10
12.655559409
 20
11.2332450015
 30
0.0
 11
0.249929385
 21
0.0111824824
 31
0.0
 40
0.5313301283
 41
-2.3799630874
 42
-0.8144027484
  0
ELLIPSE
  5
583
100
AcDbEntity
  8
RACCORDO
100
AcDbEllipse
 62
7
  6
CONTINUOUS
 10
-7.4662182414
 20
28.3116339127
 30
0.0
 11
0.2267599918
 21
0.4456316896
 31
0.0
 40
0.6176975122
 41
0.0043589484
 42
0.6803507382
  0
ELLIPSE
  5
584
100
AcDbEntity
  8
RACCORDO
100
AcDbEllipse
 62
7
  6
CONTINUOUS
 10
-1.8447193309
 20
25.5008844575
 30
0.0
 11
0.2267599918
 21
0.4456316896
 31
0.0
 40
0.6176975122
 41
0.0043589484
 42
0.6803507382
  0
ELLIPSE
  5
585
100
AcDbEntity
  8
RACCORDO
100
AcDbEllipse
 62
7
  6
CONTINUOUS
 10
8.4436843353
 20
20.3566826243
 30
0.0
 11
0.2267599918
 21
0.4456316896
 31
0.0
 40
0.6176975122
 41
0.0043589484
 42
0.6803507382
  0
ELLIPSE
  5
586
100
AcDbEntity
  8
RACCORDO
100
AcDbEllipse
 62
7
  6
CONTINUOUS
 10
14.0651832458
 20
17.5459331691
 30
0.0
 11
0.2267599918
 21
0.4456316896
 31
0.0
 40
0.6176975122
 41
0.0043589484
 42
0.6803507382
  0
ELLIPSE
  5
587
100
AcDbEntity
  8
RACCORDO
100
AcDbEllipse
 62
7
  6
CONTINUOUS
 10
-1.2531886449
 20
25.2051191145
 30
0.0
 11
0.2205149116
 21
0.4487546221
 31
0.0
 40
0.607010042
 41
5.3929141747
 42
6.9549838552
  0
ELLIPSE
  5
588
100
AcDbEntity
  8
RACCORDO
100
AcDbEllipse
 62
7
  6
CONTINUOUS
 10
9.0352150213
 20
20.0609172813
 30
0.0
 11
0.2205149116
 21
0.4487546221
 31
0.0
 40
0.607010042
 41
5.3929141747
 42
6.9549838552
  0
ELLIPSE
  5
589
100
AcDbEntity
  8
RACCORDO
100
AcDbEllipse
 62
7
  6
CONTINUOUS
 10
14.6567139318
 20
17.2501678261
 30
0.0
 11
0.2205149116
 21
0.4487546221
 31
0.0
 40
0.607010042
 41
5.3929141747
 42
6.9549838552
  0
ELLIPSE
  5
58A
100
AcDbEntity
  8
RACCORDO
100
AcDbEllipse
 62
7
  6
CONTINUOUS
 10
14.1310311727
 20
-25.745247033
 30
0.0
 11
-0.4474018214
 21
0.8946702271
 31
0.0
 40
0.6121897086
 41
3.6784324333
 42
4.0274505145
  0
ELLIPSE
  5
58B
100
AcDbEntity
  8
RACCORDO
100
AcDbEllipse
 62
7
  6
CONTINUOUS
 10
14.1310311727
 20
11.320376409
 30
0.0
 11
-0.4471615512
 21
0.8944566536
 31
0.0
 40
0.6125552124
 41
4.0278891191
 42
4.3769072138
  0
ELLIPSE
  5
58C
100
AcDbEntity
  8
RACCORDO
100
AcDbEllipse
 62
7
  6
CONTINUOUS
 10
14.1310311727
 20
11.320376409
 30
0.0
 11
-0.4471615512
 21
0.8944566536
 31
0.0
 40
0.6125552124
 41
5.142082713
 42
5.5983808594
  0
ELLIPSE
  5
58D
100
AcDbEntity
  8
RACCORDO
100
AcDbEllipse
 62
7
  6
CONTINUOUS
 10
-6.8746875553
 20
28.0158685697
 30
0.0
 11
0.2205149116
 21
0.4487546221
 31
0.0
 40
0.607010042
 41
5.3929141747
 42
6.9549838552
  0
ELLIPSE
  5
58E
100
AcDbEntity
  8
ASSI
100
AcDbEllipse
 62
7
  6
CONTINUOUS
 10
-7.4662182414
 20
28.3116339127
 30
0.0
 11
0.2267599918
 21
0.4456316896
 31
0.0
 40
0.6176975122
 41
0.0043589484
 42
0.6803507382
  0
ELLIPSE
  5
58F
100
AcDbEntity
  8
ASSI
100
AcDbEllipse
 62
7
  6
CONTINUOUS
 10
-1.8447193309
 20
25.5008844575
 30
0.0
 11
0.2267599918
 21
0.4456316896
 31
0.0
 40
0.6176975122
 41
0.0043589484
 42
0.6803507382
  0
ELLIPSE
  5
590
100
AcDbEntity
  8
ASSI
100
AcDbEllipse
 62
7
  6
CONTINUOUS
 10
8.4436843353
 20
20.3566826243
 30
0.0
 11
0.2267599918
 21
0.4456316896
 31
0.0
 40
0.6176975122
 41
0.0043589484
 42
0.6803507382
  0
ELLIPSE
  5
591
100
AcDbEntity
  8
ASSI
100
AcDbEllipse
 62
7
  6
CONTINUOUS
 10
14.0651832458
 20
17.5459331691
 30
0.0
 11
0.2267599918
 21
0.4456316896
 31
0.0
 40
0.6176975122
 41
0.0043589484
 42
0.6803507382
  0
ELLIPSE
  5
592
100
AcDbEntity
  8
ASSI
100
AcDbEllipse
 62
7
  6
CONTINUOUS
 10
14.1310311727
 20
11.320376409
 30
0.0
 11
-0.4471615512
 21
0.8944566536
 31
0.0
 40
0.6125552124
 41
4.0278891191
 42
4.3721148614
  0
ELLIPSE
  5
593
100
AcDbEntity
  8
ASSI
100
AcDbEllipse
 62
7
  6
CONTINUOUS
 10
14.1310311727
 20
11.320376409
 30
0.0
 11
-0.4471615512
 21
0.8944566536
 31
0.0
 40
0.6125552124
 41
5.142082713
 42
5.5983808594
  0
ELLIPSE
  5
594
100
AcDbEntity
  8
ASSI
100
AcDbEllipse
 62
7
  6
CONTINUOUS
 10
14.1310311727
 20
-25.745247033
 30
0.0
 11
-0.4474018214
 21
0.8946702271
 31
0.0
 40
0.6121897086
 41
3.6832247719
 42
4.0274505145
  0
ELLIPSE
  5
595
100
AcDbEntity
  8
ASSI
100
AcDbEllipse
 62
7
  6
CONTINUOUS
 10
-6.8746875553
 20
28.0158685697
 30
0.0
 11
0.2205149116
 21
0.4487546221
 31
0.0
 40
0.607010042
 41
5.3929141747
 42
6.9549838552
  0
ELLIPSE
  5
596
100
AcDbEntity
  8
ASSI
100
AcDbEllipse
 62
7
  6
CONTINUOUS
 10
-1.2531886449
 20
25.2051191145
 30
0.0
 11
0.2205149116
 21
0.4487546221
 31
0.0
 40
0.607010042
 41
5.3929141747
 42
6.9549838552
  0
ELLIPSE
  5
597
100
AcDbEntity
  8
ASSI
100
AcDbEllipse
 62
7
  6
CONTINUOUS
 10
9.0352150213
 20
20.0609172813
 30
0.0
 11
0.2205149116
 21
0.4487546221
 31
0.0
 40
0.607010042
 41
5.3929141747
 42
6.9549838552
  0
ELLIPSE
  5
598
100
AcDbEntity
  8
ASSI
100
AcDbEllipse
 62
7
  6
CONTINUOUS
 10
14.6567139318
 20
17.2501678261
 30
0.0
 11
0.2205149116
 21
0.4487546221
 31
0.0
 40
0.607010042
 41
5.3929141747
 42
6.9549838552
  0
ENDSEC
  0
SECTION
  2
OBJECTS
  0
DICTIONARY
  5
C
100
AcDbDictionary
280
0
281
1
  3
ACAD_GROUP
350
D
  3
ACAD_MLINESTYLE
350
17
  3
ACAD_LAYOUT
350
1A
  3
ACAD_PLOTSETTINGS
350
19
  3
ACAD_PLOTSTYLENAME
350
E
  0
DICTIONARY
  5
D
102
{ACAD_REACTORS
330
C
102
}
100
AcDbDictionary
280
0
281
1
  0
ACDBDICTIONARYWDFLT
  5
E
102
{ACAD_REACTORS
330
C
102
}
100
AcDbDictionary
281
1
  3
Normal
350
F
100
AcDbDictionaryWithDefault
340
F
  0
DICTIONARY
  5
17
102
{ACAD_REACTORS
330
C
102
}
100
AcDbDictionary
280
0
281
1
  3
Standard
350
18
  0
DICTIONARY
  5
19
102
{ACAD_REACTORS
330
C
102
}
100
AcDbDictionary
281
1
  0
DICTIONARY
  5
1A
102
{ACAD_REACTORS
330
C
102
}
100
AcDbDictionary
281
1
  3
Model
350
599
  3
Layout1
350
59A
  0
ACDBPLACEHOLDER
  5
F
102
{ACAD_REACTORS
330
E
102
}
  0
MLINESTYLE
  5
18
102
{ACAD_REACTORS
330
17
102
}
100
AcDbMlineStyle
  2
STANDARD
 70
0
  3

 62
256
 51
90.0
 52
90.0
 71
2
 49
0.5
 62
256
  6
BYLAYER
 49
-0.5
 62
256
  6
BYLAYER
  0
LAYOUT
  5
599
102
{ACAD_REACTORS
330
1A
102
}
100
AcDbPlotSettings
  1

  2
none_device
  4
ISO_A4_(297.00_x_210.00_MM)
  6

 40
0.0
 41
0.0
 42
0.0
 43
0.0
 44
297.0
 45
210.0
 46
0.0
 47
0.0
 48
0.0
 49
0.0
140
0.0
141
0.0
142
1.0
143
1.0
 70
1024
 72
1
 73
0
 74
0
  7

 75
0
147
1.0
148
0.0
149
0.0
100
AcDbLayout
  1
Model
 70
0
 71
0
 10
0.0
 20
0.0
 11
297.0
 21
210.0
 12
0.0
 22
0.0
 32
0.0
 14
0.0
 24
0.0
 34
0.0
 15
0.0
 25
0.0
 35
0.0
146
0.0
 13
0.0
 23
0.0
 33
0.0
 16
1.0
 26
0.0
 36
0.0
 17
0.0
 27
1.0
 37
0.0
 76
0
330
219
345
0
346
0
  0
LAYOUT
  5
59A
102
{ACAD_REACTORS
330
1A
102
}
100
AcDbPlotSettings
  1

  2
none_device
  4
ISO_A4_(297.00_x_210.00_MM)
  6

 40
0.0
 41
0.0
 42
0.0
 43
0.0
 44
297.0
 45
210.0
 46
0.0
 47
0.0
 48
0.0
 49
0.0
140
0.0
141
0.0
142
1.0
143
1.0
 70
0
 72
1
 73
0
 74
0
  7

 75
0
147
1.0
148
0.0
149
0.0
100
AcDbLayout
  1
Layout1
 70
0
 71
1
 10
0.0
 20
0.0
 11
297.0
 21
210.0
 12
0.0
 22
0.0
 32
0.0
 14
0.0
 24
0.0
 34
0.0
 15
0.0
 25
0.0
 35
0.0
146
0.0
 13
0.0
 23
0.0
 33
0.0
 16
1.0
 26
0.0
 36
0.0
 17
0.0
 27
1.0
 37
0.0
 76
0
330
21A
345
0
346
0
  0
ENDSEC
  0
EOF
