0
SECTION
2
HEADER
9
$ACADVER
1
AC1014
9
$HANDSEED
5
       410
9
$EXTMAX
10
297.0000000000
20
210.0000000000
9
$EXTMIN
10
0.0000000000
20
0.0000000000
9
$LIMMIN
10
0.0000000000
20
0.0000000000
9
$LIMMAX
10
297.0000000000
20
210.0000000000
9
$VIEWCTR
10
148.5000000000
20
105.0000000000
9
$VIEWSIZE
40
210.0000000000
9
$CLAYER
8
0
9
$LTSCALE
40
16.3350000000
9
$CELTYPE
6
BYLAYER
9
$DIMSCALE
40
1
9
$DIMASZ
40
3.0000000000
9
$DIMEXO
40
1.8562500000
9
$DIMDLI
40
11.2860000000
9
$DIMEXE
40
5.3460000000
9
$DIMCEN
40
2.6730000000
9
$DIMLFAC
40
1.0000000000
9
$DIMTXT
40
3.0000000000
9
$DIMTOL
70
1
9
$DIMLIM
70
0
9
$DIMTFAC
40
1.0000000000
9
$DIMTP
40
0.0100000000
9
$DIMTM
40
0.0100000000
9
$MEASUREMENT
70
1
0
ENDSEC
0
SECTION
2
CLASSES
0
ENDSEC
0
SECTION
2
TABLES
0
TABLE
2
VPORT
5
8
100
AcDbSymbolTable
70
2
0
VPORT
5
1F4
100
AcDbSymbolTableRecord
100
AcDbViewportTableRecord
2
*ACTIVE
70
0
10
0.0
20
0.0
11
1.0
21
1.0
12
148.5000000000
22
105.0000000000
13
0.0
23
0.0
14
1.0
24
1.0
15
0.0
25
0.0
16
0.0
26
0.0
36
1.0
17
0.0
27
0.0
37
0.0
40
210.0000000000
41
1.4142857143
42
50.0
43
0.0
44
0.0
50
0.0
51
0.0
71
0
72
100
73
1
74
1
75
0
76
0
77
0
78
0
0
ENDTAB
0
TABLE
2
LTYPE
5
5
100
AcDbSymbolTable
70
6
0
LTYPE
5
14
100
AcDbSymbolTableRecord
100
AcDbLinetypeTableRecord
2
BYBLOCK
70
0
3

72
65
73
0
40
0.0
0
LTYPE
5
15
100
AcDbSymbolTableRecord
100
AcDbLinetypeTableRecord
2
BYLAYER
70
0
3

72
65
73
0
40
0.0
0
LTYPE
5
16
100
AcDbSymbolTableRecord
100
AcDbLinetypeTableRecord
2
CONTINUOUS
70
64
3
Solid line
72
65
73
0
40
0
0
LTYPE
5
1F5
100
AcDbSymbolTableRecord
100
AcDbLinetypeTableRecord
2
CENTER
70
64
3
____ _ ____ _ ____ _ ____ _ ____ _ ____ _ ____
72
65
73
4
40
0.6
49
0.375
74
0
49
-0.075
74
0
49
0.075
74
0
49
-0.075
74
0
0
LTYPE
5
1F6
100
AcDbSymbolTableRecord
100
AcDbLinetypeTableRecord
2
HIDDEN
70
64
3
- - - - - - - - - - - - - - - - - - - -
72
65
73
2
40
0.2
49
0.1
74
0
49
-0.1
74
0
0
LTYPE
5
1F7
100
AcDbSymbolTableRecord
100
AcDbLinetypeTableRecord
2
PHANTOM
70
64
3
_____ _ _ _____ _ _ _____ _ _ _____
72
65
73
6
40
0.8
49
0.45
74
0
49
-0.05
74
0
49
0.1
74
0
49
-0.05
74
0
49
0.1
74
0
49
-0.05
74
0
0
LTYPE
5
1F8
100
AcDbSymbolTableRecord
100
AcDbLinetypeTableRecord
2
DOT
70
64
3
. . . . . . . . . . . . . . . . . . . .
72
65
73
2
40
0.2
49
0.1
74
0
49
-0.1
74
0
0
LTYPE
5
1F9
100
AcDbSymbolTableRecord
100
AcDbLinetypeTableRecord
2
DASHED
70
64
3
- - - - - - - - - - - - - - - - - - - -
72
65
73
2
40
0.2
49
0.1
74
0
49
-0.1
74
0
0
ENDTAB
0
TABLE
2
LAYER
5
2
100
AcDbSymbolTable
70
36
0
LAYER
5
10
100
AcDbSymbolTableRecord
100
AcDbLayerTableRecord
2
0
70
0
62
7
6
CONTINUOUS
0
LAYER
5
1FA
100
AcDbSymbolTableRecord
100
AcDbLayerTableRecord
2
DEFAULT_1
70
0
62
7
6
CENTER
0
LAYER
5
1FB
100
AcDbSymbolTableRecord
100
AcDbLayerTableRecord
2
DEFAULT_2
70
0
62
8
6
HIDDEN
0
LAYER
5
1FC
100
AcDbSymbolTableRecord
100
AcDbLayerTableRecord
2
DEFAULT_3
70
0
62
7
6
PHANTOM
0
LAYER
5
1FD
100
AcDbSymbolTableRecord
100
AcDbLayerTableRecord
2
ASSI
70
0
62
7
6
CONTINUOUS
0
LAYER
5
1FE
100
AcDbSymbolTableRecord
100
AcDbLayerTableRecord
2
COORDINATE
70
0
62
7
6
CONTINUOUS
0
LAYER
5
1FF
100
AcDbSymbolTableRecord
100
AcDbLayerTableRecord
2
COORD_ORIGINE
70
0
62
7
6
CONTINUOUS
0
LAYER
5
200
100
AcDbSymbolTableRecord
100
AcDbLayerTableRecord
2
COSMETICI
70
0
62
7
6
CONTINUOUS
0
LAYER
5
201
100
AcDbSymbolTableRecord
100
AcDbLayerTableRecord
2
CURVE
70
0
62
7
6
CONTINUOUS
0
LAYER
5
202
100
AcDbSymbolTableRecord
100
AcDbLayerTableRecord
2
DRAFT
70
0
62
7
6
CONTINUOUS
0
LAYER
5
203
100
AcDbSymbolTableRecord
100
AcDbLayerTableRecord
2
NOTE
70
0
62
7
6
CONTINUOUS
0
LAYER
5
204
100
AcDbSymbolTableRecord
100
AcDbLayerTableRecord
2
PIANI
70
0
62
7
6
CONTINUOUS
0
LAYER
5
205
100
AcDbSymbolTableRecord
100
AcDbLayerTableRecord
2
PIANI_ORIGINE
70
0
62
7
6
CONTINUOUS
0
LAYER
5
206
100
AcDbSymbolTableRecord
100
AcDbLayerTableRecord
2
PIANI_RIFERIMENTO
70
0
62
7
6
CONTINUOUS
0
LAYER
5
207
100
AcDbSymbolTableRecord
100
AcDbLayerTableRecord
2
PUNTI
70
0
62
7
6
CONTINUOUS
0
LAYER
5
208
100
AcDbSymbolTableRecord
100
AcDbLayerTableRecord
2
RACCORDO
70
0
62
7
6
CONTINUOUS
0
LAYER
5
209
100
AcDbSymbolTableRecord
100
AcDbLayerTableRecord
2
SMUSSO
70
0
62
7
6
CONTINUOUS
0
LAYER
5
20A
100
AcDbSymbolTableRecord
100
AcDbLayerTableRecord
2
SUPERFICI
70
0
62
7
6
CONTINUOUS
0
LAYER
5
20B
100
AcDbSymbolTableRecord
100
AcDbLayerTableRecord
2
TRASH
70
0
62
7
6
CONTINUOUS
0
ENDTAB
0
TABLE
2
STYLE
5
3
100
AcDbSymbolTable
70
1
0
STYLE
5
11
100
AcDbSymbolTableRecord
100
AcDbTextStyleTableRecord
2
STANDARD
70
0
40
0.0
41
0.8000000000
50
0.0
71
0
42
0.2
3
txt
4

0
ENDTAB
0
TABLE
2
VIEW
5
6
100
AcDbSymbolTable
70
0
0
ENDTAB
0
TABLE
2
UCS
5
7
100
AcDbSymbolTable
70
0
0
ENDTAB
0
TABLE
2
APPID
5
9
100
AcDbSymbolTable
70
1
0
APPID
5
20C
100
AcDbSymbolTableRecord
100
AcDbRegAppTableRecord
2
ACAD
70
0
0
ENDTAB
0
TABLE
2
DIMSTYLE
5
A
100
AcDbSymbolTable
70
1
0
DIMSTYLE
105
20D
100
AcDbSymbolTableRecord
100
AcDbDimStyleTableRecord
2
STANDARD
70
0
3

4

5

6

7

40
1.0
41
3.0000000000
42
0.0625
43
0.38
44
0.18
45
0.0
46
0.0
47
0.0100000000
48
0.0100000000
140
3.0000000000
141
0.09
142
0.0
143
25.4
144
1.0000000000
145
0.0
146
1.0000000000
147
0.09
71
1
72
0
73
0
74
0
75
0
76
0
77
1
78
8
170
0
171
2
172
0
173
0
174
0
175
0
176
0
177
0
178
0
270
2
271
2
272
2
273
2
274
2
340
11
275
0
280
0
281
0
282
0
283
1
284
8
285
0
286
0
287
3
288
0
0
ENDTAB
0
TABLE
2
BLOCK_RECORD
5
1
100
AcDbSymbolTable
70
0
0
BLOCK_RECORD
5
1B
100
AcDbSymbolTableRecord
100
AcDbBlockTableRecord
2
*MODEL_SPACE
0
BLOCK_RECORD
5
1C
100
AcDbSymbolTableRecord
100
AcDbBlockTableRecord
2
*PAPER_SPACE
0
ENDTAB
0
ENDSEC
0
SECTION
2
BLOCKS
0
BLOCK
5
1E
100
AcDbEntity
8
0
100
AcDbBlockBegin
2
*MODEL_SPACE
70
0
10
0.0
20
0.0
30
0.0
3
*MODEL_SPACE
1

0
ENDBLK
5
1F
100
AcDbEntity
8
0
100
AcDbBlockEnd
0
BLOCK
5
20
100
AcDbEntity
8
0
100
AcDbBlockBegin
2
*PAPER_SPACE
70
0
10
0.0
20
0.0
30
0.0
3
*PAPER_SPACE
1

0
ENDBLK
5
21
100
AcDbEntity
8
0
100
AcDbBlockEnd
0
ENDSEC
0
SECTION
2
ENTITIES
0
LINE
5
20E
100
AcDbEntity
8
0
100
AcDbLine
62
7
6
CONTINUOUS
10
-23.8015463292
20
26.1163514515
11
-27.7706238270
21
24.5809661438
0
LINE
5
20F
100
AcDbEntity
8
0
100
AcDbLine
62
9
6
CONTINUOUS
10
-23.4575694731
20
26.0873595611
11
-27.4228669897
21
24.5534364892
0
LINE
5
210
100
AcDbEntity
8
0
100
AcDbLine
62
7
6
CONTINUOUS
10
-32.3088063822
20
-13.5348631584
11
-32.3087978482
21
-13.5346681487
0
LINE
5
211
100
AcDbEntity
8
0
100
AcDbLine
62
7
6
CONTINUOUS
10
-28.8030987997
20
23.1877955036
11
-28.8030862144
21
23.1878827407
0
LINE
5
212
100
AcDbEntity
8
0
100
AcDbLine
62
9
6
CONTINUOUS
10
8.6516301212
20
-27.5605568810
11
8.1213000353
21
-27.4507219239
0
LINE
5
213
100
AcDbEntity
8
0
100
AcDbLine
62
7
6
CONTINUOUS
10
-1.6470966560
20
-29.7170739251
11
-31.6902080875
21
-14.6955182093
0
LINE
5
214
100
AcDbEntity
8
0
100
AcDbLine
62
7
6
CONTINUOUS
10
-28.8429983954
20
-6.5165909952
11
-29.1446096331
21
-9.6758922569
0
LINE
5
215
100
AcDbEntity
8
0
100
AcDbLine
62
9
6
CONTINUOUS
10
-28.7842708435
20
-6.5846733382
11
-29.0858820805
21
-9.7439745928
0
LINE
5
216
100
AcDbEntity
8
0
100
AcDbLine
62
7
6
CONTINUOUS
10
-8.4660913652
20
20.6956067284
11
-6.3447710217
21
21.7562669002
0
LINE
5
217
100
AcDbEntity
8
0
100
AcDbLine
62
9
6
CONTINUOUS
10
-8.3542879664
20
20.6885062816
11
-6.2329676228
21
21.7491664534
0
LINE
5
218
100
AcDbEntity
8
0
100
AcDbLine
62
9
6
CONTINUOUS
10
8.5632417735
20
-27.2404743595
11
8.0329116876
21
-27.1306394025
0
LINE
5
219
100
AcDbEntity
8
0
100
AcDbLine
62
9
6
CONTINUOUS
10
-2.0394112267
20
-28.8324844906
11
-32.0744486258
21
-13.8149657911
0
LINE
5
21A
100
AcDbEntity
8
0
100
AcDbLine
62
9
6
CONTINUOUS
10
-7.0107850821
20
20.0167548395
11
-4.8894647385
21
21.0774150113
0
LINE
5
21B
100
AcDbEntity
8
0
100
AcDbLine
62
9
6
CONTINUOUS
10
-6.8340083868
20
19.7118601409
11
-4.7126880432
21
20.7725203127
0
LINE
5
21C
100
AcDbEntity
8
0
100
AcDbLine
62
7
6
CONTINUOUS
10
-8.5402557490
20
19.0727361198
11
-8.3056576396
21
19.1890985116
0
LINE
5
21D
100
AcDbEntity
8
0
100
AcDbLine
62
9
6
CONTINUOUS
10
-8.3170986219
20
19.0582680161
11
-8.0773087071
21
19.1772028520
0
LINE
5
21E
100
AcDbEntity
8
0
100
AcDbLine
62
7
6
CONTINUOUS
10
-8.0239027396
20
19.3654506484
11
-8.0234207629
21
19.3656866881
0
LINE
5
21F
100
AcDbEntity
8
0
100
AcDbLine
62
9
6
CONTINUOUS
10
-7.9193018626
20
19.3865522015
11
-7.9007053784
21
19.3955027065
0
LINE
5
220
100
AcDbEntity
8
0
100
AcDbLine
62
9
6
CONTINUOUS
10
-5.4197948244
20
18.9938305222
11
-6.1269016056
21
18.6553936613
0
LINE
5
221
100
AcDbEntity
8
0
100
AcDbLine
62
9
6
CONTINUOUS
10
-5.2808416112
20
18.7487070719
11
-5.9879483924
21
18.4102702109
0
LINE
5
222
100
AcDbEntity
8
0
100
AcDbLine
62
7
6
CONTINUOUS
10
6.2417296834
20
-29.1077494750
11
4.8982267992
21
-28.4359980328
0
LINE
5
223
100
AcDbEntity
8
0
100
AcDbLine
62
9
6
CONTINUOUS
10
6.1767563870
20
-28.9725310249
11
4.8332535028
21
-28.3007795827
0
LINE
5
224
100
AcDbEntity
8
0
100
AcDbLine
62
9
6
CONTINUOUS
10
6.1767563870
20
-28.6212170528
11
4.8332535028
21
-27.9494656106
0
LINE
5
225
100
AcDbEntity
8
0
100
AcDbLine
62
9
6
CONTINUOUS
10
6.2651447347
20
-28.3895228789
11
4.9216418504
21
-27.7177714368
0
LINE
5
226
100
AcDbEntity
8
0
100
AcDbLine
62
9
6
CONTINUOUS
10
6.2417550434
20
-29.1077621502
11
6.2415680533
21
-29.1076684650
0
LINE
5
227
100
AcDbEntity
8
0
100
AcDbLine
62
7
6
CONTINUOUS
10
3.4190399404
20
21.0899156622
11
-1.1771541373
21
18.7918186233
0
LINE
5
228
100
AcDbEntity
8
0
100
AcDbLine
62
7
6
CONTINUOUS
10
-3.8765025006
20
18.9139407100
11
2.3885004840
21
22.0214283766
0
LINE
5
229
100
AcDbEntity
8
0
100
AcDbLine
62
7
6
CONTINUOUS
10
-2.8741987175
20
18.5817170517
11
2.8131889953
21
21.3928411347
0
LINE
5
22A
100
AcDbEntity
8
0
100
AcDbLine
62
7
6
CONTINUOUS
10
-28.8486779341
20
-10.2506480766
11
-21.0705033360
21
-14.1397353756
0
LINE
5
22B
100
AcDbEntity
8
0
100
AcDbLine
62
9
6
CONTINUOUS
10
-28.8996024379
20
-10.1208378604
11
-21.1214278449
21
-14.0099251569
0
LINE
5
22C
100
AcDbEntity
8
0
100
AcDbLine
62
9
6
CONTINUOUS
10
5.4519719363
20
-27.0776063939
11
6.7954748206
21
-27.7493578360
0
LINE
5
22D
100
AcDbEntity
8
0
100
AcDbLine
62
9
6
CONTINUOUS
10
5.5403602840
20
-26.8459122201
11
6.8838631682
21
-27.5176636622
0
LINE
5
22E
100
AcDbEntity
8
0
100
AcDbLine
62
7
6
CONTINUOUS
10
3.8102589013
20
-25.8638149537
11
6.6698971285
21
-27.2936340673
0
LINE
5
22F
100
AcDbEntity
8
0
100
AcDbLine
62
7
6
CONTINUOUS
10
3.8520894993
20
-25.4256500430
11
7.0236120792
21
-27.0114113330
0
LINE
5
230
100
AcDbEntity
8
0
100
AcDbLine
62
9
6
CONTINUOUS
10
8.0266392222
20
-27.1275031697
11
8.0329116876
21
-27.1306394025
0
LINE
5
231
100
AcDbEntity
8
0
100
AcDbLine
62
7
6
CONTINUOUS
10
3.9002670917
20
-24.9210019746
11
7.4912541736
21
-26.7164955156
0
LINE
5
232
100
AcDbEntity
8
0
100
AcDbLine
62
9
6
CONTINUOUS
10
8.0177466447
20
-26.9677267951
11
8.5632417735
21
-27.2404743595
0
LINE
5
233
100
AcDbEntity
8
0
100
AcDbLine
62
7
6
CONTINUOUS
10
8.0177466447
20
-26.9641066456
11
8.5866568248
21
-27.2485617356
0
LINE
5
234
100
AcDbEntity
8
0
100
AcDbLine
62
7
6
CONTINUOUS
10
4.4001961615
20
19.4082870342
11
0.9950526012
21
17.7057152540
0
LINE
5
235
100
AcDbEntity
8
0
100
AcDbLine
62
7
6
CONTINUOUS
10
0.0772138378
20
18.1646346358
11
3.7725933310
21
19.9333245549
0
LINE
5
236
100
AcDbEntity
8
0
100
AcDbLine
62
7
6
CONTINUOUS
10
5.5527009989
20
20.4393281192
11
0.4307672284
21
17.9878579405
0
LINE
5
237
100
AcDbEntity
8
0
100
AcDbLine
62
7
6
CONTINUOUS
10
4.0479368097
20
-23.3741991105
11
7.4912541736
21
-25.0958577924
0
LINE
5
238
100
AcDbEntity
8
0
100
AcDbLine
62
9
6
CONTINUOUS
10
-20.7681118244
20
-10.3090294015
11
-28.5462864174
21
-6.4199421049
0
LINE
5
239
100
AcDbEntity
8
0
100
AcDbLine
62
9
6
CONTINUOUS
10
-20.6105096737
20
-10.0794226792
11
-28.3886842667
21
-6.1903353827
0
LINE
5
23A
100
AcDbEntity
8
0
100
AcDbLine
62
7
6
CONTINUOUS
10
-28.3769544877
20
-6.1862344145
11
-20.5987798946
21
-10.0753217111
0
LINE
5
23B
100
AcDbEntity
8
0
100
AcDbLine
62
9
6
CONTINUOUS
10
-20.8834434188
20
-13.8451939237
11
-20.5818321818
21
-10.6858926690
0
LINE
5
23C
100
AcDbEntity
8
0
100
AcDbLine
62
9
6
CONTINUOUS
10
-20.6016548396
20
-13.8668293798
11
-20.3000436026
21
-10.7075281252
0
LINE
5
23D
100
AcDbEntity
8
0
100
AcDbLine
62
9
6
CONTINUOUS
10
-5.2430181291
20
19.7810412977
11
-4.7126880432
21
20.4212063406
0
LINE
5
23E
100
AcDbEntity
8
0
100
AcDbLine
62
7
6
CONTINUOUS
10
-5.2272757863
20
19.7099416521
11
-4.6969457004
21
20.3501066951
0
LINE
5
23F
100
AcDbEntity
8
0
100
AcDbLine
62
7
6
CONTINUOUS
10
3.3523901878
20
15.4684225991
11
8.9746383538
21
18.3121164555
0
LINE
5
240
100
AcDbEntity
8
0
100
AcDbLine
62
7
6
CONTINUOUS
10
8.3687874087
20
18.6150419280
11
3.7725933310
21
16.3169448892
0
LINE
5
241
100
AcDbEntity
8
0
100
AcDbLine
62
7
6
CONTINUOUS
10
9.3247312137
20
18.0927632507
11
9.7953416860
21
18.3180077756
0
LINE
5
242
100
AcDbEntity
8
0
100
AcDbLine
62
7
6
CONTINUOUS
10
4.8982267992
20
14.0134476462
11
7.0195471428
21
15.0741078180
0
LINE
5
243
100
AcDbEntity
8
0
100
AcDbLine
62
9
6
CONTINUOUS
10
5.0100301981
20
14.0063471994
11
7.1313505416
21
15.0670073712
0
LINE
5
244
100
AcDbEntity
8
0
100
AcDbLine
62
9
6
CONTINUOUS
10
4.8982521592
20
14.0134603214
11
4.8984113013
21
14.0135396438
0
LINE
5
245
100
AcDbEntity
8
0
100
AcDbLine
62
7
6
CONTINUOUS
10
9.3261554005
20
17.1565435202
11
3.3523901878
21
14.2635017664
0
LINE
5
246
100
AcDbEntity
8
0
100
AcDbLine
62
7
6
CONTINUOUS
10
8.2601888019
20
14.5655903873
11
12.9595422009
21
16.7359075182
0
LINE
5
247
100
AcDbEntity
8
0
100
AcDbLine
62
7
6
CONTINUOUS
10
7.0236120792
20
10.9288324558
11
7.4912541736
21
11.0855133596
0
LINE
5
248
100
AcDbEntity
8
0
100
AcDbLine
62
7
6
CONTINUOUS
10
8.1927116059
20
13.0949812723
11
14.0708795126
21
16.2663877130
0
LINE
5
249
100
AcDbEntity
8
0
100
AcDbLine
62
7
6
CONTINUOUS
10
8.4282165222
20
12.7615811986
11
14.1143477448
21
15.7056618232
0
LINE
5
24A
100
AcDbEntity
8
0
100
AcDbLine
62
9
6
CONTINUOUS
10
6.3535330823
20
13.3345957573
11
8.4748534259
21
14.3952559291
0
LINE
5
24B
100
AcDbEntity
8
0
100
AcDbLine
62
9
6
CONTINUOUS
10
6.5303097776
20
13.0297010587
11
8.6516301212
21
14.0903612305
0
LINE
5
24C
100
AcDbEntity
8
0
100
AcDbLine
62
9
6
CONTINUOUS
10
5.4671369793
20
12.7518830176
11
5.3964707847
21
12.7180606224
0
LINE
5
24D
100
AcDbEntity
8
0
100
AcDbLine
62
9
6
CONTINUOUS
10
7.2374165588
20
11.9732345791
11
7.9445233400
21
12.3116714400
0
LINE
5
24E
100
AcDbEntity
8
0
100
AcDbLine
62
9
6
CONTINUOUS
10
7.3281222995
20
11.7628401205
11
8.0387336644
21
12.0979948743
0
LINE
5
24F
100
AcDbEntity
8
0
100
AcDbLine
62
9
6
CONTINUOUS
10
8.2027002452
20
12.2726684340
11
8.8282452564
21
12.5615668315
0
LINE
5
250
100
AcDbEntity
8
0
100
AcDbLine
62
9
6
CONTINUOUS
10
8.5438585650
20
11.6568022305
11
9.1819602071
21
11.9514987844
0
LINE
5
251
100
AcDbEntity
8
0
100
AcDbLine
62
9
6
CONTINUOUS
10
7.0236120792
20
10.9547020937
11
7.2593582159
21
11.0635813747
0
LINE
5
252
100
AcDbEntity
8
0
100
AcDbLine
62
9
6
CONTINUOUS
10
6.6698971285
20
11.5647701409
11
6.9182618969
21
11.6794357457
0
LINE
5
253
100
AcDbEntity
8
0
100
AcDbLine
62
9
6
CONTINUOUS
10
2.6291086629
20
9.5274486629
11
6.7360623969
21
10.9905436262
0
LINE
5
254
100
AcDbEntity
8
0
100
AcDbLine
62
9
6
CONTINUOUS
10
3.1257787198
20
8.5226330110
11
7.2327324537
21
9.9857279742
0
LINE
5
255
100
AcDbEntity
8
0
100
AcDbLine
62
7
6
CONTINUOUS
10
13.3805702898
20
-20.1273113275
11
14.1143477448
21
-20.4942000550
0
LINE
5
256
100
AcDbEntity
8
0
100
AcDbLine
62
7
6
CONTINUOUS
10
9.1819602071
20
-17.3241603148
11
10.4913328245
21
-17.9788466235
0
LINE
5
257
100
AcDbEntity
8
0
100
AcDbLine
62
7
6
CONTINUOUS
10
-28.5830028676
20
-6.1648598444
11
-28.5967871085
21
-6.1696790939
0
LINE
5
258
100
AcDbEntity
8
0
100
AcDbLine
62
9
6
CONTINUOUS
10
-28.3769544877
20
-6.1862344145
11
-28.3886842667
21
-6.1903353827
0
LINE
5
259
100
AcDbEntity
8
0
100
AcDbLine
62
7
6
CONTINUOUS
10
-8.6708135726
20
18.8019149196
11
-8.6708135726
21
18.7760452817
0
LINE
5
25A
100
AcDbEntity
8
0
100
AcDbLine
62
7
6
CONTINUOUS
10
-8.6042879664
20
20.1206859586
11
-8.6042879664
21
20.4719999307
0
LINE
5
25B
100
AcDbEntity
8
0
100
AcDbLine
62
9
6
CONTINUOUS
10
-8.5310646617
20
20.0322976109
11
-8.5310646617
21
20.3836115830
0
LINE
5
25C
100
AcDbEntity
8
0
100
AcDbLine
62
7
6
CONTINUOUS
10
-8.2192168515
20
18.5502469212
11
-8.2192168515
21
18.4681832503
0
LINE
5
25D
100
AcDbEntity
8
0
100
AcDbLine
62
7
6
CONTINUOUS
10
-7.8971811852
20
19.4202850740
11
-7.8971811852
21
19.6126240708
0
LINE
5
25E
100
AcDbEntity
8
0
100
AcDbLine
62
9
6
CONTINUOUS
10
-7.8239578805
20
19.3339475418
11
-7.8239578805
21
19.5760124185
0
LINE
5
25F
100
AcDbEntity
8
0
100
AcDbLine
62
9
6
CONTINUOUS
10
-7.1875617774
20
19.7118601409
11
-7.1875617774
21
19.3605461688
0
LINE
5
260
100
AcDbEntity
8
0
100
AcDbLine
62
9
6
CONTINUOUS
10
-6.8340083868
20
19.7118601409
11
-6.8340083868
21
19.3605461688
0
LINE
5
261
100
AcDbEntity
8
0
100
AcDbLine
62
9
6
CONTINUOUS
10
-6.4804549962
20
18.9640995594
11
-6.4804549962
21
18.6621960997
0
LINE
5
262
100
AcDbEntity
8
0
100
AcDbLine
62
7
6
CONTINUOUS
10
5.4646396988
20
-8.5345954545
11
5.7286032024
21
-8.6665772063
0
LINE
5
263
100
AcDbEntity
8
0
100
AcDbLine
62
9
6
CONTINUOUS
10
-6.1269016056
20
18.9640995594
11
-6.1269016056
21
18.6553936613
0
LINE
5
264
100
AcDbEntity
8
0
100
AcDbLine
62
9
6
CONTINUOUS
10
-5.4197948244
20
18.9938305222
11
-5.4197948244
21
19.3176529500
0
LINE
5
265
100
AcDbEntity
8
0
100
AcDbLine
62
7
6
CONTINUOUS
10
-5.3465715197
20
19.0774080766
11
-5.3465715197
21
19.4060412977
0
LINE
5
266
100
AcDbEntity
8
0
100
AcDbLine
62
9
6
CONTINUOUS
10
-4.7126880432
20
20.7725203127
11
-4.7126880432
21
20.4212063406
0
LINE
5
267
100
AcDbEntity
8
0
100
AcDbLine
62
7
6
CONTINUOUS
10
-4.6394647385
20
20.8609086603
11
-4.6394647385
21
20.5095946882
0
LINE
5
268
100
AcDbEntity
8
0
100
AcDbLine
62
9
6
CONTINUOUS
10
8.1213000353
20
13.0988822154
11
8.6516301212
21
13.7390472584
0
LINE
5
269
100
AcDbEntity
8
0
100
AcDbLine
62
7
6
CONTINUOUS
10
8.1370423781
20
13.0277825699
11
8.6673724640
21
13.6679476128
0
LINE
5
26A
100
AcDbEntity
8
0
100
AcDbLine
62
9
6
CONTINUOUS
10
-20.5987798946
20
-10.0753217111
11
-20.6105096737
21
-10.0794226792
0
LINE
5
26B
100
AcDbEntity
8
0
100
AcDbLine
62
9
6
CONTINUOUS
10
-20.2763171148
20
-10.6992328649
11
-20.3000436026
21
-10.7075281252
0
LINE
5
26C
100
AcDbEntity
8
0
100
AcDbLine
62
7
6
CONTINUOUS
10
-3.0226875012
20
17.2043907258
11
-3.0226875012
21
18.4039251335
0
LINE
5
26D
100
AcDbEntity
8
0
100
AcDbLine
62
9
6
CONTINUOUS
10
-2.8762408918
20
17.0298294025
11
-2.8762408918
21
18.2271484382
0
LINE
5
26E
100
AcDbEntity
8
0
100
AcDbLine
62
9
6
CONTINUOUS
10
-20.4775388338
20
-13.8234359122
11
-20.6016548396
21
-13.8668293798
0
LINE
5
26F
100
AcDbEntity
8
0
100
AcDbLine
62
7
6
CONTINUOUS
10
-20.6523582991
20
-14.1138480249
11
-20.7901927081
21
-14.1620377239
0
LINE
5
270
100
AcDbEntity
8
0
100
AcDbLine
62
7
6
CONTINUOUS
10
4.6452612240
20
-17.1173772805
11
5.2066510847
21
-22.3499682417
0
LINE
5
271
100
AcDbEntity
8
0
100
AcDbLine
62
9
6
CONTINUOUS
10
2.6432529607
20
15.4674015119
11
2.6432529607
21
14.2700824763
0
LINE
5
272
100
AcDbEntity
8
0
100
AcDbLine
62
7
6
CONTINUOUS
10
5.7286032024
20
-8.6665772063
11
7.4912541736
21
-25.0958577924
0
LINE
5
273
100
AcDbEntity
8
0
100
AcDbLine
62
9
6
CONTINUOUS
10
4.7600301981
20
-28.2123912473
11
4.7600303564
21
-28.2125319276
0
LINE
5
274
100
AcDbEntity
8
0
100
AcDbLine
62
9
6
CONTINUOUS
10
3.3523901878
20
15.4684225991
11
3.3523901878
21
14.2635017664
0
LINE
5
275
100
AcDbEntity
8
0
100
AcDbLine
62
7
6
CONTINUOUS
10
3.7725933310
20
20.8336796556
11
3.7725933310
21
19.9333245549
0
LINE
5
276
100
AcDbEntity
8
0
100
AcDbLine
62
7
6
CONTINUOUS
10
4.7600301981
20
-28.2123912351
11
4.7600301981
21
-27.8610772630
0
LINE
5
277
100
AcDbEntity
8
0
100
AcDbLine
62
7
6
CONTINUOUS
10
4.7600301981
20
13.4385268764
11
4.7600301981
21
13.7898408485
0
LINE
5
278
100
AcDbEntity
8
0
100
AcDbLine
62
9
6
CONTINUOUS
10
4.8332535028
20
-28.3007795827
11
4.8332535028
21
-27.9494656106
0
LINE
5
279
100
AcDbEntity
8
0
100
AcDbLine
62
9
6
CONTINUOUS
10
4.8332535028
20
13.3501385287
11
4.8332535028
21
13.7014525008
0
LINE
5
27A
100
AcDbEntity
8
0
100
AcDbLine
62
7
6
CONTINUOUS
10
5.4671369793
20
-26.7575238724
11
5.4671369793
21
-26.6922539927
0
LINE
5
27B
100
AcDbEntity
8
0
100
AcDbLine
62
7
6
CONTINUOUS
10
5.4671369793
20
12.7381266643
11
5.4671369793
21
12.9304649886
0
LINE
5
27C
100
AcDbEntity
8
0
100
AcDbLine
62
9
6
CONTINUOUS
10
5.5403602840
20
-26.8459122201
11
5.5403602840
21
-26.7288656450
0
LINE
5
27D
100
AcDbEntity
8
0
100
AcDbLine
62
9
6
CONTINUOUS
10
5.5403602840
20
12.6517884596
11
5.5403602840
21
12.8938533363
0
LINE
5
27E
100
AcDbEntity
8
0
100
AcDbLine
62
9
6
CONTINUOUS
10
-28.5668268798
20
22.9264828811
11
1.4682105193
21
7.9089641816
0
LINE
5
27F
100
AcDbEntity
8
0
100
AcDbLine
62
9
6
CONTINUOUS
10
6.1767563870
20
13.0297010587
11
6.1767563870
21
12.6783870866
0
LINE
5
280
100
AcDbEntity
8
0
100
AcDbLine
62
9
6
CONTINUOUS
10
6.1767563870
20
-28.6212170528
11
6.1767563870
21
-28.9725310249
0
LINE
5
281
100
AcDbEntity
8
0
100
AcDbLine
62
7
6
CONTINUOUS
10
6.2474670651
20
19.9208176484
11
6.2474670651
21
19.7257047033
0
LINE
5
282
100
AcDbEntity
8
0
100
AcDbLine
62
9
6
CONTINUOUS
10
6.5303097776
20
13.0297010587
11
6.5303097776
21
12.6783870866
0
LINE
5
283
100
AcDbEntity
8
0
100
AcDbLine
62
9
6
CONTINUOUS
10
6.5303097776
20
-28.6212170528
11
6.5303097776
21
-28.9725310249
0
LINE
5
284
100
AcDbEntity
8
0
100
AcDbLine
62
9
6
CONTINUOUS
10
6.8838631682
20
12.2819404772
11
6.8838631682
21
11.9800370174
0
LINE
5
285
100
AcDbEntity
8
0
100
AcDbLine
62
9
6
CONTINUOUS
10
6.8838631682
20
-27.3075712609
11
6.8838631682
21
-27.5176636622
0
LINE
5
286
100
AcDbEntity
8
0
100
AcDbLine
62
7
6
CONTINUOUS
10
7.0236120792
20
10.9547020937
11
7.0236120792
21
10.9288324558
0
LINE
5
287
100
AcDbEntity
8
0
100
AcDbLine
62
7
6
CONTINUOUS
10
7.0236120792
20
-27.0372809709
11
7.0236120792
21
-27.0114113330
0
LINE
5
288
100
AcDbEntity
8
0
100
AcDbLine
62
9
6
CONTINUOUS
10
7.2374165588
20
12.2819404772
11
7.2374165588
21
11.9732345791
0
LINE
5
289
100
AcDbEntity
8
0
100
AcDbLine
62
9
6
CONTINUOUS
10
7.2374165588
20
-27.2089577641
11
7.2374165588
21
-27.5176636622
0
LINE
5
28A
100
AcDbEntity
8
0
100
AcDbLine
62
7
6
CONTINUOUS
10
7.4912541736
20
11.0855133596
11
7.4912541736
21
9.4648756364
0
LINE
5
28B
100
AcDbEntity
8
0
100
AcDbLine
62
7
6
CONTINUOUS
10
7.4912541736
20
-25.0958577924
11
7.4912541736
21
-26.7164955156
0
LINE
5
28C
100
AcDbEntity
8
0
100
AcDbLine
62
9
6
CONTINUOUS
10
7.9445233400
20
-27.1641102716
11
7.9445233400
21
-26.8402878438
0
LINE
5
28D
100
AcDbEntity
8
0
100
AcDbLine
62
9
6
CONTINUOUS
10
7.9445233400
20
12.3116714400
11
7.9445233400
21
12.6354938678
0
LINE
5
28E
100
AcDbEntity
8
0
100
AcDbLine
62
7
6
CONTINUOUS
10
8.0177466447
20
-27.0757219239
11
8.0177466447
21
-26.7736666645
0
LINE
5
28F
100
AcDbEntity
8
0
100
AcDbLine
62
7
6
CONTINUOUS
10
8.0177466439
20
12.3952593809
11
8.0177466447
21
12.7238822154
0
LINE
5
290
100
AcDbEntity
8
0
100
AcDbLine
62
7
6
CONTINUOUS
10
7.2327324537
20
9.9857279742
11
3.6047591462
21
-28.0163727979
0
LINE
5
291
100
AcDbEntity
8
0
100
AcDbLine
62
7
6
CONTINUOUS
10
7.4912541736
20
9.4648756364
11
5.7286032024
21
-8.6665772063
0
LINE
5
292
100
AcDbEntity
8
0
100
AcDbLine
62
7
6
CONTINUOUS
10
6.3028323297
20
12.5219705452
11
6.8331624156
21
12.4121355882
0
LINE
5
293
100
AcDbEntity
8
0
100
AcDbLine
62
9
6
CONTINUOUS
10
-27.4228669897
20
24.5534364892
11
2.6291086629
21
9.5274486629
0
LINE
5
294
100
AcDbEntity
8
0
100
AcDbLine
62
9
6
CONTINUOUS
10
8.6516301212
20
14.0903612305
11
8.6516301212
21
13.7390472584
0
LINE
5
295
100
AcDbEntity
8
0
100
AcDbLine
62
9
6
CONTINUOUS
10
8.6516301212
20
-27.5605568810
11
8.6516301212
21
-27.9118708531
0
LINE
5
296
100
AcDbEntity
8
0
100
AcDbLine
62
7
6
CONTINUOUS
10
8.7248534259
20
14.1787495781
11
8.7248534259
21
13.8274356060
0
LINE
5
297
100
AcDbEntity
8
0
100
AcDbLine
62
7
6
CONTINUOUS
10
8.7248534259
20
-27.4721685333
11
8.7248534259
21
-27.8234825054
0
LINE
5
298
100
AcDbEntity
8
0
100
AcDbLine
62
7
6
CONTINUOUS
10
9.1819602071
20
-25.9497851023
11
9.1819602071
21
11.9514987844
0
LINE
5
299
100
AcDbEntity
8
0
100
AcDbLine
62
7
6
CONTINUOUS
10
9.3261554005
20
18.0568986208
11
9.3261554005
21
17.1565435202
0
LINE
5
29A
100
AcDbEntity
8
0
100
AcDbLine
62
9
6
CONTINUOUS
10
8.7248534259
20
-27.8234825176
11
8.7248532675
21
-27.8236231980
0
LINE
5
29B
100
AcDbEntity
8
0
100
AcDbLine
62
7
6
CONTINUOUS
10
6.2474670651
20
19.7257047033
11
4.4001961615
21
19.4082870342
0
LINE
5
29C
100
AcDbEntity
8
0
100
AcDbLine
62
9
6
CONTINUOUS
10
6.5303097776
20
12.6783870866
11
7.0606398635
21
12.5685521296
0
LINE
5
29D
100
AcDbEntity
8
0
100
AcDbLine
62
7
6
CONTINUOUS
10
7.1970513127
20
9.6119770669
11
7.4912541736
21
9.4648756364
0
LINE
5
29E
100
AcDbEntity
8
0
100
AcDbLine
62
7
6
CONTINUOUS
10
-23.4575694731
20
26.0873595611
11
6.7360623969
21
10.9905436262
0
LINE
5
29F
100
AcDbEntity
8
0
100
AcDbLine
62
7
6
CONTINUOUS
10
-8.6708135726
20
18.7760452817
11
7.0236120792
21
10.9288324558
0
LINE
5
2A0
100
AcDbEntity
8
0
100
AcDbLine
62
7
6
CONTINUOUS
10
6.6698971285
20
11.5647701409
11
-8.3170986219
21
19.0582680161
0
LINE
5
2A1
100
AcDbEntity
8
0
100
AcDbLine
62
9
6
CONTINUOUS
10
5.3964707847
20
12.4066650092
11
6.7399736690
21
11.7349135670
0
LINE
5
2A2
100
AcDbEntity
8
0
100
AcDbLine
62
9
6
CONTINUOUS
10
-6.6243444954
20
18.4170726493
11
-7.9678473797
21
19.0888240914
0
LINE
5
2A3
100
AcDbEntity
8
0
100
AcDbLine
62
9
6
CONTINUOUS
10
5.5403602840
20
12.6517884596
11
6.8838631682
21
11.9800370174
0
LINE
5
2A4
100
AcDbEntity
8
0
100
AcDbLine
62
9
6
CONTINUOUS
10
-6.4804549962
20
18.6621960997
11
-7.8239578805
21
19.3339475418
0
LINE
5
2A5
100
AcDbEntity
8
0
100
AcDbLine
62
7
6
CONTINUOUS
10
2.6432529607
20
14.2700824763
11
-2.8762408918
21
17.0298294025
0
LINE
5
2A6
100
AcDbEntity
8
0
100
AcDbLine
62
7
6
CONTINUOUS
10
-7.0614858347
20
19.2041296275
11
-6.5311557488
21
19.0942946704
0
LINE
5
2A7
100
AcDbEntity
8
0
100
AcDbLine
62
9
6
CONTINUOUS
10
-6.8340083868
20
19.3605461688
11
-6.3036783009
21
19.2507112118
0
LINE
5
2A8
100
AcDbEntity
8
0
100
AcDbLine
62
7
6
CONTINUOUS
10
6.2417296834
20
12.5431686365
11
4.8982267992
21
13.2149200786
0
LINE
5
2A9
100
AcDbEntity
8
0
100
AcDbLine
62
7
6
CONTINUOUS
10
-7.1225884810
20
19.2253277187
11
-8.4660913652
21
19.8970791608
0
LINE
5
2AA
100
AcDbEntity
8
0
100
AcDbLine
62
9
6
CONTINUOUS
10
-6.8891180639
20
19.1684310933
11
-6.4804549962
21
18.9640995594
0
LINE
5
2AB
100
AcDbEntity
8
0
100
AcDbLine
62
9
6
CONTINUOUS
10
6.4752001005
20
12.4862720111
11
6.8838631682
21
12.2819404772
0
LINE
5
2AC
100
AcDbEntity
8
0
100
AcDbLine
62
9
6
CONTINUOUS
10
6.1767563870
20
12.6783870866
11
4.8332535028
21
13.3501385287
0
LINE
5
2AD
100
AcDbEntity
8
0
100
AcDbLine
62
9
6
CONTINUOUS
10
-7.1875617774
20
19.3605461688
11
-8.5310646617
21
20.0322976109
0
LINE
5
2AE
100
AcDbEntity
8
0
100
AcDbLine
62
9
6
CONTINUOUS
10
-8.5310646617
20
20.3836115830
11
-7.1875617774
21
19.7118601409
0
LINE
5
2AF
100
AcDbEntity
8
0
100
AcDbLine
62
9
6
CONTINUOUS
10
4.8332535028
20
13.7014525008
11
6.1767563870
21
13.0297010587
0
LINE
5
2B0
100
AcDbEntity
8
0
100
AcDbLine
62
9
6
CONTINUOUS
10
-5.3486541378
20
19.0940089484
11
-5.2808416112
21
19.0601026850
0
LINE
5
2B1
100
AcDbEntity
8
0
100
AcDbLine
62
9
6
CONTINUOUS
10
8.0834765532
20
12.3779436028
11
8.0156859587
21
12.4118389001
0
LINE
5
2B2
100
AcDbEntity
8
0
100
AcDbLine
62
9
6
CONTINUOUS
10
-8.3542879664
20
20.6885062816
11
-7.0107850821
21
20.0167548395
0
LINE
5
2B3
100
AcDbEntity
8
0
100
AcDbLine
62
9
6
CONTINUOUS
10
5.0100301981
20
14.0063471994
11
6.3535330823
21
13.3345957573
0
LINE
5
2B4
100
AcDbEntity
8
0
100
AcDbLine
62
7
6
CONTINUOUS
10
2.6432529607
20
15.4674015119
11
-2.8762408918
21
18.2271484382
0
LINE
5
2B5
100
AcDbEntity
8
0
100
AcDbLine
62
7
6
CONTINUOUS
10
-5.2872274482
20
19.6193031838
11
-3.8765025006
21
18.9139407100
0
LINE
5
2B6
100
AcDbEntity
8
0
100
AcDbLine
62
7
6
CONTINUOUS
10
8.0770907162
20
12.9371441016
11
8.8282452564
21
12.5615668315
0
LINE
5
2B7
100
AcDbEntity
8
0
100
AcDbLine
62
7
6
CONTINUOUS
10
3.7725933310
20
16.3169448892
11
-1.1771541373
21
18.7918186233
0
LINE
5
2B8
100
AcDbEntity
8
0
100
AcDbLine
62
7
6
CONTINUOUS
10
13.3805702898
20
15.3257374240
11
13.3805702898
21
14.4307745606
0
LINE
5
2B9
100
AcDbEntity
8
0
100
AcDbLine
62
7
6
CONTINUOUS
10
13.3805702898
20
-18.4855353375
11
13.3805702898
21
-20.1273113275
0
LINE
5
2BA
100
AcDbEntity
8
0
100
AcDbLine
62
7
6
CONTINUOUS
10
14.1143477448
20
15.9873773086
11
14.1143477448
21
15.7056618232
0
LINE
5
2BB
100
AcDbEntity
8
0
100
AcDbLine
62
7
6
CONTINUOUS
10
14.1143477448
20
-20.4942000550
11
14.1143477448
21
-20.7759155404
0
LINE
5
2BC
100
AcDbEntity
8
0
100
AcDbLine
62
9
6
CONTINUOUS
10
-4.7776866997
20
21.0845281333
11
-4.7778458418
21
21.0846074557
0
LINE
5
2BD
100
AcDbEntity
8
0
100
AcDbLine
62
9
6
CONTINUOUS
10
-6.2329676228
20
21.7491664534
11
-4.8894647385
21
21.0774150113
0
LINE
5
2BE
100
AcDbEntity
8
0
100
AcDbLine
62
9
6
CONTINUOUS
10
7.1313505416
20
15.0670073712
11
8.4748534259
21
14.3952559291
0
LINE
5
2BF
100
AcDbEntity
8
0
100
AcDbLine
62
7
6
CONTINUOUS
10
-6.1211642239
20
21.7562669002
11
-4.7776613397
21
21.0845154581
0
LINE
5
2C0
100
AcDbEntity
8
0
100
AcDbLine
62
7
6
CONTINUOUS
10
7.2431539405
20
15.0741078180
11
8.5866568248
21
14.4023563759
0
LINE
5
2C1
100
AcDbEntity
8
0
100
AcDbLine
62
7
6
CONTINUOUS
10
9.1819602071
20
-22.2635796577
11
13.3805702898
21
-20.1273113275
0
LINE
5
2C2
100
AcDbEntity
8
0
100
AcDbLine
62
9
6
CONTINUOUS
10
4.0967835538
20
-22.8625418472
11
5.2066510847
21
-22.3499682417
0
LINE
5
2C3
100
AcDbEntity
8
0
100
AcDbLine
62
7
6
CONTINUOUS
10
4.0757602912
20
-23.0827551938
11
5.1061072784
21
-22.6069068106
0
LINE
5
2C4
100
AcDbEntity
8
0
100
AcDbLine
62
7
6
CONTINUOUS
10
4.4001961615
20
19.4082870342
11
7.1777368913
21
18.0195166693
0
LINE
5
2C5
100
AcDbEntity
8
0
100
AcDbLine
62
9
6
CONTINUOUS
10
2.8131889953
20
21.3928411347
11
3.4190399404
21
21.0899156622
0
LINE
5
2C6
100
AcDbEntity
8
0
100
AcDbLine
62
9
6
CONTINUOUS
10
8.3687874087
20
18.6150419280
11
8.9746383538
21
18.3121164555
0
LINE
5
2C7
100
AcDbEntity
8
0
100
AcDbLine
62
7
6
CONTINUOUS
10
9.4211007808
20
18.1388878455
11
9.3035073614
21
18.1976845552
0
LINE
5
2C8
100
AcDbEntity
8
0
100
AcDbLine
62
7
6
CONTINUOUS
10
8.4244123768
20
18.6372320475
11
6.2474670651
21
19.7257047033
0
LINE
5
2C9
100
AcDbEntity
8
0
100
AcDbLine
62
7
6
CONTINUOUS
10
3.0380774798
20
21.4064011849
11
3.6426467382
21
21.1041165558
0
LINE
5
2CA
100
AcDbEntity
8
0
100
AcDbLine
62
7
6
CONTINUOUS
10
8.5923942065
20
18.6292428216
11
9.1969634648
21
18.3269581925
0
LINE
5
2CB
100
AcDbEntity
8
0
100
AcDbLine
62
9
6
CONTINUOUS
10
2.3885004840
20
22.0214283766
11
5.5527009989
21
20.4393281192
0
LINE
5
2CC
100
AcDbEntity
8
0
100
AcDbLine
62
9
6
CONTINUOUS
10
9.7953416860
20
18.3180077756
11
12.9595422009
21
16.7359075182
0
LINE
5
2CD
100
AcDbEntity
8
0
100
AcDbLine
62
7
6
CONTINUOUS
10
2.6626666211
20
22.1241450780
11
5.9875738795
21
20.4616914488
0
LINE
5
2CE
100
AcDbEntity
8
0
100
AcDbLine
62
7
6
CONTINUOUS
10
10.2302145666
20
18.3403711052
11
13.5551218250
21
16.6779174760
0
LINE
5
2CF
100
AcDbEntity
8
0
100
AcDbLine
62
7
6
CONTINUOUS
10
4.8175111600
20
-27.7015892698
11
5.3478412459
21
-27.0614242269
0
LINE
5
2D0
100
AcDbEntity
8
0
100
AcDbLine
62
9
6
CONTINUOUS
10
4.9216418504
20
-27.7177714368
11
5.4519719363
21
-27.0776063939
0
LINE
5
2D1
100
AcDbEntity
8
0
100
AcDbLine
62
9
6
CONTINUOUS
10
6.7954748206
20
-27.7493578360
11
6.2651447347
21
-28.3895228789
0
LINE
5
2D2
100
AcDbEntity
8
0
100
AcDbLine
62
9
6
CONTINUOUS
10
7.0606398635
20
-27.9810520098
11
6.5303097776
21
-28.6212170528
0
LINE
5
2D3
100
AcDbEntity
8
0
100
AcDbLine
62
7
6
CONTINUOUS
10
9.1819602071
20
-23.0480184624
11
14.1143477448
21
-20.4942000550
0
LINE
5
2D4
100
AcDbEntity
8
0
100
AcDbLine
62
7
6
CONTINUOUS
10
9.1819602071
20
-23.6625283165
11
12.9595422009
21
-21.7591723387
0
LINE
5
2D5
100
AcDbEntity
8
0
100
AcDbLine
62
7
6
CONTINUOUS
10
9.1819602071
20
-23.5248786342
11
14.0708795126
21
-21.0999386171
0
LINE
5
2D6
100
AcDbEntity
8
0
100
AcDbLine
62
9
6
CONTINUOUS
10
3.6047591462
20
-28.0163727979
11
-0.4849310375
21
-29.2986364489
0
LINE
5
2D7
100
AcDbEntity
8
0
100
AcDbLine
62
7
6
CONTINUOUS
10
-0.8019762552
20
-29.7759523410
11
3.2921164619
21
-28.4923088950
0
LINE
5
2D8
100
AcDbEntity
8
0
100
AcDbLine
62
7
6
CONTINUOUS
10
7.4912541736
20
-26.7164955156
11
7.0236120792
21
-27.0114113330
0
LINE
5
2D9
100
AcDbEntity
8
0
100
AcDbLine
62
9
6
CONTINUOUS
10
7.9445233400
20
-26.8402878438
11
7.2374165588
21
-27.2089577641
0
LINE
5
2DA
100
AcDbEntity
8
0
100
AcDbLine
62
7
6
CONTINUOUS
10
8.1482554434
20
-26.7069860503
11
8.1481646347
21
-26.7070324779
0
LINE
5
2DB
100
AcDbEntity
8
0
100
AcDbLine
62
7
6
CONTINUOUS
10
7.4290292709
20
-27.0746499130
11
7.4289785827
21
-27.0746758300
0
LINE
5
2DC
100
AcDbEntity
8
0
100
AcDbLine
62
9
6
CONTINUOUS
10
7.0236120792
20
-27.0372809709
11
7.2593582192
21
-26.9185028541
0
LINE
5
2DD
100
AcDbEntity
8
0
100
AcDbLine
62
9
6
CONTINUOUS
10
8.5438585649
20
-26.2712961415
11
9.1819602071
21
-25.9497851023
0
LINE
5
2DE
100
AcDbEntity
8
0
100
AcDbLine
62
7
6
CONTINUOUS
10
6.8941162335
20
-27.3075712609
11
7.1370448504
21
-27.1851703082
0
LINE
5
2DF
100
AcDbEntity
8
0
100
AcDbLine
62
7
6
CONTINUOUS
10
8.4215120882
20
-26.5379842512
11
9.0524643614
21
-26.2200753924
0
LINE
5
2E0
100
AcDbEntity
8
0
100
AcDbLine
62
9
6
CONTINUOUS
10
6.5303097776
20
-28.9725310249
11
8.6516301212
21
-27.9118708531
0
LINE
5
2E1
100
AcDbEntity
8
0
100
AcDbLine
62
7
6
CONTINUOUS
10
6.4653364812
20
-29.1077494750
11
8.5866568248
21
-28.0470893032
0
ARC
5
2E2
100
AcDbEntity
8
0
100
AcDbCircle
62
7
6
CONTINUOUS
10
6.3535330823
20
12.7667754343
40
0.2500000000
100
AcDbArc
50
244.0406531095
51
258.6758098606
0
ARC
5
2E3
100
AcDbEntity
8
0
100
AcDbCircle
62
7
6
CONTINUOUS
10
-7.0107850821
20
19.4489345165
40
0.2500000000
100
AcDbArc
50
244.0406531095
51
258.6758098606
0
SPLINE
5
2E4
100
AcDbEntity
8
0
100
AcDbSpline
62
7
6
CONTINUOUS
70
0
71
3
72
10
73
6
74
4
42
0.0000001000
43
0.0000001000
44
0.0000000001
12
0.2576748736
22
-0.1288374312
32
0.0000000000
13
0.2719476452
23
0.0950784006
33
0.0000000000
40
0.0000000000
40
0.0000000000
40
0.0000000000
40
0.0000000000
40
0.3529807552
40
0.6818518135
40
1.0000000000
40
1.0000000000
40
1.0000000000
40
1.0000000000
10
-21.0705033347
20
-14.1397353763
30
0.0000000000
10
-21.0401852442
20
-14.1548944209
30
0.0000000000
10
-20.9776821951
20
-14.1771933701
30
0.0000000000
10
-20.8808591585
20
-14.1845495507
30
0.0000000000
10
-20.8190325914
20
-14.1721207308
30
0.0000000000
10
-20.7901927081
20
-14.1620377239
30
0.0000000000
11
-21.0705033347
21
-14.1397353763
31
0.0000000000
11
-20.9745299034
21
-14.1733501005
31
0.0000000000
11
-20.8800327372
21
-14.1801877179
31
0.0000000000
11
-20.7901927081
21
-14.1620377239
31
0.0000000000
0
SPLINE
5
2E5
100
AcDbEntity
8
0
100
AcDbSpline
62
7
6
CONTINUOUS
70
0
71
3
72
13
73
9
74
7
42
0.0000001000
43
0.0000001000
44
0.0000000001
12
-0.0648661723
22
-0.6794568192
32
0.0000000000
13
0.6104877978
23
-0.3052438990
33
0.0000000000
40
0.0000000000
40
0.0000000000
40
0.0000000000
40
0.0000000000
40
0.1691300283
40
0.3409924045
40
0.5123290647
40
0.6814842785
40
0.8452572996
40
1.0000000000
40
1.0000000000
40
1.0000000000
40
1.0000000000
10
-29.1446096332
20
-9.6758922577
30
0.0000000000
10
-29.1482665724
20
-9.7141977747
30
0.0000000000
10
-29.1473091790
20
-9.7923991764
30
0.0000000000
10
-29.1237201793
20
-9.9071767636
30
0.0000000000
10
-29.0799801073
20
-10.0159102941
30
0.0000000000
10
-29.0181764327
20
-10.1133869605
30
0.0000000000
10
-28.9410759483
20
-10.1942193521
30
0.0000000000
10
-28.8801674443
20
-10.2349033215
30
0.0000000000
10
-28.8486779341
20
-10.2506480766
30
0.0000000000
11
-29.1446096332
21
-9.6758922577
31
0.0000000000
11
-29.1436899783
21
-9.7913276369
31
0.0000000000
11
-29.1203112879
21
-9.9062783407
31
0.0000000000
11
-29.0765873583
21
-10.0147421176
31
0.0000000000
11
-29.0144625152
21
-10.1120593594
31
0.0000000000
11
-28.9368587281
21
-10.1925143804
31
0.0000000000
11
-28.8486779341
21
-10.2506480766
31
0.0000000000
0
SPLINE
5
2E6
100
AcDbEntity
8
0
100
AcDbSpline
62
7
6
CONTINUOUS
70
0
71
3
72
8
73
4
74
2
42
0.0000001000
43
0.0000001000
44
0.0000000001
12
-0.0504585023
22
-0.0176413136
32
0.0000000000
13
-0.0471640302
23
-0.0255189318
33
0.0000000000
40
0.0000000000
40
0.0000000000
40
0.0000000000
40
0.0000000000
40
1.0000000000
40
1.0000000000
40
1.0000000000
40
1.0000000000
10
-28.5967871085
20
-6.1696790939
30
0.0000000000
10
-28.6136066092
20
-6.1755595318
30
0.0000000000
10
-28.6299948601
20
-6.1828185337
30
0.0000000000
10
-28.6457162035
20
-6.1913248443
30
0.0000000000
11
-28.5967871085
21
-6.1696790939
31
0.0000000000
11
-28.6457162035
21
-6.1913248443
31
0.0000000000
0
SPLINE
5
2E7
100
AcDbEntity
8
0
100
AcDbSpline
62
7
6
CONTINUOUS
70
0
71
3
72
12
73
8
74
6
42
0.0000001000
43
0.0000001000
44
0.0000000001
12
-0.3488823720
22
-0.1887689714
32
0.0000000000
13
-0.0375777341
23
-0.3936172393
33
0.0000000000
40
0.0000000000
40
0.0000000000
40
0.0000000000
40
0.0000000000
40
0.0686007446
40
0.2795027155
40
0.5036480363
40
0.7445193415
40
1.0000000000
40
1.0000000000
40
1.0000000000
40
1.0000000000
10
-28.6457162035
20
-6.1913248443
30
0.0000000000
10
-28.6536940670
20
-6.1956414083
30
0.0000000000
10
-28.6854988827
20
-6.2145372097
30
0.0000000000
10
-28.7367511469
20
-6.2576811040
30
0.0000000000
10
-28.7899014028
20
-6.3302222842
30
0.0000000000
10
-28.8273875606
20
-6.4182998174
30
0.0000000000
10
-28.8397982674
20
-6.4830704647
30
0.0000000000
10
-28.8429983954
20
-6.5165909952
30
0.0000000000
11
-28.6457162035
21
-6.1913248443
31
0.0000000000
11
-28.6691037937
21
-6.2052209675
31
0.0000000000
11
-28.7330388523
21
-6.2587611369
31
0.0000000000
11
-28.7857116231
21
-6.3300395287
31
0.0000000000
11
-28.8234685666
21
-6.4174779948
31
0.0000000000
11
-28.8429983954
21
-6.5165909952
31
0.0000000000
0
SPLINE
5
2E8
100
AcDbEntity
8
0
100
AcDbSpline
62
9
6
CONTINUOUS
70
0
71
3
72
10
73
6
74
4
42
0.0000001000
43
0.0000001000
44
0.0000000001
12
0.1722669667
22
0.0600476021
32
0.0000000000
13
0.0917079544
23
0.1573086304
33
0.0000000000
40
0.0000000000
40
0.0000000000
40
0.0000000000
40
0.0000000000
40
0.1289409513
40
0.5494032604
40
1.0000000000
40
1.0000000000
40
1.0000000000
40
1.0000000000
10
-20.7901970689
20
-14.1620155163
30
0.0000000000
10
-20.7827929801
20
-14.1594346513
30
0.0000000000
10
-20.7518265497
20
-14.1467971993
30
0.0000000000
10
-20.7014555010
20
-14.1113139892
30
0.0000000000
10
-20.6691380326
20
-14.0687766251
30
0.0000000000
10
-20.6553635975
20
-14.0451490398
30
0.0000000000
11
-20.7901970689
21
-14.1620155163
31
0.0000000000
11
-20.7684391362
21
-14.1531251192
31
0.0000000000
11
-20.7056665973
21
-14.1096735881
31
0.0000000000
11
-20.6553635975
21
-14.0451490398
31
0.0000000000
0
SPLINE
5
2E9
100
AcDbEntity
8
0
100
AcDbSpline
62
9
6
CONTINUOUS
70
0
71
3
72
9
73
5
74
3
42
0.0000001000
43
0.0000001000
44
0.0000000001
12
0.0946056971
22
0.1622791909
32
0.0000000000
13
0.0178010344
23
0.1864613255
33
0.0000000000
40
0.0000000000
40
0.0000000000
40
0.0000000000
40
0.0000000000
40
0.4780374697
40
1.0000000000
40
1.0000000000
40
1.0000000000
40
1.0000000000
10
-20.6553635975
20
-14.0451490398
30
0.0000000000
10
-20.6402885748
20
-14.0192905286
30
0.0000000000
10
-20.6161280175
20
-13.9611306510
30
0.0000000000
10
-20.6047519973
20
-13.8992713216
30
0.0000000000
10
-20.6016548396
20
-13.8668293798
30
0.0000000000
11
-20.6553635975
21
-14.0451490398
31
0.0000000000
11
-20.6201107916
21
-13.9628399291
31
0.0000000000
11
-20.6016548396
21
-13.8668293798
31
0.0000000000
0
SPLINE
5
2EA
100
AcDbEntity
8
0
100
AcDbSpline
62
9
6
CONTINUOUS
70
0
71
3
72
11
73
7
74
5
42
0.0000001000
43
0.0000001000
44
0.0000000001
12
-0.0139879510
22
-0.1465203736
32
0.0000000000
13
0.1330184637
23
-0.0656796547
33
0.0000000000
40
0.0000000000
40
0.0000000000
40
0.0000000000
40
0.0000000000
40
0.3628540777
40
0.6748453604
40
0.9455752738
40
1.0000000000
40
1.0000000000
40
1.0000000000
40
1.0000000000
10
-21.1214278449
20
-14.0099251569
30
0.0000000000
10
-21.1231197065
20
-14.0276469952
30
0.0000000000
10
-21.1227318003
20
-14.0611640196
30
0.0000000000
10
-21.1085266268
20
-14.1062849432
30
0.0000000000
10
-21.0869171838
20
-14.1306312297
30
0.0000000000
10
-21.0729021456
20
-14.1385147445
30
0.0000000000
10
-21.0704889812
20
-14.1397062769
30
0.0000000000
11
-21.1214278449
21
-14.0099251569
31
0.0000000000
11
-21.1198837476
21
-14.0633100735
31
0.0000000000
11
-21.1047508166
21
-14.1066658753
31
0.0000000000
11
-21.0775101617
21
-14.1357484164
31
0.0000000000
11
-21.0704889812
21
-14.1397062769
31
0.0000000000
0
SPLINE
5
2EB
100
AcDbEntity
8
0
100
AcDbSpline
62
9
6
CONTINUOUS
70
0
71
3
72
14
73
10
74
8
42
0.0000001000
43
0.0000001000
44
0.0000000001
12
0.3128674751
22
-0.1564337375
32
0.0000000000
13
0.0332431193
23
0.3482132482
33
0.0000000000
40
0.0000000000
40
0.0000000000
40
0.0000000000
40
0.0000000000
40
0.1446138322
40
0.2786082170
40
0.4074148471
40
0.5385691481
40
0.6791067046
40
0.8328955203
40
1.0000000000
40
1.0000000000
40
1.0000000000
40
1.0000000000
10
-21.1214278449
20
-14.0099251569
30
0.0000000000
10
-21.1063461900
20
-14.0174659843
30
0.0000000000
10
-21.0754332426
20
-14.0287730578
30
0.0000000000
10
-21.0272637850
20
-14.0317770585
30
0.0000000000
10
-20.9821289037
20
-14.0192300023
30
0.0000000000
10
-20.9432691127
20
-13.9918414494
30
0.0000000000
10
-20.9128838441
20
-13.9517920381
30
0.0000000000
10
-20.8920995250
20
-13.9016596916
30
0.0000000000
10
-20.8852951102
20
-13.8645899216
30
0.0000000000
10
-20.8834434188
20
-13.8451939237
30
0.0000000000
11
-21.1214278449
21
-14.0099251569
31
0.0000000000
11
-21.0737087249
21
-14.0267111366
31
0.0000000000
11
-21.0269007114
21
-14.0291356555
31
0.0000000000
11
-20.9835173036
21
-14.0169729053
31
0.0000000000
11
-20.9458012756
21
-13.9908533924
31
0.0000000000
11
-20.9155997840
21
-13.9520651157
31
0.0000000000
11
-20.8944562957
21
-13.9025996551
31
0.0000000000
11
-20.8834434188
21
-13.8451939237
31
0.0000000000
0
SPLINE
5
2EC
100
AcDbEntity
8
0
100
AcDbSpline
62
9
6
CONTINUOUS
70
0
71
3
72
11
73
7
74
5
42
0.0000001000
43
0.0000001000
44
0.0000000001
12
-0.0139879639
22
-0.1465203763
32
0.0000000000
13
0.1330184328
23
-0.0656796380
33
0.0000000000
40
0.0000000000
40
0.0000000000
40
0.0000000000
40
0.0000000000
40
0.3628572937
40
0.6748492271
40
0.9455784895
40
1.0000000000
40
1.0000000000
40
1.0000000000
40
1.0000000000
10
-28.8996024379
20
-10.1208378604
30
0.0000000000
10
-28.9012943162
20
-10.1385598561
30
0.0000000000
10
-28.9009063814
20
-10.1720770819
30
0.0000000000
10
-28.8867009833
20
-10.2171981252
30
0.0000000000
10
-28.8650914830
20
-10.2415441481
30
0.0000000000
10
-28.8510765919
20
-10.2494275248
30
0.0000000000
10
-28.8486635705
20
-10.2506189865
30
0.0000000000
11
-28.8996024379
21
-10.1208378604
31
0.0000000000
11
-28.8980582626
21
-10.1742232496
31
0.0000000000
11
-28.8829251202
21
-10.2175790804
31
0.0000000000
11
-28.8556843481
21
-10.2466613818
31
0.0000000000
11
-28.8486635705
21
-10.2506189865
31
0.0000000000
0
SPLINE
5
2ED
100
AcDbEntity
8
0
100
AcDbSpline
62
9
6
CONTINUOUS
70
0
71
3
72
10
73
6
74
4
42
0.0000001000
43
0.0000001000
44
0.0000000001
12
-0.0842057470
22
0.0421028616
32
0.0000000000
13
0.0074557948
23
0.0956755668
33
0.0000000000
40
0.0000000000
40
0.0000000000
40
0.0000000000
40
0.0000000000
40
0.4684165818
40
0.8193684956
40
1.0000000000
40
1.0000000000
40
1.0000000000
40
1.0000000000
10
-29.0858820805
20
-9.7439745928
30
0.0000000000
10
-29.0990298699
20
-9.7374006999
30
0.0000000000
10
-29.1209558326
20
-9.7238598958
30
0.0000000000
10
-29.1425403893
20
-9.6991313035
30
0.0000000000
10
-29.1447979982
20
-9.6816732488
30
0.0000000000
10
-29.1443490811
20
-9.6759125749
30
0.0000000000
11
-29.0858820805
21
-9.7439745928
31
0.0000000000
11
-29.1227133463
21
-9.7197221339
31
0.0000000000
11
-29.1421995773
21
-9.6930397432
31
0.0000000000
11
-29.1443490811
21
-9.6759125749
31
0.0000000000
0
SPLINE
5
2EE
100
AcDbEntity
8
0
100
AcDbSpline
62
9
6
CONTINUOUS
70
0
71
3
72
14
73
10
74
8
42
0.0000001000
43
0.0000001000
44
0.0000000001
12
-0.0420703671
22
-0.4406764317
32
0.0000000000
13
0.3959450802
23
-0.1979725401
33
0.0000000000
40
0.0000000000
40
0.0000000000
40
0.0000000000
40
0.0000000000
40
0.1417254874
40
0.2907070835
40
0.4426621109
40
0.5931788390
40
0.7384138343
40
0.8748756731
40
1.0000000000
40
1.0000000000
40
1.0000000000
40
1.0000000000
10
-29.0858820805
20
-9.7439745928
30
0.0000000000
10
-29.0878695616
20
-9.7647929535
30
0.0000000000
10
-29.0879674829
20
-9.8079378653
30
0.0000000000
10
-29.0776434454
20
-9.8726808973
30
0.0000000000
10
-29.0573406062
20
-9.9363925292
30
0.0000000000
10
-29.0280529319
20
-9.9958876986
30
0.0000000000
10
-28.9911816540
20
-10.0482803878
30
0.0000000000
10
-28.9485519741
20
-10.0909829648
30
0.0000000000
10
-28.9161165585
20
-10.1125808001
30
0.0000000000
10
-28.8996024379
20
-10.1208378604
30
0.0000000000
11
-29.0858820805
21
-9.7439745928
31
0.0000000000
11
-29.0863303127
21
-9.8067120385
31
0.0000000000
11
-29.0761160349
21
-9.8718674440
31
0.0000000000
11
-29.0557151823
21
-9.9359667141
31
0.0000000000
11
-29.0261837250
21
-9.9956956885
31
0.0000000000
11
-28.9889746438
21
-10.0481268560
31
0.0000000000
11
-28.9459965741
21
-10.0905782978
31
0.0000000000
11
-28.8996024379
21
-10.1208378604
31
0.0000000000
0
SPLINE
5
2EF
100
AcDbEntity
8
0
100
AcDbSpline
62
9
6
CONTINUOUS
70
0
71
3
72
10
73
6
74
4
42
0.0000001000
43
0.0000001000
44
0.0000000001
12
-0.0842057600
22
0.0421028800
32
0.0000000000
13
0.0074559578
23
0.0956756494
33
0.0000000000
40
0.0000000000
40
0.0000000000
40
0.0000000000
40
0.0000000000
40
0.4684204177
40
0.8193724402
40
1.0000000000
40
1.0000000000
40
1.0000000000
40
1.0000000000
10
-28.7842708435
20
-6.5846733382
30
0.0000000000
10
-28.7974187426
20
-6.5780993886
30
0.0000000000
10
-28.8193448111
20
-6.5645585108
30
0.0000000000
10
-28.8409292807
20
-6.5398297734
30
0.0000000000
10
-28.8431867515
20
-6.5223718536
30
0.0000000000
10
-28.8427378344
20
-6.5166113006
30
0.0000000000
11
-28.7842708435
21
-6.5846733382
31
0.0000000000
11
-28.8211023851
21
-6.5604206246
31
0.0000000000
11
-28.8405884770
21
-6.5337381110
31
0.0000000000
11
-28.8427378344
21
-6.5166113006
31
0.0000000000
0
SPLINE
5
2F0
100
AcDbEntity
8
0
100
AcDbSpline
62
9
6
CONTINUOUS
70
0
71
3
72
11
73
7
74
5
42
0.0000001000
43
0.0000001000
44
0.0000000001
12
0.0193110969
22
0.2022790290
32
0.0000000000
13
0.1424246854
23
0.1454132564
33
0.0000000000
40
0.0000000000
40
0.0000000000
40
0.0000000000
40
0.0000000000
40
0.2925853360
40
0.5997267169
40
0.9029339476
40
1.0000000000
40
1.0000000000
40
1.0000000000
40
1.0000000000
10
-28.5462864174
20
-6.4199421049
30
0.0000000000
10
-28.5444030362
20
-6.4002141457
30
0.0000000000
10
-28.5356689707
20
-6.3601670774
30
0.0000000000
10
-28.5111943839
20
-6.3037595987
30
0.0000000000
10
-28.4840597166
20
-6.2638813384
30
0.0000000000
10
-28.4657949254
20
-6.2437558575
30
0.0000000000
10
-28.4611867247
20
-6.2390509606
30
0.0000000000
11
-28.5462864174
21
-6.4199421049
31
0.0000000000
11
-28.5340906559
21
-6.3617534557
31
0.0000000000
11
-28.5093486477
21
-6.3044565681
31
0.0000000000
11
-28.4744821271
21
-6.2536601014
31
0.0000000000
11
-28.4611867247
21
-6.2390509606
31
0.0000000000
0
SPLINE
5
2F1
100
AcDbEntity
8
0
100
AcDbSpline
62
9
6
CONTINUOUS
70
0
71
3
72
9
73
5
74
3
42
0.0000001000
43
0.0000001000
44
0.0000000001
12
0.0615528457
22
0.0628444410
32
0.0000000000
13
0.0828976270
23
0.0289826803
33
0.0000000000
40
0.0000000000
40
0.0000000000
40
0.0000000000
40
0.0000000000
40
0.4270720572
40
1.0000000000
40
1.0000000000
40
1.0000000000
40
1.0000000000
10
-28.4611867247
20
-6.2390509606
30
0.0000000000
10
-28.4524242246
20
-6.2301045924
30
0.0000000000
10
-28.4303911573
20
-6.2106424553
30
0.0000000000
10
-28.4045157217
20
-6.1958703788
30
0.0000000000
10
-28.3886842661
20
-6.1903353830
30
0.0000000000
11
-28.4611867247
21
-6.2390509606
31
0.0000000000
11
-28.4329039982
21
-6.2143365452
31
0.0000000000
11
-28.3886842661
21
-6.1903353830
31
0.0000000000
0
SPLINE
5
2F2
100
AcDbEntity
8
0
100
AcDbSpline
62
9
6
CONTINUOUS
70
0
71
3
72
8
73
4
74
2
42
0.0000001000
43
0.0000001000
44
0.0000000001
12
-0.0260042631
22
0.0130021316
32
0.0000000000
13
-0.0270657256
23
0.0108453684
33
0.0000000000
40
0.0000000000
40
0.0000000000
40
0.0000000000
40
0.0000000000
40
1.0000000000
40
1.0000000000
40
1.0000000000
40
1.0000000000
10
-28.3886842667
20
-6.1903353827
30
0.0000000000
10
-28.3973523544
20
-6.1860013388
30
0.0000000000
10
-28.4062117024
20
-6.1819987289
30
0.0000000000
10
-28.4152336109
20
-6.1783836061
30
0.0000000000
11
-28.3886842667
21
-6.1903353827
31
0.0000000000
11
-28.4152336109
21
-6.1783836061
31
0.0000000000
0
SPLINE
5
2F3
100
AcDbEntity
8
0
100
AcDbSpline
62
9
6
CONTINUOUS
70
0
71
3
72
8
73
4
74
2
42
0.0000001000
43
0.0000001000
44
0.0000000001
12
-0.0516425682
22
0.0206934293
32
0.0000000000
13
-0.0545954173
23
0.0110611343
33
0.0000000000
40
0.0000000000
40
0.0000000000
40
0.0000000000
40
0.0000000000
40
1.0000000000
40
1.0000000000
40
1.0000000000
40
1.0000000000
10
-28.4152336109
20
-6.1783836061
30
0.0000000000
10
-28.4324478003
20
-6.1714857963
30
0.0000000000
10
-28.4502538122
20
-6.1659986830
30
0.0000000000
10
-28.4684522846
20
-6.1623116383
30
0.0000000000
11
-28.4152336109
21
-6.1783836061
31
0.0000000000
11
-28.4684522846
21
-6.1623116383
31
0.0000000000
0
SPLINE
5
2F4
100
AcDbEntity
8
0
100
AcDbSpline
62
9
6
CONTINUOUS
70
0
71
3
72
8
73
4
74
2
42
0.0000001000
43
0.0000001000
44
0.0000000001
12
-0.0261475183
22
0.0052975364
32
0.0000000000
13
-0.0265460509
23
0.0027140739
33
0.0000000000
40
0.0000000000
40
0.0000000000
40
0.0000000000
40
0.0000000000
40
1.0000000000
40
1.0000000000
40
1.0000000000
40
1.0000000000
10
-28.4684522846
20
-6.1623116383
30
0.0000000000
10
-28.4771681241
20
-6.1605457928
30
0.0000000000
10
-28.4859739847
20
-6.1591928404
30
0.0000000000
10
-28.4948226683
20
-6.1582881491
30
0.0000000000
11
-28.4684522846
21
-6.1623116383
31
0.0000000000
11
-28.4948226683
21
-6.1582881491
31
0.0000000000
0
SPLINE
5
2F5
100
AcDbEntity
8
0
100
AcDbSpline
62
9
6
CONTINUOUS
70
0
71
3
72
9
73
5
74
3
42
0.0000001000
43
0.0000001000
44
0.0000000001
12
-0.1029102987
22
0.0105215707
32
0.0000000000
13
-0.0977184294
23
-0.0340604503
33
0.0000000000
40
0.0000000000
40
0.0000000000
40
0.0000000000
40
0.0000000000
40
0.4994038040
40
1.0000000000
40
1.0000000000
40
1.0000000000
40
1.0000000000
10
-28.4948226683
20
-6.1582881491
30
0.0000000000
10
-28.5119539332
20
-6.1565366450
30
0.0000000000
10
-28.5465787671
20
-6.1563938014
30
0.0000000000
10
-28.5804739093
20
-6.1640167405
30
0.0000000000
10
-28.5967797340
20
-6.1697002511
30
0.0000000000
11
-28.4948226683
21
-6.1582881491
31
0.0000000000
11
-28.5463554926
21
-6.1583307902
31
0.0000000000
11
-28.5967797340
21
-6.1697002511
31
0.0000000000
0
SPLINE
5
2F6
100
AcDbEntity
8
0
100
AcDbSpline
62
9
6
CONTINUOUS
70
0
71
3
72
14
73
10
74
8
42
0.0000001000
43
0.0000001000
44
0.0000000001
12
-0.3128674751
22
0.1564337375
32
0.0000000000
13
-0.0332431193
23
-0.3482132482
33
0.0000000000
40
0.0000000000
40
0.0000000000
40
0.0000000000
40
0.0000000000
40
0.1446138322
40
0.2786082170
40
0.4074148471
40
0.5385691481
40
0.6791067046
40
0.8328955203
40
1.0000000000
40
1.0000000000
40
1.0000000000
40
1.0000000000
10
-28.5462864174
20
-6.4199421049
30
0.0000000000
10
-28.5613680723
20
-6.4124012775
30
0.0000000000
10
-28.5922810197
20
-6.4010942040
30
0.0000000000
10
-28.6404504773
20
-6.3980902034
30
0.0000000000
10
-28.6855853586
20
-6.4106372595
30
0.0000000000
10
-28.7244451496
20
-6.4380258125
30
0.0000000000
10
-28.7548304182
20
-6.4780752237
30
0.0000000000
10
-28.7756147373
20
-6.5282075702
30
0.0000000000
10
-28.7824191522
20
-6.5652773403
30
0.0000000000
10
-28.7842708435
20
-6.5846733382
30
0.0000000000
11
-28.5462864174
21
-6.4199421049
31
0.0000000000
11
-28.5940055374
21
-6.4031561253
31
0.0000000000
11
-28.6408135509
21
-6.4007316063
31
0.0000000000
11
-28.6841969587
21
-6.4128943565
31
0.0000000000
11
-28.7219129867
21
-6.4390138695
31
0.0000000000
11
-28.7521144783
21
-6.4778021461
31
0.0000000000
11
-28.7732579666
21
-6.5272676067
31
0.0000000000
11
-28.7842708435
21
-6.5846733382
31
0.0000000000
0
SPLINE
5
2F7
100
AcDbEntity
8
0
100
AcDbSpline
62
9
6
CONTINUOUS
70
0
71
3
72
11
73
7
74
5
42
0.0000001000
43
0.0000001000
44
0.0000000001
12
0.0193111771
22
0.2022796850
32
0.0000000000
13
0.1424255136
23
0.1454133718
33
0.0000000000
40
0.0000000000
40
0.0000000000
40
0.0000000000
40
0.0000000000
40
0.2925872913
40
0.5997289709
40
0.9029347365
40
1.0000000000
40
1.0000000000
40
1.0000000000
40
1.0000000000
10
-20.7681118244
20
-10.3090294015
30
0.0000000000
10
-20.7662284227
20
-10.2893012464
30
0.0000000000
10
-20.7574942461
20
-10.2492539014
30
0.0000000000
10
-20.7330194315
20
-10.1928462435
30
0.0000000000
10
-20.7058846500
20
-10.1529680325
30
0.0000000000
10
-20.6876198502
20
-10.1328426467
30
0.0000000000
10
-20.6830116602
20
-10.1281377842
30
0.0000000000
11
-20.7681118244
21
-10.3090294015
31
0.0000000000
11
-20.7559158779
21
-10.2508401875
31
0.0000000000
11
-20.7311736339
21
-10.1935431146
31
0.0000000000
11
-20.6963070355
21
-10.1427468195
31
0.0000000000
11
-20.6830116602
21
-10.1281377842
31
0.0000000000
0
SPLINE
5
2F8
100
AcDbEntity
8
0
100
AcDbSpline
62
9
6
CONTINUOUS
70
0
71
3
72
9
73
5
74
3
42
0.0000001000
43
0.0000001000
44
0.0000000001
12
0.0615525382
22
0.0628438115
32
0.0000000000
13
0.0828969979
23
0.0289824682
33
0.0000000000
40
0.0000000000
40
0.0000000000
40
0.0000000000
40
0.0000000000
40
0.4270724286
40
1.0000000000
40
1.0000000000
40
1.0000000000
40
1.0000000000
10
-20.6830116602
20
-10.1281377842
30
0.0000000000
10
-20.6742491962
20
-10.1191914978
30
0.0000000000
10
-20.6522162524
20
-10.0997295578
30
0.0000000000
10
-20.6263409989
20
-10.0849576309
30
0.0000000000
10
-20.6105096737
20
-10.0794226792
30
0.0000000000
11
-20.6830116602
21
-10.1281377842
31
0.0000000000
11
-20.6547290684
21
-10.1034235974
31
0.0000000000
11
-20.6105096737
21
-10.0794226792
31
0.0000000000
0
SPLINE
5
2F9
100
AcDbEntity
8
0
100
AcDbSpline
62
9
6
CONTINUOUS
70
0
71
3
72
12
73
8
74
6
42
0.0000001000
43
0.0000001000
44
0.0000000001
12
0.2579442133
22
-0.1289720702
32
0.0000000000
13
0.2722319027
23
0.0951777454
33
0.0000000000
40
0.0000000000
40
0.0000000000
40
0.0000000000
40
0.0000000000
40
0.1878773572
40
0.3984016223
40
0.6152054202
40
0.8209310001
40
1.0000000000
40
1.0000000000
40
1.0000000000
40
1.0000000000
10
-20.5818321818
20
-10.6858926690
30
0.0000000000
10
-20.5656782227
20
-10.6939696463
30
0.0000000000
10
-20.5295214519
20
-10.7073150104
30
0.0000000000
10
-20.4714965749
20
-10.7194860456
30
0.0000000000
10
-20.4106349231
20
-10.7242027821
30
0.0000000000
10
-20.3527399407
20
-10.7210272287
30
0.0000000000
10
-20.3162930342
20
-10.7132092539
30
0.0000000000
10
-20.3000436027
20
-10.7075281260
30
0.0000000000
11
-20.5818321818
21
-10.6858926690
31
0.0000000000
11
-20.5312610573
21
-10.7053413952
31
0.0000000000
11
-20.4718998870
21
-10.7180827001
31
0.0000000000
11
-20.4095592451
21
-10.7228692646
31
0.0000000000
11
-20.3503415390
21
-10.7192324312
31
0.0000000000
11
-20.3000436027
21
-10.7075281260
31
0.0000000000
0
SPLINE
5
2FA
100
AcDbEntity
8
0
100
AcDbSpline
62
9
6
CONTINUOUS
70
0
71
3
72
13
73
9
74
7
42
0.0000001000
43
0.0000001000
44
0.0000000001
12
0.0582024285
22
0.6096556805
32
0.0000000000
13
-0.4494588367
23
0.4172791002
33
0.0000000000
40
0.0000000000
40
0.0000000000
40
0.0000000000
40
0.0000000000
40
0.1712604516
40
0.3505202473
40
0.5332957333
40
0.7143540296
40
0.8891213376
40
1.0000000000
40
1.0000000000
40
1.0000000000
40
1.0000000000
10
-20.3000436026
20
-10.7075281252
30
0.0000000000
10
-20.2967210112
20
-10.6727248228
30
0.0000000000
10
-20.2965791770
20
-10.6007521502
30
0.0000000000
10
-20.3138212448
20
-10.4928517422
30
0.0000000000
10
-20.3476253047
20
-10.3868232124
30
0.0000000000
10
-20.3963596645
20
-10.2878009499
30
0.0000000000
10
-20.4514116772
20
-10.2095147551
30
0.0000000000
10
-20.4915869524
20
-10.1670036752
30
0.0000000000
10
-20.5081987506
20
-10.1515812257
30
0.0000000000
11
-20.3000436026
21
-10.7075281252
31
0.0000000000
11
-20.2993216152
21
-10.6026459820
31
0.0000000000
11
-20.3163625858
21
-10.4941929758
31
0.0000000000
11
-20.3503251307
21
-10.3875328508
31
0.0000000000
11
-20.3994602377
21
-10.2881283922
31
0.0000000000
11
-20.4613739110
21
-10.2008208014
31
0.0000000000
11
-20.5081987506
21
-10.1515812257
31
0.0000000000
0
SPLINE
5
2FB
100
AcDbEntity
8
0
100
AcDbSpline
62
9
6
CONTINUOUS
70
0
71
3
72
9
73
5
74
3
42
0.0000001000
43
0.0000001000
44
0.0000000001
12
-0.0859207397
22
0.0797691045
32
0.0000000000
13
-0.1035678036
23
0.0546840293
33
0.0000000000
40
0.0000000000
40
0.0000000000
40
0.0000000000
40
0.0000000000
40
0.2792774876
40
1.0000000000
40
1.0000000000
40
1.0000000000
40
1.0000000000
10
-20.5081987506
20
-10.1515812257
30
0.0000000000
10
-20.5161973267
20
-10.1441553207
30
0.0000000000
10
-20.5456818655
20
-10.1184613476
30
0.0000000000
10
-20.5782475792
20
-10.0963536242
30
0.0000000000
10
-20.6031287951
20
-10.0832162872
30
0.0000000000
11
-20.5081987506
21
-10.1515812257
31
0.0000000000
11
-20.5329063816
21
-10.1300835370
31
0.0000000000
11
-20.6031287951
21
-10.0832162872
31
0.0000000000
0
SPLINE
5
2FC
100
AcDbEntity
8
0
100
AcDbSpline
62
9
6
CONTINUOUS
70
0
71
3
72
8
73
4
74
2
42
0.0000001000
43
0.0000001000
44
0.0000000001
12
-0.0073401447
22
0.0038756126
32
0.0000000000
13
-0.0074214316
23
0.0037107158
33
0.0000000000
40
0.0000000000
40
0.0000000000
40
0.0000000000
40
0.0000000000
40
1.0000000000
40
1.0000000000
40
1.0000000000
40
1.0000000000
10
-20.6031287951
20
-10.0832162872
30
0.0000000000
10
-20.6055755100
20
-10.0819244163
30
0.0000000000
10
-20.6080358631
20
-10.0806595845
30
0.0000000000
10
-20.6105096737
20
-10.0794226792
30
0.0000000000
11
-20.6031287951
21
-10.0832162872
31
0.0000000000
11
-20.6105096737
21
-10.0794226792
31
0.0000000000
0
SPLINE
5
2FD
100
AcDbEntity
8
0
100
AcDbSpline
62
9
6
CONTINUOUS
70
0
71
3
72
14
73
10
74
8
42
0.0000001000
43
0.0000001000
44
0.0000000001
12
0.0420703671
22
0.4406764317
32
0.0000000000
13
-0.3959450802
23
0.1979725401
33
0.0000000000
40
0.0000000000
40
0.0000000000
40
0.0000000000
40
0.0000000000
40
0.1417254874
40
0.2907070835
40
0.4426621109
40
0.5931788390
40
0.7384138343
40
0.8748756731
40
1.0000000000
40
1.0000000000
40
1.0000000000
40
1.0000000000
10
-20.5818321818
20
-10.6858926690
30
0.0000000000
10
-20.5798447007
20
-10.6650743084
30
0.0000000000
10
-20.5797467794
20
-10.6219293965
30
0.0000000000
10
-20.5900708169
20
-10.5571863645
30
0.0000000000
10
-20.6103736561
20
-10.4934747326
30
0.0000000000
10
-20.6396613304
20
-10.4339795632
30
0.0000000000
10
-20.6765326083
20
-10.3815868740
30
0.0000000000
10
-20.7191622882
20
-10.3388842970
30
0.0000000000
10
-20.7515977038
20
-10.3172864617
30
0.0000000000
10
-20.7681118244
20
-10.3090294015
30
0.0000000000
11
-20.5818321818
21
-10.6858926690
31
0.0000000000
11
-20.5813839496
21
-10.6231552233
31
0.0000000000
11
-20.5915982274
21
-10.5579998178
31
0.0000000000
11
-20.6119990800
21
-10.4939005477
31
0.0000000000
11
-20.6415305373
21
-10.4341715733
31
0.0000000000
11
-20.6787396185
21
-10.3817404058
31
0.0000000000
11
-20.7217176882
21
-10.3392889641
31
0.0000000000
11
-20.7681118244
21
-10.3090294015
31
0.0000000000
0
SPLINE
5
2FE
100
AcDbEntity
8
0
100
AcDbSpline
62
9
6
CONTINUOUS
70
0
71
3
72
12
73
8
74
6
42
0.0000001000
43
0.0000001000
44
0.0000000001
12
0.2579442021
22
-0.1289721010
32
0.0000000000
13
0.2722318946
23
0.0951777800
33
0.0000000000
40
0.0000000000
40
0.0000000000
40
0.0000000000
40
0.0000000000
40
0.1878793012
40
0.3984045836
40
0.6152081283
40
0.8209324808
40
1.0000000000
40
1.0000000000
40
1.0000000000
40
1.0000000000
10
-20.8834434188
20
-13.8451939237
30
0.0000000000
10
-20.8672892933
20
-13.8532709864
30
0.0000000000
10
-20.8311322363
20
-13.8666164165
30
0.0000000000
10
-20.7731070842
20
-13.8787874152
30
0.0000000000
10
-20.7122454683
20
-13.8835040457
30
0.0000000000
10
-20.6543507752
20
-13.8803284195
30
0.0000000000
10
-20.6179041363
20
-13.8725104628
30
0.0000000000
10
-20.6016548396
20
-13.8668293798
30
0.0000000000
11
-20.8834434188
21
-13.8451939237
31
0.0000000000
11
-20.8328717554
21
-13.8646428126
31
0.0000000000
11
-20.7735102771
21
-13.8773840840
31
0.0000000000
11
-20.7111696988
21
-13.8821705337
31
0.0000000000
11
-20.6519523508
21
-13.8785336305
31
0.0000000000
11
-20.6016548396
21
-13.8668293798
31
0.0000000000
0
SPLINE
5
2FF
100
AcDbEntity
8
0
100
AcDbSpline
62
7
6
CONTINUOUS
70
0
71
3
72
9
73
5
74
3
42
0.0000001000
43
0.0000001000
44
0.0000000001
12
4.1129277279
22
3.9131689562
32
0.0000000000
13
4.1129277279
23
3.9131689562
33
0.0000000000
40
0.0000000000
40
0.0000000000
40
0.0000000000
40
0.0000000000
40
0.1502854371
40
1.0000000000
40
1.0000000000
40
1.0000000000
40
1.0000000000
10
9.1819602071
20
10.2691608737
30
0.0000000000
10
9.3879979209
20
10.4651916428
30
0.0000000000
10
10.7589738302
20
11.7695812948
30
0.0000000000
10
12.1299497395
20
13.0739709469
30
0.0000000000
10
13.2948879349
20
14.1823298300
30
0.0000000000
11
9.1819602071
21
10.2691608737
31
0.0000000000
11
9.8000733485
21
10.8572531808
31
0.0000000000
11
13.2948879349
21
14.1823298300
31
0.0000000000
0
SPLINE
5
300
100
AcDbEntity
8
0
100
AcDbSpline
62
7
6
CONTINUOUS
70
0
71
3
72
13
73
9
74
7
42
0.0000001000
43
0.0000001000
44
0.0000000001
12
0.8615074353
22
0.0438230607
32
0.0000000000
13
0.0000000000
23
-0.8561859219
33
0.0000000000
40
0.0000000000
40
0.0000000000
40
0.0000000000
40
0.0000000000
40
0.0862520800
40
0.2369017016
40
0.4110788636
40
0.6067881616
40
0.8065943203
40
1.0000000000
40
1.0000000000
40
1.0000000000
40
1.0000000000
10
12.9128872990
20
-17.8498914139
30
0.0000000000
10
12.9376562350
20
-17.8486314705
30
0.0000000000
10
13.0067766064
20
-17.8578281526
30
0.0000000000
10
13.1117946414
20
-17.9149244795
30
0.0000000000
10
13.2181811800
20
-18.0207315209
30
0.0000000000
10
13.3054226048
20
-18.1594494072
30
0.0000000000
10
13.3645431855
20
-18.3179004759
30
0.0000000000
10
13.3805702898
20
-18.4303382641
30
0.0000000000
10
13.3805702898
20
-18.4855353375
30
0.0000000000
11
12.9128872990
21
-17.8498914139
31
0.0000000000
11
12.9868475628
21
-17.8584707941
31
0.0000000000
11
13.1022144358
21
-17.9161542306
31
0.0000000000
11
13.2095777300
21
-18.0196544411
31
0.0000000000
11
13.2996868780
21
-18.1609268138
31
0.0000000000
11
13.3591316822
21
-18.3213377787
31
0.0000000000
11
13.3805702898
21
-18.4855353375
31
0.0000000000
0
SPLINE
5
301
100
AcDbEntity
8
0
100
AcDbSpline
62
7
6
CONTINUOUS
70
0
71
3
72
9
73
5
74
3
42
0.0000001000
43
0.0000001000
44
0.0000000001
12
-3.7309398540
22
-0.1986514818
32
0.0000000000
13
-3.7309398540
23
-0.1986514818
33
0.0000000000
40
0.0000000000
40
0.0000000000
40
0.0000000000
40
0.0000000000
40
0.9391137222
40
1.0000000000
40
1.0000000000
40
1.0000000000
40
1.0000000000
10
12.9129000611
20
-17.8499118407
30
0.0000000000
10
11.7449744565
20
-17.9120972849
30
0.0000000000
10
10.5013278385
20
-17.9783144455
30
0.0000000000
10
9.2576812205
20
-18.0445316061
30
0.0000000000
10
9.1819602071
20
-18.0485633225
30
0.0000000000
11
12.9129000611
21
-17.8499118407
31
0.0000000000
11
9.4091232475
21
-18.0364681732
31
0.0000000000
11
9.1819602071
21
-18.0485633225
31
0.0000000000
0
SPLINE
5
302
100
AcDbEntity
8
0
100
AcDbSpline
62
7
6
CONTINUOUS
70
0
71
3
72
8
73
4
74
2
42
0.0000001000
43
0.0000001000
44
0.0000000001
12
-0.0100076293
22
-0.0048857291
32
0.0000000000
13
-0.0100076663
23
-0.0048856534
33
0.0000000000
40
0.0000000000
40
0.0000000000
40
0.0000000000
40
0.0000000000
40
1.0000000000
40
1.0000000000
40
1.0000000000
40
1.0000000000
10
-7.8971810365
20
19.4273095013
30
0.0000000000
10
-7.9005169129
20
19.4256809249
30
0.0000000000
10
-7.9038527955
20
19.4240523612
30
0.0000000000
10
-7.9071886842
20
19.4224238100
30
0.0000000000
11
-7.8971810365
21
19.4273095013
31
0.0000000000
11
-7.9071886842
21
19.4224238100
31
0.0000000000
0
SPLINE
5
303
100
AcDbEntity
8
0
100
AcDbSpline
62
7
6
CONTINUOUS
70
0
71
3
72
8
73
4
74
2
42
0.0000001000
43
0.0000001000
44
0.0000000001
12
-0.0146804095
22
-0.0071668449
32
0.0000000000
13
-0.0146804892
23
-0.0071666817
33
0.0000000000
40
0.0000000000
40
0.0000000000
40
0.0000000000
40
0.0000000000
40
1.0000000000
40
1.0000000000
40
1.0000000000
40
1.0000000000
10
-7.9071886842
20
19.4224238100
30
0.0000000000
10
-7.9120821541
20
19.4200348617
30
0.0000000000
10
-7.9169756372
20
19.4176459406
30
0.0000000000
10
-7.9218691336
20
19.4152570467
30
0.0000000000
11
-7.9071886842
21
19.4224238100
31
0.0000000000
11
-7.9218691336
21
19.4152570467
31
0.0000000000
0
SPLINE
5
304
100
AcDbEntity
8
0
100
AcDbSpline
62
7
6
CONTINUOUS
70
0
71
3
72
8
73
4
74
2
42
0.0000001000
43
0.0000001000
44
0.0000000001
12
-0.1015497203
22
-0.0495742694
32
0.0000000000
13
-0.1015535409
23
-0.0495664422
33
0.0000000000
40
0.0000000000
40
0.0000000000
40
0.0000000000
40
0.0000000000
40
1.0000000000
40
1.0000000000
40
1.0000000000
40
1.0000000000
10
-7.9218691336
20
19.4152570467
30
0.0000000000
10
-7.9557190404
20
19.3987322902
30
0.0000000000
10
-7.9895695826
20
19.3822088354
30
0.0000000000
10
-8.0234207629
20
19.3656866880
30
0.0000000000
11
-7.9218691336
21
19.4152570467
31
0.0000000000
11
-8.0234207629
21
19.3656866880
31
0.0000000000
0
SPLINE
5
305
100
AcDbEntity
8
0
100
AcDbSpline
62
7
6
CONTINUOUS
70
0
71
3
72
9
73
5
74
3
42
0.0000001000
43
0.0000001000
44
0.0000000001
12
-0.1169443070
22
-0.0571834006
32
0.0000000000
13
-0.1090569064
23
-0.0709265276
33
0.0000000000
40
0.0000000000
40
0.0000000000
40
0.0000000000
40
0.0000000000
40
0.1815369378
40
1.0000000000
40
1.0000000000
40
1.0000000000
40
1.0000000000
10
-8.0239039604
20
19.3654532423
30
0.0000000000
10
-8.0309805309
20
19.3619929425
30
0.0000000000
10
-8.0697218560
20
19.3424469103
30
0.0000000000
10
-8.1070613380
20
19.3202870404
30
0.0000000000
10
-8.1368143546
20
19.3009367927
30
0.0000000000
11
-8.0239039604
21
19.3654532423
31
0.0000000000
11
-8.0450002953
21
19.3548101481
31
0.0000000000
11
-8.1368143546
21
19.3009367927
31
0.0000000000
0
SPLINE
5
306
100
AcDbEntity
8
0
100
AcDbSpline
62
7
6
CONTINUOUS
70
0
71
3
72
8
73
4
74
2
42
0.0000001000
43
0.0000001000
44
0.0000000001
12
-0.0739822192
22
-0.0481152646
32
0.0000000000
13
-0.0722063845
23
-0.0506711598
33
0.0000000000
40
0.0000000000
40
0.0000000000
40
0.0000000000
40
0.0000000000
40
1.0000000000
40
1.0000000000
40
1.0000000000
40
1.0000000000
10
-8.1368143546
20
19.3009367927
30
0.0000000000
10
-8.1614750943
20
19.2848983712
30
0.0000000000
10
-8.1855807668
20
19.2680264851
30
0.0000000000
10
-8.2096495616
20
19.2511360985
30
0.0000000000
11
-8.1368143546
21
19.3009367927
31
0.0000000000
11
-8.2096495616
21
19.2511360985
31
0.0000000000
0
SPLINE
5
307
100
AcDbEntity
8
0
100
AcDbSpline
62
7
6
CONTINUOUS
70
0
71
3
72
10
73
6
74
4
42
0.0000001000
43
0.0000001000
44
0.0000000001
12
-0.0936122373
22
-0.0656928147
32
0.0000000000
13
-0.1029091303
23
-0.0498204612
33
0.0000000000
40
0.0000000000
40
0.0000000000
40
0.0000000000
40
0.0000000000
40
0.5823848288
40
0.9589393730
40
1.0000000000
40
1.0000000000
40
1.0000000000
40
1.0000000000
10
-8.2096495616
20
19.2511360985
30
0.0000000000
10
-8.2278223439
20
19.2383832657
30
0.0000000000
10
-8.2577105478
20
19.2173674242
30
0.0000000000
10
-8.2900327383
20
19.1969218955
30
0.0000000000
10
-8.3042789039
20
19.1898316005
30
0.0000000000
10
-8.3056874084
20
19.1891497140
30
0.0000000000
11
-8.2096495616
21
19.2511360985
31
0.0000000000
11
-8.2645341004
21
19.2133765039
31
0.0000000000
11
-8.3014847203
21
19.1912398587
31
0.0000000000
11
-8.3056874084
21
19.1891497140
31
0.0000000000
0
SPLINE
5
308
100
AcDbEntity
8
0
100
AcDbSpline
62
7
6
CONTINUOUS
70
0
71
3
72
12
73
8
74
6
42
0.0000001000
43
0.0000001000
44
0.0000000001
12
-0.2841899184
22
-0.1409957503
32
0.0000000000
13
0.0000000000
23
-0.3158193894
33
0.0000000000
40
0.0000000000
40
0.0000000000
40
0.0000000000
40
0.0000000000
40
0.0994284458
40
0.2956523921
40
0.5079778249
40
0.7422601447
40
1.0000000000
40
1.0000000000
40
1.0000000000
40
1.0000000000
10
-8.5402462554
20
19.0727165148
30
0.0000000000
10
-8.5496651094
20
19.0680435187
30
0.0000000000
10
-8.5765236229
20
19.0518297067
30
0.0000000000
10
-8.6147105212
20
19.0132074253
30
0.0000000000
10
-8.6473155057
20
18.9530573086
30
0.0000000000
10
-8.6668695785
20
18.8809939557
30
0.0000000000
10
-8.6708135726
20
18.8290480009
30
0.0000000000
10
-8.6708135726
20
18.8019149196
30
0.0000000000
11
-8.5402462554
21
19.0727165148
31
0.0000000000
11
-8.5672062530
21
19.0564294769
31
0.0000000000
11
-8.6111954793
21
19.0127786657
31
0.0000000000
11
-8.6438842837
21
18.9542294153
31
0.0000000000
11
-8.6640155507
21
18.8830297997
31
0.0000000000
11
-8.6708135726
21
18.8019149196
31
0.0000000000
0
SPLINE
5
309
100
AcDbEntity
8
0
100
AcDbSpline
62
7
6
CONTINUOUS
70
0
71
3
72
12
73
8
74
6
42
0.0000001000
43
0.0000001000
44
0.0000000001
12
0.2862298792
22
0.1465239150
32
0.0000000000
13
0.2871186027
23
0.1455014362
33
0.0000000000
40
0.0000000000
40
0.0000000000
40
0.0000000000
40
0.0000000000
40
0.0215952013
40
0.3741060095
40
0.6937731672
40
0.9444549196
40
1.0000000000
40
1.0000000000
40
1.0000000000
40
1.0000000000
10
8.1482571696
20
-26.7069894226
30
0.0000000000
10
8.1503175669
20
-26.7059346847
30
0.0000000000
10
8.1859508998
20
-26.6875483649
30
0.0000000000
10
8.2500772329
20
-26.6498078512
30
0.0000000000
10
8.3314872115
20
-26.5936516675
30
0.0000000000
10
8.3873050020
20
-26.5566327506
30
0.0000000000
10
8.4160840797
20
-26.5406036854
30
0.0000000000
10
8.4214000884
20
-26.5379097224
30
0.0000000000
11
8.1482571696
21
-26.7069894226
31
0.0000000000
11
8.1544279094
21
-26.7038054443
31
0.0000000000
11
8.2523335440
21
-26.6468285635
31
0.0000000000
11
8.3377458266
21
-26.5897592845
31
0.0000000000
11
8.4056922172
21
-26.5464870922
31
0.0000000000
11
8.4214000884
21
-26.5379097224
31
0.0000000000
0
SPLINE
5
30A
100
AcDbEntity
8
0
100
AcDbSpline
62
7
6
CONTINUOUS
70
0
71
3
72
9
73
5
74
3
42
0.0000001000
43
0.0000001000
44
0.0000000001
12
0.4021647720
22
0.2057109823
32
0.0000000000
13
0.4022219018
23
0.2055992557
33
0.0000000000
40
0.0000000000
40
0.0000000000
40
0.0000000000
40
0.0000000000
40
0.5325151175
40
1.0000000000
40
1.0000000000
40
1.0000000000
40
1.0000000000
10
7.4290292708
20
-27.0746499130
30
0.0000000000
10
7.5004155444
20
-27.0381351770
30
0.0000000000
10
7.6344755799
20
-26.9695748419
30
0.0000000000
10
7.7685451309
20
-26.9010331171
30
0.0000000000
10
7.8312226837
20
-26.8689949358
30
0.0000000000
11
7.4290292708
21
-27.0746499130
31
0.0000000000
11
7.6431962338
21
-26.9651216246
31
0.0000000000
11
7.8312226837
21
-26.8689949358
31
0.0000000000
0
SPLINE
5
30B
100
AcDbEntity
8
0
100
AcDbSpline
62
7
6
CONTINUOUS
70
0
71
3
72
9
73
5
74
3
42
0.0000001000
43
0.0000001000
44
0.0000000001
12
0.3169236594
22
0.1619983104
32
0.0000000000
13
0.3169586369
23
0.1619298641
33
0.0000000000
40
0.0000000000
40
0.0000000000
40
0.0000000000
40
0.0000000000
40
0.2974321201
40
1.0000000000
40
1.0000000000
40
1.0000000000
40
1.0000000000
10
7.8312226837
20
-26.8689949358
30
0.0000000000
10
7.8626437757
20
-26.8529337688
30
0.0000000000
10
7.9682867399
20
-26.7989377447
30
0.0000000000
10
8.0739355477
20
-26.7449531540
30
0.0000000000
10
8.1481638668
20
-26.7070309136
30
0.0000000000
11
7.8312226837
21
-26.8689949358
31
0.0000000000
11
7.9254875143
21
-26.8208144764
31
0.0000000000
11
8.1481638668
21
-26.7070309136
31
0.0000000000
0
SPLINE
5
30C
100
AcDbEntity
8
0
100
AcDbSpline
62
7
6
CONTINUOUS
70
0
71
3
72
13
73
9
74
7
42
0.0000001000
43
0.0000001000
44
0.0000000001
12
0.2793632374
22
0.1416096511
32
0.0000000000
13
0.2788113752
23
0.1423829199
33
0.0000000000
40
0.0000000000
40
0.0000000000
40
0.0000000000
40
0.0000000000
40
0.0259023574
40
0.1632371250
40
0.3847005642
40
0.6734358546
40
0.9960974098
40
1.0000000000
40
1.0000000000
40
1.0000000000
40
1.0000000000
10
7.1367075406
20
-27.1853504899
30
0.0000000000
10
7.1391195960
20
-27.1841278153
30
0.0000000000
10
7.1544413152
20
-27.1766708279
30
0.0000000000
10
7.1922659179
20
-27.1629879551
30
0.0000000000
10
7.2571600667
20
-27.1443638356
30
0.0000000000
10
7.3395390812
20
-27.1165211881
30
0.0000000000
10
7.3982573483
20
-27.0903432761
30
0.0000000000
10
7.4286169030
20
-27.0748631393
30
0.0000000000
10
7.4289795986
20
-27.0746779186
30
0.0000000000
11
7.1367075406
21
-27.1853504899
31
0.0000000000
11
7.1440004095
21
-27.1818028474
31
0.0000000000
11
7.1840938294
21
-27.1663379763
31
0.0000000000
11
7.2502926611
21
-27.1458498927
31
0.0000000000
11
7.3357088023
21
-27.1164124784
31
0.0000000000
11
7.4278911671
21
-27.0752329021
31
0.0000000000
11
7.4289795986
21
-27.0746779186
31
0.0000000000
0
SPLINE
5
30D
100
AcDbEntity
8
0
100
AcDbSpline
62
7
6
CONTINUOUS
70
0
71
3
72
9
73
5
74
3
42
0.0000001000
43
0.0000001000
44
0.0000000001
12
0.0044481710
22
-0.0334116510
32
0.0000000000
13
-0.0237930890
23
-0.0409209499
33
0.0000000000
40
0.0000000000
40
0.0000000000
40
0.0000000000
40
0.0000000000
40
0.7570100233
40
1.0000000000
40
1.0000000000
40
1.0000000000
40
1.0000000000
10
5.4678252076
20
12.7384503465
30
0.0000000000
10
5.4689476443
20
12.7300193616
30
0.0000000000
10
5.4688272486
20
12.7192992127
30
0.0000000000
10
5.4578029038
20
12.7013336059
30
0.0000000000
10
5.4558757431
20
12.6980191457
30
0.0000000000
11
5.4678252076
21
12.7384503465
31
0.0000000000
11
5.4625167002
21
12.7096367289
31
0.0000000000
11
5.4558757431
21
12.6980191457
31
0.0000000000
0
SPLINE
5
30E
100
AcDbEntity
8
0
100
AcDbSpline
62
7
6
CONTINUOUS
70
0
71
3
72
9
73
5
74
3
42
0.0000001000
43
0.0000001000
44
0.0000000001
12
0.0038728900
22
-0.0034362326
32
0.0000000000
13
0.0014837930
23
-0.0005560489
33
0.0000000000
40
0.0000000000
40
0.0000000000
40
0.0000000000
40
0.0000000000
40
0.9246804017
40
1.0000000000
40
1.0000000000
40
1.0000000000
40
1.0000000000
10
8.0270922617
20
12.3540720229
30
0.0000000000
10
8.0282859902
20
12.3530128839
30
0.0000000000
10
8.0293713260
20
12.3520939286
30
0.0000000000
10
8.0299063550
20
12.3518582545
30
0.0000000000
10
8.0299436079
20
12.3518442940
30
0.0000000000
11
8.0270922617
21
12.3540720229
31
0.0000000000
11
8.0298226367
21
12.3518976325
31
0.0000000000
11
8.0299436079
21
12.3518442940
31
0.0000000000
0
SPLINE
5
30F
100
AcDbEntity
8
0
100
AcDbSpline
62
7
6
CONTINUOUS
70
0
71
3
72
10
73
6
74
4
42
0.0000001000
43
0.0000001000
44
0.0000000001
12
0.0361071717
22
-0.0320361903
32
0.0000000000
13
0.0007286194
23
0.0384186034
33
0.0000000000
40
0.0000000000
40
0.0000000000
40
0.0000000000
40
0.0000000000
40
0.0991821094
40
0.5232654770
40
1.0000000000
40
1.0000000000
40
1.0000000000
40
1.0000000000
10
8.0270922617
20
12.3540720229
30
0.0000000000
10
8.0282859902
20
12.3530128839
30
0.0000000000
10
8.0335807287
20
12.3485298216
30
0.0000000000
10
8.0186703718
20
12.3710392829
30
0.0000000000
10
8.0164429689
20
12.3834719227
30
0.0000000000
10
8.0165587549
20
12.3895770809
30
0.0000000000
11
8.0270922617
21
12.3540720229
31
0.0000000000
11
8.0298226367
21
12.3518976325
31
0.0000000000
11
8.0219385865
21
12.3681156050
31
0.0000000000
11
8.0165587549
21
12.3895770809
31
0.0000000000
0
SPLINE
5
310
100
AcDbEntity
8
0
100
AcDbSpline
62
7
6
CONTINUOUS
70
0
71
3
72
8
73
4
74
2
42
0.0000001000
43
0.0000001000
44
0.0000000001
12
0.0001128612
22
0.0059509408
32
0.0000000000
13
0.0007431701
23
0.0058276410
33
0.0000000000
40
0.0000000000
40
0.0000000000
40
0.0000000000
40
0.0000000000
40
1.0000000000
40
1.0000000000
40
1.0000000000
40
1.0000000000
10
8.0165587549
20
12.3895770809
30
0.0000000000
10
8.0165963753
20
12.3915607278
30
0.0000000000
10
8.0167706629
20
12.3934942830
30
0.0000000000
10
8.0170183863
20
12.3954368300
30
0.0000000000
11
8.0165587549
21
12.3895770809
31
0.0000000000
11
8.0170183863
21
12.3954368300
31
0.0000000000
0
SPLINE
5
311
100
AcDbEntity
8
0
100
AcDbSpline
62
7
6
CONTINUOUS
70
0
71
3
72
9
73
5
74
3
42
0.0000001000
43
0.0000001000
44
0.0000000001
12
0.0053424122
22
-0.0046194536
32
0.0000000000
13
0.0014826399
23
0.0000594662
33
0.0000000000
40
0.0000000000
40
0.0000000000
40
0.0000000000
40
0.0000000000
40
0.7580050056
40
1.0000000000
40
1.0000000000
40
1.0000000000
40
1.0000000000
10
-5.3380874911
20
19.0370941919
30
0.0000000000
10
-5.3367376327
20
19.0359270022
30
0.0000000000
10
-5.3351378016
20
19.0345684060
30
0.0000000000
10
-5.3344446007
20
19.0343381182
30
0.0000000000
10
-5.3343250035
20
19.0343429151
30
0.0000000000
11
-5.3380874911
21
19.0370941919
31
0.0000000000
11
-5.3348331967
21
19.0345156507
31
0.0000000000
11
-5.3343250035
21
19.0343429151
31
0.0000000000
0
SPLINE
5
312
100
AcDbEntity
8
0
100
AcDbSpline
62
7
6
CONTINUOUS
70
0
71
3
72
10
73
6
74
4
42
0.0000001000
43
0.0000001000
44
0.0000000001
12
0.0431034986
22
-0.0372705449
32
0.0000000000
13
0.0049614991
23
0.0429105760
33
0.0000000000
40
0.0000000000
40
0.0000000000
40
0.0000000000
40
0.0000000000
40
0.0939500340
40
0.5134419296
40
1.0000000000
40
1.0000000000
40
1.0000000000
40
1.0000000000
10
-5.3380874911
20
19.0370941919
30
0.0000000000
10
-5.3367376327
20
19.0359270022
30
0.0000000000
10
-5.3301102720
20
19.0302989664
30
0.0000000000
10
-5.3475045955
20
19.0570486968
30
0.0000000000
10
-5.3486710108
20
19.0707465159
30
0.0000000000
10
-5.3478663250
20
19.0777060116
30
0.0000000000
11
-5.3380874911
21
19.0370941919
31
0.0000000000
11
-5.3348331967
21
19.0345156507
31
0.0000000000
11
-5.3432097234
21
19.0529956079
31
0.0000000000
11
-5.3478663250
21
19.0777060116
31
0.0000000000
0
SPLINE
5
313
100
AcDbEntity
8
0
100
AcDbSpline
62
7
6
CONTINUOUS
70
0
71
3
72
9
73
5
74
3
42
0.0000001000
43
0.0000001000
44
0.0000000001
12
0.0036566375
22
-0.0287055549
32
0.0000000000
13
-0.0223796719
23
-0.0395570192
33
0.0000000000
40
0.0000000000
40
0.0000000000
40
0.0000000000
40
0.0000000000
40
0.6978265940
40
1.0000000000
40
1.0000000000
40
1.0000000000
40
1.0000000000
10
-7.8955650858
20
19.4206735294
30
0.0000000000
10
-7.8947145195
20
19.4139963629
30
0.0000000000
10
-7.8956252459
20
19.4037237322
30
0.0000000000
10
-7.9054035991
20
19.3873587648
30
0.0000000000
10
-7.9076577796
20
19.3833744051
30
0.0000000000
11
-7.8955650858
21
19.4206735294
31
0.0000000000
11
-7.9003037746
21
19.3966925969
31
0.0000000000
11
-7.9076577796
21
19.3833744051
31
0.0000000000
0
SPLINE
5
314
100
AcDbEntity
8
0
100
AcDbSpline
62
7
6
CONTINUOUS
70
0
71
3
72
9
73
5
74
3
42
0.0000001000
43
0.0000001000
44
0.0000000001
12
0.0000000000
22
-0.0501319498
32
0.0000000000
13
0.0247448580
23
-0.0636088775
33
0.0000000000
40
0.0000000000
40
0.0000000000
40
0.0000000000
40
0.0000000000
40
0.8151631507
40
1.0000000000
40
1.0000000000
40
1.0000000000
40
1.0000000000
10
8.0177466447
20
-27.0757219239
30
0.0000000000
10
8.0177466447
20
-27.0893438300
30
0.0000000000
10
8.0130849470
20
-27.0982285267
30
0.0000000000
10
8.0252291790
20
-27.1260794093
30
0.0000000000
10
8.0267537662
20
-27.1299984974
30
0.0000000000
11
8.0177466447
21
-27.0757219239
31
0.0000000000
11
8.0213139447
21
-27.1164316438
31
0.0000000000
11
8.0267537662
21
-27.1299984974
31
0.0000000000
0
SPLINE
5
315
100
AcDbEntity
8
0
100
AcDbSpline
62
7
6
CONTINUOUS
70
0
71
3
72
9
73
5
74
3
42
0.0000001000
43
0.0000001000
44
0.0000000001
12
0.0000000000
22
0.1352131738
32
0.0000000000
13
-0.0705245311
23
0.1164326772
33
0.0000000000
40
0.0000000000
40
0.0000000000
40
0.0000000000
40
0.0000000000
40
0.7481290239
40
1.0000000000
40
1.0000000000
40
1.0000000000
40
1.0000000000
10
8.7248534259
20
-27.4721685333
30
0.0000000000
10
8.7248534259
20
-27.4384495668
30
0.0000000000
10
8.7154618213
20
-27.3928432044
30
0.0000000000
10
8.6946119234
20
-27.3524053572
30
0.0000000000
10
8.6886908959
20
-27.3426300199
30
0.0000000000
11
8.7248534259
21
-27.4721685333
31
0.0000000000
11
8.7043879892
21
-27.3731034827
31
0.0000000000
11
8.6886908959
21
-27.3426300199
31
0.0000000000
0
SPLINE
5
316
100
AcDbEntity
8
0
100
AcDbSpline
62
7
6
CONTINUOUS
70
0
71
3
72
9
73
5
74
3
42
0.0000001000
43
0.0000001000
44
0.0000000001
12
-0.0729565200
22
0.1204477762
32
0.0000000000
13
-0.1258781919
23
0.0629100841
33
0.0000000000
40
0.0000000000
40
0.0000000000
40
0.0000000000
40
0.0000000000
40
0.4867712243
40
1.0000000000
40
1.0000000000
40
1.0000000000
40
1.0000000000
10
8.6886908959
20
-27.3426300199
30
0.0000000000
10
8.6768531844
20
-27.3230865161
30
0.0000000000
10
8.6470364655
20
-27.2863021410
30
0.0000000000
10
8.6078596452
20
-27.2591924773
30
0.0000000000
10
8.5863248751
20
-27.2484300555
30
0.0000000000
11
8.6886908959
21
-27.3426300199
31
0.0000000000
11
8.6456075022
21
-27.2895677518
31
0.0000000000
11
8.5863248751
21
-27.2484300555
31
0.0000000000
0
SPLINE
5
317
100
AcDbEntity
8
0
100
AcDbSpline
62
7
6
CONTINUOUS
70
0
71
3
72
10
73
6
74
4
42
0.0000001000
43
0.0000001000
44
0.0000000001
12
0.1576570116
22
0.0786593459
32
0.0000000000
13
0.0691008541
23
0.1617814930
33
0.0000000000
40
0.0000000000
40
0.0000000000
40
0.0000000000
40
0.0000000000
40
0.2569065264
40
0.8126518238
40
1.0000000000
40
1.0000000000
40
1.0000000000
40
1.0000000000
10
8.5864582134
20
-28.0471530216
30
0.0000000000
10
8.5999592518
20
-28.0404169885
30
0.0000000000
10
8.6408261524
20
-28.0152576618
30
0.0000000000
10
8.6806812322
20
-27.9707534238
30
0.0000000000
10
8.7004233834
20
-27.9318161828
30
0.0000000000
10
8.7047386897
20
-27.9217130269
30
0.0000000000
11
8.5864582134
21
-28.0471530216
31
0.0000000000
11
8.6249506959
21
-28.0234095160
31
0.0000000000
11
8.6898410046
21
-27.9510769449
31
0.0000000000
11
8.7047386897
21
-27.9217130269
31
0.0000000000
0
SPLINE
5
318
100
AcDbEntity
8
0
100
AcDbSpline
62
7
6
CONTINUOUS
70
0
71
3
72
9
73
5
74
3
42
0.0000001000
43
0.0000001000
44
0.0000000001
12
0.0395401512
22
0.0925728745
32
0.0000000000
13
-0.0000104057
23
0.1009392725
33
0.0000000000
40
0.0000000000
40
0.0000000000
40
0.0000000000
40
0.0000000000
40
0.6586460315
40
1.0000000000
40
1.0000000000
40
1.0000000000
40
1.0000000000
10
8.7047386897
20
-27.9217130269
30
0.0000000000
10
8.7134196776
20
-27.9013887748
30
0.0000000000
10
8.7225318586
20
-27.8687719060
30
0.0000000000
10
8.7248215500
20
-27.8351085418
30
0.0000000000
10
8.7248203660
20
-27.8236232014
30
0.0000000000
11
8.7047386897
21
-27.9217130269
31
0.0000000000
11
8.7224633857
21
-27.8579688474
31
0.0000000000
11
8.7248203660
21
-27.8236232014
31
0.0000000000
0
SPLINE
5
319
100
AcDbEntity
8
0
100
AcDbSpline
62
7
6
CONTINUOUS
70
0
71
3
72
9
73
5
74
3
42
0.0000001000
43
0.0000001000
44
0.0000000001
12
0.0000000000
22
0.1717387689
32
0.0000000000
13
0.1103044927
23
0.1331621858
33
0.0000000000
40
0.0000000000
40
0.0000000000
40
0.0000000000
40
0.0000000000
40
0.5890160992
40
1.0000000000
40
1.0000000000
40
1.0000000000
40
1.0000000000
10
4.7600301981
20
-27.8610772630
30
0.0000000000
10
4.7600301981
20
-27.8273582964
30
0.0000000000
10
4.7719587888
20
-27.7694321320
30
0.0000000000
10
4.8023723435
20
-27.7198440173
30
0.0000000000
10
4.8174834671
20
-27.7016015125
30
0.0000000000
11
4.7600301981
21
-27.8610772630
31
0.0000000000
11
4.7804956348
21
-27.7620122123
31
0.0000000000
11
4.8174834671
21
-27.7016015125
31
0.0000000000
0
SPLINE
5
31A
100
AcDbEntity
8
0
100
AcDbSpline
62
7
6
CONTINUOUS
70
0
71
3
72
10
73
6
74
4
42
0.0000001000
43
0.0000001000
44
0.0000000001
12
-0.1576570116
22
0.0786593459
32
0.0000000000
13
-0.0691008541
23
0.1617814930
33
0.0000000000
40
0.0000000000
40
0.0000000000
40
0.0000000000
40
0.0000000000
40
0.2569065264
40
0.8126518238
40
1.0000000000
40
1.0000000000
40
1.0000000000
40
1.0000000000
10
4.8984254106
20
-28.4360617512
30
0.0000000000
10
4.8849243722
20
-28.4293257181
30
0.0000000000
10
4.8440574716
20
-28.4041663915
30
0.0000000000
10
4.8042023918
20
-28.3596621534
30
0.0000000000
10
4.7844602406
20
-28.3207249124
30
0.0000000000
10
4.7801449343
20
-28.3106217566
30
0.0000000000
11
4.8984254106
21
-28.4360617512
31
0.0000000000
11
4.8599329281
21
-28.4123182456
31
0.0000000000
11
4.7950426193
21
-28.3399856746
31
0.0000000000
11
4.7801449343
21
-28.3106217566
31
0.0000000000
0
SPLINE
5
31B
100
AcDbEntity
8
0
100
AcDbSpline
62
7
6
CONTINUOUS
70
0
71
3
72
9
73
5
74
3
42
0.0000001000
43
0.0000001000
44
0.0000000001
12
-0.0395401512
22
0.0925728745
32
0.0000000000
13
0.0000104057
23
0.1009392725
33
0.0000000000
40
0.0000000000
40
0.0000000000
40
0.0000000000
40
0.0000000000
40
0.6586460315
40
1.0000000000
40
1.0000000000
40
1.0000000000
40
1.0000000000
10
4.7801449343
20
-28.3106217566
30
0.0000000000
10
4.7714639464
20
-28.2902975044
30
0.0000000000
10
4.7623517654
20
-28.2576806356
30
0.0000000000
10
4.7600620740
20
-28.2240172714
30
0.0000000000
10
4.7600632580
20
-28.2125319310
30
0.0000000000
11
4.7801449343
21
-28.3106217566
31
0.0000000000
11
4.7624202382
21
-28.2468775771
31
0.0000000000
11
4.7600632580
21
-28.2125319310
31
0.0000000000
0
SPLINE
5
31C
100
AcDbEntity
8
0
100
AcDbSpline
62
7
6
CONTINUOUS
70
0
71
3
72
10
73
6
74
4
42
0.0000001000
43
0.0000001000
44
0.0000000001
12
-0.2062868698
22
-0.1031434349
32
0.0000000000
13
-0.2074210704
23
0.1038948826
33
0.0000000000
40
0.0000000000
40
0.0000000000
40
0.0000000000
40
0.0000000000
40
0.4031575259
40
0.8163394535
40
1.0000000000
40
1.0000000000
40
1.0000000000
40
1.0000000000
10
6.4653364812
20
-29.1077494750
30
0.0000000000
10
6.4376144465
20
-29.1216104923
30
0.0000000000
10
6.3755928840
20
-29.1392791783
30
0.0000000000
10
6.2972752319
20
-29.1311844898
30
0.0000000000
10
6.2542698097
20
-29.1140221392
30
0.0000000000
10
6.2415714540
20
-29.1076616756
30
0.0000000000
11
6.4653364812
21
-29.1077494750
31
0.0000000000
11
6.3758881021
21
-29.1331411774
31
0.0000000000
11
6.2810910392
21
-29.1234168931
31
0.0000000000
11
6.2415714540
21
-29.1076616756
31
0.0000000000
0
SPLINE
5
31D
100
AcDbEntity
8
0
100
AcDbSpline
62
7
6
CONTINUOUS
70
0
71
3
72
8
73
4
74
2
42
0.0000001000
43
0.0000001000
44
0.0000000001
12
0.0366877917
22
0.0442860821
32
0.0000000000
13
0.0314977988
23
0.0482285550
33
0.0000000000
40
0.0000000000
40
0.0000000000
40
0.0000000000
40
0.0000000000
40
1.0000000000
40
1.0000000000
40
1.0000000000
40
1.0000000000
10
5.3478412459
20
-27.0614242269
30
0.0000000000
10
5.3600705098
20
-27.0466621995
30
0.0000000000
10
5.3714268220
20
-27.0311561240
30
0.0000000000
10
5.3819260883
20
-27.0150799391
30
0.0000000000
11
5.3478412459
21
-27.0614242269
31
0.0000000000
11
5.3819260883
21
-27.0150799391
31
0.0000000000
0
SPLINE
5
31E
100
AcDbEntity
8
0
100
AcDbSpline
62
7
6
CONTINUOUS
70
0
71
3
72
9
73
5
74
3
42
0.0000001000
43
0.0000001000
44
0.0000000001
12
0.0333695773
22
0.0510945702
32
0.0000000000
13
0.0275926239
23
0.0544009819
33
0.0000000000
40
0.0000000000
40
0.0000000000
40
0.0000000000
40
0.0000000000
40
0.4950063266
40
1.0000000000
40
1.0000000000
40
1.0000000000
40
1.0000000000
10
5.3819260883
20
-27.0150799391
30
0.0000000000
10
5.3874321389
20
-27.0066492272
30
0.0000000000
10
5.3980791681
20
-26.9893009586
30
0.0000000000
10
5.4077736257
20
-26.9714151896
30
0.0000000000
10
5.4124183258
20
-26.9622578057
30
0.0000000000
11
5.3819260883
21
-27.0150799391
31
0.0000000000
11
5.3977394227
21
-26.9893425174
31
0.0000000000
11
5.4124183258
21
-26.9622578057
31
0.0000000000
0
SPLINE
5
31F
100
AcDbEntity
8
0
100
AcDbSpline
62
7
6
CONTINUOUS
70
0
71
3
72
10
73
6
74
4
42
0.0000001000
43
0.0000001000
44
0.0000000001
12
0.0966839012
22
0.1906197535
32
0.0000000000
13
-0.0000000000
23
0.2134839609
33
0.0000000000
40
0.0000000000
40
0.0000000000
40
0.0000000000
40
0.0000000000
40
0.2875471521
40
0.6848446918
40
1.0000000000
40
1.0000000000
40
1.0000000000
40
1.0000000000
10
5.4124183258
20
-26.9622578057
30
0.0000000000
10
5.4216853860
20
-26.9439870833
30
0.0000000000
10
5.4413773938
20
-26.8992852481
30
0.0000000000
10
5.4613301034
20
-26.8306668765
30
0.0000000000
10
5.4671369793
20
-26.7799507402
30
0.0000000000
10
5.4671369793
20
-26.7575238724
30
0.0000000000
11
5.4124183258
21
-26.9622578057
31
0.0000000000
11
5.4371590304
21
-26.9060450774
31
0.0000000000
11
5.4603542696
21
-26.8244617127
31
0.0000000000
11
5.4671369793
21
-26.7575238724
31
0.0000000000
0
SPLINE
5
320
100
AcDbEntity
8
0
100
AcDbSpline
62
7
6
CONTINUOUS
70
0
71
3
72
11
73
7
74
5
42
0.0000001000
43
0.0000001000
44
0.0000000001
12
-0.2478698196
22
-0.1236689549
32
0.0000000000
13
0.0000285908
23
-0.2773419852
33
0.0000000000
40
0.0000000000
40
0.0000000000
40
0.0000000000
40
0.0000000000
40
0.1634047876
40
0.5168852676
40
0.8757634146
40
1.0000000000
40
1.0000000000
40
1.0000000000
40
1.0000000000
10
4.8984254106
20
14.0135113646
30
0.0000000000
10
4.8849243722
20
14.0067753315
30
0.0000000000
10
4.8440574716
20
13.9816160049
30
0.0000000000
10
4.7891816744
20
13.9203388590
30
0.0000000000
10
4.7631014378
20
13.8461520375
30
0.0000000000
10
4.7600620740
20
13.8014668848
30
0.0000000000
10
4.7600632580
20
13.7899815444
30
0.0000000000
11
4.8984254106
21
14.0135113646
31
0.0000000000
11
4.8599329281
21
13.9897678590
31
0.0000000000
11
4.7950426193
21
13.9174352879
31
0.0000000000
11
4.7624202382
21
13.8243271904
31
0.0000000000
11
4.7600632580
21
13.7899815444
31
0.0000000000
0
SPLINE
5
321
100
AcDbEntity
8
0
100
AcDbSpline
62
7
6
CONTINUOUS
70
0
71
3
72
9
73
5
74
3
42
0.0000001000
43
0.0000001000
44
0.0000000001
12
-0.1400536293
22
0.0700268147
32
0.0000000000
13
-0.1553150236
23
-0.0260733144
33
0.0000000000
40
0.0000000000
40
0.0000000000
40
0.0000000000
40
0.0000000000
40
0.5938161293
40
1.0000000000
40
1.0000000000
40
1.0000000000
40
1.0000000000
10
7.2431539405
20
15.0741078180
30
0.0000000000
10
7.2154319058
20
15.0879688353
30
0.0000000000
10
7.1638503190
20
15.1026633839
30
0.0000000000
10
7.1109460869
20
15.1005662723
30
0.0000000000
10
7.0899172677
20
15.0970360858
30
0.0000000000
11
7.2431539405
21
15.0741078180
31
0.0000000000
11
7.1537055614
21
15.0994995204
31
0.0000000000
11
7.0899172677
21
15.0970360858
31
0.0000000000
0
SPLINE
5
322
100
AcDbEntity
8
0
100
AcDbSpline
62
7
6
CONTINUOUS
70
0
71
3
72
9
73
5
74
3
42
0.0000001000
43
0.0000001000
44
0.0000000001
12
-0.0630105568
22
-0.0105778180
32
0.0000000000
13
-0.0582779541
23
-0.0261788478
33
0.0000000000
40
0.0000000000
40
0.0000000000
40
0.0000000000
40
0.0000000000
40
0.4988901599
40
1.0000000000
40
1.0000000000
40
1.0000000000
40
1.0000000000
10
7.0899172677
20
15.0970360858
30
0.0000000000
10
7.0794388188
20
15.0952770293
30
0.0000000000
10
7.0586642507
20
15.0904180890
30
0.0000000000
10
7.0386857523
20
15.0829329503
30
0.0000000000
10
7.0289512002
20
15.0785601243
30
0.0000000000
11
7.0899172677
21
15.0970360858
31
0.0000000000
11
7.0589084985
21
15.0897752361
31
0.0000000000
11
7.0289512002
21
15.0785601243
31
0.0000000000
0
SPLINE
5
323
100
AcDbEntity
8
0
100
AcDbSpline
62
7
6
CONTINUOUS
70
0
71
3
72
8
73
4
74
2
42
0.0000001000
43
0.0000001000
44
0.0000000001
12
-0.0096558732
22
-0.0043374830
32
0.0000000000
13
-0.0094659185
23
-0.0047413722
33
0.0000000000
40
0.0000000000
40
0.0000000000
40
0.0000000000
40
0.0000000000
40
1.0000000000
40
1.0000000000
40
1.0000000000
40
1.0000000000
10
7.0289512002
20
15.0785601243
30
0.0000000000
10
7.0257325758
20
15.0771142966
30
0.0000000000
10
7.0225442195
20
15.0756004760
30
0.0000000000
10
7.0193889133
20
15.0740200186
30
0.0000000000
11
7.0289512002
21
15.0785601243
31
0.0000000000
11
7.0193889133
21
15.0740200186
31
0.0000000000
0
SPLINE
5
324
100
AcDbEntity
8
0
100
AcDbSpline
62
7
6
CONTINUOUS
70
0
71
3
72
11
73
7
74
5
42
0.0000001000
43
0.0000001000
44
0.0000000001
12
-0.2117482948
22
-0.2556028026
32
0.0000000000
13
-0.0000000000
23
-0.3319188651
33
0.0000000000
40
0.0000000000
40
0.0000000000
40
0.0000000000
40
0.0000000000
40
0.2641234596
40
0.5417637503
40
0.7972980430
40
1.0000000000
40
1.0000000000
40
1.0000000000
40
1.0000000000
10
8.1370423781
20
13.0277825699
30
0.0000000000
10
8.1183998140
20
13.0052790044
30
0.0000000000
10
8.0843216889
20
12.9555736071
30
0.0000000000
10
8.0463818181
20
12.8755328827
30
0.0000000000
10
8.0235535206
20
12.7970252195
30
0.0000000000
10
8.0177466447
20
12.7463090833
30
0.0000000000
10
8.0177466447
20
12.7238822154
30
0.0000000000
11
8.1370423781
21
13.0277825699
31
0.0000000000
11
8.0871442013
21
12.9557008604
31
0.0000000000
11
8.0477245936
21
12.8724034205
31
0.0000000000
11
8.0245293543
21
12.7908200557
31
0.0000000000
11
8.0177466447
21
12.7238822154
31
0.0000000000
0
SPLINE
5
325
100
AcDbEntity
8
0
100
AcDbSpline
62
7
6
CONTINUOUS
70
0
71
3
72
9
73
5
74
3
42
0.0000001000
43
0.0000001000
44
0.0000000001
12
0.0826516667
22
0.0997693874
32
0.0000000000
13
0.0220922655
23
0.1284644985
33
0.0000000000
40
0.0000000000
40
0.0000000000
40
0.0000000000
40
0.0000000000
40
0.7495815133
40
1.0000000000
40
1.0000000000
40
1.0000000000
40
1.0000000000
10
8.6673724640
20
13.6679476128
30
0.0000000000
10
8.6880238511
20
13.6928760423
30
0.0000000000
10
8.7092393257
20
13.7319979483
30
0.0000000000
10
8.7194061489
20
13.7743515673
30
0.0000000000
10
8.7212502528
20
13.7850748624
30
0.0000000000
11
8.6673724640
21
13.6679476128
31
0.0000000000
11
8.7136213734
21
13.7533419678
31
0.0000000000
11
8.7212502528
21
13.7850748624
31
0.0000000000
0
SPLINE
5
326
100
AcDbEntity
8
0
100
AcDbSpline
62
7
6
CONTINUOUS
70
0
71
3
72
8
73
4
74
2
42
0.0000001000
43
0.0000001000
44
0.0000000001
12
0.0072127764
22
0.0419416333
32
0.0000000000
13
-0.0000050654
23
0.0425681881
33
0.0000000000
40
0.0000000000
40
0.0000000000
40
0.0000000000
40
0.0000000000
40
1.0000000000
40
1.0000000000
40
1.0000000000
40
1.0000000000
10
8.7212502528
20
13.7850748624
30
0.0000000000
10
8.7236545116
20
13.7990554068
30
0.0000000000
10
8.7248657715
20
13.8132351071
30
0.0000000000
10
8.7248640830
20
13.8274245031
30
0.0000000000
11
8.7212502528
21
13.7850748624
31
0.0000000000
11
8.7248640830
21
13.8274245031
31
0.0000000000
0
SPLINE
5
327
100
AcDbEntity
8
0
100
AcDbSpline
62
7
6
CONTINUOUS
70
0
71
3
72
10
73
6
74
4
42
0.0000001000
43
0.0000001000
44
0.0000000001
12
0.2458560429
22
-0.1229280215
32
0.0000000000
13
0.0001441149
23
-0.2769550268
33
0.0000000000
40
0.0000000000
40
0.0000000000
40
0.0000000000
40
0.0000000000
40
0.3616445120
40
0.7319445178
40
1.0000000000
40
1.0000000000
40
1.0000000000
40
1.0000000000
10
8.5866568248
20
14.4023563759
30
0.0000000000
10
8.6162943210
20
14.3875376278
30
0.0000000000
10
8.6708358069
20
14.3449721675
30
0.0000000000
10
8.7160541057
20
14.2623896490
30
0.0000000000
10
8.7248369716
20
14.2035175703
30
0.0000000000
10
8.7248498485
20
14.1787711326
30
0.0000000000
11
8.5866568248
21
14.4023563759
31
0.0000000000
11
8.6649558280
21
14.3411105239
31
0.0000000000
11
8.7139197174
21
14.2518748696
31
0.0000000000
11
8.7248498485
21
14.1787711326
31
0.0000000000
0
SPLINE
5
328
100
AcDbEntity
8
0
100
AcDbSpline
62
7
6
CONTINUOUS
70
0
71
3
72
9
73
5
74
3
42
0.0000001000
43
0.0000001000
44
0.0000000001
12
0.0000000000
22
-0.1352131738
32
0.0000000000
13
0.0705245311
23
-0.1164326772
33
0.0000000000
40
0.0000000000
40
0.0000000000
40
0.0000000000
40
0.0000000000
40
0.7481290239
40
1.0000000000
40
1.0000000000
40
1.0000000000
40
1.0000000000
10
4.7600301981
20
13.4385268764
30
0.0000000000
10
4.7600301981
20
13.4048079098
30
0.0000000000
10
4.7694218027
20
13.3592015474
30
0.0000000000
10
4.7902717005
20
13.3187637003
30
0.0000000000
10
4.7961927280
20
13.3089883629
30
0.0000000000
11
4.7600301981
21
13.4385268764
31
0.0000000000
11
4.7804956348
21
13.3394618257
31
0.0000000000
11
4.7961927280
21
13.3089883629
31
0.0000000000
0
SPLINE
5
329
100
AcDbEntity
8
0
100
AcDbSpline
62
7
6
CONTINUOUS
70
0
71
3
72
9
73
5
74
3
42
0.0000001000
43
0.0000001000
44
0.0000000001
12
0.0729565200
22
-0.1204477762
32
0.0000000000
13
0.1258781919
23
-0.0629100841
33
0.0000000000
40
0.0000000000
40
0.0000000000
40
0.0000000000
40
0.0000000000
40
0.4867712243
40
1.0000000000
40
1.0000000000
40
1.0000000000
40
1.0000000000
10
4.7961927280
20
13.3089883629
30
0.0000000000
10
4.8080304395
20
13.2894448591
30
0.0000000000
10
4.8378471584
20
13.2526604840
30
0.0000000000
10
4.8770239787
20
13.2255508203
30
0.0000000000
10
4.8985587488
20
13.2147883985
30
0.0000000000
11
4.7961927280
21
13.3089883629
31
0.0000000000
11
4.8392761217
21
13.2559260949
31
0.0000000000
11
4.8985587488
21
13.2147883985
31
0.0000000000
0
SPLINE
5
32A
100
AcDbEntity
8
0
100
AcDbSpline
62
7
6
CONTINUOUS
70
0
71
3
72
9
73
5
74
3
42
0.0000001000
43
0.0000001000
44
0.0000000001
12
0.0000000000
22
-0.1352131738
32
0.0000000000
13
0.0705245311
23
-0.1164326772
33
0.0000000000
40
0.0000000000
40
0.0000000000
40
0.0000000000
40
0.0000000000
40
0.7481290239
40
1.0000000000
40
1.0000000000
40
1.0000000000
40
1.0000000000
10
-8.6042879664
20
20.1206859586
30
0.0000000000
10
-8.6042879664
20
20.0869669920
30
0.0000000000
10
-8.5948963618
20
20.0413606296
30
0.0000000000
10
-8.5740464639
20
20.0009227825
30
0.0000000000
10
-8.5681254364
20
19.9911474451
30
0.0000000000
11
-8.6042879664
21
20.1206859586
31
0.0000000000
11
-8.5838225296
21
20.0216209079
31
0.0000000000
11
-8.5681254364
21
19.9911474451
31
0.0000000000
0
SPLINE
5
32B
100
AcDbEntity
8
0
100
AcDbSpline
62
7
6
CONTINUOUS
70
0
71
3
72
9
73
5
74
3
42
0.0000001000
43
0.0000001000
44
0.0000000001
12
0.0729565200
22
-0.1204477762
32
0.0000000000
13
0.1258781919
23
-0.0629100841
33
0.0000000000
40
0.0000000000
40
0.0000000000
40
0.0000000000
40
0.0000000000
40
0.4867712243
40
1.0000000000
40
1.0000000000
40
1.0000000000
40
1.0000000000
10
-8.5681254364
20
19.9911474451
30
0.0000000000
10
-8.5562877249
20
19.9716039413
30
0.0000000000
10
-8.5264710060
20
19.9348195663
30
0.0000000000
10
-8.4872941857
20
19.9077099025
30
0.0000000000
10
-8.4657594156
20
19.8969474807
30
0.0000000000
11
-8.5681254364
21
19.9911474451
31
0.0000000000
11
-8.5250420427
21
19.9380851771
31
0.0000000000
11
-8.4657594156
21
19.8969474807
31
0.0000000000
0
SPLINE
5
32C
100
AcDbEntity
8
0
100
AcDbSpline
62
7
6
CONTINUOUS
70
0
71
3
72
10
73
6
74
4
42
0.0000001000
43
0.0000001000
44
0.0000000001
12
-0.2458560429
22
-0.1229280215
32
0.0000000000
13
-0.0001441149
23
-0.2769550268
33
0.0000000000
40
0.0000000000
40
0.0000000000
40
0.0000000000
40
0.0000000000
40
0.3616445120
40
0.7319445178
40
1.0000000000
40
1.0000000000
40
1.0000000000
40
1.0000000000
10
-8.4660913652
20
20.6956067284
30
0.0000000000
10
-8.4957288614
20
20.6807879803
30
0.0000000000
10
-8.5502703474
20
20.6382225201
30
0.0000000000
10
-8.5954886462
20
20.5556400016
30
0.0000000000
10
-8.6042715121
20
20.4967679229
30
0.0000000000
10
-8.6042843890
20
20.4720214851
30
0.0000000000
11
-8.4660913652
21
20.6956067284
31
0.0000000000
11
-8.5443903685
21
20.6343608764
31
0.0000000000
11
-8.5933542579
21
20.5451252221
31
0.0000000000
11
-8.6042843890
21
20.4720214851
31
0.0000000000
0
SPLINE
5
32D
100
AcDbEntity
8
0
100
AcDbSpline
62
7
6
CONTINUOUS
70
0
71
3
72
9
73
5
74
3
42
0.0000001000
43
0.0000001000
44
0.0000000001
12
0.1400536293
22
0.0700268147
32
0.0000000000
13
0.1553150236
23
-0.0260733144
33
0.0000000000
40
0.0000000000
40
0.0000000000
40
0.0000000000
40
0.0000000000
40
0.5938161293
40
1.0000000000
40
1.0000000000
40
1.0000000000
40
1.0000000000
10
-6.3447710217
20
21.7562669002
30
0.0000000000
10
-6.3170489870
20
21.7701279176
30
0.0000000000
10
-6.2654674002
20
21.7848224661
30
0.0000000000
10
-6.2125631681
20
21.7827253546
30
0.0000000000
10
-6.1915343489
20
21.7791951680
30
0.0000000000
11
-6.3447710217
21
21.7562669002
31
0.0000000000
11
-6.2553226425
21
21.7816586026
31
0.0000000000
11
-6.1915343489
21
21.7791951680
31
0.0000000000
0
SPLINE
5
32E
100
AcDbEntity
8
0
100
AcDbSpline
62
7
6
CONTINUOUS
70
0
71
3
72
9
73
5
74
3
42
0.0000001000
43
0.0000001000
44
0.0000000001
12
0.0630105568
22
-0.0105778180
32
0.0000000000
13
0.0582779541
23
-0.0261788478
33
0.0000000000
40
0.0000000000
40
0.0000000000
40
0.0000000000
40
0.0000000000
40
0.4988901599
40
1.0000000000
40
1.0000000000
40
1.0000000000
40
1.0000000000
10
-6.1915343489
20
21.7791951680
30
0.0000000000
10
-6.1810559000
20
21.7774361115
30
0.0000000000
10
-6.1602813319
20
21.7725771712
30
0.0000000000
10
-6.1403028334
20
21.7650920326
30
0.0000000000
10
-6.1305682814
20
21.7607192065
30
0.0000000000
11
-6.1915343489
21
21.7791951680
31
0.0000000000
11
-6.1605255797
21
21.7719343183
31
0.0000000000
11
-6.1305682814
21
21.7607192065
31
0.0000000000
0
SPLINE
5
32F
100
AcDbEntity
8
0
100
AcDbSpline
62
7
6
CONTINUOUS
70
0
71
3
72
8
73
4
74
2
42
0.0000001000
43
0.0000001000
44
0.0000000001
12
0.0096558732
22
-0.0043374830
32
0.0000000000
13
0.0094659185
23
-0.0047413722
33
0.0000000000
40
0.0000000000
40
0.0000000000
40
0.0000000000
40
0.0000000000
40
1.0000000000
40
1.0000000000
40
1.0000000000
40
1.0000000000
10
-6.1305682814
20
21.7607192065
30
0.0000000000
10
-6.1273496570
20
21.7592733788
30
0.0000000000
10
-6.1241613006
20
21.7577595582
30
0.0000000000
10
-6.1210059945
20
21.7561791008
30
0.0000000000
11
-6.1305682814
21
21.7607192065
31
0.0000000000
11
-6.1210059945
21
21.7561791008
31
0.0000000000
0
SPLINE
5
330
100
AcDbEntity
8
0
100
AcDbSpline
62
7
6
CONTINUOUS
70
0
71
3
72
11
73
7
74
5
42
0.0000001000
43
0.0000001000
44
0.0000000001
12
-0.2117482948
22
-0.2556028026
32
0.0000000000
13
-0.0000000000
23
-0.3319188651
33
0.0000000000
40
0.0000000000
40
0.0000000000
40
0.0000000000
40
0.0000000000
40
0.2641234596
40
0.5417637503
40
0.7972980430
40
1.0000000000
40
1.0000000000
40
1.0000000000
40
1.0000000000
10
-5.2272757863
20
19.7099416521
30
0.0000000000
10
-5.2459183504
20
19.6874380866
30
0.0000000000
10
-5.2799964755
20
19.6377326893
30
0.0000000000
10
-5.3179363463
20
19.5576919649
30
0.0000000000
10
-5.3407646439
20
19.4791843017
30
0.0000000000
10
-5.3465715197
20
19.4284681655
30
0.0000000000
10
-5.3465715197
20
19.4060412977
30
0.0000000000
11
-5.2272757863
21
19.7099416521
31
0.0000000000
11
-5.2771739632
21
19.6378599426
31
0.0000000000
11
-5.3165935708
21
19.5545625027
31
0.0000000000
11
-5.3397888101
21
19.4729791379
31
0.0000000000
11
-5.3465715197
21
19.4060412977
31
0.0000000000
0
SPLINE
5
331
100
AcDbEntity
8
0
100
AcDbSpline
62
7
6
CONTINUOUS
70
0
71
3
72
9
73
5
74
3
42
0.0000001000
43
0.0000001000
44
0.0000000001
12
-0.0000000000
22
-0.1352131738
32
0.0000000000
13
-0.0705245311
23
-0.1164326772
33
0.0000000000
40
0.0000000000
40
0.0000000000
40
0.0000000000
40
0.0000000000
40
0.7481290239
40
1.0000000000
40
1.0000000000
40
1.0000000000
40
1.0000000000
10
-4.6394647385
20
20.5095946882
30
0.0000000000
10
-4.6394647385
20
20.4758757217
30
0.0000000000
10
-4.6488563431
20
20.4302693593
30
0.0000000000
10
-4.6697062410
20
20.3898315121
30
0.0000000000
10
-4.6756272685
20
20.3800561748
30
0.0000000000
11
-4.6394647385
21
20.5095946882
31
0.0000000000
11
-4.6599301753
21
20.4105296376
31
0.0000000000
11
-4.6756272685
21
20.3800561748
31
0.0000000000
0
SPLINE
5
332
100
AcDbEntity
8
0
100
AcDbSpline
62
7
6
CONTINUOUS
70
0
71
3
72
8
73
4
74
2
42
0.0000001000
43
0.0000001000
44
0.0000000001
12
-0.0190510318
22
-0.0314523556
32
0.0000000000
13
-0.0234596839
23
-0.0283210839
33
0.0000000000
40
0.0000000000
40
0.0000000000
40
0.0000000000
40
0.0000000000
40
1.0000000000
40
1.0000000000
40
1.0000000000
40
1.0000000000
10
-4.6756272685
20
20.3800561748
30
0.0000000000
10
-4.6819776124
20
20.3695720563
30
0.0000000000
10
-4.6890981129
20
20.3595592990
30
0.0000000000
10
-4.6969180076
20
20.3501189378
30
0.0000000000
11
-4.6756272685
21
20.3800561748
31
0.0000000000
11
-4.6969180076
21
20.3501189378
31
0.0000000000
0
SPLINE
5
333
100
AcDbEntity
8
0
100
AcDbSpline
62
7
6
CONTINUOUS
70
0
71
3
72
11
73
7
74
5
42
0.0000001000
43
0.0000001000
44
0.0000000001
12
0.2478698196
22
-0.1236689549
32
0.0000000000
13
-0.0000285908
23
-0.2773419852
33
0.0000000000
40
0.0000000000
40
0.0000000000
40
0.0000000000
40
0.0000000000
40
0.1634047876
40
0.5168852676
40
0.8757634146
40
1.0000000000
40
1.0000000000
40
1.0000000000
40
1.0000000000
10
-4.7778599511
20
21.0845791765
30
0.0000000000
10
-4.7643589126
20
21.0778431434
30
0.0000000000
10
-4.7234920120
20
21.0526838167
30
0.0000000000
10
-4.6686162149
20
20.9914066708
30
0.0000000000
10
-4.6425359782
20
20.9172198494
30
0.0000000000
10
-4.6394966144
20
20.8725346967
30
0.0000000000
10
-4.6394977984
20
20.8610493563
30
0.0000000000
11
-4.7778599511
21
21.0845791765
31
0.0000000000
11
-4.7393674686
21
21.0608356709
31
0.0000000000
11
-4.6744771598
21
20.9885030998
31
0.0000000000
11
-4.6418547787
21
20.8953950023
31
0.0000000000
11
-4.6394977984
21
20.8610493563
31
0.0000000000
0
SPLINE
5
334
100
AcDbEntity
8
0
100
AcDbSpline
62
7
6
CONTINUOUS
70
0
71
3
72
11
73
7
74
5
42
0.0000001000
43
0.0000001000
44
0.0000000001
12
0.2078681995
22
-0.1039340997
32
0.0000000000
13
0.2084814306
23
0.1050502880
33
0.0000000000
40
0.0000000000
40
0.0000000000
40
0.0000000000
40
0.0000000000
40
0.3175658015
40
0.6054166106
40
0.8716679417
40
1.0000000000
40
1.0000000000
40
1.0000000000
40
1.0000000000
10
6.6698971285
20
-27.2936340673
30
0.0000000000
10
6.6919010723
20
-27.3046360392
30
0.0000000000
10
6.7359426703
20
-27.3218903148
30
0.0000000000
10
6.8035292234
20
-27.3314197331
30
0.0000000000
10
6.8566765902
20
-27.3237095100
30
0.0000000000
10
6.8851834494
20
-27.3120478519
30
0.0000000000
10
6.8941017331
20
-27.3075540787
30
0.0000000000
11
6.6698971285
21
-27.2936340673
31
0.0000000000
11
6.7389023997
21
-27.3198108682
31
0.0000000000
11
6.8052551343
21
-27.3283316101
31
0.0000000000
11
6.8664054947
21
-27.3188714160
31
0.0000000000
11
6.8941017331
21
-27.3075540787
31
0.0000000000
0
SPLINE
5
335
100
AcDbEntity
8
0
100
AcDbSpline
62
7
6
CONTINUOUS
70
0
71
3
72
12
73
8
74
6
42
0.0000001000
43
0.0000001000
44
0.0000000001
12
0.0000000000
22
-0.3146429610
32
0.0000000000
13
-0.2822554466
23
-0.1422237887
33
0.0000000000
40
0.0000000000
40
0.0000000000
40
0.0000000000
40
0.0000000000
40
0.2587034113
40
0.4938614812
40
0.7069806019
40
0.9039381619
40
1.0000000000
40
1.0000000000
40
1.0000000000
40
1.0000000000
10
9.1819602071
20
-25.9497851023
30
0.0000000000
10
9.1819602071
20
-25.9769181714
30
0.0000000000
10
9.1780162173
20
-26.0288640913
30
0.0000000000
10
9.1584621721
20
-26.1009273943
30
0.0000000000
10
9.1258572410
20
-26.1610774828
30
0.0000000000
10
9.0879503758
20
-26.1994166028
30
0.0000000000
10
9.0614878576
20
-26.2155041150
30
0.0000000000
10
9.0524498652
20
-26.2200582079
30
0.0000000000
11
9.1819602071
21
-25.9497851023
31
0.0000000000
11
9.1751621915
21
-26.0308999465
31
0.0000000000
11
9.1550309577
21
-26.1020995009
31
0.0000000000
11
9.1223422115
21
-26.1606487181
31
0.0000000000
11
9.0783530333
21
-26.2042995538
31
0.0000000000
11
9.0524498652
21
-26.2200582079
31
0.0000000000
0
SPLINE
5
336
100
AcDbEntity
8
0
100
AcDbSpline
62
7
6
CONTINUOUS
70
0
71
3
72
15
73
11
74
9
42
0.0000001000
43
0.0000001000
44
0.0000000001
12
0.6584562976
22
-0.3292281488
32
0.0000000000
13
-0.0000000000
23
-0.7361765208
33
0.0000000000
40
0.0000000000
40
0.0000000000
40
0.0000000000
40
0.0000000000
40
0.1103210880
40
0.2298825222
40
0.3567663160
40
0.4883345280
40
0.6215367244
40
0.7531861065
40
0.8802252688
40
1.0000000000
40
1.0000000000
40
1.0000000000
40
1.0000000000
10
8.8282452564
20
12.5615668315
30
0.0000000000
10
8.8524591281
20
12.5494598956
30
0.0000000000
10
8.9004523059
20
12.5191580614
30
0.0000000000
10
8.9663594273
20
12.4610951540
30
0.0000000000
10
9.0270452570
20
12.3905777661
30
0.0000000000
10
9.0802408710
20
12.3102486552
30
0.0000000000
10
9.1239816734
20
12.2231021957
30
0.0000000000
10
9.1566292674
20
12.1323872567
30
0.0000000000
10
9.1769597876
20
12.0415181996
30
0.0000000000
10
9.1819602071
20
11.9808905660
30
0.0000000000
10
9.1819602071
20
11.9514987844
30
0.0000000000
11
8.8282452564
21
12.5615668315
31
0.0000000000
11
8.8972505276
21
12.5187383612
31
0.0000000000
11
8.9636032621
21
12.4609063685
31
0.0000000000
11
9.0247536226
21
12.3902958141
31
0.0000000000
11
9.0783528874
21
12.3096206613
31
0.0000000000
11
9.1223421138
21
12.2219806237
31
0.0000000000
11
9.1550309182
21
12.1307425689
31
0.0000000000
11
9.1751621851
21
12.0394116864
31
0.0000000000
11
9.1819602071
21
11.9514987844
31
0.0000000000
0
SPLINE
5
337
100
AcDbEntity
8
0
100
AcDbSpline
62
7
6
CONTINUOUS
70
0
71
3
72
12
73
8
74
6
42
0.0000001000
43
0.0000001000
44
0.0000000001
12
0.0000000000
22
0.6302091156
32
0.0000000000
13
-0.5660728359
23
0.2832234225
33
0.0000000000
40
0.0000000000
40
0.0000000000
40
0.0000000000
40
0.0000000000
40
0.2554789576
40
0.4879801843
40
0.6988883657
40
0.8937515308
40
1.0000000000
40
1.0000000000
40
1.0000000000
40
1.0000000000
10
6.2474670651
20
19.9208176484
30
0.0000000000
10
6.2474670651
20
19.9744860377
30
0.0000000000
10
6.2397450457
20
20.0772834033
30
0.0000000000
10
6.2015046458
20
20.2200675535
30
0.0000000000
10
6.1377493166
20
20.3396433908
30
0.0000000000
10
6.0618972196
20
20.4181819984
30
0.0000000000
10
6.0075831525
20
20.4516354116
30
0.0000000000
10
5.9875350284
20
20.4616660966
30
0.0000000000
11
6.2474670651
21
19.9208176484
31
0.0000000000
11
6.2341795155
21
20.0812735773
31
0.0000000000
11
6.1948162506
21
20.2224115629
31
0.0000000000
11
6.1308566549
21
20.3389272351
31
0.0000000000
11
6.0447045132
21
20.4264416011
31
0.0000000000
11
5.9875350284
21
20.4616660966
31
0.0000000000
0
SPLINE
5
338
100
AcDbEntity
8
0
100
AcDbSpline
62
7
6
CONTINUOUS
70
0
71
3
72
10
73
6
74
4
42
0.0000001000
43
0.0000001000
44
0.0000000001
12
0.2633977027
22
0.1306472023
32
0.0000000000
13
0.1439998940
23
-0.1186054518
33
0.0000000000
40
0.0000000000
40
0.0000000000
40
0.0000000000
40
0.0000000000
40
0.5022705884
40
0.8547960901
40
1.0000000000
40
1.0000000000
40
1.0000000000
40
1.0000000000
10
2.3885004840
20
22.0214283766
30
0.0000000000
10
2.4325994571
20
22.0433017923
30
0.0000000000
10
2.5149077794
20
22.0810867916
30
0.0000000000
10
2.5873914036
20
22.1124828633
30
0.0000000000
10
2.6576000812
20
22.1297376735
30
0.0000000000
10
2.6645698637
20
22.1239970150
30
0.0000000000
11
2.3885004840
21
22.0214283766
31
0.0000000000
11
2.5223007632
21
22.0839261921
31
0.0000000000
11
2.6195406136
21
22.1198086522
31
0.0000000000
11
2.6645698637
21
22.1239970150
31
0.0000000000
0
SPLINE
5
339
100
AcDbEntity
8
0
100
AcDbSpline
62
7
6
CONTINUOUS
70
0
71
3
72
10
73
6
74
4
42
0.0000001000
43
0.0000001000
44
0.0000000001
12
0.0000000000
22
0.2835639754
32
0.0000000000
13
-0.0942236552
23
0.2674517357
33
0.0000000000
40
0.0000000000
40
0.0000000000
40
0.0000000000
40
0.0000000000
40
0.3526868308
40
0.6861836209
40
1.0000000000
40
1.0000000000
40
1.0000000000
40
1.0000000000
10
14.1143477448
20
15.9873773086
30
0.0000000000
10
14.1143477448
20
16.0207137352
30
0.0000000000
10
14.1113508535
20
16.0856324818
30
0.0000000000
10
14.0970838277
20
16.1792460990
30
0.0000000000
10
14.0807358213
20
16.2384108013
30
0.0000000000
10
14.0708795126
20
16.2663877130
30
0.0000000000
11
14.1143477448
21
15.9873773086
31
0.0000000000
11
14.1094724998
21
16.0872676886
31
0.0000000000
11
14.0949150843
21
16.1807081880
31
0.0000000000
11
14.0708795126
21
16.2663877130
31
0.0000000000
0
SPLINE
5
33A
100
AcDbEntity
8
0
100
AcDbSpline
62
7
6
CONTINUOUS
70
0
71
3
72
10
73
6
74
4
42
0.0000001000
43
0.0000001000
44
0.0000000001
12
-0.4421372264
22
0.4961865928
32
0.0000000000
13
-0.5958626307
23
0.2980118706
33
0.0000000000
40
0.0000000000
40
0.0000000000
40
0.0000000000
40
0.0000000000
40
0.5158607784
40
0.9608207693
40
1.0000000000
40
1.0000000000
40
1.0000000000
40
1.0000000000
10
14.0708795126
20
16.2663877130
30
0.0000000000
10
13.9948524280
20
16.3517087804
30
0.0000000000
10
13.8411548229
20
16.5005683398
30
0.0000000000
10
13.6568968871
20
16.6257655563
30
0.0000000000
10
13.5612502753
20
16.6748570443
30
0.0000000000
10
13.5534684622
20
16.6787490029
30
0.0000000000
11
14.0708795126
21
16.2663877130
31
0.0000000000
11
13.8230849013
21
16.5033181875
31
0.0000000000
11
13.5766886079
21
16.6668360804
31
0.0000000000
11
13.5534684622
21
16.6787490029
31
0.0000000000
0
SPLINE
5
33B
100
AcDbEntity
8
0
100
AcDbSpline
62
7
6
CONTINUOUS
70
0
71
3
72
11
73
7
74
5
42
0.0000001000
43
0.0000001000
44
0.0000000001
12
0.4056879499
22
0.1941711775
32
0.0000000000
13
0.4039890973
23
-0.2021280081
33
0.0000000000
40
0.0000000000
40
0.0000000000
40
0.0000000000
40
0.0000000000
40
0.3217225417
40
0.6138360054
40
0.8848886384
40
1.0000000000
40
1.0000000000
40
1.0000000000
40
1.0000000000
10
9.7953416860
20
18.3180077756
30
0.0000000000
10
9.8388480055
20
18.3388308572
30
0.0000000000
10
9.9258640115
20
18.3711435031
30
0.0000000000
10
10.0589867008
20
18.3873385974
30
0.0000000000
10
10.1609011631
20
18.3705628160
30
0.0000000000
10
10.2146744705
20
18.3481014964
30
0.0000000000
10
10.2301757155
20
18.3403457530
30
0.0000000000
11
9.7953416860
21
18.3180077756
31
0.0000000000
11
9.9315253432
21
18.3669119325
31
0.0000000000
11
10.0621270288
21
18.3812034718
31
0.0000000000
11
10.1822383571
21
18.3603452766
31
0.0000000000
11
10.2301757155
21
18.3403457530
31
0.0000000000
0
SPLINE
5
33C
100
AcDbEntity
8
0
100
AcDbSpline
62
7
6
CONTINUOUS
70
0
71
3
72
10
73
6
74
4
42
0.0000001000
43
0.0000001000
44
0.0000000001
12
0.0000000000
22
-0.2681866143
32
0.0000000000
13
-0.1982920754
23
-0.1849303063
33
0.0000000000
40
0.0000000000
40
0.0000000000
40
0.0000000000
40
0.0000000000
40
0.5382808969
40
0.9751629158
40
1.0000000000
40
1.0000000000
40
1.0000000000
40
1.0000000000
10
13.3805702898
20
14.4307745606
30
0.0000000000
10
13.3805702898
20
14.3826546501
30
0.0000000000
10
13.3698747267
20
14.2946547520
30
0.0000000000
10
13.3264932234
20
14.2128652122
30
0.0000000000
10
13.2964875788
20
14.1839086663
30
0.0000000000
10
13.2948459131
20
14.1823776231
30
0.0000000000
11
13.3805702898
21
14.4307745606
31
0.0000000000
11
13.3591316822
21
14.2880156094
31
0.0000000000
11
13.2996868780
21
14.1870494488
31
0.0000000000
11
13.2948459131
21
14.1823776231
31
0.0000000000
0
SPLINE
5
33D
100
AcDbEntity
8
0
100
AcDbSpline
62
7
6
CONTINUOUS
70
0
71
3
72
12
73
8
74
6
42
0.0000001000
43
0.0000001000
44
0.0000000001
12
1.1544904648
22
0.5816965273
32
0.0000000000
13
1.0770214968
23
0.7150131317
33
0.0000000000
40
0.0000000000
40
0.0000000000
40
0.0000000000
40
0.0000000000
40
0.1511514706
40
0.3378938807
40
0.5476765024
40
0.7716890904
40
1.0000000000
40
1.0000000000
40
1.0000000000
40
1.0000000000
10
12.9595422009
20
-21.7591723387
30
0.0000000000
10
13.0177098447
20
-21.7298642435
30
0.0000000000
10
13.1464383671
20
-21.6617619640
30
0.0000000000
10
13.3521684327
20
-21.5460847429
30
0.0000000000
10
13.5824132840
20
-21.4100649419
30
0.0000000000
10
13.8251789642
20
-21.2601377089
30
0.0000000000
10
13.9889142600
20
-21.1543537166
30
0.0000000000
10
14.0708795126
20
-21.0999386171
30
0.0000000000
11
12.9595422009
21
-21.7591723387
31
0.0000000000
11
13.1325186714
21
-21.6682817794
31
0.0000000000
11
13.3431089628
21
-21.5502491685
31
0.0000000000
11
13.5766886079
21
-21.4124492792
31
0.0000000000
11
13.8230849013
21
-21.2602869307
31
0.0000000000
11
14.0708795126
21
-21.0999386171
31
0.0000000000
0
SPLINE
5
33E
100
AcDbEntity
8
0
100
AcDbSpline
62
7
6
CONTINUOUS
70
0
71
3
72
10
73
6
74
4
42
0.0000001000
43
0.0000001000
44
0.0000000001
12
0.0819023456
22
0.3172903359
32
0.0000000000
13
0.0000000000
23
0.3276906338
33
0.0000000000
40
0.0000000000
40
0.0000000000
40
0.0000000000
40
0.0000000000
40
0.3452993644
40
0.6794170504
40
1.0000000000
40
1.0000000000
40
1.0000000000
40
1.0000000000
10
14.0708795126
20
-21.0999386171
30
0.0000000000
10
14.0803064552
20
-21.0634185667
30
0.0000000000
10
14.0961709075
20
-20.9908287100
30
0.0000000000
10
14.1108771654
20
-20.8824800427
30
0.0000000000
10
14.1143477448
20
-20.8109328838
30
0.0000000000
10
14.1143477448
20
-20.7759155404
30
0.0000000000
11
14.0708795126
21
-21.0999386171
31
0.0000000000
11
14.0949150843
21
-20.9893695288
31
0.0000000000
11
14.1094724998
21
-20.8808543844
31
0.0000000000
11
14.1143477448
21
-20.7759155404
31
0.0000000000
0
SPLINE
5
33F
100
AcDbEntity
8
0
100
AcDbSpline
62
7
6
CONTINUOUS
70
0
71
3
72
12
73
8
74
6
42
0.0000001000
43
0.0000001000
44
0.0000000001
12
0.0000000000
22
0.3150795073
32
0.0000000000
13
-0.2830792673
23
0.1415607165
33
0.0000000000
40
0.0000000000
40
0.0000000000
40
0.0000000000
40
0.0000000000
40
0.2582331548
40
0.4929665756
40
0.7057006450
40
0.9022993158
40
1.0000000000
40
1.0000000000
40
1.0000000000
40
1.0000000000
10
3.7725933310
20
20.8336796556
30
0.0000000000
10
3.7725933310
20
20.8608009806
30
0.0000000000
10
3.7686521691
20
20.9127246533
30
0.0000000000
10
3.7491103300
20
20.9847582351
30
0.0000000000
10
3.7165228804
20
21.0448847013
30
0.0000000000
10
3.6784972543
20
21.0833462105
30
0.0000000000
10
3.6518537676
20
21.0994879228
30
0.0000000000
10
3.6426347549
20
21.1040981157
30
0.0000000000
11
3.7725933310
21
20.8336796556
31
0.0000000000
11
3.7657999017
21
20.9147595284
31
0.0000000000
11
3.7456806816
21
20.9859301179
31
0.0000000000
11
3.7130088410
21
21.0444563783
31
0.0000000000
11
3.6690399404
21
21.0880891781
31
0.0000000000
11
3.6426347549
21
21.1040981157
31
0.0000000000
0
SPLINE
5
340
100
AcDbEntity
8
0
100
AcDbSpline
62
7
6
CONTINUOUS
70
0
71
3
72
11
73
7
74
5
42
0.0000001000
43
0.0000001000
44
0.0000000001
12
0.2088226041
22
0.1032154446
32
0.0000000000
13
0.2092700250
23
-0.1046487878
33
0.0000000000
40
0.0000000000
40
0.0000000000
40
0.0000000000
40
0.0000000000
40
0.3179929582
40
0.6065837780
40
0.8737184910
40
1.0000000000
40
1.0000000000
40
1.0000000000
40
1.0000000000
10
2.8131889953
20
21.3928411347
30
0.0000000000
10
2.8353237012
20
21.4037817296
30
0.0000000000
10
2.8796283093
20
21.4209072244
30
0.0000000000
10
2.9475573247
20
21.4302298187
30
0.0000000000
10
3.0007672757
20
21.4224034781
30
0.0000000000
10
3.0292628639
20
21.4107851678
30
0.0000000000
10
3.0380718421
20
21.4063800988
30
0.0000000000
11
2.8131889953
21
21.3928411347
31
0.0000000000
11
2.8825605798
21
21.4188095701
31
0.0000000000
11
2.9492663303
21
21.4271398902
31
0.0000000000
11
3.0107429063
21
21.4175119107
31
0.0000000000
11
3.0380718421
21
21.4063800988
31
0.0000000000
0
SPLINE
5
341
100
AcDbEntity
8
0
100
AcDbSpline
62
7
6
CONTINUOUS
70
0
71
3
72
12
73
8
74
6
42
0.0000001000
43
0.0000001000
44
0.0000000001
12
0.0000000000
22
0.3143566812
32
0.0000000000
13
-0.2824444458
23
0.1412456436
33
0.0000000000
40
0.0000000000
40
0.0000000000
40
0.0000000000
40
0.0000000000
40
0.2587566289
40
0.4937538350
40
0.7064249753
40
0.9026204442
40
1.0000000000
40
1.0000000000
40
1.0000000000
40
1.0000000000
10
9.3261554005
20
18.0568986208
30
0.0000000000
10
9.3261554005
20
18.0840125792
30
0.0000000000
10
9.3222417428
20
18.1358984601
30
0.0000000000
10
9.3028246154
20
18.2078633771
30
0.0000000000
10
9.2704415401
20
18.2678955432
30
0.0000000000
10
9.2326253651
20
18.3062784881
30
0.0000000000
10
9.2061132000
20
18.3223575965
30
0.0000000000
10
9.1969450951
20
18.3269424092
30
0.0000000000
11
9.3261554005
21
18.0568986208
31
0.0000000000
11
9.3194009854
21
18.1379595764
31
0.0000000000
11
9.2993973354
21
18.2090726239
31
0.0000000000
11
9.2669132860
21
18.2675048346
31
0.0000000000
11
9.2231973203
21
18.3110107415
31
0.0000000000
11
9.1969450951
21
18.3269424092
31
0.0000000000
0
SPLINE
5
342
100
AcDbEntity
8
0
100
AcDbSpline
62
7
6
CONTINUOUS
70
0
71
3
72
11
73
7
74
5
42
0.0000001000
43
0.0000001000
44
0.0000000001
12
0.2072674228
22
0.1036337114
32
0.0000000000
13
0.2081967564
23
-0.1041138840
33
0.0000000000
40
0.0000000000
40
0.0000000000
40
0.0000000000
40
0.0000000000
40
0.3183488335
40
0.6069120174
40
0.8738205244
40
1.0000000000
40
1.0000000000
40
1.0000000000
40
1.0000000000
10
8.3687874087
20
18.6150419280
30
0.0000000000
10
8.3907818561
20
18.6260391517
30
0.0000000000
10
8.4348039994
20
18.6432871302
30
0.0000000000
10
8.5023608582
20
18.6528169535
30
0.0000000000
10
8.5552944710
20
18.6451415876
30
0.0000000000
10
8.5836255040
20
18.6336033933
30
0.0000000000
10
8.5923822232
20
18.6292243816
30
0.0000000000
11
8.3687874087
21
18.6150419280
31
0.0000000000
11
8.4377622535
21
18.6412091328
31
0.0000000000
11
8.5040864337
21
18.6497303112
31
0.0000000000
11
8.5652111483
21
18.6402779993
31
0.0000000000
11
8.5923822232
21
18.6292243816
31
0.0000000000
0
SPLINE
5
343
100
AcDbEntity
8
0
100
AcDbSpline
62
7
6
CONTINUOUS
70
0
71
3
72
12
73
8
74
6
42
0.0000001000
43
0.0000001000
44
0.0000000001
12
-0.2177675582
22
-0.1076366969
32
0.0000000000
13
0.0000675890
23
-0.2440074563
33
0.0000000000
40
0.0000000000
40
0.0000000000
40
0.0000000000
40
0.0000000000
40
0.3019225804
40
0.5642486083
40
0.7914899606
40
0.9970676985
40
1.0000000000
40
1.0000000000
40
1.0000000000
40
1.0000000000
10
-2.8741987175
20
18.5817170517
30
0.0000000000
10
-2.8961150319
20
18.5708844020
30
0.0000000000
10
-2.9357460741
20
18.5476232746
30
0.0000000000
10
-2.9839394907
20
18.5045715434
30
0.0000000000
10
-3.0149940983
20
18.4565214823
30
0.0000000000
10
-3.0226414874
20
18.4211273429
30
0.0000000000
10
-3.0226874348
20
18.4041680852
30
0.0000000000
10
-3.0226873688
20
18.4039295840
30
0.0000000000
11
-2.8741987175
21
18.5817170517
31
0.0000000000
11
-2.9370170974
21
18.5438635000
31
0.0000000000
11
-2.9837964233
21
18.5005928141
31
0.0000000000
11
-3.0127258275
21
18.4535800394
31
0.0000000000
11
-3.0226854279
21
18.4046450808
31
0.0000000000
11
-3.0226873688
21
18.4039295840
31
0.0000000000
0
SPLINE
5
344
100
AcDbEntity
8
0
100
AcDbSpline
62
9
6
CONTINUOUS
70
0
71
3
72
10
73
6
74
4
42
0.0000001000
43
0.0000001000
44
0.0000000001
12
0.0000000000
22
0.1458144301
32
0.0000000000
13
-0.1244134218
23
0.0807858419
33
0.0000000000
40
0.0000000000
40
0.0000000000
40
0.0000000000
40
0.0000000000
40
0.4769151122
40
0.8779378994
40
1.0000000000
40
1.0000000000
40
1.0000000000
40
1.0000000000
10
6.8838631682
20
12.2819404772
30
0.0000000000
10
6.8838631682
20
12.3051208456
30
0.0000000000
10
6.8784658950
20
12.3482607325
30
0.0000000000
10
6.8538016411
20
12.3922633173
30
0.0000000000
10
6.8333867534
20
12.4082890542
30
0.0000000000
10
6.8283246989
20
12.4115760174
30
0.0000000000
11
6.8838631682
21
12.2819404772
31
0.0000000000
11
6.8732022290
21
12.3506595408
31
0.0000000000
11
6.8425052780
21
12.4004291319
31
0.0000000000
11
6.8283246989
21
12.4115760174
31
0.0000000000
0
SPLINE
5
345
100
AcDbEntity
8
0
100
AcDbSpline
62
9
6
CONTINUOUS
70
0
71
3
72
8
73
4
74
2
42
0.0000001000
43
0.0000001000
44
0.0000000001
12
-0.0037628893
22
0.0024433713
32
0.0000000000
13
-0.0038676912
23
0.0022733394
33
0.0000000000
40
0.0000000000
40
0.0000000000
40
0.0000000000
40
0.0000000000
40
1.0000000000
40
1.0000000000
40
1.0000000000
40
1.0000000000
10
6.8283246989
20
12.4115760174
30
0.0000000000
10
6.8270704024
20
12.4123904745
30
0.0000000000
10
6.8257977955
20
12.4131771403
30
0.0000000000
10
6.8245085651
20
12.4139349201
30
0.0000000000
11
6.8283246989
21
12.4115760174
31
0.0000000000
11
6.8245085651
21
12.4139349201
31
0.0000000000
0
SPLINE
5
346
100
AcDbEntity
8
0
100
AcDbSpline
62
9
6
CONTINUOUS
70
0
71
3
72
8
73
4
74
2
42
0.0000001000
43
0.0000001000
44
0.0000000001
12
-0.0077208061
22
-0.0170439833
32
0.0000000000
13
-0.0111042596
23
-0.0152634969
33
0.0000000000
40
0.0000000000
40
0.0000000000
40
0.0000000000
40
0.0000000000
40
1.0000000000
40
1.0000000000
40
1.0000000000
40
1.0000000000
10
8.0109806085
20
-26.7773894920
30
0.0000000000
10
8.0084070064
20
-26.7830708197
30
0.0000000000
10
8.0051641520
20
-26.7884634493
30
0.0000000000
10
8.0014627322
20
-26.7935512816
30
0.0000000000
11
8.0109806085
21
-26.7773894920
31
0.0000000000
11
8.0014627322
21
-26.7935512816
31
0.0000000000
0
SPLINE
5
347
100
AcDbEntity
8
0
100
AcDbSpline
62
9
6
CONTINUOUS
70
0
71
3
72
9
73
5
74
3
42
0.0000001000
43
0.0000001000
44
0.0000000001
12
-0.0440013978
22
-0.0604826636
32
0.0000000000
13
-0.0649909438
23
-0.0349726014
33
0.0000000000
40
0.0000000000
40
0.0000000000
40
0.0000000000
40
0.0000000000
40
0.2206762132
40
1.0000000000
40
1.0000000000
40
1.0000000000
40
1.0000000000
10
8.0014627322
20
-26.7935512816
30
0.0000000000
10
7.9982260449
20
-26.7980003100
30
0.0000000000
10
7.9819699609
20
-26.8171050607
30
0.0000000000
10
7.9614063361
20
-26.8312028504
30
0.0000000000
10
7.9445233400
20
-26.8402878438
30
0.0000000000
11
8.0014627322
21
-26.7935512816
31
0.0000000000
11
7.9908416142
21
-26.8061884091
31
0.0000000000
11
7.9445233400
21
-26.8402878438
31
0.0000000000
0
SPLINE
5
348
100
AcDbEntity
8
0
100
AcDbSpline
62
9
6
CONTINUOUS
70
0
71
3
72
11
73
7
74
5
42
0.0000001000
43
0.0000001000
44
0.0000000001
12
-0.1061592977
22
-0.2782775268
32
0.0000000000
13
-0.2954793229
23
0.0611227618
33
0.0000000000
40
0.0000000000
40
0.0000000000
40
0.0000000000
40
0.0000000000
40
0.3176223393
40
0.6108082489
40
0.8776890968
40
1.0000000000
40
1.0000000000
40
1.0000000000
40
1.0000000000
10
7.0606398635
20
12.5685521296
30
0.0000000000
10
7.0494003420
20
12.5390897432
30
0.0000000000
10
7.0190297716
20
12.4851991515
30
0.0000000000
10
6.9517102767
20
12.4267416983
30
0.0000000000
10
6.8845681250
20
12.4062721008
30
0.0000000000
10
6.8452301759
20
12.4097450128
30
0.0000000000
10
6.8331833949
20
12.4122370062
30
0.0000000000
11
7.0606398635
21
12.5685521296
31
0.0000000000
11
7.0133587826
21
12.4866147702
31
0.0000000000
11
6.9463631682
21
12.4306079557
31
0.0000000000
11
6.8698524954
21
12.4090582159
31
0.0000000000
11
6.8331833949
21
12.4122370062
31
0.0000000000
0
SPLINE
5
349
100
AcDbEntity
8
0
100
AcDbSpline
62
9
6
CONTINUOUS
70
0
71
3
72
11
73
7
74
5
42
0.0000001000
43
0.0000001000
44
0.0000000001
12
-0.1057221029
22
-0.2771314992
32
0.0000000000
13
-0.2947811286
23
0.0585649842
33
0.0000000000
40
0.0000000000
40
0.0000000000
40
0.0000000000
40
0.0000000000
40
0.3174140699
40
0.6124256554
40
0.8809117771
40
1.0000000000
40
1.0000000000
40
1.0000000000
40
1.0000000000
10
6.5303097776
20
12.6783870866
30
0.0000000000
10
6.5191238833
20
12.6490652743
30
0.0000000000
10
6.4888433488
20
12.5952474277
30
0.0000000000
10
6.4216457161
20
12.5367045395
30
0.0000000000
10
6.3547783934
20
12.5162302343
30
0.0000000000
10
6.3157711502
20
12.5195013277
30
0.0000000000
10
6.3040694966
20
12.5218261277
30
0.0000000000
11
6.5303097776
21
12.6783870866
31
0.0000000000
11
6.4833204524
21
12.5968025322
31
0.0000000000
11
6.4162738642
21
12.5405732555
31
0.0000000000
11
6.3396441425
21
12.5188975458
31
0.0000000000
11
6.3040694966
21
12.5218261277
31
0.0000000000
0
SPLINE
5
34A
100
AcDbEntity
8
0
100
AcDbSpline
62
9
6
CONTINUOUS
70
0
71
3
72
11
73
7
74
5
42
0.0000001000
43
0.0000001000
44
0.0000000001
12
-0.3249549290
22
-0.1624774645
32
0.0000000000
13
-0.3249549290
23
0.1624774645
33
0.0000000000
40
0.0000000000
40
0.0000000000
40
0.0000000000
40
0.0000000000
40
0.2353701082
40
0.5000000000
40
0.7646298918
40
1.0000000000
40
1.0000000000
40
1.0000000000
40
1.0000000000
10
6.5303097776
20
12.6783870866
30
0.0000000000
10
6.5048148854
20
12.6656396405
30
0.0000000000
10
6.4462222874
20
12.6474555147
30
0.0000000000
10
6.3535330823
20
12.6387691961
30
0.0000000000
10
6.2608438773
20
12.6474555147
30
0.0000000000
10
6.2022512793
20
12.6656396405
30
0.0000000000
10
6.1767563870
20
12.6783870866
30
0.0000000000
11
6.5303097776
21
12.6783870866
31
0.0000000000
11
6.4492039404
21
12.6512904927
31
0.0000000000
11
6.3535330823
21
12.6417754343
31
0.0000000000
11
6.2578622242
21
12.6512904927
31
0.0000000000
11
6.1767563870
21
12.6783870866
31
0.0000000000
0
SPLINE
5
34B
100
AcDbEntity
8
0
100
AcDbSpline
62
9
6
CONTINUOUS
70
0
71
3
72
11
73
7
74
5
42
0.0000001000
43
0.0000001000
44
0.0000000001
12
-0.3249561016
22
-0.1624780508
32
0.0000000000
13
-0.3249561016
23
0.1624780508
33
0.0000000000
40
0.0000000000
40
0.0000000000
40
0.0000000000
40
0.0000000000
40
0.2364812595
40
0.5026510937
40
0.7685248911
40
1.0000000000
40
1.0000000000
40
1.0000000000
40
1.0000000000
10
6.5303097776
20
13.0297010587
30
0.0000000000
10
6.5046944349
20
13.0168933873
30
0.0000000000
10
6.4457721562
20
12.9986519031
30
0.0000000000
10
6.3525967440
20
12.9900536330
30
0.0000000000
10
6.2600456136
20
12.9989425365
30
0.0000000000
10
6.2018294700
20
13.0171645172
30
0.0000000000
10
6.1767563870
20
13.0297010587
30
0.0000000000
11
6.5303097776
21
13.0297010587
31
0.0000000000
11
6.4488055028
21
13.0025221468
31
0.0000000000
11
6.3525638768
21
12.9930903457
31
0.0000000000
11
6.2564677083
21
13.0028957507
31
0.0000000000
11
6.1767563870
21
13.0297010587
31
0.0000000000
0
SPLINE
5
34C
100
AcDbEntity
8
0
100
AcDbSpline
62
9
6
CONTINUOUS
70
0
71
3
72
11
73
7
74
5
42
0.0000001000
43
0.0000001000
44
0.0000000001
12
0.3283063189
22
-0.1641531595
32
0.0000000000
13
-0.0000000000
23
-0.3670576233
33
0.0000000000
40
0.0000000000
40
0.0000000000
40
0.0000000000
40
0.0000000000
40
0.2259015102
40
0.4856075256
40
0.7520750422
40
1.0000000000
40
1.0000000000
40
1.0000000000
40
1.0000000000
10
8.4748534259
20
14.3952559291
30
0.0000000000
10
8.4995750570
20
14.3828951135
30
0.0000000000
10
8.5474317320
20
14.3456884383
30
0.0000000000
10
8.6030424924
20
14.2713445432
30
0.0000000000
10
8.6411102389
20
14.1837414815
30
0.0000000000
10
8.6516301212
20
14.1206954791
30
0.0000000000
10
8.6516301212
20
14.0903612305
30
0.0000000000
11
8.4748534259
21
14.3952559291
31
0.0000000000
11
8.5415143945
21
14.3459420922
31
0.0000000000
11
8.5993678837
21
14.2701778224
31
0.0000000000
11
8.6380568957
21
14.1803460474
31
0.0000000000
11
8.6516301212
21
14.0903612305
31
0.0000000000
0
SPLINE
5
34D
100
AcDbEntity
8
0
100
AcDbSpline
62
9
6
CONTINUOUS
70
0
71
3
72
11
73
7
74
5
42
0.0000001000
43
0.0000001000
44
0.0000000001
12
0.3283063189
22
-0.1641531595
32
0.0000000000
13
0.0000000000
23
-0.3670576233
33
0.0000000000
40
0.0000000000
40
0.0000000000
40
0.0000000000
40
0.0000000000
40
0.2259015102
40
0.4856075256
40
0.7520750422
40
1.0000000000
40
1.0000000000
40
1.0000000000
40
1.0000000000
10
6.3535330823
20
13.3345957573
30
0.0000000000
10
6.3782547134
20
13.3222349417
30
0.0000000000
10
6.4261113885
20
13.2850282665
30
0.0000000000
10
6.4817221489
20
13.2106843714
30
0.0000000000
10
6.5197898953
20
13.1230813097
30
0.0000000000
10
6.5303097776
20
13.0600353073
30
0.0000000000
10
6.5303097776
20
13.0297010587
30
0.0000000000
11
6.3535330823
21
13.3345957573
31
0.0000000000
11
6.4201940509
21
13.2852819204
31
0.0000000000
11
6.4780475402
21
13.2095176506
31
0.0000000000
11
6.5167365521
21
13.1196858757
31
0.0000000000
11
6.5303097776
21
13.0297010587
31
0.0000000000
0
SPLINE
5
34E
100
AcDbEntity
8
0
100
AcDbSpline
62
9
6
CONTINUOUS
70
0
71
3
72
8
73
4
74
2
42
0.0000001000
43
0.0000001000
44
0.0000000001
12
0.0061236254
22
-0.0030858911
32
0.0000000000
13
0.0063048832
23
-0.0026459433
33
0.0000000000
40
0.0000000000
40
0.0000000000
40
0.0000000000
40
0.0000000000
40
1.0000000000
40
1.0000000000
40
1.0000000000
40
1.0000000000
10
8.0095601854
20
-27.1224259201
30
0.0000000000
10
8.0116013939
20
-27.1234545505
30
0.0000000000
10
8.0136758358
20
-27.1244118184
30
0.0000000000
10
8.0157774636
20
-27.1252937995
30
0.0000000000
11
8.0095601854
21
-27.1224259201
31
0.0000000000
11
8.0157774636
21
-27.1252937995
31
0.0000000000
0
SPLINE
5
34F
100
AcDbEntity
8
0
100
AcDbSpline
62
9
6
CONTINUOUS
70
0
71
3
72
8
73
4
74
2
42
0.0000001000
43
0.0000001000
44
0.0000000001
12
0.0096823835
22
-0.0040633644
32
0.0000000000
13
0.0100013562
23
-0.0029554067
33
0.0000000000
40
0.0000000000
40
0.0000000000
40
0.0000000000
40
0.0000000000
40
1.0000000000
40
1.0000000000
40
1.0000000000
40
1.0000000000
10
8.0157774636
20
-27.1252937995
30
0.0000000000
10
8.0190049247
20
-27.1266482542
30
0.0000000000
10
8.0222964997
20
-27.1278251556
30
0.0000000000
10
8.0256302851
20
-27.1288102912
30
0.0000000000
11
8.0157774636
21
-27.1252937995
31
0.0000000000
11
8.0256302851
21
-27.1288102912
31
0.0000000000
0
SPLINE
5
350
100
AcDbEntity
8
0
100
AcDbSpline
62
9
6
CONTINUOUS
70
0
71
3
72
8
73
4
74
2
42
0.0000001000
43
0.0000001000
44
0.0000000001
12
0.0072235965
22
-0.0021345770
32
0.0000000000
13
0.0073309559
23
-0.0015182907
33
0.0000000000
40
0.0000000000
40
0.0000000000
40
0.0000000000
40
0.0000000000
40
1.0000000000
40
1.0000000000
40
1.0000000000
40
1.0000000000
10
8.0256302851
20
-27.1288102912
30
0.0000000000
10
8.0280381506
20
-27.1295218168
30
0.0000000000
10
8.0304680357
20
-27.1301333056
30
0.0000000000
10
8.0329116876
20
-27.1306394025
30
0.0000000000
11
8.0256302851
21
-27.1288102912
31
0.0000000000
11
8.0329116876
21
-27.1306394025
31
0.0000000000
0
SPLINE
5
351
100
AcDbEntity
8
0
100
AcDbSpline
62
9
6
CONTINUOUS
70
0
71
3
72
8
73
4
74
2
42
0.0000001000
43
0.0000001000
44
0.0000000001
12
-0.0220391038
22
0.0110117566
32
0.0000000000
13
-0.0237468160
23
0.0049181266
33
0.0000000000
40
0.0000000000
40
0.0000000000
40
0.0000000000
40
0.0000000000
40
1.0000000000
40
1.0000000000
40
1.0000000000
40
1.0000000000
10
8.5862744956
20
-27.2485308924
30
0.0000000000
10
8.5789281277
20
-27.2448603068
30
0.0000000000
10
8.5711573789
20
-27.2421137351
30
0.0000000000
10
8.5632417735
20
-27.2404743595
30
0.0000000000
11
8.5862744956
21
-27.2485308924
31
0.0000000000
11
8.5632417735
21
-27.2404743595
31
0.0000000000
0
SPLINE
5
352
100
AcDbEntity
8
0
100
AcDbSpline
62
9
6
CONTINUOUS
70
0
71
3
72
9
73
5
74
3
42
0.0000001000
43
0.0000001000
44
0.0000000001
12
0.0000000000
22
-0.1183504396
32
0.0000000000
13
-0.1065872076
23
-0.0532936038
33
0.0000000000
40
0.0000000000
40
0.0000000000
40
0.0000000000
40
0.0000000000
40
0.4320096608
40
1.0000000000
40
1.0000000000
40
1.0000000000
40
1.0000000000
10
8.7248534259
20
-27.4721685333
30
0.0000000000
10
8.7248534259
20
-27.4892113778
30
0.0000000000
10
8.7062482997
20
-27.5286615243
30
0.0000000000
10
8.6718102893
20
-27.5504667970
30
0.0000000000
10
8.6516301212
20
-27.5605568810
30
0.0000000000
11
8.7248534259
21
-27.4721685333
31
0.0000000000
11
8.7058233090
21
-27.5200039624
31
0.0000000000
11
8.6516301212
21
-27.5605568810
31
0.0000000000
0
SPLINE
5
353
100
AcDbEntity
8
0
100
AcDbSpline
62
9
6
CONTINUOUS
70
0
71
3
72
9
73
5
74
3
42
0.0000001000
43
0.0000001000
44
0.0000000001
12
-0.0005509234
22
-0.1181569234
32
0.0000000000
13
-0.1064313428
23
-0.0532156714
33
0.0000000000
40
0.0000000000
40
0.0000000000
40
0.0000000000
40
0.0000000000
40
0.4290668158
40
1.0000000000
40
1.0000000000
40
1.0000000000
40
1.0000000000
10
8.7248522216
20
-27.8236231931
30
0.0000000000
10
8.7247734273
20
-27.8405222647
30
0.0000000000
10
8.7063040212
20
-27.8799676581
30
0.0000000000
10
8.6718851830
20
-27.9017433222
30
0.0000000000
10
8.6516301212
20
-27.9118708531
30
0.0000000000
11
8.7248522216
21
-27.8236231931
31
0.0000000000
11
8.7059879449
21
-27.8711187157
31
0.0000000000
11
8.6516301212
21
-27.9118708531
31
0.0000000000
0
SPLINE
5
354
100
AcDbEntity
8
0
100
AcDbSpline
62
9
6
CONTINUOUS
70
0
71
3
72
10
73
6
74
4
42
0.0000001000
43
0.0000001000
44
0.0000000001
12
0.0577373133
22
0.0912972583
32
0.0000000000
13
0.0985199949
23
-0.0492599974
33
0.0000000000
40
0.0000000000
40
0.0000000000
40
0.0000000000
40
0.0000000000
40
0.0616876350
40
0.4090815214
40
1.0000000000
40
1.0000000000
40
1.0000000000
40
1.0000000000
10
5.3486937292
20
-27.0619633460
30
0.0000000000
10
5.3498809553
20
-27.0600860420
30
0.0000000000
10
5.3590766411
20
-27.0491001165
30
0.0000000000
10
5.4037000484
20
-27.0552384342
30
0.0000000000
10
5.4325661745
20
-27.0679035130
30
0.0000000000
10
5.4519719363
20
-27.0776063939
30
0.0000000000
11
5.3486937292
21
-27.0619633460
31
0.0000000000
11
5.3528602840
21
-27.0570796986
31
0.0000000000
11
5.3910505861
21
-27.0546901441
31
0.0000000000
11
5.4519719363
21
-27.0776063939
31
0.0000000000
0
SPLINE
5
355
100
AcDbEntity
8
0
100
AcDbSpline
62
9
6
CONTINUOUS
70
0
71
3
72
10
73
6
74
4
42
0.0000001000
43
0.0000001000
44
0.0000000001
12
0.0575678310
22
0.0911909990
32
0.0000000000
13
0.0985241476
23
-0.0492620738
33
0.0000000000
40
0.0000000000
40
0.0000000000
40
0.0000000000
40
0.0000000000
40
0.0609551840
40
0.4083744189
40
1.0000000000
40
1.0000000000
40
1.0000000000
40
1.0000000000
10
4.8183469454
20
-27.7021214147
30
0.0000000000
10
4.8195166313
20
-27.7002685600
30
0.0000000000
10
4.8286640559
20
-27.6893042005
30
0.0000000000
10
4.8733424061
20
-27.6953559692
30
0.0000000000
10
4.9022120484
20
-27.7080565358
30
0.0000000000
10
4.9216418504
20
-27.7177714368
30
0.0000000000
11
4.8183469454
21
-27.7021214147
31
0.0000000000
11
4.8224500749
21
-27.6972947549
31
0.0000000000
11
4.8606405696
21
-27.6948386587
31
0.0000000000
11
4.9216418504
21
-27.7177714368
31
0.0000000000
0
SPLINE
5
356
100
AcDbEntity
8
0
100
AcDbSpline
62
9
6
CONTINUOUS
70
0
71
3
72
9
73
5
74
3
42
0.0000001000
43
0.0000001000
44
0.0000000001
12
0.0000000000
22
-0.1183504396
32
0.0000000000
13
0.1065872076
23
-0.0532936038
33
0.0000000000
40
0.0000000000
40
0.0000000000
40
0.0000000000
40
0.0000000000
40
0.4320096608
40
1.0000000000
40
1.0000000000
40
1.0000000000
40
1.0000000000
10
4.7600301981
20
-27.8610772630
30
0.0000000000
10
4.7600301981
20
-27.8781201074
30
0.0000000000
10
4.7786353243
20
-27.9175702540
30
0.0000000000
10
4.8130733347
20
-27.9393755266
30
0.0000000000
10
4.8332535028
20
-27.9494656106
30
0.0000000000
11
4.7600301981
21
-27.8610772630
31
0.0000000000
11
4.7790603149
21
-27.9089126920
31
0.0000000000
11
4.8332535028
21
-27.9494656106
31
0.0000000000
0
SPLINE
5
357
100
AcDbEntity
8
0
100
AcDbSpline
62
9
6
CONTINUOUS
70
0
71
3
72
8
73
4
74
2
42
0.0000001000
43
0.0000001000
44
0.0000000001
12
-0.0315575360
22
-0.0380933157
32
0.0000000000
13
-0.0289936256
23
-0.0401464297
33
0.0000000000
40
0.0000000000
40
0.0000000000
40
0.0000000000
40
0.0000000000
40
1.0000000000
40
1.0000000000
40
1.0000000000
40
1.0000000000
10
8.1213000353
20
13.0988822154
30
0.0000000000
10
8.1107808566
20
13.0861844435
30
0.0000000000
10
8.1006868297
20
13.0731219081
30
0.0000000000
10
8.0910222879
20
13.0597397649
30
0.0000000000
11
8.1213000353
21
13.0988822154
31
0.0000000000
11
8.0910222879
21
13.0597397649
31
0.0000000000
0
SPLINE
5
358
100
AcDbEntity
8
0
100
AcDbSpline
62
9
6
CONTINUOUS
70
0
71
3
72
9
73
5
74
3
42
0.0000001000
43
0.0000001000
44
0.0000000001
12
-0.0973420723
22
-0.1347860636
32
0.0000000000
13
-0.0674993436
23
-0.1519080759
33
0.0000000000
40
0.0000000000
40
0.0000000000
40
0.0000000000
40
0.0000000000
40
0.4765605838
40
1.0000000000
40
1.0000000000
40
1.0000000000
40
1.0000000000
10
8.0910222879
20
13.0597397649
30
0.0000000000
10
8.0755591563
20
13.0383285232
30
0.0000000000
10
8.0454188768
20
12.9916829883
30
0.0000000000
10
8.0201978477
20
12.9422492514
30
0.0000000000
10
8.0084205753
20
12.9157443599
30
0.0000000000
11
8.0910222879
21
13.0597397649
31
0.0000000000
11
8.0479490288
21
12.9932364480
31
0.0000000000
11
8.0084205753
21
12.9157443599
31
0.0000000000
0
SPLINE
5
359
100
AcDbEntity
8
0
100
AcDbSpline
62
9
6
CONTINUOUS
70
0
71
3
72
9
73
5
74
3
42
0.0000001000
43
0.0000001000
44
0.0000000001
12
-0.0349141441
22
-0.0785746967
32
0.0000000000
13
-0.0262528366
23
-0.0818835385
33
0.0000000000
40
0.0000000000
40
0.0000000000
40
0.0000000000
40
0.0000000000
40
0.5021202887
40
1.0000000000
40
1.0000000000
40
1.0000000000
40
1.0000000000
10
8.0084205753
20
12.9157443599
30
0.0000000000
10
8.0025768753
20
12.9025930434
30
0.0000000000
10
7.9916372416
20
12.8760929079
30
0.0000000000
10
7.9821256473
20
12.8490434604
30
0.0000000000
10
7.9777687291
20
12.8354540762
30
0.0000000000
11
8.0084205753
21
12.9157443599
31
0.0000000000
11
7.9919508954
21
12.8758420368
31
0.0000000000
11
7.9777687291
21
12.8354540762
31
0.0000000000
0
SPLINE
5
35A
100
AcDbEntity
8
0
100
AcDbSpline
62
9
6
CONTINUOUS
70
0
71
3
72
9
73
5
74
3
42
0.0000001000
43
0.0000001000
44
0.0000000001
12
-0.0621013308
22
-0.1936962770
32
0.0000000000
13
0.0000000000
23
-0.2032074777
33
0.0000000000
40
0.0000000000
40
0.0000000000
40
0.0000000000
40
0.0000000000
40
0.4136015843
40
1.0000000000
40
1.0000000000
40
1.0000000000
40
1.0000000000
10
7.9777687291
20
12.8354540762
30
0.0000000000
10
7.9692069928
20
12.8087497139
30
0.0000000000
10
7.9520423784
20
12.7430451169
30
0.0000000000
10
7.9445233400
20
12.6752140488
30
0.0000000000
10
7.9445233400
20
12.6354938678
30
0.0000000000
11
7.9777687291
21
12.8354540762
31
0.0000000000
11
7.9566584021
21
12.7540348956
31
0.0000000000
11
7.9445233400
21
12.6354938678
31
0.0000000000
0
SPLINE
5
35B
100
AcDbEntity
8
0
100
AcDbSpline
62
9
6
CONTINUOUS
70
0
71
3
72
9
73
5
74
3
42
0.0000001000
43
0.0000001000
44
0.0000000001
12
0.1065872076
22
0.0532936038
32
0.0000000000
13
0.0000000000
23
0.1183504396
33
0.0000000000
40
0.0000000000
40
0.0000000000
40
0.0000000000
40
0.0000000000
40
0.5679903392
40
1.0000000000
40
1.0000000000
40
1.0000000000
40
1.0000000000
10
7.9445233400
20
12.6354938678
30
0.0000000000
10
7.9647035081
20
12.6455839518
30
0.0000000000
10
7.9991415185
20
12.6673892245
30
0.0000000000
10
8.0177466447
20
12.7068393710
30
0.0000000000
10
8.0177466447
20
12.7238822154
30
0.0000000000
11
7.9445233400
21
12.6354938678
31
0.0000000000
11
7.9987165278
21
12.6760467864
31
0.0000000000
11
8.0177466447
21
12.7238822154
31
0.0000000000
0
SPLINE
5
35C
100
AcDbEntity
8
0
100
AcDbSpline
62
9
6
CONTINUOUS
70
0
71
3
72
9
73
5
74
3
42
0.0000001000
43
0.0000001000
44
0.0000000001
12
0.0390754420
22
-0.0633538090
32
0.0000000000
13
-0.0390171369
23
-0.0616959367
33
0.0000000000
40
0.0000000000
40
0.0000000000
40
0.0000000000
40
0.0000000000
40
0.7019059025
40
1.0000000000
40
1.0000000000
40
1.0000000000
40
1.0000000000
10
8.6516301212
20
13.7390472584
30
0.0000000000
10
8.6607725490
20
13.7242244542
30
0.0000000000
10
8.6762680062
20
13.7030766860
30
0.0000000000
10
8.6703969067
20
13.6746171302
30
0.0000000000
10
8.6665199806
20
13.6684867320
30
0.0000000000
11
8.6516301212
21
13.7390472584
31
0.0000000000
11
8.6719985528
21
13.6909346553
31
0.0000000000
11
8.6665199806
21
13.6684867320
31
0.0000000000
0
SPLINE
5
35D
100
AcDbEntity
8
0
100
AcDbSpline
62
9
6
CONTINUOUS
70
0
71
3
72
9
73
5
74
3
42
0.0000001000
43
0.0000001000
44
0.0000000001
12
0.0390754420
22
-0.0633538090
32
0.0000000000
13
-0.0390171369
23
-0.0616959367
33
0.0000000000
40
0.0000000000
40
0.0000000000
40
0.0000000000
40
0.0000000000
40
0.7019059025
40
1.0000000000
40
1.0000000000
40
1.0000000000
40
1.0000000000
10
8.1213000353
20
13.0988822154
30
0.0000000000
10
8.1304424631
20
13.0840594113
30
0.0000000000
10
8.1459379204
20
13.0629116431
30
0.0000000000
10
8.1400668208
20
13.0344520872
30
0.0000000000
10
8.1361898947
20
13.0283216890
30
0.0000000000
11
8.1213000353
21
13.0988822154
31
0.0000000000
11
8.1416684669
21
13.0507696123
31
0.0000000000
11
8.1361898947
21
13.0283216890
31
0.0000000000
0
SPLINE
5
35E
100
AcDbEntity
8
0
100
AcDbSpline
62
9
6
CONTINUOUS
70
0
71
3
72
9
73
5
74
3
42
0.0000001000
43
0.0000001000
44
0.0000000001
12
0.0005509234
22
-0.1181569234
32
0.0000000000
13
0.1064313428
23
-0.0532156714
33
0.0000000000
40
0.0000000000
40
0.0000000000
40
0.0000000000
40
0.0000000000
40
0.4290668158
40
1.0000000000
40
1.0000000000
40
1.0000000000
40
1.0000000000
10
4.7600314024
20
-28.2125319228
30
0.0000000000
10
4.7601101967
20
-28.2294309944
30
0.0000000000
10
4.7785796027
20
-28.2688763877
30
0.0000000000
10
4.8129984410
20
-28.2906520518
30
0.0000000000
10
4.8332535028
20
-28.3007795827
30
0.0000000000
11
4.7600314024
21
-28.2125319228
31
0.0000000000
11
4.7788956790
21
-28.2600274453
31
0.0000000000
11
4.8332535028
21
-28.3007795827
31
0.0000000000
0
SPLINE
5
35F
100
AcDbEntity
8
0
100
AcDbSpline
62
9
6
CONTINUOUS
70
0
71
3
72
10
73
6
74
4
42
0.0000001000
43
0.0000001000
44
0.0000000001
12
-0.1423874165
22
0.0691161156
32
0.0000000000
13
-0.0000000000
23
0.1564950024
33
0.0000000000
40
0.0000000000
40
0.0000000000
40
0.0000000000
40
0.0000000000
40
0.0943102269
40
0.5040879606
40
1.0000000000
40
1.0000000000
40
1.0000000000
40
1.0000000000
10
4.8983230165
20
-28.4358647336
30
0.0000000000
10
4.8938468199
20
-28.4336919481
30
0.0000000000
10
4.8709107703
20
-28.4202701582
30
0.0000000000
10
4.8396455695
20
-28.3746115840
30
0.0000000000
10
4.8332535028
20
-28.3266488347
30
0.0000000000
10
4.8332535028
20
-28.3007795827
30
0.0000000000
11
4.8983230165
21
-28.4358647336
31
0.0000000000
11
4.8855157402
21
-28.4283339372
31
0.0000000000
11
4.8468267283
21
-28.3771911742
31
0.0000000000
11
4.8332535028
21
-28.3007795827
31
0.0000000000
0
SPLINE
5
360
100
AcDbEntity
8
0
100
AcDbSpline
62
9
6
CONTINUOUS
70
0
71
3
72
10
73
6
74
4
42
0.0000001000
43
0.0000001000
44
0.0000000001
12
-0.1420346928
22
0.0693255849
32
0.0000000000
13
-0.0000000000
23
0.1562885568
33
0.0000000000
40
0.0000000000
40
0.0000000000
40
0.0000000000
40
0.0000000000
40
0.0931138777
40
0.5034328975
40
1.0000000000
40
1.0000000000
40
1.0000000000
40
1.0000000000
10
6.2416381744
20
-29.1075248003
30
0.0000000000
10
6.2372297074
20
-29.1053730757
30
0.0000000000
10
6.2143724100
20
-29.0919613683
30
0.0000000000
10
6.1831484537
20
-29.0463630261
30
0.0000000000
10
6.1767563870
20
-28.9984002768
30
0.0000000000
10
6.1767563870
20
-28.9725310249
30
0.0000000000
11
6.2416381744
21
-29.1075248003
31
0.0000000000
11
6.2290186245
21
-29.1000853794
31
0.0000000000
11
6.1903296126
21
-29.0489426163
31
0.0000000000
11
6.1767563870
21
-28.9725310249
31
0.0000000000
0
SPLINE
5
361
100
AcDbEntity
8
0
100
AcDbSpline
62
9
6
CONTINUOUS
70
0
71
3
72
10
73
6
74
4
42
0.0000001000
43
0.0000001000
44
0.0000000001
12
0.2118073451
22
0.1062949794
32
0.0000000000
13
0.2117850872
23
-0.1023398625
33
0.0000000000
40
0.0000000000
40
0.0000000000
40
0.0000000000
40
0.0000000000
40
0.0726861244
40
0.5065503360
40
1.0000000000
40
1.0000000000
40
1.0000000000
40
1.0000000000
10
-8.3056294623
20
19.1890424377
30
0.0000000000
10
-8.3004976440
20
19.1916178277
30
0.0000000000
10
-8.2639894481
20
19.2079923521
30
0.0000000000
10
-8.1830325404
20
19.2169276716
30
0.0000000000
10
-8.1121452303
20
19.1940353331
30
0.0000000000
10
-8.0773101369
20
19.1772021428
30
0.0000000000
11
-8.3056294623
21
19.1890424377
31
0.0000000000
11
-8.2899276798
21
19.1960731094
31
0.0000000000
11
-8.1887725422
21
19.2095702203
31
0.0000000000
11
-8.0773101369
21
19.1772021428
31
0.0000000000
0
SPLINE
5
362
100
AcDbEntity
8
0
100
AcDbSpline
62
9
6
CONTINUOUS
70
0
71
3
72
9
73
5
74
3
42
0.0000001000
43
0.0000001000
44
0.0000000001
12
0.0000000000
22
-0.1183504396
32
0.0000000000
13
0.1065872076
23
-0.0532936038
33
0.0000000000
40
0.0000000000
40
0.0000000000
40
0.0000000000
40
0.0000000000
40
0.4320096608
40
1.0000000000
40
1.0000000000
40
1.0000000000
40
1.0000000000
10
5.4671369793
20
-26.7575238724
30
0.0000000000
10
5.4671369793
20
-26.7745667168
30
0.0000000000
10
5.4857421055
20
-26.8140168634
30
0.0000000000
10
5.5201801159
20
-26.8358221360
30
0.0000000000
10
5.5403602840
20
-26.8459122201
30
0.0000000000
11
5.4671369793
21
-26.7575238724
31
0.0000000000
11
5.4861670961
21
-26.8053593015
31
0.0000000000
11
5.5403602840
21
-26.8459122201
31
0.0000000000
0
SPLINE
5
363
100
AcDbEntity
8
0
100
AcDbSpline
62
9
6
CONTINUOUS
70
0
71
3
72
11
73
7
74
5
42
0.0000001000
43
0.0000001000
44
0.0000000001
12
-0.3283037267
22
-0.1641518634
32
0.0000000000
13
0.0000000000
23
-0.3670547251
33
0.0000000000
40
0.0000000000
40
0.0000000000
40
0.0000000000
40
0.0000000000
40
0.2296755894
40
0.4882147766
40
0.7532068921
40
1.0000000000
40
1.0000000000
40
1.0000000000
40
1.0000000000
10
6.3535330823
20
13.3345957573
30
0.0000000000
10
6.3283986317
20
13.3220285320
30
0.0000000000
10
6.2803705576
20
13.2844544959
30
0.0000000000
10
6.2249113125
20
13.2098570316
30
0.0000000000
10
6.1871766632
20
13.1226219621
30
0.0000000000
10
6.1767563870
20
13.0598965842
30
0.0000000000
10
6.1767563870
20
13.0297010587
30
0.0000000000
11
6.3535330823
21
13.3345957573
31
0.0000000000
11
6.2858835698
21
13.2842904364
31
0.0000000000
11
6.2285330823
21
13.2086825153
31
0.0000000000
11
6.1902127117
21
13.1192826145
31
0.0000000000
11
6.1767563870
21
13.0297010587
31
0.0000000000
0
SPLINE
5
364
100
AcDbEntity
8
0
100
AcDbSpline
62
9
6
CONTINUOUS
70
0
71
3
72
11
73
7
74
5
42
0.0000001000
43
0.0000001000
44
0.0000000001
12
-0.3283037267
22
-0.1641518634
32
0.0000000000
13
0.0000000000
23
-0.3670547251
33
0.0000000000
40
0.0000000000
40
0.0000000000
40
0.0000000000
40
0.0000000000
40
0.2296755894
40
0.4882147766
40
0.7532068921
40
1.0000000000
40
1.0000000000
40
1.0000000000
40
1.0000000000
10
5.0100301981
20
14.0063471994
30
0.0000000000
10
4.9848957474
20
13.9937799741
30
0.0000000000
10
4.9368676734
20
13.9562059381
30
0.0000000000
10
4.8814084282
20
13.8816084737
30
0.0000000000
10
4.8436737790
20
13.7943734042
30
0.0000000000
10
4.8332535028
20
13.7316480263
30
0.0000000000
10
4.8332535028
20
13.7014525008
30
0.0000000000
11
5.0100301981
21
14.0063471994
31
0.0000000000
11
4.9423806856
21
13.9560418785
31
0.0000000000
11
4.8850301981
21
13.8804339574
31
0.0000000000
11
4.8467098275
21
13.7910340567
31
0.0000000000
11
4.8332535028
21
13.7014525008
31
0.0000000000
0
SPLINE
5
365
100
AcDbEntity
8
0
100
AcDbSpline
62
9
6
CONTINUOUS
70
0
71
3
72
8
73
4
74
2
42
0.0000001000
43
0.0000001000
44
0.0000000001
12
-0.0315575360
22
-0.0380933157
32
0.0000000000
13
-0.0289936256
23
-0.0401464297
33
0.0000000000
40
0.0000000000
40
0.0000000000
40
0.0000000000
40
0.0000000000
40
1.0000000000
40
1.0000000000
40
1.0000000000
40
1.0000000000
10
-5.2430181291
20
19.7810412977
30
0.0000000000
10
-5.2535373078
20
19.7683435257
30
0.0000000000
10
-5.2636313347
20
19.7552809903
30
0.0000000000
10
-5.2732958766
20
19.7418988471
30
0.0000000000
11
-5.2430181291
21
19.7810412977
31
0.0000000000
11
-5.2732958766
21
19.7418988471
31
0.0000000000
0
SPLINE
5
366
100
AcDbEntity
8
0
100
AcDbSpline
62
9
6
CONTINUOUS
70
0
71
3
72
9
73
5
74
3
42
0.0000001000
43
0.0000001000
44
0.0000000001
12
-0.0973420723
22
-0.1347860636
32
0.0000000000
13
-0.0674993436
23
-0.1519080759
33
0.0000000000
40
0.0000000000
40
0.0000000000
40
0.0000000000
40
0.0000000000
40
0.4765605838
40
1.0000000000
40
1.0000000000
40
1.0000000000
40
1.0000000000
10
-5.2732958766
20
19.7418988471
30
0.0000000000
10
-5.2887590082
20
19.7204876054
30
0.0000000000
10
-5.3188992877
20
19.6738420705
30
0.0000000000
10
-5.3441203168
20
19.6244083336
30
0.0000000000
10
-5.3558975891
20
19.5979034421
30
0.0000000000
11
-5.2732958766
21
19.7418988471
31
0.0000000000
11
-5.3163691356
21
19.6753955302
31
0.0000000000
11
-5.3558975891
21
19.5979034421
31
0.0000000000
0
SPLINE
5
367
100
AcDbEntity
8
0
100
AcDbSpline
62
9
6
CONTINUOUS
70
0
71
3
72
9
73
5
74
3
42
0.0000001000
43
0.0000001000
44
0.0000000001
12
-0.0349141441
22
-0.0785746967
32
0.0000000000
13
-0.0262528366
23
-0.0818835385
33
0.0000000000
40
0.0000000000
40
0.0000000000
40
0.0000000000
40
0.0000000000
40
0.5021202887
40
1.0000000000
40
1.0000000000
40
1.0000000000
40
1.0000000000
10
-5.3558975891
20
19.5979034421
30
0.0000000000
10
-5.3617412891
20
19.5847521256
30
0.0000000000
10
-5.3726809228
20
19.5582519901
30
0.0000000000
10
-5.3821925171
20
19.5312025426
30
0.0000000000
10
-5.3865494353
20
19.5176131584
30
0.0000000000
11
-5.3558975891
21
19.5979034421
31
0.0000000000
11
-5.3723672691
21
19.5580011190
31
0.0000000000
11
-5.3865494353
21
19.5176131584
31
0.0000000000
0
SPLINE
5
368
100
AcDbEntity
8
0
100
AcDbSpline
62
9
6
CONTINUOUS
70
0
71
3
72
9
73
5
74
3
42
0.0000001000
43
0.0000001000
44
0.0000000001
12
-0.0621013308
22
-0.1936962770
32
0.0000000000
13
0.0000000000
23
-0.2032074777
33
0.0000000000
40
0.0000000000
40
0.0000000000
40
0.0000000000
40
0.0000000000
40
0.4136015843
40
1.0000000000
40
1.0000000000
40
1.0000000000
40
1.0000000000
10
-5.3865494353
20
19.5176131584
30
0.0000000000
10
-5.3951111716
20
19.4909087961
30
0.0000000000
10
-5.4122757860
20
19.4252041992
30
0.0000000000
10
-5.4197948244
20
19.3573731310
30
0.0000000000
10
-5.4197948244
20
19.3176529500
30
0.0000000000
11
-5.3865494353
21
19.5176131584
31
0.0000000000
11
-5.4076597623
21
19.4361939778
31
0.0000000000
11
-5.4197948244
21
19.3176529500
31
0.0000000000
0
SPLINE
5
369
100
AcDbEntity
8
0
100
AcDbSpline
62
9
6
CONTINUOUS
70
0
71
3
72
9
73
5
74
3
42
0.0000001000
43
0.0000001000
44
0.0000000001
12
0.1065872076
22
0.0532936038
32
0.0000000000
13
0.0000000000
23
0.1183504396
33
0.0000000000
40
0.0000000000
40
0.0000000000
40
0.0000000000
40
0.0000000000
40
0.5679903392
40
1.0000000000
40
1.0000000000
40
1.0000000000
40
1.0000000000
10
-5.4197948244
20
19.3176529500
30
0.0000000000
10
-5.3996146564
20
19.3277430340
30
0.0000000000
10
-5.3651766459
20
19.3495483067
30
0.0000000000
10
-5.3465715197
20
19.3889984532
30
0.0000000000
10
-5.3465715197
20
19.4060412977
30
0.0000000000
11
-5.4197948244
21
19.3176529500
31
0.0000000000
11
-5.3656016366
21
19.3582058686
31
0.0000000000
11
-5.3465715197
21
19.4060412977
31
0.0000000000
0
SPLINE
5
36A
100
AcDbEntity
8
0
100
AcDbSpline
62
9
6
CONTINUOUS
70
0
71
3
72
9
73
5
74
3
42
0.0000001000
43
0.0000001000
44
0.0000000001
12
0.0390589135
22
-0.0633270110
32
0.0000000000
13
-0.0388406053
23
-0.0616439661
33
0.0000000000
40
0.0000000000
40
0.0000000000
40
0.0000000000
40
0.0000000000
40
0.6996685086
40
1.0000000000
40
1.0000000000
40
1.0000000000
40
1.0000000000
10
-4.7126880432
20
20.4212063406
30
0.0000000000
10
-4.7035786127
20
20.4064370355
30
0.0000000000
10
-4.6881501595
20
20.3853426089
30
0.0000000000
10
-4.6938812976
20
20.3568288148
30
0.0000000000
10
-4.6977696500
20
20.3506576067
30
0.0000000000
11
-4.7126880432
21
20.4212063406
31
0.0000000000
11
-4.6923473892
21
20.3732867758
31
0.0000000000
11
-4.6977696500
21
20.3506576067
31
0.0000000000
0
SPLINE
5
36B
100
AcDbEntity
8
0
100
AcDbSpline
62
9
6
CONTINUOUS
70
0
71
3
72
9
73
5
74
3
42
0.0000001000
43
0.0000001000
44
0.0000000001
12
0.0390754420
22
-0.0633538090
32
0.0000000000
13
-0.0390171369
23
-0.0616959367
33
0.0000000000
40
0.0000000000
40
0.0000000000
40
0.0000000000
40
0.0000000000
40
0.7019059025
40
1.0000000000
40
1.0000000000
40
1.0000000000
40
1.0000000000
10
-5.2430181291
20
19.7810412977
30
0.0000000000
10
-5.2338757013
20
19.7662184935
30
0.0000000000
10
-5.2183802441
20
19.7450707253
30
0.0000000000
10
-5.2242513436
20
19.7166111694
30
0.0000000000
10
-5.2281282697
20
19.7104807713
30
0.0000000000
11
-5.2430181291
21
19.7810412977
31
0.0000000000
11
-5.2226496976
21
19.7329286946
31
0.0000000000
11
-5.2281282697
21
19.7104807713
31
0.0000000000
0
SPLINE
5
36C
100
AcDbEntity
8
0
100
AcDbSpline
62
9
6
CONTINUOUS
70
0
71
3
72
9
73
5
74
3
42
0.0000001000
43
0.0000001000
44
0.0000000001
12
-0.1043731838
22
0.0507387174
32
0.0000000000
13
-0.1025947039
23
-0.0512973520
33
0.0000000000
40
0.0000000000
40
0.0000000000
40
0.0000000000
40
0.0000000000
40
0.3911521382
40
1.0000000000
40
1.0000000000
40
1.0000000000
40
1.0000000000
10
8.5865829920
20
14.4022044966
30
0.0000000000
10
8.5729743940
20
14.4088200159
30
0.0000000000
10
8.5338300040
20
14.4177692606
30
0.0000000000
10
8.4956749479
20
14.4056666901
30
0.0000000000
10
8.4748534259
20
14.3952559291
30
0.0000000000
11
8.5865829920
21
14.4022044966
31
0.0000000000
11
8.5425029384
21
14.4126001207
31
0.0000000000
11
8.4748534259
21
14.3952559291
31
0.0000000000
0
SPLINE
5
36D
100
AcDbEntity
8
0
100
AcDbSpline
62
9
6
CONTINUOUS
70
0
71
3
72
8
73
4
74
2
42
0.0000001000
43
0.0000001000
44
0.0000000001
12
-0.0057724119
22
0.0028061305
32
0.0000000000
13
-0.0059609395
23
0.0024315908
33
0.0000000000
40
0.0000000000
40
0.0000000000
40
0.0000000000
40
0.0000000000
40
1.0000000000
40
1.0000000000
40
1.0000000000
40
1.0000000000
10
7.2430801078
20
15.0739559388
30
0.0000000000
10
7.2411559705
20
15.0748913156
30
0.0000000000
10
7.2391977913
20
15.0757644189
30
0.0000000000
10
7.2372108115
20
15.0765749492
30
0.0000000000
11
7.2430801078
21
15.0739559388
31
0.0000000000
11
7.2372108115
21
15.0765749492
31
0.0000000000
0
SPLINE
5
36E
100
AcDbEntity
8
0
100
AcDbSpline
62
9
6
CONTINUOUS
70
0
71
3
72
9
73
5
74
3
42
0.0000001000
43
0.0000001000
44
0.0000000001
12
-0.1018210834
22
0.0415349312
32
0.0000000000
13
-0.0969206517
23
-0.0484603259
33
0.0000000000
40
0.0000000000
40
0.0000000000
40
0.0000000000
40
0.0000000000
40
0.3555081913
40
1.0000000000
40
1.0000000000
40
1.0000000000
40
1.0000000000
10
7.2372108115
20
15.0765749492
30
0.0000000000
10
7.2251447351
20
15.0814969519
30
0.0000000000
10
7.1882169350
20
15.0888513639
30
0.0000000000
10
7.1521720637
20
15.0774181322
30
0.0000000000
10
7.1313505416
20
15.0670073712
30
0.0000000000
11
7.2372108115
21
15.0765749492
31
0.0000000000
11
7.1990000541
21
15.0843515628
31
0.0000000000
11
7.1313505416
21
15.0670073712
31
0.0000000000
0
SPLINE
5
36F
100
AcDbEntity
8
0
100
AcDbSpline
62
9
6
CONTINUOUS
70
0
71
3
72
9
73
5
74
3
42
0.0000001000
43
0.0000001000
44
0.0000000001
12
-0.0002466153
22
-0.1183471546
32
0.0000000000
13
0.1066037527
23
-0.0533018764
33
0.0000000000
40
0.0000000000
40
0.0000000000
40
0.0000000000
40
0.0000000000
40
0.4395135603
40
1.0000000000
40
1.0000000000
40
1.0000000000
40
1.0000000000
10
4.7600309278
20
13.7898408591
30
0.0000000000
10
4.7599947975
20
13.7725024661
30
0.0000000000
10
4.7789601230
20
13.7331402215
30
0.0000000000
10
4.8133368502
20
13.7114108271
30
0.0000000000
10
4.8332535028
20
13.7014525008
30
0.0000000000
11
4.7600309278
21
13.7898408591
31
0.0000000000
11
4.7796428868
21
13.7413081615
31
0.0000000000
11
4.8332535028
21
13.7014525008
31
0.0000000000
0
SPLINE
5
370
100
AcDbEntity
8
0
100
AcDbSpline
62
9
6
CONTINUOUS
70
0
71
3
72
9
73
5
74
3
42
0.0000001000
43
0.0000001000
44
0.0000000001
12
0.0000000000
22
-0.1183504396
32
0.0000000000
13
0.1065872076
23
-0.0532936038
33
0.0000000000
40
0.0000000000
40
0.0000000000
40
0.0000000000
40
0.0000000000
40
0.4320096608
40
1.0000000000
40
1.0000000000
40
1.0000000000
40
1.0000000000
10
4.7600301981
20
13.4385268764
30
0.0000000000
10
4.7600301981
20
13.4214840320
30
0.0000000000
10
4.7786353243
20
13.3820338854
30
0.0000000000
10
4.8130733347
20
13.3602286128
30
0.0000000000
10
4.8332535028
20
13.3501385287
30
0.0000000000
11
4.7600301981
21
13.4385268764
31
0.0000000000
11
4.7790603149
21
13.3906914473
31
0.0000000000
11
4.8332535028
21
13.3501385287
31
0.0000000000
0
SPLINE
5
371
100
AcDbEntity
8
0
100
AcDbSpline
62
9
6
CONTINUOUS
70
0
71
3
72
9
73
5
74
3
42
0.0000001000
43
0.0000001000
44
0.0000000001
12
0.1042886375
22
0.0503857346
32
0.0000000000
13
0.1024200382
23
-0.0512100191
33
0.0000000000
40
0.0000000000
40
0.0000000000
40
0.0000000000
40
0.0000000000
40
0.3984659506
40
1.0000000000
40
1.0000000000
40
1.0000000000
40
1.0000000000
10
4.8984827725
20
14.0133917125
30
0.0000000000
10
4.9123345962
20
14.0200840457
30
0.0000000000
10
4.9515177150
20
14.0287640225
30
0.0000000000
10
4.9894938180
20
14.0166153895
30
0.0000000000
10
5.0100301981
20
14.0063471994
30
0.0000000000
11
4.8984827725
21
14.0133917125
31
0.0000000000
11
4.9433692295
21
14.0236943312
31
0.0000000000
11
5.0100301981
21
14.0063471994
31
0.0000000000
0
SPLINE
5
372
100
AcDbEntity
8
0
100
AcDbSpline
62
9
6
CONTINUOUS
70
0
71
3
72
9
73
5
74
3
42
0.0000001000
43
0.0000001000
44
0.0000000001
12
0.1043460885
22
0.0506505174
32
0.0000000000
13
0.1025770087
23
-0.0512885044
33
0.0000000000
40
0.0000000000
40
0.0000000000
40
0.0000000000
40
0.0000000000
40
0.3993864599
40
1.0000000000
40
1.0000000000
40
1.0000000000
40
1.0000000000
10
7.0196433600
20
15.0739745188
30
0.0000000000
10
7.0335348316
20
15.0807175624
30
0.0000000000
10
7.0727798558
20
15.0894428134
30
0.0000000000
10
7.1108141615
20
15.0772755612
30
0.0000000000
10
7.1313505416
20
15.0670073712
30
0.0000000000
11
7.0196433600
21
15.0739745188
31
0.0000000000
11
7.0646895730
21
15.0843545030
31
0.0000000000
11
7.1313505416
21
15.0670073712
31
0.0000000000
0
SPLINE
5
373
100
AcDbEntity
8
0
100
AcDbSpline
62
9
6
CONTINUOUS
70
0
71
3
72
10
73
6
74
4
42
0.0000001000
43
0.0000001000
44
0.0000000001
12
0.1608196274
22
0.1941264628
32
0.0000000000
13
0.0000000000
23
0.2520873581
33
0.0000000000
40
0.0000000000
40
0.0000000000
40
0.0000000000
40
0.0000000000
40
0.3406425547
40
0.6822819683
40
1.0000000000
40
1.0000000000
40
1.0000000000
40
1.0000000000
10
5.4519719363
20
-27.0776063939
30
0.0000000000
10
5.4702326059
20
-27.0555638158
30
0.0000000000
10
5.5017215522
20
-27.0069962012
30
0.0000000000
10
5.5321562251
20
-26.9281189469
30
0.0000000000
10
5.5403602840
20
-26.8726097865
30
0.0000000000
10
5.5403602840
20
-26.8459122201
30
0.0000000000
11
5.4519719363
21
-27.0776063939
31
0.0000000000
11
5.4990023938
21
-27.0057587650
31
0.0000000000
11
5.5296993448
21
-26.9252922228
31
0.0000000000
11
5.5403602840
21
-26.8459122201
31
0.0000000000
0
SPLINE
5
374
100
AcDbEntity
8
0
100
AcDbSpline
62
9
6
CONTINUOUS
70
0
71
3
72
10
73
6
74
4
42
0.0000001000
43
0.0000001000
44
0.0000000001
12
0.1608196274
22
0.1941264628
32
0.0000000000
13
0.0000000000
23
0.2520873581
33
0.0000000000
40
0.0000000000
40
0.0000000000
40
0.0000000000
40
0.0000000000
40
0.3406425547
40
0.6822819683
40
1.0000000000
40
1.0000000000
40
1.0000000000
40
1.0000000000
10
6.7954748206
20
-27.7493578360
30
0.0000000000
10
6.8137354901
20
-27.7273152579
30
0.0000000000
10
6.8452244364
20
-27.6787476433
30
0.0000000000
10
6.8756591093
20
-27.5998703890
30
0.0000000000
10
6.8838631682
20
-27.5443612286
30
0.0000000000
10
6.8838631682
20
-27.5176636622
30
0.0000000000
11
6.7954748206
21
-27.7493578360
31
0.0000000000
11
6.8425052780
21
-27.6775102071
31
0.0000000000
11
6.8732022290
21
-27.5970436650
31
0.0000000000
11
6.8838631682
21
-27.5176636622
31
0.0000000000
0
SPLINE
5
375
100
AcDbEntity
8
0
100
AcDbSpline
62
9
6
CONTINUOUS
70
0
71
3
72
11
73
7
74
5
42
0.0000001000
43
0.0000001000
44
0.0000000001
12
0.3219470245
22
0.3886244365
32
0.0000000000
13
0.0000000000
23
0.5046571502
33
0.0000000000
40
0.0000000000
40
0.0000000000
40
0.0000000000
40
0.0000000000
40
0.2548529583
40
0.5125849370
40
0.7638782232
40
1.0000000000
40
1.0000000000
40
1.0000000000
40
1.0000000000
10
7.0606398635
20
-27.9810520098
30
0.0000000000
10
7.0879895807
20
-27.9480379807
30
0.0000000000
10
7.1372175220
20
-27.8766775648
30
0.0000000000
10
7.1927942555
20
-27.7602524418
30
0.0000000000
10
7.2283149535
20
-27.6394916304
30
0.0000000000
10
7.2374165588
20
-27.5573838432
30
0.0000000000
10
7.2374165588
20
-27.5176636622
30
0.0000000000
11
7.0606398635
21
-27.9810520098
31
0.0000000000
11
7.1339908700
21
-27.8754062424
31
0.0000000000
11
7.1899890034
21
-27.7580118312
31
0.0000000000
11
7.2252814967
21
-27.6362046900
31
0.0000000000
11
7.2374165588
21
-27.5176636622
31
0.0000000000
0
SPLINE
5
376
100
AcDbEntity
8
0
100
AcDbSpline
62
9
6
CONTINUOUS
70
0
71
3
72
11
73
7
74
5
42
0.0000001000
43
0.0000001000
44
0.0000000001
12
-0.3249549290
22
-0.1624774645
32
0.0000000000
13
-0.3249549290
23
0.1624774645
33
0.0000000000
40
0.0000000000
40
0.0000000000
40
0.0000000000
40
0.0000000000
40
0.2353701082
40
0.5000000000
40
0.7646298918
40
1.0000000000
40
1.0000000000
40
1.0000000000
40
1.0000000000
10
7.2374165588
20
-27.5176636622
30
0.0000000000
10
7.2119216665
20
-27.5304111083
30
0.0000000000
10
7.1533290686
20
-27.5485952341
30
0.0000000000
10
7.0606398635
20
-27.5572815527
30
0.0000000000
10
6.9679506585
20
-27.5485952341
30
0.0000000000
10
6.9093580605
20
-27.5304111083
30
0.0000000000
10
6.8838631682
20
-27.5176636622
30
0.0000000000
11
7.2374165588
21
-27.5176636622
31
0.0000000000
11
7.1563107216
21
-27.5447602561
31
0.0000000000
11
7.0606398635
21
-27.5542753145
31
0.0000000000
11
6.9649690054
21
-27.5447602561
31
0.0000000000
11
6.8838631682
21
-27.5176636622
31
0.0000000000
0
SPLINE
5
377
100
AcDbEntity
8
0
100
AcDbSpline
62
9
6
CONTINUOUS
70
0
71
3
72
11
73
7
74
5
42
0.0000001000
43
0.0000001000
44
0.0000000001
12
-0.1865148844
22
0.3024003765
32
0.0000000000
13
-0.3177845683
23
0.1588922841
33
0.0000000000
40
0.0000000000
40
0.0000000000
40
0.0000000000
40
0.0000000000
40
0.2184918121
40
0.4825008070
40
0.7557136777
40
1.0000000000
40
1.0000000000
40
1.0000000000
40
1.0000000000
10
6.5303097776
20
-28.6212170528
30
0.0000000000
10
6.5167257859
20
-28.5991930507
30
0.0000000000
10
6.4806493718
20
-28.5544088151
30
0.0000000000
10
6.4163236825
20
-28.4920149977
30
0.0000000000
10
6.3433329784
20
-28.4348479593
30
0.0000000000
10
6.2910215425
20
-28.4024612829
30
0.0000000000
10
6.2651447347
20
-28.3895228789
30
0.0000000000
11
6.5303097776
21
-28.6212170528
31
0.0000000000
11
6.4830286967
21
-28.5596481250
31
0.0000000000
11
6.4160330823
21
-28.4939961837
31
0.0000000000
11
6.3395224095
21
-28.4342561417
31
0.0000000000
11
6.2651447347
21
-28.3895228789
31
0.0000000000
0
SPLINE
5
378
100
AcDbEntity
8
0
100
AcDbSpline
62
9
6
CONTINUOUS
70
0
71
3
72
11
73
7
74
5
42
0.0000001000
43
0.0000001000
44
0.0000000001
12
-0.1865148844
22
0.3024003765
32
0.0000000000
13
-0.3177845683
23
0.1588922841
33
0.0000000000
40
0.0000000000
40
0.0000000000
40
0.0000000000
40
0.0000000000
40
0.2184918121
40
0.4825008070
40
0.7557136777
40
1.0000000000
40
1.0000000000
40
1.0000000000
40
1.0000000000
10
7.0606398635
20
-27.9810520098
30
0.0000000000
10
7.0470558718
20
-27.9590280077
30
0.0000000000
10
7.0109794577
20
-27.9142437722
30
0.0000000000
10
6.9466537684
20
-27.8518499547
30
0.0000000000
10
6.8736630643
20
-27.7946829163
30
0.0000000000
10
6.8213516284
20
-27.7622962399
30
0.0000000000
10
6.7954748206
20
-27.7493578360
30
0.0000000000
11
7.0606398635
21
-27.9810520098
31
0.0000000000
11
7.0133587826
21
-27.9194830820
31
0.0000000000
11
6.9463631682
21
-27.8538311407
31
0.0000000000
11
6.8698524954
21
-27.7940910987
31
0.0000000000
11
6.7954748206
21
-27.7493578360
31
0.0000000000
0
SPLINE
5
379
100
AcDbEntity
8
0
100
AcDbSpline
62
9
6
CONTINUOUS
70
0
71
3
72
11
73
7
74
5
42
0.0000001000
43
0.0000001000
44
0.0000000001
12
-0.3249561016
22
-0.1624780508
32
0.0000000000
13
-0.3249561016
23
0.1624780508
33
0.0000000000
40
0.0000000000
40
0.0000000000
40
0.0000000000
40
0.0000000000
40
0.2314751089
40
0.4973489063
40
0.7635187405
40
1.0000000000
40
1.0000000000
40
1.0000000000
40
1.0000000000
10
6.5303097776
20
-28.9725310249
30
0.0000000000
10
6.5052366946
20
-28.9850675664
30
0.0000000000
10
6.4470205511
20
-29.0032895471
30
0.0000000000
10
6.3544694206
20
-29.0121784506
30
0.0000000000
10
6.2612940084
20
-29.0035801804
30
0.0000000000
10
6.2023717298
20
-28.9853386962
30
0.0000000000
10
6.1767563870
20
-28.9725310249
30
0.0000000000
11
6.5303097776
21
-28.9725310249
31
0.0000000000
11
6.4505984563
21
-28.9993363328
31
0.0000000000
11
6.3545022879
21
-29.0091417378
31
0.0000000000
11
6.2582606618
21
-28.9997099367
31
0.0000000000
11
6.1767563870
21
-28.9725310249
31
0.0000000000
0
SPLINE
5
37A
100
AcDbEntity
8
0
100
AcDbSpline
62
9
6
CONTINUOUS
70
0
71
3
72
11
73
7
74
5
42
0.0000001000
43
0.0000001000
44
0.0000000001
12
-0.3249553250
22
-0.1624776625
32
0.0000000000
13
-0.3249553250
23
0.1624776625
33
0.0000000000
40
0.0000000000
40
0.0000000000
40
0.0000000000
40
0.0000000000
40
0.2341093284
40
0.4991216953
40
0.7642320678
40
1.0000000000
40
1.0000000000
40
1.0000000000
40
1.0000000000
10
6.5303097776
20
-28.6212170528
30
0.0000000000
10
6.5049514200
20
-28.6338962316
30
0.0000000000
10
6.4464830899
20
-28.6520919972
30
0.0000000000
10
6.3538433102
20
-28.6608442496
30
0.0000000000
10
6.2609967125
20
-28.6521882072
30
0.0000000000
10
6.2022944020
20
-28.6339860603
30
0.0000000000
10
6.1767563870
20
-28.6212170528
30
0.0000000000
11
6.5303097776
21
-28.6212170528
31
0.0000000000
11
6.4496554628
21
-28.6482198746
31
0.0000000000
11
6.3538541935
21
-28.6578286020
31
0.0000000000
11
6.2580048584
21
-28.6483431614
31
0.0000000000
11
6.1767563870
21
-28.6212170528
31
0.0000000000
0
SPLINE
5
37B
100
AcDbEntity
8
0
100
AcDbSpline
62
9
6
CONTINUOUS
70
0
71
3
72
9
73
5
74
3
42
0.0000001000
43
0.0000001000
44
0.0000000001
12
0.0000577645
22
-0.1183379837
32
0.0000000000
13
-0.1065828831
23
-0.0532914415
33
0.0000000000
40
0.0000000000
40
0.0000000000
40
0.0000000000
40
0.0000000000
40
0.4343815064
40
1.0000000000
40
1.0000000000
40
1.0000000000
40
1.0000000000
10
8.7248533525
20
13.8274245018
30
0.0000000000
10
8.7248617165
20
13.8102898913
30
0.0000000000
10
8.7061397310
20
13.7708735390
30
0.0000000000
10
8.6717252044
20
13.7490948000
30
0.0000000000
10
8.6516301212
20
13.7390472584
30
0.0000000000
11
8.7248533525
21
13.8274245018
31
0.0000000000
11
8.7056357649
21
13.7793744158
31
0.0000000000
11
8.6516301212
21
13.7390472584
31
0.0000000000
0
SPLINE
5
37C
100
AcDbEntity
8
0
100
AcDbSpline
62
9
6
CONTINUOUS
70
0
71
3
72
9
73
5
74
3
42
0.0000001000
43
0.0000001000
44
0.0000000001
12
-0.0002465096
22
-0.1182964284
32
0.0000000000
13
-0.1065580600
23
-0.0532790300
33
0.0000000000
40
0.0000000000
40
0.0000000000
40
0.0000000000
40
0.0000000000
40
0.4297457606
40
1.0000000000
40
1.0000000000
40
1.0000000000
40
1.0000000000
10
8.7248526962
20
14.1787495674
30
0.0000000000
10
8.7248173840
20
14.1618037712
30
0.0000000000
10
8.7063450003
20
14.1222903516
30
0.0000000000
10
8.6718851830
20
14.1004887614
30
0.0000000000
10
8.6516301212
20
14.0903612305
30
0.0000000000
11
8.7248526962
21
14.1787495674
31
0.0000000000
11
8.7059879449
21
14.1311133679
31
0.0000000000
11
8.6516301212
21
14.0903612305
31
0.0000000000
0
SPLINE
5
37D
100
AcDbEntity
8
0
100
AcDbSpline
62
9
6
CONTINUOUS
70
0
71
3
72
10
73
6
74
4
42
0.0000001000
43
0.0000001000
44
0.0000000001
12
0.0000000000
22
0.2520880918
32
0.0000000000
13
0.1608200954
23
0.1941270278
33
0.0000000000
40
0.0000000000
40
0.0000000000
40
0.0000000000
40
0.0000000000
40
0.3143261490
40
0.6576004087
40
1.0000000000
40
1.0000000000
40
1.0000000000
40
1.0000000000
10
4.8332535028
20
-27.9494656106
30
0.0000000000
10
4.8332535028
20
-27.9230529843
30
0.0000000000
10
4.8413517582
20
-27.8676938347
30
0.0000000000
10
4.8716672808
20
-27.7887586906
30
0.0000000000
10
4.9032869388
20
-27.7399277751
30
0.0000000000
10
4.9216418504
20
-27.7177714368
30
0.0000000000
11
4.8332535028
21
-27.9494656106
31
0.0000000000
11
4.8436997695
21
-27.8709193377
31
0.0000000000
11
4.8744089850
21
-27.7900162388
31
0.0000000000
11
4.9216418504
21
-27.7177714368
31
0.0000000000
0
SPLINE
5
37E
100
AcDbEntity
8
0
100
AcDbSpline
62
9
6
CONTINUOUS
70
0
71
3
72
10
73
6
74
4
42
0.0000001000
43
0.0000001000
44
0.0000000001
12
0.0000000000
22
0.2520868931
32
0.0000000000
13
0.1608193307
23
0.1941261047
33
0.0000000000
40
0.0000000000
40
0.0000000000
40
0.0000000000
40
0.0000000000
40
0.3194140804
40
0.6628747918
40
1.0000000000
40
1.0000000000
40
1.0000000000
40
1.0000000000
10
6.1767563870
20
-28.6212170528
30
0.0000000000
10
6.1767563870
20
-28.5943770184
30
0.0000000000
10
6.1850463888
20
-28.5385722282
30
0.0000000000
10
6.2156129684
20
-28.4597380614
30
0.0000000000
10
6.2470726512
20
-28.4113378134
30
0.0000000000
10
6.2651447347
20
-28.3895228789
30
0.0000000000
11
6.1767563870
21
-28.6212170528
31
0.0000000000
11
6.1875254039
21
-28.5414203405
31
0.0000000000
11
6.2185205788
21
-28.4605764657
31
0.0000000000
11
6.2651447347
21
-28.3895228789
31
0.0000000000
0
SPLINE
5
37F
100
AcDbEntity
8
0
100
AcDbSpline
62
9
6
CONTINUOUS
70
0
71
3
72
10
73
6
74
4
42
0.0000001000
43
0.0000001000
44
0.0000000001
12
-0.1420669092
22
0.0716176355
32
0.0000000000
13
-0.0000000000
23
0.1565856039
33
0.0000000000
40
0.0000000000
40
0.0000000000
40
0.0000000000
40
0.0000000000
40
0.1842199449
40
0.5600070913
40
1.0000000000
40
1.0000000000
40
1.0000000000
40
1.0000000000
10
4.8982916179
20
13.2150485867
30
0.0000000000
10
4.8895677652
20
13.2194463857
30
0.0000000000
10
4.8648909284
20
13.2367781292
30
0.0000000000
10
4.8385911785
20
13.2841519584
30
0.0000000000
10
4.8332535028
20
13.3271730103
30
0.0000000000
10
4.8332535028
20
13.3501385287
30
0.0000000000
11
4.8982916179
21
13.2150485867
31
0.0000000000
11
4.8744089850
21
13.2318446390
31
0.0000000000
11
4.8436997695
21
13.2820385225
31
0.0000000000
11
4.8332535028
21
13.3501385287
31
0.0000000000
0
SPLINE
5
380
100
AcDbEntity
8
0
100
AcDbSpline
62
9
6
CONTINUOUS
70
0
71
3
72
10
73
6
74
4
42
0.0000001000
43
0.0000001000
44
0.0000000001
12
-0.1420669092
22
0.0716176355
32
0.0000000000
13
0.0000000000
23
0.1565856039
33
0.0000000000
40
0.0000000000
40
0.0000000000
40
0.0000000000
40
0.0000000000
40
0.1842199449
40
0.5600070913
40
1.0000000000
40
1.0000000000
40
1.0000000000
40
1.0000000000
10
6.2417945022
20
12.5432971446
30
0.0000000000
10
6.2330706495
20
12.5476949435
30
0.0000000000
10
6.2083938126
20
12.5650266871
30
0.0000000000
10
6.1820940627
20
12.6124005163
30
0.0000000000
10
6.1767563870
20
12.6554215682
30
0.0000000000
10
6.1767563870
20
12.6783870866
30
0.0000000000
11
6.2417945022
21
12.5432971446
31
0.0000000000
11
6.2179118692
21
12.5600931969
31
0.0000000000
11
6.1872026538
21
12.6102870804
31
0.0000000000
11
6.1767563870
21
12.6783870866
31
0.0000000000
0
SPLINE
5
381
100
AcDbEntity
8
0
100
AcDbSpline
62
9
6
CONTINUOUS
70
0
71
3
72
10
73
6
74
4
42
0.0000001000
43
0.0000001000
44
0.0000000001
12
0.0000820386
22
-0.0997299692
32
0.0000000000
13
0.0836144133
23
-0.0511958990
33
0.0000000000
40
0.0000000000
40
0.0000000000
40
0.0000000000
40
0.0000000000
40
0.1925998704
40
0.6351840661
40
1.0000000000
40
1.0000000000
40
1.0000000000
40
1.0000000000
10
5.4673940896
20
12.7381749871
30
0.0000000000
10
5.4673993565
20
12.7317723274
30
0.0000000000
10
5.4705284207
20
12.7106356924
30
0.0000000000
10
5.4912253224
20
12.6835247300
30
0.0000000000
10
5.5125414002
20
12.6677567438
30
0.0000000000
10
5.5227093570
20
12.6615310506
30
0.0000000000
11
5.4673940896
21
12.7381749871
31
0.0000000000
11
5.4702179460
21
12.7193143300
31
0.0000000000
11
5.4942187096
21
12.6832557124
31
0.0000000000
11
5.5227093570
21
12.6615310506
31
0.0000000000
0
SPLINE
5
382
100
AcDbEntity
8
0
100
AcDbSpline
62
9
6
CONTINUOUS
70
0
71
3
72
8
73
4
74
2
42
0.0000001000
43
0.0000001000
44
0.0000000001
12
0.0172110689
22
-0.0105380892
32
0.0000000000
13
0.0180182640
23
-0.0090101087
33
0.0000000000
40
0.0000000000
40
0.0000000000
40
0.0000000000
40
0.0000000000
40
1.0000000000
40
1.0000000000
40
1.0000000000
40
1.0000000000
10
5.5227093570
20
12.6615310506
30
0.0000000000
10
5.5284463800
20
12.6580183542
30
0.0000000000
10
5.5343541960
20
12.6547918291
30
0.0000000000
10
5.5403602840
20
12.6517884596
30
0.0000000000
11
5.5227093570
21
12.6615310506
31
0.0000000000
11
5.5403602840
21
12.6517884596
31
0.0000000000
0
SPLINE
5
383
100
AcDbEntity
8
0
100
AcDbSpline
62
9
6
CONTINUOUS
70
0
71
3
72
10
73
6
74
4
42
0.0000001000
43
0.0000001000
44
0.0000000001
12
0.0000000000
22
-0.1564950024
32
0.0000000000
13
-0.1423874165
23
-0.0691161156
33
0.0000000000
40
0.0000000000
40
0.0000000000
40
0.0000000000
40
0.0000000000
40
0.4959120394
40
0.9056897731
40
1.0000000000
40
1.0000000000
40
1.0000000000
40
1.0000000000
10
8.6516301212
20
-27.9118708531
30
0.0000000000
10
8.6516301212
20
-27.9377401050
30
0.0000000000
10
8.6452380545
20
-27.9857028543
30
0.0000000000
10
8.6139728536
20
-28.0313614286
30
0.0000000000
10
8.5910368040
20
-28.0447832185
30
0.0000000000
10
8.5865606075
20
-28.0469560040
30
0.0000000000
11
8.6516301212
21
-27.9118708531
31
0.0000000000
11
8.6380568957
21
-27.9882824445
31
0.0000000000
11
8.5993678837
21
-28.0394252076
31
0.0000000000
11
8.5865606075
21
-28.0469560040
31
0.0000000000
0
SPLINE
5
384
100
AcDbEntity
8
0
100
AcDbSpline
62
9
6
CONTINUOUS
70
0
71
3
72
10
73
6
74
4
42
0.0000001000
43
0.0000001000
44
0.0000000001
12
0.0000000000
22
-0.1564808595
32
0.0000000000
13
-0.1423869558
23
-0.0692182728
33
0.0000000000
40
0.0000000000
40
0.0000000000
40
0.0000000000
40
0.0000000000
40
0.4940245815
40
0.9020990723
40
1.0000000000
40
1.0000000000
40
1.0000000000
40
1.0000000000
10
6.5303097776
20
-28.9725310249
30
0.0000000000
10
6.5303097776
20
-28.9982994886
30
0.0000000000
10
6.5239558610
20
-29.0460562840
30
0.0000000000
10
6.4928980031
20
-29.0917875829
30
0.0000000000
10
6.4699092535
20
-29.1053387514
30
0.0000000000
10
6.4652626485
20
-29.1075975957
30
0.0000000000
11
6.5303097776
21
-28.9725310249
31
0.0000000000
11
6.5168534529
21
-29.0486562560
31
0.0000000000
11
6.4785330823
21
-29.0997357861
31
0.0000000000
11
6.4652626485
21
-29.1075975957
31
0.0000000000
0
SPLINE
5
385
100
AcDbEntity
8
0
100
AcDbSpline
62
7
6
CONTINUOUS
70
0
71
3
72
11
73
7
74
5
42
0.0000001000
43
0.0000001000
44
0.0000000001
12
0.0000669568
22
-0.2417248529
32
0.0000000000
13
0.2152385224
23
-0.1076192612
33
0.0000000000
40
0.0000000000
40
0.0000000000
40
0.0000000000
40
0.0000000000
40
0.2042181767
40
0.4327266543
40
0.6963913004
40
1.0000000000
40
1.0000000000
40
1.0000000000
40
1.0000000000
10
-3.0226873688
20
18.4039295840
30
0.0000000000
10
-3.0226828108
20
18.3874747145
30
0.0000000000
10
-3.0154894865
20
18.3525968582
30
0.0000000000
10
-2.9851005093
20
18.3046151793
30
0.0000000000
10
-2.9373803775
20
18.2614078678
30
0.0000000000
10
-2.8980236544
20
18.2380398195
30
0.0000000000
10
-2.8762408918
20
18.2271484382
30
0.0000000000
11
-3.0226873688
21
18.4039295840
31
0.0000000000
11
-3.0132896798
21
18.3556822523
31
0.0000000000
11
-2.9849023007
21
18.3085869472
31
0.0000000000
11
-2.9386221905
21
18.2651822650
31
0.0000000000
11
-2.8762408918
21
18.2271484382
31
0.0000000000
0
SPLINE
5
386
100
AcDbEntity
8
0
100
AcDbSpline
62
9
6
CONTINUOUS
70
0
71
3
72
9
73
5
74
3
42
0.0000001000
43
0.0000001000
44
0.0000000001
12
0.0002465096
22
-0.1182964284
32
0.0000000000
13
0.1065580600
23
-0.0532790300
33
0.0000000000
40
0.0000000000
40
0.0000000000
40
0.0000000000
40
0.0000000000
40
0.4297457606
40
1.0000000000
40
1.0000000000
40
1.0000000000
40
1.0000000000
10
-8.6042872366
20
20.4719999200
30
0.0000000000
10
-8.6042519245
20
20.4550541238
30
0.0000000000
10
-8.5857795408
20
20.4155407041
30
0.0000000000
10
-8.5513197235
20
20.3937391139
30
0.0000000000
10
-8.5310646617
20
20.3836115830
30
0.0000000000
11
-8.6042872366
21
20.4719999200
31
0.0000000000
11
-8.5854224854
21
20.4243637204
31
0.0000000000
11
-8.5310646617
21
20.3836115830
31
0.0000000000
0
SPLINE
5
387
100
AcDbEntity
8
0
100
AcDbSpline
62
9
6
CONTINUOUS
70
0
71
3
72
9
73
5
74
3
42
0.0000001000
43
0.0000001000
44
0.0000000001
12
0.0000000000
22
-0.1183504396
32
0.0000000000
13
0.1065872076
23
-0.0532936038
33
0.0000000000
40
0.0000000000
40
0.0000000000
40
0.0000000000
40
0.0000000000
40
0.4320096608
40
1.0000000000
40
1.0000000000
40
1.0000000000
40
1.0000000000
10
-8.6042879664
20
20.1206859586
30
0.0000000000
10
-8.6042879664
20
20.1036431142
30
0.0000000000
10
-8.5856828401
20
20.0641929676
30
0.0000000000
10
-8.5512448297
20
20.0423876950
30
0.0000000000
10
-8.5310646617
20
20.0322976109
30
0.0000000000
11
-8.6042879664
21
20.1206859586
31
0.0000000000
11
-8.5852578495
21
20.0728505296
31
0.0000000000
11
-8.5310646617
21
20.0322976109
31
0.0000000000
0
SPLINE
5
388
100
AcDbEntity
8
0
100
AcDbSpline
62
9
6
CONTINUOUS
70
0
71
3
72
11
73
7
74
5
42
0.0000001000
43
0.0000001000
44
0.0000000001
12
0.1282325543
22
0.3361386034
32
0.0000000000
13
-0.3217859520
23
0.1608929760
33
0.0000000000
40
0.0000000000
40
0.0000000000
40
0.0000000000
40
0.0000000000
40
0.2711305050
40
0.5346867854
40
0.7783356466
40
1.0000000000
40
1.0000000000
40
1.0000000000
40
1.0000000000
10
8.1213000353
20
-27.4507219239
30
0.0000000000
10
8.1328892877
20
-27.4203427808
30
0.0000000000
10
8.1465535108
20
-27.3564967236
30
0.0000000000
10
8.1376932320
20
-27.2620620723
30
0.0000000000
10
8.1004261679
20
-27.1808370321
30
0.0000000000
10
8.0566878460
20
-27.1425274816
30
0.0000000000
10
8.0329116876
20
-27.1306394025
30
0.0000000000
11
8.1213000353
21
-27.4507219239
31
0.0000000000
11
8.1416684669
21
-27.3553282399
31
0.0000000000
11
8.1320233400
21
-27.2610010548
31
0.0000000000
11
8.0938330378
21
-27.1821008276
31
0.0000000000
11
8.0329116876
21
-27.1306394025
31
0.0000000000
0
SPLINE
5
389
100
AcDbEntity
8
0
100
AcDbSpline
62
9
6
CONTINUOUS
70
0
71
3
72
9
73
5
74
3
42
0.0000001000
43
0.0000001000
44
0.0000000001
12
0.0460603439
22
0.1207389166
32
0.0000000000
13
-0.0060515878
23
0.1296703380
33
0.0000000000
40
0.0000000000
40
0.0000000000
40
0.0000000000
40
0.0000000000
40
0.7511171255
40
1.0000000000
40
1.0000000000
40
1.0000000000
40
1.0000000000
10
8.6516301212
20
-27.5605568810
30
0.0000000000
10
8.6631623589
20
-27.5303271917
30
0.0000000000
10
8.6723715175
20
-27.4874522314
30
0.0000000000
10
8.6726723056
20
-27.4440969842
30
0.0000000000
10
8.6721702601
20
-27.4333394087
30
0.0000000000
11
8.6516301212
21
-27.5605568810
31
0.0000000000
11
8.6719707752
21
-27.4656479910
31
0.0000000000
11
8.6721702601
21
-27.4333394087
31
0.0000000000
0
SPLINE
5
38A
100
AcDbEntity
8
0
100
AcDbSpline
62
9
6
CONTINUOUS
70
0
71
3
72
8
73
4
74
2
42
0.0000001000
43
0.0000001000
44
0.0000000001
12
-0.0029427066
22
0.0630548167
32
0.0000000000
13
-0.0167179085
23
0.0609038365
33
0.0000000000
40
0.0000000000
40
0.0000000000
40
0.0000000000
40
0.0000000000
40
1.0000000000
40
1.0000000000
40
1.0000000000
40
1.0000000000
10
8.6721702601
20
-27.4333394087
30
0.0000000000
10
8.6711893579
20
-27.4123211365
30
0.0000000000
10
8.6680061852
20
-27.3914280859
30
0.0000000000
10
8.6624335490
20
-27.3711268071
30
0.0000000000
11
8.6721702601
21
-27.4333394087
31
0.0000000000
11
8.6624335490
21
-27.3711268071
31
0.0000000000
0
SPLINE
5
38B
100
AcDbEntity
8
0
100
AcDbSpline
62
9
6
CONTINUOUS
70
0
71
3
72
8
73
4
74
2
42
0.0000001000
43
0.0000001000
44
0.0000000001
12
-0.0080339391
22
0.0292678784
32
0.0000000000
13
-0.0114452415
23
0.0281349514
33
0.0000000000
40
0.0000000000
40
0.0000000000
40
0.0000000000
40
0.0000000000
40
1.0000000000
40
1.0000000000
40
1.0000000000
40
1.0000000000
10
8.6624335490
20
-27.3711268071
30
0.0000000000
10
8.6597555693
20
-27.3613708476
30
0.0000000000
10
8.6565257745
20
-27.3517515500
30
0.0000000000
10
8.6527106940
20
-27.3423732329
30
0.0000000000
11
8.6624335490
21
-27.3711268071
31
0.0000000000
11
8.6527106940
21
-27.3423732329
31
0.0000000000
0
SPLINE
5
38C
100
AcDbEntity
8
0
100
AcDbSpline
62
9
6
CONTINUOUS
70
0
71
3
72
9
73
5
74
3
42
0.0000001000
43
0.0000001000
44
0.0000000001
12
-0.0429532888
22
0.1055887452
32
0.0000000000
13
-0.0931448198
23
0.0658386869
33
0.0000000000
40
0.0000000000
40
0.0000000000
40
0.0000000000
40
0.0000000000
40
0.5084807211
40
1.0000000000
40
1.0000000000
40
1.0000000000
40
1.0000000000
10
8.6527106940
20
-27.3423732329
30
0.0000000000
10
8.6454303876
20
-27.3244766191
30
0.0000000000
10
8.6269209714
20
-27.2910062058
30
0.0000000000
10
8.5992684628
20
-27.2637337175
30
0.0000000000
10
8.5840076380
20
-27.2529467229
30
0.0000000000
11
8.6527106940
21
-27.3423732329
31
0.0000000000
11
8.6242430543
21
-27.2920409892
31
0.0000000000
11
8.5840076380
21
-27.2529467229
31
0.0000000000
0
SPLINE
5
38D
100
AcDbEntity
8
0
100
AcDbSpline
62
9
6
CONTINUOUS
70
0
71
3
72
8
73
4
74
2
42
0.0000001000
43
0.0000001000
44
0.0000000001
12
-0.0198670688
22
0.0140428821
32
0.0000000000
13
-0.0216205496
23
0.0108102748
33
0.0000000000
40
0.0000000000
40
0.0000000000
40
0.0000000000
40
0.0000000000
40
1.0000000000
40
1.0000000000
40
1.0000000000
40
1.0000000000
10
8.5840076380
20
-27.2529467229
30
0.0000000000
10
8.5773852817
20
-27.2482657622
30
0.0000000000
10
8.5704486234
20
-27.2440777844
30
0.0000000000
10
8.5632417735
20
-27.2404743595
30
0.0000000000
11
8.5840076380
21
-27.2529467229
31
0.0000000000
11
8.5632417735
21
-27.2404743595
31
0.0000000000
0
SPLINE
5
38E
100
AcDbEntity
8
0
100
AcDbSpline
62
9
6
CONTINUOUS
70
0
71
3
72
11
73
7
74
5
42
0.0000001000
43
0.0000001000
44
0.0000000001
12
0.0000000000
22
-0.3637742184
32
0.0000000000
13
0.3562148286
23
-0.0737745066
33
0.0000000000
40
0.0000000000
40
0.0000000000
40
0.0000000000
40
0.0000000000
40
0.2939319030
40
0.5506294032
40
0.7793103319
40
1.0000000000
40
1.0000000000
40
1.0000000000
40
1.0000000000
10
7.9445233400
20
-27.1641102716
30
0.0000000000
10
7.9445233400
20
-27.1997518877
30
0.0000000000
10
7.9511539194
20
-27.2668998093
30
0.0000000000
10
7.9854461668
20
-27.3565136628
30
0.0000000000
10
8.0433065926
20
-27.4226215783
30
0.0000000000
10
8.0950957245
20
-27.4452948335
30
0.0000000000
10
8.1213000353
20
-27.4507219239
30
0.0000000000
11
7.9445233400
21
-27.1641102716
31
0.0000000000
11
7.9566171783
21
-27.2703489757
31
0.0000000000
11
7.9918301658
21
-27.3568351440
31
0.0000000000
11
8.0478367941
21
-27.4183456191
31
0.0000000000
11
8.1213000353
21
-27.4507219239
31
0.0000000000
0
SPLINE
5
38F
100
AcDbEntity
8
0
100
AcDbSpline
62
9
6
CONTINUOUS
70
0
71
3
72
10
73
6
74
4
42
0.0000001000
43
0.0000001000
44
0.0000000001
12
-0.1420669092
22
0.0716176355
32
0.0000000000
13
0.0000000000
23
0.1565856039
33
0.0000000000
40
0.0000000000
40
0.0000000000
40
0.0000000000
40
0.0000000000
40
0.1842199449
40
0.5600070913
40
1.0000000000
40
1.0000000000
40
1.0000000000
40
1.0000000000
10
-8.4660265465
20
19.8972076689
30
0.0000000000
10
-8.4747503992
20
19.9016054679
30
0.0000000000
10
-8.4994272361
20
19.9189372114
30
0.0000000000
10
-8.5257269859
20
19.9663110406
30
0.0000000000
10
-8.5310646617
20
20.0093320925
30
0.0000000000
10
-8.5310646617
20
20.0322976109
30
0.0000000000
11
-8.4660265465
21
19.8972076689
31
0.0000000000
11
-8.4899091795
21
19.9140037213
31
0.0000000000
11
-8.5206183949
21
19.9641976047
31
0.0000000000
11
-8.5310646617
21
20.0322976109
31
0.0000000000
0
SPLINE
5
390
100
AcDbEntity
8
0
100
AcDbSpline
62
9
6
CONTINUOUS
70
0
71
3
72
10
73
6
74
4
42
0.0000001000
43
0.0000001000
44
0.0000000001
12
-0.1420669092
22
0.0716176355
32
0.0000000000
13
0.0000000000
23
0.1565856039
33
0.0000000000
40
0.0000000000
40
0.0000000000
40
0.0000000000
40
0.0000000000
40
0.1842199449
40
0.5600070913
40
1.0000000000
40
1.0000000000
40
1.0000000000
40
1.0000000000
10
-7.1225236622
20
19.2254562268
30
0.0000000000
10
-7.1312475150
20
19.2298540257
30
0.0000000000
10
-7.1559243518
20
19.2471857693
30
0.0000000000
10
-7.1822241017
20
19.2945595985
30
0.0000000000
10
-7.1875617774
20
19.3375806504
30
0.0000000000
10
-7.1875617774
20
19.3605461688
30
0.0000000000
11
-7.1225236622
21
19.2254562268
31
0.0000000000
11
-7.1464062952
21
19.2422522791
31
0.0000000000
11
-7.1771155107
21
19.2924461626
31
0.0000000000
11
-7.1875617774
21
19.3605461688
31
0.0000000000
0
SPLINE
5
391
100
AcDbEntity
8
0
100
AcDbSpline
62
9
6
CONTINUOUS
70
0
71
3
72
8
73
4
74
2
42
0.0000001000
43
0.0000001000
44
0.0000000001
12
0.0057724119
22
0.0028061305
32
0.0000000000
13
0.0059609395
23
0.0024315908
33
0.0000000000
40
0.0000000000
40
0.0000000000
40
0.0000000000
40
0.0000000000
40
1.0000000000
40
1.0000000000
40
1.0000000000
40
1.0000000000
10
-6.3446971889
20
21.7561150210
30
0.0000000000
10
-6.3427730516
20
21.7570503978
30
0.0000000000
10
-6.3408148725
20
21.7579235011
30
0.0000000000
10
-6.3388278927
20
21.7587340314
30
0.0000000000
11
-6.3446971889
21
21.7561150210
31
0.0000000000
11
-6.3388278927
21
21.7587340314
31
0.0000000000
0
SPLINE
5
392
100
AcDbEntity
8
0
100
AcDbSpline
62
9
6
CONTINUOUS
70
0
71
3
72
9
73
5
74
3
42
0.0000001000
43
0.0000001000
44
0.0000000001
12
0.1018210834
22
0.0415349312
32
0.0000000000
13
0.0969206517
23
-0.0484603259
33
0.0000000000
40
0.0000000000
40
0.0000000000
40
0.0000000000
40
0.0000000000
40
0.3555081913
40
1.0000000000
40
1.0000000000
40
1.0000000000
40
1.0000000000
10
-6.3388278927
20
21.7587340314
30
0.0000000000
10
-6.3267618163
20
21.7636560341
30
0.0000000000
10
-6.2898340162
20
21.7710104461
30
0.0000000000
10
-6.2537891448
20
21.7595772144
30
0.0000000000
10
-6.2329676228
20
21.7491664534
30
0.0000000000
11
-6.3388278927
21
21.7587340314
31
0.0000000000
11
-6.3006171353
21
21.7665106450
31
0.0000000000
11
-6.2329676228
21
21.7491664534
31
0.0000000000
0
SPLINE
5
393
100
AcDbEntity
8
0
100
AcDbSpline
62
9
6
CONTINUOUS
70
0
71
3
72
9
73
5
74
3
42
0.0000001000
43
0.0000001000
44
0.0000000001
12
0.1043731838
22
0.0507387174
32
0.0000000000
13
0.1025947039
23
-0.0512973520
33
0.0000000000
40
0.0000000000
40
0.0000000000
40
0.0000000000
40
0.0000000000
40
0.3911521382
40
1.0000000000
40
1.0000000000
40
1.0000000000
40
1.0000000000
10
-8.4660175325
20
20.6954548492
30
0.0000000000
10
-8.4524089345
20
20.7020703685
30
0.0000000000
10
-8.4132645445
20
20.7110196132
30
0.0000000000
10
-8.3751094884
20
20.6989170426
30
0.0000000000
10
-8.3542879664
20
20.6885062816
30
0.0000000000
11
-8.4660175325
21
20.6954548492
31
0.0000000000
11
-8.4219374789
21
20.7058504732
31
0.0000000000
11
-8.3542879664
21
20.6885062816
31
0.0000000000
0
SPLINE
5
394
100
AcDbEntity
8
0
100
AcDbSpline
62
9
6
CONTINUOUS
70
0
71
3
72
10
73
6
74
4
42
0.0000001000
43
0.0000001000
44
0.0000000001
12
0.0000224837
22
-0.0981631922
32
0.0000000000
13
-0.0837372224
23
-0.0480130367
33
0.0000000000
40
0.0000000000
40
0.0000000000
40
0.0000000000
40
0.0000000000
40
0.1933711617
40
0.6355662814
40
1.0000000000
40
1.0000000000
40
1.0000000000
40
1.0000000000
10
-5.3468291555
20
19.0774080176
30
0.0000000000
10
-5.3468277063
20
19.0710807074
30
0.0000000000
10
-5.3498509038
20
19.0503012838
30
0.0000000000
10
-5.3705761369
20
19.0237082281
30
0.0000000000
10
-5.3919383873
20
19.0087374623
30
0.0000000000
10
-5.4021106098
20
19.0029049391
30
0.0000000000
11
-5.3468291555
21
19.0774080176
31
0.0000000000
11
-5.3496068033
21
19.0587953787
31
0.0000000000
11
-5.3735836018
21
19.0235877038
31
0.0000000000
11
-5.4021106098
21
19.0029049391
31
0.0000000000
0
SPLINE
5
395
100
AcDbEntity
8
0
100
AcDbSpline
62
9
6
CONTINUOUS
70
0
71
3
72
8
73
4
74
2
42
0.0000001000
43
0.0000001000
44
0.0000000001
12
-0.0172616574
22
-0.0098974454
32
0.0000000000
13
-0.0180294397
23
-0.0083222348
33
0.0000000000
40
0.0000000000
40
0.0000000000
40
0.0000000000
40
0.0000000000
40
1.0000000000
40
1.0000000000
40
1.0000000000
40
1.0000000000
10
-5.4021106098
20
19.0029049391
30
0.0000000000
10
-5.4078644955
20
18.9996057907
30
0.0000000000
10
-5.4137850112
20
18.9966046005
30
0.0000000000
10
-5.4197948244
20
18.9938305222
30
0.0000000000
11
-5.4021106098
21
19.0029049391
31
0.0000000000
11
-5.4197948244
21
18.9938305222
31
0.0000000000
0
SPLINE
5
396
100
AcDbEntity
8
0
100
AcDbSpline
62
9
6
CONTINUOUS
70
0
71
3
72
9
73
5
74
3
42
0.0000001000
43
0.0000001000
44
0.0000000001
12
0.0918376097
22
0.0459188049
32
0.0000000000
13
0.0276889280
23
0.0999513608
33
0.0000000000
40
0.0000000000
40
0.0000000000
40
0.0000000000
40
0.0000000000
40
0.6592125426
40
1.0000000000
40
1.0000000000
40
1.0000000000
40
1.0000000000
10
7.9445233400
20
-27.1641102716
30
0.0000000000
10
7.9647035081
20
-27.1540201876
30
0.0000000000
10
7.9943759672
20
-27.1352323408
30
0.0000000000
10
8.0122942822
20
-27.1033451505
30
0.0000000000
10
8.0154396287
20
-27.0919910938
30
0.0000000000
11
7.9445233400
21
-27.1641102716
31
0.0000000000
11
7.9987165278
21
-27.1235573530
31
0.0000000000
11
8.0154396287
21
-27.0919910938
31
0.0000000000
0
SPLINE
5
397
100
AcDbEntity
8
0
100
AcDbSpline
62
9
6
CONTINUOUS
70
0
71
3
72
8
73
4
74
2
42
0.0000001000
43
0.0000001000
44
0.0000000001
12
0.0044469859
22
0.0160527085
32
0.0000000000
13
0.0000000000
23
0.0163774006
33
0.0000000000
40
0.0000000000
40
0.0000000000
40
0.0000000000
40
0.0000000000
40
1.0000000000
40
1.0000000000
40
1.0000000000
40
1.0000000000
10
8.0154396287
20
-27.0919910938
30
0.0000000000
10
8.0169219573
20
-27.0866401910
30
0.0000000000
10
8.0177466447
20
-27.0811810575
30
0.0000000000
10
8.0177466447
20
-27.0757219239
30
0.0000000000
11
8.0154396287
21
-27.0919910938
31
0.0000000000
11
8.0177466447
21
-27.0757219239
31
0.0000000000
0
SPLINE
5
398
100
AcDbEntity
8
0
100
AcDbSpline
62
9
6
CONTINUOUS
70
0
71
3
72
11
73
7
74
5
42
0.0000001000
43
0.0000001000
44
0.0000000001
12
-0.3283063189
22
-0.1641531595
32
0.0000000000
13
0.0000000000
23
-0.3670576233
33
0.0000000000
40
0.0000000000
40
0.0000000000
40
0.0000000000
40
0.0000000000
40
0.2259015102
40
0.4856075256
40
0.7520750422
40
1.0000000000
40
1.0000000000
40
1.0000000000
40
1.0000000000
10
-7.0107850821
20
20.0167548395
30
0.0000000000
10
-7.0355067132
20
20.0043940240
30
0.0000000000
10
-7.0833633882
20
19.9671873488
30
0.0000000000
10
-7.1389741486
20
19.8928434536
30
0.0000000000
10
-7.1770418951
20
19.8052403919
30
0.0000000000
10
-7.1875617774
20
19.7421943895
30
0.0000000000
10
-7.1875617774
20
19.7118601409
30
0.0000000000
11
-7.0107850821
21
20.0167548395
31
0.0000000000
11
-7.0774460507
21
19.9674410027
31
0.0000000000
11
-7.1352995400
21
19.8916767328
31
0.0000000000
11
-7.1739885519
21
19.8018449579
31
0.0000000000
11
-7.1875617774
21
19.7118601409
31
0.0000000000
0
SPLINE
5
399
100
AcDbEntity
8
0
100
AcDbSpline
62
9
6
CONTINUOUS
70
0
71
3
72
9
73
5
74
3
42
0.0000001000
43
0.0000001000
44
0.0000000001
12
0.0000000000
22
-0.1183504396
32
0.0000000000
13
-0.1065872076
23
-0.0532936038
33
0.0000000000
40
0.0000000000
40
0.0000000000
40
0.0000000000
40
0.0000000000
40
0.4320096608
40
1.0000000000
40
1.0000000000
40
1.0000000000
40
1.0000000000
10
-4.6394647385
20
20.5095946882
30
0.0000000000
10
-4.6394647385
20
20.4925518438
30
0.0000000000
10
-4.6580698648
20
20.4531016973
30
0.0000000000
10
-4.6925078752
20
20.4312964246
30
0.0000000000
10
-4.7126880432
20
20.4212063406
30
0.0000000000
11
-4.6394647385
21
20.5095946882
31
0.0000000000
11
-4.6584948554
21
20.4617592592
31
0.0000000000
11
-4.7126880432
21
20.4212063406
31
0.0000000000
0
SPLINE
5
39A
100
AcDbEntity
8
0
100
AcDbSpline
62
9
6
CONTINUOUS
70
0
71
3
72
9
73
5
74
3
42
0.0000001000
43
0.0000001000
44
0.0000000001
12
0.0002466153
22
-0.1183471546
32
0.0000000000
13
-0.1066037527
23
-0.0533018764
33
0.0000000000
40
0.0000000000
40
0.0000000000
40
0.0000000000
40
0.0000000000
40
0.4395135603
40
1.0000000000
40
1.0000000000
40
1.0000000000
40
1.0000000000
10
-4.6394654683
20
20.8609086710
30
0.0000000000
10
-4.6394293380
20
20.8435702779
30
0.0000000000
10
-4.6583946634
20
20.8042080333
30
0.0000000000
10
-4.6927713906
20
20.7824786390
30
0.0000000000
10
-4.7126880432
20
20.7725203127
30
0.0000000000
11
-4.6394654683
21
20.8609086710
31
0.0000000000
11
-4.6590774273
21
20.8123759733
31
0.0000000000
11
-4.7126880432
21
20.7725203127
31
0.0000000000
0
SPLINE
5
39B
100
AcDbEntity
8
0
100
AcDbSpline
62
9
6
CONTINUOUS
70
0
71
3
72
9
73
5
74
3
42
0.0000001000
43
0.0000001000
44
0.0000000001
12
-0.1042886375
22
0.0503857346
32
0.0000000000
13
-0.1024200382
23
-0.0512100191
33
0.0000000000
40
0.0000000000
40
0.0000000000
40
0.0000000000
40
0.0000000000
40
0.3984659506
40
1.0000000000
40
1.0000000000
40
1.0000000000
40
1.0000000000
10
-4.7779173130
20
21.0844595243
30
0.0000000000
10
-4.7917691367
20
21.0911518575
30
0.0000000000
10
-4.8309522554
20
21.0998318343
30
0.0000000000
10
-4.8689283584
20
21.0876832013
30
0.0000000000
10
-4.8894647385
20
21.0774150113
30
0.0000000000
11
-4.7779173130
21
21.0844595243
31
0.0000000000
11
-4.8228037699
21
21.0947621431
31
0.0000000000
11
-4.8894647385
21
21.0774150113
31
0.0000000000
0
SPLINE
5
39C
100
AcDbEntity
8
0
100
AcDbSpline
62
9
6
CONTINUOUS
70
0
71
3
72
11
73
7
74
5
42
0.0000001000
43
0.0000001000
44
0.0000000001
12
-0.3283063189
22
-0.1641531595
32
0.0000000000
13
0.0000000000
23
-0.3670576233
33
0.0000000000
40
0.0000000000
40
0.0000000000
40
0.0000000000
40
0.0000000000
40
0.2259015102
40
0.4856075256
40
0.7520750422
40
1.0000000000
40
1.0000000000
40
1.0000000000
40
1.0000000000
10
-8.3542879664
20
20.6885062816
30
0.0000000000
10
-8.3790095974
20
20.6761454661
30
0.0000000000
10
-8.4268662725
20
20.6389387909
30
0.0000000000
10
-8.4824770329
20
20.5645948957
30
0.0000000000
10
-8.5205447794
20
20.4769918341
30
0.0000000000
10
-8.5310646617
20
20.4139458316
30
0.0000000000
10
-8.5310646617
20
20.3836115830
30
0.0000000000
11
-8.3542879664
21
20.6885062816
31
0.0000000000
11
-8.4209489350
21
20.6391924448
31
0.0000000000
11
-8.4788024242
21
20.5634281750
31
0.0000000000
11
-8.5174914361
21
20.4735964000
31
0.0000000000
11
-8.5310646617
21
20.3836115830
31
0.0000000000
0
SPLINE
5
39D
100
AcDbEntity
8
0
100
AcDbSpline
62
9
6
CONTINUOUS
70
0
71
3
72
9
73
5
74
3
42
0.0000001000
43
0.0000001000
44
0.0000000001
12
-0.1043460885
22
0.0506505174
32
0.0000000000
13
-0.1025770087
23
-0.0512885044
33
0.0000000000
40
0.0000000000
40
0.0000000000
40
0.0000000000
40
0.0000000000
40
0.3993864599
40
1.0000000000
40
1.0000000000
40
1.0000000000
40
1.0000000000
10
-6.1212604412
20
21.7561336010
30
0.0000000000
10
-6.1351519128
20
21.7628766446
30
0.0000000000
10
-6.1743969369
20
21.7716018956
30
0.0000000000
10
-6.2124312427
20
21.7594346435
30
0.0000000000
10
-6.2329676228
20
21.7491664534
30
0.0000000000
11
-6.1212604412
21
21.7561336010
31
0.0000000000
11
-6.1663066542
21
21.7665135852
31
0.0000000000
11
-6.2329676228
21
21.7491664534
31
0.0000000000
0
SPLINE
5
39E
100
AcDbEntity
8
0
100
AcDbSpline
62
9
6
CONTINUOUS
70
0
71
3
72
11
73
7
74
5
42
0.0000001000
43
0.0000001000
44
0.0000000001
12
-0.3249549290
22
-0.1624774645
32
0.0000000000
13
-0.3249549290
23
0.1624774645
33
0.0000000000
40
0.0000000000
40
0.0000000000
40
0.0000000000
40
0.0000000000
40
0.2353701082
40
0.5000000000
40
0.7646298918
40
1.0000000000
40
1.0000000000
40
1.0000000000
40
1.0000000000
10
-6.8340083868
20
19.3605461688
30
0.0000000000
10
-6.8595032791
20
19.3477987227
30
0.0000000000
10
-6.9180958771
20
19.3296145969
30
0.0000000000
10
-7.0107850821
20
19.3209282783
30
0.0000000000
10
-7.1034742871
20
19.3296145969
30
0.0000000000
10
-7.1620668851
20
19.3477987227
30
0.0000000000
10
-7.1875617774
20
19.3605461688
30
0.0000000000
11
-6.8340083868
21
19.3605461688
31
0.0000000000
11
-6.9151142240
21
19.3334495749
31
0.0000000000
11
-7.0107850821
21
19.3239345165
31
0.0000000000
11
-7.1064559402
21
19.3334495749
31
0.0000000000
11
-7.1875617774
21
19.3605461688
31
0.0000000000
0
SPLINE
5
39F
100
AcDbEntity
8
0
100
AcDbSpline
62
9
6
CONTINUOUS
70
0
71
3
72
9
73
5
74
3
42
0.0000001000
43
0.0000001000
44
0.0000000001
12
-0.0844768003
22
-0.0454920340
32
0.0000000000
13
-0.0939963009
23
-0.0198106210
33
0.0000000000
40
0.0000000000
40
0.0000000000
40
0.0000000000
40
0.0000000000
40
0.7167569146
40
1.0000000000
40
1.0000000000
40
1.0000000000
40
1.0000000000
10
7.2374165588
20
-27.2089577641
30
0.0000000000
10
7.2172334486
20
-27.2198266740
30
0.0000000000
10
7.1870310303
20
-27.2312410213
30
0.0000000000
10
7.1559006140
20
-27.2388583456
30
0.0000000000
10
7.1470260132
20
-27.2407287528
30
0.0000000000
11
7.2374165588
21
-27.2089577641
31
0.0000000000
11
7.1734611141
21
-27.2342386143
31
0.0000000000
11
7.1470260132
21
-27.2407287528
31
0.0000000000
0
SPLINE
5
3A0
100
AcDbEntity
8
0
100
AcDbSpline
62
9
6
CONTINUOUS
70
0
71
3
72
9
73
5
74
3
42
0.0000001000
43
0.0000001000
44
0.0000000001
12
-0.1235028064
22
-0.0260293997
32
0.0000000000
13
-0.1259476753
23
0.0079209276
33
0.0000000000
40
0.0000000000
40
0.0000000000
40
0.0000000000
40
0.0000000000
40
0.3846372135
40
1.0000000000
40
1.0000000000
40
1.0000000000
40
1.0000000000
10
7.1470260132
20
-27.2407287528
30
0.0000000000
10
7.1311914215
20
-27.2440660447
30
0.0000000000
10
7.0895509995
20
-27.2503658377
30
0.0000000000
10
7.0473464875
20
-27.2511575823
30
0.0000000000
10
7.0215119834
20
-27.2495328342
30
0.0000000000
11
7.1470260132
21
-27.2407287528
31
0.0000000000
11
7.0990750550
21
-27.2480974218
31
0.0000000000
11
7.0215119834
21
-27.2495328342
31
0.0000000000
0
SPLINE
5
3A1
100
AcDbEntity
8
0
100
AcDbSpline
62
9
6
CONTINUOUS
70
0
71
3
72
8
73
4
74
2
42
0.0000001000
43
0.0000001000
44
0.0000000001
12
-0.0103618119
22
0.0006516608
32
0.0000000000
13
-0.0103442411
23
0.0008816246
33
0.0000000000
40
0.0000000000
40
0.0000000000
40
0.0000000000
40
0.0000000000
40
1.0000000000
40
1.0000000000
40
1.0000000000
40
1.0000000000
10
7.0215119834
20
-27.2495328342
30
0.0000000000
10
7.0180580461
20
-27.2493156140
30
0.0000000000
10
7.0146065501
20
-27.2490606440
30
0.0000000000
10
7.0111584697
20
-27.2487667691
30
0.0000000000
11
7.0215119834
21
-27.2495328342
31
0.0000000000
11
7.0111584697
21
-27.2487667691
31
0.0000000000
0
SPLINE
5
3A2
100
AcDbEntity
8
0
100
AcDbSpline
62
9
6
CONTINUOUS
70
0
71
3
72
11
73
7
74
5
42
0.0000001000
43
0.0000001000
44
0.0000000001
12
-0.3249561016
22
-0.1624780508
32
0.0000000000
13
-0.3249561016
23
0.1624780508
33
0.0000000000
40
0.0000000000
40
0.0000000000
40
0.0000000000
40
0.0000000000
40
0.2314751089
40
0.4973489063
40
0.7635187405
40
1.0000000000
40
1.0000000000
40
1.0000000000
40
1.0000000000
10
-6.8340083868
20
19.7118601409
30
0.0000000000
10
-6.8590814698
20
19.6993235994
30
0.0000000000
10
-6.9172976133
20
19.6811016187
30
0.0000000000
10
-7.0098487438
20
19.6722127152
30
0.0000000000
10
-7.1030241560
20
19.6808109854
30
0.0000000000
10
-7.1619464347
20
19.6990524695
30
0.0000000000
10
-7.1875617774
20
19.7118601409
30
0.0000000000
11
-6.8340083868
21
19.7118601409
31
0.0000000000
11
-6.9137197081
21
19.6850548329
31
0.0000000000
11
-7.0098158765
21
19.6752494279
31
0.0000000000
11
-7.1060575026
21
19.6846812290
31
0.0000000000
11
-7.1875617774
21
19.7118601409
31
0.0000000000
0
SPLINE
5
3A3
100
AcDbEntity
8
0
100
AcDbSpline
62
9
6
CONTINUOUS
70
0
71
3
72
11
73
7
74
5
42
0.0000001000
43
0.0000001000
44
0.0000000001
12
-0.1061592977
22
-0.2782775268
32
0.0000000000
13
-0.2954793229
23
0.0611227618
33
0.0000000000
40
0.0000000000
40
0.0000000000
40
0.0000000000
40
0.0000000000
40
0.3176223393
40
0.6108082489
40
0.8776890968
40
1.0000000000
40
1.0000000000
40
1.0000000000
40
1.0000000000
10
-6.3036783009
20
19.2507112118
30
0.0000000000
10
-6.3149178224
20
19.2212488254
30
0.0000000000
10
-6.3452883928
20
19.1673582337
30
0.0000000000
10
-6.4126078877
20
19.1089007805
30
0.0000000000
10
-6.4797500394
20
19.0884311830
30
0.0000000000
10
-6.5190879885
20
19.0919040950
30
0.0000000000
10
-6.5311347695
20
19.0943960884
30
0.0000000000
11
-6.3036783009
21
19.2507112118
31
0.0000000000
11
-6.3509593819
21
19.1687738524
31
0.0000000000
11
-6.4179549962
21
19.1127670379
31
0.0000000000
11
-6.4944656690
21
19.0912172982
31
0.0000000000
11
-6.5311347695
21
19.0943960884
31
0.0000000000
0
SPLINE
5
3A4
100
AcDbEntity
8
0
100
AcDbSpline
62
9
6
CONTINUOUS
70
0
71
3
72
10
73
6
74
4
42
0.0000001000
43
0.0000001000
44
0.0000000001
12
-0.1001271866
22
0.0500528260
32
0.0000000000
13
-0.0108421594
23
0.1134515191
33
0.0000000000
40
0.0000000000
40
0.0000000000
40
0.0000000000
40
0.0000000000
40
0.5000755118
40
0.8875930963
40
1.0000000000
40
1.0000000000
40
1.0000000000
40
1.0000000000
10
-7.8239578805
20
19.3339475418
30
0.0000000000
10
-7.8406482652
20
19.3422909393
30
0.0000000000
10
-7.8689248500
20
19.3601606434
30
0.0000000000
10
-7.8925573133
20
19.3912216318
30
0.0000000000
10
-7.8962215943
20
19.4099033049
30
0.0000000000
10
-7.8966278389
20
19.4141542162
30
0.0000000000
11
-7.8239578805
21
19.3339475418
31
0.0000000000
11
-7.8701932789
21
19.3655057252
31
0.0000000000
11
-7.8941617395
21
19.4016616713
31
0.0000000000
11
-7.8966278389
21
19.4141542162
31
0.0000000000
0
SPLINE
5
3A5
100
AcDbEntity
8
0
100
AcDbSpline
62
9
6
CONTINUOUS
70
0
71
3
72
8
73
4
74
2
42
0.0000001000
43
0.0000001000
44
0.0000000001
12
-0.0005893655
22
0.0061670755
32
0.0000000000
13
-0.0000014202
23
0.0062007660
33
0.0000000000
40
0.0000000000
40
0.0000000000
40
0.0000000000
40
0.0000000000
40
1.0000000000
40
1.0000000000
40
1.0000000000
40
1.0000000000
10
-7.8966278389
20
19.4141542162
30
0.0000000000
10
-7.8968242940
20
19.4162099081
30
0.0000000000
10
-7.8969230760
20
19.4182773814
30
0.0000000000
10
-7.8969235494
20
19.4203443034
30
0.0000000000
11
-7.8966278389
21
19.4141542162
31
0.0000000000
11
-7.8969235494
21
19.4203443034
31
0.0000000000
0
SPLINE
5
3A6
100
AcDbEntity
8
0
100
AcDbSpline
62
9
6
CONTINUOUS
70
0
71
3
72
11
73
7
74
5
42
0.0000001000
43
0.0000001000
44
0.0000000001
12
0.0000000018
22
-0.2963537675
32
0.0000000000
13
-0.2673132903
23
-0.1279420195
33
0.0000000000
40
0.0000000000
40
0.0000000000
40
0.0000000000
40
0.0000000000
40
0.2473802921
40
0.5129291816
40
0.7713819301
40
1.0000000000
40
1.0000000000
40
1.0000000000
40
1.0000000000
10
-7.8239578805
20
19.3339475418
30
0.0000000000
10
-7.8239578803
20
19.3095101813
30
0.0000000000
10
-7.8324830176
20
19.2587536411
30
0.0000000000
10
-7.8632734122
20
19.1883332772
30
0.0000000000
10
-7.9084107993
20
19.1284299460
30
0.0000000000
10
-7.9474764969
20
19.0985740439
30
0.0000000000
10
-7.9678473797
20
19.0888240914
30
0.0000000000
11
-7.8239578805
21
19.3339475418
31
0.0000000000
11
-7.8349603938
21
19.2614657785
31
0.0000000000
11
-7.8662558907
21
19.1892597024
31
0.0000000000
11
-7.9129747061
21
19.1285644949
31
0.0000000000
11
-7.9678473797
21
19.0888240914
31
0.0000000000
0
SPLINE
5
3A7
100
AcDbEntity
8
0
100
AcDbSpline
62
9
6
CONTINUOUS
70
0
71
3
72
9
73
5
74
3
42
0.0000001000
43
0.0000001000
44
0.0000000001
12
-0.1268770457
22
0.0634001031
32
0.0000000000
13
-0.0784662444
23
0.1181541632
33
0.0000000000
40
0.0000000000
40
0.0000000000
40
0.0000000000
40
0.0000000000
40
0.5483815983
40
1.0000000000
40
1.0000000000
40
1.0000000000
40
1.0000000000
10
-7.9678473797
20
19.0888240914
30
0.0000000000
10
-7.9910397254
20
19.1004132413
30
0.0000000000
10
-8.0317485488
20
19.1250953265
30
0.0000000000
10
-8.0654964404
20
19.1594159872
30
0.0000000000
10
-8.0773087071
20
19.1772028520
30
0.0000000000
11
-7.9678473797
21
19.0888240914
31
0.0000000000
11
-8.0335943567
21
19.1303821793
31
0.0000000000
11
-8.0773087071
21
19.1772028520
31
0.0000000000
0
SPLINE
5
3A8
100
AcDbEntity
8
0
100
AcDbSpline
62
9
6
CONTINUOUS
70
0
71
3
72
11
73
7
74
5
42
0.0000001000
43
0.0000001000
44
0.0000000001
12
-0.0000000003
22
-0.2963537667
32
0.0000000000
13
-0.2673132888
23
-0.1279420207
33
0.0000000000
40
0.0000000000
40
0.0000000000
40
0.0000000000
40
0.0000000000
40
0.2473794641
40
0.5129279065
40
0.7713809682
40
1.0000000000
40
1.0000000000
40
1.0000000000
40
1.0000000000
10
-6.4804549962
20
18.6621960997
30
0.0000000000
10
-6.4804549962
20
18.6377588210
30
0.0000000000
10
-6.4889800853
20
18.5870024074
30
0.0000000000
10
-6.5197703747
20
18.5165821034
30
0.0000000000
10
-6.5649077454
20
18.4566786589
30
0.0000000000
10
-6.6039735270
20
18.4268226429
30
0.0000000000
10
-6.6243444954
20
18.4170726493
30
0.0000000000
11
-6.4804549962
21
18.6621960997
31
0.0000000000
11
-6.4914574403
21
18.5897145743
31
0.0000000000
11
-6.5227528137
21
18.5175085893
31
0.0000000000
11
-6.5694716171
21
18.4568132556
31
0.0000000000
11
-6.6243444954
21
18.4170726493
31
0.0000000000
0
SPLINE
5
3A9
100
AcDbEntity
8
0
100
AcDbSpline
62
9
6
CONTINUOUS
70
0
71
3
72
12
73
8
74
6
42
0.0000001000
43
0.0000001000
44
0.0000000001
12
-0.3295050242
22
-0.1520992875
32
0.0000000000
13
-0.3245876209
23
0.1623287732
33
0.0000000000
40
0.0000000000
40
0.0000000000
40
0.0000000000
40
0.0000000000
40
0.1849222900
40
0.3912466917
40
0.6050439312
40
0.8127190670
40
1.0000000000
40
1.0000000000
40
1.0000000000
40
1.0000000000
10
-6.1269016056
20
18.6553936613
30
0.0000000000
10
-6.1472125468
20
18.6460181451
30
0.0000000000
10
-6.1928038218
20
18.6318201741
30
0.0000000000
10
-6.2656326534
20
18.6223658784
30
0.0000000000
10
-6.3418610240
20
18.6238400116
30
0.0000000000
10
-6.4147194228
20
18.6361274489
30
0.0000000000
10
-6.4601919720
20
18.6520624049
30
0.0000000000
10
-6.4804549962
20
18.6621960997
30
0.0000000000
11
-6.1269016056
21
18.6553936613
31
0.0000000000
11
-6.1906456134
21
18.6344028727
31
0.0000000000
11
-6.2648398041
21
18.6243038934
31
0.0000000000
11
-6.3424159541
21
18.6257887785
31
0.0000000000
11
-6.4166632824
21
18.6387407272
31
0.0000000000
11
-6.4804549962
21
18.6621960997
31
0.0000000000
0
SPLINE
5
3AA
100
AcDbEntity
8
0
100
AcDbSpline
62
9
6
CONTINUOUS
70
0
71
3
72
11
73
7
74
5
42
0.0000001000
43
0.0000001000
44
0.0000000001
12
-0.0041573219
22
-0.2937795940
32
0.0000000000
13
0.2627907658
23
-0.1313953828
33
0.0000000000
40
0.0000000000
40
0.0000000000
40
0.0000000000
40
0.0000000000
40
0.2477575225
40
0.5127708299
40
0.7707810833
40
1.0000000000
40
1.0000000000
40
1.0000000000
40
1.0000000000
10
-6.1269016056
20
18.6553936613
30
0.0000000000
10
-6.1272449415
20
18.6311316265
30
0.0000000000
10
-6.1196088963
20
18.5807046885
30
0.0000000000
10
-6.0901991771
20
18.5104683018
30
0.0000000000
10
-6.0463329660
20
18.4504570195
30
0.0000000000
10
-6.0080272639
20
18.4203096467
30
0.0000000000
10
-5.9879483924
20
18.4102702109
30
0.0000000000
11
-6.1269016056
21
18.6553936613
31
0.0000000000
11
-6.1170809311
21
18.5832657731
31
0.0000000000
11
-6.0872251115
21
18.5113538614
31
0.0000000000
11
-6.0418797173
21
18.4506059813
31
0.0000000000
11
-5.9879483924
21
18.4102702109
31
0.0000000000
0
SPLINE
5
3AB
100
AcDbEntity
8
0
100
AcDbSpline
62
9
6
CONTINUOUS
70
0
71
3
72
12
73
8
74
6
42
0.0000001000
43
0.0000001000
44
0.0000000001
12
-0.5896938884
22
-0.2822420899
32
0.0000000000
13
-0.5846679222
23
0.2925113674
33
0.0000000000
40
0.0000000000
40
0.0000000000
40
0.0000000000
40
0.0000000000
40
0.1855763087
40
0.3920467682
40
0.6056497892
40
0.8129848559
40
1.0000000000
40
1.0000000000
40
1.0000000000
40
1.0000000000
10
-5.9879483924
20
18.4102702109
30
0.0000000000
10
-6.0244261307
20
18.3928110625
30
0.0000000000
10
-6.1063807503
20
18.3660718198
30
0.0000000000
10
-6.2375235571
20
18.3475482600
30
0.0000000000
10
-6.3747936621
20
18.3490142650
30
0.0000000000
10
-6.5060123526
20
18.3703620415
30
0.0000000000
10
-6.5878972435
20
18.3988379641
30
0.0000000000
10
-6.6243444954
20
18.4170726493
30
0.0000000000
11
-5.9879483924
21
18.4102702109
31
0.0000000000
11
-6.1026708700
21
18.3708015087
31
0.0000000000
11
-6.2362081334
21
18.3511073287
31
0.0000000000
11
-6.3758450264
21
18.3525817318
31
0.0000000000
11
-6.5095051674
21
18.3751193184
31
0.0000000000
11
-6.6243444954
21
18.4170726493
31
0.0000000000
0
SPLINE
5
3AC
100
AcDbEntity
8
0
100
AcDbSpline
62
9
6
CONTINUOUS
70
0
71
3
72
11
73
7
74
5
42
0.0000001000
43
0.0000001000
44
0.0000000001
12
-0.0041573220
22
-0.2937795929
32
0.0000000000
13
0.2627907647
23
-0.1313953824
33
0.0000000000
40
0.0000000000
40
0.0000000000
40
0.0000000000
40
0.0000000000
40
0.2477558440
40
0.5127682406
40
0.7707791191
40
1.0000000000
40
1.0000000000
40
1.0000000000
40
1.0000000000
10
-5.4197948244
20
18.9938305222
30
0.0000000000
10
-5.4201381580
20
18.9695686519
30
0.0000000000
10
-5.4125022057
20
18.9191419701
30
0.0000000000
10
-5.3830926969
20
18.8489057082
30
0.0000000000
10
-5.3392265234
20
18.7888941975
30
0.0000000000
10
-5.3009206547
20
18.7587465936
30
0.0000000000
10
-5.2808416112
20
18.7487070719
30
0.0000000000
11
-5.4197948244
21
18.9938305222
31
0.0000000000
11
-5.4099742821
21
18.9217031140
31
0.0000000000
11
-5.3801187088
21
18.8497913901
31
0.0000000000
11
-5.3347733450
21
18.7890432586
31
0.0000000000
11
-5.2808416112
21
18.7487070719
31
0.0000000000
0
SPLINE
5
3AD
100
AcDbEntity
8
0
100
AcDbSpline
62
9
6
CONTINUOUS
70
0
71
3
72
12
73
8
74
6
42
0.0000001000
43
0.0000001000
44
0.0000000001
12
0.3808202374
22
-0.1903778717
32
0.0000000000
13
-0.3840351502
23
-0.1838063945
33
0.0000000000
40
0.0000000000
40
0.0000000000
40
0.0000000000
40
0.0000000000
40
0.2370476031
40
0.4219736478
40
0.5824541864
40
0.7654875889
40
1.0000000000
40
1.0000000000
40
1.0000000000
40
1.0000000000
10
-5.2808416112
20
19.0601026850
30
0.0000000000
10
-5.2507507697
20
19.0450598123
30
0.0000000000
10
-5.1996250260
20
19.0126203877
30
0.0000000000
10
-5.1478664947
20
18.9433819169
30
0.0000000000
10
-5.1477512942
20
18.8628568944
30
0.0000000000
10
-5.1996790691
20
18.7943538796
30
0.0000000000
10
-5.2508212748
20
18.7630753654
30
0.0000000000
10
-5.2808416112
20
18.7487070719
30
0.0000000000
11
-5.2808416112
21
19.0601026850
31
0.0000000000
11
-5.1976106752
21
19.0030208828
31
0.0000000000
11
-5.1544706498
21
18.9371583812
31
0.0000000000
11
-5.1545077851
21
18.8688329116
31
0.0000000000
11
-5.1976737324
21
18.8039530674
31
0.0000000000
11
-5.2808416112
21
18.7487070719
31
0.0000000000
0
SPLINE
5
3AE
100
AcDbEntity
8
0
100
AcDbSpline
62
9
6
CONTINUOUS
70
0
71
3
72
9
73
5
74
3
42
0.0000001000
43
0.0000001000
44
0.0000000001
12
-0.0561286495
22
-0.0268644063
32
0.0000000000
13
-0.0628234178
23
0.0079092258
33
0.0000000000
40
0.0000000000
40
0.0000000000
40
0.0000000000
40
0.0000000000
40
0.8811956232
40
1.0000000000
40
1.0000000000
40
1.0000000000
40
1.0000000000
10
8.0834765532
20
12.3779436028
30
0.0000000000
10
8.0669897798
20
12.3700526704
30
0.0000000000
10
8.0461531502
20
12.3638881173
30
0.0000000000
10
8.0251259212
20
12.3656000646
30
0.0000000000
10
8.0226380222
20
12.3659132814
30
0.0000000000
11
8.0834765532
21
12.3779436028
31
0.0000000000
11
8.0301194846
21
12.3653044636
31
0.0000000000
11
8.0226380222
21
12.3659132814
31
0.0000000000
0
SPLINE
5
3AF
100
AcDbEntity
8
0
100
AcDbSpline
62
9
6
CONTINUOUS
70
0
71
3
72
8
73
4
74
2
42
0.0000001000
43
0.0000001000
44
0.0000000001
12
-0.0270944359
22
0.0034110849
32
0.0000000000
13
-0.0244317933
23
0.0119024892
33
0.0000000000
40
0.0000000000
40
0.0000000000
40
0.0000000000
40
0.0000000000
40
1.0000000000
40
1.0000000000
40
1.0000000000
40
1.0000000000
10
8.0226380222
20
12.3659132814
30
0.0000000000
10
8.0136065435
20
12.3670503097
30
0.0000000000
10
8.0047098481
20
12.3696346875
30
0.0000000000
10
7.9965659170
20
12.3736021839
30
0.0000000000
11
8.0226380222
21
12.3659132814
31
0.0000000000
11
7.9965659170
21
12.3736021839
31
0.0000000000
0
SPLINE
5
3B0
100
AcDbEntity
8
0
100
AcDbSpline
62
9
6
CONTINUOUS
70
0
71
3
72
11
73
7
74
5
42
0.0000001000
43
0.0000001000
44
0.0000000001
12
-0.1764019917
22
0.1619331825
32
0.0000000000
13
0.0033882665
23
0.2394337861
33
0.0000000000
40
0.0000000000
40
0.0000000000
40
0.0000000000
40
0.0000000000
40
0.2460417753
40
0.5046693856
40
0.7608284907
40
1.0000000000
40
1.0000000000
40
1.0000000000
40
1.0000000000
10
8.0387336644
20
12.0979948743
30
0.0000000000
10
8.0242662447
20
12.1112756502
30
0.0000000000
10
7.9978521983
20
12.1421776174
30
0.0000000000
10
7.9680279469
20
12.1954767084
30
0.0000000000
10
7.9489095763
20
12.2529089684
30
0.0000000000
10
7.9442532144
20
12.2925828600
30
0.0000000000
10
7.9445233400
20
12.3116714400
30
0.0000000000
11
8.0387336644
21
12.0979948743
31
0.0000000000
11
8.0000870658
21
12.1424651744
31
0.0000000000
11
7.9697297751
21
12.1964448729
31
0.0000000000
11
7.9505926497
21
12.2547224702
31
0.0000000000
11
7.9445233400
21
12.3116714400
31
0.0000000000
0
SPLINE
5
3B1
100
AcDbEntity
8
0
100
AcDbSpline
62
9
6
CONTINUOUS
70
0
71
3
72
10
73
6
74
4
42
0.0000001000
43
0.0000001000
44
0.0000000001
12
0.1001153703
22
0.0462032148
32
0.0000000000
13
0.0103735708
23
0.1116498312
33
0.0000000000
40
0.0000000000
40
0.0000000000
40
0.0000000000
40
0.0000000000
40
0.4997785051
40
0.8865712819
40
1.0000000000
40
1.0000000000
40
1.0000000000
40
1.0000000000
10
7.9445233400
20
12.3116714400
30
0.0000000000
10
7.9612018434
20
12.3193685646
30
0.0000000000
10
7.9895717434
20
12.3361240769
30
0.0000000000
10
8.0132456876
20
12.3666229430
30
0.0000000000
10
8.0168209610
20
12.3850031270
30
0.0000000000
10
8.0172131813
20
12.3892245594
30
0.0000000000
11
7.9445233400
21
12.3116714400
31
0.0000000000
11
7.9908416142
21
12.3415274492
31
0.0000000000
11
8.0147744489
21
12.3768280887
31
0.0000000000
11
8.0172131813
21
12.3892245594
31
0.0000000000
0
SPLINE
5
3B2
100
AcDbEntity
8
0
100
AcDbSpline
62
9
6
CONTINUOUS
70
0
71
3
72
8
73
4
74
2
42
0.0000001000
43
0.0000001000
44
0.0000000001
12
0.0005583841
22
0.0060098386
32
0.0000000000
13
-0.0000049751
23
0.0060479429
33
0.0000000000
40
0.0000000000
40
0.0000000000
40
0.0000000000
40
0.0000000000
40
1.0000000000
40
1.0000000000
40
1.0000000000
40
1.0000000000
10
8.0172131813
20
12.3892245594
30
0.0000000000
10
8.0173993093
20
12.3912278390
30
0.0000000000
10
8.0174911927
20
12.3932431885
30
0.0000000000
10
8.0174895343
20
12.3952591694
30
0.0000000000
11
8.0172131813
21
12.3892245594
31
0.0000000000
11
8.0174895343
21
12.3952591694
31
0.0000000000
0
SPLINE
5
3B3
100
AcDbEntity
8
0
100
AcDbSpline
62
9
6
CONTINUOUS
70
0
71
3
72
9
73
5
74
3
42
0.0000001000
43
0.0000001000
44
0.0000000001
12
-0.0709890445
22
0.1445679680
32
0.0000000000
13
-0.1440518062
23
0.0720306807
33
0.0000000000
40
0.0000000000
40
0.0000000000
40
0.0000000000
40
0.0000000000
40
0.4455148880
40
1.0000000000
40
1.0000000000
40
1.0000000000
40
1.0000000000
10
8.2027002452
20
12.2726684340
30
0.0000000000
10
8.1921580198
20
12.2941374947
30
0.0000000000
10
8.1561577299
20
12.3361063734
30
0.0000000000
10
8.1101014139
20
12.3646302895
30
0.0000000000
10
8.0834765532
20
12.3779436028
30
0.0000000000
11
8.2027002452
21
12.2726684340
31
0.0000000000
11
8.1580847341
21
12.3288644118
31
0.0000000000
11
8.0834765532
21
12.3779436028
31
0.0000000000
0
SPLINE
5
3B4
100
AcDbEntity
8
0
100
AcDbSpline
62
9
6
CONTINUOUS
70
0
71
3
72
11
73
7
74
5
42
0.0000001000
43
0.0000001000
44
0.0000000001
12
-0.1697017593
22
0.1621059263
32
0.0000000000
13
0.0033207311
23
0.2346614396
33
0.0000000000
40
0.0000000000
40
0.0000000000
40
0.0000000000
40
0.0000000000
40
0.2470902448
40
0.5057212682
40
0.7613057128
40
1.0000000000
40
1.0000000000
40
1.0000000000
40
1.0000000000
10
7.3281222995
20
11.7628401205
30
0.0000000000
10
7.3141450830
20
11.7761917182
30
0.0000000000
10
7.2886765937
20
11.8069080493
30
0.0000000000
10
7.2599521354
20
11.8594517571
30
0.0000000000
10
7.2415977017
20
11.9157658187
30
0.0000000000
10
7.2371523456
20
11.9545637974
30
0.0000000000
10
7.2374165588
20
11.9732345791
30
0.0000000000
11
7.3281222995
21
11.7628401205
31
0.0000000000
11
7.2907825872
21
11.8072067243
31
0.0000000000
11
7.2615741042
21
11.8604135531
31
0.0000000000
11
7.2432191382
21
11.9175179645
31
0.0000000000
11
7.2374165588
21
11.9732345791
31
0.0000000000
0
SPLINE
5
3B5
100
AcDbEntity
8
0
100
AcDbSpline
62
9
6
CONTINUOUS
70
0
71
3
72
9
73
5
74
3
42
0.0000001000
43
0.0000001000
44
0.0000000001
12
0.1674561314
22
-0.0837018447
32
0.0000000000
13
0.1845301806
23
-0.0315621164
33
0.0000000000
40
0.0000000000
40
0.0000000000
40
0.0000000000
40
0.0000000000
40
0.4797674019
40
1.0000000000
40
1.0000000000
40
1.0000000000
40
1.0000000000
10
6.7399736690
20
11.7349135670
30
0.0000000000
10
6.7667536667
20
11.7215277615
30
0.0000000000
10
6.8252923259
20
11.6989901316
30
0.0000000000
10
6.8862623585
20
11.6849089596
30
0.0000000000
10
6.9182618969
20
11.6794357457
30
0.0000000000
11
6.7399736690
21
11.7349135670
31
0.0000000000
11
6.8234831932
21
11.7018486013
31
0.0000000000
11
6.9182618969
21
11.6794357457
31
0.0000000000
0
SPLINE
5
3B6
100
AcDbEntity
8
0
100
AcDbSpline
62
9
6
CONTINUOUS
70
0
71
3
72
11
73
7
74
5
42
0.0000001000
43
0.0000001000
44
0.0000000001
12
0.2673132820
22
0.1279420278
32
0.0000000000
13
0.0000000090
23
0.2963537636
33
0.0000000000
40
0.0000000000
40
0.0000000000
40
0.0000000000
40
0.0000000000
40
0.2286216525
40
0.4870756638
40
0.7526229308
40
1.0000000000
40
1.0000000000
40
1.0000000000
40
1.0000000000
10
6.7399736690
20
11.7349135670
30
0.0000000000
10
6.7603448704
20
11.7446636730
30
0.0000000000
10
6.7994108882
20
11.7745200058
30
0.0000000000
10
6.8445482190
20
11.8344237729
30
0.0000000000
10
6.8753382157
20
11.9048439169
30
0.0000000000
10
6.8838631675
20
11.9555999756
30
0.0000000000
10
6.8838631682
20
11.9800370174
30
0.0000000000
11
6.7399736690
21
11.7349135670
31
0.0000000000
11
6.7948471047
21
11.7746547268
31
0.0000000000
11
6.8415658893
21
11.8353504290
31
0.0000000000
11
6.8728609236
21
11.9075561804
31
0.0000000000
11
6.8838631682
21
11.9800370174
31
0.0000000000
0
SPLINE
5
3B7
100
AcDbEntity
8
0
100
AcDbSpline
62
9
6
CONTINUOUS
70
0
71
3
72
12
73
8
74
6
42
0.0000001000
43
0.0000001000
44
0.0000000001
12
0.3246083006
22
-0.1622865476
32
0.0000000000
13
0.3294706869
23
0.1521727268
33
0.0000000000
40
0.0000000000
40
0.0000000000
40
0.0000000000
40
0.0000000000
40
0.1867565899
40
0.3938800539
40
0.6076446816
40
0.8144839336
40
1.0000000000
40
1.0000000000
40
1.0000000000
40
1.0000000000
10
6.8838631682
20
11.9800370174
30
0.0000000000
10
6.9040707480
20
11.9699343234
30
0.0000000000
10
6.9494103315
20
11.9540239958
30
0.0000000000
10
7.0221285877
20
11.9417171385
30
0.0000000000
10
7.0983473872
20
11.9401854298
30
0.0000000000
10
7.1713109909
20
11.9496112366
30
0.0000000000
10
7.2170425235
20
11.9638244172
30
0.0000000000
10
7.2374165588
20
11.9732345791
30
0.0000000000
11
6.8838631682
21
11.9800370174
31
0.0000000000
11
6.9474698805
21
11.9566301271
31
0.0000000000
11
7.0215119834
21
11.9436673112
31
0.0000000000
11
7.0990750550
21
11.9421231282
31
0.0000000000
11
7.1734611141
21
11.9521971543
31
0.0000000000
11
7.2374165588
21
11.9732345791
31
0.0000000000
0
SPLINE
5
3B8
100
AcDbEntity
8
0
100
AcDbSpline
62
9
6
CONTINUOUS
70
0
71
3
72
11
73
7
74
5
42
0.0000001000
43
0.0000001000
44
0.0000000001
12
0.2673132890
22
0.1279420203
32
0.0000000000
13
-0.0000000003
23
0.2963537667
33
0.0000000000
40
0.0000000000
40
0.0000000000
40
0.0000000000
40
0.0000000000
40
0.2286190319
40
0.4870720935
40
0.7526205358
40
1.0000000000
40
1.0000000000
40
1.0000000000
40
1.0000000000
10
5.3964707847
20
12.4066650092
30
0.0000000000
10
5.4168417532
20
12.4164150028
30
0.0000000000
10
5.4559075349
20
12.4462710188
30
0.0000000000
10
5.5010449054
20
12.5061744634
30
0.0000000000
10
5.5318351950
20
12.5765947673
30
0.0000000000
10
5.5403602840
20
12.6273511809
30
0.0000000000
10
5.5403602840
20
12.6517884596
30
0.0000000000
11
5.3964707847
21
12.4066650092
31
0.0000000000
11
5.4513436632
21
12.4464056155
31
0.0000000000
11
5.4980624665
21
12.5071009492
31
0.0000000000
11
5.5293578399
21
12.5793069342
31
0.0000000000
11
5.5403602840
21
12.6517884596
31
0.0000000000
0
SPLINE
5
3B9
100
AcDbEntity
8
0
100
AcDbSpline
62
9
6
CONTINUOUS
70
0
71
3
72
12
73
8
74
6
42
0.0000001000
43
0.0000001000
44
0.0000000001
12
-0.3840433493
22
-0.1837624800
32
0.0000000000
13
0.3807731528
23
-0.1904461850
33
0.0000000000
40
0.0000000000
40
0.0000000000
40
0.0000000000
40
0.0000000000
40
0.2354377598
40
0.4187082346
40
0.5791452876
40
0.7637460582
40
1.0000000000
40
1.0000000000
40
1.0000000000
40
1.0000000000
10
5.3964707847
20
12.7180606224
30
0.0000000000
10
5.3663313495
20
12.7036390802
30
0.0000000000
10
5.3150387231
20
12.6722640399
30
0.0000000000
10
5.2631903770
20
12.6034408988
30
0.0000000000
10
5.2637021176
20
12.5229428891
30
0.0000000000
10
5.3155078942
20
12.4540169185
30
0.0000000000
10
5.3664843986
20
12.4216628965
30
0.0000000000
10
5.3964707847
20
12.4066650092
30
0.0000000000
11
5.3964707847
21
12.7180606224
31
0.0000000000
11
5.3130137286
21
12.6625428979
31
0.0000000000
11
5.2699895552
21
12.5974504679
31
0.0000000000
11
5.2702549962
21
12.5291458730
31
0.0000000000
11
5.3134959235
21
12.4635179086
31
0.0000000000
11
5.3964707847
21
12.4066650092
31
0.0000000000
0
SPLINE
5
3BA
100
AcDbEntity
8
0
100
AcDbSpline
62
9
6
CONTINUOUS
70
0
71
3
72
9
73
5
74
3
42
0.0000001000
43
0.0000001000
44
0.0000000001
12
0.0589823002
22
-0.0294911500
32
0.0000000000
13
0.0665174310
23
0.0091502590
33
0.0000000000
40
0.0000000000
40
0.0000000000
40
0.0000000000
40
0.0000000000
40
0.8496463487
40
1.0000000000
40
1.0000000000
40
1.0000000000
40
1.0000000000
10
5.3964707847
20
12.7180606224
30
0.0000000000
10
5.4131754834
20
12.7097082731
30
0.0000000000
10
5.4351632913
20
12.7028440723
30
0.0000000000
10
5.4574821656
20
12.7046143374
30
0.0000000000
10
5.4608158785
20
12.7050729290
30
0.0000000000
11
5.3964707847
21
12.7180606224
31
0.0000000000
11
5.4507782013
21
12.7042771984
31
0.0000000000
11
5.4608158785
21
12.7050729290
31
0.0000000000
0
SPLINE
5
3BB
100
AcDbEntity
8
0
100
AcDbSpline
62
9
6
CONTINUOUS
70
0
71
3
72
8
73
4
74
2
42
0.0000001000
43
0.0000001000
44
0.0000000001
12
0.0253056365
22
0.0034810895
32
0.0000000000
13
0.0230266531
23
0.0107384240
33
0.0000000000
40
0.0000000000
40
0.0000000000
40
0.0000000000
40
0.0000000000
40
1.0000000000
40
1.0000000000
40
1.0000000000
40
1.0000000000
10
5.4608158785
20
12.7050729290
30
0.0000000000
10
5.4692510906
20
12.7062332922
30
0.0000000000
10
5.4775453796
20
12.7086256219
30
0.0000000000
10
5.4852209307
20
12.7122050966
30
0.0000000000
11
5.4608158785
21
12.7050729290
31
0.0000000000
11
5.4852209307
21
12.7122050966
31
0.0000000000
0
SPLINE
5
3BC
100
AcDbEntity
8
0
100
AcDbSpline
62
9
6
CONTINUOUS
70
0
71
3
72
11
73
7
74
5
42
0.0000001000
43
0.0000001000
44
0.0000000001
12
-0.1057221029
22
-0.2771314992
32
0.0000000000
13
-0.2947811286
23
0.0585649842
33
0.0000000000
40
0.0000000000
40
0.0000000000
40
0.0000000000
40
0.0000000000
40
0.3174140699
40
0.6124256554
40
0.8809117771
40
1.0000000000
40
1.0000000000
40
1.0000000000
40
1.0000000000
10
-6.8340083868
20
19.3605461688
30
0.0000000000
10
-6.8451942811
20
19.3312243565
30
0.0000000000
10
-6.8754748157
20
19.2774065099
30
0.0000000000
10
-6.9426724484
20
19.2188636218
30
0.0000000000
10
-7.0095397710
20
19.1983893165
30
0.0000000000
10
-7.0485470143
20
19.2016604099
30
0.0000000000
10
-7.0602486679
20
19.2039852099
30
0.0000000000
11
-6.8340083868
21
19.3605461688
31
0.0000000000
11
-6.8809977120
21
19.2789616144
31
0.0000000000
11
-6.9480443003
21
19.2227323377
31
0.0000000000
11
-7.0246740219
21
19.2010566280
31
0.0000000000
11
-7.0602486679
21
19.2039852099
31
0.0000000000
0
SPLINE
5
3BD
100
AcDbEntity
8
0
100
AcDbSpline
62
9
6
CONTINUOUS
70
0
71
3
72
11
73
7
74
5
42
0.0000001000
43
0.0000001000
44
0.0000000001
12
0.0000000000
22
0.3637742184
32
0.0000000000
13
-0.3562148286
23
0.0737745066
33
0.0000000000
40
0.0000000000
40
0.0000000000
40
0.0000000000
40
0.0000000000
40
0.2939319030
40
0.5506294032
40
0.7793103319
40
1.0000000000
40
1.0000000000
40
1.0000000000
40
1.0000000000
10
-6.1269016056
20
18.9640995594
30
0.0000000000
10
-6.1269016056
20
18.9997411755
30
0.0000000000
10
-6.1335321850
20
19.0668890972
30
0.0000000000
10
-6.1678244324
20
19.1565029506
30
0.0000000000
10
-6.2256848582
20
19.2226108661
30
0.0000000000
10
-6.2774739901
20
19.2452841213
30
0.0000000000
10
-6.3036783009
20
19.2507112118
30
0.0000000000
11
-6.1269016056
21
18.9640995594
31
0.0000000000
11
-6.1389954439
21
19.0703382635
31
0.0000000000
11
-6.1742084314
21
19.1568244318
31
0.0000000000
11
-6.2302150597
21
19.2183349069
31
0.0000000000
11
-6.3036783009
21
19.2507112118
31
0.0000000000
0
SPLINE
5
3BE
100
AcDbEntity
8
0
100
AcDbSpline
62
9
6
CONTINUOUS
70
0
71
3
72
10
73
6
74
4
42
0.0000001000
43
0.0000001000
44
0.0000000001
12
0.0000000000
22
0.1458144301
32
0.0000000000
13
-0.1244134218
23
0.0807858419
33
0.0000000000
40
0.0000000000
40
0.0000000000
40
0.0000000000
40
0.0000000000
40
0.4769151122
40
0.8779378994
40
1.0000000000
40
1.0000000000
40
1.0000000000
40
1.0000000000
10
-6.4804549962
20
18.9640995594
30
0.0000000000
10
-6.4804549962
20
18.9872799278
30
0.0000000000
10
-6.4858522694
20
19.0304198147
30
0.0000000000
10
-6.5105165233
20
19.0744223995
30
0.0000000000
10
-6.5309314110
20
19.0904481365
30
0.0000000000
10
-6.5359934656
20
19.0937350996
30
0.0000000000
11
-6.4804549962
21
18.9640995594
31
0.0000000000
11
-6.4911159354
21
19.0328186230
31
0.0000000000
11
-6.5218128864
21
19.0825882141
31
0.0000000000
11
-6.5359934656
21
19.0937350996
31
0.0000000000
0
SPLINE
5
3BF
100
AcDbEntity
8
0
100
AcDbSpline
62
9
6
CONTINUOUS
70
0
71
3
72
8
73
4
74
2
42
0.0000001000
43
0.0000001000
44
0.0000000001
12
-0.0037628893
22
0.0024433713
32
0.0000000000
13
-0.0038676912
23
0.0022733394
33
0.0000000000
40
0.0000000000
40
0.0000000000
40
0.0000000000
40
0.0000000000
40
1.0000000000
40
1.0000000000
40
1.0000000000
40
1.0000000000
10
-6.5359934656
20
19.0937350996
30
0.0000000000
10
-6.5372477620
20
19.0945495567
30
0.0000000000
10
-6.5385203689
20
19.0953362225
30
0.0000000000
10
-6.5398095993
20
19.0960940023
30
0.0000000000
11
-6.5359934656
21
19.0937350996
31
0.0000000000
11
-6.5398095993
21
19.0960940023
31
0.0000000000
0
SPLINE
5
3C0
100
AcDbEntity
8
0
100
AcDbSpline
62
9
6
CONTINUOUS
70
0
71
3
72
15
73
11
74
9
42
0.0000001000
43
0.0000001000
44
0.0000000001
12
0.2765577393
22
0.1394211055
32
0.0000000000
13
0.2757798955
23
0.1409534572
33
0.0000000000
40
0.0000000000
40
0.0000000000
40
0.0000000000
40
0.0000000000
40
0.2066256920
40
0.3787477906
40
0.5240621440
40
0.6468000023
40
0.7514576690
40
0.8428756257
40
0.9247585952
40
1.0000000000
40
1.0000000000
40
1.0000000000
40
1.0000000000
10
7.2593582192
20
-26.9185028541
30
0.0000000000
10
7.2784061972
20
-26.9089001933
30
0.0000000000
10
7.3141041711
20
-26.8928052419
30
0.0000000000
10
7.3649541657
20
-26.8742466259
30
0.0000000000
10
7.4083067255
20
-26.8606030659
30
0.0000000000
10
7.4451678550
20
-26.8495706781
30
0.0000000000
10
7.4765379662
20
-26.8395942771
30
0.0000000000
10
7.5035270035
20
-26.8298157371
30
0.0000000000
10
7.5272009773
20
-26.8198907103
30
0.0000000000
10
7.5418171622
20
-26.8128380128
30
0.0000000000
10
7.5487338511
20
-26.8093028341
30
0.0000000000
11
7.2593582192
21
-26.9185028541
31
0.0000000000
11
7.3176693563
21
-26.8921373395
31
0.0000000000
11
7.3676915063
21
-26.8737095353
31
0.0000000000
11
7.4105626354
21
-26.8600132094
31
0.0000000000
11
7.4469226100
21
-26.8489234163
31
0.0000000000
11
7.4777681354
21
-26.8389628083
31
0.0000000000
11
7.5043638013
21
-26.8292510848
31
0.0000000000
11
7.5277385109
21
-26.8194141325
31
0.0000000000
11
7.5487338511
21
-26.8093028341
31
0.0000000000
0
SPLINE
5
3C1
100
AcDbEntity
8
0
100
AcDbSpline
62
9
6
CONTINUOUS
70
0
71
3
72
9
73
5
74
3
42
0.0000001000
43
0.0000001000
44
0.0000000001
12
-0.0252194015
22
-0.0121345359
32
0.0000000000
13
-0.0279228239
23
-0.0027495138
33
0.0000000000
40
0.0000000000
40
0.0000000000
40
0.0000000000
40
0.0000000000
40
0.0862389069
40
1.0000000000
40
1.0000000000
40
1.0000000000
40
1.0000000000
10
-7.8790365170
20
19.3942338482
30
0.0000000000
10
-7.8797614815
20
19.3938850252
30
0.0000000000
10
-7.8882342470
20
19.3899769720
30
0.0000000000
10
-7.8974492815
20
19.3877032801
30
0.0000000000
10
-7.9059542115
20
19.3868658139
30
0.0000000000
11
-7.8790365170
21
19.3942338482
31
0.0000000000
11
-7.8812283659
21
19.3932231277
31
0.0000000000
11
-7.9059542115
21
19.3868658139
31
0.0000000000
0
SPLINE
5
3C2
100
AcDbEntity
8
0
100
AcDbSpline
62
9
6
CONTINUOUS
70
0
71
3
72
8
73
4
74
2
42
0.0000001000
43
0.0000001000
44
0.0000000001
12
-0.0133548699
22
-0.0013150317
32
0.0000000000
13
-0.0132636894
23
0.0006699567
33
0.0000000000
40
0.0000000000
40
0.0000000000
40
0.0000000000
40
0.0000000000
40
1.0000000000
40
1.0000000000
40
1.0000000000
40
1.0000000000
10
-7.9059542115
20
19.3868658139
30
0.0000000000
10
-7.9104058348
20
19.3864274700
30
0.0000000000
10
-7.9148806328
20
19.3863288826
30
0.0000000000
10
-7.9193018626
20
19.3865522015
30
0.0000000000
11
-7.9059542115
21
19.3868658139
31
0.0000000000
11
-7.9193018626
21
19.3865522015
31
0.0000000000
0
SPLINE
5
3C3
100
AcDbEntity
8
0
100
AcDbSpline
62
9
6
CONTINUOUS
70
0
71
3
72
10
73
6
74
4
42
0.0000001000
43
0.0000001000
44
0.0000000001
12
0.0045112542
22
-0.3069650444
32
0.0000000000
13
-0.2754601598
23
-0.1409801801
33
0.0000000000
40
0.0000000000
40
0.0000000000
40
0.0000000000
40
0.0000000000
40
0.4070322537
40
0.7510783870
40
1.0000000000
40
1.0000000000
40
1.0000000000
40
1.0000000000
10
7.2593582191
20
-26.9185028541
30
0.0000000000
10
7.2599702945
20
-26.9601510787
30
0.0000000000
10
7.2523948565
20
-27.0377359974
30
0.0000000000
10
7.2085308427
20
-27.1333685225
30
0.0000000000
10
7.1598608317
20
-27.1733938884
30
0.0000000000
10
7.1370048359
20
-27.1850915596
30
0.0000000000
11
7.2593582191
21
-26.9185028541
31
0.0000000000
11
7.2443087298
21
-27.0425514579
31
0.0000000000
11
7.1967299183
21
-27.1368497431
31
0.0000000000
11
7.1370048359
21
-27.1850915596
31
0.0000000000
0
SPLINE
5
3C4
100
AcDbEntity
8
0
100
AcDbSpline
62
9
6
CONTINUOUS
70
0
71
3
72
10
73
6
74
4
42
0.0000001000
43
0.0000001000
44
0.0000000001
12
0.7191331291
22
0.3678432133
32
0.0000000000
13
0.7193146513
23
0.3674881213
33
0.0000000000
40
0.0000000000
40
0.0000000000
40
0.0000000000
40
0.0000000000
40
0.3333297688
40
0.6667318427
40
1.0000000000
40
1.0000000000
40
1.0000000000
40
1.0000000000
10
7.5487338511
20
-26.8093028341
30
0.0000000000
10
7.6286366777
20
-26.7684318030
30
0.0000000000
10
7.7884664847
20
-26.6866942106
30
0.0000000000
10
8.0282080193
20
-26.5641394330
30
0.0000000000
10
8.1880499495
20
-26.4824620014
30
0.0000000000
10
8.2679581723
20
-26.4416379717
30
0.0000000000
11
7.5487338511
21
-26.8093028341
31
0.0000000000
11
7.7884525280
21
-26.6867096783
31
0.0000000000
11
8.0282434725
21
-26.5641295711
31
0.0000000000
11
8.2679581723
21
-26.4416379717
31
0.0000000000
0
SPLINE
5
3C5
100
AcDbEntity
8
0
100
AcDbSpline
62
9
6
CONTINUOUS
70
0
71
3
72
10
73
6
74
4
42
0.0000001000
43
0.0000001000
44
0.0000000001
12
0.0060821684
22
-0.3046038045
32
0.0000000000
13
-0.2728718649
23
-0.1410313809
33
0.0000000000
40
0.0000000000
40
0.0000000000
40
0.0000000000
40
0.0000000000
40
0.3983837577
40
0.7360706912
40
1.0000000000
40
1.0000000000
40
1.0000000000
40
1.0000000000
10
7.5486624458
20
-26.8093393511
30
0.0000000000
10
7.5494701248
20
-26.8497890872
30
0.0000000000
10
7.5427223078
20
-26.9252470271
30
0.0000000000
10
7.5010521592
20
-27.0207573220
30
0.0000000000
10
7.4530212172
20
-27.0622147140
30
0.0000000000
10
7.4290149230
20
-27.0746221523
30
0.0000000000
11
7.5486624458
21
-26.8093393511
31
0.0000000000
11
7.5351577111
21
-26.9299590991
31
0.0000000000
11
7.4907444810
21
-27.0227600260
31
0.0000000000
11
7.4290149230
21
-27.0746221523
31
0.0000000000
0
SPLINE
5
3C6
100
AcDbEntity
8
0
100
AcDbSpline
62
9
6
CONTINUOUS
70
0
71
3
72
15
73
11
74
9
42
0.0000001000
43
0.0000001000
44
0.0000000001
12
0.2889166438
22
0.1476736946
32
0.0000000000
13
0.2897446186
23
0.1460424703
33
0.0000000000
40
0.0000000000
40
0.0000000000
40
0.0000000000
40
0.0000000000
40
0.0745938429
40
0.1585139918
40
0.2545931060
40
0.3656671670
40
0.4946828216
40
0.6438039166
40
0.8122194103
40
1.0000000000
40
1.0000000000
40
1.0000000000
40
1.0000000000
10
8.2679581723
20
-26.4416379717
30
0.0000000000
10
8.2751419732
20
-26.4379661223
30
0.0000000000
10
8.2902500550
20
-26.4298508629
30
0.0000000000
10
8.3139722981
20
-26.4158572512
30
0.0000000000
10
8.3405390747
20
-26.3989585349
30
0.0000000000
10
8.3707503160
20
-26.3787258248
30
0.0000000000
10
8.4055004573
20
-26.3549680369
30
0.0000000000
10
8.4456471733
20
-26.3281128942
30
0.0000000000
10
8.4919820474
20
-26.2991063811
30
0.0000000000
10
8.5257224265
20
-26.2804374552
30
0.0000000000
10
8.5438585649
20
-26.2712961415
30
0.0000000000
11
8.2679581723
21
-26.4416379717
31
0.0000000000
11
8.2892862623
21
-26.4301960382
31
0.0000000000
11
8.3127648144
21
-26.4164045895
31
0.0000000000
11
8.3391079603
21
-26.3997341905
31
0.0000000000
11
8.3691078235
21
-26.3797617366
31
0.0000000000
11
8.4037424835
21
-26.3562492755
31
0.0000000000
11
8.4440379513
21
-26.3294648586
31
0.0000000000
11
8.4904476131
21
-26.3006153917
31
0.0000000000
11
8.5438585649
21
-26.2712961415
31
0.0000000000
0
SPLINE
5
3C7
100
AcDbEntity
8
0
100
AcDbSpline
62
9
6
CONTINUOUS
70
0
71
3
72
10
73
6
74
4
42
0.0000001000
43
0.0000001000
44
0.0000000001
12
0.0059870291
22
-0.3045651536
32
0.0000000000
13
-0.2728473181
23
-0.1415556890
33
0.0000000000
40
0.0000000000
40
0.0000000000
40
0.0000000000
40
0.0000000000
40
0.4063764402
40
0.7496359402
40
1.0000000000
40
1.0000000000
40
1.0000000000
40
1.0000000000
10
8.2679654314
20
-26.4416340774
30
0.0000000000
10
8.2687764272
20
-26.4828901117
30
0.0000000000
10
8.2617358334
20
-26.5597509862
30
0.0000000000
10
8.2189139755
20
-26.6549647498
30
0.0000000000
10
8.1709925878
20
-26.6951084892
30
0.0000000000
10
8.1482222004
20
-26.7069219748
30
0.0000000000
11
8.2679654314
21
-26.4416340774
31
0.0000000000
11
8.2537785773
21
-26.5646104813
31
0.0000000000
11
8.2074123293
21
-26.6583336210
31
0.0000000000
11
8.1482222004
21
-26.7069219748
31
0.0000000000
0
SPLINE
5
3C8
100
AcDbEntity
8
0
100
AcDbSpline
62
9
6
CONTINUOUS
70
0
71
3
72
8
73
4
74
2
42
0.0000001000
43
0.0000001000
44
0.0000000001
12
0.0244785760
22
-0.0119252736
32
0.0000000000
13
0.0271478675
23
-0.0034009483
33
0.0000000000
40
0.0000000000
40
0.0000000000
40
0.0000000000
40
0.0000000000
40
1.0000000000
40
1.0000000000
40
1.0000000000
40
1.0000000000
10
-5.3677522377
20
19.0557612572
30
0.0000000000
10
-5.3595927123
20
19.0517861659
30
0.0000000000
10
-5.3506775358
20
19.0491994976
30
0.0000000000
10
-5.3416282466
20
19.0480658482
30
0.0000000000
11
-5.3677522377
21
19.0557612572
31
0.0000000000
11
-5.3416282466
21
19.0480658482
31
0.0000000000
0
SPLINE
5
3C9
100
AcDbEntity
8
0
100
AcDbSpline
62
9
6
CONTINUOUS
70
0
71
3
72
9
73
5
74
3
42
0.0000001000
43
0.0000001000
44
0.0000000001
12
0.0430918669
22
-0.0053983324
32
0.0000000000
13
0.0411001948
23
0.0132638342
33
0.0000000000
40
0.0000000000
40
0.0000000000
40
0.0000000000
40
0.0000000000
40
0.1720143951
40
1.0000000000
40
1.0000000000
40
1.0000000000
40
1.0000000000
10
-5.3416282466
20
19.0480658482
30
0.0000000000
10
-5.3391574395
20
19.0477563179
30
0.0000000000
10
-5.3247353601
20
19.0465866050
30
0.0000000000
10
-5.3104029546
20
19.0491222512
30
0.0000000000
10
-5.2990594981
20
19.0527830058
30
0.0000000000
11
-5.3416282466
21
19.0480658482
31
0.0000000000
11
-5.3341984823
21
19.0474635406
31
0.0000000000
11
-5.2990594981
21
19.0527830058
31
0.0000000000
0
SPLINE
5
3CA
100
AcDbEntity
8
0
100
AcDbSpline
62
9
6
CONTINUOUS
70
0
71
3
72
8
73
4
74
2
42
0.0000001000
43
0.0000001000
44
0.0000000001
12
0.0187734960
22
0.0060585732
32
0.0000000000
13
0.0175846953
23
0.0084164220
33
0.0000000000
40
0.0000000000
40
0.0000000000
40
0.0000000000
40
0.0000000000
40
1.0000000000
40
1.0000000000
40
1.0000000000
40
1.0000000000
10
-5.2990594981
20
19.0527830058
30
0.0000000000
10
-5.2928016661
20
19.0548025302
30
0.0000000000
10
-5.2867031763
20
19.0572972110
30
0.0000000000
10
-5.2808416112
20
19.0601026850
30
0.0000000000
11
-5.2990594981
21
19.0527830058
31
0.0000000000
11
-5.2808416112
21
19.0601026850
31
0.0000000000
0
SPLINE
5
3CB
100
AcDbEntity
8
0
100
AcDbSpline
62
9
6
CONTINUOUS
70
0
71
3
72
10
73
6
74
4
42
0.0000001000
43
0.0000001000
44
0.0000000001
12
0.0044814691
22
-0.3069965884
32
0.0000000000
13
-0.2754898716
23
-0.1409961330
33
0.0000000000
40
0.0000000000
40
0.0000000000
40
0.0000000000
40
0.0000000000
40
0.4070704037
40
0.7511550117
40
1.0000000000
40
1.0000000000
40
1.0000000000
40
1.0000000000
10
8.5438585649
20
-26.2712961415
30
0.0000000000
10
8.5444666561
20
-26.3129525499
30
0.0000000000
10
8.5368812802
20
-26.3905526631
30
0.0000000000
10
8.4929983929
20
-26.4861890008
30
0.0000000000
10
8.4443231463
20
-26.5262099861
30
0.0000000000
10
8.4214717217
20
-26.5379053798
30
0.0000000000
11
8.5438585649
21
-26.2712961415
31
0.0000000000
11
8.5287922798
21
-26.3953672593
31
0.0000000000
11
8.4811893760
21
-26.4896786050
31
0.0000000000
11
8.4214717217
21
-26.5379053798
31
0.0000000000
0
SPLINE
5
3CC
100
AcDbEntity
8
0
100
AcDbSpline
62
7
6
CONTINUOUS
70
0
71
3
72
8
73
4
74
2
42
0.0000001000
43
0.0000001000
44
0.0000000001
12
0.0000000000
22
0.0881753022
32
0.0000000000
13
-0.0131141893
23
0.0872985335
33
0.0000000000
40
0.0000000000
40
0.0000000000
40
0.0000000000
40
0.0000000000
40
1.0000000000
40
1.0000000000
40
1.0000000000
40
1.0000000000
10
7.0236120792
20
10.9547020937
30
0.0000000000
10
7.0236120792
20
10.9840938611
30
0.0000000000
10
7.0211854600
20
11.0135154423
30
0.0000000000
10
7.0168140636
20
11.0426149535
30
0.0000000000
11
7.0236120792
21
10.9547020937
31
0.0000000000
11
7.0168140636
21
11.0426149535
31
0.0000000000
0
SPLINE
5
3CD
100
AcDbEntity
8
0
100
AcDbSpline
62
7
6
CONTINUOUS
70
0
71
3
72
14
73
10
74
8
42
0.0000001000
43
0.0000001000
44
0.0000000001
12
-0.0963763143
22
0.6415578358
32
0.0000000000
13
-0.5795899097
23
0.2897949548
33
0.0000000000
40
0.0000000000
40
0.0000000000
40
0.0000000000
40
0.0000000000
40
0.1443255764
40
0.2938886878
40
0.4452160060
40
0.5946871408
40
0.7388365246
40
0.8746671579
40
1.0000000000
40
1.0000000000
40
1.0000000000
40
1.0000000000
10
7.0168140636
20
11.0426149535
30
0.0000000000
10
7.0121775412
20
11.0734793550
30
0.0000000000
10
6.9982811762
20
11.1355904261
30
0.0000000000
10
6.9656336328
20
11.2263052948
30
0.0000000000
10
6.9218928738
20
11.3134517386
30
0.0000000000
10
6.8686972660
20
11.3937808988
30
0.0000000000
10
6.8080114003
20
11.4642983670
30
0.0000000000
10
6.7421042269
20
11.5223613382
30
0.0000000000
10
6.6941110120
20
11.5526631991
30
0.0000000000
10
6.6698971285
20
11.5647701409
30
0.0000000000
11
7.0168140636
21
11.0426149535
31
0.0000000000
11
6.9966828298
21
11.1339457418
31
0.0000000000
11
6.9639940836
21
11.2251837052
31
0.0000000000
11
6.9200049055
21
11.3128237190
31
0.0000000000
11
6.8664056409
21
11.3934989307
31
0.0000000000
11
6.8052552296
21
11.4641095818
31
0.0000000000
11
6.7389024316
21
11.5219416468
31
0.0000000000
11
6.6698971285
21
11.5647701409
31
0.0000000000
0
SPLINE
5
3CE
100
AcDbEntity
8
0
100
AcDbSpline
62
9
6
CONTINUOUS
70
0
71
3
72
15
73
11
74
9
42
0.0000001000
43
0.0000001000
44
0.0000000001
12
0.4191263951
22
0.0324964256
32
0.0000000000
13
0.3796878666
23
0.1804441097
33
0.0000000000
40
0.0000000000
40
0.0000000000
40
0.0000000000
40
0.0000000000
40
0.0972506257
40
0.2188815956
40
0.3622385441
40
0.5092748885
40
0.6505352241
40
0.7799996987
40
0.8965747227
40
1.0000000000
40
1.0000000000
40
1.0000000000
40
1.0000000000
10
6.9183179583
20
11.6794313819
30
0.0000000000
10
6.9319047264
20
11.6804848145
30
0.0000000000
10
6.9624591268
20
11.6831755964
30
0.0000000000
10
7.0129813424
20
11.6880876885
30
0.0000000000
10
7.0703400537
20
11.6947363498
30
0.0000000000
10
7.1301675855
20
11.7037616787
30
0.0000000000
10
7.1875945716
20
11.7152639030
30
0.0000000000
10
7.2401343385
20
11.7290158431
30
0.0000000000
10
7.2865850236
20
11.7446403519
30
0.0000000000
10
7.3150330574
20
11.7566185998
30
0.0000000000
10
7.3281228317
20
11.7628394272
30
0.0000000000
11
6.9183179583
21
11.6794313819
31
0.0000000000
11
6.9590505637
21
11.6829306294
31
0.0000000000
11
7.0099366423
21
11.6879369033
31
0.0000000000
11
7.0697845836
21
11.6950147035
31
0.0000000000
11
7.1308828722
21
11.7043792102
31
0.0000000000
11
7.1890828762
21
11.7161764382
31
0.0000000000
11
7.2416964190
21
11.7301004245
31
0.0000000000
11
7.2881098595
21
11.7458297237
31
0.0000000000
11
7.3281228317
21
11.7628394272
31
0.0000000000
0
SPLINE
5
3CF
100
AcDbEntity
8
0
100
AcDbSpline
62
9
6
CONTINUOUS
70
0
71
3
72
15
73
11
74
9
42
0.0000001000
43
0.0000001000
44
0.0000000001
12
0.3051400739
22
0.1408494049
32
0.0000000000
13
0.3059637791
23
0.1390510175
33
0.0000000000
40
0.0000000000
40
0.0000000000
40
0.0000000000
40
0.0000000000
40
0.1698949813
40
0.3448663033
40
0.5101348635
40
0.6477196907
40
0.7586774472
40
0.8506772069
40
0.9293108834
40
1.0000000000
40
1.0000000000
40
1.0000000000
40
1.0000000000
10
7.2593582159
20
11.0635813747
30
0.0000000000
10
7.2766388049
20
11.0715579104
30
0.0000000000
10
7.3110705100
20
11.0891680271
30
0.0000000000
10
7.3602584432
20
11.1183079332
30
0.0000000000
10
7.4051776008
20
11.1474333507
30
0.0000000000
10
7.4437479487
20
11.1731484905
30
0.0000000000
10
7.4757560228
20
11.1939120468
30
0.0000000000
10
7.5027565494
20
11.2102388900
30
0.0000000000
10
7.5264682281
20
11.2232435084
30
0.0000000000
10
7.5415245010
20
11.2305517322
30
0.0000000000
10
7.5487339374
20
11.2338281967
30
0.0000000000
11
7.2593582159
21
11.0635813747
31
0.0000000000
11
7.3102774986
21
11.0894158780
31
0.0000000000
11
7.3609768003
21
11.1192069995
31
0.0000000000
11
7.4077079323
21
11.1492279355
31
0.0000000000
11
7.4462894946
21
11.1747140314
31
0.0000000000
11
7.4776528099
21
11.1948864948
31
0.0000000000
11
7.5041558050
21
11.2108109025
31
0.0000000000
11
7.5273553898
21
11.2234668047
31
0.0000000000
11
7.5487339374
21
11.2338281967
31
0.0000000000
0
SPLINE
5
3D0
100
AcDbEntity
8
0
100
AcDbSpline
62
9
6
CONTINUOUS
70
0
71
3
72
12
73
8
74
6
42
0.0000001000
43
0.0000001000
44
0.0000000001
12
0.6519776465
22
-0.3372252867
32
0.0000000000
13
-0.0106347958
23
-0.7339500301
33
0.0000000000
40
0.0000000000
40
0.0000000000
40
0.0000000000
40
0.0000000000
40
0.1796205348
40
0.3805877404
40
0.5927615964
40
0.8033755722
40
1.0000000000
40
1.0000000000
40
1.0000000000
40
1.0000000000
10
6.9182585933
20
11.6794342178
30
0.0000000000
10
6.9572947845
20
11.6592433557
30
0.0000000000
10
7.0330386419
20
11.6027486882
30
0.0000000000
10
7.1269216449
20
11.4910001625
30
0.0000000000
10
7.2010412877
20
11.3564817579
30
0.0000000000
10
7.2484858336
20
11.2116707875
30
0.0000000000
10
7.2600552361
20
11.1116855430
30
0.0000000000
10
7.2593582159
20
11.0635813748
30
0.0000000000
11
6.9182585933
21
11.6794342178
31
0.0000000000
11
7.0253454583
21
11.6025195927
31
0.0000000000
11
7.1212799648
21
11.4904599889
31
0.0000000000
11
7.1967298464
21
11.3542150442
31
0.0000000000
11
7.2443086690
21
11.2071222494
31
0.0000000000
11
7.2593582159
21
11.0635813748
31
0.0000000000
0
SPLINE
5
3D1
100
AcDbEntity
8
0
100
AcDbSpline
62
9
6
CONTINUOUS
70
0
71
3
72
10
73
6
74
4
42
0.0000001000
43
0.0000001000
44
0.0000000001
12
0.7193080063
22
0.3266950023
32
0.0000000000
13
0.7191392953
23
0.3270662112
33
0.0000000000
40
0.0000000000
40
0.0000000000
40
0.0000000000
40
0.0000000000
40
0.3332759543
40
0.6666786861
40
1.0000000000
40
1.0000000000
40
1.0000000000
40
1.0000000000
10
7.5487339374
20
11.2338281967
30
0.0000000000
10
7.6286432915
20
11.2701213929
30
0.0000000000
10
7.7884860610
20
11.3427355426
30
0.0000000000
10
8.0282270653
20
11.4516962368
30
0.0000000000
10
8.1880557135
20
11.5243703261
30
0.0000000000
10
8.2679571984
20
11.5607097059
30
0.0000000000
11
7.5487339374
21
11.2338281967
31
0.0000000000
11
7.7884525281
21
11.3427286371
31
0.0000000000
11
8.0282434727
21
11.4517119534
31
0.0000000000
11
8.2679571984
21
11.5607097059
31
0.0000000000
0
SPLINE
5
3D2
100
AcDbEntity
8
0
100
AcDbSpline
62
9
6
CONTINUOUS
70
0
71
3
72
11
73
7
74
5
42
0.0000001000
43
0.0000001000
44
0.0000000001
12
0.4181618484
22
-0.4116118851
32
0.0000000000
13
-0.0114922088
23
-0.5866443595
33
0.0000000000
40
0.0000000000
40
0.0000000000
40
0.0000000000
40
0.0000000000
40
0.2462879081
40
0.5047476650
40
0.7607052784
40
1.0000000000
40
1.0000000000
40
1.0000000000
40
1.0000000000
10
7.3281222995
20
11.7628401205
30
0.0000000000
10
7.3624517018
20
11.7290484438
30
0.0000000000
10
7.4248382361
20
11.6514549110
30
0.0000000000
10
7.4948141152
20
11.5192526556
30
0.0000000000
10
7.5391902037
20
11.3778324695
30
0.0000000000
10
7.5495791207
20
11.2805893520
30
0.0000000000
10
7.5486624457
20
11.2337957191
30
0.0000000000
11
7.3281222995
21
11.7628401205
31
0.0000000000
11
7.4195349352
21
11.6509151567
31
0.0000000000
11
7.4907444810
21
11.5170202430
31
0.0000000000
11
7.5351577110
21
11.3735525848
31
0.0000000000
11
7.5486624457
21
11.2337957191
31
0.0000000000
0
SPLINE
5
3D3
100
AcDbEntity
8
0
100
AcDbSpline
62
9
6
CONTINUOUS
70
0
71
3
72
16
73
12
74
10
42
0.0000001000
43
0.0000001000
44
0.0000000001
12
0.2229396392
22
0.1056661886
32
0.0000000000
13
0.1027714135
23
0.2242887931
33
0.0000000000
40
0.0000000000
40
0.0000000000
40
0.0000000000
40
0.0000000000
40
0.1314889959
40
0.2631107463
40
0.3905692854
40
0.5119854326
40
0.6254437700
40
0.7293027819
40
0.8255434478
40
0.9148297522
40
1.0000000000
40
1.0000000000
40
1.0000000000
40
1.0000000000
10
8.0387338703
20
12.0979957719
30
0.0000000000
10
8.0485052400
20
12.1026270856
30
0.0000000000
10
8.0677621660
20
12.1125397433
30
0.0000000000
10
8.0951358317
20
12.1294126892
30
0.0000000000
10
8.1202125098
20
12.1482141987
30
0.0000000000
10
8.1420398117
20
12.1685998095
30
0.0000000000
10
8.1599783508
20
12.1900001705
30
0.0000000000
10
8.1741962402
20
12.2115769691
30
0.0000000000
10
8.1851539518
20
12.2327379942
30
0.0000000000
10
8.1940856032
20
12.2531318507
30
0.0000000000
10
8.1997830153
20
12.2662998830
30
0.0000000000
10
8.2027007042
20
12.2726674603
30
0.0000000000
11
8.0387338703
21
12.0979957719
31
0.0000000000
11
8.0675485573
21
12.1128978661
31
0.0000000000
11
8.0951480120
21
12.1300079436
31
0.0000000000
11
8.1202409976
21
12.1489598498
31
0.0000000000
11
8.1420620612
21
12.1694815828
31
0.0000000000
11
8.1600356965
21
12.1909404340
31
0.0000000000
11
8.1741385523
21
12.2123336053
31
0.0000000000
11
8.1851741312
21
12.2333570749
31
0.0000000000
11
8.1942060159
21
12.2534484379
31
0.0000000000
11
8.2027007042
21
12.2726674603
31
0.0000000000
0
SPLINE
5
3D4
100
AcDbEntity
8
0
100
AcDbSpline
62
9
6
CONTINUOUS
70
0
71
3
72
16
73
12
74
10
42
0.0000001000
43
0.0000001000
44
0.0000000001
12
0.2662460246
22
0.1210161096
32
0.0000000000
13
0.2655034577
23
0.1226366926
33
0.0000000000
40
0.0000000000
40
0.0000000000
40
0.0000000000
40
0.0000000000
40
0.0682733994
40
0.1414728877
40
0.2218225972
40
0.3113344231
40
0.4126436001
40
0.5294019061
40
0.6647930563
40
0.8203631201
40
1.0000000000
40
1.0000000000
40
1.0000000000
40
1.0000000000
10
8.2679571984
20
11.5607097059
30
0.0000000000
10
8.2740163721
20
11.5634637662
30
0.0000000000
10
8.2866752694
20
11.5689467475
30
0.0000000000
10
8.3068424780
20
11.5767659184
30
0.0000000000
10
8.3292486508
20
11.5844893537
30
0.0000000000
10
8.3544981103
20
11.5923287151
30
0.0000000000
10
8.3833180162
20
11.6006074483
30
0.0000000000
10
8.4164599989
20
11.6100360581
30
0.0000000000
10
8.4544819881
20
11.6216387652
30
0.0000000000
10
8.4977962055
20
11.6368092110
30
0.0000000000
10
8.5279604941
20
11.6494588729
30
0.0000000000
10
8.5438585650
20
11.6568022305
30
0.0000000000
11
8.2679571984
21
11.5607097059
31
0.0000000000
11
8.2862818201
21
11.5686402894
31
0.0000000000
11
8.3062366350
21
11.5763926505
31
0.0000000000
11
8.3284393833
21
11.5840892759
31
0.0000000000
11
8.3534242452
21
11.5919039545
31
0.0000000000
11
8.3818735392
21
11.6001803046
31
0.0000000000
11
8.4146853446
21
11.6096353812
31
0.0000000000
11
8.4525236855
21
11.6213025989
31
0.0000000000
11
8.4954327976
21
11.6364305076
31
0.0000000000
11
8.5438585650
21
11.6568022305
31
0.0000000000
0
SPLINE
5
3D5
100
AcDbEntity
8
0
100
AcDbSpline
62
9
6
CONTINUOUS
70
0
71
3
72
11
73
7
74
5
42
0.0000001000
43
0.0000001000
44
0.0000000001
12
0.4349072090
22
-0.4113304504
32
0.0000000000
13
-0.0115986590
23
-0.5985002013
33
0.0000000000
40
0.0000000000
40
0.0000000000
40
0.0000000000
40
0.0000000000
40
0.2451285677
40
0.5036119767
40
0.7601872546
40
1.0000000000
40
1.0000000000
40
1.0000000000
40
1.0000000000
10
8.0387338703
20
12.0979957719
30
0.0000000000
10
8.0742699307
20
12.0643861572
30
0.0000000000
10
8.1389961321
20
11.9863237100
30
0.0000000000
10
8.2116960959
20
11.8522315704
30
0.0000000000
10
8.2579736950
20
11.7079970992
30
0.0000000000
10
8.2688927869
20
11.6085560086
30
0.0000000000
10
8.2679656182
20
11.5607133498
30
0.0000000000
11
8.0387338703
21
12.0979957719
31
0.0000000000
11
8.1333555137
21
11.9858418388
31
0.0000000000
11
8.2074254020
21
11.8499909498
31
0.0000000000
11
8.2537882838
21
11.7035664911
31
0.0000000000
11
8.2679656182
21
11.5607133498
31
0.0000000000
0
SPLINE
5
3D6
100
AcDbEntity
8
0
100
AcDbSpline
62
9
6
CONTINUOUS
70
0
71
3
72
12
73
8
74
6
42
0.0000001000
43
0.0000001000
44
0.0000000001
12
0.6519661659
22
-0.3373159253
32
0.0000000000
13
-0.0105655716
23
-0.7339824819
33
0.0000000000
40
0.0000000000
40
0.0000000000
40
0.0000000000
40
0.0000000000
40
0.1795520416
40
0.3805347453
40
0.5927295553
40
0.8033632481
40
1.0000000000
40
1.0000000000
40
1.0000000000
40
1.0000000000
10
8.2027001436
20
12.2726683871
30
0.0000000000
10
8.2417207623
20
12.2524797994
30
0.0000000000
10
8.3174532799
20
12.1959893272
30
0.0000000000
10
8.4113556593
20
12.0842597444
30
0.0000000000
10
8.4855008565
20
11.9497314029
30
0.0000000000
10
8.5329695030
20
11.8049079260
30
0.0000000000
10
8.5445510916
20
11.7049115409
30
0.0000000000
10
8.5438585650
20
11.6568022305
30
0.0000000000
11
8.2027001436
21
12.2726683871
31
0.0000000000
11
8.3097492438
21
12.1957776857
31
0.0000000000
11
8.4057113233
21
12.0837183931
31
0.0000000000
11
8.4811893760
21
11.9474638407
31
0.0000000000
11
8.5287922794
21
11.8003566630
31
0.0000000000
11
8.5438585650
21
11.6568022305
31
0.0000000000
0
SPLINE
5
3D7
100
AcDbEntity
8
0
100
AcDbSpline
62
7
6
CONTINUOUS
70
0
71
3
72
11
73
7
74
5
42
0.0000001000
43
0.0000001000
44
0.0000000001
12
-0.2071258395
22
0.1035800949
32
0.0000000000
13
-0.2057117522
23
-0.1040475676
33
0.0000000000
40
0.0000000000
40
0.0000000000
40
0.0000000000
40
0.0000000000
40
0.1260855173
40
0.3927613430
40
0.6812935057
40
1.0000000000
40
1.0000000000
40
1.0000000000
40
1.0000000000
10
9.1969450951
20
18.3269424092
30
0.0000000000
10
9.1882399055
20
18.3312957258
30
0.0000000000
10
9.1600726790
20
18.3427539126
30
0.0000000000
10
9.1074147308
20
18.3502775961
30
0.0000000000
10
9.0402311056
20
18.3405399767
30
0.0000000000
10
8.9964922443
20
18.3231700006
30
0.0000000000
10
8.9746383538
20
18.3121164555
30
0.0000000000
11
9.1969450951
21
18.3269424092
31
0.0000000000
11
9.1699295711
21
18.3379185704
31
0.0000000000
11
9.1091571217
21
18.3471944806
31
0.0000000000
11
9.0432153931
21
18.3384821563
31
0.0000000000
11
8.9746383538
21
18.3121164555
31
0.0000000000
0
SPLINE
5
3D8
100
AcDbEntity
8
0
100
AcDbSpline
62
7
6
CONTINUOUS
70
0
71
3
72
11
73
7
74
5
42
0.0000001000
43
0.0000001000
44
0.0000000001
12
-0.2068159736
22
0.1034079868
32
0.0000000000
13
-0.2080697585
23
-0.1032300930
33
0.0000000000
40
0.0000000000
40
0.0000000000
40
0.0000000000
40
0.0000000000
40
0.3191814938
40
0.6084968130
40
0.8761027616
40
1.0000000000
40
1.0000000000
40
1.0000000000
40
1.0000000000
10
-8.3170986219
20
19.0582680161
30
0.0000000000
10
-8.3391025657
20
19.0692699880
30
0.0000000000
10
-8.3831441638
20
19.0865242636
30
0.0000000000
10
-8.4507307168
20
19.0960536819
30
0.0000000000
10
-8.5034838607
20
19.0884006497
30
0.0000000000
10
-8.5316531659
20
19.0769798226
30
0.0000000000
10
-8.5402462554
20
19.0727165148
30
0.0000000000
11
-8.3170986219
21
19.0582680161
31
0.0000000000
11
-8.3861038931
21
19.0844448169
31
0.0000000000
11
-8.4524566277
21
19.0929655589
31
0.0000000000
11
-8.5136069881
21
19.0835053648
31
0.0000000000
11
-8.5402462554
21
19.0727165148
31
0.0000000000
0
SPLINE
5
3D9
100
AcDbEntity
8
0
100
AcDbSpline
62
7
6
CONTINUOUS
70
0
71
3
72
11
73
7
74
5
42
0.0000001000
43
0.0000001000
44
0.0000000001
12
-0.2081967564
22
0.1041138840
32
0.0000000000
13
-0.2072674228
23
-0.1036337114
33
0.0000000000
40
0.0000000000
40
0.0000000000
40
0.0000000000
40
0.0000000000
40
0.1261794756
40
0.3930879826
40
0.6816511665
40
1.0000000000
40
1.0000000000
40
1.0000000000
40
1.0000000000
10
3.6426347549
20
21.1040981157
30
0.0000000000
10
3.6338780357
20
21.1084771275
30
0.0000000000
10
3.6055470027
20
21.1200153218
30
0.0000000000
10
3.5526133899
20
21.1276906877
30
0.0000000000
10
3.4850565311
20
21.1181608643
30
0.0000000000
10
3.4410343878
20
21.1009128859
30
0.0000000000
10
3.4190399404
20
21.0899156622
30
0.0000000000
11
3.6426347549
21
21.1040981157
31
0.0000000000
11
3.6154636800
21
21.1151517334
31
0.0000000000
11
3.5543389654
21
21.1246040454
31
0.0000000000
11
3.4880147852
21
21.1160828669
31
0.0000000000
11
3.4190399404
21
21.0899156622
31
0.0000000000
0
SPLINE
5
3DA
100
AcDbEntity
8
0
100
AcDbSpline
62
9
6
CONTINUOUS
70
0
71
3
72
10
73
6
74
4
42
0.0000001000
43
0.0000001000
44
0.0000000001
12
0.0207782494
22
0.0570397919
32
0.0000000000
13
0.0187707426
23
0.0577583133
33
0.0000000000
40
0.0000000000
40
0.0000000000
40
0.0000000000
40
0.0000000000
40
0.3716658178
40
0.8305791087
40
1.0000000000
40
1.0000000000
40
1.0000000000
40
1.0000000000
10
-8.0773071280
20
19.1772150137
30
0.0000000000
10
-8.0747329396
20
19.1842815940
30
0.0000000000
10
-8.0698621194
20
19.2003848368
30
0.0000000000
10
-8.0645243524
20
19.2198967920
30
0.0000000000
10
-8.0607494755
20
19.2320449889
30
0.0000000000
10
-8.0596894236
20
19.2353068106
30
0.0000000000
11
-8.0773071280
21
19.1772150137
31
0.0000000000
11
-8.0704613505
21
19.1987139057
31
0.0000000000
11
-8.0627545472
21
19.2254857001
31
0.0000000000
11
-8.0596894236
21
19.2353068106
31
0.0000000000
0
SPLINE
5
3DB
100
AcDbEntity
8
0
100
AcDbSpline
62
9
6
CONTINUOUS
70
0
71
3
72
13
73
9
74
7
42
0.0000001000
43
0.0000001000
44
0.0000000001
12
0.0657620033
22
0.2023522707
32
0.0000000000
13
0.1917269076
23
0.0920540515
33
0.0000000000
40
0.0000000000
40
0.0000000000
40
0.0000000000
40
0.0000000000
40
0.1031217096
40
0.2668579068
40
0.4409588804
40
0.6237564237
40
0.8114744849
40
1.0000000000
40
1.0000000000
40
1.0000000000
40
1.0000000000
10
-8.0596894236
20
19.2353068106
30
0.0000000000
10
-8.0574289268
20
19.2422624479
30
0.0000000000
10
-8.0510824823
20
19.2601003244
30
0.0000000000
10
-8.0372259956
20
19.2882797669
30
0.0000000000
10
-8.0152431689
20
19.3181755706
30
0.0000000000
10
-7.9872949473
20
19.3450608338
30
0.0000000000
10
-7.9548507840
20
19.3680256834
30
0.0000000000
10
-7.9313524946
20
19.3807695690
30
0.0000000000
10
-7.9193040233
20
19.3865544148
30
0.0000000000
11
-8.0596894236
21
19.2353068106
31
0.0000000000
11
-8.0522195179
21
19.2559314795
31
0.0000000000
11
-8.0366946766
21
19.2871029327
31
0.0000000000
11
-8.0148380083
21
19.3169919770
31
0.0000000000
11
-7.9869415798
21
19.3440706132
31
0.0000000000
11
-7.9544837146
21
19.3673174648
31
0.0000000000
11
-7.9193040233
21
19.3865544148
31
0.0000000000
0
SPLINE
5
3DC
100
AcDbEntity
8
0
100
AcDbSpline
62
7
6
CONTINUOUS
70
0
71
3
72
10
73
6
74
4
42
0.0000001000
43
0.0000001000
44
0.0000000001
12
-0.5509876298
22
0.2755683034
32
0.0000000000
13
-0.5579181128
23
-0.2576650733
33
0.0000000000
40
0.0000000000
40
0.0000000000
40
0.0000000000
40
0.0000000000
40
0.3656536120
40
0.7099974045
40
1.0000000000
40
1.0000000000
40
1.0000000000
40
1.0000000000
10
13.5534684622
20
16.6787490029
30
0.0000000000
10
13.4863115898
20
16.7123365181
30
0.0000000000
10
13.3499017177
20
16.7658698678
30
0.0000000000
10
13.1434443535
20
16.7910757794
30
0.0000000000
10
13.0134747678
20
16.7608153649
30
0.0000000000
10
12.9595422009
20
16.7359075182
30
0.0000000000
11
13.5534684622
21
16.6787490029
31
0.0000000000
11
13.3431089628
21
16.7580244776
31
0.0000000000
11
13.1325186714
21
16.7788172381
31
0.0000000000
11
12.9595422009
21
16.7359075182
31
0.0000000000
0
SPLINE
5
3DD
100
AcDbEntity
8
0
100
AcDbSpline
62
7
6
CONTINUOUS
70
0
71
3
72
12
73
8
74
6
42
0.0000001000
43
0.0000001000
44
0.0000000001
12
0.2822554548
22
0.1422237785
32
0.0000000000
13
0.0000000000
23
0.3146429650
33
0.0000000000
40
0.0000000000
40
0.0000000000
40
0.0000000000
40
0.0000000000
40
0.0960612823
40
0.2930188939
40
0.5061381941
40
0.7412964765
40
1.0000000000
40
1.0000000000
40
1.0000000000
40
1.0000000000
10
6.8941017331
20
-27.3075540787
30
0.0000000000
10
6.9031396734
20
-27.3030000125
30
0.0000000000
10
6.9296021532
20
-27.2869125416
30
0.0000000000
10
6.9675090277
20
-27.2485734765
30
0.0000000000
10
7.0001140122
20
-27.1884233598
30
0.0000000000
10
7.0196680851
20
-27.1163600069
30
0.0000000000
10
7.0236120792
20
-27.0644140521
30
0.0000000000
10
7.0236120792
20
-27.0372809709
30
0.0000000000
11
6.8941017331
21
-27.3075540787
31
0.0000000000
11
6.9200047595
21
-27.2917955282
31
0.0000000000
11
6.9639939859
21
-27.2481447169
31
0.0000000000
11
6.9966827903
21
-27.1895954665
31
0.0000000000
11
7.0168140572
21
-27.1183958510
31
0.0000000000
11
7.0236120792
21
-27.0372809709
31
0.0000000000
0
SPLINE
5
3DE
100
AcDbEntity
8
0
100
AcDbSpline
62
9
6
CONTINUOUS
70
0
71
3
72
8
73
4
74
2
42
0.0000001000
43
0.0000001000
44
0.0000000001
12
-0.0045327108
22
-0.0300828667
32
0.0000000000
13
0.0004349425
23
-0.0303005233
33
0.0000000000
40
0.0000000000
40
0.0000000000
40
0.0000000000
40
0.0000000000
40
1.0000000000
40
1.0000000000
40
1.0000000000
40
1.0000000000
10
7.9464508286
20
-26.8099996617
30
0.0000000000
10
7.9449399250
20
-26.8200272840
30
0.0000000000
10
7.9443783592
20
-26.8301876694
30
0.0000000000
10
7.9445233400
20
-26.8402878438
30
0.0000000000
11
7.9464508286
21
-26.8099996617
31
0.0000000000
11
7.9445233400
21
-26.8402878438
31
0.0000000000
0
SPLINE
5
3DF
100
AcDbEntity
8
0
100
AcDbSpline
62
7
6
CONTINUOUS
70
0
71
3
72
11
73
7
74
5
42
0.0000001000
43
0.0000001000
44
0.0000000001
12
-0.4039890973
22
0.2021280081
32
0.0000000000
13
-0.4056879499
23
-0.1941711775
33
0.0000000000
40
0.0000000000
40
0.0000000000
40
0.0000000000
40
0.0000000000
40
0.1151113616
40
0.3861639946
40
0.6782774583
40
1.0000000000
40
1.0000000000
40
1.0000000000
40
1.0000000000
10
5.9875350284
20
20.4616660966
30
0.0000000000
10
5.9720337833
20
20.4694218400
30
0.0000000000
10
5.9182604760
20
20.4918831595
30
0.0000000000
10
5.8163460137
20
20.5086589409
30
0.0000000000
10
5.6832233243
20
20.4924638466
30
0.0000000000
10
5.5962073184
20
20.4601512008
30
0.0000000000
10
5.5527009989
20
20.4393281192
30
0.0000000000
11
5.9875350284
21
20.4616660966
31
0.0000000000
11
5.9395976700
21
20.4816656201
31
0.0000000000
11
5.8194863416
21
20.5025238154
31
0.0000000000
11
5.6888846561
21
20.4882322761
31
0.0000000000
11
5.5527009989
21
20.4393281192
31
0.0000000000
0
SPLINE
5
3E0
100
AcDbEntity
8
0
100
AcDbSpline
62
9
6
CONTINUOUS
70
0
71
3
72
9
73
5
74
3
42
0.0000001000
43
0.0000001000
44
0.0000000001
12
-0.0244280324
22
-0.0591180779
32
0.0000000000
13
0.0009110178
23
-0.0634666059
33
0.0000000000
40
0.0000000000
40
0.0000000000
40
0.0000000000
40
0.0000000000
40
0.2316283965
40
1.0000000000
40
1.0000000000
40
1.0000000000
40
1.0000000000
10
7.2480343680
20
-27.1465250003
30
0.0000000000
10
7.2461482927
20
-27.1510894755
30
0.0000000000
10
7.2392665557
20
-27.1713476478
30
0.0000000000
10
7.2371832254
20
-27.1927024515
30
0.0000000000
10
7.2374165588
20
-27.2089577641
30
0.0000000000
11
7.2480343680
21
-27.1465250003
31
0.0000000000
11
7.2432177241
21
-27.1605330476
31
0.0000000000
11
7.2374165588
21
-27.2089577641
31
0.0000000000
0
SPLINE
5
3E1
100
AcDbEntity
8
0
100
AcDbSpline
62
9
6
CONTINUOUS
70
0
71
3
72
11
73
7
74
5
42
0.0000001000
43
0.0000001000
44
0.0000000001
12
-0.3249549290
22
-0.1624774645
32
0.0000000000
13
-0.3249549290
23
0.1624774645
33
0.0000000000
40
0.0000000000
40
0.0000000000
40
0.0000000000
40
0.0000000000
40
0.2353701082
40
0.5000000000
40
0.7646298918
40
1.0000000000
40
1.0000000000
40
1.0000000000
40
1.0000000000
10
-6.1269016056
20
18.9640995594
30
0.0000000000
10
-6.1523964979
20
18.9513521133
30
0.0000000000
10
-6.2109890959
20
18.9331679875
30
0.0000000000
10
-6.3036783009
20
18.9244816689
30
0.0000000000
10
-6.3963675060
20
18.9331679875
30
0.0000000000
10
-6.4549601039
20
18.9513521133
30
0.0000000000
10
-6.4804549962
20
18.9640995594
30
0.0000000000
11
-6.1269016056
21
18.9640995594
31
0.0000000000
11
-6.2080074428
21
18.9370029655
31
0.0000000000
11
-6.3036783009
21
18.9274879071
31
0.0000000000
11
-6.3993491590
21
18.9370029655
31
0.0000000000
11
-6.4804549962
21
18.9640995594
31
0.0000000000
0
SPLINE
5
3E2
100
AcDbEntity
8
0
100
AcDbSpline
62
9
6
CONTINUOUS
70
0
71
3
72
8
73
4
74
2
42
0.0000001000
43
0.0000001000
44
0.0000000001
12
-0.1692080283
22
-0.1602498761
32
0.0000000000
13
-0.1692080283
23
-0.1602498761
33
0.0000000000
40
0.0000000000
40
0.0000000000
40
0.0000000000
40
0.0000000000
40
1.0000000000
40
1.0000000000
40
1.0000000000
40
1.0000000000
10
13.3805702898
20
14.4307745606
30
0.0000000000
10
13.3241676137
20
14.3773579352
30
0.0000000000
10
13.2677649376
20
14.3239413099
30
0.0000000000
10
13.2113622615
20
14.2705246845
30
0.0000000000
11
13.3805702898
21
14.4307745606
31
0.0000000000
11
13.2113622615
21
14.2705246845
31
0.0000000000
0
SPLINE
5
3E3
100
AcDbEntity
8
0
100
AcDbSpline
62
9
6
CONTINUOUS
70
0
71
3
72
9
73
5
74
3
42
0.0000001000
43
0.0000001000
44
0.0000000001
12
-4.0294020544
22
-3.8160788615
32
0.0000000000
13
-4.0294020544
23
-3.8160788615
33
0.0000000000
40
0.0000000000
40
0.0000000000
40
0.0000000000
40
0.0000000000
40
0.8277833027
40
1.0000000000
40
1.0000000000
40
1.0000000000
40
1.0000000000
10
13.2113622615
20
14.2705246845
30
0.0000000000
10
12.0995383480
20
13.2175625633
30
0.0000000000
10
10.7564043298
20
11.9455362762
30
0.0000000000
10
9.4132703117
20
10.6735099890
30
0.0000000000
10
9.1819602071
20
10.4544458230
30
0.0000000000
11
13.2113622615
21
14.2705246845
31
0.0000000000
11
9.8758905208
21
11.1116383210
31
0.0000000000
11
9.1819602071
21
10.4544458230
31
0.0000000000
0
SPLINE
5
3E4
100
AcDbEntity
8
0
100
AcDbSpline
62
9
6
CONTINUOUS
70
0
71
3
72
9
73
5
74
3
42
0.0000001000
43
0.0000001000
44
0.0000000001
12
4.1986100827
22
0.2962079228
32
0.0000000000
13
4.1986100827
23
0.2962079228
33
0.0000000000
40
0.0000000000
40
0.0000000000
40
0.0000000000
40
0.0000000000
40
0.1652761986
40
1.0000000000
40
1.0000000000
40
1.0000000000
40
1.0000000000
10
9.1819602071
20
-18.7817432603
30
0.0000000000
10
9.4132703117
20
-18.7654245538
30
0.0000000000
10
10.8128070059
20
-18.6666885795
30
0.0000000000
10
12.2123437001
20
-18.5679526052
30
0.0000000000
10
13.3805702898
20
-18.4855353375
30
0.0000000000
11
9.1819602071
21
-18.7817432603
31
0.0000000000
11
9.8758905208
21
-18.7327871408
31
0.0000000000
11
13.3805702898
21
-18.4855353375
31
0.0000000000
0
SPLINE
5
3E5
100
AcDbEntity
8
0
100
AcDbSpline
62
9
6
CONTINUOUS
70
0
71
3
72
11
73
7
74
5
42
0.0000001000
43
0.0000001000
44
0.0000000001
12
0.3283037267
22
-0.1641518634
32
0.0000000000
13
0.0000000000
23
-0.3670547251
33
0.0000000000
40
0.0000000000
40
0.0000000000
40
0.0000000000
40
0.0000000000
40
0.2296755894
40
0.4882147766
40
0.7532068921
40
1.0000000000
40
1.0000000000
40
1.0000000000
40
1.0000000000
10
-4.8894647385
20
21.0774150113
30
0.0000000000
10
-4.8643302879
20
21.0648477860
30
0.0000000000
10
-4.8163022139
20
21.0272737499
30
0.0000000000
10
-4.7608429687
20
20.9526762856
30
0.0000000000
10
-4.7231083195
20
20.8654412161
30
0.0000000000
10
-4.7126880432
20
20.8027158381
30
0.0000000000
10
-4.7126880432
20
20.7725203127
30
0.0000000000
11
-4.8894647385
21
21.0774150113
31
0.0000000000
11
-4.8218152260
21
21.0271096904
31
0.0000000000
11
-4.7644647385
21
20.9515017693
31
0.0000000000
11
-4.7261443679
21
20.8621018685
31
0.0000000000
11
-4.7126880432
21
20.7725203127
31
0.0000000000
0
SPLINE
5
3E6
100
AcDbEntity
8
0
100
AcDbSpline
62
9
6
CONTINUOUS
70
0
71
3
72
11
73
7
74
5
42
0.0000001000
43
0.0000001000
44
0.0000000001
12
0.3283037267
22
-0.1641518634
32
0.0000000000
13
0.0000000000
23
-0.3670547251
33
0.0000000000
40
0.0000000000
40
0.0000000000
40
0.0000000000
40
0.0000000000
40
0.2296755894
40
0.4882147766
40
0.7532068921
40
1.0000000000
40
1.0000000000
40
1.0000000000
40
1.0000000000
10
-7.0107850821
20
20.0167548395
30
0.0000000000
10
-6.9856506315
20
20.0041876142
30
0.0000000000
10
-6.9376225574
20
19.9666135782
30
0.0000000000
10
-6.8821633122
20
19.8920161138
30
0.0000000000
10
-6.8444286630
20
19.8047810443
30
0.0000000000
10
-6.8340083868
20
19.7420556664
30
0.0000000000
10
-6.8340083868
20
19.7118601409
30
0.0000000000
11
-7.0107850821
21
20.0167548395
31
0.0000000000
11
-6.9431355696
21
19.9664495186
31
0.0000000000
11
-6.8857850821
21
19.8908415975
31
0.0000000000
11
-6.8474647115
21
19.8014416968
31
0.0000000000
11
-6.8340083868
21
19.7118601409
31
0.0000000000
0
SPLINE
5
3E7
100
AcDbEntity
8
0
100
AcDbSpline
62
9
6
CONTINUOUS
70
0
71
3
72
9
73
5
74
3
42
0.0000001000
43
0.0000001000
44
0.0000000001
12
0.0962299385
22
0.0472325042
32
0.0000000000
13
0.1062737778
23
-0.0042849516
33
0.0000000000
40
0.0000000000
40
0.0000000000
40
0.0000000000
40
0.0000000000
40
0.0715056994
40
1.0000000000
40
1.0000000000
40
1.0000000000
40
1.0000000000
10
-8.0234159836
20
19.3656769507
30
0.0000000000
10
-8.0211223205
20
19.3668027485
30
0.0000000000
10
-7.9887349696
20
19.3819156775
30
0.0000000000
10
-7.9521933949
20
19.3878783859
30
0.0000000000
10
-7.9193018626
20
19.3865522015
30
0.0000000000
11
-8.0234159836
21
19.3656769507
31
0.0000000000
11
-8.0164693194
21
19.3689172839
31
0.0000000000
11
-7.9193018626
21
19.3865522015
31
0.0000000000
0
SPLINE
5
3E8
100
AcDbEntity
8
0
100
AcDbSpline
62
9
6
CONTINUOUS
70
0
71
3
72
11
73
7
74
5
42
0.0000001000
43
0.0000001000
44
0.0000000001
12
-0.3249549290
22
-0.1624774645
32
0.0000000000
13
-0.3249549290
23
0.1624774645
33
0.0000000000
40
0.0000000000
40
0.0000000000
40
0.0000000000
40
0.0000000000
40
0.2353701082
40
0.5000000000
40
0.7646298918
40
1.0000000000
40
1.0000000000
40
1.0000000000
40
1.0000000000
10
7.2374165588
20
12.2819404772
30
0.0000000000
10
7.2119216665
20
12.2691930311
30
0.0000000000
10
7.1533290686
20
12.2510089053
30
0.0000000000
10
7.0606398635
20
12.2423225867
30
0.0000000000
10
6.9679506585
20
12.2510089053
30
0.0000000000
10
6.9093580605
20
12.2691930311
30
0.0000000000
10
6.8838631682
20
12.2819404772
30
0.0000000000
11
7.2374165588
21
12.2819404772
31
0.0000000000
11
7.1563107216
21
12.2548438833
31
0.0000000000
11
7.0606398635
21
12.2453288248
31
0.0000000000
11
6.9649690054
21
12.2548438833
31
0.0000000000
11
6.8838631682
21
12.2819404772
31
0.0000000000
0
SPLINE
5
3E9
100
AcDbEntity
8
0
100
AcDbSpline
62
7
6
CONTINUOUS
70
0
71
3
72
15
73
11
74
9
42
0.0000001000
43
0.0000001000
44
0.0000000001
12
-0.6563339422
22
-0.3178567338
32
0.0000000000
13
-0.6522620007
23
0.3261310003
33
0.0000000000
40
0.0000000000
40
0.0000000000
40
0.0000000000
40
0.0000000000
40
0.1116241460
40
0.2340492219
40
0.3642315565
40
0.4985371605
40
0.6330449557
40
0.7638178300
40
0.8871770791
40
1.0000000000
40
1.0000000000
40
1.0000000000
40
1.0000000000
10
3.3523901878
20
14.2635017664
30
0.0000000000
10
3.3279692825
20
14.2516749375
30
0.0000000000
10
3.2746943523
20
14.2310721211
30
0.0000000000
10
3.1886123583
20
14.2096296469
30
0.0000000000
10
3.0952689259
20
14.1967951253
30
0.0000000000
10
2.9982025092
20
14.1930739057
30
0.0000000000
10
2.9010792419
20
14.1986073390
30
0.0000000000
10
2.8075699747
20
14.2131876580
30
0.0000000000
10
2.7212241350
20
14.2362447066
30
0.0000000000
10
2.6677829954
20
14.2578174589
30
0.0000000000
10
2.6432529607
20
14.2700824763
30
0.0000000000
11
3.3523901878
21
14.2635017664
31
0.0000000000
11
3.2766888869
21
14.2335751313
31
0.0000000000
11
3.1901541919
21
14.2116111044
31
0.0000000000
11
3.0961339104
21
14.1984598113
31
0.0000000000
11
2.9982662763
21
14.1946308448
31
0.0000000000
11
2.9003387389
21
14.2002732604
31
0.0000000000
11
2.8061430581
21
14.2151694813
31
0.0000000000
11
2.7193268898
21
14.2387434179
31
0.0000000000
11
2.6432529607
21
14.2700824763
31
0.0000000000
0
SPLINE
5
3EA
100
AcDbEntity
8
0
100
AcDbSpline
62
7
6
CONTINUOUS
70
0
71
3
72
15
73
11
74
9
42
0.0000001000
43
0.0000001000
44
0.0000000001
12
0.6530083801
22
-0.3265041900
32
0.0000000000
13
0.6514917591
23
0.3295199817
33
0.0000000000
40
0.0000000000
40
0.0000000000
40
0.0000000000
40
0.0000000000
40
0.1126087417
40
0.2356635914
40
0.3661332835
40
0.5004165574
40
0.6346426413
40
0.7649447023
40
0.8877336614
40
1.0000000000
40
1.0000000000
40
1.0000000000
40
1.0000000000
10
2.6432529607
20
15.4674015119
30
0.0000000000
10
2.6677644447
20
15.4551457699
30
0.0000000000
10
2.7211959608
20
15.4336843703
30
0.0000000000
10
2.8075636801
20
15.4110595058
30
0.0000000000
10
2.9010920778
20
15.3971794702
30
0.0000000000
10
2.9982345602
20
15.3925872423
30
0.0000000000
10
3.0953229331
20
15.3974550940
30
0.0000000000
10
3.1886915364
20
15.4116002245
30
0.0000000000
10
3.2748005065
20
15.4344694844
30
0.0000000000
10
3.3280099897
20
15.4560912651
30
0.0000000000
10
3.3523901878
20
15.4684225991
30
0.0000000000
11
2.6432529607
21
15.4674015119
31
0.0000000000
11
2.7193206143
21
15.4362108626
31
0.0000000000
11
2.8061299787
21
15.4130708074
31
0.0000000000
11
2.9003205890
21
15.3988771179
31
0.0000000000
11
2.9982462459
21
15.3941792439
31
0.0000000000
11
3.0961161633
21
15.3991590441
31
0.0000000000
11
3.1901417126
21
15.4136237462
31
0.0000000000
11
3.2766830844
21
15.4370134091
31
0.0000000000
11
3.3523901878
21
15.4684225991
31
0.0000000000
0
SPLINE
5
3EB
100
AcDbEntity
8
0
100
AcDbSpline
62
7
6
CONTINUOUS
70
0
71
3
72
11
73
7
74
5
42
0.0000001000
43
0.0000001000
44
0.0000000001
12
-0.2135511355
22
0.1067755677
32
0.0000000000
13
-0.0000387367
23
0.2398394103
33
0.0000000000
40
0.0000000000
40
0.0000000000
40
0.0000000000
40
0.0000000000
40
0.3057112858
40
0.5702352185
40
0.7980365643
40
1.0000000000
40
1.0000000000
40
1.0000000000
40
1.0000000000
10
-2.8762408918
20
17.0298294025
30
0.0000000000
10
-2.8980025558
20
17.0407102345
30
0.0000000000
10
-2.9372847161
20
17.0639447065
30
0.0000000000
10
-2.9849774144
20
17.1066726434
30
0.0000000000
10
-3.0154093143
20
17.1538903746
30
0.0000000000
10
-3.0226848516
20
17.1882504975
30
0.0000000000
10
-3.0226874594
20
17.2043967612
30
0.0000000000
11
-2.8762408918
21
17.0298294025
31
0.0000000000
11
-2.9386264473
21
17.0677201035
31
0.0000000000
11
-2.9849078491
21
17.1106950415
31
0.0000000000
11
-3.0132933808
21
17.1570895838
31
0.0000000000
11
-3.0226874594
21
17.2043967612
31
0.0000000000
0
SPLINE
5
3EC
100
AcDbEntity
8
0
100
AcDbSpline
62
9
6
CONTINUOUS
70
0
71
3
72
11
73
7
74
5
42
0.0000001000
43
0.0000001000
44
0.0000000001
12
0.0000000000
22
0.3637742184
32
0.0000000000
13
-0.3562148286
23
0.0737745066
33
0.0000000000
40
0.0000000000
40
0.0000000000
40
0.0000000000
40
0.0000000000
40
0.2939319030
40
0.5506294032
40
0.7793103319
40
1.0000000000
40
1.0000000000
40
1.0000000000
40
1.0000000000
10
7.2374165588
20
12.2819404772
30
0.0000000000
10
7.2374165588
20
12.3175820933
30
0.0000000000
10
7.2307859794
20
12.3847300150
30
0.0000000000
10
7.1964937320
20
12.4743438684
30
0.0000000000
10
7.1386333062
20
12.5404517839
30
0.0000000000
10
7.0868441743
20
12.5631250391
30
0.0000000000
10
7.0606398635
20
12.5685521296
30
0.0000000000
11
7.2374165588
21
12.2819404772
31
0.0000000000
11
7.2253227205
21
12.3881791813
31
0.0000000000
11
7.1901097330
21
12.4746653496
31
0.0000000000
11
7.1341031047
21
12.5361758247
31
0.0000000000
11
7.0606398635
21
12.5685521296
31
0.0000000000
0
SPLINE
5
3ED
100
AcDbEntity
8
0
100
AcDbSpline
62
7
6
CONTINUOUS
70
0
71
3
72
12
73
8
74
6
42
0.0000001000
43
0.0000001000
44
0.0000000001
12
0.0313238515
22
-0.2919627047
32
0.0000000000
13
-0.2680364497
23
-0.1240211512
33
0.0000000000
40
0.0000000000
40
0.0000000000
40
0.0000000000
40
0.0000000000
40
0.2613584604
40
0.4933668909
40
0.6987859377
40
0.8862491261
40
1.0000000000
40
1.0000000000
40
1.0000000000
40
1.0000000000
10
5.2066510847
20
-22.3499682417
30
0.0000000000
10
5.2093800026
20
-22.3754038827
30
0.0000000000
10
5.2110352323
20
-22.4239393849
30
0.0000000000
10
5.2001832045
20
-22.4919948500
30
0.0000000000
10
5.1756692214
20
-22.5489248659
30
0.0000000000
10
5.1420162870
20
-22.5867334603
30
0.0000000000
10
5.1164446945
20
-22.6020903652
30
0.0000000000
10
5.1062815677
20
-22.6067928700
30
0.0000000000
11
5.2066510847
21
-22.3499682417
31
0.0000000000
11
5.2085190391
21
-22.4266903387
31
0.0000000000
11
5.1968539309
21
-22.4938107609
31
0.0000000000
11
5.1720439385
21
-22.5487910480
31
0.0000000000
11
5.1349650397
21
-22.5894758940
31
0.0000000000
11
5.1062815677
21
-22.6067928700
31
0.0000000000
0
SPLINE
5
3EE
100
AcDbEntity
8
0
100
AcDbSpline
62
7
6
CONTINUOUS
70
0
71
3
72
10
73
6
74
4
42
0.0000001000
43
0.0000001000
44
0.0000000001
12
-0.2151742505
22
-3.1232824212
32
0.0000000000
13
-0.1872066559
23
-3.1250834723
33
0.0000000000
40
0.0000000000
40
0.0000000000
40
0.0000000000
40
0.0000000000
40
0.3338063489
40
0.6671422855
40
1.0000000000
40
1.0000000000
40
1.0000000000
40
1.0000000000
10
-20.2763171148
20
-10.6992328649
30
0.0000000000
10
-20.3002592918
20
-11.0467566987
30
0.0000000000
10
-20.3470788067
20
-11.7413861255
30
0.0000000000
10
-20.4141552126
20
-12.7827914807
30
0.0000000000
10
-20.4567677739
20
-13.4766998648
30
0.0000000000
10
-20.4775388338
20
-13.8234359122
30
0.0000000000
11
-20.2763171148
21
-10.6992328649
31
0.0000000000
11
-20.3465935878
21
-11.7419099978
31
0.0000000000
11
-20.4136682170
21
-12.7833222379
31
0.0000000000
11
-20.4775388338
21
-13.8234359122
31
0.0000000000
0
SPLINE
5
3EF
100
AcDbEntity
8
0
100
AcDbSpline
62
7
6
CONTINUOUS
70
0
71
3
72
12
73
8
74
6
42
0.0000001000
43
0.0000001000
44
0.0000000001
12
0.6590367305
22
-0.3295183652
32
0.0000000000
13
-0.0506425370
23
-0.7350830556
33
0.0000000000
40
0.0000000000
40
0.0000000000
40
0.0000000000
40
0.0000000000
40
0.1790775102
40
0.3793651782
40
0.5892955701
40
0.8007000952
40
1.0000000000
40
1.0000000000
40
1.0000000000
40
1.0000000000
10
-20.5987798946
20
-10.0753217111
30
0.0000000000
10
-20.5594403423
20
-10.0949914872
30
0.0000000000
10
-20.4831721252
20
-10.1511710763
30
0.0000000000
10
-20.3908931200
20
-10.2641171330
30
0.0000000000
10
-20.3207225255
20
-10.4009514644
30
0.0000000000
10
-20.2792604572
20
-10.5486403005
30
0.0000000000
10
-20.2729527639
20
-10.6503988705
30
0.0000000000
10
-20.2763171148
20
-10.6992328649
30
0.0000000000
11
-20.5987798946
21
-10.0753217111
31
0.0000000000
11
-20.4911936979
21
-10.1517135594
31
0.0000000000
11
-20.3966773991
21
-10.2650522382
31
0.0000000000
11
-20.3257084956
21
-10.4024929671
31
0.0000000000
11
-20.2840502095
21
-10.5525873740
31
0.0000000000
11
-20.2763171148
21
-10.6992328649
31
0.0000000000
0
SPLINE
5
3F0
100
AcDbEntity
8
0
100
AcDbSpline
62
7
6
CONTINUOUS
70
0
71
3
72
11
73
7
74
5
42
0.0000001000
43
0.0000001000
44
0.0000000001
12
-0.0213604111
22
-0.3565742221
32
0.0000000000
13
-0.3393232292
23
-0.1181045900
33
0.0000000000
40
0.0000000000
40
0.0000000000
40
0.0000000000
40
0.0000000000
40
0.3679951933
40
0.6902596053
40
0.9770863013
40
1.0000000000
40
1.0000000000
40
1.0000000000
40
1.0000000000
10
-20.4775388338
20
-13.8234359122
30
0.0000000000
10
-20.4801590100
20
-13.8671751121
30
0.0000000000
10
-20.4947797439
20
-13.9492856239
30
0.0000000000
10
-20.5517657980
20
-14.0538961575
30
0.0000000000
10
-20.6149867503
20
-14.1000374110
30
0.0000000000
10
-20.6497681989
20
-14.1129413092
30
0.0000000000
10
-20.6523599157
20
-14.1138433802
30
0.0000000000
11
-20.4775388338
21
-13.8234359122
31
0.0000000000
11
-20.5030349863
21
-13.9523924654
31
0.0000000000
11
-20.5609444549
21
-14.0518834627
31
0.0000000000
11
-20.6446429185
21
-14.1109789865
31
0.0000000000
11
-20.6523599157
21
-14.1138433802
31
0.0000000000
0
SPLINE
5
3F1
100
AcDbEntity
8
0
100
AcDbSpline
62
7
6
CONTINUOUS
70
0
71
3
72
12
73
8
74
6
42
0.0000001000
43
0.0000001000
44
0.0000000001
12
-0.0615123252
22
-1.3911694152
32
0.0000000000
13
1.2494727809
23
-0.6223245363
33
0.0000000000
40
0.0000000000
40
0.0000000000
40
0.0000000000
40
0.0000000000
40
0.1981296126
40
0.4460146154
40
0.6808079301
40
0.9071084374
40
1.0000000000
40
1.0000000000
40
1.0000000000
40
1.0000000000
10
-32.3088191938
20
-13.5348625919
30
0.0000000000
10
-32.3128816648
20
-13.6267398777
30
0.0000000000
10
-32.3042756633
20
-13.8347551405
30
0.0000000000
10
-32.2213626434
20
-14.1427956983
30
0.0000000000
10
-32.0494002795
20
-14.4280162278
30
0.0000000000
10
-31.8563847061
20
-14.6025469012
30
0.0000000000
10
-31.7274032222
20
-14.6769223749
30
0.0000000000
10
-31.6887147291
20
-14.6961919411
30
0.0000000000
11
-32.3088191938
21
-13.5348625919
31
0.0000000000
11
-32.2962151210
21
-13.8103244409
31
0.0000000000
11
-32.2043946005
21
-14.1423329191
31
0.0000000000
11
-32.0346834372
21
-14.4210011005
31
0.0000000000
11
-31.8009707632
21
-14.6314150847
31
0.0000000000
11
-31.6887147291
21
-14.6961919411
31
0.0000000000
0
SPLINE
5
3F2
100
AcDbEntity
8
0
100
AcDbSpline
62
7
6
CONTINUOUS
70
0
71
3
72
11
73
7
74
5
42
0.0000001000
43
0.0000001000
44
0.0000000001
12
-5.2836738151
22
-36.5235198577
32
0.0000000000
13
-1.6358080307
23
-36.8674479545
33
0.0000000000
40
0.0000000000
40
0.0000000000
40
0.0000000000
40
0.0000000000
40
0.2530298942
40
0.5057698498
40
0.7555433277
40
1.0000000000
40
1.0000000000
40
1.0000000000
40
1.0000000000
10
-28.8030862183
20
23.1878827413
30
0.0000000000
10
-29.2487286938
20
20.1073686194
30
0.0000000000
10
-30.0672922380
20
13.9391584880
30
0.0000000000
10
-31.0665859738
20
4.6980084006
30
0.0000000000
10
-31.8266998962
20
-4.4600854556
30
0.0000000000
10
-32.1755153292
20
-10.5305030667
30
0.0000000000
10
-32.3088100585
20
-13.5346676146
30
0.0000000000
11
-28.8030862183
21
23.1878827413
31
0.0000000000
11
-30.0303125350
21
13.9311354461
31
0.0000000000
11
-31.0317365852
21
4.6580145193
31
0.0000000000
11
-31.7927490336
21
-4.5280799064
31
0.0000000000
11
-32.3088100585
21
-13.5346676146
31
0.0000000000
0
SPLINE
5
3F3
100
AcDbEntity
8
0
100
AcDbSpline
62
7
6
CONTINUOUS
70
0
71
3
72
13
73
9
74
7
42
0.0000001000
43
0.0000001000
44
0.0000000001
12
-1.6901843826
22
-0.6547603542
32
0.0000000000
13
-0.2591172546
23
-1.7917694238
33
0.0000000000
40
0.0000000000
40
0.0000000000
40
0.0000000000
40
0.0000000000
40
0.1078561390
40
0.2868702525
40
0.4743367722
40
0.6674221553
40
0.8607315093
40
1.0000000000
40
1.0000000000
40
1.0000000000
40
1.0000000000
10
-27.7708113833
20
24.5808626324
30
0.0000000000
10
-27.8315769706
20
24.5573226578
30
0.0000000000
10
-27.9886725120
20
24.4822477783
30
0.0000000000
10
-28.2209216643
20
24.3119182194
30
0.0000000000
10
-28.4487141311
20
24.0602643350
30
0.0000000000
10
-28.6310368740
20
23.7640701321
30
0.0000000000
10
-28.7478063346
20
23.4677875641
30
0.0000000000
10
-28.7910720061
20
23.2709748272
30
0.0000000000
10
-28.8031009624
20
23.1877958194
30
0.0000000000
11
-27.7708113833
21
24.5808626324
31
0.0000000000
11
-27.9473535190
21
24.4969209008
31
0.0000000000
11
-28.2095654687
21
24.3070275412
31
0.0000000000
11
-28.4381729965
21
24.0566582019
31
0.0000000000
11
-28.6217440118
21
23.7596032715
31
0.0000000000
11
-28.7494685787
21
23.4341659672
31
0.0000000000
11
-28.8031009624
21
23.1877958194
31
0.0000000000
0
SPLINE
5
3F4
100
AcDbEntity
8
0
100
AcDbSpline
62
7
6
CONTINUOUS
70
0
71
3
72
11
73
7
74
5
42
0.0000001000
43
0.0000001000
44
0.0000000001
12
0.3316655202
22
0.1284668450
32
0.0000000000
13
0.3170596130
23
-0.1585298065
33
0.0000000000
40
0.0000000000
40
0.0000000000
40
0.0000000000
40
0.0000000000
40
0.0538060228
40
0.3519059774
40
0.6641251165
40
1.0000000000
40
1.0000000000
40
1.0000000000
40
1.0000000000
10
-23.8014449565
20
26.1163826105
30
0.0000000000
10
-23.7954964223
20
26.1186867072
30
0.0000000000
10
-23.7561909116
20
26.1327117515
30
0.0000000000
10
-23.6776610310
20
26.1458152832
30
0.0000000000
10
-23.5653543825
20
26.1326184555
30
0.0000000000
10
-23.4930669266
20
26.1051082879
30
0.0000000000
10
-23.4575694731
20
26.0873595611
30
0.0000000000
11
-23.8014449565
21
26.1163826105
31
0.0000000000
11
-23.7834229810
21
26.1228099760
31
0.0000000000
11
-23.6792654148
21
26.1406331560
31
0.0000000000
11
-23.5692382766
21
26.1286615816
31
0.0000000000
11
-23.4575694731
21
26.0873595611
31
0.0000000000
0
SPLINE
5
3F5
100
AcDbEntity
8
0
100
AcDbSpline
62
7
6
CONTINUOUS
70
0
71
3
72
13
73
9
74
7
42
0.0000001000
43
0.0000001000
44
0.0000000001
12
-0.0572193381
22
-0.5993580627
32
0.0000000000
13
-0.5763944636
23
-0.1806317573
33
0.0000000000
40
0.0000000000
40
0.0000000000
40
0.0000000000
40
0.0000000000
40
0.2285281800
40
0.4404572605
40
0.6359987366
40
0.8182331489
40
0.9931595325
40
1.0000000000
40
1.0000000000
40
1.0000000000
40
1.0000000000
10
3.6047591462
20
-28.0163727979
30
0.0000000000
10
3.6004004025
20
-28.0620295337
30
0.0000000000
10
3.5852184602
20
-28.1496125240
30
0.0000000000
10
3.5407666900
20
-28.2701104832
30
0.0000000000
10
3.4766120996
20
-28.3708350690
30
0.0000000000
10
3.3945752455
20
-28.4474953367
30
0.0000000000
10
3.3283218366
20
-28.4807373415
30
0.0000000000
10
3.2934629880
20
-28.4918864704
30
0.0000000000
10
3.2921487188
20
-28.4922983390
30
0.0000000000
11
3.6047591462
21
-28.0163727979
31
0.0000000000
11
3.5804460484
21
-28.1518006339
31
0.0000000000
11
3.5353337194
21
-28.2711587724
31
0.0000000000
11
3.4711524976
21
-28.3698585649
31
0.0000000000
11
3.3903676843
21
-28.4441037806
31
0.0000000000
11
3.2960841744
21
-28.4910395964
31
0.0000000000
11
3.2921487188
21
-28.4922983390
31
0.0000000000
0
SPLINE
5
3F6
100
AcDbEntity
8
0
100
AcDbSpline
62
7
6
CONTINUOUS
70
0
71
3
72
9
73
5
74
3
42
0.0000001000
43
0.0000001000
44
0.0000000001
12
0.1558418443
22
-0.0779209222
32
0.0000000000
13
0.1315980651
23
-0.1145009960
33
0.0000000000
40
0.0000000000
40
0.0000000000
40
0.0000000000
40
0.0000000000
40
0.7406258212
40
1.0000000000
40
1.0000000000
40
1.0000000000
40
1.0000000000
10
6.7360623969
20
10.9905436262
30
0.0000000000
10
6.7745358948
20
10.9713068772
30
0.0000000000
10
6.8237353703
20
10.9396292151
30
0.0000000000
10
6.8686875070
20
10.9026950733
30
0.0000000000
10
6.8800652204
20
10.8927955393
30
0.0000000000
11
6.7360623969
21
10.9905436262
31
0.0000000000
11
6.8450829204
21
10.9215009692
31
0.0000000000
11
6.8800652204
21
10.8927955393
31
0.0000000000
0
SPLINE
5
3F7
100
AcDbEntity
8
0
100
AcDbSpline
62
7
6
CONTINUOUS
70
0
71
3
72
14
73
10
74
8
42
0.0000001000
43
0.0000001000
44
0.0000000001
12
0.7601258624
22
-0.6613711857
32
0.0000000000
13
-0.0956448159
23
-1.0018552022
33
0.0000000000
40
0.0000000000
40
0.0000000000
40
0.0000000000
40
0.0000000000
40
0.0931443261
40
0.2395943269
40
0.3920631465
40
0.5475651764
40
0.7028318075
40
0.8546159478
40
1.0000000000
40
1.0000000000
40
1.0000000000
40
1.0000000000
10
6.8800652204
20
10.8927955393
30
0.0000000000
10
6.9036656908
20
10.8722612149
30
0.0000000000
10
6.9612551308
20
10.8159018697
30
0.0000000000
10
7.0427580677
20
10.7120526031
30
0.0000000000
10
7.1193539935
20
10.5797083071
30
0.0000000000
10
7.1789128017
20
10.4356933837
30
0.0000000000
10
7.2192115142
20
10.2853747021
30
0.0000000000
10
7.2387446808
20
10.1344114952
30
0.0000000000
10
7.2373675307
20
10.0342792306
30
0.0000000000
10
7.2327324537
20
9.9857279742
30
0.0000000000
11
6.8800652204
21
10.8927955393
31
0.0000000000
11
6.9472663309
21
10.8273671966
31
0.0000000000
11
7.0386852759
21
10.7117556335
31
0.0000000000
11
7.1158244034
21
10.5791083933
31
0.0000000000
11
7.1757179722
21
10.4345239859
31
0.0000000000
11
7.2160643162
21
10.2835605220
31
0.0000000000
11
7.2353146299
21
10.1320212011
31
0.0000000000
11
7.2327324537
21
9.9857279742
31
0.0000000000
0
SPLINE
5
3F8
100
AcDbEntity
8
0
100
AcDbSpline
62
7
6
CONTINUOUS
70
0
71
3
72
11
73
7
74
5
42
0.0000001000
43
0.0000001000
44
0.0000000001
12
0.7774915262
22
-0.3894602021
32
0.0000000000
13
0.8290134933
23
0.2592345118
33
0.0000000000
40
0.0000000000
40
0.0000000000
40
0.0000000000
40
0.0000000000
40
0.1068483821
40
0.4337386093
40
0.7719618731
40
1.0000000000
40
1.0000000000
40
1.0000000000
40
1.0000000000
10
-1.6474662200
20
-29.7168416459
30
0.0000000000
10
-1.6197749828
20
-29.7307127101
30
0.0000000000
10
-1.5049165056
20
-29.7821908223
30
0.0000000000
10
-1.2862067998
20
-29.8368081288
30
0.0000000000
10
-1.0255015739
20
-29.8324368885
30
0.0000000000
10
-0.8649994453
20
-29.7956330734
30
0.0000000000
10
-0.8019838840
20
-29.7759279559
30
0.0000000000
11
-1.6474662200
21
-29.7168416459
31
0.0000000000
11
-1.5626987538
21
-29.7548135651
31
0.0000000000
11
-1.2880396787
21
-29.8238530897
31
0.0000000000
11
-0.9950466584
21
-29.8197562993
31
0.0000000000
11
-0.8019838840
21
-29.7759279559
31
0.0000000000
0
SPLINE
5
3F9
100
AcDbEntity
8
0
100
AcDbSpline
62
7
6
CONTINUOUS
70
0
71
3
72
8
73
4
74
2
42
0.0000001000
43
0.0000001000
44
0.0000000001
12
0.0574367606
22
0.0199846723
32
0.0000000000
13
0.0609842365
23
0.0037779484
33
0.0000000000
40
0.0000000000
40
0.0000000000
40
0.0000000000
40
0.0000000000
40
1.0000000000
40
1.0000000000
40
1.0000000000
40
1.0000000000
10
-28.5830008080
20
-6.1648657637
30
0.0000000000
10
-28.5638552211
20
-6.1582042063
30
0.0000000000
10
-28.5437089777
20
-6.1543501887
30
0.0000000000
10
-28.5233808989
20
-6.1530908726
30
0.0000000000
11
-28.5830008080
21
-6.1648657637
31
0.0000000000
11
-28.5233808989
21
-6.1530908726
31
0.0000000000
0
SPLINE
5
3FA
100
AcDbEntity
8
0
100
AcDbSpline
62
7
6
CONTINUOUS
70
0
71
3
72
9
73
5
74
3
42
0.0000001000
43
0.0000001000
44
0.0000000001
12
0.1521468043
22
0.0094254320
32
0.0000000000
13
0.1349096520
23
-0.0674548260
33
0.0000000000
40
0.0000000000
40
0.0000000000
40
0.0000000000
40
0.0000000000
40
0.2351232918
40
1.0000000000
40
1.0000000000
40
1.0000000000
40
1.0000000000
10
-28.5233808989
20
-6.1530908726
30
0.0000000000
10
-28.5114564797
20
-6.1523521597
30
0.0000000000
10
-28.4604747662
20
-6.1530076371
30
0.0000000000
10
-28.4113509045
20
-6.1690362061
30
0.0000000000
10
-28.3769544877
20
-6.1862344145
30
0.0000000000
11
-28.5233808989
21
-6.1530908726
31
0.0000000000
11
-28.4875852107
21
-6.1535102657
31
0.0000000000
11
-28.3769544877
21
-6.1862344145
31
0.0000000000
0
SPLINE
5
3FB
100
AcDbEntity
8
0
100
AcDbSpline
62
7
6
CONTINUOUS
70
0
71
3
72
8
73
4
74
2
42
0.0000001000
43
0.0000001000
44
0.0000000001
12
0.0077549458
22
0.0030579743
32
0.0000000000
13
0.0078741141
23
0.0027397365
33
0.0000000000
40
0.0000000000
40
0.0000000000
40
0.0000000000
40
0.0000000000
40
1.0000000000
40
1.0000000000
40
1.0000000000
40
1.0000000000
10
-28.5908163928
20
-6.1677643449
30
0.0000000000
10
-28.5882314109
20
-6.1667450202
30
0.0000000000
10
-28.5856255127
20
-6.1657790093
30
0.0000000000
10
-28.5830008080
20
-6.1648657637
30
0.0000000000
11
-28.5908163928
21
-6.1677643449
31
0.0000000000
11
-28.5830008080
21
-6.1648657637
31
0.0000000000
0
SPLINE
5
3FC
100
AcDbEntity
8
0
100
AcDbSpline
62
9
6
CONTINUOUS
70
0
71
3
72
13
73
9
74
7
42
0.0000001000
43
0.0000001000
44
0.0000000001
12
-0.6978865498
22
-0.2185389104
32
0.0000000000
13
0.0308130877
23
0.7306541215
33
0.0000000000
40
0.0000000000
40
0.0000000000
40
0.0000000000
40
0.0000000000
40
0.1656836564
40
0.3171911292
40
0.4654884906
40
0.6239766459
40
0.8016431576
40
1.0000000000
40
1.0000000000
40
1.0000000000
40
1.0000000000
10
-0.4849310375
20
-29.2986364489
30
0.0000000000
10
-0.5234738360
20
-29.3107058909
30
0.0000000000
10
-0.6010044376
20
-29.3245529150
30
0.0000000000
10
-0.7154888253
20
-29.3042224841
30
0.0000000000
10
-0.8111392661
20
-29.2406598202
30
0.0000000000
10
-0.8788318354
20
-29.1409403133
30
0.0000000000
10
-0.9162758534
20
-29.0145377066
30
0.0000000000
10
-0.9207960318
20
-28.9221828704
30
0.0000000000
10
-0.9187587029
20
-28.8738727889
30
0.0000000000
11
-0.4849310375
21
-29.2986364489
31
0.0000000000
11
-0.6046007007
21
-29.3176138139
31
0.0000000000
11
-0.7134274905
21
-29.2968071718
31
0.0000000000
11
-0.8040674652
21
-29.2372598661
31
0.0000000000
11
-0.8709455338
21
-29.1425982682
31
0.0000000000
11
-0.9099549438
21
-29.0186644529
31
0.0000000000
11
-0.9187587029
21
-28.8738727889
31
0.0000000000
0
SPLINE
5
3FD
100
AcDbEntity
8
0
100
AcDbSpline
62
9
6
CONTINUOUS
70
0
71
3
72
11
73
7
74
5
42
0.0000001000
43
0.0000001000
44
0.0000000001
12
-0.9144611392
22
0.4609340848
32
0.0000000000
13
0.0435635520
23
1.0171971229
33
0.0000000000
40
0.0000000000
40
0.0000000000
40
0.0000000000
40
0.0000000000
40
0.1798843526
40
0.4217709662
40
0.6938543084
40
1.0000000000
40
1.0000000000
40
1.0000000000
40
1.0000000000
10
-1.6475794580
20
-29.7167378801
30
0.0000000000
10
-1.7024118747
20
-29.6890996036
30
0.0000000000
10
-1.8208361992
20
-29.6034910097
30
0.0000000000
10
-1.9550949740
20
-29.4041702499
30
0.0000000000
10
-2.0343849784
20
-29.1340066467
30
0.0000000000
10
-2.0438568247
20
-28.9362879962
30
0.0000000000
10
-2.0394112267
20
-28.8324844906
30
0.0000000000
11
-1.6475794580
21
-29.7167378801
31
0.0000000000
11
-1.7967310082
21
-29.6096089688
31
0.0000000000
11
-1.9382307374
21
-29.4080458790
31
0.0000000000
11
-2.0208110633
21
-29.1436249956
31
0.0000000000
11
-2.0394112267
21
-28.8324844906
31
0.0000000000
0
SPLINE
5
3FE
100
AcDbEntity
8
0
100
AcDbSpline
62
9
6
CONTINUOUS
70
0
71
3
72
11
73
7
74
5
42
0.0000001000
43
0.0000001000
44
0.0000000001
12
1.5655228890
22
36.8906248438
32
0.0000000000
13
5.3565420164
23
36.5332248906
33
0.0000000000
40
0.0000000000
40
0.0000000000
40
0.0000000000
40
0.0000000000
40
0.2456468227
40
0.4942756109
40
0.7457688452
40
1.0000000000
40
1.0000000000
40
1.0000000000
40
1.0000000000
10
-2.0394112267
20
-28.8324844906
30
0.0000000000
10
-1.9112226522
20
-25.8117962299
30
0.0000000000
10
-1.5706176231
20
-19.7369663029
30
0.0000000000
10
-0.8152645394
20
-10.5882199274
30
0.0000000000
10
0.1868165582
20
-1.3569418612
30
0.0000000000
10
1.0142772318
20
4.8130028647
30
0.0000000000
10
1.4682105193
20
7.9089641816
30
0.0000000000
11
-2.0394112267
21
-28.8324844906
31
0.0000000000
11
-1.5331480568
21
-19.7764033009
31
0.0000000000
11
-0.7791635220
21
-10.6270916719
31
0.0000000000
11
0.2216736750
21
-1.3950904746
31
0.0000000000
11
1.4682105193
21
7.9089641816
31
0.0000000000
0
SPLINE
5
3FF
100
AcDbEntity
8
0
100
AcDbSpline
62
9
6
CONTINUOUS
70
0
71
3
72
11
73
7
74
5
42
0.0000001000
43
0.0000001000
44
0.0000000001
12
1.5612590336
22
36.7922551525
32
0.0000000000
13
5.3423463572
23
36.4357915294
33
0.0000000000
40
0.0000000000
40
0.0000000000
40
0.0000000000
40
0.0000000000
40
0.2456464007
40
0.4942759179
40
0.7457697714
40
1.0000000000
40
1.0000000000
40
1.0000000000
40
1.0000000000
10
-0.9187587029
20
-28.8738727889
30
0.0000000000
10
-0.7909194822
20
-25.8612444377
30
0.0000000000
10
-0.4512351044
20
-19.8026092668
30
0.0000000000
10
0.3020989245
20
-10.6782472530
30
0.0000000000
10
1.3015143666
20
-1.4715809350
30
0.0000000000
10
2.1267807398
20
4.6819054833
30
0.0000000000
10
2.5795093851
20
7.7695986869
30
0.0000000000
11
-0.9187587029
21
-28.8738727889
31
0.0000000000
11
-0.4138641598
21
-19.8419552993
31
0.0000000000
11
0.3381058594
21
-10.7170141952
31
0.0000000000
11
1.3362829300
21
-1.5096093016
31
0.0000000000
11
2.5795093851
21
7.7695986869
31
0.0000000000
0
SPLINE
5
400
100
AcDbEntity
8
0
100
AcDbSpline
62
9
6
CONTINUOUS
70
0
71
3
72
12
73
8
74
6
42
0.0000001000
43
0.0000001000
44
0.0000000001
12
1.0277849140
22
-0.5123381320
32
0.0000000000
13
1.0597600208
23
0.4424261398
33
0.0000000000
40
0.0000000000
40
0.0000000000
40
0.0000000000
40
0.0000000000
40
0.1858283133
40
0.3939327078
40
0.6094748107
40
0.8163737158
40
1.0000000000
40
1.0000000000
40
1.0000000000
40
1.0000000000
10
-2.0394112031
20
-28.8324844803
30
0.0000000000
10
-1.9757473574
20
-28.8642201240
30
0.0000000000
10
-1.8325987602
20
-28.9151940543
30
0.0000000000
10
-1.6023221125
20
-28.9569422218
30
0.0000000000
10
-1.3602378193
20
-28.9659305149
30
0.0000000000
10
-1.1288100986
20
-28.9413366271
30
0.0000000000
10
-0.9836253012
20
-28.9009531449
30
0.0000000000
10
-0.9187587029
20
-28.8738727889
30
0.0000000000
11
-2.0394112031
21
-28.8324844803
31
0.0000000000
11
-1.8394273015
21
-28.9069731774
31
0.0000000000
11
-1.6045086699
21
-28.9508876540
31
0.0000000000
11
-1.3571478575
21
-28.9600232661
31
0.0000000000
11
-1.1210287037
21
-28.9335053141
31
0.0000000000
11
-0.9187587029
21
-28.8738727889
31
0.0000000000
0
SPLINE
5
401
100
AcDbEntity
8
0
100
AcDbSpline
62
9
6
CONTINUOUS
70
0
71
3
72
13
73
9
74
7
42
0.0000001000
43
0.0000001000
44
0.0000000001
12
0.3001062108
22
2.0524883170
32
0.0000000000
13
1.9489639381
23
0.7101489966
33
0.0000000000
40
0.0000000000
40
0.0000000000
40
0.0000000000
40
0.0000000000
40
0.1710460531
40
0.3487413962
40
0.5264899595
40
0.6977350604
40
0.8568248360
40
1.0000000000
40
1.0000000000
40
1.0000000000
40
1.0000000000
10
1.4682105193
20
7.9089641816
30
0.0000000000
10
1.4853211802
20
8.0259875235
30
0.0000000000
10
1.5419304039
20
8.2617469971
30
0.0000000000
10
1.6815840697
20
8.5993496453
30
0.0000000000
10
1.8703689994
20
8.9124258233
30
0.0000000000
10
2.0974212834
20
9.1826134647
30
0.0000000000
10
2.3495161528
20
9.3942246019
30
0.0000000000
10
2.5360942525
20
9.4935567632
30
0.0000000000
10
2.6291086629
20
9.5274486629
30
0.0000000000
11
1.4682105193
21
7.9089641816
31
0.0000000000
11
1.5494860922
21
8.2543327045
31
0.0000000000
11
1.6898478064
21
8.5951572167
31
0.0000000000
11
1.8807068411
21
8.9106203405
31
0.0000000000
11
2.1104447942
21
9.1815424068
31
0.0000000000
11
2.3650955109
21
9.3914334860
31
0.0000000000
11
2.6291086629
21
9.5274486629
31
0.0000000000
0
SPLINE
5
402
100
AcDbEntity
8
0
100
AcDbSpline
62
9
6
CONTINUOUS
70
0
71
3
72
13
73
9
74
7
42
0.0000001000
43
0.0000001000
44
0.0000000001
12
0.1408713574
22
0.9591710811
32
0.0000000000
13
0.9131280144
23
0.3256549268
33
0.0000000000
40
0.0000000000
40
0.0000000000
40
0.0000000000
40
0.0000000000
40
0.1700688215
40
0.3477687952
40
0.5257155755
40
0.6973056234
40
0.8568821509
40
1.0000000000
40
1.0000000000
40
1.0000000000
40
1.0000000000
10
2.5795093851
20
7.7695986869
30
0.0000000000
10
2.5874953270
20
7.8239737186
30
0.0000000000
10
2.6139899348
20
7.9338331127
30
0.0000000000
10
2.6796116961
20
8.0912177467
30
0.0000000000
10
2.7686083681
20
8.2373007698
30
0.0000000000
10
2.8757412601
20
8.3631710703
30
0.0000000000
10
2.9945194550
20
8.4613426687
30
0.0000000000
10
3.0822170807
20
8.5070973334
30
0.0000000000
10
3.1257787198
20
8.5226330110
30
0.0000000000
11
2.5795093851
21
7.7695986869
31
0.0000000000
11
2.6174538034
21
7.9300480411
31
0.0000000000
11
2.6834853197
21
8.0891639401
31
0.0000000000
11
2.7734528815
21
8.2363589293
31
0.0000000000
11
2.8818261238
21
8.3625631076
31
0.0000000000
11
3.0019463705
21
8.4600525636
31
0.0000000000
11
3.1257787198
21
8.5226330110
31
0.0000000000
0
SPLINE
5
403
100
AcDbEntity
8
0
100
AcDbSpline
62
9
6
CONTINUOUS
70
0
71
3
72
12
73
8
74
6
42
0.0000001000
43
0.0000001000
44
0.0000000001
12
1.0170347552
22
-0.5101940497
32
0.0000000000
13
1.1035925083
23
0.2770220882
33
0.0000000000
40
0.0000000000
40
0.0000000000
40
0.0000000000
40
0.0000000000
40
0.1887944433
40
0.4003069144
40
0.6175748590
40
0.8228170148
40
1.0000000000
40
1.0000000000
40
1.0000000000
40
1.0000000000
10
1.4682249446
20
7.9089679898
30
0.0000000000
10
1.5322284480
20
7.8768607226
30
0.0000000000
10
1.6745812264
20
7.8219680652
30
0.0000000000
10
1.9025632560
20
7.7663054813
30
0.0000000000
10
2.1417207760
20
7.7361109729
30
0.0000000000
10
2.3696144939
20
7.7341646840
30
0.0000000000
10
2.5143301134
20
7.7532374867
30
0.0000000000
10
2.5795093850
20
7.7695986869
30
0.0000000000
11
1.4682249446
21
7.9089679898
31
0.0000000000
11
1.6677087878
21
7.8292677898
31
0.0000000000
11
1.9012784641
21
7.7712592873
31
0.0000000000
11
2.1465710024
21
7.7404964628
31
0.0000000000
11
2.3801010343
21
7.7399246810
31
0.0000000000
11
2.5795093850
21
7.7695986869
31
0.0000000000
0
SPLINE
5
404
100
AcDbEntity
8
0
100
AcDbSpline
62
9
6
CONTINUOUS
70
0
71
3
72
12
73
8
74
6
42
0.0000001000
43
0.0000001000
44
0.0000000001
12
1.0452541738
22
-0.5387131599
32
0.0000000000
13
-0.0961498263
23
-1.1719741325
33
0.0000000000
40
0.0000000000
40
0.0000000000
40
0.0000000000
40
0.0000000000
40
0.1779590051
40
0.3765675391
40
0.5874343441
40
0.7991210036
40
1.0000000000
40
1.0000000000
40
1.0000000000
40
1.0000000000
10
2.6291086629
20
9.5274486629
30
0.0000000000
10
2.6911127939
20
9.4954923769
30
0.0000000000
10
2.8106017573
20
9.4045906671
30
0.0000000000
10
2.9542551860
20
9.2223921673
30
0.0000000000
10
3.0622340116
20
9.0021851280
30
0.0000000000
10
3.1245689694
20
8.7643358979
30
0.0000000000
10
3.1322168800
20
8.6011080068
30
0.0000000000
10
3.1257787198
20
8.5226330110
30
0.0000000000
11
2.6291086629
21
9.5274486629
31
0.0000000000
11
2.7979297149
21
9.4037922815
31
0.0000000000
11
2.9444458859
21
9.2219220386
31
0.0000000000
11
3.0543206707
21
8.9996338154
31
0.0000000000
11
3.1168028964
21
8.7586783636
31
0.0000000000
11
3.1257787198
21
8.5226330110
31
0.0000000000
0
SPLINE
5
405
100
AcDbEntity
8
0
100
AcDbSpline
62
9
6
CONTINUOUS
70
0
71
3
72
11
73
7
74
5
42
0.0000001000
43
0.0000001000
44
0.0000000001
12
0.5791545650
22
0.1797288435
32
0.0000000000
13
0.0651404933
23
0.5988775896
33
0.0000000000
40
0.0000000000
40
0.0000000000
40
0.0000000000
40
0.0000000000
40
0.0413208253
40
0.3247167438
40
0.6408842523
40
1.0000000000
40
1.0000000000
40
1.0000000000
40
1.0000000000
10
-0.8014058521
20
-29.7757221124
30
0.0000000000
10
-0.7934288039
20
-29.7732465977
30
0.0000000000
10
-0.7314749503
20
-29.7515533035
30
0.0000000000
10
-0.6231923954
20
-29.6736528497
30
0.0000000000
10
-0.5233009298
20
-29.5044160734
30
0.0000000000
10
-0.4927286965
20
-29.3703252401
30
0.0000000000
10
-0.4849310375
20
-29.2986364489
30
0.0000000000
11
-0.8014058521
21
-29.7757221124
31
0.0000000000
11
-0.7777761260
21
-29.7674377155
31
0.0000000000
11
-0.6374043527
21
-29.6702716009
31
0.0000000000
11
-0.5364984671
21
-29.5087354174
31
0.0000000000
11
-0.4849310375
21
-29.2986364489
31
0.0000000000
0
SPLINE
5
406
100
AcDbEntity
8
0
100
AcDbSpline
62
9
6
CONTINUOUS
70
0
71
3
72
13
73
9
74
7
42
0.0000001000
43
0.0000001000
44
0.0000000001
12
-1.9349519167
22
-0.7326828685
32
0.0000000000
13
-0.2974868586
23
-2.0475264772
33
0.0000000000
40
0.0000000000
40
0.0000000000
40
0.0000000000
40
0.0000000000
40
0.1422054771
40
0.3008482675
40
0.4721001511
40
0.6501914257
40
0.8284150698
40
1.0000000000
40
1.0000000000
40
1.0000000000
40
1.0000000000
10
-27.4228669897
20
24.5534364892
30
0.0000000000
10
-27.5145872432
20
24.5187059836
30
0.0000000000
10
-27.6984755732
20
24.4175999627
30
0.0000000000
10
-27.9464928430
20
24.2040532592
30
0.0000000000
10
-28.1700150192
20
23.9322406531
30
0.0000000000
10
-28.3560154565
20
23.6179348041
30
0.0000000000
10
-28.4937859253
20
23.2795643385
30
0.0000000000
10
-28.5498121258
20
23.0435911104
30
0.0000000000
10
-28.5668268798
20
22.9264828811
30
0.0000000000
11
-27.4228669897
21
24.5534364892
31
0.0000000000
11
-27.6826556063
21
24.4153090446
31
0.0000000000
11
-27.9333586959
21
24.2034441519
31
0.0000000000
11
-28.1596638793
21
23.9308057007
31
0.0000000000
11
-28.3478166268
21
23.6139894333
31
0.0000000000
11
-28.4863640946
21
23.2722577979
31
0.0000000000
11
-28.5668268798
21
22.9264828811
31
0.0000000000
0
SPLINE
5
407
100
AcDbEntity
8
0
100
AcDbSpline
62
9
6
CONTINUOUS
70
0
71
3
72
9
73
5
74
3
42
0.0000001000
43
0.0000001000
44
0.0000000001
12
-0.3207089170
22
0.1555872591
32
0.0000000000
13
-0.3343774325
23
-0.1293441320
33
0.0000000000
40
0.0000000000
40
0.0000000000
40
0.0000000000
40
0.0000000000
40
0.5267386757
40
1.0000000000
40
1.0000000000
40
1.0000000000
40
1.0000000000
10
-27.4228669897
20
24.5534364892
30
0.0000000000
10
-27.4791769198
20
24.5807544315
30
0.0000000000
10
-27.5957853453
20
24.6169634667
30
0.0000000000
10
-27.7178746066
20
24.6013708658
30
0.0000000000
10
-27.7706239088
20
24.5809663407
30
0.0000000000
11
-27.4228669897
21
24.5534364892
31
0.0000000000
11
-27.6035419329
21
24.6045272779
31
0.0000000000
11
-27.7706239088
21
24.5809663407
31
0.0000000000
0
SPLINE
5
408
100
AcDbEntity
8
0
100
AcDbSpline
62
9
6
CONTINUOUS
70
0
71
3
72
11
73
7
74
5
42
0.0000001000
43
0.0000001000
44
0.0000000001
12
-5.2864871989
22
-36.5422943240
32
0.0000000000
13
-1.6365522725
23
-36.8864191543
33
0.0000000000
40
0.0000000000
40
0.0000000000
40
0.0000000000
40
0.0000000000
40
0.2543645142
40
0.5059102828
40
0.7544986929
40
1.0000000000
40
1.0000000000
40
1.0000000000
40
1.0000000000
10
-28.5668268798
20
22.9264828811
30
0.0000000000
10
-29.0150584625
20
19.8281285664
30
0.0000000000
10
-29.8339119440
20
13.6549756044
30
0.0000000000
10
-30.8317046610
20
4.4217874339
30
0.0000000000
10
-31.5912874159
20
-4.7246090216
30
0.0000000000
10
-31.9405233851
20
-10.7964110859
30
0.0000000000
10
-32.0744486258
20
-13.8149657911
30
0.0000000000
11
-28.5668268798
21
22.9264828811
31
0.0000000000
11
-29.8006036780
21
13.6160482019
31
0.0000000000
11
-30.7971858933
21
4.3819195137
31
0.0000000000
11
-31.5554254098
21
-4.7652646244
31
0.0000000000
11
-32.0744486258
21
-13.8149657911
31
0.0000000000
0
SPLINE
5
409
100
AcDbEntity
8
0
100
AcDbSpline
62
9
6
CONTINUOUS
70
0
71
3
72
10
73
6
74
4
42
0.0000001000
43
0.0000001000
44
0.0000000001
12
-0.3301834453
22
0.1645477380
32
0.0000000000
13
0.0406700637
23
0.3708582828
33
0.0000000000
40
0.0000000000
40
0.0000000000
40
0.0000000000
40
0.0000000000
40
0.4704244457
40
0.8127037908
40
1.0000000000
40
1.0000000000
40
1.0000000000
40
1.0000000000
10
-28.5668268543
20
22.9264828879
30
0.0000000000
10
-28.6186023090
20
22.9522853140
30
0.0000000000
10
-28.7038278553
20
23.0041487116
30
0.0000000000
10
-28.7937760577
20
23.0950938271
30
0.0000000000
10
-28.8046942262
20
23.1645385640
30
0.0000000000
10
-28.8021551099
20
23.1876920142
30
0.0000000000
11
-28.5668268543
21
22.9264828879
31
0.0000000000
11
-28.7132037070
21
23.0197136938
31
0.0000000000
11
-28.7923787054
21
23.1180792964
31
0.0000000000
11
-28.8021551099
21
23.1876920142
31
0.0000000000
0
SPLINE
5
40A
100
AcDbEntity
8
0
100
AcDbSpline
62
9
6
CONTINUOUS
70
0
71
3
72
11
73
7
74
5
42
0.0000001000
43
0.0000001000
44
0.0000000001
12
-0.0441877676
22
-1.0102121836
32
0.0000000000
13
0.9086533797
23
-0.4570840782
33
0.0000000000
40
0.0000000000
40
0.0000000000
40
0.0000000000
40
0.0000000000
40
0.3078021438
40
0.5803686060
40
0.8212892778
40
1.0000000000
40
1.0000000000
40
1.0000000000
40
1.0000000000
10
-32.0744486258
20
-13.8149657911
30
0.0000000000
10
-32.0789823223
20
-13.9186142830
30
0.0000000000
10
-32.0700540485
20
-14.1156807736
30
0.0000000000
10
-31.9927670608
20
-14.3847660434
30
0.0000000000
10
-31.8611561857
20
-14.5832297684
30
0.0000000000
10
-31.7442778020
20
-14.6682228062
30
0.0000000000
10
-31.6901491014
20
-14.6954514148
30
0.0000000000
11
-32.0744486258
21
-13.8149657911
31
0.0000000000
11
-32.0566612501
21
-14.1256999022
31
0.0000000000
11
-31.9758951706
21
-14.3892136624
31
0.0000000000
11
-31.8371017286
21
-14.5894236086
31
0.0000000000
11
-31.6901491014
21
-14.6954514148
31
0.0000000000
0
SPLINE
5
40B
100
AcDbEntity
8
0
100
AcDbSpline
62
9
6
CONTINUOUS
70
0
71
3
72
10
73
6
74
4
42
0.0000001000
43
0.0000001000
44
0.0000000001
12
-0.3412649271
22
0.1711483760
32
0.0000000000
13
0.0135144936
23
0.3885667648
33
0.0000000000
40
0.0000000000
40
0.0000000000
40
0.0000000000
40
0.0000000000
40
0.4609675985
40
0.8191981664
40
1.0000000000
40
1.0000000000
40
1.0000000000
40
1.0000000000
10
-32.0744339565
20
-13.8149594272
30
0.0000000000
10
-32.1268713144
20
-13.7886614753
30
0.0000000000
10
-32.2158195079
20
-13.7327365727
30
0.0000000000
10
-32.2987152913
20
-13.6289807736
30
0.0000000000
10
-32.3088024602
20
-13.5583094840
30
0.0000000000
10
-32.3079879785
20
-13.5348916228
30
0.0000000000
11
-32.0744339565
21
-13.8149594272
31
0.0000000000
11
-32.2203125529
21
-13.7165177481
31
0.0000000000
11
-32.2981433009
21
-13.6040597643
31
0.0000000000
11
-32.3079879785
21
-13.5348916228
31
0.0000000000
0
ENDSEC
0
SECTION
2
OBJECTS
0
DICTIONARY
5
40C
100
AcDbDictionary
3
ACAD_GROUP
350
40D
3
ACAD_MLINESTYLE
350
40E
0
DICTIONARY
5
40D
102
{ACAD_REACTORS
330
40C
102
}
100
AcDbDictionary
0
DICTIONARY
5
40E
102
{ACAD_REACTORS
330
40C
102
}
100
AcDbDictionary
3
STANDARD
350
40F
0
MLINESTYLE
5
40F
102
{ACAD_REACTORS
330
40E
102
}
100
AcDbMlineStyle
2
STANDARD
70
0
3

62
256
51
90.0
52
90.0
71
2
49
0.5
62
256
6
BYLAYER
49
-0.5
62
256
6
BYLAYER
0
ENDSEC
0
EOF
