0
SECTION
2
HEADER
9
$ACADVER
1
AC1015
9
$DWGCODEPAGE
3
ANSI_1252
9
$EXTMAX
10
431.8000000000
20
558.8000000000
30
0.0000000000
9
$EXTMIN
10
0.0000000000
20
0.0000000000
30
0.0000000000
9
$LIMMIN
10
0.0000000000
20
0.0000000000
9
$LIMMAX
10
431.8000000000
20
558.8000000000
9
$VIEWCTR
10
215.9000000000
20
279.4000000000
9
$VIEWSIZE
40
558.8000000000
9
$CLAYER
8
0
9
$LTSCALE
40
36.4254814815
9
$CELTYPE
6
BYLAYER
9
$DIMSCALE
40
1
9
$DIMASZ
40
3.0000000000
9
$DIMEXO
40
4.1392592593
9
$DIMDLI
40
25.1666962963
9
$DIMEXE
40
11.9210666667
9
$DIMCEN
40
5.9605333333
9
$DIMLFAC
40
1.0000000000
9
$DIMBLK
1
_FILLED
9
$DIMTXT
40
3.0000000000
9
$DIMTOL
70
1
9
$DIMLIM
70
0
9
$DIMTFAC
40
1.0000000000
9
$DIMTP
40
0.0100000000
9
$DIMTM
40
0.0100000000
9
$PDMODE
70
3
9
$PDSIZE
40
3.0000000000
9
$HANDSEED
5
24A
9
$MEASUREMENT
70
1
9
$INSUNITS
70
4
0
ENDSEC
0
SECTION
2
CLASSES
0
CLASS
1
ACDBDICTIONARYWDFLT
2
AcDbDictionaryWithDefault
3
AutoCAD 2000
90
0
280
0
281
0
0
CLASS
1
ACDBPLACEHOLDER
2
AcDbPlaceHolder
3
AutoCAD 2000
90
0
280
0
281
0
0
CLASS
1
LAYOUT
2
AcDbLayout
3
AutoCAD 2000
90
0
280
0
281
0
0
ENDSEC
0
SECTION
2
TABLES
0
TABLE
2
VPORT
5
8
100
AcDbSymbolTable
70
2
0
VPORT
5
1F4
100
AcDbSymbolTableRecord
100
AcDbViewportTableRecord
2
*ACTIVE
70
0
10
0.0
20
0.0
11
1.0
21
1.0
12
215.9000000000
22
279.4000000000
13
0.0
23
0.0
14
1.0
24
1.0
15
0.0
25
0.0
16
0.0
26
0.0
36
1.0
17
0.0
27
0.0
37
0.0
40
558.8000000000
41
0.7727272727
42
50.0
43
0.0
44
0.0
50
0.0
51
0.0
71
0
72
100
73
1
74
1
75
0
76
0
77
0
78
0
0
ENDTAB
0
TABLE
2
LTYPE
5
5
100
AcDbSymbolTable
70
6
0
LTYPE
5
14
100
AcDbSymbolTableRecord
100
AcDbLinetypeTableRecord
2
BYBLOCK
70
0
3

72
65
73
0
40
0.0
0
LTYPE
5
15
100
AcDbSymbolTableRecord
100
AcDbLinetypeTableRecord
2
BYLAYER
70
0
3

72
65
73
0
40
0.0
0
LTYPE
5
16
100
AcDbSymbolTableRecord
100
AcDbLinetypeTableRecord
2
CONTINUOUS
70
64
3
Solid line
72
65
73
0
40
0
0
LTYPE
5
1F5
100
AcDbSymbolTableRecord
100
AcDbLinetypeTableRecord
2
CENTER
70
64
3
____ _ ____ _ ____ _ ____ _ ____ _ ____ _ ____
72
65
73
4
40
0.6
49
0.375
74
0
49
-0.075
74
0
49
0.075
74
0
49
-0.075
74
0
0
LTYPE
5
1F6
100
AcDbSymbolTableRecord
100
AcDbLinetypeTableRecord
2
HIDDEN
70
64
3
- - - - - - - - - - - - - - - - - - - -
72
65
73
2
40
0.2
49
0.1
74
0
49
-0.1
74
0
0
LTYPE
5
1F7
100
AcDbSymbolTableRecord
100
AcDbLinetypeTableRecord
2
PHANTOM
70
64
3
_____ _ _ _____ _ _ _____ _ _ _____
72
65
73
6
40
0.8
49
0.45
74
0
49
-0.05
74
0
49
0.1
74
0
49
-0.05
74
0
49
0.1
74
0
49
-0.05
74
0
0
LTYPE
5
1F8
100
AcDbSymbolTableRecord
100
AcDbLinetypeTableRecord
2
DOT
70
64
3
. . . . . . . . . . . . . . . . . . . .
72
65
73
2
40
0.2
49
0.1
74
0
49
-0.1
74
0
0
LTYPE
5
1F9
100
AcDbSymbolTableRecord
100
AcDbLinetypeTableRecord
2
DASHED
70
64
3
- - - - - - - - - - - - - - - - - - - -
72
65
73
2
40
0.2
49
0.1
74
0
49
-0.1
74
0
0
ENDTAB
0
TABLE
2
LAYER
5
2
100
AcDbSymbolTable
70
36
0
LAYER
5
10
100
AcDbSymbolTableRecord
100
AcDbLayerTableRecord
2
0
70
0
62
7
6
CONTINUOUS
370
-3
390
F
0
LAYER
5
1FA
100
AcDbSymbolTableRecord
100
AcDbLayerTableRecord
2
DEFAULT_1
70
0
62
7
6
CENTER
370
-3
390
F
0
LAYER
5
1FB
100
AcDbSymbolTableRecord
100
AcDbLayerTableRecord
2
DEFAULT_2
70
0
62
9
6
HIDDEN
370
-3
390
F
0
LAYER
5
1FC
100
AcDbSymbolTableRecord
100
AcDbLayerTableRecord
2
DEFAULT_3
70
0
62
7
6
PHANTOM
370
-3
390
F
0
LAYER
5
1FD
100
AcDbSymbolTableRecord
100
AcDbLayerTableRecord
2
_BLACK_HOLE
70
0
62
7
6
CONTINUOUS
370
-3
390
F
0
LAYER
5
1FE
100
AcDbSymbolTableRecord
100
AcDbLayerTableRecord
2
ASSI
70
0
62
7
6
CONTINUOUS
370
-3
390
F
0
LAYER
5
1FF
100
AcDbSymbolTableRecord
100
AcDbLayerTableRecord
2
COORDINATE
70
0
62
7
6
CONTINUOUS
370
-3
390
F
0
LAYER
5
200
100
AcDbSymbolTableRecord
100
AcDbLayerTableRecord
2
COORD_ORIGINE
70
0
62
7
6
CONTINUOUS
370
-3
390
F
0
LAYER
5
201
100
AcDbSymbolTableRecord
100
AcDbLayerTableRecord
2
CURVE
70
0
62
7
6
CONTINUOUS
370
-3
390
F
0
LAYER
5
202
100
AcDbSymbolTableRecord
100
AcDbLayerTableRecord
2
DRAFT
70
0
62
7
6
CONTINUOUS
370
-3
390
F
0
LAYER
5
203
100
AcDbSymbolTableRecord
100
AcDbLayerTableRecord
2
NOTE
70
0
62
7
6
CONTINUOUS
370
-3
390
F
0
LAYER
5
204
100
AcDbSymbolTableRecord
100
AcDbLayerTableRecord
2
PIANI
70
0
62
7
6
CONTINUOUS
370
-3
390
F
0
LAYER
5
205
100
AcDbSymbolTableRecord
100
AcDbLayerTableRecord
2
PIANI_ORIGINE
70
0
62
7
6
CONTINUOUS
370
-3
390
F
0
LAYER
5
206
100
AcDbSymbolTableRecord
100
AcDbLayerTableRecord
2
PUNTI
70
0
62
7
6
CONTINUOUS
370
-3
390
F
0
LAYER
5
207
100
AcDbSymbolTableRecord
100
AcDbLayerTableRecord
2
RACCORDO
70
0
62
7
6
CONTINUOUS
370
-3
390
F
0
LAYER
5
208
100
AcDbSymbolTableRecord
100
AcDbLayerTableRecord
2
SMUSSO
70
0
62
7
6
CONTINUOUS
370
-3
390
F
0
LAYER
5
209
100
AcDbSymbolTableRecord
100
AcDbLayerTableRecord
2
SUPERFICI
70
0
62
7
6
CONTINUOUS
370
-3
390
F
0
LAYER
5
20A
100
AcDbSymbolTableRecord
100
AcDbLayerTableRecord
2
TRASH
70
0
62
7
6
CONTINUOUS
370
-3
390
F
0
ENDTAB
0
TABLE
2
STYLE
5
3
100
AcDbSymbolTable
70
1
0
STYLE
5
11
100
AcDbSymbolTableRecord
100
AcDbTextStyleTableRecord
2
STANDARD
70
0
40
0.0
41
0.8000000000
50
0.0
71
0
42
0.2
3
txt
4

0
ENDTAB
0
TABLE
2
VIEW
5
6
100
AcDbSymbolTable
70
0
0
ENDTAB
0
TABLE
2
UCS
5
7
100
AcDbSymbolTable
70
0
0
ENDTAB
0
TABLE
2
APPID
5
9
100
AcDbSymbolTable
70
1
0
APPID
5
20B
100
AcDbSymbolTableRecord
100
AcDbRegAppTableRecord
2
ACAD
70
0
0
ENDTAB
0
TABLE
2
BLOCK_RECORD
5
1
100
AcDbSymbolTable
70
0
0
BLOCK_RECORD
5
1F
100
AcDbSymbolTableRecord
100
AcDbBlockTableRecord
2
*MODEL_SPACE
0
BLOCK_RECORD
5
1B
100
AcDbSymbolTableRecord
100
AcDbBlockTableRecord
2
*PAPER_SPACE
0
ENDTAB
0
TABLE
2
DIMSTYLE
5
A
100
AcDbSymbolTable
70
1
100
AcDbDimStyleTable
71
0
0
DIMSTYLE
105
20C
100
AcDbSymbolTableRecord
100
AcDbDimStyleTableRecord
2
STANDARD
70
0
3

4

40
1.0
41
3.0000000000
42
0.0625
43
0.38
44
0.18
45
0.0
46
0.0
47
0.0100000000
48
0.0100000000
140
3.0000000000
141
0.09
142
0.0
143
25.4
144
1.0000000000
145
0.0
146
1.0000000000
147
0.09
71
1
72
0
73
0
74
0
75
0
76
0
77
1
78
8
170
0
171
2
172
0
173
0
174
0
175
0
176
0
177
0
178
0
270
2
271
2
272
2
273
2
274
2
275
0
280
0
281
0
282
0
283
1
284
8
285
0
286
0
287
3
288
0
340
11
0
ENDTAB
0
ENDSEC
0
SECTION
2
BLOCKS
0
BLOCK
5
20
100
AcDbEntity
8
0
100
AcDbBlockBegin
2
*MODEL_SPACE
70
0
10
0.0
20
0.0
30
0.0
3
*MODEL_SPACE
1

0
ENDBLK
5
21
100
AcDbEntity
8
0
100
AcDbBlockEnd
0
BLOCK
5
1C
100
AcDbEntity
8
0
100
AcDbBlockBegin
2
*PAPER_SPACE
70
0
10
0.0
20
0.0
30
0.0
3
*PAPER_SPACE
1

0
ENDBLK
5
1D
100
AcDbEntity
8
0
100
AcDbBlockEnd
0
ENDSEC
0
SECTION
2
ENTITIES
0
LWPOLYLINE
5
20D
100
AcDbEntity
8
0
100
AcDbPolyline
62
0
6
CONTINUOUS
90
19
70
0
10
-9.2063472317
20
21.8794313908
10
-9.2282705170
20
21.8673431002
10
-9.3168974659
20
21.8130493477
10
-9.4019941894
20
21.7521716011
10
-9.4836566346
20
21.6848335047
10
-9.5616509720
20
21.6113889716
10
-9.6353775151
20
21.5325644748
10
-9.7048655281
20
21.4485075383
10
-9.7699794193
20
21.3594320857
10
-9.8299670446
20
21.2664202453
10
-9.8847875490
20
21.1696791685
10
-9.9342930212
20
21.0693852020
10
-9.9778424273
20
20.9668395304
10
-10.0153509583
20
20.8622827589
10
-10.0466702565
20
20.7558581500
10
-10.0713844792
20
20.6487535216
10
-10.0893271019
20
20.5414307102
10
-10.1004131524
20
20.4337527501
10
-10.1021843935
20
20.4049431958
0
LINE
5
20E
100
AcDbEntity
8
0
100
AcDbLine
62
0
6
CONTINUOUS
10
-9.2063957164
20
21.8794178705
11
-5.2757235476
21
24.0001056818
0
LINE
5
20F
100
AcDbEntity
8
0
100
AcDbLine
62
9
6
CONTINUOUS
10
-8.8364092324
20
21.8631316906
11
-4.9096434409
21
23.9817119218
0
LWPOLYLINE
5
210
100
AcDbEntity
8
0
100
AcDbPolyline
62
0
6
CONTINUOUS
90
13
70
0
10
4.6494014865
20
-22.5674957634
10
4.6637378383
20
-22.5745460607
10
4.7501259287
20
-22.6116492252
10
4.8401252222
20
-22.6412572862
10
4.9328810699
20
-22.6629890920
10
5.0278800020
20
-22.6766482283
10
5.1250457504
20
-22.6820616073
10
5.2237818226
20
-22.6789911544
10
5.3233400665
20
-22.6672946248
10
5.4235871292
20
-22.6467713093
10
5.5241407966
20
-22.6171979639
10
5.6241975153
20
-22.5785575605
10
5.6526583101
20
-22.5658263852
0
LINE
5
211
100
AcDbEntity
8
0
100
AcDbLine
62
0
6
CONTINUOUS
10
4.6501938154
20
-22.5678940219
11
-9.4834208495
21
-15.5010866895
0
LINE
5
212
100
AcDbEntity
8
0
100
AcDbLine
62
9
6
CONTINUOUS
10
4.2595779959
20
-21.8410617010
11
-9.8676930455
21
-14.7774261803
0
LINE
5
213
100
AcDbEntity
8
0
100
AcDbLine
62
0
6
CONTINUOUS
10
-3.1811640579
20
-11.1648241898
11
-3.1137247999
21
-11.1935272080
0
LINE
5
214
100
AcDbEntity
8
0
100
AcDbLine
62
0
6
CONTINUOUS
10
-3.1137247999
20
-11.1935272080
11
-3.0958368366
21
-11.2022370692
0
LWPOLYLINE
5
215
100
AcDbEntity
8
0
100
AcDbPolyline
62
0
6
CONTINUOUS
90
31
70
0
10
-3.0957272439
20
-11.2022972838
10
-3.0821921132
20
-11.2091979392
10
-3.0132358780
20
-11.2483485654
10
-2.9439163472
20
-11.2944466080
10
-2.8748289177
20
-11.3472487390
10
-2.8065424505
20
-11.4064027259
10
-2.7396104523
20
-11.4715227861
10
-2.6745530589
20
-11.5421954888
10
-2.6118833507
20
-11.6179096183
10
-2.5521037001
20
-11.6981247536
10
-2.4956735651
20
-11.7823027363
10
-2.4430321868
20
-11.8698027592
10
-2.3946179225
20
-11.9599140397
10
-2.3507919001
20
-12.0519926189
10
-2.3118667940
20
-12.1453322177
10
-2.2781605571
20
-12.2391017762
10
-2.2499285453
20
-12.3324899557
10
-2.2272753132
20
-12.4249073876
10
-2.2102824390
20
-12.5158211690
10
-2.1990905192
20
-12.6042040437
10
-2.1936490297
20
-12.6897364560
10
-2.1939706724
20
-12.7727596050
10
-2.2002636866
20
-12.8529150668
10
-2.2125949941
20
-12.9288855029
10
-2.2307943505
20
-12.9994112076
10
-2.2546387404
20
-13.0637510471
10
-2.2838209888
20
-13.1213910054
10
-2.3177987885
20
-13.1716568935
10
-2.3560039722
20
-13.2141859844
10
-2.3981571900
20
-13.2491818535
10
-2.4447261869
20
-13.2771139252
0
LWPOLYLINE
5
216
100
AcDbEntity
8
0
100
AcDbPolyline
62
0
6
CONTINUOUS
90
15
70
0
10
-10.1020353388
20
-14.4932032040
10
-10.0944665796
20
-14.5812979189
10
-10.0786347192
20
-14.6839521776
10
-10.0558090914
20
-14.7821450989
10
-10.0264387038
20
-14.8754616219
10
-9.9908728518
20
-14.9638955337
10
-9.9492865737
20
-15.0476207173
10
-9.9021220918
20
-15.1262117539
10
-9.8497744902
20
-15.1994630246
10
-9.7922521970
20
-15.2676014623
10
-9.7299927236
20
-15.3302162114
10
-9.6634455777
20
-15.3870066892
10
-9.5925142146
20
-15.4381152315
10
-9.5174543831
20
-15.4832823488
10
-9.4825568741
20
-15.5015168247
0
LINE
5
217
100
AcDbEntity
8
0
100
AcDbLine
62
0
6
CONTINUOUS
10
-10.1020531466
20
-14.4930670469
11
-10.1020455087
21
-14.4932037791
0
LWPOLYLINE
5
218
100
AcDbEntity
8
0
100
AcDbPolyline
62
0
6
CONTINUOUS
90
13
70
0
10
-10.1021833226
20
20.4050826712
10
-10.2435557084
20
17.4805513782
10
-10.3620899745
20
14.5017251328
10
-10.4542963497
20
11.5349651329
10
-10.5201579953
20
8.5806900090
10
-10.5596677034
20
5.6392660887
10
-10.5728204049
20
2.7110393071
10
-10.5596118933
20
-0.2036302541
10
-10.5200432167
20
-3.1043851215
10
-10.4541163154
20
-5.9908829913
10
-10.3618352103
20
-8.8627636817
10
-10.2432135540
20
-11.7196245604
10
-10.1020531466
20
-14.4930670469
0
LINE
5
219
100
AcDbEntity
8
0
100
AcDbLine
62
9
6
CONTINUOUS
10
9.3740858524
20
16.8398472752
11
5.3078008400
21
14.7910266544
0
LINE
5
21A
100
AcDbEntity
8
0
100
AcDbLine
62
9
6
CONTINUOUS
10
9.9396851207
20
15.8643328379
11
5.8734001083
21
13.8155122171
0
LINE
5
21B
100
AcDbEntity
8
0
100
AcDbLine
62
0
6
CONTINUOUS
10
-3.5795214853
20
-11.1612312017
11
-3.5791151135
21
-11.1610282893
0
LINE
5
21C
100
AcDbEntity
8
0
100
AcDbLine
62
0
6
CONTINUOUS
10
9.9396851207
20
-20.2491375397
11
9.9396851207
21
15.8643328379
0
LINE
5
21D
100
AcDbEntity
8
0
100
AcDbLine
62
0
6
CONTINUOUS
10
-3.5602655584
20
-11.3820103728
11
-3.1549450541
21
-11.1759833360
0
LWPOLYLINE
5
21E
100
AcDbEntity
8
0
100
AcDbPolyline
62
0
6
CONTINUOUS
90
8
70
0
10
-3.5791805616
20
-11.1610620094
10
-3.5331863325
20
-11.1419969885
10
-3.4828824366
20
-11.1288258225
10
-3.4288997547
20
-11.1220970222
10
-3.3712696095
20
-11.1221208486
10
-3.3104889084
20
-11.1291409149
10
-3.2469564322
20
-11.1433387294
10
-3.1811640579
20
-11.1648241898
0
LINE
5
21F
100
AcDbEntity
8
0
100
AcDbLine
62
0
6
CONTINUOUS
10
-2.4444308472
20
-13.2769674556
11
-2.4447951970
21
-13.2771494064
0
LINE
5
220
100
AcDbEntity
8
0
100
AcDbLine
62
0
6
CONTINUOUS
10
-2.6712786369
20
-13.1599842158
11
-2.2142329143
21
-12.9352327319
0
LINE
5
221
100
AcDbEntity
8
0
100
AcDbLine
62
9
6
CONTINUOUS
10
4.2595779959
20
13.0638066629
11
-9.8676930455
21
20.1274421836
0
LINE
5
222
100
AcDbEntity
8
0
100
AcDbLine
62
9
6
CONTINUOUS
10
5.3078008400
20
14.7910266544
11
-8.8364092324
21
21.8631316906
0
LINE
5
223
100
AcDbEntity
8
0
100
AcDbLine
62
0
6
CONTINUOUS
10
-4.9096434409
20
23.9817119218
11
9.3740858524
21
16.8398472752
0
LINE
5
224
100
AcDbEntity
8
0
100
AcDbLine
62
9
6
CONTINUOUS
10
5.8734001083
20
-22.1270827104
11
9.9396851207
21
-20.2491375397
0
LINE
5
225
100
AcDbEntity
8
0
100
AcDbLine
62
0
6
CONTINUOUS
10
9.7233737087
20
-20.6858438898
11
5.6526614814
21
-22.5658332712
0
SPLINE
5
226
100
AcDbEntity
8
0
100
AcDbSpline
62
0
6
CONTINUOUS
70
0
71
3
72
12
73
8
74
6
42
0.0000001000
43
0.0000001000
44
0.0000000001
12
-0.4528747374
22
-0.2227004093
32
0.0000000000
13
-0.4513898524
23
0.2256949259
33
0.0000000000
40
0.0000000000
40
0.0000000000
40
0.0000000000
40
0.0000000000
40
0.1794080668
40
0.3651960399
40
0.5623273153
40
0.7737376632
40
1.0000000000
40
1.0000000000
40
1.0000000000
40
1.0000000000
10
-2.6712786337
20
-13.1599842143
30
0.0000000000
10
-2.6983617607
20
-13.1733022976
30
0.0000000000
10
-2.7565092387
20
-13.1946860981
30
0.0000000000
10
-2.8507060775
20
-13.2085350825
30
0.0000000000
10
-2.9511698874
20
-13.2034401973
30
0.0000000000
10
-3.0555899195
20
-13.1787591001
30
0.0000000000
10
-3.1238710735
20
-13.1503366082
30
0.0000000000
10
-3.1579152478
20
-13.1333145211
30
0.0000000000
11
-2.6712786337
21
-13.1599842143
31
0.0000000000
11
-2.7562240533
21
-13.1913223650
31
0.0000000000
11
-2.8489433750
21
-13.2052629578
31
0.0000000000
11
-2.9483238297
21
-13.2006797471
31
0.0000000000
11
-3.0522807081
21
-13.1766753245
31
0.0000000000
11
-3.1579152478
21
-13.1333145211
31
0.0000000000
0
SPLINE
5
227
100
AcDbEntity
8
0
100
AcDbSpline
62
0
6
CONTINUOUS
70
0
71
3
72
21
73
17
74
15
42
0.0000001000
43
0.0000001000
44
0.0000000001
12
-1.8762695167
22
0.9381347570
32
0.0000000000
13
1.8700150799
23
0.9505407709
33
0.0000000000
40
0.0000000000
40
0.0000000000
40
0.0000000000
40
0.0000000000
40
0.0704949838
40
0.1454239482
40
0.2237930952
40
0.3043641553
40
0.3860143777
40
0.4674732349
40
0.5475599691
40
0.6250953574
40
0.6989971853
40
0.7685085366
40
0.8329991935
40
0.8920671813
40
0.9473019338
40
1.0000000000
40
1.0000000000
40
1.0000000000
40
1.0000000000
10
-3.1579152478
20
-13.1333145211
30
0.0000000000
10
-3.2020044442
20
-13.1112699229
30
0.0000000000
10
-3.2889798525
20
-13.0575747308
30
0.0000000000
10
-3.4088669667
20
-12.9562890022
30
0.0000000000
10
-3.5193327546
20
-12.8351302965
30
0.0000000000
10
-3.6174557698
20
-12.6980336159
30
0.0000000000
10
-3.7007981540
20
-12.5490220289
30
0.0000000000
10
-3.7672655337
20
-12.3921245091
30
0.0000000000
10
-3.8150112477
20
-12.2315286072
30
0.0000000000
10
-3.8424684176
20
-12.0715573677
30
0.0000000000
10
-3.8484169911
20
-11.9166698906
30
0.0000000000
10
-3.8320983494
20
-11.7715719903
30
0.0000000000
10
-3.7935984188
20
-11.6413309652
30
0.0000000000
10
-3.7341397559
20
-11.5302226758
30
0.0000000000
10
-3.6562566789
20
-11.4417562915
30
0.0000000000
10
-3.5931142810
20
-11.3987075912
30
0.0000000000
10
-3.5602655548
20
-11.3820103710
30
0.0000000000
11
-3.1579152478
21
-13.1333145211
31
0.0000000000
11
-3.2841963872
21
-13.0563634474
31
0.0000000000
11
-3.4047033782
21
-12.9554480279
31
0.0000000000
11
-3.5158004065
21
-12.8342704486
31
0.0000000000
11
-3.6143814050
21
-12.6969810072
31
0.0000000000
11
-3.6980553248
21
-12.5475298732
31
0.0000000000
11
-3.7646172803
21
-12.3901477958
31
0.0000000000
11
-3.8122201943
21
-12.2290324281
31
0.0000000000
11
-3.8392602155
21
-12.0686473042
31
0.0000000000
11
-3.8445207981
21
-11.9137102750
31
0.0000000000
11
-3.8273442262
21
-11.7689092128
31
0.0000000000
11
-3.7880353304
21
-11.6394618434
31
0.0000000000
11
-3.7287805691
21
-11.5306395940
31
0.0000000000
11
-3.6517197826
21
-11.4441122871
31
0.0000000000
11
-3.5602655548
21
-11.3820103710
31
0.0000000000
0
SPLINE
5
228
100
AcDbEntity
8
0
100
AcDbSpline
62
9
6
CONTINUOUS
70
0
71
3
72
25
73
21
74
19
42
0.0000001000
43
0.0000001000
44
0.0000000001
12
-2.0725215537
22
1.0362607769
32
0.0000000000
13
2.0725215537
23
-1.0362607769
33
0.0000000000
40
0.0000000000
40
0.0000000000
40
0.0000000000
40
0.0000000000
40
0.0512724937
40
0.0982436649
40
0.1419890738
40
0.1838495004
40
0.2256946170
40
0.2697050535
40
0.3173164671
40
0.3692792541
40
0.4260148804
40
0.4869545958
40
0.5513027650
40
0.6180585329
40
0.6859740928
40
0.7538083691
40
0.8202307006
40
0.8841204063
40
0.9441832374
40
1.0000000000
40
1.0000000000
40
1.0000000000
40
1.0000000000
10
-3.1836157138
20
-11.5229356560
30
0.0000000000
10
-3.2190368299
20
-11.5052250980
30
0.0000000000
10
-3.2898869879
20
-11.4766843108
30
0.0000000000
10
-3.3986237293
20
-11.4568250432
30
0.0000000000
10
-3.5020070496
20
-11.4631641303
30
0.0000000000
10
-3.5961165559
20
-11.4964086912
30
0.0000000000
10
-3.6768673948
20
-11.5553642532
30
0.0000000000
10
-3.7413559372
20
-11.6372243277
30
0.0000000000
10
-3.7880716971
20
-11.7387533529
30
0.0000000000
10
-3.8162431379
20
-11.8568169448
30
0.0000000000
10
-3.8253220493
20
-11.9880351352
30
0.0000000000
10
-3.8151344481
20
-12.1286672998
30
0.0000000000
10
-3.7860385692
20
-12.2744715979
30
0.0000000000
10
-3.7389272841
20
-12.4211221357
30
0.0000000000
10
-3.6752044954
20
-12.5642896240
30
0.0000000000
10
-3.5967890008
20
-12.6996729128
30
0.0000000000
10
-3.5060025954
20
-12.8232714344
30
0.0000000000
10
-3.4056615605
20
-12.9312558604
30
0.0000000000
10
-3.2987797734
20
-13.0204845804
30
0.0000000000
10
-3.2221761950
20
-13.0676223082
30
0.0000000000
10
-3.1836157138
20
-13.0869025488
30
0.0000000000
11
-3.1836157138
21
-11.5229356560
31
0.0000000000
11
-3.2941835475
21
-11.4794658027
31
0.0000000000
11
-3.4014342416
21
-11.4609383611
31
0.0000000000
11
-3.5025514766
21
-11.4680163485
31
0.0000000000
11
-3.5939061529
21
-11.5006156669
31
0.0000000000
11
-3.6724576765
21
-11.5574590463
31
0.0000000000
11
-3.7362795130
21
-11.6369979753
31
0.0000000000
11
-3.7833521279
21
-11.7367741320
31
0.0000000000
11
-3.8122354148
21
-11.8536640448
31
0.0000000000
11
-3.8221020806
21
-11.9847581973
31
0.0000000000
11
-3.8124933800
21
-12.1256373289
31
0.0000000000
11
-3.7837121176
21
-12.2719375011
31
0.0000000000
11
-3.7366222685
21
-12.4192786242
31
0.0000000000
11
-3.6726919508
21
-12.5630784551
31
0.0000000000
11
-3.5938314370
21
-12.6990462875
31
0.0000000000
11
-3.5025097435
21
-12.8229364911
31
0.0000000000
11
-3.4014223710
21
-12.9310927554
31
0.0000000000
11
-3.2941846305
21
-13.0198036654
31
0.0000000000
11
-3.1836157138
21
-13.0869025488
31
0.0000000000
0
SPLINE
5
229
100
AcDbEntity
8
0
100
AcDbSpline
62
9
6
CONTINUOUS
70
0
71
3
72
11
73
7
74
5
42
0.0000001000
43
0.0000001000
44
0.0000000001
12
-0.4144748990
22
0.2072374495
32
0.0000000000
13
-0.4144096225
23
-0.2104878928
33
0.0000000000
40
0.0000000000
40
0.0000000000
40
0.0000000000
40
0.0000000000
40
0.2822094926
40
0.5407450665
40
0.7815249077
40
1.0000000000
40
1.0000000000
40
1.0000000000
40
1.0000000000
10
-3.1135641272
20
-11.4091283439
30
0.0000000000
10
-3.1525537109
20
-11.3896335521
30
0.0000000000
10
-3.2305420341
20
-11.3582184074
30
0.0000000000
10
-3.3502332215
20
-11.3363563302
30
0.0000000000
10
-3.4621716486
20
-11.3432212202
30
0.0000000000
10
-3.5300857126
20
-11.3666824732
30
0.0000000000
10
-3.5602651061
20
-11.3820112604
30
0.0000000000
11
-3.1135641272
21
-11.4091283439
31
0.0000000000
11
-3.2352711669
21
-11.3612795471
31
0.0000000000
11
-3.3533270495
21
-11.3408845840
31
0.0000000000
11
-3.4646313346
21
-11.3486760938
31
0.0000000000
11
-3.5602651061
21
-11.3820112604
31
0.0000000000
0
SPLINE
5
22A
100
AcDbEntity
8
0
100
AcDbSpline
62
9
6
CONTINUOUS
70
0
71
3
72
25
73
21
74
19
42
0.0000001000
43
0.0000001000
44
0.0000000001
12
2.0725215516
22
-1.0362607758
32
0.0000000000
13
-2.0725215516
23
1.0362607758
33
0.0000000000
40
0.0000000000
40
0.0000000000
40
0.0000000000
40
0.0000000000
40
0.0512725121
40
0.0982436376
40
0.1419890707
40
0.1838494926
40
0.2256946123
40
0.2697050500
40
0.3173164650
40
0.3692792524
40
0.4260148793
40
0.4869545948
40
0.5513027642
40
0.6180585321
40
0.6859740920
40
0.7538083686
40
0.8202306995
40
0.8841204102
40
0.9441832256
40
1.0000000000
40
1.0000000000
40
1.0000000000
40
1.0000000000
10
-3.1836157138
20
-13.0869025488
30
0.0000000000
10
-3.1481945850
20
-13.1046131132
30
0.0000000000
10
-3.0773444174
20
-13.1331537970
30
0.0000000000
10
-2.9686077110
20
-13.1530132342
30
0.0000000000
10
-2.8652244055
20
-13.1466740666
30
0.0000000000
10
-2.7711148833
20
-13.1134295239
30
0.0000000000
10
-2.6903640437
20
-13.0544739566
30
0.0000000000
10
-2.6258754981
20
-12.9726138811
30
0.0000000000
10
-2.5791597340
20
-12.8710848548
30
0.0000000000
10
-2.5509882930
20
-12.7530212613
30
0.0000000000
10
-2.5419093786
20
-12.6218030704
30
0.0000000000
10
-2.5520969798
20
-12.4811709052
30
0.0000000000
10
-2.5811928581
20
-12.3353666068
30
0.0000000000
10
-2.6283041456
20
-12.1887160703
30
0.0000000000
10
-2.6920269303
20
-12.0455485787
30
0.0000000000
10
-2.7704424420
20
-11.9101653038
30
0.0000000000
10
-2.8612288133
20
-11.7865667456
30
0.0000000000
10
-2.9615699254
20
-11.6785824134
30
0.0000000000
10
-3.0684515931
20
-11.5893535454
30
0.0000000000
10
-3.1450552246
20
-11.5422159007
30
0.0000000000
10
-3.1836157138
20
-11.5229356560
30
0.0000000000
11
-3.1836157138
21
-13.0869025488
31
0.0000000000
11
-3.0730478232
21
-13.1303723737
31
0.0000000000
11
-2.9657972469
21
-13.1488998741
31
0.0000000000
11
-2.8646799578
21
-13.1418218597
31
0.0000000000
11
-2.7733252914
21
-13.1092225463
31
0.0000000000
11
-2.6947737612
21
-13.0523791635
31
0.0000000000
11
-2.6309519221
21
-12.9728402332
31
0.0000000000
11
-2.5838793037
21
-12.8730640748
31
0.0000000000
11
-2.5549960157
21
-12.7561741614
31
0.0000000000
11
-2.5451293479
21
-12.6250800080
31
0.0000000000
11
-2.5547380478
21
-12.4842008760
31
0.0000000000
11
-2.5835193101
21
-12.3379007037
31
0.0000000000
11
-2.6306091600
21
-12.1905595811
31
0.0000000000
11
-2.6945394785
21
-12.0467597505
31
0.0000000000
11
-2.7733999971
21
-11.9107919205
31
0.0000000000
11
-2.8647216830
21
-11.7869017132
31
0.0000000000
11
-2.9658090916
21
-11.6787454669
31
0.0000000000
11
-3.0730467516
21
-11.5900345167
31
0.0000000000
11
-3.1836157138
21
-11.5229356560
31
0.0000000000
0
SPLINE
5
22B
100
AcDbEntity
8
0
100
AcDbSpline
62
9
6
CONTINUOUS
70
0
71
3
72
22
73
18
74
16
42
0.0000001000
43
0.0000001000
44
0.0000000001
12
1.8835339573
22
0.9252337515
32
0.0000000000
13
-1.8712314267
23
0.9356157135
33
0.0000000000
40
0.0000000000
40
0.0000000000
40
0.0000000000
40
0.0000000000
40
0.0049868040
40
0.0560024572
40
0.1096579654
40
0.1677036206
40
0.2310542651
40
0.3002237368
40
0.3745186371
40
0.4529689665
40
0.5343545292
40
0.6171540578
40
0.6998544928
40
0.7808335415
40
0.8587249867
40
0.9319507036
40
1.0000000000
40
1.0000000000
40
1.0000000000
40
1.0000000000
10
-2.6712641972
20
-13.1599738480
30
0.0000000000
10
-2.6681332590
20
-13.1584358615
30
0.0000000000
10
-2.6332187956
20
-13.1406661715
30
0.0000000000
10
-2.5706194027
20
-13.0949626697
30
0.0000000000
10
-2.4996338995
20
-13.0048555639
30
0.0000000000
10
-2.4482117529
20
-12.8930978788
30
0.0000000000
10
-2.4172021517
20
-12.7631398748
30
0.0000000000
10
-2.4072085970
20
-12.6187019976
30
0.0000000000
10
-2.4184225549
20
-12.4639017350
30
0.0000000000
10
-2.4504497238
20
-12.3034082722
30
0.0000000000
10
-2.5023072606
20
-12.1419833078
30
0.0000000000
10
-2.5724498695
20
-11.9843923139
30
0.0000000000
10
-2.6587653171
20
-11.8353696699
30
0.0000000000
10
-2.7586982592
20
-11.6993192520
30
0.0000000000
10
-2.8691477898
20
-11.5804554607
30
0.0000000000
10
-2.9867980788
20
-11.4822380976
30
0.0000000000
10
-3.0711187999
20
-11.4303510076
30
0.0000000000
10
-3.1135641272
20
-11.4091283439
30
0.0000000000
11
-2.6712641972
21
-13.1599738480
31
0.0000000000
11
-2.6619386114
21
-13.1552270412
31
0.0000000000
11
-2.5754733688
21
-13.0926568730
31
0.0000000000
11
-2.5052217583
21
-13.0051047092
31
0.0000000000
11
-2.4534067909
21
-12.8952765006
31
0.0000000000
11
-2.4216136398
21
-12.7666104150
31
0.0000000000
11
-2.4107529603
21
-12.6223090715
31
0.0000000000
11
-2.4213297002
21
-12.4672369619
31
0.0000000000
11
-2.4530105532
21
-12.3061976670
31
0.0000000000
11
-2.5048445013
21
-12.1440125494
31
0.0000000000
11
-2.5752155255
21
-11.9857254922
31
0.0000000000
11
-2.6620208876
21
-11.8360594583
31
0.0000000000
11
-2.7625428781
21
-11.6996878688
31
0.0000000000
11
-2.8738143239
21
-11.5806351180
31
0.0000000000
11
-2.9918558785
21
-11.4829874503
31
0.0000000000
11
-3.1135641272
21
-11.4091283439
31
0.0000000000
0
SPLINE
5
22C
100
AcDbEntity
8
0
100
AcDbSpline
62
0
6
CONTINUOUS
70
0
71
3
72
11
73
7
74
5
42
0.0000001000
43
0.0000001000
44
0.0000000001
12
0.3360387486
22
0.1811604896
32
0.0000000000
13
0.3399310084
23
-0.1699655042
33
0.0000000000
40
0.0000000000
40
0.0000000000
40
0.0000000000
40
0.0000000000
40
0.1476291787
40
0.4079855042
40
0.6894667574
40
1.0000000000
40
1.0000000000
40
1.0000000000
40
1.0000000000
10
-5.2756665519
20
24.0000984916
30
0.0000000000
10
-5.2591301771
20
24.0090133497
30
0.0000000000
10
-5.2111428578
20
24.0294272157
30
0.0000000000
10
-5.1233320795
20
24.0421533295
30
0.0000000000
10
-5.0152557766
20
24.0269003134
30
0.0000000000
10
-4.9448300670
20
23.9993052349
30
0.0000000000
10
-4.9096434409
20
23.9817119218
30
0.0000000000
11
-5.2756665519
21
24.0000984916
31
0.0000000000
11
-5.2238815226
21
24.0220999542
31
0.0000000000
11
-5.1260933035
21
24.0372155793
31
0.0000000000
11
-5.0199880785
21
24.0235768336
31
0.0000000000
11
-4.9096434409
21
23.9817119218
31
0.0000000000
0
SPLINE
5
22D
100
AcDbEntity
8
0
100
AcDbSpline
62
0
6
CONTINUOUS
70
0
71
3
72
15
73
11
74
9
42
0.0000001000
43
0.0000001000
44
0.0000000001
12
1.0529012362
22
-0.5264506181
32
0.0000000000
13
0.0000000000
23
-1.1771793689
33
0.0000000000
40
0.0000000000
40
0.0000000000
40
0.0000000000
40
0.0000000000
40
0.1103204576
40
0.2298794375
40
0.3567631406
40
0.4883331404
40
0.6215375494
40
0.7531878700
40
0.8802255292
40
1.0000000000
40
1.0000000000
40
1.0000000000
40
1.0000000000
10
9.3740858524
20
16.8398472752
30
0.0000000000
10
9.4128047011
20
16.8204878508
30
0.0000000000
10
9.4895492911
20
16.7720390492
30
0.0000000000
10
9.5949440533
20
16.6792027541
30
0.0000000000
10
9.6919898038
20
16.5664479091
30
0.0000000000
10
9.7770555180
20
16.4379982286
30
0.0000000000
10
9.8469970923
20
16.2986437018
30
0.0000000000
10
9.8991944573
20
16.1535828438
30
0.0000000000
10
9.9316938433
20
16.0082771771
30
0.0000000000
10
9.9396851207
20
15.9113315165
30
0.0000000000
10
9.9396851207
20
15.8643328379
30
0.0000000000
11
9.3740858524
21
16.8398472752
31
0.0000000000
11
9.4844305431
21
16.7713675099
31
0.0000000000
11
9.5905358735
21
16.6789009104
31
0.0000000000
11
9.6883241771
21
16.5659969055
31
0.0000000000
11
9.7740355004
21
16.4369936312
31
0.0000000000
11
9.8443746514
21
16.2968495515
31
0.0000000000
11
9.8966383808
21
16.1509520670
31
0.0000000000
11
9.9288196683
21
16.0049095931
31
0.0000000000
11
9.9396851207
21
15.8643328379
31
0.0000000000
0
SPLINE
5
22E
100
AcDbEntity
8
0
100
AcDbSpline
62
0
6
CONTINUOUS
70
0
71
3
72
12
73
8
74
6
42
0.0000001000
43
0.0000001000
44
0.0000000001
12
0.0000000000
22
-0.5133412239
32
0.0000000000
13
-0.4680310168
23
-0.2163953320
33
0.0000000000
40
0.0000000000
40
0.0000000000
40
0.0000000000
40
0.0000000000
40
0.2535655461
40
0.4840588791
40
0.6929500479
40
0.8859943092
40
1.0000000000
40
1.0000000000
40
1.0000000000
40
1.0000000000
10
9.9396851207
20
-20.2491375397
30
0.0000000000
10
9.9396851207
20
-20.2925260890
30
0.0000000000
10
9.9333818630
20
-20.3755936788
30
0.0000000000
10
9.9021249188
20
-20.4908349650
30
0.0000000000
10
9.8499970802
20
-20.5870288195
30
0.0000000000
10
9.7869572430
20
-20.6507950425
30
0.0000000000
10
9.7411811592
20
-20.6775752207
30
0.0000000000
10
9.7233950928
20
-20.6857986538
30
0.0000000000
11
9.9396851207
21
-20.2491375397
31
0.0000000000
11
9.9288196578
21
-20.3788489023
31
0.0000000000
11
9.8966383152
21
-20.4927101902
31
0.0000000000
11
9.8443744890
21
-20.5863440005
31
0.0000000000
11
9.7740352578
21
-20.6561488886
31
0.0000000000
11
9.7233950928
21
-20.6857986538
31
0.0000000000
0
SPLINE
5
22F
100
AcDbEntity
8
0
100
AcDbSpline
62
9
6
CONTINUOUS
70
0
71
3
72
11
73
7
74
5
42
0.0000001000
43
0.0000001000
44
0.0000000001
12
-0.7683405240
22
0.3852968842
32
0.0000000000
13
-0.0479696286
23
0.8544055467
33
0.0000000000
40
0.0000000000
40
0.0000000000
40
0.0000000000
40
0.0000000000
40
0.1945970309
40
0.4356946443
40
0.7025522585
40
1.0000000000
40
1.0000000000
40
1.0000000000
40
1.0000000000
10
-9.4834009372
20
-15.5010735627
30
0.0000000000
10
-9.5332398654
20
-15.4760810195
30
0.0000000000
10
-9.6364047666
20
-15.4030416611
30
0.0000000000
10
-9.7579547770
20
-15.2396839608
30
0.0000000000
10
-9.8401260396
20
-15.0227191462
30
0.0000000000
10
-9.8629368929
20
-14.8621398470
30
0.0000000000
10
-9.8676930455
20
-14.7774261803
30
0.0000000000
11
-9.4834009372
21
-15.5010735627
31
0.0000000000
11
-9.6198516817
21
-15.4051978510
31
0.0000000000
11
-9.7453745578
21
-15.2414548751
31
0.0000000000
11
-9.8292311473
21
-15.0290447790
31
0.0000000000
11
-9.8676930455
21
-14.7774261803
31
0.0000000000
0
SPLINE
5
230
100
AcDbEntity
8
0
100
AcDbSpline
62
9
6
CONTINUOUS
70
0
71
3
72
8
73
4
74
2
42
0.0000001000
43
0.0000001000
44
0.0000000001
12
0.0758270502
22
-0.0379283684
32
0.0000000000
13
0.0729354582
23
-0.0434413220
33
0.0000000000
40
0.0000000000
40
0.0000000000
40
0.0000000000
40
0.0000000000
40
1.0000000000
40
1.0000000000
40
1.0000000000
40
1.0000000000
10
-3.1217161976
20
-11.1515149447
30
0.0000000000
10
-3.0964405142
20
-11.1641577341
30
0.0000000000
10
-3.0716424173
20
-11.1777800981
30
0.0000000000
10
-3.0473305979
20
-11.1922605387
30
0.0000000000
11
-3.1217161976
21
-11.1515149447
31
0.0000000000
11
-3.0473305979
21
-11.1922605387
31
0.0000000000
0
SPLINE
5
231
100
AcDbEntity
8
0
100
AcDbSpline
62
9
6
CONTINUOUS
70
0
71
3
72
15
73
11
74
9
42
0.0000001000
43
0.0000001000
44
0.0000000001
12
1.7365286958
22
-1.0342994211
32
0.0000000000
13
-0.2532727215
23
-2.0082085229
33
0.0000000000
40
0.0000000000
40
0.0000000000
40
0.0000000000
40
0.0000000000
40
0.0874690348
40
0.2305469707
40
0.3825393740
40
0.5378397089
40
0.6908563626
40
0.8358156470
40
0.9682440494
40
1.0000000000
40
1.0000000000
40
1.0000000000
40
1.0000000000
10
-3.0473305979
20
-11.1922605387
30
0.0000000000
10
-2.9966997683
20
-11.2224169294
30
0.0000000000
10
-2.8688081343
20
-11.3117108328
30
0.0000000000
10
-2.6818176071
20
-11.4901225957
30
0.0000000000
10
-2.4965358240
20
-11.7313499563
30
0.0000000000
10
-2.3441139287
20
-12.0021420529
30
0.0000000000
10
-2.2329603838
20
-12.2873124496
30
0.0000000000
10
-2.1692545250
20
-12.5710967046
30
0.0000000000
10
-2.1593980526
20
-12.7801493283
30
0.0000000000
10
-2.1698632368
20
-12.8904923138
30
0.0000000000
10
-2.1725442088
20
-12.9117498373
30
0.0000000000
11
-3.0473305979
21
-11.1922605387
31
0.0000000000
11
-2.9018436469
21
-11.2927969054
31
0.0000000000
11
-2.6915460218
21
-11.4907681252
31
0.0000000000
11
-2.5039311885
21
-11.7335372834
31
0.0000000000
11
-2.3500778157
21
-12.0066809086
31
0.0000000000
11
-2.2386229036
21
-12.2947555556
31
0.0000000000
11
-2.1761971405
21
-12.5806381888
31
0.0000000000
11
-2.1664022916
21
-12.8477824480
31
0.0000000000
11
-2.1725442088
21
-12.9117498373
31
0.0000000000
0
SPLINE
5
232
100
AcDbEntity
8
0
100
AcDbSpline
62
9
6
CONTINUOUS
70
0
71
3
72
8
73
4
74
2
42
0.0000001000
43
0.0000001000
44
0.0000000001
12
-0.0122096664
22
-0.0968108840
32
0.0000000000
13
-0.0220212189
23
-0.0950210802
33
0.0000000000
40
0.0000000000
40
0.0000000000
40
0.0000000000
40
0.0000000000
40
1.0000000000
40
1.0000000000
40
1.0000000000
40
1.0000000000
10
-2.1725442088
20
-12.9117498373
30
0.0000000000
10
-2.1766140976
20
-12.9440201320
30
0.0000000000
10
-2.1821976724
20
-12.9760954130
30
0.0000000000
10
-2.1895380788
20
-13.0077691064
30
0.0000000000
11
-2.1725442088
21
-12.9117498373
31
0.0000000000
11
-2.1895380788
21
-13.0077691064
31
0.0000000000
0
SPLINE
5
233
100
AcDbEntity
8
0
100
AcDbSpline
62
9
6
CONTINUOUS
70
0
71
3
72
10
73
6
74
4
42
0.0000001000
43
0.0000001000
44
0.0000000001
12
-0.0783887646
22
-0.3382458122
32
0.0000000000
13
-0.2432526705
23
-0.2502579156
33
0.0000000000
40
0.0000000000
40
0.0000000000
40
0.0000000000
40
0.0000000000
40
0.2173799518
40
0.8158739177
40
1.0000000000
40
1.0000000000
40
1.0000000000
40
1.0000000000
10
-2.1895380788
20
-13.0077691064
30
0.0000000000
10
-2.1952181274
20
-13.0322783926
30
0.0000000000
10
-2.2204847625
20
-13.1233645367
30
0.0000000000
10
-2.2715612814
20
-13.2292026880
30
0.0000000000
10
-2.3308477419
20
-13.2985587644
30
0.0000000000
10
-2.3457774623
20
-13.3139184342
30
0.0000000000
11
-2.1895380788
21
-13.0077691064
31
0.0000000000
11
-2.2098467246
21
-13.0804798694
31
0.0000000000
11
-2.3040202318
21
-13.2651782629
31
0.0000000000
11
-2.3457774623
21
-13.3139184342
31
0.0000000000
0
SPLINE
5
234
100
AcDbEntity
8
0
100
AcDbSpline
62
9
6
CONTINUOUS
70
0
71
3
72
11
73
7
74
5
42
0.0000001000
43
0.0000001000
44
0.0000000001
12
-0.5239871008
22
-0.5390769991
32
0.0000000000
13
-0.6674968445
23
0.3335294649
33
0.0000000000
40
0.0000000000
40
0.0000000000
40
0.0000000000
40
0.0000000000
40
0.1662302747
40
0.4160816354
40
0.6893601309
40
1.0000000000
40
1.0000000000
40
1.0000000000
40
1.0000000000
10
-2.3457774623
20
-13.3139184342
30
0.0000000000
10
-2.3748116355
20
-13.3437887401
30
0.0000000000
10
-2.4567763684
20
-13.4094899278
30
0.0000000000
10
-2.6244217347
20
-13.4645791118
30
0.0000000000
10
-2.8352340389
20
-13.4504093548
30
0.0000000000
10
-2.9728028945
20
-13.3985695204
30
0.0000000000
10
-3.0419199386
20
-13.3640336706
30
0.0000000000
11
-2.3457774623
21
-13.3139184342
31
0.0000000000
11
-2.4433717462
21
-13.3911062930
31
0.0000000000
11
-2.6198763428
21
-13.4511427841
31
0.0000000000
11
-2.8235817568
21
-13.4418633228
31
0.0000000000
11
-3.0419199386
21
-13.3640336706
31
0.0000000000
0
SPLINE
5
235
100
AcDbEntity
8
0
100
AcDbSpline
62
9
6
CONTINUOUS
70
0
71
3
72
10
73
6
74
4
42
0.0000001000
43
0.0000001000
44
0.0000000001
12
-0.4908824591
22
-0.2434841293
32
0.0000000000
13
-0.4874218676
23
0.2436396020
33
0.0000000000
40
0.0000000000
40
0.0000000000
40
0.0000000000
40
0.0000000000
40
0.2622256679
40
0.6070860793
40
1.0000000000
40
1.0000000000
40
1.0000000000
40
1.0000000000
10
-2.4448136720
20
-13.2771121594
30
0.0000000000
10
-2.4877209989
20
-13.2983947556
30
0.0000000000
10
-2.5959090822
20
-13.3303438311
30
0.0000000000
10
-2.7805336437
20
-13.3177513831
30
0.0000000000
10
-2.9074514121
20
-13.2698963727
30
0.0000000000
10
-2.9712896911
20
-13.2379865756
30
0.0000000000
11
-2.4448136720
21
-13.2771121594
31
0.0000000000
11
-2.5819095318
21
-13.3186078709
31
0.0000000000
11
-2.7696312125
21
-13.3099303535
31
0.0000000000
11
-2.9712896911
21
-13.2379865756
31
0.0000000000
0
SPLINE
5
236
100
AcDbEntity
8
0
100
AcDbSpline
62
9
6
CONTINUOUS
70
0
71
3
72
14
73
10
74
8
42
0.0000001000
43
0.0000001000
44
0.0000000001
12
-0.8760305503
22
-0.4415683885
32
0.0000000000
13
-0.0535075386
23
-0.9795657763
33
0.0000000000
40
0.0000000000
40
0.0000000000
40
0.0000000000
40
0.0000000000
40
0.1272837545
40
0.2657633808
40
0.4122468219
40
0.5629877009
40
0.7140274719
40
0.8610772845
40
1.0000000000
40
1.0000000000
40
1.0000000000
40
1.0000000000
10
5.8734001083
20
13.8155122171
30
0.0000000000
10
5.8362319559
20
13.7967773896
30
0.0000000000
10
5.7626438689
20
13.7494376063
30
0.0000000000
10
5.6626903077
20
13.6582392967
30
0.0000000000
10
5.5722656931
20
13.5475147270
30
0.0000000000
10
5.4954429001
20
13.4221768240
30
0.0000000000
10
5.4355642111
20
13.2876987627
30
0.0000000000
10
5.3952825482
20
13.1501438733
30
0.0000000000
10
5.3821901770
20
13.0570960711
30
0.0000000000
10
5.3797123728
20
13.0117347585
30
0.0000000000
11
5.8734001083
21
13.8155122171
31
0.0000000000
11
5.7678429805
21
13.7488047914
31
0.0000000000
11
5.6669811056
21
13.6577955502
31
0.0000000000
11
5.5757596377
21
13.5467572451
31
0.0000000000
11
5.4983529498
21
13.4207536103
31
0.0000000000
11
5.4381876808
21
13.2853443745
31
0.0000000000
11
5.3980414274
21
13.1467834145
31
0.0000000000
11
5.3797123728
21
13.0117347585
31
0.0000000000
0
SPLINE
5
237
100
AcDbEntity
8
0
100
AcDbSpline
62
9
6
CONTINUOUS
70
0
71
3
72
14
73
10
74
8
42
0.0000001000
43
0.0000001000
44
0.0000000001
12
-1.8683034221
22
-0.9588347079
32
0.0000000000
13
-0.1132864668
23
-2.0969234251
33
0.0000000000
40
0.0000000000
40
0.0000000000
40
0.0000000000
40
0.0000000000
40
0.1273091362
40
0.2654536817
40
0.4117264012
40
0.5623433248
40
0.7133475617
40
0.8604623492
40
1.0000000000
40
1.0000000000
40
1.0000000000
40
1.0000000000
10
5.3078008400
20
14.7910266544
30
0.0000000000
10
5.2285168084
20
14.7503371816
30
0.0000000000
10
5.0719908807
20
14.6478500695
30
0.0000000000
10
4.8597985633
20
14.4512742223
30
0.0000000000
10
4.6681287164
20
14.2133452115
30
0.0000000000
10
4.5052930284
20
13.9443928203
30
0.0000000000
10
4.3783220155
20
13.6560891688
30
0.0000000000
10
4.2927366142
20
13.3610069076
30
0.0000000000
10
4.2648472384
20
13.1613399191
30
0.0000000000
10
4.2595779959
20
13.0638066629
30
0.0000000000
11
5.3078008400
21
14.7910266544
31
0.0000000000
11
5.0829154253
21
14.6464553292
31
0.0000000000
11
4.8690056404
21
14.4504931486
31
0.0000000000
11
4.6755937593
21
14.2118611249
31
0.0000000000
11
4.5114963595
21
13.9414667185
31
0.0000000000
11
4.3839063782
21
13.6511615973
31
0.0000000000
11
4.2986737085
21
13.3542133331
31
0.0000000000
11
4.2595779959
21
13.0638066629
31
0.0000000000
0
SPLINE
5
238
100
AcDbEntity
8
0
100
AcDbSpline
62
9
6
CONTINUOUS
70
0
71
3
72
12
73
8
74
6
42
0.0000001000
43
0.0000001000
44
0.0000000001
12
-0.0171191057
22
1.1726566176
32
0.0000000000
13
-1.0413034517
23
0.5395402932
33
0.0000000000
40
0.0000000000
40
0.0000000000
40
0.0000000000
40
0.0000000000
40
0.1949325796
40
0.4051291899
40
0.6178337702
40
0.8197632437
40
1.0000000000
40
1.0000000000
40
1.0000000000
40
1.0000000000
10
5.8734001083
20
13.8155122171
30
0.0000000000
10
5.8722877512
20
13.8917085436
30
0.0000000000
10
5.8492758802
20
14.0499992023
30
0.0000000000
10
5.7678513355
20
14.2787145021
30
0.0000000000
10
5.6449773492
20
14.4915096849
30
0.0000000000
10
5.4921442495
20
14.6685788115
30
0.0000000000
10
5.3703612274
20
14.7586116579
30
0.0000000000
10
5.3078008419
20
14.7910266553
30
0.0000000000
11
5.8734001083
21
13.8155122171
31
0.0000000000
11
5.8431093690
21
14.0421099414
31
0.0000000000
11
5.7614054773
21
14.2746910594
31
0.0000000000
11
5.6362823654
21
14.4904977053
31
0.0000000000
11
5.4799828634
21
14.6684128041
31
0.0000000000
11
5.3078008419
21
14.7910266553
31
0.0000000000
0
SPLINE
5
239
100
AcDbEntity
8
0
100
AcDbSpline
62
9
6
CONTINUOUS
70
0
71
3
72
11
73
7
74
5
42
0.0000001000
43
0.0000001000
44
0.0000000001
12
-1.8939805756
22
-34.7772363316
32
0.0000000000
13
1.9987801028
23
-34.7713705134
33
0.0000000000
40
0.0000000000
40
0.0000000000
40
0.0000000000
40
0.0000000000
40
0.2550064391
40
0.5067362430
40
0.7550950928
40
1.0000000000
40
1.0000000000
40
1.0000000000
40
1.0000000000
10
5.3797123728
20
13.0117347585
30
0.0000000000
10
5.2187199587
20
10.0555950259
30
0.0000000000
10
4.9761598442
20
4.1767675527
30
0.0000000000
10
4.8529792522
20
-4.5897871806
30
0.0000000000
10
4.9728840483
20
-13.2391316931
30
0.0000000000
10
5.2165420210
20
-18.9614942005
30
0.0000000000
10
5.3797123728
20
-21.8000539563
30
0.0000000000
11
5.3797123728
21
13.0117347585
31
0.0000000000
11
5.0150837710
21
4.1376617326
31
0.0000000000
11
4.8934945906
21
-4.6289349502
31
0.0000000000
11
5.0150841973
21
-13.2781139921
31
0.0000000000
11
5.3797123728
21
-21.8000539563
31
0.0000000000
0
SPLINE
5
23A
100
AcDbEntity
8
0
100
AcDbSpline
62
9
6
CONTINUOUS
70
0
71
3
72
11
73
7
74
5
42
0.0000001000
43
0.0000001000
44
0.0000000001
12
-1.8989605644
22
-34.8702266164
32
0.0000000000
13
2.0040412824
23
-34.8643453121
33
0.0000000000
40
0.0000000000
40
0.0000000000
40
0.0000000000
40
0.0000000000
40
0.2550071028
40
0.5067363381
40
0.7550944803
40
1.0000000000
40
1.0000000000
40
1.0000000000
40
1.0000000000
10
4.2595779959
20
13.0638066629
30
0.0000000000
10
4.0981618520
20
10.0997548414
30
0.0000000000
10
3.8549652214
20
4.2052073055
30
0.0000000000
10
3.7314607535
20
-4.5847798562
30
0.0000000000
10
3.8516803446
20
-13.2572428077
30
0.0000000000
10
4.0959777387
20
-18.9949048312
30
0.0000000000
10
4.2595779959
20
-21.8410617010
30
0.0000000000
11
4.2595779959
21
13.0638066629
31
0.0000000000
11
3.8939907676
21
4.1659826969
31
0.0000000000
11
3.7720824693
21
-4.6240339159
31
0.0000000000
11
3.8939907673
21
-13.2963140909
31
0.0000000000
11
4.2595779959
21
-21.8410617010
31
0.0000000000
0
SPLINE
5
23B
100
AcDbEntity
8
0
100
AcDbSpline
62
9
6
CONTINUOUS
70
0
71
3
72
12
73
8
74
6
42
0.0000001000
43
0.0000001000
44
0.0000000001
12
-1.0648331367
22
-0.4278248924
32
0.0000000000
13
-1.0257916573
23
0.5144465212
33
0.0000000000
40
0.0000000000
40
0.0000000000
40
0.0000000000
40
0.0000000000
40
0.1829483055
40
0.3896288481
40
0.6053147478
40
0.8137828015
40
1.0000000000
40
1.0000000000
40
1.0000000000
40
1.0000000000
10
5.3797123728
20
13.0117347585
30
0.0000000000
10
5.3147759001
20
12.9856448121
30
0.0000000000
10
5.1695238122
20
12.9473028688
30
0.0000000000
10
4.9383058012
20
12.9254287491
30
0.0000000000
10
4.6964096004
20
12.9367432921
30
0.0000000000
10
4.4663015664
20
12.9802130782
30
0.0000000000
10
4.3232513644
20
13.0318737408
30
0.0000000000
10
4.2595780149
20
13.0638066708
30
0.0000000000
11
5.3797123728
21
13.0117347585
31
0.0000000000
11
5.1775821868
21
12.9549873801
31
0.0000000000
11
4.9415965400
21
12.9312229110
31
0.0000000000
11
4.6943501216
21
12.9427167049
31
0.0000000000
11
4.4595157949
21
12.9883682768
31
0.0000000000
11
4.2595780149
21
13.0638066708
31
0.0000000000
0
SPLINE
5
23C
100
AcDbEntity
8
0
100
AcDbSpline
62
9
6
CONTINUOUS
70
0
71
3
72
14
73
10
74
8
42
0.0000001000
43
0.0000001000
44
0.0000000001
12
0.0416290560
22
-0.7223435402
32
0.0000000000
13
0.6569351904
23
0.3032314694
33
0.0000000000
40
0.0000000000
40
0.0000000000
40
0.0000000000
40
0.0000000000
40
0.1640506766
40
0.3126872929
40
0.4480409678
40
0.5763532239
40
0.7063982920
40
0.8461052345
40
1.0000000000
40
1.0000000000
40
1.0000000000
40
1.0000000000
10
5.3797123728
20
-21.8000539563
30
0.0000000000
10
5.3819887977
20
-21.8395542718
30
0.0000000000
10
5.3929310136
20
-21.9147701218
30
0.0000000000
10
5.4323061829
20
-22.0165732456
30
0.0000000000
10
5.4932867550
20
-22.0971147312
30
0.0000000000
10
5.5738189337
20
-22.1509601293
30
0.0000000000
10
5.6688967169
20
-22.1740728282
30
0.0000000000
10
5.7721333109
20
-22.1661324986
30
0.0000000000
10
5.8397004793
20
-22.1426379557
30
0.0000000000
10
5.8734001083
20
-22.1270827104
30
0.0000000000
11
5.3797123728
21
-21.8000539563
31
0.0000000000
11
5.3980224955
21
-21.9173307772
31
0.0000000000
11
5.4381427075
21
-22.0171118536
31
0.0000000000
11
5.4982640576
21
-22.0944197296
31
0.0000000000
11
5.5756505381
21
-22.1457078548
31
0.0000000000
11
5.6668921115
21
-22.1686966190
31
0.0000000000
11
5.7677749369
21
-22.1623247171
31
0.0000000000
11
5.8734001083
21
-22.1270827104
31
0.0000000000
0
SPLINE
5
23D
100
AcDbEntity
8
0
100
AcDbSpline
62
9
6
CONTINUOUS
70
0
71
3
72
11
73
7
74
5
42
0.0000001000
43
0.0000001000
44
0.0000000001
12
0.0490336579
22
-0.8595523330
32
0.0000000000
13
0.7723534056
23
-0.3888328530
33
0.0000000000
40
0.0000000000
40
0.0000000000
40
0.0000000000
40
0.0000000000
40
0.2961258533
40
0.5627059701
40
0.8047579901
40
1.0000000000
40
1.0000000000
40
1.0000000000
40
1.0000000000
10
4.2595779959
20
-21.8410617010
30
0.0000000000
10
4.2644180405
20
-21.9259069236
30
0.0000000000
10
4.2876880083
20
-22.0869842978
30
0.0000000000
10
4.3713778209
20
-22.3047198427
30
0.0000000000
10
4.4948364727
20
-22.4686539574
30
0.0000000000
10
4.5990940400
20
-22.5421462729
30
0.0000000000
10
4.6493593171
20
-22.5674517755
30
0.0000000000
11
4.2595779959
21
-21.8410617010
31
0.0000000000
11
4.2986714872
21
-22.0929960962
31
0.0000000000
11
4.3839051382
21
-22.3060947231
31
0.0000000000
11
4.5114899162
21
-22.4708686500
31
0.0000000000
11
4.6493593171
21
-22.5674517755
31
0.0000000000
0
SPLINE
5
23E
100
AcDbEntity
8
0
100
AcDbSpline
62
9
6
CONTINUOUS
70
0
71
3
72
12
73
8
74
6
42
0.0000001000
43
0.0000001000
44
0.0000000001
12
-1.0077349112
22
-0.5682621171
32
0.0000000000
13
-1.0353358650
23
0.5162665315
33
0.0000000000
40
0.0000000000
40
0.0000000000
40
0.0000000000
40
0.0000000000
40
0.1896016087
40
0.3980164021
40
0.6118689179
40
0.8167565732
40
1.0000000000
40
1.0000000000
40
1.0000000000
40
1.0000000000
10
5.3797123728
20
-21.8000539563
30
0.0000000000
10
5.3160229860
20
-21.8359684269
30
0.0000000000
10
5.1725012488
20
-21.8942309779
30
0.0000000000
10
4.9403397361
20
-21.9416656316
30
0.0000000000
10
4.6974861830
20
-21.9507182126
30
0.0000000000
10
4.4662666886
20
-21.9205861627
30
0.0000000000
10
4.3228290145
20
-21.8725891375
30
0.0000000000
10
4.2595895173
20
-21.8410549880
30
0.0000000000
11
5.3797123728
21
-21.8000539563
31
0.0000000000
11
5.1775837314
21
-21.8852578117
31
0.0000000000
11
4.9416005811
21
-21.9347543095
31
0.0000000000
11
4.6943570546
21
-21.9438044231
31
0.0000000000
11
4.4595254058
21
-21.9115416525
31
0.0000000000
11
4.2595895173
21
-21.8410549880
31
0.0000000000
0
SPLINE
5
23F
100
AcDbEntity
8
0
100
AcDbSpline
62
9
6
CONTINUOUS
70
0
71
3
72
10
73
6
74
4
42
0.0000001000
43
0.0000001000
44
0.0000000001
12
-0.0073989744
22
-0.5139750024
32
0.0000000000
13
-0.4687657497
23
-0.2190887816
33
0.0000000000
40
0.0000000000
40
0.0000000000
40
0.0000000000
40
0.0000000000
40
0.3962932573
40
0.7347128000
40
1.0000000000
40
1.0000000000
40
1.0000000000
40
1.0000000000
10
5.8734001083
20
-22.1270827104
30
0.0000000000
10
5.8724227205
20
-22.1949776531
30
0.0000000000
10
5.8561763653
20
-22.3216373131
30
0.0000000000
10
5.7789175535
20
-22.4795726911
30
0.0000000000
10
5.6945231646
20
-22.5462039678
30
0.0000000000
10
5.6530706469
20
-22.5655777843
30
0.0000000000
11
5.8734001083
21
-22.1270827104
31
0.0000000000
11
5.8431088510
21
-22.3285238840
31
0.0000000000
11
5.7614040923
21
-22.4820994107
31
0.0000000000
11
5.6530706469
21
-22.5655777843
31
0.0000000000
0
SPLINE
5
240
100
AcDbEntity
8
0
100
AcDbSpline
62
9
6
CONTINUOUS
70
0
71
3
72
14
73
10
74
8
42
0.0000001000
43
0.0000001000
44
0.0000000001
12
0.1112031469
22
2.0932941738
32
0.0000000000
13
1.8522812127
23
0.9814789590
33
0.0000000000
40
0.0000000000
40
0.0000000000
40
0.0000000000
40
0.0000000000
40
0.1398957862
40
0.2874089679
40
0.4387407751
40
0.5895170964
40
0.7356997746
40
0.8734424434
40
1.0000000000
40
1.0000000000
40
1.0000000000
40
1.0000000000
10
-9.8676930455
20
20.1274421836
30
0.0000000000
10
-9.8625074282
20
20.2250565283
30
0.0000000000
10
-9.8350626140
20
20.4249256504
30
0.0000000000
10
-9.7508934930
20
20.7206026963
30
0.0000000000
10
-9.6260269185
20
21.0098559761
30
0.0000000000
10
-9.4658890487
20
21.2800656029
30
0.0000000000
10
-9.2773999408
20
21.5195057422
30
0.0000000000
10
-9.0687318579
20
21.7177843653
30
0.0000000000
10
-8.9145492939
20
21.8217271643
30
0.0000000000
10
-8.8364092324
20
21.8631316906
30
0.0000000000
11
-9.8676930455
21
20.1274421836
31
0.0000000000
11
-9.8292290061
21
20.4181646904
31
0.0000000000
11
-9.7453733362
21
20.7158014545
31
0.0000000000
11
-9.6198458683
21
21.0071378324
31
0.0000000000
11
-9.4584003614
21
21.2788581852
31
0.0000000000
11
-9.2681149081
21
21.5190534229
31
0.0000000000
11
-9.0576610046
21
21.7167435441
31
0.0000000000
11
-8.8364092324
21
21.8631316906
31
0.0000000000
0
SPLINE
5
241
100
AcDbEntity
8
0
100
AcDbSpline
62
9
6
CONTINUOUS
70
0
71
3
72
11
73
7
74
5
42
0.0000001000
43
0.0000001000
44
0.0000000001
12
-1.9375113231
22
34.8669595243
32
0.0000000000
13
1.8323954313
23
34.8726417637
33
0.0000000000
40
0.0000000000
40
0.0000000000
40
0.0000000000
40
0.0000000000
40
0.2447195145
40
0.4930244186
40
0.7448200040
40
1.0000000000
40
1.0000000000
40
1.0000000000
40
1.0000000000
10
-9.8676930455
20
-14.7774261803
30
0.0000000000
10
-10.0257419889
20
-11.9332177113
30
0.0000000000
10
-10.2616935188
20
-6.1982440900
30
0.0000000000
10
-10.3777353805
20
2.4719046201
30
0.0000000000
10
-10.2584086144
20
11.2637536046
30
0.0000000000
10
-10.0235565984
20
17.1611753219
30
0.0000000000
10
-9.8676930455
20
20.1274421836
30
0.0000000000
11
-9.8676930455
21
-14.7774261803
31
0.0000000000
11
-10.2207694055
21
-6.2389340045
31
0.0000000000
11
-10.3385058443
21
2.4312602409
31
0.0000000000
11
-10.2207694055
21
11.2233627835
31
0.0000000000
11
-9.8676930455
21
20.1274421836
31
0.0000000000
0
SPLINE
5
242
100
AcDbEntity
8
0
100
AcDbSpline
62
9
6
CONTINUOUS
70
0
71
3
72
10
73
6
74
4
42
0.0000001000
43
0.0000001000
44
0.0000000001
12
0.0204949942
22
-0.3879904678
32
0.0000000000
13
0.3422706686
23
-0.1715987512
33
0.0000000000
40
0.0000000000
40
0.0000000000
40
0.0000000000
40
0.0000000000
40
0.1515931809
40
0.5343293071
40
1.0000000000
40
1.0000000000
40
1.0000000000
40
1.0000000000
10
-10.1015181061
20
-14.4931759199
30
0.0000000000
10
-10.1004824723
20
-14.5127814896
30
0.0000000000
10
-10.0887944774
20
-14.5813436413
30
0.0000000000
10
-10.0130091586
20
-14.6907064069
30
0.0000000000
10
-9.9208214912
20
-14.7507899945
30
0.0000000000
10
-9.8676930181
20
-14.7774261643
30
0.0000000000
11
-10.1015181061
21
-14.4931759199
31
0.0000000000
11
-10.0915319132
21
-14.5508695953
31
0.0000000000
11
-10.0136182434
21
-14.6749814944
31
0.0000000000
11
-9.8676930181
21
-14.7774261643
31
0.0000000000
0
SPLINE
5
243
100
AcDbEntity
8
0
100
AcDbSpline
62
9
6
CONTINUOUS
70
0
71
3
72
19
73
15
74
13
42
0.0000001000
43
0.0000001000
44
0.0000000001
12
-2.6173153770
22
1.3092305175
32
0.0000000000
13
2.9377360946
23
0.0401322128
33
0.0000000000
40
0.0000000000
40
0.0000000000
40
0.0000000000
40
0.0000000000
40
0.0893229691
40
0.1880773117
40
0.2929790628
40
0.4001290572
40
0.5056643996
40
0.6056236562
40
0.6969710051
40
0.7779554748
40
0.8490335695
40
0.9135586774
40
0.9776041456
40
1.0000000000
40
1.0000000000
40
1.0000000000
40
1.0000000000
10
-3.0419199386
20
-13.3640336706
30
0.0000000000
10
-3.1198487321
20
-13.3250522183
30
0.0000000000
10
-3.2744507245
20
-13.2235296040
30
0.0000000000
10
-3.4825497607
20
-13.0259609390
30
0.0000000000
10
-3.6687355580
20
-12.7852535950
30
0.0000000000
10
-3.8221647686
20
-12.5149405840
30
0.0000000000
10
-3.9341788125
20
-12.2301074145
30
0.0000000000
10
-3.9983889839
20
-11.9464528032
30
0.0000000000
10
-4.0109930550
20
-11.6794776126
30
0.0000000000
10
-3.9704992703
20
-11.4431185033
30
0.0000000000
10
-3.8764720858
20
-11.2497292744
30
0.0000000000
10
-3.7294711263
20
-11.1138379643
30
0.0000000000
10
-3.5855894384
20
-11.0663473068
30
0.0000000000
10
-3.5010429610
20
-11.0602924279
30
0.0000000000
10
-3.4791119245
20
-11.0599928295
30
0.0000000000
11
-3.0419199386
21
-13.3640336706
31
0.0000000000
11
-3.2619583603
21
-13.2229126328
31
0.0000000000
11
-3.4728561973
21
-13.0253121087
31
0.0000000000
11
-3.6613724720
21
-12.7830152420
31
0.0000000000
11
-3.8162062867
21
-12.5103328548
31
0.0000000000
11
-3.9284820002
21
-12.2226138499
31
0.0000000000
11
-3.9913716651
21
-11.9369228299
31
0.0000000000
11
-4.0011762182
21
-11.6697743255
31
0.0000000000
11
-3.9573022996
21
-11.4368693620
31
0.0000000000
11
-3.8623695160
21
-11.2517854440
31
0.0000000000
11
-3.7220982430
21
-11.1253660583
31
0.0000000000
11
-3.5447076965
21
-11.0648488029
31
0.0000000000
11
-3.4791119245
21
-11.0599928295
31
0.0000000000
0
SPLINE
5
244
100
AcDbEntity
8
0
100
AcDbSpline
62
9
6
CONTINUOUS
70
0
71
3
72
9
73
5
74
3
42
0.0000001000
43
0.0000001000
44
0.0000000001
12
0.2906079647
22
0.0039699756
32
0.0000000000
13
0.2691995885
23
-0.1086390335
33
0.0000000000
40
0.0000000000
40
0.0000000000
40
0.0000000000
40
0.0000000000
40
0.4802201496
40
1.0000000000
40
1.0000000000
40
1.0000000000
40
1.0000000000
10
-3.4791119245
20
-11.0599928295
30
0.0000000000
10
-3.4325933244
20
-11.0593573420
30
0.0000000000
10
-3.3354793524
20
-11.0699246657
30
0.0000000000
10
-3.2427804855
20
-11.0990559032
30
0.0000000000
10
-3.1961389782
20
-11.1178786968
30
0.0000000000
11
-3.4791119245
21
-11.0599928295
31
0.0000000000
11
-3.3403393256
21
-11.0737876755
31
0.0000000000
11
-3.1961389782
21
-11.1178786968
31
0.0000000000
0
SPLINE
5
245
100
AcDbEntity
8
0
100
AcDbSpline
62
9
6
CONTINUOUS
70
0
71
3
72
8
73
4
74
2
42
0.0000001000
43
0.0000001000
44
0.0000000001
12
0.0758367122
22
-0.0306049023
32
0.0000000000
13
0.0729533402
23
-0.0364551391
33
0.0000000000
40
0.0000000000
40
0.0000000000
40
0.0000000000
40
0.0000000000
40
1.0000000000
40
1.0000000000
40
1.0000000000
40
1.0000000000
10
-3.1961389782
20
-11.1178786968
30
0.0000000000
10
-3.1708600741
20
-11.1280803309
30
0.0000000000
10
-3.1460339777
20
-11.1393632316
30
0.0000000000
10
-3.1217161976
20
-11.1515149447
30
0.0000000000
11
-3.1961389782
21
-11.1178786968
31
0.0000000000
11
-3.1217161976
21
-11.1515149447
31
0.0000000000
0
SPLINE
5
246
100
AcDbEntity
8
0
100
AcDbSpline
62
9
6
CONTINUOUS
70
0
71
3
72
10
73
6
74
4
42
0.0000001000
43
0.0000001000
44
0.0000000001
12
-0.0160499459
22
-0.3866750064
32
0.0000000000
13
0.3400428255
23
-0.1695073827
33
0.0000000000
40
0.0000000000
40
0.0000000000
40
0.0000000000
40
0.0000000000
40
0.1817759329
40
0.5381073120
40
1.0000000000
40
1.0000000000
40
1.0000000000
40
1.0000000000
10
-10.1013327545
20
20.4049078463
30
0.0000000000
10
-10.1023052524
20
20.3814784430
30
0.0000000000
10
-10.0922555134
20
20.3110713397
30
0.0000000000
10
-10.0085887716
20
20.2087110952
30
0.0000000000
10
-9.9200400142
20
20.1535433715
30
0.0000000000
10
-9.8676855826
20
20.1274452979
30
0.0000000000
11
-10.1013327545
21
20.4049078463
31
0.0000000000
11
-10.0915247738
21
20.3356594752
31
0.0000000000
11
-10.0136104625
21
20.2249378257
31
0.0000000000
11
-9.8676855826
21
20.1274452979
31
0.0000000000
0
SPLINE
5
247
100
AcDbEntity
8
0
100
AcDbSpline
62
9
6
CONTINUOUS
70
0
71
3
72
10
73
6
74
4
42
0.0000001000
43
0.0000001000
44
0.0000000001
12
0.3381206723
22
0.1847641504
32
0.0000000000
13
0.3439604190
23
-0.1659550162
33
0.0000000000
40
0.0000000000
40
0.0000000000
40
0.0000000000
40
0.0000000000
40
0.0963608332
40
0.5160580944
40
1.0000000000
40
1.0000000000
40
1.0000000000
40
1.0000000000
10
-9.2062644823
20
21.8792800994
30
0.0000000000
10
-9.1954039524
20
21.8852147753
30
0.0000000000
10
-9.1354052516
20
21.9134159387
30
0.0000000000
10
-9.0037116355
20
21.9265985304
30
0.0000000000
10
-8.8918948527
20
21.8899025529
30
0.0000000000
10
-8.8364092324
20
21.8631316906
30
0.0000000000
11
-9.2062644823
21
21.8792800994
31
0.0000000000
11
-9.1727198301
21
21.8950004152
31
0.0000000000
11
-9.0137225363
21
21.9152660393
31
0.0000000000
11
-8.8364092324
21
21.8631316906
31
0.0000000000
0
SPLINE
5
248
100
AcDbEntity
8
0
100
AcDbSpline
62
9
6
CONTINUOUS
70
0
71
3
72
8
73
4
74
2
42
0.0000001000
43
0.0000001000
44
0.0000000001
12
-0.1413437981
22
0.0706856601
32
0.0000000000
13
-0.1305003867
23
0.0898219351
33
0.0000000000
40
0.0000000000
40
0.0000000000
40
0.0000000000
40
0.0000000000
40
1.0000000000
40
1.0000000000
40
1.0000000000
40
1.0000000000
10
-2.9712896911
20
-13.2379865756
30
0.0000000000
10
-3.0184042904
20
-13.2144246889
30
0.0000000000
10
-3.0637393045
20
-13.1872156844
30
0.0000000000
10
-3.1072394334
20
-13.1572750394
30
0.0000000000
11
-2.9712896911
21
-13.2379865756
31
0.0000000000
11
-3.1072394334
21
-13.1572750394
31
0.0000000000
0
SPLINE
5
249
100
AcDbEntity
8
0
100
AcDbSpline
62
9
6
CONTINUOUS
70
0
71
3
72
13
73
9
74
7
42
0.0000001000
43
0.0000001000
44
0.0000000001
12
-0.1389944341
22
0.8815807577
32
0.0000000000
13
0.8025536182
23
0.3991483032
33
0.0000000000
40
0.0000000000
40
0.0000000000
40
0.0000000000
40
0.0000000000
40
0.0376497141
40
0.3138894246
40
0.5585749964
40
0.7731999347
40
0.9680309102
40
1.0000000000
40
1.0000000000
40
1.0000000000
40
1.0000000000
10
-3.8457064531
20
-11.9554503050
30
0.0000000000
10
-3.8474508200
20
-11.9443865505
30
0.0000000000
10
-3.8609669860
20
-11.8519762856
30
0.0000000000
10
-3.8693478326
20
-11.6851853257
30
0.0000000000
10
-3.8327030751
20
-11.4675221432
30
0.0000000000
10
-3.7465998583
20
-11.2894005214
30
0.0000000000
10
-3.6476621105
20
-11.1977807976
30
0.0000000000
10
-3.5880559804
20
-11.1655204765
30
0.0000000000
10
-3.5795036775
20
-11.1612670072
30
0.0000000000
11
-3.8457064531
21
-11.9554503050
31
0.0000000000
11
-3.8505665342
21
-11.9221991534
31
0.0000000000
11
-3.8603255211
21
-11.6761561059
31
0.0000000000
11
-3.8205417739
21
-11.4617055684
31
0.0000000000
11
-3.7335876140
21
-11.2912943548
31
0.0000000000
11
-3.6046854936
21
-11.1749094411
31
0.0000000000
11
-3.5795036775
21
-11.1612670072
31
0.0000000000
0
ENDSEC
0
SECTION
2
OBJECTS
0
DICTIONARY
5
C
100
AcDbDictionary
280
0
281
1
3
ACAD_GROUP
350
D
3
ACAD_MLINESTYLE
350
17
3
ACAD_LAYOUT
350
1A
3
ACAD_PLOTSETTINGS
350
19
3
ACAD_PLOTSTYLENAME
350
E
0
DICTIONARY
5
D
102
{ACAD_REACTORS
330
C
102
}
100
AcDbDictionary
280
0
281
1
0
ACDBDICTIONARYWDFLT
5
E
102
{ACAD_REACTORS
330
C
102
}
100
AcDbDictionary
281
1
3
Normal
350
F
100
AcDbDictionaryWithDefault
340
F
0
DICTIONARY
5
17
102
{ACAD_REACTORS
330
C
102
}
100
AcDbDictionary
280
0
281
1
3
Standard
350
18
0
DICTIONARY
5
19
102
{ACAD_REACTORS
330
C
102
}
100
AcDbDictionary
281
1
0
DICTIONARY
5
1A
102
{ACAD_REACTORS
330
C
102
}
100
AcDbDictionary
281
1
3
Layout1
350
1E
3
Model
350
22
0
ACDBPLACEHOLDER
5
F
102
{ACAD_REACTORS
330
E
102
}
0
MLINESTYLE
5
18
102
{ACAD_REACTORS
330
17
102
}
100
AcDbMlineStyle
2
STANDARD
70
0
3

62
256
51
90.0
52
90.0
71
2
49
0.5
62
256
6
BYLAYER
49
-0.5
62
256
6
BYLAYER
0
LAYOUT
5
1E
102
{ACAD_REACTORS
330
1A
102
}
100
AcDbPlotSettings
1

2

4

6

40
0.0
41
0.0
42
0.0
43
0.0
44
0.0
45
0.0
46
0.0
47
0.0
48
0.0
49
0.0
140
0.0
141
0.0
142
1.0
143
1.0
70
0
72
0
73
0
74
0
7

75
0
147
1.0
148
0.0
149
0.0
100
AcDbLayout
1
Layout1
70
0
71
0
10
0.0
20
0.0
11
0.0
21
0.0
12
0.0
22
0.0
32
0.0
14
0.0
24
0.0
34
0.0
15
0.0
25
0.0
35
0.0
146
0.0
13
0.0
23
0.0
33
0.0
16
0.0
26
0.0
36
0.0
17
0.0
27
0.0
37
0.0
76
0
330
1B
331
0
345
0
346
0
0
LAYOUT
5
22
102
{ACAD_REACTORS
330
1A
102
}
100
AcDbPlotSettings
1

2

4

6

40
0.0
41
0.0
42
0.0
43
0.0
44
0.0
45
0.0
46
0.0
47
0.0
48
0.0
49
0.0
140
0.0
141
0.0
142
1.0
143
1.0
70
0
72
0
73
0
74
0
7

75
0
147
1.0
148
0.0
149
0.0
100
AcDbLayout
1
Model
70
0
71
0
10
0.0
20
0.0
11
0.0
21
0.0
12
0.0
22
0.0
32
0.0
14
0.0
24
0.0
34
0.0
15
0.0
25
0.0
35
0.0
146
0.0
13
0.0
23
0.0
33
0.0
16
0.0
26
0.0
36
0.0
17
0.0
27
0.0
37
0.0
76
0
330
1F
331
0
345
0
346
0
0
ENDSEC
0
EOF
