0
SECTION
2
HEADER
9
$ACADVER
1
AC1015
9
$DWGCODEPAGE
3
ANSI_1252
9
$EXTMAX
10
431.8000000000
20
558.8000000000
30
0.0000000000
9
$EXTMIN
10
0.0000000000
20
0.0000000000
30
0.0000000000
9
$LIMMIN
10
0.0000000000
20
0.0000000000
9
$LIMMAX
10
431.8000000000
20
558.8000000000
9
$VIEWCTR
10
215.9000000000
20
279.4000000000
9
$VIEWSIZE
40
558.8000000000
9
$CLAYER
8
0
9
$LTSCALE
40
36.4254814815
9
$CELTYPE
6
BYLAYER
9
$DIMSCALE
40
1
9
$DIMASZ
40
3.0000000000
9
$DIMEXO
40
4.1392592593
9
$DIMDLI
40
25.1666962963
9
$DIMEXE
40
11.9210666667
9
$DIMCEN
40
5.9605333333
9
$DIMLFAC
40
1.0000000000
9
$DIMBLK
1
_FILLED
9
$DIMTXT
40
3.0000000000
9
$DIMTOL
70
1
9
$DIMLIM
70
0
9
$DIMTFAC
40
1.0000000000
9
$DIMTP
40
0.0100000000
9
$DIMTM
40
0.0100000000
9
$PDMODE
70
3
9
$PDSIZE
40
3.0000000000
9
$HANDSEED
5
317
9
$MEASUREMENT
70
1
9
$INSUNITS
70
4
0
ENDSEC
0
SECTION
2
CLASSES
0
CLASS
1
ACDBDICTIONARYWDFLT
2
AcDbDictionaryWithDefault
3
AutoCAD 2000
90
0
280
0
281
0
0
CLASS
1
ACDBPLACEHOLDER
2
AcDbPlaceHolder
3
AutoCAD 2000
90
0
280
0
281
0
0
CLASS
1
LAYOUT
2
AcDbLayout
3
AutoCAD 2000
90
0
280
0
281
0
0
ENDSEC
0
SECTION
2
TABLES
0
TABLE
2
VPORT
5
8
100
AcDbSymbolTable
70
2
0
VPORT
5
1F4
100
AcDbSymbolTableRecord
100
AcDbViewportTableRecord
2
*ACTIVE
70
0
10
0.0
20
0.0
11
1.0
21
1.0
12
215.9000000000
22
279.4000000000
13
0.0
23
0.0
14
1.0
24
1.0
15
0.0
25
0.0
16
0.0
26
0.0
36
1.0
17
0.0
27
0.0
37
0.0
40
558.8000000000
41
0.7727272727
42
50.0
43
0.0
44
0.0
50
0.0
51
0.0
71
0
72
100
73
1
74
1
75
0
76
0
77
0
78
0
0
ENDTAB
0
TABLE
2
LTYPE
5
5
100
AcDbSymbolTable
70
6
0
LTYPE
5
14
100
AcDbSymbolTableRecord
100
AcDbLinetypeTableRecord
2
BYBLOCK
70
0
3

72
65
73
0
40
0.0
0
LTYPE
5
15
100
AcDbSymbolTableRecord
100
AcDbLinetypeTableRecord
2
BYLAYER
70
0
3

72
65
73
0
40
0.0
0
LTYPE
5
16
100
AcDbSymbolTableRecord
100
AcDbLinetypeTableRecord
2
CONTINUOUS
70
64
3
Solid line
72
65
73
0
40
0
0
LTYPE
5
1F5
100
AcDbSymbolTableRecord
100
AcDbLinetypeTableRecord
2
CENTER
70
64
3
____ _ ____ _ ____ _ ____ _ ____ _ ____ _ ____
72
65
73
4
40
0.6
49
0.375
74
0
49
-0.075
74
0
49
0.075
74
0
49
-0.075
74
0
0
LTYPE
5
1F6
100
AcDbSymbolTableRecord
100
AcDbLinetypeTableRecord
2
HIDDEN
70
64
3
- - - - - - - - - - - - - - - - - - - -
72
65
73
2
40
0.2
49
0.1
74
0
49
-0.1
74
0
0
LTYPE
5
1F7
100
AcDbSymbolTableRecord
100
AcDbLinetypeTableRecord
2
PHANTOM
70
64
3
_____ _ _ _____ _ _ _____ _ _ _____
72
65
73
6
40
0.8
49
0.45
74
0
49
-0.05
74
0
49
0.1
74
0
49
-0.05
74
0
49
0.1
74
0
49
-0.05
74
0
0
LTYPE
5
1F8
100
AcDbSymbolTableRecord
100
AcDbLinetypeTableRecord
2
DOT
70
64
3
. . . . . . . . . . . . . . . . . . . .
72
65
73
2
40
0.2
49
0.1
74
0
49
-0.1
74
0
0
LTYPE
5
1F9
100
AcDbSymbolTableRecord
100
AcDbLinetypeTableRecord
2
DASHED
70
64
3
- - - - - - - - - - - - - - - - - - - -
72
65
73
2
40
0.2
49
0.1
74
0
49
-0.1
74
0
0
ENDTAB
0
TABLE
2
LAYER
5
2
100
AcDbSymbolTable
70
36
0
LAYER
5
10
100
AcDbSymbolTableRecord
100
AcDbLayerTableRecord
2
0
70
0
62
7
6
CONTINUOUS
370
-3
390
F
0
LAYER
5
1FA
100
AcDbSymbolTableRecord
100
AcDbLayerTableRecord
2
DEFAULT_1
70
0
62
7
6
CENTER
370
-3
390
F
0
LAYER
5
1FB
100
AcDbSymbolTableRecord
100
AcDbLayerTableRecord
2
DEFAULT_2
70
0
62
9
6
HIDDEN
370
-3
390
F
0
LAYER
5
1FC
100
AcDbSymbolTableRecord
100
AcDbLayerTableRecord
2
DEFAULT_3
70
0
62
7
6
PHANTOM
370
-3
390
F
0
LAYER
5
1FD
100
AcDbSymbolTableRecord
100
AcDbLayerTableRecord
2
_2D_DELETED_OBJS
70
0
62
7
6
CONTINUOUS
370
-3
390
F
0
LAYER
5
1FE
100
AcDbSymbolTableRecord
100
AcDbLayerTableRecord
2
_BLACK_HOLE
70
0
62
7
6
CONTINUOUS
370
-3
390
F
0
LAYER
5
1FF
100
AcDbSymbolTableRecord
100
AcDbLayerTableRecord
2
ASSI
70
0
62
7
6
CONTINUOUS
370
-3
390
F
0
LAYER
5
200
100
AcDbSymbolTableRecord
100
AcDbLayerTableRecord
2
COORDINATE
70
0
62
7
6
CONTINUOUS
370
-3
390
F
0
LAYER
5
201
100
AcDbSymbolTableRecord
100
AcDbLayerTableRecord
2
COORD_ORIGINE
70
0
62
7
6
CONTINUOUS
370
-3
390
F
0
LAYER
5
202
100
AcDbSymbolTableRecord
100
AcDbLayerTableRecord
2
COPY_PUBLISH
70
0
62
7
6
CONTINUOUS
370
-3
390
F
0
LAYER
5
203
100
AcDbSymbolTableRecord
100
AcDbLayerTableRecord
2
COSMETIC
70
0
62
7
6
CONTINUOUS
370
-3
390
F
0
LAYER
5
204
100
AcDbSymbolTableRecord
100
AcDbLayerTableRecord
2
CURVE
70
0
62
7
6
CONTINUOUS
370
-3
390
F
0
LAYER
5
205
100
AcDbSymbolTableRecord
100
AcDbLayerTableRecord
2
DRAFT
70
0
62
7
6
CONTINUOUS
370
-3
390
F
0
LAYER
5
206
100
AcDbSymbolTableRecord
100
AcDbLayerTableRecord
2
IMPORT
70
0
62
7
6
CONTINUOUS
370
-3
390
F
0
LAYER
5
207
100
AcDbSymbolTableRecord
100
AcDbLayerTableRecord
2
IMPORT_IGES
70
0
62
7
6
CONTINUOUS
370
-3
390
F
0
LAYER
5
208
100
AcDbSymbolTableRecord
100
AcDbLayerTableRecord
2
NOTE
70
0
62
7
6
CONTINUOUS
370
-3
390
F
0
LAYER
5
209
100
AcDbSymbolTableRecord
100
AcDbLayerTableRecord
2
PIANI
70
0
62
7
6
CONTINUOUS
370
-3
390
F
0
LAYER
5
20A
100
AcDbSymbolTableRecord
100
AcDbLayerTableRecord
2
PIANI_ORIGINE
70
0
62
7
6
CONTINUOUS
370
-3
390
F
0
LAYER
5
20B
100
AcDbSymbolTableRecord
100
AcDbLayerTableRecord
2
PUNTI
70
0
62
7
6
CONTINUOUS
370
-3
390
F
0
LAYER
5
20C
100
AcDbSymbolTableRecord
100
AcDbLayerTableRecord
2
RACCORDO
70
0
62
7
6
CONTINUOUS
370
-3
390
F
0
LAYER
5
20D
100
AcDbSymbolTableRecord
100
AcDbLayerTableRecord
2
SMUSSO
70
0
62
7
6
CONTINUOUS
370
-3
390
F
0
LAYER
5
20E
100
AcDbSymbolTableRecord
100
AcDbLayerTableRecord
2
SUPERFICI
70
0
62
7
6
CONTINUOUS
370
-3
390
F
0
LAYER
5
20F
100
AcDbSymbolTableRecord
100
AcDbLayerTableRecord
2
TRASH
70
0
62
7
6
CONTINUOUS
370
-3
390
F
0
LAYER
5
210
100
AcDbSymbolTableRecord
100
AcDbLayerTableRecord
2
XSEC_DATUMS
70
0
62
7
6
CONTINUOUS
370
-3
390
F
0
ENDTAB
0
TABLE
2
STYLE
5
3
100
AcDbSymbolTable
70
1
0
STYLE
5
11
100
AcDbSymbolTableRecord
100
AcDbTextStyleTableRecord
2
STANDARD
70
0
40
0.0
41
0.8000000000
50
0.0
71
0
42
0.2
3
txt
4

0
ENDTAB
0
TABLE
2
VIEW
5
6
100
AcDbSymbolTable
70
0
0
ENDTAB
0
TABLE
2
UCS
5
7
100
AcDbSymbolTable
70
0
0
ENDTAB
0
TABLE
2
APPID
5
9
100
AcDbSymbolTable
70
1
0
APPID
5
211
100
AcDbSymbolTableRecord
100
AcDbRegAppTableRecord
2
ACAD
70
0
0
ENDTAB
0
TABLE
2
BLOCK_RECORD
5
1
100
AcDbSymbolTable
70
0
0
BLOCK_RECORD
5
1F
100
AcDbSymbolTableRecord
100
AcDbBlockTableRecord
2
*MODEL_SPACE
0
BLOCK_RECORD
5
1B
100
AcDbSymbolTableRecord
100
AcDbBlockTableRecord
2
*PAPER_SPACE
0
ENDTAB
0
TABLE
2
DIMSTYLE
5
A
100
AcDbSymbolTable
70
1
100
AcDbDimStyleTable
71
0
0
DIMSTYLE
105
212
100
AcDbSymbolTableRecord
100
AcDbDimStyleTableRecord
2
STANDARD
70
0
3

4

40
1.0
41
3.0000000000
42
0.0625
43
0.38
44
0.18
45
0.0
46
0.0
47
0.0100000000
48
0.0100000000
140
3.0000000000
141
0.09
142
0.0
143
25.4
144
1.0000000000
145
0.0
146
1.0000000000
147
0.09
71
1
72
0
73
0
74
0
75
0
76
0
77
1
78
8
170
0
171
2
172
0
173
0
174
0
175
0
176
0
177
0
178
0
270
2
271
2
272
2
273
2
274
2
275
0
280
0
281
0
282
0
283
1
284
8
285
0
286
0
287
3
288
0
340
11
0
ENDTAB
0
ENDSEC
0
SECTION
2
BLOCKS
0
BLOCK
5
20
100
AcDbEntity
8
0
100
AcDbBlockBegin
2
*MODEL_SPACE
70
0
10
0.0
20
0.0
30
0.0
3
*MODEL_SPACE
1

0
ENDBLK
5
21
100
AcDbEntity
8
0
100
AcDbBlockEnd
0
BLOCK
5
1C
100
AcDbEntity
8
0
100
AcDbBlockBegin
2
*PAPER_SPACE
70
0
10
0.0
20
0.0
30
0.0
3
*PAPER_SPACE
1

0
ENDBLK
5
1D
100
AcDbEntity
8
0
100
AcDbBlockEnd
0
ENDSEC
0
SECTION
2
ENTITIES
0
LWPOLYLINE
5
213
100
AcDbEntity
8
0
100
AcDbPolyline
62
0
6
CONTINUOUS
90
9
70
0
10
-8.3517905024
20
21.4888316327
10
-8.5139531842
20
21.3808507628
10
-8.6674029115
20
21.2469950795
10
-8.8055215953
20
21.0931742403
10
-8.9284712394
20
20.9197098506
10
-9.0342526951
20
20.7280262169
10
-9.1168373439
20
20.5289472193
10
-9.1753124624
20
20.3274626203
10
-9.2101606097
20
20.1213049445
0
LINE
5
214
100
AcDbEntity
8
0
100
AcDbLine
62
0
6
CONTINUOUS
10
-8.3217619165
20
21.5055240491
11
-8.3517905024
21
21.4888316327
0
LINE
5
215
100
AcDbEntity
8
0
100
AcDbLine
62
0
6
CONTINUOUS
10
-8.3217620649
20
21.5055243242
11
-4.3909211990
21
23.6263032207
0
LINE
5
216
100
AcDbEntity
8
0
100
AcDbLine
62
9
6
CONTINUOUS
10
-7.9516068838
20
21.4893292295
11
-4.0248410923
21
23.6079094607
0
LWPOLYLINE
5
217
100
AcDbEntity
8
0
100
AcDbPolyline
62
0
6
CONTINUOUS
90
9
70
0
10
5.5323174104
20
-22.9403479729
10
5.5821726554
20
-22.9638582176
10
5.7137543891
20
-23.0118633817
10
5.8531066108
20
-23.0428828583
10
5.9978285475
20
-23.0556518920
10
6.1457662396
20
-23.0494338605
10
6.2955872127
20
-23.0236870186
10
6.4457838338
20
-22.9778774551
10
6.5362522205
20
-22.9401896361
0
LINE
5
218
100
AcDbEntity
8
0
100
AcDbLine
62
0
6
CONTINUOUS
10
5.5349829995
20
-22.9416899008
11
-8.5986078035
21
-15.8748944993
0
LWPOLYLINE
5
219
100
AcDbEntity
8
0
100
AcDbPolyline
62
0
6
CONTINUOUS
90
4
70
0
10
0.2105677549
20
-17.2875892324
10
0.5143249796
20
-17.3170466475
10
0.8055588251
20
-17.3016622052
10
1.0804711876
20
-17.2411986664
0
LINE
5
21A
100
AcDbEntity
8
0
100
AcDbLine
62
0
6
CONTINUOUS
10
-0.1023268649
20
-17.2141972024
11
0.2105677549
21
-17.2875892324
0
LINE
5
21B
100
AcDbEntity
8
0
100
AcDbLine
62
0
6
CONTINUOUS
10
-0.4211741909
20
-17.0980493835
11
-0.1023268649
21
-17.2141972024
0
LINE
5
21C
100
AcDbEntity
8
0
100
AcDbLine
62
9
6
CONTINUOUS
10
5.1443803445
20
-22.2148641621
11
-8.9828906969
21
-15.1512286414
0
LWPOLYLINE
5
21D
100
AcDbEntity
8
0
100
AcDbPolyline
62
0
6
CONTINUOUS
90
4
70
0
10
-8.9199804581
20
-15.6274905847
10
-8.7803242202
20
-15.7594916978
10
-8.6175577546
20
-15.8651787444
10
-8.5977449642
20
-15.8753247618
0
LINE
5
21E
100
AcDbEntity
8
0
100
AcDbLine
62
0
6
CONTINUOUS
10
-9.0380355392
20
-15.4672469259
11
-8.9199804581
21
-15.6274905847
0
LINE
5
21F
100
AcDbEntity
8
0
100
AcDbLine
62
0
6
CONTINUOUS
10
-0.6099265883
20
-17.0105578355
11
-0.4211741909
21
-17.0980493835
0
LINE
5
220
100
AcDbEntity
8
0
100
AcDbLine
62
9
6
CONTINUOUS
10
-0.5497034119
20
-17.2396639582
11
-3.5195518928
21
-15.7547397177
0
LINE
5
221
100
AcDbEntity
8
0
100
AcDbLine
62
9
6
CONTINUOUS
10
-0.4803480658
20
-17.1133273003
11
-3.4501965468
21
-15.6284030598
0
LINE
5
222
100
AcDbEntity
8
0
100
AcDbLine
62
0
6
CONTINUOUS
10
-3.5797252457
20
-15.5256680843
11
-0.6098767652
21
-17.0105923246
0
LINE
5
223
100
AcDbEntity
8
0
100
AcDbLine
62
9
6
CONTINUOUS
10
-3.6055984546
20
-15.4764835369
11
-0.6357499736
21
-16.9614077774
0
LINE
5
224
100
AcDbEntity
8
0
100
AcDbLine
62
0
6
CONTINUOUS
10
-3.7231596747
20
-15.4499791943
11
-3.5795463603
21
-15.5257509250
0
LINE
5
225
100
AcDbEntity
8
0
100
AcDbLine
62
0
6
CONTINUOUS
10
-4.1089436503
20
-15.2072802190
11
-3.7231596747
21
-15.4499791943
0
LINE
5
226
100
AcDbEntity
8
ASSI
100
AcDbLine
62
9
6
CONTINUOUS
10
-2.3778467900
20
-13.4404173187
11
-4.8894476503
21
-12.1846168885
0
LINE
5
227
100
AcDbEntity
8
ASSI
100
AcDbLine
62
9
6
CONTINUOUS
10
-2.3093925505
20
-13.3531684136
11
-4.8978347048
21
-12.0589473364
0
LINE
5
228
100
AcDbEntity
8
ASSI
100
AcDbLine
62
9
6
CONTINUOUS
10
-4.8455667919
20
-11.9552353819
11
-2.2983553269
21
-13.2288411144
0
LWPOLYLINE
5
229
100
AcDbEntity
8
0
100
AcDbPolyline
62
0
6
CONTINUOUS
90
6
70
0
10
-5.8211968766
20
-13.3039171347
10
-5.5269411359
20
-13.7567922435
10
-5.2029647179
20
-14.1803395381
10
-4.8546354774
20
-14.5674785802
10
-4.4880185842
20
-14.9115940086
10
-4.1089436503
20
-15.2072802190
0
LINE
5
22A
100
AcDbEntity
8
0
100
AcDbLine
62
0
6
CONTINUOUS
10
-9.2172507342
20
-14.8668703414
11
-9.2171991291
21
-14.8677678575
0
LWPOLYLINE
5
22B
100
AcDbEntity
8
0
100
AcDbPolyline
62
0
6
CONTINUOUS
90
10
70
0
10
-9.2173809357
20
20.0312807749
10
-9.3858173811
20
16.4804296113
10
-9.5340234813
20
12.4039758142
10
-9.6327563475
20
8.3505865399
10
-9.6819779660
20
4.3213588206
10
-9.6816784040
20
0.3171926873
10
-9.6318535488
20
-3.6610928291
10
-9.5325050652
20
-7.6126042873
10
-9.3836627294
20
-11.5362798428
10
-9.2172507342
20
-14.8668703414
0
LINE
5
22C
100
AcDbEntity
8
0
100
AcDbLine
62
0
6
CONTINUOUS
10
-9.2101606097
20
20.1213049445
11
-9.2174138548
21
20.0306299803
0
LINE
5
22D
100
AcDbEntity
8
0
100
AcDbLine
62
9
6
CONTINUOUS
10
10.2588882010
20
16.4660448141
11
6.1926031886
21
14.4172241932
0
LINE
5
22E
100
AcDbEntity
8
0
100
AcDbLine
62
9
6
CONTINUOUS
10
10.8244874693
20
15.4905303768
11
6.7582024570
21
13.4417097559
0
LINE
5
22F
100
AcDbEntity
8
ASSI
100
AcDbLine
62
9
6
CONTINUOUS
10
-2.3453672447
20
-12.0343406347
11
-4.8884329426
21
-10.7628077857
0
LINE
5
230
100
AcDbEntity
8
ASSI
100
AcDbLine
62
9
6
CONTINUOUS
10
-4.9502469789
20
-10.6014815625
11
-2.3661622727
21
-11.8935239156
0
LINE
5
231
100
AcDbEntity
8
ASSI
100
AcDbLine
62
9
6
CONTINUOUS
10
-4.9508786927
20
-10.4791949872
11
-2.4440794578
21
-11.7325946046
0
LINE
5
232
100
AcDbEntity
8
0
100
AcDbLine
62
0
6
CONTINUOUS
10
-6.0812119074
20
-12.8285728534
11
-5.8211968766
21
-13.3039171347
0
LINE
5
233
100
AcDbEntity
8
0
100
AcDbLine
62
0
6
CONTINUOUS
10
-6.3028804329
20
-12.3379364661
11
-6.0812119074
21
-12.8285728534
0
LINE
5
234
100
AcDbEntity
8
0
100
AcDbLine
62
0
6
CONTINUOUS
10
-6.4825775914
20
-11.8394860108
11
-6.3028804329
21
-12.3379364661
0
LWPOLYLINE
5
235
100
AcDbEntity
8
0
100
AcDbPolyline
62
0
6
CONTINUOUS
90
4
70
0
10
-9.2171988887
20
-14.8677678439
10
-9.1918942435
20
-15.0674030550
10
-9.1307209569
20
-15.2785208953
10
-9.0380355392
20
-15.4672469259
0
LINE
5
236
100
AcDbEntity
8
0
100
AcDbLine
62
0
6
CONTINUOUS
10
-4.0203309508
20
-7.9349548664
11
-3.7735427856
21
-8.0466403660
0
LINE
5
237
100
AcDbEntity
8
0
100
AcDbLine
62
0
6
CONTINUOUS
10
-5.8698329000
20
-8.1484160777
11
-5.8106464605
21
-8.1780092975
0
LINE
5
238
100
AcDbEntity
8
0
100
AcDbLine
62
9
6
CONTINUOUS
10
-0.8924388016
20
-9.8441579007
11
-3.8622872826
21
-8.3592336602
0
LINE
5
239
100
AcDbEntity
8
0
100
AcDbLine
62
9
6
CONTINUOUS
10
-0.8229927705
20
-9.7202990403
11
-3.7928412515
21
-8.2353747998
0
LINE
5
23A
100
AcDbEntity
8
0
100
AcDbLine
62
0
6
CONTINUOUS
10
-3.7734053649
20
-8.0466919793
11
-0.8035568920
21
-9.5316162157
0
LINE
5
23B
100
AcDbEntity
8
0
100
AcDbLine
62
9
6
CONTINUOUS
10
-3.7993666952
20
-7.9950270322
11
-0.8295182142
21
-9.4799512727
0
LINE
5
23C
100
AcDbEntity
8
0
100
AcDbLine
62
0
6
CONTINUOUS
10
-0.8033158961
20
-9.5317770143
11
-0.4753286157
21
-9.7163173650
0
LINE
5
23D
100
AcDbEntity
8
0
100
AcDbLine
62
0
6
CONTINUOUS
10
-5.2830427638
20
-7.7670062406
11
-4.9886422944
21
-7.7376527992
0
LWPOLYLINE
5
23E
100
AcDbEntity
8
0
100
AcDbPolyline
62
0
6
CONTINUOUS
90
4
70
0
10
-4.9886422944
20
-7.7376527992
10
-4.6778626989
20
-7.7559188151
10
-4.3538289793
20
-7.8217777336
10
-4.0203309508
20
-7.9349548664
0
LWPOLYLINE
5
23F
100
AcDbEntity
8
0
100
AcDbPolyline
62
0
6
CONTINUOUS
90
8
70
0
10
-0.4753286157
20
-9.7163173650
10
-0.0758347043
20
-9.9968007276
10
0.3166504893
20
-10.3352096973
10
0.6946958625
20
-10.7262226853
10
1.0501462036
20
-11.1620271277
10
1.3765967311
20
-11.6346010720
10
1.6688497096
20
-12.1363612584
10
1.9217971574
20
-12.6581030713
0
LINE
5
240
100
AcDbEntity
8
0
100
AcDbLine
62
0
6
CONTINUOUS
10
-5.5575479261
20
-7.8433000922
11
-5.2830427638
21
-7.7670062406
0
LWPOLYLINE
5
241
100
AcDbEntity
8
0
100
AcDbPolyline
62
0
6
CONTINUOUS
90
8
70
0
10
-6.3965604317
20
-8.7886363150
10
-6.5552618661
20
-9.1253114074
10
-6.6667153948
20
-9.5059868463
10
-6.7292753513
20
-9.9252840436
10
-6.7417653297
20
-10.3765275749
10
-6.7040178390
20
-10.8512007506
10
-6.6170928212
20
-11.3412307972
10
-6.4825775914
20
-11.8394860108
0
LINE
5
242
100
AcDbEntity
8
0
100
AcDbLine
62
0
6
CONTINUOUS
10
1.9217971574
20
-12.6581030713
11
2.1312271369
21
-13.1905294993
0
LINE
5
243
100
AcDbEntity
8
0
100
AcDbLine
62
0
6
CONTINUOUS
10
-6.1931788660
20
-8.5013679678
11
-6.3965604317
21
-8.7886363150
0
LWPOLYLINE
5
244
100
AcDbEntity
8
0
100
AcDbPolyline
62
0
6
CONTINUOUS
90
6
70
0
10
2.1312271369
20
-13.1905294993
10
2.2940126976
20
-13.7247224625
10
2.4076929621
20
-14.2518411477
10
2.4705316651
20
-14.7623888542
10
2.4818185799
20
-15.2480728661
10
2.4414794436
20
-15.7016295832
0
LINE
5
245
100
AcDbEntity
8
0
100
AcDbLine
62
0
6
CONTINUOUS
10
-5.9483629201
20
-8.2682564226
11
-6.1931788660
21
-8.5013679678
0
LINE
5
246
100
AcDbEntity
8
0
100
AcDbLine
62
0
6
CONTINUOUS
10
1.7381653310
20
-17.0828190976
11
1.7381653310
21
-16.9321156419
0
LINE
5
247
100
AcDbEntity
8
0
100
AcDbLine
62
0
6
CONTINUOUS
10
-5.7235450320
20
-8.1225407190
11
-5.9483629201
21
-8.2682564226
0
LINE
5
248
100
AcDbEntity
8
0
100
AcDbLine
62
0
6
CONTINUOUS
10
-5.7234532665
20
-8.1224776632
11
-5.1630948359
21
-7.8266367836
0
LINE
5
249
100
AcDbEntity
8
0
100
AcDbLine
62
0
6
CONTINUOUS
10
-5.6714901792
20
-7.8916088856
11
-5.6660273788
21
-7.8890389571
0
LINE
5
24A
100
AcDbEntity
8
0
100
AcDbLine
62
9
6
CONTINUOUS
10
-3.5985931799
20
-8.1340980718
11
-3.7928412515
21
-8.2353747998
0
LINE
5
24B
100
AcDbEntity
8
0
100
AcDbLine
62
0
6
CONTINUOUS
10
-5.6662038834
20
-7.8891241433
11
-5.5575479261
21
-7.8433000922
0
LINE
5
24C
100
AcDbEntity
8
0
100
AcDbLine
62
0
6
CONTINUOUS
10
2.4414794436
20
-15.7016295832
11
2.3500809815
21
-16.1153335413
0
LINE
5
24D
100
AcDbEntity
8
0
100
AcDbLine
62
9
6
CONTINUOUS
10
-0.6388701576
20
-9.6243015604
11
-0.8229927705
21
-9.7202990403
0
LINE
5
24E
100
AcDbEntity
8
0
100
AcDbLine
62
0
6
CONTINUOUS
10
2.3500809815
20
-16.1153335413
11
2.2092893089
21
-16.4813214231
0
LINE
5
24F
100
AcDbEntity
8
0
100
AcDbLine
62
0
6
CONTINUOUS
10
10.8244874693
20
-20.6229400008
11
10.8244874693
21
15.4905303768
0
LINE
5
250
100
AcDbEntity
8
0
100
AcDbLine
62
0
6
CONTINUOUS
10
2.2092893089
20
-16.4813214231
11
2.0218422773
21
-16.7931646084
0
LINE
5
251
100
AcDbEntity
8
0
100
AcDbLine
62
0
6
CONTINUOUS
10
2.0218422773
20
-16.7931646084
11
1.7913250781
21
-17.0455931949
0
LINE
5
252
100
AcDbEntity
8
0
100
AcDbLine
62
9
6
CONTINUOUS
10
-3.4130206667
20
-15.6090203738
11
-3.4501965468
21
-15.6284030598
0
LINE
5
253
100
AcDbEntity
8
0
100
AcDbLine
62
0
6
CONTINUOUS
10
1.7913250781
20
-17.0455931949
11
1.5162902714
21
-17.2381904045
0
LINE
5
254
100
AcDbEntity
8
0
100
AcDbLine
62
9
6
CONTINUOUS
10
-0.4369869481
20
-17.0907197674
11
-0.4803480658
21
-17.1133273003
0
LINE
5
255
100
AcDbEntity
8
0
100
AcDbLine
62
0
6
CONTINUOUS
10
1.9957956323
20
-16.8234480089
11
1.9321078434
21
-16.8552919033
0
LINE
5
256
100
AcDbEntity
8
0
100
AcDbLine
62
9
6
CONTINUOUS
10
5.1443803445
20
12.6900042017
11
-8.9828906969
21
19.7536397224
0
LINE
5
257
100
AcDbEntity
8
0
100
AcDbLine
62
0
6
CONTINUOUS
10
1.2817312804
20
-17.1627249068
11
1.9321078431
21
-16.8552919035
0
LINE
5
258
100
AcDbEntity
8
0
100
AcDbLine
62
0
6
CONTINUOUS
10
1.0804711876
20
-17.2411986664
11
1.2868433072
21
-17.1602792869
0
LINE
5
259
100
AcDbEntity
8
0
100
AcDbLine
62
9
6
CONTINUOUS
10
6.1926031886
20
14.4172241932
11
-7.9516068838
21
21.4893292295
0
LINE
5
25A
100
AcDbEntity
8
0
100
AcDbLine
62
0
6
CONTINUOUS
10
-4.0248410923
20
23.6079094607
11
10.2588882010
21
16.4660448141
0
LINE
5
25B
100
AcDbEntity
8
0
100
AcDbLine
62
9
6
CONTINUOUS
10
6.7582024570
20
-22.5008851716
11
10.8244874693
21
-20.6229400008
0
LINE
5
25C
100
AcDbEntity
8
0
100
AcDbLine
62
0
6
CONTINUOUS
10
6.5378987287
20
-22.9394353056
11
10.6081760573
21
-21.0596463509
0
SPLINE
5
25D
100
AcDbEntity
8
0
100
AcDbSpline
62
0
6
CONTINUOUS
70
0
71
3
72
8
73
4
74
2
42
0.0000001000
43
0.0000001000
44
0.0000000001
12
0.1924333861
22
0.1015557269
32
0.0000000000
13
0.2043295717
23
0.0748717477
33
0.0000000000
40
0.0000000000
40
0.0000000000
40
0.0000000000
40
0.0000000000
40
1.0000000000
40
1.0000000000
40
1.0000000000
40
1.0000000000
10
-5.1631394298
20
-7.8266641167
30
0.0000000000
10
-5.0989949678
20
-7.7928122077
30
0.0000000000
10
-5.0325440395
20
-7.7633044793
30
0.0000000000
10
-4.9644341823
20
-7.7383472301
30
0.0000000000
11
-5.1631394298
21
-7.8266641167
31
0.0000000000
11
-4.9644341823
21
-7.7383472301
31
0.0000000000
0
SPLINE
5
25E
100
AcDbEntity
8
0
100
AcDbSpline
62
9
6
CONTINUOUS
70
0
71
3
72
8
73
4
74
2
42
0.0000001000
43
0.0000001000
44
0.0000000001
12
-0.3812569311
22
0.1905984991
32
0.0000000000
13
-0.4041339175
23
0.1383711839
33
0.0000000000
40
0.0000000000
40
0.0000000000
40
0.0000000000
40
0.0000000000
40
1.0000000000
40
1.0000000000
40
1.0000000000
40
1.0000000000
10
-3.7928412515
20
-8.2353747998
30
0.0000000000
10
-3.9199268952
20
-8.1718419668
30
0.0000000000
10
-4.0511723691
20
-8.1157151455
30
0.0000000000
10
-4.1858836750
20
-8.0695914176
30
0.0000000000
11
-3.7928412515
21
-8.2353747998
31
0.0000000000
11
-4.1858836750
21
-8.0695914176
31
0.0000000000
0
SPLINE
5
25F
100
AcDbEntity
8
0
100
AcDbSpline
62
9
6
CONTINUOUS
70
0
71
3
72
9
73
5
74
3
42
0.0000001000
43
0.0000001000
44
0.0000000001
12
-0.7307404567
22
0.2501978125
32
0.0000000000
13
-0.7732617593
23
-0.0008434083
33
0.0000000000
40
0.0000000000
40
0.0000000000
40
0.0000000000
40
0.0000000000
40
0.2626518424
40
1.0000000000
40
1.0000000000
40
1.0000000000
40
1.0000000000
10
-4.1858836750
20
-8.0695914176
30
0.0000000000
10
-4.2498604507
20
-8.0476864454
30
0.0000000000
10
-4.4964168135
20
-7.9728771214
30
0.0000000000
10
-4.7532269792
20
-7.9348050346
30
0.0000000000
10
-4.9432813571
20
-7.9350123298
30
0.0000000000
11
-4.1858836750
21
-8.0695914176
31
0.0000000000
11
-4.3800847853
21
-8.0109231866
31
0.0000000000
11
-4.9432813571
21
-7.9350123298
31
0.0000000000
0
SPLINE
5
260
100
AcDbEntity
8
0
100
AcDbSpline
62
9
6
CONTINUOUS
70
0
71
3
72
8
73
4
74
2
42
0.0000001000
43
0.0000001000
44
0.0000000001
12
-0.3521549999
22
-0.0003841008
32
0.0000000000
13
-0.3453879258
23
-0.0693121844
33
0.0000000000
40
0.0000000000
40
0.0000000000
40
0.0000000000
40
0.0000000000
40
1.0000000000
40
1.0000000000
40
1.0000000000
40
1.0000000000
10
-4.9432813571
20
-7.9350123298
30
0.0000000000
10
-5.0606663570
20
-7.9351403634
30
0.0000000000
10
-5.1783168181
20
-7.9460564710
30
0.0000000000
10
-5.2934461267
20
-7.9691605324
30
0.0000000000
11
-4.9432813571
21
-7.9350123298
31
0.0000000000
11
-5.2934461267
21
-7.9691605324
31
0.0000000000
0
SPLINE
5
261
100
AcDbEntity
8
0
100
AcDbSpline
62
9
6
CONTINUOUS
70
0
71
3
72
9
73
5
74
3
42
0.0000001000
43
0.0000001000
44
0.0000000001
12
-0.4413712966
22
-0.0885740537
32
0.0000000000
13
-0.3986123666
23
-0.2102588251
33
0.0000000000
40
0.0000000000
40
0.0000000000
40
0.0000000000
40
0.0000000000
40
0.3788746777
40
1.0000000000
40
1.0000000000
40
1.0000000000
40
1.0000000000
10
-5.2934461267
20
-7.9691605324
30
0.0000000000
10
-5.3491875960
20
-7.9803466878
30
0.0000000000
10
-5.4947514909
20
-8.0174122215
30
0.0000000000
10
-5.6339950244
20
-8.0754878566
30
0.0000000000
10
-5.7165244360
20
-8.1190202167
30
0.0000000000
11
-5.2934461267
21
-7.9691605324
31
0.0000000000
11
-5.4585812808
21
-8.0114489885
31
0.0000000000
11
-5.7165244360
21
-8.1190202167
31
0.0000000000
0
SPLINE
5
262
100
AcDbEntity
8
0
100
AcDbSpline
62
9
6
CONTINUOUS
70
0
71
3
72
8
73
4
74
2
42
0.0000001000
43
0.0000001000
44
0.0000000001
12
0.1901953846
22
-0.0950689988
32
0.0000000000
13
0.1961445457
23
-0.0830191788
33
0.0000000000
40
0.0000000000
40
0.0000000000
40
0.0000000000
40
0.0000000000
40
1.0000000000
40
1.0000000000
40
1.0000000000
40
1.0000000000
10
-0.6357499736
20
-16.9614077774
30
0.0000000000
10
-0.5723515121
20
-16.9930974437
30
0.0000000000
10
-0.5079223693
20
-17.0229507579
30
0.0000000000
10
-0.4425408541
20
-17.0506238175
30
0.0000000000
11
-0.6357499736
21
-16.9614077774
31
0.0000000000
11
-0.4425408541
21
-17.0506238175
31
0.0000000000
0
SPLINE
5
263
100
AcDbEntity
8
0
100
AcDbSpline
62
9
6
CONTINUOUS
70
0
71
3
72
8
73
4
74
2
42
0.0000001000
43
0.0000001000
44
0.0000000001
12
0.3682804549
22
-0.1558765799
32
0.0000000000
13
0.3868702236
23
-0.1029302282
33
0.0000000000
40
0.0000000000
40
0.0000000000
40
0.0000000000
40
0.0000000000
40
1.0000000000
40
1.0000000000
40
1.0000000000
40
1.0000000000
10
-0.4425408541
20
-17.0506238175
30
0.0000000000
10
-0.3197807024
20
-17.1025826775
30
0.0000000000
10
-0.1936630842
20
-17.1468553303
30
0.0000000000
10
-0.0647063430
20
-17.1811654063
30
0.0000000000
11
-0.4425408541
21
-17.0506238175
31
0.0000000000
11
-0.0647063430
21
-17.1811654063
31
0.0000000000
0
SPLINE
5
264
100
AcDbEntity
8
0
100
AcDbSpline
62
9
6
CONTINUOUS
70
0
71
3
72
8
73
4
74
2
42
0.0000001000
43
0.0000001000
44
0.0000000001
12
0.3619364126
22
-0.0962963683
32
0.0000000000
13
0.3726344086
23
-0.0359985514
33
0.0000000000
40
0.0000000000
40
0.0000000000
40
0.0000000000
40
0.0000000000
40
1.0000000000
40
1.0000000000
40
1.0000000000
40
1.0000000000
10
-0.0647063430
20
-17.1811654063
30
0.0000000000
10
0.0559391279
20
-17.2132641958
30
0.0000000000
10
0.1790695516
20
-17.2366432033
30
0.0000000000
10
0.3032810211
20
-17.2486427204
30
0.0000000000
11
-0.0647063430
21
-17.1811654063
31
0.0000000000
11
0.3032810211
21
-17.2486427204
31
0.0000000000
0
SPLINE
5
265
100
AcDbEntity
8
0
100
AcDbSpline
62
9
6
CONTINUOUS
70
0
71
3
72
9
73
5
74
3
42
0.0000001000
43
0.0000001000
44
0.0000000001
12
0.5141602316
22
-0.0496707311
32
0.0000000000
13
0.5076092878
23
0.0993845172
33
0.0000000000
40
0.0000000000
40
0.0000000000
40
0.0000000000
40
0.0000000000
40
0.3434268815
40
1.0000000000
40
1.0000000000
40
1.0000000000
40
1.0000000000
10
0.3032810211
20
-17.2486427204
30
0.0000000000
10
0.3621398361
20
-17.2543288085
30
0.0000000000
10
0.5342334010
20
-17.2634454582
30
0.0000000000
10
0.7071185662
20
-17.2484978808
30
0.0000000000
10
0.8182127705
20
-17.2267468134
30
0.0000000000
11
0.3032810211
21
-17.2486427204
31
0.0000000000
11
0.4804363117
21
-17.2577524300
31
0.0000000000
11
0.8182127705
21
-17.2267468134
31
0.0000000000
0
SPLINE
5
266
100
AcDbEntity
8
0
100
AcDbSpline
62
9
6
CONTINUOUS
70
0
71
3
72
9
73
5
74
3
42
0.0000001000
43
0.0000001000
44
0.0000000001
12
0.3186011333
22
0.0623787243
32
0.0000000000
13
0.2978852584
23
0.1301016371
33
0.0000000000
40
0.0000000000
40
0.0000000000
40
0.0000000000
40
0.0000000000
40
0.5040651568
40
1.0000000000
40
1.0000000000
40
1.0000000000
40
1.0000000000
10
0.8182127705
20
-17.2267468134
30
0.0000000000
10
0.8717446806
20
-17.2162658329
30
0.0000000000
10
0.9768314537
20
-17.1899743874
30
0.0000000000
10
1.0784941635
20
-17.1520862630
30
0.0000000000
10
1.1277380565
20
-17.1305789514
30
0.0000000000
11
0.8182127705
21
-17.2267468134
31
0.0000000000
11
0.9768158503
21
-17.1868141260
31
0.0000000000
11
1.1277380565
21
-17.1305789514
31
0.0000000000
0
SPLINE
5
267
100
AcDbEntity
8
0
100
AcDbSpline
62
9
6
CONTINUOUS
70
0
71
3
72
8
73
4
74
2
42
0.0000001000
43
0.0000001000
44
0.0000000001
12
0.2941684406
22
0.1284783138
32
0.0000000000
13
0.2583699203
23
0.1899260732
33
0.0000000000
40
0.0000000000
40
0.0000000000
40
0.0000000000
40
0.0000000000
40
1.0000000000
40
1.0000000000
40
1.0000000000
40
1.0000000000
10
1.1277380565
20
-17.1305789514
30
0.0000000000
10
1.2257942033
20
-17.0877528468
30
0.0000000000
10
1.3191946803
20
-17.0341527218
30
0.0000000000
10
1.4053179870
20
-16.9708440307
30
0.0000000000
11
1.1277380565
21
-17.1305789514
31
0.0000000000
11
1.4053179870
21
-16.9708440307
31
0.0000000000
0
SPLINE
5
268
100
AcDbEntity
8
0
100
AcDbSpline
62
9
6
CONTINUOUS
70
0
71
3
72
8
73
4
74
2
42
0.0000001000
43
0.0000001000
44
0.0000000001
12
0.2635420561
22
0.1937280771
32
0.0000000000
13
0.2161767548
23
0.2457999100
33
0.0000000000
40
0.0000000000
40
0.0000000000
40
0.0000000000
40
0.0000000000
40
1.0000000000
40
1.0000000000
40
1.0000000000
40
1.0000000000
10
1.4053179870
20
-16.9708440307
30
0.0000000000
10
1.4931653390
20
-16.9062680050
30
0.0000000000
10
1.5734412510
20
-16.8315908240
30
0.0000000000
10
1.6455001693
20
-16.7496575207
30
0.0000000000
11
1.4053179870
21
-16.9708440307
31
0.0000000000
11
1.6455001693
21
-16.7496575207
31
0.0000000000
0
SPLINE
5
269
100
AcDbEntity
8
0
100
AcDbSpline
62
9
6
CONTINUOUS
70
0
71
3
72
8
73
4
74
2
42
0.0000001000
43
0.0000001000
44
0.0000000001
12
0.1113293875
22
0.1265850875
32
0.0000000000
13
0.0979891416
23
0.1369660123
33
0.0000000000
40
0.0000000000
40
0.0000000000
40
0.0000000000
40
0.0000000000
40
1.0000000000
40
1.0000000000
40
1.0000000000
40
1.0000000000
10
1.6455001693
20
-16.7496575207
30
0.0000000000
10
1.6826099651
20
-16.7074624915
30
0.0000000000
10
1.7175404730
20
-16.6633430140
30
0.0000000000
10
1.7502035203
20
-16.6176876766
30
0.0000000000
11
1.6455001693
21
-16.7496575207
31
0.0000000000
11
1.7502035203
21
-16.6176876766
31
0.0000000000
0
SPLINE
5
26A
100
AcDbEntity
8
0
100
AcDbSpline
62
9
6
CONTINUOUS
70
0
71
3
72
8
73
4
74
2
42
0.0000001000
43
0.0000001000
44
0.0000000001
12
0.3140202012
22
0.4389271508
32
0.0000000000
13
0.1864949846
23
0.5058655069
33
0.0000000000
40
0.0000000000
40
0.0000000000
40
0.0000000000
40
0.0000000000
40
1.0000000000
40
1.0000000000
40
1.0000000000
40
1.0000000000
10
1.7502035203
20
-16.6176876766
30
0.0000000000
10
1.8548769207
20
-16.4713786263
30
0.0000000000
10
1.9362640985
20
-16.3092967002
30
0.0000000000
10
1.9984290934
20
-16.1406748646
30
0.0000000000
11
1.7502035203
21
-16.6176876766
31
0.0000000000
11
1.9984290934
21
-16.1406748646
31
0.0000000000
0
SPLINE
5
26B
100
AcDbEntity
8
0
100
AcDbSpline
62
9
6
CONTINUOUS
70
0
71
3
72
17
73
13
74
11
42
0.0000001000
43
0.0000001000
44
0.0000000001
12
2.5706368073
22
6.9728228581
32
0.0000000000
13
-6.6291976094
23
3.3155362197
33
0.0000000000
40
0.0000000000
40
0.0000000000
40
0.0000000000
40
0.0000000000
40
0.0809274371
40
0.1708828429
40
0.2691273082
40
0.3739570448
40
0.4830456156
40
0.5937338889
40
0.7032308860
40
0.8089596271
40
0.9086197771
40
1.0000000000
40
1.0000000000
40
1.0000000000
40
1.0000000000
10
1.9984290934
20
-16.1406748646
30
0.0000000000
10
2.0677741096
20
-15.9525773035
30
0.0000000000
10
2.1636938890
20
-15.5382151469
30
0.0000000000
10
2.1892233800
20
-14.8705662263
30
0.0000000000
10
2.1043267348
20
-14.1490924042
30
0.0000000000
10
1.9125139375
20
-13.3999524400
30
0.0000000000
10
1.6207830293
20
-12.6509192226
30
0.0000000000
10
1.2396926994
20
-11.9301472663
30
0.0000000000
10
0.7830232446
20
-11.2647030852
30
0.0000000000
10
0.2671042164
20
-10.6795373335
30
0.0000000000
10
-0.2883955213
20
-10.1974838206
30
0.0000000000
10
-0.6905129499
20
-9.9451493803
30
0.0000000000
10
-0.8924388016
20
-9.8441579007
30
0.0000000000
11
1.9984290934
21
-16.1406748646
31
0.0000000000
11
2.1407488393
21
-15.5579617185
31
0.0000000000
11
2.1719013756
21
-14.8919325368
31
0.0000000000
11
2.0907997823
21
-14.1682663273
31
0.0000000000
11
1.9005281471
21
-13.4149158999
31
0.0000000000
11
1.6082158248
21
-12.6610289893
31
0.0000000000
11
1.2247463751
21
-11.9357300964
31
0.0000000000
11
0.7645274828
21
-11.2672278279
31
0.0000000000
11
0.2444585210
21
-10.6809957805
31
0.0000000000
11
-0.3160106886
21
-10.1998130530
31
0.0000000000
11
-0.8924388016
21
-9.8441579007
31
0.0000000000
0
SPLINE
5
26C
100
AcDbEntity
8
0
100
AcDbSpline
62
9
6
CONTINUOUS
70
0
71
3
72
8
73
4
74
2
42
0.0000001000
43
0.0000001000
44
0.0000000001
12
-0.1905060611
22
0.0952232527
32
0.0000000000
13
-0.1966064821
23
0.0828600258
33
0.0000000000
40
0.0000000000
40
0.0000000000
40
0.0000000000
40
0.0000000000
40
1.0000000000
40
1.0000000000
40
1.0000000000
40
1.0000000000
10
-3.8622872826
20
-8.3592336602
30
0.0000000000
10
-3.9257893030
20
-8.3274925760
30
0.0000000000
10
-3.9903530056
20
-8.2976413402
30
0.0000000000
10
-4.0558884997
20
-8.2700213316
30
0.0000000000
11
-3.8622872826
21
-8.3592336602
31
0.0000000000
11
-4.0558884997
21
-8.2700213316
31
0.0000000000
0
SPLINE
5
26D
100
AcDbEntity
8
0
100
AcDbSpline
62
9
6
CONTINUOUS
70
0
71
3
72
8
73
4
74
2
42
0.0000001000
43
0.0000001000
44
0.0000000001
12
-0.1884826806
22
0.0794362403
32
0.0000000000
13
-0.1936039237
23
0.0662299979
33
0.0000000000
40
0.0000000000
40
0.0000000000
40
0.0000000000
40
0.0000000000
40
1.0000000000
40
1.0000000000
40
1.0000000000
40
1.0000000000
10
-4.0558884997
20
-8.2700213316
30
0.0000000000
10
-4.1187160599
20
-8.2435425848
30
0.0000000000
10
-4.1824367616
20
-8.2191144856
30
0.0000000000
10
-4.2469714028
20
-8.1970378196
30
0.0000000000
11
-4.0558884997
21
-8.2700213316
31
0.0000000000
11
-4.2469714028
21
-8.1970378196
31
0.0000000000
0
SPLINE
5
26E
100
AcDbEntity
8
0
100
AcDbSpline
62
9
6
CONTINUOUS
70
0
71
3
72
10
73
6
74
4
42
0.0000001000
43
0.0000001000
44
0.0000000001
12
-0.8767544613
22
0.2999290769
32
0.0000000000
13
-0.9242007057
23
-0.0899294697
33
0.0000000000
40
0.0000000000
40
0.0000000000
40
0.0000000000
40
0.0000000000
40
0.2124841543
40
0.8126462030
40
1.0000000000
40
1.0000000000
40
1.0000000000
40
1.0000000000
10
-4.2469714028
20
-8.1970378196
30
0.0000000000
10
-4.3090702129
20
-8.1757944275
30
0.0000000000
10
-4.5494496317
20
-8.1028760154
30
0.0000000000
10
-4.8575428911
20
-8.0571588723
30
0.0000000000
10
-5.1013489858
20
-8.0687067867
30
0.0000000000
10
-5.1590664896
20
-8.0743229959
30
0.0000000000
11
-4.2469714028
21
-8.1970378196
31
0.0000000000
11
-4.4354582317
21
-8.1401074663
31
0.0000000000
11
-4.9854103674
21
-8.0659034964
31
0.0000000000
11
-5.1590664896
21
-8.0743229959
31
0.0000000000
0
SPLINE
5
26F
100
AcDbEntity
8
0
100
AcDbSpline
62
9
6
CONTINUOUS
70
0
71
3
72
8
73
4
74
2
42
0.0000001000
43
0.0000001000
44
0.0000000001
12
-0.1696002327
22
-0.0165029727
32
0.0000000000
13
-0.1669671392
23
-0.0335180087
33
0.0000000000
40
0.0000000000
40
0.0000000000
40
0.0000000000
40
0.0000000000
40
1.0000000000
40
1.0000000000
40
1.0000000000
40
1.0000000000
10
-5.1590664896
20
-8.0743229959
30
0.0000000000
10
-5.2155999005
20
-8.0798239868
30
0.0000000000
10
-5.2718597551
20
-8.0880773771
30
0.0000000000
10
-5.3275154682
20
-8.0992500467
30
0.0000000000
11
-5.1590664896
21
-8.0743229959
31
0.0000000000
11
-5.3275154682
21
-8.0992500467
31
0.0000000000
0
SPLINE
5
270
100
AcDbEntity
8
0
100
AcDbSpline
62
9
6
CONTINUOUS
70
0
71
3
72
8
73
4
74
2
42
0.0000001000
43
0.0000001000
44
0.0000000001
12
-0.1630420979
22
-0.0327300718
32
0.0000000000
13
-0.1586622250
23
-0.0498980704
33
0.0000000000
40
0.0000000000
40
0.0000000000
40
0.0000000000
40
0.0000000000
40
1.0000000000
40
1.0000000000
40
1.0000000000
40
1.0000000000
10
-5.3275154682
20
-8.0992500467
30
0.0000000000
10
-5.3818628342
20
-8.1101600706
30
0.0000000000
10
-5.4356341289
20
-8.1238537350
30
0.0000000000
10
-5.4885215372
20
-8.1404864251
30
0.0000000000
11
-5.3275154682
21
-8.0992500467
31
0.0000000000
11
-5.4885215372
21
-8.1404864251
31
0.0000000000
0
SPLINE
5
271
100
AcDbEntity
8
0
100
AcDbSpline
62
9
6
CONTINUOUS
70
0
71
3
72
8
73
4
74
2
42
0.0000001000
43
0.0000001000
44
0.0000000001
12
-0.1563416805
22
-0.0491682767
32
0.0000000000
13
-0.1502274511
23
-0.0658810687
33
0.0000000000
40
0.0000000000
40
0.0000000000
40
0.0000000000
40
0.0000000000
40
1.0000000000
40
1.0000000000
40
1.0000000000
40
1.0000000000
10
-5.4885215372
20
-8.1404864251
30
0.0000000000
10
-5.5406354307
20
-8.1568758507
30
0.0000000000
10
-5.5918911037
20
-8.1761189602
30
0.0000000000
10
-5.6419669207
20
-8.1980793164
30
0.0000000000
11
-5.4885215372
21
-8.1404864251
31
0.0000000000
11
-5.6419669207
21
-8.1980793164
31
0.0000000000
0
SPLINE
5
272
100
AcDbEntity
8
0
100
AcDbSpline
62
9
6
CONTINUOUS
70
0
71
3
72
8
73
4
74
2
42
0.0000001000
43
0.0000001000
44
0.0000000001
12
-0.1498617630
22
-0.0657206991
32
0.0000000000
13
-0.1418591728
23
-0.0815385742
33
0.0000000000
40
0.0000000000
40
0.0000000000
40
0.0000000000
40
0.0000000000
40
1.0000000000
40
1.0000000000
40
1.0000000000
40
1.0000000000
10
-5.6419669207
20
-8.1980793164
30
0.0000000000
10
-5.6919208417
20
-8.2199862161
30
0.0000000000
10
-5.7407006438
20
-8.2445971499
30
0.0000000000
10
-5.7879870348
20
-8.2717766746
30
0.0000000000
11
-5.6419669207
21
-8.1980793164
31
0.0000000000
11
-5.7879870348
21
-8.2717766746
31
0.0000000000
0
SPLINE
5
273
100
AcDbEntity
8
0
100
AcDbSpline
62
9
6
CONTINUOUS
70
0
71
3
72
8
73
4
74
2
42
0.0000001000
43
0.0000001000
44
0.0000000001
12
-0.1415440232
22
-0.0813574308
32
0.0000000000
13
-0.1316718172
23
-0.0962969496
33
0.0000000000
40
0.0000000000
40
0.0000000000
40
0.0000000000
40
0.0000000000
40
1.0000000000
40
1.0000000000
40
1.0000000000
40
1.0000000000
10
-5.7879870348
20
-8.2717766746
30
0.0000000000
10
-5.8351683758
20
-8.2988958182
30
0.0000000000
10
-5.8808629337
20
-8.3285721529
30
0.0000000000
10
-5.9247535395
20
-8.3606711361
30
0.0000000000
11
-5.7879870348
21
-8.2717766746
31
0.0000000000
11
-5.9247535395
21
-8.3606711361
31
0.0000000000
0
SPLINE
5
274
100
AcDbEntity
8
0
100
AcDbSpline
62
9
6
CONTINUOUS
70
0
71
3
72
8
73
4
74
2
42
0.0000001000
43
0.0000001000
44
0.0000000001
12
-0.1329791617
22
-0.0972530638
32
0.0000000000
13
-0.1216772859
23
-0.1110833362
33
0.0000000000
40
0.0000000000
40
0.0000000000
40
0.0000000000
40
0.0000000000
40
1.0000000000
40
1.0000000000
40
1.0000000000
40
1.0000000000
10
-5.9247535395
20
-8.3606711361
30
0.0000000000
10
-5.9690799267
20
-8.3930888240
30
0.0000000000
10
-6.0115663617
20
-8.4279775073
30
0.0000000000
10
-6.0521254570
20
-8.4650052861
30
0.0000000000
11
-5.9247535395
21
-8.3606711361
31
0.0000000000
11
-6.0521254570
21
-8.4650052861
31
0.0000000000
0
SPLINE
5
275
100
AcDbEntity
8
0
100
AcDbSpline
62
9
6
CONTINUOUS
70
0
71
3
72
8
73
4
74
2
42
0.0000001000
43
0.0000001000
44
0.0000000001
12
-0.1281329012
22
-0.1169768871
32
0.0000000000
13
-0.1150031040
23
-0.1300467306
33
0.0000000000
40
0.0000000000
40
0.0000000000
40
0.0000000000
40
0.0000000000
40
1.0000000000
40
1.0000000000
40
1.0000000000
40
1.0000000000
10
-6.0521254570
20
-8.4650052861
30
0.0000000000
10
-6.0948364241
20
-8.5039975818
30
0.0000000000
10
-6.1354101154
20
-8.5453619745
30
0.0000000000
10
-6.1737444834
20
-8.5887108847
30
0.0000000000
11
-6.0521254570
21
-8.4650052861
31
0.0000000000
11
-6.1737444834
21
-8.5887108847
31
0.0000000000
0
SPLINE
5
276
100
AcDbEntity
8
0
100
AcDbSpline
62
9
6
CONTINUOUS
70
0
71
3
72
13
73
9
74
7
42
0.0000001000
43
0.0000001000
44
0.0000000001
12
-2.3176395047
22
-2.6208113500
32
0.0000000000
13
1.0895289450
23
-3.3107409410
33
0.0000000000
40
0.0000000000
40
0.0000000000
40
0.0000000000
40
0.0000000000
40
0.0473518035
40
0.2034404187
40
0.3765476887
40
0.5682082360
40
0.7771381498
40
1.0000000000
40
1.0000000000
40
1.0000000000
40
1.0000000000
10
-6.1737444834
20
-8.5887108847
30
0.0000000000
10
-6.2103259535
20
-8.6300775993
30
0.0000000000
10
-6.3587319450
20
-8.8155682015
30
0.0000000000
10
-6.5607165838
20
-9.2091281398
30
0.0000000000
10
-6.7020784942
20
-9.8018553878
30
0.0000000000
10
-6.7291742476
20
-10.4707713660
30
0.0000000000
10
-6.6424712417
20
-11.1920391959
30
0.0000000000
10
-6.5145354935
20
-11.6782117786
30
0.0000000000
10
-6.4335973480
20
-11.9241577292
30
0.0000000000
11
-6.1737444834
21
-8.5887108847
31
0.0000000000
11
-6.2772825770
21
-8.7178957533
31
0.0000000000
11
-6.5319743650
21
-9.1982091480
31
0.0000000000
11
-6.6786270085
21
-9.7830411880
31
0.0000000000
11
-6.7112751548
21
-10.4498031715
31
0.0000000000
11
-6.6285145695
21
-11.1727924487
31
0.0000000000
11
-6.4335973480
21
-11.9241577292
31
0.0000000000
0
SPLINE
5
277
100
AcDbEntity
8
0
100
AcDbSpline
62
9
6
CONTINUOUS
70
0
71
3
72
8
73
4
74
2
42
0.0000001000
43
0.0000001000
44
0.0000000001
12
0.0833360993
22
-0.2532325891
32
0.0000000000
13
0.0936512050
23
-0.2495757631
33
0.0000000000
40
0.0000000000
40
0.0000000000
40
0.0000000000
40
0.0000000000
40
1.0000000000
40
1.0000000000
40
1.0000000000
40
1.0000000000
10
-6.4335973480
20
-11.9241577292
30
0.0000000000
10
-6.4058186483
20
-12.0085685922
30
0.0000000000
10
-6.3762840968
20
-12.0923924228
30
0.0000000000
10
-6.3450670285
20
-12.1755843438
30
0.0000000000
11
-6.4335973480
21
-11.9241577292
31
0.0000000000
11
-6.3450670285
21
-12.1755843438
31
0.0000000000
0
SPLINE
5
278
100
AcDbEntity
8
0
100
AcDbSpline
62
9
6
CONTINUOUS
70
0
71
3
72
8
73
4
74
2
42
0.0000001000
43
0.0000001000
44
0.0000000001
12
0.0950661936
22
-0.2533466367
32
0.0000000000
13
0.1052385280
23
-0.2492989161
33
0.0000000000
40
0.0000000000
40
0.0000000000
40
0.0000000000
40
0.0000000000
40
1.0000000000
40
1.0000000000
40
1.0000000000
40
1.0000000000
10
-6.3450670285
20
-12.1755843438
30
0.0000000000
10
-6.3133782973
20
-12.2600332227
30
0.0000000000
10
-6.2799558224
20
-12.3438309525
30
0.0000000000
10
-6.2448763130
20
-12.4269305912
30
0.0000000000
11
-6.3450670285
21
-12.1755843438
31
0.0000000000
11
-6.2448763130
21
-12.4269305912
31
0.0000000000
0
SPLINE
5
279
100
AcDbEntity
8
0
100
AcDbSpline
62
9
6
CONTINUOUS
70
0
71
3
72
9
73
5
74
3
42
0.0000001000
43
0.0000001000
44
0.0000000001
12
0.2117982734
22
-0.5017276560
32
0.0000000000
13
0.2504250584
23
-0.4835765669
33
0.0000000000
40
0.0000000000
40
0.0000000000
40
0.0000000000
40
0.0000000000
40
0.4986742182
40
1.0000000000
40
1.0000000000
40
1.0000000000
40
1.0000000000
10
-6.2448763130
20
-12.4269305912
30
0.0000000000
10
-6.2096702002
20
-12.5103301401
30
0.0000000000
10
-6.1357238680
20
-12.6761626751
30
0.0000000000
10
-6.0553777470
20
-12.8389768591
30
0.0000000000
10
-6.0135295676
20
-12.9197866593
30
0.0000000000
11
-6.2448763130
21
-12.4269305912
31
0.0000000000
11
-6.1343284677
21
-12.6749723682
31
0.0000000000
11
-6.0135295676
21
-12.9197866593
31
0.0000000000
0
SPLINE
5
27A
100
AcDbEntity
8
0
100
AcDbSpline
62
9
6
CONTINUOUS
70
0
71
3
72
8
73
4
74
2
42
0.0000001000
43
0.0000001000
44
0.0000000001
12
0.2521745052
22
-0.4869547890
32
0.0000000000
13
0.2891782771
23
-0.4659438166
33
0.0000000000
40
0.0000000000
40
0.0000000000
40
0.0000000000
40
0.0000000000
40
1.0000000000
40
1.0000000000
40
1.0000000000
40
1.0000000000
10
-6.0135295676
20
-12.9197866593
30
0.0000000000
10
-5.9294713993
20
-13.0821049223
30
0.0000000000
10
-5.8390844768
20
-13.2411424116
30
0.0000000000
10
-5.7426917178
20
-13.3964570171
30
0.0000000000
11
-6.0135295676
21
-12.9197866593
31
0.0000000000
11
-5.7426917178
21
-13.3964570171
31
0.0000000000
0
SPLINE
5
27B
100
AcDbEntity
8
0
100
AcDbSpline
62
9
6
CONTINUOUS
70
0
71
3
72
11
73
7
74
5
42
0.0000001000
43
0.0000001000
44
0.0000000001
12
1.3561149538
22
-2.1850651564
32
0.0000000000
13
2.1562342941
23
-1.4066106467
33
0.0000000000
40
0.0000000000
40
0.0000000000
40
0.0000000000
40
0.0000000000
40
0.3162685010
40
0.6218259062
40
0.9097952545
40
1.0000000000
40
1.0000000000
40
1.0000000000
40
1.0000000000
10
-5.7426917178
20
-13.3964570171
30
0.0000000000
10
-5.5997262366
20
-13.6268127777
30
0.0000000000
10
-5.2926618376
20
-14.0636213338
30
0.0000000000
10
-4.7701633050
20
-14.6447919847
30
0.0000000000
10
-4.3239005898
20
-15.0268892646
30
0.0000000000
10
-4.0568371851
20
-15.2116100336
30
0.0000000000
10
-3.9920029965
20
-15.2539043520
30
0.0000000000
11
-5.7426917178
21
-13.3964570171
31
0.0000000000
11
-5.2744247000
21
-14.0609038847
31
0.0000000000
11
-4.7477322038
21
-14.6434502305
31
0.0000000000
11
-4.1830896498
21
-15.1219737771
31
0.0000000000
11
-3.9920029965
21
-15.2539043520
31
0.0000000000
0
SPLINE
5
27C
100
AcDbEntity
8
0
100
AcDbSpline
62
9
6
CONTINUOUS
70
0
71
3
72
8
73
4
74
2
42
0.0000001000
43
0.0000001000
44
0.0000000001
12
0.1892694541
22
-0.1234691564
32
0.0000000000
13
0.1956506876
23
-0.1127354390
33
0.0000000000
40
0.0000000000
40
0.0000000000
40
0.0000000000
40
0.0000000000
40
1.0000000000
40
1.0000000000
40
1.0000000000
40
1.0000000000
10
-3.9920029965
20
-15.2539043520
30
0.0000000000
10
-3.9289131785
20
-15.2950607375
30
0.0000000000
10
-3.8647511262
20
-15.3345443252
30
0.0000000000
10
-3.7995342303
20
-15.3721228049
30
0.0000000000
11
-3.9920029965
21
-15.2539043520
31
0.0000000000
11
-3.7995342303
21
-15.3721228049
31
0.0000000000
0
SPLINE
5
27D
100
AcDbEntity
8
0
100
AcDbSpline
62
9
6
CONTINUOUS
70
0
71
3
72
8
73
4
74
2
42
0.0000001000
43
0.0000001000
44
0.0000000001
12
0.1909380220
22
-0.1100199647
32
0.0000000000
13
0.1969173655
23
-0.0984855751
33
0.0000000000
40
0.0000000000
40
0.0000000000
40
0.0000000000
40
0.0000000000
40
1.0000000000
40
1.0000000000
40
1.0000000000
40
1.0000000000
10
-3.7995342303
20
-15.3721228049
30
0.0000000000
10
-3.7358882230
20
-15.4087961264
30
0.0000000000
10
-3.6712375764
20
-15.4436550119
30
0.0000000000
10
-3.6055984546
20
-15.4764835369
30
0.0000000000
11
-3.7995342303
21
-15.3721228049
31
0.0000000000
11
-3.6055984546
21
-15.4764835369
31
0.0000000000
0
SPLINE
5
27E
100
AcDbEntity
8
0
100
AcDbSpline
62
9
6
CONTINUOUS
70
0
71
3
72
9
73
5
74
3
42
0.0000001000
43
0.0000001000
44
0.0000000001
12
0.0027368909
22
-0.0570514157
32
0.0000000000
13
0.0516793480
23
-0.0271493092
33
0.0000000000
40
0.0000000000
40
0.0000000000
40
0.0000000000
40
0.0000000000
40
0.6479489641
40
1.0000000000
40
1.0000000000
40
1.0000000000
40
1.0000000000
10
-0.6357499736
20
-16.9614077774
30
0.0000000000
10
-0.6351588517
20
-16.9737299126
30
0.0000000000
10
-0.6311123415
20
-16.9937315989
30
0.0000000000
10
-0.6158742055
20
-17.0071495837
30
0.0000000000
10
-0.6098096161
20
-17.0103355645
30
0.0000000000
11
-0.6357499736
21
-16.9614077774
31
0.0000000000
11
-0.6252163193
21
-16.9968859693
31
0.0000000000
11
-0.6098096161
21
-17.0103355645
31
0.0000000000
0
SPLINE
5
27F
100
AcDbEntity
8
0
100
AcDbSpline
62
9
6
CONTINUOUS
70
0
71
3
72
9
73
5
74
3
42
0.0000001000
43
0.0000001000
44
0.0000000001
12
0.0027396837
22
-0.0571096483
32
0.0000000000
13
0.0517668929
23
-0.0271007761
33
0.0000000000
40
0.0000000000
40
0.0000000000
40
0.0000000000
40
0.0000000000
40
0.6473127876
40
1.0000000000
40
1.0000000000
40
1.0000000000
40
1.0000000000
10
-3.6055984546
20
-15.4764835369
30
0.0000000000
10
-3.6050073105
20
-15.4888061388
30
0.0000000000
10
-3.6009564892
20
-15.5088284206
30
0.0000000000
10
-3.5856911452
20
-15.5222529453
30
0.0000000000
10
-3.5796053048
20
-15.5254389777
30
0.0000000000
11
-3.6055984546
21
-15.4764835369
31
0.0000000000
11
-3.5950639734
21
-15.5119629453
31
0.0000000000
11
-3.5796053048
21
-15.5254389777
31
0.0000000000
0
SPLINE
5
280
100
AcDbEntity
8
0
100
AcDbSpline
62
9
6
CONTINUOUS
70
0
71
3
72
10
73
6
74
4
42
0.0000001000
43
0.0000001000
44
0.0000000001
12
-0.0035871819
22
0.1475541843
32
0.0000000000
13
0.1308773356
23
0.0682365606
33
0.0000000000
40
0.0000000000
40
0.0000000000
40
0.0000000000
40
0.0000000000
40
0.3317229985
40
0.6843835811
40
1.0000000000
40
1.0000000000
40
1.0000000000
40
1.0000000000
10
-3.8622872826
20
-8.3592336602
30
0.0000000000
10
-3.8626839329
20
-8.3429179547
30
0.0000000000
10
-3.8557654917
20
-8.3090117343
30
0.0000000000
10
-3.8316444726
20
-8.2655495633
30
0.0000000000
10
-3.8066102624
20
-8.2425536600
30
0.0000000000
10
-3.7928412504
20
-8.2353748004
30
0.0000000000
11
-3.8622872826
21
-8.3592336602
31
0.0000000000
11
-3.8537241978
21
-8.3110267129
31
0.0000000000
11
-3.8282683285
21
-8.2656240581
31
0.0000000000
11
-3.7928412504
21
-8.2353748004
31
0.0000000000
0
SPLINE
5
281
100
AcDbEntity
8
0
100
AcDbSpline
62
9
6
CONTINUOUS
70
0
71
3
72
10
73
6
74
4
42
0.0000001000
43
0.0000001000
44
0.0000000001
12
-0.0035871791
22
0.1475541866
32
0.0000000000
13
0.1308773370
23
0.0682365629
33
0.0000000000
40
0.0000000000
40
0.0000000000
40
0.0000000000
40
0.0000000000
40
0.3317386883
40
0.6843963937
40
1.0000000000
40
1.0000000000
40
1.0000000000
40
1.0000000000
10
-0.8924388016
20
-9.8441579007
30
0.0000000000
10
-0.8928354703
20
-9.8278414232
30
0.0000000000
10
-0.8859165618
20
-9.7939345592
30
0.0000000000
10
-0.8617950097
20
-9.7504726921
30
0.0000000000
10
-0.8367612237
20
-9.7274776088
30
0.0000000000
10
-0.8229927705
20
-9.7202990403
30
0.0000000000
11
-0.8924388016
21
-9.8441579007
31
0.0000000000
11
-0.8838749133
21
-9.7959487433
31
0.0000000000
11
-0.8584186420
21
-9.7505467998
31
0.0000000000
11
-0.8229927705
21
-9.7202990403
31
0.0000000000
0
SPLINE
5
282
100
AcDbEntity
8
0
100
AcDbSpline
62
9
6
CONTINUOUS
70
0
71
3
72
8
73
4
74
2
42
0.0000001000
43
0.0000001000
44
0.0000000001
12
0.1022522953
22
0.0488577635
32
0.0000000000
13
0.0982352998
23
0.0564554756
33
0.0000000000
40
0.0000000000
40
0.0000000000
40
0.0000000000
40
0.0000000000
40
1.0000000000
40
1.0000000000
40
1.0000000000
40
1.0000000000
10
1.2867451268
20
-17.1600993609
30
0.0000000000
10
1.3208292252
20
-17.1438134398
30
0.0000000000
10
1.3542985588
20
-17.1262389474
30
0.0000000000
10
1.3870436587
20
-17.1074204556
30
0.0000000000
11
1.2867451268
21
-17.1600993609
31
0.0000000000
11
1.3870436587
21
-17.1074204556
31
0.0000000000
0
SPLINE
5
283
100
AcDbEntity
8
0
100
AcDbSpline
62
9
6
CONTINUOUS
70
0
71
3
72
9
73
5
74
3
42
0.0000001000
43
0.0000001000
44
0.0000000001
12
0.4332987185
22
0.2490152246
32
0.0000000000
13
0.3302968703
23
0.3749508423
33
0.0000000000
40
0.0000000000
40
0.0000000000
40
0.0000000000
40
0.0000000000
40
0.3292341289
40
1.0000000000
40
1.0000000000
40
1.0000000000
40
1.0000000000
10
1.3870436587
20
-17.1074204556
30
0.0000000000
10
1.4345959007
20
-17.0800923521
30
0.0000000000
10
1.5743898193
20
-16.9891189946
30
0.0000000000
10
1.6970006781
20
-16.8752024375
30
0.0000000000
10
1.7708513007
20
-16.7913676948
30
0.0000000000
11
1.3870436587
21
-17.1074204556
31
0.0000000000
11
1.5247831991
21
-17.0177023532
31
0.0000000000
11
1.7708513007
21
-16.7913676948
31
0.0000000000
0
SPLINE
5
284
100
AcDbEntity
8
0
100
AcDbSpline
62
9
6
CONTINUOUS
70
0
71
3
72
8
73
4
74
2
42
0.0000001000
43
0.0000001000
44
0.0000000001
12
0.1143788902
22
0.1298421665
32
0.0000000000
13
0.1006848044
23
0.1405165492
33
0.0000000000
40
0.0000000000
40
0.0000000000
40
0.0000000000
40
0.0000000000
40
1.0000000000
40
1.0000000000
40
1.0000000000
40
1.0000000000
10
1.7708513007
20
-16.7913676948
30
0.0000000000
10
1.8089775975
20
-16.7480869726
30
0.0000000000
10
1.8448670527
20
-16.7028277141
30
0.0000000000
10
1.8784286542
20
-16.6559888644
30
0.0000000000
11
1.7708513007
21
-16.7913676948
31
0.0000000000
11
1.8784286542
21
-16.6559888644
31
0.0000000000
0
SPLINE
5
285
100
AcDbEntity
8
0
100
AcDbSpline
62
9
6
CONTINUOUS
70
0
71
3
72
8
73
4
74
2
42
0.0000001000
43
0.0000001000
44
0.0000000001
12
0.2109927838
22
0.2944632812
32
0.0000000000
13
0.1531427414
23
0.3281182925
33
0.0000000000
40
0.0000000000
40
0.0000000000
40
0.0000000000
40
0.0000000000
40
1.0000000000
40
1.0000000000
40
1.0000000000
40
1.0000000000
10
1.8784286542
20
-16.6559888644
30
0.0000000000
10
1.9487595821
20
-16.5578344373
30
0.0000000000
10
2.0088678709
20
-16.4527433240
30
0.0000000000
10
2.0599154513
20
-16.3433705598
30
0.0000000000
11
1.8784286542
21
-16.6559888644
31
0.0000000000
11
2.0599154513
21
-16.3433705598
31
0.0000000000
0
SPLINE
5
286
100
AcDbEntity
8
0
100
AcDbSpline
62
9
6
CONTINUOUS
70
0
71
3
72
8
73
4
74
2
42
0.0000001000
43
0.0000001000
44
0.0000000001
12
0.0806117535
22
0.1727159294
32
0.0000000000
13
0.0660569536
23
0.1786723581
33
0.0000000000
40
0.0000000000
40
0.0000000000
40
0.0000000000
40
0.0000000000
40
1.0000000000
40
1.0000000000
40
1.0000000000
40
1.0000000000
10
2.0599154513
20
-16.3433705598
30
0.0000000000
10
2.0867860358
20
-16.2857985834
30
0.0000000000
10
2.1111460866
20
-16.2270402506
30
0.0000000000
10
2.1331650712
20
-16.1674827979
30
0.0000000000
11
2.0599154513
21
-16.3433705598
31
0.0000000000
11
2.1331650712
21
-16.1674827979
31
0.0000000000
0
SPLINE
5
287
100
AcDbEntity
8
0
100
AcDbSpline
62
9
6
CONTINUOUS
70
0
71
3
72
8
73
4
74
2
42
0.0000001000
43
0.0000001000
44
0.0000000001
12
0.2136088659
22
0.5777741429
32
0.0000000000
13
0.0852170052
23
0.6094892564
33
0.0000000000
40
0.0000000000
40
0.0000000000
40
0.0000000000
40
0.0000000000
40
1.0000000000
40
1.0000000000
40
1.0000000000
40
1.0000000000
10
2.1331650712
20
-16.1674827979
30
0.0000000000
10
2.2043680265
20
-15.9748914169
30
0.0000000000
10
2.2510907697
20
-15.7739437477
30
0.0000000000
10
2.2794964381
20
-15.5707806622
30
0.0000000000
11
2.1331650712
21
-16.1674827979
31
0.0000000000
11
2.2794964381
21
-15.5707806622
31
0.0000000000
0
SPLINE
5
288
100
AcDbEntity
8
0
100
AcDbSpline
62
9
6
CONTINUOUS
70
0
71
3
72
10
73
6
74
4
42
0.0000001000
43
0.0000001000
44
0.0000000001
12
0.3084335875
22
2.2059793979
32
0.0000000000
13
-0.6771287925
23
2.1196074761
33
0.0000000000
40
0.0000000000
40
0.0000000000
40
0.0000000000
40
0.0000000000
40
0.3070344984
40
0.6423010896
40
1.0000000000
40
1.0000000000
40
1.0000000000
40
1.0000000000
10
2.2794964381
20
-15.5707806622
30
0.0000000000
10
2.3110630221
20
-15.3450100696
30
0.0000000000
10
2.3297778920
20
-14.8669857076
30
0.0000000000
10
2.2434472759
20
-14.1282548697
30
0.0000000000
10
2.1160351630
20
-13.6292509852
30
0.0000000000
10
2.0352990859
20
-13.3765238903
30
0.0000000000
11
2.2794964381
21
-15.5707806622
31
0.0000000000
11
2.3120081350
21
-14.8888052464
31
0.0000000000
11
2.2295631331
21
-14.1478484976
31
0.0000000000
11
2.0352990859
21
-13.3765238903
31
0.0000000000
0
SPLINE
5
289
100
AcDbEntity
8
0
100
AcDbSpline
62
9
6
CONTINUOUS
70
0
71
3
72
8
73
4
74
2
42
0.0000001000
43
0.0000001000
44
0.0000000001
12
-0.0832135611
22
0.2604823310
32
0.0000000000
13
-0.0936137614
23
0.2569042222
33
0.0000000000
40
0.0000000000
40
0.0000000000
40
0.0000000000
40
0.0000000000
40
1.0000000000
40
1.0000000000
40
1.0000000000
40
1.0000000000
10
2.0352990859
20
-13.3765238903
30
0.0000000000
10
2.0075612322
20
-13.2896964467
30
0.0000000000
10
1.9780566603
20
-13.2034416605
30
0.0000000000
10
1.9468520732
20
-13.1178069198
30
0.0000000000
11
2.0352990859
21
-13.3765238903
31
0.0000000000
11
1.9468520732
21
-13.1178069198
31
0.0000000000
0
SPLINE
5
28A
100
AcDbEntity
8
0
100
AcDbSpline
62
9
6
CONTINUOUS
70
0
71
3
72
13
73
9
74
7
42
0.0000001000
43
0.0000001000
44
0.0000000001
12
-1.3777845568
22
3.7810538151
32
0.0000000000
13
-3.3682588736
23
2.2108366888
33
0.0000000000
40
0.0000000000
40
0.0000000000
40
0.0000000000
40
0.0000000000
40
0.1378457381
40
0.3466521895
40
0.5532153383
40
0.7526789859
40
0.9407071649
40
1.0000000000
40
1.0000000000
40
1.0000000000
40
1.0000000000
10
1.9468520732
20
-13.1178069198
30
0.0000000000
10
1.8835448301
20
-12.9440728685
30
0.0000000000
10
1.7067444380
20
-12.5135872571
30
0.0000000000
10
1.3595942527
20
-11.8563345019
30
0.0000000000
10
0.8923357984
20
-11.1750018709
30
0.0000000000
10
0.3643299823
20
-10.5758401666
30
0.0000000000
10
-0.0894161659
20
-10.1819843686
30
0.0000000000
10
-0.3620541676
20
-9.9919010007
30
0.0000000000
10
-0.4286253736
20
-9.9482054090
30
0.0000000000
11
1.9468520732
21
-13.1178069198
31
0.0000000000
11
1.7364958104
21
-12.6046566981
31
0.0000000000
11
1.3442823752
21
-11.8620563127
31
0.0000000000
11
0.8734008232
21
-11.1775972205
31
0.0000000000
11
0.3411503581
21
-10.5773525495
31
0.0000000000
11
-0.2325631075
21
-10.0846480968
31
0.0000000000
11
-0.4286253736
21
-9.9482054090
31
0.0000000000
0
SPLINE
5
28B
100
AcDbEntity
8
0
100
AcDbSpline
62
9
6
CONTINUOUS
70
0
71
3
72
8
73
4
74
2
42
0.0000001000
43
0.0000001000
44
0.0000000001
12
-0.3813187960
22
0.2502876460
32
0.0000000000
13
-0.4072437089
23
0.2036506826
33
0.0000000000
40
0.0000000000
40
0.0000000000
40
0.0000000000
40
0.0000000000
40
1.0000000000
40
1.0000000000
40
1.0000000000
40
1.0000000000
10
-0.4286253736
20
-9.9482054090
30
0.0000000000
10
-0.5557316389
20
-9.8647761937
30
0.0000000000
10
-0.6872448675
20
-9.7881826012
30
0.0000000000
10
-0.8229927705
20
-9.7202990403
30
0.0000000000
11
-0.4286253736
21
-9.9482054090
31
0.0000000000
11
-0.8229927705
21
-9.7202990403
31
0.0000000000
0
SPLINE
5
28C
100
AcDbEntity
8
ASSI
100
AcDbSpline
62
9
6
CONTINUOUS
70
0
71
3
72
13
73
9
74
7
42
0.0000001000
43
0.0000001000
44
0.0000000001
12
-0.1091799593
22
0.0545899796
32
-0.0945526183
13
-0.0668357005
23
0.1388881068
33
0.0126167560
40
0.0000000000
40
0.0000000000
40
0.0000000000
40
0.0000000000
40
0.1666666667
40
0.3333333333
40
0.5000000000
40
0.6666666667
40
0.8333333333
40
1.0000000000
40
1.0000000000
40
1.0000000000
40
1.0000000000
10
-4.8894476379
20
-12.1846172093
30
-8.4907541125
10
-4.8955131911
20
-12.1815844327
30
-8.4960070357
10
-4.9072234028
20
-12.1745822624
30
-8.5053811323
10
-4.9244444516
20
-12.1610710954
30
-8.5170172060
10
-4.9410786248
20
-12.1446415928
30
-8.5259972715
10
-4.9565187750
20
-12.1258340661
30
-8.5319544714
10
-4.9702388982
20
-12.1053491032
30
-8.5347266474
10
-4.9781523605
20
-12.0907845031
30
-8.5344886055
10
-4.9818654550
20
-12.0830684972
30
-8.5337876746
11
-4.8894476379
21
-12.1846172093
31
-8.4907541125
11
-4.9071660247
21
-12.1740809438
31
-8.5049769538
11
-4.9243466390
21
-12.1605847062
31
-8.5165745380
11
-4.9408796209
21
-12.1442452555
31
-8.5254934606
11
-4.9562321038
21
-12.1255544934
31
-8.5314236341
11
-4.9699305766
21
-12.1051221137
31
-8.5342051076
11
-4.9818654550
21
-12.0830684972
31
-8.5337876746
0
SPLINE
5
28D
100
AcDbEntity
8
ASSI
100
AcDbSpline
62
9
6
CONTINUOUS
70
0
71
3
72
18
73
14
74
12
42
0.0000001000
43
0.0000001000
44
0.0000000001
12
2.2234468363
22
4.7941350760
32
5.7956375376
13
-2.1783129898
23
-4.2135322701
33
-5.4353856493
40
0.0000000000
40
0.0000000000
40
0.0000000000
40
0.0000000000
40
0.0704225352
40
0.1408450704
40
0.2112676056
40
0.2816901408
40
0.3521126761
40
0.4225352113
40
0.5633802817
40
0.7042253521
40
0.8450704225
40
0.9859154930
40
1.0000000000
40
1.0000000000
40
1.0000000000
40
1.0000000000
10
-2.4440794578
20
-11.7325946046
30
-5.2642434748
10
-2.3918858701
20
-11.6200562226
30
-5.1281956452
10
-2.2673919132
20
-11.4404265349
30
-4.8623184691
10
-2.0198729267
20
-11.2637672657
30
-4.4524235587
10
-1.7153889612
20
-11.1880519425
30
-4.0408540926
10
-1.3760303111
20
-11.2194551381
30
-3.6574650681
10
-1.0179383759
20
-11.3541137074
30
-3.3186503225
10
-0.5382963829
20
-11.6617284627
30
-2.9471060252
10
0.0221682443
20
-12.2604766965
30
-2.6678839322
10
0.5021859294
20
-13.1832706832
30
-2.6971549857
10
0.6973673938
20
-14.1300807960
30
-3.0871582786
10
0.6075347656
20
-14.6787875947
30
-3.5600958626
10
0.5003547159
20
-14.9023563351
30
-3.8383228634
10
0.4901278943
20
-14.9221381767
30
-3.8638411059
11
-2.4440794578
21
-11.7325946046
31
-5.2642434748
11
-2.2572622380
21
-11.4558907453
31
-4.8604719447
11
-2.0103787635
21
-11.2805912567
31
-4.4521444661
11
-1.7095765138
21
-11.2059050290
31
-4.0455508329
11
-1.3729080969
21
-11.2366643670
31
-3.6648941146
11
-1.0176651160
21
-11.3701224569
31
-3.3286764096
11
-0.6608127388
21
-11.5991067598
31
-3.0523393181
11
-0.0099217336
21
-12.2945260475
31
-2.7286068597
11
0.4547132260
21
-13.1872733709
31
-2.7572770256
11
0.6434484287
21
-14.1029235864
31
-3.1347619165
11
0.5193450980
21
-14.8611797946
31
-3.7879881839
11
0.4901278943
21
-14.9221381767
31
-3.8638411059
0
SPLINE
5
28E
100
AcDbEntity
8
ASSI
100
AcDbSpline
62
9
6
CONTINUOUS
70
0
71
3
72
27
73
23
74
21
42
0.0000001000
43
0.0000001000
44
0.0000000001
12
-1.6356405587
22
0.8178202794
32
-1.4165062753
13
1.6066206144
23
-0.8033103072
33
1.3913742663
40
0.0000000000
40
0.0000000000
40
0.0000000000
40
0.0000000000
40
0.0208333333
40
0.0416666667
40
0.0625000000
40
0.0833333333
40
0.1250000000
40
0.1458333333
40
0.1666666667
40
0.2083333333
40
0.2500000000
40
0.3333333333
40
0.4166666667
40
0.5000000000
40
0.5833333333
40
0.6666666667
40
0.7500000000
40
0.8333333333
40
0.8750000000
40
0.9166666667
40
0.9583333333
40
1.0000000000
40
1.0000000000
40
1.0000000000
40
1.0000000000
10
-0.4287506660
20
-14.1392175770
30
-4.4435482119
10
-0.4401092810
20
-14.1335382695
30
-4.4533850610
10
-0.4611623779
20
-14.1221285801
30
-4.4710288554
10
-0.4935326401
20
-14.1020756731
30
-4.4964840587
10
-0.5250065244
20
-14.0800337871
30
-4.5195386174
10
-0.5662297326
20
-14.0478950313
30
-4.5475561350
10
-0.6059777386
20
-14.0120067417
30
-4.5713071228
10
-0.6441259197
20
-13.9726806016
30
-4.5908523792
10
-0.6810085735
20
-13.9313100195
30
-4.6075211297
10
-0.7256133149
20
-13.8747525526
30
-4.6233406769
10
-0.7922736794
20
-13.7744194125
30
-4.6364805377
10
-0.8593592191
20
-13.6414850700
30
-4.6284965242
10
-0.9117673481
20
-13.4771222992
30
-4.5821740370
10
-0.9324000016
20
-13.3192827959
30
-4.5022923572
10
-0.9202796731
20
-13.1786650662
30
-4.3947846295
10
-0.8763130076
20
-13.0642654854
30
-4.2666658785
10
-0.8038452702
20
-12.9835911146
30
-4.1268441777
10
-0.7223347943
20
-12.9491053275
30
-4.0067216784
10
-0.6514133781
20
-12.9427269777
30
-3.9177750827
10
-0.5943398753
20
-12.9477997800
30
-3.8529156480
10
-0.5333538336
20
-12.9636887916
30
-3.7904973746
10
-0.4923826084
20
-12.9807420879
30
-3.7527586185
10
-0.4700684332
20
-12.9918991755
30
-3.7334339759
11
-0.4287506660
21
-14.1392175770
31
-4.4435482119
11
-0.4612941474
21
-14.1216388513
31
-4.4708604407
11
-0.4933832438
21
-14.1017441766
31
-4.4960839512
11
-0.5249137780
21
-14.0796900903
31
-4.5191983806
11
-0.5558009971
21
-14.0556172591
31
-4.5401962115
11
-0.6153814651
21
-14.0018887192
31
-4.5758429593
11
-0.6439677288
21
-13.9724250464
31
-4.5904928159
11
-0.6716880050
21
-13.9413297157
31
-4.6030195160
11
-0.7250249122
21
-13.8735224034
31
-4.6218192501
11
-0.7745259272
21
-13.7990015030
31
-4.6315683166
11
-0.8546767993
21
-13.6406781434
31
-4.6223729124
11
-0.9064714355
21
-13.4782095105
31
-4.5765808382
11
-0.9269411713
21
-13.3221530915
31
-4.4976880159
11
-0.9149719503
21
-13.1830347577
31
-4.3913494589
11
-0.8715628290
21
-13.0698863537
31
-4.2647153868
11
-0.7996211313
21
-12.9901396857
31
-4.1261232946
11
-0.7041283539
21
-12.9492782634
31
-3.9850809798
11
-0.6507663046
21
-12.9443697385
31
-3.9180835014
11
-0.5936877855
21
-12.9496024815
31
-3.8533225083
11
-0.5332753676
21
-12.9653039471
31
-3.7914657311
11
-0.4700684332
21
-12.9918991755
31
-3.7334339759
0
SPLINE
5
28F
100
AcDbEntity
8
ASSI
100
AcDbSpline
62
9
6
CONTINUOUS
70
0
71
3
72
8
73
4
74
2
42
0.0000001000
43
0.0000001000
44
0.0000000001
12
0.3686053415
22
-0.7697573527
32
-0.0683854223
13
0.3697275266
23
-0.7690970116
33
-0.0693833570
40
0.0000000000
40
0.0000000000
40
0.0000000000
40
0.0000000000
40
1.0000000000
40
1.0000000000
40
1.0000000000
40
1.0000000000
10
-5.2147333940
20
-11.1858078494
30
-8.2160239157
10
-5.0918649468
20
-11.4423936336
30
-8.2388190565
10
-4.9688093007
20
-11.6988697113
30
-8.2617805511
10
-4.8455667919
20
-11.9552353819
30
-8.2849083367
11
-5.2147333940
21
-11.1858078494
31
-8.2160239157
11
-4.8455667919
21
-11.9552353819
31
-8.2849083367
0
SPLINE
5
290
100
AcDbEntity
8
ASSI
100
AcDbSpline
62
9
6
CONTINUOUS
70
0
71
3
72
8
73
4
74
2
42
0.0000001000
43
0.0000001000
44
0.0000000001
12
-0.3268967920
22
-0.4233109227
32
-0.6687924316
13
-0.3257038135
23
-0.4226888193
33
-0.6697317550
40
0.0000000000
40
0.0000000000
40
0.0000000000
40
0.0000000000
40
1.0000000000
40
1.0000000000
40
1.0000000000
40
1.0000000000
10
-4.8884329426
20
-10.7628077857
30
-7.5467615176
10
-4.9973985400
20
-10.9039114266
30
-7.7696923281
10
-5.1061654562
20
-11.0449115763
30
-7.9927799974
10
-5.2147333940
20
-11.1858078494
30
-8.2160239157
11
-4.8884329426
21
-10.7628077857
31
-7.5467615176
11
-5.2147333940
21
-11.1858078494
31
-8.2160239157
0
SPLINE
5
291
100
AcDbEntity
8
ASSI
100
AcDbSpline
62
9
6
CONTINUOUS
70
0
71
3
72
13
73
9
74
7
42
0.0000001000
43
0.0000001000
44
0.0000000001
12
-0.0313759511
22
-0.0834708804
32
-0.0923091643
13
-0.0906080737
23
0.0453040368
33
-0.0784688936
40
0.0000000000
40
0.0000000000
40
0.0000000000
40
0.0000000000
40
0.1666666667
40
0.3333333333
40
0.5000000000
40
0.6666666667
40
0.8333333333
40
1.0000000000
40
1.0000000000
40
1.0000000000
40
1.0000000000
10
-2.2794033173
20
-12.0137386449
30
-5.2520650792
10
-2.2811464257
20
-12.0183759160
30
-5.2571933661
10
-2.2853717301
20
-12.0262123516
30
-5.2673887801
10
-2.2939935992
20
-12.0349792136
30
-5.2834486343
10
-2.3048345603
20
-12.0404588867
30
-5.3000004784
10
-2.3173619355
20
-12.0422715954
30
-5.3161577288
10
-2.3308691699
20
-12.0404141301
30
-5.3310735987
10
-2.3403334628
20
-12.0368575256
30
-5.3400426367
10
-2.3453672447
20
-12.0343406347
30
-5.3444020197
11
-2.2794033173
21
-12.0137386449
31
-5.2520650792
11
-2.2857523821
21
-12.0257143864
31
-5.2675165690
11
-2.2943634478
21
-12.0344313488
31
-5.2835306326
11
-2.3051156293
21
-12.0398477260
31
-5.2999347128
11
-2.3175252454
21
-12.0416598998
31
-5.3159508321
11
-2.3309840374
21
-12.0398345565
31
-5.3308298799
11
-2.3453672447
21
-12.0343406347
31
-5.3444020197
0
SPLINE
5
292
100
AcDbEntity
8
ASSI
100
AcDbSpline
62
9
6
CONTINUOUS
70
0
71
3
72
13
73
9
74
7
42
0.0000001000
43
0.0000001000
44
0.0000000001
12
0.0900089481
22
-0.0450044741
32
0.0779500356
13
0.0389633544
23
-0.1172742795
33
-0.0315086615
40
0.0000000000
40
0.0000000000
40
0.0000000000
40
0.0000000000
40
0.1666666667
40
0.3333333333
40
0.5000000000
40
0.6666666667
40
0.8333333333
40
1.0000000000
40
1.0000000000
40
1.0000000000
40
1.0000000000
10
-2.2983553217
20
-13.2288412523
30
-6.0789585849
10
-2.2933548245
20
-13.2313415008
30
-6.0746280274
10
-2.2838617675
20
-13.2372439984
30
-6.0671776122
10
-2.2700726493
20
-13.2489575469
30
-6.0584493693
10
-2.2570164347
20
-13.2634354925
30
-6.0524440247
10
-2.2454129031
20
-13.2799709973
30
-6.0495541292
10
-2.2358338207
20
-13.2976493365
30
-6.0498560814
10
-2.2308574001
20
-13.3099505549
30
-6.0520933907
10
-2.2286927693
20
-13.3164657926
30
-6.0538438719
11
-2.2983553217
21
-13.2288412523
31
-6.0789585849
11
-2.2839368454
21
-13.2377206321
31
-6.0675855088
11
-2.2701947999
21
-13.2494182798
31
-6.0589031857
11
-2.2572585485
21
-13.2637784190
31
-6.0529632662
11
-2.2457503113
21
-13.2801614697
31
-6.0500861038
11
-2.2361862293
21
-13.2977782512
31
-6.0503650834
11
-2.2286927693
21
-13.3164657926
31
-6.0538438719
0
SPLINE
5
293
100
AcDbEntity
8
ASSI
100
AcDbSpline
62
9
6
CONTINUOUS
70
0
71
3
72
13
73
9
74
7
42
0.0000001000
43
0.0000001000
44
0.0000000001
12
0.0590708467
22
0.0764829622
32
0.1206775202
13
0.1091890186
23
-0.0545945093
33
0.0945604639
40
0.0000000000
40
0.0000000000
40
0.0000000000
40
0.0000000000
40
0.1666666667
40
0.3333333333
40
0.5000000000
40
0.6666666667
40
0.8333333333
40
1.0000000000
40
1.0000000000
40
1.0000000000
40
1.0000000000
10
-5.0392252792
20
-10.4906656914
30
-7.5481813240
10
-5.0359435655
20
-10.4864166379
30
-7.5414770173
10
-5.0288112644
20
-10.4793189167
30
-7.5283083293
10
-5.0160943919
20
-10.4719782146
30
-7.5083147592
10
-5.0014702182
20
-10.4681407592
30
-7.4883419294
10
-4.9854326105
20
-10.4680008310
30
-7.4691059849
10
-4.9685714081
20
-10.4715024205
30
-7.4512737012
10
-4.9569447493
20
-10.4761619589
30
-7.4404486535
10
-4.9508786927
20
-10.4791949872
30
-7.4351952944
11
-5.0392252792
21
-10.4906656914
31
-7.5481813240
11
-5.0284748610
21
-10.4798698966
31
-7.5282682396
11
-5.0157765084
21
-10.4725620890
31
-7.5083182159
11
-5.0012346458
21
-10.4687570137
31
-7.4884647436
11
-4.9852953447
21
-10.4686077506
31
-7.4693399284
11
-4.9684749438
21
-10.4720837069
31
-7.4515394865
11
-4.9508786927
21
-10.4791949872
31
-7.4351952944
0
SPLINE
5
294
100
AcDbEntity
8
ASSI
100
AcDbSpline
62
9
6
CONTINUOUS
70
0
71
3
72
8
73
4
74
2
42
0.0000001000
43
0.0000001000
44
0.0000000001
12
0.4032805219
22
0.5235686727
32
0.8290505683
13
0.4051091439
23
0.5245218093
33
0.8276090424
40
0.0000000000
40
0.0000000000
40
0.0000000000
40
0.0000000000
40
1.0000000000
40
1.0000000000
40
1.0000000000
40
1.0000000000
10
-5.4434206194
20
-11.0147110046
30
-8.3765117838
10
-5.3089937788
20
-10.8401881137
30
-8.1001615944
10
-5.1742618855
20
-10.6655060008
30
-7.8240510808
10
-5.0392255042
20
-10.4906653977
30
-7.5481814000
11
-5.4434206194
21
-11.0147110046
31
-8.3765117838
11
-5.0392255042
21
-10.4906653977
31
-7.5481814000
0
SPLINE
5
295
100
AcDbEntity
8
ASSI
100
AcDbSpline
62
9
6
CONTINUOUS
70
0
71
3
72
13
73
9
74
7
42
0.0000001000
43
0.0000001000
44
0.0000000001
12
-0.0927264728
22
0.1529630333
32
-0.0096655493
13
0.0681518488
23
0.0884797828
33
0.1401042845
40
0.0000000000
40
0.0000000000
40
0.0000000000
40
0.0000000000
40
0.1666666667
40
0.3333333333
40
0.5000000000
40
0.6666666667
40
0.8333333333
40
1.0000000000
40
1.0000000000
40
1.0000000000
40
1.0000000000
10
-5.4295993972
20
-11.1504544098
30
-8.4498454997
10
-5.4347508679
20
-11.1419564635
30
-8.4503824746
10
-5.4431626042
20
-11.1254320055
30
-8.4495052157
10
-5.4521097869
20
-11.0999602463
30
-8.4433440977
10
-5.4569389267
20
-11.0743956316
30
-8.4321954206
10
-5.4571271489
20
-11.0506907078
30
-8.4167270539
10
-5.4528267048
20
-11.0305276680
30
-8.3982346543
10
-5.4472068332
20
-11.0196265481
30
-8.3842953552
10
-5.4434206194
20
-11.0147110046
30
-8.3765117838
11
-5.4295993972
21
-11.1504544098
31
-8.4498454997
11
-5.4425508672
21
-11.1253178268
31
-8.4486976774
11
-5.4514234464
21
-11.0999447704
31
-8.4425128379
11
-5.4561654404
21
-11.0747055801
31
-8.4314754723
11
-5.4563790378
21
-11.0512810218
31
-8.4162230484
11
-5.4521384776
21
-11.0311628946
31
-8.3978318961
11
-5.4434206194
21
-11.0147110046
31
-8.3765117838
0
SPLINE
5
296
100
AcDbEntity
8
ASSI
100
AcDbSpline
62
9
6
CONTINUOUS
70
0
71
3
72
8
73
4
74
2
42
0.0000001000
43
0.0000001000
44
0.0000000001
12
-0.4485581214
22
0.9321274079
32
0.0846755298
13
-0.4469091635
23
0.9330995185
33
0.0832087077
40
0.0000000000
40
0.0000000000
40
0.0000000000
40
0.0000000000
40
1.0000000000
40
1.0000000000
40
1.0000000000
40
1.0000000000
10
-4.9818654550
20
-12.0830684972
30
-8.5337876746
10
-5.1313848288
20
-11.7723593612
30
-8.5055624980
10
-5.2806296760
20
-11.4614875826
30
-8.4775817356
10
-5.4295993972
20
-11.1504544098
30
-8.4498454997
11
-4.9818654550
21
-12.0830684972
31
-8.5337876746
11
-5.4295993972
21
-11.1504544098
31
-8.4498454997
0
SPLINE
5
297
100
AcDbEntity
8
ASSI
100
AcDbSpline
62
9
6
CONTINUOUS
70
0
71
3
72
32
73
28
74
26
42
0.0000001000
43
0.0000001000
44
0.0000000001
12
-0.9463117671
22
0.4731558835
32
-0.8195300302
13
0.9019675036
23
-0.4509837518
33
0.7811267715
40
0.0000000000
40
0.0000000000
40
0.0000000000
40
0.0000000000
40
0.0250000000
40
0.0500000000
40
0.0750000000
40
0.1000000000
40
0.1500000000
40
0.1750000000
40
0.2000000000
40
0.2500000000
40
0.3000000000
40
0.3500000000
40
0.4000000000
40
0.5000000000
40
0.5500000000
40
0.6000000000
40
0.6250000000
40
0.6500000000
40
0.7000000000
40
0.7500000000
40
0.8000000000
40
0.8500000000
40
0.9000000000
40
0.9250000000
40
0.9500000000
40
0.9750000000
40
1.0000000000
40
1.0000000000
40
1.0000000000
40
1.0000000000
10
-0.4383333287
20
-13.8836478970
30
-4.2849298826
10
-0.4462192601
20
-13.8797049313
30
-4.2917592995
10
-0.4604381086
20
-13.8718480818
30
-4.3035764596
10
-0.4824728958
20
-13.8575902907
30
-4.3205057002
10
-0.5036147311
20
-13.8417889997
30
-4.3353393407
10
-0.5310191642
20
-13.8186218292
30
-4.3527830371
10
-0.5568988057
20
-13.7927266261
30
-4.3665880499
10
-0.5811563135
20
-13.7644721727
30
-4.3768843234
10
-0.6041695832
20
-13.7349048948
30
-4.3848196701
10
-0.6313827632
20
-13.6944222483
30
-4.3905420372
10
-0.6603241697
20
-13.6410626069
30
-4.3897961693
10
-0.6836928351
20
-13.5856158347
30
-4.3810048576
10
-0.7058377587
20
-13.5143920875
30
-4.3603041888
10
-0.7162638328
20
-13.4437313641
30
-4.3259797805
10
-0.7131328690
20
-13.3788184792
30
-4.2792735655
10
-0.7059158927
20
-13.3435672784
30
-4.2473218988
10
-0.6973145402
20
-13.3183003835
30
-4.2203249635
10
-0.6865052991
20
-13.2943451389
30
-4.1915585046
10
-0.6690356375
20
-13.2680462816
30
-4.1532833409
10
-0.6424724111
20
-13.2440349049
30
-4.1056524482
10
-0.6122242330
20
-13.2286136870
30
-4.0592945933
10
-0.5792161870
20
-13.2211056079
30
-4.0148642587
10
-0.5488419222
20
-13.2212075618
30
-3.9786078945
10
-0.5230698509
20
-13.2253690970
30
-3.9505339037
10
-0.5031260737
20
-13.2305371941
30
-3.9300937038
10
-0.4822691243
20
-13.2380026375
30
-3.9100768567
10
-0.4687466555
20
-13.2440829021
30
-3.8979169484
10
-0.4612302597
20
-13.2478411001
30
-3.8914075587
11
-0.4383333287
21
-13.8836478970
31
-4.2849298826
11
-0.4605558610
21
-13.8714359957
31
-4.3034437097
11
-0.4823240705
21
-13.8573330407
31
-4.3201564335
11
-0.5035166460
21
-13.8415266519
31
-4.3350475293
11
-0.5240409900
21
-13.8241862858
31
-4.3481188893
11
-0.5628280048
21
-13.7854664086
31
-4.3688697233
11
-0.5810007838
21
-13.7643080696
31
-4.3765892075
11
-0.5983127053
21
-13.7420618110
31
-4.3825560457
11
-0.6307636950
21
-13.6936255041
31
-4.3892732525
11
-0.6593953795
21
-13.6407147518
31
-4.3884552620
11
-0.6825661730
21
-13.5859539950
31
-4.3798824926
11
-0.6993249570
21
-13.5322449430
31
-4.3643440443
11
-0.7143513387
21
-13.4279821294
31
-4.3132714095
11
-0.7120808442
21
-13.3798823496
31
-4.2787215091
11
-0.7035299069
21
-13.3374950601
31
-4.2404530315
11
-0.6970385541
21
-13.3184643398
31
-4.2201037731
11
-0.6889437354
21
-13.3005769633
31
-4.1985956467
11
-0.6681023655
21
-13.2693041569
31
-4.1529998916
11
-0.6418582525
21
-13.2454665980
31
-4.1058646211
11
-0.6117642550
21
-13.2299325435
31
-4.0596158466
11
-0.5786426751
21
-13.2223773452
31
-4.0150180416
11
-0.5422761828
21
-13.2225879433
31
-3.9716669885
11
-0.5229673969
21
-13.2257102546
31
-3.9506364526
11
-0.5029738783
21
-13.2309200851
31
-3.9301642626
11
-0.4823646653
21
-13.2382784631
31
-3.9103730208
11
-0.4612302597
21
-13.2478411001
31
-3.8914075587
0
SPLINE
5
298
100
AcDbEntity
8
ASSI
100
AcDbSpline
62
9
6
CONTINUOUS
70
0
71
3
72
35
73
31
74
29
42
0.0000001000
43
0.0000001000
44
0.0000000001
12
1.2855576981
22
-0.6427788490
32
1.1133256245
13
-1.2845883538
23
0.6422941769
33
-1.1124861478
40
0.0000000000
40
0.0000000000
40
0.0000000000
40
0.0000000000
40
0.0250000000
40
0.0500000000
40
0.0750000000
40
0.1000000000
40
0.1500000000
40
0.1750000000
40
0.2000000000
40
0.2500000000
40
0.3000000000
40
0.3500000000
40
0.3750000000
40
0.4000000000
40
0.4500000000
40
0.5000000000
40
0.5500000000
40
0.6000000000
40
0.6250000000
40
0.6500000000
40
0.7000000000
40
0.7500000000
40
0.8000000000
40
0.8250000000
40
0.8500000000
40
0.9000000000
40
0.9250000000
40
0.9500000000
40
0.9750000000
40
1.0000000000
40
1.0000000000
40
1.0000000000
40
1.0000000000
10
-0.4655155616
20
-13.1245295790
30
-3.8152653783
10
-0.4548025808
20
-13.1298860694
30
-3.8059876647
10
-0.4354597574
20
-13.1405553578
30
-3.7898934205
10
-0.4054858889
20
-13.1598744473
30
-3.7667882492
10
-0.3766893008
20
-13.1812754907
30
-3.7464616864
10
-0.3393112303
20
-13.2126571013
30
-3.7224515222
10
-0.3039176068
20
-13.2477695538
30
-3.7032728962
10
-0.2706376801
20
-13.2861493481
30
-3.6887778088
10
-0.2389852739
20
-13.3263740779
30
-3.6774476471
10
-0.2014513589
20
-13.3814844879
30
-3.6689051228
10
-0.1612874396
20
-13.4543383273
30
-3.6689376747
10
-0.1340502953
20
-13.5173129038
30
-3.6779343291
10
-0.1165921486
20
-13.5672811355
30
-3.6900568244
10
-0.1022040896
20
-13.6159216042
30
-3.7049853905
10
-0.0890061307
20
-13.6769131427
30
-3.7295201494
10
-0.0816906120
20
-13.7498414798
30
-3.7690248082
10
-0.0838948526
20
-13.8180035439
30
-3.8168093925
10
-0.0930835303
20
-13.8677859972
30
-3.8608123272
10
-0.1044257308
20
-13.9035567944
30
-3.8981215411
10
-0.1188646585
20
-13.9375811778
30
-3.9379915990
10
-0.1425113281
20
-13.9751198545
30
-3.9912411334
10
-0.1788660887
20
-14.0096899045
30
-4.0577682047
10
-0.2137760280
20
-14.0285158617
30
-4.1121188016
10
-0.2436524680
20
-14.0379103427
30
-4.1541730725
10
-0.2753463117
20
-14.0437369832
30
-4.1960360641
10
-0.3094586772
20
-14.0440317444
30
-4.2371219988
10
-0.3458898727
20
-14.0384561864
30
-4.2770833624
10
-0.3741547392
20
-14.0312955688
30
-4.3062011623
10
-0.4037887061
20
-14.0207906246
30
-4.3347347696
10
-0.4230377151
20
-14.0121591652
30
-4.3520658367
10
-0.4337426181
20
-14.0068067138
30
-4.3613365546
11
-0.4655155616
21
-13.1245295790
31
-3.8152653783
11
-0.4352998185
21
-13.1411078840
31
-3.7900661197
11
-0.4056821023
21
-13.1602214396
31
-3.7672513506
11
-0.3768164734
21
-13.1816313515
31
-3.7468481764
11
-0.3488211185
21
-13.2051226021
31
-3.7288566914
11
-0.2957737665
21
-13.2576367809
31
-3.7000394192
11
-0.2708411201
21
-13.2863799650
31
-3.6891734245
11
-0.2470338149
21
-13.3166398620
31
-3.6806548660
11
-0.2022641553
21
-13.3826047125
31
-3.6706190530
11
-0.1625339973
21
-13.4547909360
31
-3.6707315803
11
-0.1300467227
21
-13.5297706760
31
-3.6813753839
11
-0.1169759096
21
-13.5671151652
31
-3.6904075833
11
-0.1061202454
21
-13.6037742172
31
-3.7016448524
11
-0.0904264694
21
-13.6768695579
31
-3.7311973074
11
-0.0832772385
21
-13.7490471010
31
-3.7704047958
11
-0.0853652147
21
-13.8165996905
31
-3.8176458821
11
-0.0962516853
21
-13.8763907661
31
-3.8703152028
11
-0.1048128217
21
-13.9033384927
31
-3.8984416466
11
-0.1156281272
21
-13.9287422951
31
-3.9282515487
11
-0.1438411210
21
-13.9733737941
31
-3.9916790717
11
-0.1797889498
21
-14.0076934209
31
-4.0575504789
11
-0.2214075120
21
-14.0303922916
31
-4.1225135188
11
-0.2438796434
21
-14.0374643627
31
-4.1541491626
11
-0.2676243942
21
-14.0418193332
31
-4.1855055615
11
-0.3187597119
21
-14.0421486616
31
-4.2470186255
11
-0.3460467844
21
-14.0379596949
31
-4.2769411586
11
-0.3743829226
21
-14.0307381810
31
-4.3061037969
11
-0.4036619639
21
-14.0203835838
31
-4.3343119351
11
-0.4337426181
21
-14.0068067138
31
-4.3613365546
0
SPLINE
5
299
100
AcDbEntity
8
ASSI
100
AcDbSpline
62
9
6
CONTINUOUS
70
0
71
3
72
35
73
31
74
29
42
0.0000001000
43
0.0000001000
44
0.0000000001
12
-1.2854945245
22
0.6427472622
32
-1.1132709146
13
1.2846345209
23
-0.6423172605
33
1.1125261297
40
0.0000000000
40
0.0000000000
40
0.0000000000
40
0.0000000000
40
0.0250000000
40
0.0500000000
40
0.0750000000
40
0.1000000000
40
0.1500000000
40
0.1750000000
40
0.2000000000
40
0.2500000000
40
0.3000000000
40
0.3500000000
40
0.3750000000
40
0.4000000000
40
0.4500000000
40
0.5000000000
40
0.5500000000
40
0.6000000000
40
0.6250000000
40
0.6500000000
40
0.7000000000
40
0.7500000000
40
0.8000000000
40
0.8250000000
40
0.8500000000
40
0.9000000000
40
0.9250000000
40
0.9500000000
40
0.9750000000
40
1.0000000000
40
1.0000000000
40
1.0000000000
40
1.0000000000
10
-0.4337426181
20
-14.0068067138
30
-4.3613365546
10
-0.4444550725
20
-14.0014504866
30
-4.3706138122
10
-0.4637998859
20
-13.9907832313
30
-4.3867047755
10
-0.4937851328
20
-13.9714714617
30
-4.4097981922
10
-0.5226007698
20
-13.9500816096
30
-4.4301067591
10
-0.5600133289
20
-13.9187195340
30
-4.4540854807
10
-0.5954532614
20
-13.8836326482
30
-4.4732229807
10
-0.6287878973
20
-13.8452826405
30
-4.4876702438
10
-0.6604990840
20
-13.8050897863
30
-4.4989494027
10
-0.6981148047
20
-13.7500225564
30
-4.5074222217
10
-0.7383812745
20
-13.6772210254
30
-4.5073036630
10
-0.7656956051
20
-13.6142851148
30
-4.4982428943
10
-0.7832051558
20
-13.5643424854
30
-4.4860781291
10
-0.7976361712
20
-13.5157235906
30
-4.4711146518
10
-0.8108736664
20
-13.4547515435
30
-4.4465488232
10
-0.8182079382
20
-13.3818307463
30
-4.4070316629
10
-0.8159891544
20
-13.3136585775
30
-4.3592626482
10
-0.8067637395
20
-13.2638549543
30
-4.3152928583
10
-0.7953803713
20
-13.2280614854
30
-4.2780199334
10
-0.7808917969
20
-13.1940103538
30
-4.2381935491
10
-0.7571698153
20
-13.1564317095
30
-4.1850097501
10
-0.7207137748
20
-13.1218084497
30
-4.1185699918
10
-0.6857215483
20
-13.1029396802
30
-4.0642889274
10
-0.6557849671
20
-13.0935142911
30
-4.0222846691
10
-0.6240348725
20
-13.0876589648
30
-3.9804683485
10
-0.5898743372
20
-13.0873399464
30
-3.9394220868
10
-0.5534065224
20
-13.0928973704
30
-3.8994904402
10
-0.5251208253
20
-13.1000478945
30
-3.8703891606
10
-0.4954734158
20
-13.1105466906
30
-3.8418655628
10
-0.4762208493
20
-13.1191769352
30
-3.8245364294
10
-0.4655155616
20
-13.1245295790
30
-3.8152653783
11
-0.4337426181
21
-14.0068067138
31
-4.3613365546
11
-0.4639612237
21
-13.9902314168
31
-4.3865309374
11
-0.4935901978
21
-13.9711251146
31
-4.4093340505
11
-0.5224747336
21
-13.9497263255
31
-4.4297193382
11
-0.5504958036
21
-13.9262496520
31
-4.4476873652
11
-0.6036114790
21
-13.8737732194
31
-4.4764439434
11
-0.6285849661
21
-13.8450522847
31
-4.4872742308
11
-0.6524364031
21
-13.8148162557
31
-4.4957545377
11
-0.6973027389
21
-13.7489024139
31
-4.5057078981
11
-0.7371330623
21
-13.6767674318
31
-4.5055112690
11
-0.7697111667
21
-13.6018332990
31
-4.4947920238
11
-0.7828203389
21
-13.5645079523
31
-4.4857282901
11
-0.7937083325
21
-13.5278650857
31
-4.4744647557
11
-0.8094485460
21
-13.4547924867
31
-4.4448757955
11
-0.8166157623
21
-13.3826221844
31
-4.4056563539
11
-0.8145138687
21
-13.3150598810
31
-4.3584301927
11
-0.8035843111
21
-13.2552440396
31
-4.3057998693
11
-0.7949922205
21
-13.2282792776
31
-4.2777007510
11
-0.7841398562
21
-13.2028554880
31
-4.2479234239
11
-0.7558382048
21
-13.1581768950
31
-4.1845732169
11
-0.7197913362
21
-13.1238052391
31
-4.1187870720
11
-0.6780755030
21
-13.1010558018
31
-4.0539062456
11
-0.6555582779
21
-13.0939605490
31
-4.0223081613
11
-0.6317715261
21
-13.0895841554
31
-3.9909866002
11
-0.5805651102
21
-13.0892190059
31
-3.9295320597
11
-0.5532507164
21
-13.0933944464
31
-3.8996316827
11
-0.5248938733
21
-13.1006059398
31
-3.8704854409
11
-0.4956015091
21
-13.1109544524
31
-3.8422872124
11
-0.4655155616
21
-13.1245295790
31
-3.8152653783
0
SPLINE
5
29A
100
AcDbEntity
8
ASSI
100
AcDbSpline
62
9
6
CONTINUOUS
70
0
71
3
72
32
73
28
74
26
42
0.0000001000
43
0.0000001000
44
0.0000000001
12
0.9463481108
22
-0.4731740554
32
0.8195615047
13
-0.9019498960
23
0.4509749480
33
-0.7811115229
40
0.0000000000
40
0.0000000000
40
0.0000000000
40
0.0000000000
40
0.0250000000
40
0.0500000000
40
0.0750000000
40
0.1000000000
40
0.1500000000
40
0.1750000000
40
0.2000000000
40
0.2500000000
40
0.3000000000
40
0.3500000000
40
0.4000000000
40
0.5000000000
40
0.5500000000
40
0.6000000000
40
0.6250000000
40
0.6500000000
40
0.7000000000
40
0.7500000000
40
0.8000000000
40
0.8500000000
40
0.9000000000
40
0.9250000000
40
0.9500000000
40
0.9750000000
40
1.0000000000
40
1.0000000000
40
1.0000000000
40
1.0000000000
10
-0.4612302597
20
-13.2478411001
30
-3.8914075587
10
-0.4533440254
20
-13.2517842172
30
-3.8845778795
10
-0.4391261922
20
-13.2596422044
30
-3.8727588944
10
-0.4170974973
20
-13.2739040025
30
-3.8558232706
10
-0.3959658872
20
-13.2897113852
30
-3.8409799090
10
-0.3685799696
20
-13.3128891330
30
-3.8235193026
10
-0.3427251410
20
-13.3387980852
30
-3.8096922907
10
-0.3184968344
20
-13.3670684147
30
-3.7993705866
10
-0.2955148332
20
-13.3966525952
30
-3.7914082227
10
-0.2683450883
20
-13.4371578397
30
-3.7856491101
10
-0.2394576949
20
-13.4905443255
30
-3.7863499331
10
-0.2161371979
20
-13.5460144926
30
-3.7951012294
10
-0.1940400148
20
-13.6172617321
30
-3.8157625203
10
-0.1836354783
20
-13.6879332561
30
-3.8500708265
10
-0.1867537801
20
-13.7528383322
30
-3.8967902545
10
-0.1939504067
20
-13.7880780486
30
-3.9287603107
10
-0.2025295687
20
-13.8133327562
30
-3.9557766894
10
-0.2133123506
20
-13.8372737411
30
-3.9845662180
10
-0.2307423699
20
-13.8635515545
30
-4.0228755789
10
-0.2572529357
20
-13.8875353895
30
-4.0705513500
10
-0.2874505551
20
-13.9029305280
30
-4.1169516641
10
-0.3204141947
20
-13.9104160672
30
-4.1614189219
10
-0.3507583332
20
-13.9102990163
30
-4.1977003261
10
-0.3765122976
20
-13.9061285125
30
-4.2257892386
10
-0.3964458456
20
-13.9009554218
30
-4.2462377510
10
-0.4172962668
20
-13.8934869235
30
-4.2662596677
10
-0.4308170795
20
-13.8874060216
30
-4.2784206199
10
-0.4383333287
20
-13.8836478970
30
-4.2849298826
11
-0.4612302597
21
-13.2478411001
31
-3.8914075587
11
-0.4390092013
21
-13.2600546739
31
-3.8728910367
11
-0.4172470114
21
-13.2741615999
31
-3.8561719810
11
-0.3960645825
21
-13.2899740399
31
-3.8412712268
11
-0.3755540398
21
-13.3073222964
31
-3.8281872537
11
-0.3368036079
21
-13.3460624490
31
-3.8074039736
11
-0.3186526226
21
-13.3672326461
31
-3.7996655041
11
-0.3013641839
21
-13.3894915513
31
-3.7936784032
11
-0.2689644717
21
-13.4379545384
31
-3.7869177365
11
-0.2403855110
21
-13.4908916057
31
-3.7876916786
11
-0.2172617995
21
-13.5456753697
31
-3.7962253414
11
-0.2005386978
21
-13.5994019459
31
-3.8117344488
11
-0.1855419569
21
-13.7036789878
31
-3.8627849437
11
-0.1878033177
21
-13.7517731409
31
-3.8973443372
11
-0.1963303523
21
-13.7941469700
31
-3.9356344332
11
-0.2028050212
21
-13.8131685409
31
-3.9559983331
11
-0.2108800913
21
-13.8310452670
31
-3.9775236658
11
-0.2316747937
21
-13.8622932977
31
-4.0231596685
11
-0.2578674446
21
-13.8861039401
31
-4.0703387738
11
-0.2879115585
21
-13.9016122615
31
-4.1166294880
11
-0.3209890825
21
-13.9091450672
31
-4.1612639931
11
-0.3573200454
21
-13.9089166518
31
-4.2046445367
11
-0.3766153100
21
-13.9057876437
31
-4.2256862100
11
-0.3965986578
21
-13.9005728538
31
-4.2461666517
11
-0.4172013998
21
-13.8932114477
31
-4.2659629197
11
-0.4383333287
21
-13.8836478970
31
-4.2849298826
0
SPLINE
5
29B
100
AcDbEntity
8
ASSI
100
AcDbSpline
62
9
6
CONTINUOUS
70
0
71
3
72
20
73
16
74
14
42
0.0000001000
43
0.0000001000
44
0.0000000001
12
2.1096035622
22
-6.3496134193
32
-1.7059820842
13
-2.0190766903
23
5.7601443843
33
1.3696830377
40
0.0000000000
40
0.0000000000
40
0.0000000000
40
0.0000000000
40
0.0392857143
40
0.0785714286
40
0.1178571429
40
0.1571428571
40
0.2357142857
40
0.3142857143
40
0.3928571429
40
0.4714285714
40
0.5500000000
40
0.6285714286
40
0.7857142857
40
0.9428571429
40
1.0000000000
40
1.0000000000
40
1.0000000000
40
1.0000000000
10
-2.2286927693
20
-13.3164657926
30
-6.0538438719
10
-2.2010670083
20
-13.3996154921
30
-6.0761841135
10
-2.1424708527
20
-13.5535503219
30
-6.1087117712
10
-2.0348159102
20
-13.7825033389
30
-6.1327412019
10
-1.9128775122
20
-13.9976147970
30
-6.1305629944
10
-1.7340063664
20
-14.2660966334
30
-6.0959981895
10
-1.4725492908
20
-14.5754945731
30
-5.9899613997
10
-1.1320708139
20
-14.8621049160
30
-5.7736768203
10
-0.7821403545
20
-15.0534776965
30
-5.4817156026
10
-0.4444358398
20
-15.1376566238
30
-5.1320582390
10
-0.1380899764
20
-15.1097504692
30
-4.7446414843
10
0.2027443436
20
-14.9251892784
30
-4.2107391934
10
0.4612435709
20
-14.4347272477
30
-3.5723058409
10
0.4348954178
20
-13.7559798098
30
-3.1545389787
10
0.3157119319
20
-13.3433129690
30
-3.0256357836
10
0.2772533283
20
-13.2335959331
30
-2.9995465829
11
-2.2286927693
21
-13.3164657926
31
-6.0538438719
11
-2.1391774012
21
-13.5532254506
31
-6.1045847619
11
-2.0324353343
21
-13.7801964124
31
-6.1283732622
11
-1.9108416853
21
-13.9953231168
31
-6.1266054284
11
-1.7761996100
21
-14.1972292172
31
-6.1004506718
11
-1.4680942931
21
-14.5613833756
31
-5.9751213278
11
-1.1304954835
21
-14.8462319889
31
-5.7610640472
11
-0.7841780120
21
-15.0356120543
31
-5.4720995783
11
-0.4496622817
21
-15.1189757768
31
-5.1257650071
11
-0.1465433303
21
-15.0913313461
31
-4.7424731570
11
0.1063661854
21
-14.9540122066
31
-4.3461444002
11
0.4039700777
21
-14.3892384651
31
-3.6116187521
11
0.3718821375
21
-13.5619028019
31
-3.1023568582
11
0.2772533283
21
-13.2335959331
31
-2.9995465829
0
SPLINE
5
29C
100
AcDbEntity
8
ASSI
100
AcDbSpline
62
9
6
CONTINUOUS
70
0
71
3
72
27
73
23
74
21
42
0.0000001000
43
0.0000001000
44
0.0000000001
12
1.6357767577
22
-0.8178883789
32
1.4166242271
13
-1.6065481935
23
0.8032740968
33
-1.3913115480
40
0.0000000000
40
0.0000000000
40
0.0000000000
40
0.0000000000
40
0.0208333333
40
0.0416666667
40
0.0625000000
40
0.0833333333
40
0.1250000000
40
0.1458333333
40
0.1666666667
40
0.2083333333
40
0.2500000000
40
0.3333333333
40
0.4166666667
40
0.5000000000
40
0.5833333333
40
0.6666666667
40
0.7500000000
40
0.8333333333
40
0.8750000000
40
0.9166666667
40
0.9583333333
40
1.0000000000
40
1.0000000000
40
1.0000000000
40
1.0000000000
10
-0.4700684332
20
-12.9918991755
30
-3.7334339759
10
-0.4587088724
20
-12.9975789559
30
-3.7235963076
10
-0.4376573929
20
-13.0089913675
30
-3.7059481608
10
-0.4052994662
20
-13.0290534439
30
-3.6804785266
10
-0.3738472545
20
-13.0511092107
30
-3.6574021340
10
-0.3326644673
20
-13.0832722436
30
-3.6293463500
10
-0.2929726631
20
-13.1191926401
30
-3.6055445845
10
-0.2548934729
20
-13.1585569915
30
-3.5859385755
10
-0.2180868653
20
-13.1999691871
30
-3.5692035642
10
-0.1735913133
20
-13.2565842593
30
-3.5532909426
10
-0.1071257367
20
-13.3570159027
30
-3.5399876770
10
-0.0402771481
20
-13.4900689956
30
-3.5477732577
10
0.0119245889
20
-13.6545353481
30
-3.5939267124
10
0.0324821708
20
-13.8124063480
30
-3.6737521293
10
0.0204368608
20
-13.9529810250
30
-3.7813330812
10
-0.0233256628
20
-14.0672697910
30
-3.9096316435
10
-0.0955144187
20
-14.1477975028
30
-4.0496931452
10
-0.1767899855
20
-14.1821618869
30
-4.1700148921
10
-0.2475651942
20
-14.1884661425
30
-4.2590822053
10
-0.3045518733
20
-14.1833500180
30
-4.3240126376
10
-0.3654809614
20
-14.1674335274
30
-4.3864758754
10
-0.4064374966
20
-14.1503741617
30
-4.4242244404
10
-0.4287506660
20
-14.1392175770
30
-4.4435482119
11
-0.4700684332
21
-12.9918991755
31
-3.7334339759
11
-0.4375272750
21
-13.0094819440
31
-3.7061152584
11
-0.4054504187
21
-13.0293857256
31
-3.6808774002
11
-0.3739414414
21
-13.0514536287
31
-3.6577412264
11
-0.3430844127
21
-13.0755445990
31
-3.6367147975
11
-0.2835872501
21
-13.1293207242
31
-3.6009927286
11
-0.2550525457
21
-13.1588129720
31
-3.5862974502
11
-0.2273893644
21
-13.1899394601
31
-3.5737210599
11
-0.1741822266
21
-13.2578152003
31
-3.5548105587
11
-0.1248243563
21
-13.3324088944
31
-3.5449411376
11
-0.0449465763
21
-13.4908694358
31
-3.5539083840
11
0.0066505630
21
-13.6534361227
31
-3.5995387061
11
0.0270483554
21
-13.8095236275
31
-3.6783780518
11
0.0151506585
21
-13.9486000398
31
-3.7847860163
11
-0.0280633682
21
-14.0616429486
31
-3.9115921334
11
-0.0997380727
21
-14.1412490943
31
-4.0504139110
11
-0.1949633506
21
-14.1819723465
31
-4.1916825467
11
-0.2482160729
21
-14.1868254231
31
-4.2587705298
11
-0.3052089415
21
-14.1815499570
31
-4.3236014385
11
-0.3655652472
21
-14.1658214344
31
-4.3855024770
11
-0.4287506660
21
-14.1392175770
31
-4.4435482119
0
SPLINE
5
29D
100
AcDbEntity
8
ASSI
100
AcDbSpline
62
9
6
CONTINUOUS
70
0
71
3
72
18
73
14
74
12
42
0.0000001000
43
0.0000001000
44
0.0000000001
12
1.8822917564
22
4.6777469223
32
5.3176513064
13
-1.8653040106
23
-4.1090700021
33
-4.9844836499
40
0.0000000000
40
0.0000000000
40
0.0000000000
40
0.0000000000
40
0.0714285714
40
0.1428571429
40
0.2142857143
40
0.2857142857
40
0.3571428571
40
0.4285714286
40
0.5000000000
40
0.5714285714
40
0.7142857143
40
0.8571428571
40
1.0000000000
40
1.0000000000
40
1.0000000000
40
1.0000000000
10
-2.3661622727
20
-11.8935239156
30
-5.2767517317
10
-2.3213458023
20
-11.7821489889
30
-5.1501409863
10
-2.2112940712
20
-11.6029810974
30
-4.9015465423
10
-1.9862278519
20
-11.4216771166
30
-4.5150527087
10
-1.7045323996
20
-11.3360563944
30
-4.1239255344
10
-1.3872265982
20
-11.3532010025
30
-3.7573820975
10
-1.0499153042
20
-11.4698434713
30
-3.4315787910
10
-0.7092904308
20
-11.6796587771
30
-3.1621684328
10
-0.3818267827
20
-11.9723250964
30
-2.9621546879
10
0.0149588114
20
-12.4526655509
30
-2.8016785369
10
0.3980820092
20
-13.1777519281
30
-2.8179013182
10
0.5850658589
20
-14.0740570581
30
-3.1846046464
10
0.5026776777
20
-14.5674461283
30
-3.6116969569
10
0.4138536772
20
-14.7631161284
30
-3.8490533212
11
-2.3661622727
21
-11.8935239156
31
-5.2767517317
11
-2.2012959674
21
-11.6175557401
31
-4.8992795143
11
-1.9767896464
21
-11.4376243264
31
-4.5142804852
11
-1.6985973414
21
-11.3531839494
31
-4.1280228240
11
-1.3838923494
21
-11.3697839793
31
-3.7641721192
11
-1.0493630410
21
-11.4853722775
31
-3.4409776157
11
-0.7114839683
21
-11.6934672793
31
-3.1737345350
11
-0.3868058581
21
-11.9835899333
31
-2.9754307932
11
-0.0917615068
21
-12.3408911579
31
-2.8562521060
11
0.3526213446
21
-13.1821188410
31
-2.8757739833
11
0.5333048387
21
-14.0480201374
31
-3.2302605027
11
0.4138536772
21
-14.7631161284
31
-3.8490533212
0
SPLINE
5
29E
100
AcDbEntity
8
ASSI
100
AcDbSpline
62
9
6
CONTINUOUS
70
0
71
3
72
8
73
4
74
2
42
0.0000001000
43
0.0000001000
44
0.0000000001
12
0.3980820043
22
0.5166180918
32
0.8185594704
13
0.3998638030
23
0.5175470183
33
0.8171556838
40
0.0000000000
40
0.0000000000
40
0.0000000000
40
0.0000000000
40
1.0000000000
40
1.0000000000
40
1.0000000000
40
1.0000000000
10
-5.3492201540
20
-11.1185644694
30
-8.3324928664
10
-5.2165261526
20
-10.9463584388
30
-8.0596397096
10
-5.0835349133
20
-10.7739972353
30
-7.7870199608
10
-4.9502469789
20
-10.6014815625
30
-7.5146347328
11
-5.3492201540
21
-11.1185644694
31
-8.3324928664
11
-4.9502469789
21
-10.6014815625
31
-7.5146347328
0
SPLINE
5
29F
100
AcDbEntity
8
ASSI
100
AcDbSpline
62
9
6
CONTINUOUS
70
0
71
3
72
8
73
4
74
2
42
0.0000001000
43
0.0000001000
44
0.0000000001
12
-0.4522232591
22
0.9398885963
32
0.0850784751
13
-0.4505470253
23
0.9408758584
33
0.0835876016
40
0.0000000000
40
0.0000000000
40
0.0000000000
40
0.0000000000
40
1.0000000000
40
1.0000000000
40
1.0000000000
40
1.0000000000
10
-4.8978347048
20
-12.0589473364
30
-8.4168259621
10
-5.0485757911
20
-11.7456511377
30
-8.3884664704
10
-5.1990378123
20
-11.4321897555
30
-8.3603554002
10
-5.3492201540
20
-11.1185644694
30
-8.3324928664
11
-4.8978347048
21
-12.0589473364
31
-8.4168259621
11
-5.3492201540
21
-11.1185644694
31
-8.3324928664
0
SPLINE
5
2A0
100
AcDbEntity
8
ASSI
100
AcDbSpline
62
9
6
CONTINUOUS
70
0
71
3
72
18
73
14
74
12
42
0.0000001000
43
0.0000001000
44
0.0000000001
12
-1.4710415886
22
4.1966766228
32
0.9979119275
13
-1.2294169285
23
-3.2706742117
33
-3.6169883554
40
0.0000000000
40
0.0000000000
40
0.0000000000
40
0.0000000000
40
0.1372549020
40
0.2450980392
40
0.3529411765
40
0.4607843137
40
0.5686274510
40
0.6764705882
40
0.7843137255
40
0.8382352941
40
0.8921568627
40
0.9460784314
40
1.0000000000
40
1.0000000000
40
1.0000000000
40
1.0000000000
10
0.2772533283
20
-13.2335959331
30
-2.9995465829
10
0.2099507719
20
-13.0415911203
30
-2.9538904816
10
0.0532563973
20
-12.7005161527
30
-2.9176702391
10
-0.2486005162
20
-12.2589246141
30
-2.9897057195
10
-0.5692797978
20
-11.9181613962
30
-3.1501902943
10
-0.9137565988
20
-11.6630470212
30
-3.3947564832
10
-1.2624158585
20
-11.5082145578
30
-3.7093471032
10
-1.5936174374
20
-11.4631131675
30
-4.0743767977
10
-1.8408123034
20
-11.5221360638
30
-4.4072263313
10
-2.0053709926
20
-11.6218808906
30
-4.6684281467
10
-2.1149907619
20
-11.7233439757
30
-4.8654408531
10
-2.2086577662
20
-11.8535791949
30
-5.0624636870
10
-2.2573057292
20
-11.9549522380
30
-5.1870537271
10
-2.2794030923
20
-12.0137388660
30
-5.2520649557
11
0.2772533283
21
-13.2335959331
31
-2.9995465829
11
0.0178547004
21
-12.6703794424
31
-2.9403702049
11
-0.2559300347
21
-12.2695961184
31
-3.0054477280
11
-0.5732460510
21
-11.9324362033
31
-3.1642038967
11
-0.9144536753
21
-11.6797606731
31
-3.4064272217
11
-1.2595062451
21
-11.5265030700
31
-3.7177536156
11
-1.5878561475
21
-11.4824346451
31
-4.0801084220
11
-1.8791855421
21
-11.5514494796
31
-4.4721036342
11
-2.0030711180
21
-11.6263233014
31
-4.6686133708
11
-2.1123319677
21
-11.7281393314
31
-4.8654425410
11
-2.2052085896
21
-11.8572165858
31
-5.0607740580
11
-2.2794030923
21
-12.0137388660
31
-5.2520649557
0
SPLINE
5
2A1
100
AcDbEntity
8
ASSI
100
AcDbSpline
62
9
6
CONTINUOUS
70
0
71
3
72
16
73
12
74
10
42
0.0000001000
43
0.0000001000
44
0.0000000001
12
-1.3323600076
22
-2.9350500015
32
-3.5603454642
13
-1.6619105402
23
4.8134140330
33
1.2205363467
40
0.0000000000
40
0.0000000000
40
0.0000000000
40
0.0000000000
40
0.2000000000
40
0.3000000000
40
0.4000000000
40
0.5000000000
40
0.6000000000
40
0.7000000000
40
0.8000000000
40
0.9000000000
40
1.0000000000
40
1.0000000000
40
1.0000000000
40
1.0000000000
10
0.4138536772
20
-14.7631161284
30
-3.8490533212
10
0.3250296767
20
-14.9587861285
30
-4.0864096855
10
0.1203488111
20
-15.1757543262
30
-4.4781595454
10
-0.2540883216
20
-15.2705515487
30
-4.9926593211
10
-0.5712352165
20
-15.2419555893
30
-5.3551746929
10
-0.9084961041
20
-15.1150431420
30
-5.6754807783
10
-1.2496357521
20
-14.8958571734
30
-5.9380206292
10
-1.5778677645
20
-14.5945364650
30
-6.1295449804
10
-1.8772504033
20
-14.2231415976
30
-6.2393087539
10
-2.1254394526
20
-13.8096614760
30
-6.2597219374
10
-2.2539955325
20
-13.5136155480
30
-6.2158538451
10
-2.3093925505
20
-13.3531684136
30
-6.1751693002
11
0.4138536772
21
-14.7631161284
31
-3.8490533212
11
0.0182787519
21
-15.1832458228
31
-4.6061317084
11
-0.2601414958
21
-15.2539359027
31
-4.9887660778
11
-0.5745875486
21
-15.2255695080
31
-5.3481398118
11
-0.9091425642
21
-15.0996642218
31
-5.6658530726
11
-1.2474844795
21
-14.8821680501
31
-5.9261847126
11
-1.5730595356
21
-14.5828574385
31
-6.1159182174
11
-1.8687181384
21
-14.2161273886
31
-6.2244169889
11
-2.1162136310
21
-13.8045633476
31
-6.2453527171
11
-2.3093925505
21
-13.3531684136
31
-6.1751693002
0
SPLINE
5
2A2
100
AcDbEntity
8
ASSI
100
AcDbSpline
62
9
6
CONTINUOUS
70
0
71
3
72
15
73
11
74
9
42
0.0000001000
43
0.0000001000
44
0.0000000001
12
-1.5033427676
22
-2.9079307216
32
-3.7511816453
13
-1.8558023703
23
4.9681563553
33
1.0952336717
40
0.0000000000
40
0.0000000000
40
0.0000000000
40
0.0000000000
40
0.1836734694
40
0.3877551020
40
0.4897959184
40
0.5918367347
40
0.6938775510
40
0.7959183673
40
0.8979591837
40
1.0000000000
40
1.0000000000
40
1.0000000000
40
1.0000000000
10
0.4901278943
20
-14.9221381767
30
-3.8638411059
10
0.3980865004
20
-15.1001747515
30
-4.0935052883
10
0.1211529978
20
-15.3832469725
30
-4.6168061663
10
-0.3926851959
20
-15.4321975124
30
-5.2688606389
10
-0.8666498749
20
-15.2657581187
30
-5.7271262496
10
-1.2279337195
20
-15.0441127331
30
-6.0122183524
10
-1.5778995877
20
-14.7353206492
30
-6.2247039511
10
-1.9001042890
20
-14.3513549823
30
-6.3531895363
10
-2.1711805581
20
-13.9202913107
30
-6.3889606862
10
-2.3147242603
20
-13.6094022288
30
-6.3528966096
10
-2.3778467900
20
-13.4404173187
30
-6.3156437636
11
0.4901278943
21
-14.9221381767
31
-3.8638411059
11
0.1065919897
21
-15.3135287766
31
-4.5876729399
11
-0.5149902144
21
-15.3733183715
31
-5.3763342818
11
-0.8676182641
21
-15.2496221453
31
-5.7173583987
11
-1.2260473901
21
-15.0295882834
31
-6.0001172684
11
-1.5732727265
21
-14.7227917187
31
-6.2107039489
11
-1.8915828836
21
-14.3435053149
31
-6.3377371304
11
-2.1618871055
21
-13.9144129855
31
-6.3739828087
11
-2.3778467900
21
-13.4404173187
31
-6.3156437636
0
SPLINE
5
2A3
100
AcDbEntity
8
0
100
AcDbSpline
62
0
6
CONTINUOUS
70
0
71
3
72
11
73
7
74
5
42
0.0000001000
43
0.0000001000
44
0.0000000001
12
0.3360387486
22
0.1811604904
32
0.0000000000
13
0.3399310086
23
-0.1699655043
33
0.0000000000
40
0.0000000000
40
0.0000000000
40
0.0000000000
40
0.0000000000
40
0.1476291523
40
0.4079854878
40
0.6894667517
40
1.0000000000
40
1.0000000000
40
1.0000000000
40
1.0000000000
10
-4.3908642036
20
23.6262960303
30
0.0000000000
10
-4.3743278317
20
23.6352108868
30
0.0000000000
10
-4.3263405147
20
23.6556247529
30
0.0000000000
10
-4.2385297373
20
23.6683508689
30
0.0000000000
10
-4.1304534307
20
23.6530978533
30
0.0000000000
10
-4.0600277190
20
23.6255027740
30
0.0000000000
10
-4.0248410923
20
23.6079094607
30
0.0000000000
11
-4.3908642036
21
23.6262960303
31
0.0000000000
11
-4.3390791838
21
23.6482974899
31
0.0000000000
11
-4.2412909613
21
23.6634131181
31
0.0000000000
11
-4.1351857320
21
23.6497743730
31
0.0000000000
11
-4.0248410923
21
23.6079094607
31
0.0000000000
0
SPLINE
5
2A4
100
AcDbEntity
8
0
100
AcDbSpline
62
0
6
CONTINUOUS
70
0
71
3
72
8
73
4
74
2
42
0.0000001000
43
0.0000001000
44
0.0000000001
12
-0.1259062164
22
-0.0804904942
32
0.0000000000
13
-0.1185917279
23
-0.0910650264
33
0.0000000000
40
0.0000000000
40
0.0000000000
40
0.0000000000
40
0.0000000000
40
1.0000000000
40
1.0000000000
40
1.0000000000
40
1.0000000000
10
-5.4968859303
20
-7.8242249787
30
0.0000000000
10
-5.5388546690
20
-7.8510551434
30
0.0000000000
10
-5.5796719634
20
-7.8797236833
30
0.0000000000
10
-5.6192025394
20
-7.9100786921
30
0.0000000000
11
-5.4968859303
21
-7.8242249787
31
0.0000000000
11
-5.6192025394
21
-7.9100786921
31
0.0000000000
0
SPLINE
5
2A5
100
AcDbEntity
8
0
100
AcDbSpline
62
0
6
CONTINUOUS
70
0
71
3
72
8
73
4
74
2
42
0.0000001000
43
0.0000001000
44
0.0000000001
12
-0.1660527076
22
-0.1275096878
32
0.0000000000
13
-0.1498024060
23
-0.1460973238
33
0.0000000000
40
0.0000000000
40
0.0000000000
40
0.0000000000
40
0.0000000000
40
1.0000000000
40
1.0000000000
40
1.0000000000
40
1.0000000000
10
-5.6192025394
20
-7.9100786921
30
0.0000000000
10
-5.6745534419
20
-7.9525819214
30
0.0000000000
10
-5.7273816384
20
-7.9983915969
30
0.0000000000
10
-5.7773157737
20
-8.0470907048
30
0.0000000000
11
-5.6192025394
21
-7.9100786921
31
0.0000000000
11
-5.7773157737
21
-8.0470907048
31
0.0000000000
0
SPLINE
5
2A6
100
AcDbEntity
8
0
100
AcDbSpline
62
0
6
CONTINUOUS
70
0
71
3
72
8
73
4
74
2
42
0.0000001000
43
0.0000001000
44
0.0000000001
12
-0.0983343660
22
-0.0959022495
32
0.0000000000
13
-0.0908766232
23
-0.1029150507
33
0.0000000000
40
0.0000000000
40
0.0000000000
40
0.0000000000
40
0.0000000000
40
1.0000000000
40
1.0000000000
40
1.0000000000
40
1.0000000000
10
-5.7773157737
20
-8.0470907048
30
0.0000000000
10
-5.8100938957
20
-8.0790581213
30
0.0000000000
10
-5.8416249767
20
-8.1122705844
30
0.0000000000
10
-5.8719171844
20
-8.1465756013
30
0.0000000000
11
-5.7773157737
21
-8.0470907048
31
0.0000000000
11
-5.8719171844
21
-8.1465756013
31
0.0000000000
0
SPLINE
5
2A7
100
AcDbEntity
8
0
100
AcDbSpline
62
0
6
CONTINUOUS
70
0
71
3
72
8
73
4
74
2
42
0.0000001000
43
0.0000001000
44
0.0000000001
12
-0.0503977259
22
-0.0570739133
32
0.0000000000
13
-0.0481158031
23
-0.0590119837
33
0.0000000000
40
0.0000000000
40
0.0000000000
40
0.0000000000
40
0.0000000000
40
1.0000000000
40
1.0000000000
40
1.0000000000
40
1.0000000000
10
-5.8719171844
20
-8.1465756013
30
0.0000000000
10
-5.8887164263
20
-8.1656002391
30
0.0000000000
10
-5.9051346513
20
-8.1849608932
30
0.0000000000
10
-5.9211732523
20
-8.2046315544
30
0.0000000000
11
-5.8719171844
21
-8.1465756013
31
0.0000000000
11
-5.9211732523
21
-8.2046315544
31
0.0000000000
0
SPLINE
5
2A8
100
AcDbEntity
8
0
100
AcDbSpline
62
0
6
CONTINUOUS
70
0
71
3
72
8
73
4
74
2
42
0.0000001000
43
0.0000001000
44
0.0000000001
12
-0.0968097939
22
-0.1187330901
32
0.0000000000
13
-0.0876230491
23
-0.1256273983
33
0.0000000000
40
0.0000000000
40
0.0000000000
40
0.0000000000
40
0.0000000000
40
1.0000000000
40
1.0000000000
40
1.0000000000
40
1.0000000000
10
-5.9211732523
20
-8.2046315544
30
0.0000000000
10
-5.9534431836
20
-8.2442092511
30
0.0000000000
10
-5.9841763173
20
-8.2850419222
30
0.0000000000
10
-6.0133840003
20
-8.3269177216
30
0.0000000000
11
-5.9211732523
21
-8.2046315544
31
0.0000000000
11
-6.0133840003
21
-8.3269177216
31
0.0000000000
0
SPLINE
5
2A9
100
AcDbEntity
8
0
100
AcDbSpline
62
0
6
CONTINUOUS
70
0
71
3
72
8
73
4
74
2
42
0.0000001000
43
0.0000001000
44
0.0000000001
12
0.0659987892
22
0.0007886708
32
0.0000000000
13
0.0659395615
23
0.0029581050
33
0.0000000000
40
0.0000000000
40
0.0000000000
40
0.0000000000
40
0.0000000000
40
1.0000000000
40
1.0000000000
40
1.0000000000
40
1.0000000000
10
1.1132671819
20
-17.2301331219
30
0.0000000000
10
1.1352667784
20
-17.2298702316
30
0.0000000000
10
1.1572637389
20
-17.2292500109
30
0.0000000000
10
1.1792435927
20
-17.2282639759
30
0.0000000000
11
1.1132671819
21
-17.2301331219
31
0.0000000000
11
1.1792435927
21
-17.2282639759
31
0.0000000000
0
SPLINE
5
2AA
100
AcDbEntity
8
0
100
AcDbSpline
62
0
6
CONTINUOUS
70
0
71
3
72
8
73
4
74
2
42
0.0000001000
43
0.0000001000
44
0.0000000001
12
0.1760777675
22
0.0078989990
32
0.0000000000
13
0.1745193091
23
0.0240341297
33
0.0000000000
40
0.0000000000
40
0.0000000000
40
0.0000000000
40
0.0000000000
40
1.0000000000
40
1.0000000000
40
1.0000000000
40
1.0000000000
10
1.1792435927
20
-17.2282639759
30
0.0000000000
10
1.2379361819
20
-17.2256309763
30
0.0000000000
10
1.2965067926
20
-17.2203895561
30
0.0000000000
10
1.3546798957
20
-17.2123781795
30
0.0000000000
11
1.1792435927
21
-17.2282639759
31
0.0000000000
11
1.3546798957
21
-17.2123781795
31
0.0000000000
0
SPLINE
5
2AB
100
AcDbEntity
8
0
100
AcDbSpline
62
0
6
CONTINUOUS
70
0
71
3
72
8
73
4
74
2
42
0.0000001000
43
0.0000001000
44
0.0000000001
12
0.1710568625
22
0.0235572949
32
0.0000000000
13
0.1679871564
23
0.0399804390
33
0.0000000000
40
0.0000000000
40
0.0000000000
40
0.0000000000
40
0.0000000000
40
1.0000000000
40
1.0000000000
40
1.0000000000
40
1.0000000000
10
1.3546798957
20
-17.2123781795
30
0.0000000000
10
1.4116988498
20
-17.2045257479
30
0.0000000000
10
1.4683359128
20
-17.1940121809
30
0.0000000000
10
1.5243316316
20
-17.1806853679
30
0.0000000000
11
1.3546798957
21
-17.2123781795
31
0.0000000000
11
1.5243316316
21
-17.1806853679
31
0.0000000000
0
SPLINE
5
2AC
100
AcDbEntity
8
0
100
AcDbSpline
62
0
6
CONTINUOUS
70
0
71
3
72
8
73
4
74
2
42
0.0000001000
43
0.0000001000
44
0.0000000001
12
0.1281629439
22
0.0305023959
32
0.0000000000
13
0.1255201578
23
0.0402395440
33
0.0000000000
40
0.0000000000
40
0.0000000000
40
0.0000000000
40
0.0000000000
40
1.0000000000
40
1.0000000000
40
1.0000000000
40
1.0000000000
10
1.5243316316
20
-17.1806853679
30
0.0000000000
10
1.5670526129
20
-17.1705179026
30
0.0000000000
10
1.6094002891
20
-17.1587129403
30
0.0000000000
10
1.6512403417
20
-17.1452997590
30
0.0000000000
11
1.5243316316
21
-17.1806853679
31
0.0000000000
11
1.6512403417
21
-17.1452997590
31
0.0000000000
0
SPLINE
5
2AD
100
AcDbEntity
8
0
100
AcDbSpline
62
0
6
CONTINUOUS
70
0
71
3
72
12
73
8
74
6
42
0.0000001000
43
0.0000001000
44
0.0000000001
12
0.0000000000
22
-0.5133412236
32
0.0000000000
13
-0.4680310162
23
-0.2163953326
33
0.0000000000
40
0.0000000000
40
0.0000000000
40
0.0000000000
40
0.0000000000
40
0.2535655415
40
0.4840588656
40
0.6929500270
40
0.8859942861
40
1.0000000000
40
1.0000000000
40
1.0000000000
40
1.0000000000
10
10.8244874693
20
-20.6229400008
30
0.0000000000
10
10.8244874693
20
-20.6663285493
30
0.0000000000
10
10.8181842119
20
-20.7493961368
30
0.0000000000
10
10.7869272696
20
-20.8646374196
30
0.0000000000
10
10.7347994346
20
-20.9608312722
30
0.0000000000
10
10.6717595981
20
-21.0245974990
30
0.0000000000
10
10.6259835117
20
-21.0513776801
30
0.0000000000
10
10.6081974416
20
-21.0596011149
30
0.0000000000
11
10.8244874693
21
-20.6229400008
31
0.0000000000
11
10.8136220068
21
-20.7526513610
31
0.0000000000
11
10.7814406665
21
-20.8665126448
31
0.0000000000
11
10.7291768442
21
-20.9601464528
31
0.0000000000
11
10.6588376163
21
-21.0299513426
31
0.0000000000
11
10.6081974416
21
-21.0596011149
31
0.0000000000
0
SPLINE
5
2AE
100
AcDbEntity
8
0
100
AcDbSpline
62
0
6
CONTINUOUS
70
0
71
3
72
15
73
11
74
9
42
0.0000001000
43
0.0000001000
44
0.0000000001
12
1.0529012362
22
-0.5264506181
32
0.0000000000
13
0.0000000000
23
-1.1771793689
33
0.0000000000
40
0.0000000000
40
0.0000000000
40
0.0000000000
40
0.0000000000
40
0.1103204553
40
0.2298794297
40
0.3567631267
40
0.4883331237
40
0.6215375352
40
0.7531878619
40
0.8802255268
40
1.0000000000
40
1.0000000000
40
1.0000000000
40
1.0000000000
10
10.2588882010
20
16.4660448141
30
0.0000000000
10
10.2976070489
20
16.4466853901
30
0.0000000000
10
10.3743516364
20
16.3982365903
30
0.0000000000
10
10.4797463951
20
16.3054002994
30
0.0000000000
10
10.5767921432
20
16.1926454599
30
0.0000000000
10
10.6618578578
20
16.0641957828
30
0.0000000000
10
10.7317994350
20
15.9248412548
30
0.0000000000
10
10.7839968035
20
15.7797803921
30
0.0000000000
10
10.8164961915
20
15.6344747202
30
0.0000000000
10
10.8244874693
20
15.5375290564
30
0.0000000000
10
10.8244874693
20
15.4905303768
30
0.0000000000
11
10.2588882010
21
16.4660448141
31
0.0000000000
11
10.3692328895
21
16.3975650503
31
0.0000000000
11
10.4753382156
21
16.3050984557
31
0.0000000000
11
10.5731265158
21
16.1921944574
31
0.0000000000
11
10.6588378392
21
16.0631911870
31
0.0000000000
11
10.7291769934
21
15.9230471057
31
0.0000000000
11
10.7814407268
21
15.7771496150
31
0.0000000000
11
10.8136220165
21
15.6311071348
31
0.0000000000
11
10.8244874693
21
15.4905303768
31
0.0000000000
0
SPLINE
5
2AF
100
AcDbEntity
8
0
100
AcDbSpline
62
0
6
CONTINUOUS
70
0
71
3
72
8
73
4
74
2
42
0.0000001000
43
0.0000001000
44
0.0000000001
12
0.1867340201
22
-0.0091604726
32
0.0000000000
13
0.1865280091
23
0.0078775628
33
0.0000000000
40
0.0000000000
40
0.0000000000
40
0.0000000000
40
0.0000000000
40
1.0000000000
40
1.0000000000
40
1.0000000000
40
1.0000000000
10
0.8463888330
20
-17.2951856049
30
0.0000000000
10
0.9086335064
20
-17.2982390957
30
0.0000000000
10
0.9709688346
20
-17.2985759136
30
0.0000000000
10
1.0331448377
20
-17.2959500594
30
0.0000000000
11
0.8463888330
21
-17.2951856049
31
0.0000000000
11
1.0331448377
21
-17.2959500594
31
0.0000000000
0
SPLINE
5
2B0
100
AcDbEntity
8
0
100
AcDbSpline
62
0
6
CONTINUOUS
70
0
71
3
72
9
73
5
74
3
42
0.0000001000
43
0.0000001000
44
0.0000000001
12
0.4671500420
22
0.0197289609
32
0.0000000000
13
0.4476540069
23
0.1392449828
33
0.0000000000
40
0.0000000000
40
0.0000000000
40
0.0000000000
40
0.0000000000
40
0.5064201888
40
1.0000000000
40
1.0000000000
40
1.0000000000
40
1.0000000000
10
1.0331448377
20
-17.2959500594
30
0.0000000000
10
1.1120029085
20
-17.2926196780
30
0.0000000000
10
1.2672135080
20
-17.2766327151
30
0.0000000000
10
1.4194361495
20
-17.2401061167
30
0.0000000000
10
1.4930871429
20
-17.2171966125
30
0.0000000000
11
1.0331448377
21
-17.2959500594
31
0.0000000000
11
1.2684401748
21
-17.2711598126
31
0.0000000000
11
1.4930871429
21
-17.2171966125
31
0.0000000000
0
SPLINE
5
2B1
100
AcDbEntity
8
0
100
AcDbSpline
62
0
6
CONTINUOUS
70
0
71
3
72
8
73
4
74
2
42
0.0000001000
43
0.0000001000
44
0.0000000001
12
0.1205485351
22
0.0374972154
32
0.0000000000
13
0.1175319971
23
0.0461540357
33
0.0000000000
40
0.0000000000
40
0.0000000000
40
0.0000000000
40
0.0000000000
40
1.0000000000
40
1.0000000000
40
1.0000000000
40
1.0000000000
10
1.4930871429
20
-17.2171966125
30
0.0000000000
10
1.5332699879
20
-17.2046975408
30
0.0000000000
10
1.5730113908
20
-17.1907456638
30
0.0000000000
10
1.6121887231
20
-17.1753609852
30
0.0000000000
11
1.4930871429
21
-17.2171966125
31
0.0000000000
11
1.6121887231
21
-17.1753609852
31
0.0000000000
0
SPLINE
5
2B2
100
AcDbEntity
8
0
100
AcDbSpline
62
9
6
CONTINUOUS
70
0
71
3
72
8
73
4
74
2
42
0.0000001000
43
0.0000001000
44
0.0000000001
12
-0.2634312964
22
0.1317551302
32
0.0000000000
13
-0.2534650567
23
0.1507582387
33
0.0000000000
40
0.0000000000
40
0.0000000000
40
0.0000000000
40
0.0000000000
40
1.0000000000
40
1.0000000000
40
1.0000000000
40
1.0000000000
10
-3.4501965468
20
-15.6284030598
30
0.0000000000
10
-3.5380069789
20
-15.5844846831
30
0.0000000000
10
-3.6241681060
20
-15.5371885034
30
0.0000000000
10
-3.7086564583
20
-15.4869357572
30
0.0000000000
11
-3.4501965468
21
-15.6284030598
31
0.0000000000
11
-3.7086564583
21
-15.4869357572
31
0.0000000000
0
SPLINE
5
2B3
100
AcDbEntity
8
0
100
AcDbSpline
62
9
6
CONTINUOUS
70
0
71
3
72
8
73
4
74
2
42
0.0000001000
43
0.0000001000
44
0.0000000001
12
-0.2633534642
22
0.1566397551
32
0.0000000000
13
-0.2524394461
23
0.1743728277
33
0.0000000000
40
0.0000000000
40
0.0000000000
40
0.0000000000
40
0.0000000000
40
1.0000000000
40
1.0000000000
40
1.0000000000
40
1.0000000000
10
-3.7086564583
20
-15.4869357572
30
0.0000000000
10
-3.7964409463
20
-15.4347225055
30
0.0000000000
10
-3.8824195940
20
-15.3793174989
30
0.0000000000
10
-3.9665660760
20
-15.3211932230
30
0.0000000000
11
-3.7086564583
21
-15.4869357572
31
0.0000000000
11
-3.9665660760
21
-15.3211932230
31
0.0000000000
0
SPLINE
5
2B4
100
AcDbEntity
8
0
100
AcDbSpline
62
9
6
CONTINUOUS
70
0
71
3
72
8
73
4
74
2
42
0.0000001000
43
0.0000001000
44
0.0000000001
12
-0.2615708635
22
0.1806803644
32
0.0000000000
13
-0.2496803337
23
0.1966207801
33
0.0000000000
40
0.0000000000
40
0.0000000000
40
0.0000000000
40
0.0000000000
40
1.0000000000
40
1.0000000000
40
1.0000000000
40
1.0000000000
10
-3.9665660760
20
-15.3211932230
30
0.0000000000
10
-4.0537563639
20
-15.2609664348
30
0.0000000000
10
-4.1389795400
20
-15.1978200928
30
0.0000000000
10
-4.2222063179
20
-15.1322798327
30
0.0000000000
11
-3.9665660760
21
-15.3211932230
31
0.0000000000
11
-4.2222063179
21
-15.1322798327
31
0.0000000000
0
SPLINE
5
2B5
100
AcDbEntity
8
0
100
AcDbSpline
62
9
6
CONTINUOUS
70
0
71
3
72
8
73
4
74
2
42
0.0000001000
43
0.0000001000
44
0.0000000001
12
-0.2391192769
22
0.1883040528
32
0.0000000000
13
-0.2282602972
23
0.2008666558
33
0.0000000000
40
0.0000000000
40
0.0000000000
40
0.0000000000
40
0.0000000000
40
1.0000000000
40
1.0000000000
40
1.0000000000
40
1.0000000000
10
-4.2222063179
20
-15.1322798327
30
0.0000000000
10
-4.3019127435
20
-15.0695118151
30
0.0000000000
10
-4.3797880876
20
-15.0045481139
30
0.0000000000
10
-4.4558748533
20
-14.9375925620
30
0.0000000000
11
-4.2222063179
21
-15.1322798327
31
0.0000000000
11
-4.4558748533
21
-14.9375925620
31
0.0000000000
0
SPLINE
5
2B6
100
AcDbEntity
8
0
100
AcDbSpline
62
9
6
CONTINUOUS
70
0
71
3
72
11
73
7
74
5
42
0.0000001000
43
0.0000001000
44
0.0000000001
12
-0.5897367013
22
2.5312415217
32
0.0000000000
13
1.1447004321
23
2.3455428546
33
0.0000000000
40
0.0000000000
40
0.0000000000
40
0.0000000000
40
0.0000000000
40
0.2387444694
40
0.5930422509
40
0.9044661529
40
1.0000000000
40
1.0000000000
40
1.0000000000
40
1.0000000000
10
-6.6286048221
20
-11.2826297637
30
0.0000000000
10
-6.6755369474
20
-11.0811897923
30
0.0000000000
10
-6.7664785690
20
-10.5749033114
30
0.0000000000
10
-6.7918464125
20
-9.7873382002
30
0.0000000000
10
-6.6635744666
20
-9.1340542128
30
0.0000000000
10
-6.5257545731
20
-8.8071688001
30
0.0000000000
10
-6.4893020277
20
-8.7324758893
30
0.0000000000
11
-6.6286048221
21
-11.2826297637
31
0.0000000000
11
-6.7367157849
21
-10.6719145758
31
0.0000000000
11
-6.7559883136
21
-9.7523786813
31
0.0000000000
11
-6.5866452708
21
-8.9618741120
31
0.0000000000
11
-6.4893020277
21
-8.7324758893
31
0.0000000000
0
SPLINE
5
2B7
100
AcDbEntity
8
0
100
AcDbSpline
62
9
6
CONTINUOUS
70
0
71
3
72
8
73
4
74
2
42
0.0000001000
43
0.0000001000
44
0.0000000001
12
0.2065410130
22
0.4232118584
32
0.0000000000
13
0.2999942940
23
0.3630551979
33
0.0000000000
40
0.0000000000
40
0.0000000000
40
0.0000000000
40
0.0000000000
40
1.0000000000
40
1.0000000000
40
1.0000000000
40
1.0000000000
10
-6.4893020277
20
-8.7324758893
30
0.0000000000
10
-6.4204550234
20
-8.5914052698
30
0.0000000000
10
-6.3369859689
20
-8.4576252664
30
0.0000000000
10
-6.2369878709
20
-8.3366068671
30
0.0000000000
11
-6.4893020277
21
-8.7324758893
31
0.0000000000
11
-6.2369878709
21
-8.3366068671
31
0.0000000000
0
SPLINE
5
2B8
100
AcDbEntity
8
0
100
AcDbSpline
62
9
6
CONTINUOUS
70
0
71
3
72
8
73
4
74
2
42
0.0000001000
43
0.0000001000
44
0.0000000001
12
0.1082315552
22
0.1309825869
32
0.0000000000
13
0.1206157598
23
0.1201227512
33
0.0000000000
40
0.0000000000
40
0.0000000000
40
0.0000000000
40
0.0000000000
40
1.0000000000
40
1.0000000000
40
1.0000000000
40
1.0000000000
10
-6.2369878709
20
-8.3366068671
30
0.0000000000
10
-6.2009106858
20
-8.2929460048
30
0.0000000000
10
-6.1626820593
20
-8.2509462092
30
0.0000000000
10
-6.1224768060
20
-8.2109052921
30
0.0000000000
11
-6.2369878709
21
-8.3366068671
31
0.0000000000
11
-6.1224768060
21
-8.2109052921
31
0.0000000000
0
SPLINE
5
2B9
100
AcDbEntity
8
0
100
AcDbSpline
62
9
6
CONTINUOUS
70
0
71
3
72
8
73
4
74
2
42
0.0000001000
43
0.0000001000
44
0.0000000001
12
0.0373031024
22
0.0371506285
32
0.0000000000
13
0.0384219662
23
0.0360000071
33
0.0000000000
40
0.0000000000
40
0.0000000000
40
0.0000000000
40
0.0000000000
40
1.0000000000
40
1.0000000000
40
1.0000000000
40
1.0000000000
10
-6.1224768060
20
-8.2109052921
30
0.0000000000
10
-6.1100424386
20
-8.1985217493
30
0.0000000000
10
-6.0974190082
20
-8.1863255718
30
0.0000000000
10
-6.0846116861
20
-8.1743255695
30
0.0000000000
11
-6.1224768060
21
-8.2109052921
31
0.0000000000
11
-6.0846116861
21
-8.1743255695
31
0.0000000000
0
SPLINE
5
2BA
100
AcDbEntity
8
0
100
AcDbSpline
62
9
6
CONTINUOUS
70
0
71
3
72
8
73
4
74
2
42
0.0000001000
43
0.0000001000
44
0.0000000001
12
0.0952051454
22
0.0892038134
32
0.0000000000
13
0.1017435809
23
0.0815747386
33
0.0000000000
40
0.0000000000
40
0.0000000000
40
0.0000000000
40
0.0000000000
40
1.0000000000
40
1.0000000000
40
1.0000000000
40
1.0000000000
10
-6.0846116861
20
-8.1743255695
30
0.0000000000
10
-6.0528766376
20
-8.1445909650
30
0.0000000000
10
-6.0200125118
20
-8.1160608572
30
0.0000000000
10
-5.9860979849
20
-8.0888692777
30
0.0000000000
11
-6.0846116861
21
-8.1743255695
31
0.0000000000
11
-5.9860979849
21
-8.0888692777
31
0.0000000000
0
SPLINE
5
2BB
100
AcDbEntity
8
0
100
AcDbSpline
62
9
6
CONTINUOUS
70
0
71
3
72
8
73
4
74
2
42
0.0000001000
43
0.0000001000
44
0.0000000001
12
0.0680815381
22
0.0545855927
32
0.0000000000
13
0.0708327816
23
0.0508690868
33
0.0000000000
40
0.0000000000
40
0.0000000000
40
0.0000000000
40
0.0000000000
40
1.0000000000
40
1.0000000000
40
1.0000000000
40
1.0000000000
10
-5.9860979849
20
-8.0888692777
30
0.0000000000
10
-5.9634041389
20
-8.0706740801
30
0.0000000000
10
-5.9402399659
20
-8.0530782211
30
0.0000000000
10
-5.9166290387
20
-8.0361218588
30
0.0000000000
11
-5.9860979849
21
-8.0888692777
31
0.0000000000
11
-5.9166290387
21
-8.0361218588
31
0.0000000000
0
SPLINE
5
2BC
100
AcDbEntity
8
0
100
AcDbSpline
62
9
6
CONTINUOUS
70
0
71
3
72
8
73
4
74
2
42
0.0000001000
43
0.0000001000
44
0.0000000001
12
0.1756523606
22
0.1261460439
32
0.0000000000
13
0.1910578091
23
0.1007133635
33
0.0000000000
40
0.0000000000
40
0.0000000000
40
0.0000000000
40
0.0000000000
40
1.0000000000
40
1.0000000000
40
1.0000000000
40
1.0000000000
10
-5.9166290387
20
-8.0361218588
30
0.0000000000
10
-5.8580782518
20
-7.9940731775
30
0.0000000000
10
-5.7967801525
20
-7.9559570777
30
0.0000000000
10
-5.7330942161
20
-7.9223859565
30
0.0000000000
11
-5.9166290387
21
-8.0361218588
31
0.0000000000
11
-5.7330942161
21
-7.9223859565
31
0.0000000000
0
SPLINE
5
2BD
100
AcDbEntity
8
0
100
AcDbSpline
62
9
6
CONTINUOUS
70
0
71
3
72
8
73
4
74
2
42
0.0000001000
43
0.0000001000
44
0.0000000001
12
0.0418992765
22
0.0220865982
32
0.0000000000
13
0.0425660671
23
0.0207780310
33
0.0000000000
40
0.0000000000
40
0.0000000000
40
0.0000000000
40
0.0000000000
40
1.0000000000
40
1.0000000000
40
1.0000000000
40
1.0000000000
10
-5.7330942161
20
-7.9223859565
30
0.0000000000
10
-5.7191277906
20
-7.9150237571
30
0.0000000000
10
-5.7050465264
20
-7.9078801402
30
0.0000000000
10
-5.6908578373
20
-7.9009541298
30
0.0000000000
11
-5.7330942161
21
-7.9223859565
31
0.0000000000
11
-5.6908578373
21
-7.9009541298
31
0.0000000000
0
SPLINE
5
2BE
100
AcDbEntity
8
0
100
AcDbSpline
62
9
6
CONTINUOUS
70
0
71
3
72
8
73
4
74
2
42
0.0000001000
43
0.0000001000
44
0.0000000001
12
0.0193240409
22
0.0094327606
32
0.0000000000
13
0.0194547987
23
0.0091639478
33
0.0000000000
40
0.0000000000
40
0.0000000000
40
0.0000000000
40
0.0000000000
40
1.0000000000
40
1.0000000000
40
1.0000000000
40
1.0000000000
10
-5.6908578373
20
-7.9009541298
30
0.0000000000
10
-5.6844164904
20
-7.8978098763
30
0.0000000000
10
-5.6779530036
20
-7.8947104705
30
0.0000000000
10
-5.6714680707
20
-7.8916558213
30
0.0000000000
11
-5.6908578373
21
-7.9009541298
31
0.0000000000
11
-5.6714680707
21
-7.8916558213
31
0.0000000000
0
SPLINE
5
2BF
100
AcDbEntity
8
0
100
AcDbSpline
62
9
6
CONTINUOUS
70
0
71
3
72
10
73
6
74
4
42
0.0000001000
43
0.0000001000
44
0.0000000001
12
-0.0257206450
22
-0.3737639936
32
0.0000000000
13
0.3386685021
23
-0.1688223678
33
0.0000000000
40
0.0000000000
40
0.0000000000
40
0.0000000000
40
0.0000000000
40
0.0313902155
40
0.4387443272
40
1.0000000000
40
1.0000000000
40
1.0000000000
40
1.0000000000
10
-9.2172267340
20
20.0306171036
30
0.0000000000
10
-9.2174958595
20
20.0267062595
30
0.0000000000
10
-9.2191443908
20
19.9720262620
30
0.0000000000
10
-9.1518956407
20
19.8494878428
30
0.0000000000
10
-9.0462505273
20
19.7852239106
30
0.0000000000
10
-8.9828906547
20
19.7536397401
30
0.0000000000
11
-9.2172267340
21
20.0306171036
31
0.0000000000
11
-9.2175722820
21
20.0188867294
31
0.0000000000
11
-9.1550809259
21
19.8779732035
31
0.0000000000
11
-8.9828906547
21
19.7536397401
31
0.0000000000
0
SPLINE
5
2C0
100
AcDbEntity
8
0
100
AcDbSpline
62
9
6
CONTINUOUS
70
0
71
3
72
9
73
5
74
3
42
0.0000001000
43
0.0000001000
44
0.0000000001
12
0.3394723926
22
0.1783090698
32
0.0000000000
13
0.3420788848
23
-0.1650472056
33
0.0000000000
40
0.0000000000
40
0.0000000000
40
0.0000000000
40
0.0000000000
40
0.4050937236
40
1.0000000000
40
1.0000000000
40
1.0000000000
40
1.0000000000
10
-8.3214128273
20
21.5052716876
30
0.0000000000
10
-8.2755734488
20
21.5293489826
30
0.0000000000
10
-8.1458923226
20
21.5606292824
30
0.0000000000
10
-8.0194418424
20
21.5220584356
30
0.0000000000
10
-7.9516068838
20
21.4893292295
30
0.0000000000
11
-8.3214128273
21
21.5052716876
31
0.0000000000
11
-8.1710375802
21
21.5432292511
31
0.0000000000
11
-7.9516068838
21
21.4893292295
31
0.0000000000
0
SPLINE
5
2C1
100
AcDbEntity
8
0
100
AcDbSpline
62
9
6
CONTINUOUS
70
0
71
3
72
8
73
4
74
2
42
0.0000001000
43
0.0000001000
44
0.0000000001
12
-0.2720931512
22
0.1361356914
32
0.0000000000
13
-0.2616936652
23
0.1559475411
33
0.0000000000
40
0.0000000000
40
0.0000000000
40
0.0000000000
40
0.0000000000
40
1.0000000000
40
1.0000000000
40
1.0000000000
40
1.0000000000
10
-3.5195518928
20
-15.7547397177
30
0.0000000000
10
-3.6102496099
20
-15.7093611539
30
0.0000000000
10
-3.6992275861
20
-15.6604597607
30
0.0000000000
10
-3.7864588079
20
-15.6084772470
30
0.0000000000
11
-3.5195518928
21
-15.7547397177
31
0.0000000000
11
-3.7864588079
21
-15.6084772470
31
0.0000000000
0
SPLINE
5
2C2
100
AcDbEntity
8
0
100
AcDbSpline
62
9
6
CONTINUOUS
70
0
71
3
72
8
73
4
74
2
42
0.0000001000
43
0.0000001000
44
0.0000000001
12
-0.1517539391
22
0.0904326577
32
0.0000000000
13
-0.1482138054
23
0.0963908622
33
0.0000000000
40
0.0000000000
40
0.0000000000
40
0.0000000000
40
0.0000000000
40
1.0000000000
40
1.0000000000
40
1.0000000000
40
1.0000000000
10
-3.7864588079
20
-15.6084772470
30
0.0000000000
10
-3.8370434542
20
-15.5783330278
30
0.0000000000
10
-3.8870407121
20
-15.5471527073
30
0.0000000000
10
-3.9364453139
20
-15.5150224199
30
0.0000000000
11
-3.7864588079
21
-15.6084772470
31
0.0000000000
11
-3.9364453139
21
-15.5150224199
31
0.0000000000
0
SPLINE
5
2C3
100
AcDbEntity
8
0
100
AcDbSpline
62
9
6
CONTINUOUS
70
0
71
3
72
8
73
4
74
2
42
0.0000001000
43
0.0000001000
44
0.0000000001
12
-0.1137758519
22
0.0739941359
32
0.0000000000
13
-0.1116732551
23
0.0772360327
33
0.0000000000
40
0.0000000000
40
0.0000000000
40
0.0000000000
40
0.0000000000
40
1.0000000000
40
1.0000000000
40
1.0000000000
40
1.0000000000
10
-3.9364453139
20
-15.5150224199
30
0.0000000000
10
-3.9743705979
20
-15.4903577079
30
0.0000000000
10
-4.0119466405
20
-15.4651331979
30
0.0000000000
10
-4.0491710589
20
-15.4393878537
30
0.0000000000
11
-3.9364453139
21
-15.5150224199
31
0.0000000000
11
-4.0491710589
21
-15.4393878537
31
0.0000000000
0
SPLINE
5
2C4
100
AcDbEntity
8
0
100
AcDbSpline
62
9
6
CONTINUOUS
70
0
71
3
72
8
73
4
74
2
42
0.0000001000
43
0.0000001000
44
0.0000000001
12
-0.0305772054
22
0.0211479645
32
0.0000000000
13
-0.0304188875
23
0.0213798519
33
0.0000000000
40
0.0000000000
40
0.0000000000
40
0.0000000000
40
0.0000000000
40
1.0000000000
40
1.0000000000
40
1.0000000000
40
1.0000000000
10
-4.0491710589
20
-15.4393878537
30
0.0000000000
10
-4.0593634607
20
-15.4323385322
30
0.0000000000
10
-4.0695295006
20
-15.4252501629
30
0.0000000000
10
-4.0796691298
20
-15.4181235456
30
0.0000000000
11
-4.0491710589
21
-15.4393878537
31
0.0000000000
11
-4.0796691298
21
-15.4181235456
31
0.0000000000
0
SPLINE
5
2C5
100
AcDbEntity
8
0
100
AcDbSpline
62
9
6
CONTINUOUS
70
0
71
3
72
11
73
7
74
5
42
0.0000001000
43
0.0000001000
44
0.0000000001
12
-2.2784063076
22
1.6013731401
32
0.0000000000
13
-1.4233751326
23
2.3879695309
33
0.0000000000
40
0.0000000000
40
0.0000000000
40
0.0000000000
40
0.0000000000
40
0.1022509203
40
0.4743207104
40
0.8672055750
40
1.0000000000
40
1.0000000000
40
1.0000000000
40
1.0000000000
10
-4.0796691298
20
-15.4181235456
30
0.0000000000
10
-4.1573255103
20
-15.3635429198
30
0.0000000000
10
-4.5103711282
20
-15.0999478226
30
0.0000000000
10
-5.0940368299
20
-14.5438873682
30
0.0000000000
10
-5.6031879251
20
-13.8829724368
30
0.0000000000
10
-5.8626543326
20
-13.4705117732
30
0.0000000000
10
-5.9256597600
20
-13.3648087596
30
0.0000000000
11
-4.0796691298
21
-15.4181235456
31
0.0000000000
11
-4.3079688702
21
-15.2480105970
31
0.0000000000
11
-5.0608623930
21
-14.5400451032
31
0.0000000000
11
-5.7290965756
21
-13.6772744718
31
0.0000000000
11
-5.9256597600
21
-13.3648087596
31
0.0000000000
0
SPLINE
5
2C6
100
AcDbEntity
8
0
100
AcDbSpline
62
9
6
CONTINUOUS
70
0
71
3
72
8
73
4
74
2
42
0.0000001000
43
0.0000001000
44
0.0000000001
12
-0.1905211297
22
0.3196336948
32
0.0000000000
13
-0.1748182074
23
0.3284796613
33
0.0000000000
40
0.0000000000
40
0.0000000000
40
0.0000000000
40
0.0000000000
40
1.0000000000
40
1.0000000000
40
1.0000000000
40
1.0000000000
10
-5.9256597600
20
-13.3648087596
30
0.0000000000
10
-5.9891668032
20
-13.2582641947
30
0.0000000000
10
-6.0500935917
20
-13.1501862002
30
0.0000000000
10
-6.1083663275
20
-13.0406929798
30
0.0000000000
11
-5.9256597600
21
-13.3648087596
31
0.0000000000
11
-6.1083663275
21
-13.0406929798
31
0.0000000000
0
SPLINE
5
2C7
100
AcDbEntity
8
0
100
AcDbSpline
62
9
6
CONTINUOUS
70
0
71
3
72
8
73
4
74
2
42
0.0000001000
43
0.0000001000
44
0.0000000001
12
-0.1735545424
22
0.3261052618
32
0.0000000000
13
-0.1576429834
23
0.3341273267
33
0.0000000000
40
0.0000000000
40
0.0000000000
40
0.0000000000
40
0.0000000000
40
1.0000000000
40
1.0000000000
40
1.0000000000
40
1.0000000000
10
-6.1083663275
20
-13.0406929798
30
0.0000000000
10
-6.1662178416
20
-12.9319912259
30
0.0000000000
10
-6.2214535338
20
-12.8218946318
30
0.0000000000
10
-6.2740011949
20
-12.7105188562
30
0.0000000000
11
-6.1083663275
21
-13.0406929798
31
0.0000000000
11
-6.2740011949
21
-12.7105188562
31
0.0000000000
0
SPLINE
5
2C8
100
AcDbEntity
8
0
100
AcDbSpline
62
9
6
CONTINUOUS
70
0
71
3
72
8
73
4
74
2
42
0.0000001000
43
0.0000001000
44
0.0000000001
12
-0.0486827147
22
0.1031839474
32
0.0000000000
13
-0.0471290374
23
0.1039070164
33
0.0000000000
40
0.0000000000
40
0.0000000000
40
0.0000000000
40
0.0000000000
40
1.0000000000
40
1.0000000000
40
1.0000000000
40
1.0000000000
10
-6.2740011949
20
-12.7105188562
30
0.0000000000
10
-6.2902287665
20
-12.6761242071
30
0.0000000000
10
-6.3061999873
20
-12.6416075656
30
0.0000000000
10
-6.3219096665
20
-12.6069718935
30
0.0000000000
11
-6.2740011949
21
-12.7105188562
31
0.0000000000
11
-6.3219096665
21
-12.6069718935
31
0.0000000000
0
SPLINE
5
2C9
100
AcDbEntity
8
0
100
AcDbSpline
62
9
6
CONTINUOUS
70
0
71
3
72
8
73
4
74
2
42
0.0000001000
43
0.0000001000
44
0.0000000001
12
-0.1050067902
22
0.2315120968
32
0.0000000000
13
-0.0970443205
23
0.2349592433
33
0.0000000000
40
0.0000000000
40
0.0000000000
40
0.0000000000
40
0.0000000000
40
1.0000000000
40
1.0000000000
40
1.0000000000
40
1.0000000000
10
-6.3219096665
20
-12.6069718935
30
0.0000000000
10
-6.3569119299
20
-12.5298011946
30
0.0000000000
10
-6.3906158231
20
-12.4520395922
30
0.0000000000
10
-6.4229639299
20
-12.3737198444
30
0.0000000000
11
-6.3219096665
21
-12.6069718935
31
0.0000000000
11
-6.4229639299
21
-12.3737198444
31
0.0000000000
0
SPLINE
5
2CA
100
AcDbEntity
8
0
100
AcDbSpline
62
9
6
CONTINUOUS
70
0
71
3
72
8
73
4
74
2
42
0.0000001000
43
0.0000001000
44
0.0000000001
12
-0.0867368242
22
0.2100032074
32
0.0000000000
13
-0.0801153957
23
0.2126082956
33
0.0000000000
40
0.0000000000
40
0.0000000000
40
0.0000000000
40
0.0000000000
40
1.0000000000
40
1.0000000000
40
1.0000000000
40
1.0000000000
10
-6.4229639299
20
-12.3737198444
30
0.0000000000
10
-6.4518762046
20
-12.3037187753
30
0.0000000000
10
-6.4797054056
20
-12.2332718301
30
0.0000000000
10
-6.5064105375
20
-12.1624023982
30
0.0000000000
11
-6.4229639299
21
-12.3737198444
31
0.0000000000
11
-6.5064105375
21
-12.1624023982
31
0.0000000000
0
SPLINE
5
2CB
100
AcDbEntity
8
0
100
AcDbSpline
62
9
6
CONTINUOUS
70
0
71
3
72
12
73
8
74
6
42
0.0000001000
43
0.0000001000
44
0.0000000001
12
-1.2520341444
22
3.3226178724
32
0.0000000000
13
1.5646843259
23
3.2049675947
33
0.0000000000
40
0.0000000000
40
0.0000000000
40
0.0000000000
40
0.0000000000
40
0.1405873542
40
0.4300285416
40
0.6953774395
40
0.9286550751
40
1.0000000000
40
1.0000000000
40
1.0000000000
40
1.0000000000
10
-6.5064105375
20
-12.1624023982
30
0.0000000000
10
-6.5650839267
20
-12.0066963796
30
0.0000000000
10
-6.7279567860
20
-11.5241847073
30
0.0000000000
10
-6.9026582207
20
-10.7168370768
30
0.0000000000
10
-6.9320964671
20
-9.7791009755
30
0.0000000000
10
-6.8003958041
20
-9.1107963147
30
0.0000000000
10
-6.6593006626
20
-8.7764927353
30
0.0000000000
10
-6.6220899006
20
-8.7002733445
30
0.0000000000
11
-6.5064105375
21
-12.1624023982
31
0.0000000000
11
-6.6657176928
21
-11.6894141534
31
0.0000000000
11
-6.8764143586
21
-10.6845017662
31
0.0000000000
11
-6.8953913991
21
-9.7433951304
31
0.0000000000
11
-6.7215132483
21
-8.9343403054
31
0.0000000000
11
-6.6220899006
21
-8.7002733445
31
0.0000000000
0
SPLINE
5
2CC
100
AcDbEntity
8
0
100
AcDbSpline
62
9
6
CONTINUOUS
70
0
71
3
72
9
73
5
74
3
42
0.0000001000
43
0.0000001000
44
0.0000000001
12
0.3114935254
22
0.6380371033
32
0.0000000000
13
0.5191220195
23
0.4865142066
33
0.0000000000
40
0.0000000000
40
0.0000000000
40
0.0000000000
40
0.0000000000
40
0.6800276181
40
1.0000000000
40
1.0000000000
40
1.0000000000
40
1.0000000000
10
-6.6220899006
20
-8.7002733445
30
0.0000000000
10
-6.5514818339
20
-8.5556457273
30
0.0000000000
10
-6.4255969668
20
-8.3539641668
30
0.0000000000
10
-6.2630461096
20
-8.1806046605
30
0.0000000000
10
-6.2076778732
20
-8.1287142907
30
0.0000000000
11
-6.6220899006
21
-8.7002733445
31
0.0000000000
11
-6.3633157302
21
-8.2944448466
31
0.0000000000
11
-6.2076778732
21
-8.1287142907
31
0.0000000000
0
SPLINE
5
2CD
100
AcDbEntity
8
0
100
AcDbSpline
62
9
6
CONTINUOUS
70
0
71
3
72
8
73
4
74
2
42
0.0000001000
43
0.0000001000
44
0.0000000001
12
0.1633560458
22
0.1530950991
32
0.0000000000
13
0.1816994983
23
0.1303797974
33
0.0000000000
40
0.0000000000
40
0.0000000000
40
0.0000000000
40
0.0000000000
40
1.0000000000
40
1.0000000000
40
1.0000000000
40
1.0000000000
10
-6.2076778732
20
-8.1287142907
30
0.0000000000
10
-6.1532258579
20
-8.0776825910
30
0.0000000000
10
-6.0955275558
20
-8.0301132777
30
0.0000000000
10
-6.0349610564
20
-7.9866533452
30
0.0000000000
11
-6.2076778732
21
-8.1287142907
31
0.0000000000
11
-6.0349610564
21
-7.9866533452
31
0.0000000000
0
SPLINE
5
2CE
100
AcDbEntity
8
0
100
AcDbSpline
62
9
6
CONTINUOUS
70
0
71
3
72
8
73
4
74
2
42
0.0000001000
43
0.0000001000
44
0.0000000001
12
0.1639793320
22
0.1176645631
32
0.0000000000
13
0.1771618329
23
0.0961562737
33
0.0000000000
40
0.0000000000
40
0.0000000000
40
0.0000000000
40
0.0000000000
40
1.0000000000
40
1.0000000000
40
1.0000000000
40
1.0000000000
10
-6.0349610564
20
-7.9866533452
30
0.0000000000
10
-5.9803012790
20
-7.9474318241
30
0.0000000000
10
-5.9233054643
20
-7.9115572372
30
0.0000000000
10
-5.8642515199
20
-7.8795051460
30
0.0000000000
11
-6.0349610564
21
-7.9866533452
31
0.0000000000
11
-5.8642515199
21
-7.8795051460
31
0.0000000000
0
SPLINE
5
2CF
100
AcDbEntity
8
0
100
AcDbSpline
62
9
6
CONTINUOUS
70
0
71
3
72
8
73
4
74
2
42
0.0000001000
43
0.0000001000
44
0.0000000001
12
0.0166670503
22
0.0090462004
32
0.0000000000
13
0.0167756513
23
0.0088420221
33
0.0000000000
40
0.0000000000
40
0.0000000000
40
0.0000000000
40
0.0000000000
40
1.0000000000
40
1.0000000000
40
1.0000000000
40
1.0000000000
10
-5.8642515199
20
-7.8795051460
30
0.0000000000
10
-5.8586958365
20
-7.8764897458
30
0.0000000000
10
-5.8531219372
20
-7.8735081774
30
0.0000000000
10
-5.8475300535
20
-7.8705608367
30
0.0000000000
11
-5.8642515199
21
-7.8795051460
31
0.0000000000
11
-5.8475300535
21
-7.8705608367
31
0.0000000000
0
SPLINE
5
2D0
100
AcDbEntity
8
0
100
AcDbSpline
62
9
6
CONTINUOUS
70
0
71
3
72
8
73
4
74
2
42
0.0000001000
43
0.0000001000
44
0.0000000001
12
0.1972137633
22
0.1039463941
32
0.0000000000
13
0.2099129935
23
0.0758527118
33
0.0000000000
40
0.0000000000
40
0.0000000000
40
0.0000000000
40
0.0000000000
40
1.0000000000
40
1.0000000000
40
1.0000000000
40
1.0000000000
10
-5.8475300535
20
-7.8705608367
30
0.0000000000
10
-5.7817921323
20
-7.8359120386
30
0.0000000000
10
-5.7135687144
20
-7.8059935926
30
0.0000000000
10
-5.6435977166
20
-7.7807093553
30
0.0000000000
11
-5.8475300535
21
-7.8705608367
31
0.0000000000
11
-5.6435977166
21
-7.7807093553
31
0.0000000000
0
SPLINE
5
2D1
100
AcDbEntity
8
0
100
AcDbSpline
62
9
6
CONTINUOUS
70
0
71
3
72
8
73
4
74
2
42
0.0000001000
43
0.0000001000
44
0.0000000001
12
0.2143278557
22
0.0774480360
32
0.0000000000
13
0.2229026445
23
0.0487679047
33
0.0000000000
40
0.0000000000
40
0.0000000000
40
0.0000000000
40
0.0000000000
40
1.0000000000
40
1.0000000000
40
1.0000000000
40
1.0000000000
10
-5.6435977166
20
-7.7807093553
30
0.0000000000
10
-5.5721550980
20
-7.7548933433
30
0.0000000000
10
-5.4988906168
20
-7.7339085221
30
0.0000000000
10
-5.4245897353
20
-7.7176525539
30
0.0000000000
11
-5.6435977166
21
-7.7807093553
31
0.0000000000
11
-5.4245897353
21
-7.7176525539
31
0.0000000000
0
SPLINE
5
2D2
100
AcDbEntity
8
0
100
AcDbSpline
62
9
6
CONTINUOUS
70
0
71
3
72
8
73
4
74
2
42
0.0000001000
43
0.0000001000
44
0.0000000001
12
0.2236195726
22
0.0489247583
32
0.0000000000
13
0.2274988424
23
0.0206788181
33
0.0000000000
40
0.0000000000
40
0.0000000000
40
0.0000000000
40
0.0000000000
40
1.0000000000
40
1.0000000000
40
1.0000000000
40
1.0000000000
10
-5.4245897353
20
-7.7176525539
30
0.0000000000
10
-5.3500498777
20
-7.7013443011
30
0.0000000000
10
-5.2744669424
20
-7.6897953693
30
0.0000000000
10
-5.1986339949
20
-7.6829024299
30
0.0000000000
11
-5.4245897353
21
-7.7176525539
31
0.0000000000
11
-5.1986339949
21
-7.6829024299
31
0.0000000000
0
SPLINE
5
2D3
100
AcDbEntity
8
0
100
AcDbSpline
62
9
6
CONTINUOUS
70
0
71
3
72
8
73
4
74
2
42
0.0000001000
43
0.0000001000
44
0.0000000001
12
0.2324816192
22
0.0211317344
32
0.0000000000
13
0.2329463305
23
-0.0064600206
33
0.0000000000
40
0.0000000000
40
0.0000000000
40
0.0000000000
40
0.0000000000
40
1.0000000000
40
1.0000000000
40
1.0000000000
40
1.0000000000
10
-5.1986339949
20
-7.6829024299
30
0.0000000000
10
-5.1211401218
20
-7.6758585185
30
0.0000000000
10
-5.0433851649
20
-7.6736767881
30
0.0000000000
10
-4.9657363881
20
-7.6758301283
30
0.0000000000
11
-5.1986339949
21
-7.6829024299
31
0.0000000000
11
-4.9657363881
21
-7.6758301283
31
0.0000000000
0
SPLINE
5
2D4
100
AcDbEntity
8
0
100
AcDbSpline
62
9
6
CONTINUOUS
70
0
71
3
72
9
73
5
74
3
42
0.0000001000
43
0.0000001000
44
0.0000000001
12
0.7220418543
22
-0.0200235188
32
0.0000000000
13
0.6858271343
23
-0.2243221288
33
0.0000000000
40
0.0000000000
40
0.0000000000
40
0.0000000000
40
0.0000000000
40
0.6669532173
40
1.0000000000
40
1.0000000000
40
1.0000000000
40
1.0000000000
10
-4.9657363881
20
-7.6758301283
30
0.0000000000
10
-4.8052136755
20
-7.6802817117
30
0.0000000000
10
-4.5652134368
20
-7.7147344462
30
0.0000000000
10
-4.3335277870
20
-7.7803673475
30
0.0000000000
10
-4.2573902801
20
-7.8052706019
30
0.0000000000
11
-4.9657363881
21
-7.6758301283
31
0.0000000000
11
-4.4887743631
21
-7.7401082033
31
0.0000000000
11
-4.2573902801
21
-7.8052706019
31
0.0000000000
0
SPLINE
5
2D5
100
AcDbEntity
8
0
100
AcDbSpline
62
9
6
CONTINUOUS
70
0
71
3
72
8
73
4
74
2
42
0.0000001000
43
0.0000001000
44
0.0000000001
12
0.4720569433
22
-0.1544016169
32
0.0000000000
13
0.4430863389
23
-0.2214560614
33
0.0000000000
40
0.0000000000
40
0.0000000000
40
0.0000000000
40
0.0000000000
40
1.0000000000
40
1.0000000000
40
1.0000000000
40
1.0000000000
10
-4.2573902801
20
-7.8052706019
30
0.0000000000
10
-4.1000379657
20
-7.8567378076
30
0.0000000000
10
-3.9470621415
20
-7.9212083451
30
0.0000000000
10
-3.7993666952
20
-7.9950270322
30
0.0000000000
11
-4.2573902801
21
-7.8052706019
31
0.0000000000
11
-3.7993666952
21
-7.9950270322
31
0.0000000000
0
SPLINE
5
2D6
100
AcDbEntity
8
0
100
AcDbSpline
62
9
6
CONTINUOUS
70
0
71
3
72
8
73
4
74
2
42
0.0000001000
43
0.0000001000
44
0.0000000001
12
-0.0239154218
22
0.0119617432
32
0.0000000000
13
-0.0233118694
23
0.0131059609
33
0.0000000000
40
0.0000000000
40
0.0000000000
40
0.0000000000
40
0.0000000000
40
1.0000000000
40
1.0000000000
40
1.0000000000
40
1.0000000000
10
-8.5985246138
20
-15.8749337740
30
0.0000000000
10
-8.6064964211
20
-15.8709465262
30
0.0000000000
10
-8.6143714605
20
-15.8667648325
30
0.0000000000
10
-8.6221420837
20
-15.8623961789
30
0.0000000000
11
-8.5985246138
21
-15.8749337740
31
0.0000000000
11
-8.6221420837
21
-15.8623961789
31
0.0000000000
0
SPLINE
5
2D7
100
AcDbEntity
8
0
100
AcDbSpline
62
9
6
CONTINUOUS
70
0
71
3
72
8
73
4
74
2
42
0.0000001000
43
0.0000001000
44
0.0000000001
12
-0.0591703111
22
0.0332656196
32
0.0000000000
13
-0.0547588999
23
0.0401252867
33
0.0000000000
40
0.0000000000
40
0.0000000000
40
0.0000000000
40
0.0000000000
40
1.0000000000
40
1.0000000000
40
1.0000000000
40
1.0000000000
10
-8.6221420837
20
-15.8623961789
30
0.0000000000
10
-8.6418655207
20
-15.8513076390
30
0.0000000000
10
-8.6609162574
20
-15.8390146129
30
0.0000000000
10
-8.6791692240
20
-15.8256395173
30
0.0000000000
11
-8.6221420837
21
-15.8623961789
31
0.0000000000
11
-8.6791692240
21
-15.8256395173
31
0.0000000000
0
SPLINE
5
2D8
100
AcDbEntity
8
0
100
AcDbSpline
62
9
6
CONTINUOUS
70
0
71
3
72
12
73
8
74
6
42
0.0000001000
43
0.0000001000
44
0.0000000001
12
-0.4627132619
22
0.3390590812
32
0.0000000000
13
-0.1142248731
23
0.5610481778
33
0.0000000000
40
0.0000000000
40
0.0000000000
40
0.0000000000
40
0.0000000000
40
0.0564844663
40
0.3058572823
40
0.5633399233
40
0.8257100720
40
1.0000000000
40
1.0000000000
40
1.0000000000
40
1.0000000000
10
-8.6791692240
20
-15.8256395173
30
0.0000000000
10
-8.6878812612
20
-15.8192556602
30
0.0000000000
10
-8.7340718997
20
-15.7833529600
30
0.0000000000
10
-8.8085984097
20
-15.7046323183
30
0.0000000000
10
-8.8848868895
20
-15.5782124572
30
0.0000000000
10
-8.9322447067
20
-15.4539735893
30
0.0000000000
10
-8.9523393860
20
-15.3730237201
30
0.0000000000
10
-8.9589754676
20
-15.3404287046
30
0.0000000000
11
-8.6791692240
21
-15.8256395173
31
0.0000000000
11
-8.7047465169
21
-15.8057617384
31
0.0000000000
11
-8.8034621927
21
-15.7027464164
31
0.0000000000
11
-8.8804549845
21
-15.5771493128
31
0.0000000000
11
-8.9347532872
21
-15.4371995136
31
0.0000000000
11
-8.9589754676
21
-15.3404287046
31
0.0000000000
0
SPLINE
5
2D9
100
AcDbEntity
8
0
100
AcDbSpline
62
9
6
CONTINUOUS
70
0
71
3
72
9
73
5
74
3
42
0.0000001000
43
0.0000001000
44
0.0000000001
12
-0.0380862246
22
0.1870713999
32
0.0000000000
13
-0.0106814156
23
0.1904726305
33
0.0000000000
40
0.0000000000
40
0.0000000000
40
0.0000000000
40
0.0000000000
40
0.2572411285
40
1.0000000000
40
1.0000000000
40
1.0000000000
40
1.0000000000
10
-8.9589754676
20
-15.3404287046
30
0.0000000000
10
-8.9622412488
20
-15.3243878853
30
0.0000000000
10
-8.9736331104
20
-15.2617629762
30
0.0000000000
10
-8.9802461248
20
-15.1983870534
30
0.0000000000
10
-8.9828906969
20
-15.1512286414
30
0.0000000000
11
-8.9589754676
21
-15.3404287046
31
0.0000000000
11
-8.9677859288
21
-15.2921187839
31
0.0000000000
11
-8.9828906969
21
-15.1512286414
31
0.0000000000
0
SPLINE
5
2DA
100
AcDbEntity
8
0
100
AcDbSpline
62
9
6
CONTINUOUS
70
0
71
3
72
8
73
4
74
2
42
0.0000001000
43
0.0000001000
44
0.0000000001
12
0.2722260195
22
-0.1362028578
32
0.0000000000
13
0.2615073171
23
-0.1566015583
33
0.0000000000
40
0.0000000000
40
0.0000000000
40
0.0000000000
40
0.0000000000
40
1.0000000000
40
1.0000000000
40
1.0000000000
40
1.0000000000
10
-0.8295182142
20
-9.4799512727
30
0.0000000000
10
-0.7387762077
20
-9.5253522253
30
0.0000000000
10
-0.6498025470
20
-9.5743812377
30
0.0000000000
10
-0.5626334413
20
-9.6265817572
30
0.0000000000
11
-0.8295182142
21
-9.4799512727
31
0.0000000000
11
-0.5626334413
21
-9.6265817572
31
0.0000000000
0
SPLINE
5
2DB
100
AcDbEntity
8
0
100
AcDbSpline
62
9
6
CONTINUOUS
70
0
71
3
72
11
73
7
74
5
42
0.0000001000
43
0.0000001000
44
0.0000000001
12
3.3184395880
22
-1.9872209175
32
0.0000000000
13
1.6090504152
23
-3.5154919480
33
0.0000000000
40
0.0000000000
40
0.0000000000
40
0.0000000000
40
0.0000000000
40
0.1636795314
40
0.4306908744
40
0.7127928750
40
1.0000000000
40
1.0000000000
40
1.0000000000
40
1.0000000000
10
-0.5626334413
20
-9.6265817572
30
0.0000000000
10
-0.3815798957
20
-9.7350042200
30
0.0000000000
10
0.0743425877
20
-10.0562987945
30
0.0000000000
10
0.7359688263
20
-10.6979449133
30
0.0000000000
10
1.3852336855
20
-11.5621523472
30
0.0000000000
10
1.7382928480
20
-12.2073087547
30
0.0000000000
10
1.8923364293
20
-12.5438668664
30
0.0000000000
11
-0.5626334413
21
-9.6265817572
31
0.0000000000
11
-0.0431522780
21
-9.9888046643
31
0.0000000000
11
0.7022416128
21
-10.7016494260
31
0.0000000000
11
1.3594384130
21
-11.5708391225
31
0.0000000000
11
1.8923364293
21
-12.5438668664
31
0.0000000000
0
SPLINE
5
2DC
100
AcDbEntity
8
0
100
AcDbSpline
62
9
6
CONTINUOUS
70
0
71
3
72
8
73
4
74
2
42
0.0000001000
43
0.0000001000
44
0.0000000001
12
0.1533286248
22
-0.3349960578
32
0.0000000000
13
0.1369696611
23
-0.3420147051
33
0.0000000000
40
0.0000000000
40
0.0000000000
40
0.0000000000
40
0.0000000000
40
1.0000000000
40
1.0000000000
40
1.0000000000
40
1.0000000000
10
1.8923364293
20
-12.5438668664
30
0.0000000000
10
1.9434459709
20
-12.6555322190
30
0.0000000000
10
1.9919059482
20
-12.7684180824
30
0.0000000000
10
2.0375625019
20
-12.8824229841
30
0.0000000000
11
1.8923364293
21
-12.5438668664
31
0.0000000000
11
2.0375625019
21
-12.8824229841
31
0.0000000000
0
SPLINE
5
2DD
100
AcDbEntity
8
0
100
AcDbSpline
62
9
6
CONTINUOUS
70
0
71
3
72
8
73
4
74
2
42
0.0000001000
43
0.0000001000
44
0.0000000001
12
0.0262061615
22
-0.0654370648
32
0.0000000000
13
0.0255871877
23
-0.0656807170
33
0.0000000000
40
0.0000000000
40
0.0000000000
40
0.0000000000
40
0.0000000000
40
1.0000000000
40
1.0000000000
40
1.0000000000
40
1.0000000000
10
2.0375625019
20
-12.8824229841
30
0.0000000000
10
2.0462978890
20
-12.9042353390
30
0.0000000000
10
2.0549306527
20
-12.9260886580
30
0.0000000000
10
2.0634597153
20
-12.9479822303
30
0.0000000000
11
2.0375625019
21
-12.8824229841
31
0.0000000000
11
2.0634597153
21
-12.9479822303
31
0.0000000000
0
SPLINE
5
2DE
100
AcDbEntity
8
0
100
AcDbSpline
62
9
6
CONTINUOUS
70
0
71
3
72
8
73
4
74
2
42
0.0000001000
43
0.0000001000
44
0.0000000001
12
0.0149457570
22
-0.0383648274
32
0.0000000000
13
0.0147328248
23
-0.0384468057
33
0.0000000000
40
0.0000000000
40
0.0000000000
40
0.0000000000
40
0.0000000000
40
1.0000000000
40
1.0000000000
40
1.0000000000
40
1.0000000000
10
2.0634597153
20
-12.9479822303
30
0.0000000000
10
2.0684416343
20
-12.9607705061
30
0.0000000000
10
2.0733881720
20
-12.9735725158
30
0.0000000000
10
2.0782991136
20
-12.9863881177
30
0.0000000000
11
2.0634597153
21
-12.9479822303
31
0.0000000000
11
2.0782991136
21
-12.9863881177
31
0.0000000000
0
SPLINE
5
2DF
100
AcDbEntity
8
0
100
AcDbSpline
62
9
6
CONTINUOUS
70
0
71
3
72
8
73
4
74
2
42
0.0000001000
43
0.0000001000
44
0.0000000001
12
0.0915903853
22
-0.2390144314
32
0.0000000000
13
0.0831812718
23
-0.2420642223
33
0.0000000000
40
0.0000000000
40
0.0000000000
40
0.0000000000
40
0.0000000000
40
1.0000000000
40
1.0000000000
40
1.0000000000
40
1.0000000000
10
2.0782991136
20
-12.9863881177
30
0.0000000000
10
2.1088292420
20
-13.0660595948
30
0.0000000000
10
2.1379836508
20
-13.1462563855
30
0.0000000000
10
2.1657107415
20
-13.2269444596
30
0.0000000000
11
2.0782991136
21
-12.9863881177
31
0.0000000000
11
2.1657107415
21
-13.2269444596
31
0.0000000000
0
SPLINE
5
2E0
100
AcDbEntity
8
0
100
AcDbSpline
62
9
6
CONTINUOUS
70
0
71
3
72
10
73
6
74
4
42
0.0000001000
43
0.0000001000
44
0.0000000001
12
0.7571776413
22
-2.2034481185
32
0.0000000000
13
-0.2004578283
23
-2.3246740026
33
0.0000000000
40
0.0000000000
40
0.0000000000
40
0.0000000000
40
0.0000000000
40
0.1542002950
40
0.5957543394
40
1.0000000000
40
1.0000000000
40
1.0000000000
40
1.0000000000
10
2.1657107415
20
-13.2269444596
30
0.0000000000
10
2.2046297467
20
-13.3402019095
30
0.0000000000
10
2.3441290032
20
-13.7815128022
30
0.0000000000
10
2.5042510609
20
-14.5441665032
30
0.0000000000
10
2.5249536557
20
-15.2043245461
30
0.0000000000
10
2.4979422533
20
-15.5175710054
30
0.0000000000
11
2.1657107415
21
-13.2269444596
31
0.0000000000
11
2.2738886659
21
-13.5695265100
31
0.0000000000
11
2.4789566504
21
-14.5767368291
31
0.0000000000
11
2.4979422533
21
-15.5175710054
31
0.0000000000
0
SPLINE
5
2E1
100
AcDbEntity
8
0
100
AcDbSpline
62
9
6
CONTINUOUS
70
0
71
3
72
8
73
4
74
2
42
0.0000001000
43
0.0000001000
44
0.0000000001
12
-0.0246752671
22
-0.2861547110
32
0.0000000000
13
-0.0468266514
23
-0.2834900560
33
0.0000000000
40
0.0000000000
40
0.0000000000
40
0.0000000000
40
0.0000000000
40
1.0000000000
40
1.0000000000
40
1.0000000000
40
1.0000000000
10
2.4979422533
20
-15.5175710054
30
0.0000000000
10
2.4897171642
20
-15.6129559091
30
0.0000000000
10
2.4780700348
20
-15.7081300801
30
0.0000000000
10
2.4624611510
20
-15.8026267654
30
0.0000000000
11
2.4979422533
21
-15.5175710054
31
0.0000000000
11
2.4624611510
21
-15.8026267654
31
0.0000000000
0
SPLINE
5
2E2
100
AcDbEntity
8
0
100
AcDbSpline
62
9
6
CONTINUOUS
70
0
71
3
72
8
73
4
74
2
42
0.0000001000
43
0.0000001000
44
0.0000000001
12
-0.0258130107
22
-0.1562727981
32
0.0000000000
13
-0.0333074353
23
-0.1548030281
33
0.0000000000
40
0.0000000000
40
0.0000000000
40
0.0000000000
40
0.0000000000
40
1.0000000000
40
1.0000000000
40
1.0000000000
40
1.0000000000
10
2.4624611510
20
-15.8026267654
30
0.0000000000
10
2.4538568141
20
-15.8547176981
30
0.0000000000
10
2.4440486098
20
-15.9066027617
30
0.0000000000
10
2.4329461314
20
-15.9582037710
30
0.0000000000
11
2.4624611510
21
-15.8026267654
31
0.0000000000
11
2.4329461314
21
-15.9582037710
31
0.0000000000
0
SPLINE
5
2E3
100
AcDbEntity
8
0
100
AcDbSpline
62
9
6
CONTINUOUS
70
0
71
3
72
8
73
4
74
2
42
0.0000001000
43
0.0000001000
44
0.0000000001
12
-0.0126573897
22
-0.0588277732
32
0.0000000000
13
-0.0137937331
23
-0.0585687745
33
0.0000000000
40
0.0000000000
40
0.0000000000
40
0.0000000000
40
0.0000000000
40
1.0000000000
40
1.0000000000
40
1.0000000000
40
1.0000000000
10
2.4329461314
20
-15.9582037710
30
0.0000000000
10
2.4287270015
20
-15.9778130288
30
0.0000000000
10
2.4243209618
20
-15.9973812654
30
0.0000000000
10
2.4197230507
20
-16.0169041902
30
0.0000000000
11
2.4329461314
21
-15.9582037710
31
0.0000000000
11
2.4197230507
21
-16.0169041902
31
0.0000000000
0
SPLINE
5
2E4
100
AcDbEntity
8
0
100
AcDbSpline
62
9
6
CONTINUOUS
70
0
71
3
72
8
73
4
74
2
42
0.0000001000
43
0.0000001000
44
0.0000000001
12
-0.0131731324
22
-0.0559336775
32
0.0000000000
13
-0.0142360640
23
-0.0556745082
33
0.0000000000
40
0.0000000000
40
0.0000000000
40
0.0000000000
40
0.0000000000
40
1.0000000000
40
1.0000000000
40
1.0000000000
40
1.0000000000
10
2.4197230507
20
-16.0169041902
30
0.0000000000
10
2.4153320066
20
-16.0355487494
30
0.0000000000
10
2.4107659679
20
-16.0541519823
30
0.0000000000
10
2.4060206133
20
-16.0727101517
30
0.0000000000
11
2.4197230507
21
-16.0169041902
31
0.0000000000
11
2.4060206133
21
-16.0727101517
31
0.0000000000
0
SPLINE
5
2E5
100
AcDbEntity
8
0
100
AcDbSpline
62
9
6
CONTINUOUS
70
0
71
3
72
8
73
4
74
2
42
0.0000001000
43
0.0000001000
44
0.0000000001
12
-0.0649805310
22
-0.2541263589
32
0.0000000000
13
-0.0886293830
23
-0.2474268150
33
0.0000000000
40
0.0000000000
40
0.0000000000
40
0.0000000000
40
0.0000000000
40
1.0000000000
40
1.0000000000
40
1.0000000000
40
1.0000000000
10
2.4060206133
20
-16.0727101517
30
0.0000000000
10
2.3843604363
20
-16.1574189380
30
0.0000000000
10
2.3589642693
20
-16.2411888406
30
0.0000000000
10
2.3294211417
20
-16.3236644456
30
0.0000000000
11
2.4060206133
21
-16.0727101517
31
0.0000000000
11
2.3294211417
21
-16.3236644456
31
0.0000000000
0
SPLINE
5
2E6
100
AcDbEntity
8
0
100
AcDbSpline
62
9
6
CONTINUOUS
70
0
71
3
72
8
73
4
74
2
42
0.0000001000
43
0.0000001000
44
0.0000000001
12
-0.1669613771
22
-0.4661063900
32
0.0000000000
13
-0.2631100226
23
-0.4192148075
33
0.0000000000
40
0.0000000000
40
0.0000000000
40
0.0000000000
40
0.0000000000
40
1.0000000000
40
1.0000000000
40
1.0000000000
40
1.0000000000
10
2.3294211417
20
-16.3236644456
30
0.0000000000
10
2.2737673493
20
-16.4790332422
30
0.0000000000
10
2.2033969901
20
-16.6298088879
30
0.0000000000
10
2.1156936492
20
-16.7695471570
30
0.0000000000
11
2.3294211417
21
-16.3236644456
31
0.0000000000
11
2.1156936492
21
-16.7695471570
31
0.0000000000
0
SPLINE
5
2E7
100
AcDbEntity
8
0
100
AcDbSpline
62
9
6
CONTINUOUS
70
0
71
3
72
8
73
4
74
2
42
0.0000001000
43
0.0000001000
44
0.0000000001
12
-0.1233874986
22
-0.1965940558
32
0.0000000000
13
-0.1470683855
23
-0.1800360689
33
0.0000000000
40
0.0000000000
40
0.0000000000
40
0.0000000000
40
0.0000000000
40
1.0000000000
40
1.0000000000
40
1.0000000000
40
1.0000000000
10
2.1156936492
20
-16.7695471570
30
0.0000000000
10
2.0745644830
20
-16.8350785090
30
0.0000000000
10
2.0296234228
20
-16.8981825054
30
0.0000000000
10
1.9806006277
20
-16.9581945283
30
0.0000000000
11
2.1156936492
21
-16.7695471570
31
0.0000000000
11
1.9806006277
21
-16.9581945283
31
0.0000000000
0
SPLINE
5
2E8
100
AcDbEntity
8
0
100
AcDbSpline
62
9
6
CONTINUOUS
70
0
71
3
72
8
73
4
74
2
42
0.0000001000
43
0.0000001000
44
0.0000000001
12
-0.1411375521
22
-0.1727757463
32
0.0000000000
13
-0.1625022198
23
-0.1535547734
33
0.0000000000
40
0.0000000000
40
0.0000000000
40
0.0000000000
40
0.0000000000
40
1.0000000000
40
1.0000000000
40
1.0000000000
40
1.0000000000
10
1.9806006277
20
-16.9581945283
30
0.0000000000
10
1.9335547770
20
-17.0157864437
30
0.0000000000
10
1.8827497619
20
-17.0705307377
30
0.0000000000
10
1.8285823553
20
-17.1217156621
30
0.0000000000
11
1.9806006277
21
-16.9581945283
31
0.0000000000
11
1.8285823553
21
-17.1217156621
31
0.0000000000
0
SPLINE
5
2E9
100
AcDbEntity
8
0
100
AcDbSpline
62
9
6
CONTINUOUS
70
0
71
3
72
8
73
4
74
2
42
0.0000001000
43
0.0000001000
44
0.0000000001
12
-0.1595487591
22
-0.1507639317
32
0.0000000000
13
-0.1778698498
23
-0.1281560311
33
0.0000000000
40
0.0000000000
40
0.0000000000
40
0.0000000000
40
0.0000000000
40
1.0000000000
40
1.0000000000
40
1.0000000000
40
1.0000000000
10
1.8285823553
20
-17.1217156621
30
0.0000000000
10
1.7753994356
20
-17.1719703060
30
0.0000000000
10
1.7189752359
20
-17.2187937870
30
0.0000000000
10
1.6596852860
20
-17.2615124641
30
0.0000000000
11
1.8285823553
21
-17.1217156621
31
0.0000000000
11
1.6596852860
21
-17.2615124641
31
0.0000000000
0
SPLINE
5
2EA
100
AcDbEntity
8
0
100
AcDbSpline
62
9
6
CONTINUOUS
70
0
71
3
72
8
73
4
74
2
42
0.0000001000
43
0.0000001000
44
0.0000000001
12
-0.1755719701
22
-0.1265003984
32
0.0000000000
13
-0.1912415857
23
-0.1005602109
33
0.0000000000
40
0.0000000000
40
0.0000000000
40
0.0000000000
40
0.0000000000
40
1.0000000000
40
1.0000000000
40
1.0000000000
40
1.0000000000
10
1.6596852860
20
-17.2615124641
30
0.0000000000
10
1.6011612959
20
-17.3036792635
30
0.0000000000
10
1.5398451220
20
-17.3418466329
30
0.0000000000
10
1.4760979267
20
-17.3753667032
30
0.0000000000
11
1.6596852860
21
-17.2615124641
31
0.0000000000
11
1.4760979267
21
-17.3753667032
31
0.0000000000
0
SPLINE
5
2EB
100
AcDbEntity
8
0
100
AcDbSpline
62
9
6
CONTINUOUS
70
0
71
3
72
8
73
4
74
2
42
0.0000001000
43
0.0000001000
44
0.0000000001
12
-0.0830372986
22
-0.0436633498
32
0.0000000000
13
-0.0856083398
23
-0.0384377409
33
0.0000000000
40
0.0000000000
40
0.0000000000
40
0.0000000000
40
0.0000000000
40
1.0000000000
40
1.0000000000
40
1.0000000000
40
1.0000000000
10
1.4760979267
20
-17.3753667032
30
0.0000000000
10
1.4484188272
20
-17.3899211531
30
0.0000000000
10
1.4202814058
20
-17.4035994452
30
0.0000000000
10
1.3917452926
20
-17.4164120255
30
0.0000000000
11
1.4760979267
21
-17.3753667032
31
0.0000000000
11
1.3917452926
21
-17.4164120255
31
0.0000000000
0
SPLINE
5
2EC
100
AcDbEntity
8
0
100
AcDbSpline
62
9
6
CONTINUOUS
70
0
71
3
72
8
73
4
74
2
42
0.0000001000
43
0.0000001000
44
0.0000000001
12
-0.3178211277
22
-0.1427001877
32
0.0000000000
13
-0.3416379089
23
-0.0727127919
33
0.0000000000
40
0.0000000000
40
0.0000000000
40
0.0000000000
40
0.0000000000
40
1.0000000000
40
1.0000000000
40
1.0000000000
40
1.0000000000
10
1.3917452926
20
-17.4164120255
30
0.0000000000
10
1.2858049167
20
-17.4639787547
30
0.0000000000
10
1.1743695012
20
-17.4996136637
30
0.0000000000
10
1.0604901982
20
-17.5238512610
30
0.0000000000
11
1.3917452926
21
-17.4164120255
31
0.0000000000
11
1.0604901982
21
-17.5238512610
31
0.0000000000
0
SPLINE
5
2ED
100
AcDbEntity
8
0
100
AcDbSpline
62
9
6
CONTINUOUS
70
0
71
3
72
8
73
4
74
2
42
0.0000001000
43
0.0000001000
44
0.0000000001
12
-0.2203471449
22
-0.0468977701
32
0.0000000000
13
-0.2239910475
23
-0.0188810027
33
0.0000000000
40
0.0000000000
40
0.0000000000
40
0.0000000000
40
0.0000000000
40
1.0000000000
40
1.0000000000
40
1.0000000000
40
1.0000000000
10
1.0604901982
20
-17.5238512610
30
0.0000000000
10
0.9870411499
20
-17.5394838511
30
0.0000000000
10
0.9125754692
20
-17.5503752750
30
0.0000000000
10
0.8379117867
20
-17.5566689425
30
0.0000000000
11
1.0604901982
21
-17.5238512610
31
0.0000000000
11
0.8379117867
21
-17.5566689425
31
0.0000000000
0
SPLINE
5
2EE
100
AcDbEntity
8
0
100
AcDbSpline
62
9
6
CONTINUOUS
70
0
71
3
72
9
73
5
74
3
42
0.0000001000
43
0.0000001000
44
0.0000000001
12
-0.9446934356
22
-0.0796315723
32
0.0000000000
13
-0.8972406355
23
0.2969917249
33
0.0000000000
40
0.0000000000
40
0.0000000000
40
0.0000000000
40
0.0000000000
40
0.7473184469
40
1.0000000000
40
1.0000000000
40
1.0000000000
40
1.0000000000
10
0.8379117867
20
-17.5566689425
30
0.0000000000
10
0.6025828430
20
-17.5765056568
30
0.0000000000
10
0.2850529740
20
-17.5419310928
30
0.0000000000
10
-0.0180181611
20
-17.4546299889
30
0.0000000000
10
-0.0935902135
20
-17.4296152121
30
0.0000000000
11
0.8379117867
21
-17.5566689425
31
0.0000000000
11
0.1360659699
21
-17.4953822636
31
0.0000000000
11
-0.0935902135
21
-17.4296152121
31
0.0000000000
0
SPLINE
5
2EF
100
AcDbEntity
8
0
100
AcDbSpline
62
9
6
CONTINUOUS
70
0
71
3
72
8
73
4
74
2
42
0.0000001000
43
0.0000001000
44
0.0000000001
12
-0.1746496175
22
0.0578100112
32
0.0000000000
13
-0.1709420600
23
0.0677691861
33
0.0000000000
40
0.0000000000
40
0.0000000000
40
0.0000000000
40
0.0000000000
40
1.0000000000
40
1.0000000000
40
1.0000000000
40
1.0000000000
10
-0.0935902135
20
-17.4296152121
30
0.0000000000
10
-0.1518067527
20
-17.4103452084
30
0.0000000000
10
-0.2094248565
20
-17.3893213793
30
0.0000000000
10
-0.2664055432
20
-17.3667316506
30
0.0000000000
11
-0.0935902135
21
-17.4296152121
31
0.0000000000
11
-0.2664055432
21
-17.3667316506
31
0.0000000000
0
SPLINE
5
2F0
100
AcDbEntity
8
0
100
AcDbSpline
62
9
6
CONTINUOUS
70
0
71
3
72
8
73
4
74
2
42
0.0000001000
43
0.0000001000
44
0.0000000001
12
-0.0557029824
22
0.0220831888
32
0.0000000000
13
-0.0552928350
23
0.0230613223
33
0.0000000000
40
0.0000000000
40
0.0000000000
40
0.0000000000
40
0.0000000000
40
1.0000000000
40
1.0000000000
40
1.0000000000
40
1.0000000000
10
-0.2664055432
20
-17.3667316506
30
0.0000000000
10
-0.2849732040
20
-17.3593705877
30
0.0000000000
10
-0.3034731813
20
-17.3518432513
30
0.0000000000
10
-0.3219041263
20
-17.3441561439
30
0.0000000000
11
-0.2664055432
21
-17.3667316506
31
0.0000000000
11
-0.3219041263
21
-17.3441561439
31
0.0000000000
0
SPLINE
5
2F1
100
AcDbEntity
8
0
100
AcDbSpline
62
9
6
CONTINUOUS
70
0
71
3
72
8
73
4
74
2
42
0.0000001000
43
0.0000001000
44
0.0000000001
12
-0.2315295011
22
0.0965654312
32
0.0000000000
13
-0.2239700411
23
0.1119415349
33
0.0000000000
40
0.0000000000
40
0.0000000000
40
0.0000000000
40
0.0000000000
40
1.0000000000
40
1.0000000000
40
1.0000000000
40
1.0000000000
10
-0.3219041263
20
-17.3441561439
30
0.0000000000
10
-0.3990806266
20
-17.3119676668
30
0.0000000000
10
-0.4750467315
20
-17.2769778032
30
0.0000000000
10
-0.5497034119
20
-17.2396639582
30
0.0000000000
11
-0.3219041263
21
-17.3441561439
31
0.0000000000
11
-0.5497034119
21
-17.2396639582
31
0.0000000000
0
SPLINE
5
2F2
100
AcDbEntity
8
0
100
AcDbSpline
62
9
6
CONTINUOUS
70
0
71
3
72
8
73
4
74
2
42
0.0000001000
43
0.0000001000
44
0.0000000001
12
-0.1916512478
22
-0.1012404262
32
0.0000000000
13
-0.2044315052
23
-0.0728881276
33
0.0000000000
40
0.0000000000
40
0.0000000000
40
0.0000000000
40
0.0000000000
40
1.0000000000
40
1.0000000000
40
1.0000000000
40
1.0000000000
10
1.5028632381
20
-17.2453698745
30
0.0000000000
10
1.4389794888
20
-17.2791166832
30
0.0000000000
10
1.3725799237
20
-17.3080698072
30
0.0000000000
10
1.3044360886
20
-17.3323658497
30
0.0000000000
11
1.5028632381
21
-17.2453698745
31
0.0000000000
11
1.3044360886
21
-17.3323658497
31
0.0000000000
0
SPLINE
5
2F3
100
AcDbEntity
8
0
100
AcDbSpline
62
9
6
CONTINUOUS
70
0
71
3
72
8
73
4
74
2
42
0.0000001000
43
0.0000001000
44
0.0000000001
12
-0.2048801366
22
-0.0730480829
32
0.0000000000
13
-0.2130609203
23
-0.0453972637
33
0.0000000000
40
0.0000000000
40
0.0000000000
40
0.0000000000
40
0.0000000000
40
1.0000000000
40
1.0000000000
40
1.0000000000
40
1.0000000000
10
1.3044360886
20
-17.3323658497
30
0.0000000000
10
1.2361427097
20
-17.3567152107
30
0.0000000000
10
1.1660974573
20
-17.3763871558
30
0.0000000000
10
1.0950771505
20
-17.3915195771
30
0.0000000000
11
1.3044360886
21
-17.3323658497
31
0.0000000000
11
1.0950771505
21
-17.3915195771
31
0.0000000000
0
SPLINE
5
2F4
100
AcDbEntity
8
0
100
AcDbSpline
62
9
6
CONTINUOUS
70
0
71
3
72
8
73
4
74
2
42
0.0000001000
43
0.0000001000
44
0.0000000001
12
-0.2159582174
22
-0.0460145959
32
0.0000000000
13
-0.2195419079
23
-0.0184624328
33
0.0000000000
40
0.0000000000
40
0.0000000000
40
0.0000000000
40
0.0000000000
40
1.0000000000
40
1.0000000000
40
1.0000000000
40
1.0000000000
10
1.0950771505
20
-17.3915195771
30
0.0000000000
10
1.0230910780
20
-17.4068577757
30
0.0000000000
10
0.9501032524
20
-17.4175321501
30
0.0000000000
10
0.8769226165
20
-17.4236862944
30
0.0000000000
11
1.0950771505
21
-17.3915195771
31
0.0000000000
11
0.8769226165
21
-17.4236862944
31
0.0000000000
0
SPLINE
5
2F5
100
AcDbEntity
8
0
100
AcDbSpline
62
9
6
CONTINUOUS
70
0
71
3
72
8
73
4
74
2
42
0.0000001000
43
0.0000001000
44
0.0000000001
12
-0.6902620159
22
-0.0580477606
32
0.0000000000
13
-0.6723192744
23
0.1622330476
33
0.0000000000
40
0.0000000000
40
0.0000000000
40
0.0000000000
40
0.0000000000
40
1.0000000000
40
1.0000000000
40
1.0000000000
40
1.0000000000
10
0.8769226165
20
-17.4236862944
30
0.0000000000
10
0.6468352779
20
-17.4430355479
30
0.0000000000
10
0.4148419366
20
-17.4177006385
30
0.0000000000
10
0.1907355118
20
-17.3636229560
30
0.0000000000
11
0.8769226165
21
-17.4236862944
31
0.0000000000
11
0.1907355118
21
-17.3636229560
31
0.0000000000
0
SPLINE
5
2F6
100
AcDbEntity
8
0
100
AcDbSpline
62
9
6
CONTINUOUS
70
0
71
3
72
8
73
4
74
2
42
0.0000001000
43
0.0000001000
44
0.0000000001
12
-0.4636423020
22
0.1118785472
32
0.0000000000
13
-0.4390142456
23
0.1837157054
33
0.0000000000
40
0.0000000000
40
0.0000000000
40
0.0000000000
40
0.0000000000
40
1.0000000000
40
1.0000000000
40
1.0000000000
40
1.0000000000
10
0.1907355118
20
-17.3636229560
30
0.0000000000
10
0.0361880778
20
-17.3263301069
30
0.0000000000
10
-0.1146085707
20
-17.2753680405
30
0.0000000000
10
-0.2609466526
20
-17.2141294720
30
0.0000000000
11
0.1907355118
21
-17.3636229560
31
0.0000000000
11
-0.2609466526
21
-17.2141294720
31
0.0000000000
0
SPLINE
5
2F7
100
AcDbEntity
8
0
100
AcDbSpline
62
9
6
CONTINUOUS
70
0
71
3
72
8
73
4
74
2
42
0.0000001000
43
0.0000001000
44
0.0000000001
12
-0.2229435506
22
0.0932959057
32
0.0000000000
13
-0.2157665826
23
0.1078641173
33
0.0000000000
40
0.0000000000
40
0.0000000000
40
0.0000000000
40
0.0000000000
40
1.0000000000
40
1.0000000000
40
1.0000000000
40
1.0000000000
10
-0.2609466526
20
-17.2141294720
30
0.0000000000
10
-0.3352611694
20
-17.1830308368
30
0.0000000000
10
-0.4084258716
20
-17.1492820061
30
0.0000000000
10
-0.4803480658
20
-17.1133273003
30
0.0000000000
11
-0.2609466526
21
-17.2141294720
31
0.0000000000
11
-0.4803480658
21
-17.1133273003
31
0.0000000000
0
SPLINE
5
2F8
100
AcDbEntity
8
0
100
AcDbSpline
62
9
6
CONTINUOUS
70
0
71
3
72
10
73
6
74
4
42
0.0000001000
43
0.0000001000
44
0.0000000001
12
-0.0073504583
22
0.1498460573
32
0.0000000000
13
0.1330306824
23
0.0693592652
33
0.0000000000
40
0.0000000000
40
0.0000000000
40
0.0000000000
40
0.0000000000
40
0.3299451218
40
0.6833594529
40
1.0000000000
40
1.0000000000
40
1.0000000000
40
1.0000000000
10
-0.5497034119
20
-17.2396639582
30
0.0000000000
10
-0.5505118278
20
-17.2231836330
30
0.0000000000
10
-0.5439748148
20
-17.1886095720
30
0.0000000000
10
-0.5198207334
20
-17.1442262698
30
0.0000000000
10
-0.4943890351
20
-17.1206479522
30
0.0000000000
10
-0.4803480658
20
-17.1133273003
30
0.0000000000
11
-0.5497034119
21
-17.2396639582
31
0.0000000000
11
-0.5418753403
21
-17.1907864256
31
0.0000000000
11
-0.5163599992
21
-17.1443080610
31
0.0000000000
11
-0.4803480658
21
-17.1133273003
31
0.0000000000
0
SPLINE
5
2F9
100
AcDbEntity
8
0
100
AcDbSpline
62
9
6
CONTINUOUS
70
0
71
3
72
9
73
5
74
3
42
0.0000001000
43
0.0000001000
44
0.0000000001
12
0.0013846794
22
-0.0595637513
32
0.0000000000
13
0.0537838341
23
-0.0283679622
33
0.0000000000
40
0.0000000000
40
0.0000000000
40
0.0000000000
40
0.0000000000
40
0.6410153343
40
1.0000000000
40
1.0000000000
40
1.0000000000
40
1.0000000000
10
-0.8295182142
20
-9.4799512727
30
0.0000000000
10
-0.8292223473
20
-9.4926783653
30
0.0000000000
10
-0.8256047937
20
-9.5136335388
30
0.0000000000
10
-0.8098727962
20
-9.5279953586
30
0.0000000000
10
-0.8034369390
20
-9.5313899131
30
0.0000000000
11
-0.8295182142
21
-9.4799512727
31
0.0000000000
11
-0.8196066996
21
-9.5168343270
31
0.0000000000
11
-0.8034369390
21
-9.5313899131
31
0.0000000000
0
SPLINE
5
2FA
100
AcDbEntity
8
0
100
AcDbSpline
62
9
6
CONTINUOUS
70
0
71
3
72
9
73
5
74
3
42
0.0000001000
43
0.0000001000
44
0.0000000001
12
0.0013813695
22
-0.0594212343
32
0.0000000000
13
0.0535662348
23
-0.0284958987
33
0.0000000000
40
0.0000000000
40
0.0000000000
40
0.0000000000
40
0.0000000000
40
0.6424503956
40
1.0000000000
40
1.0000000000
40
1.0000000000
40
1.0000000000
10
-3.7993666952
20
-7.9950270322
30
0.0000000000
10
-3.7990708747
20
-8.0077520974
30
0.0000000000
10
-3.7954627129
20
-8.0286562954
30
0.0000000000
10
-3.7797983188
20
-8.0430014267
30
0.0000000000
10
-3.7734141234
20
-8.0463976591
30
0.0000000000
11
-3.7993666952
21
-7.9950270322
31
0.0000000000
11
-3.7894586252
21
-8.0319047123
31
0.0000000000
11
-3.7734141234
21
-8.0463976591
31
0.0000000000
0
SPLINE
5
2FB
100
AcDbEntity
8
0
100
AcDbSpline
62
9
6
CONTINUOUS
70
0
71
3
72
10
73
6
74
4
42
0.0000001000
43
0.0000001000
44
0.0000000001
12
-0.0073504508
22
0.1498460657
32
0.0000000000
13
0.1330306835
23
0.0693592804
33
0.0000000000
40
0.0000000000
40
0.0000000000
40
0.0000000000
40
0.0000000000
40
0.3300116770
40
0.6834129449
40
1.0000000000
40
1.0000000000
40
1.0000000000
40
1.0000000000
10
-3.5195518928
20
-15.7547397177
30
0.0000000000
10
-3.5203604710
20
-15.7382560672
30
0.0000000000
10
-3.5138214228
20
-15.7036792311
30
0.0000000000
10
-3.4896650131
20
-15.6592972516
30
0.0000000000
10
-3.4642351336
20
-15.6357224809
30
0.0000000000
10
-3.4501965361
20
-15.6284030641
30
0.0000000000
11
-3.5195518928
21
-15.7547397177
31
0.0000000000
11
-3.5117204673
21
-15.7058526074
31
0.0000000000
11
-3.4862033885
21
-15.6593774293
31
0.0000000000
11
-3.4501965361
21
-15.6284030641
31
0.0000000000
0
SPLINE
5
2FC
100
AcDbEntity
8
0
100
AcDbSpline
62
9
6
CONTINUOUS
70
0
71
3
72
8
73
4
74
2
42
0.0000001000
43
0.0000001000
44
0.0000000001
12
-0.0163470994
22
0.2941782769
32
0.0000000000
13
-0.0160554546
23
0.2941957657
33
0.0000000000
40
0.0000000000
40
0.0000000000
40
0.0000000000
40
0.0000000000
40
1.0000000000
40
1.0000000000
40
1.0000000000
40
1.0000000000
10
-8.9828906969
20
-15.1512286414
30
0.0000000000
10
-8.9883397300
20
-15.0531692158
30
0.0000000000
10
-8.9937401208
20
-14.9551068466
30
0.0000000000
10
-8.9990919390
20
-14.8570415913
30
0.0000000000
11
-8.9828906969
21
-15.1512286414
31
0.0000000000
11
-8.9990919390
21
-14.8570415913
31
0.0000000000
0
SPLINE
5
2FD
100
AcDbEntity
8
0
100
AcDbSpline
62
9
6
CONTINUOUS
70
0
71
3
72
10
73
6
74
4
42
0.0000001000
43
0.0000001000
44
0.0000000001
12
-1.8868439343
22
34.5740129322
32
0.0000000000
13
1.8168923010
23
34.5775917656
33
0.0000000000
40
0.0000000000
40
0.0000000000
40
0.0000000000
40
0.0000000000
40
0.3213674105
40
0.6576172283
40
1.0000000000
40
1.0000000000
40
1.0000000000
40
1.0000000000
10
-8.9990919390
20
-14.8570415913
30
0.0000000000
10
-9.2012153220
20
-11.1533879227
30
0.0000000000
10
-9.4730495436
20
-3.5661418713
30
0.0000000000
10
-9.4691856539
20
7.9778525609
30
0.0000000000
10
-9.1902482375
20
15.8073824870
30
0.0000000000
10
-8.9828906969
20
19.7536397224
30
0.0000000000
11
-8.9990919390
21
-14.8570415913
31
0.0000000000
11
-9.4013734559
21
-3.7368243876
31
0.0000000000
11
-9.4013734567
21
7.9059242448
31
0.0000000000
11
-8.9828906969
21
19.7536397224
31
0.0000000000
0
SPLINE
5
2FE
100
AcDbEntity
8
0
100
AcDbSpline
62
9
6
CONTINUOUS
70
0
71
3
72
11
73
7
74
5
42
0.0000001000
43
0.0000001000
44
0.0000000001
12
0.0344444673
22
0.6492036620
32
0.0000000000
13
0.2298736522
23
0.6083515448
33
0.0000000000
40
0.0000000000
40
0.0000000000
40
0.0000000000
40
0.0000000000
40
0.2230927356
40
0.4865515350
40
0.7850574265
40
1.0000000000
40
1.0000000000
40
1.0000000000
40
1.0000000000
10
-8.9828906969
20
19.7536397224
30
0.0000000000
10
-8.9803292601
20
19.8019172628
30
0.0000000000
10
-8.9703532176
20
19.9070109268
30
0.0000000000
10
-8.9405398069
20
20.0746982380
30
0.0000000000
10
-8.8970802233
20
20.2375716808
30
0.0000000000
10
-8.8607572988
20
20.3428296384
30
0.0000000000
10
-8.8442874207
20
20.3864165206
30
0.0000000000
11
-8.9828906969
21
19.7536397224
31
0.0000000000
11
-8.9693935654
21
19.8980466619
31
0.0000000000
11
-8.9396520597
21
20.0667236704
31
0.0000000000
11
-8.8898366394
21
20.2542846957
31
0.0000000000
11
-8.8442874207
21
20.3864165206
31
0.0000000000
0
SPLINE
5
2FF
100
AcDbEntity
8
0
100
AcDbSpline
62
9
6
CONTINUOUS
70
0
71
3
72
9
73
5
74
3
42
0.0000001000
43
0.0000001000
44
0.0000000001
12
0.0514960081
22
0.1362821523
32
0.0000000000
13
0.0595298597
23
0.1329697730
33
0.0000000000
40
0.0000000000
40
0.0000000000
40
0.0000000000
40
0.0000000000
40
0.4956337275
40
1.0000000000
40
1.0000000000
40
1.0000000000
40
1.0000000000
10
-8.8442874207
20
20.3864165206
30
0.0000000000
10
-8.8357797012
20
20.4089318643
30
0.0000000000
10
-8.8179337631
20
20.4541025657
30
0.0000000000
10
-8.7987527166
20
20.4987221942
30
0.0000000000
10
-8.7887444321
20
20.5210773504
30
0.0000000000
11
-8.8442874207
21
20.3864165206
31
0.0000000000
11
-8.8177616305
21
20.4535727379
31
0.0000000000
11
-8.7887444321
21
20.5210773504
31
0.0000000000
0
SPLINE
5
300
100
AcDbEntity
8
0
100
AcDbSpline
62
9
6
CONTINUOUS
70
0
71
3
72
10
73
6
74
4
42
0.0000001000
43
0.0000001000
44
0.0000000001
12
0.2440557677
22
0.5451388630
32
0.0000000000
13
0.3712228466
23
0.4679552684
33
0.0000000000
40
0.0000000000
40
0.0000000000
40
0.0000000000
40
0.0000000000
40
0.2507045062
40
0.6297818463
40
1.0000000000
40
1.0000000000
40
1.0000000000
40
1.0000000000
10
-8.7887444321
20
20.5210773504
30
0.0000000000
10
-8.7683491386
20
20.5666336069
30
0.0000000000
10
-8.7136307574
20
20.6795137532
30
0.0000000000
10
-8.6133241867
20
20.8517425386
30
0.0000000000
10
-8.5264421553
20
20.9732274837
30
0.0000000000
10
-8.4806310097
20
21.0309759955
30
0.0000000000
11
-8.7887444321
21
20.5210773504
31
0.0000000000
11
-8.7234448695
21
20.6558051886
31
0.0000000000
11
-8.6094351487
21
20.8513320305
31
0.0000000000
11
-8.4806310097
21
21.0309759955
31
0.0000000000
0
SPLINE
5
301
100
AcDbEntity
8
0
100
AcDbSpline
62
9
6
CONTINUOUS
70
0
71
3
72
11
73
7
74
5
42
0.0000001000
43
0.0000001000
44
0.0000000001
12
0.4104012371
22
0.5173426765
32
0.0000000000
13
0.5723196689
23
0.3293723649
33
0.0000000000
40
0.0000000000
40
0.0000000000
40
0.0000000000
40
0.0000000000
40
0.3151794178
40
0.6016136352
40
0.8534008643
40
1.0000000000
40
1.0000000000
40
1.0000000000
40
1.0000000000
10
-8.4806310097
20
21.0309759955
30
0.0000000000
10
-8.4375143354
20
21.0853279167
30
0.0000000000
10
-8.3503373228
20
21.1852266892
30
0.0000000000
10
-8.2130902928
20
21.3138642880
30
0.0000000000
10
-8.0928796140
20
21.4051548498
30
0.0000000000
10
-8.0184759092
20
21.4517364678
30
0.0000000000
10
-7.9905087196
20
21.4678317024
30
0.0000000000
11
-8.4806310097
21
21.0309759955
31
0.0000000000
11
-8.3435435672
21
21.1874708812
31
0.0000000000
11
-8.2052755349
21
21.3164299277
31
0.0000000000
11
-8.0726287717
21
21.4165704071
31
0.0000000000
11
-7.9905087196
21
21.4678317024
31
0.0000000000
0
SPLINE
5
302
100
AcDbEntity
8
0
100
AcDbSpline
62
9
6
CONTINUOUS
70
0
71
3
72
8
73
4
74
2
42
0.0000001000
43
0.0000001000
44
0.0000000001
12
0.0385315443
22
0.0221750650
32
0.0000000000
13
0.0392704138
23
0.0208042650
33
0.0000000000
40
0.0000000000
40
0.0000000000
40
0.0000000000
40
0.0000000000
40
1.0000000000
40
1.0000000000
40
1.0000000000
40
1.0000000000
10
-7.9905087196
20
21.4678317024
30
0.0000000000
10
-7.9776648715
20
21.4752233908
30
0.0000000000
10
-7.9646970218
20
21.4823944744
30
0.0000000000
10
-7.9516068838
20
21.4893292295
30
0.0000000000
11
-7.9905087196
21
21.4678317024
31
0.0000000000
11
-7.9516068838
21
21.4893292295
31
0.0000000000
0
SPLINE
5
303
100
AcDbEntity
8
0
100
AcDbSpline
62
9
6
CONTINUOUS
70
0
71
3
72
10
73
6
74
4
42
0.0000001000
43
0.0000001000
44
0.0000000001
12
-0.0073795612
22
-0.5126264466
32
0.0000000000
13
-0.4741040210
23
-0.2130766527
33
0.0000000000
40
0.0000000000
40
0.0000000000
40
0.0000000000
40
0.0000000000
40
0.4862828883
40
0.8868298685
40
1.0000000000
40
1.0000000000
40
1.0000000000
40
1.0000000000
10
6.7582024570
20
-22.5008851716
30
0.0000000000
10
6.7570062722
20
-22.5839789946
30
0.0000000000
10
6.7346245572
20
-22.7372826818
30
0.0000000000
10
6.6329320875
20
-22.8868391327
30
0.0000000000
10
6.5555010280
20
-22.9307687488
30
0.0000000000
10
6.5376162232
20
-22.9388067197
30
0.0000000000
11
6.7582024570
21
-22.5008851716
31
0.0000000000
11
6.7120743344
21
-22.7458878753
31
0.0000000000
11
6.5883941452
21
-22.9098169981
31
0.0000000000
11
6.5376162232
21
-22.9388067197
31
0.0000000000
0
SPLINE
5
304
100
AcDbEntity
8
0
100
AcDbSpline
62
9
6
CONTINUOUS
70
0
71
3
72
11
73
7
74
5
42
0.0000001000
43
0.0000001000
44
0.0000000001
12
-1.0068615705
22
-0.5677813647
32
0.0000000000
13
-1.0344439916
23
0.5158212174
33
0.0000000000
40
0.0000000000
40
0.0000000000
40
0.0000000000
40
0.0000000000
40
0.2403894125
40
0.5051907545
40
0.7671872688
40
1.0000000000
40
1.0000000000
40
1.0000000000
40
1.0000000000
10
6.2645147214
20
-22.1738564175
30
0.0000000000
10
6.1838351010
20
-22.2193526271
30
0.0000000000
10
5.9988205512
20
-22.2877655981
30
0.0000000000
10
5.7041615117
20
-22.3284354785
30
0.0000000000
10
5.4102342658
20
-22.3099612809
30
0.0000000000
10
5.2246578828
20
-22.2548939060
30
0.0000000000
10
5.1443806392
20
-22.2148639905
30
0.0000000000
11
6.2645147214
21
-22.1738564175
31
0.0000000000
11
6.0057190645
21
-22.2750333128
31
0.0000000000
11
5.7027025522
21
-22.3182908055
31
0.0000000000
11
5.4005923472
21
-22.2971867124
31
0.0000000000
11
5.1443806392
21
-22.2148639905
31
0.0000000000
0
SPLINE
5
305
100
AcDbEntity
8
0
100
AcDbSpline
62
9
6
CONTINUOUS
70
0
71
3
72
13
73
9
74
7
42
0.0000001000
43
0.0000001000
44
0.0000000001
12
0.0489400141
22
-0.8590118629
32
0.0000000000
13
0.7692668246
23
-0.3898343969
33
0.0000000000
40
0.0000000000
40
0.0000000000
40
0.0000000000
40
0.0000000000
40
0.1619403773
40
0.3332855515
40
0.5073560048
40
0.6793333866
40
0.8469342797
40
1.0000000000
40
1.0000000000
40
1.0000000000
40
1.0000000000
10
5.1443803445
20
-22.2148641621
30
0.0000000000
10
5.1470221327
20
-22.2612337305
30
0.0000000000
10
5.1570396743
20
-22.3564877710
30
0.0000000000
10
5.1888660115
20
-22.4988770927
30
0.0000000000
10
5.2418800365
20
-22.6381540646
30
0.0000000000
10
5.3182198173
20
-22.7652387100
30
0.0000000000
10
5.4157067578
20
-22.8692055277
30
0.0000000000
10
5.4930911980
20
-22.9204687444
30
0.0000000000
10
5.5323406582
20
-22.9403588387
30
0.0000000000
11
5.1443803445
21
-22.2148641621
31
0.0000000000
11
5.1593278699
21
-22.3533943565
31
0.0000000000
11
5.1920723078
21
-22.4971381974
31
0.0000000000
11
5.2461362416
21
-22.6368108939
31
0.0000000000
11
5.3231608849
21
-22.7631531929
31
0.0000000000
11
5.4223882190
21
-22.8677902271
31
0.0000000000
11
5.5323406582
21
-22.9403588387
31
0.0000000000
0
SPLINE
5
306
100
AcDbEntity
8
0
100
AcDbSpline
62
9
6
CONTINUOUS
70
0
71
3
72
12
73
8
74
6
42
0.0000001000
43
0.0000001000
44
0.0000000001
12
0.0169928809
22
-0.2956160193
32
0.0000000000
13
0.1964061218
23
-0.2224681756
33
0.0000000000
40
0.0000000000
40
0.0000000000
40
0.0000000000
40
0.0000000000
40
0.2197086875
40
0.4523626940
40
0.6890180065
40
0.9232503276
40
1.0000000000
40
1.0000000000
40
1.0000000000
40
1.0000000000
10
6.2645147214
20
-22.1738564175
30
0.0000000000
10
6.2657592159
20
-22.1955062200
30
0.0000000000
10
6.2704809894
20
-22.2399965762
30
0.0000000000
10
6.2854753792
20
-22.3065203870
30
0.0000000000
10
6.3104517330
20
-22.3716352333
30
0.0000000000
10
6.3385998385
20
-22.4181821202
30
0.0000000000
10
6.3581103565
20
-22.4419934941
30
0.0000000000
10
6.3631350583
20
-22.4476849473
30
0.0000000000
11
6.2645147214
21
-22.1738564175
31
0.0000000000
11
6.2715542511
21
-22.2385310607
31
0.0000000000
11
6.2869728839
21
-22.3056732111
31
0.0000000000
11
6.3124286381
21
-22.3709606720
31
0.0000000000
11
6.3486948345
21
-22.4300806740
31
0.0000000000
11
6.3631350583
21
-22.4476849473
31
0.0000000000
0
SPLINE
5
307
100
AcDbEntity
8
0
100
AcDbSpline
62
9
6
CONTINUOUS
70
0
71
3
72
13
73
9
74
7
42
0.0000001000
43
0.0000001000
44
0.0000000001
12
0.2316532984
22
-0.2623924660
32
0.0000000000
13
0.3365115680
23
0.0945749569
33
0.0000000000
40
0.0000000000
40
0.0000000000
40
0.0000000000
40
0.0000000000
40
0.1288867695
40
0.3185953098
40
0.5061606925
40
0.6931510566
40
0.8787239227
40
1.0000000000
40
1.0000000000
40
1.0000000000
40
1.0000000000
10
6.3631350583
20
-22.4476849473
30
0.0000000000
10
6.3730874068
20
-22.4589579197
30
0.0000000000
10
6.3997207335
20
-22.4850281719
30
0.0000000000
10
6.4496193429
20
-22.5174714012
30
0.0000000000
10
6.5123337862
20
-22.5390420350
30
0.0000000000
10
6.5776861550
20
-22.5458135976
30
0.0000000000
10
6.6352337185
20
-22.5404729122
30
0.0000000000
10
6.6701066813
20
-22.5324231527
30
0.0000000000
10
6.6837102822
20
-22.5285999261
30
0.0000000000
11
6.3631350583
21
-22.4476849473
31
0.0000000000
11
6.3954176747
21
-22.4791266412
31
0.0000000000
11
6.4510288722
21
-22.5151410647
31
0.0000000000
11
6.5129171219
21
-22.5366089060
31
0.0000000000
11
6.5778381274
21
-22.5436811804
31
0.0000000000
11
6.6424028053
21
-22.5380471107
31
0.0000000000
11
6.6837102822
21
-22.5285999261
31
0.0000000000
0
SPLINE
5
308
100
AcDbEntity
8
0
100
AcDbSpline
62
9
6
CONTINUOUS
70
0
71
3
72
9
73
5
74
3
42
0.0000001000
43
0.0000001000
44
0.0000000001
12
0.0766153464
22
0.0215323744
32
0.0000000000
13
0.0721875085
23
0.0333382358
33
0.0000000000
40
0.0000000000
40
0.0000000000
40
0.0000000000
40
0.0000000000
40
0.2593682316
40
1.0000000000
40
1.0000000000
40
1.0000000000
40
1.0000000000
10
6.6837102822
20
-22.5285999261
30
0.0000000000
10
6.6903341445
20
-22.5267383215
30
0.0000000000
10
6.7157087307
20
-22.5189742652
30
0.0000000000
10
6.7403810029
20
-22.5091156238
30
0.0000000000
10
6.7582024570
20
-22.5008851716
30
0.0000000000
11
6.6837102822
21
-22.5285999261
31
0.0000000000
11
6.7034496217
21
-22.5225699157
31
0.0000000000
11
6.7582024570
21
-22.5008851716
31
0.0000000000
0
SPLINE
5
309
100
AcDbEntity
8
0
100
AcDbSpline
62
9
6
CONTINUOUS
70
0
71
3
72
11
73
7
74
5
42
0.0000001000
43
0.0000001000
44
0.0000000001
12
-1.0641376588
22
-0.4275454507
32
0.0000000000
13
-1.0251216767
23
0.5141105107
33
0.0000000000
40
0.0000000000
40
0.0000000000
40
0.0000000000
40
0.0000000000
40
0.2328718370
40
0.4973491083
40
0.7632438455
40
1.0000000000
40
1.0000000000
40
1.0000000000
40
1.0000000000
10
6.2645147214
20
12.6379322974
30
0.0000000000
10
6.1819121576
20
12.6047445326
30
0.0000000000
10
5.9945740220
20
12.5613206634
30
0.0000000000
10
5.7017609007
20
12.5501613905
30
0.0000000000
10
5.4097708925
20
12.5887779511
30
0.0000000000
10
5.2252816611
20
12.6494312709
30
0.0000000000
10
5.1443803724
20
12.6900042134
30
0.0000000000
11
6.2645147214
21
12.6379322974
31
0.0000000000
11
6.0057189993
21
12.5720060072
31
0.0000000000
11
5.7027024063
21
12.5587493753
31
0.0000000000
11
5.4005921272
21
12.6001366647
31
0.0000000000
11
5.1443803724
21
12.6900042134
31
0.0000000000
0
SPLINE
5
30A
100
AcDbEntity
8
0
100
AcDbSpline
62
9
6
CONTINUOUS
70
0
71
3
72
8
73
4
74
2
42
0.0000001000
43
0.0000001000
44
0.0000000001
12
-0.1788987403
22
-3.2850804722
32
0.0000000000
13
-0.1467028019
23
-3.2868242087
33
0.0000000000
40
0.0000000000
40
0.0000000000
40
0.0000000000
40
0.0000000000
40
1.0000000000
40
1.0000000000
40
1.0000000000
40
1.0000000000
10
5.1443803445
20
12.6900042017
30
0.0000000000
10
5.0847474311
20
11.5949773777
30
0.0000000000
10
5.0304405304
20
10.4996286690
30
0.0000000000
10
4.9815395964
20
9.4040205994
30
0.0000000000
11
5.1443803445
21
12.6900042017
31
0.0000000000
11
4.9815395964
21
9.4040205994
31
0.0000000000
0
SPLINE
5
30B
100
AcDbEntity
8
0
100
AcDbSpline
62
9
6
CONTINUOUS
70
0
71
3
72
8
73
4
74
2
42
0.0000001000
43
0.0000001000
44
0.0000000001
12
-0.0043364828
22
-0.0971573570
32
0.0000000000
13
-0.0043081350
23
-0.0971587118
33
0.0000000000
40
0.0000000000
40
0.0000000000
40
0.0000000000
40
0.0000000000
40
1.0000000000
40
1.0000000000
40
1.0000000000
40
1.0000000000
10
4.9815395964
20
9.4040205994
30
0.0000000000
10
4.9800941022
20
9.3716348137
30
0.0000000000
10
4.9786533315
20
9.3392488015
30
0.0000000000
10
4.9772172865
20
9.3068625642
30
0.0000000000
11
4.9815395964
21
9.4040205994
31
0.0000000000
11
4.9772172865
21
9.3068625642
31
0.0000000000
0
SPLINE
5
30C
100
AcDbEntity
8
0
100
AcDbSpline
62
9
6
CONTINUOUS
70
0
71
3
72
10
73
6
74
4
42
0.0000001000
43
0.0000001000
44
0.0000000001
12
-0.9553210748
22
-21.5447668489
32
0.0000000000
13
0.5089868007
23
-21.5607300257
33
0.0000000000
40
0.0000000000
40
0.0000000000
40
0.0000000000
40
0.0000000000
40
0.3923511252
40
0.9322435197
40
1.0000000000
40
1.0000000000
40
1.0000000000
40
1.0000000000
10
4.9772172865
20
9.3068625642
30
0.0000000000
10
4.8522768537
20
6.4891580593
30
0.0000000000
10
4.6404064500
20
-0.2098785901
30
0.0000000000
10
4.6379994532
20
-7.3996824048
30
0.0000000000
10
4.7305374201
20
-11.7670368171
30
0.0000000000
10
4.7420331381
20
-12.2539965435
30
0.0000000000
11
4.9772172865
21
9.3068625642
31
0.0000000000
11
4.7110691127
21
0.8497029602
31
0.0000000000
11
4.7110691115
21
-10.7930456713
31
0.0000000000
11
4.7420331381
21
-12.2539965435
31
0.0000000000
0
SPLINE
5
30D
100
AcDbEntity
8
0
100
AcDbSpline
62
9
6
CONTINUOUS
70
0
71
3
72
8
73
4
74
2
42
0.0000001000
43
0.0000001000
44
0.0000000001
12
0.0037011822
22
-0.1567824339
32
0.0000000000
13
0.0037825640
23
-0.1567805828
33
0.0000000000
40
0.0000000000
40
0.0000000000
40
0.0000000000
40
0.0000000000
40
1.0000000000
40
1.0000000000
40
1.0000000000
40
1.0000000000
10
4.7420331381
20
-12.2539965435
30
0.0000000000
10
4.7432668655
20
-12.3062573548
30
0.0000000000
10
4.7445141514
20
-12.3585178622
30
0.0000000000
10
4.7457750060
20
-12.4107780565
30
0.0000000000
11
4.7420331381
21
-12.2539965435
31
0.0000000000
11
4.7457750060
21
-12.4107780565
31
0.0000000000
0
SPLINE
5
30E
100
AcDbEntity
8
0
100
AcDbSpline
62
9
6
CONTINUOUS
70
0
71
3
72
8
73
4
74
2
42
0.0000001000
43
0.0000001000
44
0.0000000001
12
0.2366813863
22
-9.8100244766
32
0.0000000000
13
0.5630783880
23
-9.7958873015
33
0.0000000000
40
0.0000000000
40
0.0000000000
40
0.0000000000
40
0.0000000000
40
1.0000000000
40
1.0000000000
40
1.0000000000
40
1.0000000000
10
4.7457750060
20
-12.4107780565
30
0.0000000000
10
4.8246688015
20
-15.6807862154
30
0.0000000000
10
4.9566875485
20
-18.9495683949
30
0.0000000000
10
5.1443803445
20
-22.2148641621
30
0.0000000000
11
4.7457750060
21
-12.4107780565
31
0.0000000000
11
5.1443803445
21
-22.2148641621
31
0.0000000000
0
SPLINE
5
30F
100
AcDbEntity
8
0
100
AcDbSpline
62
9
6
CONTINUOUS
70
0
71
3
72
8
73
4
74
2
42
0.0000001000
43
0.0000001000
44
0.0000000001
12
-0.1982410534
22
-3.6400970363
32
0.0000000000
13
-0.1585702813
23
-3.6422182894
33
0.0000000000
40
0.0000000000
40
0.0000000000
40
0.0000000000
40
0.0000000000
40
1.0000000000
40
1.0000000000
40
1.0000000000
40
1.0000000000
10
6.2645147214
20
12.6379322974
30
0.0000000000
10
6.1984343703
20
11.4245666186
30
0.0000000000
10
6.1389111192
20
10.2108046349
30
0.0000000000
10
6.0860543588
20
8.9967318718
30
0.0000000000
11
6.2645147214
21
12.6379322974
31
0.0000000000
11
6.0860543588
21
8.9967318718
31
0.0000000000
0
SPLINE
5
310
100
AcDbEntity
8
0
100
AcDbSpline
62
9
6
CONTINUOUS
70
0
71
3
72
8
73
4
74
2
42
0.0000001000
43
0.0000001000
44
0.0000000001
12
-0.0137966830
22
-0.3168975340
32
0.0000000000
13
-0.0134936679
23
-0.3169114809
33
0.0000000000
40
0.0000000000
40
0.0000000000
40
0.0000000000
40
0.0000000000
40
1.0000000000
40
1.0000000000
40
1.0000000000
40
1.0000000000
10
6.0860543588
20
8.9967318718
30
0.0000000000
10
6.0814554645
20
8.8910993604
30
0.0000000000
10
6.0769070366
20
8.7854644965
30
0.0000000000
10
6.0724091473
20
8.6798273362
30
0.0000000000
11
6.0860543588
21
8.9967318718
31
0.0000000000
11
6.0724091473
21
8.6798273362
31
0.0000000000
0
SPLINE
5
311
100
AcDbEntity
8
0
100
AcDbSpline
62
9
6
CONTINUOUS
70
0
71
3
72
10
73
6
74
4
42
0.0000001000
43
0.0000001000
44
0.0000000001
12
-0.9074120856
22
-21.3114261634
32
0.0000000000
13
0.5322635020
23
-21.3247999792
33
0.0000000000
40
0.0000000000
40
0.0000000000
40
0.0000000000
40
0.0000000000
40
0.3682164301
40
0.9126142399
40
1.0000000000
40
1.0000000000
40
1.0000000000
40
1.0000000000
10
6.0724091473
20
8.6798273362
30
0.0000000000
10
5.9610344677
20
6.0640882485
30
0.0000000000
10
5.7617955652
20
-0.4224383211
30
0.0000000000
10
5.7594152727
20
-7.5337910823
30
0.0000000000
10
5.8575925971
20
-12.0250130253
30
0.0000000000
10
5.8730966806
20
-12.6461743101
30
0.0000000000
11
6.0724091473
21
8.6798273362
31
0.0000000000
11
5.8323396759
21
0.8292414529
31
0.0000000000
11
5.8323406434
21
-10.7825666711
31
0.0000000000
11
5.8730966806
21
-12.6461743101
31
0.0000000000
0
SPLINE
5
312
100
AcDbEntity
8
0
100
AcDbSpline
62
9
6
CONTINUOUS
70
0
71
3
72
8
73
4
74
2
42
0.0000001000
43
0.0000001000
44
0.0000000001
12
0.2379524839
22
-9.5334155062
32
0.0000000000
13
0.5472348622
23
-9.5198627980
33
0.0000000000
40
0.0000000000
40
0.0000000000
40
0.0000000000
40
0.0000000000
40
1.0000000000
40
1.0000000000
40
1.0000000000
40
1.0000000000
10
5.8730966806
20
-12.6461743101
30
0.0000000000
10
5.9524141753
20
-15.8239794788
30
0.0000000000
10
6.0821031007
20
-19.0005688182
30
0.0000000000
10
6.2645147214
20
-22.1738564175
30
0.0000000000
11
5.8730966806
21
-12.6461743101
31
0.0000000000
11
6.2645147214
21
-22.1738564175
31
0.0000000000
0
SPLINE
5
313
100
AcDbEntity
8
0
100
AcDbSpline
62
9
6
CONTINUOUS
70
0
71
3
72
11
73
7
74
5
42
0.0000001000
43
0.0000001000
44
0.0000000001
12
-0.0171007920
22
1.1714044393
32
0.0000000000
13
-1.0401915471
23
0.5389641388
33
0.0000000000
40
0.0000000000
40
0.0000000000
40
0.0000000000
40
0.0000000000
40
0.2465056357
40
0.5120768054
40
0.7710554147
40
1.0000000000
40
1.0000000000
40
1.0000000000
40
1.0000000000
10
6.7582024570
20
13.4417097559
30
0.0000000000
10
6.7567973098
20
13.5379623546
30
0.0000000000
10
6.7212103424
20
13.7377251278
30
0.0000000000
10
6.5996522591
20
14.0157927850
30
0.0000000000
10
6.4235959740
20
14.2544917567
30
0.0000000000
10
6.2719852628
20
14.3760932195
30
0.0000000000
10
6.1926031886
20
14.4172241932
30
0.0000000000
11
6.7582024570
21
13.4417097559
31
0.0000000000
11
6.7120743528
21
13.7267905035
31
0.0000000000
11
6.5883941879
21
14.0122753646
31
0.0000000000
11
6.4059839081
21
14.2547184862
31
0.0000000000
11
6.1926031886
21
14.4172241932
31
0.0000000000
0
SPLINE
5
314
100
AcDbEntity
8
0
100
AcDbSpline
62
9
6
CONTINUOUS
70
0
71
3
72
18
73
14
74
12
42
0.0000001000
43
0.0000001000
44
0.0000000001
12
-1.8693923319
22
-0.9592275435
32
0.0000000000
13
-0.1131929919
23
-2.0980782915
33
0.0000000000
40
0.0000000000
40
0.0000000000
40
0.0000000000
40
0.0000000000
40
0.0665144299
40
0.1449942886
40
0.2344289538
40
0.3330056776
40
0.4379500889
40
0.5456620358
40
0.6521508765
40
0.7536066350
40
0.8468578177
40
0.9295442229
40
1.0000000000
40
1.0000000000
40
1.0000000000
40
1.0000000000
10
6.1926031886
20
14.4172241932
30
0.0000000000
10
6.1511560002
20
14.3959567022
30
0.0000000000
10
6.0633450811
20
14.3445263230
30
0.0000000000
10
5.9308241437
20
14.2471121626
30
0.0000000000
10
5.7923829516
20
14.1214380989
30
0.0000000000
10
5.6548668397
20
13.9687076559
30
0.0000000000
10
5.5252887735
20
13.7930006323
30
0.0000000000
10
5.4100707634
20
13.6010789393
30
0.0000000000
10
5.3141288954
20
13.4015576832
30
0.0000000000
10
5.2401971549
20
13.2036818622
30
0.0000000000
10
5.1885973830
20
13.0161126989
30
0.0000000000
10
5.1574551943
20
12.8461690841
30
0.0000000000
10
5.1470387113
20
12.7392781139
30
0.0000000000
10
5.1443803445
20
12.6900042017
30
0.0000000000
11
6.1926031886
21
14.4172241932
31
0.0000000000
11
6.0718219317
21
14.3469143904
31
0.0000000000
11
5.9386966189
21
14.2496083984
31
0.0000000000
11
5.7992630706
21
14.1236326592
31
0.0000000000
11
5.6603898491
21
13.9699643714
31
0.0000000000
11
5.5293058353
21
13.7926566603
31
0.0000000000
11
5.4127206760
21
13.5986794155
31
0.0000000000
11
5.3157883891
21
13.3970193495
31
0.0000000000
11
5.2413257944
21
13.1972757887
31
0.0000000000
11
5.1895791208
21
13.0082997369
31
0.0000000000
11
5.1585154395
21
12.8373645325
31
0.0000000000
11
5.1443803445
21
12.6900042017
31
0.0000000000
0
SPLINE
5
315
100
AcDbEntity
8
0
100
AcDbSpline
62
9
6
CONTINUOUS
70
0
71
3
72
18
73
14
74
12
42
0.0000001000
43
0.0000001000
44
0.0000000001
12
-0.8765860662
22
-0.4416718955
32
0.0000000000
13
-0.0533809651
23
-0.9801161499
33
0.0000000000
40
0.0000000000
40
0.0000000000
40
0.0000000000
40
0.0000000000
40
0.0667654645
40
0.1454516628
40
0.2350251949
40
0.3336630502
40
0.4385948085
40
0.5462355241
40
0.6526150759
40
0.7539438650
40
0.8470678278
40
0.9296395459
40
1.0000000000
40
1.0000000000
40
1.0000000000
40
1.0000000000
10
6.7582024570
20
13.4417097559
30
0.0000000000
10
6.7386938983
20
13.4318802795
30
0.0000000000
10
6.6973636437
20
13.4080865521
30
0.0000000000
10
6.6349588969
20
13.3629259546
30
0.0000000000
10
6.5697641040
20
13.3045924684
30
0.0000000000
10
6.5050000321
20
13.2336302917
30
0.0000000000
10
6.4439676650
20
13.1519229434
30
0.0000000000
10
6.3896916577
20
13.0626073369
30
0.0000000000
10
6.3444904209
20
12.9696915072
30
0.0000000000
10
6.3096560864
20
12.8774869285
30
0.0000000000
10
6.2853439956
20
12.7900415489
30
0.0000000000
10
6.2706726050
20
12.7107831749
30
0.0000000000
10
6.2657666911
20
12.6609194365
30
0.0000000000
10
6.2645147214
20
12.6379322974
30
0.0000000000
11
6.7582024570
21
13.4417097559
31
0.0000000000
11
6.7013218064
21
13.4091611187
31
0.0000000000
11
6.6386318587
21
13.3640461914
31
0.0000000000
11
6.5729731782
21
13.3055712599
31
0.0000000000
11
6.5075766460
21
13.2341753628
31
0.0000000000
11
6.4458427086
21
13.1517286880
31
0.0000000000
11
6.3909296990
21
13.0614628989
31
0.0000000000
11
6.3452671411
21
12.9675574916
31
0.0000000000
11
6.3101861558
21
12.8744884355
31
0.0000000000
11
6.2858066320
21
12.7863919948
31
0.0000000000
11
6.2711726140
21
12.7066742526
31
0.0000000000
11
6.2645147214
21
12.6379322974
31
0.0000000000
0
SPLINE
5
316
100
AcDbEntity
8
0
100
AcDbSpline
62
9
6
CONTINUOUS
70
0
71
3
72
9
73
5
74
3
42
0.0000001000
43
0.0000001000
44
0.0000000001
12
0.0254100141
22
-0.3791481407
32
0.0000000000
13
0.3398292844
23
-0.1703747504
33
0.0000000000
40
0.0000000000
40
0.0000000000
40
0.0000000000
40
0.0000000000
40
0.4294564735
40
1.0000000000
40
1.0000000000
40
1.0000000000
40
1.0000000000
10
-9.2171473313
20
-14.8677643861
30
0.0000000000
10
-9.2135098329
20
-14.9220402606
30
0.0000000000
10
-9.1567502095
20
-15.0465511338
30
0.0000000000
10
-9.0475197851
20
-15.1188265451
30
0.0000000000
10
-8.9828906523
20
-15.1512286155
30
0.0000000000
11
-9.2171473313
21
-14.8677643861
31
0.0000000000
11
-9.1550809175
21
-15.0193503258
31
0.0000000000
11
-8.9828906523
21
-15.1512286155
31
0.0000000000
0
ENDSEC
0
SECTION
2
OBJECTS
0
DICTIONARY
5
C
100
AcDbDictionary
280
0
281
1
3
ACAD_GROUP
350
D
3
ACAD_MLINESTYLE
350
17
3
ACAD_LAYOUT
350
1A
3
ACAD_PLOTSETTINGS
350
19
3
ACAD_PLOTSTYLENAME
350
E
0
DICTIONARY
5
D
102
{ACAD_REACTORS
330
C
102
}
100
AcDbDictionary
280
0
281
1
0
ACDBDICTIONARYWDFLT
5
E
102
{ACAD_REACTORS
330
C
102
}
100
AcDbDictionary
281
1
3
Normal
350
F
100
AcDbDictionaryWithDefault
340
F
0
DICTIONARY
5
17
102
{ACAD_REACTORS
330
C
102
}
100
AcDbDictionary
280
0
281
1
3
Standard
350
18
0
DICTIONARY
5
19
102
{ACAD_REACTORS
330
C
102
}
100
AcDbDictionary
281
1
0
DICTIONARY
5
1A
102
{ACAD_REACTORS
330
C
102
}
100
AcDbDictionary
281
1
3
Layout1
350
1E
3
Model
350
22
0
ACDBPLACEHOLDER
5
F
102
{ACAD_REACTORS
330
E
102
}
0
MLINESTYLE
5
18
102
{ACAD_REACTORS
330
17
102
}
100
AcDbMlineStyle
2
STANDARD
70
0
3

62
256
51
90.0
52
90.0
71
2
49
0.5
62
256
6
BYLAYER
49
-0.5
62
256
6
BYLAYER
0
LAYOUT
5
1E
102
{ACAD_REACTORS
330
1A
102
}
100
AcDbPlotSettings
1

2

4

6

40
0.0
41
0.0
42
0.0
43
0.0
44
0.0
45
0.0
46
0.0
47
0.0
48
0.0
49
0.0
140
0.0
141
0.0
142
1.0
143
1.0
70
0
72
0
73
0
74
0
7

75
0
147
1.0
148
0.0
149
0.0
100
AcDbLayout
1
Layout1
70
0
71
0
10
0.0
20
0.0
11
0.0
21
0.0
12
0.0
22
0.0
32
0.0
14
0.0
24
0.0
34
0.0
15
0.0
25
0.0
35
0.0
146
0.0
13
0.0
23
0.0
33
0.0
16
0.0
26
0.0
36
0.0
17
0.0
27
0.0
37
0.0
76
0
330
1B
331
0
345
0
346
0
0
LAYOUT
5
22
102
{ACAD_REACTORS
330
1A
102
}
100
AcDbPlotSettings
1

2

4

6

40
0.0
41
0.0
42
0.0
43
0.0
44
0.0
45
0.0
46
0.0
47
0.0
48
0.0
49
0.0
140
0.0
141
0.0
142
1.0
143
1.0
70
0
72
0
73
0
74
0
7

75
0
147
1.0
148
0.0
149
0.0
100
AcDbLayout
1
Model
70
0
71
0
10
0.0
20
0.0
11
0.0
21
0.0
12
0.0
22
0.0
32
0.0
14
0.0
24
0.0
34
0.0
15
0.0
25
0.0
35
0.0
146
0.0
13
0.0
23
0.0
33
0.0
16
0.0
26
0.0
36
0.0
17
0.0
27
0.0
37
0.0
76
0
330
1F
331
0
345
0
346
0
0
ENDSEC
0
EOF
