0
SECTION
2
HEADER
9
$ACADVER
1
AC1014
9
$HANDSEED
5
       23D
9
$EXTMAX
10
297.0000000000
20
210.0000000000
9
$EXTMIN
10
0.0000000000
20
0.0000000000
9
$LIMMIN
10
0.0000000000
20
0.0000000000
9
$LIMMAX
10
297.0000000000
20
210.0000000000
9
$VIEWCTR
10
148.5000000000
20
105.0000000000
9
$VIEWSIZE
40
210.0000000000
9
$CLAYER
8
0
9
$LTSCALE
40
16.3350000000
9
$CELTYPE
6
BYLAYER
9
$DIMSCALE
40
1
9
$DIMASZ
40
3.0000000000
9
$DIMEXO
40
1.8562500000
9
$DIMDLI
40
11.2860000000
9
$DIMEXE
40
5.3460000000
9
$DIMCEN
40
2.6730000000
9
$DIMLFAC
40
1.0000000000
9
$DIMTXT
40
3.0000000000
9
$DIMTOL
70
1
9
$DIMLIM
70
0
9
$DIMTFAC
40
1.0000000000
9
$DIMTP
40
0.0100000000
9
$DIMTM
40
0.0100000000
9
$MEASUREMENT
70
1
0
ENDSEC
0
SECTION
2
CLASSES
0
ENDSEC
0
SECTION
2
TABLES
0
TABLE
2
VPORT
5
8
100
AcDbSymbolTable
70
2
0
VPORT
5
1F4
100
AcDbSymbolTableRecord
100
AcDbViewportTableRecord
2
*ACTIVE
70
0
10
0.0
20
0.0
11
1.0
21
1.0
12
148.5000000000
22
105.0000000000
13
0.0
23
0.0
14
1.0
24
1.0
15
0.0
25
0.0
16
0.0
26
0.0
36
1.0
17
0.0
27
0.0
37
0.0
40
210.0000000000
41
1.4142857143
42
50.0
43
0.0
44
0.0
50
0.0
51
0.0
71
0
72
100
73
1
74
1
75
0
76
0
77
0
78
0
0
ENDTAB
0
TABLE
2
LTYPE
5
5
100
AcDbSymbolTable
70
6
0
LTYPE
5
14
100
AcDbSymbolTableRecord
100
AcDbLinetypeTableRecord
2
BYBLOCK
70
0
3

72
65
73
0
40
0.0
0
LTYPE
5
15
100
AcDbSymbolTableRecord
100
AcDbLinetypeTableRecord
2
BYLAYER
70
0
3

72
65
73
0
40
0.0
0
LTYPE
5
16
100
AcDbSymbolTableRecord
100
AcDbLinetypeTableRecord
2
CONTINUOUS
70
64
3
Solid line
72
65
73
0
40
0
0
LTYPE
5
1F5
100
AcDbSymbolTableRecord
100
AcDbLinetypeTableRecord
2
CENTER
70
64
3
____ _ ____ _ ____ _ ____ _ ____ _ ____ _ ____
72
65
73
4
40
0.6
49
0.375
74
0
49
-0.075
74
0
49
0.075
74
0
49
-0.075
74
0
0
LTYPE
5
1F6
100
AcDbSymbolTableRecord
100
AcDbLinetypeTableRecord
2
HIDDEN
70
64
3
- - - - - - - - - - - - - - - - - - - -
72
65
73
2
40
0.2
49
0.1
74
0
49
-0.1
74
0
0
LTYPE
5
1F7
100
AcDbSymbolTableRecord
100
AcDbLinetypeTableRecord
2
PHANTOM
70
64
3
_____ _ _ _____ _ _ _____ _ _ _____
72
65
73
6
40
0.8
49
0.45
74
0
49
-0.05
74
0
49
0.1
74
0
49
-0.05
74
0
49
0.1
74
0
49
-0.05
74
0
0
LTYPE
5
1F8
100
AcDbSymbolTableRecord
100
AcDbLinetypeTableRecord
2
DOT
70
64
3
. . . . . . . . . . . . . . . . . . . .
72
65
73
2
40
0.2
49
0.1
74
0
49
-0.1
74
0
0
LTYPE
5
1F9
100
AcDbSymbolTableRecord
100
AcDbLinetypeTableRecord
2
DASHED
70
64
3
- - - - - - - - - - - - - - - - - - - -
72
65
73
2
40
0.2
49
0.1
74
0
49
-0.1
74
0
0
ENDTAB
0
TABLE
2
LAYER
5
2
100
AcDbSymbolTable
70
36
0
LAYER
5
10
100
AcDbSymbolTableRecord
100
AcDbLayerTableRecord
2
0
70
0
62
7
6
CONTINUOUS
0
LAYER
5
1FA
100
AcDbSymbolTableRecord
100
AcDbLayerTableRecord
2
DEFAULT_1
70
0
62
7
6
CENTER
0
LAYER
5
1FB
100
AcDbSymbolTableRecord
100
AcDbLayerTableRecord
2
DEFAULT_2
70
0
62
8
6
HIDDEN
0
LAYER
5
1FC
100
AcDbSymbolTableRecord
100
AcDbLayerTableRecord
2
DEFAULT_3
70
0
62
7
6
PHANTOM
0
LAYER
5
1FD
100
AcDbSymbolTableRecord
100
AcDbLayerTableRecord
2
ASSI
70
0
62
7
6
CONTINUOUS
0
LAYER
5
1FE
100
AcDbSymbolTableRecord
100
AcDbLayerTableRecord
2
COORDINATE
70
0
62
7
6
CONTINUOUS
0
LAYER
5
1FF
100
AcDbSymbolTableRecord
100
AcDbLayerTableRecord
2
COORD_ORIGINE
70
0
62
7
6
CONTINUOUS
0
LAYER
5
200
100
AcDbSymbolTableRecord
100
AcDbLayerTableRecord
2
CURVE
70
0
62
7
6
CONTINUOUS
0
LAYER
5
201
100
AcDbSymbolTableRecord
100
AcDbLayerTableRecord
2
DRAFT
70
0
62
7
6
CONTINUOUS
0
LAYER
5
202
100
AcDbSymbolTableRecord
100
AcDbLayerTableRecord
2
NOTE
70
0
62
7
6
CONTINUOUS
0
LAYER
5
203
100
AcDbSymbolTableRecord
100
AcDbLayerTableRecord
2
PIANI
70
0
62
7
6
CONTINUOUS
0
LAYER
5
204
100
AcDbSymbolTableRecord
100
AcDbLayerTableRecord
2
PIANI_ORIGINE
70
0
62
7
6
CONTINUOUS
0
LAYER
5
205
100
AcDbSymbolTableRecord
100
AcDbLayerTableRecord
2
PUNTI
70
0
62
7
6
CONTINUOUS
0
LAYER
5
206
100
AcDbSymbolTableRecord
100
AcDbLayerTableRecord
2
RACCORDO
70
0
62
7
6
CONTINUOUS
0
LAYER
5
207
100
AcDbSymbolTableRecord
100
AcDbLayerTableRecord
2
SUPERFICI
70
0
62
7
6
CONTINUOUS
0
LAYER
5
208
100
AcDbSymbolTableRecord
100
AcDbLayerTableRecord
2
TRASH
70
0
62
7
6
CONTINUOUS
0
ENDTAB
0
TABLE
2
STYLE
5
3
100
AcDbSymbolTable
70
1
0
STYLE
5
11
100
AcDbSymbolTableRecord
100
AcDbTextStyleTableRecord
2
STANDARD
70
0
40
0.0
41
0.8000000000
50
0.0
71
0
42
0.2
3
txt
4

0
ENDTAB
0
TABLE
2
VIEW
5
6
100
AcDbSymbolTable
70
0
0
ENDTAB
0
TABLE
2
UCS
5
7
100
AcDbSymbolTable
70
0
0
ENDTAB
0
TABLE
2
APPID
5
9
100
AcDbSymbolTable
70
1
0
APPID
5
209
100
AcDbSymbolTableRecord
100
AcDbRegAppTableRecord
2
ACAD
70
0
0
ENDTAB
0
TABLE
2
DIMSTYLE
5
A
100
AcDbSymbolTable
70
1
0
DIMSTYLE
105
20A
100
AcDbSymbolTableRecord
100
AcDbDimStyleTableRecord
2
STANDARD
70
0
3

4

5

6

7

40
1.0
41
3.0000000000
42
0.0625
43
0.38
44
0.18
45
0.0
46
0.0
47
0.0100000000
48
0.0100000000
140
3.0000000000
141
0.09
142
0.0
143
25.4
144
1.0000000000
145
0.0
146
1.0000000000
147
0.09
71
1
72
0
73
0
74
0
75
0
76
0
77
1
78
8
170
0
171
2
172
0
173
0
174
0
175
0
176
0
177
0
178
0
270
2
271
2
272
2
273
2
274
2
340
11
275
0
280
0
281
0
282
0
283
1
284
8
285
0
286
0
287
3
288
0
0
ENDTAB
0
TABLE
2
BLOCK_RECORD
5
1
100
AcDbSymbolTable
70
0
0
BLOCK_RECORD
5
1B
100
AcDbSymbolTableRecord
100
AcDbBlockTableRecord
2
*MODEL_SPACE
0
BLOCK_RECORD
5
1C
100
AcDbSymbolTableRecord
100
AcDbBlockTableRecord
2
*PAPER_SPACE
0
ENDTAB
0
ENDSEC
0
SECTION
2
BLOCKS
0
BLOCK
5
1E
100
AcDbEntity
8
0
100
AcDbBlockBegin
2
*MODEL_SPACE
70
0
10
0.0
20
0.0
30
0.0
3
*MODEL_SPACE
1

0
ENDBLK
5
1F
100
AcDbEntity
8
0
100
AcDbBlockEnd
0
BLOCK
5
20
100
AcDbEntity
8
0
100
AcDbBlockBegin
2
*PAPER_SPACE
70
0
10
0.0
20
0.0
30
0.0
3
*PAPER_SPACE
1

0
ENDBLK
5
21
100
AcDbEntity
8
0
100
AcDbBlockEnd
0
ENDSEC
0
SECTION
2
ENTITIES
0
LINE
5
20B
100
AcDbEntity
8
0
100
AcDbLine
62
7
6
CONTINUOUS
10
-9.0566569398
20
21.4277313467
11
-5.0658390452
21
23.5808691569
0
LINE
5
20C
100
AcDbEntity
8
0
100
AcDbLine
62
9
6
CONTINUOUS
10
-8.6866704559
20
21.4114451668
11
-4.6997589385
21
23.5624753969
0
LINE
5
20D
100
AcDbEntity
8
0
100
AcDbLine
62
7
6
CONTINUOUS
10
5.0806384209
20
-23.5037263462
11
-9.3336821859
21
-16.2965660428
0
LINE
5
20E
100
AcDbEntity
8
0
100
AcDbLine
62
9
6
CONTINUOUS
10
4.6900705981
20
-22.7777341039
11
-9.7179069367
21
-15.5737453365
0
LINE
5
20F
100
AcDbEntity
8
0
100
AcDbLine
62
9
6
CONTINUOUS
10
-2.7084036879
20
-13.8768890117
11
-5.6831276616
21
-12.3895270249
0
LINE
5
210
100
AcDbEntity
8
0
100
AcDbLine
62
9
6
CONTINUOUS
10
-5.7475352743
20
-10.6030774833
11
-2.7728113007
21
-12.0904394701
0
LINE
5
211
100
AcDbEntity
8
0
100
AcDbLine
62
7
6
CONTINUOUS
10
-9.9522671997
20
-15.2893910228
11
-9.9522594746
21
-15.2895279231
0
LINE
5
212
100
AcDbEntity
8
0
100
AcDbLine
62
7
6
CONTINUOUS
10
-9.9523951227
20
19.9542150922
11
-9.9524024243
21
19.9540763025
0
LINE
5
213
100
AcDbEntity
8
0
100
AcDbLine
62
9
6
CONTINUOUS
10
9.8668130672
20
16.2791893941
11
5.7382453326
21
14.1989872726
0
LINE
5
214
100
AcDbEntity
8
0
100
AcDbLine
62
9
6
CONTINUOUS
10
10.4324123356
20
15.3036749568
11
6.3038446009
21
13.2234728353
0
LINE
5
215
100
AcDbEntity
8
0
100
AcDbLine
62
7
6
CONTINUOUS
10
10.4324123356
20
-21.1562055823
11
10.4324123356
21
15.3036749568
0
LINE
5
216
100
AcDbEntity
8
0
100
AcDbLine
62
9
6
CONTINUOUS
10
4.6900705981
20
12.4726547484
11
-9.7179069367
21
19.6766435158
0
LINE
5
217
100
AcDbEntity
8
0
100
AcDbLine
62
9
6
CONTINUOUS
10
5.7382453326
20
14.1989872726
11
-8.6866704559
21
21.4114451668
0
LINE
5
218
100
AcDbEntity
8
0
100
AcDbLine
62
7
6
CONTINUOUS
10
-4.6997589385
20
23.5624753969
11
9.8668130672
21
16.2791893941
0
LINE
5
219
100
AcDbEntity
8
0
100
AcDbLine
62
9
6
CONTINUOUS
10
6.3038446009
20
-23.0629149782
11
10.4324123356
21
-21.1562055823
0
LINE
5
21A
100
AcDbEntity
8
0
100
AcDbLine
62
7
6
CONTINUOUS
10
6.0835408730
20
-23.5014651121
11
10.2161009236
21
-21.5929119324
0
SPLINE
5
21B
100
AcDbEntity
8
0
100
AcDbSpline
62
7
6
CONTINUOUS
70
0
71
3
72
12
73
8
74
6
42
0.0000001000
43
0.0000001000
44
0.0000000001
12
0.0697063858
22
-1.2358634838
32
0.0000000000
13
1.1105211077
23
-0.5540812933
33
0.0000000000
40
0.0000000000
40
0.0000000000
40
0.0000000000
40
0.0000000000
40
0.2362577486
40
0.4673164333
40
0.6856466318
40
0.8977958338
40
1.0000000000
40
1.0000000000
40
1.0000000000
40
1.0000000000
10
-9.9522488018
20
-15.2895273138
30
0.0000000000
10
-9.9467592439
20
-15.3868547553
30
0.0000000000
10
-9.9169513622
20
-15.5790158129
30
0.0000000000
10
-9.8117113012
20
-15.8441643941
30
0.0000000000
10
-9.6521388511
20
-16.0688105413
30
0.0000000000
10
-9.4836121637
20
-16.2130265462
30
0.0000000000
10
-9.3706379911
20
-16.2780905666
30
0.0000000000
10
-9.3328046965
20
-16.2969670388
30
0.0000000000
11
-9.9522488018
21
-15.2895273138
31
0.0000000000
11
-9.9059050940
21
-15.5782287528
31
0.0000000000
11
-9.7993358431
21
-15.8434873593
31
0.0000000000
11
-9.6423253958
21
-16.0632859209
31
0.0000000000
11
-9.4426701837
21
-16.2336640686
31
0.0000000000
11
-9.3328046965
21
-16.2969670388
31
0.0000000000
0
SPLINE
5
21C
100
AcDbEntity
8
0
100
AcDbSpline
62
7
6
CONTINUOUS
70
0
71
3
72
11
73
7
74
5
42
0.0000001000
43
0.0000001000
44
0.0000000001
12
-1.8679461490
22
-35.2104620377
32
0.0000000000
13
1.9761966781
23
-35.2045557996
33
0.0000000000
40
0.0000000000
40
0.0000000000
40
0.0000000000
40
0.0000000000
40
0.2543152417
40
0.5070796330
40
0.7563156356
40
1.0000000000
40
1.0000000000
40
1.0000000000
40
1.0000000000
10
-9.9524012929
20
19.9542154168
30
0.0000000000
10
-10.1107503517
20
16.9693630285
30
0.0000000000
10
-10.3504922340
20
11.0135252063
30
0.0000000000
10
-10.4727187817
20
2.1241047853
30
0.0000000000
10
-10.3537286224
20
-6.6404307829
30
0.0000000000
10
-10.1127899465
20
-12.4297910885
30
0.0000000000
10
-9.9522672027
20
-15.2893910229
30
0.0000000000
11
-9.9524012929
21
19.9542154168
31
0.0000000000
11
-10.3115353351
21
10.9942620251
31
0.0000000000
11
-10.4324123210
21
2.0826222907
31
0.0000000000
11
-10.3113530801
21
-6.7045925247
31
0.0000000000
11
-9.9522672027
21
-15.2893910229
31
0.0000000000
0
SPLINE
5
21D
100
AcDbEntity
8
0
100
AcDbSpline
62
7
6
CONTINUOUS
70
0
71
3
72
13
73
9
74
7
42
0.0000001000
43
0.0000001000
44
0.0000000001
12
-1.5804118586
22
-0.8530565294
32
0.0000000000
13
-0.0950164432
23
-1.7928249882
33
0.0000000000
40
0.0000000000
40
0.0000000000
40
0.0000000000
40
0.0000000000
40
0.1298825396
40
0.3084736738
40
0.4922086081
40
0.6783966895
40
0.8631797827
40
1.0000000000
40
1.0000000000
40
1.0000000000
40
1.0000000000
10
-9.0566060189
20
21.4277401773
30
0.0000000000
10
-9.1250286542
20
21.3908077945
30
0.0000000000
10
-9.2803933617
20
21.2891305810
30
0.0000000000
10
-9.4949512168
20
21.0852725853
30
0.0000000000
10
-9.6888684798
20
20.8187200604
30
0.0000000000
10
-9.8363728169
20
20.5199204089
30
0.0000000000
10
-9.9232823928
20
20.2275464586
30
0.0000000000
10
-9.9480752820
20
20.0358415351
30
0.0000000000
10
-9.9524086721
20
19.9540766336
30
0.0000000000
11
-9.0566060189
21
21.4277401773
31
0.0000000000
11
-9.2521560467
21
21.3005615042
31
0.0000000000
11
-9.4854575674
21
21.0810840112
31
0.0000000000
11
-9.6800053915
21
20.8151020264
31
0.0000000000
11
-9.8278912103
21
20.5156955354
31
0.0000000000
11
-9.9215048777
21
20.1977736870
31
0.0000000000
11
-9.9524086721
21
19.9540766336
31
0.0000000000
0
SPLINE
5
21E
100
AcDbEntity
8
0
100
AcDbSpline
62
7
6
CONTINUOUS
70
0
71
3
72
11
73
7
74
5
42
0.0000001000
43
0.0000001000
44
0.0000000001
12
0.3360387486
22
0.1811604896
32
0.0000000000
13
0.3399310084
23
-0.1699655042
33
0.0000000000
40
0.0000000000
40
0.0000000000
40
0.0000000000
40
0.0000000000
40
0.1476291790
40
0.4079855043
40
0.6894667574
40
1.0000000000
40
1.0000000000
40
1.0000000000
40
1.0000000000
10
-5.0657820495
20
23.5808619667
30
0.0000000000
10
-5.0492456747
20
23.5897768248
30
0.0000000000
10
-5.0012583553
20
23.6101906908
30
0.0000000000
10
-4.9134475770
20
23.6229168046
30
0.0000000000
10
-4.8053712742
20
23.6076637885
30
0.0000000000
10
-4.7349455646
20
23.5800687100
30
0.0000000000
10
-4.6997589385
20
23.5624753969
30
0.0000000000
11
-5.0657820495
21
23.5808619667
31
0.0000000000
11
-5.0139970201
21
23.6028634293
31
0.0000000000
11
-4.9162088010
21
23.6179790544
31
0.0000000000
11
-4.8101035761
21
23.6043403087
31
0.0000000000
11
-4.6997589385
21
23.5624753969
31
0.0000000000
0
SPLINE
5
21F
100
AcDbEntity
8
0
100
AcDbSpline
62
7
6
CONTINUOUS
70
0
71
3
72
11
73
7
74
5
42
0.0000001000
43
0.0000001000
44
0.0000000001
12
0.9277263029
22
-0.4643653014
32
0.0000000000
13
0.9418455365
23
0.4343194184
33
0.0000000000
40
0.0000000000
40
0.0000000000
40
0.0000000000
40
0.0000000000
40
0.1971636661
40
0.4752180563
40
0.7656309318
40
1.0000000000
40
1.0000000000
40
1.0000000000
40
1.0000000000
10
5.0798575772
20
-23.5033060030
30
0.0000000000
10
5.1408288835
20
-23.5338246581
30
0.0000000000
10
5.2951462557
20
-23.5935544797
30
0.0000000000
10
5.5596585207
20
-23.6308584865
30
0.0000000000
10
5.8376154561
20
-23.5969995402
30
0.0000000000
10
6.0095211039
20
-23.5355851152
30
0.0000000000
10
6.0831009241
20
-23.5016547694
30
0.0000000000
11
5.0798575772
21
-23.5033060030
31
0.0000000000
11
5.2705762778
21
-23.5770914480
31
0.0000000000
11
5.5554889700
21
-23.6178938664
31
0.0000000000
11
5.8540226367
21
-23.5826058287
31
0.0000000000
11
6.0831009241
21
-23.5016547694
31
0.0000000000
0
SPLINE
5
220
100
AcDbEntity
8
0
100
AcDbSpline
62
7
6
CONTINUOUS
70
0
71
3
72
15
73
11
74
9
42
0.0000001000
43
0.0000001000
44
0.0000000001
12
1.0529012362
22
-0.5264506181
32
0.0000000000
13
0.0000000000
23
-1.1771793689
33
0.0000000000
40
0.0000000000
40
0.0000000000
40
0.0000000000
40
0.0000000000
40
0.1103204576
40
0.2298794375
40
0.3567631407
40
0.4883331405
40
0.6215375495
40
0.7531878701
40
0.8802255292
40
1.0000000000
40
1.0000000000
40
1.0000000000
40
1.0000000000
10
9.8668130672
20
16.2791893941
30
0.0000000000
10
9.9055319160
20
16.2598299697
30
0.0000000000
10
9.9822765061
20
16.2113811681
30
0.0000000000
10
10.0876712683
20
16.1185448729
30
0.0000000000
10
10.1847170188
20
16.0057900279
30
0.0000000000
10
10.2697827330
20
15.8773403474
30
0.0000000000
10
10.3397243073
20
15.7379858205
30
0.0000000000
10
10.3919216722
20
15.5929249625
30
0.0000000000
10
10.4244210582
20
15.4476192960
30
0.0000000000
10
10.4324123356
20
15.3506736354
30
0.0000000000
10
10.4324123356
20
15.3036749568
30
0.0000000000
11
9.8668130672
21
16.2791893941
31
0.0000000000
11
9.9771577580
21
16.2107096287
31
0.0000000000
11
10.0832630884
21
16.1182430292
31
0.0000000000
11
10.1810513921
21
16.0053390243
31
0.0000000000
11
10.2667627154
21
15.8763357499
31
0.0000000000
11
10.3371018663
21
15.7361916702
31
0.0000000000
11
10.3893655957
21
15.5902941857
31
0.0000000000
11
10.4215468832
21
15.4442517119
31
0.0000000000
11
10.4324123356
21
15.3036749568
31
0.0000000000
0
SPLINE
5
221
100
AcDbEntity
8
0
100
AcDbSpline
62
7
6
CONTINUOUS
70
0
71
3
72
12
73
8
74
6
42
0.0000001000
43
0.0000001000
44
0.0000000001
12
0.0000000000
22
-0.5133412239
32
0.0000000000
13
-0.4680310168
23
-0.2163953320
33
0.0000000000
40
0.0000000000
40
0.0000000000
40
0.0000000000
40
0.0000000000
40
0.2535655462
40
0.4840588792
40
0.6929500481
40
0.8859943094
40
1.0000000000
40
1.0000000000
40
1.0000000000
40
1.0000000000
10
10.4324123356
20
-21.1562055823
30
0.0000000000
10
10.4324123356
20
-21.1995941316
30
0.0000000000
10
10.4261090778
20
-21.2826617215
30
0.0000000000
10
10.3948521337
20
-21.3979030077
30
0.0000000000
10
10.3427242951
20
-21.4940968623
30
0.0000000000
10
10.2796844578
20
-21.5578630852
30
0.0000000000
10
10.2339083741
20
-21.5846432634
30
0.0000000000
10
10.2161223076
20
-21.5928666965
30
0.0000000000
11
10.4324123356
21
-21.1562055823
31
0.0000000000
11
10.4215468726
21
-21.2859169449
31
0.0000000000
11
10.3893655301
21
-21.3997782329
31
0.0000000000
11
10.3371017038
21
-21.4934120432
31
0.0000000000
11
10.2667624726
21
-21.5632169313
31
0.0000000000
11
10.2161223076
21
-21.5928666965
31
0.0000000000
0
SPLINE
5
222
100
AcDbEntity
8
0
100
AcDbSpline
62
9
6
CONTINUOUS
70
0
71
3
72
11
73
7
74
5
42
0.0000001000
43
0.0000001000
44
0.0000000001
12
-0.7675879928
22
0.3849236037
32
0.0000000000
13
-0.0484107680
23
0.8535416632
33
0.0000000000
40
0.0000000000
40
0.0000000000
40
0.0000000000
40
0.0000000000
40
0.1943728971
40
0.4355561900
40
0.7024836871
40
1.0000000000
40
1.0000000000
40
1.0000000000
40
1.0000000000
10
-9.3336620297
20
-16.2965526777
30
0.0000000000
10
-9.3833947971
20
-16.2716131057
30
0.0000000000
10
-9.4864459841
20
-16.1987076081
30
0.0000000000
10
-9.6079692028
20
-16.0356036450
30
0.0000000000
10
-9.6902179571
20
-15.8188413838
30
0.0000000000
10
-9.7131059390
20
-15.6583928593
30
0.0000000000
10
-9.7179069367
20
-15.5737453365
30
0.0000000000
11
-9.3336620297
21
-16.2965526777
31
0.0000000000
11
-9.4698535153
21
-16.2009223632
31
0.0000000000
11
-9.5953991728
21
-16.0373590762
31
0.0000000000
11
-9.6793263987
21
-15.8251530062
31
0.0000000000
11
-9.7179069367
21
-15.5737453365
31
0.0000000000
0
SPLINE
5
223
100
AcDbEntity
8
0
100
AcDbSpline
62
9
6
CONTINUOUS
70
0
71
3
72
8
73
4
74
2
42
0.0000001000
43
0.0000001000
44
0.0000000001
12
0.0007241238
22
-0.0135719703
32
0.0000000000
13
0.0014532470
23
-0.0134980183
33
0.0000000000
40
0.0000000000
40
0.0000000000
40
0.0000000000
40
0.0000000000
40
1.0000000000
40
1.0000000000
40
1.0000000000
40
1.0000000000
10
-9.9517340456
20
-15.2894998892
30
0.0000000000
10
-9.9514926710
20
-15.2940238793
30
0.0000000000
10
-9.9511300146
20
-15.2985395942
30
0.0000000000
10
-9.9506455990
20
-15.3030389336
30
0.0000000000
11
-9.9517340456
21
-15.2894998892
31
0.0000000000
11
-9.9506455990
21
-15.3030389336
31
0.0000000000
0
SPLINE
5
224
100
AcDbEntity
8
0
100
AcDbSpline
62
9
6
CONTINUOUS
70
0
71
3
72
10
73
6
74
4
42
0.0000001000
43
0.0000001000
44
0.0000000001
12
0.0400870952
22
-0.3723361276
32
0.0000000000
13
0.3302785977
23
-0.1655906234
33
0.0000000000
40
0.0000000000
40
0.0000000000
40
0.0000000000
40
0.0000000000
40
0.1205992345
40
0.5173832666
40
1.0000000000
40
1.0000000000
40
1.0000000000
40
1.0000000000
10
-9.9506455990
20
-15.3030389336
30
0.0000000000
10
-9.9490341080
20
-15.3180067510
30
0.0000000000
10
-9.9363398253
20
-15.3814427790
30
0.0000000000
10
-9.8632447710
20
-15.4869969526
30
0.0000000000
10
-9.7710395679
20
-15.5471063848
30
0.0000000000
10
-9.7179069085
20
-15.5737453201
30
0.0000000000
11
-9.9506455990
21
-15.3030389336
31
0.0000000000
11
-9.9417511135
21
-15.3471005007
31
0.0000000000
11
-9.8638336784
21
-15.4712768416
31
0.0000000000
11
-9.7179069085
21
-15.5737453201
31
0.0000000000
0
SPLINE
5
225
100
AcDbEntity
8
0
100
AcDbSpline
62
9
6
CONTINUOUS
70
0
71
3
72
10
73
6
74
4
42
0.0000001000
43
0.0000001000
44
0.0000000001
12
-0.0162064680
22
-0.3866229698
32
0.0000000000
13
0.3400055965
23
-0.1694834929
33
0.0000000000
40
0.0000000000
40
0.0000000000
40
0.0000000000
40
0.0000000000
40
0.1818555181
40
0.5380872906
40
1.0000000000
40
1.0000000000
40
1.0000000000
40
1.0000000000
10
-9.9515496634
20
19.9540405564
30
0.0000000000
10
-9.9525320753
20
19.9306040496
30
0.0000000000
10
-9.9424850387
20
19.8601969787
30
0.0000000000
10
-9.8587808251
20
19.7578875058
30
0.0000000000
10
-9.7702504532
20
19.7027421461
30
0.0000000000
10
-9.7178994844
20
19.6766466196
30
0.0000000000
11
-9.9515496634
21
19.9540405564
31
0.0000000000
11
-9.9417439850
21
19.8847675197
31
0.0000000000
11
-9.8638259093
21
19.7741139599
31
0.0000000000
11
-9.7178994844
21
19.6766466196
31
0.0000000000
0
SPLINE
5
226
100
AcDbEntity
8
0
100
AcDbSpline
62
9
6
CONTINUOUS
70
0
71
3
72
14
73
10
74
8
42
0.0000001000
43
0.0000001000
44
0.0000000001
12
-0.8756615360
22
-0.4413821062
32
0.0000000000
13
-0.0539993648
23
-0.9791247918
33
0.0000000000
40
0.0000000000
40
0.0000000000
40
0.0000000000
40
0.0000000000
40
0.1272782611
40
0.2657479258
40
0.4122205097
40
0.5629539146
40
0.7139934335
40
0.8610538451
40
1.0000000000
40
1.0000000000
40
1.0000000000
40
1.0000000000
10
6.3038446009
20
13.2234728353
30
0.0000000000
10
6.2666937084
20
13.2047467196
30
0.0000000000
10
6.1931390638
20
13.1574333890
30
0.0000000000
10
6.0932243143
20
13.0662904340
30
0.0000000000
10
6.0028263627
20
12.9556342743
30
0.0000000000
10
5.9260133358
20
12.8303705740
30
0.0000000000
10
5.8661241666
20
12.6959645268
30
0.0000000000
10
5.8258100150
20
12.5584710821
30
0.0000000000
10
5.8126805252
20
12.4654579661
30
0.0000000000
10
5.8101795238
20
12.4201094245
30
0.0000000000
11
6.3038446009
21
13.2234728353
31
0.0000000000
11
6.1983337575
21
13.1568007427
31
0.0000000000
11
6.0975120160
21
13.0658470542
31
0.0000000000
11
6.0063181951
21
12.9548781822
31
0.0000000000
11
5.9289216092
21
12.8289500770
31
0.0000000000
11
5.8687454524
21
12.6936142758
31
0.0000000000
11
5.8285653011
21
12.5551156107
31
0.0000000000
11
5.8101795238
21
12.4201094245
31
0.0000000000
0
SPLINE
5
227
100
AcDbEntity
8
0
100
AcDbSpline
62
9
6
CONTINUOUS
70
0
71
3
72
14
73
10
74
8
42
0.0000001000
43
0.0000001000
44
0.0000000001
12
-1.8675152574
22
-0.9584299380
32
0.0000000000
13
-0.1143295434
23
-2.0959794699
33
0.0000000000
40
0.0000000000
40
0.0000000000
40
0.0000000000
40
0.0000000000
40
0.1273032949
40
0.2654379208
40
0.4116998160
40
0.5623093138
40
0.7133133743
40
0.8604388943
40
1.0000000000
40
1.0000000000
40
1.0000000000
40
1.0000000000
10
5.7382453326
20
14.1989872726
30
0.0000000000
10
5.6589983840
20
14.1583168429
30
0.0000000000
10
5.5025437240
20
14.0558871642
30
0.0000000000
10
5.2904337168
20
13.8594305367
30
0.0000000000
10
5.0988200960
20
13.6216480618
30
0.0000000000
10
4.9360048864
20
13.3528542648
30
0.0000000000
10
4.8090115723
20
13.0647042710
30
0.0000000000
10
4.7233573092
20
12.7697532260
30
0.0000000000
10
4.6953892506
20
12.5701604858
30
0.0000000000
10
4.6900705981
20
12.4726547484
30
0.0000000000
11
5.7382453326
21
14.1989872726
31
0.0000000000
11
5.5134591077
21
14.0544929217
31
0.0000000000
11
5.2996341954
21
13.8586501221
31
0.0000000000
11
5.1062806768
21
13.6201668718
31
0.0000000000
11
4.9422044931
21
13.3499339345
31
0.0000000000
11
4.8145913633
21
13.0597855491
31
0.0000000000
11
4.7292868991
21
12.7629700836
31
0.0000000000
11
4.6900705981
21
12.4726547484
31
0.0000000000
0
SPLINE
5
228
100
AcDbEntity
8
0
100
AcDbSpline
62
9
6
CONTINUOUS
70
0
71
3
72
12
73
8
74
6
42
0.0000001000
43
0.0000001000
44
0.0000000001
12
-0.0171191055
22
1.1726566176
32
0.0000000000
13
-1.0413034518
23
0.5395402931
33
0.0000000000
40
0.0000000000
40
0.0000000000
40
0.0000000000
40
0.0000000000
40
0.1949325823
40
0.4051291940
40
0.6178337739
40
0.8197632458
40
1.0000000000
40
1.0000000000
40
1.0000000000
40
1.0000000000
10
6.3038446009
20
13.2234728353
30
0.0000000000
10
6.3027322437
20
13.2996691628
30
0.0000000000
10
6.2797203723
20
13.4579598231
30
0.0000000000
10
6.1982958264
20
13.6866751241
30
0.0000000000
10
6.0754218394
20
13.8994703063
30
0.0000000000
10
5.9225887402
20
14.0765394312
30
0.0000000000
10
5.8008057192
20
14.1665722764
30
0.0000000000
10
5.7382453344
20
14.1989872735
30
0.0000000000
11
6.3038446009
21
13.2234728353
31
0.0000000000
11
6.2735538608
21
13.4500705627
31
0.0000000000
11
6.1918499679
21
13.6826516820
31
0.0000000000
11
6.0667268554
21
13.8984583271
31
0.0000000000
11
5.9104273541
21
14.0763734239
31
0.0000000000
11
5.7382453344
21
14.1989872735
31
0.0000000000
0
SPLINE
5
229
100
AcDbEntity
8
0
100
AcDbSpline
62
9
6
CONTINUOUS
70
0
71
3
72
11
73
7
74
5
42
0.0000001000
43
0.0000001000
44
0.0000000001
12
-1.9312080203
22
-35.1208247936
32
0.0000000000
13
2.0391528735
23
-35.1147227550
33
0.0000000000
40
0.0000000000
40
0.0000000000
40
0.0000000000
40
0.0000000000
40
0.2550555274
40
0.5068029189
40
0.7551459313
40
1.0000000000
40
1.0000000000
40
1.0000000000
40
1.0000000000
10
5.8101795238
20
12.4201094245
30
0.0000000000
10
5.6459910971
20
9.4341892612
30
0.0000000000
10
5.3986050746
20
3.4964118895
30
0.0000000000
10
5.2729545724
20
-5.3576083311
30
0.0000000000
10
5.3952309390
20
-14.0920872729
30
0.0000000000
10
5.6437478979
20
-19.8702841445
30
0.0000000000
10
5.8101795238
20
-22.7362783909
30
0.0000000000
11
5.8101795238
21
12.4201094245
31
0.0000000000
11
5.4382886602
21
3.4565280680
31
0.0000000000
11
5.3142768679
21
-5.3975362768
31
0.0000000000
11
5.4382890993
21
-14.1318434839
31
0.0000000000
11
5.8101795238
21
-22.7362783909
31
0.0000000000
0
SPLINE
5
22A
100
AcDbEntity
8
0
100
AcDbSpline
62
9
6
CONTINUOUS
70
0
71
3
72
11
73
7
74
5
42
0.0000001000
43
0.0000001000
44
0.0000000001
12
-1.9362859682
22
-35.2147338485
32
0.0000000000
13
2.0445204637
23
-35.2086156991
33
0.0000000000
40
0.0000000000
40
0.0000000000
40
0.0000000000
40
0.0000000000
40
0.2550561976
40
0.5068030150
40
0.7551453129
40
1.0000000000
40
1.0000000000
40
1.0000000000
40
1.0000000000
10
4.6900705981
20
12.4726547484
30
0.0000000000
10
4.5254500192
20
9.4787427100
30
0.0000000000
10
4.2774148315
20
3.5250876276
30
0.0000000000
10
4.1514339549
20
-5.3525987347
30
0.0000000000
10
4.2740313428
20
-14.1104235821
30
0.0000000000
10
4.5232004586
20
-19.9040692439
30
0.0000000000
10
4.6900705981
20
-22.7777341039
30
0.0000000000
11
4.6900705981
21
12.4726547484
31
0.0000000000
11
4.3172020110
21
3.4850826584
31
0.0000000000
11
4.1928647466
21
-5.3926350871
31
0.0000000000
11
4.3172020107
21
-14.1502705511
31
0.0000000000
11
4.6900705981
21
-22.7777341039
31
0.0000000000
0
SPLINE
5
22B
100
AcDbEntity
8
0
100
AcDbSpline
62
9
6
CONTINUOUS
70
0
71
3
72
12
73
8
74
6
42
0.0000001000
43
0.0000001000
44
0.0000000001
12
-1.0650832572
22
-0.4270667389
32
0.0000000000
13
-1.0257402614
23
0.5144368382
33
0.0000000000
40
0.0000000000
40
0.0000000000
40
0.0000000000
40
0.0000000000
40
0.1829157384
40
0.3895878537
40
0.6052825840
40
0.8137679916
40
1.0000000000
40
1.0000000000
40
1.0000000000
40
1.0000000000
10
5.8101795238
20
12.4201094245
30
0.0000000000
10
5.7452393603
20
12.3940703485
30
0.0000000000
10
5.5999845812
20
12.3558306605
30
0.0000000000
10
5.3687783748
20
12.3340855573
30
0.0000000000
10
5.1268922954
20
12.3455030558
30
0.0000000000
10
4.8967929882
20
12.3890403659
30
0.0000000000
10
4.7537458406
20
12.4407198880
30
0.0000000000
10
4.6900706176
20
12.4726547565
30
0.0000000000
11
5.8101795238
21
12.4201094245
31
0.0000000000
11
5.6080571427
21
12.3635067050
31
0.0000000000
11
5.3720785197
21
12.3398730775
31
0.0000000000
11
5.1248376940
21
12.3514713702
31
0.0000000000
11
4.8900070173
21
12.3971910916
31
0.0000000000
11
4.6900706176
21
12.4726547565
31
0.0000000000
0
SPLINE
5
22C
100
AcDbEntity
8
0
100
AcDbSpline
62
9
6
CONTINUOUS
70
0
71
3
72
14
73
10
74
8
42
0.0000001000
43
0.0000001000
44
0.0000000001
12
0.0420293567
22
-0.7219295485
32
0.0000000000
13
0.6565808728
23
0.3030681396
33
0.0000000000
40
0.0000000000
40
0.0000000000
40
0.0000000000
40
0.0000000000
40
0.1640186606
40
0.3126310903
40
0.4479754641
40
0.5762950785
40
0.7063587872
40
0.8460871784
40
1.0000000000
40
1.0000000000
40
1.0000000000
40
1.0000000000
10
5.8101795238
20
-22.7362783909
30
0.0000000000
10
5.8124773901
20
-22.7757483634
30
0.0000000000
10
5.8234566981
20
-22.8509037683
30
0.0000000000
10
5.8628690229
20
-22.9526125479
30
0.0000000000
10
5.9238638241
20
-23.0330664994
30
0.0000000000
10
6.0043845856
20
-23.0868396481
30
0.0000000000
10
6.0994289347
20
-23.1099066728
30
0.0000000000
10
6.2026209601
20
-23.1019511560
30
0.0000000000
10
6.2701591960
20
-23.0784636691
30
0.0000000000
10
6.3038446009
20
-23.0629149782
30
0.0000000000
11
5.8101795238
21
-22.7362783909
31
0.0000000000
11
5.8285463644
21
-22.8534581223
31
0.0000000000
11
5.8687005043
21
-22.9531441800
31
0.0000000000
11
5.9288327927
21
-23.0303681074
31
0.0000000000
11
6.0062092134
21
-23.0815904016
31
0.0000000000
11
6.0974231455
21
-23.1045363528
31
0.0000000000
11
6.1982658314
21
-23.0981476059
31
0.0000000000
11
6.3038446009
21
-23.0629149782
31
0.0000000000
0
SPLINE
5
22D
100
AcDbEntity
8
0
100
AcDbSpline
62
9
6
CONTINUOUS
70
0
71
3
72
11
73
7
74
5
42
0.0000001000
43
0.0000001000
44
0.0000000001
12
0.0494845316
22
-0.8586872309
32
0.0000000000
13
0.7716015877
23
-0.3884572767
33
0.0000000000
40
0.0000000000
40
0.0000000000
40
0.0000000000
40
0.0000000000
40
0.2961946586
40
0.5628458953
40
0.8049852254
40
1.0000000000
40
1.0000000000
40
1.0000000000
40
1.0000000000
10
4.6900705981
20
-22.7777341039
30
0.0000000000
10
4.6949562827
20
-22.8625136276
30
0.0000000000
10
4.7183048689
20
-23.0234608249
30
0.0000000000
10
4.8020733837
20
-23.2409939723
30
0.0000000000
10
4.9255037301
20
-23.4046735786
30
0.0000000000
10
5.0296461627
20
-23.4780321886
30
0.0000000000
10
5.0798040660
20
-23.5032838247
30
0.0000000000
11
4.6900705981
21
-22.7777341039
31
0.0000000000
11
4.7292846778
21
-23.0294585445
31
0.0000000000
11
4.8145901253
21
-23.2423537253
31
0.0000000000
11
4.9421980593
21
-23.4069481504
31
0.0000000000
11
5.0798040660
21
-23.5032838247
31
0.0000000000
0
SPLINE
5
22E
100
AcDbEntity
8
0
100
AcDbSpline
62
9
6
CONTINUOUS
70
0
71
3
72
12
73
8
74
6
42
0.0000001000
43
0.0000001000
44
0.0000000001
12
-1.0074231114
22
-0.5688984620
32
0.0000000000
13
-1.0353779144
23
0.5162745004
33
0.0000000000
40
0.0000000000
40
0.0000000000
40
0.0000000000
40
0.0000000000
40
0.1896346968
40
0.3980581446
40
0.6119013640
40
0.8167710365
40
1.0000000000
40
1.0000000000
40
1.0000000000
40
1.0000000000
10
5.8101795238
20
-22.7362783909
30
0.0000000000
10
5.7464987317
20
-22.7722393533
30
0.0000000000
10
5.6029912830
20
-22.8305968465
30
0.0000000000
10
5.3708322883
20
-22.8781554675
30
0.0000000000
10
5.1279793928
20
-22.8873067167
30
0.0000000000
10
4.8967576084
20
-22.8572391756
30
0.0000000000
10
4.7533191763
20
-22.8092595387
30
0.0000000000
10
4.6900821023
20
-22.7777273915
30
0.0000000000
11
5.8101795238
21
-22.7362783909
31
0.0000000000
11
5.6080586850
21
-22.8216193159
31
0.0000000000
11
5.3720825547
21
-22.8712397231
31
0.0000000000
11
5.1248446165
21
-22.8803887173
31
0.0000000000
11
4.8900166135
21
-22.8481903304
31
0.0000000000
11
4.6900821023
21
-22.7777273915
31
0.0000000000
0
SPLINE
5
22F
100
AcDbEntity
8
0
100
AcDbSpline
62
9
6
CONTINUOUS
70
0
71
3
72
10
73
6
74
4
42
0.0000001000
43
0.0000001000
44
0.0000000001
12
0.3381206976
22
0.1847642844
32
0.0000000000
13
0.3439604937
23
-0.1659550522
33
0.0000000000
40
0.0000000000
40
0.0000000000
40
0.0000000000
40
0.0000000000
40
0.0963610294
40
0.5160581994
40
1.0000000000
40
1.0000000000
40
1.0000000000
40
1.0000000000
10
-9.0565257791
20
21.4275935355
30
0.0000000000
10
-9.0456652263
20
21.4335282277
30
0.0000000000
10
-8.9856665036
20
21.4617294120
30
0.0000000000
10
-8.8539728589
20
21.4749120065
30
0.0000000000
10
-8.7421560761
20
21.4382160290
30
0.0000000000
10
-8.6866704559
20
21.4114451668
30
0.0000000000
11
-9.0565257791
21
21.4275935355
31
0.0000000000
11
-9.0229810535
21
21.4433138914
31
0.0000000000
11
-8.8639837597
21
21.4635795155
31
0.0000000000
11
-8.6866704559
21
21.4114451668
31
0.0000000000
0
SPLINE
5
230
100
AcDbEntity
8
0
100
AcDbSpline
62
9
6
CONTINUOUS
70
0
71
3
72
10
73
6
74
4
42
0.0000001000
43
0.0000001000
44
0.0000000001
12
-0.0073989744
22
-0.5139750024
32
0.0000000000
13
-0.4687657497
23
-0.2190887816
33
0.0000000000
40
0.0000000000
40
0.0000000000
40
0.0000000000
40
0.0000000000
40
0.3962932573
40
0.7347128000
40
1.0000000000
40
1.0000000000
40
1.0000000000
40
1.0000000000
10
6.3038446009
20
-23.0629149782
30
0.0000000000
10
6.3028672130
20
-23.1308099209
30
0.0000000000
10
6.2866208578
20
-23.2574695810
30
0.0000000000
10
6.2093620461
20
-23.4154049590
30
0.0000000000
10
6.1249676572
20
-23.4820362356
30
0.0000000000
10
6.0835151395
20
-23.5014100521
30
0.0000000000
11
6.3038446009
21
-23.0629149782
31
0.0000000000
11
6.2735533435
21
-23.2643561519
31
0.0000000000
11
6.1918485848
21
-23.4179316785
31
0.0000000000
11
6.0835151395
21
-23.5014100521
31
0.0000000000
0
SPLINE
5
231
100
AcDbEntity
8
0
100
AcDbSpline
62
9
6
CONTINUOUS
70
0
71
3
72
14
73
10
74
8
42
0.0000001000
43
0.0000001000
44
0.0000000001
12
0.1122266853
22
2.0923518248
32
0.0000000000
13
1.8514980471
23
0.9810636928
33
0.0000000000
40
0.0000000000
40
0.0000000000
40
0.0000000000
40
0.0000000000
40
0.1399196581
40
0.2874436596
40
0.4387751802
40
0.5895438837
40
0.7357155605
40
0.8734482251
40
1.0000000000
40
1.0000000000
40
1.0000000000
40
1.0000000000
10
-9.7179069367
20
19.6766435158
30
0.0000000000
10
-9.7126726969
20
19.7742305664
30
0.0000000000
10
-9.6851505547
20
19.9740259387
30
0.0000000000
10
-9.6009136873
20
20.2695725161
30
0.0000000000
10
-9.4760251355
20
20.5586724612
30
0.0000000000
10
-9.3159073485
20
20.8287234342
30
0.0000000000
10
-9.1274734642
20
21.0680166592
30
0.0000000000
10
-8.9188862393
20
21.2661754410
30
0.0000000000
10
-8.7647739106
20
21.3700600496
30
0.0000000000
10
-8.6866704559
20
21.4114451668
30
0.0000000000
11
-9.7179069367
21
19.6766435158
31
0.0000000000
11
-9.6793242576
21
19.9672756619
31
0.0000000000
11
-9.5953979534
21
20.2647802075
31
0.0000000000
11
-9.4698477108
21
20.5559600365
31
0.0000000000
11
-9.3084230771
21
20.8275187487
31
0.0000000000
11
-9.1181950419
21
21.0675647407
31
0.0000000000
11
-8.9078246405
21
21.2651347958
31
0.0000000000
11
-8.6866704559
21
21.4114451668
31
0.0000000000
0
SPLINE
5
232
100
AcDbEntity
8
0
100
AcDbSpline
62
9
6
CONTINUOUS
70
0
71
3
72
11
73
7
74
5
42
0.0000001000
43
0.0000001000
44
0.0000000001
12
-1.9766695889
22
35.2113093402
32
0.0000000000
13
1.8683981415
23
35.2172204539
33
0.0000000000
40
0.0000000000
40
0.0000000000
40
0.0000000000
40
0.0000000000
40
0.2446667664
40
0.4929553626
40
0.7447692551
40
1.0000000000
40
1.0000000000
40
1.0000000000
40
1.0000000000
10
-9.7179069367
20
-15.5737453365
30
0.0000000000
10
-9.8791153889
20
-12.7020662709
30
0.0000000000
10
-10.1197723025
20
-6.9111616329
30
0.0000000000
10
-10.2381086024
20
1.8443005336
30
0.0000000000
10
-10.1163887848
20
10.7238835713
30
0.0000000000
10
-9.8768644866
20
16.6804710455
30
0.0000000000
10
-9.7179069367
20
19.6766435158
30
0.0000000000
11
-9.7179069367
21
-15.5737453365
31
0.0000000000
11
-10.0780154780
21
-6.9526618067
31
0.0000000000
11
-10.1980977605
21
1.8028461664
31
0.0000000000
11
-10.0780154780
21
10.6826914029
31
0.0000000000
11
-9.7179069367
21
19.6766435158
31
0.0000000000
0
SPLINE
5
233
100
AcDbEntity
8
0
100
AcDbSpline
62
9
6
CONTINUOUS
70
0
71
3
72
8
73
4
74
2
42
0.0000001000
43
0.0000001000
44
0.0000000001
12
0.7102060098
22
0.5219552241
32
1.1957918014
13
0.7129151248
23
0.5233341094
33
1.1937096694
40
0.0000000000
40
0.0000000000
40
0.0000000000
40
0.0000000000
40
1.0000000000
40
1.0000000000
40
1.0000000000
40
1.0000000000
10
-6.4590965693
20
-11.1257226845
30
-6.8782777341
10
-6.2223612327
20
-10.9517376098
30
-6.4796804670
10
-5.9851736493
20
-10.7775221864
30
-6.0814290001
10
-5.7475352743
20
-10.6030774833
30
-5.6835257770
11
-6.4590965693
21
-11.1257226845
31
-6.8782777341
11
-5.7475352743
21
-10.6030774833
31
-5.6835257770
0
SPLINE
5
234
100
AcDbEntity
8
0
100
AcDbSpline
62
9
6
CONTINUOUS
70
0
71
3
72
26
73
22
74
20
42
0.0000001000
43
0.0000001000
44
0.0000000001
12
2.1701716157
22
5.4799090136
32
6.1798200704
13
-2.2551899168
23
-5.1828906578
33
-6.1796656455
40
0.0000000000
40
0.0000000000
40
0.0000000000
40
0.0000000000
40
0.0689655172
40
0.1379310345
40
0.2068965517
40
0.2758620690
40
0.3448275862
40
0.4137931034
40
0.4827586207
40
0.5517241379
40
0.6206896552
40
0.6896551724
40
0.7241379310
40
0.7586206897
40
0.7931034483
40
0.8275862069
40
0.8620689655
40
0.8965517241
40
0.9310344828
40
0.9655172414
40
1.0000000000
40
1.0000000000
40
1.0000000000
40
1.0000000000
10
-2.7728113007
20
-12.0904394701
30
-3.1073392465
10
-2.7229222980
20
-11.9644645503
30
-2.9652744173
10
-2.5976637095
20
-11.7471578776
30
-2.6739635835
10
-2.3312128796
20
-11.5153015298
30
-2.2059222064
10
-2.0047178126
20
-11.3964009403
30
-1.7405303935
10
-1.6283721419
20
-11.3937453636
30
-1.2914401914
10
-1.2276065930
20
-11.5071512657
30
-0.8883286505
10
-0.8123441583
20
-11.7344788212
30
-0.5413862288
10
-0.4131609616
20
-12.0583703969
30
-0.2758064141
10
-0.0371500015
20
-12.4734430973
30
-0.0968644420
10
0.2860564964
20
-12.9462935406
30
-0.0187063067
10
0.5082462816
20
-13.3834214365
30
-0.0385462993
10
0.6461643367
20
-13.7370996226
30
-0.1052162371
10
0.7301750570
20
-14.0035231863
30
-0.1795477046
10
0.7941458977
20
-14.2706974565
30
-0.2787302900
10
0.8362675591
20
-14.5326132872
30
-0.4010256952
10
0.8560503210
20
-14.7835956382
30
-0.5432946071
10
0.8539152006
20
-15.0234244965
30
-0.7048865685
10
0.8294047119
20
-15.2514538277
30
-0.8859224433
10
0.7826092779
20
-15.4623055259
30
-1.0827008891
10
0.7375127755
20
-15.5885399929
30
-1.2212780696
10
0.7115910523
20
-15.6481134487
30
-1.2923087092
11
-2.7728113007
21
-12.0904394701
31
-3.1073392465
11
-2.5845698850
21
-11.7628418211
31
-2.6687843958
11
-2.3212055067
21
-11.5341274895
31
-2.2063638005
11
-1.9964093786
21
-11.4157751091
31
-1.7432473286
11
-1.6243021622
21
-11.4130889434
31
-1.2991033016
11
-1.2251904453
21
-11.5261382079
31
-0.8976901703
11
-0.8150240313
21
-11.7505728246
31
-0.5549466633
11
-0.4170230010
21
-12.0735672510
31
-0.2902460545
11
-0.0459507452
21
-12.4830727211
31
-0.1136617481
11
0.2766267038
21
-12.9549107126
31
-0.0357006611
11
0.5394063143
21
-13.4721723055
31
-0.0594469457
11
0.6429263665
21
-13.7372937767
31
-0.1092710728
11
0.7268350770
21
-14.0036483040
31
-0.1836895576
11
0.7905043678
21
-14.2698210499
31
-0.2825824266
11
0.8325444092
21
-14.5307910406
31
-0.4043546129
11
0.8523973406
21
-14.7817367227
31
-0.5465151153
11
0.8501859726
21
-15.0214579086
31
-0.7081272207
11
0.8256905544
21
-15.2485908889
31
-0.8885462051
11
0.7791343913
21
-15.4587221929
31
-1.0845487766
11
0.7115910523
21
-15.6481134487
31
-1.2923087092
0
SPLINE
5
235
100
AcDbEntity
8
0
100
AcDbSpline
62
9
6
CONTINUOUS
70
0
71
3
72
27
73
23
74
21
42
0.0000001000
43
0.0000001000
44
0.0000000001
12
-0.0636727842
22
1.7660789357
32
1.0931691471
13
0.0637423712
23
-1.7680090552
33
-1.0943638542
40
0.0000000000
40
0.0000000000
40
0.0000000000
40
0.0000000000
40
0.0454545455
40
0.0909090909
40
0.1363636364
40
0.1818181818
40
0.2727272727
40
0.3181818182
40
0.3636363636
40
0.4090909091
40
0.4545454545
40
0.5000000000
40
0.5454545455
40
0.5909090909
40
0.6363636364
40
0.6818181818
40
0.7272727273
40
0.8181818182
40
0.8636363636
40
0.9090909091
40
0.9545454545
40
1.0000000000
40
1.0000000000
40
1.0000000000
40
1.0000000000
10
0.0392147498
20
-14.3748783441
30
-1.2505750501
10
0.0382500107
20
-14.3481195723
30
-1.2340118812
10
0.0332278245
20
-14.2946081875
30
-1.2046083841
10
0.0168063029
20
-14.2112558560
30
-1.1691457596
10
-0.0087214410
20
-14.1254476362
30
-1.1430003632
10
-0.0538937234
20
-14.0116190977
30
-1.1218985365
10
-0.1151803366
20
-13.9010877250
30
-1.1223139877
10
-0.1873884489
20
-13.8030304772
30
-1.1440462232
10
-0.2461960333
20
-13.7363648591
30
-1.1704472774
10
-0.3094342006
20
-13.6771993646
30
-1.2070878577
10
-0.3749977708
20
-13.6278310871
30
-1.2529568084
10
-0.4405123025
20
-13.5897142497
30
-1.3061689479
10
-0.5056247857
20
-13.5627233126
30
-1.3662184413
10
-0.5698575035
20
-13.5473558707
30
-1.4328632618
10
-0.6309809229
20
-13.5444291338
30
-1.5039813364
10
-0.6871634084
20
-13.5537708638
30
-1.5772774254
10
-0.7549186893
20
-13.5820512136
30
-1.6768922636
10
-0.8103214478
20
-13.6343468351
30
-1.7776053113
10
-0.8486122255
20
-13.7059770314
30
-1.8706807185
10
-0.8687326200
20
-13.7685420313
30
-1.9360817883
10
-0.8796931304
20
-13.8381003385
30
-1.9951897874
10
-0.8809898592
20
-13.8884709203
30
-2.0300779460
10
-0.8800240657
20
-13.9152589363
30
-2.0466592165
11
0.0392147498
21
-14.3748783441
31
-1.2505750501
11
0.0317464508
21
-14.2940939785
31
-1.2060488209
11
0.0152885992
21
-14.2108465413
31
-1.1706986310
11
-0.0101133523
21
-14.1255204389
31
-1.1447202009
11
-0.0439435137
21
-14.0403509961
31
-1.1289670997
11
-0.1341424896
21
-13.8776129235
31
-1.1295234453
11
-0.1881636989
21
-13.8041766968
31
-1.1457298695
11
-0.2469344638
21
-13.7376148797
31
-1.1721538651
11
-0.3098217677
21
-13.6788322341
31
-1.2086259194
11
-0.3749895977
21
-13.6297063271
31
-1.2541806732
11
-0.4404452944
21
-13.5915685664
31
-1.3073085069
11
-0.5054781582
21
-13.5646605618
31
-1.3673176625
11
-0.5693392871
21
-13.5494293215
31
-1.4336088041
11
-0.6301574339
21
-13.5464738783
31
-1.5043443388
11
-0.6862690709
21
-13.5557489525
31
-1.5775132653
11
-0.7369504922
21
-13.5769823988
31
-1.6520800715
11
-0.8184681438
21
-13.6538655987
31
-1.8002376930
11
-0.8471792774
21
-13.7074507568
31
-1.8699464709
11
-0.8672059726
21
-13.7697075825
31
-1.9350329432
11
-0.8781905608
21
-13.8390999328
31
-1.9940604938
11
-0.8800240657
21
-13.9152589363
31
-2.0466592165
0
SPLINE
5
236
100
AcDbEntity
8
0
100
AcDbSpline
62
9
6
CONTINUOUS
70
0
71
3
72
8
73
4
74
2
42
0.0000001000
43
0.0000001000
44
0.0000000001
12
-0.7772100492
22
1.2630514951
32
-0.0878375292
13
-0.7747261787
23
1.2645546002
33
-0.0901089455
40
0.0000000000
40
0.0000000000
40
0.0000000000
40
0.0000000000
40
1.0000000000
40
1.0000000000
40
1.0000000000
40
1.0000000000
10
-5.6831276616
20
-12.3895270249
30
-6.7893044058
10
-5.9421976780
20
-11.9685098599
30
-6.8185835821
10
-6.2008545097
20
-11.5472408846
30
-6.8482414189
10
-6.4590965693
20
-11.1257226845
30
-6.8782777341
11
-5.6831276616
21
-12.3895270249
31
-6.7893044058
11
-6.4590965693
21
-11.1257226845
31
-6.8782777341
0
SPLINE
5
237
100
AcDbEntity
8
0
100
AcDbSpline
62
9
6
CONTINUOUS
70
0
71
3
72
27
73
23
74
21
42
0.0000001000
43
0.0000001000
44
0.0000000001
12
0.0636743847
22
-1.7661233294
32
-1.0931966260
13
-0.0637442288
23
1.7680605797
33
1.0943957470
40
0.0000000000
40
0.0000000000
40
0.0000000000
40
0.0000000000
40
0.0454545455
40
0.0909090909
40
0.1363636364
40
0.1818181818
40
0.2727272727
40
0.3181818182
40
0.3636363636
40
0.4090909091
40
0.4545454545
40
0.5000000000
40
0.5454545455
40
0.5909090909
40
0.6363636364
40
0.6818181818
40
0.7272727273
40
0.8181818182
40
0.8636363636
40
0.9090909091
40
0.9545454545
40
1.0000000000
40
1.0000000000
40
1.0000000000
40
1.0000000000
10
-0.8800240657
20
-13.9152589363
30
-2.0466592165
10
-0.8790593023
20
-13.9420183807
30
-2.0632228017
10
-0.8740231195
20
-13.9955242706
30
-2.0926388987
10
-0.8575422412
20
-14.0788496850
30
-2.1281529758
10
-0.8319184125
20
-14.1646157209
30
-2.1543804676
10
-0.7865811088
20
-14.2783691233
30
-2.1756211823
10
-0.7250920065
20
-14.3888050114
30
-2.1753737104
10
-0.6526990171
20
-14.4867678325
30
-2.1537974073
10
-0.5937709598
20
-14.5533697912
30
-2.1274994874
10
-0.5304404374
20
-14.6124825063
30
-2.0909420231
10
-0.4648211201
20
-14.6618163434
30
-2.0451271711
10
-0.3992921222
20
-14.6999197958
30
-1.9919362096
10
-0.3342053944
20
-14.7269194057
30
-1.9318741239
10
-0.2700370484
20
-14.7423176263
30
-1.8651817863
10
-0.2090119906
20
-14.7452943656
30
-1.7939853896
10
-0.1529510491
20
-14.7360162625
30
-1.7205864233
10
-0.0853783240
20
-14.7078319322
30
-1.6208131576
10
-0.0301685844
20
-14.6556366971
30
-1.5199248580
10
0.0079659056
20
-14.5840845155
30
-1.4267051034
10
0.0279948966
20
-14.5215631419
30
-1.3612188133
10
0.0388975089
20
-14.4520322265
30
-1.3020580199
10
0.0401805715
20
-14.4016671407
30
-1.2671568038
10
0.0392147498
20
-14.3748783441
30
-1.2505750501
11
-0.8800240657
21
-13.9152589363
31
-2.0466592165
11
-0.8725353522
21
-13.9960353672
31
-2.0912038873
11
-0.8560184161
21
-14.0792564552
31
-2.1266052116
11
-0.8305218876
21
-14.1645405569
31
-2.1526643083
11
-0.7965694515
21
-14.2496543132
31
-2.1685203214
11
-0.7060851019
21
-14.4122562944
31
-2.1682022320
11
-0.6519267979
21
-14.4856228063
31
-2.1521114585
11
-0.5930372156
21
-14.5521215839
31
-2.1257895634
11
-0.5300589716
21
-14.6108526933
31
-2.0893991252
11
-0.4648361734
21
-14.6599446126
31
-2.0438978195
11
-0.3993658339
21
-14.6980691554
31
-1.9907910222
11
-0.3343584581
21
-14.7249858408
31
-1.9307690819
11
-0.2705609297
21
-14.7402473794
31
-1.8644311098
11
-0.2098393433
21
-14.7432518919
31
-1.7936182947
11
-0.1538479487
21
-14.7340395717
31
-1.7203479261
11
-0.1033017541
21
-14.7128771061
31
-1.6456635545
11
-0.0220578994
21
-14.6361355728
31
-1.4972589647
11
0.0065372595
21
-14.5826083093
31
-1.4274431910
11
0.0264738335
21
-14.5203948849
31
-1.3622730627
11
0.0374011725
21
-14.4510294409
31
-1.3031928481
11
0.0392147498
21
-14.3748783441
31
-1.2505750501
0
SPLINE
5
238
100
AcDbEntity
8
0
100
AcDbSpline
62
9
6
CONTINUOUS
70
0
71
3
72
18
73
14
74
12
42
0.0000001000
43
0.0000001000
44
0.0000000001
12
-1.6330685604
22
-3.7531277177
32
-4.4749302950
13
-1.9202582339
23
5.6876451884
33
1.5010210744
40
0.0000000000
40
0.0000000000
40
0.0000000000
40
0.0000000000
40
0.0476190476
40
0.1428571429
40
0.2380952381
40
0.3333333333
40
0.4285714286
40
0.5238095238
40
0.6190476190
40
0.7142857143
40
0.8095238095
40
0.9047619048
40
1.0000000000
40
1.0000000000
40
1.0000000000
40
1.0000000000
10
0.7115910523
20
-15.6481134487
30
-1.2923087092
10
0.6856693291
20
-15.7076869045
30
-1.3633393488
10
0.5977837436
20
-15.8757759390
30
-1.5816574157
10
0.3992959764
20
-16.0995101457
30
-1.9710308913
10
0.0987111784
20
-16.2567006295
30
-2.4392873112
10
-0.2607288873
20
-16.3007935726
30
-2.9024254772
10
-0.6507284290
20
-16.2280959205
30
-3.3233366077
10
-1.0643518855
20
-16.0405929342
30
-3.6946852193
10
-1.4712721898
20
-15.7514693608
30
-3.9888134220
10
-1.8614377763
20
-15.3682865465
30
-4.1989659485
10
-2.2085029969
20
-14.9161564075
30
-4.3108765657
10
-2.5016571582
20
-14.4082297157
30
-4.3210407847
10
-2.6474431091
20
-14.0574491764
30
-4.2607693380
10
-2.7084036879
20
-13.8768890117
30
-4.2131178753
11
0.7115910523
21
-15.6481134487
31
-1.2923087092
11
0.6236114860
21
-15.8159853153
31
-1.5105853954
11
0.3888960635
21
-16.0809617183
31
-1.9711989328
11
0.0889019671
21
-16.2378510394
31
-2.4384342689
11
-0.2658221333
21
-16.2813284734
31
-2.8953876379
11
-0.6546657482
21
-16.2089616981
31
-3.3150761879
11
-1.0632346935
21
-16.0236561697
31
-3.6818151512
11
-1.4684797369
21
-15.7357928206
31
-3.9748174759
11
-1.8542543820
21
-15.3567953257
31
-4.1825922969
11
-2.1995178204
21
-14.9068569820
31
-4.2939188326
11
-2.4892446191
21
-14.4051890295
31
-4.3042788865
11
-2.7084036879
21
-13.8768890117
31
-4.2131178753
0
ENDSEC
0
SECTION
2
OBJECTS
0
DICTIONARY
5
239
100
AcDbDictionary
3
ACAD_GROUP
350
23A
3
ACAD_MLINESTYLE
350
23B
0
DICTIONARY
5
23A
102
{ACAD_REACTORS
330
239
102
}
100
AcDbDictionary
0
DICTIONARY
5
23B
102
{ACAD_REACTORS
330
239
102
}
100
AcDbDictionary
3
STANDARD
350
23C
0
MLINESTYLE
5
23C
102
{ACAD_REACTORS
330
23B
102
}
100
AcDbMlineStyle
2
STANDARD
70
0
3

62
256
51
90.0
52
90.0
71
2
49
0.5
62
256
6
BYLAYER
49
-0.5
62
256
6
BYLAYER
0
ENDSEC
0
EOF
