0
SECTION
2
HEADER
9
$ACADVER
1
AC1015
9
$DWGCODEPAGE
3
ANSI_1252
9
$EXTMAX
10
431.8000000000
20
558.8000000000
30
0.0000000000
9
$EXTMIN
10
0.0000000000
20
0.0000000000
30
0.0000000000
9
$LIMMIN
10
0.0000000000
20
0.0000000000
9
$LIMMAX
10
431.8000000000
20
558.8000000000
9
$VIEWCTR
10
215.9000000000
20
279.4000000000
9
$VIEWSIZE
40
558.8000000000
9
$CLAYER
8
0
9
$LTSCALE
40
36.4254814815
9
$CELTYPE
6
BYLAYER
9
$DIMSCALE
40
1
9
$DIMASZ
40
3.0000000000
9
$DIMEXO
40
4.1392592593
9
$DIMDLI
40
25.1666962963
9
$DIMEXE
40
11.9210666667
9
$DIMCEN
40
5.9605333333
9
$DIMLFAC
40
1.0000000000
9
$DIMBLK
1
_FILLED
9
$DIMTXT
40
3.0000000000
9
$DIMTOL
70
1
9
$DIMLIM
70
0
9
$DIMTFAC
40
1.0000000000
9
$DIMTP
40
0.0100000000
9
$DIMTM
40
0.0100000000
9
$PDMODE
70
3
9
$PDSIZE
40
3.0000000000
9
$HANDSEED
5
3CA
9
$MEASUREMENT
70
1
9
$INSUNITS
70
4
0
ENDSEC
0
SECTION
2
CLASSES
0
CLASS
1
ACDBDICTIONARYWDFLT
2
AcDbDictionaryWithDefault
3
AutoCAD 2000
90
0
280
0
281
0
0
CLASS
1
ACDBPLACEHOLDER
2
AcDbPlaceHolder
3
AutoCAD 2000
90
0
280
0
281
0
0
CLASS
1
LAYOUT
2
AcDbLayout
3
AutoCAD 2000
90
0
280
0
281
0
0
ENDSEC
0
SECTION
2
TABLES
0
TABLE
2
VPORT
5
8
100
AcDbSymbolTable
70
2
0
VPORT
5
1F4
100
AcDbSymbolTableRecord
100
AcDbViewportTableRecord
2
*ACTIVE
70
0
10
0.0
20
0.0
11
1.0
21
1.0
12
215.9000000000
22
279.4000000000
13
0.0
23
0.0
14
1.0
24
1.0
15
0.0
25
0.0
16
0.0
26
0.0
36
1.0
17
0.0
27
0.0
37
0.0
40
558.8000000000
41
0.7727272727
42
50.0
43
0.0
44
0.0
50
0.0
51
0.0
71
0
72
100
73
1
74
1
75
0
76
0
77
0
78
0
0
ENDTAB
0
TABLE
2
LTYPE
5
5
100
AcDbSymbolTable
70
6
0
LTYPE
5
14
100
AcDbSymbolTableRecord
100
AcDbLinetypeTableRecord
2
BYBLOCK
70
0
3

72
65
73
0
40
0.0
0
LTYPE
5
15
100
AcDbSymbolTableRecord
100
AcDbLinetypeTableRecord
2
BYLAYER
70
0
3

72
65
73
0
40
0.0
0
LTYPE
5
16
100
AcDbSymbolTableRecord
100
AcDbLinetypeTableRecord
2
CONTINUOUS
70
64
3
Solid line
72
65
73
0
40
0
0
LTYPE
5
1F5
100
AcDbSymbolTableRecord
100
AcDbLinetypeTableRecord
2
CENTER
70
64
3
____ _ ____ _ ____ _ ____ _ ____ _ ____ _ ____
72
65
73
4
40
0.6
49
0.375
74
0
49
-0.075
74
0
49
0.075
74
0
49
-0.075
74
0
0
LTYPE
5
1F6
100
AcDbSymbolTableRecord
100
AcDbLinetypeTableRecord
2
HIDDEN
70
64
3
- - - - - - - - - - - - - - - - - - - -
72
65
73
2
40
0.2
49
0.1
74
0
49
-0.1
74
0
0
LTYPE
5
1F7
100
AcDbSymbolTableRecord
100
AcDbLinetypeTableRecord
2
PHANTOM
70
64
3
_____ _ _ _____ _ _ _____ _ _ _____
72
65
73
6
40
0.8
49
0.45
74
0
49
-0.05
74
0
49
0.1
74
0
49
-0.05
74
0
49
0.1
74
0
49
-0.05
74
0
0
LTYPE
5
1F8
100
AcDbSymbolTableRecord
100
AcDbLinetypeTableRecord
2
DOT
70
64
3
. . . . . . . . . . . . . . . . . . . .
72
65
73
2
40
0.2
49
0.1
74
0
49
-0.1
74
0
0
LTYPE
5
1F9
100
AcDbSymbolTableRecord
100
AcDbLinetypeTableRecord
2
DASHED
70
64
3
- - - - - - - - - - - - - - - - - - - -
72
65
73
2
40
0.2
49
0.1
74
0
49
-0.1
74
0
0
ENDTAB
0
TABLE
2
LAYER
5
2
100
AcDbSymbolTable
70
36
0
LAYER
5
10
100
AcDbSymbolTableRecord
100
AcDbLayerTableRecord
2
0
70
0
62
7
6
CONTINUOUS
370
-3
390
F
0
LAYER
5
1FA
100
AcDbSymbolTableRecord
100
AcDbLayerTableRecord
2
DEFAULT_1
70
0
62
7
6
CENTER
370
-3
390
F
0
LAYER
5
1FB
100
AcDbSymbolTableRecord
100
AcDbLayerTableRecord
2
DEFAULT_2
70
0
62
9
6
HIDDEN
370
-3
390
F
0
LAYER
5
1FC
100
AcDbSymbolTableRecord
100
AcDbLayerTableRecord
2
DEFAULT_3
70
0
62
7
6
PHANTOM
370
-3
390
F
0
LAYER
5
1FD
100
AcDbSymbolTableRecord
100
AcDbLayerTableRecord
2
_2D_DELETED_OBJS
70
0
62
7
6
CONTINUOUS
370
-3
390
F
0
LAYER
5
1FE
100
AcDbSymbolTableRecord
100
AcDbLayerTableRecord
2
_BLACK_HOLE
70
0
62
7
6
CONTINUOUS
370
-3
390
F
0
LAYER
5
1FF
100
AcDbSymbolTableRecord
100
AcDbLayerTableRecord
2
ASSI
70
0
62
7
6
CONTINUOUS
370
-3
390
F
0
LAYER
5
200
100
AcDbSymbolTableRecord
100
AcDbLayerTableRecord
2
COORDINATE
70
0
62
7
6
CONTINUOUS
370
-3
390
F
0
LAYER
5
201
100
AcDbSymbolTableRecord
100
AcDbLayerTableRecord
2
COORD_ORIGINE
70
0
62
7
6
CONTINUOUS
370
-3
390
F
0
LAYER
5
202
100
AcDbSymbolTableRecord
100
AcDbLayerTableRecord
2
COPY_PUBLISH
70
0
62
7
6
CONTINUOUS
370
-3
390
F
0
LAYER
5
203
100
AcDbSymbolTableRecord
100
AcDbLayerTableRecord
2
COSMETIC
70
0
62
7
6
CONTINUOUS
370
-3
390
F
0
LAYER
5
204
100
AcDbSymbolTableRecord
100
AcDbLayerTableRecord
2
CURVE
70
0
62
7
6
CONTINUOUS
370
-3
390
F
0
LAYER
5
205
100
AcDbSymbolTableRecord
100
AcDbLayerTableRecord
2
DRAFT
70
0
62
7
6
CONTINUOUS
370
-3
390
F
0
LAYER
5
206
100
AcDbSymbolTableRecord
100
AcDbLayerTableRecord
2
IMPORT
70
0
62
7
6
CONTINUOUS
370
-3
390
F
0
LAYER
5
207
100
AcDbSymbolTableRecord
100
AcDbLayerTableRecord
2
IMPORT_IGES
70
0
62
7
6
CONTINUOUS
370
-3
390
F
0
LAYER
5
208
100
AcDbSymbolTableRecord
100
AcDbLayerTableRecord
2
INCISIONI_LASER
70
0
62
7
6
CONTINUOUS
370
-3
390
F
0
LAYER
5
209
100
AcDbSymbolTableRecord
100
AcDbLayerTableRecord
2
NOTE
70
0
62
7
6
CONTINUOUS
370
-3
390
F
0
LAYER
5
20A
100
AcDbSymbolTableRecord
100
AcDbLayerTableRecord
2
PIANI
70
0
62
7
6
CONTINUOUS
370
-3
390
F
0
LAYER
5
20B
100
AcDbSymbolTableRecord
100
AcDbLayerTableRecord
2
PIANI_ORIGINE
70
0
62
7
6
CONTINUOUS
370
-3
390
F
0
LAYER
5
20C
100
AcDbSymbolTableRecord
100
AcDbLayerTableRecord
2
PUNTI
70
0
62
7
6
CONTINUOUS
370
-3
390
F
0
LAYER
5
20D
100
AcDbSymbolTableRecord
100
AcDbLayerTableRecord
2
RACCORDO
70
0
62
7
6
CONTINUOUS
370
-3
390
F
0
LAYER
5
20E
100
AcDbSymbolTableRecord
100
AcDbLayerTableRecord
2
SMUSSO
70
0
62
7
6
CONTINUOUS
370
-3
390
F
0
LAYER
5
20F
100
AcDbSymbolTableRecord
100
AcDbLayerTableRecord
2
SUPERFICI
70
0
62
7
6
CONTINUOUS
370
-3
390
F
0
LAYER
5
210
100
AcDbSymbolTableRecord
100
AcDbLayerTableRecord
2
TRASH
70
0
62
7
6
CONTINUOUS
370
-3
390
F
0
LAYER
5
211
100
AcDbSymbolTableRecord
100
AcDbLayerTableRecord
2
XSEC_DATUMS
70
0
62
7
6
CONTINUOUS
370
-3
390
F
0
ENDTAB
0
TABLE
2
STYLE
5
3
100
AcDbSymbolTable
70
1
0
STYLE
5
11
100
AcDbSymbolTableRecord
100
AcDbTextStyleTableRecord
2
STANDARD
70
0
40
0.0
41
0.8000000000
50
0.0
71
0
42
0.2
3
txt
4

0
ENDTAB
0
TABLE
2
VIEW
5
6
100
AcDbSymbolTable
70
0
0
ENDTAB
0
TABLE
2
UCS
5
7
100
AcDbSymbolTable
70
0
0
ENDTAB
0
TABLE
2
APPID
5
9
100
AcDbSymbolTable
70
1
0
APPID
5
212
100
AcDbSymbolTableRecord
100
AcDbRegAppTableRecord
2
ACAD
70
0
0
ENDTAB
0
TABLE
2
BLOCK_RECORD
5
1
100
AcDbSymbolTable
70
0
0
BLOCK_RECORD
5
1F
100
AcDbSymbolTableRecord
100
AcDbBlockTableRecord
2
*MODEL_SPACE
0
BLOCK_RECORD
5
1B
100
AcDbSymbolTableRecord
100
AcDbBlockTableRecord
2
*PAPER_SPACE
0
ENDTAB
0
TABLE
2
DIMSTYLE
5
A
100
AcDbSymbolTable
70
1
100
AcDbDimStyleTable
71
0
0
DIMSTYLE
105
213
100
AcDbSymbolTableRecord
100
AcDbDimStyleTableRecord
2
STANDARD
70
0
3

4

40
1.0
41
3.0000000000
42
0.0625
43
0.38
44
0.18
45
0.0
46
0.0
47
0.0100000000
48
0.0100000000
140
3.0000000000
141
0.09
142
0.0
143
25.4
144
1.0000000000
145
0.0
146
1.0000000000
147
0.09
71
1
72
0
73
0
74
0
75
0
76
0
77
1
78
8
170
0
171
2
172
0
173
0
174
0
175
0
176
0
177
0
178
0
270
2
271
2
272
2
273
2
274
2
275
0
280
0
281
0
282
0
283
1
284
8
285
0
286
0
287
3
288
0
340
11
0
ENDTAB
0
ENDSEC
0
SECTION
2
BLOCKS
0
BLOCK
5
20
100
AcDbEntity
8
0
100
AcDbBlockBegin
2
*MODEL_SPACE
70
0
10
0.0
20
0.0
30
0.0
3
*MODEL_SPACE
1

0
ENDBLK
5
21
100
AcDbEntity
8
0
100
AcDbBlockEnd
0
BLOCK
5
1C
100
AcDbEntity
8
0
100
AcDbBlockBegin
2
*PAPER_SPACE
70
0
10
0.0
20
0.0
30
0.0
3
*PAPER_SPACE
1

0
ENDBLK
5
1D
100
AcDbEntity
8
0
100
AcDbBlockEnd
0
ENDSEC
0
SECTION
2
ENTITIES
0
LWPOLYLINE
5
214
100
AcDbEntity
8
0
100
AcDbPolyline
62
0
6
CONTINUOUS
90
9
70
0
10
-9.2645268330
20
22.0364734311
10
-9.4266895148
20
21.9284925612
10
-9.5801392421
20
21.7946368779
10
-9.7182579259
20
21.6408160387
10
-9.8412075700
20
21.4673516489
10
-9.9469890257
20
21.2756680152
10
-10.0295736745
20
21.0765890177
10
-10.0880487930
20
20.8751044187
10
-10.1228969403
20
20.6689467428
0
LWPOLYLINE
5
215
100
AcDbEntity
8
0
100
AcDbPolyline
62
0
6
CONTINUOUS
90
5
70
0
10
-9.2339369765
20
22.0534683601
10
-9.3741687216
20
21.9669164206
10
-9.5028231983
20
21.8663505474
10
-9.6233025199
20
21.7503971461
10
-9.7344046961
20
21.6202879507
0
LINE
5
216
100
AcDbEntity
8
0
100
AcDbLine
62
0
6
CONTINUOUS
10
-9.2344982471
20
22.0531658474
11
-9.2645268330
21
22.0364734311
0
LINE
5
217
100
AcDbEntity
8
0
100
AcDbLine
62
0
6
CONTINUOUS
10
-9.2344983955
20
22.0531661226
11
-5.3036575296
21
24.1739450190
0
LINE
5
218
100
AcDbEntity
8
0
100
AcDbLine
62
9
6
CONTINUOUS
10
-8.8643432144
20
22.0369710278
11
-4.9375774229
21
24.1555512590
0
LWPOLYLINE
5
219
100
AcDbEntity
8
0
100
AcDbPolyline
62
0
6
CONTINUOUS
90
6
70
0
10
4.7939990164
20
-22.4621422302
10
4.9249207984
20
-22.4927363828
10
5.0601786312
20
-22.5071623656
10
5.1982644781
20
-22.5049706498
10
5.3389297920
20
-22.4856282481
10
5.4811207561
20
-22.4483898903
0
LWPOLYLINE
5
21A
100
AcDbEntity
8
0
100
AcDbPolyline
62
0
6
CONTINUOUS
90
7
70
0
10
-9.8334261814
20
21.4796447867
10
-9.9202780564
20
21.3291070483
10
-9.9942581764
20
21.1694453482
10
-10.0529616791
20
21.0056087137
10
-10.0958154557
20
20.8397464230
10
-10.1226780620
20
20.6709782387
10
-10.1301501854
20
20.5782717787
0
LWPOLYLINE
5
21B
100
AcDbEntity
8
0
100
AcDbPolyline
62
0
6
CONTINUOUS
90
6
70
0
10
4.6694363248
20
-22.4162164193
10
4.8010180585
20
-22.4642215833
10
4.9403702802
20
-22.4952410600
10
5.0850922169
20
-22.5080100936
10
5.2330299090
20
-22.5017920621
10
5.3828508821
20
-22.4760452202
0
LINE
5
21C
100
AcDbEntity
8
0
100
AcDbLine
62
0
6
CONTINUOUS
10
4.6200837470
20
-22.3929604268
11
4.6697434226
21
-22.4163536981
0
LINE
5
21D
100
AcDbEntity
8
0
100
AcDbLine
62
0
6
CONTINUOUS
10
4.6222466689
20
-22.3940481024
11
-9.5113441341
21
-15.3272527010
0
LINE
5
21E
100
AcDbEntity
8
0
100
AcDbLine
62
0
6
CONTINUOUS
10
-9.5414736524
20
-15.3102778620
11
-9.5099473133
21
-15.3279483977
0
LWPOLYLINE
5
21F
100
AcDbEntity
8
0
100
AcDbPolyline
62
0
6
CONTINUOUS
90
3
70
0
10
-9.6930605508
20
-15.2118498995
10
-9.5302940852
20
-15.3175369460
10
-9.5104812948
20
-15.3276829635
0
LINE
5
220
100
AcDbEntity
8
0
100
AcDbLine
62
0
6
CONTINUOUS
10
-0.1065003670
20
-16.7539297554
11
0.1682832612
21
-16.6933853838
0
LWPOLYLINE
5
221
100
AcDbEntity
8
0
100
AcDbPolyline
62
0
6
CONTINUOUS
90
3
70
0
10
-0.1906584185
20
-16.7631691310
10
-0.0313233365
20
-16.7421626744
10
0.1226879808
20
-16.7069081916
0
LINE
5
222
100
AcDbEntity
8
0
100
AcDbLine
62
0
6
CONTINUOUS
10
-0.3976055734
20
-16.7694239700
11
-0.1065003670
21
-16.7539297554
0
LWPOLYLINE
5
223
100
AcDbEntity
8
0
100
AcDbPolyline
62
0
6
CONTINUOUS
90
3
70
0
10
-0.5229175816
20
-16.7626018890
10
-0.3547412588
20
-16.7699679185
10
-0.1906584185
20
-16.7631691310
0
LINE
5
224
100
AcDbEntity
8
0
100
AcDbLine
62
0
6
CONTINUOUS
10
-0.7012361802
20
-16.7401030138
11
-0.3976055734
21
-16.7694239700
0
LWPOLYLINE
5
225
100
AcDbEntity
8
0
100
AcDbPolyline
62
0
6
CONTINUOUS
90
3
70
0
10
-0.8691357026
20
-16.7059612033
10
-0.6945624446
20
-16.7412053027
10
-0.5229175816
20
-16.7626018890
0
LINE
5
226
100
AcDbEntity
8
0
100
AcDbLine
62
0
6
CONTINUOUS
10
-1.0140086913
20
-16.6668718430
11
-0.7012361802
21
-16.7401030138
0
LINE
5
227
100
AcDbEntity
8
0
100
AcDbLine
62
0
6
CONTINUOUS
10
-1.0461387031
20
-16.6570257521
11
-0.8691357026
21
-16.7059612033
0
LINE
5
228
100
AcDbEntity
8
0
100
AcDbLine
62
0
6
CONTINUOUS
10
-1.3327429436
20
-16.5509059502
11
-1.0140086913
21
-16.6668718430
0
LWPOLYLINE
5
229
100
AcDbEntity
8
0
100
AcDbPolyline
62
0
6
CONTINUOUS
90
3
70
0
10
-1.4050362875
20
-16.5190527439
10
-1.2250017855
20
-16.5946072288
10
-1.0461387031
20
-16.6570257521
0
LINE
5
22A
100
AcDbEntity
8
0
100
AcDbLine
62
9
6
CONTINUOUS
10
4.2316440139
20
-21.6672223637
11
-9.8956270275
21
-14.6035868430
0
LINE
5
22B
100
AcDbEntity
8
0
100
AcDbLine
62
0
6
CONTINUOUS
10
-9.8327167887
20
-15.0798487863
11
-9.6930605508
21
-15.2118498995
0
LWPOLYLINE
5
22C
100
AcDbEntity
8
0
100
AcDbPolyline
62
0
6
CONTINUOUS
90
4
70
0
10
-9.8666890487
20
-15.0395815894
10
-9.7857790681
20
-15.1296241776
10
-9.6968242822
20
-15.2088704484
10
-9.6943906039
20
-15.2105927519
0
LINE
5
22D
100
AcDbEntity
8
0
100
AcDbLine
62
0
6
CONTINUOUS
10
-9.9507718698
20
-14.9196051275
11
-9.8327167887
21
-15.0798487863
0
LINE
5
22E
100
AcDbEntity
8
0
100
AcDbLine
62
0
6
CONTINUOUS
10
-1.5226623487
20
-16.4629163233
11
-1.3327429436
21
-16.5509059502
0
LINE
5
22F
100
AcDbEntity
8
0
100
AcDbLine
62
0
6
CONTINUOUS
10
-1.5226261909
20
-16.4629344434
11
-1.4050362875
21
-16.5190527439
0
LINE
5
230
100
AcDbEntity
8
0
100
AcDbLine
62
9
6
CONTINUOUS
10
-1.4624397425
20
-16.6920221598
11
-4.4322882234
21
-15.2070979194
0
LINE
5
231
100
AcDbEntity
8
0
100
AcDbLine
62
9
6
CONTINUOUS
10
-1.3930843964
20
-16.5656855020
11
-4.3629328774
21
-15.0807612615
0
LINE
5
232
100
AcDbEntity
8
0
100
AcDbLine
62
0
6
CONTINUOUS
10
-4.4924615763
20
-14.9780262859
11
-1.5226130958
21
-16.4629505262
0
LINE
5
233
100
AcDbEntity
8
0
100
AcDbLine
62
9
6
CONTINUOUS
10
-4.5183347852
20
-14.9288417385
11
-1.5484863042
21
-16.4137659790
0
LINE
5
234
100
AcDbEntity
8
ASSI
100
AcDbLine
62
9
6
CONTINUOUS
10
-3.2896953243
20
-13.9848478143
11
-3.5006768959
21
-13.8793570284
0
LINE
5
235
100
AcDbEntity
8
INCISIONI_LASER
100
AcDbLine
62
9
6
CONTINUOUS
10
-3.2896953243
20
-13.9848478143
11
-3.5006768959
21
-13.8793570284
0
LINE
5
236
100
AcDbEntity
8
ASSI
100
AcDbLine
62
9
6
CONTINUOUS
10
-4.1213342162
20
-13.5690283683
11
-4.3333198795
21
-13.4630355367
0
LINE
5
237
100
AcDbEntity
8
INCISIONI_LASER
100
AcDbLine
62
9
6
CONTINUOUS
10
-4.1213342162
20
-13.5690283683
11
-4.3333198795
21
-13.4630355367
0
LINE
5
238
100
AcDbEntity
8
0
100
AcDbLine
62
0
6
CONTINUOUS
10
-4.6381504639
20
-14.9010850092
11
-4.4922826909
21
-14.9781091267
0
LINE
5
239
100
AcDbEntity
8
0
100
AcDbLine
62
0
6
CONTINUOUS
10
-4.8399840358
20
-14.7810879550
11
-4.6377370528
21
-14.9013033073
0
LINE
5
23A
100
AcDbEntity
8
0
100
AcDbLine
62
0
6
CONTINUOUS
10
-5.0238308162
20
-14.6581235505
11
-4.6358960053
21
-14.9023373959
0
LINE
5
23B
100
AcDbEntity
8
0
100
AcDbLine
62
0
6
CONTINUOUS
10
-5.0414570418
20
-14.6456407940
11
-4.8399840358
21
-14.7810879550
0
LINE
5
23C
100
AcDbEntity
8
0
100
AcDbLine
62
0
6
CONTINUOUS
10
-5.2408894373
20
-14.4957745006
11
-5.0414570418
21
-14.6456407940
0
LINE
5
23D
100
AcDbEntity
8
0
100
AcDbLine
62
0
6
CONTINUOUS
10
-5.4027649570
20
-14.3622268402
11
-5.0216799809
21
-14.6596384206
0
LINE
5
23E
100
AcDbEntity
8
0
100
AcDbLine
62
0
6
CONTINUOUS
10
-5.4374568809
20
-14.3321778131
11
-5.2408894373
21
-14.4957745006
0
LWPOLYLINE
5
23F
100
AcDbEntity
8
0
100
AcDbPolyline
62
0
6
CONTINUOUS
90
3
70
0
10
-9.9999648785
20
-14.8300620441
10
-9.9384802164
20
-14.9393574878
10
-9.8666890487
20
-15.0395815894
0
LINE
5
240
100
AcDbEntity
8
0
100
AcDbLine
62
0
6
CONTINUOUS
10
-10.0509421332
20
-14.7110915597
11
-9.9999648785
21
-14.8300620441
0
LINE
5
241
100
AcDbEntity
8
ASSI
100
AcDbLine
62
9
6
CONTINUOUS
10
-4.8777805036
20
-12.8678290107
11
-1.3466899783
21
-14.6333742733
0
LINE
5
242
100
AcDbEntity
8
INCISIONI_LASER
100
AcDbLine
62
9
6
CONTINUOUS
10
-4.8777805036
20
-12.8678290107
11
-1.3466899783
21
-14.6333742733
0
LINE
5
243
100
AcDbEntity
8
ASSI
100
AcDbLine
62
9
6
CONTINUOUS
10
-1.3470011532
20
-14.5128075575
11
-4.8877492646
21
-12.7424335019
0
LINE
5
244
100
AcDbEntity
8
INCISIONI_LASER
100
AcDbLine
62
9
6
CONTINUOUS
10
-1.3470011532
20
-14.5128075575
11
-4.8877492646
21
-12.7424335019
0
LINE
5
245
100
AcDbEntity
8
ASSI
100
AcDbLine
62
9
6
CONTINUOUS
10
-1.5018425880
20
-14.3065268130
11
-4.7436478725
21
-12.6856241707
0
LINE
5
246
100
AcDbEntity
8
INCISIONI_LASER
100
AcDbLine
62
9
6
CONTINUOUS
10
-1.5018425880
20
-14.3065268130
11
-4.7436478725
21
-12.6856241707
0
LINE
5
247
100
AcDbEntity
8
0
100
AcDbLine
62
0
6
CONTINUOUS
10
-5.7692092943
20
-14.0179565250
11
-5.4007549148
21
-14.3639522103
0
LINE
5
248
100
AcDbEntity
8
0
100
AcDbLine
62
0
6
CONTINUOUS
10
-6.1173411842
20
-13.6307193915
11
-5.7673718080
21
-14.0198367819
0
LINE
5
249
100
AcDbEntity
8
0
100
AcDbLine
62
0
6
CONTINUOUS
10
-6.4411072641
20
-13.2071227657
11
-6.1157010485
21
-13.6326977397
0
LINE
5
24A
100
AcDbEntity
8
0
100
AcDbLine
62
0
6
CONTINUOUS
10
-6.7351479244
20
-12.7542402659
11
-6.4396774665
21
-13.2091504451
0
LWPOLYLINE
5
24B
100
AcDbEntity
8
0
100
AcDbPolyline
62
0
6
CONTINUOUS
90
3
70
0
10
-10.1046305740
20
-14.5197612567
10
-10.0434572875
20
-14.7308790969
10
-9.9507718698
20
-14.9196051275
0
LWPOLYLINE
5
24C
100
AcDbEntity
8
0
100
AcDbPolyline
62
0
6
CONTINUOUS
90
3
70
0
10
-10.1174719088
20
-14.4453557723
10
-10.0905242046
20
-14.5824356722
10
-10.0509421332
20
-14.7110915597
0
LINE
5
24D
100
AcDbEntity
8
0
100
AcDbLine
62
0
6
CONTINUOUS
10
-10.1299745379
20
-14.3194477817
11
-10.1174719088
21
-14.4453557723
0
LINE
5
24E
100
AcDbEntity
8
0
100
AcDbLine
62
0
6
CONTINUOUS
10
-10.1299870648
20
-14.3192285430
11
-10.1299354597
21
-14.3201260591
0
LWPOLYLINE
5
24F
100
AcDbEntity
8
0
100
AcDbPolyline
62
0
6
CONTINUOUS
90
3
70
0
10
-10.4452413958
20
-7.0649624890
10
-10.2963990600
20
-10.9886380445
10
-10.1299870648
20
-14.3192285430
0
LWPOLYLINE
5
250
100
AcDbEntity
8
0
100
AcDbPolyline
62
0
6
CONTINUOUS
90
3
70
0
10
-10.4530085332
20
-6.8152979727
10
-10.3112990910
20
-10.6487349305
10
-10.1299871031
20
-14.3192278539
0
LINE
5
251
100
AcDbEntity
8
0
100
AcDbLine
62
0
6
CONTINUOUS
10
-10.5475236880
20
-2.9553812298
11
-10.4452413958
21
-7.0649624890
0
LINE
5
252
100
AcDbEntity
8
0
100
AcDbLine
62
0
6
CONTINUOUS
10
-10.5948174764
20
0.9300324498
11
-10.5445898794
21
-3.1134510307
0
LINE
5
253
100
AcDbEntity
8
0
100
AcDbLine
62
0
6
CONTINUOUS
10
-10.5947142966
20
4.8690006190
11
-10.5944147346
21
0.8648344856
0
LINE
5
254
100
AcDbEntity
8
0
100
AcDbLine
62
0
6
CONTINUOUS
10
-10.5454926781
20
8.8982283383
11
-10.5948889385
21
4.8401129065
0
LWPOLYLINE
5
255
100
AcDbEntity
8
0
100
AcDbPolyline
62
0
6
CONTINUOUS
90
3
70
0
10
-10.2985537117
20
17.0280714097
10
-10.4467598119
20
12.9516176125
10
-10.5477419225
20
8.7740910877
0
LWPOLYLINE
5
256
100
AcDbEntity
8
0
100
AcDbPolyline
62
0
6
CONTINUOUS
90
3
70
0
10
-10.1301172911
20
20.5789221022
10
-10.3118540721
20
16.7102144223
10
-10.4533853073
20
12.7311302703
0
LINE
5
257
100
AcDbEntity
8
0
100
AcDbLine
62
0
6
CONTINUOUS
10
-10.1301172856
20
20.5789221019
11
-10.1301367926
21
20.5785426131
0
LINE
5
258
100
AcDbEntity
8
0
100
AcDbLine
62
9
6
CONTINUOUS
10
9.3461518704
20
17.0136866124
11
5.2798668580
21
14.9648659916
0
LINE
5
259
100
AcDbEntity
8
0
100
AcDbLine
62
9
6
CONTINUOUS
10
9.9117511387
20
16.0381721751
11
5.8454661264
21
13.9893515543
0
LINE
5
25A
100
AcDbEntity
8
0
100
AcDbLine
62
0
6
CONTINUOUS
10
-6.9949458421
20
-12.2789301898
11
-6.7339332072
21
-12.7562753363
0
LWPOLYLINE
5
25B
100
AcDbEntity
8
0
100
AcDbPolyline
62
0
6
CONTINUOUS
90
11
70
0
10
-7.0707113737
20
-12.1221057579
10
-6.9457183517
20
-12.3758432381
10
-6.8104285138
20
-12.6250316031
10
-6.6654497706
20
-12.8686076057
10
-6.5114039357
20
-13.1055112455
10
-6.3489896842
20
-13.3347345399
10
-6.1789231591
20
-13.5552917970
10
-6.0019202594
20
-13.7662217621
10
-5.8187850022
20
-13.9666095421
10
-5.6303573547
20
-14.1555477883
10
-5.4374568809
20
-14.3321778131
0
LINE
5
25C
100
AcDbEntity
8
0
100
AcDbLine
62
0
6
CONTINUOUS
10
-7.2163982527
20
-11.7883684483
11
-6.9939482380
21
-12.2809310551
0
LINE
5
25D
100
AcDbEntity
8
0
100
AcDbLine
62
0
6
CONTINUOUS
10
-7.1848234913
20
-11.8648993507
11
-7.0707113737
21
-12.1221057579
0
LINE
5
25E
100
AcDbEntity
8
0
100
AcDbLine
62
0
6
CONTINUOUS
10
-7.2875635112
20
-11.6053329200
11
-7.1848234913
21
-11.8648993507
0
LINE
5
25F
100
AcDbEntity
8
0
100
AcDbLine
62
0
6
CONTINUOUS
10
-7.3958857682
20
-11.2900296157
11
-7.2156167635
21
-11.7902946677
0
LINE
5
260
100
AcDbEntity
8
0
100
AcDbLine
62
0
6
CONTINUOUS
10
-10.1299352192
20
-14.3201260455
11
-10.1046305740
21
-14.5197612567
0
LINE
5
261
100
AcDbEntity
8
0
100
AcDbLine
62
0
6
CONTINUOUS
10
-4.9330672814
20
-7.3873130681
11
-4.6862791162
21
-7.4989985676
0
LINE
5
262
100
AcDbEntity
8
0
100
AcDbLine
62
0
6
CONTINUOUS
10
-4.8336016246
20
-7.4295179907
11
-4.6861668839
21
-7.4990550267
0
LINE
5
263
100
AcDbEntity
8
0
100
AcDbLine
62
0
6
CONTINUOUS
10
-6.7825692306
20
-7.6007742794
11
-6.7225238368
21
-7.6307969763
0
LINE
5
264
100
AcDbEntity
8
0
100
AcDbLine
62
9
6
CONTINUOUS
10
-1.8051751322
20
-9.2965161023
11
-4.7750236132
21
-7.8115918618
0
LINE
5
265
100
AcDbEntity
8
0
100
AcDbLine
62
9
6
CONTINUOUS
10
-1.7357291011
20
-9.1726572420
11
-4.7055775821
21
-7.6877330015
0
LINE
5
266
100
AcDbEntity
8
0
100
AcDbLine
62
0
6
CONTINUOUS
10
-4.6861416955
20
-7.4990501809
11
-1.7162932226
21
-8.9839744173
0
LINE
5
267
100
AcDbEntity
8
0
100
AcDbLine
62
9
6
CONTINUOUS
10
-4.7121030258
20
-7.4473852338
11
-1.7422545448
21
-8.9323094743
0
LINE
5
268
100
AcDbEntity
8
0
100
AcDbLine
62
0
6
CONTINUOUS
10
-1.7160522267
20
-8.9841352159
11
-1.3880649463
21
-9.1686755667
0
LINE
5
269
100
AcDbEntity
8
0
100
AcDbLine
62
0
6
CONTINUOUS
10
-7.5302039449
20
-10.7919161535
11
-7.3953139220
21
-11.2918442124
0
LINE
5
26A
100
AcDbEntity
8
0
100
AcDbLine
62
0
6
CONTINUOUS
10
-6.2338549578
20
-7.2269010924
11
-6.0208127042
21
-7.1960114281
0
LINE
5
26B
100
AcDbEntity
8
0
100
AcDbLine
62
0
6
CONTINUOUS
10
-6.1957790944
20
-7.2193644422
11
-5.9013786250
21
-7.1900110008
0
LWPOLYLINE
5
26C
100
AcDbEntity
8
0
100
AcDbPolyline
62
0
6
CONTINUOUS
90
6
70
0
10
-6.0208127042
20
-7.1960114281
10
-5.7976824617
20
-7.1908704191
10
-5.5659480760
20
-7.2116756242
10
-5.3269630143
20
-7.2584599466
10
-5.0822444245
20
-7.3312176380
10
-4.8336016246
20
-7.4295179907
0
LWPOLYLINE
5
26D
100
AcDbEntity
8
0
100
AcDbPolyline
62
0
6
CONTINUOUS
90
4
70
0
10
-5.9013786250
20
-7.1900110008
10
-5.5905990295
20
-7.2082770168
10
-5.2665653099
20
-7.2741359352
10
-4.9330672814
20
-7.3873130681
0
LWPOLYLINE
5
26E
100
AcDbEntity
8
0
100
AcDbPolyline
62
0
6
CONTINUOUS
90
8
70
0
10
-1.3880649463
20
-9.1686755667
10
-0.9885710349
20
-9.4491589292
10
-0.5960858413
20
-9.7875678990
10
-0.2180404681
20
-10.1785808869
10
0.1374098730
20
-10.6143853294
10
0.4638604005
20
-11.0869592736
10
0.7561133790
20
-11.5887194600
10
1.0090608268
20
-12.1104612730
0
LINE
5
26F
100
AcDbEntity
8
0
100
AcDbLine
62
0
6
CONTINUOUS
10
-6.4356585756
20
-7.2830593959
11
-6.2338549578
21
-7.2269010924
0
LINE
5
270
100
AcDbEntity
8
0
100
AcDbLine
62
0
6
CONTINUOUS
10
-6.4702842567
20
-7.2956582938
11
-6.1957790944
21
-7.2193644422
0
LWPOLYLINE
5
271
100
AcDbEntity
8
0
100
AcDbPolyline
62
0
6
CONTINUOUS
90
15
70
0
10
-7.3639696924
20
-8.3414234959
10
-7.4450756124
20
-8.5190926010
10
-7.5134327990
20
-8.7092153295
10
-7.5687243243
20
-8.9109297321
10
-7.6106841670
20
-9.1232955739
10
-7.6391004740
20
-9.3455385117
10
-7.6538448231
20
-9.5766591899
10
-7.6548522327
20
-9.8153019832
10
-7.6421335100
20
-10.0603476400
10
-7.6158065601
20
-10.3108434593
10
-7.5760423067
20
-10.5656153450
10
-7.5230316506
20
-10.8235354757
10
-7.4570614193
20
-11.0835354196
10
-7.3784576739
20
-11.3445081095
10
-7.2875635112
20
-11.6053329200
0
LWPOLYLINE
5
272
100
AcDbEntity
8
0
100
AcDbPolyline
62
0
6
CONTINUOUS
90
7
70
0
10
-7.3092967623
20
-8.2409945166
10
-7.4679981967
20
-8.5776696091
10
-7.5794517254
20
-8.9583450480
10
-7.6420116819
20
-9.3776422452
10
-7.6545016603
20
-9.8288857766
10
-7.6167541696
20
-10.3035589523
10
-7.5298291518
20
-10.7935889988
0
LINE
5
273
100
AcDbEntity
8
0
100
AcDbLine
62
0
6
CONTINUOUS
10
1.0090608268
20
-12.1104612730
11
1.2184908063
21
-12.6428877009
0
LWPOLYLINE
5
274
100
AcDbEntity
8
0
100
AcDbPolyline
62
0
6
CONTINUOUS
90
3
70
0
10
-7.1649485069
20
-8.0259759625
10
-7.2704802849
20
-8.1768429468
10
-7.3639696924
20
-8.3414234959
0
LINE
5
275
100
AcDbEntity
8
0
100
AcDbLine
62
0
6
CONTINUOUS
10
-7.1059151966
20
-7.9537261695
11
-7.3092967623
21
-8.2409945166
0
LWPOLYLINE
5
276
100
AcDbEntity
8
0
100
AcDbPolyline
62
0
6
CONTINUOUS
90
6
70
0
10
1.2184908063
20
-12.6428877009
10
1.3812763670
20
-13.1770806642
10
1.4949566315
20
-13.7041993494
10
1.5577953345
20
-14.2147470558
10
1.5690822493
20
-14.7004310677
10
1.5287431130
20
-15.1539877848
0
LINE
5
277
100
AcDbEntity
8
0
100
AcDbLine
62
0
6
CONTINUOUS
10
-7.0477725814
20
-7.8895000062
11
-7.1649485069
21
-8.0259759625
0
LINE
5
278
100
AcDbEntity
8
0
100
AcDbLine
62
0
6
CONTINUOUS
10
-6.8610992507
20
-7.7206146242
11
-7.1059151966
21
-7.9537261695
0
LINE
5
279
100
AcDbEntity
8
0
100
AcDbLine
62
0
6
CONTINUOUS
10
-6.9195384815
20
-7.7680807896
11
-7.0477725814
21
-7.8895000062
0
LINE
5
27A
100
AcDbEntity
8
0
100
AcDbLine
62
0
6
CONTINUOUS
10
0.8254290004
20
-16.5399071376
11
0.8254290004
21
-16.3844738435
0
LINE
5
27B
100
AcDbEntity
8
0
100
AcDbLine
62
0
6
CONTINUOUS
10
-6.7809107746
20
-7.6623705327
11
-6.9195384815
21
-7.7680807896
0
LINE
5
27C
100
AcDbEntity
8
0
100
AcDbLine
62
0
6
CONTINUOUS
10
-6.6362813626
20
-7.5748989207
11
-6.8610992507
21
-7.7206146242
0
LINE
5
27D
100
AcDbEntity
8
0
100
AcDbLine
62
0
6
CONTINUOUS
10
-6.6305877279
20
-7.5718720011
11
-6.7809107746
21
-7.6623705327
0
LINE
5
27E
100
AcDbEntity
8
0
100
AcDbLine
62
0
6
CONTINUOUS
10
-6.6361895971
20
-7.5748358649
11
-6.0758311665
21
-7.2789949853
0
LINE
5
27F
100
AcDbEntity
8
0
100
AcDbLine
62
0
6
CONTINUOUS
10
-6.5842265098
20
-7.3439670872
11
-6.5787637094
21
-7.3413971588
0
LINE
5
280
100
AcDbEntity
8
0
100
AcDbLine
62
0
6
CONTINUOUS
10
1.5349716727
20
-15.1111922548
11
1.4798927749
21
-15.4076967258
0
LINE
5
281
100
AcDbEntity
8
0
100
AcDbLine
62
9
6
CONTINUOUS
10
-4.5113295105
20
-7.5864562734
11
-4.7055775821
21
-7.6877330015
0
LINE
5
282
100
AcDbEntity
8
0
100
AcDbLine
62
0
6
CONTINUOUS
10
-6.5789402140
20
-7.3414823450
11
-6.4702842567
21
-7.2956582938
0
LINE
5
283
100
AcDbEntity
8
0
100
AcDbLine
62
0
6
CONTINUOUS
10
-6.5778623748
20
-7.3409784601
11
-6.4356585756
21
-7.2830593959
0
LINE
5
284
100
AcDbEntity
8
0
100
AcDbLine
62
0
6
CONTINUOUS
10
1.5287431130
20
-15.1539877848
11
1.4373446509
21
-15.5676917429
0
LINE
5
285
100
AcDbEntity
8
0
100
AcDbLine
62
0
6
CONTINUOUS
10
1.4798927749
20
-15.4076967258
11
1.4001902309
21
-15.6828581878
0
LINE
5
286
100
AcDbEntity
8
0
100
AcDbLine
62
9
6
CONTINUOUS
10
-1.5516064882
20
-9.0766597621
11
-1.7357291011
21
-9.1726572420
0
LINE
5
287
100
AcDbEntity
8
0
100
AcDbLine
62
0
6
CONTINUOUS
10
1.4373446509
20
-15.5676917429
11
1.2965529783
21
-15.9336796247
0
LINE
5
288
100
AcDbEntity
8
0
100
AcDbLine
62
0
6
CONTINUOUS
10
1.4001902309
20
-15.6828581878
11
1.2964751643
21
-15.9338371551
0
LINE
5
289
100
AcDbEntity
8
0
100
AcDbLine
62
0
6
CONTINUOUS
10
9.9117511387
20
-20.0752982025
11
9.9117511387
21
16.0381721751
0
LINE
5
28A
100
AcDbEntity
8
0
100
AcDbLine
62
0
6
CONTINUOUS
10
1.2964751643
20
-15.9338371551
11
1.1698553321
21
-16.1582529300
0
LINE
5
28B
100
AcDbEntity
8
0
100
AcDbLine
62
0
6
CONTINUOUS
10
1.2965529783
20
-15.9336796247
11
1.1091059467
21
-16.2455228100
0
LINE
5
28C
100
AcDbEntity
8
0
100
AcDbLine
62
0
6
CONTINUOUS
10
1.1698553321
20
-16.1582529300
11
1.0215708694
21
-16.3541976176
0
LINE
5
28D
100
AcDbEntity
8
0
100
AcDbLine
62
0
6
CONTINUOUS
10
1.1091059467
20
-16.2455228100
11
0.8785887475
21
-16.4979513966
0
LINE
5
28E
100
AcDbEntity
8
0
100
AcDbLine
62
0
6
CONTINUOUS
10
1.0215708694
20
-16.3541976176
11
0.8527571771
21
-16.5202556631
0
LINE
5
28F
100
AcDbEntity
8
0
100
AcDbLine
62
9
6
CONTINUOUS
10
-4.3257569973
20
-15.0613785754
11
-4.3629328774
21
-15.0807612615
0
LINE
5
290
100
AcDbEntity
8
0
100
AcDbLine
62
0
6
CONTINUOUS
10
0.8527571771
20
-16.5202556631
11
0.6646515200
21
-16.6555209449
0
LINE
5
291
100
AcDbEntity
8
0
100
AcDbLine
62
0
6
CONTINUOUS
10
0.8785887475
20
-16.4979513966
11
0.6035539408
21
-16.6905486061
0
LINE
5
292
100
AcDbEntity
8
0
100
AcDbLine
62
0
6
CONTINUOUS
10
0.6646515200
20
-16.6555209449
11
0.5895469361
21
-16.6980334098
0
LINE
5
293
100
AcDbEntity
8
0
100
AcDbLine
62
0
6
CONTINUOUS
10
0.5901271832
20
-16.6977285980
11
0.5896864556
21
-16.6979611737
0
LINE
5
294
100
AcDbEntity
8
0
100
AcDbLine
62
9
6
CONTINUOUS
10
-1.3497232787
20
-16.5430779691
11
-1.3930843964
21
-16.5656855020
0
LINE
5
295
100
AcDbEntity
8
0
100
AcDbLine
62
0
6
CONTINUOUS
10
1.0830593017
20
-16.2758062106
11
1.0193715128
21
-16.3076501050
0
LINE
5
296
100
AcDbEntity
8
0
100
AcDbLine
62
9
6
CONTINUOUS
10
4.2316440139
20
13.2376460001
11
-9.8956270275
21
20.3012815208
0
LINE
5
297
100
AcDbEntity
8
0
100
AcDbLine
62
0
6
CONTINUOUS
10
0.3689949498
20
-16.6150831084
11
1.0193715125
21
-16.3076501051
0
LINE
5
298
100
AcDbEntity
8
0
100
AcDbLine
62
0
6
CONTINUOUS
10
0.1682832612
20
-16.6933853838
11
0.3741099652
21
-16.6126360619
0
LWPOLYLINE
5
299
100
AcDbEntity
8
0
100
AcDbPolyline
62
0
6
CONTINUOUS
90
3
70
0
10
0.1226879808
20
-16.7069081916
10
0.2706992506
20
-16.6574242613
10
0.3683538180
20
-16.6153687260
0
LINE
5
29A
100
AcDbEntity
8
0
100
AcDbLine
62
9
6
CONTINUOUS
10
5.2798668580
20
14.9648659916
11
-8.8643432144
21
22.0369710278
0
LINE
5
29B
100
AcDbEntity
8
0
100
AcDbLine
62
0
6
CONTINUOUS
10
-4.9375774229
20
24.1555512590
11
9.3461518704
21
17.0136866124
0
LINE
5
29C
100
AcDbEntity
8
0
100
AcDbLine
62
9
6
CONTINUOUS
10
5.8454661264
20
-21.9532433732
11
9.9117511387
21
-20.0752982025
0
LINE
5
29D
100
AcDbEntity
8
0
100
AcDbLine
62
0
6
CONTINUOUS
10
5.6251623981
20
-22.3917935073
11
9.6954397267
21
-20.5120045525
0
LINE
5
29E
100
AcDbEntity
8
0
100
AcDbLine
62
0
6
CONTINUOUS
10
5.4811207561
20
-22.4483898903
11
5.6236775660
21
-22.3924743014
0
LWPOLYLINE
5
29F
100
AcDbEntity
8
0
100
AcDbPolyline
62
0
6
CONTINUOUS
90
3
70
0
10
5.3828508821
20
-22.4760452202
10
5.5330475032
20
-22.4302356568
10
5.6235158899
20
-22.3925478377
0
SPLINE
5
2A0
100
AcDbEntity
8
0
100
AcDbSpline
62
9
6
CONTINUOUS
70
0
71
3
72
9
73
5
74
3
42
0.0000001000
43
0.0000001000
44
0.0000000001
12
0.0027388049
22
-0.0570913148
32
0.0000000000
13
0.0517391824
23
-0.0271161704
33
0.0000000000
40
0.0000000000
40
0.0000000000
40
0.0000000000
40
0.0000000000
40
0.6474961356
40
1.0000000000
40
1.0000000000
40
1.0000000000
40
1.0000000000
10
-1.5484863042
20
-16.4137659790
30
0.0000000000
10
-1.5478951823
20
-16.4260881143
30
0.0000000000
10
-1.5438458422
20
-16.4461037888
30
0.0000000000
10
-1.5285892169
20
-16.4595265500
30
0.0000000000
10
-1.5225097963
20
-16.4627127349
30
0.0000000000
11
-1.5484863042
21
-16.4137659790
31
0.0000000000
11
-1.5379526499
21
-16.4492441710
31
0.0000000000
11
-1.5225097963
21
-16.4627127349
31
0.0000000000
0
SPLINE
5
2A1
100
AcDbEntity
8
0
100
AcDbSpline
62
9
6
CONTINUOUS
70
0
71
3
72
8
73
4
74
2
42
0.0000001000
43
0.0000001000
44
0.0000000001
12
0.1878200947
22
-0.0794958125
32
0.0000000000
13
0.1928533264
23
-0.0665952472
33
0.0000000000
40
0.0000000000
40
0.0000000000
40
0.0000000000
40
0.0000000000
40
1.0000000000
40
1.0000000000
40
1.0000000000
40
1.0000000000
10
-1.3552771847
20
-16.5029820192
30
0.0000000000
10
-1.2926704864
20
-16.5294806233
30
0.0000000000
10
-1.2291905385
20
-16.5539801075
30
0.0000000000
10
-1.1649060963
20
-16.5761785233
30
0.0000000000
11
-1.3552771847
21
-16.5029820192
31
0.0000000000
11
-1.1649060963
21
-16.5761785233
31
0.0000000000
0
SPLINE
5
2A2
100
AcDbEntity
8
0
100
AcDbSpline
62
9
6
CONTINUOUS
70
0
71
3
72
9
73
5
74
3
42
0.0000001000
43
0.0000001000
44
0.0000000001
12
0.3648248377
22
-0.1259796794
32
0.0000000000
13
0.3799219847
23
-0.0698056381
33
0.0000000000
40
0.0000000000
40
0.0000000000
40
0.0000000000
40
0.0000000000
40
0.5079050151
40
1.0000000000
40
1.0000000000
40
1.0000000000
40
1.0000000000
10
-1.1649060963
20
-16.5761785233
30
0.0000000000
10
-1.1031406414
20
-16.5975070936
30
0.0000000000
10
-0.9800701179
20
-16.6353179103
30
0.0000000000
10
-0.8543570305
20
-16.6638558827
30
0.0000000000
10
-0.7920377960
20
-16.6753062175
30
0.0000000000
11
-1.1649060963
21
-16.5761785233
31
0.0000000000
11
-0.9774426736
21
-16.6335236080
31
0.0000000000
11
-0.7920377960
21
-16.6753062175
31
0.0000000000
0
SPLINE
5
2A3
100
AcDbEntity
8
0
100
AcDbSpline
62
9
6
CONTINUOUS
70
0
71
3
72
9
73
5
74
3
42
0.0000001000
43
0.0000001000
44
0.0000000001
12
0.8506302026
22
-0.1562920454
32
0.0000000000
13
0.8266924543
23
0.2570350613
33
0.0000000000
40
0.0000000000
40
0.0000000000
40
0.0000000000
40
0.0000000000
40
0.4185586656
40
1.0000000000
40
1.0000000000
40
1.0000000000
40
1.0000000000
10
-0.7920377960
20
-16.6753062175
30
0.0000000000
10
-0.6733582485
20
-16.6971120141
30
0.0000000000
10
-0.3858598268
20
-16.7267414109
30
0.0000000000
10
-0.0961448682
20
-16.6889892640
30
0.0000000000
10
0.0640795197
20
-16.6391723276
30
0.0000000000
11
-0.7920377960
21
-16.6753062175
31
0.0000000000
11
-0.4323000189
21
-16.7101106317
31
0.0000000000
11
0.0640795197
21
-16.6391723276
31
0.0000000000
0
SPLINE
5
2A4
100
AcDbEntity
8
0
100
AcDbSpline
62
9
6
CONTINUOUS
70
0
71
3
72
8
73
4
74
2
42
0.0000001000
43
0.0000001000
44
0.0000000001
12
0.2705715317
22
0.0841260494
32
0.0000000000
13
0.2495035915
23
0.1348988331
33
0.0000000000
40
0.0000000000
40
0.0000000000
40
0.0000000000
40
0.0000000000
40
1.0000000000
40
1.0000000000
40
1.0000000000
40
1.0000000000
10
0.0640795197
20
-16.6391723276
30
0.0000000000
10
0.1542700303
20
-16.6111303112
30
0.0000000000
10
0.2418534776
20
-16.5742586463
30
0.0000000000
10
0.3250213415
20
-16.5292923686
30
0.0000000000
11
0.0640795197
21
-16.6391723276
31
0.0000000000
11
0.3250213415
21
-16.5292923686
31
0.0000000000
0
SPLINE
5
2A5
100
AcDbEntity
8
0
100
AcDbSpline
62
9
6
CONTINUOUS
70
0
71
3
72
8
73
4
74
2
42
0.0000001000
43
0.0000001000
44
0.0000000001
12
0.0336490352
22
0.0181929870
32
0.0000000000
13
0.0331538554
23
0.0190709405
33
0.0000000000
40
0.0000000000
40
0.0000000000
40
0.0000000000
40
0.0000000000
40
1.0000000000
40
1.0000000000
40
1.0000000000
40
1.0000000000
10
0.3250213415
20
-16.5292923686
30
0.0000000000
10
0.3362376865
20
-16.5232280397
30
0.0000000000
10
0.3473737197
20
-16.5170164836
30
0.0000000000
10
0.3584250049
20
-16.5106595034
30
0.0000000000
11
0.3250213415
21
-16.5292923686
31
0.0000000000
11
0.3584250049
21
-16.5106595034
31
0.0000000000
0
SPLINE
5
2A6
100
AcDbEntity
8
0
100
AcDbSpline
62
9
6
CONTINUOUS
70
0
71
3
72
8
73
4
74
2
42
0.0000001000
43
0.0000001000
44
0.0000000001
12
0.0076941707
22
0.0070877183
32
0.0000000000
13
0.0076456852
23
0.0071407863
33
0.0000000000
40
0.0000000000
40
0.0000000000
40
0.0000000000
40
0.0000000000
40
1.0000000000
40
1.0000000000
40
1.0000000000
40
1.0000000000
10
0.6173425549
20
-16.3202715150
30
0.0000000000
10
0.6199072785
20
-16.3179089423
30
0.0000000000
10
0.6224639317
20
-16.3155374783
30
0.0000000000
10
0.6250124935
20
-16.3131572162
30
0.0000000000
11
0.6173425549
21
-16.3202715150
31
0.0000000000
11
0.6250124935
21
-16.3131572162
31
0.0000000000
0
SPLINE
5
2A7
100
AcDbEntity
8
0
100
AcDbSpline
62
9
6
CONTINUOUS
70
0
71
3
72
8
73
4
74
2
42
0.0000001000
43
0.0000001000
44
0.0000000001
12
0.0580438479
22
0.0542108004
32
0.0000000000
13
0.0552180613
23
0.0571310934
33
0.0000000000
40
0.0000000000
40
0.0000000000
40
0.0000000000
40
0.0000000000
40
1.0000000000
40
1.0000000000
40
1.0000000000
40
1.0000000000
10
0.6250124935
20
-16.3131572162
30
0.0000000000
10
0.6443604428
20
-16.2950869494
30
0.0000000000
10
0.6632420470
20
-16.2765096093
30
0.0000000000
10
0.6816480674
20
-16.2574659115
30
0.0000000000
11
0.6250124935
21
-16.3131572162
31
0.0000000000
11
0.6816480674
21
-16.2574659115
31
0.0000000000
0
SPLINE
5
2A8
100
AcDbEntity
8
0
100
AcDbSpline
62
9
6
CONTINUOUS
70
0
71
3
72
8
73
4
74
2
42
0.0000001000
43
0.0000001000
44
0.0000000001
12
0.0524089476
22
0.0542246578
32
0.0000000000
13
0.0498146959
23
0.0566409084
33
0.0000000000
40
0.0000000000
40
0.0000000000
40
0.0000000000
40
0.0000000000
40
1.0000000000
40
1.0000000000
40
1.0000000000
40
1.0000000000
10
0.6816480674
20
-16.2574659115
30
0.0000000000
10
0.6991177166
20
-16.2393910256
30
0.0000000000
10
0.7161589401
20
-16.2208960251
30
0.0000000000
10
0.7327638387
20
-16.2020157223
30
0.0000000000
11
0.6816480674
21
-16.2574659115
31
0.0000000000
11
0.7327638387
21
-16.2020157223
31
0.0000000000
0
SPLINE
5
2A9
100
AcDbEntity
8
0
100
AcDbSpline
62
9
6
CONTINUOUS
70
0
71
3
72
8
73
4
74
2
42
0.0000001000
43
0.0000001000
44
0.0000000001
12
0.0050065811
22
0.0069252588
32
0.0000000000
13
0.0049715948
23
0.0069491323
33
0.0000000000
40
0.0000000000
40
0.0000000000
40
0.0000000000
40
0.0000000000
40
1.0000000000
40
1.0000000000
40
1.0000000000
40
1.0000000000
10
0.8324780960
20
-16.0769830991
30
0.0000000000
10
0.8341469563
20
-16.0746746795
30
0.0000000000
10
0.8358099914
20
-16.0723622556
30
0.0000000000
10
0.8374671897
20
-16.0700458782
30
0.0000000000
11
0.8324780960
21
-16.0769830991
31
0.0000000000
11
0.8374671897
21
-16.0700458782
31
0.0000000000
0
SPLINE
5
2AA
100
AcDbEntity
8
0
100
AcDbSpline
62
9
6
CONTINUOUS
70
0
71
3
72
8
73
4
74
2
42
0.0000001000
43
0.0000001000
44
0.0000000001
12
0.2059022600
22
0.2878034342
32
0.0000000000
13
0.1492693805
23
0.3206831023
33
0.0000000000
40
0.0000000000
40
0.0000000000
40
0.0000000000
40
0.0000000000
40
1.0000000000
40
1.0000000000
40
1.0000000000
40
1.0000000000
10
0.8374671897
20
-16.0700458782
30
0.0000000000
10
0.9061012763
20
-15.9741114001
30
0.0000000000
10
0.9647237029
20
-15.8713955443
30
0.0000000000
10
1.0144801631
20
-15.7645011769
30
0.0000000000
11
0.8374671897
21
-16.0700458782
31
0.0000000000
11
1.0144801631
21
-15.7645011769
31
0.0000000000
0
SPLINE
5
2AB
100
AcDbEntity
8
0
100
AcDbSpline
62
9
6
CONTINUOUS
70
0
71
3
72
18
73
14
74
12
42
0.0000001000
43
0.0000001000
44
0.0000000001
12
3.2162924503
22
6.9097268143
32
0.0000000000
13
-6.7947851211
23
3.3983533908
33
0.0000000000
40
0.0000000000
40
0.0000000000
40
0.0000000000
40
0.0000000000
40
0.0243697937
40
0.1033250458
40
0.1910882570
40
0.2869385249
40
0.3892135825
40
0.4956436873
40
0.6036345102
40
0.7104630881
40
0.8136152416
40
0.9108466943
40
1.0000000000
40
1.0000000000
40
1.0000000000
40
1.0000000000
10
1.0144801631
20
-15.7645011769
30
0.0000000000
10
1.0406069576
20
-15.7083716379
30
0.0000000000
10
1.1410168649
20
-15.4655042033
30
0.0000000000
10
1.2509575584
20
-14.9905733485
30
0.0000000000
10
1.2764870494
20
-14.3229244280
30
0.0000000000
10
1.1915904042
20
-13.6014506059
30
0.0000000000
10
0.9997776069
20
-12.8523106417
30
0.0000000000
10
0.7080466987
20
-12.1032774242
30
0.0000000000
10
0.3269563688
20
-11.3825054680
30
0.0000000000
10
-0.1297130860
20
-10.7170612869
30
0.0000000000
10
-0.6456321142
20
-10.1318955351
30
0.0000000000
10
-1.2011318519
20
-9.6498420223
30
0.0000000000
10
-1.6032492805
20
-9.3975075819
30
0.0000000000
10
-1.8051751322
20
-9.2965161023
30
0.0000000000
11
1.0144801631
21
-15.7645011769
31
0.0000000000
11
1.0856927628
21
-15.5930330662
31
0.0000000000
11
1.2280125087
21
-15.0103199202
31
0.0000000000
11
1.2591650450
21
-14.3442907384
31
0.0000000000
11
1.1780634517
21
-13.6206245289
31
0.0000000000
11
0.9877918165
21
-12.8672741015
31
0.0000000000
11
0.6954794942
21
-12.1133871909
31
0.0000000000
11
0.3120100445
21
-11.3880882981
31
0.0000000000
11
-0.1482088478
21
-10.7195860296
31
0.0000000000
11
-0.6682778096
21
-10.1333539821
31
0.0000000000
11
-1.2287470192
21
-9.6521712546
31
0.0000000000
11
-1.8051751322
21
-9.2965161023
31
0.0000000000
0
SPLINE
5
2AC
100
AcDbEntity
8
0
100
AcDbSpline
62
9
6
CONTINUOUS
70
0
71
3
72
8
73
4
74
2
42
0.0000001000
43
0.0000001000
44
0.0000000001
12
-0.1905060611
22
0.0952232527
32
0.0000000000
13
-0.1966064821
23
0.0828600258
33
0.0000000000
40
0.0000000000
40
0.0000000000
40
0.0000000000
40
0.0000000000
40
1.0000000000
40
1.0000000000
40
1.0000000000
40
1.0000000000
10
-4.7750236132
20
-7.8115918618
30
0.0000000000
10
-4.8385256336
20
-7.7798507776
30
0.0000000000
10
-4.9030893362
20
-7.7499995419
30
0.0000000000
10
-4.9686248303
20
-7.7223795333
30
0.0000000000
11
-4.7750236132
21
-7.8115918618
31
0.0000000000
11
-4.9686248303
21
-7.7223795333
31
0.0000000000
0
SPLINE
5
2AD
100
AcDbEntity
8
0
100
AcDbSpline
62
9
6
CONTINUOUS
70
0
71
3
72
10
73
6
74
4
42
0.0000001000
43
0.0000001000
44
0.0000000001
12
-1.1986824737
22
0.5051860933
32
0.0000000000
13
-1.2777318896
23
-0.2564997449
33
0.0000000000
40
0.0000000000
40
0.0000000000
40
0.0000000000
40
0.0000000000
40
0.3085480725
40
0.7359137628
40
1.0000000000
40
1.0000000000
40
1.0000000000
40
1.0000000000
10
-4.9686248303
20
-7.7223795333
30
0.0000000000
10
-5.0919085525
20
-7.6704214681
30
0.0000000000
10
-5.3941531589
20
-7.5653294247
30
0.0000000000
10
-5.8268174695
20
-7.5011275130
30
0.0000000000
10
-6.1277746632
20
-7.5290288975
30
0.0000000000
10
-6.2402517988
20
-7.5516082483
30
0.0000000000
11
-4.9686248303
21
-7.7223795333
31
0.0000000000
11
-5.3481945623
21
-7.5924656680
31
0.0000000000
11
-5.8981466980
21
-7.5182616980
31
0.0000000000
11
-6.2402517988
21
-7.5516082483
31
0.0000000000
0
SPLINE
5
2AE
100
AcDbEntity
8
0
100
AcDbSpline
62
9
6
CONTINUOUS
70
0
71
3
72
8
73
4
74
2
42
0.0000001000
43
0.0000001000
44
0.0000000001
12
-0.1563416805
22
-0.0491682767
32
0.0000000000
13
-0.1502274511
23
-0.0658810687
33
0.0000000000
40
0.0000000000
40
0.0000000000
40
0.0000000000
40
0.0000000000
40
1.0000000000
40
1.0000000000
40
1.0000000000
40
1.0000000000
10
-6.4012578678
20
-7.5928446268
30
0.0000000000
10
-6.4533717613
20
-7.6092340523
30
0.0000000000
10
-6.5046274343
20
-7.6284771618
30
0.0000000000
10
-6.5547032513
20
-7.6504375180
30
0.0000000000
11
-6.4012578678
21
-7.5928446268
31
0.0000000000
11
-6.5547032513
21
-7.6504375180
31
0.0000000000
0
SPLINE
5
2AF
100
AcDbEntity
8
0
100
AcDbSpline
62
9
6
CONTINUOUS
70
0
71
3
72
8
73
4
74
2
42
0.0000001000
43
0.0000001000
44
0.0000000001
12
-0.0296057641
22
-0.0129833753
32
0.0000000000
13
-0.0293234412
23
-0.0136134328
33
0.0000000000
40
0.0000000000
40
0.0000000000
40
0.0000000000
40
0.0000000000
40
1.0000000000
40
1.0000000000
40
1.0000000000
40
1.0000000000
10
-6.5547032513
20
-7.6504375180
30
0.0000000000
10
-6.5645718393
20
-7.6547653098
30
0.0000000000
10
-6.5743946044
20
-7.6591986333
30
0.0000000000
10
-6.5841690848
20
-7.6637364442
30
0.0000000000
11
-6.5547032513
21
-7.6504375180
31
0.0000000000
11
-6.5841690848
21
-7.6637364442
31
0.0000000000
0
SPLINE
5
2B0
100
AcDbEntity
8
0
100
AcDbSpline
62
9
6
CONTINUOUS
70
0
71
3
72
9
73
5
74
3
42
0.0000001000
43
0.0000001000
44
0.0000000001
12
-0.2308673964
22
-0.2593595767
32
0.0000000000
13
-0.1760696700
23
-0.2985698091
33
0.0000000000
40
0.0000000000
40
0.0000000000
40
0.0000000000
40
0.0000000000
40
0.4928401294
40
1.0000000000
40
1.0000000000
40
1.0000000000
40
1.0000000000
10
-7.0828544264
20
-8.0369817613
30
0.0000000000
10
-7.1207813323
20
-8.0795893637
30
0.0000000000
10
-7.1933283384
20
-8.1699793499
30
0.0000000000
10
-7.2565272306
20
-8.2668288742
30
0.0000000000
10
-7.2862923876
20
-8.3173030828
30
0.0000000000
11
-7.0828544264
21
-8.0369817613
31
0.0000000000
11
-7.1900189076
21
-8.1702539549
31
0.0000000000
11
-7.2862923876
21
-8.3173030828
31
0.0000000000
0
SPLINE
5
2B1
100
AcDbEntity
8
0
100
AcDbSpline
62
9
6
CONTINUOUS
70
0
71
3
72
13
73
9
74
7
42
0.0000001000
43
0.0000001000
44
0.0000000001
12
-1.7364225944
22
-2.9445353219
32
0.0000000000
13
1.1984326256
23
-3.1937628246
33
0.0000000000
40
0.0000000000
40
0.0000000000
40
0.0000000000
40
0.0000000000
40
0.1080441477
40
0.2849004978
40
0.4807119435
40
0.6941667681
40
0.9218552608
40
1.0000000000
40
1.0000000000
40
1.0000000000
40
1.0000000000
10
-7.2862923876
20
-8.3173030828
30
0.0000000000
10
-7.3488291541
20
-8.4233496859
30
0.0000000000
10
-7.4871139313
20
-8.7187666719
30
0.0000000000
10
-7.6148148248
20
-9.2542135895
30
0.0000000000
10
-7.6419105782
20
-9.9231295677
30
0.0000000000
10
-7.5552075723
20
-10.6443973976
30
0.0000000000
10
-7.4046091082
20
-11.2166912660
30
0.0000000000
10
-7.2890204274
20
-11.5447506244
30
0.0000000000
10
-7.2578033591
20
-11.6279425454
30
0.0000000000
11
-7.2862923876
21
-8.3173030828
31
0.0000000000
11
-7.4447106956
21
-8.6505673496
31
0.0000000000
11
-7.5913633391
21
-9.2353993896
31
0.0000000000
11
-7.6240114854
21
-9.9021613732
31
0.0000000000
11
-7.5412509001
21
-10.6251506503
31
0.0000000000
11
-7.3463336786
21
-11.3765159308
31
0.0000000000
11
-7.2578033591
21
-11.6279425454
31
0.0000000000
0
SPLINE
5
2B2
100
AcDbEntity
8
0
100
AcDbSpline
62
9
6
CONTINUOUS
70
0
71
3
72
12
73
8
74
6
42
0.0000001000
43
0.0000001000
44
0.0000000001
12
1.2166429996
22
-3.2422925577
32
0.0000000000
13
2.6956502226
23
-2.1752646970
33
0.0000000000
40
0.0000000000
40
0.0000000000
40
0.0000000000
40
0.0000000000
40
0.1565582387
40
0.3937511423
40
0.6286174752
40
0.8555295673
40
1.0000000000
40
1.0000000000
40
1.0000000000
40
1.0000000000
10
-7.2578033591
20
-11.6279425454
30
0.0000000000
10
-7.1943115307
20
-11.7971450829
30
0.0000000000
10
-7.0171218891
20
-12.2161228741
30
0.0000000000
10
-6.6701864720
20
-12.8548038713
30
0.0000000000
10
-6.2053981682
20
-13.5159795355
30
0.0000000000
10
-5.7365550837
20
-14.0374696901
30
0.0000000000
10
-5.4163168516
20
-14.3232398454
30
0.0000000000
10
-5.2865029336
20
-14.4279936561
30
0.0000000000
11
-7.2578033591
21
-11.6279425454
31
0.0000000000
11
-7.0470647983
21
-12.1273305698
31
0.0000000000
11
-6.6554280484
21
-12.8488152188
31
0.0000000000
11
-6.1871610305
21
-13.5132620863
31
0.0000000000
11
-5.6604685344
21
-14.0958084322
31
0.0000000000
11
-5.2865029336
21
-14.4279936561
31
0.0000000000
0
SPLINE
5
2B3
100
AcDbEntity
8
0
100
AcDbSpline
62
9
6
CONTINUOUS
70
0
71
3
72
8
73
4
74
2
42
0.0000001000
43
0.0000001000
44
0.0000000001
12
0.1870254828
22
-0.1509208898
32
0.0000000000
13
0.1943550919
23
-0.1416101511
33
0.0000000000
40
0.0000000000
40
0.0000000000
40
0.0000000000
40
0.0000000000
40
1.0000000000
40
1.0000000000
40
1.0000000000
40
1.0000000000
10
-5.2865029336
20
-14.4279936561
30
0.0000000000
10
-5.2241611060
20
-14.4783006193
30
0.0000000000
10
-5.1606110110
20
-14.5271285951
30
0.0000000000
10
-5.0958259804
20
-14.5743319788
30
0.0000000000
11
-5.2865029336
21
-14.4279936561
31
0.0000000000
11
-5.0958259804
21
-14.5743319788
31
0.0000000000
0
SPLINE
5
2B4
100
AcDbEntity
8
0
100
AcDbSpline
62
9
6
CONTINUOUS
70
0
71
3
72
8
73
4
74
2
42
0.0000001000
43
0.0000001000
44
0.0000000001
12
0.0268883426
22
-0.0157788503
32
0.0000000000
13
0.0270090935
23
-0.0155628485
33
0.0000000000
40
0.0000000000
40
0.0000000000
40
0.0000000000
40
0.0000000000
40
1.0000000000
40
1.0000000000
40
1.0000000000
40
1.0000000000
10
-4.7392193018
20
-14.8088098515
30
0.0000000000
10
-4.7302565210
20
-14.8140694683
30
0.0000000000
10
-4.7212735921
20
-14.8192933903
30
0.0000000000
10
-4.7122705609
20
-14.8244810065
30
0.0000000000
11
-4.7392193018
21
-14.8088098515
31
0.0000000000
11
-4.7122705609
21
-14.8244810065
31
0.0000000000
0
SPLINE
5
2B5
100
AcDbEntity
8
0
100
AcDbSpline
62
9
6
CONTINUOUS
70
0
71
3
72
8
73
4
74
2
42
0.0000001000
43
0.0000001000
44
0.0000000001
12
0.1075472236
22
0.0508904246
32
0.0000000000
13
0.1031373818
23
0.0592726846
33
0.0000000000
40
0.0000000000
40
0.0000000000
40
0.0000000000
40
0.0000000000
40
1.0000000000
40
1.0000000000
40
1.0000000000
40
1.0000000000
10
0.3689016813
20
-16.6148860032
30
0.0000000000
10
0.4047507558
20
-16.5979225283
30
0.0000000000
10
0.4399282008
20
-16.5795362188
30
0.0000000000
10
0.4743073281
20
-16.5597786572
30
0.0000000000
11
0.3689016813
21
-16.6148860032
31
0.0000000000
11
0.4743073281
21
-16.5597786572
31
0.0000000000
0
SPLINE
5
2B6
100
AcDbEntity
8
0
100
AcDbSpline
62
9
6
CONTINUOUS
70
0
71
3
72
8
73
4
74
2
42
0.0000001000
43
0.0000001000
44
0.0000000001
12
0.1426567262
22
0.0819843105
32
0.0000000000
13
0.1324871080
23
0.0973153943
33
0.0000000000
40
0.0000000000
40
0.0000000000
40
0.0000000000
40
0.0000000000
40
1.0000000000
40
1.0000000000
40
1.0000000000
40
1.0000000000
10
0.4743073281
20
-16.5597786572
30
0.0000000000
10
0.5218595701
20
-16.5324505537
30
0.0000000000
10
0.5678844992
20
-16.5024990196
30
0.0000000000
10
0.6120468685
20
-16.4700605548
30
0.0000000000
11
0.4743073281
21
-16.5597786572
31
0.0000000000
11
0.6120468685
21
-16.4700605548
31
0.0000000000
0
SPLINE
5
2B7
100
AcDbEntity
8
0
100
AcDbSpline
62
9
6
CONTINUOUS
70
0
71
3
72
8
73
4
74
2
42
0.0000001000
43
0.0000001000
44
0.0000000001
12
0.1338661503
22
0.0983283385
32
0.0000000000
13
0.1222148867
23
0.1125011713
33
0.0000000000
40
0.0000000000
40
0.0000000000
40
0.0000000000
40
0.0000000000
40
1.0000000000
40
1.0000000000
40
1.0000000000
40
1.0000000000
10
0.6120468685
20
-16.4700605548
30
0.0000000000
10
0.6566689186
20
-16.4372844420
30
0.0000000000
10
0.6993894329
20
-16.4019693567
30
0.0000000000
10
0.7401277284
20
-16.3644689663
30
0.0000000000
11
0.6120468685
21
-16.4700605548
31
0.0000000000
11
0.7401277284
21
-16.3644689663
31
0.0000000000
0
SPLINE
5
2B8
100
AcDbEntity
8
0
100
AcDbSpline
62
9
6
CONTINUOUS
70
0
71
3
72
18
73
14
74
12
42
0.0000001000
43
0.0000001000
44
0.0000000001
12
3.3003767162
22
7.0712719578
32
0.0000000000
13
-6.9572275139
23
3.4791062491
33
0.0000000000
40
0.0000000000
40
0.0000000000
40
0.0000000000
40
0.0000000000
40
0.0244250158
40
0.1034083724
40
0.1911808100
40
0.2870240006
40
0.3892799537
40
0.4956848330
40
0.6036489259
40
0.7104531115
40
0.8135864757
40
0.9108070915
40
1.0000000000
40
1.0000000000
40
1.0000000000
40
1.0000000000
10
1.1471791207
20
-15.7957287615
30
0.0000000000
10
1.1740497052
20
-15.7381567850
30
0.0000000000
10
1.2771830349
20
-15.4893911913
30
0.0000000000
10
1.3902763787
20
-15.0029932992
30
0.0000000000
10
1.4170415614
20
-14.3193439092
30
0.0000000000
10
1.3307109453
20
-13.5806130713
30
0.0000000000
10
1.1348620374
20
-12.8135795172
30
0.0000000000
10
0.8366446099
20
-12.0466683272
30
0.0000000000
10
0.4468579222
20
-11.3086927035
30
0.0000000000
10
-0.0204005322
20
-10.6273600726
30
0.0000000000
10
-0.5484063483
20
-10.0281983683
30
0.0000000000
10
-1.1171259156
20
-9.5345445931
30
0.0000000000
10
-1.5288839820
20
-9.2760944438
30
0.0000000000
10
-1.7357291011
20
-9.1726572420
30
0.0000000000
11
1.1471791207
21
-15.7957287615
31
0.0000000000
11
1.2204287406
21
-15.6198409995
31
0.0000000000
11
1.3667601075
21
-15.0231388639
31
0.0000000000
11
1.3992718044
21
-14.3411634481
31
0.0000000000
11
1.3168268025
21
-13.6002066993
31
0.0000000000
11
1.1225627553
21
-12.8288820920
31
0.0000000000
11
0.8237594798
21
-12.0570148997
31
0.0000000000
11
0.4315460446
21
-11.3144145143
31
0.0000000000
11
-0.0393355074
21
-10.6299554222
31
0.0000000000
11
-0.5715859725
21
-10.0297107511
31
0.0000000000
11
-1.1452994381
21
-9.5370062984
31
0.0000000000
11
-1.7357291011
21
-9.1726572420
31
0.0000000000
0
SPLINE
5
2B9
100
AcDbEntity
8
0
100
AcDbSpline
62
9
6
CONTINUOUS
70
0
71
3
72
10
73
6
74
4
42
0.0000001000
43
0.0000001000
44
0.0000000001
12
-1.3855129132
22
0.5845721002
32
0.0000000000
13
-1.4374517333
23
-0.4520684663
33
0.0000000000
40
0.0000000000
40
0.0000000000
40
0.0000000000
40
0.0000000000
40
0.2744034588
40
0.6529734048
40
1.0000000000
40
1.0000000000
40
1.0000000000
40
1.0000000000
10
-4.9025919181
20
-7.5968960621
30
0.0000000000
10
-5.0293217633
20
-7.5434265267
30
0.0000000000
10
-5.3393497805
20
-7.4355836662
30
0.0000000000
10
-5.8395440103
20
-7.3614299112
30
0.0000000000
10
-6.2050396178
20
-7.4115139299
30
0.0000000000
10
-6.3713176114
20
-7.4638071901
30
0.0000000000
11
-4.9025919181
21
-7.5968960621
31
0.0000000000
11
-5.2928211159
21
-7.4632813882
31
0.0000000000
11
-5.8560176877
21
-7.3873705315
31
0.0000000000
11
-6.3713176114
21
-7.4638071901
31
0.0000000000
0
SPLINE
5
2BA
100
AcDbEntity
8
0
100
AcDbSpline
62
9
6
CONTINUOUS
70
0
71
3
72
8
73
4
74
2
42
0.0000001000
43
0.0000001000
44
0.0000000001
12
-0.1190504818
22
-0.0506058849
32
0.0000000000
13
-0.1144276794
23
-0.0603579604
33
0.0000000000
40
0.0000000000
40
0.0000000000
40
0.0000000000
40
0.0000000000
40
1.0000000000
40
1.0000000000
40
1.0000000000
40
1.0000000000
10
-6.5124466641
20
-7.5158646333
30
0.0000000000
10
-6.5521301580
20
-7.5327332616
30
0.0000000000
10
-6.5911182068
20
-7.5512590982
30
0.0000000000
10
-6.6292607666
20
-7.5713784184
30
0.0000000000
11
-6.5124466641
21
-7.5158646333
31
0.0000000000
11
-6.6292607666
21
-7.5713784184
31
0.0000000000
0
SPLINE
5
2BB
100
AcDbEntity
8
0
100
AcDbSpline
62
9
6
CONTINUOUS
70
0
71
3
72
8
73
4
74
2
42
0.0000001000
43
0.0000001000
44
0.0000000001
12
0.1472518016
22
0.0643123482
32
0.0000000000
13
0.1392659476
23
0.0801093135
33
0.0000000000
40
0.0000000000
40
0.0000000000
40
0.0000000000
40
0.0000000000
40
1.0000000000
40
1.0000000000
40
1.0000000000
40
1.0000000000
10
0.2150017259
20
-16.5829371530
30
0.0000000000
10
0.2640856597
20
-16.5614997036
30
0.0000000000
10
0.3120030223
20
-16.5373626079
30
0.0000000000
10
0.3584250049
20
-16.5106595034
30
0.0000000000
11
0.2150017259
21
-16.5829371530
31
0.0000000000
11
0.3584250049
21
-16.5106595034
31
0.0000000000
0
SPLINE
5
2BC
100
AcDbEntity
8
0
100
AcDbSpline
62
9
6
CONTINUOUS
70
0
71
3
72
8
73
4
74
2
42
0.0000001000
43
0.0000001000
44
0.0000000001
12
0.1389489618
22
0.0799269752
32
0.0000000000
13
0.1290377725
23
0.0948548399
33
0.0000000000
40
0.0000000000
40
0.0000000000
40
0.0000000000
40
0.0000000000
40
1.0000000000
40
1.0000000000
40
1.0000000000
40
1.0000000000
10
0.3584250049
20
-16.5106595034
30
0.0000000000
10
0.4047413255
20
-16.4840171784
30
0.0000000000
10
0.4495690656
20
-16.4548205123
30
0.0000000000
10
0.4925816564
20
-16.4232022323
30
0.0000000000
11
0.3584250049
21
-16.5106595034
31
0.0000000000
11
0.4925816564
21
-16.4232022323
31
0.0000000000
0
SPLINE
5
2BD
100
AcDbEntity
8
0
100
AcDbSpline
62
9
6
CONTINUOUS
70
0
71
3
72
8
73
4
74
2
42
0.0000001000
43
0.0000001000
44
0.0000000001
12
-0.1097444103
22
-0.1241001440
32
0.0000000000
13
-0.0972430979
23
-0.1339327877
33
0.0000000000
40
0.0000000000
40
0.0000000000
40
0.0000000000
40
0.0000000000
40
1.0000000000
40
1.0000000000
40
1.0000000000
40
1.0000000000
10
-7.0864808140
20
-8.0410690863
30
0.0000000000
10
-7.1230622841
20
-8.0824358010
30
0.0000000000
10
-7.1576045417
20
-8.1256096924
30
0.0000000000
10
-7.1900189076
20
-8.1702539549
30
0.0000000000
11
-7.0864808140
21
-8.0410690863
31
0.0000000000
11
-7.1900189076
21
-8.1702539549
31
0.0000000000
0
SPLINE
5
2BE
100
AcDbEntity
8
0
100
AcDbSpline
62
9
6
CONTINUOUS
70
0
71
3
72
8
73
4
74
2
42
0.0000001000
43
0.0000001000
44
0.0000000001
12
0.1010479097
22
0.1412414581
32
0.0000000000
13
0.0869867784
23
0.1501179701
33
0.0000000000
40
0.0000000000
40
0.0000000000
40
0.0000000000
40
0.0000000000
40
1.0000000000
40
1.0000000000
40
1.0000000000
40
1.0000000000
10
0.8374671897
20
-16.0700458782
30
0.0000000000
10
0.8711498262
20
-16.0229653922
30
0.0000000000
10
0.9024212333
20
-15.9742516648
30
0.0000000000
10
0.9314168261
20
-15.9242123414
30
0.0000000000
11
0.8374671897
21
-16.0700458782
31
0.0000000000
11
0.9314168261
21
-15.9242123414
31
0.0000000000
0
SPLINE
5
2BF
100
AcDbEntity
8
0
100
AcDbSpline
62
9
6
CONTINUOUS
70
0
71
3
72
8
73
4
74
2
42
0.0000001000
43
0.0000001000
44
0.0000000001
12
-0.0848381731
22
-0.0487637390
32
0.0000000000
13
-0.0814285060
23
-0.0541888873
33
0.0000000000
40
0.0000000000
40
0.0000000000
40
0.0000000000
40
0.0000000000
40
1.0000000000
40
1.0000000000
40
1.0000000000
40
1.0000000000
10
-6.7007233654
20
-7.7241348763
30
0.0000000000
10
-6.7290027564
20
-7.7403894559
30
0.0000000000
10
-6.7567480172
20
-7.7575627123
30
0.0000000000
10
-6.7838908525
20
-7.7756256747
30
0.0000000000
11
-6.7007233654
21
-7.7241348763
31
0.0000000000
11
-6.7838908525
21
-7.7756256747
31
0.0000000000
0
SPLINE
5
2C0
100
AcDbEntity
8
0
100
AcDbSpline
62
9
6
CONTINUOUS
70
0
71
3
72
8
73
4
74
2
42
0.0000001000
43
0.0000001000
44
0.0000000001
12
-0.0544268280
22
-0.0362198620
32
0.0000000000
13
-0.0527508132
23
-0.0385788129
33
0.0000000000
40
0.0000000000
40
0.0000000000
40
0.0000000000
40
0.0000000000
40
1.0000000000
40
1.0000000000
40
1.0000000000
40
1.0000000000
10
-6.7838908525
20
-7.7756256747
30
0.0000000000
10
-6.8020331285
20
-7.7876989621
30
0.0000000000
10
-6.8199062657
20
-7.8001697334
30
0.0000000000
10
-6.8374898701
20
-7.8130293377
30
0.0000000000
11
-6.7838908525
21
-7.7756256747
31
0.0000000000
11
-6.8374898701
21
-7.8130293377
31
0.0000000000
0
SPLINE
5
2C1
100
AcDbEntity
8
ASSI
100
AcDbSpline
62
9
6
CONTINUOUS
70
0
71
3
72
27
73
23
74
21
42
0.0000001000
43
0.0000001000
44
0.0000000001
12
-0.0499144169
22
-0.1955070662
32
-0.1917865289
13
0.1989666680
23
-0.0994833340
33
0.1723101890
40
0.0000000000
40
0.0000000000
40
0.0000000000
40
0.0000000000
40
0.0208333333
40
0.0416666667
40
0.0625000000
40
0.0833333333
40
0.1250000000
40
0.1666666667
40
0.2083333333
40
0.2500000000
40
0.3333333333
40
0.5000000000
40
0.6666666667
40
0.7500000000
40
0.7916666667
40
0.8333333333
40
0.8750000000
40
0.9166666667
40
0.9375000000
40
0.9583333333
40
0.9791666667
40
1.0000000000
40
1.0000000000
40
1.0000000000
40
1.0000000000
10
-4.9858175775
20
-12.6517575757
30
-8.1910040725
10
-4.9861642054
20
-12.6531152637
30
-8.1923359234
10
-4.9867090704
20
-12.6556468413
30
-8.1946973184
10
-4.9873371459
20
-12.6598446381
30
-8.1982817796
10
-4.9877180537
20
-12.6641529084
30
-8.2016435226
10
-4.9879351294
20
-12.6701048595
30
-8.2059161416
10
-4.9876812833
20
-12.6778343644
30
-8.2108206930
10
-4.9866387460
20
-12.6874489952
30
-8.2160477362
10
-4.9849470976
20
-12.6973015450
30
-8.2206549017
10
-4.9819124005
20
-12.7106926650
30
-8.2260327460
10
-4.9748366122
20
-12.7344375265
30
-8.2335318032
10
-4.9597502355
20
-12.7703405818
30
-8.2395977357
10
-4.9399103337
20
-12.8044665256
30
-8.2387514507
10
-4.9247745865
20
-12.8252150730
30
-8.2345404739
10
-4.9155759790
20
-12.8363053910
30
-8.2309560727
10
-4.9084331650
20
-12.8441165326
30
-8.2276324528
10
-4.9010422985
20
-12.8513432002
30
-8.2236158192
10
-4.8946979437
20
-12.8567685956
30
-8.2196427222
10
-4.8895297345
20
-12.8606718746
30
-8.2160575876
10
-4.8856361007
20
-12.8633474378
30
-8.2131776342
10
-4.8816667248
20
-12.8657820282
30
-8.2100438195
10
-4.8791622564
20
-12.8671371950
30
-8.2079443847
10
-4.8777805434
20
-12.8678280515
30
-8.2067477861
11
-4.9858175775
21
-12.6517575757
31
-8.1910040725
11
-4.9866775334
21
-12.6557135797
31
-8.1947043798
11
-4.9872959513
21
-12.6598630503
31
-8.1982446599
11
-4.9876817035
21
-12.6641788572
31
-8.2016173095
11
-4.9878458478
21
-12.6686361761
31
-8.2048189054
11
-4.9875582963
21
-12.6778909019
31
-8.2107109566
11
-4.9865305608
21
-12.6874886484
31
-8.2159444233
11
-4.9848497019
21
-12.6973333434
31
-8.2205592713
11
-4.9825870239
21
-12.7073596660
31
-8.2245972292
11
-4.9765263922
21
-12.7277854020
31
-8.2310794150
11
-4.9587995305
21
-12.7699851595
31
-8.2382152922
11
-4.9354669949
21
-12.8100956712
31
-8.2372036881
11
-4.9224291339
21
-12.8279238196
31
-8.2335461962
11
-4.9155353360
21
-12.8362209582
31
-8.2308501862
11
-4.9083918229
21
-12.8440191203
31
-8.2275169505
11
-4.9010052386
21
-12.8512238347
31
-8.2234906387
11
-4.8933981643
21
-12.8577079956
31
-8.2187125505
11
-4.8895268217
21
-12.8606298919
31
-8.2160257372
11
-4.8856234770
21
-12.8633072757
31
-8.2131353240
11
-4.8817021704
21
-12.8657150548
31
-8.2100412633
11
-4.8777805434
21
-12.8678280515
31
-8.2067477861
0
SPLINE
5
2C2
100
AcDbEntity
8
ASSI
100
AcDbSpline
62
9
6
CONTINUOUS
70
0
71
3
72
31
73
27
74
25
42
0.0000001000
43
0.0000001000
44
0.0000000001
12
0.1093288854
22
-2.2373016719
32
-1.3848226928
13
-0.0806474635
23
2.2231414290
33
1.4097838635
40
0.0000000000
40
0.0000000000
40
0.0000000000
40
0.0000000000
40
0.0250000000
40
0.0500000000
40
0.0750000000
40
0.1000000000
40
0.1500000000
40
0.1750000000
40
0.2000000000
40
0.2500000000
40
0.3000000000
40
0.3500000000
40
0.4000000000
40
0.5000000000
40
0.6000000000
40
0.6500000000
40
0.7000000000
40
0.7500000000
40
0.8000000000
40
0.8250000000
40
0.8500000000
40
0.9000000000
40
0.9250000000
40
0.9500000000
40
0.9750000000
40
1.0000000000
40
1.0000000000
40
1.0000000000
40
1.0000000000
10
-4.3333198795
20
-13.4630355367
30
-7.9537304419
10
-4.3324088055
20
-13.4816797173
30
-7.9652706310
10
-4.3295124875
20
-13.5160100949
30
-7.9850590378
10
-4.3215714206
20
-13.5705300178
30
-8.0124787414
10
-4.3104348172
20
-13.6243702361
30
-8.0356059955
10
-4.2915683129
20
-13.6960131755
30
-8.0615256010
10
-4.2671491766
20
-13.7664488612
30
-8.0799644066
10
-4.2377903957
20
-13.8351814021
30
-8.0913155903
10
-4.2054528058
20
-13.9023089972
30
-8.0979983405
10
-4.1584467449
20
-13.9852546564
30
-8.0977812120
10
-4.0921066415
20
-14.0805936227
30
-8.0827125275
10
-4.0186631768
20
-14.1667446233
30
-8.0528302972
10
-3.9185705073
20
-14.2627991401
30
-7.9975515408
10
-3.7840071845
20
-14.3545847564
30
-7.8977527090
10
-3.6516816911
20
-14.3962611373
30
-7.7664310569
10
-3.5557701881
20
-14.3982173112
30
-7.6519710844
10
-3.4868044225
20
-14.3832728931
30
-7.5585246339
10
-3.4260743221
20
-14.3514670829
30
-7.4635459528
10
-3.3844068210
20
-14.3128553187
30
-7.3869675459
10
-3.3566264369
20
-14.2757844476
30
-7.3282195532
10
-3.3320869464
20
-14.2339981912
30
-7.2701891483
10
-3.3128346997
20
-14.1853947369
30
-7.2139274551
10
-3.2994581837
20
-14.1298692178
30
-7.1600817902
10
-3.2925657380
20
-14.0850402290
30
-7.1213386809
10
-3.2890512909
20
-14.0362443543
30
-7.0839956927
10
-3.2890232621
20
-14.0033739928
30
-7.0616732639
10
-3.2896953243
20
-13.9848478143
30
-7.0499250651
11
-4.3333198795
21
-13.4630355367
31
-7.9537304419
11
-4.3289130558
21
-13.5165141543
31
-7.9846818867
11
-4.3210388312
21
-13.5704167337
31
-8.0117633331
11
-4.3099326047
21
-13.6243522338
31
-8.0349914038
11
-4.2958222196
21
-13.6780018362
31
-8.0544222996
11
-4.2593978443
21
-13.7834900677
31
-8.0822115674
11
-4.2374180445
21
-13.8349807839
31
-8.0907320361
11
-4.2130982650
21
-13.8854628428
31
-8.0957562818
11
-4.1567912731
21
-13.9845553522
31
-8.0953131903
11
-4.0909227479
21
-14.0790622951
31
-8.0802436032
11
-4.0183921705
21
-14.1643929378
31
-8.0509008243
11
-3.9429638423
21
-14.2369000089
31
-8.0093245375
11
-3.7844547504
21
-14.3445629093
31
-7.8914481449
11
-3.6285328897
21
-14.3941347699
31
-7.7370325096
11
-3.5562648317
21
-14.3954820531
31
-7.6507041726
11
-3.4881770333
21
-14.3804626611
31
-7.5582692621
11
-3.4278625052
21
-14.3490456985
31
-7.4640600516
11
-3.3779245264
21
-14.3030724793
31
-7.3724901088
11
-3.3570315486
21
-14.2751950244
31
-7.3283092517
11
-3.3386624227
21
-14.2438766554
31
-7.2848441422
11
-3.3099802149
21
-14.1709365184
31
-7.2006673746
11
-3.2999815072
21
-14.1293384095
31
-7.1603553135
11
-3.2931287377
21
-14.0843790813
31
-7.1215720344
11
-3.2896300249
21
-14.0361594097
31
-7.0846389169
11
-3.2896953243
21
-13.9848478143
31
-7.0499250651
0
SPLINE
5
2C3
100
AcDbEntity
8
ASSI
100
AcDbSpline
62
9
6
CONTINUOUS
70
0
71
3
72
31
73
27
74
25
42
0.0000001000
43
0.0000001000
44
0.0000000001
12
0.0420037566
22
-1.3137766019
32
-0.8399331816
13
-0.0705154166
23
1.3280369200
33
0.8152444020
40
0.0000000000
40
0.0000000000
40
0.0000000000
40
0.0000000000
40
0.0250000000
40
0.0500000000
40
0.0750000000
40
0.1000000000
40
0.1500000000
40
0.1750000000
40
0.2000000000
40
0.2500000000
40
0.3000000000
40
0.3500000000
40
0.4000000000
40
0.5000000000
40
0.6000000000
40
0.6500000000
40
0.7000000000
40
0.7500000000
40
0.8000000000
40
0.8250000000
40
0.8500000000
40
0.9000000000
40
0.9250000000
40
0.9500000000
40
0.9750000000
40
1.0000000000
40
1.0000000000
40
1.0000000000
40
1.0000000000
10
-3.5006768959
20
-13.8793570284
30
-7.2326404658
10
-3.5003268646
20
-13.8903051668
30
-7.2396399090
10
-3.5004282173
20
-13.9097371862
30
-7.2529366669
10
-3.5026359752
20
-13.9385691421
30
-7.2751518801
10
-3.5068349296
20
-13.9650540882
30
-7.2981820349
10
-3.5149041972
20
-13.9978520402
30
-7.3301686400
10
-3.5264400076
20
-14.0265535043
30
-7.3635653145
10
-3.5410956734
20
-14.0512206780
30
-7.3979932127
10
-3.5576632582
20
-14.0730981812
30
-7.4328369698
10
-3.5824698068
20
-14.0958673693
30
-7.4782310982
10
-3.6185622493
20
-14.1145936728
30
-7.5344991188
10
-3.6595034515
20
-14.1233565769
30
-7.5898467369
10
-3.7164175761
20
-14.1221133040
30
-7.6576587145
10
-3.7948764476
20
-14.0973687928
30
-7.7354688752
10
-3.8746343479
20
-14.0430053558
30
-7.7946787563
10
-3.9339831454
20
-13.9861173818
30
-7.8275535683
10
-3.9775344189
20
-13.9351082888
30
-7.8453786136
10
-4.0169010751
20
-13.8786523874
30
-7.8544600563
10
-4.0448291215
20
-13.8295158299
30
-7.8547353777
10
-4.0640660541
20
-13.7897360116
30
-7.8508992039
10
-4.0815479988
20
-13.7489999617
30
-7.8443032445
10
-4.0961197149
20
-13.7072446483
30
-7.8335162925
10
-4.1074220127
20
-13.6647608119
30
-7.8183058861
10
-4.1141242743
20
-13.6328251758
30
-7.8047164055
10
-4.1189472599
20
-13.6004777560
30
-7.7885899323
10
-4.1207465878
20
-13.5800953426
30
-7.7769391756
10
-4.1213342162
20
-13.5690283683
30
-7.7701454723
11
-3.5006768959
21
-13.8793570284
31
-7.2326404658
11
-3.5007708388
21
-13.9096845073
31
-7.2533150130
11
-3.5029678413
21
-13.9381779738
31
-7.2752877037
11
-3.5071437623
21
-13.9647396745
31
-7.2983420014
11
-3.5131757589
21
-13.9893111782
31
-7.3222894945
11
-3.5303639120
21
-14.0323841069
31
-7.3722582244
11
-3.5413346632
21
-14.0508719692
31
-7.3980451950
11
-3.5537944998
21
-14.0673236260
31
-7.4242486593
11
-3.5835239042
21
-14.0944345823
31
-7.4785302760
11
-3.6193703759
21
-14.1129331062
31
-7.5343457184
11
-3.6597941834
21
-14.1217406838
31
-7.5890986311
11
-3.7026767927
21
-14.1208780942
31
-7.6402420660
11
-3.7951362533
21
-14.0914450077
31
-7.7317488193
11
-3.8891000871
21
-14.0276669270
31
-7.8016897015
11
-3.9338230913
21
-13.9847268631
31
-7.8264150577
11
-3.9768369827
21
-13.9342004874
31
-7.8439213465
11
-4.0159255750
21
-13.8782343928
31
-7.8530015468
11
-4.0493795626
21
-13.8195316609
31
-7.8534382983
11
-4.0638466806
21
-13.7896164826
31
-7.8505542307
11
-4.0769349936
21
-13.7590990356
31
-7.8456029849
11
-4.0986728378
21
-13.6965629790
31
-7.8293450697
11
-4.1071262691
21
-13.6647486854
31
-7.8179422735
11
-4.1138110616
21
-13.6327565452
31
-7.8042935734
11
-4.1185932609
21
-13.6007733893
31
-7.7883649887
11
-4.1213342162
21
-13.5690283683
31
-7.7701454723
0
SPLINE
5
2C4
100
AcDbEntity
8
ASSI
100
AcDbSpline
62
9
6
CONTINUOUS
70
0
71
3
72
8
73
4
74
2
42
0.0000001000
43
0.0000001000
44
0.0000000001
12
0.5418705983
22
2.1200411993
32
2.0787119751
13
0.5616491579
23
2.1307105092
33
2.0626580868
40
0.0000000000
40
0.0000000000
40
0.0000000000
40
0.0000000000
40
1.0000000000
40
1.0000000000
40
1.0000000000
40
1.0000000000
10
-4.7436478725
20
-12.6856241707
30
-7.9225384261
10
-4.5630243398
20
-11.9789437709
30
-7.2296344344
10
-4.3791001493
20
-11.2704688545
30
-6.5393902117
10
-4.1918837633
20
-10.5602320181
30
-5.8518375161
11
-4.7436478725
21
-12.6856241707
31
-7.9225384261
11
-4.1918837633
21
-10.5602320181
31
-5.8518375161
0
SPLINE
5
2C5
100
AcDbEntity
8
ASSI
100
AcDbSpline
62
9
6
CONTINUOUS
70
0
71
3
72
8
73
4
74
2
42
0.0000001000
43
0.0000001000
44
0.0000000001
12
0.7207692732
22
-2.7716860123
32
-0.9519028651
13
0.7400033544
23
-2.7607484037
33
-0.9684219013
40
0.0000000000
40
0.0000000000
40
0.0000000000
40
0.0000000000
40
1.0000000000
40
1.0000000000
40
1.0000000000
40
1.0000000000
10
-2.2322345016
20
-11.5402883964
30
-4.1548829508
10
-1.9919780772
20
-12.4641837338
30
-4.4721839058
10
-1.7485103728
20
-13.3862773451
30
-4.7922453951
10
-1.5018425880
20
-14.3065268130
30
-5.1150526955
11
-2.2322345016
21
-11.5402883964
31
-4.1548829508
11
-1.5018425880
21
-14.3065268130
31
-5.1150526955
0
SPLINE
5
2C6
100
AcDbEntity
8
ASSI
100
AcDbSpline
62
9
6
CONTINUOUS
70
0
71
3
72
8
73
4
74
2
42
0.0000001000
43
0.0000001000
44
0.0000000001
12
0.5787923023
22
2.2683441770
32
2.2256537299
13
0.6014482699
23
2.2805692893
33
2.2072692896
40
0.0000000000
40
0.0000000000
40
0.0000000000
40
0.0000000000
40
1.0000000000
40
1.0000000000
40
1.0000000000
40
1.0000000000
10
-4.8877492646
20
-12.7424335019
30
-8.1341417782
10
-4.6948184972
20
-11.9863187762
30
-7.3922572016
10
-4.4981065517
20
-11.2281465537
30
-6.6534172296
10
-4.2976237951
20
-10.4679567906
30
-5.9176607998
11
-4.8877492646
21
-12.7424335019
31
-8.1341417782
11
-4.2976237951
21
-10.4679567906
31
-5.9176607998
0
SPLINE
5
2C7
100
AcDbEntity
8
ASSI
100
AcDbSpline
62
9
6
CONTINUOUS
70
0
71
3
72
8
73
4
74
2
42
0.0000001000
43
0.0000001000
44
0.0000000001
12
0.7709773776
22
-2.9662300447
32
-1.0183644536
13
0.7930020372
23
-2.9536992328
33
-1.0372794949
40
0.0000000000
40
0.0000000000
40
0.0000000000
40
0.0000000000
40
1.0000000000
40
1.0000000000
40
1.0000000000
40
1.0000000000
10
-2.1289977265
20
-11.5528169304
30
-4.0399329669
10
-1.8720052673
20
-12.5415602786
30
-4.3793877848
10
-1.6113351656
20
-13.5282411466
30
-4.7220041337
10
-1.3470011532
20
-14.5128075575
30
-5.0677639654
11
-2.1289977265
21
-11.5528169304
31
-4.0399329669
11
-1.3470011532
21
-14.5128075575
31
-5.0677639654
0
SPLINE
5
2C8
100
AcDbEntity
8
ASSI
100
AcDbSpline
62
9
6
CONTINUOUS
70
0
71
3
72
27
73
23
74
21
42
0.0000001000
43
0.0000001000
44
0.0000000001
12
-0.2774298988
22
-1.2051487318
32
-1.1526330297
13
-0.3960883269
23
1.5367183932
33
0.5658341822
40
0.0000000000
40
0.0000000000
40
0.0000000000
40
0.0000000000
40
0.0312500000
40
0.0625000000
40
0.0937500000
40
0.1250000000
40
0.1875000000
40
0.2187500000
40
0.2500000000
40
0.3125000000
40
0.3750000000
40
0.4375000000
40
0.5000000000
40
0.6250000000
40
0.6875000000
40
0.7500000000
40
0.8125000000
40
0.8750000000
40
0.9062500000
40
0.9375000000
40
0.9687500000
40
1.0000000000
40
1.0000000000
40
1.0000000000
40
1.0000000000
10
-3.4082989984
20
-14.0541521951
30
-7.2398832772
10
-3.4111888931
20
-14.0667058278
30
-7.2518898712
10
-3.4173508197
20
-14.0884252503
30
-7.2740680194
10
-3.4295948620
20
-14.1197230373
30
-7.3100944797
10
-3.4440779257
20
-14.1472912053
30
-7.3462973810
10
-3.4663228541
20
-14.1799280363
30
-7.3953174615
10
-3.4925305547
20
-14.2061058713
30
-7.4447408257
10
-3.5222721699
20
-14.2260275287
30
-7.4941815378
10
-3.5540836786
20
-14.2417178007
30
-7.5432454956
10
-3.5989086985
20
-14.2538418330
30
-7.6055920027
10
-3.6600175310
20
-14.2546529345
30
-7.6798903028
10
-3.7254818821
20
-14.2407432092
30
-7.7494160887
10
-3.8118563122
20
-14.2055206412
30
-7.8296494077
10
-3.9015770686
20
-14.1444181845
30
-7.8962739241
10
-3.9872515210
20
-14.0596224368
30
-7.9418740179
10
-4.0445826800
20
-13.9896075414
30
-7.9633564406
10
-4.0950095179
20
-13.9148078400
30
-7.9732670442
10
-4.1321670496
20
-13.8471807160
30
-7.9720743463
10
-4.1582415888
20
-13.7905317820
30
-7.9650004538
10
-4.1757840181
20
-13.7470725018
30
-7.9566150071
10
-4.1913190564
20
-13.7020272220
30
-7.9447422858
10
-4.1996653119
20
-13.6731572782
30
-7.9351987901
10
-4.2037912320
20
-13.6571497949
30
-7.9293046841
11
-3.4082989984
21
-14.0541521951
31
-7.2398832772
11
-3.4178510118
21
-14.0882116925
31
-7.2745278924
11
-3.4299680322
21
-14.1191014342
31
-7.3101238866
11
-3.4444446978
21
-14.1467761145
31
-7.3463910742
11
-3.4610918530
21
-14.1712305789
31
-7.3830960484
11
-3.5002604514
21
-14.2105649375
31
-7.4571024494
11
-3.5225309066
21
-14.2254986055
31
-7.4941344435
11
-3.5464681770
21
-14.2372959789
31
-7.5310472768
11
-3.6001284999
21
-14.2515522101
31
-7.6055057513
11
-3.6607434508
21
-14.2521994634
31
-7.6790948838
11
-3.7253679607
21
-14.2386586758
31
-7.7478576226
11
-3.7905415652
21
-14.2121696258
31
-7.8084570110
11
-3.9226584897
21
-14.1212448066
31
-7.9059219123
11
-3.9860974076
21
-14.0585527560
31
-7.9397544099
11
-4.0434319598
21
-13.9888100738
31
-7.9614278041
11
-4.0940365512
21
-13.9137490321
31
-7.9713767373
11
-4.1383813939
21
-13.8328062129
31
-7.9697958953
11
-4.1579060096
21
-13.7903696854
31
-7.9644871159
11
-4.1754494529
21
-13.7468081685
31
-7.9560337947
11
-4.1908164472
21
-13.7023172827
31
-7.9443351988
11
-4.2037912320
21
-13.6571497949
31
-7.9293046841
0
SPLINE
5
2C9
100
AcDbEntity
8
ASSI
100
AcDbSpline
62
9
6
CONTINUOUS
70
0
71
3
72
25
73
21
74
19
42
0.0000001000
43
0.0000001000
44
0.0000000001
12
0.8289058509
22
3.1393646365
32
3.0396093327
13
1.0645176864
23
-4.0955862378
33
-1.4060943973
40
0.0000000000
40
0.0000000000
40
0.0000000000
40
0.0000000000
40
0.0833333333
40
0.1666666667
40
0.2500000000
40
0.2916666667
40
0.3333333333
40
0.3750000000
40
0.4166666667
40
0.4583333333
40
0.5000000000
40
0.5416666667
40
0.5833333333
40
0.6250000000
40
0.6666666667
40
0.7083333333
40
0.7500000000
40
0.8333333333
40
0.9166666667
40
1.0000000000
40
1.0000000000
40
1.0000000000
40
1.0000000000
10
-4.2975470096
20
-10.4676652109
30
-5.9173787258
10
-4.2745218470
20
-10.3804606377
30
-5.8329451332
10
-4.2192207506
20
-10.2161771194
30
-5.6598936956
10
-4.1052144402
20
-10.0015222432
30
-5.3846227870
10
-3.9775319864
20
-9.8589008457
30
-5.1403122367
10
-3.8533674305
20
-9.7800843994
30
-4.9417004695
10
-3.7496049640
20
-9.7421938471
30
-4.7938777947
10
-3.6347686115
20
-9.7289032022
30
-4.6488185872
10
-3.5109130518
20
-9.7410654480
30
-4.5094809755
10
-3.3823330866
20
-9.7758491109
30
-4.3791188226
10
-3.2505588567
20
-9.8317774051
30
-4.2585848421
10
-3.1180112870
20
-9.9076337130
30
-4.1499670528
10
-2.9873925270
20
-10.0021627348
30
-4.0556717138
10
-2.8602416300
20
-10.1153090891
30
-3.9775056008
10
-2.7408208077
20
-10.2456522851
30
-3.9196425748
10
-2.6313754560
20
-10.3901968555
30
-3.8828535381
10
-2.4983505457
20
-10.5978133956
30
-3.8588645205
10
-2.3577568094
20
-10.8748963328
30
-3.8710496352
10
-2.2264279820
20
-11.2127183892
30
-3.9341784104
10
-2.1585681080
20
-11.4390505915
30
-4.0008752853
10
-2.1289981723
20
-11.5528168759
30
-4.0399334630
11
-4.2975470096
21
-10.4676652109
31
-5.9173787258
11
-4.2140449730
21
-10.2214721863
31
-5.6572780702
11
-4.0986790012
21
-10.0087737764
31
-5.3816391617
11
-3.9446559647
21
-9.8421367901
31
-5.0903956843
11
-3.8515942556
21
-9.7836213631
31
-4.9418898279
11
-3.7477593163
21
-9.7462938317
31
-4.7943383726
11
-3.6332654103
21
-9.7331453506
31
-4.6497721865
11
-3.5101256509
21
-9.7448356842
31
-4.5109768853
11
-3.3818007091
21
-9.7793732161
31
-4.3807568513
11
-3.2504299667
21
-9.8350987407
31
-4.2605708740
11
-3.1183327553
21
-9.9107458320
31
-4.1523541279
11
-2.9879705042
21
-10.0052656235
31
-4.0583599181
11
-2.8615299758
21
-10.1181752294
31
-3.9808894486
11
-2.7424833861
21
-10.2480191808
31
-3.9231549063
11
-2.6329882342
21
-10.3920581612
31
-3.8859864170
11
-2.5333192667
21
-10.5470800780
31
-3.8676732007
11
-2.3639874187
21
-10.8757834214
31
-3.8791340748
11
-2.2313511514
21
-11.2129977637
31
-3.9403311666
11
-2.1289981723
21
-11.5528168759
31
-4.0399334630
0
SPLINE
5
2CA
100
AcDbEntity
8
ASSI
100
AcDbSpline
62
9
6
CONTINUOUS
70
0
71
3
72
21
73
17
74
15
42
0.0000001000
43
0.0000001000
44
0.0000000001
12
0.9010133509
22
3.4181456349
32
3.3089740292
13
1.1780523192
23
-4.5301475075
33
-1.5558257246
40
0.0000000000
40
0.0000000000
40
0.0000000000
40
0.0000000000
40
0.0833333333
40
0.1666666667
40
0.2500000000
40
0.3333333333
40
0.4166666667
40
0.4583333333
40
0.5000000000
40
0.5416666667
40
0.5833333333
40
0.6666666667
40
0.7500000000
40
0.8333333333
40
0.9166666667
40
1.0000000000
40
1.0000000000
40
1.0000000000
40
1.0000000000
10
-4.1918835574
20
-10.5602321970
30
-5.8518373874
10
-4.1668554087
20
-10.4652837071
30
-5.7599214422
10
-4.1094076274
20
-10.2976680676
30
-5.5821042250
10
-3.9928950451
20
-10.0950334605
30
-5.3116062995
10
-3.8457147970
20
-9.9534063553
30
-5.0446568770
10
-3.6693076127
20
-9.8781643716
30
-4.7861973453
10
-3.5049513776
20
-9.8695239191
30
-4.5852351817
10
-3.3666371307
20
-9.8981143687
30
-4.4392801979
10
-3.2617588252
20
-9.9379776690
30
-4.3403419856
10
-3.1552047808
20
-9.9981771112
30
-4.2525279671
10
-3.0112165066
20
-10.1050272720
30
-4.1503154199
10
-2.8362715914
20
-10.2790192566
30
-4.0546489551
10
-2.6409195368
20
-10.5408035238
30
-3.9915613185
10
-2.4730751731
20
-10.8451313791
30
-3.9890314947
10
-2.3365766651
20
-11.1789343552
30
-4.0434311786
10
-2.2649586796
20
-11.4144509042
30
-4.1116661288
10
-2.2322350041
20
-11.5402883350
30
-4.1548835100
11
-4.1918835574
21
-10.5602321970
31
-5.8518373874
11
-4.1043508090
21
-10.3057995430
31
-5.5814755417
11
-3.9877837675
21
-10.1052013775
31
-5.3121977167
11
-3.8408436410
21
-9.9644705422
31
-5.0460718588
11
-3.6658375631
21
-9.8889766117
31
-4.7890815012
11
-3.4698037110
21
-9.8796300991
31
-4.5499809980
11
-3.3664466940
21
-9.9011844459
31
-4.4410348688
11
-3.2614795354
21
-9.9413670260
31
-4.3421960179
11
-3.1549652539
21
-10.0015001409
31
-4.2543870685
11
-3.0475496036
21
-10.0810100174
31
-4.1780085047
11
-2.8387018987
21
-10.2878515709
31
-4.0632676420
11
-2.6455041519
21
-10.5478941218
31
-4.0016542873
11
-2.4782994823
21
-10.8500438992
31
-3.9985197460
11
-2.3414219200
21
-11.1821796631
31
-4.0514233022
11
-2.2322350041
21
-11.5402883350
31
-4.1548835100
0
SPLINE
5
2CB
100
AcDbEntity
8
ASSI
100
AcDbSpline
62
9
6
CONTINUOUS
70
0
71
3
72
8
73
4
74
2
42
0.0000001000
43
0.0000001000
44
0.0000000001
12
-0.6004722018
22
-2.2757745272
32
-2.2022211625
13
-0.5779155811
23
-2.2636061471
33
-2.2205292740
40
0.0000000000
40
0.0000000000
40
0.0000000000
40
0.0000000000
40
1.0000000000
40
1.0000000000
40
1.0000000000
40
1.0000000000
10
-4.3966187866
20
-10.3820471700
30
-5.9796096719
10
-4.5967761872
20
-11.1406386791
30
-6.7136833927
10
-4.7931793038
20
-11.8972219744
30
-7.4508278051
10
-4.9858178308
20
-12.6517573568
30
-8.1910042298
11
-4.3966187866
21
-10.3820471700
31
-5.9796096719
11
-4.9858178308
21
-12.6517573568
31
-8.1910042298
0
SPLINE
5
2CC
100
AcDbEntity
8
ASSI
100
AcDbSpline
62
9
6
CONTINUOUS
70
0
71
3
72
19
73
15
74
13
42
0.0000001000
43
0.0000001000
44
0.0000000001
12
-1.1543123397
22
4.4424248114
32
1.5244516750
13
-0.9006687716
23
-3.4104648843
33
-3.3011885692
40
0.0000000000
40
0.0000000000
40
0.0000000000
40
0.0000000000
40
0.0833333333
40
0.1666666667
40
0.2500000000
40
0.3333333333
40
0.4166666667
40
0.5000000000
40
0.5833333333
40
0.6666666667
40
0.7500000000
40
0.8333333333
40
0.9166666667
40
1.0000000000
40
1.0000000000
40
1.0000000000
40
1.0000000000
10
-2.0326604452
20
-11.5640899653
30
-3.9324032432
10
-2.0647246768
20
-11.4406892761
30
-3.8900573633
10
-2.1382541629
20
-11.1958108808
30
-3.8181085720
10
-2.2830943353
20
-10.8308294409
30
-3.7535913626
10
-2.4696322972
20
-10.4753298461
30
-3.7454707565
10
-2.6993729665
20
-10.1509468063
30
-3.8092765067
10
-2.9665310340
20
-9.8732787015
30
-3.9478988535
10
-3.2545823935
20
-9.6733065894
30
-4.1613962316
10
-3.5394195900
20
-9.5874842093
30
-4.4444527381
10
-3.7979318456
20
-9.6026846666
30
-4.7613118645
10
-4.0148684691
20
-9.7037540847
30
-5.0843580967
10
-4.1851007198
20
-9.8804503054
30
-5.4011821125
10
-4.3114549581
20
-10.1092773280
30
-5.7001995583
10
-4.3715371443
20
-10.2870727526
30
-5.8876785252
10
-4.3965557212
20
-10.3818078883
30
-5.9793782077
11
-2.0326604452
21
-11.5640899653
31
-3.9324032432
11
-2.1440118201
21
-11.1962002396
31
-3.8253429016
11
-2.2900439669
21
-10.8324097484
31
-3.7629907965
11
-2.4768327485
21
-10.4805159386
31
-3.7574584826
11
-2.7056091996
21
-10.1587326288
31
-3.8217459394
11
-2.9700132493
21
-9.8862280336
31
-3.9603780254
11
-3.2540466997
21
-9.6923315448
31
-4.1729894197
11
-3.5350320999
21
-9.6043213489
31
-4.4500865081
11
-3.7910025736
21
-9.6169961601
31
-4.7623430488
11
-4.0070844070
21
-9.7163585518
31
-5.0833210606
11
-4.1777877177
21
-9.8891387724
31
-5.3982143508
11
-4.3054164649
21
-10.1155883470
31
-5.6972330590
11
-4.3965557212
21
-10.3818078883
31
-5.9793782077
0
SPLINE
5
2CD
100
AcDbEntity
8
ASSI
100
AcDbSpline
62
9
6
CONTINUOUS
70
0
71
3
72
8
73
4
74
2
42
0.0000001000
43
0.0000001000
44
0.0000000001
12
-0.7912581526
22
2.9482754393
32
1.0348486651
13
-0.7693172357
23
2.9607532215
33
1.0160048616
40
0.0000000000
40
0.0000000000
40
0.0000000000
40
0.0000000000
40
1.0000000000
40
1.0000000000
40
1.0000000000
40
1.0000000000
10
-1.2523657771
20
-14.5186301545
30
-4.9578388088
10
-1.5161184947
20
-13.5358716747
30
-4.6128892537
10
-1.7762212172
20
-12.5510077241
30
-4.2710713641
10
-2.0326602958
20
-11.5640899836
30
-3.9324030769
11
-1.2523657771
21
-14.5186301545
31
-4.9578388088
11
-2.0326602958
21
-11.5640899836
31
-3.9324030769
0
SPLINE
5
2CE
100
AcDbEntity
8
ASSI
100
AcDbSpline
62
9
6
CONTINUOUS
70
0
71
3
72
27
73
23
74
21
42
0.0000001000
43
0.0000001000
44
0.0000000001
12
0.1958290946
22
-0.0979145473
32
0.1695929707
13
-0.0689089072
23
0.2579709355
33
0.0909396129
40
0.0000000000
40
0.0000000000
40
0.0000000000
40
0.0000000000
40
0.0208333333
40
0.0416666667
40
0.0625000000
40
0.0833333333
40
0.1250000000
40
0.1666666667
40
0.2083333333
40
0.2500000000
40
0.3333333333
40
0.5000000000
40
0.6666666667
40
0.7500000000
40
0.7916666667
40
0.8333333333
40
0.8750000000
40
0.9166666667
40
0.9375000000
40
0.9583333333
40
0.9791666667
40
1.0000000000
40
1.0000000000
40
1.0000000000
40
1.0000000000
10
-1.3466900181
20
-14.6333733141
30
-5.1487336882
10
-1.3453300938
20
-14.6340532763
30
-5.1475559592
10
-1.3428708134
20
-14.6351829855
30
-5.1453586881
10
-1.3389987978
20
-14.6366819718
30
-5.1417103554
10
-1.3352223253
20
-14.6378617914
30
-5.1379615280
10
-1.3302362239
20
-14.6390712731
30
-5.1327768108
10
-1.3241614190
20
-14.6399130687
30
-5.1260334949
10
-1.3171476392
20
-14.6399705288
30
-5.1176305628
10
-1.3104253523
20
-14.6391797957
30
-5.1090059574
10
-1.3018372748
20
-14.6371014449
30
-5.0972666982
10
-1.2878727751
20
-14.6311011693
30
-5.0764098209
10
-1.2700303858
20
-14.6160215543
30
-5.0447606065
10
-1.2571841482
20
-14.5941395633
30
-5.0145410416
10
-1.2516770191
20
-14.5766054154
30
-4.9960902654
10
-1.2495665776
20
-14.5657076087
30
-4.9862030876
10
-1.2485797634
20
-14.5571179604
30
-4.9792247942
10
-1.2482561467
20
-14.5480939262
30
-4.9727522399
10
-1.2486129926
20
-14.5402239961
30
-4.9678769188
10
-1.2493252168
20
-14.5337310783
30
-4.9643576409
10
-1.2500783216
20
-14.5287973264
30
-4.9619385595
10
-1.2510854418
20
-14.5237213650
30
-4.9597293922
10
-1.2518689008
20
-14.5204895646
30
-4.9584940540
10
-1.2523474349
20
-14.5186980997
30
-4.9578625289
11
-1.3466900181
21
-14.6333733141
31
-5.1487336882
11
-1.3428402976
21
-14.6351503893
31
-5.1452999504
11
-1.3390147217
21
-14.6366287773
31
-5.1416936063
11
-1.3352284747
21
-14.6378163400
31
-5.1379382429
11
-1.3314932707
21
-14.6387242323
31
-5.1340554955
11
-1.3242074167
21
-14.6397542863
31
-5.1259816694
11
-1.3171962214
21
-14.6398291633
31
-5.1175936173
11
-1.3104722238
21
-14.6390517907
31
-5.1089759842
11
-1.3040349911
21
-14.6375085011
31
-5.1001866000
11
-1.2920030919
21
-14.6323816809
31
-5.0822453503
11
-1.2710296162
21
-14.6146610791
31
-5.0450465364
11
-1.2559426101
21
-14.5889186873
31
-5.0095268121
11
-1.2512357828
21
-14.5738077726
31
-4.9936731479
11
-1.2496659137
21
-14.5656382265
31
-4.9862759360
11
-1.2486902963
21
-14.5570455627
31
-4.9793090841
11
-1.2483814520
21
-14.5480239459
31
-4.9728559347
11
-1.2488266110
21
-14.5385843522
31
-4.9670288476
11
-1.2493617063
21
-14.5337204011
31
-4.9643943704
11
-1.2501206575
21
-14.5287736248
31
-4.9619735452
11
-1.2511134532
21
-14.5237594084
31
-4.9597887522
11
-1.2523474349
21
-14.5186980997
31
-4.9578625289
0
SPLINE
5
2CF
100
AcDbEntity
8
0
100
AcDbSpline
62
0
6
CONTINUOUS
70
0
71
3
72
8
73
4
74
2
42
0.0000001000
43
0.0000001000
44
0.0000000001
12
0.1924333861
22
0.1015557269
32
0.0000000000
13
0.2043295717
23
0.0748717477
33
0.0000000000
40
0.0000000000
40
0.0000000000
40
0.0000000000
40
0.0000000000
40
1.0000000000
40
1.0000000000
40
1.0000000000
40
1.0000000000
10
-6.0758757604
20
-7.2790223183
30
0.0000000000
10
-6.0117312984
20
-7.2451704093
30
0.0000000000
10
-5.9452803701
20
-7.2156626810
30
0.0000000000
10
-5.8771705129
20
-7.1907054317
30
0.0000000000
11
-6.0758757604
21
-7.2790223183
31
0.0000000000
11
-5.8771705129
21
-7.1907054317
31
0.0000000000
0
SPLINE
5
2D0
100
AcDbEntity
8
0
100
AcDbSpline
62
9
6
CONTINUOUS
70
0
71
3
72
8
73
4
74
2
42
0.0000001000
43
0.0000001000
44
0.0000000001
12
0.0394117428
22
-0.0196999256
32
0.0000000000
13
0.0396751907
23
-0.0192176397
33
0.0000000000
40
0.0000000000
40
0.0000000000
40
0.0000000000
40
0.0000000000
40
1.0000000000
40
1.0000000000
40
1.0000000000
40
1.0000000000
10
-1.5484863042
20
-16.4137659790
30
0.0000000000
10
-1.5353490566
20
-16.4203326209
30
0.0000000000
10
-1.5221675526
20
-16.4268204118
30
0.0000000000
10
-1.5089424891
20
-16.4332262917
30
0.0000000000
11
-1.5484863042
21
-16.4137659790
31
0.0000000000
11
-1.5089424891
21
-16.4332262917
31
0.0000000000
0
SPLINE
5
2D1
100
AcDbEntity
8
0
100
AcDbSpline
62
9
6
CONTINUOUS
70
0
71
3
72
8
73
4
74
2
42
0.0000001000
43
0.0000001000
44
0.0000000001
12
0.1517915553
22
-0.0735239170
32
0.0000000000
13
0.1555000348
23
-0.0658161824
33
0.0000000000
40
0.0000000000
40
0.0000000000
40
0.0000000000
40
0.0000000000
40
1.0000000000
40
1.0000000000
40
1.0000000000
40
1.0000000000
10
-1.5089424891
20
-16.4332262917
30
0.0000000000
10
-1.4583453040
20
-16.4577342640
30
0.0000000000
10
-1.4071105296
20
-16.4810432917
30
0.0000000000
10
-1.3552771847
20
-16.5029820192
30
0.0000000000
11
-1.5089424891
21
-16.4332262917
31
0.0000000000
11
-1.3552771847
21
-16.5029820192
31
0.0000000000
0
SPLINE
5
2D2
100
AcDbEntity
8
0
100
AcDbSpline
62
9
6
CONTINUOUS
70
0
71
3
72
8
73
4
74
2
42
0.0000001000
43
0.0000001000
44
0.0000000001
12
0.3682804549
22
-0.1558765799
32
0.0000000000
13
0.3868702236
23
-0.1029302282
33
0.0000000000
40
0.0000000000
40
0.0000000000
40
0.0000000000
40
0.0000000000
40
1.0000000000
40
1.0000000000
40
1.0000000000
40
1.0000000000
10
-1.3552771847
20
-16.5029820192
30
0.0000000000
10
-1.2325170330
20
-16.5549408791
30
0.0000000000
10
-1.1063994148
20
-16.5992135319
30
0.0000000000
10
-0.9774426736
20
-16.6335236080
30
0.0000000000
11
-1.3552771847
21
-16.5029820192
31
0.0000000000
11
-0.9774426736
21
-16.6335236080
31
0.0000000000
0
SPLINE
5
2D3
100
AcDbEntity
8
0
100
AcDbSpline
62
9
6
CONTINUOUS
70
0
71
3
72
8
73
4
74
2
42
0.0000001000
43
0.0000001000
44
0.0000000001
12
0.1836685898
22
-0.0488666450
32
0.0000000000
13
0.1869577033
23
-0.0343510044
33
0.0000000000
40
0.0000000000
40
0.0000000000
40
0.0000000000
40
0.0000000000
40
1.0000000000
40
1.0000000000
40
1.0000000000
40
1.0000000000
10
-0.9774426736
20
-16.6335236080
30
0.0000000000
10
-0.9162198103
20
-16.6498124896
30
0.0000000000
10
-0.8543570305
20
-16.6638558827
30
0.0000000000
10
-0.7920377960
20
-16.6753062175
30
0.0000000000
11
-0.9774426736
21
-16.6335236080
31
0.0000000000
11
-0.7920377960
21
-16.6753062175
31
0.0000000000
0
SPLINE
5
2D4
100
AcDbEntity
8
0
100
AcDbSpline
62
9
6
CONTINUOUS
70
0
71
3
72
8
73
4
74
2
42
0.0000001000
43
0.0000001000
44
0.0000000001
12
0.1814602202
22
-0.0333409146
32
0.0000000000
13
0.1835370038
23
-0.0177306929
33
0.0000000000
40
0.0000000000
40
0.0000000000
40
0.0000000000
40
0.0000000000
40
1.0000000000
40
1.0000000000
40
1.0000000000
40
1.0000000000
10
-0.7920377960
20
-16.6753062175
30
0.0000000000
10
-0.7315510560
20
-16.6864198557
30
0.0000000000
10
-0.6706343107
20
-16.6950906911
30
0.0000000000
10
-0.6094553095
20
-16.7010009220
30
0.0000000000
11
-0.7920377960
21
-16.6753062175
31
0.0000000000
11
-0.6094553095
21
-16.7010009220
31
0.0000000000
0
SPLINE
5
2D5
100
AcDbEntity
8
0
100
AcDbSpline
62
9
6
CONTINUOUS
70
0
71
3
72
9
73
5
74
3
42
0.0000001000
43
0.0000001000
44
0.0000000001
12
0.5141602316
22
-0.0496707311
32
0.0000000000
13
0.5076092878
23
0.0993845172
33
0.0000000000
40
0.0000000000
40
0.0000000000
40
0.0000000000
40
0.0000000000
40
0.3434268815
40
1.0000000000
40
1.0000000000
40
1.0000000000
40
1.0000000000
10
-0.6094553095
20
-16.7010009220
30
0.0000000000
10
-0.5505964945
20
-16.7066870101
30
0.0000000000
10
-0.3785029296
20
-16.7158036598
30
0.0000000000
10
-0.2056177644
20
-16.7008560824
30
0.0000000000
10
-0.0945235601
20
-16.6791050150
30
0.0000000000
11
-0.6094553095
21
-16.7010009220
31
0.0000000000
11
-0.4323000189
21
-16.7101106317
31
0.0000000000
11
-0.0945235601
21
-16.6791050150
31
0.0000000000
0
SPLINE
5
2D6
100
AcDbEntity
8
0
100
AcDbSpline
62
9
6
CONTINUOUS
70
0
71
3
72
8
73
4
74
2
42
0.0000001000
43
0.0000001000
44
0.0000000001
12
0.1605957302
22
0.0314429414
32
0.0000000000
13
0.1563017670
23
0.0485973158
33
0.0000000000
40
0.0000000000
40
0.0000000000
40
0.0000000000
40
0.0000000000
40
1.0000000000
40
1.0000000000
40
1.0000000000
40
1.0000000000
10
-0.0945235601
20
-16.6791050150
30
0.0000000000
10
-0.0409916500
20
-16.6686240345
30
0.0000000000
10
0.0119789307
20
-16.6553714329
30
0.0000000000
10
0.0640795197
20
-16.6391723276
30
0.0000000000
11
-0.0945235601
21
-16.6791050150
31
0.0000000000
11
0.0640795197
21
-16.6391723276
31
0.0000000000
0
SPLINE
5
2D7
100
AcDbEntity
8
0
100
AcDbSpline
62
9
6
CONTINUOUS
70
0
71
3
72
8
73
4
74
2
42
0.0000001000
43
0.0000001000
44
0.0000000001
12
0.1537806993
22
0.0478134659
32
0.0000000000
13
0.1477316789
23
0.0645219350
33
0.0000000000
40
0.0000000000
40
0.0000000000
40
0.0000000000
40
0.0000000000
40
1.0000000000
40
1.0000000000
40
1.0000000000
40
1.0000000000
10
0.0640795197
20
-16.6391723276
30
0.0000000000
10
0.1153397528
20
-16.6232345057
30
0.0000000000
10
0.1657578329
20
-16.6044444647
30
0.0000000000
10
0.2150017259
20
-16.5829371530
30
0.0000000000
11
0.0640795197
21
-16.6391723276
31
0.0000000000
11
0.2150017259
21
-16.5829371530
31
0.0000000000
0
SPLINE
5
2D8
100
AcDbEntity
8
0
100
AcDbSpline
62
9
6
CONTINUOUS
70
0
71
3
72
8
73
4
74
2
42
0.0000001000
43
0.0000001000
44
0.0000000001
12
0.2941684406
22
0.1284783138
32
0.0000000000
13
0.2583699203
23
0.1899260732
33
0.0000000000
40
0.0000000000
40
0.0000000000
40
0.0000000000
40
0.0000000000
40
1.0000000000
40
1.0000000000
40
1.0000000000
40
1.0000000000
10
0.2150017259
20
-16.5829371530
30
0.0000000000
10
0.3130578727
20
-16.5401110484
30
0.0000000000
10
0.4064583497
20
-16.4865109234
30
0.0000000000
10
0.4925816564
20
-16.4232022323
30
0.0000000000
11
0.2150017259
21
-16.5829371530
31
0.0000000000
11
0.4925816564
21
-16.4232022323
31
0.0000000000
0
SPLINE
5
2D9
100
AcDbEntity
8
0
100
AcDbSpline
62
9
6
CONTINUOUS
70
0
71
3
72
8
73
4
74
2
42
0.0000001000
43
0.0000001000
44
0.0000000001
12
0.1304001401
22
0.0958563076
32
0.0000000000
13
0.1190434552
23
0.1096604822
33
0.0000000000
40
0.0000000000
40
0.0000000000
40
0.0000000000
40
0.0000000000
40
1.0000000000
40
1.0000000000
40
1.0000000000
40
1.0000000000
10
0.4925816564
20
-16.4232022323
30
0.0000000000
10
0.5360483698
20
-16.3912501298
30
0.0000000000
10
0.5776614032
20
-16.3568250091
30
0.0000000000
10
0.6173425549
20
-16.3202715150
30
0.0000000000
11
0.4925816564
21
-16.4232022323
31
0.0000000000
11
0.6173425549
21
-16.3202715150
31
0.0000000000
0
SPLINE
5
2DA
100
AcDbEntity
8
0
100
AcDbSpline
62
9
6
CONTINUOUS
70
0
71
3
72
8
73
4
74
2
42
0.0000001000
43
0.0000001000
44
0.0000000001
12
0.1215464470
22
0.1119661889
32
0.0000000000
13
0.1092128815
23
0.1241785522
33
0.0000000000
40
0.0000000000
40
0.0000000000
40
0.0000000000
40
0.0000000000
40
1.0000000000
40
1.0000000000
40
1.0000000000
40
1.0000000000
10
0.6173425549
20
-16.3202715150
30
0.0000000000
10
0.6578580373
20
-16.2829494521
30
0.0000000000
10
0.6963595449
20
-16.2434085730
30
0.0000000000
10
0.7327638387
20
-16.2020157223
30
0.0000000000
11
0.6173425549
21
-16.3202715150
31
0.0000000000
11
0.7327638387
21
-16.2020157223
31
0.0000000000
0
SPLINE
5
2DB
100
AcDbEntity
8
0
100
AcDbSpline
62
9
6
CONTINUOUS
70
0
71
3
72
8
73
4
74
2
42
0.0000001000
43
0.0000001000
44
0.0000000001
12
0.1113293875
22
0.1265850875
32
0.0000000000
13
0.0979891416
23
0.1369660123
33
0.0000000000
40
0.0000000000
40
0.0000000000
40
0.0000000000
40
0.0000000000
40
1.0000000000
40
1.0000000000
40
1.0000000000
40
1.0000000000
10
0.7327638387
20
-16.2020157223
30
0.0000000000
10
0.7698736345
20
-16.1598206931
30
0.0000000000
10
0.8048041425
20
-16.1157012156
30
0.0000000000
10
0.8374671897
20
-16.0700458782
30
0.0000000000
11
0.7327638387
21
-16.2020157223
31
0.0000000000
11
0.8374671897
21
-16.0700458782
31
0.0000000000
0
SPLINE
5
2DC
100
AcDbEntity
8
0
100
AcDbSpline
62
9
6
CONTINUOUS
70
0
71
3
72
8
73
4
74
2
42
0.0000001000
43
0.0000001000
44
0.0000000001
12
0.3140202012
22
0.4389271508
32
0.0000000000
13
0.1864949846
23
0.5058655069
33
0.0000000000
40
0.0000000000
40
0.0000000000
40
0.0000000000
40
0.0000000000
40
1.0000000000
40
1.0000000000
40
1.0000000000
40
1.0000000000
10
0.8374671897
20
-16.0700458782
30
0.0000000000
10
0.9421405901
20
-15.9237368279
30
0.0000000000
10
1.0235277679
20
-15.7616549018
30
0.0000000000
10
1.0856927628
20
-15.5930330662
30
0.0000000000
11
0.8374671897
21
-16.0700458782
31
0.0000000000
11
1.0856927628
21
-15.5930330662
31
0.0000000000
0
SPLINE
5
2DD
100
AcDbEntity
8
0
100
AcDbSpline
62
9
6
CONTINUOUS
70
0
71
3
72
17
73
13
74
11
42
0.0000001000
43
0.0000001000
44
0.0000000001
12
2.5706368073
22
6.9728228581
32
0.0000000000
13
-6.6291976094
23
3.3155362197
33
0.0000000000
40
0.0000000000
40
0.0000000000
40
0.0000000000
40
0.0000000000
40
0.0809274371
40
0.1708828429
40
0.2691273082
40
0.3739570448
40
0.4830456156
40
0.5937338889
40
0.7032308860
40
0.8089596271
40
0.9086197771
40
1.0000000000
40
1.0000000000
40
1.0000000000
40
1.0000000000
10
1.0856927628
20
-15.5930330662
30
0.0000000000
10
1.1550377790
20
-15.4049355052
30
0.0000000000
10
1.2509575584
20
-14.9905733485
30
0.0000000000
10
1.2764870494
20
-14.3229244280
30
0.0000000000
10
1.1915904042
20
-13.6014506059
30
0.0000000000
10
0.9997776069
20
-12.8523106417
30
0.0000000000
10
0.7080466987
20
-12.1032774242
30
0.0000000000
10
0.3269563688
20
-11.3825054680
30
0.0000000000
10
-0.1297130860
20
-10.7170612869
30
0.0000000000
10
-0.6456321142
20
-10.1318955351
30
0.0000000000
10
-1.2011318519
20
-9.6498420223
30
0.0000000000
10
-1.6032492805
20
-9.3975075819
30
0.0000000000
10
-1.8051751322
20
-9.2965161023
30
0.0000000000
11
1.0856927628
21
-15.5930330662
31
0.0000000000
11
1.2280125087
21
-15.0103199202
31
0.0000000000
11
1.2591650450
21
-14.3442907384
31
0.0000000000
11
1.1780634517
21
-13.6206245289
31
0.0000000000
11
0.9877918165
21
-12.8672741015
31
0.0000000000
11
0.6954794942
21
-12.1133871909
31
0.0000000000
11
0.3120100445
21
-11.3880882981
31
0.0000000000
11
-0.1482088478
21
-10.7195860296
31
0.0000000000
11
-0.6682778096
21
-10.1333539821
31
0.0000000000
11
-1.2287470192
21
-9.6521712546
31
0.0000000000
11
-1.8051751322
21
-9.2965161023
31
0.0000000000
0
SPLINE
5
2DE
100
AcDbEntity
8
0
100
AcDbSpline
62
9
6
CONTINUOUS
70
0
71
3
72
8
73
4
74
2
42
0.0000001000
43
0.0000001000
44
0.0000000001
12
-0.0446821261
22
0.0223340789
32
0.0000000000
13
-0.0450290723
23
0.0216970894
33
0.0000000000
40
0.0000000000
40
0.0000000000
40
0.0000000000
40
0.0000000000
40
1.0000000000
40
1.0000000000
40
1.0000000000
40
1.0000000000
10
-4.7750236132
20
-7.8115918618
30
0.0000000000
10
-4.7899176553
20
-7.8041471689
30
0.0000000000
10
-4.8048701016
20
-7.7968064385
30
0.0000000000
10
-4.8198797924
20
-7.7895740754
30
0.0000000000
11
-4.7750236132
21
-7.8115918618
31
0.0000000000
11
-4.8198797924
21
-7.7895740754
31
0.0000000000
0
SPLINE
5
2DF
100
AcDbEntity
8
0
100
AcDbSpline
62
9
6
CONTINUOUS
70
0
71
3
72
8
73
4
74
2
42
0.0000001000
43
0.0000001000
44
0.0000000001
12
-0.1884826806
22
0.0794362403
32
0.0000000000
13
-0.1936039237
23
0.0662299979
33
0.0000000000
40
0.0000000000
40
0.0000000000
40
0.0000000000
40
0.0000000000
40
1.0000000000
40
1.0000000000
40
1.0000000000
40
1.0000000000
10
-4.9686248303
20
-7.7223795333
30
0.0000000000
10
-5.0314523905
20
-7.6959007865
30
0.0000000000
10
-5.0951730922
20
-7.6714726872
30
0.0000000000
10
-5.1597077334
20
-7.6493960213
30
0.0000000000
11
-4.9686248303
21
-7.7223795333
31
0.0000000000
11
-5.1597077334
21
-7.6493960213
31
0.0000000000
0
SPLINE
5
2E0
100
AcDbEntity
8
0
100
AcDbSpline
62
9
6
CONTINUOUS
70
0
71
3
72
10
73
6
74
4
42
0.0000001000
43
0.0000001000
44
0.0000000001
12
-0.8767544613
22
0.2999290769
32
0.0000000000
13
-0.9242007057
23
-0.0899294697
33
0.0000000000
40
0.0000000000
40
0.0000000000
40
0.0000000000
40
0.0000000000
40
0.2124841543
40
0.8126462030
40
1.0000000000
40
1.0000000000
40
1.0000000000
40
1.0000000000
10
-5.1597077334
20
-7.6493960213
30
0.0000000000
10
-5.2218065435
20
-7.6281526292
30
0.0000000000
10
-5.4621859623
20
-7.5552342171
30
0.0000000000
10
-5.7702792217
20
-7.5095170739
30
0.0000000000
10
-6.0140853163
20
-7.5210649883
30
0.0000000000
10
-6.0718028202
20
-7.5266811975
30
0.0000000000
11
-5.1597077334
21
-7.6493960213
31
0.0000000000
11
-5.3481945623
21
-7.5924656680
31
0.0000000000
11
-5.8981466980
21
-7.5182616980
31
0.0000000000
11
-6.0718028202
21
-7.5266811975
31
0.0000000000
0
SPLINE
5
2E1
100
AcDbEntity
8
0
100
AcDbSpline
62
9
6
CONTINUOUS
70
0
71
3
72
8
73
4
74
2
42
0.0000001000
43
0.0000001000
44
0.0000000001
12
-0.1696002327
22
-0.0165029727
32
0.0000000000
13
-0.1669671392
23
-0.0335180087
33
0.0000000000
40
0.0000000000
40
0.0000000000
40
0.0000000000
40
0.0000000000
40
1.0000000000
40
1.0000000000
40
1.0000000000
40
1.0000000000
10
-6.0718028202
20
-7.5266811975
30
0.0000000000
10
-6.1283362311
20
-7.5321821884
30
0.0000000000
10
-6.1845960857
20
-7.5404355788
30
0.0000000000
10
-6.2402517988
20
-7.5516082483
30
0.0000000000
11
-6.0718028202
21
-7.5266811975
31
0.0000000000
11
-6.2402517988
21
-7.5516082483
31
0.0000000000
0
SPLINE
5
2E2
100
AcDbEntity
8
0
100
AcDbSpline
62
9
6
CONTINUOUS
70
0
71
3
72
8
73
4
74
2
42
0.0000001000
43
0.0000001000
44
0.0000000001
12
-0.1630420979
22
-0.0327300718
32
0.0000000000
13
-0.1586622250
23
-0.0498980704
33
0.0000000000
40
0.0000000000
40
0.0000000000
40
0.0000000000
40
0.0000000000
40
1.0000000000
40
1.0000000000
40
1.0000000000
40
1.0000000000
10
-6.2402517988
20
-7.5516082483
30
0.0000000000
10
-6.2945991648
20
-7.5625182723
30
0.0000000000
10
-6.3483704595
20
-7.5762119367
30
0.0000000000
10
-6.4012578678
20
-7.5928446268
30
0.0000000000
11
-6.2402517988
21
-7.5516082483
31
0.0000000000
11
-6.4012578678
21
-7.5928446268
31
0.0000000000
0
SPLINE
5
2E3
100
AcDbEntity
8
0
100
AcDbSpline
62
9
6
CONTINUOUS
70
0
71
3
72
8
73
4
74
2
42
0.0000001000
43
0.0000001000
44
0.0000000001
12
-0.0506747261
22
-0.0159368183
32
0.0000000000
13
-0.0501008858
23
-0.0177217113
33
0.0000000000
40
0.0000000000
40
0.0000000000
40
0.0000000000
40
0.0000000000
40
1.0000000000
40
1.0000000000
40
1.0000000000
40
1.0000000000
10
-6.4012578678
20
-7.5928446268
30
0.0000000000
10
-6.4181494431
20
-7.5981568995
30
0.0000000000
10
-6.4349508547
20
-7.6037689775
30
0.0000000000
10
-6.4516511500
20
-7.6096762146
30
0.0000000000
11
-6.4012578678
21
-7.5928446268
31
0.0000000000
11
-6.4516511500
21
-7.6096762146
31
0.0000000000
0
SPLINE
5
2E4
100
AcDbEntity
8
0
100
AcDbSpline
62
9
6
CONTINUOUS
70
0
71
3
72
8
73
4
74
2
42
0.0000001000
43
0.0000001000
44
0.0000000001
12
-0.1498617630
22
-0.0657206991
32
0.0000000000
13
-0.1418591728
23
-0.0815385742
33
0.0000000000
40
0.0000000000
40
0.0000000000
40
0.0000000000
40
0.0000000000
40
1.0000000000
40
1.0000000000
40
1.0000000000
40
1.0000000000
10
-6.5547032513
20
-7.6504375180
30
0.0000000000
10
-6.6046571723
20
-7.6723444177
30
0.0000000000
10
-6.6534369744
20
-7.6969553515
30
0.0000000000
10
-6.7007233654
20
-7.7241348763
30
0.0000000000
11
-6.5547032513
21
-7.6504375180
31
0.0000000000
11
-6.7007233654
21
-7.7241348763
31
0.0000000000
0
SPLINE
5
2E5
100
AcDbEntity
8
0
100
AcDbSpline
62
9
6
CONTINUOUS
70
0
71
3
72
8
73
4
74
2
42
0.0000001000
43
0.0000001000
44
0.0000000001
12
-0.1415440232
22
-0.0813574308
32
0.0000000000
13
-0.1316718172
23
-0.0962969496
33
0.0000000000
40
0.0000000000
40
0.0000000000
40
0.0000000000
40
0.0000000000
40
1.0000000000
40
1.0000000000
40
1.0000000000
40
1.0000000000
10
-6.7007233654
20
-7.7241348763
30
0.0000000000
10
-6.7479047064
20
-7.7512540199
30
0.0000000000
10
-6.7935992643
20
-7.7809303545
30
0.0000000000
10
-6.8374898701
20
-7.8130293377
30
0.0000000000
11
-6.7007233654
21
-7.7241348763
31
0.0000000000
11
-6.8374898701
21
-7.8130293377
31
0.0000000000
0
SPLINE
5
2E6
100
AcDbEntity
8
0
100
AcDbSpline
62
9
6
CONTINUOUS
70
0
71
3
72
8
73
4
74
2
42
0.0000001000
43
0.0000001000
44
0.0000000001
12
-0.1329791617
22
-0.0972530638
32
0.0000000000
13
-0.1216772859
23
-0.1110833362
33
0.0000000000
40
0.0000000000
40
0.0000000000
40
0.0000000000
40
0.0000000000
40
1.0000000000
40
1.0000000000
40
1.0000000000
40
1.0000000000
10
-6.8374898701
20
-7.8130293377
30
0.0000000000
10
-6.8818162573
20
-7.8454470256
30
0.0000000000
10
-6.9243026923
20
-7.8803357090
30
0.0000000000
10
-6.9648617876
20
-7.9173634877
30
0.0000000000
11
-6.8374898701
21
-7.8130293377
31
0.0000000000
11
-6.9648617876
21
-7.9173634877
31
0.0000000000
0
SPLINE
5
2E7
100
AcDbEntity
8
0
100
AcDbSpline
62
9
6
CONTINUOUS
70
0
71
3
72
8
73
4
74
2
42
0.0000001000
43
0.0000001000
44
0.0000000001
12
-0.1281329012
22
-0.1169768871
32
0.0000000000
13
-0.1150031040
23
-0.1300467306
33
0.0000000000
40
0.0000000000
40
0.0000000000
40
0.0000000000
40
0.0000000000
40
1.0000000000
40
1.0000000000
40
1.0000000000
40
1.0000000000
10
-6.9648617876
20
-7.9173634877
30
0.0000000000
10
-7.0075727547
20
-7.9563557834
30
0.0000000000
10
-7.0481464460
20
-7.9977201761
30
0.0000000000
10
-7.0864808140
20
-8.0410690863
30
0.0000000000
11
-6.9648617876
21
-7.9173634877
31
0.0000000000
11
-7.0864808140
21
-8.0410690863
31
0.0000000000
0
SPLINE
5
2E8
100
AcDbEntity
8
0
100
AcDbSpline
62
9
6
CONTINUOUS
70
0
71
3
72
13
73
9
74
7
42
0.0000001000
43
0.0000001000
44
0.0000000001
12
-2.3176395047
22
-2.6208113500
32
0.0000000000
13
1.0895289450
23
-3.3107409410
33
0.0000000000
40
0.0000000000
40
0.0000000000
40
0.0000000000
40
0.0000000000
40
0.0473518035
40
0.2034404187
40
0.3765476887
40
0.5682082360
40
0.7771381498
40
1.0000000000
40
1.0000000000
40
1.0000000000
40
1.0000000000
10
-7.0864808140
20
-8.0410690863
30
0.0000000000
10
-7.1230622841
20
-8.0824358010
30
0.0000000000
10
-7.2714682756
20
-8.2679264032
30
0.0000000000
10
-7.4734529144
20
-8.6614863415
30
0.0000000000
10
-7.6148148248
20
-9.2542135895
30
0.0000000000
10
-7.6419105782
20
-9.9231295677
30
0.0000000000
10
-7.5552075723
20
-10.6443973976
30
0.0000000000
10
-7.4272718241
20
-11.1305699802
30
0.0000000000
10
-7.3463336786
20
-11.3765159308
30
0.0000000000
11
-7.0864808140
21
-8.0410690863
31
0.0000000000
11
-7.1900189076
21
-8.1702539549
31
0.0000000000
11
-7.4447106956
21
-8.6505673496
31
0.0000000000
11
-7.5913633391
21
-9.2353993896
31
0.0000000000
11
-7.6240114854
21
-9.9021613732
31
0.0000000000
11
-7.5412509001
21
-10.6251506503
31
0.0000000000
11
-7.3463336786
21
-11.3765159308
31
0.0000000000
0
SPLINE
5
2E9
100
AcDbEntity
8
0
100
AcDbSpline
62
9
6
CONTINUOUS
70
0
71
3
72
8
73
4
74
2
42
0.0000001000
43
0.0000001000
44
0.0000000001
12
0.0833360993
22
-0.2532325891
32
0.0000000000
13
0.0936512050
23
-0.2495757631
33
0.0000000000
40
0.0000000000
40
0.0000000000
40
0.0000000000
40
0.0000000000
40
1.0000000000
40
1.0000000000
40
1.0000000000
40
1.0000000000
10
-7.3463336786
20
-11.3765159308
30
0.0000000000
10
-7.3185549789
20
-11.4609267938
30
0.0000000000
10
-7.2890204274
20
-11.5447506244
30
0.0000000000
10
-7.2578033591
20
-11.6279425454
30
0.0000000000
11
-7.3463336786
21
-11.3765159308
31
0.0000000000
11
-7.2578033591
21
-11.6279425454
31
0.0000000000
0
SPLINE
5
2EA
100
AcDbEntity
8
0
100
AcDbSpline
62
9
6
CONTINUOUS
70
0
71
3
72
8
73
4
74
2
42
0.0000001000
43
0.0000001000
44
0.0000000001
12
0.0950661936
22
-0.2533466367
32
0.0000000000
13
0.1052385280
23
-0.2492989161
33
0.0000000000
40
0.0000000000
40
0.0000000000
40
0.0000000000
40
0.0000000000
40
1.0000000000
40
1.0000000000
40
1.0000000000
40
1.0000000000
10
-7.2578033591
20
-11.6279425454
30
0.0000000000
10
-7.2261146279
20
-11.7123914243
30
0.0000000000
10
-7.1926921530
20
-11.7961891542
30
0.0000000000
10
-7.1576126436
20
-11.8792887929
30
0.0000000000
11
-7.2578033591
21
-11.6279425454
31
0.0000000000
11
-7.1576126436
21
-11.8792887929
31
0.0000000000
0
SPLINE
5
2EB
100
AcDbEntity
8
0
100
AcDbSpline
62
9
6
CONTINUOUS
70
0
71
3
72
9
73
5
74
3
42
0.0000001000
43
0.0000001000
44
0.0000000001
12
0.2117982734
22
-0.5017276560
32
0.0000000000
13
0.2504250584
23
-0.4835765669
33
0.0000000000
40
0.0000000000
40
0.0000000000
40
0.0000000000
40
0.0000000000
40
0.4986742182
40
1.0000000000
40
1.0000000000
40
1.0000000000
40
1.0000000000
10
-7.1576126436
20
-11.8792887929
30
0.0000000000
10
-7.1224065308
20
-11.9626883418
30
0.0000000000
10
-7.0484601986
20
-12.1285208767
30
0.0000000000
10
-6.9681140776
20
-12.2913350607
30
0.0000000000
10
-6.9262658982
20
-12.3721448609
30
0.0000000000
11
-7.1576126436
21
-11.8792887929
31
0.0000000000
11
-7.0470647983
21
-12.1273305698
31
0.0000000000
11
-6.9262658982
21
-12.3721448609
31
0.0000000000
0
SPLINE
5
2EC
100
AcDbEntity
8
0
100
AcDbSpline
62
9
6
CONTINUOUS
70
0
71
3
72
8
73
4
74
2
42
0.0000001000
43
0.0000001000
44
0.0000000001
12
0.2521745052
22
-0.4869547890
32
0.0000000000
13
0.2891782771
23
-0.4659438166
33
0.0000000000
40
0.0000000000
40
0.0000000000
40
0.0000000000
40
0.0000000000
40
1.0000000000
40
1.0000000000
40
1.0000000000
40
1.0000000000
10
-6.9262658982
20
-12.3721448609
30
0.0000000000
10
-6.8422077298
20
-12.5344631239
30
0.0000000000
10
-6.7518208074
20
-12.6935006132
30
0.0000000000
10
-6.6554280484
20
-12.8488152188
30
0.0000000000
11
-6.9262658982
21
-12.3721448609
31
0.0000000000
11
-6.6554280484
21
-12.8488152188
31
0.0000000000
0
SPLINE
5
2ED
100
AcDbEntity
8
0
100
AcDbSpline
62
9
6
CONTINUOUS
70
0
71
3
72
10
73
6
74
4
42
0.0000001000
43
0.0000001000
44
0.0000000001
12
1.1070891933
22
-1.7838178206
32
0.0000000000
13
1.6342348682
23
-1.3187517377
33
0.0000000000
40
0.0000000000
40
0.0000000000
40
0.0000000000
40
0.0000000000
40
0.3874091141
40
0.7616978064
40
1.0000000000
40
1.0000000000
40
1.0000000000
40
1.0000000000
10
-6.6554280484
20
-12.8488152188
30
0.0000000000
10
-6.5124625672
20
-13.0791709793
30
0.0000000000
10
-6.2053981682
20
-13.5159795355
30
0.0000000000
10
-5.7365550837
20
-14.0374696901
30
0.0000000000
10
-5.4163168516
20
-14.3232398454
30
0.0000000000
10
-5.2865029336
20
-14.4279936561
30
0.0000000000
11
-6.6554280484
21
-12.8488152188
31
0.0000000000
11
-6.1871610305
21
-13.5132620863
31
0.0000000000
11
-5.6604685344
21
-14.0958084322
31
0.0000000000
11
-5.2865029336
21
-14.4279936561
31
0.0000000000
0
SPLINE
5
2EE
100
AcDbEntity
8
0
100
AcDbSpline
62
9
6
CONTINUOUS
70
0
71
3
72
8
73
4
74
2
42
0.0000001000
43
0.0000001000
44
0.0000000001
12
0.1876518673
22
-0.1367260770
32
0.0000000000
13
0.1945025658
23
-0.1268829554
33
0.0000000000
40
0.0000000000
40
0.0000000000
40
0.0000000000
40
0.0000000000
40
1.0000000000
40
1.0000000000
40
1.0000000000
40
1.0000000000
10
-5.0958259804
20
-14.5743319788
30
0.0000000000
10
-5.0332753579
20
-14.6199073378
30
0.0000000000
10
-4.9695735157
20
-14.6639682352
30
0.0000000000
10
-4.9047393271
20
-14.7062625537
30
0.0000000000
11
-5.0958259804
21
-14.5743319788
31
0.0000000000
11
-4.9047393271
21
-14.7062625537
31
0.0000000000
0
SPLINE
5
2EF
100
AcDbEntity
8
0
100
AcDbSpline
62
9
6
CONTINUOUS
70
0
71
3
72
8
73
4
74
2
42
0.0000001000
43
0.0000001000
44
0.0000000001
12
0.0472317020
22
-0.0308114081
32
0.0000000000
13
0.0476315245
23
-0.0301755477
33
0.0000000000
40
0.0000000000
40
0.0000000000
40
0.0000000000
40
0.0000000000
40
1.0000000000
40
1.0000000000
40
1.0000000000
40
1.0000000000
10
-4.9047393271
20
-14.7062625537
30
0.0000000000
10
-4.8889954265
20
-14.7165330231
30
0.0000000000
10
-4.8731847536
20
-14.7266993208
30
0.0000000000
10
-4.8573075787
20
-14.7367578367
30
0.0000000000
11
-4.9047393271
21
-14.7062625537
31
0.0000000000
11
-4.8573075787
21
-14.7367578367
31
0.0000000000
0
SPLINE
5
2F0
100
AcDbEntity
8
0
100
AcDbSpline
62
9
6
CONTINUOUS
70
0
71
3
72
8
73
4
74
2
42
0.0000001000
43
0.0000001000
44
0.0000000001
12
0.1432401203
22
-0.0907455540
32
0.0000000000
13
0.1468265654
23
-0.0846026023
33
0.0000000000
40
0.0000000000
40
0.0000000000
40
0.0000000000
40
0.0000000000
40
1.0000000000
40
1.0000000000
40
1.0000000000
40
1.0000000000
10
-4.8573075787
20
-14.7367578367
30
0.0000000000
10
-4.8095608720
20
-14.7670063547
30
0.0000000000
10
-4.7612127494
20
-14.7962801391
30
0.0000000000
10
-4.7122705609
20
-14.8244810065
30
0.0000000000
11
-4.8573075787
21
-14.7367578367
31
0.0000000000
11
-4.7122705609
21
-14.8244810065
31
0.0000000000
0
SPLINE
5
2F1
100
AcDbEntity
8
0
100
AcDbSpline
62
9
6
CONTINUOUS
70
0
71
3
72
8
73
4
74
2
42
0.0000001000
43
0.0000001000
44
0.0000000001
12
0.1909380220
22
-0.1100199647
32
0.0000000000
13
0.1969173655
23
-0.0984855751
33
0.0000000000
40
0.0000000000
40
0.0000000000
40
0.0000000000
40
0.0000000000
40
1.0000000000
40
1.0000000000
40
1.0000000000
40
1.0000000000
10
-4.7122705609
20
-14.8244810065
30
0.0000000000
10
-4.6486245536
20
-14.8611543281
30
0.0000000000
10
-4.5839739070
20
-14.8960132135
30
0.0000000000
10
-4.5183347852
20
-14.9288417385
30
0.0000000000
11
-4.7122705609
21
-14.8244810065
31
0.0000000000
11
-4.5183347852
21
-14.9288417385
31
0.0000000000
0
SPLINE
5
2F2
100
AcDbEntity
8
0
100
AcDbSpline
62
9
6
CONTINUOUS
70
0
71
3
72
9
73
5
74
3
42
0.0000001000
43
0.0000001000
44
0.0000000001
12
0.0027396837
22
-0.0571096483
32
0.0000000000
13
0.0517668929
23
-0.0271007761
33
0.0000000000
40
0.0000000000
40
0.0000000000
40
0.0000000000
40
0.0000000000
40
0.6473127876
40
1.0000000000
40
1.0000000000
40
1.0000000000
40
1.0000000000
10
-4.5183347852
20
-14.9288417385
30
0.0000000000
10
-4.5177436411
20
-14.9411643404
30
0.0000000000
10
-4.5136928198
20
-14.9611866223
30
0.0000000000
10
-4.4984274758
20
-14.9746111469
30
0.0000000000
10
-4.4923416354
20
-14.9777971793
30
0.0000000000
11
-4.5183347852
21
-14.9288417385
31
0.0000000000
11
-4.5078003040
21
-14.9643211470
31
0.0000000000
11
-4.4923416354
21
-14.9777971793
31
0.0000000000
0
SPLINE
5
2F3
100
AcDbEntity
8
0
100
AcDbSpline
62
9
6
CONTINUOUS
70
0
71
3
72
8
73
4
74
2
42
0.0000001000
43
0.0000001000
44
0.0000000001
12
-0.0548366221
22
0.0274140009
32
0.0000000000
13
-0.0553467635
23
0.0264715514
33
0.0000000000
40
0.0000000000
40
0.0000000000
40
0.0000000000
40
0.0000000000
40
1.0000000000
40
1.0000000000
40
1.0000000000
40
1.0000000000
10
-4.7055775821
20
-7.6877330015
30
0.0000000000
10
-4.7238564561
20
-7.6785950012
30
0.0000000000
10
-4.7422213862
20
-7.6696102120
30
0.0000000000
10
-4.7606703074
20
-7.6607863615
30
0.0000000000
11
-4.7055775821
21
-7.6877330015
31
0.0000000000
11
-4.7606703074
21
-7.6607863615
31
0.0000000000
0
SPLINE
5
2F4
100
AcDbEntity
8
0
100
AcDbSpline
62
9
6
CONTINUOUS
70
0
71
3
72
8
73
4
74
2
42
0.0000001000
43
0.0000001000
44
0.0000000001
12
-0.1403353143
22
0.0671203382
32
0.0000000000
13
-0.1434742451
23
0.0605342902
33
0.0000000000
40
0.0000000000
40
0.0000000000
40
0.0000000000
40
0.0000000000
40
1.0000000000
40
1.0000000000
40
1.0000000000
40
1.0000000000
10
-4.7606703074
20
-7.6607863615
30
0.0000000000
10
-4.8074487455
20
-7.6384129154
30
0.0000000000
10
-4.8547671698
20
-7.6170741588
30
0.0000000000
10
-4.9025919181
20
-7.5968960621
30
0.0000000000
11
-4.7606703074
21
-7.6607863615
31
0.0000000000
11
-4.9025919181
21
-7.5968960621
31
0.0000000000
0
SPLINE
5
2F5
100
AcDbEntity
8
0
100
AcDbSpline
62
9
6
CONTINUOUS
70
0
71
3
72
8
73
4
74
2
42
0.0000001000
43
0.0000001000
44
0.0000000001
12
-0.1933518139
22
0.0815785077
32
0.0000000000
13
-0.1986219729
23
0.0680060652
33
0.0000000000
40
0.0000000000
40
0.0000000000
40
0.0000000000
40
0.0000000000
40
1.0000000000
40
1.0000000000
40
1.0000000000
40
1.0000000000
10
-4.9025919181
20
-7.5968960621
30
0.0000000000
10
-4.9670425228
20
-7.5697032262
30
0.0000000000
10
-5.0324126813
20
-7.5446183076
30
0.0000000000
10
-5.0986200056
20
-7.5219496192
30
0.0000000000
11
-4.9025919181
21
-7.5968960621
31
0.0000000000
11
-5.0986200056
21
-7.5219496192
31
0.0000000000
0
SPLINE
5
2F6
100
AcDbEntity
8
0
100
AcDbSpline
62
9
6
CONTINUOUS
70
0
71
3
72
8
73
4
74
2
42
0.0000001000
43
0.0000001000
44
0.0000000001
12
-0.3521549999
22
-0.0003841008
32
0.0000000000
13
-0.3453879258
23
-0.0693121844
33
0.0000000000
40
0.0000000000
40
0.0000000000
40
0.0000000000
40
0.0000000000
40
1.0000000000
40
1.0000000000
40
1.0000000000
40
1.0000000000
10
-5.8560176877
20
-7.3873705315
30
0.0000000000
10
-5.9734026876
20
-7.3874985651
30
0.0000000000
10
-6.0910531487
20
-7.3984146726
30
0.0000000000
10
-6.2061824573
20
-7.4215187341
30
0.0000000000
11
-5.8560176877
21
-7.3873705315
31
0.0000000000
11
-6.2061824573
21
-7.4215187341
31
0.0000000000
0
SPLINE
5
2F7
100
AcDbEntity
8
0
100
AcDbSpline
62
9
6
CONTINUOUS
70
0
71
3
72
8
73
4
74
2
42
0.0000001000
43
0.0000001000
44
0.0000000001
12
-0.1672244077
22
-0.0335584660
32
0.0000000000
13
-0.1627296331
23
-0.0511773258
33
0.0000000000
40
0.0000000000
40
0.0000000000
40
0.0000000000
40
0.0000000000
40
1.0000000000
40
1.0000000000
40
1.0000000000
40
1.0000000000
10
-6.2061824573
20
-7.4215187341
30
0.0000000000
10
-6.2619239265
20
-7.4327048894
30
0.0000000000
10
-6.3170744003
20
-7.4467480816
30
0.0000000000
10
-6.3713176114
20
-7.4638071901
30
0.0000000000
11
-6.2061824573
21
-7.4215187341
31
0.0000000000
11
-6.3713176114
21
-7.4638071901
31
0.0000000000
0
SPLINE
5
2F8
100
AcDbEntity
8
0
100
AcDbSpline
62
9
6
CONTINUOUS
70
0
71
3
72
8
73
4
74
2
42
0.0000001000
43
0.0000001000
44
0.0000000001
12
-0.1603817204
22
-0.0504389237
32
0.0000000000
13
-0.1541033769
23
-0.0675952485
33
0.0000000000
40
0.0000000000
40
0.0000000000
40
0.0000000000
40
0.0000000000
40
1.0000000000
40
1.0000000000
40
1.0000000000
40
1.0000000000
10
-6.3713176114
20
-7.4638071901
30
0.0000000000
10
-6.4247781848
20
-7.4806201647
30
0.0000000000
10
-6.4773574872
20
-7.5003626545
30
0.0000000000
10
-6.5287252795
20
-7.5228944040
30
0.0000000000
11
-6.3713176114
21
-7.4638071901
31
0.0000000000
11
-6.5287252795
21
-7.5228944040
31
0.0000000000
0
SPLINE
5
2F9
100
AcDbEntity
8
0
100
AcDbSpline
62
9
6
CONTINUOUS
70
0
71
3
72
10
73
6
74
4
42
0.0000001000
43
0.0000001000
44
0.0000000001
12
-0.0035871819
22
0.1475541843
32
0.0000000000
13
0.1308773356
23
0.0682365606
33
0.0000000000
40
0.0000000000
40
0.0000000000
40
0.0000000000
40
0.0000000000
40
0.3317229985
40
0.6843835811
40
1.0000000000
40
1.0000000000
40
1.0000000000
40
1.0000000000
10
-4.7750236132
20
-7.8115918618
30
0.0000000000
10
-4.7754202635
20
-7.7952761564
30
0.0000000000
10
-4.7685018223
20
-7.7613699359
30
0.0000000000
10
-4.7443808032
20
-7.7179077649
30
0.0000000000
10
-4.7193465930
20
-7.6949118617
30
0.0000000000
10
-4.7055775810
20
-7.6877330020
30
0.0000000000
11
-4.7750236132
21
-7.8115918618
31
0.0000000000
11
-4.7664605284
21
-7.7633849145
31
0.0000000000
11
-4.7410046591
21
-7.7179822597
31
0.0000000000
11
-4.7055775810
21
-7.6877330020
31
0.0000000000
0
SPLINE
5
2FA
100
AcDbEntity
8
0
100
AcDbSpline
62
9
6
CONTINUOUS
70
0
71
3
72
10
73
6
74
4
42
0.0000001000
43
0.0000001000
44
0.0000000001
12
-0.0035871791
22
0.1475541866
32
0.0000000000
13
0.1308773370
23
0.0682365629
33
0.0000000000
40
0.0000000000
40
0.0000000000
40
0.0000000000
40
0.0000000000
40
0.3317386883
40
0.6843963937
40
1.0000000000
40
1.0000000000
40
1.0000000000
40
1.0000000000
10
-1.8051751322
20
-9.2965161023
30
0.0000000000
10
-1.8055718009
20
-9.2801996249
30
0.0000000000
10
-1.7986528924
20
-9.2462927608
30
0.0000000000
10
-1.7745313403
20
-9.2028308937
30
0.0000000000
10
-1.7494975543
20
-9.1798358104
30
0.0000000000
10
-1.7357291011
20
-9.1726572420
30
0.0000000000
11
-1.8051751322
21
-9.2965161023
31
0.0000000000
11
-1.7966112439
21
-9.2483069449
31
0.0000000000
11
-1.7711549726
21
-9.2029050015
31
0.0000000000
11
-1.7357291011
21
-9.1726572420
31
0.0000000000
0
SPLINE
5
2FB
100
AcDbEntity
8
0
100
AcDbSpline
62
9
6
CONTINUOUS
70
0
71
3
72
9
73
5
74
3
42
0.0000001000
43
0.0000001000
44
0.0000000001
12
0.2867983489
22
0.1648219859
32
0.0000000000
13
0.2431707584
23
0.2238433949
33
0.0000000000
40
0.0000000000
40
0.0000000000
40
0.0000000000
40
0.0000000000
40
0.4974112532
40
1.0000000000
40
1.0000000000
40
1.0000000000
40
1.0000000000
10
0.4743073281
20
-16.5597786572
30
0.0000000000
10
0.5218595701
20
-16.5324505537
30
0.0000000000
10
0.6143884961
20
-16.4722357236
30
0.0000000000
10
0.6993894329
20
-16.4019693567
30
0.0000000000
10
0.7401277284
20
-16.3644689663
30
0.0000000000
11
0.4743073281
21
-16.5597786572
31
0.0000000000
11
0.6120468685
21
-16.4700605548
31
0.0000000000
11
0.7401277284
21
-16.3644689663
31
0.0000000000
0
SPLINE
5
2FC
100
AcDbEntity
8
0
100
AcDbSpline
62
9
6
CONTINUOUS
70
0
71
3
72
8
73
4
74
2
42
0.0000001000
43
0.0000001000
44
0.0000000001
12
0.1242148224
22
0.1143421509
32
0.0000000000
13
0.1116749520
23
0.1267726735
33
0.0000000000
40
0.0000000000
40
0.0000000000
40
0.0000000000
40
0.0000000000
40
1.0000000000
40
1.0000000000
40
1.0000000000
40
1.0000000000
10
0.7401277284
20
-16.3644689663
30
0.0000000000
10
0.7815326692
20
-16.3263549160
30
0.0000000000
10
0.8208899861
20
-16.2859834542
30
0.0000000000
10
0.8581149701
20
-16.2437258964
30
0.0000000000
11
0.7401277284
21
-16.3644689663
31
0.0000000000
11
0.8581149701
21
-16.2437258964
31
0.0000000000
0
SPLINE
5
2FD
100
AcDbEntity
8
0
100
AcDbSpline
62
9
6
CONTINUOUS
70
0
71
3
72
8
73
4
74
2
42
0.0000001000
43
0.0000001000
44
0.0000000001
12
0.1143788902
22
0.1298421665
32
0.0000000000
13
0.1006848044
23
0.1405165492
33
0.0000000000
40
0.0000000000
40
0.0000000000
40
0.0000000000
40
0.0000000000
40
1.0000000000
40
1.0000000000
40
1.0000000000
40
1.0000000000
10
0.8581149701
20
-16.2437258964
30
0.0000000000
10
0.8962412669
20
-16.2004451742
30
0.0000000000
10
0.9321307221
20
-16.1551859157
30
0.0000000000
10
0.9656923236
20
-16.1083470660
30
0.0000000000
11
0.8581149701
21
-16.2437258964
31
0.0000000000
11
0.9656923236
21
-16.1083470660
31
0.0000000000
0
SPLINE
5
2FE
100
AcDbEntity
8
0
100
AcDbSpline
62
9
6
CONTINUOUS
70
0
71
3
72
8
73
4
74
2
42
0.0000001000
43
0.0000001000
44
0.0000000001
12
0.2109927838
22
0.2944632812
32
0.0000000000
13
0.1531427414
23
0.3281182925
33
0.0000000000
40
0.0000000000
40
0.0000000000
40
0.0000000000
40
0.0000000000
40
1.0000000000
40
1.0000000000
40
1.0000000000
40
1.0000000000
10
0.9656923236
20
-16.1083470660
30
0.0000000000
10
1.0360232515
20
-16.0101926390
30
0.0000000000
10
1.0961315403
20
-15.9051015256
30
0.0000000000
10
1.1471791207
20
-15.7957287615
30
0.0000000000
11
0.9656923236
21
-16.1083470660
31
0.0000000000
11
1.1471791207
21
-15.7957287615
31
0.0000000000
0
SPLINE
5
2FF
100
AcDbEntity
8
0
100
AcDbSpline
62
9
6
CONTINUOUS
70
0
71
3
72
8
73
4
74
2
42
0.0000001000
43
0.0000001000
44
0.0000000001
12
0.0806117535
22
0.1727159294
32
0.0000000000
13
0.0660569536
23
0.1786723581
33
0.0000000000
40
0.0000000000
40
0.0000000000
40
0.0000000000
40
0.0000000000
40
1.0000000000
40
1.0000000000
40
1.0000000000
40
1.0000000000
10
1.1471791207
20
-15.7957287615
30
0.0000000000
10
1.1740497052
20
-15.7381567850
30
0.0000000000
10
1.1984097560
20
-15.6793984522
30
0.0000000000
10
1.2204287406
20
-15.6198409995
30
0.0000000000
11
1.1471791207
21
-15.7957287615
31
0.0000000000
11
1.2204287406
21
-15.6198409995
31
0.0000000000
0
SPLINE
5
300
100
AcDbEntity
8
0
100
AcDbSpline
62
9
6
CONTINUOUS
70
0
71
3
72
8
73
4
74
2
42
0.0000001000
43
0.0000001000
44
0.0000000001
12
0.2136088659
22
0.5777741429
32
0.0000000000
13
0.0852170052
23
0.6094892564
33
0.0000000000
40
0.0000000000
40
0.0000000000
40
0.0000000000
40
0.0000000000
40
1.0000000000
40
1.0000000000
40
1.0000000000
40
1.0000000000
10
1.2204287406
20
-15.6198409995
30
0.0000000000
10
1.2916316959
20
-15.4272496186
30
0.0000000000
10
1.3383544391
20
-15.2263019493
30
0.0000000000
10
1.3667601075
20
-15.0231388639
30
0.0000000000
11
1.2204287406
21
-15.6198409995
31
0.0000000000
11
1.3667601075
21
-15.0231388639
31
0.0000000000
0
SPLINE
5
301
100
AcDbEntity
8
0
100
AcDbSpline
62
9
6
CONTINUOUS
70
0
71
3
72
10
73
6
74
4
42
0.0000001000
43
0.0000001000
44
0.0000000001
12
0.3084335875
22
2.2059793979
32
0.0000000000
13
-0.6771287925
23
2.1196074761
33
0.0000000000
40
0.0000000000
40
0.0000000000
40
0.0000000000
40
0.0000000000
40
0.3070344984
40
0.6423010896
40
1.0000000000
40
1.0000000000
40
1.0000000000
40
1.0000000000
10
1.3667601075
20
-15.0231388639
30
0.0000000000
10
1.3983266915
20
-14.7973682713
30
0.0000000000
10
1.4170415614
20
-14.3193439092
30
0.0000000000
10
1.3307109453
20
-13.5806130713
30
0.0000000000
10
1.2032988324
20
-13.0816091869
30
0.0000000000
10
1.1225627553
20
-12.8288820920
30
0.0000000000
11
1.3667601075
21
-15.0231388639
31
0.0000000000
11
1.3992718044
21
-14.3411634481
31
0.0000000000
11
1.3168268025
21
-13.6002066993
31
0.0000000000
11
1.1225627553
21
-12.8288820920
31
0.0000000000
0
SPLINE
5
302
100
AcDbEntity
8
0
100
AcDbSpline
62
9
6
CONTINUOUS
70
0
71
3
72
8
73
4
74
2
42
0.0000001000
43
0.0000001000
44
0.0000000001
12
-0.0832135611
22
0.2604823310
32
0.0000000000
13
-0.0936137614
23
0.2569042222
33
0.0000000000
40
0.0000000000
40
0.0000000000
40
0.0000000000
40
0.0000000000
40
1.0000000000
40
1.0000000000
40
1.0000000000
40
1.0000000000
10
1.1225627553
20
-12.8288820920
30
0.0000000000
10
1.0948249016
20
-12.7420546483
30
0.0000000000
10
1.0653203298
20
-12.6557998621
30
0.0000000000
10
1.0341157426
20
-12.5701651214
30
0.0000000000
11
1.1225627553
21
-12.8288820920
31
0.0000000000
11
1.0341157426
21
-12.5701651214
31
0.0000000000
0
SPLINE
5
303
100
AcDbEntity
8
0
100
AcDbSpline
62
9
6
CONTINUOUS
70
0
71
3
72
13
73
9
74
7
42
0.0000001000
43
0.0000001000
44
0.0000000001
12
-1.3777845568
22
3.7810538151
32
0.0000000000
13
-3.3682588736
23
2.2108366888
33
0.0000000000
40
0.0000000000
40
0.0000000000
40
0.0000000000
40
0.0000000000
40
0.1378457381
40
0.3466521895
40
0.5532153383
40
0.7526789859
40
0.9407071649
40
1.0000000000
40
1.0000000000
40
1.0000000000
40
1.0000000000
10
1.0341157426
20
-12.5701651214
30
0.0000000000
10
0.9708084996
20
-12.3964310701
30
0.0000000000
10
0.7940081074
20
-11.9659454587
30
0.0000000000
10
0.4468579222
20
-11.3086927035
30
0.0000000000
10
-0.0204005322
20
-10.6273600726
30
0.0000000000
10
-0.5484063483
20
-10.0281983683
30
0.0000000000
10
-1.0021524965
20
-9.6343425702
30
0.0000000000
10
-1.2747904982
20
-9.4442592024
30
0.0000000000
10
-1.3413617042
20
-9.4005636106
30
0.0000000000
11
1.0341157426
21
-12.5701651214
31
0.0000000000
11
0.8237594798
21
-12.0570148997
31
0.0000000000
11
0.4315460446
21
-11.3144145143
31
0.0000000000
11
-0.0393355074
21
-10.6299554222
31
0.0000000000
11
-0.5715859725
21
-10.0297107511
31
0.0000000000
11
-1.1452994381
21
-9.5370062984
31
0.0000000000
11
-1.3413617042
21
-9.4005636106
31
0.0000000000
0
SPLINE
5
304
100
AcDbEntity
8
0
100
AcDbSpline
62
9
6
CONTINUOUS
70
0
71
3
72
8
73
4
74
2
42
0.0000001000
43
0.0000001000
44
0.0000000001
12
-0.1937012548
22
0.1271404179
32
0.0000000000
13
-0.2004565634
23
0.1158201127
33
0.0000000000
40
0.0000000000
40
0.0000000000
40
0.0000000000
40
0.0000000000
40
1.0000000000
40
1.0000000000
40
1.0000000000
40
1.0000000000
10
-1.3413617042
20
-9.4005636106
30
0.0000000000
10
-1.4059287891
20
-9.3581834713
30
0.0000000000
10
-1.4716330505
20
-9.3175672019
30
0.0000000000
10
-1.5384519050
20
-9.2789604976
30
0.0000000000
11
-1.3413617042
21
-9.4005636106
31
0.0000000000
11
-1.5384519050
21
-9.2789604976
31
0.0000000000
0
SPLINE
5
305
100
AcDbEntity
8
0
100
AcDbSpline
62
9
6
CONTINUOUS
70
0
71
3
72
8
73
4
74
2
42
0.0000001000
43
0.0000001000
44
0.0000000001
12
-0.1941606811
22
0.1121824678
32
0.0000000000
13
-0.2003731894
23
0.1002007788
33
0.0000000000
40
0.0000000000
40
0.0000000000
40
0.0000000000
40
0.0000000000
40
1.0000000000
40
1.0000000000
40
1.0000000000
40
1.0000000000
10
-1.5384519050
20
-9.2789604976
30
0.0000000000
10
-1.6031721320
20
-9.2415663417
30
0.0000000000
10
-1.6689380379
20
-9.2060575016
30
0.0000000000
10
-1.7357291011
20
-9.1726572420
30
0.0000000000
11
-1.5384519050
21
-9.2789604976
31
0.0000000000
11
-1.7357291011
21
-9.1726572420
31
0.0000000000
0
SPLINE
5
306
100
AcDbEntity
8
INCISIONI_LASER
100
AcDbSpline
62
9
6
CONTINUOUS
70
0
71
3
72
27
73
23
74
21
42
0.0000001000
43
0.0000001000
44
0.0000000001
12
-0.0499144169
22
-0.1955070662
32
-0.1917865289
13
0.1989666680
23
-0.0994833340
33
0.1723101890
40
0.0000000000
40
0.0000000000
40
0.0000000000
40
0.0000000000
40
0.0208333333
40
0.0416666667
40
0.0625000000
40
0.0833333333
40
0.1250000000
40
0.1666666667
40
0.2083333333
40
0.2500000000
40
0.3333333333
40
0.5000000000
40
0.6666666667
40
0.7500000000
40
0.7916666667
40
0.8333333333
40
0.8750000000
40
0.9166666667
40
0.9375000000
40
0.9583333333
40
0.9791666667
40
1.0000000000
40
1.0000000000
40
1.0000000000
40
1.0000000000
10
-4.9858175775
20
-12.6517575757
30
-8.1910040725
10
-4.9861642054
20
-12.6531152637
30
-8.1923359234
10
-4.9867090704
20
-12.6556468413
30
-8.1946973184
10
-4.9873371459
20
-12.6598446381
30
-8.1982817796
10
-4.9877180537
20
-12.6641529084
30
-8.2016435226
10
-4.9879351294
20
-12.6701048595
30
-8.2059161416
10
-4.9876812833
20
-12.6778343644
30
-8.2108206930
10
-4.9866387460
20
-12.6874489952
30
-8.2160477362
10
-4.9849470976
20
-12.6973015450
30
-8.2206549017
10
-4.9819124005
20
-12.7106926650
30
-8.2260327460
10
-4.9748366122
20
-12.7344375265
30
-8.2335318032
10
-4.9597502355
20
-12.7703405818
30
-8.2395977357
10
-4.9399103337
20
-12.8044665256
30
-8.2387514507
10
-4.9247745865
20
-12.8252150730
30
-8.2345404739
10
-4.9155759790
20
-12.8363053910
30
-8.2309560727
10
-4.9084331650
20
-12.8441165326
30
-8.2276324528
10
-4.9010422985
20
-12.8513432002
30
-8.2236158192
10
-4.8946979437
20
-12.8567685956
30
-8.2196427222
10
-4.8895297345
20
-12.8606718746
30
-8.2160575876
10
-4.8856361007
20
-12.8633474378
30
-8.2131776342
10
-4.8816667248
20
-12.8657820282
30
-8.2100438195
10
-4.8791622564
20
-12.8671371950
30
-8.2079443847
10
-4.8777805434
20
-12.8678280515
30
-8.2067477861
11
-4.9858175775
21
-12.6517575757
31
-8.1910040725
11
-4.9866775334
21
-12.6557135797
31
-8.1947043798
11
-4.9872959513
21
-12.6598630503
31
-8.1982446599
11
-4.9876817035
21
-12.6641788572
31
-8.2016173095
11
-4.9878458478
21
-12.6686361761
31
-8.2048189054
11
-4.9875582963
21
-12.6778909019
31
-8.2107109566
11
-4.9865305608
21
-12.6874886484
31
-8.2159444233
11
-4.9848497019
21
-12.6973333434
31
-8.2205592713
11
-4.9825870239
21
-12.7073596660
31
-8.2245972292
11
-4.9765263922
21
-12.7277854020
31
-8.2310794150
11
-4.9587995305
21
-12.7699851595
31
-8.2382152922
11
-4.9354669949
21
-12.8100956712
31
-8.2372036881
11
-4.9224291339
21
-12.8279238196
31
-8.2335461962
11
-4.9155353360
21
-12.8362209582
31
-8.2308501862
11
-4.9083918229
21
-12.8440191203
31
-8.2275169505
11
-4.9010052386
21
-12.8512238347
31
-8.2234906387
11
-4.8933981643
21
-12.8577079956
31
-8.2187125505
11
-4.8895268217
21
-12.8606298919
31
-8.2160257372
11
-4.8856234770
21
-12.8633072757
31
-8.2131353240
11
-4.8817021704
21
-12.8657150548
31
-8.2100412633
11
-4.8777805434
21
-12.8678280515
31
-8.2067477861
0
SPLINE
5
307
100
AcDbEntity
8
INCISIONI_LASER
100
AcDbSpline
62
9
6
CONTINUOUS
70
0
71
3
72
31
73
27
74
25
42
0.0000001000
43
0.0000001000
44
0.0000000001
12
0.1093288854
22
-2.2373016719
32
-1.3848226928
13
-0.0806474635
23
2.2231414290
33
1.4097838635
40
0.0000000000
40
0.0000000000
40
0.0000000000
40
0.0000000000
40
0.0250000000
40
0.0500000000
40
0.0750000000
40
0.1000000000
40
0.1500000000
40
0.1750000000
40
0.2000000000
40
0.2500000000
40
0.3000000000
40
0.3500000000
40
0.4000000000
40
0.5000000000
40
0.6000000000
40
0.6500000000
40
0.7000000000
40
0.7500000000
40
0.8000000000
40
0.8250000000
40
0.8500000000
40
0.9000000000
40
0.9250000000
40
0.9500000000
40
0.9750000000
40
1.0000000000
40
1.0000000000
40
1.0000000000
40
1.0000000000
10
-4.3333198795
20
-13.4630355367
30
-7.9537304419
10
-4.3324088055
20
-13.4816797173
30
-7.9652706310
10
-4.3295124875
20
-13.5160100949
30
-7.9850590378
10
-4.3215714206
20
-13.5705300178
30
-8.0124787414
10
-4.3104348172
20
-13.6243702361
30
-8.0356059955
10
-4.2915683129
20
-13.6960131755
30
-8.0615256010
10
-4.2671491766
20
-13.7664488612
30
-8.0799644066
10
-4.2377903957
20
-13.8351814021
30
-8.0913155903
10
-4.2054528058
20
-13.9023089972
30
-8.0979983405
10
-4.1584467449
20
-13.9852546564
30
-8.0977812120
10
-4.0921066415
20
-14.0805936227
30
-8.0827125275
10
-4.0186631768
20
-14.1667446233
30
-8.0528302972
10
-3.9185705073
20
-14.2627991401
30
-7.9975515408
10
-3.7840071845
20
-14.3545847564
30
-7.8977527090
10
-3.6516816911
20
-14.3962611373
30
-7.7664310569
10
-3.5557701881
20
-14.3982173112
30
-7.6519710844
10
-3.4868044225
20
-14.3832728931
30
-7.5585246339
10
-3.4260743221
20
-14.3514670829
30
-7.4635459528
10
-3.3844068210
20
-14.3128553187
30
-7.3869675459
10
-3.3566264369
20
-14.2757844476
30
-7.3282195532
10
-3.3320869464
20
-14.2339981912
30
-7.2701891483
10
-3.3128346997
20
-14.1853947369
30
-7.2139274551
10
-3.2994581837
20
-14.1298692178
30
-7.1600817902
10
-3.2925657380
20
-14.0850402290
30
-7.1213386809
10
-3.2890512909
20
-14.0362443543
30
-7.0839956927
10
-3.2890232621
20
-14.0033739928
30
-7.0616732639
10
-3.2896953243
20
-13.9848478143
30
-7.0499250651
11
-4.3333198795
21
-13.4630355367
31
-7.9537304419
11
-4.3289130558
21
-13.5165141543
31
-7.9846818867
11
-4.3210388312
21
-13.5704167337
31
-8.0117633331
11
-4.3099326047
21
-13.6243522338
31
-8.0349914038
11
-4.2958222196
21
-13.6780018362
31
-8.0544222996
11
-4.2593978443
21
-13.7834900677
31
-8.0822115674
11
-4.2374180445
21
-13.8349807839
31
-8.0907320361
11
-4.2130982650
21
-13.8854628428
31
-8.0957562818
11
-4.1567912731
21
-13.9845553522
31
-8.0953131903
11
-4.0909227479
21
-14.0790622951
31
-8.0802436032
11
-4.0183921705
21
-14.1643929378
31
-8.0509008243
11
-3.9429638423
21
-14.2369000089
31
-8.0093245375
11
-3.7844547504
21
-14.3445629093
31
-7.8914481449
11
-3.6285328897
21
-14.3941347699
31
-7.7370325096
11
-3.5562648317
21
-14.3954820531
31
-7.6507041726
11
-3.4881770333
21
-14.3804626611
31
-7.5582692621
11
-3.4278625052
21
-14.3490456985
31
-7.4640600516
11
-3.3779245264
21
-14.3030724793
31
-7.3724901088
11
-3.3570315486
21
-14.2751950244
31
-7.3283092517
11
-3.3386624227
21
-14.2438766554
31
-7.2848441422
11
-3.3099802149
21
-14.1709365184
31
-7.2006673746
11
-3.2999815072
21
-14.1293384095
31
-7.1603553135
11
-3.2931287377
21
-14.0843790813
31
-7.1215720344
11
-3.2896300249
21
-14.0361594097
31
-7.0846389169
11
-3.2896953243
21
-13.9848478143
31
-7.0499250651
0
SPLINE
5
308
100
AcDbEntity
8
INCISIONI_LASER
100
AcDbSpline
62
9
6
CONTINUOUS
70
0
71
3
72
31
73
27
74
25
42
0.0000001000
43
0.0000001000
44
0.0000000001
12
0.0420037566
22
-1.3137766019
32
-0.8399331816
13
-0.0705154166
23
1.3280369200
33
0.8152444020
40
0.0000000000
40
0.0000000000
40
0.0000000000
40
0.0000000000
40
0.0250000000
40
0.0500000000
40
0.0750000000
40
0.1000000000
40
0.1500000000
40
0.1750000000
40
0.2000000000
40
0.2500000000
40
0.3000000000
40
0.3500000000
40
0.4000000000
40
0.5000000000
40
0.6000000000
40
0.6500000000
40
0.7000000000
40
0.7500000000
40
0.8000000000
40
0.8250000000
40
0.8500000000
40
0.9000000000
40
0.9250000000
40
0.9500000000
40
0.9750000000
40
1.0000000000
40
1.0000000000
40
1.0000000000
40
1.0000000000
10
-3.5006768959
20
-13.8793570284
30
-7.2326404658
10
-3.5003268646
20
-13.8903051668
30
-7.2396399090
10
-3.5004282173
20
-13.9097371862
30
-7.2529366669
10
-3.5026359752
20
-13.9385691421
30
-7.2751518801
10
-3.5068349296
20
-13.9650540882
30
-7.2981820349
10
-3.5149041972
20
-13.9978520402
30
-7.3301686400
10
-3.5264400076
20
-14.0265535043
30
-7.3635653145
10
-3.5410956734
20
-14.0512206780
30
-7.3979932127
10
-3.5576632582
20
-14.0730981812
30
-7.4328369698
10
-3.5824698068
20
-14.0958673693
30
-7.4782310982
10
-3.6185622493
20
-14.1145936728
30
-7.5344991188
10
-3.6595034515
20
-14.1233565769
30
-7.5898467369
10
-3.7164175761
20
-14.1221133040
30
-7.6576587145
10
-3.7948764476
20
-14.0973687928
30
-7.7354688752
10
-3.8746343479
20
-14.0430053558
30
-7.7946787563
10
-3.9339831454
20
-13.9861173818
30
-7.8275535683
10
-3.9775344189
20
-13.9351082888
30
-7.8453786136
10
-4.0169010751
20
-13.8786523874
30
-7.8544600563
10
-4.0448291215
20
-13.8295158299
30
-7.8547353777
10
-4.0640660541
20
-13.7897360116
30
-7.8508992039
10
-4.0815479988
20
-13.7489999617
30
-7.8443032445
10
-4.0961197149
20
-13.7072446483
30
-7.8335162925
10
-4.1074220127
20
-13.6647608119
30
-7.8183058861
10
-4.1141242743
20
-13.6328251758
30
-7.8047164055
10
-4.1189472599
20
-13.6004777560
30
-7.7885899323
10
-4.1207465878
20
-13.5800953426
30
-7.7769391756
10
-4.1213342162
20
-13.5690283683
30
-7.7701454723
11
-3.5006768959
21
-13.8793570284
31
-7.2326404658
11
-3.5007708388
21
-13.9096845073
31
-7.2533150130
11
-3.5029678413
21
-13.9381779738
31
-7.2752877037
11
-3.5071437623
21
-13.9647396745
31
-7.2983420014
11
-3.5131757589
21
-13.9893111782
31
-7.3222894945
11
-3.5303639120
21
-14.0323841069
31
-7.3722582244
11
-3.5413346632
21
-14.0508719692
31
-7.3980451950
11
-3.5537944998
21
-14.0673236260
31
-7.4242486593
11
-3.5835239042
21
-14.0944345823
31
-7.4785302760
11
-3.6193703759
21
-14.1129331062
31
-7.5343457184
11
-3.6597941834
21
-14.1217406838
31
-7.5890986311
11
-3.7026767927
21
-14.1208780942
31
-7.6402420660
11
-3.7951362533
21
-14.0914450077
31
-7.7317488193
11
-3.8891000871
21
-14.0276669270
31
-7.8016897015
11
-3.9338230913
21
-13.9847268631
31
-7.8264150577
11
-3.9768369827
21
-13.9342004874
31
-7.8439213465
11
-4.0159255750
21
-13.8782343928
31
-7.8530015468
11
-4.0493795626
21
-13.8195316609
31
-7.8534382983
11
-4.0638466806
21
-13.7896164826
31
-7.8505542307
11
-4.0769349936
21
-13.7590990356
31
-7.8456029849
11
-4.0986728378
21
-13.6965629790
31
-7.8293450697
11
-4.1071262691
21
-13.6647486854
31
-7.8179422735
11
-4.1138110616
21
-13.6327565452
31
-7.8042935734
11
-4.1185932609
21
-13.6007733893
31
-7.7883649887
11
-4.1213342162
21
-13.5690283683
31
-7.7701454723
0
SPLINE
5
309
100
AcDbEntity
8
INCISIONI_LASER
100
AcDbSpline
62
9
6
CONTINUOUS
70
0
71
3
72
8
73
4
74
2
42
0.0000001000
43
0.0000001000
44
0.0000000001
12
0.5418705983
22
2.1200411993
32
2.0787119751
13
0.5616491579
23
2.1307105092
33
2.0626580868
40
0.0000000000
40
0.0000000000
40
0.0000000000
40
0.0000000000
40
1.0000000000
40
1.0000000000
40
1.0000000000
40
1.0000000000
10
-4.7436478725
20
-12.6856241707
30
-7.9225384261
10
-4.5630243398
20
-11.9789437709
30
-7.2296344344
10
-4.3791001493
20
-11.2704688545
30
-6.5393902117
10
-4.1918837633
20
-10.5602320181
30
-5.8518375161
11
-4.7436478725
21
-12.6856241707
31
-7.9225384261
11
-4.1918837633
21
-10.5602320181
31
-5.8518375161
0
SPLINE
5
30A
100
AcDbEntity
8
INCISIONI_LASER
100
AcDbSpline
62
9
6
CONTINUOUS
70
0
71
3
72
8
73
4
74
2
42
0.0000001000
43
0.0000001000
44
0.0000000001
12
0.7207692732
22
-2.7716860123
32
-0.9519028651
13
0.7400033544
23
-2.7607484037
33
-0.9684219013
40
0.0000000000
40
0.0000000000
40
0.0000000000
40
0.0000000000
40
1.0000000000
40
1.0000000000
40
1.0000000000
40
1.0000000000
10
-2.2322345016
20
-11.5402883964
30
-4.1548829508
10
-1.9919780772
20
-12.4641837338
30
-4.4721839058
10
-1.7485103728
20
-13.3862773451
30
-4.7922453951
10
-1.5018425880
20
-14.3065268130
30
-5.1150526955
11
-2.2322345016
21
-11.5402883964
31
-4.1548829508
11
-1.5018425880
21
-14.3065268130
31
-5.1150526955
0
SPLINE
5
30B
100
AcDbEntity
8
INCISIONI_LASER
100
AcDbSpline
62
9
6
CONTINUOUS
70
0
71
3
72
8
73
4
74
2
42
0.0000001000
43
0.0000001000
44
0.0000000001
12
0.5787923023
22
2.2683441770
32
2.2256537299
13
0.6014482699
23
2.2805692893
33
2.2072692896
40
0.0000000000
40
0.0000000000
40
0.0000000000
40
0.0000000000
40
1.0000000000
40
1.0000000000
40
1.0000000000
40
1.0000000000
10
-4.8877492646
20
-12.7424335019
30
-8.1341417782
10
-4.6948184972
20
-11.9863187762
30
-7.3922572016
10
-4.4981065517
20
-11.2281465537
30
-6.6534172296
10
-4.2976237951
20
-10.4679567906
30
-5.9176607998
11
-4.8877492646
21
-12.7424335019
31
-8.1341417782
11
-4.2976237951
21
-10.4679567906
31
-5.9176607998
0
SPLINE
5
30C
100
AcDbEntity
8
INCISIONI_LASER
100
AcDbSpline
62
9
6
CONTINUOUS
70
0
71
3
72
8
73
4
74
2
42
0.0000001000
43
0.0000001000
44
0.0000000001
12
0.7709773776
22
-2.9662300447
32
-1.0183644536
13
0.7930020372
23
-2.9536992328
33
-1.0372794949
40
0.0000000000
40
0.0000000000
40
0.0000000000
40
0.0000000000
40
1.0000000000
40
1.0000000000
40
1.0000000000
40
1.0000000000
10
-2.1289977265
20
-11.5528169304
30
-4.0399329669
10
-1.8720052673
20
-12.5415602786
30
-4.3793877848
10
-1.6113351656
20
-13.5282411466
30
-4.7220041337
10
-1.3470011532
20
-14.5128075575
30
-5.0677639654
11
-2.1289977265
21
-11.5528169304
31
-4.0399329669
11
-1.3470011532
21
-14.5128075575
31
-5.0677639654
0
SPLINE
5
30D
100
AcDbEntity
8
INCISIONI_LASER
100
AcDbSpline
62
9
6
CONTINUOUS
70
0
71
3
72
27
73
23
74
21
42
0.0000001000
43
0.0000001000
44
0.0000000001
12
-0.2774298988
22
-1.2051487318
32
-1.1526330297
13
-0.3960883269
23
1.5367183932
33
0.5658341822
40
0.0000000000
40
0.0000000000
40
0.0000000000
40
0.0000000000
40
0.0312500000
40
0.0625000000
40
0.0937500000
40
0.1250000000
40
0.1875000000
40
0.2187500000
40
0.2500000000
40
0.3125000000
40
0.3750000000
40
0.4375000000
40
0.5000000000
40
0.6250000000
40
0.6875000000
40
0.7500000000
40
0.8125000000
40
0.8750000000
40
0.9062500000
40
0.9375000000
40
0.9687500000
40
1.0000000000
40
1.0000000000
40
1.0000000000
40
1.0000000000
10
-3.4082989984
20
-14.0541521951
30
-7.2398832772
10
-3.4111888931
20
-14.0667058278
30
-7.2518898712
10
-3.4173508197
20
-14.0884252503
30
-7.2740680194
10
-3.4295948620
20
-14.1197230373
30
-7.3100944797
10
-3.4440779257
20
-14.1472912053
30
-7.3462973810
10
-3.4663228541
20
-14.1799280363
30
-7.3953174615
10
-3.4925305547
20
-14.2061058713
30
-7.4447408257
10
-3.5222721699
20
-14.2260275287
30
-7.4941815378
10
-3.5540836786
20
-14.2417178007
30
-7.5432454956
10
-3.5989086985
20
-14.2538418330
30
-7.6055920027
10
-3.6600175310
20
-14.2546529345
30
-7.6798903028
10
-3.7254818821
20
-14.2407432092
30
-7.7494160887
10
-3.8118563122
20
-14.2055206412
30
-7.8296494077
10
-3.9015770686
20
-14.1444181845
30
-7.8962739241
10
-3.9872515210
20
-14.0596224368
30
-7.9418740179
10
-4.0445826800
20
-13.9896075414
30
-7.9633564406
10
-4.0950095179
20
-13.9148078400
30
-7.9732670442
10
-4.1321670496
20
-13.8471807160
30
-7.9720743463
10
-4.1582415888
20
-13.7905317820
30
-7.9650004538
10
-4.1757840181
20
-13.7470725018
30
-7.9566150071
10
-4.1913190564
20
-13.7020272220
30
-7.9447422858
10
-4.1996653119
20
-13.6731572782
30
-7.9351987901
10
-4.2037912320
20
-13.6571497949
30
-7.9293046841
11
-3.4082989984
21
-14.0541521951
31
-7.2398832772
11
-3.4178510118
21
-14.0882116925
31
-7.2745278924
11
-3.4299680322
21
-14.1191014342
31
-7.3101238866
11
-3.4444446978
21
-14.1467761145
31
-7.3463910742
11
-3.4610918530
21
-14.1712305789
31
-7.3830960484
11
-3.5002604514
21
-14.2105649375
31
-7.4571024494
11
-3.5225309066
21
-14.2254986055
31
-7.4941344435
11
-3.5464681770
21
-14.2372959789
31
-7.5310472768
11
-3.6001284999
21
-14.2515522101
31
-7.6055057513
11
-3.6607434508
21
-14.2521994634
31
-7.6790948838
11
-3.7253679607
21
-14.2386586758
31
-7.7478576226
11
-3.7905415652
21
-14.2121696258
31
-7.8084570110
11
-3.9226584897
21
-14.1212448066
31
-7.9059219123
11
-3.9860974076
21
-14.0585527560
31
-7.9397544099
11
-4.0434319598
21
-13.9888100738
31
-7.9614278041
11
-4.0940365512
21
-13.9137490321
31
-7.9713767373
11
-4.1383813939
21
-13.8328062129
31
-7.9697958953
11
-4.1579060096
21
-13.7903696854
31
-7.9644871159
11
-4.1754494529
21
-13.7468081685
31
-7.9560337947
11
-4.1908164472
21
-13.7023172827
31
-7.9443351988
11
-4.2037912320
21
-13.6571497949
31
-7.9293046841
0
SPLINE
5
30E
100
AcDbEntity
8
INCISIONI_LASER
100
AcDbSpline
62
9
6
CONTINUOUS
70
0
71
3
72
25
73
21
74
19
42
0.0000001000
43
0.0000001000
44
0.0000000001
12
0.8289058509
22
3.1393646365
32
3.0396093327
13
1.0645176864
23
-4.0955862378
33
-1.4060943973
40
0.0000000000
40
0.0000000000
40
0.0000000000
40
0.0000000000
40
0.0833333333
40
0.1666666667
40
0.2500000000
40
0.2916666667
40
0.3333333333
40
0.3750000000
40
0.4166666667
40
0.4583333333
40
0.5000000000
40
0.5416666667
40
0.5833333333
40
0.6250000000
40
0.6666666667
40
0.7083333333
40
0.7500000000
40
0.8333333333
40
0.9166666667
40
1.0000000000
40
1.0000000000
40
1.0000000000
40
1.0000000000
10
-4.2975470096
20
-10.4676652109
30
-5.9173787258
10
-4.2745218470
20
-10.3804606377
30
-5.8329451332
10
-4.2192207506
20
-10.2161771194
30
-5.6598936956
10
-4.1052144402
20
-10.0015222432
30
-5.3846227870
10
-3.9775319864
20
-9.8589008457
30
-5.1403122367
10
-3.8533674305
20
-9.7800843994
30
-4.9417004695
10
-3.7496049640
20
-9.7421938471
30
-4.7938777947
10
-3.6347686115
20
-9.7289032022
30
-4.6488185872
10
-3.5109130518
20
-9.7410654480
30
-4.5094809755
10
-3.3823330866
20
-9.7758491109
30
-4.3791188226
10
-3.2505588567
20
-9.8317774051
30
-4.2585848421
10
-3.1180112870
20
-9.9076337130
30
-4.1499670528
10
-2.9873925270
20
-10.0021627348
30
-4.0556717138
10
-2.8602416300
20
-10.1153090891
30
-3.9775056008
10
-2.7408208077
20
-10.2456522851
30
-3.9196425748
10
-2.6313754560
20
-10.3901968555
30
-3.8828535381
10
-2.4983505457
20
-10.5978133956
30
-3.8588645205
10
-2.3577568094
20
-10.8748963328
30
-3.8710496352
10
-2.2264279820
20
-11.2127183892
30
-3.9341784104
10
-2.1585681080
20
-11.4390505915
30
-4.0008752853
10
-2.1289981723
20
-11.5528168759
30
-4.0399334630
11
-4.2975470096
21
-10.4676652109
31
-5.9173787258
11
-4.2140449730
21
-10.2214721863
31
-5.6572780702
11
-4.0986790012
21
-10.0087737764
31
-5.3816391617
11
-3.9446559647
21
-9.8421367901
31
-5.0903956843
11
-3.8515942556
21
-9.7836213631
31
-4.9418898279
11
-3.7477593163
21
-9.7462938317
31
-4.7943383726
11
-3.6332654103
21
-9.7331453506
31
-4.6497721865
11
-3.5101256509
21
-9.7448356842
31
-4.5109768853
11
-3.3818007091
21
-9.7793732161
31
-4.3807568513
11
-3.2504299667
21
-9.8350987407
31
-4.2605708740
11
-3.1183327553
21
-9.9107458320
31
-4.1523541279
11
-2.9879705042
21
-10.0052656235
31
-4.0583599181
11
-2.8615299758
21
-10.1181752294
31
-3.9808894486
11
-2.7424833861
21
-10.2480191808
31
-3.9231549063
11
-2.6329882342
21
-10.3920581612
31
-3.8859864170
11
-2.5333192667
21
-10.5470800780
31
-3.8676732007
11
-2.3639874187
21
-10.8757834214
31
-3.8791340748
11
-2.2313511514
21
-11.2129977637
31
-3.9403311666
11
-2.1289981723
21
-11.5528168759
31
-4.0399334630
0
SPLINE
5
30F
100
AcDbEntity
8
INCISIONI_LASER
100
AcDbSpline
62
9
6
CONTINUOUS
70
0
71
3
72
21
73
17
74
15
42
0.0000001000
43
0.0000001000
44
0.0000000001
12
0.9010133509
22
3.4181456349
32
3.3089740292
13
1.1780523192
23
-4.5301475075
33
-1.5558257246
40
0.0000000000
40
0.0000000000
40
0.0000000000
40
0.0000000000
40
0.0833333333
40
0.1666666667
40
0.2500000000
40
0.3333333333
40
0.4166666667
40
0.4583333333
40
0.5000000000
40
0.5416666667
40
0.5833333333
40
0.6666666667
40
0.7500000000
40
0.8333333333
40
0.9166666667
40
1.0000000000
40
1.0000000000
40
1.0000000000
40
1.0000000000
10
-4.1918835574
20
-10.5602321970
30
-5.8518373874
10
-4.1668554087
20
-10.4652837071
30
-5.7599214422
10
-4.1094076274
20
-10.2976680676
30
-5.5821042250
10
-3.9928950451
20
-10.0950334605
30
-5.3116062995
10
-3.8457147970
20
-9.9534063553
30
-5.0446568770
10
-3.6693076127
20
-9.8781643716
30
-4.7861973453
10
-3.5049513776
20
-9.8695239191
30
-4.5852351817
10
-3.3666371307
20
-9.8981143687
30
-4.4392801979
10
-3.2617588252
20
-9.9379776690
30
-4.3403419856
10
-3.1552047808
20
-9.9981771112
30
-4.2525279671
10
-3.0112165066
20
-10.1050272720
30
-4.1503154199
10
-2.8362715914
20
-10.2790192566
30
-4.0546489551
10
-2.6409195368
20
-10.5408035238
30
-3.9915613185
10
-2.4730751731
20
-10.8451313791
30
-3.9890314947
10
-2.3365766651
20
-11.1789343552
30
-4.0434311786
10
-2.2649586796
20
-11.4144509042
30
-4.1116661288
10
-2.2322350041
20
-11.5402883350
30
-4.1548835100
11
-4.1918835574
21
-10.5602321970
31
-5.8518373874
11
-4.1043508090
21
-10.3057995430
31
-5.5814755417
11
-3.9877837675
21
-10.1052013775
31
-5.3121977167
11
-3.8408436410
21
-9.9644705422
31
-5.0460718588
11
-3.6658375631
21
-9.8889766117
31
-4.7890815012
11
-3.4698037110
21
-9.8796300991
31
-4.5499809980
11
-3.3664466940
21
-9.9011844459
31
-4.4410348688
11
-3.2614795354
21
-9.9413670260
31
-4.3421960179
11
-3.1549652539
21
-10.0015001409
31
-4.2543870685
11
-3.0475496036
21
-10.0810100174
31
-4.1780085047
11
-2.8387018987
21
-10.2878515709
31
-4.0632676420
11
-2.6455041519
21
-10.5478941218
31
-4.0016542873
11
-2.4782994823
21
-10.8500438992
31
-3.9985197460
11
-2.3414219200
21
-11.1821796631
31
-4.0514233022
11
-2.2322350041
21
-11.5402883350
31
-4.1548835100
0
SPLINE
5
310
100
AcDbEntity
8
INCISIONI_LASER
100
AcDbSpline
62
9
6
CONTINUOUS
70
0
71
3
72
8
73
4
74
2
42
0.0000001000
43
0.0000001000
44
0.0000000001
12
-0.6004722018
22
-2.2757745272
32
-2.2022211625
13
-0.5779155811
23
-2.2636061471
33
-2.2205292740
40
0.0000000000
40
0.0000000000
40
0.0000000000
40
0.0000000000
40
1.0000000000
40
1.0000000000
40
1.0000000000
40
1.0000000000
10
-4.3966187866
20
-10.3820471700
30
-5.9796096719
10
-4.5967761872
20
-11.1406386791
30
-6.7136833927
10
-4.7931793038
20
-11.8972219744
30
-7.4508278051
10
-4.9858178308
20
-12.6517573568
30
-8.1910042298
11
-4.3966187866
21
-10.3820471700
31
-5.9796096719
11
-4.9858178308
21
-12.6517573568
31
-8.1910042298
0
SPLINE
5
311
100
AcDbEntity
8
INCISIONI_LASER
100
AcDbSpline
62
9
6
CONTINUOUS
70
0
71
3
72
19
73
15
74
13
42
0.0000001000
43
0.0000001000
44
0.0000000001
12
-1.1543123397
22
4.4424248114
32
1.5244516750
13
-0.9006687716
23
-3.4104648843
33
-3.3011885692
40
0.0000000000
40
0.0000000000
40
0.0000000000
40
0.0000000000
40
0.0833333333
40
0.1666666667
40
0.2500000000
40
0.3333333333
40
0.4166666667
40
0.5000000000
40
0.5833333333
40
0.6666666667
40
0.7500000000
40
0.8333333333
40
0.9166666667
40
1.0000000000
40
1.0000000000
40
1.0000000000
40
1.0000000000
10
-2.0326604452
20
-11.5640899653
30
-3.9324032432
10
-2.0647246768
20
-11.4406892761
30
-3.8900573633
10
-2.1382541629
20
-11.1958108808
30
-3.8181085720
10
-2.2830943353
20
-10.8308294409
30
-3.7535913626
10
-2.4696322972
20
-10.4753298461
30
-3.7454707565
10
-2.6993729665
20
-10.1509468063
30
-3.8092765067
10
-2.9665310340
20
-9.8732787015
30
-3.9478988535
10
-3.2545823935
20
-9.6733065894
30
-4.1613962316
10
-3.5394195900
20
-9.5874842093
30
-4.4444527381
10
-3.7979318456
20
-9.6026846666
30
-4.7613118645
10
-4.0148684691
20
-9.7037540847
30
-5.0843580967
10
-4.1851007198
20
-9.8804503054
30
-5.4011821125
10
-4.3114549581
20
-10.1092773280
30
-5.7001995583
10
-4.3715371443
20
-10.2870727526
30
-5.8876785252
10
-4.3965557212
20
-10.3818078883
30
-5.9793782077
11
-2.0326604452
21
-11.5640899653
31
-3.9324032432
11
-2.1440118201
21
-11.1962002396
31
-3.8253429016
11
-2.2900439669
21
-10.8324097484
31
-3.7629907965
11
-2.4768327485
21
-10.4805159386
31
-3.7574584826
11
-2.7056091996
21
-10.1587326288
31
-3.8217459394
11
-2.9700132493
21
-9.8862280336
31
-3.9603780254
11
-3.2540466997
21
-9.6923315448
31
-4.1729894197
11
-3.5350320999
21
-9.6043213489
31
-4.4500865081
11
-3.7910025736
21
-9.6169961601
31
-4.7623430488
11
-4.0070844070
21
-9.7163585518
31
-5.0833210606
11
-4.1777877177
21
-9.8891387724
31
-5.3982143508
11
-4.3054164649
21
-10.1155883470
31
-5.6972330590
11
-4.3965557212
21
-10.3818078883
31
-5.9793782077
0
SPLINE
5
312
100
AcDbEntity
8
INCISIONI_LASER
100
AcDbSpline
62
9
6
CONTINUOUS
70
0
71
3
72
8
73
4
74
2
42
0.0000001000
43
0.0000001000
44
0.0000000001
12
-0.7912581526
22
2.9482754393
32
1.0348486651
13
-0.7693172357
23
2.9607532215
33
1.0160048616
40
0.0000000000
40
0.0000000000
40
0.0000000000
40
0.0000000000
40
1.0000000000
40
1.0000000000
40
1.0000000000
40
1.0000000000
10
-1.2523657771
20
-14.5186301545
30
-4.9578388088
10
-1.5161184947
20
-13.5358716747
30
-4.6128892537
10
-1.7762212172
20
-12.5510077241
30
-4.2710713641
10
-2.0326602958
20
-11.5640899836
30
-3.9324030769
11
-1.2523657771
21
-14.5186301545
31
-4.9578388088
11
-2.0326602958
21
-11.5640899836
31
-3.9324030769
0
SPLINE
5
313
100
AcDbEntity
8
INCISIONI_LASER
100
AcDbSpline
62
9
6
CONTINUOUS
70
0
71
3
72
27
73
23
74
21
42
0.0000001000
43
0.0000001000
44
0.0000000001
12
0.1958290946
22
-0.0979145473
32
0.1695929707
13
-0.0689089072
23
0.2579709355
33
0.0909396129
40
0.0000000000
40
0.0000000000
40
0.0000000000
40
0.0000000000
40
0.0208333333
40
0.0416666667
40
0.0625000000
40
0.0833333333
40
0.1250000000
40
0.1666666667
40
0.2083333333
40
0.2500000000
40
0.3333333333
40
0.5000000000
40
0.6666666667
40
0.7500000000
40
0.7916666667
40
0.8333333333
40
0.8750000000
40
0.9166666667
40
0.9375000000
40
0.9583333333
40
0.9791666667
40
1.0000000000
40
1.0000000000
40
1.0000000000
40
1.0000000000
10
-1.3466900181
20
-14.6333733141
30
-5.1487336882
10
-1.3453300938
20
-14.6340532763
30
-5.1475559592
10
-1.3428708134
20
-14.6351829855
30
-5.1453586881
10
-1.3389987978
20
-14.6366819718
30
-5.1417103554
10
-1.3352223253
20
-14.6378617914
30
-5.1379615280
10
-1.3302362239
20
-14.6390712731
30
-5.1327768108
10
-1.3241614190
20
-14.6399130687
30
-5.1260334949
10
-1.3171476392
20
-14.6399705288
30
-5.1176305628
10
-1.3104253523
20
-14.6391797957
30
-5.1090059574
10
-1.3018372748
20
-14.6371014449
30
-5.0972666982
10
-1.2878727751
20
-14.6311011693
30
-5.0764098209
10
-1.2700303858
20
-14.6160215543
30
-5.0447606065
10
-1.2571841482
20
-14.5941395633
30
-5.0145410416
10
-1.2516770191
20
-14.5766054154
30
-4.9960902654
10
-1.2495665776
20
-14.5657076087
30
-4.9862030876
10
-1.2485797634
20
-14.5571179604
30
-4.9792247942
10
-1.2482561467
20
-14.5480939262
30
-4.9727522399
10
-1.2486129926
20
-14.5402239961
30
-4.9678769188
10
-1.2493252168
20
-14.5337310783
30
-4.9643576409
10
-1.2500783216
20
-14.5287973264
30
-4.9619385595
10
-1.2510854418
20
-14.5237213650
30
-4.9597293922
10
-1.2518689008
20
-14.5204895646
30
-4.9584940540
10
-1.2523474349
20
-14.5186980997
30
-4.9578625289
11
-1.3466900181
21
-14.6333733141
31
-5.1487336882
11
-1.3428402976
21
-14.6351503893
31
-5.1452999504
11
-1.3390147217
21
-14.6366287773
31
-5.1416936063
11
-1.3352284747
21
-14.6378163400
31
-5.1379382429
11
-1.3314932707
21
-14.6387242323
31
-5.1340554955
11
-1.3242074167
21
-14.6397542863
31
-5.1259816694
11
-1.3171962214
21
-14.6398291633
31
-5.1175936173
11
-1.3104722238
21
-14.6390517907
31
-5.1089759842
11
-1.3040349911
21
-14.6375085011
31
-5.1001866000
11
-1.2920030919
21
-14.6323816809
31
-5.0822453503
11
-1.2710296162
21
-14.6146610791
31
-5.0450465364
11
-1.2559426101
21
-14.5889186873
31
-5.0095268121
11
-1.2512357828
21
-14.5738077726
31
-4.9936731479
11
-1.2496659137
21
-14.5656382265
31
-4.9862759360
11
-1.2486902963
21
-14.5570455627
31
-4.9793090841
11
-1.2483814520
21
-14.5480239459
31
-4.9728559347
11
-1.2488266110
21
-14.5385843522
31
-4.9670288476
11
-1.2493617063
21
-14.5337204011
31
-4.9643943704
11
-1.2501206575
21
-14.5287736248
31
-4.9619735452
11
-1.2511134532
21
-14.5237594084
31
-4.9597887522
11
-1.2523474349
21
-14.5186980997
31
-4.9578625289
0
SPLINE
5
314
100
AcDbEntity
8
0
100
AcDbSpline
62
0
6
CONTINUOUS
70
0
71
3
72
8
73
4
74
2
42
0.0000001000
43
0.0000001000
44
0.0000000001
12
-0.1151517737
22
-0.0884235309
32
0.0000000000
13
-0.1075013267
23
-0.0975466301
33
0.0000000000
40
0.0000000000
40
0.0000000000
40
0.0000000000
40
0.0000000000
40
1.0000000000
40
1.0000000000
40
1.0000000000
40
1.0000000000
10
-6.5319388700
20
-7.3624368938
30
0.0000000000
10
-6.5703227946
20
-7.3919114041
30
0.0000000000
10
-6.6074935650
20
-7.4229759645
30
0.0000000000
10
-6.6433273405
20
-7.4554915078
30
0.0000000000
11
-6.5319388700
21
-7.3624368938
31
0.0000000000
11
-6.6433273405
21
-7.4554915078
31
0.0000000000
0
SPLINE
5
315
100
AcDbEntity
8
0
100
AcDbSpline
62
0
6
CONTINUOUS
70
0
71
3
72
8
73
4
74
2
42
0.0000001000
43
0.0000001000
44
0.0000000001
12
-0.0475191805
22
-0.0431188718
32
0.0000000000
13
-0.0459196509
23
-0.0447839142
33
0.0000000000
40
0.0000000000
40
0.0000000000
40
0.0000000000
40
0.0000000000
40
1.0000000000
40
1.0000000000
40
1.0000000000
40
1.0000000000
10
-6.6433273405
20
-7.4554915078
30
0.0000000000
10
-6.6591670674
20
-7.4698644651
30
0.0000000000
10
-6.6747455540
20
-7.4845209351
30
0.0000000000
10
-6.6900521043
20
-7.4994489065
30
0.0000000000
11
-6.6433273405
21
-7.4554915078
31
0.0000000000
11
-6.6900521043
21
-7.4994489065
31
0.0000000000
0
SPLINE
5
316
100
AcDbEntity
8
0
100
AcDbSpline
62
0
6
CONTINUOUS
70
0
71
3
72
8
73
4
74
2
42
0.0000001000
43
0.0000001000
44
0.0000000001
12
-0.0095722119
22
-0.0093354612
32
0.0000000000
13
-0.0095013346
23
-0.0094058258
33
0.0000000000
40
0.0000000000
40
0.0000000000
40
0.0000000000
40
0.0000000000
40
1.0000000000
40
1.0000000000
40
1.0000000000
40
1.0000000000
10
-6.6900521043
20
-7.4994489065
30
0.0000000000
10
-6.6932428416
20
-7.5025607269
30
0.0000000000
10
-6.6964217623
20
-7.5056843450
30
0.0000000000
10
-6.6995888738
20
-7.5088196203
30
0.0000000000
11
-6.6900521043
21
-7.4994489065
31
0.0000000000
11
-6.6995888738
21
-7.5088196203
31
0.0000000000
0
SPLINE
5
317
100
AcDbEntity
8
0
100
AcDbSpline
62
0
6
CONTINUOUS
70
0
71
3
72
8
73
4
74
2
42
0.0000001000
43
0.0000001000
44
0.0000000001
12
-0.0457746054
22
-0.0453144723
32
0.0000000000
13
-0.0441325756
23
-0.0468906725
33
0.0000000000
40
0.0000000000
40
0.0000000000
40
0.0000000000
40
0.0000000000
40
1.0000000000
40
1.0000000000
40
1.0000000000
40
1.0000000000
10
-6.6995888738
20
-7.5088196203
30
0.0000000000
10
-6.7148470756
20
-7.5239244444
30
0.0000000000
10
-6.7298311846
20
-7.5392998329
30
0.0000000000
10
-6.7445420431
20
-7.5549300570
30
0.0000000000
11
-6.6995888738
21
-7.5088196203
31
0.0000000000
11
-6.7445420431
21
-7.5549300570
31
0.0000000000
0
SPLINE
5
318
100
AcDbEntity
8
0
100
AcDbSpline
62
0
6
CONTINUOUS
70
0
71
3
72
8
73
4
74
2
42
0.0000001000
43
0.0000001000
44
0.0000000001
12
-0.0408118343
22
-0.0433623991
32
0.0000000000
13
-0.0394117757
23
-0.0446326542
33
0.0000000000
40
0.0000000000
40
0.0000000000
40
0.0000000000
40
0.0000000000
40
1.0000000000
40
1.0000000000
40
1.0000000000
40
1.0000000000
10
-6.7445420431
20
-7.5549300570
30
0.0000000000
10
-6.7581459878
20
-7.5693841901
30
0.0000000000
10
-6.7715162564
20
-7.5840562516
30
0.0000000000
10
-6.7846535150
20
-7.5989338030
30
0.0000000000
11
-6.7445420431
21
-7.5549300570
31
0.0000000000
11
-6.7846535150
21
-7.5989338030
31
0.0000000000
0
SPLINE
5
319
100
AcDbEntity
8
0
100
AcDbSpline
62
0
6
CONTINUOUS
70
0
71
3
72
8
73
4
74
2
42
0.0000001000
43
0.0000001000
44
0.0000000001
12
-0.0154638225
22
-0.0184965101
32
0.0000000000
13
-0.0152353232
23
-0.0186854752
33
0.0000000000
40
0.0000000000
40
0.0000000000
40
0.0000000000
40
0.0000000000
40
1.0000000000
40
1.0000000000
40
1.0000000000
40
1.0000000000
10
-6.8185600321
20
-7.6383983505
30
0.0000000000
10
-6.8237146396
20
-7.6445638539
30
0.0000000000
10
-6.8288311418
20
-7.6507612643
30
0.0000000000
10
-6.8339095829
20
-7.6569897560
30
0.0000000000
11
-6.8185600321
21
-7.6383983505
31
0.0000000000
11
-6.8339095829
21
-7.6569897560
31
0.0000000000
0
SPLINE
5
31A
100
AcDbEntity
8
0
100
AcDbSpline
62
9
6
CONTINUOUS
70
0
71
3
72
8
73
4
74
2
42
0.0000001000
43
0.0000001000
44
0.0000000001
12
-0.1498649572
22
-0.0791007717
32
0.0000000000
13
-0.1579791690
23
-0.0617167009
33
0.0000000000
40
0.0000000000
40
0.0000000000
40
0.0000000000
40
0.0000000000
40
1.0000000000
40
1.0000000000
40
1.0000000000
40
1.0000000000
10
0.5896862393
20
-16.6979607637
30
0.0000000000
10
0.5397312535
20
-16.7243276876
30
0.0000000000
10
0.4882395452
20
-16.7477646339
30
0.0000000000
10
0.4355798222
20
-16.7683368676
30
0.0000000000
11
0.5896862393
21
-16.6979607637
31
0.0000000000
11
0.4355798222
21
-16.7683368676
31
0.0000000000
0
SPLINE
5
31B
100
AcDbEntity
8
0
100
AcDbSpline
62
9
6
CONTINUOUS
70
0
71
3
72
8
73
4
74
2
42
0.0000001000
43
0.0000001000
44
0.0000000001
12
-0.0436206853
22
-0.0170410112
32
0.0000000000
13
-0.0441316793
23
-0.0157347346
33
0.0000000000
40
0.0000000000
40
0.0000000000
40
0.0000000000
40
0.0000000000
40
1.0000000000
40
1.0000000000
40
1.0000000000
40
1.0000000000
10
0.4355798222
20
-16.7683368676
30
0.0000000000
10
0.4210395938
20
-16.7740172046
30
0.0000000000
10
0.4064103178
20
-16.7794791399
30
0.0000000000
10
0.3916997580
20
-16.7847240514
30
0.0000000000
11
0.4355798222
21
-16.7683368676
31
0.0000000000
11
0.3916997580
21
-16.7847240514
31
0.0000000000
0
SPLINE
5
31C
100
AcDbEntity
8
0
100
AcDbSpline
62
9
6
CONTINUOUS
70
0
71
3
72
10
73
6
74
4
42
0.0000001000
43
0.0000001000
44
0.0000000001
12
-1.6009864870
22
-0.3411249968
32
0.0000000000
13
-1.4527195532
23
0.7262306810
33
0.0000000000
40
0.0000000000
40
0.0000000000
40
0.0000000000
40
0.0000000000
40
0.1348907184
40
0.5590008127
40
1.0000000000
40
1.0000000000
40
1.0000000000
40
1.0000000000
10
0.1823408199
20
-16.8438777787
30
0.0000000000
10
0.1103547474
20
-16.8592159773
30
0.0000000000
10
-0.1921142014
20
-16.9034516670
30
0.0000000000
10
-0.7391262731
20
-16.8437150332
30
0.0000000000
10
-1.1795350156
20
-16.6724412153
30
0.0000000000
10
-1.3930843964
20
-16.5656855020
30
0.0000000000
11
0.1823408199
21
-16.8438777787
31
0.0000000000
11
-0.0358137141
21
-16.8760444960
31
0.0000000000
11
-0.7220008188
21
-16.8159811576
31
0.0000000000
11
-1.3930843964
21
-16.5656855020
31
0.0000000000
0
SPLINE
5
31D
100
AcDbEntity
8
0
100
AcDbSpline
62
9
6
CONTINUOUS
70
0
71
3
72
9
73
5
74
3
42
0.0000001000
43
0.0000001000
44
0.0000000001
12
0.0242459641
22
-0.3798716375
32
0.0000000000
13
0.3404367378
23
-0.1706792996
33
0.0000000000
40
0.0000000000
40
0.0000000000
40
0.0000000000
40
0.0000000000
40
0.4304745147
40
1.0000000000
40
1.0000000000
40
1.0000000000
40
1.0000000000
10
-10.1299280042
20
-14.3194448097
30
0.0000000000
10
-10.1264489144
20
-14.3739531626
30
0.0000000000
10
-10.0696817923
20
-14.4987801413
30
0.0000000000
10
-9.9602561157
20
-14.5711847468
30
0.0000000000
10
-9.8956269829
20
-14.6035868171
30
0.0000000000
11
-10.1299280042
21
-14.3194448097
31
0.0000000000
11
-10.0678172481
21
-14.4717085275
31
0.0000000000
11
-9.8956269829
21
-14.6035868171
31
0.0000000000
0
SPLINE
5
31E
100
AcDbEntity
8
0
100
AcDbSpline
62
9
6
CONTINUOUS
70
0
71
3
72
10
73
6
74
4
42
0.0000001000
43
0.0000001000
44
0.0000000001
12
-0.0264045932
22
-0.3740282278
32
0.0000000000
13
0.3389132583
23
-0.1689443759
33
0.0000000000
40
0.0000000000
40
0.0000000000
40
0.0000000000
40
0.0000000000
40
0.0320897254
40
0.4391496545
40
1.0000000000
40
1.0000000000
40
1.0000000000
40
1.0000000000
10
-10.1299442360
20
20.5785290196
30
0.0000000000
10
-10.1302266747
20
20.5745281985
30
0.0000000000
10
-10.1319293222
20
20.5197566190
30
0.0000000000
10
-10.0646319713
20
20.3971296412
30
0.0000000000
10
-9.9589868579
20
20.3328657090
30
0.0000000000
10
-9.8956269853
20
20.3012815384
30
0.0000000000
11
-10.1299442360
21
20.5785290196
31
0.0000000000
11
-10.1303086126
21
20.5665285278
31
0.0000000000
11
-10.0678172565
21
20.4256150019
31
0.0000000000
11
-9.8956269853
21
20.3012815384
31
0.0000000000
0
SPLINE
5
31F
100
AcDbEntity
8
0
100
AcDbSpline
62
9
6
CONTINUOUS
70
0
71
3
72
8
73
4
74
2
42
0.0000001000
43
0.0000001000
44
0.0000000001
12
-0.5444340449
22
0.3244371640
32
0.0000000000
13
-0.4983428382
23
0.3925187990
33
0.0000000000
40
0.0000000000
40
0.0000000000
40
0.0000000000
40
0.0000000000
40
1.0000000000
40
1.0000000000
40
1.0000000000
40
1.0000000000
10
-4.6991951384
20
-15.0608354486
30
0.0000000000
10
-4.8806731534
20
-14.9526897273
30
0.0000000000
10
-5.0545909214
20
-14.8312083983
30
0.0000000000
10
-5.2207052008
20
-14.7003687986
30
0.0000000000
11
-4.6991951384
21
-15.0608354486
31
0.0000000000
11
-5.2207052008
21
-14.7003687986
31
0.0000000000
0
SPLINE
5
320
100
AcDbEntity
8
0
100
AcDbSpline
62
9
6
CONTINUOUS
70
0
71
3
72
8
73
4
74
2
42
0.0000001000
43
0.0000001000
44
0.0000000001
12
-0.1997084068
22
0.1572999509
32
0.0000000000
13
-0.1922617773
23
0.1659732314
33
0.0000000000
40
0.0000000000
40
0.0000000000
40
0.0000000000
40
0.0000000000
40
1.0000000000
40
1.0000000000
40
1.0000000000
40
1.0000000000
10
-5.2207052008
20
-14.7003687986
30
0.0000000000
10
-5.2872746697
20
-14.6479354816
30
0.0000000000
10
-5.3525909252
20
-14.5939992586
30
0.0000000000
10
-5.4166781843
20
-14.5386748481
30
0.0000000000
11
-5.2207052008
21
-14.7003687986
31
0.0000000000
11
-5.4166781843
21
-14.5386748481
31
0.0000000000
0
SPLINE
5
321
100
AcDbEntity
8
0
100
AcDbSpline
62
9
6
CONTINUOUS
70
0
71
3
72
15
73
11
74
9
42
0.0000001000
43
0.0000001000
44
0.0000000001
12
-5.5850979415
22
4.8214302690
32
0.0000000000
13
3.9793811868
23
6.2378912846
33
0.0000000000
40
0.0000000000
40
0.0000000000
40
0.0000000000
40
0.0000000000
40
0.1058285735
40
0.2539275070
40
0.4045314209
40
0.5529524975
40
0.6922946772
40
0.8200383965
40
0.9323424349
40
1.0000000000
40
1.0000000000
40
1.0000000000
40
1.0000000000
10
-5.4166781843
20
-14.5386748481
30
0.0000000000
10
-5.6136991670
20
-14.3685931522
30
0.0000000000
10
-6.0585657042
20
-13.9290151038
30
0.0000000000
10
-6.6672012899
20
-13.1389621112
30
0.0000000000
10
-7.2083943877
20
-12.1791263209
30
0.0000000000
10
-7.5985582824
20
-11.1712605916
30
0.0000000000
10
-7.8153945513
20
-10.1691952785
30
0.0000000000
10
-7.8448327977
20
-9.2314591771
30
0.0000000000
10
-7.6971439871
20
-8.4820239182
30
0.0000000000
10
-7.5042910630
20
-8.0781609840
30
0.0000000000
10
-7.4145459824
20
-7.9374808053
30
0.0000000000
11
-5.4166781843
21
-14.5386748481
31
0.0000000000
11
-5.9735987236
21
-13.9924033048
31
0.0000000000
11
-6.6418329062
21
-13.1296326734
31
0.0000000000
11
-7.1867375255
21
-12.1628770579
31
0.0000000000
11
-7.5784540234
21
-11.1417723550
31
0.0000000000
11
-7.7891506892
21
-10.1368599678
31
0.0000000000
11
-7.8081277297
21
-9.1957533321
31
0.0000000000
11
-7.6342495789
21
-8.3866985071
31
0.0000000000
11
-7.4145459824
21
-7.9374808053
31
0.0000000000
0
SPLINE
5
322
100
AcDbEntity
8
0
100
AcDbSpline
62
9
6
CONTINUOUS
70
0
71
3
72
8
73
4
74
2
42
0.0000001000
43
0.0000001000
44
0.0000000001
12
0.1267937158
22
0.1987558813
32
0.0000000000
13
0.1504229935
23
0.1819430932
33
0.0000000000
40
0.0000000000
40
0.0000000000
40
0.0000000000
40
0.0000000000
40
1.0000000000
40
1.0000000000
40
1.0000000000
40
1.0000000000
10
-7.4145459824
20
-7.9374808053
30
0.0000000000
10
-7.3722814104
20
-7.8712288449
30
0.0000000000
10
-7.3261930586
20
-7.8074507459
30
0.0000000000
10
-7.2760520608
20
-7.7468030482
30
0.0000000000
11
-7.4145459824
21
-7.9374808053
31
0.0000000000
11
-7.2760520608
21
-7.7468030482
31
0.0000000000
0
SPLINE
5
323
100
AcDbEntity
8
0
100
AcDbSpline
62
9
6
CONTINUOUS
70
0
71
3
72
8
73
4
74
2
42
0.0000001000
43
0.0000001000
44
0.0000000001
12
0.0204461494
22
0.0116305888
32
0.0000000000
13
0.0206164716
23
0.0113220845
33
0.0000000000
40
0.0000000000
40
0.0000000000
40
0.0000000000
40
0.0000000000
40
1.0000000000
40
1.0000000000
40
1.0000000000
40
1.0000000000
10
-6.8042964363
20
-7.3470400974
30
0.0000000000
10
-6.7974810532
20
-7.3431632345
30
0.0000000000
10
-6.7906370623
20
-7.3393374112
30
0.0000000000
10
-6.7837649051
20
-7.3355633830
30
0.0000000000
11
-6.8042964363
21
-7.3470400974
31
0.0000000000
11
-6.7837649051
21
-7.3355633830
31
0.0000000000
0
SPLINE
5
324
100
AcDbEntity
8
0
100
AcDbSpline
62
9
6
CONTINUOUS
70
0
71
3
72
8
73
4
74
2
42
0.0000001000
43
0.0000001000
44
0.0000000001
12
0.0067679639
22
0.0037168076
32
0.0000000000
13
0.0067861295
23
0.0036832365
33
0.0000000000
40
0.0000000000
40
0.0000000000
40
0.0000000000
40
0.0000000000
40
1.0000000000
40
1.0000000000
40
1.0000000000
40
1.0000000000
10
-6.7837649051
20
-7.3355633830
30
0.0000000000
10
-6.7815089171
20
-7.3343244471
30
0.0000000000
10
-6.7792498937
20
-7.3330910931
30
0.0000000000
10
-6.7769878505
20
-7.3318633476
30
0.0000000000
11
-6.7837649051
21
-7.3355633830
31
0.0000000000
11
-6.7769878505
21
-7.3318633476
31
0.0000000000
0
SPLINE
5
325
100
AcDbEntity
8
0
100
AcDbSpline
62
9
6
CONTINUOUS
70
0
71
3
72
8
73
4
74
2
42
0.0000001000
43
0.0000001000
44
0.0000000001
12
0.0071048949
22
0.0037448107
32
0.0000000000
13
0.0071241470
23
0.0037079871
33
0.0000000000
40
0.0000000000
40
0.0000000000
40
0.0000000000
40
0.0000000000
40
1.0000000000
40
1.0000000000
40
1.0000000000
40
1.0000000000
10
-6.7602663840
20
-7.3229190383
30
0.0000000000
10
-6.7578980857
20
-7.3216707681
30
0.0000000000
10
-6.7555265615
20
-7.3204286374
30
0.0000000000
10
-6.7531518458
20
-7.3191926417
30
0.0000000000
11
-6.7602663840
21
-7.3229190383
31
0.0000000000
11
-6.7531518458
21
-7.3191926417
31
0.0000000000
0
SPLINE
5
326
100
AcDbEntity
8
0
100
AcDbSpline
62
9
6
CONTINUOUS
70
0
71
3
72
8
73
4
74
2
42
0.0000001000
43
0.0000001000
44
0.0000000001
12
0.1286649801
22
0.0669677484
32
0.0000000000
13
0.1343010310
23
0.0550405302
33
0.0000000000
40
0.0000000000
40
0.0000000000
40
0.0000000000
40
0.0000000000
40
1.0000000000
40
1.0000000000
40
1.0000000000
40
1.0000000000
10
-6.7531518458
20
-7.3191926417
30
0.0000000000
10
-6.7102635192
20
-7.2968700589
30
0.0000000000
10
-6.6663342208
20
-7.2765485871
30
0.0000000000
10
-6.6215672105
20
-7.2582017437
30
0.0000000000
11
-6.7531518458
21
-7.3191926417
31
0.0000000000
11
-6.6215672105
21
-7.2582017437
31
0.0000000000
0
SPLINE
5
327
100
AcDbEntity
8
0
100
AcDbSpline
62
9
6
CONTINUOUS
70
0
71
3
72
8
73
4
74
2
42
0.0000001000
43
0.0000001000
44
0.0000000001
12
0.0067126176
22
0.0027510290
32
0.0000000000
13
0.0067250981
23
0.0027214410
33
0.0000000000
40
0.0000000000
40
0.0000000000
40
0.0000000000
40
0.0000000000
40
1.0000000000
40
1.0000000000
40
1.0000000000
40
1.0000000000
10
-6.6215672105
20
-7.2582017437
30
0.0000000000
10
-6.6193296713
20
-7.2572847341
30
0.0000000000
10
-6.6170900393
20
-7.2563726574
30
0.0000000000
10
-6.6148483399
20
-7.2554655104
30
0.0000000000
11
-6.6215672105
21
-7.2582017437
31
0.0000000000
11
-6.6148483399
21
-7.2554655104
31
0.0000000000
0
SPLINE
5
328
100
AcDbEntity
8
0
100
AcDbSpline
62
9
6
CONTINUOUS
70
0
71
3
72
8
73
4
74
2
42
0.0000001000
43
0.0000001000
44
0.0000000001
12
0.0580682268
22
0.0234984309
32
0.0000000000
13
0.0589440204
23
0.0212996047
33
0.0000000000
40
0.0000000000
40
0.0000000000
40
0.0000000000
40
0.0000000000
40
1.0000000000
40
1.0000000000
40
1.0000000000
40
1.0000000000
10
-6.6148483399
20
-7.2554655104
30
0.0000000000
10
-6.5954922643
20
-7.2476327001
30
0.0000000000
10
-6.5759820539
20
-7.2401674252
30
0.0000000000
10
-6.5563340472
20
-7.2330675569
30
0.0000000000
11
-6.6148483399
21
-7.2554655104
31
0.0000000000
11
-6.5563340472
21
-7.2330675569
31
0.0000000000
0
SPLINE
5
329
100
AcDbEntity
8
0
100
AcDbSpline
62
9
6
CONTINUOUS
70
0
71
3
72
8
73
4
74
2
42
0.0000001000
43
0.0000001000
44
0.0000000001
12
0.0596645855
22
0.0215599832
32
0.0000000000
13
0.0604608668
23
0.0193202356
33
0.0000000000
40
0.0000000000
40
0.0000000000
40
0.0000000000
40
0.0000000000
40
1.0000000000
40
1.0000000000
40
1.0000000000
40
1.0000000000
10
-6.5563340472
20
-7.2330675569
30
0.0000000000
10
-6.5364458520
20
-7.2258808959
30
0.0000000000
10
-6.5164164708
20
-7.2190686300
30
0.0000000000
10
-6.4962628486
20
-7.2126285515
30
0.0000000000
11
-6.5563340472
21
-7.2330675569
31
0.0000000000
11
-6.4962628486
21
-7.2126285515
31
0.0000000000
0
SPLINE
5
32A
100
AcDbEntity
8
0
100
AcDbSpline
62
9
6
CONTINUOUS
70
0
71
3
72
9
73
5
74
3
42
0.0000001000
43
0.0000001000
44
0.0000000001
12
0.4521369566
22
0.0989210876
32
0.0000000000
13
0.4608999242
23
-0.0127815836
33
0.0000000000
40
0.0000000000
40
0.0000000000
40
0.0000000000
40
0.0000000000
40
0.4945837083
40
1.0000000000
40
1.0000000000
40
1.0000000000
40
1.0000000000
10
-6.3373260659
20
-7.1700107555
30
0.0000000000
10
-6.2627862083
20
-7.1537025028
30
0.0000000000
10
-6.1099648879
20
-7.1303516895
30
0.0000000000
10
-5.9561214955
20
-7.1260349897
30
0.0000000000
10
-5.8784727187
20
-7.1281883299
30
0.0000000000
11
-6.3373260659
21
-7.1700107555
31
0.0000000000
11
-6.1113703255
21
-7.1352606316
31
0.0000000000
11
-5.8784727187
21
-7.1281883299
31
0.0000000000
0
SPLINE
5
32B
100
AcDbEntity
8
0
100
AcDbSpline
62
9
6
CONTINUOUS
70
0
71
3
72
9
73
5
74
3
42
0.0000001000
43
0.0000001000
44
0.0000000001
12
0.9671568254
22
-0.0268209976
32
0.0000000000
13
0.8921610386
23
-0.3701668474
33
0.0000000000
40
0.0000000000
40
0.0000000000
40
0.0000000000
40
0.0000000000
40
0.4979214592
40
1.0000000000
40
1.0000000000
40
1.0000000000
40
1.0000000000
10
-5.8784727187
20
-7.1281883299
30
0.0000000000
10
-5.7179500061
20
-7.1326399134
30
0.0000000000
10
-5.3964757487
20
-7.1787884809
30
0.0000000000
10
-5.0899194649
20
-7.2808802725
30
0.0000000000
10
-4.9406078274
20
-7.3428312160
30
0.0000000000
11
-5.8784727187
21
-7.1281883299
31
0.0000000000
11
-5.4015106937
21
-7.1924664050
31
0.0000000000
11
-4.9406078274
21
-7.3428312160
31
0.0000000000
0
SPLINE
5
32C
100
AcDbEntity
8
0
100
AcDbSpline
62
9
6
CONTINUOUS
70
0
71
3
72
13
73
9
74
7
42
0.0000001000
43
0.0000001000
44
0.0000000001
12
-0.6169966569
22
0.4521122190
32
0.0000000000
13
-0.0427161828
23
0.7617214815
33
0.0000000000
40
0.0000000000
40
0.0000000000
40
0.0000000000
40
0.0000000000
40
0.0423602160
40
0.2293759929
40
0.4224736885
40
0.6192367438
40
0.8142690741
40
1.0000000000
40
1.0000000000
40
1.0000000000
40
1.0000000000
10
-9.5919055546
20
-15.2779977190
30
0.0000000000
10
-9.6006175918
20
-15.2716138619
30
0.0000000000
10
-9.6468082303
20
-15.2357111616
30
0.0000000000
10
-9.7213347403
20
-15.1569905200
30
0.0000000000
10
-9.7976232201
20
-15.0305706588
30
0.0000000000
10
-9.8508328518
20
-14.8909800950
30
0.0000000000
10
-9.8829127185
20
-14.7472487300
30
0.0000000000
10
-9.8929824554
20
-14.6507452551
30
0.0000000000
10
-9.8956270275
20
-14.6035868430
30
0.0000000000
11
-9.5919055546
21
-15.2779977190
31
0.0000000000
11
-9.6174828475
21
-15.2581199401
31
0.0000000000
11
-9.7161985233
21
-15.1551046180
31
0.0000000000
11
-9.7931913151
21
-15.0295075144
31
0.0000000000
11
-9.8474896178
21
-14.8895577152
31
0.0000000000
11
-9.8805222594
21
-14.7444769855
31
0.0000000000
11
-9.8956270275
21
-14.6035868430
31
0.0000000000
0
SPLINE
5
32D
100
AcDbEntity
8
0
100
AcDbSpline
62
9
6
CONTINUOUS
70
0
71
3
72
8
73
4
74
2
42
0.0000001000
43
0.0000001000
44
0.0000000001
12
0.0426700386
22
-0.0213491025
32
0.0000000000
13
0.0424089418
23
-0.0218786539
33
0.0000000000
40
0.0000000000
40
0.0000000000
40
0.0000000000
40
0.0000000000
40
1.0000000000
40
1.0000000000
40
1.0000000000
40
1.0000000000
10
-1.7422545448
20
-8.9323094743
30
0.0000000000
10
-1.7280311986
20
-8.9394258418
30
0.0000000000
10
-1.7138512988
20
-8.9466313470
30
0.0000000000
10
-1.6997149848
20
-8.9539242316
30
0.0000000000
11
-1.7422545448
21
-8.9323094743
31
0.0000000000
11
-1.6997149848
21
-8.9539242316
31
0.0000000000
0
SPLINE
5
32E
100
AcDbEntity
8
0
100
AcDbSpline
62
9
6
CONTINUOUS
70
0
71
3
72
8
73
4
74
2
42
0.0000001000
43
0.0000001000
44
0.0000000001
12
0.1825964663
22
-0.3989411401
32
0.0000000000
13
0.1592711885
23
-0.4088125944
33
0.0000000000
40
0.0000000000
40
0.0000000000
40
0.0000000000
40
0.0000000000
40
1.0000000000
40
1.0000000000
40
1.0000000000
40
1.0000000000
10
0.9796000987
20
-11.9962250681
30
0.0000000000
10
1.0404655874
20
-12.1292054481
30
0.0000000000
10
1.0975734574
20
-12.2639167596
30
0.0000000000
10
1.1506638536
20
-12.4001876244
30
0.0000000000
11
0.9796000987
21
-11.9962250681
31
0.0000000000
11
1.1506638536
21
-12.4001876244
31
0.0000000000
0
SPLINE
5
32F
100
AcDbEntity
8
0
100
AcDbSpline
62
9
6
CONTINUOUS
70
0
71
3
72
8
73
4
74
2
42
0.0000001000
43
0.0000001000
44
0.0000000001
12
0.0207899603
22
-0.0533630575
32
0.0000000000
13
0.0203775146
23
-0.0535213493
33
0.0000000000
40
0.0000000000
40
0.0000000000
40
0.0000000000
40
0.0000000000
40
1.0000000000
40
1.0000000000
40
1.0000000000
40
1.0000000000
10
1.1506638536
20
-12.4001876244
30
0.0000000000
10
1.1575938403
20
-12.4179753102
30
0.0000000000
10
1.1644553751
20
-12.4357895686
30
0.0000000000
10
1.1712478800
20
-12.4536300183
30
0.0000000000
11
1.1506638536
21
-12.4001876244
31
0.0000000000
11
1.1712478800
21
-12.4536300183
31
0.0000000000
0
SPLINE
5
330
100
AcDbEntity
8
0
100
AcDbSpline
62
9
6
CONTINUOUS
70
0
71
3
72
8
73
4
74
2
42
0.0000001000
43
0.0000001000
44
0.0000000001
12
0.0370686618
22
-0.0973604893
32
0.0000000000
13
0.0356876591
23
-0.0978736274
33
0.0000000000
40
0.0000000000
40
0.0000000000
40
0.0000000000
40
0.0000000000
40
1.0000000000
40
1.0000000000
40
1.0000000000
40
1.0000000000
10
1.1712478800
20
-12.4536300183
30
0.0000000000
10
1.1836041006
20
-12.4860835148
30
0.0000000000
10
1.1957318936
20
-12.5186236814
30
0.0000000000
10
1.2076277799
20
-12.5512482239
30
0.0000000000
11
1.1712478800
21
-12.4536300183
31
0.0000000000
11
1.2076277799
21
-12.5512482239
31
0.0000000000
0
SPLINE
5
331
100
AcDbEntity
8
0
100
AcDbSpline
62
9
6
CONTINUOUS
70
0
71
3
72
8
73
4
74
2
42
0.0000001000
43
0.0000001000
44
0.0000000001
12
0.0465373932
22
-0.1276290905
32
0.0000000000
13
0.0441481543
23
-0.1284746964
33
0.0000000000
40
0.0000000000
40
0.0000000000
40
0.0000000000
40
0.0000000000
40
1.0000000000
40
1.0000000000
40
1.0000000000
40
1.0000000000
10
1.2076277799
20
-12.5512482239
30
0.0000000000
10
1.2231402443
20
-12.5937912541
30
0.0000000000
10
1.2382583594
20
-12.6364777624
30
0.0000000000
10
1.2529744109
20
-12.6793026612
30
0.0000000000
11
1.2076277799
21
-12.5512482239
31
0.0000000000
11
1.2529744109
21
-12.6793026612
31
0.0000000000
0
SPLINE
5
332
100
AcDbEntity
8
0
100
AcDbSpline
62
9
6
CONTINUOUS
70
0
71
3
72
11
73
7
74
5
42
0.0000001000
43
0.0000001000
44
0.0000000001
12
0.8503820859
22
-2.4746805833
32
0.0000000000
13
-0.4272386980
23
-2.5865168380
33
0.0000000000
40
0.0000000000
40
0.0000000000
40
0.0000000000
40
0.0000000000
40
0.1372994770
40
0.5304578648
40
0.8903969803
40
1.0000000000
40
1.0000000000
40
1.0000000000
40
1.0000000000
10
1.2529744109
20
-12.6793026612
30
0.0000000000
10
1.2918934161
20
-12.7925601112
30
0.0000000000
10
1.4313926726
20
-13.2338710038
30
0.0000000000
10
1.5915147303
20
-13.9965247048
30
0.0000000000
10
1.6152303040
20
-14.7527597029
30
0.0000000000
10
1.5653337042
20
-15.1604882817
30
0.0000000000
10
1.5497248204
20
-15.2549849671
30
0.0000000000
11
1.2529744109
21
-12.6793026612
31
0.0000000000
11
1.3611523353
21
-13.0218847116
31
0.0000000000
11
1.5662203199
21
-14.0290950308
31
0.0000000000
11
1.5852059227
21
-14.9699292070
31
0.0000000000
11
1.5497248204
21
-15.2549849671
31
0.0000000000
0
SPLINE
5
333
100
AcDbEntity
8
0
100
AcDbSpline
62
9
6
CONTINUOUS
70
0
71
3
72
8
73
4
74
2
42
0.0000001000
43
0.0000001000
44
0.0000000001
12
-0.0351040823
22
-0.1372853140
32
0.0000000000
13
-0.0418403908
23
-0.1354731720
33
0.0000000000
40
0.0000000000
40
0.0000000000
40
0.0000000000
40
0.0000000000
40
1.0000000000
40
1.0000000000
40
1.0000000000
40
1.0000000000
10
1.4932842827
20
-15.5250683534
30
0.0000000000
10
1.4815829219
20
-15.5708301247
30
0.0000000000
10
1.4687912400
20
-15.6163178897
30
0.0000000000
10
1.4548444431
20
-15.6614756137
30
0.0000000000
11
1.4932842827
21
-15.5250683534
31
0.0000000000
11
1.4548444431
21
-15.6614756137
31
0.0000000000
0
SPLINE
5
334
100
AcDbEntity
8
0
100
AcDbSpline
62
9
6
CONTINUOUS
70
0
71
3
72
8
73
4
74
2
42
0.0000001000
43
0.0000001000
44
0.0000000001
12
-0.0320055842
22
-0.1036294817
32
0.0000000000
13
-0.0361480160
23
-0.1023955162
33
0.0000000000
40
0.0000000000
40
0.0000000000
40
0.0000000000
40
0.0000000000
40
1.0000000000
40
1.0000000000
40
1.0000000000
40
1.0000000000
10
1.4548444431
20
-15.6614756137
30
0.0000000000
10
1.4441759151
20
-15.6960187743
30
0.0000000000
10
1.4328314826
20
-15.7303688145
30
0.0000000000
10
1.4207821439
20
-15.7645006533
30
0.0000000000
11
1.4548444431
21
-15.6614756137
31
0.0000000000
11
1.4207821439
21
-15.7645006533
31
0.0000000000
0
SPLINE
5
335
100
AcDbEntity
8
0
100
AcDbSpline
62
9
6
CONTINUOUS
70
0
71
3
72
8
73
4
74
2
42
0.0000001000
43
0.0000001000
44
0.0000000001
12
-0.0040704767
22
-0.0115303302
32
0.0000000000
13
-0.0041242305
23
-0.0115136219
33
0.0000000000
40
0.0000000000
40
0.0000000000
40
0.0000000000
40
0.0000000000
40
1.0000000000
40
1.0000000000
40
1.0000000000
40
1.0000000000
10
1.4207821439
20
-15.7645006533
30
0.0000000000
10
1.4194253184
20
-15.7683440967
30
0.0000000000
10
1.4180595545
20
-15.7721847732
30
0.0000000000
10
1.4166848111
20
-15.7760226472
30
0.0000000000
11
1.4207821439
21
-15.7645006533
31
0.0000000000
11
1.4166848111
21
-15.7760226472
31
0.0000000000
0
SPLINE
5
336
100
AcDbEntity
8
0
100
AcDbSpline
62
9
6
CONTINUOUS
70
0
71
3
72
8
73
4
74
2
42
0.0000001000
43
0.0000001000
44
0.0000000001
12
-0.0848692967
22
-0.2369297749
32
0.0000000000
13
-0.1087155715
23
-0.2272697431
33
0.0000000000
40
0.0000000000
40
0.0000000000
40
0.0000000000
40
0.0000000000
40
1.0000000000
40
1.0000000000
40
1.0000000000
40
1.0000000000
10
1.4166848111
20
-15.7760226472
30
0.0000000000
10
1.3883950455
20
-15.8549992388
30
0.0000000000
10
1.3563027234
20
-15.9327890240
30
0.0000000000
10
1.3200641996
20
-16.0085456051
30
0.0000000000
11
1.4166848111
21
-15.7760226472
31
0.0000000000
11
1.3200641996
21
-16.0085456051
31
0.0000000000
0
SPLINE
5
337
100
AcDbEntity
8
0
100
AcDbSpline
62
9
6
CONTINUOUS
70
0
71
3
72
8
73
4
74
2
42
0.0000001000
43
0.0000001000
44
0.0000000001
12
-0.0211157928
22
-0.0441425339
32
0.0000000000
13
-0.0220618440
23
-0.0436637104
33
0.0000000000
40
0.0000000000
40
0.0000000000
40
0.0000000000
40
0.0000000000
40
1.0000000000
40
1.0000000000
40
1.0000000000
40
1.0000000000
10
1.3200641996
20
-16.0085456051
30
0.0000000000
10
1.3130256020
20
-16.0232597830
30
0.0000000000
10
1.3058305882
20
-16.0378972580
30
0.0000000000
10
1.2984766402
20
-16.0524518282
30
0.0000000000
11
1.3200641996
21
-16.0085456051
31
0.0000000000
11
1.2984766402
21
-16.0524518282
31
0.0000000000
0
SPLINE
5
338
100
AcDbEntity
8
0
100
AcDbSpline
62
9
6
CONTINUOUS
70
0
71
3
72
8
73
4
74
2
42
0.0000001000
43
0.0000001000
44
0.0000000001
12
-0.0878075754
22
-0.1737844104
32
0.0000000000
13
-0.1033898230
23
-0.1647316370
33
0.0000000000
40
0.0000000000
40
0.0000000000
40
0.0000000000
40
0.0000000000
40
1.0000000000
40
1.0000000000
40
1.0000000000
40
1.0000000000
10
1.2984766402
20
-16.0524518282
30
0.0000000000
10
1.2692074484
20
-16.1103799650
30
0.0000000000
10
1.2374205929
20
-16.1669948130
30
0.0000000000
10
1.2029573186
20
-16.2219053587
30
0.0000000000
11
1.2984766402
21
-16.0524518282
31
0.0000000000
11
1.2029573186
21
-16.2219053587
31
0.0000000000
0
SPLINE
5
339
100
AcDbEntity
8
0
100
AcDbSpline
62
9
6
CONTINUOUS
70
0
71
3
72
8
73
4
74
2
42
0.0000001000
43
0.0000001000
44
0.0000000001
12
-0.0435544227
22
-0.0336952842
32
0.0000000000
13
-0.0446560411
23
-0.0321748795
33
0.0000000000
40
0.0000000000
40
0.0000000000
40
0.0000000000
40
0.0000000000
40
1.0000000000
40
1.0000000000
40
1.0000000000
40
1.0000000000
10
0.7910571586
20
-16.6809302538
30
0.0000000000
10
0.7765390177
20
-16.6921620152
30
0.0000000000
10
0.7618343024
20
-16.7031457059
30
0.0000000000
10
0.7469489554
20
-16.7138706657
30
0.0000000000
11
0.7910571586
21
-16.6809302538
31
0.0000000000
11
0.7469489554
21
-16.7138706657
31
0.0000000000
0
SPLINE
5
33A
100
AcDbEntity
8
0
100
AcDbSpline
62
9
6
CONTINUOUS
70
0
71
3
72
8
73
4
74
2
42
0.0000001000
43
0.0000001000
44
0.0000000001
12
-0.1188381355
22
-0.0538846954
32
0.0000000000
13
-0.1230242652
23
-0.0439183057
33
0.0000000000
40
0.0000000000
40
0.0000000000
40
0.0000000000
40
0.0000000000
40
1.0000000000
40
1.0000000000
40
1.0000000000
40
1.0000000000
10
0.4841744106
20
-16.8664395269
30
0.0000000000
10
0.4445616988
20
-16.8844010921
30
0.0000000000
10
0.4041711376
20
-16.9006875495
30
0.0000000000
10
0.3631630492
20
-16.9153269847
30
0.0000000000
11
0.4841744106
21
-16.8664395269
31
0.0000000000
11
0.3631630492
21
-16.9153269847
31
0.0000000000
0
SPLINE
5
33B
100
AcDbEntity
8
0
100
AcDbSpline
62
9
6
CONTINUOUS
70
0
71
3
72
10
73
6
74
4
42
0.0000001000
43
0.0000001000
44
0.0000000001
12
-1.3895133678
22
-0.2957382473
32
0.0000000000
13
-1.3033939578
23
0.5436145239
33
0.0000000000
40
0.0000000000
40
0.0000000000
40
0.0000000000
40
0.0000000000
40
0.1585786434
40
0.6583951995
40
1.0000000000
40
1.0000000000
40
1.0000000000
40
1.0000000000
10
0.1477538676
20
-16.9762094627
30
0.0000000000
10
0.0743048193
20
-16.9918420527
30
0.0000000000
10
-0.2348657325
20
-17.0370616426
30
0.0000000000
10
-0.7096317756
20
-16.9853662572
30
0.0000000000
10
-1.0862252459
20
-16.8584147892
30
0.0000000000
10
-1.2346404569
20
-16.7965143455
30
0.0000000000
11
0.1477538676
21
-16.9762094627
31
0.0000000000
11
-0.0748245439
21
-17.0090271442
31
0.0000000000
11
-0.7766703607
21
-16.9477404652
31
0.0000000000
11
-1.2346404569
21
-16.7965143455
31
0.0000000000
0
SPLINE
5
33C
100
AcDbEntity
8
0
100
AcDbSpline
62
0
6
CONTINUOUS
70
0
71
3
72
8
73
4
74
2
42
0.0000001000
43
0.0000001000
44
0.0000000001
12
0.0367654782
22
0.0063123453
32
0.0000000000
13
0.0366419476
23
0.0070943049
33
0.0000000000
40
0.0000000000
40
0.0000000000
40
0.0000000000
40
0.0000000000
40
1.0000000000
40
1.0000000000
40
1.0000000000
40
1.0000000000
10
0.3557038442
20
-16.7235180142
30
0.0000000000
10
0.3679590036
20
-16.7214138991
30
0.0000000000
10
0.3801951662
20
-16.7191791978
30
0.0000000000
10
0.3924091488
20
-16.7168144295
30
0.0000000000
11
0.3557038442
21
-16.7235180142
31
0.0000000000
11
0.3924091488
21
-16.7168144295
31
0.0000000000
0
SPLINE
5
33D
100
AcDbEntity
8
0
100
AcDbSpline
62
9
6
CONTINUOUS
70
0
71
3
72
8
73
4
74
2
42
0.0000001000
43
0.0000001000
44
0.0000000001
12
-0.1515930246
22
0.0901658701
32
0.0000000000
13
-0.1479878249
23
0.0962409490
33
0.0000000000
40
0.0000000000
40
0.0000000000
40
0.0000000000
40
0.0000000000
40
1.0000000000
40
1.0000000000
40
1.0000000000
40
1.0000000000
10
-4.6213927889
20
-14.9392939588
30
0.0000000000
10
-4.6719237971
20
-14.9092386688
30
0.0000000000
10
-4.7218564491
20
-14.8781258069
30
0.0000000000
10
-4.7711857241
20
-14.8460454905
30
0.0000000000
11
-4.6213927889
21
-14.9392939588
31
0.0000000000
11
-4.7711857241
21
-14.8460454905
31
0.0000000000
0
SPLINE
5
33E
100
AcDbEntity
8
0
100
AcDbSpline
62
9
6
CONTINUOUS
70
0
71
3
72
8
73
4
74
2
42
0.0000001000
43
0.0000001000
44
0.0000000001
12
-0.1091025422
22
0.0709526761
32
0.0000000000
13
-0.1071288109
23
0.0739993451
33
0.0000000000
40
0.0000000000
40
0.0000000000
40
0.0000000000
40
0.0000000000
40
1.0000000000
40
1.0000000000
40
1.0000000000
40
1.0000000000
10
-4.7711857241
20
-14.8460454905
30
0.0000000000
10
-4.8075532382
20
-14.8223945985
30
0.0000000000
10
-4.8435928030
20
-14.7982178730
30
0.0000000000
10
-4.8793024066
20
-14.7735514246
30
0.0000000000
11
-4.7711857241
21
-14.8460454905
31
0.0000000000
11
-4.8793024066
21
-14.7735514246
31
0.0000000000
0
SPLINE
5
33F
100
AcDbEntity
8
0
100
AcDbSpline
62
9
6
CONTINUOUS
70
0
71
3
72
8
73
4
74
2
42
0.0000001000
43
0.0000001000
44
0.0000000001
12
-0.0275170049
22
0.0190074017
32
0.0000000000
13
-0.0273862844
23
0.0191994272
33
0.0000000000
40
0.0000000000
40
0.0000000000
40
0.0000000000
40
0.0000000000
40
1.0000000000
40
1.0000000000
40
1.0000000000
40
1.0000000000
10
-4.8793024066
20
-14.7735514246
30
0.0000000000
10
-4.8884747416
20
-14.7672156240
30
0.0000000000
10
-4.8976253069
20
-14.7608475132
30
0.0000000000
10
-4.9067540684
20
-14.7544477042
30
0.0000000000
11
-4.8793024066
21
-14.7735514246
31
0.0000000000
11
-4.9067540684
21
-14.7544477042
31
0.0000000000
0
SPLINE
5
340
100
AcDbEntity
8
0
100
AcDbSpline
62
9
6
CONTINUOUS
70
0
71
3
72
8
73
4
74
2
42
0.0000001000
43
0.0000001000
44
0.0000000001
12
-0.0503628655
22
0.0423971049
32
0.0000000000
13
-0.0498564811
23
0.0429742853
33
0.0000000000
40
0.0000000000
40
0.0000000000
40
0.0000000000
40
0.0000000000
40
1.0000000000
40
1.0000000000
40
1.0000000000
40
1.0000000000
10
-5.2742822794
20
-14.4711505704
30
0.0000000000
10
-5.2910699012
20
-14.4570182021
30
0.0000000000
10
-5.3077729101
20
-14.4427886035
30
0.0000000000
10
-5.3243917372
20
-14.4284638418
30
0.0000000000
11
-5.2742822794
21
-14.4711505704
31
0.0000000000
11
-5.3243917372
21
-14.4284638418
31
0.0000000000
0
SPLINE
5
341
100
AcDbEntity
8
0
100
AcDbSpline
62
9
6
CONTINUOUS
70
0
71
3
72
8
73
4
74
2
42
0.0000001000
43
0.0000001000
44
0.0000000001
12
0.1052507978
22
0.2156636355
32
0.0000000000
13
0.1287901607
23
0.2021323583
33
0.0000000000
40
0.0000000000
40
0.0000000000
40
0.0000000000
40
0.0000000000
40
1.0000000000
40
1.0000000000
40
1.0000000000
40
1.0000000000
10
-7.4020383583
20
-8.1848340909
30
0.0000000000
10
-7.3669547591
20
-8.1129462124
30
0.0000000000
10
-7.3280741086
20
-8.0429515597
30
0.0000000000
10
-7.2851440550
20
-7.9755741070
30
0.0000000000
11
-7.4020383583
21
-8.1848340909
31
0.0000000000
11
-7.2851440550
21
-7.9755741070
31
0.0000000000
0
SPLINE
5
342
100
AcDbEntity
8
0
100
AcDbSpline
62
9
6
CONTINUOUS
70
0
71
3
72
8
73
4
74
2
42
0.0000001000
43
0.0000001000
44
0.0000000001
12
0.0420845739
22
0.0660504974
32
0.0000000000
13
0.0447053041
23
0.0642979643
33
0.0000000000
40
0.0000000000
40
0.0000000000
40
0.0000000000
40
0.0000000000
40
1.0000000000
40
1.0000000000
40
1.0000000000
40
1.0000000000
10
-7.2851440550
20
-7.9755741070
30
0.0000000000
10
-7.2711158637
20
-7.9535572745
30
0.0000000000
10
-7.2566552865
20
-7.9318199006
30
0.0000000000
10
-7.2417535184
20
-7.9103872458
30
0.0000000000
11
-7.2851440550
21
-7.9755741070
31
0.0000000000
11
-7.2417535184
21
-7.9103872458
31
0.0000000000
0
SPLINE
5
343
100
AcDbEntity
8
0
100
AcDbSpline
62
9
6
CONTINUOUS
70
0
71
3
72
8
73
4
74
2
42
0.0000001000
43
0.0000001000
44
0.0000000001
12
0.0056150769
22
0.0080759547
32
0.0000000000
13
0.0056568902
23
0.0080469613
33
0.0000000000
40
0.0000000000
40
0.0000000000
40
0.0000000000
40
0.0000000000
40
1.0000000000
40
1.0000000000
40
1.0000000000
40
1.0000000000
10
-7.2417535184
20
-7.9103872458
30
0.0000000000
10
-7.2398818261
20
-7.9076952609
30
0.0000000000
10
-7.2380031737
20
-7.9050080832
30
0.0000000000
10
-7.2361175436
20
-7.9023257627
30
0.0000000000
11
-7.2417535184
21
-7.9103872458
31
0.0000000000
11
-7.2361175436
21
-7.9023257627
31
0.0000000000
0
SPLINE
5
344
100
AcDbEntity
8
0
100
AcDbSpline
62
9
6
CONTINUOUS
70
0
71
3
72
8
73
4
74
2
42
0.0000001000
43
0.0000001000
44
0.0000000001
12
0.0819474777
22
0.1165707936
32
0.0000000000
13
0.0908922449
23
0.1099984321
33
0.0000000000
40
0.0000000000
40
0.0000000000
40
0.0000000000
40
0.0000000000
40
1.0000000000
40
1.0000000000
40
1.0000000000
40
1.0000000000
10
-7.2361175436
20
-7.9023257627
30
0.0000000000
10
-7.2088017177
20
-7.8634688315
30
0.0000000000
10
-7.1800216165
20
-7.8256312128
30
0.0000000000
10
-7.1497242015
20
-7.7889650687
30
0.0000000000
11
-7.2361175436
21
-7.9023257627
31
0.0000000000
11
-7.1497242015
21
-7.7889650687
31
0.0000000000
0
SPLINE
5
345
100
AcDbEntity
8
0
100
AcDbSpline
62
9
6
CONTINUOUS
70
0
71
3
72
8
73
4
74
2
42
0.0000001000
43
0.0000001000
44
0.0000000001
12
0.1417045672
22
0.1714918608
32
0.0000000000
13
0.1626554577
23
0.1524023417
33
0.0000000000
40
0.0000000000
40
0.0000000000
40
0.0000000000
40
0.0000000000
40
1.0000000000
40
1.0000000000
40
1.0000000000
40
1.0000000000
10
-7.1497242015
20
-7.7889650687
30
0.0000000000
10
-7.1024893457
20
-7.7318011151
30
0.0000000000
10
-7.0515665026
20
-7.6774845517
30
0.0000000000
10
-6.9973480167
20
-7.6266837711
30
0.0000000000
11
-7.1497242015
21
-7.7889650687
31
0.0000000000
11
-6.9973480167
21
-7.6266837711
31
0.0000000000
0
SPLINE
5
346
100
AcDbEntity
8
0
100
AcDbSpline
62
9
6
CONTINUOUS
70
0
71
3
72
8
73
4
74
2
42
0.0000001000
43
0.0000001000
44
0.0000000001
12
0.1034774020
22
0.0743130627
32
0.0000000000
13
0.1089775343
23
0.0657488150
33
0.0000000000
40
0.0000000000
40
0.0000000000
40
0.0000000000
40
0.0000000000
40
1.0000000000
40
1.0000000000
40
1.0000000000
40
1.0000000000
10
-6.8293653693
20
-7.4884800605
30
0.0000000000
10
-6.7948729019
20
-7.4637090396
30
0.0000000000
10
-6.7594269996
20
-7.4403027928
30
0.0000000000
10
-6.7231011548
20
-7.4183865211
30
0.0000000000
11
-6.8293653693
21
-7.4884800605
31
0.0000000000
11
-6.7231011548
21
-7.4183865211
31
0.0000000000
0
SPLINE
5
347
100
AcDbEntity
8
0
100
AcDbSpline
62
9
6
CONTINUOUS
70
0
71
3
72
8
73
4
74
2
42
0.0000001000
43
0.0000001000
44
0.0000000001
12
0.0609206095
22
0.0321134191
32
0.0000000000
13
0.0623088928
23
0.0293498509
33
0.0000000000
40
0.0000000000
40
0.0000000000
40
0.0000000000
40
0.0000000000
40
1.0000000000
40
1.0000000000
40
1.0000000000
40
1.0000000000
10
-6.6458305467
20
-7.3747441582
30
0.0000000000
10
-6.6255236768
20
-7.3640396851
30
0.0000000000
10
-6.6049740322
20
-7.3537973066
30
0.0000000000
10
-6.5842044013
20
-7.3440140229
30
0.0000000000
11
-6.6458305467
21
-7.3747441582
31
0.0000000000
11
-6.5842044013
21
-7.3440140229
31
0.0000000000
0
SPLINE
5
348
100
AcDbEntity
8
0
100
AcDbSpline
62
9
6
CONTINUOUS
70
0
71
3
72
9
73
5
74
3
42
0.0000001000
43
0.0000001000
44
0.0000000001
12
0.0013842112
22
-0.0595434742
32
0.0000000000
13
0.0537520112
23
-0.0283866195
33
0.0000000000
40
0.0000000000
40
0.0000000000
40
0.0000000000
40
0.0000000000
40
0.6411314756
40
1.0000000000
40
1.0000000000
40
1.0000000000
40
1.0000000000
10
-4.7121030258
20
-7.4473852338
30
0.0000000000
10
-4.7118072053
20
-7.4601102990
30
0.0000000000
10
-4.7081916209
20
-7.4810575006
30
0.0000000000
10
-4.6924701495
20
-7.4954186215
30
0.0000000000
10
-4.6860401812
20
-7.4988143096
30
0.0000000000
11
-4.7121030258
21
-7.4473852338
31
0.0000000000
11
-4.7021949558
21
-7.4842629139
31
0.0000000000
11
-4.6860401812
21
-7.4988143096
31
0.0000000000
0
SPLINE
5
349
100
AcDbEntity
8
0
100
AcDbSpline
62
9
6
CONTINUOUS
70
0
71
3
72
15
73
11
74
9
42
0.0000001000
43
0.0000001000
44
0.0000000001
12
0.0848177091
22
1.5986302502
32
0.0000000000
13
1.1149654708
23
1.1497626672
33
0.0000000000
40
0.0000000000
40
0.0000000000
40
0.0000000000
40
0.0000000000
40
0.0905979484
40
0.1975885532
40
0.3188117803
40
0.4511897323
40
0.5905786979
40
0.7319623983
40
0.8700419061
40
1.0000000000
40
1.0000000000
40
1.0000000000
40
1.0000000000
10
-9.8956270275
20
20.3012815208
30
0.0000000000
10
-9.8930655906
20
20.3495590611
30
0.0000000000
10
-9.8830895482
20
20.4546527252
30
0.0000000000
10
-9.8532761375
20
20.6223400364
30
0.0000000000
10
-9.8036055529
20
20.8084904420
30
0.0000000000
10
-9.7320482848
20
21.0059032405
30
0.0000000000
10
-9.6387072597
20
21.2059671810
30
0.0000000000
10
-9.5260605173
20
21.3993843369
30
0.0000000000
10
-9.3987759468
20
21.5773631297
30
0.0000000000
10
-9.3045794935
20
21.6853056913
30
0.0000000000
10
-9.2562798978
20
21.7351126796
30
0.0000000000
11
-9.8956270275
21
20.3012815208
31
0.0000000000
11
-9.8821298960
21
20.4456884602
31
0.0000000000
11
-9.8523883903
21
20.6143654687
31
0.0000000000
11
-9.8025729700
21
20.8019264941
31
0.0000000000
11
-9.7304979611
21
21.0012145363
31
0.0000000000
11
-9.6361812001
21
21.2034469869
31
0.0000000000
11
-9.5221714793
21
21.3989738289
31
0.0000000000
11
-9.3933673403
21
21.5786177939
31
0.0000000000
11
-9.2562798978
21
21.7351126796
31
0.0000000000
0
SPLINE
5
34A
100
AcDbEntity
8
0
100
AcDbSpline
62
9
6
CONTINUOUS
70
0
71
3
72
18
73
14
74
12
42
0.0000001000
43
0.0000001000
44
0.0000000001
12
0.0415984817
22
-0.7236664353
32
0.0000000000
13
0.6580717977
23
0.3039161929
33
0.0000000000
40
0.0000000000
40
0.0000000000
40
0.0000000000
40
0.0000000000
40
0.0897504768
40
0.1847890856
40
0.2814622184
40
0.3771455650
40
0.4705961569
40
0.5619990379
40
0.6523693308
40
0.7424625758
40
0.8318728606
40
0.9187560350
40
1.0000000000
40
1.0000000000
40
1.0000000000
40
1.0000000000
10
5.3517783908
20
-21.6262146191
30
0.0000000000
10
5.3530228853
20
-21.6478644217
30
0.0000000000
10
5.3577446588
20
-21.6923547778
30
0.0000000000
10
5.3727390486
20
-21.7588785887
30
0.0000000000
10
5.3977154025
20
-21.8239934349
30
0.0000000000
10
5.4336770498
20
-21.8834611224
30
0.0000000000
10
5.4805694556
20
-21.9332154836
30
0.0000000000
10
5.5368830123
20
-21.9698296028
30
0.0000000000
10
5.5995974556
20
-21.9914002367
30
0.0000000000
10
5.6649498244
20
-21.9981717993
30
0.0000000000
10
5.7293787409
20
-21.9921924918
30
0.0000000000
10
5.7898301866
20
-21.9765838830
30
0.0000000000
10
5.8276446723
20
-21.9614738254
30
0.0000000000
10
5.8454661264
20
-21.9532433732
30
0.0000000000
11
5.3517783908
21
-21.6262146191
31
0.0000000000
11
5.3588179205
21
-21.6908892623
31
0.0000000000
11
5.3742365533
21
-21.7580314127
31
0.0000000000
11
5.3996923075
21
-21.8233188736
31
0.0000000000
11
5.4359585039
21
-21.8824388757
31
0.0000000000
11
5.4826813441
21
-21.9314848429
31
0.0000000000
11
5.5382925416
21
-21.9674992664
31
0.0000000000
11
5.6001807913
21
-21.9889671076
31
0.0000000000
11
5.6651017968
21
-21.9960393820
31
0.0000000000
11
5.7296664747
21
-21.9904053124
31
0.0000000000
11
5.7907132911
21
-21.9749281173
31
0.0000000000
11
5.8454661264
21
-21.9532433732
31
0.0000000000
0
SPLINE
5
34B
100
AcDbEntity
8
0
100
AcDbSpline
62
9
6
CONTINUOUS
70
0
71
3
72
13
73
9
74
7
42
0.0000001000
43
0.0000001000
44
0.0000000001
12
0.0489720067
22
-0.8595734092
32
0.0000000000
13
0.7701565462
23
-0.3893217486
33
0.0000000000
40
0.0000000000
40
0.0000000000
40
0.0000000000
40
0.0000000000
40
0.1618345841
40
0.3330678211
40
0.5070245568
40
0.6788895884
40
0.8463809903
40
1.0000000000
40
1.0000000000
40
1.0000000000
40
1.0000000000
10
4.2316440139
20
-21.6672223637
30
0.0000000000
10
4.2342858021
20
-21.7135919321
30
0.0000000000
10
4.2443033437
20
-21.8088459726
30
0.0000000000
10
4.2761296809
20
-21.9512352943
30
0.0000000000
10
4.3291437059
20
-22.0905122663
30
0.0000000000
10
4.4054834867
20
-22.2175969117
30
0.0000000000
10
4.5030997871
20
-22.3217016877
30
0.0000000000
10
4.5806704376
20
-22.3730358886
30
0.0000000000
10
4.6201073329
20
-22.3929716291
30
0.0000000000
11
4.2316440139
21
-21.6672223637
31
0.0000000000
11
4.2465915393
21
-21.8057525581
31
0.0000000000
11
4.2793359772
21
-21.9494963990
31
0.0000000000
11
4.3333999110
21
-22.0891690955
31
0.0000000000
11
4.4104245543
21
-22.2155113946
31
0.0000000000
11
4.5096518884
21
-22.3201484288
31
0.0000000000
11
4.6201073329
21
-22.3929716291
31
0.0000000000
0
SPLINE
5
34C
100
AcDbEntity
8
0
100
AcDbSpline
62
0
6
CONTINUOUS
70
0
71
3
72
8
73
4
74
2
42
0.0000001000
43
0.0000001000
44
0.0000000001
12
0.0659987892
22
0.0007886708
32
0.0000000000
13
0.0659395615
23
0.0029581050
33
0.0000000000
40
0.0000000000
40
0.0000000000
40
0.0000000000
40
0.0000000000
40
1.0000000000
40
1.0000000000
40
1.0000000000
40
1.0000000000
10
0.2005308513
20
-16.6824913235
30
0.0000000000
10
0.2225304478
20
-16.6822284333
30
0.0000000000
10
0.2445274083
20
-16.6816082126
30
0.0000000000
10
0.2665072621
20
-16.6806221776
30
0.0000000000
11
0.2005308513
21
-16.6824913235
31
0.0000000000
11
0.2665072621
21
-16.6806221776
31
0.0000000000
0
SPLINE
5
34D
100
AcDbEntity
8
0
100
AcDbSpline
62
0
6
CONTINUOUS
70
0
71
3
72
8
73
4
74
2
42
0.0000001000
43
0.0000001000
44
0.0000000001
12
0.1072856241
22
0.0048129247
32
0.0000000000
13
0.1068269303
23
0.0107329054
33
0.0000000000
40
0.0000000000
40
0.0000000000
40
0.0000000000
40
0.0000000000
40
1.0000000000
40
1.0000000000
40
1.0000000000
40
1.0000000000
10
0.2665072621
20
-16.6806221776
30
0.0000000000
10
0.3022691368
20
-16.6790178693
30
0.0000000000
10
0.3379857262
20
-16.6764451681
30
0.0000000000
10
0.3735947030
20
-16.6728675330
30
0.0000000000
11
0.2665072621
21
-16.6806221776
31
0.0000000000
11
0.3735947030
21
-16.6728675330
31
0.0000000000
0
SPLINE
5
34E
100
AcDbEntity
8
0
100
AcDbSpline
62
0
6
CONTINUOUS
70
0
71
3
72
8
73
4
74
2
42
0.0000001000
43
0.0000001000
44
0.0000000001
12
0.0684980264
22
0.0068819991
32
0.0000000000
13
0.0681832664
23
0.0093899379
33
0.0000000000
40
0.0000000000
40
0.0000000000
40
0.0000000000
40
0.0000000000
40
1.0000000000
40
1.0000000000
40
1.0000000000
40
1.0000000000
10
0.3735947030
20
-16.6728675330
30
0.0000000000
10
0.3964273785
20
-16.6705735333
30
0.0000000000
10
0.4192158096
20
-16.6678663604
30
0.0000000000
10
0.4419435651
20
-16.6647363811
30
0.0000000000
11
0.3735947030
21
-16.6728675330
31
0.0000000000
11
0.4419435651
21
-16.6647363811
31
0.0000000000
0
SPLINE
5
34F
100
AcDbEntity
8
0
100
AcDbSpline
62
0
6
CONTINUOUS
70
0
71
3
72
8
73
4
74
2
42
0.0000001000
43
0.0000001000
44
0.0000000001
12
0.1710568625
22
0.0235572949
32
0.0000000000
13
0.1679871564
23
0.0399804390
33
0.0000000000
40
0.0000000000
40
0.0000000000
40
0.0000000000
40
0.0000000000
40
1.0000000000
40
1.0000000000
40
1.0000000000
40
1.0000000000
10
0.4419435651
20
-16.6647363811
30
0.0000000000
10
0.4989625192
20
-16.6568839495
30
0.0000000000
10
0.5555995822
20
-16.6463703826
30
0.0000000000
10
0.6115953010
20
-16.6330435696
30
0.0000000000
11
0.4419435651
21
-16.6647363811
31
0.0000000000
11
0.6115953010
21
-16.6330435696
31
0.0000000000
0
SPLINE
5
350
100
AcDbEntity
8
0
100
AcDbSpline
62
0
6
CONTINUOUS
70
0
71
3
72
8
73
4
74
2
42
0.0000001000
43
0.0000001000
44
0.0000000001
12
0.1281629439
22
0.0305023959
32
0.0000000000
13
0.1255201578
23
0.0402395440
33
0.0000000000
40
0.0000000000
40
0.0000000000
40
0.0000000000
40
0.0000000000
40
1.0000000000
40
1.0000000000
40
1.0000000000
40
1.0000000000
10
0.6115953010
20
-16.6330435696
30
0.0000000000
10
0.6543162823
20
-16.6228761043
30
0.0000000000
10
0.6966639585
20
-16.6110711420
30
0.0000000000
10
0.7385040111
20
-16.5976579606
30
0.0000000000
11
0.6115953010
21
-16.6330435696
31
0.0000000000
11
0.7385040111
21
-16.5976579606
31
0.0000000000
0
SPLINE
5
351
100
AcDbEntity
8
0
100
AcDbSpline
62
0
6
CONTINUOUS
70
0
71
3
72
11
73
7
74
5
42
0.0000001000
43
0.0000001000
44
0.0000000001
12
0.3360387486
22
0.1811604904
32
0.0000000000
13
0.3399310086
23
-0.1699655043
33
0.0000000000
40
0.0000000000
40
0.0000000000
40
0.0000000000
40
0.0000000000
40
0.1476291523
40
0.4079854878
40
0.6894667517
40
1.0000000000
40
1.0000000000
40
1.0000000000
40
1.0000000000
10
-5.3036005342
20
24.1739378286
30
0.0000000000
10
-5.2870641623
20
24.1828526852
30
0.0000000000
10
-5.2390768453
20
24.2032665512
30
0.0000000000
10
-5.1512660679
20
24.2159926672
30
0.0000000000
10
-5.0431897613
20
24.2007396516
30
0.0000000000
10
-4.9727640496
20
24.1731445724
30
0.0000000000
10
-4.9375774229
20
24.1555512590
30
0.0000000000
11
-5.3036005342
21
24.1739378286
31
0.0000000000
11
-5.2518155144
21
24.1959392883
31
0.0000000000
11
-5.1540272919
21
24.2110549164
31
0.0000000000
11
-5.0479220626
21
24.1974161713
31
0.0000000000
11
-4.9375774229
21
24.1555512590
31
0.0000000000
0
SPLINE
5
352
100
AcDbEntity
8
0
100
AcDbSpline
62
0
6
CONTINUOUS
70
0
71
3
72
8
73
4
74
2
42
0.0000001000
43
0.0000001000
44
0.0000000001
12
-0.1259062164
22
-0.0804904942
32
0.0000000000
13
-0.1185917279
23
-0.0910650264
33
0.0000000000
40
0.0000000000
40
0.0000000000
40
0.0000000000
40
0.0000000000
40
1.0000000000
40
1.0000000000
40
1.0000000000
40
1.0000000000
10
-6.4096222608
20
-7.2765831803
30
0.0000000000
10
-6.4515909996
20
-7.3034133451
30
0.0000000000
10
-6.4924082940
20
-7.3320818850
30
0.0000000000
10
-6.5319388700
20
-7.3624368938
30
0.0000000000
11
-6.4096222608
21
-7.2765831803
31
0.0000000000
11
-6.5319388700
21
-7.3624368938
31
0.0000000000
0
SPLINE
5
353
100
AcDbEntity
8
0
100
AcDbSpline
62
0
6
CONTINUOUS
70
0
71
3
72
8
73
4
74
2
42
0.0000001000
43
0.0000001000
44
0.0000000001
12
-0.0216867033
22
-0.0166529340
32
0.0000000000
13
-0.0214260473
23
-0.0169885296
33
0.0000000000
40
0.0000000000
40
0.0000000000
40
0.0000000000
40
0.0000000000
40
1.0000000000
40
1.0000000000
40
1.0000000000
40
1.0000000000
10
-6.5319388700
20
-7.3624368938
30
0.0000000000
10
-6.5391677711
20
-7.3679878718
30
0.0000000000
10
-6.5463536432
20
-7.3735952468
30
0.0000000000
10
-6.5534956589
20
-7.3792580900
30
0.0000000000
11
-6.5319388700
21
-7.3624368938
31
0.0000000000
11
-6.5534956589
21
-7.3792580900
31
0.0000000000
0
SPLINE
5
354
100
AcDbEntity
8
0
100
AcDbSpline
62
0
6
CONTINUOUS
70
0
71
3
72
8
73
4
74
2
42
0.0000001000
43
0.0000001000
44
0.0000000001
12
-0.1426308455
22
-0.1130907771
32
0.0000000000
13
-0.1302380136
23
-0.1270168200
33
0.0000000000
40
0.0000000000
40
0.0000000000
40
0.0000000000
40
0.0000000000
40
1.0000000000
40
1.0000000000
40
1.0000000000
40
1.0000000000
10
-6.5534956589
20
-7.3792580900
30
0.0000000000
10
-6.6010392741
20
-7.4169550157
30
0.0000000000
10
-6.6466394331
20
-7.4571099665
30
0.0000000000
10
-6.6900521043
20
-7.4994489065
30
0.0000000000
11
-6.5534956589
21
-7.3792580900
31
0.0000000000
11
-6.6900521043
21
-7.4994489065
31
0.0000000000
0
SPLINE
5
355
100
AcDbEntity
8
0
100
AcDbSpline
62
0
6
CONTINUOUS
70
0
71
3
72
8
73
4
74
2
42
0.0000001000
43
0.0000001000
44
0.0000000001
12
-0.0983343660
22
-0.0959022495
32
0.0000000000
13
-0.0908766232
23
-0.1029150507
33
0.0000000000
40
0.0000000000
40
0.0000000000
40
0.0000000000
40
0.0000000000
40
1.0000000000
40
1.0000000000
40
1.0000000000
40
1.0000000000
10
-6.6900521043
20
-7.4994489065
30
0.0000000000
10
-6.7228302263
20
-7.5314163230
30
0.0000000000
10
-6.7543613072
20
-7.5646287861
30
0.0000000000
10
-6.7846535150
20
-7.5989338030
30
0.0000000000
11
-6.6900521043
21
-7.4994489065
31
0.0000000000
11
-6.7846535150
21
-7.5989338030
31
0.0000000000
0
SPLINE
5
356
100
AcDbEntity
8
0
100
AcDbSpline
62
0
6
CONTINUOUS
70
0
71
3
72
8
73
4
74
2
42
0.0000001000
43
0.0000001000
44
0.0000000001
12
-0.0503977259
22
-0.0570739133
32
0.0000000000
13
-0.0481158031
23
-0.0590119837
33
0.0000000000
40
0.0000000000
40
0.0000000000
40
0.0000000000
40
0.0000000000
40
1.0000000000
40
1.0000000000
40
1.0000000000
40
1.0000000000
10
-6.7846535150
20
-7.5989338030
30
0.0000000000
10
-6.8014527569
20
-7.6179584407
30
0.0000000000
10
-6.8178709819
20
-7.6373190948
30
0.0000000000
10
-6.8339095829
20
-7.6569897560
30
0.0000000000
11
-6.7846535150
21
-7.5989338030
31
0.0000000000
11
-6.8339095829
21
-7.6569897560
31
0.0000000000
0
SPLINE
5
357
100
AcDbEntity
8
0
100
AcDbSpline
62
0
6
CONTINUOUS
70
0
71
3
72
8
73
4
74
2
42
0.0000001000
43
0.0000001000
44
0.0000000001
12
-0.0808180952
22
-0.0991199525
32
0.0000000000
13
-0.0744118135
23
-0.1039978499
33
0.0000000000
40
0.0000000000
40
0.0000000000
40
0.0000000000
40
0.0000000000
40
1.0000000000
40
1.0000000000
40
1.0000000000
40
1.0000000000
10
-6.8339095829
20
-7.6569897560
30
0.0000000000
10
-6.8608489479
20
-7.6900297402
30
0.0000000000
10
-6.8867172986
20
-7.7239443325
30
0.0000000000
10
-6.9115212364
20
-7.7586102824
30
0.0000000000
11
-6.8339095829
21
-7.6569897560
31
0.0000000000
11
-6.9115212364
21
-7.7586102824
31
0.0000000000
0
SPLINE
5
358
100
AcDbEntity
8
0
100
AcDbSpline
62
0
6
CONTINUOUS
70
0
71
3
72
15
73
11
74
9
42
0.0000001000
43
0.0000001000
44
0.0000000001
12
1.0529012362
22
-0.5264506181
32
0.0000000000
13
0.0000000000
23
-1.1771793689
33
0.0000000000
40
0.0000000000
40
0.0000000000
40
0.0000000000
40
0.0000000000
40
0.1103204553
40
0.2298794297
40
0.3567631267
40
0.4883331237
40
0.6215375352
40
0.7531878619
40
0.8802255268
40
1.0000000000
40
1.0000000000
40
1.0000000000
40
1.0000000000
10
9.3461518704
20
17.0136866124
30
0.0000000000
10
9.3848707183
20
16.9943271884
30
0.0000000000
10
9.4616153058
20
16.9458783886
30
0.0000000000
10
9.5670100645
20
16.8530420978
30
0.0000000000
10
9.6640558126
20
16.7402872582
30
0.0000000000
10
9.7491215272
20
16.6118375811
30
0.0000000000
10
9.8190631044
20
16.4724830532
30
0.0000000000
10
9.8712604729
20
16.3274221904
30
0.0000000000
10
9.9037598609
20
16.1821165185
30
0.0000000000
10
9.9117511387
20
16.0851708547
30
0.0000000000
10
9.9117511387
20
16.0381721751
30
0.0000000000
11
9.3461518704
21
17.0136866124
31
0.0000000000
11
9.4564965589
21
16.9452068487
31
0.0000000000
11
9.5626018850
21
16.8527402541
31
0.0000000000
11
9.6603901852
21
16.7398362557
31
0.0000000000
11
9.7461015086
21
16.6108329854
31
0.0000000000
11
9.8164406628
21
16.4706889041
31
0.0000000000
11
9.8687043962
21
16.3247914134
31
0.0000000000
11
9.9008856859
21
16.1787489332
31
0.0000000000
11
9.9117511387
21
16.0381721751
31
0.0000000000
0
SPLINE
5
359
100
AcDbEntity
8
0
100
AcDbSpline
62
0
6
CONTINUOUS
70
0
71
3
72
12
73
8
74
6
42
0.0000001000
43
0.0000001000
44
0.0000000001
12
0.0000000000
22
-0.5133412236
32
0.0000000000
13
-0.4680310162
23
-0.2163953326
33
0.0000000000
40
0.0000000000
40
0.0000000000
40
0.0000000000
40
0.0000000000
40
0.2535655415
40
0.4840588656
40
0.6929500270
40
0.8859942861
40
1.0000000000
40
1.0000000000
40
1.0000000000
40
1.0000000000
10
9.9117511387
20
-20.0752982025
30
0.0000000000
10
9.9117511387
20
-20.1186867509
30
0.0000000000
10
9.9054478813
20
-20.2017543384
30
0.0000000000
10
9.8741909390
20
-20.3169956213
30
0.0000000000
10
9.8220631040
20
-20.4131894739
30
0.0000000000
10
9.7590232675
20
-20.4769557006
30
0.0000000000
10
9.7132471811
20
-20.5037358817
30
0.0000000000
10
9.6954611110
20
-20.5119593165
30
0.0000000000
11
9.9117511387
21
-20.0752982025
31
0.0000000000
11
9.9008856762
21
-20.2050095626
31
0.0000000000
11
9.8687043359
21
-20.3188708464
31
0.0000000000
11
9.8164405136
21
-20.4125046545
31
0.0000000000
11
9.7461012857
21
-20.4823095442
31
0.0000000000
11
9.6954611110
21
-20.5119593165
31
0.0000000000
0
SPLINE
5
35A
100
AcDbEntity
8
0
100
AcDbSpline
62
9
6
CONTINUOUS
70
0
71
3
72
8
73
4
74
2
42
0.0000001000
43
0.0000001000
44
0.0000000001
12
0.2282086711
22
-0.1177275703
32
0.0000000000
13
0.2205710193
23
-0.1320871849
33
0.0000000000
40
0.0000000000
40
0.0000000000
40
0.0000000000
40
0.0000000000
40
1.0000000000
40
1.0000000000
40
1.0000000000
40
1.0000000000
10
-1.6997704809
20
-8.9538956020
30
0.0000000000
10
-1.6237009239
20
-8.9931381254
30
0.0000000000
10
-1.5488934450
20
-9.0349108972
30
0.0000000000
10
-1.4753697719
20
-9.0789399588
30
0.0000000000
11
-1.6997704809
21
-8.9538956020
31
0.0000000000
11
-1.4753697719
21
-9.0789399588
31
0.0000000000
0
SPLINE
5
35B
100
AcDbEntity
8
0
100
AcDbSpline
62
9
6
CONTINUOUS
70
0
71
3
72
11
73
7
74
5
42
0.0000001000
43
0.0000001000
44
0.0000000001
12
3.3184395880
22
-1.9872209175
32
0.0000000000
13
1.6090504152
23
-3.5154919480
33
0.0000000000
40
0.0000000000
40
0.0000000000
40
0.0000000000
40
0.0000000000
40
0.1636795314
40
0.4306908744
40
0.7127928750
40
1.0000000000
40
1.0000000000
40
1.0000000000
40
1.0000000000
10
-1.4753697719
20
-9.0789399588
30
0.0000000000
10
-1.2943162263
20
-9.1873624216
30
0.0000000000
10
-0.8383937429
20
-9.5086569962
30
0.0000000000
10
-0.1767675043
20
-10.1503031149
30
0.0000000000
10
0.4724973549
20
-11.0145105488
30
0.0000000000
10
0.8255565174
20
-11.6596669563
30
0.0000000000
10
0.9796000987
20
-11.9962250681
30
0.0000000000
11
-1.4753697719
21
-9.0789399588
31
0.0000000000
11
-0.9558886086
21
-9.4411628659
31
0.0000000000
11
-0.2104947178
21
-10.1540076276
31
0.0000000000
11
0.4467020824
21
-11.0231973242
31
0.0000000000
11
0.9796000987
21
-11.9962250681
31
0.0000000000
0
SPLINE
5
35C
100
AcDbEntity
8
0
100
AcDbSpline
62
9
6
CONTINUOUS
70
0
71
3
72
8
73
4
74
2
42
0.0000001000
43
0.0000001000
44
0.0000000001
12
0.0262061615
22
-0.0654370648
32
0.0000000000
13
0.0255871877
23
-0.0656807170
33
0.0000000000
40
0.0000000000
40
0.0000000000
40
0.0000000000
40
0.0000000000
40
1.0000000000
40
1.0000000000
40
1.0000000000
40
1.0000000000
10
1.1248261713
20
-12.3347811857
30
0.0000000000
10
1.1335615584
20
-12.3565935407
30
0.0000000000
10
1.1421943221
20
-12.3784468596
30
0.0000000000
10
1.1507233847
20
-12.4003404320
30
0.0000000000
11
1.1248261713
21
-12.3347811857
31
0.0000000000
11
1.1507233847
21
-12.4003404320
31
0.0000000000
0
SPLINE
5
35D
100
AcDbEntity
8
0
100
AcDbSpline
62
9
6
CONTINUOUS
70
0
71
3
72
8
73
4
74
2
42
0.0000001000
43
0.0000001000
44
0.0000000001
12
0.0149457570
22
-0.0383648274
32
0.0000000000
13
0.0147328248
23
-0.0384468057
33
0.0000000000
40
0.0000000000
40
0.0000000000
40
0.0000000000
40
0.0000000000
40
1.0000000000
40
1.0000000000
40
1.0000000000
40
1.0000000000
10
1.1507233847
20
-12.4003404320
30
0.0000000000
10
1.1557053037
20
-12.4131287078
30
0.0000000000
10
1.1606518414
20
-12.4259307174
30
0.0000000000
10
1.1655627830
20
-12.4387463193
30
0.0000000000
11
1.1507233847
21
-12.4003404320
31
0.0000000000
11
1.1655627830
21
-12.4387463193
31
0.0000000000
0
SPLINE
5
35E
100
AcDbEntity
8
0
100
AcDbSpline
62
9
6
CONTINUOUS
70
0
71
3
72
8
73
4
74
2
42
0.0000001000
43
0.0000001000
44
0.0000000001
12
0.0915903853
22
-0.2390144314
32
0.0000000000
13
0.0831812718
23
-0.2420642223
33
0.0000000000
40
0.0000000000
40
0.0000000000
40
0.0000000000
40
0.0000000000
40
1.0000000000
40
1.0000000000
40
1.0000000000
40
1.0000000000
10
1.1655627830
20
-12.4387463193
30
0.0000000000
10
1.1960929114
20
-12.5184177965
30
0.0000000000
10
1.2252473202
20
-12.5986145871
30
0.0000000000
10
1.2529744109
20
-12.6793026612
30
0.0000000000
11
1.1655627830
21
-12.4387463193
31
0.0000000000
11
1.2529744109
21
-12.6793026612
31
0.0000000000
0
SPLINE
5
35F
100
AcDbEntity
8
0
100
AcDbSpline
62
9
6
CONTINUOUS
70
0
71
3
72
10
73
6
74
4
42
0.0000001000
43
0.0000001000
44
0.0000000001
12
0.7571776413
22
-2.2034481185
32
0.0000000000
13
-0.2004578283
23
-2.3246740026
33
0.0000000000
40
0.0000000000
40
0.0000000000
40
0.0000000000
40
0.0000000000
40
0.1542002950
40
0.5957543394
40
1.0000000000
40
1.0000000000
40
1.0000000000
40
1.0000000000
10
1.2529744109
20
-12.6793026612
30
0.0000000000
10
1.2918934161
20
-12.7925601112
30
0.0000000000
10
1.4313926726
20
-13.2338710038
30
0.0000000000
10
1.5915147303
20
-13.9965247048
30
0.0000000000
10
1.6122173251
20
-14.6566827478
30
0.0000000000
10
1.5852059227
20
-14.9699292070
30
0.0000000000
11
1.2529744109
21
-12.6793026612
31
0.0000000000
11
1.3611523353
21
-13.0218847116
31
0.0000000000
11
1.5662203199
21
-14.0290950308
31
0.0000000000
11
1.5852059227
21
-14.9699292070
31
0.0000000000
0
SPLINE
5
360
100
AcDbEntity
8
0
100
AcDbSpline
62
9
6
CONTINUOUS
70
0
71
3
72
8
73
4
74
2
42
0.0000001000
43
0.0000001000
44
0.0000000001
12
-0.0246752671
22
-0.2861547110
32
0.0000000000
13
-0.0468266514
23
-0.2834900560
33
0.0000000000
40
0.0000000000
40
0.0000000000
40
0.0000000000
40
0.0000000000
40
1.0000000000
40
1.0000000000
40
1.0000000000
40
1.0000000000
10
1.5852059227
20
-14.9699292070
30
0.0000000000
10
1.5769808336
20
-15.0653141107
30
0.0000000000
10
1.5653337042
20
-15.1604882817
30
0.0000000000
10
1.5497248204
20
-15.2549849671
30
0.0000000000
11
1.5852059227
21
-14.9699292070
31
0.0000000000
11
1.5497248204
21
-15.2549849671
31
0.0000000000
0
SPLINE
5
361
100
AcDbEntity
8
0
100
AcDbSpline
62
9
6
CONTINUOUS
70
0
71
3
72
8
73
4
74
2
42
0.0000001000
43
0.0000001000
44
0.0000000001
12
-0.0258130107
22
-0.1562727981
32
0.0000000000
13
-0.0333074353
23
-0.1548030281
33
0.0000000000
40
0.0000000000
40
0.0000000000
40
0.0000000000
40
0.0000000000
40
1.0000000000
40
1.0000000000
40
1.0000000000
40
1.0000000000
10
1.5497248204
20
-15.2549849671
30
0.0000000000
10
1.5411204835
20
-15.3070758997
30
0.0000000000
10
1.5313122792
20
-15.3589609633
30
0.0000000000
10
1.5202098008
20
-15.4105619727
30
0.0000000000
11
1.5497248204
21
-15.2549849671
31
0.0000000000
11
1.5202098008
21
-15.4105619727
31
0.0000000000
0
SPLINE
5
362
100
AcDbEntity
8
0
100
AcDbSpline
62
9
6
CONTINUOUS
70
0
71
3
72
8
73
4
74
2
42
0.0000001000
43
0.0000001000
44
0.0000000001
12
-0.0126573897
22
-0.0588277732
32
0.0000000000
13
-0.0137937331
23
-0.0585687744
33
0.0000000000
40
0.0000000000
40
0.0000000000
40
0.0000000000
40
0.0000000000
40
1.0000000000
40
1.0000000000
40
1.0000000000
40
1.0000000000
10
1.5202098008
20
-15.4105619727
30
0.0000000000
10
1.5159906709
20
-15.4301712304
30
0.0000000000
10
1.5115846312
20
-15.4497394670
30
0.0000000000
10
1.5069867201
20
-15.4692623919
30
0.0000000000
11
1.5202098008
21
-15.4105619727
31
0.0000000000
11
1.5069867201
21
-15.4692623919
31
0.0000000000
0
SPLINE
5
363
100
AcDbEntity
8
0
100
AcDbSpline
62
9
6
CONTINUOUS
70
0
71
3
72
8
73
4
74
2
42
0.0000001000
43
0.0000001000
44
0.0000000001
12
-0.0131731324
22
-0.0559336775
32
0.0000000000
13
-0.0142360640
23
-0.0556745082
33
0.0000000000
40
0.0000000000
40
0.0000000000
40
0.0000000000
40
0.0000000000
40
1.0000000000
40
1.0000000000
40
1.0000000000
40
1.0000000000
10
1.5069867201
20
-15.4692623919
30
0.0000000000
10
1.5025956760
20
-15.4879069510
30
0.0000000000
10
1.4980296373
20
-15.5065101840
30
0.0000000000
10
1.4932842827
20
-15.5250683534
30
0.0000000000
11
1.5069867201
21
-15.4692623919
31
0.0000000000
11
1.4932842827
21
-15.5250683534
31
0.0000000000
0
SPLINE
5
364
100
AcDbEntity
8
0
100
AcDbSpline
62
9
6
CONTINUOUS
70
0
71
3
72
8
73
4
74
2
42
0.0000001000
43
0.0000001000
44
0.0000000001
12
-0.0649805310
22
-0.2541263589
32
0.0000000000
13
-0.0886293830
23
-0.2474268150
33
0.0000000000
40
0.0000000000
40
0.0000000000
40
0.0000000000
40
0.0000000000
40
1.0000000000
40
1.0000000000
40
1.0000000000
40
1.0000000000
10
1.4932842827
20
-15.5250683534
30
0.0000000000
10
1.4716241057
20
-15.6097771397
30
0.0000000000
10
1.4462279387
20
-15.6935470422
30
0.0000000000
10
1.4166848111
20
-15.7760226472
30
0.0000000000
11
1.4932842827
21
-15.5250683534
31
0.0000000000
11
1.4166848111
21
-15.7760226472
31
0.0000000000
0
SPLINE
5
365
100
AcDbEntity
8
0
100
AcDbSpline
62
9
6
CONTINUOUS
70
0
71
3
72
8
73
4
74
2
42
0.0000001000
43
0.0000001000
44
0.0000000001
12
-0.1669613771
22
-0.4661063900
32
0.0000000000
13
-0.2631100226
23
-0.4192148075
33
0.0000000000
40
0.0000000000
40
0.0000000000
40
0.0000000000
40
0.0000000000
40
1.0000000000
40
1.0000000000
40
1.0000000000
40
1.0000000000
10
1.4166848111
20
-15.7760226472
30
0.0000000000
10
1.3610310187
20
-15.9313914439
30
0.0000000000
10
1.2906606595
20
-16.0821670895
30
0.0000000000
10
1.2029573186
20
-16.2219053587
30
0.0000000000
11
1.4166848111
21
-15.7760226472
31
0.0000000000
11
1.2029573186
21
-16.2219053587
31
0.0000000000
0
SPLINE
5
366
100
AcDbEntity
8
0
100
AcDbSpline
62
9
6
CONTINUOUS
70
0
71
3
72
8
73
4
74
2
42
0.0000001000
43
0.0000001000
44
0.0000000001
12
-0.0603314776
22
-0.0961265121
32
0.0000000000
13
-0.0658942271
23
-0.0924114166
33
0.0000000000
40
0.0000000000
40
0.0000000000
40
0.0000000000
40
0.0000000000
40
1.0000000000
40
1.0000000000
40
1.0000000000
40
1.0000000000
10
1.2029573186
20
-16.2219053587
30
0.0000000000
10
1.1828468261
20
-16.2539475294
30
0.0000000000
10
1.1618249810
20
-16.2854093648
30
0.0000000000
10
1.1398602386
20
-16.3162131703
30
0.0000000000
11
1.2029573186
21
-16.2219053587
31
0.0000000000
11
1.1398602386
21
-16.3162131703
31
0.0000000000
0
SPLINE
5
367
100
AcDbEntity
8
0
100
AcDbSpline
62
9
6
CONTINUOUS
70
0
71
3
72
8
73
4
74
2
42
0.0000001000
43
0.0000001000
44
0.0000000001
12
-0.0365516879
22
-0.0512608373
32
0.0000000000
13
-0.0383085873
23
-0.0500062208
33
0.0000000000
40
0.0000000000
40
0.0000000000
40
0.0000000000
40
0.0000000000
40
1.0000000000
40
1.0000000000
40
1.0000000000
40
1.0000000000
10
1.1398602386
20
-16.3162131703
30
0.0000000000
10
1.1276763427
20
-16.3333001161
30
0.0000000000
10
1.1152023222
20
-16.3501845895
30
0.0000000000
10
1.1024327930
20
-16.3668533298
30
0.0000000000
11
1.1398602386
21
-16.3162131703
31
0.0000000000
11
1.1024327930
21
-16.3668533298
31
0.0000000000
0
SPLINE
5
368
100
AcDbEntity
8
0
100
AcDbSpline
62
9
6
CONTINUOUS
70
0
71
3
72
8
73
4
74
2
42
0.0000001000
43
0.0000001000
44
0.0000000001
12
-0.0338717104
22
-0.0442145311
32
0.0000000000
13
-0.0352690032
23
-0.0431751029
33
0.0000000000
40
0.0000000000
40
0.0000000000
40
0.0000000000
40
0.0000000000
40
1.0000000000
40
1.0000000000
40
1.0000000000
40
1.0000000000
10
1.1024327930
20
-16.3668533298
30
0.0000000000
10
1.0911422229
20
-16.3815915068
30
0.0000000000
10
1.0796206315
20
-16.3961610290
30
0.0000000000
10
1.0678642971
20
-16.4105527299
30
0.0000000000
11
1.1024327930
21
-16.3668533298
31
0.0000000000
11
1.0678642971
21
-16.4105527299
31
0.0000000000
0
SPLINE
5
369
100
AcDbEntity
8
0
100
AcDbSpline
62
9
6
CONTINUOUS
70
0
71
3
72
8
73
4
74
2
42
0.0000001000
43
0.0000001000
44
0.0000000001
12
-0.1411375521
22
-0.1727757463
32
0.0000000000
13
-0.1625022198
23
-0.1535547734
33
0.0000000000
40
0.0000000000
40
0.0000000000
40
0.0000000000
40
0.0000000000
40
1.0000000000
40
1.0000000000
40
1.0000000000
40
1.0000000000
10
1.0678642971
20
-16.4105527299
30
0.0000000000
10
1.0208184464
20
-16.4681446454
30
0.0000000000
10
0.9700134313
20
-16.5228889393
30
0.0000000000
10
0.9158460247
20
-16.5740738638
30
0.0000000000
11
1.0678642971
21
-16.4105527299
31
0.0000000000
11
0.9158460247
21
-16.5740738638
31
0.0000000000
0
SPLINE
5
36A
100
AcDbEntity
8
0
100
AcDbSpline
62
9
6
CONTINUOUS
70
0
71
3
72
8
73
4
74
2
42
0.0000001000
43
0.0000001000
44
0.0000000001
12
-0.1595487591
22
-0.1507639317
32
0.0000000000
13
-0.1778698498
23
-0.1281560311
33
0.0000000000
40
0.0000000000
40
0.0000000000
40
0.0000000000
40
0.0000000000
40
1.0000000000
40
1.0000000000
40
1.0000000000
40
1.0000000000
10
0.9158460247
20
-16.5740738638
30
0.0000000000
10
0.8626631050
20
-16.6243285077
30
0.0000000000
10
0.8062389053
20
-16.6711519887
30
0.0000000000
10
0.7469489554
20
-16.7138706657
30
0.0000000000
11
0.9158460247
21
-16.5740738638
31
0.0000000000
11
0.7469489554
21
-16.7138706657
31
0.0000000000
0
SPLINE
5
36B
100
AcDbEntity
8
0
100
AcDbSpline
62
9
6
CONTINUOUS
70
0
71
3
72
8
73
4
74
2
42
0.0000001000
43
0.0000001000
44
0.0000000001
12
-0.1015328604
22
-0.0731548851
32
0.0000000000
13
-0.1069260250
23
-0.0647538603
33
0.0000000000
40
0.0000000000
40
0.0000000000
40
0.0000000000
40
0.0000000000
40
1.0000000000
40
1.0000000000
40
1.0000000000
40
1.0000000000
10
0.7469489554
20
-16.7138706657
30
0.0000000000
10
0.7131046686
20
-16.7382556274
30
0.0000000000
10
0.6783265967
20
-16.7613030669
30
0.0000000000
10
0.6426845884
20
-16.7828876870
30
0.0000000000
11
0.7469489554
21
-16.7138706657
31
0.0000000000
11
0.6426845884
21
-16.7828876870
31
0.0000000000
0
SPLINE
5
36C
100
AcDbEntity
8
0
100
AcDbSpline
62
9
6
CONTINUOUS
70
0
71
3
72
8
73
4
74
2
42
0.0000001000
43
0.0000001000
44
0.0000000001
12
-0.0779718769
22
-0.0472193745
32
0.0000000000
13
-0.0806470232
23
-0.0424064757
33
0.0000000000
40
0.0000000000
40
0.0000000000
40
0.0000000000
40
0.0000000000
40
1.0000000000
40
1.0000000000
40
1.0000000000
40
1.0000000000
10
0.6426845884
20
-16.7828876870
30
0.0000000000
10
0.6166939628
20
-16.7986274785
30
0.0000000000
10
0.5902439372
20
-16.8135894129
30
0.0000000000
10
0.5633615961
20
-16.8277249048
30
0.0000000000
11
0.6426845884
21
-16.7828876870
31
0.0000000000
11
0.5633615961
21
-16.8277249048
31
0.0000000000
0
SPLINE
5
36D
100
AcDbEntity
8
0
100
AcDbSpline
62
9
6
CONTINUOUS
70
0
71
3
72
8
73
4
74
2
42
0.0000001000
43
0.0000001000
44
0.0000000001
12
-0.0830372986
22
-0.0436633498
32
0.0000000000
13
-0.0856083398
23
-0.0384377409
33
0.0000000000
40
0.0000000000
40
0.0000000000
40
0.0000000000
40
0.0000000000
40
1.0000000000
40
1.0000000000
40
1.0000000000
40
1.0000000000
10
0.5633615961
20
-16.8277249048
30
0.0000000000
10
0.5356824966
20
-16.8422793547
30
0.0000000000
10
0.5075450752
20
-16.8559576468
30
0.0000000000
10
0.4790089620
20
-16.8687702271
30
0.0000000000
11
0.5633615961
21
-16.8277249048
31
0.0000000000
11
0.4790089620
21
-16.8687702271
31
0.0000000000
0
SPLINE
5
36E
100
AcDbEntity
8
0
100
AcDbSpline
62
9
6
CONTINUOUS
70
0
71
3
72
8
73
4
74
2
42
0.0000001000
43
0.0000001000
44
0.0000000001
12
-0.2107774158
22
-0.0752452125
32
0.0000000000
13
-0.2192346537
23
-0.0466609921
33
0.0000000000
40
0.0000000000
40
0.0000000000
40
0.0000000000
40
0.0000000000
40
1.0000000000
40
1.0000000000
40
1.0000000000
40
1.0000000000
10
0.3631630492
20
-16.9153269847
30
0.0000000000
10
0.2929039106
20
-16.9404087222
30
0.0000000000
10
0.2208320855
20
-16.9606557987
30
0.0000000000
10
0.1477538676
20
-16.9762094627
30
0.0000000000
11
0.3631630492
21
-16.9153269847
31
0.0000000000
11
0.1477538676
21
-16.9762094627
31
0.0000000000
0
SPLINE
5
36F
100
AcDbEntity
8
0
100
AcDbSpline
62
9
6
CONTINUOUS
70
0
71
3
72
8
73
4
74
2
42
0.0000001000
43
0.0000001000
44
0.0000000001
12
-0.2203471449
22
-0.0468977701
32
0.0000000000
13
-0.2239910475
23
-0.0188810027
33
0.0000000000
40
0.0000000000
40
0.0000000000
40
0.0000000000
40
0.0000000000
40
1.0000000000
40
1.0000000000
40
1.0000000000
40
1.0000000000
10
0.1477538676
20
-16.9762094627
30
0.0000000000
10
0.0743048193
20
-16.9918420527
30
0.0000000000
10
-0.0001608614
20
-17.0027334766
30
0.0000000000
10
-0.0748245439
20
-17.0090271442
30
0.0000000000
11
0.1477538676
21
-16.9762094627
31
0.0000000000
11
-0.0748245439
21
-17.0090271442
31
0.0000000000
0
SPLINE
5
370
100
AcDbEntity
8
0
100
AcDbSpline
62
9
6
CONTINUOUS
70
0
71
3
72
9
73
5
74
3
42
0.0000001000
43
0.0000001000
44
0.0000000001
12
-0.9446934356
22
-0.0796315723
32
0.0000000000
13
-0.8972406355
23
0.2969917249
33
0.0000000000
40
0.0000000000
40
0.0000000000
40
0.0000000000
40
0.0000000000
40
0.7473184469
40
1.0000000000
40
1.0000000000
40
1.0000000000
40
1.0000000000
10
-0.0748245439
20
-17.0090271442
30
0.0000000000
10
-0.3101534876
20
-17.0288638585
30
0.0000000000
10
-0.6276833566
20
-16.9942892944
30
0.0000000000
10
-0.9307544917
20
-16.9069881905
30
0.0000000000
10
-1.0063265441
20
-16.8819734138
30
0.0000000000
11
-0.0748245439
21
-17.0090271442
31
0.0000000000
11
-0.7766703607
21
-16.9477404652
31
0.0000000000
11
-1.0063265441
21
-16.8819734138
31
0.0000000000
0
SPLINE
5
371
100
AcDbEntity
8
0
100
AcDbSpline
62
9
6
CONTINUOUS
70
0
71
3
72
8
73
4
74
2
42
0.0000001000
43
0.0000001000
44
0.0000000001
12
-0.1746496175
22
0.0578100112
32
0.0000000000
13
-0.1709420600
23
0.0677691861
33
0.0000000000
40
0.0000000000
40
0.0000000000
40
0.0000000000
40
0.0000000000
40
1.0000000000
40
1.0000000000
40
1.0000000000
40
1.0000000000
10
-1.0063265441
20
-16.8819734138
30
0.0000000000
10
-1.0645430833
20
-16.8627034101
30
0.0000000000
10
-1.1221611871
20
-16.8416795810
30
0.0000000000
10
-1.1791418738
20
-16.8190898523
30
0.0000000000
11
-1.0063265441
21
-16.8819734138
31
0.0000000000
11
-1.1791418738
21
-16.8190898523
31
0.0000000000
0
SPLINE
5
372
100
AcDbEntity
8
0
100
AcDbSpline
62
9
6
CONTINUOUS
70
0
71
3
72
8
73
4
74
2
42
0.0000001000
43
0.0000001000
44
0.0000000001
12
-0.0557029824
22
0.0220831888
32
0.0000000000
13
-0.0552928350
23
0.0230613223
33
0.0000000000
40
0.0000000000
40
0.0000000000
40
0.0000000000
40
0.0000000000
40
1.0000000000
40
1.0000000000
40
1.0000000000
40
1.0000000000
10
-1.1791418738
20
-16.8190898523
30
0.0000000000
10
-1.1977095346
20
-16.8117287894
30
0.0000000000
10
-1.2162095119
20
-16.8042014530
30
0.0000000000
10
-1.2346404569
20
-16.7965143455
30
0.0000000000
11
-1.1791418738
21
-16.8190898523
31
0.0000000000
11
-1.2346404569
21
-16.7965143455
31
0.0000000000
0
SPLINE
5
373
100
AcDbEntity
8
0
100
AcDbSpline
62
9
6
CONTINUOUS
70
0
71
3
72
8
73
4
74
2
42
0.0000001000
43
0.0000001000
44
0.0000000001
12
-0.2315295011
22
0.0965654312
32
0.0000000000
13
-0.2239700411
23
0.1119415349
33
0.0000000000
40
0.0000000000
40
0.0000000000
40
0.0000000000
40
0.0000000000
40
1.0000000000
40
1.0000000000
40
1.0000000000
40
1.0000000000
10
-1.2346404569
20
-16.7965143455
30
0.0000000000
10
-1.3118169572
20
-16.7643258685
30
0.0000000000
10
-1.3877830621
20
-16.7293360048
30
0.0000000000
10
-1.4624397425
20
-16.6920221598
30
0.0000000000
11
-1.2346404569
21
-16.7965143455
31
0.0000000000
11
-1.4624397425
21
-16.6920221598
31
0.0000000000
0
SPLINE
5
374
100
AcDbEntity
8
0
100
AcDbSpline
62
9
6
CONTINUOUS
70
0
71
3
72
10
73
6
74
4
42
0.0000001000
43
0.0000001000
44
0.0000000001
12
-0.0257206450
22
-0.3737639936
32
0.0000000000
13
0.3386685021
23
-0.1688223678
33
0.0000000000
40
0.0000000000
40
0.0000000000
40
0.0000000000
40
0.0000000000
40
0.0313902155
40
0.4387443272
40
1.0000000000
40
1.0000000000
40
1.0000000000
40
1.0000000000
10
-10.1299630646
20
20.5782589019
30
0.0000000000
10
-10.1302321901
20
20.5743480578
30
0.0000000000
10
-10.1318807214
20
20.5196680604
30
0.0000000000
10
-10.0646319713
20
20.3971296412
30
0.0000000000
10
-9.9589868579
20
20.3328657090
30
0.0000000000
10
-9.8956269853
20
20.3012815384
30
0.0000000000
11
-10.1299630646
21
20.5782589019
31
0.0000000000
11
-10.1303086126
21
20.5665285278
31
0.0000000000
11
-10.0678172565
21
20.4256150019
31
0.0000000000
11
-9.8956269853
21
20.3012815384
31
0.0000000000
0
SPLINE
5
375
100
AcDbEntity
8
0
100
AcDbSpline
62
9
6
CONTINUOUS
70
0
71
3
72
9
73
5
74
3
42
0.0000001000
43
0.0000001000
44
0.0000000001
12
0.3394723926
22
0.1783090698
32
0.0000000000
13
0.3420788848
23
-0.1650472056
33
0.0000000000
40
0.0000000000
40
0.0000000000
40
0.0000000000
40
0.0000000000
40
0.4050937236
40
1.0000000000
40
1.0000000000
40
1.0000000000
40
1.0000000000
10
-9.2341491579
20
22.0529134859
30
0.0000000000
10
-9.1883097794
20
22.0769907809
30
0.0000000000
10
-9.0586286532
20
22.1082710807
30
0.0000000000
10
-8.9321781730
20
22.0697002340
30
0.0000000000
10
-8.8643432144
20
22.0369710278
30
0.0000000000
11
-9.2341491579
21
22.0529134859
31
0.0000000000
11
-9.0837739108
21
22.0908710494
31
0.0000000000
11
-8.8643432144
21
22.0369710278
31
0.0000000000
0
SPLINE
5
376
100
AcDbEntity
8
0
100
AcDbSpline
62
9
6
CONTINUOUS
70
0
71
3
72
8
73
4
74
2
42
0.0000001000
43
0.0000001000
44
0.0000000001
12
-0.1457357841
22
0.0728897343
32
0.0000000000
13
-0.1426952070
23
0.0788785038
33
0.0000000000
40
0.0000000000
40
0.0000000000
40
0.0000000000
40
0.0000000000
40
1.0000000000
40
1.0000000000
40
1.0000000000
40
1.0000000000
10
-4.3629328774
20
-15.0807612615
30
0.0000000000
10
-4.4115114721
20
-15.0564646834
30
0.0000000000
10
-4.4595852908
20
-15.0311343161
30
0.0000000000
10
-4.5071503598
20
-15.0048414815
30
0.0000000000
11
-4.3629328774
21
-15.0807612615
31
0.0000000000
11
-4.5071503598
21
-15.0048414815
31
0.0000000000
0
SPLINE
5
377
100
AcDbEntity
8
0
100
AcDbSpline
62
9
6
CONTINUOUS
70
0
71
3
72
8
73
4
74
2
42
0.0000001000
43
0.0000001000
44
0.0000000001
12
-0.1152399570
22
0.0637018971
32
0.0000000000
13
-0.1132428080
23
0.0673555814
33
0.0000000000
40
0.0000000000
40
0.0000000000
40
0.0000000000
40
0.0000000000
40
1.0000000000
40
1.0000000000
40
1.0000000000
40
1.0000000000
10
-4.5071503598
20
-15.0048414815
30
0.0000000000
10
-4.5455636788
20
-14.9836075158
30
0.0000000000
10
-4.5836451862
20
-14.9617458193
30
0.0000000000
10
-4.6213927889
20
-14.9392939588
30
0.0000000000
11
-4.5071503598
21
-15.0048414815
31
0.0000000000
11
-4.6213927889
21
-14.9392939588
31
0.0000000000
0
SPLINE
5
378
100
AcDbEntity
8
0
100
AcDbSpline
62
9
6
CONTINUOUS
70
0
71
3
72
8
73
4
74
2
42
0.0000001000
43
0.0000001000
44
0.0000000001
12
-0.2633534642
22
0.1566397551
32
0.0000000000
13
-0.2524394461
23
0.1743728277
33
0.0000000000
40
0.0000000000
40
0.0000000000
40
0.0000000000
40
0.0000000000
40
1.0000000000
40
1.0000000000
40
1.0000000000
40
1.0000000000
10
-4.6213927889
20
-14.9392939588
30
0.0000000000
10
-4.7091772769
20
-14.8870807072
30
0.0000000000
10
-4.7951559246
20
-14.8316757005
30
0.0000000000
10
-4.8793024066
20
-14.7735514246
30
0.0000000000
11
-4.6213927889
21
-14.9392939588
31
0.0000000000
11
-4.8793024066
21
-14.7735514246
31
0.0000000000
0
SPLINE
5
379
100
AcDbEntity
8
0
100
AcDbSpline
62
9
6
CONTINUOUS
70
0
71
3
72
8
73
4
74
2
42
0.0000001000
43
0.0000001000
44
0.0000000001
12
-0.2615708635
22
0.1806803644
32
0.0000000000
13
-0.2496803337
23
0.1966207801
33
0.0000000000
40
0.0000000000
40
0.0000000000
40
0.0000000000
40
0.0000000000
40
1.0000000000
40
1.0000000000
40
1.0000000000
40
1.0000000000
10
-4.8793024066
20
-14.7735514246
30
0.0000000000
10
-4.9664926945
20
-14.7133246365
30
0.0000000000
10
-5.0517158706
20
-14.6501782944
30
0.0000000000
10
-5.1349426485
20
-14.5846380344
30
0.0000000000
11
-4.8793024066
21
-14.7735514246
31
0.0000000000
11
-5.1349426485
21
-14.5846380344
31
0.0000000000
0
SPLINE
5
37A
100
AcDbEntity
8
0
100
AcDbSpline
62
9
6
CONTINUOUS
70
0
71
3
72
8
73
4
74
2
42
0.0000001000
43
0.0000001000
44
0.0000000001
12
-0.1412476050
22
0.1112310844
32
0.0000000000
13
-0.1374404171
23
0.1157018315
33
0.0000000000
40
0.0000000000
40
0.0000000000
40
0.0000000000
40
0.0000000000
40
1.0000000000
40
1.0000000000
40
1.0000000000
40
1.0000000000
10
-5.1349426485
20
-14.5846380344
30
0.0000000000
10
-5.1820251835
20
-14.5475610062
30
0.0000000000
10
-5.2284688070
20
-14.5097178476
30
0.0000000000
10
-5.2742822794
20
-14.4711505704
30
0.0000000000
11
-5.1349426485
21
-14.5846380344
31
0.0000000000
11
-5.2742822794
21
-14.4711505704
31
0.0000000000
0
SPLINE
5
37B
100
AcDbEntity
8
0
100
AcDbSpline
62
9
6
CONTINUOUS
70
0
71
3
72
8
73
4
74
2
42
0.0000001000
43
0.0000001000
44
0.0000000001
12
-0.0397608415
22
0.1706597075
32
0.0000000000
13
-0.0347058362
23
0.1717478622
33
0.0000000000
40
0.0000000000
40
0.0000000000
40
0.0000000000
40
0.0000000000
40
1.0000000000
40
1.0000000000
40
1.0000000000
40
1.0000000000
10
-7.5413411527
20
-10.7349879653
30
0.0000000000
10
-7.5545947665
20
-10.6781013961
30
0.0000000000
10
-7.5670252672
20
-10.6210251249
30
0.0000000000
10
-7.5785938793
20
-10.5637758375
30
0.0000000000
11
-7.5413411527
21
-10.7349879653
31
0.0000000000
11
-7.5785938793
21
-10.5637758375
31
0.0000000000
0
SPLINE
5
37C
100
AcDbEntity
8
0
100
AcDbSpline
62
9
6
CONTINUOUS
70
0
71
3
72
11
73
7
74
5
42
0.0000001000
43
0.0000001000
44
0.0000000001
12
-0.4800545300
22
2.3756332775
32
0.0000000000
13
1.0675231895
23
2.1874032010
33
0.0000000000
40
0.0000000000
40
0.0000000000
40
0.0000000000
40
0.0000000000
40
0.1837090347
40
0.5636209913
40
0.8975594750
40
1.0000000000
40
1.0000000000
40
1.0000000000
40
1.0000000000
10
-7.5785938793
20
-10.5637758375
30
0.0000000000
10
-7.6079906640
20
-10.4183007387
30
0.0000000000
10
-7.6811058870
20
-9.9685542869
30
0.0000000000
10
-7.7045827431
20
-9.2396964018
30
0.0000000000
10
-7.5763107972
20
-8.5864124145
30
0.0000000000
10
-7.4384909037
20
-8.2595270017
30
0.0000000000
10
-7.4020383583
20
-8.1848340909
30
0.0000000000
11
-7.5785938793
21
-10.5637758375
31
0.0000000000
11
-7.6494521155
21
-10.1242727774
31
0.0000000000
11
-7.6687246442
21
-9.2047368829
31
0.0000000000
11
-7.4993816014
21
-8.4142323136
31
0.0000000000
11
-7.4020383583
21
-8.1848340909
31
0.0000000000
0
SPLINE
5
37D
100
AcDbEntity
8
0
100
AcDbSpline
62
9
6
CONTINUOUS
70
0
71
3
72
8
73
4
74
2
42
0.0000001000
43
0.0000001000
44
0.0000000001
12
0.2065410130
22
0.4232118584
32
0.0000000000
13
0.2999942940
23
0.3630551979
33
0.0000000000
40
0.0000000000
40
0.0000000000
40
0.0000000000
40
0.0000000000
40
1.0000000000
40
1.0000000000
40
1.0000000000
40
1.0000000000
10
-7.4020383583
20
-8.1848340909
30
0.0000000000
10
-7.3331913540
20
-8.0437634715
30
0.0000000000
10
-7.2497222995
20
-7.9099834680
30
0.0000000000
10
-7.1497242015
20
-7.7889650687
30
0.0000000000
11
-7.4020383583
21
-8.1848340909
31
0.0000000000
11
-7.1497242015
21
-7.7889650687
31
0.0000000000
0
SPLINE
5
37E
100
AcDbEntity
8
0
100
AcDbSpline
62
9
6
CONTINUOUS
70
0
71
3
72
8
73
4
74
2
42
0.0000001000
43
0.0000001000
44
0.0000000001
12
0.0373031024
22
0.0371506285
32
0.0000000000
13
0.0384219662
23
0.0360000071
33
0.0000000000
40
0.0000000000
40
0.0000000000
40
0.0000000000
40
0.0000000000
40
1.0000000000
40
1.0000000000
40
1.0000000000
40
1.0000000000
10
-7.0352131366
20
-7.6632634938
30
0.0000000000
10
-7.0227787692
20
-7.6508799509
30
0.0000000000
10
-7.0101553388
20
-7.6386837734
30
0.0000000000
10
-6.9973480167
20
-7.6266837711
30
0.0000000000
11
-7.0352131366
21
-7.6632634938
31
0.0000000000
11
-6.9973480167
21
-7.6266837711
31
0.0000000000
0
SPLINE
5
37F
100
AcDbEntity
8
0
100
AcDbSpline
62
9
6
CONTINUOUS
70
0
71
3
72
8
73
4
74
2
42
0.0000001000
43
0.0000001000
44
0.0000000001
12
0.0952051454
22
0.0892038134
32
0.0000000000
13
0.1017435809
23
0.0815747386
33
0.0000000000
40
0.0000000000
40
0.0000000000
40
0.0000000000
40
0.0000000000
40
1.0000000000
40
1.0000000000
40
1.0000000000
40
1.0000000000
10
-6.9973480167
20
-7.6266837711
30
0.0000000000
10
-6.9656129682
20
-7.5969491666
30
0.0000000000
10
-6.9327488424
20
-7.5684190588
30
0.0000000000
10
-6.8988343155
20
-7.5412274793
30
0.0000000000
11
-6.9973480167
21
-7.6266837711
31
0.0000000000
11
-6.8988343155
21
-7.5412274793
31
0.0000000000
0
SPLINE
5
380
100
AcDbEntity
8
0
100
AcDbSpline
62
9
6
CONTINUOUS
70
0
71
3
72
8
73
4
74
2
42
0.0000001000
43
0.0000001000
44
0.0000000001
12
0.0680815381
22
0.0545855927
32
0.0000000000
13
0.0708327816
23
0.0508690868
33
0.0000000000
40
0.0000000000
40
0.0000000000
40
0.0000000000
40
0.0000000000
40
1.0000000000
40
1.0000000000
40
1.0000000000
40
1.0000000000
10
-6.8988343155
20
-7.5412274793
30
0.0000000000
10
-6.8761404695
20
-7.5230322817
30
0.0000000000
10
-6.8529762965
20
-7.5054364227
30
0.0000000000
10
-6.8293653693
20
-7.4884800605
30
0.0000000000
11
-6.8988343155
21
-7.5412274793
31
0.0000000000
11
-6.8293653693
21
-7.4884800605
31
0.0000000000
0
SPLINE
5
381
100
AcDbEntity
8
0
100
AcDbSpline
62
9
6
CONTINUOUS
70
0
71
3
72
8
73
4
74
2
42
0.0000001000
43
0.0000001000
44
0.0000000001
12
0.1019981487
22
0.0643966201
32
0.0000000000
13
0.1066499680
23
0.0562189897
33
0.0000000000
40
0.0000000000
40
0.0000000000
40
0.0000000000
40
0.0000000000
40
1.0000000000
40
1.0000000000
40
1.0000000000
40
1.0000000000
10
-6.7501858678
20
-7.4351052218
30
0.0000000000
10
-6.7161864849
20
-7.4136396818
30
0.0000000000
10
-6.6813805360
20
-7.3934838214
30
0.0000000000
10
-6.6458305467
20
-7.3747441582
30
0.0000000000
11
-6.7501858678
21
-7.4351052218
31
0.0000000000
11
-6.6458305467
21
-7.3747441582
31
0.0000000000
0
SPLINE
5
382
100
AcDbEntity
8
0
100
AcDbSpline
62
9
6
CONTINUOUS
70
0
71
3
72
8
73
4
74
2
42
0.0000001000
43
0.0000001000
44
0.0000000001
12
0.0193240409
22
0.0094327606
32
0.0000000000
13
0.0194547987
23
0.0091639478
33
0.0000000000
40
0.0000000000
40
0.0000000000
40
0.0000000000
40
0.0000000000
40
1.0000000000
40
1.0000000000
40
1.0000000000
40
1.0000000000
10
-6.6035941679
20
-7.3533123315
30
0.0000000000
10
-6.5971528210
20
-7.3501680779
30
0.0000000000
10
-6.5906893342
20
-7.3470686722
30
0.0000000000
10
-6.5842044013
20
-7.3440140229
30
0.0000000000
11
-6.6035941679
21
-7.3533123315
31
0.0000000000
11
-6.5842044013
21
-7.3440140229
31
0.0000000000
0
SPLINE
5
383
100
AcDbEntity
8
0
100
AcDbSpline
62
9
6
CONTINUOUS
70
0
71
3
72
8
73
4
74
2
42
0.0000001000
43
0.0000001000
44
0.0000000001
12
-0.0239154218
22
0.0119617432
32
0.0000000000
13
-0.0233118694
23
0.0131059609
33
0.0000000000
40
0.0000000000
40
0.0000000000
40
0.0000000000
40
0.0000000000
40
1.0000000000
40
1.0000000000
40
1.0000000000
40
1.0000000000
10
-9.5112609444
20
-15.3272919756
30
0.0000000000
10
-9.5192327517
20
-15.3233047279
30
0.0000000000
10
-9.5271077911
20
-15.3191230341
30
0.0000000000
10
-9.5348784143
20
-15.3147543805
30
0.0000000000
11
-9.5112609444
21
-15.3272919756
31
0.0000000000
11
-9.5348784143
21
-15.3147543805
31
0.0000000000
0
SPLINE
5
384
100
AcDbEntity
8
0
100
AcDbSpline
62
9
6
CONTINUOUS
70
0
71
3
72
8
73
4
74
2
42
0.0000001000
43
0.0000001000
44
0.0000000001
12
-0.0163734484
22
0.0092051723
32
0.0000000000
13
-0.0160564362
23
0.0097507735
33
0.0000000000
40
0.0000000000
40
0.0000000000
40
0.0000000000
40
0.0000000000
40
1.0000000000
40
1.0000000000
40
1.0000000000
40
1.0000000000
10
-9.5348784143
20
-15.3147543805
30
0.0000000000
10
-9.5403362304
20
-15.3116859897
30
0.0000000000
10
-9.5457425362
20
-15.3085253685
30
0.0000000000
10
-9.5510946816
20
-15.3052751107
30
0.0000000000
11
-9.5348784143
21
-15.3147543805
31
0.0000000000
11
-9.5510946816
21
-15.3052751107
31
0.0000000000
0
SPLINE
5
385
100
AcDbEntity
8
0
100
AcDbSpline
62
9
6
CONTINUOUS
70
0
71
3
72
8
73
4
74
2
42
0.0000001000
43
0.0000001000
44
0.0000000001
12
-0.0419682573
22
0.0254865379
32
0.0000000000
13
-0.0396061653
23
0.0290219259
33
0.0000000000
40
0.0000000000
40
0.0000000000
40
0.0000000000
40
0.0000000000
40
1.0000000000
40
1.0000000000
40
1.0000000000
40
1.0000000000
10
-9.5510946816
20
-15.3052751107
30
0.0000000000
10
-9.5650841007
20
-15.2967795981
30
0.0000000000
10
-9.5787034995
20
-15.2876716943
30
0.0000000000
10
-9.5919055546
20
-15.2779977190
30
0.0000000000
11
-9.5510946816
21
-15.3052751107
31
0.0000000000
11
-9.5919055546
21
-15.2779977190
31
0.0000000000
0
SPLINE
5
386
100
AcDbEntity
8
0
100
AcDbSpline
62
9
6
CONTINUOUS
70
0
71
3
72
9
73
5
74
3
42
0.0000001000
43
0.0000001000
44
0.0000000001
12
-0.0288495034
22
0.1417025983
32
0.0000000000
13
-0.0127412161
23
0.1440010775
33
0.0000000000
40
0.0000000000
40
0.0000000000
40
0.0000000000
40
0.0000000000
40
0.3396018041
40
1.0000000000
40
1.0000000000
40
1.0000000000
40
1.0000000000
10
-9.8717117982
20
-14.7927869063
30
0.0000000000
10
-9.8749775794
20
-14.7767460869
30
0.0000000000
10
-9.8836066717
20
-14.7293090531
30
0.0000000000
10
-9.8894937860
20
-14.6814411071
30
0.0000000000
10
-9.8922985447
20
-14.6497417565
30
0.0000000000
11
-9.8717117982
21
-14.7927869063
31
0.0000000000
11
-9.8805222594
21
-14.7444769855
31
0.0000000000
11
-9.8922985447
21
-14.6497417565
31
0.0000000000
0
SPLINE
5
387
100
AcDbEntity
8
0
100
AcDbSpline
62
9
6
CONTINUOUS
70
0
71
3
72
8
73
4
74
2
42
0.0000001000
43
0.0000001000
44
0.0000000001
12
-0.0040793444
22
0.0461047038
32
0.0000000000
13
-0.0025904709
23
0.0461936725
33
0.0000000000
40
0.0000000000
40
0.0000000000
40
0.0000000000
40
0.0000000000
40
1.0000000000
40
1.0000000000
40
1.0000000000
40
1.0000000000
10
-9.8922985447
20
-14.6497417565
30
0.0000000000
10
-9.8936583262
20
-14.6343735219
30
0.0000000000
10
-9.8947635371
20
-14.6189847339
30
0.0000000000
10
-9.8956270275
20
-14.6035868430
30
0.0000000000
11
-9.8922985447
21
-14.6497417565
31
0.0000000000
11
-9.8956270275
21
-14.6035868430
31
0.0000000000
0
SPLINE
5
388
100
AcDbEntity
8
0
100
AcDbSpline
62
9
6
CONTINUOUS
70
0
71
3
72
8
73
4
74
2
42
0.0000001000
43
0.0000001000
44
0.0000000001
12
-0.1458188947
22
0.0729572059
32
0.0000000000
13
-0.1428429094
23
0.0788238962
33
0.0000000000
40
0.0000000000
40
0.0000000000
40
0.0000000000
40
0.0000000000
40
1.0000000000
40
1.0000000000
40
1.0000000000
40
1.0000000000
10
-4.4322882234
20
-15.2070979194
30
0.0000000000
10
-4.4808945217
20
-15.1827788507
30
0.0000000000
10
-4.5290069013
20
-15.1574480070
30
0.0000000000
10
-4.5766212044
20
-15.1311733749
30
0.0000000000
11
-4.4322882234
21
-15.2070979194
31
0.0000000000
11
-4.5766212044
21
-15.1311733749
31
0.0000000000
0
SPLINE
5
389
100
AcDbEntity
8
0
100
AcDbSpline
62
9
6
CONTINUOUS
70
0
71
3
72
8
73
4
74
2
42
0.0000001000
43
0.0000001000
44
0.0000000001
12
-0.1236971533
22
0.0682588419
32
0.0000000000
13
-0.1214480146
23
0.0723728610
33
0.0000000000
40
0.0000000000
40
0.0000000000
40
0.0000000000
40
0.0000000000
40
1.0000000000
40
1.0000000000
40
1.0000000000
40
1.0000000000
10
-4.5766212044
20
-15.1311733749
30
0.0000000000
10
-4.6178535889
20
-15.1084204276
30
0.0000000000
10
-4.6587124669
20
-15.0849597356
30
0.0000000000
10
-4.6991951384
20
-15.0608354486
30
0.0000000000
11
-4.5766212044
21
-15.1311733749
31
0.0000000000
11
-4.6991951384
21
-15.0608354486
31
0.0000000000
0
SPLINE
5
38A
100
AcDbEntity
8
0
100
AcDbSpline
62
9
6
CONTINUOUS
70
0
71
3
72
8
73
4
74
2
42
0.0000001000
43
0.0000001000
44
0.0000000001
12
-0.1517539391
22
0.0904326577
32
0.0000000000
13
-0.1482138054
23
0.0963908622
33
0.0000000000
40
0.0000000000
40
0.0000000000
40
0.0000000000
40
0.0000000000
40
1.0000000000
40
1.0000000000
40
1.0000000000
40
1.0000000000
10
-4.6991951384
20
-15.0608354486
30
0.0000000000
10
-4.7497797848
20
-15.0306912294
30
0.0000000000
10
-4.7997770427
20
-14.9995109089
30
0.0000000000
10
-4.8491816445
20
-14.9673806215
30
0.0000000000
11
-4.6991951384
21
-15.0608354486
31
0.0000000000
11
-4.8491816445
21
-14.9673806215
31
0.0000000000
0
SPLINE
5
38B
100
AcDbEntity
8
0
100
AcDbSpline
62
9
6
CONTINUOUS
70
0
71
3
72
8
73
4
74
2
42
0.0000001000
43
0.0000001000
44
0.0000000001
12
-0.1137758519
22
0.0739941359
32
0.0000000000
13
-0.1116732551
23
0.0772360327
33
0.0000000000
40
0.0000000000
40
0.0000000000
40
0.0000000000
40
0.0000000000
40
1.0000000000
40
1.0000000000
40
1.0000000000
40
1.0000000000
10
-4.8491816445
20
-14.9673806215
30
0.0000000000
10
-4.8871069285
20
-14.9427159095
30
0.0000000000
10
-4.9246829711
20
-14.9174913996
30
0.0000000000
10
-4.9619073895
20
-14.8917460554
30
0.0000000000
11
-4.8491816445
21
-14.9673806215
31
0.0000000000
11
-4.9619073895
21
-14.8917460554
31
0.0000000000
0
SPLINE
5
38C
100
AcDbEntity
8
0
100
AcDbSpline
62
9
6
CONTINUOUS
70
0
71
3
72
8
73
4
74
2
42
0.0000001000
43
0.0000001000
44
0.0000000001
12
-0.0305772054
22
0.0211479645
32
0.0000000000
13
-0.0304188875
23
0.0213798519
33
0.0000000000
40
0.0000000000
40
0.0000000000
40
0.0000000000
40
0.0000000000
40
1.0000000000
40
1.0000000000
40
1.0000000000
40
1.0000000000
10
-4.9619073895
20
-14.8917460554
30
0.0000000000
10
-4.9720997913
20
-14.8846967338
30
0.0000000000
10
-4.9822658312
20
-14.8776083645
30
0.0000000000
10
-4.9924054604
20
-14.8704817472
30
0.0000000000
11
-4.9619073895
21
-14.8917460554
31
0.0000000000
11
-4.9924054604
21
-14.8704817472
31
0.0000000000
0
SPLINE
5
38D
100
AcDbEntity
8
0
100
AcDbSpline
62
9
6
CONTINUOUS
70
0
71
3
72
8
73
4
74
2
42
0.0000001000
43
0.0000001000
44
0.0000000001
12
-0.2329691417
22
0.1637418773
32
0.0000000000
13
-0.2236083647
23
0.1761247078
33
0.0000000000
40
0.0000000000
40
0.0000000000
40
0.0000000000
40
0.0000000000
40
1.0000000000
40
1.0000000000
40
1.0000000000
40
1.0000000000
10
-4.9924054604
20
-14.8704817472
30
0.0000000000
10
-5.0700618409
20
-14.8159011215
30
0.0000000000
10
-5.1461690792
20
-14.7590770346
30
0.0000000000
10
-5.2207052008
20
-14.7003687986
30
0.0000000000
11
-4.9924054604
21
-14.8704817472
31
0.0000000000
11
-5.2207052008
21
-14.7003687986
31
0.0000000000
0
SPLINE
5
38E
100
AcDbEntity
8
0
100
AcDbSpline
62
9
6
CONTINUOUS
70
0
71
3
72
10
73
6
74
4
42
0.0000001000
43
0.0000001000
44
0.0000000001
12
-1.6977843110
22
1.4656410242
32
0.0000000000
13
-1.1478482178
23
1.9257232387
33
0.0000000000
40
0.0000000000
40
0.0000000000
40
0.0000000000
40
0.0000000000
40
0.3481378313
40
0.8353298988
40
1.0000000000
40
1.0000000000
40
1.0000000000
40
1.0000000000
10
-5.4166781843
20
-14.5386748481
30
0.0000000000
10
-5.6136991670
20
-14.3685931522
30
0.0000000000
10
-6.0585657042
20
-13.9290151038
30
0.0000000000
10
-6.5159242557
20
-13.3353306384
30
0.0000000000
10
-6.7753906632
20
-12.9228699748
30
0.0000000000
10
-6.8383960906
20
-12.8171669612
30
0.0000000000
11
-5.4166781843
21
-14.5386748481
31
0.0000000000
11
-5.9735987236
21
-13.9924033048
31
0.0000000000
11
-6.6418329062
21
-13.1296326734
31
0.0000000000
11
-6.8383960906
21
-12.8171669612
31
0.0000000000
0
SPLINE
5
38F
100
AcDbEntity
8
0
100
AcDbSpline
62
9
6
CONTINUOUS
70
0
71
3
72
8
73
4
74
2
42
0.0000001000
43
0.0000001000
44
0.0000000001
12
-0.1905211297
22
0.3196336948
32
0.0000000000
13
-0.1748182074
23
0.3284796613
33
0.0000000000
40
0.0000000000
40
0.0000000000
40
0.0000000000
40
0.0000000000
40
1.0000000000
40
1.0000000000
40
1.0000000000
40
1.0000000000
10
-6.8383960906
20
-12.8171669612
30
0.0000000000
10
-6.9019031338
20
-12.7106223963
30
0.0000000000
10
-6.9628299223
20
-12.6025444019
30
0.0000000000
10
-7.0211026581
20
-12.4930511815
30
0.0000000000
11
-6.8383960906
21
-12.8171669612
31
0.0000000000
11
-7.0211026581
21
-12.4930511815
31
0.0000000000
0
SPLINE
5
390
100
AcDbEntity
8
0
100
AcDbSpline
62
9
6
CONTINUOUS
70
0
71
3
72
8
73
4
74
2
42
0.0000001000
43
0.0000001000
44
0.0000000001
12
-0.1735545424
22
0.3261052618
32
0.0000000000
13
-0.1576429834
23
0.3341273267
33
0.0000000000
40
0.0000000000
40
0.0000000000
40
0.0000000000
40
0.0000000000
40
1.0000000000
40
1.0000000000
40
1.0000000000
40
1.0000000000
10
-7.0211026581
20
-12.4930511815
30
0.0000000000
10
-7.0789541722
20
-12.3843494275
30
0.0000000000
10
-7.1341898644
20
-12.2742528334
30
0.0000000000
10
-7.1867375255
20
-12.1628770579
30
0.0000000000
11
-7.0211026581
21
-12.4930511815
31
0.0000000000
11
-7.1867375255
21
-12.1628770579
31
0.0000000000
0
SPLINE
5
391
100
AcDbEntity
8
0
100
AcDbSpline
62
9
6
CONTINUOUS
70
0
71
3
72
8
73
4
74
2
42
0.0000001000
43
0.0000001000
44
0.0000000001
12
-0.0486827147
22
0.1031839474
32
0.0000000000
13
-0.0471290374
23
0.1039070164
33
0.0000000000
40
0.0000000000
40
0.0000000000
40
0.0000000000
40
0.0000000000
40
1.0000000000
40
1.0000000000
40
1.0000000000
40
1.0000000000
10
-7.1867375255
20
-12.1628770579
30
0.0000000000
10
-7.2029650971
20
-12.1284824087
30
0.0000000000
10
-7.2189363179
20
-12.0939657673
30
0.0000000000
10
-7.2346459971
20
-12.0593300951
30
0.0000000000
11
-7.1867375255
21
-12.1628770579
31
0.0000000000
11
-7.2346459971
21
-12.0593300951
31
0.0000000000
0
SPLINE
5
392
100
AcDbEntity
8
0
100
AcDbSpline
62
9
6
CONTINUOUS
70
0
71
3
72
8
73
4
74
2
42
0.0000001000
43
0.0000001000
44
0.0000000001
12
-0.1050067902
22
0.2315120968
32
0.0000000000
13
-0.0970443205
23
0.2349592433
33
0.0000000000
40
0.0000000000
40
0.0000000000
40
0.0000000000
40
0.0000000000
40
1.0000000000
40
1.0000000000
40
1.0000000000
40
1.0000000000
10
-7.2346459971
20
-12.0593300951
30
0.0000000000
10
-7.2696482605
20
-11.9821593962
30
0.0000000000
10
-7.3033521537
20
-11.9043977938
30
0.0000000000
10
-7.3357002605
20
-11.8260780461
30
0.0000000000
11
-7.2346459971
21
-12.0593300951
31
0.0000000000
11
-7.3357002605
21
-11.8260780461
31
0.0000000000
0
SPLINE
5
393
100
AcDbEntity
8
0
100
AcDbSpline
62
9
6
CONTINUOUS
70
0
71
3
72
8
73
4
74
2
42
0.0000001000
43
0.0000001000
44
0.0000000001
12
-0.0867368242
22
0.2100032074
32
0.0000000000
13
-0.0801153957
23
0.2126082956
33
0.0000000000
40
0.0000000000
40
0.0000000000
40
0.0000000000
40
0.0000000000
40
1.0000000000
40
1.0000000000
40
1.0000000000
40
1.0000000000
10
-7.3357002605
20
-11.8260780461
30
0.0000000000
10
-7.3646125352
20
-11.7560769769
30
0.0000000000
10
-7.3924417362
20
-11.6856300317
30
0.0000000000
10
-7.4191468681
20
-11.6147605999
30
0.0000000000
11
-7.3357002605
21
-11.8260780461
31
0.0000000000
11
-7.4191468681
21
-11.6147605999
31
0.0000000000
0
SPLINE
5
394
100
AcDbEntity
8
0
100
AcDbSpline
62
9
6
CONTINUOUS
70
0
71
3
72
12
73
8
74
6
42
0.0000001000
43
0.0000001000
44
0.0000000001
12
-1.2520341444
22
3.3226178724
32
0.0000000000
13
1.5646843259
23
3.2049675947
33
0.0000000000
40
0.0000000000
40
0.0000000000
40
0.0000000000
40
0.0000000000
40
0.1405873542
40
0.4300285416
40
0.6953774395
40
0.9286550751
40
1.0000000000
40
1.0000000000
40
1.0000000000
40
1.0000000000
10
-7.4191468681
20
-11.6147605999
30
0.0000000000
10
-7.4778202573
20
-11.4590545813
30
0.0000000000
10
-7.6406931166
20
-10.9765429090
30
0.0000000000
10
-7.8153945513
20
-10.1691952785
30
0.0000000000
10
-7.8448327977
20
-9.2314591771
30
0.0000000000
10
-7.7131321347
20
-8.5631545163
30
0.0000000000
10
-7.5720369931
20
-8.2288509369
30
0.0000000000
10
-7.5348262312
20
-8.1526315462
30
0.0000000000
11
-7.4191468681
21
-11.6147605999
31
0.0000000000
11
-7.5784540234
21
-11.1417723550
31
0.0000000000
11
-7.7891506892
21
-10.1368599678
31
0.0000000000
11
-7.8081277297
21
-9.1957533321
31
0.0000000000
11
-7.6342495789
21
-8.3866985071
31
0.0000000000
11
-7.5348262312
21
-8.1526315462
31
0.0000000000
0
SPLINE
5
395
100
AcDbEntity
8
0
100
AcDbSpline
62
9
6
CONTINUOUS
70
0
71
3
72
8
73
4
74
2
42
0.0000001000
43
0.0000001000
44
0.0000000001
12
0.2118242001
22
0.4338828516
32
0.0000000000
13
0.3076827522
23
0.3721555485
33
0.0000000000
40
0.0000000000
40
0.0000000000
40
0.0000000000
40
0.0000000000
40
1.0000000000
40
1.0000000000
40
1.0000000000
40
1.0000000000
10
-7.5348262312
20
-8.1526315462
30
0.0000000000
10
-7.4642181645
20
-8.0080039290
30
0.0000000000
10
-7.3786129782
20
-7.8708548977
30
0.0000000000
10
-7.2760520608
20
-7.7468030482
30
0.0000000000
11
-7.5348262312
21
-8.1526315462
31
0.0000000000
11
-7.2760520608
21
-7.7468030482
31
0.0000000000
0
SPLINE
5
396
100
AcDbEntity
8
0
100
AcDbSpline
62
9
6
CONTINUOUS
70
0
71
3
72
8
73
4
74
2
42
0.0000001000
43
0.0000001000
44
0.0000000001
12
0.1447735069
22
0.1751097957
32
0.0000000000
13
0.1661047091
23
0.1556711095
33
0.0000000000
40
0.0000000000
40
0.0000000000
40
0.0000000000
40
0.0000000000
40
1.0000000000
40
1.0000000000
40
1.0000000000
40
1.0000000000
10
-7.2760520608
20
-7.7468030482
30
0.0000000000
10
-7.2277942251
20
-7.6884331163
30
0.0000000000
10
-7.1757824401
20
-7.6329628622
30
0.0000000000
10
-7.1204142038
20
-7.5810724923
30
0.0000000000
11
-7.2760520608
21
-7.7468030482
31
0.0000000000
11
-7.1204142038
21
-7.5810724923
31
0.0000000000
0
SPLINE
5
397
100
AcDbEntity
8
0
100
AcDbSpline
62
9
6
CONTINUOUS
70
0
71
3
72
8
73
4
74
2
42
0.0000001000
43
0.0000001000
44
0.0000000001
12
0.1248641269
22
0.1170209880
32
0.0000000000
13
0.1357375974
23
0.1040165981
33
0.0000000000
40
0.0000000000
40
0.0000000000
40
0.0000000000
40
0.0000000000
40
1.0000000000
40
1.0000000000
40
1.0000000000
40
1.0000000000
10
-7.1204142038
20
-7.5810724923
30
0.0000000000
10
-7.0787928282
20
-7.5420654963
30
0.0000000000
10
-7.0352747822
20
-7.5050814285
30
0.0000000000
10
-6.9900289164
20
-7.4704092292
30
0.0000000000
11
-7.1204142038
21
-7.5810724923
31
0.0000000000
11
-6.9900289164
21
-7.4704092292
31
0.0000000000
0
SPLINE
5
398
100
AcDbEntity
8
0
100
AcDbSpline
62
9
6
CONTINUOUS
70
0
71
3
72
8
73
4
74
2
42
0.0000001000
43
0.0000001000
44
0.0000000001
12
0.0418438884
22
0.0320652421
32
0.0000000000
13
0.0428142241
23
0.0307216581
33
0.0000000000
40
0.0000000000
40
0.0000000000
40
0.0000000000
40
0.0000000000
40
1.0000000000
40
1.0000000000
40
1.0000000000
40
1.0000000000
10
-6.9900289164
20
-7.4704092292
30
0.0000000000
10
-6.9760809537
20
-7.4597208152
30
0.0000000000
10
-6.9619687950
20
-7.4492520995
30
0.0000000000
10
-6.9476973870
20
-7.4390115468
30
0.0000000000
11
-6.9900289164
21
-7.4704092292
31
0.0000000000
11
-6.9476973870
21
-7.4390115468
31
0.0000000000
0
SPLINE
5
399
100
AcDbEntity
8
0
100
AcDbSpline
62
9
6
CONTINUOUS
70
0
71
3
72
8
73
4
74
2
42
0.0000001000
43
0.0000001000
44
0.0000000001
12
0.1639793320
22
0.1176645631
32
0.0000000000
13
0.1771618329
23
0.0961562737
33
0.0000000000
40
0.0000000000
40
0.0000000000
40
0.0000000000
40
0.0000000000
40
1.0000000000
40
1.0000000000
40
1.0000000000
40
1.0000000000
10
-6.9476973870
20
-7.4390115468
30
0.0000000000
10
-6.8930376096
20
-7.3997900258
30
0.0000000000
10
-6.8360417949
20
-7.3639154388
30
0.0000000000
10
-6.7769878505
20
-7.3318633476
30
0.0000000000
11
-6.9476973870
21
-7.4390115468
31
0.0000000000
11
-6.7769878505
21
-7.3318633476
31
0.0000000000
0
SPLINE
5
39A
100
AcDbEntity
8
0
100
AcDbSpline
62
9
6
CONTINUOUS
70
0
71
3
72
8
73
4
74
2
42
0.0000001000
43
0.0000001000
44
0.0000000001
12
0.0166670503
22
0.0090462004
32
0.0000000000
13
0.0167756513
23
0.0088420221
33
0.0000000000
40
0.0000000000
40
0.0000000000
40
0.0000000000
40
0.0000000000
40
1.0000000000
40
1.0000000000
40
1.0000000000
40
1.0000000000
10
-6.7769878505
20
-7.3318633476
30
0.0000000000
10
-6.7714321671
20
-7.3288479475
30
0.0000000000
10
-6.7658582678
20
-7.3258663790
30
0.0000000000
10
-6.7602663840
20
-7.3229190383
30
0.0000000000
11
-6.7769878505
21
-7.3318633476
31
0.0000000000
11
-6.7602663840
21
-7.3229190383
31
0.0000000000
0
SPLINE
5
39B
100
AcDbEntity
8
0
100
AcDbSpline
62
9
6
CONTINUOUS
70
0
71
3
72
8
73
4
74
2
42
0.0000001000
43
0.0000001000
44
0.0000000001
12
0.0186754084
22
0.0098433361
32
0.0000000000
13
0.0188072590
23
0.0095890678
33
0.0000000000
40
0.0000000000
40
0.0000000000
40
0.0000000000
40
0.0000000000
40
1.0000000000
40
1.0000000000
40
1.0000000000
40
1.0000000000
10
-6.7602663840
20
-7.3229190383
30
0.0000000000
10
-6.7540412479
20
-7.3196379263
30
0.0000000000
10
-6.7477938234
20
-7.3163992331
30
0.0000000000
10
-6.7415247370
20
-7.3132028772
30
0.0000000000
11
-6.7602663840
21
-7.3229190383
31
0.0000000000
11
-6.7415247370
21
-7.3132028772
31
0.0000000000
0
SPLINE
5
39C
100
AcDbEntity
8
0
100
AcDbSpline
62
9
6
CONTINUOUS
70
0
71
3
72
8
73
4
74
2
42
0.0000001000
43
0.0000001000
44
0.0000000001
12
0.0706252283
22
0.0289443051
32
0.0000000000
13
0.0719265257
23
0.0256794533
33
0.0000000000
40
0.0000000000
40
0.0000000000
40
0.0000000000
40
0.0000000000
40
1.0000000000
40
1.0000000000
40
1.0000000000
40
1.0000000000
10
-6.6215672105
20
-7.2582017437
30
0.0000000000
10
-6.5980254677
20
-7.2485536421
30
0.0000000000
10
-6.5742520624
20
-7.2394516080
30
0.0000000000
10
-6.5502765538
20
-7.2308917902
30
0.0000000000
11
-6.6215672105
21
-7.2582017437
31
0.0000000000
11
-6.5502765538
21
-7.2308917902
31
0.0000000000
0
SPLINE
5
39D
100
AcDbEntity
8
0
100
AcDbSpline
62
9
6
CONTINUOUS
70
0
71
3
72
8
73
4
74
2
42
0.0000001000
43
0.0000001000
44
0.0000000001
12
0.2085728823
22
0.0744654011
32
0.0000000000
13
0.2166073197
23
0.0473905778
33
0.0000000000
40
0.0000000000
40
0.0000000000
40
0.0000000000
40
0.0000000000
40
1.0000000000
40
1.0000000000
40
1.0000000000
40
1.0000000000
10
-6.5502765538
20
-7.2308917902
30
0.0000000000
10
-6.4807522597
20
-7.2060699898
30
0.0000000000
10
-6.4095285058
20
-7.1858076148
30
0.0000000000
10
-6.3373260659
20
-7.1700107555
30
0.0000000000
11
-6.5502765538
21
-7.2308917902
31
0.0000000000
11
-6.3373260659
21
-7.1700107555
31
0.0000000000
0
SPLINE
5
39E
100
AcDbEntity
8
0
100
AcDbSpline
62
9
6
CONTINUOUS
70
0
71
3
72
8
73
4
74
2
42
0.0000001000
43
0.0000001000
44
0.0000000001
12
0.2236195726
22
0.0489247583
32
0.0000000000
13
0.2274988424
23
0.0206788181
33
0.0000000000
40
0.0000000000
40
0.0000000000
40
0.0000000000
40
0.0000000000
40
1.0000000000
40
1.0000000000
40
1.0000000000
40
1.0000000000
10
-6.3373260659
20
-7.1700107555
30
0.0000000000
10
-6.2627862083
20
-7.1537025028
30
0.0000000000
10
-6.1872032730
20
-7.1421535709
30
0.0000000000
10
-6.1113703255
20
-7.1352606316
30
0.0000000000
11
-6.3373260659
21
-7.1700107555
31
0.0000000000
11
-6.1113703255
21
-7.1352606316
31
0.0000000000
0
SPLINE
5
39F
100
AcDbEntity
8
0
100
AcDbSpline
62
9
6
CONTINUOUS
70
0
71
3
72
8
73
4
74
2
42
0.0000001000
43
0.0000001000
44
0.0000000001
12
0.2324816192
22
0.0211317344
32
0.0000000000
13
0.2329463305
23
-0.0064600206
33
0.0000000000
40
0.0000000000
40
0.0000000000
40
0.0000000000
40
0.0000000000
40
1.0000000000
40
1.0000000000
40
1.0000000000
40
1.0000000000
10
-6.1113703255
20
-7.1352606316
30
0.0000000000
10
-6.0338764524
20
-7.1282167201
30
0.0000000000
10
-5.9561214955
20
-7.1260349897
30
0.0000000000
10
-5.8784727187
20
-7.1281883299
30
0.0000000000
11
-6.1113703255
21
-7.1352606316
31
0.0000000000
11
-5.8784727187
21
-7.1281883299
31
0.0000000000
0
SPLINE
5
3A0
100
AcDbEntity
8
0
100
AcDbSpline
62
9
6
CONTINUOUS
70
0
71
3
72
8
73
4
74
2
42
0.0000001000
43
0.0000001000
44
0.0000000001
12
0.2328209884
22
-0.0761516964
32
0.0000000000
13
0.2261081361
23
-0.0938146056
33
0.0000000000
40
0.0000000000
40
0.0000000000
40
0.0000000000
40
0.0000000000
40
1.0000000000
40
1.0000000000
40
1.0000000000
40
1.0000000000
10
-5.1701266107
20
-7.2576288036
30
0.0000000000
10
-5.0925196146
20
-7.2830127024
30
0.0000000000
10
-5.0159772062
20
-7.3115596808
30
0.0000000000
10
-4.9406078274
20
-7.3428312160
30
0.0000000000
11
-5.1701266107
21
-7.2576288036
31
0.0000000000
11
-4.9406078274
21
-7.3428312160
31
0.0000000000
0
SPLINE
5
3A1
100
AcDbEntity
8
0
100
AcDbSpline
62
9
6
CONTINUOUS
70
0
71
3
72
8
73
4
74
2
42
0.0000001000
43
0.0000001000
44
0.0000000001
12
0.2323381420
22
-0.0963994995
32
0.0000000000
13
0.2245538063
23
-0.1122327572
33
0.0000000000
40
0.0000000000
40
0.0000000000
40
0.0000000000
40
0.0000000000
40
1.0000000000
40
1.0000000000
40
1.0000000000
40
1.0000000000
10
-4.9406078274
20
-7.3428312160
30
0.0000000000
10
-4.8631617801
20
-7.3749643825
30
0.0000000000
10
-4.7869542945
20
-7.4099743147
30
0.0000000000
10
-4.7121030258
20
-7.4473852338
30
0.0000000000
11
-4.9406078274
21
-7.3428312160
31
0.0000000000
11
-4.7121030258
21
-7.4473852338
31
0.0000000000
0
SPLINE
5
3A2
100
AcDbEntity
8
0
100
AcDbSpline
62
9
6
CONTINUOUS
70
0
71
3
72
8
73
4
74
2
42
0.0000001000
43
0.0000001000
44
0.0000000001
12
-0.1916512478
22
-0.1012404262
32
0.0000000000
13
-0.2044315052
23
-0.0728881276
33
0.0000000000
40
0.0000000000
40
0.0000000000
40
0.0000000000
40
0.0000000000
40
1.0000000000
40
1.0000000000
40
1.0000000000
40
1.0000000000
10
0.5901269075
20
-16.6977280761
30
0.0000000000
10
0.5262431582
20
-16.7314748849
30
0.0000000000
10
0.4598435931
20
-16.7604280089
30
0.0000000000
10
0.3916997580
20
-16.7847240514
30
0.0000000000
11
0.5901269075
21
-16.6977280761
31
0.0000000000
11
0.3916997580
21
-16.7847240514
31
0.0000000000
0
SPLINE
5
3A3
100
AcDbEntity
8
0
100
AcDbSpline
62
9
6
CONTINUOUS
70
0
71
3
72
8
73
4
74
2
42
0.0000001000
43
0.0000001000
44
0.0000000001
12
-0.2048801366
22
-0.0730480829
32
0.0000000000
13
-0.2130609203
23
-0.0453972637
33
0.0000000000
40
0.0000000000
40
0.0000000000
40
0.0000000000
40
0.0000000000
40
1.0000000000
40
1.0000000000
40
1.0000000000
40
1.0000000000
10
0.3916997580
20
-16.7847240514
30
0.0000000000
10
0.3234063791
20
-16.8090734123
30
0.0000000000
10
0.2533611267
20
-16.8287453575
30
0.0000000000
10
0.1823408199
20
-16.8438777787
30
0.0000000000
11
0.3916997580
21
-16.7847240514
31
0.0000000000
11
0.1823408199
21
-16.8438777787
31
0.0000000000
0
SPLINE
5
3A4
100
AcDbEntity
8
0
100
AcDbSpline
62
9
6
CONTINUOUS
70
0
71
3
72
8
73
4
74
2
42
0.0000001000
43
0.0000001000
44
0.0000000001
12
-0.2159582174
22
-0.0460145959
32
0.0000000000
13
-0.2195419079
23
-0.0184624328
33
0.0000000000
40
0.0000000000
40
0.0000000000
40
0.0000000000
40
0.0000000000
40
1.0000000000
40
1.0000000000
40
1.0000000000
40
1.0000000000
10
0.1823408199
20
-16.8438777787
30
0.0000000000
10
0.1103547474
20
-16.8592159773
30
0.0000000000
10
0.0373669219
20
-16.8698903517
30
0.0000000000
10
-0.0358137141
20
-16.8760444960
30
0.0000000000
11
0.1823408199
21
-16.8438777787
31
0.0000000000
11
-0.0358137141
21
-16.8760444960
31
0.0000000000
0
SPLINE
5
3A5
100
AcDbEntity
8
0
100
AcDbSpline
62
9
6
CONTINUOUS
70
0
71
3
72
8
73
4
74
2
42
0.0000001000
43
0.0000001000
44
0.0000000001
12
-0.6902620159
22
-0.0580477606
32
0.0000000000
13
-0.6723192744
23
0.1622330476
33
0.0000000000
40
0.0000000000
40
0.0000000000
40
0.0000000000
40
0.0000000000
40
1.0000000000
40
1.0000000000
40
1.0000000000
40
1.0000000000
10
-0.0358137141
20
-16.8760444960
30
0.0000000000
10
-0.2659010527
20
-16.8953937495
30
0.0000000000
10
-0.4978943940
20
-16.8700588402
30
0.0000000000
10
-0.7220008188
20
-16.8159811576
30
0.0000000000
11
-0.0358137141
21
-16.8760444960
31
0.0000000000
11
-0.7220008188
21
-16.8159811576
31
0.0000000000
0
SPLINE
5
3A6
100
AcDbEntity
8
0
100
AcDbSpline
62
9
6
CONTINUOUS
70
0
71
3
72
8
73
4
74
2
42
0.0000001000
43
0.0000001000
44
0.0000000001
12
-0.4175038777
22
0.1007451802
32
0.0000000000
13
-0.3977048946
23
0.1598175741
33
0.0000000000
40
0.0000000000
40
0.0000000000
40
0.0000000000
40
0.0000000000
40
1.0000000000
40
1.0000000000
40
1.0000000000
40
1.0000000000
10
-0.7220008188
20
-16.8159811576
30
0.0000000000
10
-0.8611687781
20
-16.7823994309
30
0.0000000000
10
-0.9972953121
20
-16.7377336517
30
0.0000000000
10
-1.1298636103
20
-16.6844611270
30
0.0000000000
11
-0.7220008188
21
-16.8159811576
31
0.0000000000
11
-1.1298636103
21
-16.6844611270
31
0.0000000000
0
SPLINE
5
3A7
100
AcDbEntity
8
0
100
AcDbSpline
62
9
6
CONTINUOUS
70
0
71
3
72
8
73
4
74
2
42
0.0000001000
43
0.0000001000
44
0.0000000001
12
-0.0439504352
22
0.0176614672
32
0.0000000000
13
-0.0436876131
23
0.0182820962
33
0.0000000000
40
0.0000000000
40
0.0000000000
40
0.0000000000
40
0.0000000000
40
1.0000000000
40
1.0000000000
40
1.0000000000
40
1.0000000000
10
-1.1298636103
20
-16.6844611270
30
0.0000000000
10
-1.1445137553
20
-16.6785739713
30
0.0000000000
10
-1.1591204455
20
-16.6725817057
30
0.0000000000
10
-1.1736829832
20
-16.6664876737
30
0.0000000000
11
-1.1298636103
21
-16.6844611270
31
0.0000000000
11
-1.1736829832
21
-16.6664876737
31
0.0000000000
0
SPLINE
5
3A8
100
AcDbEntity
8
0
100
AcDbSpline
62
9
6
CONTINUOUS
70
0
71
3
72
8
73
4
74
2
42
0.0000001000
43
0.0000001000
44
0.0000000001
12
-0.2229435506
22
0.0932959057
32
0.0000000000
13
-0.2157665826
23
0.1078641173
33
0.0000000000
40
0.0000000000
40
0.0000000000
40
0.0000000000
40
0.0000000000
40
1.0000000000
40
1.0000000000
40
1.0000000000
40
1.0000000000
10
-1.1736829832
20
-16.6664876737
30
0.0000000000
10
-1.2479975000
20
-16.6353890384
30
0.0000000000
10
-1.3211622022
20
-16.6016402077
30
0.0000000000
10
-1.3930843964
20
-16.5656855020
30
0.0000000000
11
-1.1736829832
21
-16.6664876737
31
0.0000000000
11
-1.3930843964
21
-16.5656855020
31
0.0000000000
0
SPLINE
5
3A9
100
AcDbEntity
8
0
100
AcDbSpline
62
0
6
CONTINUOUS
70
0
71
3
72
8
73
4
74
2
42
0.0000001000
43
0.0000001000
44
0.0000000001
12
0.1867340201
22
-0.0091604726
32
0.0000000000
13
0.1865280091
23
0.0078775628
33
0.0000000000
40
0.0000000000
40
0.0000000000
40
0.0000000000
40
0.0000000000
40
1.0000000000
40
1.0000000000
40
1.0000000000
40
1.0000000000
10
-0.0663474976
20
-16.7475438065
30
0.0000000000
10
-0.0041028242
20
-16.7505972974
30
0.0000000000
10
0.0582325040
20
-16.7509341153
30
0.0000000000
10
0.1204085071
20
-16.7483082610
30
0.0000000000
11
-0.0663474976
21
-16.7475438065
31
0.0000000000
11
0.1204085071
21
-16.7483082610
31
0.0000000000
0
SPLINE
5
3AA
100
AcDbEntity
8
0
100
AcDbSpline
62
0
6
CONTINUOUS
70
0
71
3
72
8
73
4
74
2
42
0.0000001000
43
0.0000001000
44
0.0000000001
12
0.2365742125
22
0.0099911441
32
0.0000000000
13
0.2335064555
23
0.0400912338
33
0.0000000000
40
0.0000000000
40
0.0000000000
40
0.0000000000
40
0.0000000000
40
1.0000000000
40
1.0000000000
40
1.0000000000
40
1.0000000000
10
0.1204085071
20
-16.7483082610
30
0.0000000000
10
0.1992665779
20
-16.7449778796
30
0.0000000000
10
0.2778683590
20
-16.7368817589
30
0.0000000000
10
0.3557038442
20
-16.7235180142
30
0.0000000000
11
0.1204085071
21
-16.7483082610
31
0.0000000000
11
0.3557038442
21
-16.7235180142
31
0.0000000000
0
SPLINE
5
3AB
100
AcDbEntity
8
0
100
AcDbSpline
62
0
6
CONTINUOUS
70
0
71
3
72
8
73
4
74
2
42
0.0000001000
43
0.0000001000
44
0.0000000001
12
0.2275858562
22
0.0390747132
32
0.0000000000
13
0.2209529802
23
0.0687285123
33
0.0000000000
40
0.0000000000
40
0.0000000000
40
0.0000000000
40
0.0000000000
40
1.0000000000
40
1.0000000000
40
1.0000000000
40
1.0000000000
10
0.3557038442
20
-16.7235180142
30
0.0000000000
10
0.4315657962
20
-16.7104931098
30
0.0000000000
10
0.5066998189
20
-16.6924643183
30
0.0000000000
10
0.5803508123
20
-16.6695548142
30
0.0000000000
11
0.3557038442
21
-16.7235180142
31
0.0000000000
11
0.5803508123
21
-16.6695548142
31
0.0000000000
0
SPLINE
5
3AC
100
AcDbEntity
8
0
100
AcDbSpline
62
0
6
CONTINUOUS
70
0
71
3
72
8
73
4
74
2
42
0.0000001000
43
0.0000001000
44
0.0000000001
12
0.1205485351
22
0.0374972154
32
0.0000000000
13
0.1175319971
23
0.0461540357
33
0.0000000000
40
0.0000000000
40
0.0000000000
40
0.0000000000
40
0.0000000000
40
1.0000000000
40
1.0000000000
40
1.0000000000
40
1.0000000000
10
0.5803508123
20
-16.6695548142
30
0.0000000000
10
0.6205336573
20
-16.6570557424
30
0.0000000000
10
0.6602750602
20
-16.6431038654
30
0.0000000000
10
0.6994523925
20
-16.6277191869
30
0.0000000000
11
0.5803508123
21
-16.6695548142
31
0.0000000000
11
0.6994523925
21
-16.6277191869
31
0.0000000000
0
SPLINE
5
3AD
100
AcDbEntity
8
0
100
AcDbSpline
62
9
6
CONTINUOUS
70
0
71
3
72
10
73
6
74
4
42
0.0000001000
43
0.0000001000
44
0.0000000001
12
-0.0073504583
22
0.1498460573
32
0.0000000000
13
0.1330306824
23
0.0693592652
33
0.0000000000
40
0.0000000000
40
0.0000000000
40
0.0000000000
40
0.0000000000
40
0.3299451218
40
0.6833594529
40
1.0000000000
40
1.0000000000
40
1.0000000000
40
1.0000000000
10
-1.4624397425
20
-16.6920221598
30
0.0000000000
10
-1.4632481584
20
-16.6755418346
30
0.0000000000
10
-1.4567111454
20
-16.6409677737
30
0.0000000000
10
-1.4325570640
20
-16.5965844714
30
0.0000000000
10
-1.4071253657
20
-16.5730061538
30
0.0000000000
10
-1.3930843964
20
-16.5656855020
30
0.0000000000
11
-1.4624397425
21
-16.6920221598
31
0.0000000000
11
-1.4546116709
21
-16.6431446272
31
0.0000000000
11
-1.4290963298
21
-16.5966662626
31
0.0000000000
11
-1.3930843964
21
-16.5656855020
31
0.0000000000
0
SPLINE
5
3AE
100
AcDbEntity
8
0
100
AcDbSpline
62
9
6
CONTINUOUS
70
0
71
3
72
9
73
5
74
3
42
0.0000001000
43
0.0000001000
44
0.0000000001
12
0.0013846794
22
-0.0595637513
32
0.0000000000
13
0.0537838341
23
-0.0283679622
33
0.0000000000
40
0.0000000000
40
0.0000000000
40
0.0000000000
40
0.0000000000
40
0.6410153343
40
1.0000000000
40
1.0000000000
40
1.0000000000
40
1.0000000000
10
-1.7422545448
20
-8.9323094743
30
0.0000000000
10
-1.7419586779
20
-8.9450365670
30
0.0000000000
10
-1.7383411243
20
-8.9659917405
30
0.0000000000
10
-1.7226091268
20
-8.9803535603
30
0.0000000000
10
-1.7161732696
20
-8.9837481147
30
0.0000000000
11
-1.7422545448
21
-8.9323094743
31
0.0000000000
11
-1.7323430302
21
-8.9691925287
31
0.0000000000
11
-1.7161732696
21
-8.9837481147
31
0.0000000000
0
SPLINE
5
3AF
100
AcDbEntity
8
0
100
AcDbSpline
62
9
6
CONTINUOUS
70
0
71
3
72
10
73
6
74
4
42
0.0000001000
43
0.0000001000
44
0.0000000001
12
-0.0073504508
22
0.1498460657
32
0.0000000000
13
0.1330306835
23
0.0693592804
33
0.0000000000
40
0.0000000000
40
0.0000000000
40
0.0000000000
40
0.0000000000
40
0.3300116770
40
0.6834129449
40
1.0000000000
40
1.0000000000
40
1.0000000000
40
1.0000000000
10
-4.4322882234
20
-15.2070979194
30
0.0000000000
10
-4.4330968016
20
-15.1906142689
30
0.0000000000
10
-4.4265577534
20
-15.1560374328
30
0.0000000000
10
-4.4024013437
20
-15.1116554532
30
0.0000000000
10
-4.3769714642
20
-15.0880806825
30
0.0000000000
10
-4.3629328667
20
-15.0807612658
30
0.0000000000
11
-4.4322882234
21
-15.2070979194
31
0.0000000000
11
-4.4244567979
21
-15.1582108090
31
0.0000000000
11
-4.3989397191
21
-15.1117356310
31
0.0000000000
11
-4.3629328667
21
-15.0807612658
31
0.0000000000
0
SPLINE
5
3B0
100
AcDbEntity
8
0
100
AcDbSpline
62
9
6
CONTINUOUS
70
0
71
3
72
8
73
4
74
2
42
0.0000001000
43
0.0000001000
44
0.0000000001
12
-0.0163470994
22
0.2941782769
32
0.0000000000
13
-0.0160554546
23
0.2941957657
33
0.0000000000
40
0.0000000000
40
0.0000000000
40
0.0000000000
40
0.0000000000
40
1.0000000000
40
1.0000000000
40
1.0000000000
40
1.0000000000
10
-9.8956270275
20
-14.6035868430
30
0.0000000000
10
-9.9010760606
20
-14.5055274174
30
0.0000000000
10
-9.9064764514
20
-14.4074650482
30
0.0000000000
10
-9.9118282696
20
-14.3093997930
30
0.0000000000
11
-9.8956270275
21
-14.6035868430
31
0.0000000000
11
-9.9118282696
21
-14.3093997930
31
0.0000000000
0
SPLINE
5
3B1
100
AcDbEntity
8
0
100
AcDbSpline
62
9
6
CONTINUOUS
70
0
71
3
72
10
73
6
74
4
42
0.0000001000
43
0.0000001000
44
0.0000000001
12
-1.8868439343
22
34.5740129322
32
0.0000000000
13
1.8168923010
23
34.5775917656
33
0.0000000000
40
0.0000000000
40
0.0000000000
40
0.0000000000
40
0.0000000000
40
0.3213674105
40
0.6576172283
40
1.0000000000
40
1.0000000000
40
1.0000000000
40
1.0000000000
10
-9.9118282696
20
-14.3093997930
30
0.0000000000
10
-10.1139516526
20
-10.6057461243
30
0.0000000000
10
-10.3857858742
20
-3.0185000729
30
0.0000000000
10
-10.3819219845
20
8.5254943592
30
0.0000000000
10
-10.1029845681
20
16.3550242854
30
0.0000000000
10
-9.8956270275
20
20.3012815208
30
0.0000000000
11
-9.9118282696
21
-14.3093997930
31
0.0000000000
11
-10.3141097865
21
-3.1891825893
31
0.0000000000
11
-10.3141097873
21
8.4535660432
31
0.0000000000
11
-9.8956270275
21
20.3012815208
31
0.0000000000
0
SPLINE
5
3B2
100
AcDbEntity
8
0
100
AcDbSpline
62
9
6
CONTINUOUS
70
0
71
3
72
11
73
7
74
5
42
0.0000001000
43
0.0000001000
44
0.0000000001
12
0.0306914338
22
0.5784671042
32
0.0000000000
13
0.1886703985
23
0.5478886333
33
0.0000000000
40
0.0000000000
40
0.0000000000
40
0.0000000000
40
0.0000000000
40
0.2503731325
40
0.5460484028
40
0.8810564204
40
1.0000000000
40
1.0000000000
40
1.0000000000
40
1.0000000000
10
-9.8956270275
20
20.3012815208
30
0.0000000000
10
-9.8930655906
20
20.3495590611
30
0.0000000000
10
-9.8830895482
20
20.4546527252
30
0.0000000000
10
-9.8532761375
20
20.6223400364
30
0.0000000000
10
-9.8159116330
20
20.7623709569
30
0.0000000000
10
-9.7885675164
20
20.8456905096
30
0.0000000000
10
-9.7810871388
20
20.8674131213
30
0.0000000000
11
-9.8956270275
21
20.3012815208
31
0.0000000000
11
-9.8821298960
21
20.4456884602
31
0.0000000000
11
-9.8523883903
21
20.6143654687
31
0.0000000000
11
-9.8025729700
21
20.8019264941
31
0.0000000000
11
-9.7810871388
21
20.8674131213
31
0.0000000000
0
SPLINE
5
3B3
100
AcDbEntity
8
0
100
AcDbSpline
62
9
6
CONTINUOUS
70
0
71
3
72
8
73
4
74
2
42
0.0000001000
43
0.0000001000
44
0.0000000001
12
0.0230711383
22
0.0669973378
32
0.0000000000
13
0.0250467948
23
0.0662853535
33
0.0000000000
40
0.0000000000
40
0.0000000000
40
0.0000000000
40
0.0000000000
40
1.0000000000
40
1.0000000000
40
1.0000000000
40
1.0000000000
10
-9.7810871388
20
20.8674131213
30
0.0000000000
10
-9.7733967594
20
20.8897455673
30
0.0000000000
10
-9.7653726829
20
20.9119632011
30
0.0000000000
10
-9.7570237513
20
20.9340583190
30
0.0000000000
11
-9.7810871388
21
20.8674131213
31
0.0000000000
11
-9.7570237513
21
20.9340583190
31
0.0000000000
0
SPLINE
5
3B4
100
AcDbEntity
8
0
100
AcDbSpline
62
9
6
CONTINUOUS
70
0
71
3
72
9
73
5
74
3
42
0.0000001000
43
0.0000001000
44
0.0000000001
12
0.0514960081
22
0.1362821523
32
0.0000000000
13
0.0595298597
23
0.1329697730
33
0.0000000000
40
0.0000000000
40
0.0000000000
40
0.0000000000
40
0.0000000000
40
0.4956337275
40
1.0000000000
40
1.0000000000
40
1.0000000000
40
1.0000000000
10
-9.7570237513
20
20.9340583190
30
0.0000000000
10
-9.7485160318
20
20.9565736627
30
0.0000000000
10
-9.7306700937
20
21.0017443640
30
0.0000000000
10
-9.7114890472
20
21.0463639926
30
0.0000000000
10
-9.7014807627
20
21.0687191488
30
0.0000000000
11
-9.7570237513
21
20.9340583190
31
0.0000000000
11
-9.7304979611
21
21.0012145363
31
0.0000000000
11
-9.7014807627
21
21.0687191488
31
0.0000000000
0
SPLINE
5
3B5
100
AcDbEntity
8
0
100
AcDbSpline
62
9
6
CONTINUOUS
70
0
71
3
72
10
73
6
74
4
42
0.0000001000
43
0.0000001000
44
0.0000000001
12
0.2440557677
22
0.5451388630
32
0.0000000000
13
0.3712228466
23
0.4679552684
33
0.0000000000
40
0.0000000000
40
0.0000000000
40
0.0000000000
40
0.0000000000
40
0.2507045062
40
0.6297818463
40
1.0000000000
40
1.0000000000
40
1.0000000000
40
1.0000000000
10
-9.7014807627
20
21.0687191488
30
0.0000000000
10
-9.6810854692
20
21.1142754053
30
0.0000000000
10
-9.6263670880
20
21.2271555515
30
0.0000000000
10
-9.5260605173
20
21.3993843369
30
0.0000000000
10
-9.4391784859
20
21.5208692820
30
0.0000000000
10
-9.3933673403
20
21.5786177939
30
0.0000000000
11
-9.7014807627
21
21.0687191488
31
0.0000000000
11
-9.6361812001
21
21.2034469869
31
0.0000000000
11
-9.5221714793
21
21.3989738289
31
0.0000000000
11
-9.3933673403
21
21.5786177939
31
0.0000000000
0
SPLINE
5
3B6
100
AcDbEntity
8
0
100
AcDbSpline
62
9
6
CONTINUOUS
70
0
71
3
72
8
73
4
74
2
42
0.0000001000
43
0.0000001000
44
0.0000000001
12
0.1293500230
22
0.1630557636
32
0.0000000000
13
0.1448987874
23
0.1494209647
33
0.0000000000
40
0.0000000000
40
0.0000000000
40
0.0000000000
40
0.0000000000
40
1.0000000000
40
1.0000000000
40
1.0000000000
40
1.0000000000
10
-9.3933673403
20
21.5786177939
30
0.0000000000
10
-9.3502506660
20
21.6329697151
30
0.0000000000
10
-9.3045794935
20
21.6853056913
30
0.0000000000
10
-9.2562798978
20
21.7351126796
30
0.0000000000
11
-9.3933673403
21
21.5786177939
31
0.0000000000
11
-9.2562798978
21
21.7351126796
31
0.0000000000
0
SPLINE
5
3B7
100
AcDbEntity
8
0
100
AcDbSpline
62
9
6
CONTINUOUS
70
0
71
3
72
10
73
6
74
4
42
0.0000001000
43
0.0000001000
44
0.0000000001
12
0.3148355075
22
0.3246612763
32
0.0000000000
13
0.3919362889
23
0.2255609747
33
0.0000000000
40
0.0000000000
40
0.0000000000
40
0.0000000000
40
0.0000000000
40
0.4182616949
40
0.7859305933
40
1.0000000000
40
1.0000000000
40
1.0000000000
40
1.0000000000
10
-9.2562798978
20
21.7351126796
30
0.0000000000
10
-9.2123853534
20
21.7803771381
30
0.0000000000
10
-9.1258266234
20
21.8615060863
30
0.0000000000
10
-9.0056159446
20
21.9527966482
30
0.0000000000
10
-8.9312122398
20
21.9993782661
30
0.0000000000
10
-8.9032450502
20
22.0154735008
30
0.0000000000
11
-9.2562798978
21
21.7351126796
31
0.0000000000
11
-9.1180118655
21
21.8640717260
31
0.0000000000
11
-8.9853651023
21
21.9642122054
31
0.0000000000
11
-8.9032450502
21
22.0154735008
31
0.0000000000
0
SPLINE
5
3B8
100
AcDbEntity
8
0
100
AcDbSpline
62
9
6
CONTINUOUS
70
0
71
3
72
8
73
4
74
2
42
0.0000001000
43
0.0000001000
44
0.0000000001
12
0.0385315443
22
0.0221750650
32
0.0000000000
13
0.0392704138
23
0.0208042650
33
0.0000000000
40
0.0000000000
40
0.0000000000
40
0.0000000000
40
0.0000000000
40
1.0000000000
40
1.0000000000
40
1.0000000000
40
1.0000000000
10
-8.9032450502
20
22.0154735008
30
0.0000000000
10
-8.8904012021
20
22.0228651891
30
0.0000000000
10
-8.8774333524
20
22.0300362728
30
0.0000000000
10
-8.8643432144
20
22.0369710278
30
0.0000000000
11
-8.9032450502
21
22.0154735008
31
0.0000000000
11
-8.8643432144
21
22.0369710278
31
0.0000000000
0
SPLINE
5
3B9
100
AcDbEntity
8
0
100
AcDbSpline
62
9
6
CONTINUOUS
70
0
71
3
72
10
73
6
74
4
42
0.0000001000
43
0.0000001000
44
0.0000000001
12
-0.0073795612
22
-0.5126264466
32
0.0000000000
13
-0.4741040210
23
-0.2130766527
33
0.0000000000
40
0.0000000000
40
0.0000000000
40
0.0000000000
40
0.0000000000
40
0.4862828883
40
0.8868298685
40
1.0000000000
40
1.0000000000
40
1.0000000000
40
1.0000000000
10
5.8454661264
20
-21.9532433732
30
0.0000000000
10
5.8442699416
20
-22.0363371962
30
0.0000000000
10
5.8218882266
20
-22.1896408834
30
0.0000000000
10
5.7201957569
20
-22.3391973344
30
0.0000000000
10
5.6427646974
20
-22.3831269505
30
0.0000000000
10
5.6248798926
20
-22.3911649214
30
0.0000000000
11
5.8454661264
21
-21.9532433732
31
0.0000000000
11
5.7993380038
21
-22.1982460770
31
0.0000000000
11
5.6756578146
21
-22.3621751997
31
0.0000000000
11
5.6248798926
21
-22.3911649214
31
0.0000000000
0
SPLINE
5
3BA
100
AcDbEntity
8
0
100
AcDbSpline
62
9
6
CONTINUOUS
70
0
71
3
72
18
73
14
74
12
42
0.0000001000
43
0.0000001000
44
0.0000000001
12
-0.8765860662
22
-0.4416718955
32
0.0000000000
13
-0.0533809651
23
-0.9801161499
33
0.0000000000
40
0.0000000000
40
0.0000000000
40
0.0000000000
40
0.0000000000
40
0.0667654645
40
0.1454516628
40
0.2350251949
40
0.3336630502
40
0.4385948085
40
0.5462355241
40
0.6526150759
40
0.7539438650
40
0.8470678278
40
0.9296395459
40
1.0000000000
40
1.0000000000
40
1.0000000000
40
1.0000000000
10
5.8454661264
20
13.9893515543
30
0.0000000000
10
5.8259575677
20
13.9795220779
30
0.0000000000
10
5.7846273131
20
13.9557283504
30
0.0000000000
10
5.7222225663
20
13.9105677530
30
0.0000000000
10
5.6570277734
20
13.8522342668
30
0.0000000000
10
5.5922637015
20
13.7812720900
30
0.0000000000
10
5.5312313344
20
13.6995647418
30
0.0000000000
10
5.4769553272
20
13.6102491353
30
0.0000000000
10
5.4317540903
20
13.5173333055
30
0.0000000000
10
5.3969197558
20
13.4251287269
30
0.0000000000
10
5.3726076650
20
13.3376833472
30
0.0000000000
10
5.3579362744
20
13.2584249732
30
0.0000000000
10
5.3530303605
20
13.2085612349
30
0.0000000000
10
5.3517783908
20
13.1855740957
30
0.0000000000
11
5.8454661264
21
13.9893515543
31
0.0000000000
11
5.7885854758
21
13.9568029170
31
0.0000000000
11
5.7258955281
21
13.9116879898
31
0.0000000000
11
5.6602368476
21
13.8532130583
31
0.0000000000
11
5.5948403154
21
13.7818171612
31
0.0000000000
11
5.5331063780
21
13.6993704864
31
0.0000000000
11
5.4781933684
21
13.6091046973
31
0.0000000000
11
5.4325308105
21
13.5151992899
31
0.0000000000
11
5.3974498252
21
13.4221302338
31
0.0000000000
11
5.3730703014
21
13.3340337932
31
0.0000000000
11
5.3584362834
21
13.2543160510
31
0.0000000000
11
5.3517783908
21
13.1855740957
31
0.0000000000
0
SPLINE
5
3BB
100
AcDbEntity
8
0
100
AcDbSpline
62
9
6
CONTINUOUS
70
0
71
3
72
18
73
14
74
12
42
0.0000001000
43
0.0000001000
44
0.0000000001
12
-1.8693923319
22
-0.9592275435
32
0.0000000000
13
-0.1131929919
23
-2.0980782915
33
0.0000000000
40
0.0000000000
40
0.0000000000
40
0.0000000000
40
0.0000000000
40
0.0665144299
40
0.1449942886
40
0.2344289538
40
0.3330056776
40
0.4379500889
40
0.5456620358
40
0.6521508765
40
0.7536066350
40
0.8468578177
40
0.9295442229
40
1.0000000000
40
1.0000000000
40
1.0000000000
40
1.0000000000
10
5.2798668580
20
14.9648659916
30
0.0000000000
10
5.2384196697
20
14.9435985005
30
0.0000000000
10
5.1506087505
20
14.8921681214
30
0.0000000000
10
5.0180878131
20
14.7947539609
30
0.0000000000
10
4.8796466210
20
14.6690798973
30
0.0000000000
10
4.7421305091
20
14.5163494543
30
0.0000000000
10
4.6125524429
20
14.3406424307
30
0.0000000000
10
4.4973344328
20
14.1487207376
30
0.0000000000
10
4.4013925648
20
13.9491994816
30
0.0000000000
10
4.3274608243
20
13.7513236605
30
0.0000000000
10
4.2758610525
20
13.5637544972
30
0.0000000000
10
4.2447188637
20
13.3938108825
30
0.0000000000
10
4.2343023807
20
13.2869199123
30
0.0000000000
10
4.2316440139
20
13.2376460001
30
0.0000000000
11
5.2798668580
21
14.9648659916
31
0.0000000000
11
5.1590856011
21
14.8945561887
31
0.0000000000
11
5.0259602883
21
14.7972501968
31
0.0000000000
11
4.8865267400
21
14.6712744576
31
0.0000000000
11
4.7476535185
21
14.5176061697
31
0.0000000000
11
4.6165695047
21
14.3402984587
31
0.0000000000
11
4.4999843454
21
14.1463212139
31
0.0000000000
11
4.4030520585
21
13.9446611479
31
0.0000000000
11
4.3285894638
21
13.7449175871
31
0.0000000000
11
4.2768427902
21
13.5559415353
31
0.0000000000
11
4.2457791089
21
13.3850063309
31
0.0000000000
11
4.2316440139
21
13.2376460001
31
0.0000000000
0
SPLINE
5
3BC
100
AcDbEntity
8
0
100
AcDbSpline
62
9
6
CONTINUOUS
70
0
71
3
72
11
73
7
74
5
42
0.0000001000
43
0.0000001000
44
0.0000000001
12
-0.0171007920
22
1.1714044393
32
0.0000000000
13
-1.0401915471
23
0.5389641388
33
0.0000000000
40
0.0000000000
40
0.0000000000
40
0.0000000000
40
0.0000000000
40
0.2465056357
40
0.5120768054
40
0.7710554147
40
1.0000000000
40
1.0000000000
40
1.0000000000
40
1.0000000000
10
5.8454661264
20
13.9893515543
30
0.0000000000
10
5.8440609792
20
14.0856041529
30
0.0000000000
10
5.8084740118
20
14.2853669261
30
0.0000000000
10
5.6869159285
20
14.5634345833
30
0.0000000000
10
5.5108596434
20
14.8021335550
30
0.0000000000
10
5.3592489322
20
14.9237350178
30
0.0000000000
10
5.2798668580
20
14.9648659916
30
0.0000000000
11
5.8454661264
21
13.9893515543
31
0.0000000000
11
5.7993380222
21
14.2744323019
31
0.0000000000
11
5.6756578573
21
14.5599171630
31
0.0000000000
11
5.4932475775
21
14.8023602845
31
0.0000000000
11
5.2798668580
21
14.9648659916
31
0.0000000000
0
SPLINE
5
3BD
100
AcDbEntity
8
0
100
AcDbSpline
62
9
6
CONTINUOUS
70
0
71
3
72
8
73
4
74
2
42
0.0000001000
43
0.0000001000
44
0.0000000001
12
-0.1982410534
22
-3.6400970363
32
0.0000000000
13
-0.1585702813
23
-3.6422182894
33
0.0000000000
40
0.0000000000
40
0.0000000000
40
0.0000000000
40
0.0000000000
40
1.0000000000
40
1.0000000000
40
1.0000000000
40
1.0000000000
10
5.3517783908
20
13.1855740957
30
0.0000000000
10
5.2856980397
20
11.9722084170
30
0.0000000000
10
5.2261747886
20
10.7584464333
30
0.0000000000
10
5.1733180282
20
9.5443736701
30
0.0000000000
11
5.3517783908
21
13.1855740957
31
0.0000000000
11
5.1733180282
21
9.5443736701
31
0.0000000000
0
SPLINE
5
3BE
100
AcDbEntity
8
0
100
AcDbSpline
62
9
6
CONTINUOUS
70
0
71
3
72
8
73
4
74
2
42
0.0000001000
43
0.0000001000
44
0.0000000001
12
-0.0137966830
22
-0.3168975340
32
0.0000000000
13
-0.0134936679
23
-0.3169114809
33
0.0000000000
40
0.0000000000
40
0.0000000000
40
0.0000000000
40
0.0000000000
40
1.0000000000
40
1.0000000000
40
1.0000000000
40
1.0000000000
10
5.1733180282
20
9.5443736701
30
0.0000000000
10
5.1687191339
20
9.4387411588
30
0.0000000000
10
5.1641707060
20
9.3331062948
30
0.0000000000
10
5.1596728167
20
9.2274691345
30
0.0000000000
11
5.1733180282
21
9.5443736701
31
0.0000000000
11
5.1596728167
21
9.2274691345
31
0.0000000000
0
SPLINE
5
3BF
100
AcDbEntity
8
0
100
AcDbSpline
62
9
6
CONTINUOUS
70
0
71
3
72
10
73
6
74
4
42
0.0000001000
43
0.0000001000
44
0.0000000001
12
-0.9074120856
22
-21.3114261634
32
0.0000000000
13
0.5322635020
23
-21.3247999792
33
0.0000000000
40
0.0000000000
40
0.0000000000
40
0.0000000000
40
0.0000000000
40
0.3682164301
40
0.9126142399
40
1.0000000000
40
1.0000000000
40
1.0000000000
40
1.0000000000
10
5.1596728167
20
9.2274691345
30
0.0000000000
10
5.0482981371
20
6.6117300469
30
0.0000000000
10
4.8490592346
20
0.1252034773
30
0.0000000000
10
4.8466789421
20
-6.9861492840
30
0.0000000000
10
4.9448562665
20
-11.4773712269
30
0.0000000000
10
4.9603603500
20
-12.0985325117
30
0.0000000000
11
5.1596728167
21
9.2274691345
31
0.0000000000
11
4.9196033453
21
1.3768832513
31
0.0000000000
11
4.9196043128
21
-10.2349248727
31
0.0000000000
11
4.9603603500
21
-12.0985325117
31
0.0000000000
0
SPLINE
5
3C0
100
AcDbEntity
8
0
100
AcDbSpline
62
9
6
CONTINUOUS
70
0
71
3
72
8
73
4
74
2
42
0.0000001000
43
0.0000001000
44
0.0000000001
12
0.2379524839
22
-9.5334155062
32
0.0000000000
13
0.5472348622
23
-9.5198627980
33
0.0000000000
40
0.0000000000
40
0.0000000000
40
0.0000000000
40
0.0000000000
40
1.0000000000
40
1.0000000000
40
1.0000000000
40
1.0000000000
10
4.9603603500
20
-12.0985325117
30
0.0000000000
10
5.0396778447
20
-15.2763376804
30
0.0000000000
10
5.1693667701
20
-18.4529270198
30
0.0000000000
10
5.3517783908
20
-21.6262146191
30
0.0000000000
11
4.9603603500
21
-12.0985325117
31
0.0000000000
11
5.3517783908
21
-21.6262146191
31
0.0000000000
0
SPLINE
5
3C1
100
AcDbEntity
8
0
100
AcDbSpline
62
9
6
CONTINUOUS
70
0
71
3
72
8
73
4
74
2
42
0.0000001000
43
0.0000001000
44
0.0000000001
12
-0.1788987403
22
-3.2850804722
32
0.0000000000
13
-0.1467028019
23
-3.2868242087
33
0.0000000000
40
0.0000000000
40
0.0000000000
40
0.0000000000
40
0.0000000000
40
1.0000000000
40
1.0000000000
40
1.0000000000
40
1.0000000000
10
4.2316440139
20
13.2376460001
30
0.0000000000
10
4.1720111005
20
12.1426191760
30
0.0000000000
10
4.1177041998
20
11.0472704673
30
0.0000000000
10
4.0688032658
20
9.9516623977
30
0.0000000000
11
4.2316440139
21
13.2376460001
31
0.0000000000
11
4.0688032658
21
9.9516623977
31
0.0000000000
0
SPLINE
5
3C2
100
AcDbEntity
8
0
100
AcDbSpline
62
9
6
CONTINUOUS
70
0
71
3
72
8
73
4
74
2
42
0.0000001000
43
0.0000001000
44
0.0000000001
12
-0.0043364828
22
-0.0971573570
32
0.0000000000
13
-0.0043081350
23
-0.0971587118
33
0.0000000000
40
0.0000000000
40
0.0000000000
40
0.0000000000
40
0.0000000000
40
1.0000000000
40
1.0000000000
40
1.0000000000
40
1.0000000000
10
4.0688032658
20
9.9516623977
30
0.0000000000
10
4.0673577716
20
9.9192766121
30
0.0000000000
10
4.0659170009
20
9.8868905998
30
0.0000000000
10
4.0644809559
20
9.8545043625
30
0.0000000000
11
4.0688032658
21
9.9516623977
31
0.0000000000
11
4.0644809559
21
9.8545043625
31
0.0000000000
0
SPLINE
5
3C3
100
AcDbEntity
8
0
100
AcDbSpline
62
9
6
CONTINUOUS
70
0
71
3
72
10
73
6
74
4
42
0.0000001000
43
0.0000001000
44
0.0000000001
12
-0.9553210748
22
-21.5447668489
32
0.0000000000
13
0.5089868007
23
-21.5607300257
33
0.0000000000
40
0.0000000000
40
0.0000000000
40
0.0000000000
40
0.0000000000
40
0.3923511252
40
0.9322435197
40
1.0000000000
40
1.0000000000
40
1.0000000000
40
1.0000000000
10
4.0644809559
20
9.8545043625
30
0.0000000000
10
3.9395405231
20
7.0367998577
30
0.0000000000
10
3.7276701194
20
0.3377632082
30
0.0000000000
10
3.7252631226
20
-6.8520406064
30
0.0000000000
10
3.8178010895
20
-11.2193950188
30
0.0000000000
10
3.8292968075
20
-11.7063547452
30
0.0000000000
11
4.0644809559
21
9.8545043625
31
0.0000000000
11
3.7983327821
21
1.3973447585
31
0.0000000000
11
3.7983327809
21
-10.2454038730
31
0.0000000000
11
3.8292968075
21
-11.7063547452
31
0.0000000000
0
SPLINE
5
3C4
100
AcDbEntity
8
0
100
AcDbSpline
62
9
6
CONTINUOUS
70
0
71
3
72
8
73
4
74
2
42
0.0000001000
43
0.0000001000
44
0.0000000001
12
0.0037011822
22
-0.1567824339
32
0.0000000000
13
0.0037825640
23
-0.1567805828
33
0.0000000000
40
0.0000000000
40
0.0000000000
40
0.0000000000
40
0.0000000000
40
1.0000000000
40
1.0000000000
40
1.0000000000
40
1.0000000000
10
3.8292968075
20
-11.7063547452
30
0.0000000000
10
3.8305305349
20
-11.7586155565
30
0.0000000000
10
3.8317778208
20
-11.8108760639
30
0.0000000000
10
3.8330386754
20
-11.8631362582
30
0.0000000000
11
3.8292968075
21
-11.7063547452
31
0.0000000000
11
3.8330386754
21
-11.8631362582
31
0.0000000000
0
SPLINE
5
3C5
100
AcDbEntity
8
0
100
AcDbSpline
62
9
6
CONTINUOUS
70
0
71
3
72
8
73
4
74
2
42
0.0000001000
43
0.0000001000
44
0.0000000001
12
0.2366813863
22
-9.8100244766
32
0.0000000000
13
0.5630783880
23
-9.7958873015
33
0.0000000000
40
0.0000000000
40
0.0000000000
40
0.0000000000
40
0.0000000000
40
1.0000000000
40
1.0000000000
40
1.0000000000
40
1.0000000000
10
3.8330386754
20
-11.8631362582
30
0.0000000000
10
3.9119324709
20
-15.1331444170
30
0.0000000000
10
4.0439512179
20
-18.4019265966
30
0.0000000000
10
4.2316440139
20
-21.6672223637
30
0.0000000000
11
3.8330386754
21
-11.8631362582
31
0.0000000000
11
4.2316440139
21
-21.6672223637
31
0.0000000000
0
SPLINE
5
3C6
100
AcDbEntity
8
0
100
AcDbSpline
62
9
6
CONTINUOUS
70
0
71
3
72
11
73
7
74
5
42
0.0000001000
43
0.0000001000
44
0.0000000001
12
-1.0641376588
22
-0.4275454507
32
0.0000000000
13
-1.0251216767
23
0.5141105107
33
0.0000000000
40
0.0000000000
40
0.0000000000
40
0.0000000000
40
0.0000000000
40
0.2328718370
40
0.4973491083
40
0.7632438455
40
1.0000000000
40
1.0000000000
40
1.0000000000
40
1.0000000000
10
5.3517783908
20
13.1855740957
30
0.0000000000
10
5.2691758270
20
13.1523863309
30
0.0000000000
10
5.0818376914
20
13.1089624618
30
0.0000000000
10
4.7890245701
20
13.0978031889
30
0.0000000000
10
4.4970345619
20
13.1364197495
30
0.0000000000
10
4.3125453305
20
13.1970730692
30
0.0000000000
10
4.2316440418
20
13.2376460117
30
0.0000000000
11
5.3517783908
21
13.1855740957
31
0.0000000000
11
5.0929826687
21
13.1196478056
31
0.0000000000
11
4.7899660757
21
13.1063911736
31
0.0000000000
11
4.4878557966
21
13.1477784630
31
0.0000000000
11
4.2316440418
21
13.2376460117
31
0.0000000000
0
SPLINE
5
3C7
100
AcDbEntity
8
0
100
AcDbSpline
62
9
6
CONTINUOUS
70
0
71
3
72
9
73
5
74
3
42
0.0000001000
43
0.0000001000
44
0.0000000001
12
0.0766153464
22
0.0215323744
32
0.0000000000
13
0.0721875085
23
0.0333382358
33
0.0000000000
40
0.0000000000
40
0.0000000000
40
0.0000000000
40
0.0000000000
40
0.2593682316
40
1.0000000000
40
1.0000000000
40
1.0000000000
40
1.0000000000
10
5.7709739516
20
-21.9809581278
30
0.0000000000
10
5.7775978139
20
-21.9790965231
30
0.0000000000
10
5.8029724001
20
-21.9713324668
30
0.0000000000
10
5.8276446723
20
-21.9614738254
30
0.0000000000
10
5.8454661264
20
-21.9532433732
30
0.0000000000
11
5.7709739516
21
-21.9809581278
31
0.0000000000
11
5.7907132911
21
-21.9749281173
31
0.0000000000
11
5.8454661264
21
-21.9532433732
31
0.0000000000
0
SPLINE
5
3C8
100
AcDbEntity
8
0
100
AcDbSpline
62
9
6
CONTINUOUS
70
0
71
3
72
11
73
7
74
5
42
0.0000001000
43
0.0000001000
44
0.0000000001
12
-1.0068615705
22
-0.5677813647
32
0.0000000000
13
-1.0344439916
23
0.5158212174
33
0.0000000000
40
0.0000000000
40
0.0000000000
40
0.0000000000
40
0.0000000000
40
0.2403894125
40
0.5051907545
40
0.7671872688
40
1.0000000000
40
1.0000000000
40
1.0000000000
40
1.0000000000
10
5.3517783908
20
-21.6262146191
30
0.0000000000
10
5.2710987704
20
-21.6717108287
30
0.0000000000
10
5.0860842206
20
-21.7401237998
30
0.0000000000
10
4.7914251811
20
-21.7807936801
30
0.0000000000
10
4.4974979352
20
-21.7623194825
30
0.0000000000
10
4.3119215522
20
-21.7072521076
30
0.0000000000
10
4.2316443086
20
-21.6672221921
30
0.0000000000
11
5.3517783908
21
-21.6262146191
31
0.0000000000
11
5.0929827339
21
-21.7273915144
31
0.0000000000
11
4.7899662216
21
-21.7706490072
31
0.0000000000
11
4.4878560166
21
-21.7495449141
31
0.0000000000
11
4.2316443086
21
-21.6672221921
31
0.0000000000
0
SPLINE
5
3C9
100
AcDbEntity
8
0
100
AcDbSpline
62
9
6
CONTINUOUS
70
0
71
3
72
8
73
4
74
2
42
0.0000001000
43
0.0000001000
44
0.0000000001
12
-0.1997084068
22
0.1572999509
32
0.0000000000
13
-0.1922617773
23
0.1659732314
33
0.0000000000
40
0.0000000000
40
0.0000000000
40
0.0000000000
40
0.0000000000
40
1.0000000000
40
1.0000000000
40
1.0000000000
40
1.0000000000
10
-5.2207052008
20
-14.7003687986
30
0.0000000000
10
-5.2872746697
20
-14.6479354816
30
0.0000000000
10
-5.3525909252
20
-14.5939992586
30
0.0000000000
10
-5.4166781843
20
-14.5386748481
30
0.0000000000
11
-5.2207052008
21
-14.7003687986
31
0.0000000000
11
-5.4166781843
21
-14.5386748481
31
0.0000000000
0
ENDSEC
0
SECTION
2
OBJECTS
0
DICTIONARY
5
C
100
AcDbDictionary
280
0
281
1
3
ACAD_GROUP
350
D
3
ACAD_MLINESTYLE
350
17
3
ACAD_LAYOUT
350
1A
3
ACAD_PLOTSETTINGS
350
19
3
ACAD_PLOTSTYLENAME
350
E
0
DICTIONARY
5
D
102
{ACAD_REACTORS
330
C
102
}
100
AcDbDictionary
280
0
281
1
0
ACDBDICTIONARYWDFLT
5
E
102
{ACAD_REACTORS
330
C
102
}
100
AcDbDictionary
281
1
3
Normal
350
F
100
AcDbDictionaryWithDefault
340
F
0
DICTIONARY
5
17
102
{ACAD_REACTORS
330
C
102
}
100
AcDbDictionary
280
0
281
1
3
Standard
350
18
0
DICTIONARY
5
19
102
{ACAD_REACTORS
330
C
102
}
100
AcDbDictionary
281
1
0
DICTIONARY
5
1A
102
{ACAD_REACTORS
330
C
102
}
100
AcDbDictionary
281
1
3
Layout1
350
1E
3
Model
350
22
0
ACDBPLACEHOLDER
5
F
102
{ACAD_REACTORS
330
E
102
}
0
MLINESTYLE
5
18
102
{ACAD_REACTORS
330
17
102
}
100
AcDbMlineStyle
2
STANDARD
70
0
3

62
256
51
90.0
52
90.0
71
2
49
0.5
62
256
6
BYLAYER
49
-0.5
62
256
6
BYLAYER
0
LAYOUT
5
1E
102
{ACAD_REACTORS
330
1A
102
}
100
AcDbPlotSettings
1

2

4

6

40
0.0
41
0.0
42
0.0
43
0.0
44
0.0
45
0.0
46
0.0
47
0.0
48
0.0
49
0.0
140
0.0
141
0.0
142
1.0
143
1.0
70
0
72
0
73
0
74
0
7

75
0
147
1.0
148
0.0
149
0.0
100
AcDbLayout
1
Layout1
70
0
71
0
10
0.0
20
0.0
11
0.0
21
0.0
12
0.0
22
0.0
32
0.0
14
0.0
24
0.0
34
0.0
15
0.0
25
0.0
35
0.0
146
0.0
13
0.0
23
0.0
33
0.0
16
0.0
26
0.0
36
0.0
17
0.0
27
0.0
37
0.0
76
0
330
1B
331
0
345
0
346
0
0
LAYOUT
5
22
102
{ACAD_REACTORS
330
1A
102
}
100
AcDbPlotSettings
1

2

4

6

40
0.0
41
0.0
42
0.0
43
0.0
44
0.0
45
0.0
46
0.0
47
0.0
48
0.0
49
0.0
140
0.0
141
0.0
142
1.0
143
1.0
70
0
72
0
73
0
74
0
7

75
0
147
1.0
148
0.0
149
0.0
100
AcDbLayout
1
Model
70
0
71
0
10
0.0
20
0.0
11
0.0
21
0.0
12
0.0
22
0.0
32
0.0
14
0.0
24
0.0
34
0.0
15
0.0
25
0.0
35
0.0
146
0.0
13
0.0
23
0.0
33
0.0
16
0.0
26
0.0
36
0.0
17
0.0
27
0.0
37
0.0
76
0
330
1F
331
0
345
0
346
0
0
ENDSEC
0
EOF
