  0
SECTION
  2
HEADER
  9
$ACADVER
  1
AC1015
  9
$DWGCODEPAGE
  3
ANSI_1252
  9
$EXTMAX
 10
297.0
 20
210.0
 30
0.0
  9
$EXTMIN
 10
0.0
 20
0.0
 30
0.0
  9
$LIMMIN
 10
0.0
 20
0.0
  9
$LIMMAX
 10
297.0
 20
210.0
  9
$VIEWCTR
 10
148.5
 20
105.0
  9
$VIEWSIZE
 40
210.0
  9
$CLAYER
  8
0
  9
$LTSCALE
 40
16.335
  9
$CELTYPE
  6
BYLAYER
  9
$DIMSCALE
 40
1.0
  9
$DIMASZ
 40
3.0
  9
$DIMEXO
 40
1.85625
  9
$DIMDLI
 40
11.286
  9
$DIMEXE
 40
5.346
  9
$DIMCEN
 40
2.673
  9
$DIMLFAC
 40
1.0
  9
$DIMBLK
  1
_FILLED
  9
$DIMTXT
 40
3.0
  9
$DIMTOL
 70
1
  9
$DIMLIM
 70
0
  9
$DIMTFAC
 40
1.0
  9
$DIMTP
 40
0.01
  9
$DIMTM
 40
0.01
  9
$PDMODE
 70
3
  9
$PDSIZE
 40
3.0
  9
$HANDSEED
  5
28D
  9
$TILEMODE
 70
1
  9
$MEASUREMENT
 70
1
  9
$INSUNITS
 70
4
  0
ENDSEC
  0
SECTION
  2
CLASSES
  0
CLASS
  1
ACDBDICTIONARYWDFLT
  2
AcDbDictionaryWithDefault
  3
AutoCAD 2000
 90
0
280
0
281
0
  0
CLASS
  1
ACDBPLACEHOLDER
  2
AcDbPlaceHolder
  3
AutoCAD 2000
 90
0
280
0
281
0
  0
CLASS
  1
LAYOUT
  2
AcDbLayout
  3
AutoCAD 2000
 90
0
280
0
281
0
  0
ENDSEC
  0
SECTION
  2
TABLES
  0
TABLE
  2
VPORT
  5
8
100
AcDbSymbolTable
 70
2
  0
VPORT
  5
1F4
100
AcDbSymbolTableRecord
100
AcDbViewportTableRecord
  2
*ACTIVE
 70
0
 10
0.0
 20
0.0
 11
1.0
 21
1.0
 12
148.5
 22
105.0
 13
0.0
 23
0.0
 14
1.0
 24
1.0
 15
0.0
 25
0.0
 16
0.0
 26
0.0
 36
1.0
 17
0.0
 27
0.0
 37
0.0
 40
210.0
 41
1.4142857143
 42
50.0
 43
0.0
 44
0.0
 50
0.0
 51
0.0
 71
0
 72
100
 73
1
 74
1
 75
0
 76
0
 77
0
 78
0
  0
ENDTAB
  0
TABLE
  2
LTYPE
  5
5
100
AcDbSymbolTable
 70
6
  0
LTYPE
  5
14
100
AcDbSymbolTableRecord
100
AcDbLinetypeTableRecord
  2
BYBLOCK
 70
0
  3

 72
65
 73
0
 40
0.0
  0
LTYPE
  5
15
100
AcDbSymbolTableRecord
100
AcDbLinetypeTableRecord
  2
BYLAYER
 70
0
  3

 72
65
 73
0
 40
0.0
  0
LTYPE
  5
16
100
AcDbSymbolTableRecord
100
AcDbLinetypeTableRecord
  2
CONTINUOUS
 70
64
  3
Solid line
 72
65
 73
0
 40
0.0
  0
LTYPE
  5
1F5
100
AcDbSymbolTableRecord
100
AcDbLinetypeTableRecord
  2
CENTER
 70
64
  3
____ _ ____ _ ____ _ ____ _ ____ _ ____ _ ____
 72
65
 73
4
 40
0.6
 49
0.375
 74
0
 49
-0.075
 74
0
 49
0.075
 74
0
 49
-0.075
 74
0
  0
LTYPE
  5
1F6
100
AcDbSymbolTableRecord
100
AcDbLinetypeTableRecord
  2
HIDDEN
 70
64
  3
- - - - - - - - - - - - - - - - - - - -
 72
65
 73
2
 40
0.2
 49
0.1
 74
0
 49
-0.1
 74
0
  0
LTYPE
  5
1F7
100
AcDbSymbolTableRecord
100
AcDbLinetypeTableRecord
  2
PHANTOM
 70
64
  3
_____ _ _ _____ _ _ _____ _ _ _____
 72
65
 73
6
 40
0.8
 49
0.45
 74
0
 49
-0.05
 74
0
 49
0.1
 74
0
 49
-0.05
 74
0
 49
0.1
 74
0
 49
-0.05
 74
0
  0
LTYPE
  5
1F8
100
AcDbSymbolTableRecord
100
AcDbLinetypeTableRecord
  2
DOT
 70
64
  3
. . . . . . . . . . . . . . . . . . . .
 72
65
 73
2
 40
0.2
 49
0.1
 74
0
 49
-0.1
 74
0
  0
LTYPE
  5
1F9
100
AcDbSymbolTableRecord
100
AcDbLinetypeTableRecord
  2
DASHED
 70
64
  3
- - - - - - - - - - - - - - - - - - - -
 72
65
 73
2
 40
0.2
 49
0.1
 74
0
 49
-0.1
 74
0
  0
ENDTAB
  0
TABLE
  2
LAYER
  5
2
100
AcDbSymbolTable
 70
36
  0
LAYER
  5
10
100
AcDbSymbolTableRecord
100
AcDbLayerTableRecord
  2
0
 70
0
 62
7
  6
CONTINUOUS
370
-3
390
F
  0
LAYER
  5
1FA
100
AcDbSymbolTableRecord
100
AcDbLayerTableRecord
  2
DEFAULT_1
 70
0
 62
7
  6
CENTER
370
-3
390
F
  0
LAYER
  5
1FB
100
AcDbSymbolTableRecord
100
AcDbLayerTableRecord
  2
DEFAULT_2
 70
0
 62
7
  6
HIDDEN
370
-3
390
F
  0
LAYER
  5
1FC
100
AcDbSymbolTableRecord
100
AcDbLayerTableRecord
  2
DEFAULT_3
 70
0
 62
7
  6
PHANTOM
370
-3
390
F
  0
LAYER
  5
1FD
100
AcDbSymbolTableRecord
100
AcDbLayerTableRecord
  2
ASSI
 70
0
 62
7
  6
CONTINUOUS
370
-3
390
F
  0
LAYER
  5
1FE
100
AcDbSymbolTableRecord
100
AcDbLayerTableRecord
  2
COORDINATE
 70
0
 62
7
  6
CONTINUOUS
370
-3
390
F
  0
LAYER
  5
1FF
100
AcDbSymbolTableRecord
100
AcDbLayerTableRecord
  2
COORD_ORIGINE
 70
0
 62
7
  6
CONTINUOUS
370
-3
390
F
  0
LAYER
  5
200
100
AcDbSymbolTableRecord
100
AcDbLayerTableRecord
  2
COPY_PUBLISH
 70
0
 62
7
  6
CONTINUOUS
370
-3
390
F
  0
LAYER
  5
201
100
AcDbSymbolTableRecord
100
AcDbLayerTableRecord
  2
COSMETIC
 70
0
 62
7
  6
CONTINUOUS
370
-3
390
F
  0
LAYER
  5
202
100
AcDbSymbolTableRecord
100
AcDbLayerTableRecord
  2
CURVE
 70
0
 62
7
  6
CONTINUOUS
370
-3
390
F
  0
LAYER
  5
203
100
AcDbSymbolTableRecord
100
AcDbLayerTableRecord
  2
DRAFT
 70
0
 62
7
  6
CONTINUOUS
370
-3
390
F
  0
LAYER
  5
204
100
AcDbSymbolTableRecord
100
AcDbLayerTableRecord
  2
IMPORT_IGES
 70
0
 62
7
  6
CONTINUOUS
370
-3
390
F
  0
LAYER
  5
205
100
AcDbSymbolTableRecord
100
AcDbLayerTableRecord
  2
NOTE
 70
0
 62
7
  6
CONTINUOUS
370
-3
390
F
  0
LAYER
  5
206
100
AcDbSymbolTableRecord
100
AcDbLayerTableRecord
  2
PIANI
 70
0
 62
7
  6
CONTINUOUS
370
-3
390
F
  0
LAYER
  5
207
100
AcDbSymbolTableRecord
100
AcDbLayerTableRecord
  2
PIANI_ORIGINE
 70
0
 62
7
  6
CONTINUOUS
370
-3
390
F
  0
LAYER
  5
208
100
AcDbSymbolTableRecord
100
AcDbLayerTableRecord
  2
PUNTI
 70
0
 62
7
  6
CONTINUOUS
370
-3
390
F
  0
LAYER
  5
209
100
AcDbSymbolTableRecord
100
AcDbLayerTableRecord
  2
RACCORDO
 70
0
 62
7
  6
CONTINUOUS
370
-3
390
F
  0
LAYER
  5
20A
100
AcDbSymbolTableRecord
100
AcDbLayerTableRecord
  2
SNAPLINE
 70
0
 62
7
  6
CONTINUOUS
370
-3
390
F
  0
LAYER
  5
20B
100
AcDbSymbolTableRecord
100
AcDbLayerTableRecord
  2
SUPERFICI
 70
0
 62
7
  6
CONTINUOUS
370
-3
390
F
  0
LAYER
  5
20C
100
AcDbSymbolTableRecord
100
AcDbLayerTableRecord
  2
TRASH
 70
0
 62
7
  6
CONTINUOUS
370
-3
390
F
  0
LAYER
  5
20D
100
AcDbSymbolTableRecord
100
AcDbLayerTableRecord
  2
XSEC_DATUMS
 70
0
 62
7
  6
CONTINUOUS
370
-3
390
F
  0
ENDTAB
  0
TABLE
  2
STYLE
  5
3
100
AcDbSymbolTable
 70
1
  0
STYLE
  5
11
100
AcDbSymbolTableRecord
100
AcDbTextStyleTableRecord
  2
STANDARD
 70
0
 40
0.0
 41
0.8
 50
0.0
 71
0
 42
0.2
  3
txt
  4

  0
STYLE
  5
20E
100
AcDbSymbolTableRecord
100
AcDbTextStyleTableRecord
  2
TEXTSTYLE_1
 70
0
 40
0.0
 41
0.8
 50
0.0
 71
0
 42
0.2
  3
gdt
  4

  0
ENDTAB
  0
TABLE
  2
VIEW
  5
6
100
AcDbSymbolTable
 70
0
  0
ENDTAB
  0
TABLE
  2
UCS
  5
7
100
AcDbSymbolTable
 70
0
  0
ENDTAB
  0
TABLE
  2
APPID
  5
9
100
AcDbSymbolTable
 70
1
  0
APPID
  5
20F
100
AcDbSymbolTableRecord
100
AcDbRegAppTableRecord
  2
ACAD
 70
0
  0
ENDTAB
  0
TABLE
  2
BLOCK_RECORD
  5
1
100
AcDbSymbolTable
 70
0
  0
BLOCK_RECORD
  5
210
100
AcDbSymbolTableRecord
100
AcDbBlockTableRecord
  2
*Model_Space
  0
BLOCK_RECORD
  5
211
100
AcDbSymbolTableRecord
100
AcDbBlockTableRecord
  2
*Paper_Space
  0
ENDTAB
  0
TABLE
  2
DIMSTYLE
  5
A
100
AcDbSymbolTable
 70
1
100
AcDbDimStyleTable
 71
0
  0
DIMSTYLE
105
212
100
AcDbSymbolTableRecord
100
AcDbDimStyleTableRecord
  2
STANDARD
 70
0
  3

  4

 40
1.0
 41
3.0
 42
0.0625
 43
0.38
 44
0.18
 45
0.0
 46
0.0
 47
0.01
 48
0.01
140
3.0
141
0.09
142
0.0
143
25.4
144
1.0
145
0.0
146
1.0
147
0.09
 71
1.0
 72
0.0
 73
0
 74
0
 75
0
 76
0
 77
1
 78
8
170
0
171
2
172
0
173
0
174
0
175
0
176
0
177
0
178
0
270
2
271
2
272
2
273
2
274
2
275
0
280
0
281
0
282
0
283
1
284
8
285
0
286
0
287
3
288
0
340
11
  0
ENDTAB
  0
ENDSEC
  0
SECTION
  2
BLOCKS
  0
BLOCK
  5
20
100
AcDbEntity
  8
0
100
AcDbBlockBegin
  2
*Model_Space
 70
0
 10
0.0
 20
0.0
 30
0.0
  3
*Model_Space
  1

  0
ENDBLK
  5
21
100
AcDbEntity
  8
0
100
AcDbBlockEnd
  0
BLOCK
  5
1C
100
AcDbEntity
  8
0
100
AcDbBlockBegin
  2
*Paper_Space
 70
0
 10
0.0
 20
0.0
 30
0.0
  3
*Paper_Space
  1

  0
ENDBLK
  5
1D
100
AcDbEntity
  8
0
100
AcDbBlockEnd
  0
ENDSEC
  0
SECTION
  2
ENTITIES
  0
LWPOLYLINE
  5
213
100
AcDbEntity
  8
RACCORDO
100
AcDbPolyline
 62
7
  6
CONTINUOUS
 90
18
 70
0
 10
-9.0820375822
 20
21.3142356158
 10
-9.1690914658
 20
21.2591151106
 10
-9.252599724
 20
21.1975938793
 10
-9.3326286358
 20
21.1298290348
 10
-9.4089771156
 20
21.0561678656
 10
-9.4810907008
 20
20.9773179484
 10
-9.5490055756
 20
20.893426986
 10
-9.612603453
 20
20.8047009015
 10
-9.6711780629
 20
20.712184362
 10
-9.7246933466
 20
20.6160781757
 10
-9.7730107118
 20
20.5165519271
 10
-9.8155236413
 20
20.4148562261
 10
-9.8521498145
 20
20.3112197533
 10
-9.8827435575
 20
20.2057810724
 10
-9.9069054033
 20
20.0996783552
 10
-9.9244692889
 20
19.9933483054
 10
-9.9353433848
 20
19.8866568056
 10
-9.9370687498
 20
19.8584392517
  0
LWPOLYLINE
  5
214
100
AcDbEntity
  8
ASSI
100
AcDbPolyline
 62
7
  6
CONTINUOUS
 90
19
 70
0
 10
-9.0605994215
 20
21.3264934395
 10
-9.082217911
 20
21.3141325081
 10
-9.169284798
 20
21.2589827825
 10
-9.2527631231
 20
21.1974646191
 10
-9.3327622711
 20
21.1297081215
 10
-9.4090817359
 20
21.0560603341
 10
-9.4811680213
 20
20.9772280535
 10
-9.5490572941
 20
20.8933591044
 10
-9.6126315326
 20
20.8046592284
 10
-9.6711856039
 20
20.7121716711
 10
-9.7246834976
 20
20.61609709
 10
-9.7729868057
 20
20.5166049023
 10
-9.8154898512
 20
20.4149438694
 10
-9.8521103641
 20
20.3113423742
 10
-9.8827026828
 20
20.2059389233
 10
-9.9068677017
 20
20.0998701133
 10
-9.9244393521
 20
19.993572001
 10
-9.9353256552
 20
19.8869106116
 10
-9.9370687248
 20
19.858439737
  0
LINE
  5
215
100
AcDbEntity
  8
RACCORDO
100
AcDbLine
 62
7
  6
CONTINUOUS
 10
-9.0605992539
 20
21.3264935332
 11
-9.0820375822
 21
21.3142356158
  0
LINE
  5
216
100
AcDbEntity
  8
ASSI
100
AcDbLine
 62
7
  6
CONTINUOUS
 10
-9.060663154
 20
21.3264701342
 11
-5.0919955266
 21
23.5482236507
  0
LINE
  5
217
100
AcDbEntity
  8
RACCORDO
100
AcDbLine
 62
7
  6
CONTINUOUS
 10
-9.060663154
 20
21.3264701342
 11
-5.0919955266
 21
23.5482236507
  0
LINE
  5
218
100
AcDbEntity
  8
ASSI
100
AcDbLine
 62
253
  6
CONTINUOUS
 10
-8.6846821591
 20
21.3135917635
 11
-4.7218369498
 21
23.5320857533
  0
LINE
  5
219
100
AcDbEntity
  8
RACCORDO
100
AcDbLine
 62
253
  6
CONTINUOUS
 10
-8.6846821591
 20
21.3135917635
 11
-4.7218369498
 21
23.5320857533
  0
LWPOLYLINE
  5
21A
100
AcDbEntity
  8
ASSI
100
AcDbPolyline
 62
7
  6
CONTINUOUS
 90
11
 70
0
 10
5.0172574051
 20
-23.4723592152
 10
5.1101095552
 20
-23.5135231419
 10
5.1994464964
 20
-23.5437748177
 10
5.2915856321
 20
-23.5662805881
 10
5.3860190013
 20
-23.5808389738
 10
5.4826483185
 20
-23.5872779922
 10
5.5808875902
 20
-23.5853647788
 10
5.6800079577
 20
-23.5749571679
 10
5.7798599036
 20
-23.5558669337
 10
5.8800601953
 20
-23.527886011
 10
5.9798268619
 20
-23.4909985812
  0
LWPOLYLINE
  5
21B
100
AcDbEntity
  8
RACCORDO
100
AcDbPolyline
 62
7
  6
CONTINUOUS
 90
11
 70
0
 10
5.0172552748
 20
-23.4723581454
 10
5.1099697384
 20
-23.5134688834
 10
5.1993405729
 20
-23.5437440063
 10
5.2915164745
 20
-23.5662668357
 10
5.3859887017
 20
-23.5808356318
 10
5.4826584661
 20
-23.5872782309
 10
5.58093904
 20
-23.585361578
 10
5.6801006517
 20
-23.5749434636
 10
5.7799932983
 20
-23.5558355999
 10
5.8802332144
 20
-23.5278299323
 10
5.9799912046
 20
-23.4909280183
  0
LINE
  5
21C
100
AcDbEntity
  8
ASSI
100
AcDbLine
 62
7
  6
CONTINUOUS
 10
5.0180895585
 20
-23.4727769611
 11
-9.319899897
 21
-16.3037822333
  0
LINE
  5
21D
100
AcDbEntity
  8
RACCORDO
100
AcDbLine
 62
7
  6
CONTINUOUS
 10
5.0180895585
 20
-23.4727769611
 11
-9.319899897
 21
-16.3037822333
  0
LINE
  5
21E
100
AcDbEntity
  8
RACCORDO
100
AcDbLine
 62
7
  6
CONTINUOUS
 10
-9.3479278487
 20
-16.2892285025
 11
-9.319066515
 21
-16.3041975591
  0
LINE
  5
21F
100
AcDbEntity
  8
ASSI
100
AcDbLine
 62
253
  6
CONTINUOUS
 10
4.6259265858
 20
-22.7457805931
 11
-9.7025537489
 21
-15.5815404258
  0
LINE
  5
220
100
AcDbEntity
  8
RACCORDO
100
AcDbLine
 62
253
  6
CONTINUOUS
 10
4.6259265858
 20
-22.7457805931
 11
-9.7025537489
 21
-15.5815404258
  0
LINE
  5
221
100
AcDbEntity
  8
CURVE
100
AcDbLine
 62
253
  6
CONTINUOUS
 10
-5.4186595757
 20
-12.2298514016
 11
-4.8378218487
 21
-12.520270265
  0
LINE
  5
222
100
AcDbEntity
  8
CURVE
100
AcDbLine
 62
253
  6
CONTINUOUS
 10
-2.9791411806
 20
-13.4496105991
 11
-2.5144710378
 21
-13.6819456705
  0
LINE
  5
223
100
AcDbEntity
  8
CURVE
100
AcDbLine
 62
253
  6
CONTINUOUS
 10
-0.3072878111
 20
-14.7855372839
 11
-0.77195776
 21
-14.5532023094
  0
LINE
  5
224
100
AcDbEntity
  8
CURVE
100
AcDbLine
 62
253
  6
CONTINUOUS
 10
-1.4689630711
 20
-14.2046996539
 11
-1.9336334078
 21
-13.9723644855
  0
LINE
  5
225
100
AcDbEntity
  8
CURVE
100
AcDbLine
 62
253
  6
CONTINUOUS
 10
-3.2371342922
 20
-12.6348939594
 11
-2.5401289811
 21
-12.9833966149
  0
LINE
  5
226
100
AcDbEntity
  8
CURVE
100
AcDbLine
 62
253
  6
CONTINUOUS
 10
-0.3570089333
 20
-13.3876417906
 11
-0.8216788823
 21
-13.1553068161
  0
LINE
  5
227
100
AcDbEntity
  8
CURVE
100
AcDbLine
 62
253
  6
CONTINUOUS
 10
-1.5186841934
 20
-12.8068041606
 11
-1.9833545301
 21
-12.5744689922
  0
LINE
  5
228
100
AcDbEntity
  8
CURVE
100
AcDbLine
 62
253
  6
CONTINUOUS
 10
-2.7965271346
 20
-12.16788269
 11
-3.0288623029
 21
-12.0517151058
  0
LINE
  5
229
100
AcDbEntity
  8
CURVE
100
AcDbLine
 62
253
  6
CONTINUOUS
 10
-3.8420351013
 20
-11.6451287066
 11
-4.3067052441
 21
-11.4127936352
  0
LINE
  5
22A
100
AcDbEntity
  8
CURVE
100
AcDbLine
 62
253
  6
CONTINUOUS
 10
-4.887542971
 20
-11.1223747718
 11
-5.468380698
 21
-10.8319559083
  0
LWPOLYLINE
  5
22B
100
AcDbEntity
  8
RACCORDO
100
AcDbPolyline
 62
7
  6
CONTINUOUS
 90
14
 70
0
 10
-9.9369233543
 20
-15.2968387526
 10
-9.9274811176
 20
-15.4004706932
 10
-9.9106840752
 20
-15.5022191326
 10
-9.8870186322
 20
-15.5994032507
 10
-9.8569521273
 20
-15.6916232617
 10
-9.8208367063
 20
-15.7788912284
 10
-9.7788415416
 20
-15.8614153986
 10
-9.731421259
 20
-15.9387857894
 10
-9.6789711756
 20
-16.0108122492
 10
-9.6214735952
 20
-16.0777574096
 10
-9.5593614639
 20
-16.1392238495
 10
-9.4930808963
 20
-16.1949261255
 10
-9.4224967714
 20
-16.245029334
 10
-9.3479278487
 20
-16.2892285025
  0
LWPOLYLINE
  5
22C
100
AcDbEntity
  8
ASSI
100
AcDbPolyline
 62
7
  6
CONTINUOUS
 90
15
 70
0
 10
-9.936923358
 20
-15.2968386855
 10
-9.9274845826
 20
-15.4004435026
 10
-9.9106962454
 20
-15.5021594574
 10
-9.8870439063
 20
-15.5993143654
 10
-9.8569943507
 20
-15.6915089158
 10
-9.82089937
 20
-15.7787551049
 10
-9.7789280773
 20
-15.8612607913
 10
-9.7315345707
 20
-15.9386164052
 10
-9.6791137695
 20
-16.0106320138
 10
-9.6216482671
 20
-16.077569901
 10
-9.5595705805
 20
-16.1390330568
 10
-9.4933263148
 20
-16.1947363065
 10
-9.4227808029
 20
-16.2448446753
 10
-9.3481659811
 20
-16.2891049941
 10
-9.3190666433
 20
-16.3041974952
  0
LINE
  5
22D
100
AcDbEntity
  8
RACCORDO
100
AcDbLine
 62
7
  6
CONTINUOUS
 10
-9.9369354466
 20
-15.2967996724
 11
-9.936933243
 21
-15.29683931
  0
LINE
  5
22E
100
AcDbEntity
  8
ASSI
100
AcDbLine
 62
7
  6
CONTINUOUS
 10
-9.9369354466
 20
-15.2967996722
 11
-9.9369332468
 21
-15.2968392428
  0
LINE
  5
22F
100
AcDbEntity
  8
RACCORDO
100
AcDbLine
 62
7
  6
CONTINUOUS
 10
-10.0789412987
 20
-12.5035987895
 11
-9.9369354466
 21
-15.2967996724
  0
LWPOLYLINE
  5
230
100
AcDbEntity
  8
RACCORDO
100
AcDbPolyline
 62
7
  6
CONTINUOUS
 90
11
 70
0
 10
-10.0792828552
 20
16.9108681743
 10
-10.1984958975
 20
13.9093087422
 10
-10.2912336816
 20
10.9200041131
 10
-10.3574751922
 20
7.9434777133
 10
-10.3972130348
 20
4.9801042211
 10
-10.4104419998
 20
2.0302374351
 10
-10.3971577599
 20
-0.9057543775
 10
-10.3573613596
 20
-3.8275056677
 10
-10.2910547558
 20
-6.7346664253
 10
-10.1982420301
 20
-9.6268683666
 10
-10.0789412987
 20
-12.5035987895
  0
LWPOLYLINE
  5
231
100
AcDbEntity
  8
ASSI
100
AcDbPolyline
 62
7
  6
CONTINUOUS
 90
13
 70
0
 10
-9.9370673202
 20
19.858582755
 10
-10.0792875678
 20
16.9107704951
 10
-10.1985012596
 20
13.9091571812
 10
-10.2912366283
 20
10.9198935337
 10
-10.3574764399
 20
7.943407783
 10
-10.3972133002
 20
4.9800745915
 10
-10.4104419999
 20
2.0302477443
 10
-10.3971582118
 20
-0.9057045064
 10
-10.3573629804
 20
-3.8274166262
 10
-10.2910582624
 20
-6.7345386179
 10
-10.1982481393
 20
-9.6267022134
 10
-10.0789465339
 20
-12.5034958143
 10
-9.9369354466
 20
-15.2967996722
  0
LINE
  5
232
100
AcDbEntity
  8
RACCORDO
100
AcDbLine
 62
7
  6
CONTINUOUS
 10
-9.9370673202
 20
19.8585827552
 11
-10.0792828552
 21
16.9108681743
  0
LINE
  5
233
100
AcDbEntity
  8
ASSI
100
AcDbLine
 62
253
  6
CONTINUOUS
 10
9.8449504352
 20
16.2486920608
 11
5.6689829141
 21
14.136759227
  0
LINE
  5
234
100
AcDbEntity
  8
RACCORDO
100
AcDbLine
 62
253
  6
CONTINUOUS
 10
9.8449504352
 20
16.2486920608
 11
5.6689829141
 21
14.136759227
  0
LINE
  5
235
100
AcDbEntity
  8
ASSI
100
AcDbLine
 62
253
  6
CONTINUOUS
 10
10.4104420139
 20
15.2733633607
 11
6.2344744927
 21
13.1614305268
  0
LINE
  5
236
100
AcDbEntity
  8
RACCORDO
100
AcDbLine
 62
253
  6
CONTINUOUS
 10
10.4104420139
 20
15.2733633607
 11
6.2344744927
 21
13.1614305268
  0
LINE
  5
237
100
AcDbEntity
  8
CURVE
100
AcDbLine
 62
253
  6
CONTINUOUS
 10
-3.2517635366
 20
-12.2153817415
 11
-3.2219309337
 21
-13.0541191116
  0
LINE
  5
238
100
AcDbEntity
  8
CURVE
100
AcDbLine
 62
253
  6
CONTINUOUS
 10
-3.7503434128
 20
-12.1035548232
 11
-3.7599048977
 21
-11.8237843798
  0
LINE
  5
239
100
AcDbEntity
  8
CURVE
100
AcDbLine
 62
253
  6
CONTINUOUS
 10
-1.3734495381
 20
-13.7040079409
 11
-1.3580547807
 21
-14.1231373989
  0
LINE
  5
23A
100
AcDbEntity
  8
CURVE
100
AcDbLine
 62
253
  6
CONTINUOUS
 10
-2.5401289811
 20
-12.9833966149
 11
-2.5547582254
 21
-12.5638843994
  0
LINE
  5
23B
100
AcDbEntity
  8
CURVE
100
AcDbLine
 62
253
  6
CONTINUOUS
 10
-2.0948369345
 20
-12.6563183601
 11
-2.0803990372
 21
-13.0759261839
  0
LINE
  5
23C
100
AcDbEntity
  8
CURVE
100
AcDbLine
 62
253
  6
CONTINUOUS
 10
-0.211774278
 20
-14.284845571
 11
-0.1963795206
 21
-14.7039750289
  0
LINE
  5
23D
100
AcDbEntity
  8
CURVE
100
AcDbLine
 62
253
  6
CONTINUOUS
 10
-0.9331612867
 20
-13.237156184
 11
-0.9187233894
 21
-13.6567640078
  0
LINE
  5
23E
100
AcDbEntity
  8
ASSI
100
AcDbLine
 62
7
  6
CONTINUOUS
 10
10.4104420139
 20
-21.1867809631
 11
10.4104420139
 21
15.2733633607
  0
LINE
  5
23F
100
AcDbEntity
  8
RACCORDO
100
AcDbLine
 62
7
  6
CONTINUOUS
 10
10.4104420139
 20
-21.1867809631
 11
10.4104420139
 21
15.2733633607
  0
LINE
  5
240
100
AcDbEntity
  8
ASSI
100
AcDbLine
 62
253
  6
CONTINUOUS
 10
4.6259265858
 20
12.4171377702
 11
-9.7025537489
 21
19.5813779375
  0
LINE
  5
241
100
AcDbEntity
  8
RACCORDO
100
AcDbLine
 62
253
  6
CONTINUOUS
 10
4.6259265858
 20
12.4171377702
 11
-9.7025537489
 21
19.5813779375
  0
LINE
  5
242
100
AcDbEntity
  8
ASSI
100
AcDbLine
 62
253
  6
CONTINUOUS
 10
5.6689829141
 20
14.136759227
 11
-8.6846821591
 21
21.3135917635
  0
LINE
  5
243
100
AcDbEntity
  8
RACCORDO
100
AcDbLine
 62
253
  6
CONTINUOUS
 10
5.6689829141
 20
14.136759227
 11
-8.6846821591
 21
21.3135917635
  0
LINE
  5
244
100
AcDbEntity
  8
ASSI
100
AcDbLine
 62
7
  6
CONTINUOUS
 10
-4.7218369498
 20
23.5320857533
 11
9.8449504352
 21
16.2486920608
  0
LINE
  5
245
100
AcDbEntity
  8
RACCORDO
100
AcDbLine
 62
7
  6
CONTINUOUS
 10
-4.7218369498
 20
23.5320857533
 11
9.8449504352
 21
16.2486920608
  0
LINE
  5
246
100
AcDbEntity
  8
ASSI
100
AcDbLine
 62
253
  6
CONTINUOUS
 10
6.2344744927
 20
-23.0376933386
 11
10.4104420139
 21
-21.1867809631
  0
LINE
  5
247
100
AcDbEntity
  8
RACCORDO
100
AcDbLine
 62
253
  6
CONTINUOUS
 10
6.2344744927
 20
-23.0376933386
 11
10.4104420139
 21
-21.1867809631
  0
LINE
  5
248
100
AcDbEntity
  8
ASSI
100
AcDbLine
 62
7
  6
CONTINUOUS
 10
6.0079594798
 20
-23.4789222116
 11
10.1899427005
 21
-21.6253435001
  0
LINE
  5
249
100
AcDbEntity
  8
RACCORDO
100
AcDbLine
 62
7
  6
CONTINUOUS
 10
6.0079594798
 20
-23.4789222116
 11
10.1899427005
 21
-21.6253435001
  0
LINE
  5
24A
100
AcDbEntity
  8
ASSI
100
AcDbLine
 62
7
  6
CONTINUOUS
 10
5.9798268619
 20
-23.4909985812
 11
6.007537316
 21
-23.4791007076
  0
LINE
  5
24B
100
AcDbEntity
  8
RACCORDO
100
AcDbLine
 62
7
  6
CONTINUOUS
 10
5.9799912046
 20
-23.4909280183
 11
6.0075365265
 21
-23.479101056
  0
ARC
  5
24C
100
AcDbEntity
  8
ASSI
100
AcDbCircle
 62
253
  6
CONTINUOUS
 10
-9.7011459011
 20
-15.2837450526
 40
0.2361164381
100
AcDbArc
 50
183.1785932382
 51
187.0134920122
  0
ARC
  5
24D
100
AcDbEntity
  8
RACCORDO
100
AcDbCircle
 62
253
  6
CONTINUOUS
 10
-9.7011459515
 20
-15.2837450568
 40
0.2361163877
100
AcDbArc
 50
183.1786092036
 51
187.013207436
  0
SPLINE
  5
24E
100
AcDbEntity
  8
ASSI
100
AcDbSpline
 62
253
  6
CONTINUOUS
 70
0
 71
3
 72
11
 73
7
 74
5
 42
0.0000001
 43
0.0000001
 44
0.0000000001
 12
0.045108007
 22
-0.3666897758
 32
0.0
 13
0.3301789925
 23
-0.1657647637
 33
0.0
 40
0.0
 40
0.0
 40
0.0
 40
0.0
 40
0.2146838316
 40
0.4473880706
 40
0.708167104
 40
1.0
 40
1.0
 40
1.0
 40
1.0
 10
-9.9354955806
 20
-15.3125755933
 30
0.0
 10
-9.932267594
 20
-15.338816382
 30
0.0
 10
-9.9159587129
 20
-15.3926319708
 30
0.0
 10
-9.8661697528
 20
-15.4654965267
 30
0.0
 10
-9.7934156266
 20
-15.5303197753
 30
0.0
 10
-9.7346727514
 20
-15.5654152057
 30
0.0
 10
-9.7025537209
 20
-15.5815404094
 30
0.0
 11
-9.9354955806
 21
-15.3125755933
 31
0.0
 11
-9.9131281171
 21
-15.3886721541
 31
0.0
 11
-9.8656925779
 21
-15.4603750628
 31
0.0
 11
-9.7946118527
 21
-15.5254138631
 31
0.0
 11
-9.7025537209
 21
-15.5815404094
 31
0.0
  0
SPLINE
  5
24F
100
AcDbEntity
  8
ASSI
100
AcDbSpline
 62
253
  6
CONTINUOUS
 70
0
 71
3
 72
11
 73
7
 74
5
 42
0.0000001
 43
0.0000001
 44
0.0000000001
 12
-0.0194729055
 22
-0.3811433685
 32
0.0
 13
0.3416613773
 23
-0.1700498887
 33
0.0
 40
0.0
 40
0.0
 40
0.0
 40
0.0
 40
0.1971374236
 40
0.4210574788
 40
0.687640733
 40
1.0
 40
1.0
 40
1.0
 40
1.0
 10
-9.9370372414
 20
19.8584380948
 30
0.0
 10
-9.9383168542
 20
19.8333922209
 30
0.0
 10
-9.92821465
 20
19.7788044084
 30
0.0
 10
-9.8794140663
 20
19.7043634512
 30
0.0
 10
-9.8020218263
 20
19.6364700467
 30
0.0
 10
-9.738120091
 20
19.5990865561
 30
0.0
 10
-9.7025463919
 20
19.5813810032
 30
0.0
 11
-9.9370372414
 21
19.8584380948
 31
0.0
 11
-9.9245214251
 21
19.7842508101
 31
0.0
 11
-9.8798425732
 21
19.7114037647
 31
0.0
 11
-9.8047181863
 21
19.6427951421
 31
0.0
 11
-9.7025463919
 21
19.5813810032
 31
0.0
  0
SPLINE
  5
250
100
AcDbEntity
  8
ASSI
100
AcDbSpline
 62
253
  6
CONTINUOUS
 70
0
 71
3
 72
11
 73
7
 74
5
 42
0.0000001
 43
0.0000001
 44
0.0000000001
 12
0.3402491046
 22
0.1906469753
 32
0.0
 13
0.3524763434
 23
-0.1669615217
 33
0.0
 40
0.0
 40
0.0
 40
0.0
 40
0.0
 40
0.225897323
 40
0.4629312367
 40
0.7198013954
 40
1.0
 40
1.0
 40
1.0
 40
1.0
 10
-9.0605922205
 20
21.3264806019
 30
0.0
 10
-9.0349717666
 20
21.340836149
 30
0.0
 10
-8.9777732132
 20
21.362526484
 30
0.0
 10
-8.8834791764
 20
21.370274082
 30
0.0
 10
-8.7833457313
 20
21.354006032
 30
0.0
 10
-8.7176032856
 20
21.329185892
 30
0.0
 10
-8.6846821591
 20
21.3135917635
 30
0.0
 11
-9.0605922205
 21
21.3264806019
 31
0.0
 11
-8.9783287972
 21
21.3580263424
 31
0.0
 11
-8.8862649541
 21
21.3664455014
 31
0.0
 11
-8.7872165372
 21
21.3514004667
 31
0.0
 11
-8.6846821591
 21
21.3135917635
 31
0.0
  0
SPLINE
  5
251
100
AcDbEntity
  8
ASSI
100
AcDbSpline
 62
253
  6
CONTINUOUS
 70
0
 71
3
 72
11
 73
7
 74
5
 42
0.0000001
 43
0.0000001
 44
0.0000000001
 12
-0.7636429873
 22
0.3818912877
 32
0.0
 13
-0.0480305721
 23
0.8524579941
 33
0.0
 40
0.0
 40
0.0
 40
0.0
 40
0.0
 40
0.2192026259
 40
0.4533512093
 40
0.7123351151
 40
1.0
 40
1.0
 40
1.0
 40
1.0
 10
-9.3198829901
 20
-16.3037902784
 30
0.0
 10
-9.3756805062
 20
-16.2758864207
 30
0.0
 10
-9.4816399679
 20
-16.1973738116
 30
0.0
 10
-9.5996658791
 20
-16.0291465154
 30
0.0
 10
-9.6763815968
 20
-15.8184458935
 30
0.0
 10
-9.6979481792
 20
-15.6632811693
 30
0.0
 10
-9.7025537489
 20
-15.5815404258
 30
0.0
 11
-9.3198829901
 21
-16.3037902784
 31
0.0
 11
-9.4709357101
 21
-16.1932870278
 31
0.0
 11
-9.5880535689
 21
-16.0312661111
 31
0.0
 11
-9.666348882
 21
-15.8244685046
 31
0.0
 11
-9.7025537489
 21
-15.5815404258
 31
0.0
  0
SPLINE
  5
252
100
AcDbEntity
  8
ASSI
100
AcDbSpline
 62
253
  6
CONTINUOUS
 70
0
 71
3
 72
9
 73
5
 74
3
 42
0.0000001
 43
0.0000001
 44
0.0000000001
 12
-1.9496325874
 22
35.1216034558
 32
0.0
 13
1.8422073897
 23
35.1274019601
 33
0.0
 40
0.0
 40
0.0
 40
0.0
 40
0.0
 40
0.4929099889
 40
1.0
 40
1.0
 40
1.0
 40
1.0
 10
-9.7025537489
 20
-15.5815404258
 30
0.0
 10
-10.0228848745
 20
-9.8109440364
 30
0.0
 10
-10.3337780072
 20
1.917029015
 30
0.0
 10
-10.0139420708
 20
13.6437930538
 30
0.0
 10
-9.7025537489
 20
19.5813779375
 30
0.0
 11
-9.7025537489
 21
-15.5815404258
 31
0.0
 11
-10.1761274389
 21
1.7504323538
 31
0.0
 11
-9.7025537489
 21
19.5813779375
 31
0.0
  0
SPLINE
  5
253
100
AcDbEntity
  8
ASSI
100
AcDbSpline
 62
253
  6
CONTINUOUS
 70
0
 71
3
 72
11
 73
7
 74
5
 42
0.0000001
 43
0.0000001
 44
0.0000000001
 12
0.1106941401
 22
2.0776440717
 32
0.0
 13
1.8269267864
 23
0.9955885687
 33
0.0
 40
0.0
 40
0.0
 40
0.0
 40
0.0
 40
0.249924829
 40
0.5143360651
 40
0.7709917048
 40
1.0
 40
1.0
 40
1.0
 40
1.0
 10
-9.7025537489
 20
19.5813779375
 30
0.0
 10
-9.6933320109
 20
19.754462884
 30
0.0
 10
-9.6224799329
 20
20.1085781383
 30
0.0
 10
-9.402238239
 20
20.600155987
 30
0.0
 10
-9.0901779131
 20
21.0213320083
 30
0.0
 10
-8.824142622
 20
21.2375924166
 30
0.0
 10
-8.6846821591
 20
21.3135917635
 30
0.0
 11
-9.7025537489
 21
19.5813779375
 31
0.0
 11
-9.6065134003
 21
20.0924231447
 31
0.0
 11
-9.3825294536
 21
20.5948929974
 31
0.0
 11
-9.060807542
 21
21.0210925507
 31
0.0
 11
-8.6846821591
 21
21.3135917635
 31
0.0
  0
SPLINE
  5
254
100
AcDbEntity
  8
ASSI
100
AcDbSpline
 62
253
  6
CONTINUOUS
 70
0
 71
3
 72
11
 73
7
 74
5
 42
0.0000001
 43
0.0000001
 44
0.0000000001
 12
-0.0113135152
 22
-0.5213648202
 32
0.0
 13
-0.4766235013
 23
-0.2116112222
 33
0.0
 40
0.0
 40
0.0
 40
0.0
 40
0.0
 40
0.2913586214
 40
0.552131472
 40
0.7846146391
 40
1.0
 40
1.0
 40
1.0
 40
1.0
 10
6.2344744927
 20
-23.0376933386
 30
0.0
 10
6.2333757294
 20
-23.0883280503
 30
0.0
 10
6.2230460833
 20
-23.1844634963
 30
0.0
 10
6.1789532147
 20
-23.3149654751
 30
0.0
 10
6.1076542237
 20
-23.4178380292
 30
0.0
 10
6.0421758385
 20
-23.4637230583
 30
0.0
 10
6.0079565969
 20
-23.4789157115
 30
0.0
 11
6.2344744927
 21
-23.0376933386
 31
0.0
 11
6.2167100821
 21
-23.1885911767
 31
0.0
 11
6.1712399255
 21
-23.3167539234
 31
0.0
 11
6.1004326236
 21
-23.4151650774
 31
0.0
 11
6.0079565969
 21
-23.4789157115
 31
0.0
  0
SPLINE
  5
255
100
AcDbEntity
  8
ASSI
100
AcDbSpline
 62
253
  6
CONTINUOUS
 70
0
 71
3
 72
11
 73
7
 74
5
 42
0.0000001
 43
0.0000001
 44
0.0000000001
 12
-1.0054711339
 22
-0.5585158444
 32
0.0
 13
-1.0295922785
 23
0.5126908323
 33
0.0
 40
0.0
 40
0.0
 40
0.0
 40
0.0
 40
0.2410257257
 40
0.5058130742
 40
0.7674643878
 40
1.0
 40
1.0
 40
1.0
 40
1.0
 10
5.7409989426
 20
-22.7068521022
 30
0.0
 10
5.6602174727
 20
-22.7517243311
 30
0.0
 10
5.4756883338
 20
-22.8191445344
 30
0.0
 10
5.1823122211
 20
-22.8589467492
 30
0.0
 10
4.8901250215
 20
-22.8403005772
 30
0.0
 10
4.7057435492
 20
-22.7855136045
 30
0.0
 10
4.6259379256
 20
-22.745773979
 30
0.0
 11
5.7409989426
 21
-22.7068521022
 31
0.0
 11
5.4823528291
 21
-22.8066251108
 31
0.0
 11
5.1807525381
 21
-22.848930321
 31
0.0
 11
4.8805613517
 21
-22.8276304962
 31
0.0
 11
4.6259379256
 21
-22.745773979
 31
0.0
  0
SPLINE
  5
256
100
AcDbEntity
  8
ASSI
100
AcDbSpline
 62
253
  6
CONTINUOUS
 70
0
 71
3
 72
11
 73
7
 74
5
 42
0.0000001
 43
0.0000001
 44
0.0000000001
 12
0.0496622786
 22
-0.8606061543
 32
0.0
 13
0.7703624692
 23
-0.3868474645
 33
0.0
 40
0.0
 40
0.0
 40
0.0
 40
0.0
 40
0.2852480487
 40
0.5433383289
 40
0.7783561773
 40
1.0
 40
1.0
 40
1.0
 40
1.0
 10
4.6259265858
 20
-22.7457805931
 30
0.0
 10
4.6306486084
 20
-22.8276093351
 30
0.0
 10
4.6528229509
 20
-22.9832906507
 30
0.0
 10
4.7314802032
 20
-23.194873369
 30
0.0
 10
4.8523608685
 20
-23.3643431608
 30
0.0
 10
4.960296989
 20
-23.443756205
 30
0.0
 10
5.0172123498
 20
-23.4723369886
 30
0.0
 11
4.6259265858
 21
-22.7457805931
 31
0.0
 11
4.6629530494
 21
-22.9888715344
 31
0.0
 11
4.7430064971
 21
-23.1964537978
 31
0.0
 11
4.8627549976
 21
-23.3598696521
 31
0.0
 11
5.0172123498
 21
-23.4723369886
 31
0.0
  0
SPLINE
  5
257
100
AcDbEntity
  8
ASSI
100
AcDbSpline
 62
253
  6
CONTINUOUS
 70
0
 71
3
 72
15
 73
11
 74
9
 42
0.0000001
 43
0.0000001
 44
0.0000000001
 12
0.0422605823
 22
-0.7217895613
 32
0.0
 13
0.6610660215
 23
0.2928444005
 33
0.0
 40
0.0
 40
0.0
 40
0.0
 40
0.0
 40
0.144293096
 40
0.2764945356
 40
0.3979853565
 40
0.5122559592
 40
0.6244536749
 40
0.7402764391
 40
0.8645148711
 40
1.0
 40
1.0
 40
1.0
 40
1.0
 10
5.7409989426
 20
-22.7068521022
 30
0.0
 10
5.7430315793
 20
-22.741568519
 30
0.0
 10
5.7521121545
 20
-22.8079869264
 30
0.0
 10
5.7832274958
 20
-22.8994412817
 30
0.0
 10
5.8307192052
 20
-22.9754414467
 30
0.0
 10
5.893447246
 20
-23.0328324335
 30
0.0
 10
5.9691137456
 20
-23.0686896123
 30
0.0
 10
6.0541607136
 20
-23.0814930255
 30
0.0
 10
6.1449484508
 20
-23.0713663711
 30
0.0
 10
6.204619621
 20
-23.0509186923
 30
0.0
 10
6.2344744927
 20
-23.0376933386
 30
0.0
 11
5.7409989426
 21
-22.7068521022
 31
0.0
 11
5.7559234688
 21
-22.8101066875
 31
0.0
 11
5.7875703773
 21
-22.9003007679
 31
0.0
 11
5.8348569825
 21
-22.974327893
 31
0.0
 11
5.8961725131
 21
-23.0297044756
 31
0.0
 11
5.9694371944
 21
-23.0645331656
 31
0.0
 11
6.052146513
 21
-23.0776492081
 31
0.0
 11
6.141516448
 21
-23.0685933716
 31
0.0
 11
6.2344744927
 21
-23.0376933386
 31
0.0
  0
SPLINE
  5
258
100
AcDbEntity
  8
ASSI
100
AcDbSpline
 62
253
  6
CONTINUOUS
 70
0
 71
3
 72
13
 73
9
 74
7
 42
0.0000001
 43
0.0000001
 44
0.0000000001
 12
-1.0630264305
 22
-0.4182756973
 32
0.0
 13
-1.0208203136
 23
0.5127432478
 33
0.0
 40
0.0
 40
0.0
 40
0.0
 40
0.0
 40
0.1113054161
 40
0.2337403558
 40
0.4979740163
 40
0.7632933542
 40
0.8870194215
 40
1.0
 40
1.0
 40
1.0
 40
1.0
 10
5.7409989426
 20
12.3622984788
 30
0.0
 10
5.7015587429
 20
12.3467796953
 30
0.0
 10
5.6162000047
 20
12.3205085426
 30
0.0
 10
5.4294911384
 20
12.2857637893
 30
0.0
 10
5.1799103546
 20
12.2772427463
 30
0.0
 10
4.9319309945
 20
12.3103738867
 30
0.0
 10
4.747942558
 20
12.3632945153
 30
0.0
 10
4.664370895
 20
12.3978277687
 30
0.0
 10
4.6259266051
 20
12.4171377783
 30
0.0
 11
5.7409989426
 21
12.3622984788
 31
0.0
 11
5.6197475313
 21
12.3240185465
 31
0.0
 11
5.4823518992
 21
12.297855651
 31
0.0
 11
5.1807489029
 21
12.2856666602
 31
0.0
 11
4.8805536682
 21
12.32745211
 31
0.0
 11
4.7448730764
 21
12.3670449045
 31
0.0
 11
4.6259266051
 21
12.4171377783
 31
0.0
  0
SPLINE
  5
259
100
AcDbEntity
  8
ASSI
100
AcDbSpline
 62
253
  6
CONTINUOUS
 70
0
 71
3
 72
9
 73
5
 74
3
 42
0.0000001
 43
0.0000001
 44
0.0000000001
 12
-1.943519276
 22
-35.123348881
 32
0.0
 13
2.0508886792
 23
-35.1172430497
 33
0.0
 40
0.0
 40
0.0
 40
0.0
 40
0.0
 40
0.5067285724
 40
1.0
 40
1.0
 40
1.0
 40
1.0
 10
4.6259265858
 20
12.4171377702
 30
0.0
 10
4.2976476697
 20
6.4844696249
 30
0.0
 10
3.9607879588
 20
-5.2429636858
 30
0.0
 10
4.2887116569
 20
-16.9716697221
 30
0.0
 10
4.6259265858
 20
-22.7457805931
 30
0.0
 11
4.6259265858
 21
12.4171377702
 31
0.0
 11
4.1269537816
 21
-5.4011082564
 31
0.0
 11
4.6259265858
 21
-22.7457805931
 31
0.0
  0
SPLINE
  5
25A
100
AcDbEntity
  8
ASSI
100
AcDbSpline
 62
253
  6
CONTINUOUS
 70
0
 71
3
 72
9
 73
5
 74
3
 42
0.0000001
 43
0.0000001
 44
0.0000000001
 12
-1.9384667428
 22
-35.0296813378
 32
0.0
 13
2.0455485771
 23
-35.0235914629
 33
0.0
 40
0.0
 40
0.0
 40
0.0
 40
0.0
 40
0.5067280892
 40
1.0
 40
1.0
 40
1.0
 40
1.0
 10
5.7409989426
 20
12.3622984788
 30
0.0
 10
5.4135737597
 20
6.4454573152
 30
0.0
 10
5.0775878845
 20
-5.2507037172
 30
0.0
 10
5.4046617242
 20
-16.9481341412
 30
0.0
 10
5.7409989426
 20
-22.7068521022
 30
0.0
 11
5.7409989426
 21
12.3622984788
 31
0.0
 11
5.2433228671
 21
-5.4084152933
 31
0.0
 11
5.7409989426
 21
-22.7068521022
 31
0.0
  0
SPLINE
  5
25B
100
AcDbEntity
  8
ASSI
100
AcDbSpline
 62
253
  6
CONTINUOUS
 70
0
 71
3
 72
11
 73
7
 74
5
 42
0.0000001
 43
0.0000001
 44
0.0000000001
 12
-0.0259133344
 22
1.1695811359
 32
0.0
 13
-1.0346327117
 23
0.5460097858
 33
0.0
 40
0.0
 40
0.0
 40
0.0
 40
0.0
 40
0.2463941779
 40
0.5122171751
 40
0.7713861971
 40
1.0
 40
1.0
 40
1.0
 40
1.0
 10
6.2344744927
 20
13.1614305268
 30
0.0
 10
6.2323461945
 20
13.2574898543
 30
0.0
 10
6.1956361474
 20
13.4567378816
 30
0.0
 10
6.0736322515
 20
13.7341860372
 30
0.0
 10
5.8983665793
 20
13.9728776651
 30
0.0
 10
5.7478266888
 20
14.09515077
 30
0.0
 10
5.6689829159
 20
14.1367592279
 30
0.0
 11
6.2344744927
 21
13.1614305268
 31
0.0
 11
6.1867770858
 21
13.4457055237
 31
0.0
 11
6.0625648835
 21
13.7307994735
 31
0.0
 11
5.8807879668
 21
13.9734587101
 31
0.0
 11
5.6689829159
 21
14.1367592279
 31
0.0
  0
SPLINE
  5
25C
100
AcDbEntity
  8
ASSI
100
AcDbSpline
 62
253
  6
CONTINUOUS
 70
0
 71
3
 72
11
 73
7
 74
5
 42
0.0000001
 43
0.0000001
 44
0.0000000001
 12
-1.8508811007
 22
-0.9618830527
 32
0.0
 13
-0.1138059894
 23
-2.0827933294
 33
0.0
 40
0.0
 40
0.0
 40
0.0
 40
0.0
 40
0.2306212731
 40
0.4874343326
 40
0.7510576107
 40
1.0
 40
1.0
 40
1.0
 40
1.0
 10
5.6689829141
 20
14.136759227
 30
0.0
 10
5.5266987288
 20
14.0628156622
 30
0.0
 10
5.2545618073
 20
13.8507156699
 30
0.0
 10
4.9341436931
 20
13.4330421372
 30
0.0
 10
4.7080293715
 20
12.9436431379
 30
0.0
 10
4.6353702974
 20
12.5899696195
 30
0.0
 10
4.6259265858
 20
12.4171377702
 30
0.0
 11
5.6689829141
 21
14.136759227
 31
0.0
 11
5.2835532532
 21
13.8489121531
 31
0.0
 11
4.9538695202
 21
13.4266935105
 31
0.0
 11
4.7243424967
 21
12.9269951961
 31
0.0
 11
4.6259265858
 21
12.4171377702
 31
0.0
  0
SPLINE
  5
25D
100
AcDbEntity
  8
ASSI
100
AcDbSpline
 62
253
  6
CONTINUOUS
 70
0
 71
3
 72
11
 73
7
 74
5
 42
0.0000001
 43
0.0000001
 44
0.0000000001
 12
-0.8699228561
 22
-0.4401190677
 32
0.0
 13
-0.0540246578
 23
-0.9734227784
 33
0.0
 40
0.0
 40
0.0
 40
0.0
 40
0.0
 40
0.2315282972
 40
0.4884252485
 40
0.7516066726
 40
1.0
 40
1.0
 40
1.0
 40
1.0
 10
6.2344744927
 20
13.1614305268
 30
0.0
 10
6.1673372402
 20
13.1274638541
 30
0.0
 10
6.0387290635
 20
13.0296166352
 30
0.0
 10
5.8869676599
 20
12.8356538048
 30
0.0
 10
5.7798611074
 20
12.6078449367
 30
0.0
 10
5.7454720641
 20
12.4428957198
 30
0.0
 10
5.7409989426
 20
12.3622984788
 30
0.0
 11
6.2344744927
 21
13.1614305268
 31
0.0
 11
6.0521472181
 21
13.0283625941
 31
0.0
 11
5.8961726844
 21
12.8324053488
 31
0.0
 11
5.7875692796
 21
12.5999421623
 31
0.0
 11
5.7409989426
 21
12.3622984788
 31
0.0
  0
SPLINE
  5
25E
100
AcDbEntity
  8
CURVE
100
AcDbSpline
 62
253
  6
CONTINUOUS
 70
0
 71
3
 72
31
 73
27
 74
25
 42
0.0000001
 43
0.0000001
 44
0.0000000001
 12
0.0618562704
 22
-1.7812874965
 32
0.0
 13
0.0375859702
 23
-1.0145033842
 33
0.0
 40
0.0
 40
0.0
 40
0.0
 40
0.0
 40
0.125
 40
0.1875
 40
0.25
 40
0.3125
 40
0.375
 40
0.40625
 40
0.4375
 40
0.453125
 40
0.46875
 40
0.484375
 40
0.4921875
 40
0.5
 40
0.5078125
 40
0.515625
 40
0.53125
 40
0.546875
 40
0.5625
 40
0.59375
 40
0.625
 40
0.6875
 40
0.75
 40
0.8125
 40
0.875
 40
1.0
 40
1.0
 40
1.0
 40
1.0
 10
-4.3067052441
 20
-11.4127936352
 30
0.0
 10
-4.3041278995
 20
-11.4870139476
 30
0.0
 10
-4.3002618837
 20
-11.5983443794
 30
0.0
 10
-4.2951071914
 20
-11.7467851021
 30
0.0
 10
-4.2912411838
 20
-11.8581152768
 30
0.0
 10
-4.2873751321
 20
-11.9694468472
 30
0.0
 10
-4.2841535598
 20
-12.0622188096
 30
0.0
 10
-4.2815759939
 20
-12.1364461126
 30
0.0
 10
-4.2799657167
 20
-12.1828160174
 30
0.0
 10
-4.2786758885
 20
-12.219962691
 30
0.0
 10
-4.2777129156
 20
-12.2476837427
 30
0.0
 10
-4.2768964469
 20
-12.2712266519
 30
0.0
 10
-4.2762746518
 20
-12.2890695772
 30
0.0
 10
-4.2757225605
 20
-12.3051607576
 30
0.0
 10
-4.2754977593
 20
-12.3109116935
 30
0.0
 10
-4.2750836977
 20
-12.3221915898
 30
0.0
 10
-4.2746053456
 20
-12.3350522077
 30
0.0
 10
-4.2740145335
 20
-12.3510153886
 30
0.0
 10
-4.2732326483
 20
-12.3721143583
 30
0.0
 10
-4.2722532839
 20
-12.3985515077
 30
0.0
 10
-4.2706874231
 20
-12.4408154914
 30
0.0
 10
-4.268729712
 20
-12.4936576373
 30
0.0
 10
-4.2663806237
 20
-12.5570629969
 30
0.0
 10
-4.2640314913
 20
-12.6204697523
 30
0.0
 10
-4.2608993302
 20
-12.705011603
 30
0.0
 10
-4.2585502059
 20
-12.7684181013
 30
0.0
 10
-4.2569841238
 20
-12.8106890756
 30
0.0
 11
-4.3067052441
 21
-11.4127936352
 31
0.0
 11
-4.2989732103
 21
-11.6354545723
 31
0.0
 11
-4.2951071934
 21
-11.7467850408
 31
0.0
 11
-4.2912411765
 21
-11.8581155094
 31
0.0
 11
-4.2873751596
 21
-11.9694459779
 31
0.0
 11
-4.2835091427
 21
-12.0807764464
 31
0.0
 11
-4.2815761342
 21
-12.1364416807
 31
0.0
 11
-4.2796431258
 21
-12.192106915
 31
0.0
 11
-4.2786766215
 21
-12.2199395321
 31
0.0
 11
-4.2777101173
 21
-12.2477721492
 31
0.0
 11
-4.2767436131
 21
-12.2756047664
 31
0.0
 11
-4.276260361
 21
-12.2895210749
 31
0.0
 11
-4.2757771089
 21
-12.3034373835
 31
0.0
 11
-4.2754834685
 21
-12.3113631912
 31
0.0
 11
-4.2751898281
 21
-12.3192889989
 31
0.0
 11
-4.2746025473
 21
-12.3351406143
 31
0.0
 11
-4.2740152665
 21
-12.3509922296
 31
0.0
 11
-4.2734279857
 21
-12.366843845
 31
0.0
 11
-4.2722534242
 21
-12.3985470758
 31
0.0
 11
-4.2710788626
 21
-12.4302503065
 31
0.0
 11
-4.2687297395
 21
-12.493656768
 31
0.0
 11
-4.2663806163
 21
-12.5570632296
 31
0.0
 11
-4.2640314932
 21
-12.6204696911
 31
0.0
 11
-4.2616823701
 21
-12.6838761526
 31
0.0
 11
-4.2569841238
 21
-12.8106890756
 31
0.0
  0
SPLINE
  5
25F
100
AcDbEntity
  8
CURVE
100
AcDbSpline
 62
253
  6
CONTINUOUS
 70
0
 71
3
 72
19
 73
15
 74
13
 42
0.0000001
 43
0.0000001
 44
0.0000000001
 12
0.0618562704
 22
-1.7812874965
 32
0.0
 13
0.0735690959
 23
-1.9450159948
 33
0.0
 40
0.0
 40
0.0
 40
0.0
 40
0.0
 40
0.125
 40
0.25
 40
0.375
 40
0.4375
 40
0.46875
 40
0.5
 40
0.53125
 40
0.5625
 40
0.625
 40
0.75
 40
0.875
 40
1.0
 40
1.0
 40
1.0
 40
1.0
 10
-5.468380698
 20
-10.8319559083
 30
0.0
 10
-5.4658033534
 20
-10.9061762206
 30
0.0
 10
-5.4606475625
 20
-11.0546322449
 30
0.0
 10
-5.4529204862
 20
-11.2772238838
 30
0.0
 10
-5.4464619769
 20
-11.4629864092
 30
0.0
 10
-5.4419786145
 20
-11.5924946657
 30
0.0
 10
-5.4393580298
 20
-11.6673194122
 30
0.0
 10
-5.43755784
 20
-11.7211280327
 30
0.0
 10
-5.4351259871
 20
-11.7837663963
 30
0.0
 10
-5.4321038482
 20
-11.8642042953
 30
0.0
 10
-5.4267124443
 20
-12.0064056683
 30
0.0
 10
-5.4190641446
 20
-12.2087997567
 30
0.0
 10
-5.4098630502
 20
-12.4519960542
 30
0.0
 10
-5.4037333938
 20
-12.6140653208
 30
0.0
 10
-5.4006680148
 20
-12.6951076539
 30
0.0
 11
-5.468380698
 21
-10.8319559083
 31
0.0
 11
-5.4606486642
 21
-11.0546168453
 31
0.0
 11
-5.4529166304
 21
-11.2772777824
 31
0.0
 11
-5.4451845966
 21
-11.4999387195
 31
0.0
 11
-5.4413185797
 21
-11.611269188
 31
0.0
 11
-5.4393855713
 21
-11.6669344223
 31
0.0
 11
-5.4374525628
 21
-11.7225996565
 31
0.0
 11
-5.4351535286
 21
-11.7833814064
 31
0.0
 11
-5.4328544943
 21
-11.8441631562
 31
0.0
 11
-5.4282564258
 21
-11.9657266559
 31
0.0
 11
-5.4190602888
 21
-12.2088536552
 31
0.0
 11
-5.4098641518
 21
-12.4519806546
 31
0.0
 11
-5.4006680148
 21
-12.6951076539
 31
0.0
  0
SPLINE
  5
260
100
AcDbEntity
  8
CURVE
100
AcDbSpline
 62
253
  6
CONTINUOUS
 70
0
 71
3
 72
33
 73
29
 74
27
 42
0.0000001
 43
0.0000001
 44
0.0000000001
 12
-0.0639904379
 22
1.7801092563
 32
0.0
 13
-0.0155632429
 23
0.4565233753
 33
0.0
 40
0.0
 40
0.0
 40
0.0
 40
0.0
 40
0.125
 40
0.1875
 40
0.25
 40
0.3125
 40
0.375
 40
0.40625
 40
0.4375
 40
0.453125
 40
0.46875
 40
0.484375
 40
0.4921875
 40
0.49609375
 40
0.5
 40
0.50390625
 40
0.5078125
 40
0.515625
 40
0.53125
 40
0.546875
 40
0.5625
 40
0.59375
 40
0.625
 40
0.6875
 40
0.75
 40
0.8125
 40
0.875
 40
1.0
 40
1.0
 40
1.0
 40
1.0
 10
-4.7269135102
 20
-12.4387080231
 30
0.0
 10
-4.7295797785
 20
-12.3645368041
 30
0.0
 10
-4.7335791817
 20
-12.2532799531
 30
0.0
 10
-4.738911716
 20
-12.104937575
 30
0.0
 10
-4.7429111249
 20
-11.9936805667
 30
0.0
 10
-4.7469105026
 20
-11.8824244123
 30
0.0
 10
-4.7502434146
 20
-11.7897082914
 30
0.0
 10
-4.7529095264
 20
-11.7155413489
 30
0.0
 10
-4.7545763423
 20
-11.6691734538
 30
0.0
 10
-4.755908659
 20
-11.6321101837
 30
0.0
 10
-4.7569110067
 20
-11.6042277268
 30
0.0
 10
-4.7577364027
 20
-11.581262758
 30
0.0
 10
-4.7583335962
 20
-11.5646566041
 30
0.0
 10
-4.7586445326
 20
-11.5559959795
 30
0.0
 10
-4.7589631383
 20
-11.5471663142
 30
0.0
 10
-4.7589552892
 20
-11.5472591333
 30
0.0
 10
-4.7590586948
 20
-11.5442706296
 30
0.0
 10
-4.7591866
 20
-11.540490809
 30
0.0
 10
-4.7593970593
 20
-11.5343329571
 30
0.0
 10
-4.7596377378
 20
-11.5272680291
 30
0.0
 10
-4.7599627894
 20
-11.5177347861
 30
0.0
 10
-4.760367684
 20
-11.5058570397
 30
0.0
 10
-4.7610163089
 20
-11.4868309559
 30
0.0
 10
-4.7618268178
 20
-11.4630557938
 30
0.0
 10
-4.7627995451
 20
-11.4345224088
 30
0.0
 10
-4.7637722412
 20
-11.4059898776
 30
0.0
 10
-4.7650691803
 20
-11.3679462031
 30
0.0
 10
-4.7660418822
 20
-11.3394135146
 30
0.0
 10
-4.7666903506
 20
-11.3203917073
 30
0.0
 11
-4.7269135102
 21
-12.4387080231
 31
0.0
 11
-4.734912315
 21
-12.216194366
 31
0.0
 11
-4.7389117173
 21
-12.1049375375
 31
0.0
 11
-4.7429111197
 21
-11.993680709
 31
0.0
 11
-4.7469105221
 21
-11.8824238805
 31
0.0
 11
-4.7509099244
 21
-11.771167052
 31
0.0
 11
-4.7529096256
 21
-11.7155386377
 31
0.0
 11
-4.7549093268
 21
-11.6599102235
 31
0.0
 11
-4.7559091774
 21
-11.6320960163
 31
0.0
 11
-4.756909028
 21
-11.6042818092
 31
0.0
 11
-4.7579088786
 21
-11.5764676021
 31
0.0
 11
-4.7584088039
 21
-11.5625604985
 31
0.0
 11
-4.7586587665
 21
-11.5556069467
 31
0.0
 11
-4.7589087292
 21
-11.5486533949
 31
0.0
 11
-4.7589695231
 21
-11.5468701005
 31
0.0
 11
-4.759030317
 21
-11.5450868061
 31
0.0
 11
-4.7591519048
 21
-11.5415202172
 31
0.0
 11
-4.7593950805
 21
-11.5343870395
 31
0.0
 11
-4.7596382562
 21
-11.5272538617
 31
0.0
 11
-4.7598814318
 21
-11.520120684
 31
0.0
 11
-4.7603677832
 21
-11.5058543285
 31
0.0
 11
-4.7608541345
 21
-11.491587973
 31
0.0
 11
-4.7618268372
 21
-11.4630552621
 31
0.0
 11
-4.7627995399
 21
-11.4345225511
 31
0.0
 11
-4.7637722426
 21
-11.4059898402
 31
0.0
 11
-4.7647449453
 21
-11.3774571292
 31
0.0
 11
-4.7666903506
 21
-11.3203917073
 31
0.0
  0
SPLINE
  5
261
100
AcDbEntity
  8
RACCORDO
100
AcDbSpline
 62
253
  6
CONTINUOUS
 70
0
 71
3
 72
11
 73
7
 74
5
 42
0.0000001
 43
0.0000001
 44
0.0000000001
 12
0.3402490592
 22
0.190646667
 32
0.0
 13
0.3524761714
 23
-0.1669614402
 33
0.0
 40
0.0
 40
0.0
 40
0.0
 40
0.0
 40
0.2258973209
 40
0.4629312427
 40
0.7198014052
 40
1.0
 40
1.0
 40
1.0
 40
1.0
 10
-9.060592053
 20
21.3264806958
 30
0.0
 10
-9.0349716027
 20
21.3408362195
 30
0.0
 10
-8.9777730655
 20
21.3625265116
 30
0.0
 10
-8.8834790724
 20
21.370274073
 30
0.0
 10
-8.7833456797
 20
21.3540060139
 30
0.0
 10
-8.7176032684
 20
21.3291858839
 30
0.0
 10
-8.6846821591
 20
21.3135917635
 30
0.0
 11
-9.060592053
 21
21.3264806958
 31
0.0
 11
-8.9783286533
 21
21.3580263753
 31
0.0
 11
-8.8862648489
 21
21.3664454978
 31
0.0
 11
-8.7872164817
 21
21.3514004521
 31
0.0
 11
-8.6846821591
 21
21.3135917635
 31
0.0
  0
SPLINE
  5
262
100
AcDbEntity
  8
RACCORDO
100
AcDbSpline
 62
253
  6
CONTINUOUS
 70
0
 71
3
 72
11
 73
7
 74
5
 42
0.0000001
 43
0.0000001
 44
0.0000000001
 12
-0.7636429873
 22
0.3818912877
 32
0.0
 13
-0.0480305721
 23
0.8524579941
 33
0.0
 40
0.0
 40
0.0
 40
0.0
 40
0.0
 40
0.2192026259
 40
0.4533512093
 40
0.7123351151
 40
1.0
 40
1.0
 40
1.0
 40
1.0
 10
-9.3198829901
 20
-16.3037902784
 30
0.0
 10
-9.3756805062
 20
-16.2758864207
 30
0.0
 10
-9.4816399679
 20
-16.1973738116
 30
0.0
 10
-9.5996658791
 20
-16.0291465154
 30
0.0
 10
-9.6763815968
 20
-15.8184458935
 30
0.0
 10
-9.6979481792
 20
-15.6632811693
 30
0.0
 10
-9.7025537489
 20
-15.5815404258
 30
0.0
 11
-9.3198829901
 21
-16.3037902784
 31
0.0
 11
-9.4709357101
 21
-16.1932870278
 31
0.0
 11
-9.5880535689
 21
-16.0312661111
 31
0.0
 11
-9.666348882
 21
-15.8244685046
 31
0.0
 11
-9.7025537489
 21
-15.5815404258
 31
0.0
  0
SPLINE
  5
263
100
AcDbEntity
  8
RACCORDO
100
AcDbSpline
 62
253
  6
CONTINUOUS
 70
0
 71
3
 72
11
 73
7
 74
5
 42
0.0000001
 43
0.0000001
 44
0.0000000001
 12
-0.019471775
 22
-0.3811429481
 32
0.0
 13
0.3416609498
 23
-0.170049676
 33
0.0
 40
0.0
 40
0.0
 40
0.0
 40
0.0
 40
0.1971374316
 40
0.4210575516
 40
0.6876408174
 40
1.0
 40
1.0
 40
1.0
 40
1.0
 10
-9.9370372662
 20
19.8584376096
 30
0.0
 10
-9.9383168048
 20
19.8333917623
 30
0.0
 10
-9.9282144747
 20
19.7788040438
 30
0.0
 10
-9.8794138594
 20
19.7043632404
 30
0.0
 10
-9.8020216865
 20
19.6364699616
 30
0.0
 10
-9.7381200369
 20
19.5990865292
 30
0.0
 10
-9.7025463919
 20
19.5813810032
 30
0.0
 11
-9.9370372662
 21
19.8584376096
 31
0.0
 11
-9.9245212832
 21
19.7842504454
 31
0.0
 11
-9.8798423752
 21
19.7114035308
 31
0.0
 11
-9.8047180394
 21
19.6427950345
 31
0.0
 11
-9.7025463919
 21
19.5813810032
 31
0.0
  0
SPLINE
  5
264
100
AcDbEntity
  8
RACCORDO
100
AcDbSpline
 62
253
  6
CONTINUOUS
 70
0
 71
3
 72
9
 73
5
 74
3
 42
0.0000001
 43
0.0000001
 44
0.0000000001
 12
-1.9496325874
 22
35.1216034558
 32
0.0
 13
1.8422073897
 23
35.1274019601
 33
0.0
 40
0.0
 40
0.0
 40
0.0
 40
0.0
 40
0.4929099889
 40
1.0
 40
1.0
 40
1.0
 40
1.0
 10
-9.7025537489
 20
-15.5815404258
 30
0.0
 10
-10.0228848745
 20
-9.8109440364
 30
0.0
 10
-10.3337780072
 20
1.917029015
 30
0.0
 10
-10.0139420708
 20
13.6437930538
 30
0.0
 10
-9.7025537489
 20
19.5813779375
 30
0.0
 11
-9.7025537489
 21
-15.5815404258
 31
0.0
 11
-10.1761274389
 21
1.7504323538
 31
0.0
 11
-9.7025537489
 21
19.5813779375
 31
0.0
  0
SPLINE
  5
265
100
AcDbEntity
  8
RACCORDO
100
AcDbSpline
 62
253
  6
CONTINUOUS
 70
0
 71
3
 72
11
 73
7
 74
5
 42
0.0000001
 43
0.0000001
 44
0.0000000001
 12
0.1106941401
 22
2.0776440717
 32
0.0
 13
1.8269267864
 23
0.9955885687
 33
0.0
 40
0.0
 40
0.0
 40
0.0
 40
0.0
 40
0.249924829
 40
0.5143360651
 40
0.7709917048
 40
1.0
 40
1.0
 40
1.0
 40
1.0
 10
-9.7025537489
 20
19.5813779375
 30
0.0
 10
-9.6933320109
 20
19.754462884
 30
0.0
 10
-9.6224799329
 20
20.1085781383
 30
0.0
 10
-9.402238239
 20
20.600155987
 30
0.0
 10
-9.0901779131
 20
21.0213320083
 30
0.0
 10
-8.824142622
 20
21.2375924166
 30
0.0
 10
-8.6846821591
 20
21.3135917635
 30
0.0
 11
-9.7025537489
 21
19.5813779375
 31
0.0
 11
-9.6065134003
 21
20.0924231447
 31
0.0
 11
-9.3825294536
 21
20.5948929974
 31
0.0
 11
-9.060807542
 21
21.0210925507
 31
0.0
 11
-8.6846821591
 21
21.3135917635
 31
0.0
  0
SPLINE
  5
266
100
AcDbEntity
  8
RACCORDO
100
AcDbSpline
 62
253
  6
CONTINUOUS
 70
0
 71
3
 72
11
 73
7
 74
5
 42
0.0000001
 43
0.0000001
 44
0.0000000001
 12
-0.0113135152
 22
-0.5213648202
 32
0.0
 13
-0.4766235013
 23
-0.2116112222
 33
0.0
 40
0.0
 40
0.0
 40
0.0
 40
0.0
 40
0.2913586214
 40
0.552131472
 40
0.7846146391
 40
1.0
 40
1.0
 40
1.0
 40
1.0
 10
6.2344744927
 20
-23.0376933386
 30
0.0
 10
6.2333757294
 20
-23.0883280503
 30
0.0
 10
6.2230460833
 20
-23.1844634963
 30
0.0
 10
6.1789532147
 20
-23.3149654751
 30
0.0
 10
6.1076542237
 20
-23.4178380292
 30
0.0
 10
6.0421758385
 20
-23.4637230583
 30
0.0
 10
6.0079565969
 20
-23.4789157115
 30
0.0
 11
6.2344744927
 21
-23.0376933386
 31
0.0
 11
6.2167100821
 21
-23.1885911767
 31
0.0
 11
6.1712399255
 21
-23.3167539234
 31
0.0
 11
6.1004326236
 21
-23.4151650774
 31
0.0
 11
6.0079565969
 21
-23.4789157115
 31
0.0
  0
SPLINE
  5
267
100
AcDbEntity
  8
RACCORDO
100
AcDbSpline
 62
253
  6
CONTINUOUS
 70
0
 71
3
 72
11
 73
7
 74
5
 42
0.0000001
 43
0.0000001
 44
0.0000000001
 12
-1.0054711339
 22
-0.5585158444
 32
0.0
 13
-1.0295922785
 23
0.5126908323
 33
0.0
 40
0.0
 40
0.0
 40
0.0
 40
0.0
 40
0.2410257257
 40
0.5058130742
 40
0.7674643878
 40
1.0
 40
1.0
 40
1.0
 40
1.0
 10
5.7409989426
 20
-22.7068521022
 30
0.0
 10
5.6602174727
 20
-22.7517243311
 30
0.0
 10
5.4756883338
 20
-22.8191445344
 30
0.0
 10
5.1823122211
 20
-22.8589467492
 30
0.0
 10
4.8901250215
 20
-22.8403005772
 30
0.0
 10
4.7057435492
 20
-22.7855136045
 30
0.0
 10
4.6259379256
 20
-22.745773979
 30
0.0
 11
5.7409989426
 21
-22.7068521022
 31
0.0
 11
5.4823528291
 21
-22.8066251108
 31
0.0
 11
5.1807525381
 21
-22.848930321
 31
0.0
 11
4.8805613517
 21
-22.8276304962
 31
0.0
 11
4.6259379256
 21
-22.745773979
 31
0.0
  0
SPLINE
  5
268
100
AcDbEntity
  8
RACCORDO
100
AcDbSpline
 62
253
  6
CONTINUOUS
 70
0
 71
3
 72
11
 73
7
 74
5
 42
0.0000001
 43
0.0000001
 44
0.0000000001
 12
0.0496621424
 22
-0.8606037934
 32
0.0
 13
0.7703587484
 23
-0.3868496045
 33
0.0
 40
0.0
 40
0.0
 40
0.0
 40
0.0
 40
0.2852479795
 40
0.543338282
 40
0.7783561883
 40
1.0
 40
1.0
 40
1.0
 40
1.0
 10
4.6259265858
 20
-22.7457805931
 30
0.0
 10
4.6306485943
 20
-22.8276090908
 30
0.0
 10
4.6528228354
 20
-22.9832899637
 30
0.0
 10
4.7314796464
 20
-23.1948721708
 30
0.0
 10
4.8523596017
 20
-23.3643417597
 30
0.0
 10
4.9602951298
 20
-23.4437549752
 30
0.0
 10
5.017210213
 20
-23.4723359155
 30
0.0
 11
4.6259265858
 21
-22.7457805931
 31
0.0
 11
4.6629528639
 21
-22.9888708199
 31
0.0
 11
4.7430058641
 21
-23.1964526225
 31
0.0
 11
4.8627536944
 21
-23.3598683406
 31
0.0
 11
5.017210213
 21
-23.4723359155
 31
0.0
  0
SPLINE
  5
269
100
AcDbEntity
  8
RACCORDO
100
AcDbSpline
 62
253
  6
CONTINUOUS
 70
0
 71
3
 72
15
 73
11
 74
9
 42
0.0000001
 43
0.0000001
 44
0.0000000001
 12
0.0422605823
 22
-0.7217895613
 32
0.0
 13
0.6610660215
 23
0.2928444005
 33
0.0
 40
0.0
 40
0.0
 40
0.0
 40
0.0
 40
0.144293096
 40
0.2764945356
 40
0.3979853565
 40
0.5122559592
 40
0.6244536749
 40
0.7402764391
 40
0.8645148711
 40
1.0
 40
1.0
 40
1.0
 40
1.0
 10
5.7409989426
 20
-22.7068521022
 30
0.0
 10
5.7430315793
 20
-22.741568519
 30
0.0
 10
5.7521121545
 20
-22.8079869264
 30
0.0
 10
5.7832274958
 20
-22.8994412817
 30
0.0
 10
5.8307192052
 20
-22.9754414467
 30
0.0
 10
5.893447246
 20
-23.0328324335
 30
0.0
 10
5.9691137456
 20
-23.0686896123
 30
0.0
 10
6.0541607136
 20
-23.0814930255
 30
0.0
 10
6.1449484508
 20
-23.0713663711
 30
0.0
 10
6.204619621
 20
-23.0509186923
 30
0.0
 10
6.2344744927
 20
-23.0376933386
 30
0.0
 11
5.7409989426
 21
-22.7068521022
 31
0.0
 11
5.7559234688
 21
-22.8101066875
 31
0.0
 11
5.7875703773
 21
-22.9003007679
 31
0.0
 11
5.8348569825
 21
-22.974327893
 31
0.0
 11
5.8961725131
 21
-23.0297044756
 31
0.0
 11
5.9694371944
 21
-23.0645331656
 31
0.0
 11
6.052146513
 21
-23.0776492081
 31
0.0
 11
6.141516448
 21
-23.0685933716
 31
0.0
 11
6.2344744927
 21
-23.0376933386
 31
0.0
  0
SPLINE
  5
26A
100
AcDbEntity
  8
RACCORDO
100
AcDbSpline
 62
253
  6
CONTINUOUS
 70
0
 71
3
 72
13
 73
9
 74
7
 42
0.0000001
 43
0.0000001
 44
0.0000000001
 12
-1.0630264305
 22
-0.4182756973
 32
0.0
 13
-1.0208203136
 23
0.5127432478
 33
0.0
 40
0.0
 40
0.0
 40
0.0
 40
0.0
 40
0.1113054161
 40
0.2337403558
 40
0.4979740163
 40
0.7632933542
 40
0.8870194215
 40
1.0
 40
1.0
 40
1.0
 40
1.0
 10
5.7409989426
 20
12.3622984788
 30
0.0
 10
5.7015587429
 20
12.3467796953
 30
0.0
 10
5.6162000047
 20
12.3205085426
 30
0.0
 10
5.4294911384
 20
12.2857637893
 30
0.0
 10
5.1799103546
 20
12.2772427463
 30
0.0
 10
4.9319309945
 20
12.3103738867
 30
0.0
 10
4.747942558
 20
12.3632945153
 30
0.0
 10
4.664370895
 20
12.3978277687
 30
0.0
 10
4.6259266051
 20
12.4171377783
 30
0.0
 11
5.7409989426
 21
12.3622984788
 31
0.0
 11
5.6197475313
 21
12.3240185465
 31
0.0
 11
5.4823518992
 21
12.297855651
 31
0.0
 11
5.1807489029
 21
12.2856666602
 31
0.0
 11
4.8805536682
 21
12.32745211
 31
0.0
 11
4.7448730764
 21
12.3670449045
 31
0.0
 11
4.6259266051
 21
12.4171377783
 31
0.0
  0
SPLINE
  5
26B
100
AcDbEntity
  8
RACCORDO
100
AcDbSpline
 62
253
  6
CONTINUOUS
 70
0
 71
3
 72
9
 73
5
 74
3
 42
0.0000001
 43
0.0000001
 44
0.0000000001
 12
-1.943519276
 22
-35.123348881
 32
0.0
 13
2.0508886792
 23
-35.1172430497
 33
0.0
 40
0.0
 40
0.0
 40
0.0
 40
0.0
 40
0.5067285724
 40
1.0
 40
1.0
 40
1.0
 40
1.0
 10
4.6259265858
 20
12.4171377702
 30
0.0
 10
4.2976476697
 20
6.4844696249
 30
0.0
 10
3.9607879588
 20
-5.2429636858
 30
0.0
 10
4.2887116569
 20
-16.9716697221
 30
0.0
 10
4.6259265858
 20
-22.7457805931
 30
0.0
 11
4.6259265858
 21
12.4171377702
 31
0.0
 11
4.1269537816
 21
-5.4011082564
 31
0.0
 11
4.6259265858
 21
-22.7457805931
 31
0.0
  0
SPLINE
  5
26C
100
AcDbEntity
  8
RACCORDO
100
AcDbSpline
 62
253
  6
CONTINUOUS
 70
0
 71
3
 72
9
 73
5
 74
3
 42
0.0000001
 43
0.0000001
 44
0.0000000001
 12
-1.9384667428
 22
-35.0296813378
 32
0.0
 13
2.0455485771
 23
-35.0235914629
 33
0.0
 40
0.0
 40
0.0
 40
0.0
 40
0.0
 40
0.5067280892
 40
1.0
 40
1.0
 40
1.0
 40
1.0
 10
5.7409989426
 20
12.3622984788
 30
0.0
 10
5.4135737597
 20
6.4454573152
 30
0.0
 10
5.0775878845
 20
-5.2507037172
 30
0.0
 10
5.4046617242
 20
-16.9481341412
 30
0.0
 10
5.7409989426
 20
-22.7068521022
 30
0.0
 11
5.7409989426
 21
12.3622984788
 31
0.0
 11
5.2433228671
 21
-5.4084152933
 31
0.0
 11
5.7409989426
 21
-22.7068521022
 31
0.0
  0
SPLINE
  5
26D
100
AcDbEntity
  8
RACCORDO
100
AcDbSpline
 62
253
  6
CONTINUOUS
 70
0
 71
3
 72
11
 73
7
 74
5
 42
0.0000001
 43
0.0000001
 44
0.0000000001
 12
-0.0259133344
 22
1.1695811359
 32
0.0
 13
-1.0346327117
 23
0.5460097858
 33
0.0
 40
0.0
 40
0.0
 40
0.0
 40
0.0
 40
0.2463941779
 40
0.5122171751
 40
0.7713861971
 40
1.0
 40
1.0
 40
1.0
 40
1.0
 10
6.2344744927
 20
13.1614305268
 30
0.0
 10
6.2323461945
 20
13.2574898543
 30
0.0
 10
6.1956361474
 20
13.4567378816
 30
0.0
 10
6.0736322515
 20
13.7341860372
 30
0.0
 10
5.8983665793
 20
13.9728776651
 30
0.0
 10
5.7478266888
 20
14.09515077
 30
0.0
 10
5.6689829159
 20
14.1367592279
 30
0.0
 11
6.2344744927
 21
13.1614305268
 31
0.0
 11
6.1867770858
 21
13.4457055237
 31
0.0
 11
6.0625648835
 21
13.7307994735
 31
0.0
 11
5.8807879668
 21
13.9734587101
 31
0.0
 11
5.6689829159
 21
14.1367592279
 31
0.0
  0
SPLINE
  5
26E
100
AcDbEntity
  8
RACCORDO
100
AcDbSpline
 62
253
  6
CONTINUOUS
 70
0
 71
3
 72
11
 73
7
 74
5
 42
0.0000001
 43
0.0000001
 44
0.0000000001
 12
-1.8508811007
 22
-0.9618830527
 32
0.0
 13
-0.1138059894
 23
-2.0827933294
 33
0.0
 40
0.0
 40
0.0
 40
0.0
 40
0.0
 40
0.2306212731
 40
0.4874343326
 40
0.7510576107
 40
1.0
 40
1.0
 40
1.0
 40
1.0
 10
5.6689829141
 20
14.136759227
 30
0.0
 10
5.5266987288
 20
14.0628156622
 30
0.0
 10
5.2545618073
 20
13.8507156699
 30
0.0
 10
4.9341436931
 20
13.4330421372
 30
0.0
 10
4.7080293715
 20
12.9436431379
 30
0.0
 10
4.6353702974
 20
12.5899696195
 30
0.0
 10
4.6259265858
 20
12.4171377702
 30
0.0
 11
5.6689829141
 21
14.136759227
 31
0.0
 11
5.2835532532
 21
13.8489121531
 31
0.0
 11
4.9538695202
 21
13.4266935105
 31
0.0
 11
4.7243424967
 21
12.9269951961
 31
0.0
 11
4.6259265858
 21
12.4171377702
 31
0.0
  0
SPLINE
  5
26F
100
AcDbEntity
  8
RACCORDO
100
AcDbSpline
 62
253
  6
CONTINUOUS
 70
0
 71
3
 72
11
 73
7
 74
5
 42
0.0000001
 43
0.0000001
 44
0.0000000001
 12
-0.8699228561
 22
-0.4401190677
 32
0.0
 13
-0.0540246578
 23
-0.9734227784
 33
0.0
 40
0.0
 40
0.0
 40
0.0
 40
0.0
 40
0.2315282972
 40
0.4884252485
 40
0.7516066726
 40
1.0
 40
1.0
 40
1.0
 40
1.0
 10
6.2344744927
 20
13.1614305268
 30
0.0
 10
6.1673372402
 20
13.1274638541
 30
0.0
 10
6.0387290635
 20
13.0296166352
 30
0.0
 10
5.8869676599
 20
12.8356538048
 30
0.0
 10
5.7798611074
 20
12.6078449367
 30
0.0
 10
5.7454720641
 20
12.4428957198
 30
0.0
 10
5.7409989426
 20
12.3622984788
 30
0.0
 11
6.2344744927
 21
13.1614305268
 31
0.0
 11
6.0521472181
 21
13.0283625941
 31
0.0
 11
5.8961726844
 21
12.8324053488
 31
0.0
 11
5.7875692796
 21
12.5999421623
 31
0.0
 11
5.7409989426
 21
12.3622984788
 31
0.0
  0
SPLINE
  5
270
100
AcDbEntity
  8
RACCORDO
100
AcDbSpline
 62
253
  6
CONTINUOUS
 70
0
 71
3
 72
11
 73
7
 74
5
 42
0.0000001
 43
0.0000001
 44
0.0000000001
 12
0.0451063285
 22
-0.3666911533
 32
0.0
 13
0.3301800312
 23
-0.1657652851
 33
0.0
 40
0.0
 40
0.0
 40
0.0
 40
0.0
 40
0.2146838146
 40
0.4473879688
 40
0.7081669853
 40
1.0
 40
1.0
 40
1.0
 40
1.0
 10
-9.935495724
 20
-15.3125744275
 30
0.0
 10
-9.9322678578
 20
-15.3388153127
 30
0.0
 10
-9.9159591575
 20
-15.3926311399
 30
0.0
 10
-9.8661702199
 20
-15.4654960453
 30
0.0
 10
-9.7934159305
 20
-15.5303195854
 30
0.0
 10
-9.7346728655
 20
-15.5654151485
 30
0.0
 10
-9.7025537209
 20
-15.5815404094
 30
0.0
 11
-9.935495724
 21
-15.3125744275
 31
0.0
 11
-9.9131285131
 21
-15.3886713161
 31
0.0
 11
-9.8656930258
 21
-15.4603745457
 31
0.0
 11
-9.7946121616
 21
-15.5254136339
 31
0.0
 11
-9.7025537209
 21
-15.5815404094
 31
0.0
  0
ELLIPSE
  5
271
100
AcDbEntity
  8
ASSI
100
AcDbEllipse
 62
7
  6
CONTINUOUS
 10
-4.7214491908
 20
22.8388340572
 30
0.0
 11
-0.3581096436
 21
0.7159792755
 31
0.0
 40
0.6119614214
 41
-0.6845271385
 42
0.0285911294
  0
ELLIPSE
  5
272
100
AcDbEntity
  8
ASSI
100
AcDbEllipse
 62
7
  6
CONTINUOUS
 10
9.8445626762
 20
-20.9033663884
 30
0.0
 11
-0.3581096436
 21
0.7159792755
 31
0.0
 40
0.6119614214
 41
-3.1701963768
 42
-2.2560086979
  0
ELLIPSE
  5
273
100
AcDbEntity
  8
ASSI
100
AcDbEllipse
 62
7
  6
CONTINUOUS
 10
9.8445626762
 20
15.5558281237
 30
0.0
 11
-0.3576771294
 21
0.7155948189
 31
0.0
 40
0.6127837007
 41
-2.2550219623
 42
-0.6849108682
  0
ELLIPSE
  5
274
100
AcDbEntity
  8
CURVE
100
AcDbEllipse
 62
253
  6
CONTINUOUS
 10
203.1147245826
 20
107.237040699
 30
0.0
 11
-222.5372089155
 21
360.0730420757
 31
0.0
 40
0.5587456698
 41
1.5604915198
 42
1.5610395842
  0
ELLIPSE
  5
275
100
AcDbEntity
  8
CURVE
100
AcDbEllipse
 62
253
  6
CONTINUOUS
 10
202.4597973097
 20
107.5645043355
 30
0.0
 11
-126.4950215217
 21
337.0312769491
 31
0.0
 40
0.6567855552
 41
-4.6035151432
 42
-4.6029670787
  0
ELLIPSE
  5
276
100
AcDbEntity
  8
CURVE
100
AcDbEllipse
 62
253
  6
CONTINUOUS
 10
198.5841870025
 20
109.5023094891
 30
0.0
 11
-222.5373144465
 21
360.073075684
 31
0.0
 40
0.5587455526
 41
1.5604914346
 42
1.561039499
  0
ELLIPSE
  5
277
100
AcDbEntity
  8
CURVE
100
AcDbEllipse
 62
253
  6
CONTINUOUS
 10
216.7265221258
 20
100.4311419275
 30
0.0
 11
299.6199546794
 21
185.1753333319
 31
0.0
 40
0.0815199027
 41
2.3508225653
 42
2.3513707453
  0
ELLIPSE
  5
278
100
AcDbEntity
  8
CURVE
100
AcDbEllipse
 62
253
  6
CONTINUOUS
 10
200.326701481
 20
108.6310522498
 30
0.0
 11
-222.5372880637
 21
360.0730672819
 31
0.0
 40
0.5587455819
 41
1.5654244871
 42
1.5659726671
  0
ELLIPSE
  5
279
100
AcDbEntity
  8
CURVE
100
AcDbEllipse
 62
253
  6
CONTINUOUS
 10
220.0953768763
 20
98.7467145522
 30
0.0
 11
299.6198903103
 21
185.1753640791
 31
0.0
 40
0.0815200719
 41
2.3508226505
 42
2.3513708305
  0
ELLIPSE
  5
27A
100
AcDbEntity
  8
CURVE
100
AcDbEllipse
 62
253
  6
CONTINUOUS
 10
201.4883771288
 20
108.0502144259
 30
0.0
 11
-222.5372880637
 21
360.0730672819
 31
0.0
 40
0.5587455819
 41
1.5654244871
 42
1.5659726671
  0
ELLIPSE
  5
27B
100
AcDbEntity
  8
CURVE
100
AcDbEllipse
 62
253
  6
CONTINUOUS
 10
221.2570521363
 20
98.1658769222
 30
0.0
 11
299.6198903103
 21
185.1753640791
 31
0.0
 40
0.0815200719
 41
2.3508226505
 42
2.3513708305
  0
ELLIPSE
  5
27C
100
AcDbEntity
  8
CURVE
100
AcDbEllipse
 62
253
  6
CONTINUOUS
 10
196.7785415262
 20
110.4051322272
 30
0.0
 11
-338.3470904718
 21
405.7604760438
 31
0.0
 40
0.4392854384
 41
1.5106161302
 42
1.5109815495
  0
ELLIPSE
  5
27D
100
AcDbEntity
  8
CURVE
100
AcDbEllipse
 62
253
  6
CONTINUOUS
 10
197.9402167863
 20
109.8242945972
 30
0.0
 11
-338.3470904718
 21
405.7604760438
 31
0.0
 40
0.4392854384
 41
1.5106161302
 42
1.5109815495
  0
ELLIPSE
  5
27E
100
AcDbEntity
  8
CURVE
100
AcDbEllipse
 62
253
  6
CONTINUOUS
 10
156.9457183239
 20
130.3215438284
 30
0.0
 11
1284.9187462218
 21
-886.0155350823
 31
0.0
 40
0.1334598138
 41
-1.6015841157
 42
-1.6012187021
  0
ELLIPSE
  5
27F
100
AcDbEntity
  8
CURVE
100
AcDbEllipse
 62
253
  6
CONTINUOUS
 10
155.7839974525
 20
130.9024042641
 30
0.0
 11
1284.9198005162
 21
-886.0160718791
 31
0.0
 40
0.1334597058
 41
-1.6015840739
 42
-1.6012186603
  0
ELLIPSE
  5
280
100
AcDbEntity
  8
CURVE
100
AcDbEllipse
 62
253
  6
CONTINUOUS
 10
196.4300386768
 20
110.579383652
 30
0.0
 11
-338.3470904718
 21
405.7604760438
 31
0.0
 40
0.4392854384
 41
1.5098853087
 42
1.5102507166
  0
ELLIPSE
  5
281
100
AcDbEntity
  8
CURVE
100
AcDbEllipse
 62
253
  6
CONTINUOUS
 10
197.5917143246
 20
109.9985458281
 30
0.0
 11
-338.3470904718
 21
405.7604760438
 31
0.0
 40
0.4392854384
 41
1.5098853087
 42
1.5102507166
  0
ELLIPSE
  5
282
100
AcDbEntity
  8
CURVE
100
AcDbEllipse
 62
253
  6
CONTINUOUS
 10
218.4690290347
 20
99.559888473
 30
0.0
 11
299.6198420335
 21
185.1753871395
 31
0.0
 40
0.0815201988
 41
2.3458896832
 42
2.3464377476
  0
ELLIPSE
  5
283
100
AcDbEntity
  8
CURVE
100
AcDbEllipse
 62
253
  6
CONTINUOUS
 10
201.9530493226
 20
107.817878329
 30
0.0
 11
-222.5372089155
 21
360.0730420757
 31
0.0
 40
0.5587456698
 41
1.5604915198
 42
1.5610395842
  0
ELLIPSE
  5
284
100
AcDbEntity
  8
CURVE
100
AcDbEllipse
 62
253
  6
CONTINUOUS
 10
199.2811856539
 20
109.1538101634
 30
0.0
 11
-222.5374991257
 21
360.0731344985
 31
0.0
 40
0.5587453476
 41
1.5648761503
 42
1.5659724968
  0
ELLIPSE
  5
285
100
AcDbEntity
  8
CURVE
100
AcDbEllipse
 62
253
  6
CONTINUOUS
 10
217.4235318892
 20
100.0826370457
 30
0.0
 11
299.6200351408
 21
185.175294898
 31
0.0
 40
0.0815196912
 41
2.3458894277
 42
2.3469855683
  0
ELLIPSE
  5
286
100
AcDbEntity
  8
CURVE
100
AcDbEllipse
 62
253
  6
CONTINUOUS
 10
219.6307046825
 20
98.9790506491
 30
0.0
 11
299.6198420335
 21
185.1753871395
 31
0.0
 40
0.0815201988
 41
2.3458896832
 42
2.3464377476
  0
ELLIPSE
  5
287
100
AcDbEntity
  8
CURVE
100
AcDbEllipse
 62
253
  6
CONTINUOUS
 10
200.675202839
 20
108.4568015708
 30
0.0
 11
-222.5373144465
 21
360.073075684
 31
0.0
 40
0.5587455526
 41
1.5604914346
 42
1.5615875752
  0
ELLIPSE
  5
288
100
AcDbEntity
  8
RACCORDO
100
AcDbEllipse
 62
7
  6
CONTINUOUS
 10
-4.7214491908
 20
22.8388340572
 30
0.0
 11
-0.3581096436
 21
0.7159792755
 31
0.0
 40
0.6119614214
 41
-0.6845271385
 42
0.0285911294
  0
ELLIPSE
  5
289
100
AcDbEntity
  8
RACCORDO
100
AcDbEllipse
 62
7
  6
CONTINUOUS
 10
9.8445626762
 20
-20.9033663884
 30
0.0
 11
-0.3581096436
 21
0.7159792755
 31
0.0
 40
0.6119614214
 41
-3.1701963768
 42
-2.2560086979
  0
ELLIPSE
  5
28A
100
AcDbEntity
  8
RACCORDO
100
AcDbEllipse
 62
7
  6
CONTINUOUS
 10
9.8445626762
 20
15.5558281237
 30
0.0
 11
-0.3576771294
 21
0.7155948189
 31
0.0
 40
0.6127837007
 41
-2.2550219623
 42
-0.6849108682
  0
ENDSEC
  0
SECTION
  2
OBJECTS
  0
DICTIONARY
  5
C
100
AcDbDictionary
280
0
281
1
  3
ACAD_GROUP
350
D
  3
ACAD_MLINESTYLE
350
17
  3
ACAD_LAYOUT
350
1A
  3
ACAD_PLOTSETTINGS
350
19
  3
ACAD_PLOTSTYLENAME
350
E
  0
DICTIONARY
  5
D
102
{ACAD_REACTORS
330
C
102
}
100
AcDbDictionary
280
0
281
1
  0
ACDBDICTIONARYWDFLT
  5
E
102
{ACAD_REACTORS
330
C
102
}
100
AcDbDictionary
281
1
  3
Normal
350
F
100
AcDbDictionaryWithDefault
340
F
  0
DICTIONARY
  5
17
102
{ACAD_REACTORS
330
C
102
}
100
AcDbDictionary
280
0
281
1
  3
Standard
350
18
  0
DICTIONARY
  5
19
102
{ACAD_REACTORS
330
C
102
}
100
AcDbDictionary
281
1
  0
DICTIONARY
  5
1A
102
{ACAD_REACTORS
330
C
102
}
100
AcDbDictionary
281
1
  3
Model
350
28B
  3
Layout1
350
28C
  0
ACDBPLACEHOLDER
  5
F
102
{ACAD_REACTORS
330
E
102
}
  0
MLINESTYLE
  5
18
102
{ACAD_REACTORS
330
17
102
}
100
AcDbMlineStyle
  2
STANDARD
 70
0
  3

 62
256
 51
90.0
 52
90.0
 71
2
 49
0.5
 62
256
  6
BYLAYER
 49
-0.5
 62
256
  6
BYLAYER
  0
LAYOUT
  5
28B
102
{ACAD_REACTORS
330
1A
102
}
100
AcDbPlotSettings
  1

  2
none_device
  4
ISO_A4_(297.00_x_210.00_MM)
  6

 40
0.0
 41
0.0
 42
0.0
 43
0.0
 44
297.0
 45
210.0
 46
0.0
 47
0.0
 48
0.0
 49
0.0
140
0.0
141
0.0
142
1.0
143
1.0
 70
1024
 72
1
 73
0
 74
0
  7

 75
0
147
1.0
148
0.0
149
0.0
100
AcDbLayout
  1
Model
 70
0
 71
0
 10
0.0
 20
0.0
 11
297.0
 21
210.0
 12
0.0
 22
0.0
 32
0.0
 14
0.0
 24
0.0
 34
0.0
 15
0.0
 25
0.0
 35
0.0
146
0.0
 13
0.0
 23
0.0
 33
0.0
 16
1.0
 26
0.0
 36
0.0
 17
0.0
 27
1.0
 37
0.0
 76
0
330
210
345
0
346
0
  0
LAYOUT
  5
28C
102
{ACAD_REACTORS
330
1A
102
}
100
AcDbPlotSettings
  1

  2
none_device
  4
ISO_A4_(297.00_x_210.00_MM)
  6

 40
0.0
 41
0.0
 42
0.0
 43
0.0
 44
297.0
 45
210.0
 46
0.0
 47
0.0
 48
0.0
 49
0.0
140
0.0
141
0.0
142
1.0
143
1.0
 70
0
 72
1
 73
0
 74
0
  7

 75
0
147
1.0
148
0.0
149
0.0
100
AcDbLayout
  1
Layout1
 70
0
 71
1
 10
0.0
 20
0.0
 11
297.0
 21
210.0
 12
0.0
 22
0.0
 32
0.0
 14
0.0
 24
0.0
 34
0.0
 15
0.0
 25
0.0
 35
0.0
146
0.0
 13
0.0
 23
0.0
 33
0.0
 16
1.0
 26
0.0
 36
0.0
 17
0.0
 27
1.0
 37
0.0
 76
0
330
211
345
0
346
0
  0
ENDSEC
  0
EOF
