  0
SECTION
  2
HEADER
  9
$ACADVER
  1
AC1024
  9
$DWGCODEPAGE
  3
ANSI_1252
  9
$EXTMAX
 10
297.0
 20
210.0
 30
0.0
  9
$EXTMIN
 10
0.0
 20
0.0
 30
0.0
  9
$LIMMIN
 10
0.0
 20
0.0
  9
$LIMMAX
 10
297.0
 20
210.0
  9
$VIEWCTR
 10
148.5
 20
105.0
  9
$VIEWSIZE
 40
210.0
  9
$CLAYER
  8
0
  9
$LTSCALE
 40
16.335
  9
$CELTYPE
  6
BYLAYER
  9
$DIMSCALE
 40
1.0
  9
$DIMASZ
 40
3.0
  9
$DIMEXO
 40
0.5
  9
$DIMDLI
 40
11.286
  9
$DIMEXE
 40
1.5
  9
$DIMCEN
 40
2.673
  9
$DIMLFAC
 40
1.0
  9
$DIMBLK
  1
_FILLED
  9
$DIMALT
 70
0
  9
$DIMALTF
 40
0.0393700787
  9
$DIMTXT
 40
3.0
  9
$DIMTOL
 70
1
  9
$DIMLIM
 70
0
  9
$DIMTFAC
 40
1.0
  9
$DIMTP
 40
0.01
  9
$DIMTM
 40
0.01
  9
$DIMGAP
 40
0.625
  9
$DIMDSEP
 70
44
  9
$AUNITS
 70
0
  9
$PDMODE
 70
3
  9
$PDSIZE
 40
3.0
  9
$HANDSEED
  5
42E
  9
$TILEMODE
 70
1
  9
$MEASUREMENT
 70
1
  9
$INSUNITS
 70
4
  0
ENDSEC
  0
SECTION
  2
CLASSES
  0
CLASS
  1
ACDBDICTIONARYWDFLT
  2
AcDbDictionaryWithDefault
  3
AutoCAD 2000
 90
0
 91
1
280
0
281
0
  0
CLASS
  1
ACDBPLACEHOLDER
  2
AcDbPlaceHolder
  3
AutoCAD 2000
 90
0
 91
1
280
0
281
0
  0
CLASS
  1
LAYOUT
  2
AcDbLayout
  3
AutoCAD 2000
 90
0
 91
0
280
0
281
0
  0
ENDSEC
  0
SECTION
  2
TABLES
  0
TABLE
  2
VPORT
  5
8
100
AcDbSymbolTable
 70
2
  0
VPORT
  5
1F4
100
AcDbSymbolTableRecord
100
AcDbViewportTableRecord
  2
*ACTIVE
 70
0
 10
0.0
 20
0.0
 11
1.0
 21
1.0
 12
148.5
 22
105.0
 13
0.0
 23
0.0
 14
1.0
 24
1.0
 15
0.0
 25
0.0
 16
0.0
 26
0.0
 36
1.0
 17
0.0
 27
0.0
 37
0.0
 40
210.0
 41
1.4142857143
 42
50.0
 43
0.0
 44
0.0
 50
0.0
 51
0.0
 71
0
 72
100
 73
1
 74
1
 75
0
 76
0
 77
0
 78
0
  0
ENDTAB
  0
TABLE
  2
LTYPE
  5
5
100
AcDbSymbolTable
 70
6
  0
LTYPE
  5
14
100
AcDbSymbolTableRecord
100
AcDbLinetypeTableRecord
  2
BYBLOCK
 70
0
  3

 72
65
 73
0
 40
0.0
  0
LTYPE
  5
15
100
AcDbSymbolTableRecord
100
AcDbLinetypeTableRecord
  2
BYLAYER
 70
0
  3

 72
65
 73
0
 40
0.0
  0
LTYPE
  5
16
100
AcDbSymbolTableRecord
100
AcDbLinetypeTableRecord
  2
CONTINUOUS
 70
64
  3
Solid line
 72
65
 73
0
 40
0.0
  0
LTYPE
  5
1F5
100
AcDbSymbolTableRecord
100
AcDbLinetypeTableRecord
  2
CENTER
 70
64
  3
____ _ ____ _ ____ _ ____ _ ____ _ ____ _ ____
 72
65
 73
4
 40
0.6
 49
0.375
 74
0
 49
-0.075
 74
0
 49
0.075
 74
0
 49
-0.075
 74
0
  0
LTYPE
  5
1F6
100
AcDbSymbolTableRecord
100
AcDbLinetypeTableRecord
  2
HIDDEN
 70
64
  3
- - - - - - - - - - - - - - - - - - - -
 72
65
 73
2
 40
0.2
 49
0.1
 74
0
 49
-0.1
 74
0
  0
LTYPE
  5
1F7
100
AcDbSymbolTableRecord
100
AcDbLinetypeTableRecord
  2
PHANTOM
 70
64
  3
_____ _ _ _____ _ _ _____ _ _ _____
 72
65
 73
6
 40
0.8
 49
0.45
 74
0
 49
-0.05
 74
0
 49
0.1
 74
0
 49
-0.05
 74
0
 49
0.1
 74
0
 49
-0.05
 74
0
  0
LTYPE
  5
1F8
100
AcDbSymbolTableRecord
100
AcDbLinetypeTableRecord
  2
DOT
 70
64
  3
. . . . . . . . . . . . . . . . . . . .
 72
65
 73
2
 40
0.2
 49
0.1
 74
0
 49
-0.1
 74
0
  0
LTYPE
  5
1F9
100
AcDbSymbolTableRecord
100
AcDbLinetypeTableRecord
  2
DASHED
 70
64
  3
- - - - - - - - - - - - - - - - - - - -
 72
65
 73
2
 40
0.2
 49
0.1
 74
0
 49
-0.1
 74
0
  0
ENDTAB
  0
TABLE
  2
LAYER
  5
2
100
AcDbSymbolTable
 70
36
  0
LAYER
  5
10
100
AcDbSymbolTableRecord
100
AcDbLayerTableRecord
  2
0
 70
0
 62
7
  6
CONTINUOUS
370
-3
390
F
  0
LAYER
  5
1FA
100
AcDbSymbolTableRecord
100
AcDbLayerTableRecord
  2
DEFAULT_1
 70
0
 62
7
  6
CENTER
370
-3
390
F
  0
LAYER
  5
1FB
100
AcDbSymbolTableRecord
100
AcDbLayerTableRecord
  2
DEFAULT_2
 70
0
 62
7
  6
HIDDEN
370
-3
390
F
  0
LAYER
  5
1FC
100
AcDbSymbolTableRecord
100
AcDbLayerTableRecord
  2
DEFAULT_3
 70
0
 62
7
  6
PHANTOM
370
-3
390
F
  0
LAYER
  5
1FD
100
AcDbSymbolTableRecord
100
AcDbLayerTableRecord
  2
218_INCISO
 70
0
 62
7
  6
CONTINUOUS
370
-3
390
F
  0
LAYER
  5
1FE
100
AcDbSymbolTableRecord
100
AcDbLayerTableRecord
  2
218_STAMPATO
 70
0
 62
7
  6
CONTINUOUS
370
-3
390
F
  0
LAYER
  5
1FF
100
AcDbSymbolTableRecord
100
AcDbLayerTableRecord
  2
260
 70
0
 62
7
  6
CONTINUOUS
370
-3
390
F
  0
LAYER
  5
200
100
AcDbSymbolTableRecord
100
AcDbLayerTableRecord
  2
268
 70
0
 62
7
  6
CONTINUOUS
370
-3
390
F
  0
LAYER
  5
201
100
AcDbSymbolTableRecord
100
AcDbLayerTableRecord
  2
284
 70
0
 62
7
  6
CONTINUOUS
370
-3
390
F
  0
LAYER
  5
202
100
AcDbSymbolTableRecord
100
AcDbLayerTableRecord
  2
320
 70
0
 62
7
  6
CONTINUOUS
370
-3
390
F
  0
LAYER
  5
203
100
AcDbSymbolTableRecord
100
AcDbLayerTableRecord
  2
340
 70
0
 62
7
  6
CONTINUOUS
370
-3
390
F
  0
LAYER
  5
204
100
AcDbSymbolTableRecord
100
AcDbLayerTableRecord
  2
712
 70
0
 62
7
  6
CONTINUOUS
370
-3
390
F
  0
LAYER
  5
205
100
AcDbSymbolTableRecord
100
AcDbLayerTableRecord
  2
715
 70
0
 62
7
  6
CONTINUOUS
370
-3
390
F
  0
LAYER
  5
206
100
AcDbSymbolTableRecord
100
AcDbLayerTableRecord
  2
ASSI
 70
0
 62
7
  6
CONTINUOUS
370
-3
390
F
  0
LAYER
  5
207
100
AcDbSymbolTableRecord
100
AcDbLayerTableRecord
  2
COLORE_TOP
 70
0
 62
7
  6
CONTINUOUS
370
-3
390
F
  0
LAYER
  5
208
100
AcDbSymbolTableRecord
100
AcDbLayerTableRecord
  2
COORDINATE
 70
0
 62
7
  6
CONTINUOUS
370
-3
390
F
  0
LAYER
  5
209
100
AcDbSymbolTableRecord
100
AcDbLayerTableRecord
  2
COORD_ORIGINE
 70
0
 62
7
  6
CONTINUOUS
370
-3
390
F
  0
LAYER
  5
20A
100
AcDbSymbolTableRecord
100
AcDbLayerTableRecord
  2
COPY-PUBBLISH
 70
0
 62
7
  6
CONTINUOUS
370
-3
390
F
  0
LAYER
  5
20B
100
AcDbSymbolTableRecord
100
AcDbLayerTableRecord
  2
COSMETICHE
 70
0
 62
7
  6
CONTINUOUS
370
-3
390
F
  0
LAYER
  5
20C
100
AcDbSymbolTableRecord
100
AcDbLayerTableRecord
  2
CURVA_CENTRALE
 70
0
 62
7
  6
CONTINUOUS
370
-3
390
F
  0
LAYER
  5
20D
100
AcDbSymbolTableRecord
100
AcDbLayerTableRecord
  2
CURVE
 70
0
 62
7
  6
CONTINUOUS
370
-3
390
F
  0
LAYER
  5
20E
100
AcDbSymbolTableRecord
100
AcDbLayerTableRecord
  2
DRAFT
 70
0
 62
7
  6
CONTINUOUS
370
-3
390
F
  0
LAYER
  5
20F
100
AcDbSymbolTableRecord
100
AcDbLayerTableRecord
  2
IGES
 70
0
 62
7
  6
CONTINUOUS
370
-3
390
F
  0
LAYER
  5
210
100
AcDbSymbolTableRecord
100
AcDbLayerTableRecord
  2
IMPORT
 70
0
 62
7
  6
CONTINUOUS
370
-3
390
F
  0
LAYER
  5
211
100
AcDbSymbolTableRecord
100
AcDbLayerTableRecord
  2
IMPORTED
 70
0
 62
7
  6
CONTINUOUS
370
-3
390
F
  0
LAYER
  5
212
100
AcDbSymbolTableRecord
100
AcDbLayerTableRecord
  2
INTF_1
 70
0
 62
7
  6
CONTINUOUS
370
-3
390
F
  0
LAYER
  5
213
100
AcDbSymbolTableRecord
100
AcDbLayerTableRecord
  2
INTF_11
 70
0
 62
7
  6
CONTINUOUS
370
-3
390
F
  0
LAYER
  5
214
100
AcDbSymbolTableRecord
100
AcDbLayerTableRecord
  2
INTF_2
 70
0
 62
7
  6
CONTINUOUS
370
-3
390
F
  0
LAYER
  5
215
100
AcDbSymbolTableRecord
100
AcDbLayerTableRecord
  2
INTF_5
 70
0
 62
7
  6
CONTINUOUS
370
-3
390
F
  0
LAYER
  5
216
100
AcDbSymbolTableRecord
100
AcDbLayerTableRecord
  2
INTF_6
 70
0
 62
7
  6
CONTINUOUS
370
-3
390
F
  0
LAYER
  5
217
100
AcDbSymbolTableRecord
100
AcDbLayerTableRecord
  2
INTF_CYAN
 70
0
 62
7
  6
CONTINUOUS
370
-3
390
F
  0
LAYER
  5
218
100
AcDbSymbolTableRecord
100
AcDbLayerTableRecord
  2
NOTE
 70
0
 62
7
  6
CONTINUOUS
370
-3
390
F
  0
LAYER
  5
219
100
AcDbSymbolTableRecord
100
AcDbLayerTableRecord
  2
PIANI
 70
0
 62
7
  6
CONTINUOUS
370
-3
390
F
  0
LAYER
  5
21A
100
AcDbSymbolTableRecord
100
AcDbLayerTableRecord
  2
PIANI_DI_RIFERIMENTO
 70
0
 62
7
  6
CONTINUOUS
370
-3
390
F
  0
LAYER
  5
21B
100
AcDbSymbolTableRecord
100
AcDbLayerTableRecord
  2
PIANI_ORIGINE
 70
0
 62
7
  6
CONTINUOUS
370
-3
390
F
  0
LAYER
  5
21C
100
AcDbSymbolTableRecord
100
AcDbLayerTableRecord
  2
PIANI_RIFERIMENTO
 70
0
 62
7
  6
CONTINUOUS
370
-3
390
F
  0
LAYER
  5
21D
100
AcDbSymbolTableRecord
100
AcDbLayerTableRecord
  2
PIANI_SFORMO
 70
0
 62
7
  6
CONTINUOUS
370
-3
390
F
  0
LAYER
  5
21E
100
AcDbSymbolTableRecord
100
AcDbLayerTableRecord
  2
PUNTI
 70
0
 62
7
  6
CONTINUOUS
370
-3
390
F
  0
LAYER
  5
21F
100
AcDbSymbolTableRecord
100
AcDbLayerTableRecord
  2
RACCORDO
 70
0
 62
7
  6
CONTINUOUS
370
-3
390
F
  0
LAYER
  5
220
100
AcDbSymbolTableRecord
100
AcDbLayerTableRecord
  2
RGB__255__255__255__
 70
0
 62
7
  6
CONTINUOUS
370
-3
390
F
  0
LAYER
  5
221
100
AcDbSymbolTableRecord
100
AcDbLayerTableRecord
  2
RGB____0____0____0__
 70
0
 62
7
  6
CONTINUOUS
370
-3
390
F
  0
LAYER
  5
222
100
AcDbSymbolTableRecord
100
AcDbLayerTableRecord
  2
RINTRACCIABILITA
 70
0
 62
7
  6
CONTINUOUS
370
-3
390
F
  0
LAYER
  5
223
100
AcDbSymbolTableRecord
100
AcDbLayerTableRecord
  2
SMUSSO
 70
0
 62
7
  6
CONTINUOUS
370
-3
390
F
  0
LAYER
  5
224
100
AcDbSymbolTableRecord
100
AcDbLayerTableRecord
  2
SNAPLINE
 70
0
 62
7
  6
CONTINUOUS
370
-3
390
F
  0
LAYER
  5
225
100
AcDbSymbolTableRecord
100
AcDbLayerTableRecord
  2
SUPERFICI
 70
0
 62
7
  6
CONTINUOUS
370
-3
390
F
  0
LAYER
  5
226
100
AcDbSymbolTableRecord
100
AcDbLayerTableRecord
  2
TRASH
 70
0
 62
7
  6
CONTINUOUS
370
-3
390
F
  0
LAYER
  5
227
100
AcDbSymbolTableRecord
100
AcDbLayerTableRecord
  2
WHITE
 70
0
 62
7
  6
CONTINUOUS
370
-3
390
F
  0
LAYER
  5
228
100
AcDbSymbolTableRecord
100
AcDbLayerTableRecord
  2
XSEC_DATUMS
 70
0
 62
7
  6
CONTINUOUS
370
-3
390
F
  0
ENDTAB
  0
TABLE
  2
STYLE
  5
3
100
AcDbSymbolTable
 70
1
  0
STYLE
  5
11
100
AcDbSymbolTableRecord
100
AcDbTextStyleTableRecord
  2
STANDARD
 70
0
 40
0.0
 41
0.8
 50
0.0
 71
0
 42
0.2
  3
txt
  4

  0
STYLE
  5
229
100
AcDbSymbolTableRecord
100
AcDbTextStyleTableRecord
  2
TEXTSTYLE_1
 70
0
 40
0.0
 41
0.8
 50
0.0
 71
0
 42
0.2
  3
gdt
  4

  0
ENDTAB
  0
TABLE
  2
VIEW
  5
6
100
AcDbSymbolTable
 70
0
  0
ENDTAB
  0
TABLE
  2
UCS
  5
7
100
AcDbSymbolTable
 70
0
  0
ENDTAB
  0
TABLE
  2
APPID
  5
9
100
AcDbSymbolTable
 70
1
  0
APPID
  5
22A
100
AcDbSymbolTableRecord
100
AcDbRegAppTableRecord
  2
ACAD
 70
0
  0
ENDTAB
  0
TABLE
  2
BLOCK_RECORD
  5
1
100
AcDbSymbolTable
 70
0
  0
BLOCK_RECORD
  5
22B
100
AcDbSymbolTableRecord
100
AcDbBlockTableRecord
  2
*Model_Space
  0
BLOCK_RECORD
  5
22C
100
AcDbSymbolTableRecord
100
AcDbBlockTableRecord
  2
*Paper_Space
  0
BLOCK_RECORD
  5
22D
100
AcDbSymbolTableRecord
100
AcDbBlockTableRecord
  2
_FILLED
  0
ENDTAB
  0
TABLE
  2
DIMSTYLE
  5
A
100
AcDbSymbolTable
 70
1
100
AcDbDimStyleTable
 71
0
  0
DIMSTYLE
105
22E
100
AcDbSymbolTableRecord
100
AcDbDimStyleTableRecord
  2
STANDARD
 70
0
  3

  4

 40
1.0
 41
3.0
 42
0.5
 43
0.38
 44
1.5
 45
0.0
 46
0.0
 47
0.01
 48
0.01
140
3.0
141
0.09
142
0.0
143
25.4
144
1.0
145
0.0
146
1.0
147
0.625
 71
1
 72
0
 73
0
 74
0
 75
0
 76
0
 77
1
 78
8
 79
2
170
0
171
1
172
0
173
0
174
0
175
0
176
0
177
0
178
0
270
2
179
2
271
2
272
2
273
2
274
2
275
0
280
0
281
0
282
0
283
1
284
8
285
0
286
0
287
3
288
0
340
11
278
44
341
22D
342
22D
343
22D
344
22D
  0
ENDTAB
  0
ENDSEC
  0
SECTION
  2
BLOCKS
  0
BLOCK
  5
20
100
AcDbEntity
  8
0
100
AcDbBlockBegin
  2
*Model_Space
 70
0
 10
0.0
 20
0.0
 30
0.0
  3
*Model_Space
  1

  0
ENDBLK
  5
21
100
AcDbEntity
  8
0
100
AcDbBlockEnd
  0
BLOCK
  5
1C
100
AcDbEntity
  8
0
100
AcDbBlockBegin
  2
*Paper_Space
 70
0
 10
0.0
 20
0.0
 30
0.0
  3
*Paper_Space
  1

  0
ENDBLK
  5
1D
100
AcDbEntity
  8
0
100
AcDbBlockEnd
  0
BLOCK
  5
22F
100
AcDbEntity
  8
0
100
AcDbBlockBegin
  2
_FILLED
 70
64
 10
0.0
 20
0.0
  3
_FILLED
  1

  0
SOLID
  5
230
100
AcDbEntity
  8
0
  6
BYBLOCK
 62
0
100
AcDbTrace
 10
0.0
 20
0.0
 11
-1.0
 21
0.3166666667
 12
-1.0
 22
-0.3166666667
 13
-1.0
 23
-0.3166666667
  0
ENDBLK
  5
231
100
AcDbEntity
  8
0
  6
BYBLOCK
 62
0
100
AcDbBlockEnd
  0
ENDSEC
  0
SECTION
  2
ENTITIES
  0
LINE
  5
232
100
AcDbEntity
  8
268
100
AcDbLine
 62
7
  6
CONTINUOUS
 10
-13.4751403597
 20
23.0263498398
 11
-11.8923837566
 21
23.8383339372
  0
LINE
  5
233
100
AcDbEntity
  8
268
100
AcDbLine
 62
7
  6
CONTINUOUS
 10
-13.9590954721
 20
21.2836494378
 11
-12.946873188
 21
21.8005794005
  0
LINE
  5
234
100
AcDbEntity
  8
268
100
AcDbLine
 62
250
  6
CONTINUOUS
 10
-13.8015720658
 20
21.2742161082
 11
-12.946873188
 21
21.7107007282
  0
LINE
  5
235
100
AcDbEntity
  8
268
100
AcDbLine
 62
7
  6
CONTINUOUS
 10
-11.8673189507
 20
22.2224391353
 11
-10.2660381598
 21
23.0251611388
  0
LINE
  5
236
100
AcDbEntity
  8
268
100
AcDbLine
 62
7
  6
CONTINUOUS
 10
-10.2660381598
 20
23.0251611388
 11
-9.7377709881
 21
23.2885999588
  0
LINE
  5
237
100
AcDbEntity
  8
268
100
AcDbLine
 62
7
  6
CONTINUOUS
 10
-11.8923837566
 20
23.8383339372
 11
-11.3579338779
 21
24.0986814037
  0
LWPOLYLINE
  5
238
100
AcDbEntity
  8
0
100
AcDbPolyline
 62
7
  6
CONTINUOUS
 90
19
 70
0
 10
-17.7438532699
 20
19.0797611617
 10
-17.7627071869
 20
19.0710922019
 10
-17.8539733449
 20
19.0239036366
 10
-17.9422831965
 20
18.9695400409
 10
-18.0276800216
 20
18.9080885642
 10
-18.1098342003
 20
18.8398899977
 10
-18.188046881
 20
18.7656583154
 10
-18.2623589607
 20
18.6855000163
 10
-18.3326130103
 20
18.5996269266
 10
-18.3979361704
 20
18.5091551138
 10
-18.4582984885
 20
18.4142757269
 10
-18.5135495333
 20
18.3151669612
 10
-18.5629015569
 20
18.2132661189
 10
-18.6062867352
 20
18.1088314277
 10
-18.6435593002
 20
18.0020271417
 10
-18.67419651
 20
17.8942783045
 10
-18.698042105
 20
17.7861482594
 10
-18.7150882975
 20
17.6774290721
 10
-18.7187256411
 20
17.6458725884
  0
LINE
  5
239
100
AcDbEntity
  8
0
100
AcDbLine
 62
7
  6
CONTINUOUS
 10
-17.743858133
 20
19.0797719755
 11
-17.7437799553
 21
19.0798071682
  0
LINE
  5
23A
100
AcDbEntity
  8
0
100
AcDbLine
 62
7
  6
CONTINUOUS
 10
-17.7437799553
 20
19.0798071682
 11
-13.8032922307
 21
20.8530815078
  0
LWPOLYLINE
  5
23B
100
AcDbEntity
  8
0
100
AcDbPolyline
 62
7
  6
CONTINUOUS
 90
12
 70
0
 10
-5.773264606
 20
-26.8609936753
 10
-5.7382719034
 20
-26.8777554153
 10
-5.6507828221
 20
-26.913207057
 10
-5.5601517178
 20
-26.9410135961
 10
-5.4668851572
 20
-26.9609468839
 10
-5.3710932374
 20
-26.9728367764
 10
-5.2733885782
 20
-26.9764345759
 10
-5.1745051926
 20
-26.9715690951
 10
-5.0745910534
 20
-26.9580549859
 10
-4.9740582949
 20
-26.9356900712
 10
-4.8737290027
 20
-26.9044477167
 10
-4.8487745868
 20
-26.895257066
  0
LINE
  5
23C
100
AcDbEntity
  8
0
100
AcDbLine
 62
7
  6
CONTINUOUS
 10
-5.7721086876
 20
-26.8615779352
 11
-20.1117930107
 21
-19.6917357737
  0
LINE
  5
23D
100
AcDbEntity
  8
0
100
AcDbLine
 62
250
  6
CONTINUOUS
 10
-6.1674222431
 20
-26.0452508137
 11
-20.4961557509
 21
-18.8808840598
  0
LWPOLYLINE
  5
23E
100
AcDbEntity
  8
0
100
AcDbPolyline
 62
250
  6
CONTINUOUS
 90
14
 70
0
 10
-20.1117754412
 20
-19.6917445584
 10
-20.1390943119
 20
-19.6771059031
 10
-20.1933356902
 20
-19.6416761603
 10
-20.2437977176
 20
-19.599707866
 10
-20.2902506698
 20
-19.5513945511
 10
-20.332463398
 20
-19.496966425
 10
-20.3702062211
 20
-19.4367070399
 10
-20.4032830469
 20
-19.370933495
 10
-20.4315228324
 20
-19.299990449
 10
-20.4547857032
 20
-19.2242311277
 10
-20.47296088
 20
-19.1440266768
 10
-20.4859563209
 20
-19.0597779511
 10
-20.4937015739
 20
-18.971915608
 10
-20.4961557509
 20
-18.8808840598
  0
LWPOLYLINE
  5
23F
100
AcDbEntity
  8
268
100
AcDbPolyline
 62
7
  6
CONTINUOUS
 90
12
 70
0
 10
-2.3019122629
 20
24.5060638843
 10
-2.3081990543
 20
24.5027075107
 10
-2.3200534808
 20
24.4952032375
 10
-2.3317086609
 20
24.4863307263
 10
-2.3432042557
 20
24.4761456157
 10
-2.3544955534
 20
24.4647145433
 10
-2.3656406198
 20
24.4520675172
 10
-2.3767074992
 20
24.438237981
 10
-2.3876536184
 20
24.4232684822
 10
-2.3985009195
 20
24.407185555
 10
-2.4093393482
 20
24.3900173007
 10
-2.4202237162
 20
24.3717986692
  0
LINE
  5
240
100
AcDbEntity
  8
268
100
AcDbLine
 62
7
  6
CONTINUOUS
 10
-10.2660381598
 20
21.2931103312
 11
-11.332869072
 21
20.7545290817
  0
LINE
  5
241
100
AcDbEntity
  8
268
100
AcDbLine
 62
7
  6
CONTINUOUS
 10
-8.8102571833
 20
21.2647689349
 11
-2.3022205566
 21
24.5059105405
  0
LINE
  5
242
100
AcDbEntity
  8
268
100
AcDbLine
 62
250
  6
CONTINUOUS
 10
-8.7347640428
 20
21.2270223647
 11
-2.4202237162
 21
24.3717986692
  0
LINE
  5
243
100
AcDbEntity
  8
218_STAMPATO
100
AcDbLine
 62
7
  6
CONTINUOUS
 10
4.157819224
 20
26.8809235626
 11
-1.5567662294
 21
24.185940894
  0
LWPOLYLINE
  5
244
100
AcDbEntity
  8
218_STAMPATO
100
AcDbPolyline
 62
250
  6
CONTINUOUS
 90
25
 70
0
 10
4.5967039745
 20
26.8485206277
 10
4.615976579
 20
26.8574228893
 10
4.6352256912
 20
26.865670084
 10
4.6544369976
 20
26.8732560775
 10
4.6735962053
 20
26.880175225
 10
4.6926890752
 20
26.886422383
 10
4.7117014328
 20
26.8919929108
 10
4.73061916
 20
26.8968826673
 10
4.749428169
 20
26.9010880059
 10
4.7681144358
 20
26.9046057892
 10
4.7866640523
 20
26.9074333998
 10
4.8050632383
 20
26.9095687377
 10
4.8232983145
 20
26.9110102151
 10
4.8413557228
 20
26.9117567601
 10
4.859222034
 20
26.911807817
 10
4.8768839605
 20
26.9111633478
 10
4.8943283681
 20
26.9098238317
 10
4.911542286
 20
26.9077902648
 10
4.9285129139
 20
26.9050641592
 10
4.9452276324
 20
26.9016475422
 10
4.9616740126
 20
26.8975429542
 10
4.9778398249
 20
26.8927534474
 10
4.9937130484
 20
26.8872825833
 10
5.0092818798
 20
26.8811344301
 10
5.0245347422
 20
26.8743135595
  0
LWPOLYLINE
  5
245
100
AcDbEntity
  8
218_STAMPATO
100
AcDbPolyline
 62
7
  6
CONTINUOUS
 90
36
 70
0
 10
4.1577878253
 20
26.8809087534
 10
4.1744658614
 20
26.8885883985
 10
4.1989028519
 20
26.8991811394
 10
4.2234151439
 20
26.9090426646
 10
4.2478738617
 20
26.9181440202
 10
4.2723360365
 20
26.9265299277
 10
4.2970558696
 20
26.9342951992
 10
4.3221161314
 20
26.9414575143
 10
4.3473923502
 20
26.9479735124
 10
4.372836924
 20
26.9538290645
 10
4.3984087611
 20
26.959015123
 10
4.4241028313
 20
26.963531533
 10
4.4499251393
 20
26.967378757
 10
4.4758529569
 20
26.9705520907
 10
4.5018650463
 20
26.9730479787
 10
4.5279704483
 20
26.9748654255
 10
4.5541473788
 20
26.9760001623
 10
4.5803747256
 20
26.976448812
 10
4.6066629371
 20
26.9762080975
 10
4.632994802
 20
26.9752735528
 10
4.659344758
 20
26.9736416914
 10
4.6857106297
 20
26.971307866
 10
4.712076415
 20
26.9682679125
 10
4.7384146176
 20
26.9645196079
 10
4.7647055091
 20
26.9600606871
 10
4.7909364541
 20
26.9548879162
 10
4.8170758952
 20
26.9490023072
 10
4.8430759677
 20
26.9424110792
 10
4.8688889763
 20
26.9351251743
 10
4.8945199287
 20
26.9271422245
 10
4.9199993344
 20
26.9184484994
 10
4.9453181944
 20
26.9090400253
 10
4.970439905
 20
26.8989234723
 10
4.9953518638
 20
26.8880972476
 10
5.0200394425
 20
26.8765602401
 10
5.0315770344
 20
26.8708838676
  0
LINE
  5
246
100
AcDbEntity
  8
0
100
AcDbLine
 62
250
  6
CONTINUOUS
 10
-17.3809454982
 20
19.0590689729
 11
-13.4482140831
 21
20.8288528652
  0
LWPOLYLINE
  5
247
100
AcDbEntity
  8
0
100
AcDbPolyline
 62
250
  6
CONTINUOUS
 90
8
 70
0
 10
-17.7437799553
 20
19.0798071682
 10
-17.7285711346
 20
19.0862196703
 10
-17.6756682965
 20
19.1023487029
 10
-17.6199156067
 20
19.1102402393
 10
-17.561923726
 20
19.1098078433
 10
-17.5023278411
 20
19.1010562508
 10
-17.441780707
 20
19.0840813184
 10
-17.3809454982
 20
19.0590689729
  0
LWPOLYLINE
  5
248
100
AcDbEntity
  8
268
100
AcDbPolyline
 62
7
  6
CONTINUOUS
 90
3
 70
0
 10
-2.2834645245
 20
24.513521227
 10
-2.2960295442
 20
24.5088221762
 10
-2.3019122629
 20
24.5060638843
  0
LWPOLYLINE
  5
249
100
AcDbEntity
  8
268
100
AcDbPolyline
 62
7
  6
CONTINUOUS
 90
10
 70
0
 10
-2.2834645245
 20
24.513521227
 10
-2.2742249037
 20
24.516267026
 10
-2.2656617498
 20
24.5185327445
 10
-2.2577750629
 20
24.5203183825
 10
-2.2505257046
 20
24.5216447871
 10
-2.2439528133
 20
24.5224911113
 10
-2.2381738039
 20
24.522794814
 10
-2.2331928467
 20
24.5225554782
 10
-2.2290057715
 20
24.521773521
 10
-2.2264160904
 20
24.5207770879
  0
LINE
  5
24A
100
AcDbEntity
  8
268
100
AcDbLine
 62
7
  6
CONTINUOUS
 10
3.1861541239
 20
-24.8308685775
 11
3.7133988396
 21
-24.9391608494
  0
LINE
  5
24B
100
AcDbEntity
  8
268
100
AcDbLine
 62
7
  6
CONTINUOUS
 10
-0.220954499
 20
-25.9020727622
 11
1.3855815984
 21
-26.705340811
  0
LINE
  5
24C
100
AcDbEntity
  8
268
100
AcDbLine
 62
250
  6
CONTINUOUS
 10
-0.2855479778
 20
-25.767044221
 11
1.3202284843
 21
-26.569932452
  0
LINE
  5
24D
100
AcDbEntity
  8
268
100
AcDbLine
 62
250
  6
CONTINUOUS
 10
1.3202284843
 20
-26.3165610583
 11
-0.2855479778
 21
-25.5136728272
  0
LINE
  5
24E
100
AcDbEntity
  8
268
100
AcDbLine
 62
250
  6
CONTINUOUS
 10
1.4091310604
 20
-26.0851239987
 11
-0.1976738585
 21
-25.2817215392
  0
LWPOLYLINE
  5
24F
100
AcDbEntity
  8
0
100
AcDbPolyline
 62
250
  6
CONTINUOUS
 90
9
 70
0
 10
-20.7304683915
 20
-18.597191702
 10
-20.7288027102
 20
-18.6233306704
 10
-20.7192689779
 20
-18.6642489822
 10
-20.7013777783
 20
-18.7044786873
 10
-20.675318672
 20
-18.7435935444
 10
-20.6413677604
 20
-18.7811791238
 10
-20.59988476
 20
-18.8168371992
 10
-20.5513091915
 20
-18.8501899662
 10
-20.4961557223
 20
-18.8808840456
  0
LWPOLYLINE
  5
250
100
AcDbEntity
  8
0
100
AcDbPolyline
 62
7
  6
CONTINUOUS
 90
15
 70
0
 10
-20.7304585617
 20
-18.5971917204
 10
-20.7298511493
 20
-18.6448971189
 10
-20.7220325904
 20
-18.7613154764
 10
-20.7054407577
 20
-18.8733932961
 10
-20.6803268236
 20
-18.981023944
 10
-20.6470095869
 20
-19.0837343274
 10
-20.6061232361
 20
-19.180446961
 10
-20.5585925113
 20
-19.2702235675
 10
-20.5048406366
 20
-19.3533364636
 10
-20.4449170661
 20
-19.4302366922
 10
-20.3794559535
 20
-19.5004372151
 10
-20.3090867712
 20
-19.5636403124
 10
-20.2336219519
 20
-19.6201799019
 10
-20.1533550568
 20
-19.6697740961
 10
-20.1109257216
 20
-19.6921627802
  0
LINE
  5
251
100
AcDbEntity
  8
0
100
AcDbLine
 62
7
  6
CONTINUOUS
 10
-20.7304678366
 20
-18.5969479841
 11
-20.7304683915
 21
-18.597191702
  0
LWPOLYLINE
  5
252
100
AcDbEntity
  8
0
100
AcDbPolyline
 62
250
  6
CONTINUOUS
 90
13
 70
0
 10
-20.4961557509
 20
-18.8808840598
 10
-20.4743704548
 20
-15.9269379135
 10
-20.4260051499
 20
-12.9594273179
 10
-20.3510656499
 20
-9.9787343059
 10
-20.2495611434
 20
-6.9852426668
 10
-20.1215046012
 20
-3.9793375787
 10
-19.9669127718
 20
-0.9614055569
 10
-19.7858057753
 20
2.0681652004
 10
-19.5782066855
 20
5.1089847684
 10
-19.3441419296
 20
8.160661867
 10
-19.0836417097
 20
11.222803927
 10
-18.796740002
 20
14.2950171393
 10
-18.4834741312
 20
17.3769064143
  0
LWPOLYLINE
  5
253
100
AcDbEntity
  8
0
100
AcDbPolyline
 62
7
  6
CONTINUOUS
 90
13
 70
0
 10
-18.7187202152
 20
17.645981422
 10
-19.026379961
 20
14.621342238
 10
-19.3146419742
 20
11.5388793707
 10
-19.5763254624
 20
8.4664679517
 10
-19.8113887901
 20
5.4045521534
 10
-20.0198031127
 20
2.3535216331
 10
-20.2015429426
 20
-0.6862551972
 10
-20.3565828639
 20
-3.7143951808
 10
-20.4849029233
 20
-6.7305174343
 10
-20.5864849578
 20
-9.7342567319
 10
-20.6613118717
 20
-12.7252288942
 10
-20.7093737911
 20
-15.7030039211
 10
-20.7304678366
 20
-18.5969479841
  0
LWPOLYLINE
  5
254
100
AcDbEntity
  8
0
100
AcDbPolyline
 62
250
  6
CONTINUOUS
 90
22
 70
0
 10
-18.4834741312
 20
17.3769064143
 10
-18.4705491485
 20
17.474493399
 10
-18.4524373949
 20
17.573365574
 10
-18.4292325049
 20
17.6730228056
 10
-18.4010576887
 20
17.7729562852
 10
-18.3680550991
 20
17.8726662905
 10
-18.3303822384
 20
17.9716644445
 10
-18.2882243985
 20
18.0694662212
 10
-18.2418004541
 20
18.165561476
 10
-18.1913538183
 20
18.2594338625
 10
-18.1371578034
 20
18.3505918706
 10
-18.0794803478
 20
18.4385983311
 10
-18.0185851036
 20
18.5230375695
 10
-17.9547689038
 20
18.6034990884
 10
-17.8883686432
 20
18.6795568962
 10
-17.8197289128
 20
18.75080169
 10
-17.7492113607
 20
18.8168679023
 10
-17.6771682599
 20
18.8774341339
 10
-17.6039457554
 20
18.9321980018
 10
-17.5299108914
 20
18.9808834856
 10
-17.4554503395
 20
19.0232449004
 10
-17.3809454982
 20
19.0590689729
  0
LINE
  5
255
100
AcDbEntity
  8
268
100
AcDbLine
 62
7
  6
CONTINUOUS
 10
-9.6509193248
 20
22.6676023722
 11
-10.1781640405
 21
22.0258946441
  0
LWPOLYLINE
  5
256
100
AcDbEntity
  8
218_STAMPATO
100
AcDbPolyline
 62
7
  6
CONTINUOUS
 90
38
 70
0
 10
1.9500140678
 20
23.8547325638
 10
1.9094956108
 20
23.8336736058
 10
1.8698813539
 20
23.8121888737
 10
1.8311891893
 20
23.7902880712
 10
1.7934365925
 20
23.76798109
 10
1.7566406149
 20
23.7452780052
 10
1.7208178755
 20
23.7221890709
 10
1.6859845542
 20
23.6987247153
 10
1.6521563835
 20
23.6748955364
 10
1.6193486424
 20
23.6507122967
 10
1.5875761486
 20
23.6261859188
 10
1.5568532524
 20
23.6013274803
 10
1.5271938301
 20
23.5761482087
 10
1.4986112777
 20
23.5506594764
 10
1.4711185047
 20
23.5248727956
 10
1.4447279283
 20
23.498799813
 10
1.4194514681
 20
23.4724523047
 10
1.3953005405
 20
23.4458421708
 10
1.3722860534
 20
23.41898143
 10
1.3504184014
 20
23.3918822141
 10
1.3297074613
 20
23.3645567628
 10
1.3101625874
 20
23.3370174177
 10
1.2917926071
 20
23.3092766173
 10
1.2746058176
 20
23.2813468909
 10
1.2586099813
 20
23.2532408532
 10
1.2438123229
 20
23.2249711984
 10
1.2302195259
 20
23.1965506949
 10
1.2178377295
 20
23.167992179
 10
1.2066725261
 20
23.1393085494
 10
1.1967289586
 20
23.1105127612
 10
1.188011518
 20
23.0816178203
 10
1.1805241417
 20
23.0526367774
 10
1.1742702114
 20
23.0235827219
 10
1.1692525517
 20
22.9944687763
 10
1.1654734289
 20
22.9653080903
 10
1.1629345499
 20
22.9361138345
 10
1.1616370613
 20
22.9068991946
 10
1.161452803
 20
22.8909823254
  0
LINE
  5
257
100
AcDbEntity
  8
268
100
AcDbLine
 62
7
  6
CONTINUOUS
 10
-8.0016437284
 20
20.8736041413
 11
-7.5083217132
 21
21.1266876732
  0
LINE
  5
258
100
AcDbEntity
  8
218_STAMPATO
100
AcDbLine
 62
7
  6
CONTINUOUS
 10
6.1663938455
 20
26.0000421805
 11
1.9500140678
 21
23.8547325638
  0
LINE
  5
259
100
AcDbEntity
  8
268
100
AcDbLine
 62
7
  6
CONTINUOUS
 10
-1.427203395
 20
23.4920551385
 11
-6.164818829
 21
21.1570046239
  0
LINE
  5
25A
100
AcDbEntity
  8
268
100
AcDbLine
 62
7
  6
CONTINUOUS
 10
-1.8514674637
 20
22.0526235362
 11
-1.427203395
 21
22.2602209571
  0
LINE
  5
25B
100
AcDbEntity
  8
268
100
AcDbLine
 62
7
  6
CONTINUOUS
 10
0.5588661847
 20
22.8822537188
 11
-1.4979140731
 21
21.8758468409
  0
LINE
  5
25C
100
AcDbEntity
  8
268
100
AcDbLine
 62
7
  6
CONTINUOUS
 10
-7.5083217132
 20
21.1266876732
 11
-2.0306817237
 21
23.7950196364
  0
LINE
  5
25D
100
AcDbEntity
  8
218_STAMPATO
100
AcDbLine
 62
7
  6
CONTINUOUS
 10
5.1291018324
 20
26.5823216987
 11
1.5560281339
 21
24.8768883819
  0
LINE
  5
25E
100
AcDbEntity
  8
218_STAMPATO
100
AcDbLine
 62
250
  6
CONTINUOUS
 10
4.5967039745
 20
26.8485206277
 11
-1.3103886563
 21
24.0627521074
  0
LINE
  5
25F
100
AcDbEntity
  8
218_STAMPATO
100
AcDbLine
 62
250
  6
CONTINUOUS
 10
-2.0299389881
 20
20.6269348259
 11
-2.0213017907
 21
20.6300029886
  0
LINE
  5
260
100
AcDbEntity
  8
218_STAMPATO
100
AcDbLine
 62
250
  6
CONTINUOUS
 10
-2.0213017907
 20
20.6300029886
 11
-2.0124914149
 21
20.6330572296
  0
LINE
  5
261
100
AcDbEntity
  8
218_STAMPATO
100
AcDbLine
 62
250
  6
CONTINUOUS
 10
-2.0124914149
 20
20.6330572296
 11
-2.0035046262
 21
20.6360942451
  0
LINE
  5
262
100
AcDbEntity
  8
218_STAMPATO
100
AcDbLine
 62
250
  6
CONTINUOUS
 10
-2.0035046262
 20
20.6360942451
 11
-1.994339506
 21
20.6391117432
  0
LINE
  5
263
100
AcDbEntity
  8
218_STAMPATO
100
AcDbLine
 62
250
  6
CONTINUOUS
 10
-1.994339506
 20
20.6391117432
 11
-1.9849936472
 21
20.6421061039
  0
LINE
  5
264
100
AcDbEntity
  8
218_STAMPATO
100
AcDbLine
 62
250
  6
CONTINUOUS
 10
-1.9849936472
 20
20.6421061039
 11
-1.9754647118
 21
20.6450736344
  0
LINE
  5
265
100
AcDbEntity
  8
218_STAMPATO
100
AcDbLine
 62
250
  6
CONTINUOUS
 10
-1.9754647118
 20
20.6450736344
 11
-1.9657512418
 21
20.6480118281
  0
LWPOLYLINE
  5
266
100
AcDbEntity
  8
218_STAMPATO
100
AcDbPolyline
 62
250
  6
CONTINUOUS
 90
3
 70
0
 10
-1.9657512418
 20
20.6480118281
 10
-1.9558511043
 20
20.6509168867
 10
-1.9508305934
 20
20.6523556246
  0
LINE
  5
267
100
AcDbEntity
  8
268
100
AcDbLine
 62
7
  6
CONTINUOUS
 10
-0.3951650585
 20
-24.189137039
 11
1.4719344079
 21
-25.1226867721
  0
LINE
  5
268
100
AcDbEntity
  8
268
100
AcDbLine
 62
7
  6
CONTINUOUS
 10
2.0314490924
 20
-25.3400645812
 11
1.6221840962
 21
-25.135432083
  0
LINE
  5
269
100
AcDbEntity
  8
268
100
AcDbLine
 62
7
  6
CONTINUOUS
 10
-0.3774755193
 20
-23.87046587
 11
1.7194217813
 21
-24.9189145203
  0
LINE
  5
26A
100
AcDbEntity
  8
268
100
AcDbLine
 62
250
  6
CONTINUOUS
 10
3.1861541239
 20
-24.8308685775
 11
3.1427317979
 21
-24.8091574145
  0
LINE
  5
26B
100
AcDbEntity
  8
268
100
AcDbLine
 62
7
  6
CONTINUOUS
 10
-0.3269503062
 20
-22.960270947
 11
2.5325945796
 21
-24.3900433899
  0
LINE
  5
26C
100
AcDbEntity
  8
268
100
AcDbLine
 62
250
  6
CONTINUOUS
 10
3.0982800046
 20
-24.6316014319
 11
3.7133988396
 21
-24.9391608494
  0
LINE
  5
26D
100
AcDbEntity
  8
268
100
AcDbLine
 62
7
  6
CONTINUOUS
 10
3.0982800046
 20
-24.6279812824
 11
3.7366782129
 21
-24.9471803865
  0
LWPOLYLINE
  5
26E
100
AcDbEntity
  8
0
100
AcDbPolyline
 62
250
  6
CONTINUOUS
 90
9
 70
0
 10
-18.7187256411
 20
17.6458725884
 10
-18.7175420192
 20
17.6087421797
 10
-18.7076537333
 20
17.574203257
 10
-18.689453583
 20
17.5395334275
 10
-18.6631344006
 20
17.5051000212
 10
-18.6289750404
 20
17.4712678633
 10
-18.5873374238
 20
17.4383954089
 10
-18.5386627053
 20
17.4068309447
 10
-18.483466598
 20
17.376908899
  0
LINE
  5
26F
100
AcDbEntity
  8
715
100
AcDbLine
 62
250
  6
CONTINUOUS
 10
1.7370657183
 20
22.5939637933
 11
1.6478060871
 21
22.5446003362
  0
LINE
  5
270
100
AcDbEntity
  8
715
100
AcDbLine
 62
7
  6
CONTINUOUS
 10
1.7370657183
 20
22.5939637933
 11
1.647665787
 21
22.5446650617
  0
LINE
  5
271
100
AcDbEntity
  8
715
100
AcDbLine
 62
7
  6
CONTINUOUS
 10
1.7370657183
 20
22.5939637933
 11
2.5527995749
 21
23.0241163857
  0
LINE
  5
272
100
AcDbEntity
  8
715
100
AcDbLine
 62
250
  6
CONTINUOUS
 10
2.5526717929
 20
23.0240489988
 11
2.5527995749
 21
23.0241163857
  0
LINE
  5
273
100
AcDbEntity
  8
218_STAMPATO
100
AcDbLine
 62
7
  6
CONTINUOUS
 10
6.1724508324
 20
25.5625537133
 11
1.9500140678
 21
23.4445135209
  0
LINE
  5
274
100
AcDbEntity
  8
268
100
AcDbLine
 62
7
  6
CONTINUOUS
 10
-0.1001295666
 20
22.0221809049
 11
-1.4979140731
 21
21.3232886516
  0
LINE
  5
275
100
AcDbEntity
  8
715
100
AcDbLine
 62
7
  6
CONTINUOUS
 10
2.6810870037
 20
22.8010246543
 11
3.1760617505
 21
23.0485120277
  0
LINE
  5
276
100
AcDbEntity
  8
715
100
AcDbLine
 62
7
  6
CONTINUOUS
 10
5.6442396631
 20
23.22901188
 11
4.332775352
 21
22.5732797245
  0
LINE
  5
277
100
AcDbEntity
  8
715
100
AcDbLine
 62
7
  6
CONTINUOUS
 10
3.6315516101
 20
22.2226678536
 11
3.4138988434
 21
22.1138414702
  0
LWPOLYLINE
  5
278
100
AcDbEntity
  8
218_STAMPATO
100
AcDbPolyline
 62
7
  6
CONTINUOUS
 90
6
 70
0
 10
-2.487975987
 20
20.5368542824
 10
-2.4966822153
 20
20.532505349
 10
-2.5047839764
 20
20.5278264306
 10
-2.5126012506
 20
20.5226689356
 10
-2.5201285338
 20
20.5170369742
 10
-2.526010529
 20
20.51212778
  0
LINE
  5
279
100
AcDbEntity
  8
218_STAMPATO
100
AcDbLine
 62
250
  6
CONTINUOUS
 10
-2.2170750243
 20
20.544590418
 11
-2.1629875099
 21
20.5706596374
  0
LINE
  5
27A
100
AcDbEntity
  8
218_STAMPATO
100
AcDbLine
 62
250
  6
CONTINUOUS
 10
-2.2277736784
 20
20.5395104274
 11
-2.2170750243
 21
20.544590418
  0
LINE
  5
27B
100
AcDbEntity
  8
218_STAMPATO
100
AcDbLine
 62
250
  6
CONTINUOUS
 10
-2.1629875099
 20
20.5706596374
 11
-2.1506588254
 21
20.5764964208
  0
LINE
  5
27C
100
AcDbEntity
  8
218_STAMPATO
100
AcDbLine
 62
250
  6
CONTINUOUS
 10
-2.2357007545
 20
20.5358023379
 11
-2.2277736784
 21
20.5395104274
  0
LINE
  5
27D
100
AcDbEntity
  8
218_STAMPATO
100
AcDbLine
 62
250
  6
CONTINUOUS
 10
-2.1506588254
 20
20.5764964208
 11
-2.1411429622
 21
20.5809375775
  0
LINE
  5
27E
100
AcDbEntity
  8
218_STAMPATO
100
AcDbLine
 62
250
  6
CONTINUOUS
 10
-2.2757853803
 20
20.5172860063
 11
-2.2357007545
 21
20.5358023379
  0
LINE
  5
27F
100
AcDbEntity
  8
218_STAMPATO
100
AcDbLine
 62
7
  6
CONTINUOUS
 10
-2.4372487835
 20
20.5602433071
 11
-2.4879404825
 21
20.5368706796
  0
LINE
  5
280
100
AcDbEntity
  8
218_STAMPATO
100
AcDbLine
 62
250
  6
CONTINUOUS
 10
-2.1411429622
 20
20.5809375775
 11
-2.1313788837
 21
20.5854270062
  0
LWPOLYLINE
  5
281
100
AcDbEntity
  8
218_STAMPATO
100
AcDbPolyline
 62
250
  6
CONTINUOUS
 90
17
 70
0
 10
-1.2838125412
 20
20.6445915416
 10
-1.2779990958
 20
20.647227409
 10
-1.2721996648
 20
20.6495636654
 10
-1.2664240625
 20
20.651596357
 10
-1.2606820625
 20
20.6533220442
 10
-1.2549833817
 20
20.6547378065
 10
-1.2493376639
 20
20.6558412483
 10
-1.243754463
 20
20.6566305022
 10
-1.2382432272
 20
20.6571042325
 10
-1.2328132829
 20
20.6572616377
 10
-1.2274738189
 20
20.6571024513
 10
-1.222233871
 20
20.6566269428
 10
-1.2171023066
 20
20.6558359168
 10
-1.2120878094
 20
20.6547307119
 10
-1.2071988654
 20
20.6533131984
 10
-1.2024437478
 20
20.6515857752
 10
-1.1978907377
 20
20.6495779283
  0
LWPOLYLINE
  5
282
100
AcDbEntity
  8
715
100
AcDbPolyline
 62
7
  6
CONTINUOUS
 90
10
 70
0
 10
6.4927414749
 20
22.8047346485
 10
6.5041379391
 20
22.8099033037
 10
6.5153583416
 20
22.8139552001
 10
6.5264026823
 20
22.8168903377
 10
6.5373659413
 20
22.818708869
 10
6.5481531384
 20
22.8194106415
 10
6.5584793339
 20
22.8189951971
 10
6.5682495476
 20
22.8174623832
 10
6.5775587596
 20
22.8148123525
 10
6.5864069699
 20
22.8110451049
  0
LINE
  5
283
100
AcDbEntity
  8
218_STAMPATO
100
AcDbLine
 62
250
  6
CONTINUOUS
 10
-2.1313788837
 20
20.5854270062
 11
-2.1247243821
 21
20.5884439124
  0
LWPOLYLINE
  5
284
100
AcDbEntity
  8
218_STAMPATO
100
AcDbPolyline
 62
250
  6
CONTINUOUS
 90
22
 70
0
 10
-2.454136095
 20
20.552482666
 10
-2.4510077818
 20
20.553892598
 10
-2.4417593194
 20
20.5576664921
 10
-2.4322997051
 20
20.5609489476
 10
-2.4226390647
 20
20.5637364508
 10
-2.4127877391
 20
20.566026018
 10
-2.4027562731
 20
20.5678151984
 10
-2.3925554046
 20
20.5691020769
 10
-2.3821960527
 20
20.5698852759
 10
-2.3716893062
 20
20.5701639571
 10
-2.3610464115
 20
20.5699378222
 10
-2.3502787609
 20
20.5692071133
 10
-2.3393978803
 20
20.5679726125
 10
-2.3284154167
 20
20.5662356413
 10
-2.3173431257
 20
20.5639980589
 10
-2.3061928593
 20
20.5612622604
 10
-2.2949765529
 20
20.5580311742
 10
-2.2837062124
 20
20.554308259
 10
-2.2723939018
 20
20.5500974998
 10
-2.26105173
 20
20.5454034038
 10
-2.2496918376
 20
20.5402309957
 10
-2.2383263844
 20
20.534585812
  0
LINE
  5
285
100
AcDbEntity
  8
218_STAMPATO
100
AcDbLine
 62
250
  6
CONTINUOUS
 10
-2.1247243821
 20
20.5884439124
 11
-2.1179485933
 21
20.5914777719
  0
LINE
  5
286
100
AcDbEntity
  8
218_STAMPATO
100
AcDbLine
 62
250
  6
CONTINUOUS
 10
-2.1179485933
 20
20.5914777719
 11
-2.1110466971
 21
20.5945264357
  0
LINE
  5
287
100
AcDbEntity
  8
218_STAMPATO
100
AcDbLine
 62
250
  6
CONTINUOUS
 10
-2.1110466971
 20
20.5945264357
 11
-2.1040153578
 21
20.5975885091
  0
LINE
  5
288
100
AcDbEntity
  8
218_STAMPATO
100
AcDbLine
 62
250
  6
CONTINUOUS
 10
-2.1040153578
 20
20.5975885091
 11
-2.0968492841
 21
20.6006620047
  0
LINE
  5
289
100
AcDbEntity
  8
218_STAMPATO
100
AcDbLine
 62
250
  6
CONTINUOUS
 10
-2.0968492841
 20
20.6006620047
 11
-2.0895439002
 21
20.6037445512
  0
LINE
  5
28A
100
AcDbEntity
  8
218_STAMPATO
100
AcDbLine
 62
250
  6
CONTINUOUS
 10
-2.0895439002
 20
20.6037445512
 11
-2.0820961725
 21
20.6068345481
  0
LINE
  5
28B
100
AcDbEntity
  8
218_STAMPATO
100
AcDbLine
 62
250
  6
CONTINUOUS
 10
-2.0820961725
 20
20.6068345481
 11
-2.0745016772
 21
20.6099295212
  0
LINE
  5
28C
100
AcDbEntity
  8
218_STAMPATO
100
AcDbLine
 62
250
  6
CONTINUOUS
 10
-2.0745016772
 20
20.6099295212
 11
-2.0667559917
 21
20.6130269267
  0
LINE
  5
28D
100
AcDbEntity
  8
218_STAMPATO
100
AcDbLine
 62
250
  6
CONTINUOUS
 10
-2.0667559917
 20
20.6130269267
 11
-2.0588562623
 21
20.6161250147
  0
LINE
  5
28E
100
AcDbEntity
  8
218_STAMPATO
100
AcDbLine
 62
250
  6
CONTINUOUS
 10
-2.0588562623
 20
20.6161250147
 11
-2.0507982673
 21
20.6192211113
  0
LINE
  5
28F
100
AcDbEntity
  8
218_STAMPATO
100
AcDbLine
 62
250
  6
CONTINUOUS
 10
-2.0507982673
 20
20.6192211113
 11
-2.0425783178
 21
20.6223122685
  0
LWPOLYLINE
  5
290
100
AcDbEntity
  8
218_STAMPATO
100
AcDbPolyline
 62
250
  6
CONTINUOUS
 90
3
 70
0
 10
-2.0425783178
 20
20.6223122685
 10
-2.0341940102
 20
20.6253964886
 10
-2.0299389881
 20
20.6269348259
  0
LINE
  5
291
100
AcDbEntity
  8
268
100
AcDbLine
 62
7
  6
CONTINUOUS
 10
-0.2378367737
 20
-21.3549202756
 11
2.5325945796
 21
-22.7401359523
  0
LINE
  5
292
100
AcDbEntity
  8
218_STAMPATO
100
AcDbLine
 62
7
  6
CONTINUOUS
 10
-3.3800914514
 20
19.7646409351
 11
-2.5260430678
 21
20.5120989919
  0
LINE
  5
293
100
AcDbEntity
  8
218_STAMPATO
100
AcDbLine
 62
250
  6
CONTINUOUS
 10
-3.2261888967
 20
19.6876896577
 11
-2.2773903051
 21
20.518072532
  0
LINE
  5
294
100
AcDbEntity
  8
268
100
AcDbLine
 62
7
  6
CONTINUOUS
 10
-1.7848777716
 20
16.55101769
 11
-1.2857820388
 21
16.8029822707
  0
LINE
  5
295
100
AcDbEntity
  8
268
100
AcDbLine
 62
7
  6
CONTINUOUS
 10
-1.7848777716
 20
17.7652211629
 11
-1.2857820388
 21
18.015417836
  0
LINE
  5
296
100
AcDbEntity
  8
715
100
AcDbLine
 62
7
  6
CONTINUOUS
 10
6.4927703708
 20
22.8047490965
 11
5.3881438287
 21
22.2524358254
  0
LINE
  5
297
100
AcDbEntity
  8
268
100
AcDbLine
 62
7
  6
CONTINUOUS
 10
-1.2857820388
 20
18.015417836
 11
4.1284906564
 21
20.7154334464
  0
LINE
  5
298
100
AcDbEntity
  8
268
100
AcDbLine
 62
7
  6
CONTINUOUS
 10
-1.2857820388
 20
16.8029822707
 11
4.1284906564
 21
19.483594868
  0
LINE
  5
299
100
AcDbEntity
  8
268
100
AcDbLine
 62
7
  6
CONTINUOUS
 10
3.5225440733
 20
21.0171814043
 11
-1.2150713606
 21
18.6821308897
  0
LINE
  5
29A
100
AcDbEntity
  8
268
100
AcDbLine
 62
7
  6
CONTINUOUS
 10
4.8015068719
 20
20.7609333752
 11
4.2151280848
 21
20.4740113075
  0
LINE
  5
29B
100
AcDbEntity
  8
218_STAMPATO
100
AcDbLine
 62
7
  6
CONTINUOUS
 10
9.7895530152
 20
24.2520961073
 11
6.2261221787
 21
22.5418413595
  0
LWPOLYLINE
  5
29C
100
AcDbEntity
  8
268
100
AcDbPolyline
 62
7
  6
CONTINUOUS
 90
18
 70
0
 10
4.8015068719
 20
20.7609333752
 10
4.8298813926
 20
20.774115332
 10
4.8581158446
 20
20.7858497237
 10
4.8862102279
 20
20.7961365504
 10
4.9142145409
 20
20.804988685
 10
4.9420787852
 20
20.8123932546
 10
4.9696529648
 20
20.8183116402
 10
4.9969220935
 20
20.8227350615
 10
5.0239011575
 20
20.8256722988
 10
5.0504851201
 20
20.8271110748
 10
5.076690079
 20
20.8270439382
 10
5.1024999364
 20
20.8254783402
 10
5.1277613627
 20
20.8224243568
 10
5.152451116
 20
20.8178785724
 10
5.1765924381
 20
20.8118444026
 10
5.2001017244
 20
20.8043421698
 10
5.2229975046
 20
20.7953567551
 10
5.2425595889
 20
20.7862670221
  0
LINE
  5
29D
100
AcDbEntity
  8
268
100
AcDbLine
 62
7
  6
CONTINUOUS
 10
-14.0490594392
 20
21.0948393617
 11
-14.0490594392
 21
21.0704438564
  0
LINE
  5
29E
100
AcDbEntity
  8
268
100
AcDbLine
 62
7
  6
CONTINUOUS
 10
-13.6498661422
 20
22.4680903944
 11
-13.6498661422
 21
22.7214617881
  0
LWPOLYLINE
  5
29F
100
AcDbEntity
  8
CURVE
100
AcDbPolyline
 62
250
  6
CONTINUOUS
 90
66
 70
0
 10
-13.9199106231
 20
8.0689803431
 10
-13.9097190908
 20
8.16616164
 10
-13.8965823876
 20
8.2611108564
 10
-13.8805005435
 20
8.3539032245
 10
-13.8614735885
 20
8.4446139764
 10
-13.8395015527
 20
8.5333183445
 10
-13.8145938381
 20
8.6200457694
 10
-13.7867973355
 20
8.7046425261
 10
-13.7561683079
 20
8.786909098
 10
-13.7227630183
 20
8.8666459684
 10
-13.6866377296
 20
8.9436536209
 10
-13.6478506431
 20
9.0177513206
 10
-13.6064677143
 20
9.0888334602
 10
-13.5625568369
 20
9.1568132143
 10
-13.5161859047
 20
9.2216037572
 10
-13.4674228116
 20
9.2831182637
 10
-13.4163388668
 20
9.3412703536
 10
-13.3630190415
 20
9.3959754293
 10
-13.3075517224
 20
9.4471493386
 10
-13.2500252961
 20
9.4947079293
 10
-13.1905281493
 20
9.5385670491
 10
-13.1291507853
 20
9.5786485138
 10
-13.0659921741
 20
9.6148980104
 10
-13.0011534022
 20
9.6472671937
 10
-12.9347355564
 20
9.6757077187
 10
-12.8668397233
 20
9.7001712401
 10
-12.7975685703
 20
9.7206140853
 10
-12.727031089
 20
9.7370112711
 10
-12.6553378516
 20
9.7493424868
 10
-12.5825994303
 20
9.7575874215
 10
-12.5089263975
 20
9.7617257645
 10
-12.4344306926
 20
9.7617425337
 10
-12.3592297237
 20
9.7576440611
 10
-12.2834422663
 20
9.7494420076
 10
-12.2071870957
 20
9.737148034
 10
-12.1305829872
 20
9.720773801
 10
-12.0537488771
 20
9.7003363396
 10
-11.976804346
 20
9.6758741616
 10
-11.8998691351
 20
9.6474311487
 10
-11.8230629861
 20
9.6150511829
 10
-11.7465056403
 20
9.5787781461
 10
-11.6703162569
 20
9.5386609691
 10
-11.5946116659
 20
9.4947687788
 10
-11.5195081149
 20
9.4471757509
 10
-11.4451218515
 20
9.3959560611
 10
-11.3715691233
 20
9.3411838854
 10
-11.2989648652
 20
9.282938026
 10
-11.22741876
 20
9.2213157915
 10
-11.1570391777
 20
9.1564191172
 10
-11.0879344882
 20
9.0883499382
 10
-11.0202130616
 20
9.0172101896
 10
-10.9539809439
 20
8.9431053045
 10
-10.8893348863
 20
8.8661547073
 10
-10.8263693161
 20
8.7864813204
 10
-10.7651786605
 20
8.704208066
 10
-10.7058573468
 20
8.6194578665
 10
-10.6484974447
 20
8.5323563183
 10
-10.593181594
 20
8.4430397154
 10
-10.5399900766
 20
8.351647026
 10
-10.4890031748
 20
8.2583172182
 10
-10.4403011706
 20
8.1631892602
 10
-10.3939613965
 20
8.0664055987
 10
-10.3500493865
 20
7.9681225946
 10
-10.3086277249
 20
7.8685000876
 10
-10.2697589962
 20
7.7676979171
 10
-10.2335057845
 20
7.6658759226
  0
LWPOLYLINE
  5
2A0
100
AcDbEntity
  8
218_STAMPATO
100
AcDbPolyline
 62
7
  6
CONTINUOUS
 90
38
 70
0
 10
9.3746352702
 20
20.1424219626
 10
9.3341168132
 20
20.1213630046
 10
9.2945025564
 20
20.0998782725
 10
9.2558103917
 20
20.07797747
 10
9.218057795
 20
20.0556704888
 10
9.1812618173
 20
20.032967404
 10
9.145439078
 20
20.0098784697
 10
9.1106057566
 20
19.9864141141
 10
9.076777586
 20
19.9625849351
 10
9.0439698448
 20
19.9384016955
 10
9.012197351
 20
19.9138753176
 10
8.9814744549
 20
19.8890168791
 10
8.9518150326
 20
19.8638376075
 10
8.9232324802
 20
19.8383488752
 10
8.8957397071
 20
19.8125621943
 10
8.8693491307
 20
19.7864892117
 10
8.8440726706
 20
19.7601417035
 10
8.819921743
 20
19.7335315696
 10
8.7969072558
 20
19.7066708288
 10
8.7750396039
 20
19.6795716129
 10
8.7543286638
 20
19.6522461616
 10
8.7347837898
 20
19.6247068165
 10
8.7164138096
 20
19.5969660161
 10
8.6992270201
 20
19.5690362897
 10
8.6832311838
 20
19.5409302519
 10
8.6684335254
 20
19.5126605972
 10
8.6548407283
 20
19.4842400937
 10
8.6424589319
 20
19.4556815778
 10
8.6312937286
 20
19.4269979482
 10
8.6213501611
 20
19.39820216
 10
8.6126327205
 20
19.3693072191
 10
8.6051453442
 20
19.3403261761
 10
8.5988914139
 20
19.3112721206
 10
8.5938737542
 20
19.2821581751
 10
8.5900946314
 20
19.2529974891
 10
8.5875557523
 20
19.2238032332
 10
8.5862582638
 20
19.1945885934
 10
8.5860740054
 20
19.1786717242
  0
LINE
  5
2A1
100
AcDbEntity
  8
268
100
AcDbLine
 62
7
  6
CONTINUOUS
 10
-0.1108221953
 20
16.3441907576
 11
1.4719344079
 21
17.1561748549
  0
LINE
  5
2A2
100
AcDbEntity
  8
218_STAMPATO
100
AcDbLine
 62
7
  6
CONTINUOUS
 10
13.591015048
 20
22.2877315793
 11
9.3746352702
 21
20.1424219626
  0
LINE
  5
2A3
100
AcDbEntity
  8
218_STAMPATO
100
AcDbLine
 62
7
  6
CONTINUOUS
 10
13.5970720348
 20
21.8502431121
 11
9.3746352702
 21
19.7322029197
  0
LINE
  5
2A4
100
AcDbEntity
  8
268
100
AcDbLine
 62
7
  6
CONTINUOUS
 10
1.4719344079
 20
17.1561748549
 11
2.0063842865
 21
17.4165223215
  0
LINE
  5
2A5
100
AcDbEntity
  8
268
100
AcDbLine
 62
250
  6
CONTINUOUS
 10
3.0087577946
 20
16.9773129383
 11
7.7805967728
 21
19.2713884247
  0
LINE
  5
2A6
100
AcDbEntity
  8
268
100
AcDbLine
 62
250
  6
CONTINUOUS
 10
3.2363732945
 20
16.8635051884
 11
8.2224376407
 21
19.2605701444
  0
LINE
  5
2A7
100
AcDbEntity
  8
218_STAMPATO
100
AcDbLine
 62
7
  6
CONTINUOUS
 10
12.5537230349
 20
22.8700110975
 11
8.9806493364
 21
21.1645777806
  0
LINE
  5
2A8
100
AcDbEntity
  8
268
100
AcDbLine
 62
7
  6
CONTINUOUS
 10
-12.946873188
 20
21.5615311397
 11
-12.946873188
 21
22.0138621154
  0
LINE
  5
2A9
100
AcDbEntity
  8
268
100
AcDbLine
 62
7
  6
CONTINUOUS
 10
-12.0440896801
 20
21.918573557
 11
-12.0440896801
 21
21.6652021633
  0
LINE
  5
2AA
100
AcDbEntity
  8
268
100
AcDbLine
 62
7
  6
CONTINUOUS
 10
-11.332869072
 20
20.7545290817
 11
-11.332869072
 21
21.3916986404
  0
LWPOLYLINE
  5
2AB
100
AcDbEntity
  8
CURVE
100
AcDbPolyline
 62
250
  6
CONTINUOUS
 90
5
 70
0
 10
-13.2972775556
 20
-18.1930293011
 10
-13.2825660588
 20
-17.2789533335
 10
-13.265270404
 20
-16.3636537048
 10
-13.2453908017
 20
-15.4471415676
 10
-13.2036334694
 20
-13.8135263583
  0
LINE
  5
2AC
100
AcDbEntity
  8
CURVE
100
AcDbLine
 62
250
  6
CONTINUOUS
 10
-10.1443000614
 20
5.5444576936
 11
-10.1502559821
 21
5.5260242469
  0
LINE
  5
2AD
100
AcDbEntity
  8
CURVE
100
AcDbLine
 62
250
  6
CONTINUOUS
 10
-10.1502559821
 20
5.5260242469
 11
-10.1563453959
 21
5.5076982611
  0
LINE
  5
2AE
100
AcDbEntity
  8
CURVE
100
AcDbLine
 62
250
  6
CONTINUOUS
 10
-10.1563453959
 20
5.5076982611
 11
-10.162567748
 21
5.48948179
  0
LWPOLYLINE
  5
2AF
100
AcDbEntity
  8
CURVE
100
AcDbPolyline
 62
250
  6
CONTINUOUS
 90
29
 70
0
 10
-10.162567748
 20
5.48948179
 10
-10.1773365313
 20
5.4481304712
 10
-10.1927948619
 20
5.40739069
 10
-10.2089360483
 20
5.3672872167
 10
-10.2257533987
 20
5.3278448218
 10
-10.2432402214
 20
5.2890882753
 10
-10.2613898246
 20
5.2510423477
 10
-10.2801953017
 20
5.2137294612
 10
-10.2996488852
 20
5.177162646
 10
-10.3197425927
 20
5.1413525843
 10
-10.3404684417
 20
5.1063099581
 10
-10.3618184498
 20
5.0720454496
 10
-10.3837846343
 20
5.0385697409
 10
-10.406359013
 20
5.0058935142
 10
-10.4295336033
 20
4.9740274516
 10
-10.4533004228
 20
4.9429822353
 10
-10.4776514889
 20
4.9127685474
 10
-10.5025784007
 20
4.8833970165
 10
-10.5280710828
 20
4.8548780571
 10
-10.5541190416
 20
4.8272220301
 10
-10.5807117832
 20
4.8004392964
 10
-10.6078388137
 20
4.7745402171
 10
-10.6354896395
 20
4.7495351529
 10
-10.6636537666
 20
4.725434465
 10
-10.6923207012
 20
4.7022485141
 10
-10.7214799497
 20
4.6799876613
 10
-10.751121018
 20
4.6586622675
 10
-10.7761858938
 20
4.6416103112
 10
-10.8015711475
 20
4.6252187726
  0
LWPOLYLINE
  5
2B0
100
AcDbEntity
  8
268
100
AcDbPolyline
 62
7
  6
CONTINUOUS
 90
5
 70
0
 10
8.9689542563
 20
18.1681073559
 10
8.9691886932
 20
18.1682403577
 10
8.9701159292
 20
18.1690680291
 10
8.9706223466
 20
18.1701191005
 10
8.970734092
 20
18.1710633448
  0
LINE
  5
2B1
100
AcDbEntity
  8
715
100
AcDbLine
 62
250
  6
CONTINUOUS
 10
9.1616869208
 20
18.8816531921
 11
9.0724272873
 21
18.8322897337
  0
LINE
  5
2B2
100
AcDbEntity
  8
715
100
AcDbLine
 62
7
  6
CONTINUOUS
 10
9.1616869208
 20
18.8816531921
 11
9.0722869872
 21
18.8323544592
  0
LINE
  5
2B3
100
AcDbEntity
  8
268
100
AcDbLine
 62
250
  6
CONTINUOUS
 10
3.6123608377
 20
15.8624702858
 11
8.9706876179
 21
18.7534105128
  0
LINE
  5
2B4
100
AcDbEntity
  8
268
100
AcDbLine
 62
250
  6
CONTINUOUS
 10
3.2457406845
 20
15.4162581597
 11
8.8865360503
 21
18.4595966689
  0
LINE
  5
2B5
100
AcDbEntity
  8
715
100
AcDbLine
 62
7
  6
CONTINUOUS
 10
9.1616869208
 20
18.8816531921
 11
9.9774207774
 21
19.3118057844
  0
LINE
  5
2B6
100
AcDbEntity
  8
715
100
AcDbLine
 62
250
  6
CONTINUOUS
 10
9.9772929953
 20
19.3117383975
 11
9.9774207774
 21
19.3118057844
  0
LINE
  5
2B7
100
AcDbEntity
  8
218_STAMPATO
100
AcDbLine
 62
7
  6
CONTINUOUS
 10
3.8344269274
 20
14.9424268796
 11
9.4291117422
 21
17.8813705974
  0
LINE
  5
2B8
100
AcDbEntity
  8
268
100
AcDbLine
 62
250
  6
CONTINUOUS
 10
3.1573507297
 20
15.2809649784
 11
8.8865360503
 21
18.2473375148
  0
LINE
  5
2B9
100
AcDbEntity
  8
268
100
AcDbLine
 62
7
  6
CONTINUOUS
 10
3.2771168603
 20
15.2210819131
 11
8.9687457626
 21
18.1680090447
  0
LINE
  5
2BA
100
AcDbEntity
  8
268
100
AcDbLine
 62
250
  6
CONTINUOUS
 10
3.2397013608
 20
14.5402405709
 11
1.4719344079
 21
13.6374628714
  0
LINE
  5
2BB
100
AcDbEntity
  8
268
100
AcDbLine
 62
7
  6
CONTINUOUS
 10
3.0982800046
 20
14.610951249
 11
2.0314490924
 21
14.0723699995
  0
LINE
  5
2BC
100
AcDbEntity
  8
268
100
AcDbLine
 62
7
  6
CONTINUOUS
 10
1.4969992138
 20
15.5402800531
 11
3.0982800046
 21
16.3430020566
  0
LINE
  5
2BD
100
AcDbEntity
  8
715
100
AcDbLine
 62
7
  6
CONTINUOUS
 10
10.1057082062
 20
19.0887140531
 11
10.600682953
 21
19.3362014265
  0
LINE
  5
2BE
100
AcDbEntity
  8
715
100
AcDbLine
 62
7
  6
CONTINUOUS
 10
13.0688608655
 20
19.5167012788
 11
11.7573965545
 21
18.8609691233
  0
LINE
  5
2BF
100
AcDbEntity
  8
715
100
AcDbLine
 62
7
  6
CONTINUOUS
 10
11.0561728126
 20
18.5103572523
 11
10.8385200535
 21
18.4015308728
  0
LINE
  5
2C0
100
AcDbEntity
  8
268
100
AcDbLine
 62
7
  6
CONTINUOUS
 10
3.0982800046
 20
16.3430020566
 11
3.6265471763
 21
16.6064408766
  0
LINE
  5
2C1
100
AcDbEntity
  8
268
100
AcDbLine
 62
250
  6
CONTINUOUS
 10
3.946808142
 20
14.8862362723
 11
3.2397013608
 21
14.5402405709
  0
LINE
  5
2C2
100
AcDbEntity
  8
268
100
AcDbLine
 62
250
  6
CONTINUOUS
 10
4.1942955154
 20
14.4593721523
 11
3.4871887342
 21
14.113376451
  0
LINE
  5
2C3
100
AcDbEntity
  8
218_STAMPATO
100
AcDbLine
 62
7
  6
CONTINUOUS
 10
17.2141742177
 20
20.5397855061
 11
13.6507433811
 21
18.8295307582
  0
LWPOLYLINE
  5
2C4
100
AcDbEntity
  8
0
100
AcDbPolyline
 62
250
  6
CONTINUOUS
 90
22
 70
0
 10
-3.0265754817
 20
11.8818839646
 10
-3.1029378061
 20
11.8469886337
 10
-3.1792268562
 20
11.8055414681
 10
-3.2550612338
 20
11.757755741
 10
-3.3300628505
 20
11.7038814292
 10
-3.4038560788
 20
11.6441902613
 10
-3.4760690233
 20
11.5789717453
 10
-3.5463490476
 20
11.5085470985
 10
-3.6143348672
 20
11.4332820701
 10
-3.6796572321
 20
11.3535736338
 10
-3.7419775382
 20
11.2698469262
 10
-3.8010006617
 20
11.1825132997
 10
-3.85644342
 20
11.0919786634
 10
-3.9080368206
 20
10.9986796592
 10
-3.9555086051
 20
10.9031083245
 10
-3.9985989931
 20
10.8057728218
 10
-4.0370870493
 20
10.7071822656
 10
-4.0707895422
 20
10.6078222119
 10
-4.099538783
 20
10.5081759446
 10
-4.1231892231
 20
10.4087414881
 10
-4.1416210481
 20
10.3100293489
 10
-4.1547406234
 20
10.2125396604
  0
LWPOLYLINE
  5
2C5
100
AcDbEntity
  8
715
100
AcDbPolyline
 62
7
  6
CONTINUOUS
 90
10
 70
0
 10
13.9173626773
 20
19.0924240473
 10
13.9287591416
 20
19.0975927025
 10
13.9399795441
 20
19.1016445989
 10
13.9510238848
 20
19.1045797364
 10
13.9619871437
 20
19.1063982678
 10
13.9727743409
 20
19.1071000403
 10
13.9831005363
 20
19.1066845959
 10
13.9928707501
 20
19.105151782
 10
14.0021799621
 20
19.1025017513
 10
14.0110281724
 20
19.0987345037
  0
LINE
  5
2C6
100
AcDbEntity
  8
0
100
AcDbLine
 62
250
  6
CONTINUOUS
 10
1.1180563162
 20
13.5457176656
 11
-3.0265754817
 21
11.8818839646
  0
LINE
  5
2C7
100
AcDbEntity
  8
0
100
AcDbLine
 62
250
  6
CONTINUOUS
 10
1.644353679
 20
12.552115195
 11
-2.5103900188
 21
10.8842221419
  0
LINE
  5
2C8
100
AcDbEntity
  8
268
100
AcDbLine
 62
7
  6
CONTINUOUS
 10
1.7194217813
 20
13.1862032462
 11
2.5325945796
 21
13.4705049141
  0
LINE
  5
2C9
100
AcDbEntity
  8
268
100
AcDbLine
 62
7
  6
CONTINUOUS
 10
-10.2660381598
 20
21.2931103312
 11
-10.2660381598
 21
23.0251611388
  0
LINE
  5
2CA
100
AcDbEntity
  8
268
100
AcDbLine
 62
7
  6
CONTINUOUS
 10
-9.5630452056
 20
23.1604826366
 11
-9.5630452056
 21
22.8995536602
  0
LWPOLYLINE
  5
2CB
100
AcDbEntity
  8
CURVE
100
AcDbPolyline
 62
250
  6
CONTINUOUS
 90
20
 70
0
 10
-10.0308233266
 20
6.1244366949
 10
-10.0338891395
 20
6.091802184
 10
-10.0372758902
 20
6.0594234476
 10
-10.040983607
 20
6.0272976982
 10
-10.0450123184
 20
5.9954221482
 10
-10.0493620529
 20
5.9637940101
 10
-10.0540328388
 20
5.9324104965
 10
-10.0590247047
 20
5.9012688199
 10
-10.064337679
 20
5.8703661927
 10
-10.0699717901
 20
5.8396998274
 10
-10.0759270664
 20
5.8092669365
 10
-10.0822035365
 20
5.7790647326
 10
-10.0888012288
 20
5.7490904281
 10
-10.0957201716
 20
5.7193412355
 10
-10.1029603935
 20
5.6898143673
 10
-10.110521923
 20
5.660507036
 10
-10.1184804069
 20
5.6311445345
 10
-10.1267642842
 20
5.6020104441
 10
-10.1353715155
 20
5.5731123141
 10
-10.1443000614
 20
5.5444576936
  0
LINE
  5
2CC
100
AcDbEntity
  8
CURVE
100
AcDbLine
 62
250
  6
CONTINUOUS
 10
-10.8015711475
 20
4.6252187726
 11
-10.8118044482
 21
4.618853334
  0
LWPOLYLINE
  5
2CD
100
AcDbEntity
  8
CURVE
100
AcDbPolyline
 62
250
  6
CONTINUOUS
 90
61
 70
0
 10
-10.8118044482
 20
4.618853334
 10
-10.8742760854
 20
4.5828747685
 10
-10.9384388318
 20
4.5507736592
 10
-11.0041955899
 20
4.5225970945
 10
-11.071449262
 20
4.4983921626
 10
-11.1401009624
 20
4.4782012216
 10
-11.2100446536
 20
4.4620477085
 10
-11.2811725096
 20
4.4499503305
 10
-11.3533767049
 20
4.4419277943
 10
-11.4265494136
 20
4.437998807
 10
-11.5005814388
 20
4.4381767836
 10
-11.5753580977
 20
4.4424539724
 10
-11.6507633364
 20
4.4508173298
 10
-11.7266811009
 20
4.4632538123
 10
-11.8029953371
 20
4.4797503761
 10
-11.879589557
 20
4.5002887819
 10
-11.9563455352
 20
4.5248300066
 10
-12.0331446124
 20
4.5533298313
 10
-12.1098681292
 20
4.5857440371
 10
-12.1863974262
 20
4.6220284049
 10
-12.2626141411
 20
4.6621338121
 10
-12.3384011002
 20
4.7059915209
 10
-12.4136414267
 20
4.7535278897
 10
-12.488218244
 20
4.8046692769
 10
-12.5620146754
 20
4.8593420409
 10
-12.6349148998
 20
4.9174681017
 10
-12.706807318
 20
4.9789516254
 10
-12.7775813865
 20
5.0436923396
 10
-12.8471265616
 20
5.111589972
 10
-12.9153322997
 20
5.18254425
 10
-12.9820900113
 20
5.2564512657
 10
-13.0472989233
 20
5.3331925677
 10
-13.1108602166
 20
5.4126460691
 10
-13.1726750721
 20
5.4946896827
 10
-13.2326446708
 20
5.5792013215
 10
-13.2906725426
 20
5.6660562598
 10
-13.346671613
 20
5.7551192168
 10
-13.4005571568
 20
5.8462522729
 10
-13.4522444483
 20
5.9393175086
 10
-13.5016487623
 20
6.0341770043
 10
-13.5486883858
 20
6.1306894252
 10
-13.5932936571
 20
6.228699775
 10
-13.6353979266
 20
6.328049642
 10
-13.6749345453
 20
6.4285806148
 10
-13.7118368637
 20
6.5301342815
 10
-13.7460414661
 20
6.6325553126
 10
-13.777497871
 20
6.7357007053
 10
-13.8061588305
 20
6.8394305389
 10
-13.8319770967
 20
6.9436048927
 10
-13.8549054215
 20
7.0480838458
 10
-13.8749014904
 20
7.1527111771
 10
-13.8919427225
 20
7.2572654641
 10
-13.9060114701
 20
7.3615089837
 10
-13.9170900857
 20
7.465204013
 10
-13.9251609218
 20
7.568112829
 10
-13.9295768785
 20
7.6531278913
 10
-13.9318852393
 20
7.7374731194
 10
-13.932079399
 20
7.8211897459
 10
-13.9301527529
 20
7.9043190036
 10
-13.9260986959
 20
7.9869021251
 10
-13.9199106231
 20
8.0689803431
  0
LINE
  5
2CE
100
AcDbEntity
  8
268
100
AcDbLine
 62
250
  6
CONTINUOUS
 10
3.4871887342
 20
14.113376451
 11
1.7194217813
 21
13.2105987515
  0
LINE
  5
2CF
100
AcDbEntity
  8
218_STAMPATO
100
AcDbLine
 62
250
  6
CONTINUOUS
 10
18.3823182614
 20
19.5357514366
 11
4.1942955154
 21
12.3175553177
  0
LINE
  5
2D0
100
AcDbEntity
  8
715
100
AcDbLine
 62
7
  6
CONTINUOUS
 10
13.9173915732
 20
19.0924384952
 11
12.812765035
 21
18.5401252261
  0
LINE
  5
2D1
100
AcDbEntity
  8
218_STAMPATO
100
AcDbLine
 62
250
  6
CONTINUOUS
 10
10.1746386779
 20
16.5955268385
 11
17.7465720756
 21
20.2735865771
  0
LINE
  5
2D2
100
AcDbEntity
  8
218_STAMPATO
100
AcDbLine
 62
250
  6
CONTINUOUS
 10
10.5123070118
 20
16.0131351115
 11
18.2464959232
 21
19.7700103178
  0
LWPOLYLINE
  5
2D3
100
AcDbEntity
  8
0
100
AcDbPolyline
 62
250
  6
CONTINUOUS
 90
22
 70
0
 10
-2.5103900188
 20
10.8842221419
 10
-2.5466370823
 20
10.8681051098
 10
-2.5825429189
 20
10.8491219734
 10
-2.6181075286
 20
10.8272727328
 10
-2.6535224841
 20
10.8024128895
 10
-2.6885962126
 20
10.7746869419
 10
-2.7227539959
 20
10.7445283853
 10
-2.7559693634
 20
10.71190311
 10
-2.7882687857
 20
10.6768452257
 10
-2.8191569554
 20
10.6398905558
 10
-2.8486073753
 20
10.6010167768
 10
-2.8766465427
 20
10.5602462123
 10
-2.9028586426
 20
10.5181816559
 10
-2.9272213016
 20
10.474793461
 10
-2.9497568931
 20
10.4301112743
 10
-2.9701167231
 20
10.3848268298
 10
-2.9882654431
 20
10.338920454
 10
-3.0042384017
 20
10.2924118203
 10
-3.0177929503
 20
10.2460516828
 10
-3.028848206
 20
10.2000902928
 10
-3.0374850516
 20
10.1542773989
 10
-3.0437034873
 20
10.1086130011
  0
LWPOLYLINE
  5
2D4
100
AcDbEntity
  8
0
100
AcDbPolyline
 62
250
  6
CONTINUOUS
 90
14
 70
0
 10
-6.1674222431
 20
-26.0452508137
 10
-6.1647735389
 20
-26.1363796254
 10
-6.1567082558
 20
-26.2244019837
 10
-6.1432672818
 20
-26.3088734759
 10
-6.1245176273
 20
-26.3893651656
 10
-6.100554776
 20
-26.4654744772
 10
-6.0714998318
 20
-26.5368251026
 10
-6.0374907184
 20
-26.6030647912
 10
-5.9987004297
 20
-26.6638479091
 10
-5.9553412342
 20
-26.718849269
 10
-5.907641703
 20
-26.7677858734
 10
-5.8558340949
 20
-26.810426958
 10
-5.8001676405
 20
-26.8465692387
 10
-5.7731653355
 20
-26.8610483157
  0
LINE
  5
2D5
100
AcDbEntity
  8
268
100
AcDbLine
 62
7
  6
CONTINUOUS
 10
-8.0882811568
 20
20.7670971994
 11
-8.0882811568
 21
19.5523638132
  0
LINE
  5
2D6
100
AcDbEntity
  8
268
100
AcDbLine
 62
250
  6
CONTINUOUS
 10
-8.0004131912
 20
20.6605882426
 11
-8.0004131912
 21
19.4456333765
  0
LWPOLYLINE
  5
2D7
100
AcDbEntity
  8
715
100
AcDbPolyline
 62
250
  6
CONTINUOUS
 90
13
 70
0
 10
1.9174686086
 20
22.4322689591
 10
1.9187428129
 20
22.4353614607
 10
1.9521497133
 20
22.4994356491
 10
1.9921613685
 20
22.5625698669
 10
2.0386591421
 20
22.6245755428
 10
2.0915217932
 20
22.6852926408
 10
2.1506006637
 20
22.7445518581
 10
2.2156934431
 20
22.8021597913
 10
2.286569275
 20
22.8579332589
 10
2.3630624128
 20
22.9117611944
 10
2.4450538165
 20
22.9635623781
 10
2.5323024135
 20
23.0131800174
 10
2.5526717929
 20
23.0240489988
  0
LINE
  5
2D8
100
AcDbEntity
  8
268
100
AcDbLine
 62
7
  6
CONTINUOUS
 10
3.7133988396
 20
15.98544329
 11
3.1861541239
 21
15.3437355619
  0
LWPOLYLINE
  5
2D9
100
AcDbEntity
  8
218_STAMPATO
100
AcDbPolyline
 62
250
  6
CONTINUOUS
 90
30
 70
0
 10
18.796468737
 20
18.104117862
 10
18.8151298755
 20
18.114044091
 10
18.8332429704
 20
18.1242209173
 10
18.8507945709
 20
18.1346407811
 10
18.8677716431
 20
18.1452959455
 10
18.8841615797
 20
18.1561784926
 10
18.8999522093
 20
18.1672803291
 10
18.9151318059
 20
18.1785932086
 10
18.929689097
 20
18.1901087279
 10
18.9436132721
 20
18.201818324
 10
18.9568939913
 20
18.2137132991
 10
18.9695213921
 20
18.2257848178
 10
18.9814860973
 20
18.2380239045
 10
18.992779222
 20
18.2504214683
 10
19.0033923797
 20
18.2629683007
 10
19.0133176891
 20
18.2756550737
 10
19.0225477796
 20
18.2884723638
 10
19.0310757968
 20
18.301410651
 10
19.0388954079
 20
18.3144603176
 10
19.0460008059
 20
18.3276116702
 10
19.0523867143
 20
18.3408549411
 10
19.058048391
 20
18.3541802874
 10
19.0629816314
 20
18.3675778112
 10
19.0671827722
 20
18.3810375619
 10
19.0706486936
 20
18.3945495376
 10
19.0733768218
 20
18.4081037017
 10
19.0753651308
 20
18.4216899872
 10
19.0766121441
 20
18.4352982999
 10
19.0771169358
 20
18.4489185313
 10
19.0771289363
 20
18.4513550307
  0
LINE
  5
2DA
100
AcDbEntity
  8
218_STAMPATO
100
AcDbLine
 62
250
  6
CONTINUOUS
 10
18.796468737
 20
18.104117862
 11
4.1942955154
 21
10.6752215342
  0
LWPOLYLINE
  5
2DB
100
AcDbEntity
  8
CURVE
100
AcDbPolyline
 62
250
  6
CONTINUOUS
 90
31
 70
0
 10
-10.2335057845
 20
7.6658759226
 10
-10.2163791686
 20
7.6146320621
 10
-10.1999275813
 20
7.5631909113
 10
-10.1841565257
 20
7.5115701758
 10
-10.1690715052
 20
7.4597875614
 10
-10.154678023
 20
7.4078607737
 10
-10.1409815822
 20
7.3558075185
 10
-10.1279876861
 20
7.3036455015
 10
-10.115701838
 20
7.2513924284
 10
-10.1041295409
 20
7.1990660049
 10
-10.0932762983
 20
7.1466839367
 10
-10.0831470171
 20
7.0942659648
 10
-10.0737442205
 20
7.0418399705
 10
-10.0650698355
 20
6.9894358703
 10
-10.0571257891
 20
6.9370835809
 10
-10.0499140082
 20
6.8848130187
 10
-10.0434364198
 20
6.8326541003
 10
-10.0376949509
 20
6.7806367422
 10
-10.0326915286
 20
6.728790861
 10
-10.0284280797
 20
6.6771463733
 10
-10.0249065314
 20
6.6257331956
 10
-10.0221287143
 20
6.574574776
 10
-10.0200960746
 20
6.523668689
 10
-10.0188099622
 20
6.4730060407
 10
-10.0182717268
 20
6.4225779371
 10
-10.0184827184
 20
6.3723754844
 10
-10.0194442869
 20
6.3223897885
 10
-10.0211577821
 20
6.2726119555
 10
-10.0236245538
 20
6.2230330915
 10
-10.026845952
 20
6.1736443026
 10
-10.0308233266
 20
6.1244366949
  0
LWPOLYLINE
  5
2DC
100
AcDbEntity
  8
0
100
AcDbPolyline
 62
250
  6
CONTINUOUS
 90
22
 70
0
 10
-5.0510179559
 20
-26.0524900318
 10
-5.0497095724
 20
-26.0951775287
 10
-5.0458934941
 20
-26.1360941214
 10
-5.039569721
 20
-26.1752398097
 10
-5.03068189
 20
-26.2128132902
 10
-5.0192863642
 20
-26.2486158663
 10
-5.0055522331
 20
-26.2820514489
 10
-4.9894421155
 20
-26.3130681388
 10
-4.9709933924
 20
-26.3417178352
 10
-4.9504872965
 20
-26.3675601464
 10
-4.9278962908
 20
-26.3905483908
 10
-4.9032479122
 20
-26.41072925
 10
-4.876906004
 20
-26.4278023769
 10
-4.8488382974
 20
-26.4417234677
 10
-4.8190770611
 20
-26.4525368262
 10
-4.7880829448
 20
-26.4600750175
 10
-4.7558275754
 20
-26.4642803388
 10
-4.722339326
 20
-26.465210493
 10
-4.6881639655
 20
-26.4628711526
 10
-4.653483417
 20
-26.4572642088
 10
-4.6181157574
 20
-26.4483877706
 10
-4.5820609868
 20
-26.4362418379
  0
LWPOLYLINE
  5
2DD
100
AcDbEntity
  8
0
100
AcDbPolyline
 62
250
  6
CONTINUOUS
 90
13
 70
0
 10
-4.1547406234
 20
10.2125396604
 10
-4.4758436621
 20
7.1345689693
 10
-4.769157823
 20
4.0655619836
 10
-5.0346457814
 20
1.0059137929
 10
-5.2722738361
 20
-2.0439816563
 10
-5.4820115101
 20
-5.0837319322
 10
-5.6638315513
 20
-8.1129461672
 10
-5.8177103362
 20
-11.1312347112
 10
-5.9436282943
 20
-14.1382090913
 10
-6.0415695021
 20
-17.1334823798
 10
-6.1115212635
 20
-20.1166692611
 10
-6.1534741151
 20
-23.0873860833
 10
-6.1674222431
 20
-26.0452508137
  0
LWPOLYLINE
  5
2DE
100
AcDbEntity
  8
715
100
AcDbPolyline
 62
250
  6
CONTINUOUS
 90
51
 70
0
 10
2.0176224835
 20
22.396161429
 10
2.0195232168
 20
22.4022906546
 10
2.0446848333
 20
22.4628755033
 10
2.0760544906
 20
22.5227537843
 10
2.113577566
 20
22.5819218661
 10
2.1569510978
 20
22.6398998848
 10
2.2062343162
 20
22.6966805623
 10
2.2613679908
 20
22.7522711766
 10
2.3218714692
 20
22.8062136989
 10
2.3877438208
 20
22.8584665984
 10
2.4589859761
 20
22.9090714059
 10
2.5351200738
 20
22.9576946844
 10
2.6161367028
 20
23.0043224269
 10
2.7020452741
 20
23.0489686405
 10
2.7923961598
 20
23.0913419096
 10
2.88744644
 20
23.1315011076
 10
2.9869390345
 20
23.1693873611
 10
3.0896530749
 20
23.2045326342
 10
3.1959939437
 20
23.2369103541
 10
3.3055562583
 20
23.2665470937
 10
3.4159030026
 20
23.2930545359
 10
3.5270075196
 20
23.3162539293
 10
3.6388964663
 20
23.3363240254
 10
3.7492127984
 20
23.3534127612
 10
3.8576032883
 20
23.367386657
 10
3.9644211636
 20
23.3783791926
 10
4.0683690627
 20
23.3869387438
 10
4.1692048971
 20
23.3930413134
 10
4.2671707554
 20
23.3967108986
 10
4.3616955418
 20
23.3985678674
 10
4.4526172819
 20
23.3986337362
 10
4.54009795
 20
23.3968869887
 10
4.6240523734
 20
23.3938834434
 10
4.7043564468
 20
23.3896646427
 10
4.7811342754
 20
23.3841890442
 10
4.8546730018
 20
23.3778878386
 10
4.9249395355
 20
23.3708018048
 10
4.9919669671
 20
23.3628901639
 10
5.0561417112
 20
23.3544617698
 10
5.117449458
 20
23.3455511292
 10
5.1759045175
 20
23.3361237354
 10
5.231936234
 20
23.3263849216
 10
5.2855408175
 20
23.3163633999
 10
5.3367220582
 20
23.3060304581
 10
5.3859206705
 20
23.2955052934
 10
5.4331398154
 20
23.2848107542
 10
5.478376332
 20
23.2739239921
 10
5.5220614518
 20
23.2628956585
 10
5.5643389189
 20
23.2517426372
 10
5.6050649893
 20
23.2404480443
 10
5.6442396631
 20
23.22901188
  0
LWPOLYLINE
  5
2DF
100
AcDbEntity
  8
218_STAMPATO
100
AcDbPolyline
 62
250
  6
CONTINUOUS
 90
56
 70
0
 10
18.9140184182
 20
12.6616142661
 10
18.9211230035
 20
12.664165118
 10
18.9283017595
 20
12.6664849664
 10
18.9355536875
 20
12.6685752098
 10
18.942875523
 20
12.6704532075
 10
18.9502681764
 20
12.6721047596
 10
18.9577364447
 20
12.6734844758
 10
18.9652904662
 20
12.6745969218
 10
18.9729161773
 20
12.6754425021
 10
18.980581276
 20
12.6759704987
 10
18.9882855301
 20
12.6761804672
 10
18.9960234694
 20
12.67607976
 10
19.0037541642
 20
12.6756301728
 10
19.0114660893
 20
12.6748334094
 10
19.0191633058
 20
12.6736965663
 10
19.0268274191
 20
12.6721904375
 10
19.0344455463
 20
12.6703240288
 10
19.0420209894
 20
12.6680995507
 10
19.049558222
 20
12.6654792336
 10
19.0570517709
 20
12.6624757783
 10
19.0644942305
 20
12.6590916815
 10
19.0718848897
 20
12.6552765764
 10
19.0792209396
 20
12.6510432917
 10
19.0864877314
 20
12.6463998887
 10
19.093663852
 20
12.6412923641
 10
19.1007429135
 20
12.6357355187
 10
19.1077084376
 20
12.6297424301
 10
19.114520567
 20
12.6232605208
 10
19.1211678222
 20
12.6163108179
 10
19.1276327882
 20
12.6089084204
 10
19.1338628357
 20
12.6009966786
 10
19.1398409401
 20
12.5926120282
 10
19.1455482136
 20
12.583764405
 10
19.1509232376
 20
12.5743651006
 10
19.1559500831
 20
12.5644669333
 10
19.1605975847
 20
12.5540801938
 10
19.1647708479
 20
12.5430663464
 10
19.1684594016
 20
12.5314459487
 10
19.1716063728
 20
12.5192922987
 10
19.1740386276
 20
12.5065578397
 10
19.175716324
 20
12.4932085363
 10
19.1766007369
 20
12.479394236
 10
19.1765346847
 20
12.4653241817
 10
19.1754693639
 20
12.4510357305
 10
19.1734094972
 20
12.4365664006
 10
19.1703080413
 20
12.4220838828
 10
19.1661189263
 20
12.4075637101
 10
19.1608688379
 20
12.3930740436
 10
19.154653353
 20
12.3788718758
 10
19.1475020899
 20
12.3650060747
 10
19.1394110832
 20
12.3514031693
 10
19.1304471792
 20
12.3381030647
 10
19.1206201889
 20
12.3250906904
 10
19.1099444894
 20
12.3123562383
 10
19.0984977929
 20
12.2999406453
 10
19.086302465
 20
12.2878359768
  0
LINE
  5
2E0
100
AcDbEntity
  8
268
100
AcDbLine
 62
7
  6
CONTINUOUS
 10
0.6019274278
 20
-6.2268472759
 11
0.8001829657
 21
-6.3259750448
  0
LINE
  5
2E1
100
AcDbEntity
  8
268
100
AcDbLine
 62
250
  6
CONTINUOUS
 10
-2.2079041231
 20
16.5493788425
 11
-2.2079041231
 21
17.7643337086
  0
LWPOLYLINE
  5
2E2
100
AcDbEntity
  8
0
100
AcDbPolyline
 62
250
  6
CONTINUOUS
 90
16
 70
0
 10
-2.5103900188
 20
10.8842221419
 10
-2.5098098746
 20
10.9598887079
 10
-2.515268013
 20
11.0378905452
 10
-2.5267046832
 20
11.1173733234
 10
-2.5439946527
 20
11.1974664872
 10
-2.5669485757
 20
11.2772927822
 10
-2.5953150649
 20
11.3559778644
 10
-2.6287834507
 20
11.4326598944
 10
-2.666987176
 20
11.5064989573
 10
-2.7095078042
 20
11.5766862565
 10
-2.7558796224
 20
11.6424530116
 10
-2.8055947282
 20
11.7030788496
 10
-2.8581085765
 20
11.7578996844
 10
-2.9128459748
 20
11.806315031
 10
-2.9692073871
 20
11.8477945761
 10
-3.0265754797
 20
11.8818839654
  0
LWPOLYLINE
  5
2E3
100
AcDbEntity
  8
0
100
AcDbPolyline
 62
250
  6
CONTINUOUS
 90
7
 70
0
 10
-4.5488048334
 20
-8.1679960077
 10
-4.7022613615
 20
-11.1781150448
 10
-4.8278517001
 20
-14.1773392329
 10
-4.9255273761
 20
-17.1645051663
 10
-4.9952722319
 20
-20.1392250429
 10
-5.0371024252
 20
-23.1018866648
 10
-5.0510179559
 20
-26.0524900318
  0
LWPOLYLINE
  5
2E4
100
AcDbEntity
  8
0
100
AcDbPolyline
 62
250
  6
CONTINUOUS
 90
7
 70
0
 10
-3.0437034873
 20
10.1086130011
 10
-3.3640161696
 20
7.0382105524
 10
-3.6565438687
 20
3.9775284826
 10
-3.9212865846
 20
0.9265667917
 10
-4.1582713862
 20
-2.1150660103
 10
-4.3674712046
 20
-5.1469784335
 10
-4.5488048334
 20
-8.1679960077
  0
LWPOLYLINE
  5
2E5
100
AcDbEntity
  8
268
100
AcDbPolyline
 62
7
  6
CONTINUOUS
 90
13
 70
0
 10
8.9673144752
 20
-18.7557119271
 10
8.9644233102
 20
-18.7518187362
 10
8.960734546
 20
-18.747436396
 10
8.9562745821
 20
-18.7426791031
 10
8.9510817238
 20
-18.7375392485
 10
8.9451990666
 20
-18.7319918898
 10
8.9386385324
 20
-18.7261242912
 10
8.9314316293
 20
-18.7199269832
 10
8.9236144836
 20
-18.7133818586
 10
8.9151905442
 20
-18.7065609825
 10
8.9061776528
 20
-18.6994789577
 10
8.8966158074
 20
-18.6920953144
 10
8.8865360503
 20
-18.6843987597
  0
LINE
  5
2E6
100
AcDbEntity
  8
268
100
AcDbLine
 62
7
  6
CONTINUOUS
 10
0.0823241059
 20
-15.5873284335
 11
0.5269695633
 21
-19.7317705838
  0
LINE
  5
2E7
100
AcDbEntity
  8
268
100
AcDbLine
 62
7
  6
CONTINUOUS
 10
0.8001829657
 20
-6.3259750448
 11
2.5325945796
 21
-22.7401359523
  0
LINE
  5
2E8
100
AcDbEntity
  8
268
100
AcDbLine
 62
7
  6
CONTINUOUS
 10
-1.8514674637
 20
20.7259431008
 11
-1.8514674637
 21
22.0526235362
  0
LINE
  5
2E9
100
AcDbEntity
  8
268
100
AcDbLine
 62
250
  6
CONTINUOUS
 10
-1.7848777716
 20
16.55101769
 11
-1.7848777716
 21
17.7652211629
  0
LINE
  5
2EA
100
AcDbEntity
  8
268
100
AcDbLine
 62
7
  6
CONTINUOUS
 10
-1.4979140731
 20
21.3232886516
 11
-1.4979140731
 21
21.8758468409
  0
LINE
  5
2EB
100
AcDbEntity
  8
268
100
AcDbLine
 62
250
  6
CONTINUOUS
 10
-1.427203395
 20
23.4920551385
 11
-1.427203395
 21
22.2602209571
  0
LINE
  5
2EC
100
AcDbEntity
  8
268
100
AcDbLine
 62
7
  6
CONTINUOUS
 10
-1.3393354294
 20
23.5970523525
 11
-1.3393354294
 21
22.3646837476
  0
LINE
  5
2ED
100
AcDbEntity
  8
268
100
AcDbLine
 62
7
  6
CONTINUOUS
 10
-1.2857820388
 20
18.015417836
 11
-1.2857820388
 21
16.8029822707
  0
LINE
  5
2EE
100
AcDbEntity
  8
268
100
AcDbLine
 62
7
  6
CONTINUOUS
 10
-0.2855479778
 20
-25.767044221
 11
-0.2855479778
 21
-25.5136728272
  0
LINE
  5
2EF
100
AcDbEntity
  8
268
100
AcDbLine
 62
7
  6
CONTINUOUS
 10
-0.2855479778
 20
15.7859313122
 11
-0.2855479778
 21
16.0393027059
  0
LWPOLYLINE
  5
2F0
100
AcDbEntity
  8
0
100
AcDbPolyline
 62
250
  6
CONTINUOUS
 90
10
 70
0
 10
-4.5820609868
 20
-26.4362418379
 10
-4.5897287907
 20
-26.5091580156
 10
-4.6033446564
 20
-26.5781115769
 10
-4.622759449
 20
-26.6423472719
 10
-4.6477605176
 20
-26.7011615253
 10
-4.678074025
 20
-26.753910143
 10
-4.7133679465
 20
-26.8000153681
 10
-4.7532557069
 20
-26.8389722088
 10
-4.7973004146
 20
-26.87035397
 10
-4.8482904424
 20
-26.8950819054
  0
LINE
  5
2F1
100
AcDbEntity
  8
218_STAMPATO
100
AcDbLine
 62
7
  6
CONTINUOUS
 10
19.0771289367
 20
12.2717460396
 11
19.9923057237
 21
12.8636746587
  0
LWPOLYLINE
  5
2F2
100
AcDbEntity
  8
218_STAMPATO
100
AcDbPolyline
 62
7
  6
CONTINUOUS
 90
16
 70
0
 10
18.9140188072
 20
2.3299317546
 10
18.905057592
 20
2.3281645071
 10
18.8962354847
 20
2.326811108
 10
18.8875524853
 20
2.3258715573
 10
18.8789981199
 20
2.3253474122
 10
18.8705828625
 20
2.3252371154
 10
18.8623381343
 20
2.3255359958
 10
18.8542677604
 20
2.3262508537
 10
18.8463679157
 20
2.3273748888
 10
18.8386585472
 20
2.3288830286
 10
18.8311453221
 20
2.3307809501
 10
18.8238225732
 20
2.3330629765
 10
18.8166932457
 20
2.3356870051
 10
18.8097583214
 20
2.3386390017
 10
18.8030168185
 20
2.3419330007
 10
18.796468737
 20
2.3455690018
  0
LWPOLYLINE
  5
2F3
100
AcDbEntity
  8
268
100
AcDbPolyline
 62
7
  6
CONTINUOUS
 90
24
 70
0
 10
1.2598023735
 20
22.3667293849
 10
1.2592291891
 20
22.4012017911
 10
1.2575300761
 20
22.4349517121
 10
1.2547050345
 20
22.4679791479
 10
1.2507446
 20
22.5003407053
 10
1.2456582369
 20
22.5319797775
 10
1.2394743385
 20
22.562726544
 10
1.2321917231
 20
22.5925620714
 10
1.2238115724
 20
22.6215052932
 10
1.2143658252
 20
22.6494431891
 10
1.2038419666
 20
22.6763893519
 10
1.1922525116
 20
22.7023301889
 10
1.1796669428
 20
22.7271119018
 10
1.166091757
 20
22.7507092032
 10
1.1515204574
 20
22.7731473805
 10
1.1360030374
 20
22.7943484977
 10
1.11951975
 20
22.8143255876
 10
1.1020903422
 20
22.8330656175
 10
1.0838240475
 20
22.8504515531
 10
1.0647353916
 20
22.8664604794
 10
1.0448098489
 20
22.8811153115
 10
1.0241130764
 20
22.8943677598
 10
1.0026205619
 20
22.9062236211
 10
-2.2265807043
 20
24.5208481314
  0
LWPOLYLINE
  5
2F4
100
AcDbEntity
  8
218_STAMPATO
100
AcDbPolyline
 62
7
  6
CONTINUOUS
 90
4
 70
0
 10
1.161452803
 20
22.8909823254
 10
1.1615815492
 20
22.8776773658
 10
1.1627680387
 20
22.8484615462
 10
1.1648974195
 20
22.8228553441
  0
LINE
  5
2F5
100
AcDbEntity
  8
268
100
AcDbLine
 62
7
  6
CONTINUOUS
 10
0.4174449765
 20
14.8793720575
 11
0.4174449765
 21
15.3317030331
  0
LINE
  5
2F6
100
AcDbEntity
  8
268
100
AcDbLine
 62
7
  6
CONTINUOUS
 10
1.2598023735
 20
22.3667293849
 11
1.2598023735
 21
22.0959290923
  0
LINE
  5
2F7
100
AcDbEntity
  8
268
100
AcDbLine
 62
7
  6
CONTINUOUS
 10
1.3202284843
 20
15.2364144748
 11
1.3202284843
 21
14.9830430811
  0
LINE
  5
2F8
100
AcDbEntity
  8
268
100
AcDbLine
 62
7
  6
CONTINUOUS
 10
1.3202284843
 20
-26.3165610583
 11
1.3202284843
 21
-26.569932452
  0
LINE
  5
2F9
100
AcDbEntity
  8
268
100
AcDbLine
 62
7
  6
CONTINUOUS
 10
1.7194217813
 20
13.2105987515
 11
1.7194217813
 21
13.1862032462
  0
LINE
  5
2FA
100
AcDbEntity
  8
268
100
AcDbLine
 62
7
  6
CONTINUOUS
 10
1.7194217813
 20
-24.9189145203
 11
1.7194217813
 21
-24.9433100256
  0
LINE
  5
2FB
100
AcDbEntity
  8
218_STAMPATO
100
AcDbLine
 62
250
  6
CONTINUOUS
 10
1.9500140678
 20
23.4445135209
 11
1.9500140678
 21
23.8547325638
  0
LINE
  5
2FC
100
AcDbEntity
  8
268
100
AcDbLine
 62
7
  6
CONTINUOUS
 10
2.0314490924
 20
-25.3400645812
 11
2.0314490924
 21
-24.9354424901
  0
LINE
  5
2FD
100
AcDbEntity
  8
268
100
AcDbLine
 62
7
  6
CONTINUOUS
 10
2.0314490924
 20
14.0723699995
 11
2.0314490924
 21
14.7095395582
  0
LINE
  5
2FE
100
AcDbEntity
  8
268
100
AcDbLine
 62
7
  6
CONTINUOUS
 10
2.5325945796
 20
13.4705049141
 11
2.5325945796
 21
11.8205974765
  0
LINE
  5
2FF
100
AcDbEntity
  8
268
100
AcDbLine
 62
7
  6
CONTINUOUS
 10
2.5325945796
 20
-22.7401359523
 11
2.5325945796
 21
-24.3900433899
  0
LINE
  5
300
100
AcDbEntity
  8
0
100
AcDbLine
 62
7
  6
CONTINUOUS
 10
-0.432255448
 20
-24.8573080795
 11
1.644353679
 21
12.552115195
  0
LINE
  5
301
100
AcDbEntity
  8
268
100
AcDbLine
 62
7
  6
CONTINUOUS
 10
2.5325945796
 20
11.8205974765
 11
0.8001829657
 21
-6.3259750448
  0
LWPOLYLINE
  5
302
100
AcDbEntity
  8
715
100
AcDbPolyline
 62
250
  6
CONTINUOUS
 90
13
 70
0
 10
9.3420898123
 20
18.7199583609
 10
9.3433640154
 20
18.7230508595
 10
9.3767709157
 20
18.7871250479
 10
9.416782571
 20
18.8502592657
 10
9.4632803446
 20
18.9122649416
 10
9.5161429957
 20
18.9729820396
 10
9.5752218662
 20
19.0322412568
 10
9.6403146456
 20
19.08984919
 10
9.7111904774
 20
19.1456226577
 10
9.7876836152
 20
19.1994505932
 10
9.869675019
 20
19.2512517769
 10
9.9569236159
 20
19.3008694162
 10
9.9772929953
 20
19.3117383975
  0
LWPOLYLINE
  5
303
100
AcDbEntity
  8
218_STAMPATO
100
AcDbPolyline
 62
7
  6
CONTINUOUS
 90
136
 70
0
 10
18.9140184182
 20
12.6616142661
 10
18.973415294
 20
12.7103424339
 10
19.0309325389
 20
12.7578535149
 10
19.086570153
 20
12.8041475091
 10
19.140273051
 20
12.8491898617
 10
19.1920963181
 20
12.8930151276
 10
19.2422052103
 20
12.9357269712
 10
19.2906069734
 20
12.9773303198
 10
19.3372943616
 20
13.0178202462
 10
19.3824108927
 20
13.0572856337
 10
19.4259607728
 20
13.0957290067
 10
19.467939796
 20
13.1331478409
 10
19.5084788625
 20
13.1696234465
 10
19.5475818931
 20
13.2051582009
 10
19.5852449672
 20
13.2397497266
 10
19.6215872226
 20
13.2734722026
 10
19.6566123194
 20
13.3063278877
 10
19.6903165976
 20
13.3383145231
 10
19.7228082154
 20
13.36949951
 10
19.7540905171
 20
13.3998849435
 10
19.7841601584
 20
13.4294687287
 10
19.8131152647
 20
13.4583119821
 10
19.8409589146
 20
13.4864166886
 10
19.8676880295
 20
13.5137808635
 10
19.8933914996
 20
13.540459669
 10
19.9180721707
 20
13.5664550326
 10
19.941727197
 20
13.5917650269
 10
19.9644369307
 20
13.6164390315
 10
19.9862039819
 20
13.6404789485
 10
20.0070257406
 20
13.6638828758
 10
20.0269747289
 20
13.6866944863
 10
20.0460533108
 20
13.7089157021
 10
20.0642591224
 20
13.730544601
 10
20.0816575939
 20
13.751619089
 10
20.0982508033
 20
13.7721411488
 10
20.1140366726
 20
13.7921087978
 10
20.1290743987
 20
13.8115539934
 10
20.1433656859
 20
13.8304787927
 10
20.1569088299
 20
13.8488811386
 10
20.169757914
 20
13.8667868173
 10
20.1819141485
 20
13.884197955
 10
20.193376323
 20
13.9011124254
 10
20.2041948905
 20
13.9175496366
 10
20.2143703035
 20
13.9335115235
 10
20.2239021094
 20
13.9489961512
 10
20.2328394025
 20
13.9640171231
 10
20.2411819206
 20
13.97857632
 10
20.2489299258
 20
13.9926718611
 10
20.2561332997
 20
14.0063117065
 10
20.2627906109
 20
14.0194965623
 10
20.2689032908
 20
14.0322257225
 10
20.2745255148
 20
14.044505029
 10
20.2796526529
 20
14.0563253399
 10
20.2842893351
 20
14.067695797
 10
20.2885036271
 20
14.0786496675
 10
20.2922935876
 20
14.0891735199
 10
20.2956611578
 20
14.0992807857
 10
20.2986802267
 20
14.1090450255
 10
20.301356101
 20
14.1184639604
 10
20.3036834739
 20
14.1275398694
 10
20.3057203136
 20
14.1363531503
 10
20.3074740195
 20
14.1449087993
 10
20.3089371922
 20
14.1532018202
 10
20.3101456025
 20
14.161297623
 10
20.3111055365
 20
14.169200457
 10
20.3118107079
 20
14.1769060729
 10
20.3122780292
 20
14.1844671315
 10
20.3125131609
 20
14.1918868048
 10
20.3125104425
 20
14.1991619208
 10
20.3122698043
 20
14.2063356246
 10
20.3117968967
 20
14.2134106477
 10
20.3110860694
 20
14.2203842586
 10
20.3101203023
 20
14.2272914077
 10
20.3089059171
 20
14.2341342268
 10
20.3074365921
 20
14.240910584
 10
20.3056763426
 20
14.2476490339
 10
20.3036328277
 20
14.2543519185
 10
20.3012983881
 20
14.2610168959
 10
20.2986140612
 20
14.2676654949
 10
20.2955850263
 20
14.2743061084
 10
20.2922061039
 20
14.2809303434
 10
20.2884027925
 20
14.2875345508
 10
20.2841726748
 20
14.2941305217
 10
20.2795181681
 20
14.3007064649
 10
20.2743720217
 20
14.3072233578
 10
20.2687298328
 20
14.313684941
 10
20.2625960043
 20
14.3200874739
 10
20.2559164944
 20
14.3263807124
 10
20.2486900241
 20
14.3325623713
 10
20.2409178726
 20
14.3386347357
 10
20.2325498352
 20
14.3445544173
 10
20.2235855087
 20
14.350319391
 10
20.2140252964
 20
14.3559316817
 10
20.2038202038
 20
14.3613539759
 10
20.1929707443
 20
14.3665847706
 10
20.1814764045
 20
14.3716255686
 10
20.1692866504
 20
14.3764435652
 10
20.1564026869
 20
14.3810378986
 10
20.142823309
 20
14.3854094305
 10
20.1284943679
 20
14.3895279411
 10
20.1134175786
 20
14.3933931416
 10
20.097591226
 20
14.3970053207
 10
20.080956016
 20
14.4003351252
 10
20.0635140364
 20
14.4033827285
 10
20.0452631995
 20
14.4061479572
 10
20.0261379469
 20
14.4086009375
 10
20.0061406328
 20
14.4107422004
 10
19.9852689032
 20
14.4125712148
 10
19.9634501374
 20
14.4140565142
 10
19.9406870128
 20
14.4151989029
 10
19.9169768521
 20
14.4159975767
 10
19.8922390024
 20
14.4164186559
 10
19.8664760852
 20
14.4164631552
 10
19.8396854791
 20
14.4161300599
 10
19.8117786674
 20
14.4153824468
 10
19.7827596374
 20
14.4142215906
 10
19.7526244017
 20
14.4126462165
 10
19.7212724818
 20
14.4106155768
 10
19.6887052325
 20
14.4081308665
 10
19.6549212989
 20
14.4051908905
 10
19.6198161376
 20
14.4017513161
 10
19.5833848496
 20
14.3978121907
 10
19.5456323339
 20
14.3933734669
 10
19.5064687441
 20
14.3883906698
 10
19.4659028347
 20
14.3828654725
 10
19.4239258512
 20
14.3767962018
 10
19.3804216838
 20
14.370133364
 10
19.3354052362
 20
14.3628806717
 10
19.2888616049
 20
14.3550344121
 10
19.2406299688
 20
14.346533953
 10
19.1907105017
 20
14.3373809175
 10
19.1391030299
 20
14.3275736825
 10
19.0856462115
 20
14.3170467457
 10
19.0302862659
 20
14.3057782734
 10
18.9730769738
 20
14.2937900993
 10
18.9140183351
 20
14.2810822237
  0
LWPOLYLINE
  5
304
100
AcDbEntity
  8
268
100
AcDbPolyline
 62
7
  6
CONTINUOUS
 90
31
 70
0
 10
3.4871887342
 20
14.113376451
 10
3.4868490667
 20
14.129409483
 10
3.4858326292
 20
14.1457380523
 10
3.4841418959
 20
14.1623172554
 10
3.4817808914
 20
14.1791013551
 10
3.4787560797
 20
14.1960443491
 10
3.4750763473
 20
14.2131000974
 10
3.4707514943
 20
14.2302217161
 10
3.4657930644
 20
14.2473621269
 10
3.4602152138
 20
14.2644746317
 10
3.4540329696
 20
14.2815122015
 10
3.4472629793
 20
14.2984279937
 10
3.439924321
 20
14.3151759012
 10
3.4320368789
 20
14.3317099084
 10
3.423621995
 20
14.3479845611
 10
3.4147031999
 20
14.3639554794
 10
3.4053047462
 20
14.3795787935
 10
3.3954521445
 20
14.3948115574
 10
3.3851727991
 20
14.4096122117
 10
3.3744947337
 20
14.4239401129
 10
3.3634469999
 20
14.437755881
 10
3.3520602006
 20
14.451021801
 10
3.3403654408
 20
14.4637014571
 10
3.3283945977
 20
14.4757600049
 10
3.3161807187
 20
14.4871645037
 10
3.3037572242
 20
14.4978836619
 10
3.2911580319
 20
14.5078880292
 10
3.2784178196
 20
14.5171502507
 10
3.2655715234
 20
14.5256449419
 10
3.252654243
 20
14.5333487595
 10
3.2397013608
 20
14.5402405709
  0
LINE
  5
305
100
AcDbEntity
  8
218_STAMPATO
100
AcDbLine
 62
7
  6
CONTINUOUS
 10
2.6327242657
 20
23.7869716131
 11
2.6327242657
 21
23.3539589112
  0
LINE
  5
306
100
AcDbEntity
  8
268
100
AcDbLine
 62
7
  6
CONTINUOUS
 10
3.0982800046
 20
-24.4134295219
 11
3.0982800046
 21
-25.9190376481
  0
LINE
  5
307
100
AcDbEntity
  8
268
100
AcDbLine
 62
7
  6
CONTINUOUS
 10
3.0982800046
 20
14.610951249
 11
3.0982800046
 21
16.3430020566
  0
LINE
  5
308
100
AcDbEntity
  8
715
100
AcDbLine
 62
7
  6
CONTINUOUS
 10
3.6315516101
 20
22.2226678536
 11
3.6315516101
 21
22.0996121909
  0
LINE
  5
309
100
AcDbEntity
  8
268
100
AcDbLine
 62
7
  6
CONTINUOUS
 10
3.8012729589
 20
16.4783235543
 11
3.8012729589
 21
16.217394578
  0
LINE
  5
30A
100
AcDbEntity
  8
268
100
AcDbLine
 62
7
  6
CONTINUOUS
 10
3.8012729589
 20
-25.0822095614
 11
3.8012729589
 21
-25.3431385378
  0
LINE
  5
30B
100
AcDbEntity
  8
715
100
AcDbLine
 62
7
  6
CONTINUOUS
 10
3.8830306907
 20
22.6950275577
 11
3.8830306907
 21
22.0921141759
  0
LINE
  5
30C
100
AcDbEntity
  8
218_STAMPATO
100
AcDbLine
 62
7
  6
CONTINUOUS
 10
4.0882294983
 20
23.7275490473
 11
4.0882294983
 21
23.4151201874
  0
LINE
  5
30D
100
AcDbEntity
  8
268
100
AcDbLine
 62
250
  6
CONTINUOUS
 10
4.1284906564
 20
20.7154334464
 11
4.1284906564
 21
19.483594868
  0
LINE
  5
30E
100
AcDbEntity
  8
218_STAMPATO
100
AcDbLine
 62
7
  6
CONTINUOUS
 10
4.1942955154
 20
10.6752215342
 11
4.1942955154
 21
-19.9330590742
  0
LINE
  5
30F
100
AcDbEntity
  8
268
100
AcDbLine
 62
7
  6
CONTINUOUS
 10
4.1942955154
 20
-23.7172096923
 11
4.1942955154
 21
14.4593721523
  0
LINE
  5
310
100
AcDbEntity
  8
268
100
AcDbLine
 62
7
  6
CONTINUOUS
 10
4.2151280848
 20
20.8198208217
 11
4.2151280848
 21
19.5874523299
  0
LINE
  5
311
100
AcDbEntity
  8
715
100
AcDbLine
 62
7
  6
CONTINUOUS
 10
4.332775352
 20
22.5732797245
 11
4.332775352
 21
22.1020390202
  0
LWPOLYLINE
  5
312
100
AcDbEntity
  8
268
100
AcDbPolyline
 62
7
  6
CONTINUOUS
 90
18
 70
0
 10
3.4871887342
 20
-24.0783207721
 10
3.4868500898
 20
-24.0940146482
 10
3.4858334463
 20
-24.1093266769
 10
3.4841418959
 20
-24.1242147383
 10
3.4817806787
 20
-24.1386377271
 10
3.4787562672
 20
-24.1525561095
 10
3.4750763473
 20
-24.1659320317
 10
3.4707512835
 20
-24.1787286919
 10
3.4657932338
 20
-24.190910863
 10
3.4602152138
 20
-24.2024454324
 10
3.454032766
 20
-24.2133006562
 10
3.4472631266
 20
-24.2234466335
 10
3.439924321
 20
-24.2328558091
 10
3.4320366874
 20
-24.2415022785
 10
3.4236221164
 20
-24.2493622038
 10
3.4147031999
 20
-24.2564142663
 10
3.4053045715
 20
-24.2626390393
 10
3.3972199602
 20
-24.2671333036
  0
LWPOLYLINE
  5
313
100
AcDbEntity
  8
715
100
AcDbPolyline
 62
250
  6
CONTINUOUS
 90
51
 70
0
 10
9.4422436853
 20
18.6838508254
 10
9.4441444192
 20
18.6899800533
 10
9.4693060358
 20
18.750564902
 10
9.500675693
 20
18.8104431831
 10
9.5381987685
 20
18.8696112649
 10
9.5815723003
 20
18.9275892836
 10
9.6308555186
 20
18.984369961
 10
9.6859891933
 20
19.0399605754
 10
9.7464926716
 20
19.0939030977
 10
9.8123650232
 20
19.1461559972
 10
9.8836071785
 20
19.1967608046
 10
9.9597412762
 20
19.2453840831
 10
10.0407579052
 20
19.2920118257
 10
10.1266664766
 20
19.3366580393
 10
10.2170173623
 20
19.3790313084
 10
10.3120676425
 20
19.4191905064
 10
10.411560237
 20
19.4570767599
 10
10.5142742774
 20
19.492222033
 10
10.6206151461
 20
19.5245997529
 10
10.7301774607
 20
19.5542364925
 10
10.8405242051
 20
19.5807439347
 10
10.951628722
 20
19.6039433281
 10
11.0635176688
 20
19.6240134242
 10
11.1738340009
 20
19.6411021599
 10
11.2822244908
 20
19.6550760558
 10
11.389042366
 20
19.6660685914
 10
11.4929902652
 20
19.6746281426
 10
11.5938260996
 20
19.6807307121
 10
11.6917919579
 20
19.6844002973
 10
11.7863167442
 20
19.6862572661
 10
11.8772384843
 20
19.686323135
 10
11.9647191525
 20
19.6845763875
 10
12.0486735758
 20
19.6815728421
 10
12.1289776492
 20
19.6773540415
 10
12.2057554778
 20
19.671878443
 10
12.2792942043
 20
19.6655772374
 10
12.349560738
 20
19.6584912036
 10
12.4165881695
 20
19.6505795627
 10
12.4807629137
 20
19.6421511685
 10
12.5420706605
 20
19.633240528
 10
12.6005257199
 20
19.6238131342
 10
12.6565574364
 20
19.6140743204
 10
12.71016202
 20
19.6040527986
 10
12.7613432606
 20
19.5937198569
 10
12.8105418729
 20
19.5831946922
 10
12.8577610178
 20
19.572500153
 10
12.9029975344
 20
19.5616133909
 10
12.9466826543
 20
19.5505850572
 10
12.9889601214
 20
19.5394320359
 10
13.0296861918
 20
19.5281374431
 10
13.0688608655
 20
19.5167012788
  0
LINE
  5
314
100
AcDbEntity
  8
218_STAMPATO
100
AcDbLine
 62
250
  6
CONTINUOUS
 10
19.086302465
 20
12.2878359768
 11
19.0771289367
 21
12.2794560726
  0
LWPOLYLINE
  5
315
100
AcDbEntity
  8
218_STAMPATO
100
AcDbPolyline
 62
250
  6
CONTINUOUS
 90
56
 70
0
 10
18.796468737
 20
12.5242508884
 10
18.8023306564
 20
12.5294918254
 10
18.8081648182
 20
12.5345076449
 10
18.8139701364
 20
12.5392984347
 10
18.819739769
 20
12.5438655957
 10
18.8254784679
 20
12.5482078343
 10
18.8312020284
 20
12.5523214087
 10
18.8369108697
 20
12.5562100041
 10
18.8426012467
 20
12.5598705091
 10
18.8482818498
 20
12.5632893345
 10
18.8539523573
 20
12.5664685699
 10
18.8596089462
 20
12.5694069176
 10
18.865254507
 20
12.5720858985
 10
18.8708851624
 20
12.5745056856
 10
18.8765001633
 20
12.576666937
 10
18.8821065125
 20
12.5785520846
 10
18.8876899118
 20
12.5801627178
 10
18.8932593329
 20
12.5814981679
 10
18.8988545064
 20
12.5825382163
 10
18.904465503
 20
12.5832935381
 10
18.9100927636
 20
12.5837555899
 10
18.9157870559
 20
12.5838767883
 10
18.921558494
 20
12.5836639085
 10
18.9273803267
 20
12.5831141821
 10
18.9332449679
 20
12.5821665644
 10
18.9391474547
 20
12.5808174275
 10
18.945074664
 20
12.579074129
 10
18.9510069177
 20
12.5768918731
 10
18.9569341462
 20
12.574265918
 10
18.962848102
 20
12.5712040189
 10
18.9687325694
 20
12.5676797228
 10
18.9745695417
 20
12.563697035
 10
18.9803585602
 20
12.5592542027
 10
18.9861082586
 20
12.5543162775
 10
18.9918021069
 20
12.5488911211
 10
18.9974331251
 20
12.5429734098
 10
19.00301907
 20
12.5365093199
 10
19.0085451365
 20
12.5295006642
 10
19.0139934808
 20
12.5219488423
 10
19.019370428
 20
12.5138004235
 10
19.0246566619
 20
12.5050529303
 10
19.0298291548
 20
12.4957120647
 10
19.0348819505
 20
12.4857373282
 10
19.0397889949
 20
12.4751263899
 10
19.0445240933
 20
12.4638839738
 10
19.0490739539
 20
12.4519805244
 10
19.053403938
 20
12.4394202884
 10
19.0574848337
 20
12.4261997786
 10
19.0613008876
 20
12.4122781563
 10
19.064805655
 20
12.3976733558
 10
19.0679636436
 20
12.3823657861
 10
19.0707543493
 20
12.3662588091
 10
19.0731204881
 20
12.34932336
 10
19.0749976621
 20
12.3315831552
 10
19.076327868
 20
12.3130202179
 10
19.0770370416
 20
12.2934635323
  0
LINE
  5
316
100
AcDbEntity
  8
218_STAMPATO
100
AcDbLine
 62
7
  6
CONTINUOUS
 10
6.1724508324
 20
25.889519761
 11
6.1724508324
 21
25.5625537133
  0
LWPOLYLINE
  5
317
100
AcDbEntity
  8
218_STAMPATO
100
AcDbPolyline
 62
250
  6
CONTINUOUS
 90
56
 70
0
 10
18.9140187772
 20
0.7104639873
 10
18.9210850078
 20
0.7129995163
 10
18.9282148111
 20
0.7153058842
 10
18.9354072258
 20
0.7173844337
 10
18.9426427403
 20
0.7192502402
 10
18.9499386348
 20
0.7208912114
 10
18.9573485716
 20
0.7222686437
 10
18.9648974687
 20
0.7233945122
 10
18.9725563356
 20
0.7242620568
 10
18.9802969179
 20
0.7248057379
 10
18.9881341071
 20
0.7250237493
 10
18.9960466741
 20
0.7249256515
 10
19.0039513648
 20
0.7244637938
 10
19.0118282241
 20
0.7236353123
 10
19.0196892431
 20
0.7224524533
 10
19.0274985136
 20
0.7208907548
 10
19.0352343681
 20
0.7189602834
 10
19.0429087184
 20
0.7166623481
 10
19.0505347132
 20
0.713960857
 10
19.058106174
 20
0.7108711924
 10
19.0656160524
 20
0.7073935677
 10
19.0730736021
 20
0.7034722321
 10
19.08048588
 20
0.6991133246
 10
19.0878272497
 20
0.6943329682
 10
19.09505528
 20
0.6890935427
 10
19.1021605202
 20
0.6834061533
 10
19.1091297029
 20
0.6772874051
 10
19.1159127754
 20
0.6707102206
 10
19.1224875155
 20
0.6637076422
 10
19.1288498364
 20
0.656279592
 10
19.1349730889
 20
0.6483540936
 10
19.1408438293
 20
0.6399731545
 10
19.1464405645
 20
0.6311399914
 10
19.1517162964
 20
0.6217350439
 10
19.1566626657
 20
0.6118000164
 10
19.1612382501
 20
0.6013599107
 10
19.1653348844
 20
0.5902853021
 10
19.1689397032
 20
0.5785868257
 10
19.1719964822
 20
0.566350266
 10
19.1743263453
 20
0.5535668635
 10
19.1758872928
 20
0.5402228655
 10
19.1766475642
 20
0.526441514
 10
19.176458126
 20
0.5124002467
 10
19.1752689471
 20
0.4981175479
 10
19.1730843166
 20
0.4836523244
 10
19.169866317
 20
0.469201006
 10
19.1655731668
 20
0.4547487975
 10
19.1602316868
 20
0.4403475583
 10
19.1539413879
 20
0.426242436
 10
19.1467350637
 20
0.412482098
 10
19.1386068259
 20
0.3989909933
 10
19.1296177065
 20
0.3857975736
 10
19.1197752493
 20
0.3728840082
 10
19.1090953131
 20
0.3602442018
 10
19.09765451
 20
0.3479188176
 10
19.0854742191
 20
0.3358995753
  0
LWPOLYLINE
  5
318
100
AcDbEntity
  8
268
100
AcDbPolyline
 62
7
  6
CONTINUOUS
 90
4
 70
0
 10
8.9707340885
 20
-18.7637917348
 10
8.9704995829
 20
-18.7620235208
 10
8.9693588068
 20
-18.7590912951
 10
8.9673144752
 20
-18.7557119271
  0
LWPOLYLINE
  5
319
100
AcDbEntity
  8
268
100
AcDbPolyline
 62
7
  6
CONTINUOUS
 90
7
 70
0
 10
8.9706876179
 20
18.7534105128
 10
8.9705960098
 20
18.757718314
 10
8.970456839
 20
18.7620296447
 10
8.9702701056
 20
18.7663445047
 10
8.9700358095
 20
18.770662894
 10
8.9697539507
 20
18.7749848127
 10
8.9694245292
 20
18.7793102608
  0
LWPOLYLINE
  5
31A
100
AcDbEntity
  8
218_STAMPATO
100
AcDbPolyline
 62
7
  6
CONTINUOUS
 90
4
 70
0
 10
8.5860740054
 20
19.1786717242
 10
8.5862027517
 20
19.1653667645
 10
8.5873892411
 20
19.136150945
 10
8.5895186218
 20
19.110544745
  0
LINE
  5
31B
100
AcDbEntity
  8
268
100
AcDbLine
 62
7
  6
CONTINUOUS
 10
8.9706876179
 20
18.7534105128
 11
8.9707340885
 21
18.7472731747
  0
LINE
  5
31C
100
AcDbEntity
  8
268
100
AcDbLine
 62
250
  6
CONTINUOUS
 10
8.8865360503
 20
18.4595966689
 11
8.8865360503
 21
18.2473375148
  0
LINE
  5
31D
100
AcDbEntity
  8
268
100
AcDbLine
 62
250
  6
CONTINUOUS
 10
8.8865360503
 20
-18.5169091614
 11
8.8865360503
 21
-18.6843987597
  0
LINE
  5
31E
100
AcDbEntity
  8
268
100
AcDbLine
 62
7
  6
CONTINUOUS
 10
8.9707341102
 20
18.7472175472
 11
8.9707341102
 21
18.1712543576
  0
LINE
  5
31F
100
AcDbEntity
  8
268
100
AcDbLine
 62
7
  6
CONTINUOUS
 10
8.9707341102
 20
-18.472679081
 11
8.9707341102
 21
-18.7636221269
  0
LINE
  5
320
100
AcDbEntity
  8
218_STAMPATO
100
AcDbLine
 62
250
  6
CONTINUOUS
 10
9.3746352702
 20
19.7322029197
 11
9.3746352702
 21
20.1424219626
  0
LWPOLYLINE
  5
321
100
AcDbEntity
  8
268
100
AcDbPolyline
 62
7
  6
CONTINUOUS
 90
16
 70
0
 10
8.9707340885
 20
18.7472731747
 10
8.9704995829
 20
18.7337588664
 10
8.9693588068
 20
18.7139936752
 10
8.9673144752
 20
18.6941400246
 10
8.9644233102
 20
18.6742042407
 10
8.960734546
 20
18.6542220044
 10
8.9562745821
 20
18.6342601828
 10
8.9510817238
 20
18.6143394652
 10
8.9451990666
 20
18.5944717138
 10
8.9386385324
 20
18.5747114876
 10
8.9314316293
 20
18.555074421
 10
8.9236144836
 20
18.5355724564
 10
8.9151905442
 20
18.5162568575
 10
8.9061776528
 20
18.497154131
 10
8.8966158074
 20
18.4782636372
 10
8.8865360503
 20
18.4595966689
  0
LWPOLYLINE
  5
322
100
AcDbEntity
  8
218_STAMPATO
100
AcDbPolyline
 62
7
  6
CONTINUOUS
 90
16
 70
0
 10
18.796468737
 20
12.5242506663
 10
18.803016807
 20
12.5346674008
 10
18.8097582958
 20
12.5449424201
 10
18.8166932033
 20
12.5550757243
 10
18.8238225109
 20
12.5650823618
 10
18.8311452373
 20
12.5749472842
 10
18.8386584382
 20
12.5846253458
 10
18.8463677812
 20
12.5941167404
 10
18.8542675987
 20
12.6034212744
 10
18.862337944
 20
12.6124932212
 10
18.8705826417
 20
12.6213297408
 10
18.8789978671
 20
12.6299336733
 10
18.8875521996
 20
12.6382678127
 10
18.8962351655
 20
12.646319757
 10
18.9050572383
 20
12.6541019081
 10
18.9140184182
 20
12.6616142661
  0
LINE
  5
323
100
AcDbEntity
  8
0
100
AcDbLine
 62
250
  6
CONTINUOUS
 10
-4.1547406234
 20
10.2125396604
 11
-18.4834741312
 21
17.3769064143
  0
LINE
  5
324
100
AcDbEntity
  8
0
100
AcDbLine
 62
250
  6
CONTINUOUS
 10
-3.0265754817
 20
11.8818839646
 11
-17.3809454982
 21
19.0590689729
  0
LWPOLYLINE
  5
325
100
AcDbEntity
  8
268
100
AcDbPolyline
 62
7
  6
CONTINUOUS
 90
5
 70
0
 10
8.970734092
 20
18.1710633448
 10
8.9707214416
 20
18.1713982805
 10
8.9704270384
 20
18.1729160692
 10
8.9697517035
 20
18.1746327335
 10
8.9687076105
 20
18.1765524373
  0
LINE
  5
326
100
AcDbEntity
  8
218_STAMPATO
100
AcDbLine
 62
7
  6
CONTINUOUS
 10
10.0573454682
 20
20.0746610119
 11
10.0573454682
 21
19.64164831
  0
LINE
  5
327
100
AcDbEntity
  8
715
100
AcDbLine
 62
7
  6
CONTINUOUS
 10
11.0561728126
 20
18.5103572523
 11
11.0561728126
 21
18.3873015984
  0
LINE
  5
328
100
AcDbEntity
  8
715
100
AcDbLine
 62
7
  6
CONTINUOUS
 10
11.3076518931
 20
18.9827169564
 11
11.3076518931
 21
18.3798035773
  0
LINE
  5
329
100
AcDbEntity
  8
218_STAMPATO
100
AcDbLine
 62
7
  6
CONTINUOUS
 10
11.5128507007
 20
19.7028095861
 11
11.5128507007
 21
20.015238446
  0
LINE
  5
32A
100
AcDbEntity
  8
268
100
AcDbLine
 62
7
  6
CONTINUOUS
 10
8.9706876179
 20
-18.7645336896
 11
8.9707340885
 21
-18.7637917348
  0
LWPOLYLINE
  5
32B
100
AcDbEntity
  8
218_STAMPATO
100
AcDbPolyline
 62
7
  6
CONTINUOUS
 90
136
 70
0
 10
18.9140187772
 20
0.7104639873
 10
18.9734156349
 20
0.7591921423
 10
19.0309328625
 20
0.806703211
 10
19.08657046
 20
0.8529971934
 10
19.1402733422
 20
0.8980395348
 10
19.1920965943
 20
0.9418647898
 10
19.242205472
 20
0.9845766231
 10
19.2906072213
 20
1.0261799616
 10
19.3372945962
 20
1.0666698784
 10
19.3824111147
 20
1.1061352566
 10
19.4259609827
 20
1.1445786207
 10
19.4679399943
 20
1.1819974463
 10
19.5084790497
 20
1.2184730436
 10
19.5475820698
 20
1.25400779
 10
19.5852451337
 20
1.2885993081
 10
19.6215873795
 20
1.3223217767
 10
19.656612467
 20
1.3551774548
 10
19.6903167364
 20
1.3871640833
 10
19.7228083458
 20
1.4183490638
 10
19.7540906395
 20
1.448734491
 10
19.7841602731
 20
1.47831827
 10
19.8131153722
 20
1.5071615176
 10
19.8409590151
 20
1.5352662186
 10
19.8676881234
 20
1.5626303881
 10
19.8933915872
 20
1.5893091884
 10
19.9180722523
 20
1.6153045471
 10
19.9417272729
 20
1.6406145366
 10
19.9644370012
 20
1.6652885365
 10
19.9862040473
 20
1.6893284492
 10
20.0070258012
 20
1.7127323722
 10
20.0269747849
 20
1.7355439786
 10
20.0460533624
 20
1.7577651905
 10
20.0642591698
 20
1.7793940856
 10
20.0816576374
 20
1.80046857
 10
20.0982508431
 20
1.8209906264
 10
20.114036709
 20
1.8409582721
 10
20.1290744318
 20
1.8604034644
 10
20.1433657159
 20
1.8793282607
 10
20.156908857
 20
1.8977306036
 10
20.1697579384
 20
1.9156362795
 10
20.1819141703
 20
1.9330474144
 10
20.1933763425
 20
1.9499618823
 10
20.2041949077
 20
1.966399091
 10
20.2143703187
 20
1.9823609755
 10
20.2239021227
 20
1.997845601
 10
20.2328394141
 20
2.0128665706
 10
20.2411819305
 20
2.0274257655
 10
20.2489299343
 20
2.0415213046
 10
20.2561333069
 20
2.0551611481
 10
20.2627906168
 20
2.0683460022
 10
20.2689032956
 20
2.0810751607
 10
20.2745255187
 20
2.0933544655
 10
20.2796526559
 20
2.1051747749
 10
20.2842893374
 20
2.1165452306
 10
20.2885036288
 20
2.1274990997
 10
20.2922935888
 20
2.138022951
 10
20.2956611585
 20
2.1481302156
 10
20.298680227
 20
2.1578944543
 10
20.301356101
 20
2.1673133883
 10
20.3036834737
 20
2.1763892963
 10
20.3057203133
 20
2.1852025764
 10
20.307474019
 20
2.1937582246
 10
20.3089371917
 20
2.2020512448
 10
20.310145602
 20
2.2101470468
 10
20.311105536
 20
2.2180498801
 10
20.3118107075
 20
2.2257554953
 10
20.3122780289
 20
2.2333165533
 10
20.3125131608
 20
2.2407362259
 10
20.3125104426
 20
2.2480113413
 10
20.3122698047
 20
2.2551850445
 10
20.3117968974
 20
2.262260067
 10
20.3110860705
 20
2.2692336773
 10
20.3101203038
 20
2.2761408257
 10
20.3089059191
 20
2.2829836442
 10
20.3074365947
 20
2.2897600008
 10
20.3056763458
 20
2.2964984501
 10
20.3036328317
 20
2.3032013341
 10
20.301298393
 20
2.3098663109
 10
20.2986140669
 20
2.3165149093
 10
20.2955850331
 20
2.323155522
 10
20.2922061119
 20
2.3297797564
 10
20.2884028018
 20
2.3363839632
 10
20.2841726857
 20
2.3429799334
 10
20.2795181805
 20
2.349555876
 10
20.2743720359
 20
2.3560727684
 10
20.2687298489
 20
2.3625343511
 10
20.2625960225
 20
2.3689368836
 10
20.2559165149
 20
2.3752301217
 10
20.248690047
 20
2.3814117803
 10
20.240917898
 20
2.3874841446
 10
20.2325498633
 20
2.393403826
 10
20.2235855397
 20
2.3991687996
 10
20.2140253305
 20
2.4047810904
 10
20.2038202413
 20
2.4102033847
 10
20.1929707852
 20
2.4154341795
 10
20.1814764491
 20
2.4204749778
 10
20.1692866988
 20
2.4252929747
 10
20.1564027394
 20
2.4298873086
 10
20.1428233658
 20
2.434258841
 10
20.1284944292
 20
2.4383773522
 10
20.1134176446
 20
2.4422425534
 10
20.097591297
 20
2.4458547333
 10
20.0809560922
 20
2.4491845387
 10
20.0635141182
 20
2.452232143
 10
20.0452632869
 20
2.4549973728
 10
20.0261380404
 20
2.4574503543
 10
20.0061407327
 20
2.4595916184
 10
19.9852690096
 20
2.4614206343
 10
19.9634502507
 20
2.4629059352
 10
19.9406871334
 20
2.4640483257
 10
19.9169769803
 20
2.4648470012
 10
19.8922391386
 20
2.4652680824
 10
19.8664762297
 20
2.4653125837
 10
19.8396856322
 20
2.4649794907
 10
19.8117788295
 20
2.46423188
 10
19.782759809
 20
2.4630710263
 10
19.7526245832
 20
2.4614956549
 10
19.7212726737
 20
2.4594650181
 10
19.6887054352
 20
2.4569803108
 10
19.6549215129
 20
2.4540403381
 10
19.6198163633
 20
2.4506007671
 10
19.5833850876
 20
2.4466616453
 10
19.5456325846
 20
2.4422229254
 10
19.506469008
 20
2.4372401323
 10
19.4659031122
 20
2.4317149392
 10
19.4239261427
 20
2.425645673
 10
19.38042199
 20
2.4189828399
 10
19.3354055579
 20
2.4117301525
 10
19.2888619427
 20
2.4038838982
 10
19.2406303235
 20
2.3953834446
 10
19.190710874
 20
2.3862304148
 10
19.1391034205
 20
2.3764231858
 10
19.0856466212
 20
2.3658962555
 10
19.0302866956
 20
2.3546277898
 10
18.9730774243
 20
2.3426396229
 10
18.9140188072
 20
2.3299317546
  0
LWPOLYLINE
  5
32C
100
AcDbEntity
  8
218_STAMPATO
100
AcDbPolyline
 62
250
  6
CONTINUOUS
 90
104
 70
0
 10
19.9973131462
 20
0.9157818357
 10
20.0287075112
 20
0.937092155
 10
20.0594636376
 20
0.9595169094
 10
20.0895681233
 20
0.9830463276
 10
20.1190078406
 20
1.0076701526
 10
20.1477699148
 20
1.0333776199
 10
20.1758417592
 20
1.0601574793
 10
20.2032110996
 20
1.0879980173
 10
20.2298660051
 20
1.1168870932
 10
20.2557948639
 20
1.1468121218
 10
20.2809863701
 20
1.1777600597
 10
20.3054295048
 20
1.2097173751
 10
20.3291135698
 20
1.2426700809
 10
20.3520282095
 20
1.2766037635
 10
20.3741634358
 20
1.3115036265
 10
20.395509606
 20
1.3473544666
 10
20.4160574117
 20
1.3841406559
 10
20.4357978651
 20
1.4218461097
 10
20.4547223271
 20
1.4604543272
 10
20.4728225245
 20
1.4999484236
 10
20.4900905673
 20
1.5403111768
 10
20.5065189313
 20
1.5815249997
 10
20.5221004508
 20
1.6235719219
 10
20.5368283113
 20
1.6664335614
 10
20.5506960698
 20
1.7100911674
 10
20.5636976655
 20
1.7545256533
 10
20.5758274297
 20
1.799717638
 10
20.5870800745
 20
1.8456474208
 10
20.5974506901
 20
1.8922949675
 10
20.6069347421
 20
1.9396398906
 10
20.615528084
 20
1.9876614901
 10
20.6232269617
 20
2.0363387807
 10
20.6300280172
 20
2.0856505231
 10
20.6359282839
 20
2.1355752062
 10
20.640925186
 20
2.1860910426
 10
20.6450165396
 20
2.2371759637
 10
20.6482005572
 20
2.2888076503
 10
20.6504758485
 20
2.3409635513
 10
20.6518414206
 20
2.393620899
 10
20.6522966775
 20
2.4467567052
 10
20.6518414205
 20
2.5003477684
 10
20.6504758482
 20
2.5543706883
 10
20.6482005569
 20
2.6088018806
 10
20.6450165391
 20
2.6636175849
 10
20.6409251854
 20
2.7187938597
 10
20.6359282832
 20
2.7743065982
 10
20.6300280164
 20
2.8301315481
 10
20.6232269608
 20
2.8862443459
 10
20.615528083
 20
2.9426205142
 10
20.6069347409
 20
2.9992354557
 10
20.5974506887
 20
3.056064431
 10
20.5870800731
 20
3.1130825932
 10
20.5758274281
 20
3.1702650209
 10
20.5636976639
 20
3.2275867698
 10
20.550696068
 20
3.2850228514
 10
20.5368283095
 20
3.3425482159
 10
20.5221004488
 20
3.4001377159
 10
20.5065189292
 20
3.4577661577
 10
20.4900905651
 20
3.5154083446
 10
20.4728225222
 20
3.5730391407
 10
20.4547223247
 20
3.6306334345
 10
20.4357978625
 20
3.6881661139
 10
20.4160574091
 20
3.7456120211
 10
20.3955096033
 20
3.8029460161
 10
20.3741634329
 20
3.8601430265
 10
20.3520282065
 20
3.9171781159
 10
20.3291135667
 20
3.9740264381
 10
20.3054295016
 20
4.0306632089
 10
20.2809863668
 20
4.0870636589
 10
20.2557948606
 20
4.1432031029
 10
20.2298660016
 20
4.1990569904
 10
20.203211096
 20
4.2546009718
 10
20.1758417555
 20
4.3098108502
 10
20.147769911
 20
4.364662554
 10
20.1190078368
 20
4.4191320954
 10
20.0895681194
 20
4.4731956376
 10
20.0594636336
 20
4.5268295415
 10
20.0287075071
 20
4.5800104224
 10
19.9973131419
 20
4.6327151067
 10
19.9652942272
 20
4.68492061
 10
19.9326647607
 20
4.7366041063
 10
19.899439016
 20
4.7877429867
 10
19.8656315186
 20
4.8383148974
 10
19.8312570147
 20
4.8882977823
 10
19.7963304903
 20
4.9376698511
 10
19.7608671808
 20
4.9864095649
 10
19.7248825848
 20
5.0344956206
 10
19.6883924345
 20
5.0819069952
 10
19.6514126755
 20
5.1286229725
 10
19.6139594436
 20
5.1746231698
 10
19.5760490778
 20
5.2198875196
 10
19.537698123
 20
5.2643962665
 10
19.498923333
 20
5.3081299659
 10
19.4597416476
 20
5.3510695111
 10
19.4201701795
 20
5.3931961487
 10
19.3802262036
 20
5.4344914889
 10
19.3399271586
 20
5.4749375031
 10
19.2992906412
 20
5.5145165305
 10
19.2583343949
 20
5.5532112894
 10
19.217076299
 20
5.5910048876
 10
19.1755343636
 20
5.6278808267
 10
19.1337267326
 20
5.6638230003
 10
19.0916716725
 20
5.6988157048
 10
19.0771289367
 20
5.7105189048
  0
LINE
  5
32D
100
AcDbEntity
  8
218_STAMPATO
100
AcDbLine
 62
250
  6
CONTINUOUS
 10
19.9923057263
 20
0.9125240882
 11
19.9973131462
 21
0.9157818357
  0
LINE
  5
32E
100
AcDbEntity
  8
218_STAMPATO
100
AcDbLine
 62
7
  6
CONTINUOUS
 10
19.0771289367
 20
0.3205954674
 11
19.9923057236
 21
0.9125240864
  0
LWPOLYLINE
  5
32F
100
AcDbEntity
  8
0
100
AcDbPolyline
 62
250
  6
CONTINUOUS
 90
16
 70
0
 10
-3.0437034873
 20
10.1086130011
 10
-3.1057183381
 20
10.0919014006
 10
-3.1729111127
 20
10.0784274613
 10
-3.2445698907
 20
10.0683339422
 10
-3.3199354331
 20
10.0617277862
 10
-3.3982092272
 20
10.0586789868
 10
-3.4785619469
 20
10.0592198465
 10
-3.5601422393
 20
10.063344635
 10
-3.6420857452
 20
10.0710096491
 10
-3.723524257
 20
10.0821336767
 10
-3.8035949178
 20
10.0965988564
 10
-3.8814493633
 20
10.1142519269
 10
-3.9562627101
 20
10.1349058505
 10
-4.0272422964
 20
10.1583417948
 10
-4.0936360794
 20
10.1843114515
 10
-4.1547406039
 20
10.2125396669
  0
LWPOLYLINE
  5
330
100
AcDbEntity
  8
218_STAMPATO
100
AcDbPolyline
 62
7
  6
CONTINUOUS
 90
16
 70
0
 10
18.9140183351
 20
14.2810822237
 10
18.9050571618
 20
14.2793150149
 10
18.8962350956
 20
14.2779616476
 10
18.8875521365
 20
14.2770221218
 10
18.878997811
 20
14.2764979937
 10
18.8705825925
 20
14.276387707
 10
18.8623379015
 20
14.2766865935
 10
18.8542675624
 20
14.2774014537
 10
18.8463677508
 20
14.2785254871
 10
18.8386584134
 20
14.280033623
 10
18.8311452179
 20
14.2819315365
 10
18.8238224966
 20
14.2842135525
 10
18.8166931935
 20
14.2868375748
 10
18.8097582898
 20
14.2897895714
 10
18.8030168043
 20
14.2930835744
 10
18.796468737
 20
14.2967195836
  0
LINE
  5
331
100
AcDbEntity
  8
218_STAMPATO
100
AcDbLine
 62
250
  6
CONTINUOUS
 10
1.5560281339
 20
24.8768883819
 11
1.9500140678
 21
23.8547325638
  0
LINE
  5
332
100
AcDbEntity
  8
715
100
AcDbLine
 62
7
  6
CONTINUOUS
 10
3.3775611085
 20
22.4527876019
 11
3.1760617505
 21
23.0485120277
  0
LWPOLYLINE
  5
333
100
AcDbEntity
  8
218_STAMPATO
100
AcDbPolyline
 62
250
  6
CONTINUOUS
 90
24
 70
0
 10
12.3379082644
 20
-8.1558655714
 10
12.3373868249
 20
-8.1434832963
 10
12.3360215013
 20
-8.1301446255
 10
12.3337704571
 20
-8.1158293494
 10
12.3305915529
 20
-8.1005299346
 10
12.3264441856
 20
-8.0842118903
 10
12.3212871782
 20
-8.0668462729
 10
12.3150808674
 20
-8.0484263968
 10
12.3077900327
 20
-8.0289493084
 10
12.2993713132
 20
-8.0083646022
 10
12.2897940816
 20
-7.9866788931
 10
12.2790537748
 20
-7.9639741146
 10
12.2671313073
 20
-7.9402217111
 10
12.2539992137
 20
-7.9154018831
 10
12.2396553027
 20
-7.8896102064
 10
12.2240765811
 20
-7.8627942335
 10
12.207256846
 20
-7.8349534582
 10
12.1892350559
 20
-7.806263321
 10
12.1699960979
 20
-7.7766628535
 10
12.1495556619
 20
-7.7461606121
 10
12.1280265721
 20
-7.7150434976
 10
12.1054683641
 20
-7.6833957695
 10
12.0818699107
 20
-7.6510930628
 10
12.0572561288
 20
-7.6181151934
  0
LINE
  5
334
100
AcDbEntity
  8
218_STAMPATO
100
AcDbLine
 62
250
  6
CONTINUOUS
 10
12.3379163285
 20
-8.1575551284
 11
12.3379082644
 21
-8.1558655714
  0
LINE
  5
335
100
AcDbEntity
  8
715
100
AcDbLine
 62
7
  6
CONTINUOUS
 10
11.7573965545
 20
18.8609691233
 11
11.7573965545
 21
18.3897284157
  0
LINE
  5
336
100
AcDbEntity
  8
218_STAMPATO
100
AcDbLine
 62
250
  6
CONTINUOUS
 10
12.0572561288
 20
-15.7910281318
 11
12.0572561288
 21
-7.6181151509
  0
LINE
  5
337
100
AcDbEntity
  8
218_STAMPATO
100
AcDbLine
 62
7
  6
CONTINUOUS
 10
12.3379163285
 20
-15.4436989465
 11
12.3379163285
 21
-8.1569161242
  0
LINE
  5
338
100
AcDbEntity
  8
218_STAMPATO
100
AcDbLine
 62
7
  6
CONTINUOUS
 10
13.5970720348
 20
22.1772091598
 11
13.5970720348
 21
21.8502431121
  0
LWPOLYLINE
  5
339
100
AcDbEntity
  8
218_STAMPATO
100
AcDbPolyline
 62
7
  6
CONTINUOUS
 90
35
 70
0
 10
12.3379161829
 20
-8.1575639519
 10
12.3380981998
 20
-8.1443265565
 10
12.3387231621
 20
-8.129691656
 10
12.3398161253
 20
-8.114807796
 10
12.3413910525
 20
-8.0997716304
 10
12.3434638471
 20
-8.0845997465
 10
12.346049769
 20
-8.0693114087
 10
12.3491459289
 20
-8.0540069193
 10
12.3527559569
 20
-8.0387158857
 10
12.3568877256
 20
-8.0234461621
 10
12.3615313922
 20
-8.0082635238
 10
12.366684194
 20
-7.9931938375
 10
12.3723476576
 20
-7.9782478551
 10
12.3785105847
 20
-7.9634667058
 10
12.3851685991
 20
-7.9488683278
 10
12.3923170216
 20
-7.9344698649
 10
12.3999389435
 20
-7.9203092145
 10
12.4080255508
 20
-7.9064037322
 10
12.416568901
 20
-7.8927679766
 10
12.4255488869
 20
-7.879433222
 10
12.4349540557
 20
-7.8664139464
 10
12.4447729454
 20
-7.8537235826
 10
12.4549817153
 20
-7.8413891727
 10
12.4655664922
 20
-7.8294224492
 10
12.4765130207
 20
-7.8178346707
 10
12.4877936055
 20
-7.8066491489
 10
12.4993932301
 20
-7.7958737975
 10
12.5112945093
 20
-7.7855179901
 10
12.523463005
 20
-7.7756035328
 10
12.5358813743
 20
-7.7661352415
 10
12.5485306837
 20
-7.7571184636
 10
12.5613709315
 20
-7.7485712482
 10
12.5743750126
 20
-7.7404994174
 10
12.5875304855
 20
-7.7328987263
 10
12.5931765366
 20
-7.729803618
  0
LWPOLYLINE
  5
33A
100
AcDbEntity
  8
268
100
AcDbPolyline
 62
7
  6
CONTINUOUS
 90
7
 70
0
 10
8.9706876179
 20
-18.7645336896
 10
8.9705960098
 20
-18.7650192971
 10
8.970456839
 20
-18.7655314448
 10
8.9702701056
 20
-18.7660701329
 10
8.9700358095
 20
-18.7666353612
 10
8.9697539507
 20
-18.7672271298
 10
8.9694245292
 20
-18.7678454387
  0
LINE
  5
33B
100
AcDbEntity
  8
218_STAMPATO
100
AcDbLine
 62
7
  6
CONTINUOUS
 10
19.0781089514
 20
12.2905841265
 11
19.0781301637
 21
12.2906416071
  0
LINE
  5
33C
100
AcDbEntity
  8
218_STAMPATO
100
AcDbLine
 62
250
  6
CONTINUOUS
 10
19.0854742191
 20
0.3358995753
 11
19.0771289367
 21
0.3283145125
  0
LWPOLYLINE
  5
33D
100
AcDbEntity
  8
218_STAMPATO
100
AcDbPolyline
 62
250
  6
CONTINUOUS
 90
56
 70
0
 10
18.796468737
 20
0.5731003161
 10
18.80228025
 20
0.5782983861
 10
18.8080710482
 20
0.5832790343
 10
18.8138398943
 20
0.5880424292
 10
18.8195805747
 20
0.5925912953
 10
18.8252968819
 20
0.5969231825
 10
18.8310021408
 20
0.6010306778
 10
18.8366966798
 20
0.6049171005
 10
18.8423766461
 20
0.6085798007
 10
18.8480483721
 20
0.6120026979
 10
18.8537114893
 20
0.6151874475
 10
18.8593621541
 20
0.6181332198
 10
18.8650010812
 20
0.6208203389
 10
18.8706249645
 20
0.623248571
 10
18.87623255
 20
0.6254189611
 10
18.8818272616
 20
0.6273138542
 10
18.8873957951
 20
0.6289338906
 10
18.8929464773
 20
0.6302792329
 10
18.8985133962
 20
0.6313321067
 10
18.9040804521
 20
0.6321028567
 10
18.9096553968
 20
0.6325829033
 10
18.9153032578
 20
0.6327276634
 10
18.9210258891
 20
0.6325507793
 10
18.9268048858
 20
0.6320426373
 10
18.9326692588
 20
0.6311254455
 10
18.9386291368
 20
0.6297958076
 10
18.9446510066
 20
0.6280624462
 10
18.9506973487
 20
0.6258658665
 10
18.9567615275
 20
0.6231925656
 10
18.9628281465
 20
0.6200599723
 10
18.9688503023
 20
0.6164537125
 10
18.9748008014
 20
0.6123793796
 10
18.9806895901
 20
0.6078331579
 10
18.9865261533
 20
0.6027861321
 10
18.9922914447
 20
0.5972502248
 10
18.9979819331
 20
0.5912156867
 10
19.003624204
 20
0.5846222111
 10
19.0092058501
 20
0.5774690097
 10
19.0147052986
 20
0.5697601774
 10
19.0201275714
 20
0.5614439245
 10
19.0254614411
 20
0.5524992149
 10
19.0306737423
 20
0.5429504199
 10
19.0357338609
 20
0.5328138451
 10
19.0406083183
 20
0.5221097835
 10
19.0452871749
 20
0.5108188306
 10
19.0497702812
 20
0.4988977739
 10
19.0540225599
 20
0.4863635307
 10
19.058020271
 20
0.4731993352
 10
19.0617634029
 20
0.4593125346
 10
19.0652070523
 20
0.4447074929
 10
19.0683089395
 20
0.4293786387
 10
19.0710465761
 20
0.4132193338
 10
19.0733627968
 20
0.3961699525
 10
19.0751843637
 20
0.3782849507
 10
19.0764448768
 20
0.3596279047
 10
19.077073459
 20
0.3400753657
  0
LWPOLYLINE
  5
33E
100
AcDbEntity
  8
218_STAMPATO
100
AcDbPolyline
 62
250
  6
CONTINUOUS
 90
31
 70
0
 10
18.5587812109
 20
-4.5111312157
 10
18.5733213591
 20
-4.5024575453
 10
18.5874848466
 20
-4.4931252486
 10
18.6012609215
 20
-4.4831414098
 10
18.614639126
 20
-4.4725136074
 10
18.6276093043
 20
-4.4612499088
 10
18.6401616106
 20
-4.4493588642
 10
18.6522865159
 20
-4.4368495002
 10
18.6639748158
 20
-4.4237313125
 10
18.6752176376
 20
-4.410014259
 10
18.6860064463
 20
-4.3957087526
 10
18.696333052
 20
-4.3808256527
 10
18.7061896154
 20
-4.3653762569
 10
18.7155686542
 20
-4.3493722931
 10
18.7244630484
 20
-4.3328259101
 10
18.7328660462
 20
-4.3157496682
 10
18.7407712685
 20
-4.2981565304
 10
18.7481727144
 20
-4.2800598517
 10
18.7550647652
 20
-4.2614733694
 10
18.761442189
 20
-4.2424111928
 10
18.7673001447
 20
-4.222887792
 10
18.7726341852
 20
-4.2029179875
 10
18.7774402613
 20
-4.1825169389
 10
18.7817147247
 20
-4.1617001328
 10
18.7854543305
 20
-4.1404833715
 10
18.78865624
 20
-4.1188827609
 10
18.7913180225
 20
-4.0969146976
 10
18.7934376574
 20
-4.0745958582
 10
18.7950135355
 20
-4.0519431878
 10
18.7960444607
 20
-4.0289738829
 10
18.7965296506
 20
-4.0057053791
  0
LWPOLYLINE
  5
33F
100
AcDbEntity
  8
218_STAMPATO
100
AcDbPolyline
 62
7
  6
CONTINUOUS
 90
41
 70
0
 10
18.5519512154
 20
-4.5149078574
 10
18.5680713899
 20
-4.5060181585
 10
18.5913009871
 20
-4.4925132202
 10
18.6141748266
 20
-4.4783791832
 10
18.6366745554
 20
-4.4636257085
 10
18.6587791672
 20
-4.4482651563
 10
18.6804756263
 20
-4.432305165
 10
18.7017573505
 20
-4.4157482664
 10
18.7226145077
 20
-4.3985986192
 10
18.7430227121
 20
-4.3808727214
 10
18.7629541294
 20
-4.3625924667
 10
18.7823863274
 20
-4.3437775019
 10
18.8013116225
 20
-4.3244343315
 10
18.8197248116
 20
-4.3045659298
 10
18.8376130074
 20
-4.2841827425
 10
18.8549588508
 20
-4.2633009948
 10
18.8717498917
 20
-4.241932025
 10
18.8879723274
 20
-4.2200893396
 10
18.903611457
 20
-4.1977885367
 10
18.9186537876
 20
-4.1750445597
 10
18.933085982
 20
-4.151873093
 10
18.9468951652
 20
-4.1282901429
 10
18.9600690813
 20
-4.1043117252
 10
18.9725957246
 20
-4.0799544863
 10
18.9844633253
 20
-4.0552358443
 10
18.9956606152
 20
-4.0301735405
 10
19.0061771455
 20
-4.0047848357
 10
19.0160023298
 20
-3.9790887749
 10
19.0251256101
 20
-3.9531063882
 10
19.0335384559
 20
-3.9268549744
 10
19.0412316662
 20
-3.9003556764
 10
19.0481952845
 20
-3.8736360123
 10
19.0544204997
 20
-3.846725189
 10
19.0599035012
 20
-3.819634583
 10
19.064641699
 20
-3.792365179
 10
19.0686308347
 20
-3.7649183765
 10
19.0718611332
 20
-3.7373339945
 10
19.0743241198
 20
-3.7096711059
 10
19.0760167984
 20
-3.6819752762
 10
19.0769403893
 20
-3.6542441649
 10
19.0771289367
 20
-3.6348246747
  0
LINE
  5
340
100
AcDbEntity
  8
218_STAMPATO
100
AcDbLine
 62
250
  6
CONTINUOUS
 10
18.796468737
 20
-3.9821553399
 11
12.0572561288
 21
-7.6181151509
  0
LINE
  5
341
100
AcDbEntity
  8
218_STAMPATO
100
AcDbLine
 62
7
  6
CONTINUOUS
 10
18.5519527571
 20
-4.5149070257
 11
12.5930022741
 21
-7.7298975196
  0
LWPOLYLINE
  5
342
100
AcDbEntity
  8
218_STAMPATO
100
AcDbPolyline
 62
250
  6
CONTINUOUS
 90
29
 70
0
 10
18.796468737
 20
-3.9821553399
 10
18.8151300524
 20
-3.9722259002
 10
18.833243316
 20
-3.9620458994
 10
18.8507950763
 20
-3.9516228972
 10
18.8677722997
 20
-3.9409646333
 10
18.8841623774
 20
-3.9300790232
 10
18.8999531352
 20
-3.9189741523
 10
18.9151328458
 20
-3.907658268
 10
18.9296902373
 20
-3.8961397731
 10
18.943614499
 20
-3.8844272215
 10
18.9568952906
 20
-3.8725293111
 10
18.9695227495
 20
-3.8604548777
 10
18.981487498
 20
-3.8482128883
 10
18.9927806509
 20
-3.8358124342
 10
19.0033938217
 20
-3.823262724
 10
19.0133191289
 20
-3.8105730777
 10
19.022549202
 20
-3.7977529188
 10
19.0310771864
 20
-3.7848117679
 10
19.0388967492
 20
-3.7717592356
 10
19.0460020836
 20
-3.758605015
 10
19.0523879131
 20
-3.7453588747
 10
19.0580494956
 20
-3.7320306518
 10
19.0629826268
 20
-3.7186302442
 10
19.0671836434
 20
-3.7051676032
 10
19.070649426
 20
-3.6916527269
 10
19.0733774009
 20
-3.6780956516
 10
19.0753655426
 20
-3.6645064451
 10
19.0766123748
 20
-3.6508951993
 10
19.077100984
 20
-3.6377036706
  0
LWPOLYLINE
  5
343
100
AcDbEntity
  8
218_STAMPATO
100
AcDbPolyline
 62
250
  6
CONTINUOUS
 90
28
 70
0
 10
12.5931708113
 20
-7.7298065899
 10
12.5904053277
 20
-7.7310605386
 10
12.5859772299
 20
-7.7324099703
 10
12.5805146794
 20
-7.7334490528
 10
12.5739770208
 20
-7.7341503847
 10
12.5663385971
 20
-7.7344820333
 10
12.5575317289
 20
-7.7344370751
 10
12.5475154924
 20
-7.7339936677
 10
12.5362594087
 20
-7.7331234498
 10
12.5237109457
 20
-7.7318132373
 10
12.5098224247
 20
-7.7300457005
 10
12.4945640272
 20
-7.7277965693
 10
12.4779098315
 20
-7.72504628
 10
12.4597948815
 20
-7.7217830064
 10
12.440202225
 20
-7.7179889333
 10
12.4191833919
 20
-7.7136457887
 10
12.3966999317
 20
-7.7087596107
 10
12.3727183335
 20
-7.7033214018
 10
12.3473058943
 20
-7.6973026079
 10
12.3204051613
 20
-7.6907123411
 10
12.2920062356
 20
-7.6835566962
 10
12.2622580575
 20
-7.6758146421
 10
12.2311011952
 20
-7.6675043824
 10
12.1985439184
 20
-7.6586477298
 10
12.1648583091
 20
-7.6492470865
 10
12.1301354236
 20
-7.6393304031
 10
12.0942702804
 20
-7.6289409763
 10
12.0572561629
 20
-7.6181151325
  0
LINE
  5
344
100
AcDbEntity
  8
268
100
AcDbLine
 62
7
  6
CONTINUOUS
 10
1.6288309987
 20
12.272479267
 11
2.5325945796
 21
11.8205974765
  0
LINE
  5
345
100
AcDbEntity
  8
268
100
AcDbLine
 62
7
  6
CONTINUOUS
 10
-14.0490594392
 20
21.0704438564
 11
-13.6734229758
 21
20.8826256247
  0
LINE
  5
346
100
AcDbEntity
  8
268
100
AcDbLine
 62
7
  6
CONTINUOUS
 10
1.3369101148
 20
13.3774590794
 11
1.7194217813
 21
13.1862032462
  0
LINE
  5
347
100
AcDbEntity
  8
0
100
AcDbLine
 62
7
  6
CONTINUOUS
 10
-13.4482140831
 20
20.8288528652
 11
1.1180563162
 21
13.5457176656
  0
LINE
  5
348
100
AcDbEntity
  8
268
100
AcDbLine
 62
7
  6
CONTINUOUS
 10
1.4719344079
 20
13.6374628714
 11
-13.8015720658
 21
21.2742161082
  0
LINE
  5
349
100
AcDbEntity
  8
268
100
AcDbLine
 62
7
  6
CONTINUOUS
 10
2.0314490924
 20
14.0723699995
 11
0.4174449765
 21
14.8793720575
  0
LINE
  5
34A
100
AcDbEntity
  8
268
100
AcDbLine
 62
7
  6
CONTINUOUS
 10
-11.332869072
 20
20.7545290817
 11
-12.946873188
 21
21.5615311397
  0
LINE
  5
34B
100
AcDbEntity
  8
268
100
AcDbLine
 62
7
  6
CONTINUOUS
 10
-8.0004131912
 20
19.4456333765
 11
-2.2079041231
 21
16.5493788425
  0
LINE
  5
34C
100
AcDbEntity
  8
268
100
AcDbLine
 62
7
  6
CONTINUOUS
 10
-13.5852713963
 20
22.3330612195
 11
-11.9787378332
 21
21.529794438
  0
LINE
  5
34D
100
AcDbEntity
  8
268
100
AcDbLine
 62
7
  6
CONTINUOUS
 10
-0.2209532318
 20
15.6509021373
 11
1.3855803312
 21
14.8476353558
  0
LWPOLYLINE
  5
34E
100
AcDbEntity
  8
218_STAMPATO
100
AcDbPolyline
 62
7
  6
CONTINUOUS
 90
16
 70
0
 10
18.796468737
 20
0.573100103
 10
18.803016817
 20
0.5835168395
 10
18.8097583183
 20
0.5937918673
 10
18.8166932409
 20
0.6039251864
 10
18.8238225667
 20
0.6139318475
 10
18.8311453137
 20
0.6237968
 10
18.8386585369
 20
0.6334748915
 10
18.8463679033
 20
0.6429663139
 10
18.8542677458
 20
0.6522708753
 10
18.8623381176
 20
0.661342848
 10
18.8705828435
 20
0.6701793924
 10
18.8789980986
 20
0.6787833482
 10
18.8875524617
 20
0.6871175064
 10
18.896235459
 20
0.6951694642
 10
18.9050575641
 20
0.7029516245
 10
18.9140187772
 20
0.7104639873
  0
LINE
  5
34F
100
AcDbEntity
  8
268
100
AcDbLine
 62
7
  6
CONTINUOUS
 10
-0.1976738585
 20
-25.2817215392
 11
0.3811164817
 21
-24.577277809
  0
LINE
  5
350
100
AcDbEntity
  8
268
100
AcDbLine
 62
7
  6
CONTINUOUS
 10
2.0314490924
 20
14.7095395582
 11
1.4091310604
 21
14.8394801407
  0
LINE
  5
351
100
AcDbEntity
  8
268
100
AcDbLine
 62
250
  6
CONTINUOUS
 10
-13.6498661422
 20
22.4680903944
 11
-12.0440896801
 21
21.6652021633
  0
LINE
  5
352
100
AcDbEntity
  8
268
100
AcDbLine
 62
250
  6
CONTINUOUS
 10
-0.2855479778
 20
15.7859313122
 11
1.3202284843
 21
14.9830430811
  0
LINE
  5
353
100
AcDbEntity
  8
268
100
AcDbLine
 62
250
  6
CONTINUOUS
 10
1.3202284843
 20
15.2364144748
 11
-0.2855479778
 21
16.0393027059
  0
LINE
  5
354
100
AcDbEntity
  8
268
100
AcDbLine
 62
250
  6
CONTINUOUS
 10
-12.0440896801
 20
21.918573557
 11
-13.6498661422
 21
22.7214617881
  0
LINE
  5
355
100
AcDbEntity
  8
268
100
AcDbLine
 62
7
  6
CONTINUOUS
 10
-10.2660381598
 20
21.2931103312
 11
-8.0882811568
 21
20.2042318297
  0
LINE
  5
356
100
AcDbEntity
  8
268
100
AcDbLine
 62
7
  6
CONTINUOUS
 10
-1.2857820388
 20
16.8029822707
 11
-0.2046600876
 21
16.2624212951
  0
LINE
  5
357
100
AcDbEntity
  8
268
100
AcDbLine
 62
7
  6
CONTINUOUS
 10
3.0982800046
 20
14.610951249
 11
3.2397013608
 21
14.5402405709
  0
LINE
  5
358
100
AcDbEntity
  8
268
100
AcDbLine
 62
250
  6
CONTINUOUS
 10
1.4969992138
 20
15.5402800531
 11
-0.1108221953
 21
16.3441907576
  0
LINE
  5
359
100
AcDbEntity
  8
268
100
AcDbLine
 62
250
  6
CONTINUOUS
 10
-11.8673189507
 20
22.2224391353
 11
-13.4751403597
 21
23.0263498398
  0
LINE
  5
35A
100
AcDbEntity
  8
268
100
AcDbLine
 62
7
  6
CONTINUOUS
 10
-8.0004131912
 20
20.6605882426
 11
-2.2079041231
 21
17.7643337086
  0
LINE
  5
35B
100
AcDbEntity
  8
268
100
AcDbLine
 62
7
  6
CONTINUOUS
 10
3.946808142
 20
14.8862362723
 11
3.1470761182
 21
15.2861022842
  0
LINE
  5
35C
100
AcDbEntity
  8
268
100
AcDbLine
 62
7
  6
CONTINUOUS
 10
-8.7347640428
 20
21.2270223647
 11
-10.2172420462
 21
21.9682613664
  0
LINE
  5
35D
100
AcDbEntity
  8
268
100
AcDbLine
 62
7
  6
CONTINUOUS
 10
-7.5083217132
 20
21.1266876732
 11
-1.2857820388
 21
18.015417836
  0
LINE
  5
35E
100
AcDbEntity
  8
268
100
AcDbLine
 62
7
  6
CONTINUOUS
 10
-11.8923837566
 20
23.8383339372
 11
-10.2660381598
 21
23.0251611388
  0
LINE
  5
35F
100
AcDbEntity
  8
268
100
AcDbLine
 62
7
  6
CONTINUOUS
 10
1.4719344079
 20
17.1561748549
 11
3.0982800046
 21
16.3430020566
  0
LINE
  5
360
100
AcDbEntity
  8
268
100
AcDbLine
 62
7
  6
CONTINUOUS
 10
-6.164818829
 20
21.1570046239
 11
-1.2150713606
 21
18.6821308897
  0
LWPOLYLINE
  5
361
100
AcDbEntity
  8
218_STAMPATO
100
AcDbPolyline
 62
7
  6
CONTINUOUS
 90
104
 70
0
 10
19.0771289367
 20
5.800767543
 10
19.0898502816
 20
5.7915127176
 10
19.1346718933
 20
5.7576443961
 10
19.1791557403
 20
5.7227694839
 10
19.2233134003
 20
5.6868846964
 10
19.2671439774
 20
5.6499945052
 10
19.3106157299
 20
5.6121291716
 10
19.3536933504
 20
5.5733243349
 10
19.3963562711
 20
5.533604313
 10
19.4385939779
 20
5.4929845093
 10
19.4803864793
 20
5.4514895799
 10
19.5217126053
 20
5.4091463098
 10
19.5625633589
 20
5.3659695257
 10
19.6029364807
 20
5.3219661491
 10
19.6428273044
 20
5.2771444667
 10
19.6822097769
 20
5.23153679
 10
19.7210497023
 20
5.1851871679
 10
19.7593186006
 20
5.1381357032
 10
19.7970172271
 20
5.0903874616
 10
19.8341549644
 20
5.0419343
 10
19.8707306666
 20
4.9927791606
 10
19.9067158622
 20
4.9429615862
 10
19.9420788135
 20
4.8925285462
 10
19.9767961012
 20
4.8415181041
 10
20.0108651242
 20
4.7899386294
 10
20.0442856961
 20
4.7377932647
 10
20.0770496677
 20
4.6850961554
 10
20.1091383653
 20
4.6318785994
 10
20.1405355023
 20
4.5781693562
 10
20.1712268464
 20
4.5239947596
 10
20.20120178
 20
4.4693753793
 10
20.2304498137
 20
4.4143317
 10
20.2589584176
 20
4.3588883931
 10
20.2867163545
 20
4.3030682144
 10
20.3137150368
 20
4.2468887722
 10
20.3399436979
 20
4.1903721775
 10
20.3653901807
 20
4.1335440907
 10
20.3900438868
 20
4.0764274191
 10
20.4138944061
 20
4.019045116
 10
20.4369306086
 20
3.9614224924
 10
20.4591412778
 20
3.9035860139
 10
20.4805137436
 20
3.8455673198
 10
20.5010410942
 20
3.7873834673
 10
20.5207204178
 20
3.729038817
 10
20.539547197
 20
3.6705397563
 10
20.5575053734
 20
3.6119284919
 10
20.5745758008
 20
3.5532629381
 10
20.5907436715
 20
3.4945934849
 10
20.6060091283
 20
3.4359186618
 10
20.6203754004
 20
3.3772183322
 10
20.6338395913
 20
3.3184887165
 10
20.6463856617
 20
3.2597825134
 10
20.657997404
 20
3.2011638097
 10
20.6686643095
 20
3.1426796986
 10
20.6783848552
 20
3.0843313177
 10
20.6871572397
 20
3.0261132674
 10
20.6949763733
 20
2.9680330222
 10
20.7018325989
 20
2.9101316395
 10
20.7077172679
 20
2.8524534688
 10
20.7126246866
 20
2.7950248599
 10
20.7165498712
 20
2.7378669116
 10
20.7194872739
 20
2.6810148428
 10
20.7214324229
 20
2.6245017997
 10
20.7223819204
 20
2.5683408321
 10
20.7223317874
 20
2.5125362864
 10
20.7212764741
 20
2.4570778573
 10
20.7192112875
 20
2.4020228259
 10
20.7161372708
 20
2.3474743812
 10
20.7120588452
 20
2.2935002014
 10
20.706974375
 20
2.2400729957
 10
20.7008770073
 20
2.1871521376
 10
20.6937547816
 20
2.1346952938
 10
20.6856122256
 20
2.0827902751
 10
20.6764715917
 20
2.0315881578
 10
20.6663513674
 20
1.9811665786
 10
20.655246919
 20
1.9314800779
 10
20.6431503488
 20
1.8824916208
 10
20.6300508332
 20
1.8341715435
 10
20.615963056
 20
1.7865879011
 10
20.6009199577
 20
1.7398477767
 10
20.5849382694
 20
1.6939862947
 10
20.5680205267
 20
1.6489954218
 10
20.5501858124
 20
1.6049116515
 10
20.5314497963
 20
1.5617570587
 10
20.5118199792
 20
1.5195334654
 10
20.4913046906
 20
1.4782460701
 10
20.4698958287
 20
1.4378710321
 10
20.4476235265
 20
1.3984581904
 10
20.4245607169
 20
1.3601171717
 10
20.4007678152
 20
1.3229147985
 10
20.3762269891
 20
1.2867909732
 10
20.3508952879
 20
1.2516649538
 10
20.3247553635
 20
1.2175072447
 10
20.297852282
 20
1.1843714632
 10
20.2702346126
 20
1.1523053255
 10
20.241937449
 20
1.121332873
 10
20.2129653269
 20
1.0914427582
 10
20.1833240438
 20
1.062627741
 10
20.153036002
 20
1.0348975947
 10
20.1221187582
 20
1.0082565399
 10
20.0905695447
 20
0.9826924689
 10
20.0584002444
 20
0.9582076554
 10
20.0256387418
 20
0.9348159317
 10
19.9923057232
 20
0.9125240862
  0
LINE
  5
362
100
AcDbEntity
  8
218_STAMPATO
100
AcDbLine
 62
250
  6
CONTINUOUS
 10
8.9806493364
 20
21.1645777806
 11
9.3746352702
 21
20.1424219626
  0
LINE
  5
363
100
AcDbEntity
  8
218_STAMPATO
100
AcDbLine
 62
7
  6
CONTINUOUS
 10
19.078108828
 20
0.3394332415
 11
19.0781300685
 21
0.3394907998
  0
LINE
  5
364
100
AcDbEntity
  8
268
100
AcDbLine
 62
7
  6
CONTINUOUS
 10
1.4091310604
 20
-26.0851239987
 11
2.0314490924
 21
-25.3400645812
  0
LINE
  5
365
100
AcDbEntity
  8
268
100
AcDbLine
 62
250
  6
CONTINUOUS
 10
0.5269695633
 20
-19.7317705838
 11
-0.1654873888
 21
-20.0515701515
  0
LWPOLYLINE
  5
366
100
AcDbEntity
  8
218_STAMPATO
100
AcDbPolyline
 62
7
  6
CONTINUOUS
 90
21
 70
0
 10
-2.2773903051
 20
20.518072532
 10
-2.2892273494
 20
20.5235465631
 10
-2.3009982415
 20
20.5285645913
 10
-2.3126904317
 20
20.5331209026
 10
-2.3242905729
 20
20.5372104175
 10
-2.3357869829
 20
20.5408284232
 10
-2.3471696419
 20
20.5439704284
 10
-2.358425892
 20
20.5466328326
 10
-2.3695436258
 20
20.5488124219
 10
-2.3805137073
 20
20.5505058226
 10
-2.3913237819
 20
20.5517109814
 10
-2.4019618777
 20
20.5524261552
 10
-2.412419527
 20
20.5526490105
 10
-2.4226843001
 20
20.5523790973
 10
-2.4327449546
 20
20.5516162649
 10
-2.4425949095
 20
20.5503591474
 10
-2.4522229702
 20
20.5486086595
 10
-2.461617383
 20
20.5463661652
 10
-2.4707709569
 20
20.5436317448
 10
-2.4796708144
 20
20.5404089311
 10
-2.487975987
 20
20.5368542824
  0
LWPOLYLINE
  5
367
100
AcDbEntity
  8
218_STAMPATO
100
AcDbPolyline
 62
7
  6
CONTINUOUS
 90
64
 70
0
 10
-1.196834306
 20
20.6490623742
 10
-1.2072755579
 20
20.654157857
 10
-1.2247816396
 20
20.6621651461
 10
-1.2427589774
 20
20.6697408041
 10
-1.2611760813
 20
20.6768786386
 10
-1.2800238756
 20
20.6835843636
 10
-1.2993148451
 20
20.6898712612
 10
-1.3190263203
 20
20.6957407344
 10
-1.3391358387
 20
20.7011959961
 10
-1.3596520066
 20
20.7062487716
 10
-1.3805227275
 20
20.7108959252
 10
-1.401759563
 20
20.7151496923
 10
-1.4234646947
 20
20.7190350231
 10
-1.4455895981
 20
20.7225447962
 10
-1.4681530163
 20
20.7256833303
 10
-1.4913587739
 20
20.7284728586
 10
-1.5152832035
 20
20.7309078486
 10
-1.5398264547
 20
20.732963479
 10
-1.5649260922
 20
20.7346234259
 10
-1.5906849191
 20
20.7358813323
 10
-1.6169723544
 20
20.736717241
 10
-1.6433725629
 20
20.7371168233
 10
-1.6698485538
 20
20.7370878908
 10
-1.6964099815
 20
20.7366374997
 10
-1.7227118111
 20
20.7357845519
 10
-1.7486639373
 20
20.7345530274
 10
-1.774338298
 20
20.7329589396
 10
-1.7996352247
 20
20.7310267217
 10
-1.8245348195
 20
20.7287771349
 10
-1.8490458934
 20
20.7262274625
 10
-1.8731127669
 20
20.7234013227
 10
-1.8967167915
 20
20.7203191557
 10
-1.9198715346
 20
20.7169966016
 10
-1.9425697104
 20
20.7134511949
 10
-1.9648036428
 20
20.7097002267
 10
-1.9865793722
 20
20.7057582173
 10
-2.0079090889
 20
20.7016376718
 10
-2.0287932044
 20
20.6973525854
 10
-2.0492312676
 20
20.6929167868
 10
-2.0692325352
 20
20.6883415663
 10
-2.0887992821
 20
20.6836392723
 10
-2.1079299879
 20
20.6788229427
 10
-2.126626534
 20
20.6739046237
 10
-2.1448985942
 20
20.6688939822
 10
-2.1627374461
 20
20.6638055214
 10
-2.180116435
 20
20.6586594711
 10
-2.1970235199
 20
20.6534725834
 10
-2.2134734482
 20
20.6482534098
 10
-2.2294783457
 20
20.6430107021
 10
-2.2450180266
 20
20.6377637484
 10
-2.260113914
 20
20.6325179253
 10
-2.2748356545
 20
20.6272602746
 10
-2.2891817992
 20
20.6220015957
 10
-2.3031469537
 20
20.6167542922
 10
-2.3167872748
 20
20.6115070578
 10
-2.3300854598
 20
20.6062759147
 10
-2.3430415748
 20
20.6010705386
 10
-2.3557277722
 20
20.5958708792
 10
-2.3681065873
 20
20.5907010022
 10
-2.3801787819
 20
20.58556995
 10
-2.3920562405
 20
20.5804385828
 10
-2.4036927623
 20
20.57533501
 10
-2.4150550425
 20
20.5702832694
 10
-2.4372487835
 20
20.5602433071
  0
LINE
  5
368
100
AcDbEntity
  8
268
100
AcDbLine
 62
250
  6
CONTINUOUS
 10
-11.3579338779
 20
24.0986814037
 11
-9.7377709881
 21
23.2885999588
  0
LINE
  5
369
100
AcDbEntity
  8
268
100
AcDbLine
 62
250
  6
CONTINUOUS
 10
2.0063842865
 20
17.4165223215
 11
3.6265471763
 21
16.6064408766
  0
LINE
  5
36A
100
AcDbEntity
  8
268
100
AcDbLine
 62
7
  6
CONTINUOUS
 10
-11.2465162625
 20
24.1049499669
 11
-9.6276386843
 21
23.2955111778
  0
LINE
  5
36B
100
AcDbEntity
  8
268
100
AcDbLine
 62
7
  6
CONTINUOUS
 10
2.1178019019
 20
17.4227908847
 11
3.7366794801
 21
16.6133520956
  0
LINE
  5
36C
100
AcDbEntity
  8
218_STAMPATO
100
AcDbLine
 62
7
  6
CONTINUOUS
 10
-2.2757853803
 20
20.5172860063
 11
0.0990906197
 21
19.3298480063
  0
LINE
  5
36D
100
AcDbEntity
  8
218_STAMPATO
100
AcDbLine
 62
250
  6
CONTINUOUS
 10
0.7268556244
 20
19.6392574588
 11
-1.28637183
 21
20.6458575664
  0
LINE
  5
36E
100
AcDbEntity
  8
218_STAMPATO
100
AcDbLine
 62
7
  6
CONTINUOUS
 10
0.7751597627
 20
19.6630653436
 11
-1.1968379649
 21
20.6490642074
  0
LINE
  5
36F
100
AcDbEntity
  8
268
100
AcDbLine
 62
7
  6
CONTINUOUS
 10
1.3026043841
 20
19.923029423
 11
-1.4979140731
 21
21.3232886516
  0
LWPOLYLINE
  5
370
100
AcDbEntity
  8
268
100
AcDbPolyline
 62
7
  6
CONTINUOUS
 90
20
 70
0
 10
8.9687076105
 20
18.1765524373
 10
8.9673074589
 20
18.1786835021
 10
8.9655610326
 20
18.1809919495
 10
8.9634794227
 20
18.1834815886
 10
8.9610744583
 20
18.1861590314
 10
8.9583543664
 20
18.1889942474
 10
8.9553294351
 20
18.1919907737
 10
8.9520109338
 20
18.1951538519
 10
8.9484067769
 20
18.1984558443
 10
8.94452692
 20
18.2018998271
 10
8.9403822485
 20
18.2054900715
 10
8.9359810157
 20
18.209200571
 10
8.9313326772
 20
18.2130341629
 10
8.9264482233
 20
18.2169940365
 10
8.9213378349
 20
18.2210544569
 10
8.9160109599
 20
18.2252176721
 10
8.9104787565
 20
18.2294860435
 10
8.9047542853
 20
18.233833543
 10
8.8988491019
 20
18.2382524252
 10
8.8865360503
 20
18.2473375148
  0
LINE
  5
371
100
AcDbEntity
  8
218_STAMPATO
100
AcDbLine
 62
7
  6
CONTINUOUS
 10
10.5123070118
 20
16.0131351115
 11
9.4291117422
 21
17.8813705974
  0
LINE
  5
372
100
AcDbEntity
  8
715
100
AcDbLine
 62
7
  6
CONTINUOUS
 10
10.8021823109
 20
18.7404770007
 11
10.600682953
 21
19.3362014265
  0
LINE
  5
373
100
AcDbEntity
  8
218_STAMPATO
100
AcDbLine
 62
250
  6
CONTINUOUS
 10
19.0770370416
 20
12.2934635323
 11
19.0771285512
 21
12.2840559486
  0
LWPOLYLINE
  5
374
100
AcDbEntity
  8
218_STAMPATO
100
AcDbPolyline
 62
7
  6
CONTINUOUS
 90
31
 70
0
 10
19.0771289258
 20
18.4513550298
 10
19.076841634
 20
18.4859226652
 10
19.0757045628
 20
18.5284137654
 10
19.0737104866
 20
18.5709685704
 10
19.0708657348
 20
18.6135922913
 10
19.0671777919
 20
18.6562644403
 10
19.0626575986
 20
18.698935506
 10
19.0573131144
 20
18.7415993852
 10
19.0511515917
 20
18.7842483188
 10
19.0441875723
 20
18.8268282012
 10
19.0364296597
 20
18.8693324505
 10
19.027885378
 20
18.9117544754
 10
19.0185730794
 20
18.9540385698
 10
19.0085022971
 20
18.9961759576
 10
18.9976806931
 20
19.0381623751
 10
18.9861284801
 20
19.0799474942
 10
18.9738577083
 20
19.1215150594
 10
18.9608743586
 20
19.1628685745
 10
18.9471915285
 20
19.2039860663
 10
18.9328182997
 20
19.2448578112
 10
18.9177612138
 20
19.2854802436
 10
18.9020297417
 20
19.3258393009
 10
18.8856306511
 20
19.3659278581
 10
18.8685697915
 20
19.4057389614
 10
18.8508558921
 20
19.4452579184
 10
18.8324947892
 20
19.4844764021
 10
18.8134908381
 20
19.5233871358
 10
18.793850833
 20
19.5619773704
 10
18.7735791222
 20
19.6002380383
 10
18.7526788128
 20
19.6381615623
 10
18.7351614822
 20
19.6688498164
  0
LINE
  5
375
100
AcDbEntity
  8
218_STAMPATO
100
AcDbLine
 62
250
  6
CONTINUOUS
 10
19.077073459
 20
0.3400753657
 11
19.0771285656
 21
0.3328979879
  0
LINE
  5
376
100
AcDbEntity
  8
218_STAMPATO
100
AcDbLine
 62
250
  6
CONTINUOUS
 10
18.7965296506
 20
-4.0057053791
 11
18.796468737
 21
0.573100103
  0
LINE
  5
377
100
AcDbEntity
  8
218_STAMPATO
100
AcDbLine
 62
250
  6
CONTINUOUS
 10
18.796468737
 20
2.3455690018
 11
18.796468737
 21
12.5242506663
  0
LINE
  5
378
100
AcDbEntity
  8
218_STAMPATO
100
AcDbLine
 62
250
  6
CONTINUOUS
 10
18.796468737
 20
14.2967195836
 11
18.796468737
 21
18.104117862
  0
LINE
  5
379
100
AcDbEntity
  8
218_STAMPATO
100
AcDbLine
 62
7
  6
CONTINUOUS
 10
19.0771289367
 20
-3.6348261546
 11
19.0771285656
 21
0.3328979879
  0
LINE
  5
37A
100
AcDbEntity
  8
218_STAMPATO
100
AcDbLine
 62
7
  6
CONTINUOUS
 10
19.0771289367
 20
18.4513675793
 11
19.0771285354
 21
15.2306646957
  0
LINE
  5
37B
100
AcDbEntity
  8
218_STAMPATO
100
AcDbLine
 62
7
  6
CONTINUOUS
 10
19.0771285512
 20
12.2840559486
 11
19.0771285669
 21
3.2795704893
  0
LWPOLYLINE
  5
37C
100
AcDbEntity
  8
218_STAMPATO
100
AcDbPolyline
 62
250
  6
CONTINUOUS
 90
57
 70
0
 10
19.0771285669
 20
3.2795704893
 10
19.0770750615
 20
3.2629853659
 10
19.0764496964
 20
3.2169445884
 10
19.0751908731
 20
3.1728909262
 10
19.0733694393
 20
3.1305827406
 10
19.0710521681
 20
3.0900692729
 10
19.0683126837
 20
3.0514745577
 10
19.0652082449
 20
3.0146797463
 10
19.0617615241
 20
2.9793688289
 10
19.0580150806
 20
2.9455274416
 10
19.0540138838
 20
2.9131711472
 10
19.0497576713
 20
2.8820297509
 10
19.045270165
 20
2.8520607821
 10
19.0405865253
 20
2.8233065654
 10
19.0357066041
 20
2.7956252023
 10
19.0306397858
 20
2.7689535528
 10
19.0254199993
 20
2.7433538968
 10
19.0200792091
 20
2.7188724699
 10
19.0146512735
 20
2.6955629559
 10
19.009147102
 20
2.673368277
 10
19.0035616737
 20
2.6521684795
 10
18.9979168362
 20
2.6319755611
 10
18.9922249724
 20
2.6127741653
 10
18.9864589613
 20
2.5944045162
 10
18.9806222695
 20
2.5768370667
 10
18.9747340935
 20
2.5600991665
 10
18.9687846457
 20
2.5441175202
 10
18.9627639237
 20
2.5288496047
 10
18.9566992028
 20
2.5143361537
 10
18.9506372501
 20
2.5006283395
 10
18.9445935088
 20
2.4877472755
 10
18.9385745687
 20
2.4756679165
 10
18.9326176419
 20
2.4643709294
 10
18.9267561528
 20
2.453895179
 10
18.9209800194
 20
2.4441964819
 10
18.9152601034
 20
2.4351310587
 10
18.9096147214
 20
2.4267005063
 10
18.9040420651
 20
2.4188992098
 10
18.898477184
 20
2.4115742466
 10
18.8929122982
 20
2.4046980665
 10
18.8873635121
 20
2.3982964608
 10
18.8817968789
 20
2.3922980922
 10
18.8762041074
 20
2.3866877145
 10
18.8705984593
 20
2.3814797721
 10
18.8649765416
 20
2.3766480589
 10
18.8593396214
 20
2.3721914985
 10
18.8536909873
 20
2.3681103565
 10
18.8480299118
 20
2.364380541
 10
18.842360233
 20
2.3610024856
 10
18.8366823197
 20
2.357974932
 10
18.8309898355
 20
2.3552713829
 10
18.825286628
 20
2.352890911
 10
18.8195723692
 20
2.3508337753
 10
18.8138337395
 20
2.3490755436
 10
18.808066947
 20
2.3476080511
 10
18.802278201
 20
2.346439189
 10
18.796468737
 20
2.3455687891
  0
LWPOLYLINE
  5
37D
100
AcDbEntity
  8
218_STAMPATO
100
AcDbPolyline
 62
250
  6
CONTINUOUS
 90
57
 70
0
 10
19.0771285354
 20
15.2306646957
 10
19.0770292174
 20
15.2076249839
 10
19.0763053332
 20
15.1616186276
 10
19.0749624766
 20
15.1178623957
 10
19.0730755428
 20
15.0759944245
 10
19.0707014791
 20
15.035835779
 10
19.0679034455
 20
14.997425795
 10
19.0647390985
 20
14.9607304607
 10
19.0612294455
 20
14.9254603492
 10
19.05741058
 20
14.8915687321
 10
19.0533285733
 20
14.859103926
 10
19.0489983133
 20
14.8279195646
 10
19.0444484749
 20
14.7979960072
 10
19.0397138738
 20
14.7693521407
 10
19.0348078531
 20
14.7418997295
 10
19.0297564783
 20
14.7156400926
 10
19.024585742
 20
14.6905695215
 10
19.0193018546
 20
14.6665925895
 10
19.0139278985
 20
14.6437166357
 10
19.0084830748
 20
14.6219310888
 10
19.0029611282
 20
14.601114309
 10
18.9973798538
 20
14.5812676484
 10
18.9917540691
 20
14.5623865351
 10
18.9860662192
 20
14.5443414496
 10
18.98032335
 20
14.5271140813
 10
18.9745419416
 20
14.5107201864
 10
18.9687134196
 20
14.4950822421
 10
18.9628385053
 20
14.4801793412
 10
18.9569349741
 20
14.4660301182
 10
18.9510183125
 20
14.4526165165
 10
18.9450969441
 20
14.4399416023
 10
18.9391806875
 20
14.427999306
 10
18.9332877145
 20
14.4167575037
 10
18.9274304036
 20
14.406225105
 10
18.9216142047
 20
14.3963895423
 10
18.9158469868
 20
14.387186267
 10
18.9101551323
 20
14.3786364858
 10
18.9045287295
 20
14.3707150385
 10
18.8989182351
 20
14.3632886536
 10
18.8933237432
 20
14.3563399206
 10
18.8877546364
 20
14.349884123
 10
18.8821708295
 20
14.3438384799
 10
18.8765632057
 20
14.3381854418
 10
18.8709461544
 20
14.3329416586
 10
18.8653126601
 20
14.3280763889
 10
18.8596633006
 20
14.3235873884
 10
18.8540020759
 20
14.3194760918
 10
18.8483265405
 20
14.3157174537
 10
18.8426405179
 20
14.3123116032
 10
18.8369443182
 20
14.309257627
 10
18.8312297065
 20
14.3065290963
 10
18.8255004351
 20
14.3041248004
 10
18.819756094
 20
14.3020453719
 10
18.8139813742
 20
14.3002674822
 10
18.8081717051
 20
14.2987833936
 10
18.8023337908
 20
14.2976007187
 10
18.796468737
 20
14.2967193614
  0
LWPOLYLINE
  5
37E
100
AcDbEntity
  8
218_STAMPATO
100
AcDbPolyline
 62
7
  6
CONTINUOUS
 90
6
 70
0
 10
19.0771294543
 20
12.2834319843
 10
19.0771816408
 20
12.2852064554
 10
19.077382172
 20
12.2872772818
 10
19.0776560928
 20
12.2888788533
 10
19.077927208
 20
12.2900002815
 10
19.0781089514
 20
12.2905841265
  0
LWPOLYLINE
  5
37F
100
AcDbEntity
  8
218_STAMPATO
100
AcDbPolyline
 62
7
  6
CONTINUOUS
 90
6
 70
0
 10
19.0771294413
 20
0.3322800306
 10
19.0771816236
 20
0.3340548877
 10
19.0773820245
 20
0.3361258509
 10
19.0776559871
 20
0.3377277032
 10
19.0779271004
 20
0.3388493039
 10
19.078108828
 20
0.3394332415
  0
LWPOLYLINE
  5
380
100
AcDbEntity
  8
218_STAMPATO
100
AcDbPolyline
 62
250
  6
CONTINUOUS
 90
34
 70
0
 10
11.7066619424
 20
-16.7572652582
 10
11.7268365235
 20
-16.7385856263
 10
11.7464894562
 20
-16.7191217002
 10
11.7656115754
 20
-16.6988825963
 10
11.7841938042
 20
-16.6778778937
 10
11.802227201
 20
-16.6561176618
 10
11.8197031902
 20
-16.6336122914
 10
11.836613416
 20
-16.6103725391
 10
11.8529498275
 20
-16.5864094505
 10
11.8687047181
 20
-16.5617343756
 10
11.883870582
 20
-16.5363590603
 10
11.8984401787
 20
-16.5102955922
 10
11.9124066204
 20
-16.4835563255
 10
11.925763268
 20
-16.4561539616
 10
11.9385037383
 20
-16.428101564
 10
11.950621966
 20
-16.3994124996
 10
11.9621121928
 20
-16.3701004147
 10
11.9729689443
 20
-16.3401792595
 10
11.9831870369
 20
-16.3096633033
 10
11.9927616205
 20
-16.2785670805
 10
12.0016881504
 20
-16.2469053656
 10
12.0099623641
 20
-16.2146931993
 10
12.0175803488
 20
-16.1819458949
 10
12.0245384902
 20
-16.1486790264
 10
12.030833441
 20
-16.1149084011
 10
12.0364622454
 20
-16.0806500139
 10
12.0414222307
 20
-16.0459202036
 10
12.0457109576
 20
-16.0107356408
 10
12.0493264206
 20
-15.9751131505
 10
12.0522669456
 20
-15.9390695669
 10
12.0545310707
 20
-15.9026218822
 10
12.0561177166
 20
-15.8657873646
 10
12.0570262
 20
-15.828583557
 10
12.0572561288
 20
-15.7910281318
  0
LWPOLYLINE
  5
381
100
AcDbEntity
  8
218_STAMPATO
100
AcDbPolyline
 62
250
  6
CONTINUOUS
 90
4
 70
0
 10
11.6431056532
 20
-16.8085112308
 10
11.6647864667
 20
-16.7922364412
 10
11.6859752711
 20
-16.7751517293
 10
11.7066619424
 20
-16.7572652582
  0
LWPOLYLINE
  5
382
100
AcDbEntity
  8
218_STAMPATO
100
AcDbPolyline
 62
7
  6
CONTINUOUS
 90
40
 70
0
 10
11.7176843595
 20
-16.7621410289
 10
11.7373180448
 20
-16.7476457001
 10
11.7654132413
 20
-16.7259506622
 10
11.7930162863
 20
-16.7034864351
 10
11.820099128
 20
-16.680270606
 10
11.8466487228
 20
-16.656309273
 10
11.8726663791
 20
-16.6315948621
 10
11.8981321723
 20
-16.6061387181
 10
11.9230267736
 20
-16.5799526138
 10
11.9473509479
 20
-16.5530266454
 10
11.9710854684
 20
-16.5253717398
 10
11.9942105131
 20
-16.4970007481
 10
12.0167242732
 20
-16.467903881
 10
12.0386081916
 20
-16.4380912225
 10
12.0598423136
 20
-16.407576514
 10
12.0804212897
 20
-16.3763524133
 10
12.1003262356
 20
-16.3444304477
 10
12.1195387496
 20
-16.3118229239
 10
12.1380530898
 20
-16.2785206916
 10
12.1558496875
 20
-16.2445375525
 10
12.1729118573
 20
-16.2098830872
 10
12.1892364585
 20
-16.1745382942
 10
12.2048071978
 20
-16.1385083804
 10
12.2196031562
 20
-16.1018097257
 10
12.2336128726
 20
-16.064436541
 10
12.2468240372
 20
-16.0263818964
 10
12.259212168
 20
-15.9876730487
 10
12.270750649
 20
-15.9483536051
 10
12.2814254375
 20
-15.9084333118
 10
12.2912219422
 20
-15.8679236401
 10
12.3001192028
 20
-15.8268698533
 10
12.3081065691
 20
-15.7852802888
 10
12.3151723578
 20
-15.743166942
 10
12.3213004265
 20
-15.700579729
 10
12.3264826279
 20
-15.6575280112
 10
12.330710304
 20
-15.6140218128
 10
12.3339724669
 20
-15.5701106408
 10
12.3362623181
 20
-15.5258161193
 10
12.3375745155
 20
-15.4811350444
 10
12.3379163189
 20
-15.4437000702
  0
LINE
  5
383
100
AcDbEntity
  8
218_STAMPATO
100
AcDbLine
 62
7
  6
CONTINUOUS
 10
9.4291117422
 20
-18.2318887404
 11
10.5123070118
 21
-17.4468485241
  0
LINE
  5
384
100
AcDbEntity
  8
218_STAMPATO
100
AcDbLine
 62
250
  6
CONTINUOUS
 10
11.4371511062
 20
-16.9577757325
 11
11.6431056532
 21
-16.8085112308
  0
LINE
  5
385
100
AcDbEntity
  8
218_STAMPATO
100
AcDbLine
 62
7
  6
CONTINUOUS
 10
11.5117187002
 20
-16.9114135996
 11
11.7176732472
 21
-16.7621490979
  0
LWPOLYLINE
  5
386
100
AcDbEntity
  8
218_STAMPATO
100
AcDbPolyline
 62
7
  6
CONTINUOUS
 90
6
 70
0
 10
11.5117187002
 20
-16.9114135996
 10
11.4984536966
 20
-16.9208635421
 10
11.4850279062
 20
-16.9301020365
 10
11.4714464258
 20
-16.9391250209
 10
11.4577086491
 20
-16.9479322745
 10
11.4438260509
 20
-16.9565159638
  0
LINE
  5
387
100
AcDbEntity
  8
218_STAMPATO
100
AcDbLine
 62
7
  6
CONTINUOUS
 10
11.4438260509
 20
-16.9565159638
 11
11.4298222077
 21
-16.9648619795
  0
LWPOLYLINE
  5
388
100
AcDbEntity
  8
218_STAMPATO
100
AcDbPolyline
 62
7
  6
CONTINUOUS
 90
4
 70
0
 10
11.4298222077
 20
-16.9648619795
 10
11.4157089947
 20
-16.9729646154
 10
11.4014865786
 20
-16.9808252434
 10
11.3923576216
 20
-16.9857133637
  0
LWPOLYLINE
  5
389
100
AcDbEntity
  8
218_STAMPATO
100
AcDbPolyline
 62
250
  6
CONTINUOUS
 90
4
 70
0
 10
11.3923631762
 20
-16.9857104265
 10
11.4075111746
 20
-16.9772391294
 10
11.4225416057
 20
-16.9678737458
 10
11.4371511062
 20
-16.9577757325
  0
LWPOLYLINE
  5
38A
100
AcDbEntity
  8
218_STAMPATO
100
AcDbPolyline
 62
250
  6
CONTINUOUS
 90
5
 70
0
 10
11.6431056532
 20
-16.8085112308
 10
11.6619421685
 20
-16.7981510229
 10
11.6803842853
 20
-16.7871627857
 10
11.6984183083
 20
-16.7755546792
 10
11.7176732472
 20
-16.7621490979
  0
LWPOLYLINE
  5
38B
100
AcDbEntity
  8
218_STAMPATO
100
AcDbPolyline
 62
250
  6
CONTINUOUS
 90
5
 70
0
 10
11.4371511062
 20
-16.9577757325
 10
11.4559876214
 20
-16.9474155246
 10
11.4744297381
 20
-16.9364272875
 10
11.492463761
 20
-16.9248191811
 10
11.5117187002
 20
-16.9114135996
  0
LWPOLYLINE
  5
38C
100
AcDbEntity
  8
218_STAMPATO
100
AcDbPolyline
 62
250
  6
CONTINUOUS
 90
29
 70
0
 10
12.0572561288
 20
-15.7910281318
 10
12.0759172673
 20
-15.7810987888
 10
12.0940303623
 20
-15.7709188909
 10
12.1115819628
 20
-15.7604959976
 10
12.128559035
 20
-15.7498378491
 10
12.1449489715
 20
-15.7389523602
 10
12.1607396012
 20
-15.7278476144
 10
12.1759191978
 20
-15.7165318584
 10
12.1904764888
 20
-15.705013495
 10
12.204400664
 20
-15.6933010781
 10
12.2176813831
 20
-15.6814033052
 10
12.2303087839
 20
-15.6693290118
 10
12.2422734892
 20
-15.6570871643
 10
12.2535666138
 20
-15.6446868535
 10
12.2641797715
 20
-15.6321372879
 10
12.2741050809
 20
-15.6194477871
 10
12.2833351714
 20
-15.6066277741
 10
12.2918631887
 20
-15.5936867694
 10
12.2996827997
 20
-15.5806343828
 10
12.3067881977
 20
-15.5674803072
 10
12.3131741061
 20
-15.5542343109
 10
12.3188357828
 20
-15.5409062305
 10
12.3237690232
 20
-15.5275059634
 10
12.327970164
 20
-15.5140434607
 10
12.3314360854
 20
-15.5005287198
 10
12.3341642136
 20
-15.4869717768
 10
12.3361525226
 20
-15.4733826992
 10
12.337399536
 20
-15.4597715782
 10
12.3379043276
 20
-15.4461485216
  0
LINE
  5
38D
100
AcDbEntity
  8
218_STAMPATO
100
AcDbLine
 62
250
  6
CONTINUOUS
 10
11.4371511062
 20
-16.9577757325
 11
10.5123070118
 21
-17.4468485241
  0
LINE
  5
38E
100
AcDbEntity
  8
218_STAMPATO
100
AcDbLine
 62
7
  6
CONTINUOUS
 10
11.3923631762
 20
-16.9857104265
 11
10.4906149095
 21
-17.462569764
  0
LINE
  5
38F
100
AcDbEntity
  8
218_STAMPATO
100
AcDbLine
 62
250
  6
CONTINUOUS
 10
4.1942955154
 20
-19.9330590742
 11
12.0572561288
 21
-15.7910281318
  0
LINE
  5
390
100
AcDbEntity
  8
218_STAMPATO
100
AcDbLine
 62
250
  6
CONTINUOUS
 10
4.1942955154
 20
-20.7323770101
 11
11.6431056532
 21
-16.8085112308
  0
LINE
  5
391
100
AcDbEntity
  8
218_STAMPATO
100
AcDbLine
 62
7
  6
CONTINUOUS
 10
4.1942955154
 20
-20.9817899006
 11
9.4291117422
 21
-18.2318887404
  0
LINE
  5
392
100
AcDbEntity
  8
268
100
AcDbLine
 62
250
  6
CONTINUOUS
 10
4.1942955154
 20
-21.0117846567
 11
8.8865360503
 21
-18.6843987597
  0
LINE
  5
393
100
AcDbEntity
  8
268
100
AcDbLine
 62
7
  6
CONTINUOUS
 10
0.3261159774
 20
-20.2455396404
 11
-0.189472587
 21
-20.4836555255
  0
LINE
  5
394
100
AcDbEntity
  8
218_STAMPATO
100
AcDbLine
 62
250
  6
CONTINUOUS
 10
-1.9508305934
 20
20.6523556246
 11
-1.9406480481
 21
20.655204219
  0
LWPOLYLINE
  5
395
100
AcDbEntity
  8
218_STAMPATO
100
AcDbPolyline
 62
250
  6
CONTINUOUS
 90
3
 70
0
 10
-1.9406480481
 20
20.655204219
 10
-1.9302761468
 20
20.6580099933
 10
-1.9250190805
 20
20.6593962922
  0
LWPOLYLINE
  5
396
100
AcDbEntity
  8
218_STAMPATO
100
AcDbPolyline
 62
250
  6
CONTINUOUS
 90
4
 70
0
 10
-1.9250190805
 20
20.6593962922
 10
-1.9143624852
 20
20.6621312774
 10
-1.9089629561
 20
20.6634799637
 10
-1.9035160934
 20
20.6648145724
  0
LWPOLYLINE
  5
397
100
AcDbEntity
  8
218_STAMPATO
100
AcDbPolyline
 62
250
  6
CONTINUOUS
 90
128
 70
0
 10
-1.9035160934
 20
20.6648145724
 10
-1.8924802154
 20
20.6674415934
 10
-1.8868916341
 20
20.6687323999
 10
-1.8812558773
 20
20.6700075818
 10
-1.875573145
 20
20.6712670985
 10
-1.8698443961
 20
20.6725092407
 10
-1.864069469
 20
20.6737340307
 10
-1.8582485251
 20
20.6749414461
 10
-1.8523830076
 20
20.6761297105
 10
-1.8464730972
 20
20.6772987795
 10
-1.8405186132
 20
20.6784486974
 10
-1.8345204562
 20
20.6795778213
 10
-1.8284783945
 20
20.6806861883
 10
-1.8223926599
 20
20.6817737612
 10
-1.8162648483
 20
20.682838786
 10
-1.8100866414
 20
20.6838824368
 10
-1.8038663576
 20
20.6849035393
 10
-1.7976305472
 20
20.6858968172
 10
-1.7913827822
 20
20.6868613227
 10
-1.7851194908
 20
20.6877980034
 10
-1.7788565072
 20
20.6887044253
 10
-1.7725963241
 20
20.6895800273
 10
-1.7663364488
 20
20.6904253705
 10
-1.7600852377
 20
20.691239704
 10
-1.7538437906
 20
20.6920227884
 10
-1.7476110076
 20
20.6927748631
 10
-1.7413919451
 20
20.6934958959
 10
-1.7351869788
 20
20.6941857893
 10
-1.7289957331
 20
20.6948446408
 10
-1.7228221367
 20
20.6954727105
 10
-1.7166665839
 20
20.6960699268
 10
-1.7105286805
 20
20.6966363613
 10
-1.7044111734
 20
20.6971724883
 10
-1.6983143384
 20
20.6976782708
 10
-1.6922378998
 20
20.6981537459
 10
-1.6861837771
 20
20.6985994992
 10
-1.6801515935
 20
20.6990155406
 10
-1.6741417259
 20
20.6994018603
 10
-1.6681572248
 20
20.6997590139
 10
-1.6621982818
 20
20.7000869675
 10
-1.6562647053
 20
20.7003857552
 10
-1.6503589713
 20
20.700656034
 10
-1.6444812483
 20
20.7008977828
 10
-1.6386313677
 20
20.7011110228
 10
-1.6328112998
 20
20.7012964747
 10
-1.6270209658
 20
20.7014541282
 10
-1.6212604446
 20
20.7015839936
 10
-1.6155319427
 20
20.7016868226
 10
-1.6098354374
 20
20.7017625986
 10
-1.6041709515
 20
20.7018113382
 10
-1.5985407597
 20
20.701833843
 10
-1.5929449874
 20
20.7018300967
 10
-1.5873835092
 20
20.7018001156
 10
-1.5818582237
 20
20.7017447494
 10
-1.5763693233
 20
20.7016639914
 10
-1.5709166156
 20
20.7015578483
 10
-1.5655014223
 20
20.701427189
 10
-1.5601237982
 20
20.7012720111
 10
-1.5547836885
 20
20.7010923171
 10
-1.5494822504
 20
20.700888983
 10
-1.5442192012
 20
20.7006619849
 10
-1.5389948236
 20
20.7004113467
 10
-1.5338111233
 20
20.7001380167
 10
-1.5286683102
 20
20.6998419895
 10
-1.5235661745
 20
20.6995232704
 10
-1.5185060925
 20
20.6991828241
 10
-1.5134882769
 20
20.6988206582
 10
-1.508512515
 20
20.6984367651
 10
-1.5035795452
 20
20.6980320869
 10
-1.4986894509
 20
20.6976066297
 10
-1.4938421487
 20
20.6971603872
 10
-1.4890381264
 20
20.6966942832
 10
-1.4842774364
 20
20.6962083238
 10
-1.4795600263
 20
20.6957025027
 10
-1.4748862275
 20
20.6951777253
 10
-1.4702560963
 20
20.6946340002
 10
-1.4656695764
 20
20.6940713187
 10
-1.4611268291
 20
20.6934905606
 10
-1.4566279337
 20
20.6928917403
 10
-1.4521728111
 20
20.6922748432
 10
-1.4477613849
 20
20.6916407053
 10
-1.4433937067
 20
20.6909893405
 10
-1.4390697249
 20
20.6903207348
 10
-1.4347892089
 20
20.6896356818
 10
-1.4305521961
 20
20.6889341953
 10
-1.426358649
 20
20.6882162614
 10
-1.4222082249
 20
20.687482632
 10
-1.4181009733
 20
20.6867333252
 10
-1.4140368445
 20
20.685968323
 10
-1.4100153473
 20
20.6851883227
 10
-1.4060365182
 20
20.6843933426
 10
-1.4021003207
 20
20.6835833644
 10
-1.3982061529
 20
20.6827590306
 10
-1.3943540558
 20
20.681920363
 10
-1.3905439885
 20
20.6810673398
 10
-1.3867752265
 20
20.6802005384
 10
-1.3830478115
 20
20.679319984
 10
-1.3793617017
 20
20.6784256514
 10
-1.375716047
 20
20.6775180423
 10
-1.3721108634
 20
20.6765971782
 10
-1.3685461349
 20
20.6756630376
 10
-1.3650209623
 20
20.674716057
 10
-1.3615353461
 20
20.673756255
 10
-1.3580892859
 20
20.6727836131
 10
-1.3546818816
 20
20.6717985121
 10
-1.3513131431
 20
20.6708009744
 10
-1.3479830606
 20
20.6697909775
 10
-1.3446907042
 20
20.6687688349
 10
-1.3414360815
 20
20.6677345703
 10
-1.338219185
 20
20.66668816
 10
-1.3350390627
 20
20.6656298465
 10
-1.3318957066
 20
20.66455965
 10
-1.3287891248
 20
20.6634775503
 10
-1.3257183895
 20
20.6623837296
 10
-1.3226834776
 20
20.6612782025
 10
-1.3196844122
 20
20.6601609544
 10
-1.3167203353
 20
20.6590321231
 10
-1.3137912113
 20
20.6578917179
 10
-1.3108970758
 20
20.6567397296
 10
-1.308037177
 20
20.6555762686
 10
-1.3052114894
 20
20.6544013452
 10
-1.3024200386
 20
20.6532149491
 10
-1.29966215
 20
20.6520171596
 10
-1.2969378111
 20
20.6508079949
 10
-1.2942470344
 20
20.6495874367
 10
-1.2915891828
 20
20.6483555099
 10
-1.2889640438
 20
20.6471122225
 10
-1.28637183
 20
20.6458575664
  0
LWPOLYLINE
  5
398
100
AcDbEntity
  8
268
100
AcDbPolyline
 62
7
  6
CONTINUOUS
 90
13
 70
0
 10
8.2224376407
 20
19.2605701444
 10
8.1877868308
 20
19.2669998255
 10
8.1525826077
 20
19.2723829783
 10
8.1168627558
 20
19.2767451192
 10
8.0806374389
 20
19.2801390423
 10
8.0439697008
 20
19.282568792
 10
8.0069734909
 20
19.2839800212
 10
7.969686456
 20
19.2843901561
 10
7.9321354741
 20
19.2838262746
 10
7.8944147732
 20
19.2822342864
 10
7.8565753985
 20
19.2796051954
 10
7.8186262123
 20
19.2759832142
 10
7.7805967728
 20
19.2713884247
  0
LINE
  5
399
100
AcDbEntity
  8
268
100
AcDbLine
 62
7
  6
CONTINUOUS
 10
-11.332869072
 20
21.3916986404
 11
-11.9551871041
 21
21.5216392229
  0
LINE
  5
39A
100
AcDbEntity
  8
268
100
AcDbLine
 62
7
  6
CONTINUOUS
 10
-1.8514674637
 20
22.0526235362
 11
-1.4979140731
 21
21.8758468409
  0
LINE
  5
39B
100
AcDbEntity
  8
268
100
AcDbLine
 62
7
  6
CONTINUOUS
 10
2.7104200804
 20
20.6169060814
 11
-0.1001295666
 21
22.0221809049
  0
LINE
  5
39C
100
AcDbEntity
  8
218_STAMPATO
100
AcDbLine
 62
7
  6
CONTINUOUS
 10
8.9132757388
 20
18.1392885991
 11
9.4291117422
 21
17.8813705974
  0
LINE
  5
39D
100
AcDbEntity
  8
268
100
AcDbLine
 62
7
  6
CONTINUOUS
 10
1.2598023735
 20
22.0959290923
 11
3.4695432617
 21
20.9910586482
  0
LINE
  5
39E
100
AcDbEntity
  8
268
100
AcDbLine
 62
7
  6
CONTINUOUS
 10
4.2151280848
 20
20.6182662367
 11
4.3609414948
 21
20.5453595316
  0
LINE
  5
39F
100
AcDbEntity
  8
268
100
AcDbLine
 62
7
  6
CONTINUOUS
 10
-1.6076553721
 20
23.7929016449
 11
-1.427203395
 21
23.7026756563
  0
LINE
  5
3A0
100
AcDbEntity
  8
268
100
AcDbLine
 62
7
  6
CONTINUOUS
 10
3.946808142
 20
21.0156698878
 11
4.1272601192
 21
20.9254438992
  0
LINE
  5
3A1
100
AcDbEntity
  8
715
100
AcDbLine
 62
7
  6
CONTINUOUS
 10
3.3880559438
 20
22.4475401842
 11
3.6315516101
 21
22.2226678536
  0
LWPOLYLINE
  5
3A2
100
AcDbEntity
  8
268
100
AcDbPolyline
 62
7
  6
CONTINUOUS
 90
17
 70
0
 10
8.9694245292
 20
18.7793102608
 10
8.9357872354
 20
18.8153724113
 10
8.9021036473
 20
18.850011071
 10
8.8683737649
 20
18.8832262397
 10
8.8345288632
 20
18.9150335437
 10
8.8006376672
 20
18.9454173568
 10
8.7669063522
 20
18.9743308009
 10
8.7333545568
 20
19.0017499763
 10
8.6999626424
 20
19.0276987826
 10
8.6668778683
 20
19.0522020411
 10
8.6341155549
 20
19.075245748
 10
8.6016603818
 20
19.096843907
 10
8.5696136471
 20
19.1170633511
 10
8.5379865076
 20
19.1358972651
 10
8.5067678066
 20
19.153352464
 10
8.4760253722
 20
19.1695162255
 10
8.4687527403
 20
19.1731926725
  0
LWPOLYLINE
  5
3A3
100
AcDbEntity
  8
218_STAMPATO
100
AcDbPolyline
 62
250
  6
CONTINUOUS
 90
57
 70
0
 10
19.0771289367
 20
3.9816551709
 10
19.0853946218
 20
3.9552974638
 10
19.0975741206
 20
3.9131464996
 10
19.1090152118
 20
3.869985768
 10
19.1196964146
 20
3.825843381
 10
19.129541067
 20
3.7808029718
 10
19.1385331737
 20
3.7348855443
 10
19.1466653833
 20
3.68806958
 10
19.1538770569
 20
3.6403771827
 10
19.1601740649
 20
3.591552737
 10
19.1655236009
 20
3.5418518349
 10
19.1698262163
 20
3.4920740346
 10
19.1730553063
 20
3.4422537553
 10
19.1752516826
 20
3.392378314
 10
19.1764514946
 20
3.3431933308
 10
19.1766500642
 20
3.2947112516
 10
19.175897667
 20
3.2469512523
 10
19.1743427939
 20
3.2006811813
 10
19.1720169028
 20
3.1561118628
 10
19.1689622111
 20
3.1130682063
 10
19.1653579938
 20
3.0717440576
 10
19.1612604958
 20
3.0323029923
 10
19.1566827355
 20
2.9946088447
 10
19.1517336059
 20
2.9584036228
 10
19.1464548831
 20
2.9237086876
 10
19.1408547719
 20
2.8905196707
 10
19.1349802153
 20
2.8585363605
 10
19.1288528693
 20
2.8277246336
 10
19.1224860954
 20
2.7981289252
 10
19.1159060491
 20
2.7695645156
 10
19.1091163567
 20
2.7419772665
 10
19.1021397059
 20
2.7154279729
 10
19.0950270453
 20
2.6899033318
 10
19.0877915476
 20
2.6654142367
 10
19.0804428335
 20
2.6419548022
 10
19.0730246725
 20
2.6194861741
 10
19.0655633335
 20
2.5980509014
 10
19.0580512248
 20
2.5776101393
 10
19.0504786708
 20
2.5580024324
 10
19.0428527552
 20
2.5392139456
 10
19.0351796463
 20
2.5212608895
 10
19.0274456702
 20
2.5040263647
 10
19.0196388484
 20
2.4874726544
 10
19.0117809109
 20
2.4716390959
 10
19.0039074181
 20
2.4565241725
 10
18.9960063196
 20
2.442114453
 10
18.9880976173
 20
2.4284247855
 10
18.9802643714
 20
2.4154961195
 10
18.9725278118
 20
2.403369633
 10
18.9648730348
 20
2.3920055624
 10
18.9573280798
 20
2.3813234245
 10
18.9499218422
 20
2.3713517716
 10
18.9426294911
 20
2.3620631915
 10
18.9353974261
 20
2.3532930405
 10
18.9282083862
 20
2.3449866386
 10
18.92108186
 20
2.3371994164
 10
18.9140188072
 20
2.3299317546
  0
LINE
  5
3A4
100
AcDbEntity
  8
268
100
AcDbLine
 62
7
  6
CONTINUOUS
 10
2.5325945796
 20
-24.3900433899
 11
1.7194217813
 21
-24.9189145203
  0
LWPOLYLINE
  5
3A5
100
AcDbEntity
  8
268
100
AcDbPolyline
 62
7
  6
CONTINUOUS
 90
25
 70
0
 10
8.2224376407
 20
-19.2276865038
 10
8.2483540511
 20
-19.2128542872
 10
8.2748562877
 20
-19.1975873105
 10
8.3019443507
 20
-19.1818855736
 10
8.3296460071
 20
-19.1657364708
 10
8.3579334898
 20
-19.149152608
 10
8.3867234977
 20
-19.132171802
 10
8.4159970168
 20
-19.1148052281
 10
8.4457730612
 20
-19.0970417112
 10
8.4760253722
 20
-19.0788855428
 10
8.5067678066
 20
-19.0603286459
 10
8.5379865076
 20
-19.0413790976
 10
8.5696136471
 20
-19.0220654212
 10
8.6016603818
 20
-19.0023807864
 10
8.6341155549
 20
-18.9823320236
 10
8.6668778683
 20
-18.9619681469
 10
8.6999626424
 20
-18.9412793076
 10
8.7333545568
 20
-18.9202753544
 10
8.7669063522
 20
-18.8990348477
 10
8.8006376672
 20
-18.8775445618
 10
8.8345288632
 20
-18.8558177224
 10
8.8683737649
 20
-18.8339725666
 10
8.9021036473
 20
-18.8120485069
 10
8.9357872354
 20
-18.790006131
 10
8.9694245292
 20
-18.7678454387
  0
LWPOLYLINE
  5
3A6
100
AcDbEntity
  8
268
100
AcDbPolyline
 62
7
  6
CONTINUOUS
 90
3
 70
0
 10
8.2224376407
 20
-19.2276865038
 10
8.1878531636
 20
-19.2465622014
 10
8.1720162579
 20
-19.2546631198
  0
LINE
  5
3A7
100
AcDbEntity
  8
268
100
AcDbLine
 62
250
  6
CONTINUOUS
 10
4.1942955154
 20
-21.2495896874
 11
8.2224376407
 21
-19.2276865038
  0
LINE
  5
3A8
100
AcDbEntity
  8
268
100
AcDbLine
 62
7
  6
CONTINUOUS
 10
4.1942955154
 20
-21.2512577682
 11
8.1720585865
 21
-19.2546420663
  0
LINE
  5
3A9
100
AcDbEntity
  8
268
100
AcDbLine
 62
250
  6
CONTINUOUS
 10
4.1942955154
 20
-21.1336593844
 11
8.9706876179
 21
-18.7645336896
  0
LWPOLYLINE
  5
3AA
100
AcDbEntity
  8
0
100
AcDbPolyline
 62
250
  6
CONTINUOUS
 90
16
 70
0
 10
-5.051017956
 20
-26.0524900318
 10
-5.1135843241
 20
-26.079143364
 10
-5.181322628
 20
-26.1024537141
 10
-5.2535151773
 20
-26.1221741079
 10
-5.3293970886
 20
-26.1380956069
 10
-5.4081643896
 20
-26.1500495222
 10
-5.4889825372
 20
-26.1579092014
 10
-5.5709952595
 20
-26.1615913709
 10
-5.653333628
 20
-26.1610570179
 10
-5.7351252639
 20
-26.1563118041
 10
-5.8155035812
 20
-26.147406005
 10
-5.8936169679
 20
-26.1344339781
 10
-5.9686378092
 20
-26.1175331627
 10
-6.0397712558
 20
-26.0968826238
 10
-6.1062636457
 20
-26.0727011549
 10
-6.167410489
 20
-26.0452449596
  0
LINE
  5
3AB
100
AcDbEntity
  8
268
100
AcDbLine
 62
7
  6
CONTINUOUS
 10
-0.1001295666
 20
22.0221809049
 11
1.2598023735
 21
22.0959290923
  0
LWPOLYLINE
  5
3AC
100
AcDbEntity
  8
715
100
AcDbPolyline
 62
7
  6
CONTINUOUS
 90
9
 70
0
 10
13.1504593532
 20
19.527816353
 10
13.1443426126
 20
19.5294158507
 10
13.1345723989
 20
19.5309486646
 10
13.1242462035
 20
19.531364109
 10
13.1134590063
 20
19.5306623365
 10
13.1024957474
 20
19.5288438051
 10
13.0914514067
 20
19.5259086676
 10
13.0802310042
 20
19.5218567712
 10
13.0688345399
 20
19.516688116
  0
LINE
  5
3AD
100
AcDbEntity
  8
715
100
AcDbLine
 62
7
  6
CONTINUOUS
 10
11.7573965545
 20
18.8609691233
 11
11.3076518931
 21
18.9827169564
  0
LINE
  5
3AE
100
AcDbEntity
  8
715
100
AcDbLine
 62
7
  6
CONTINUOUS
 10
4.332775352
 20
22.5732797245
 11
3.8830306907
 21
22.6950275577
  0
LWPOLYLINE
  5
3AF
100
AcDbEntity
  8
715
100
AcDbPolyline
 62
7
  6
CONTINUOUS
 90
28
 70
0
 10
13.150449217
 20
19.5277924006
 10
13.0417338704
 20
19.5590782463
 10
12.9268788274
 20
19.5884319234
 10
12.8096174035
 20
19.6147589936
 10
12.6902442387
 20
19.6380210853
 10
12.569023867
 20
19.6581916381
 10
12.4461944975
 20
19.6752509134
 10
12.3220457002
 20
19.6891747549
 10
12.1968622371
 20
19.6999454239
 10
12.0708817196
 20
19.7075528236
 10
11.9443953334
 20
19.7119862023
 10
11.8176926105
 20
19.713240757
 10
11.6910108651
 20
19.7113159839
 10
11.5646395953
 20
19.7062146489
 10
11.4388700047
 20
19.6979454368
 10
11.3139404053
 20
19.6865175613
 10
11.1901415307
 20
19.6719477291
 10
11.0677567784
 20
19.6542577075
 10
10.9470083422
 20
19.6334635322
 10
10.8281734211
 20
19.6095919321
 10
10.7115375976
 20
19.5826768804
 10
10.5973260246
 20
19.552742113
 10
10.4858108464
 20
19.5198250092
 10
10.37726465
 20
19.4839683743
 10
10.2718977584
 20
19.4451967568
 10
10.169950976
 20
19.4035439484
 10
10.0717048386
 20
19.3590631739
 10
9.9774207774
 20
19.3118057844
  0
LWPOLYLINE
  5
3B0
100
AcDbEntity
  8
268
100
AcDbPolyline
 62
7
  6
CONTINUOUS
 90
18
 70
0
 10
0.9999189018
 20
22.9075873656
 10
0.9803568175
 20
22.9166770987
 10
0.9574610373
 20
22.9256625134
 10
0.933951751
 20
22.9331647461
 10
0.9098104289
 20
22.939198916
 10
0.8851206756
 20
22.9437447004
 10
0.8598592493
 20
22.9467986838
 10
0.8340493919
 20
22.9483642818
 10
0.807844433
 20
22.9484314183
 10
0.7812604704
 20
22.9469926424
 10
0.7542814064
 20
22.944055405
 10
0.7270122777
 20
22.9396319838
 10
0.6994380981
 20
22.9337135981
 10
0.6715738538
 20
22.9263090286
 10
0.6435695407
 20
22.917456894
 10
0.6154751575
 20
22.9071700673
 10
0.5872407055
 20
22.8954356755
 10
0.5588661847
 20
22.8822537188
  0
LWPOLYLINE
  5
3B1
100
AcDbEntity
  8
268
100
AcDbPolyline
 62
7
  6
CONTINUOUS
 90
10
 70
0
 10
8.4687527403
 20
19.1731926725
 10
8.4457730612
 20
19.1843841047
 10
8.4159970168
 20
19.1979605465
 10
8.3867234977
 20
19.2103461632
 10
8.3579334898
 20
19.2215479597
 10
8.3296460071
 20
19.2315589313
 10
8.3019443507
 20
19.2404586757
 10
8.2748562877
 20
19.2482737257
 10
8.2483540511
 20
19.2549775486
 10
8.2224376407
 20
19.2605701444
  0
LINE
  5
3B2
100
AcDbEntity
  8
268
100
AcDbLine
 62
250
  6
CONTINUOUS
 10
-2.4202237162
 20
24.3717986692
 11
0.5588661847
 21
22.8822537188
  0
LINE
  5
3B3
100
AcDbEntity
  8
268
100
AcDbLine
 62
250
  6
CONTINUOUS
 10
4.8015068719
 20
20.7609333752
 11
7.7805967728
 21
19.2713884247
  0
LINE
  5
3B4
100
AcDbEntity
  8
268
100
AcDbLine
 62
7
  6
CONTINUOUS
 10
5.2425498749
 20
20.7862828418
 11
8.4690397671
 21
19.1730378957
  0
LINE
  5
3B5
100
AcDbEntity
  8
715
100
AcDbLine
 62
7
  6
CONTINUOUS
 10
10.8126771463
 20
18.735229583
 11
10.1057082062
 21
19.0887140531
  0
LINE
  5
3B6
100
AcDbEntity
  8
715
100
AcDbLine
 62
7
  6
CONTINUOUS
 10
3.3880559438
 20
22.4475401842
 11
2.6810870037
 21
22.8010246543
  0
LINE
  5
3B7
100
AcDbEntity
  8
715
100
AcDbLine
 62
7
  6
CONTINUOUS
 10
11.3076518931
 20
18.9827169564
 11
10.600682953
 21
19.3362014265
  0
LINE
  5
3B8
100
AcDbEntity
  8
715
100
AcDbLine
 62
7
  6
CONTINUOUS
 10
3.8830306907
 20
22.6950275577
 11
3.1760617505
 21
23.0485120277
  0
LINE
  5
3B9
100
AcDbEntity
  8
218_STAMPATO
100
AcDbLine
 62
7
  6
CONTINUOUS
 10
9.6250312174
 20
19.8578054354
 11
10.0573454682
 21
19.64164831
  0
LINE
  5
3BA
100
AcDbEntity
  8
218_STAMPATO
100
AcDbLine
 62
7
  6
CONTINUOUS
 10
2.6327242657
 20
23.3539589112
 11
2.200410015
 21
23.5701160366
  0
LINE
  5
3BB
100
AcDbEntity
  8
715
100
AcDbLine
 62
7
  6
CONTINUOUS
 10
6.5562213313
 20
22.8191262878
 11
6.5484629026
 21
22.8237127599
  0
LWPOLYLINE
  5
3BC
100
AcDbEntity
  8
715
100
AcDbPolyline
 62
250
  6
CONTINUOUS
 90
4
 70
0
 10
6.5864069699
 20
22.8110451049
 10
6.6109299603
 20
22.7905407265
 10
6.6352957219
 20
22.7692624621
 10
6.6575624843
 20
22.7489094534
  0
LWPOLYLINE
  5
3BD
100
AcDbEntity
  8
715
100
AcDbPolyline
 62
250
  6
CONTINUOUS
 90
6
 70
0
 10
6.4927703708
 20
22.8047490965
 10
6.5156308002
 20
22.785170363
 10
6.5382083385
 20
22.7648173165
 10
6.5605029857
 20
22.7436899569
 10
6.582548484
 20
22.7218600699
 10
6.5884441708
 20
22.7157363881
  0
LINE
  5
3BE
100
AcDbEntity
  8
715
100
AcDbLine
 62
7
  6
CONTINUOUS
 10
10.8126771463
 20
18.735229583
 11
11.0561728126
 21
18.5103572523
  0
LWPOLYLINE
  5
3BF
100
AcDbEntity
  8
218_STAMPATO
100
AcDbPolyline
 62
250
  6
CONTINUOUS
 90
57
 70
0
 10
19.0771289367
 20
15.9328457091
 10
19.0864699818
 20
15.9028663637
 10
19.0986686137
 20
15.8603319772
 10
19.1101126387
 20
15.816793016
 10
19.1207841039
 20
15.7722559822
 10
19.1306161376
 20
15.7267335338
 10
19.139609099
 20
15.6801196991
 10
19.1477334923
 20
15.6325167839
 10
19.1548860736
 20
15.5842553949
 10
19.161051301
 20
15.5352714234
 10
19.1662309002
 20
15.4856367087
 10
19.1703678753
 20
15.435897159
 10
19.1734473995
 20
15.385992686
 10
19.1754956894
 20
15.3360036087
 10
19.1765463272
 20
15.2867002257
 10
19.1765905975
 20
15.2380555564
 10
19.1756821867
 20
15.1901277851
 10
19.1739817501
 20
15.1438284709
 10
19.1715301332
 20
15.0994738859
 10
19.1683667067
 20
15.0567855709
 10
19.1646640591
 20
15.0157876907
 10
19.1604786589
 20
14.9766029049
 10
19.155821149
 20
14.9391349384
 10
19.1507860915
 20
14.9030761136
 10
19.1454046136
 20
14.8683945626
 10
19.1396925941
 20
14.8351381124
 10
19.1337110957
 20
14.8031152891
 10
19.1274790613
 20
14.7723005676
 10
19.1210133631
 20
14.7427298893
 10
19.11436594
 20
14.7143022821
 10
19.1075538208
 20
14.6870177382
 10
19.1005887397
 20
14.6608834561
 10
19.0935108343
 20
14.635808325
 10
19.0863366143
 20
14.6118017124
 10
19.0790723732
 20
14.588859245
 10
19.0717396459
 20
14.5668685071
 10
19.0643530665
 20
14.5458363484
 10
19.056915412
 20
14.5257593412
 10
19.0494274991
 20
14.5065090854
 10
19.0418966559
 20
14.488077747
 10
19.0343283962
 20
14.4704754725
 10
19.0267185347
 20
14.4536004108
 10
19.0190639406
 20
14.4374326663
 10
19.0113772981
 20
14.4219937675
 10
19.0036767352
 20
14.4072437796
 10
18.9959586083
 20
14.3931750032
 10
18.9882339939
 20
14.3797964701
 10
18.9805422454
 20
14.3670932758
 10
18.9728887521
 20
14.3550766362
 10
18.9652737898
 20
14.3437365319
 10
18.9577282688
 20
14.3330261532
 10
18.9502655013
 20
14.3229612724
 10
18.9428760763
 20
14.3135271528
 10
18.9355560321
 20
14.3046311042
 10
18.928304737
 20
14.296242471
 10
18.9211251724
 20
14.2883927115
 10
18.9140183351
 20
14.2810822237
  0
LINE
  5
3C0
100
AcDbEntity
  8
268
100
AcDbLine
 62
7
  6
CONTINUOUS
 10
3.0982800046
 20
-25.9190376481
 11
3.6265471763
 21
-25.6480265895
  0
LINE
  5
3C1
100
AcDbEntity
  8
268
100
AcDbLine
 62
250
  6
CONTINUOUS
 10
3.4871887342
 20
-24.0783207721
 11
4.1942955154
 21
-23.7172096923
  0
LINE
  5
3C2
100
AcDbEntity
  8
268
100
AcDbLine
 62
7
  6
CONTINUOUS
 10
3.3972247662
 20
-24.2671308487
 11
4.1043315483
 21
-23.9060197684
  0
LINE
  5
3C3
100
AcDbEntity
  8
268
100
AcDbLine
 62
7
  6
CONTINUOUS
 10
3.3972199602
 20
-24.2671333036
 11
3.3952123633
 21
-24.268137011
  0
LINE
  5
3C4
100
AcDbEntity
  8
268
100
AcDbLine
 62
250
  6
CONTINUOUS
 10
1.7194217813
 20
-24.9433100256
 11
3.4871887342
 21
-24.0783207721
  0
LINE
  5
3C5
100
AcDbEntity
  8
268
100
AcDbLine
 62
7
  6
CONTINUOUS
 10
1.6274408623
 20
-25.1331284899
 11
3.3952078166
 21
-24.2681392357
  0
LINE
  5
3C6
100
AcDbEntity
  8
268
100
AcDbLine
 62
7
  6
CONTINUOUS
 10
1.4969992138
 20
-26.6990722478
 11
3.0982800046
 21
-25.9190376481
  0
LINE
  5
3C7
100
AcDbEntity
  8
0
100
AcDbLine
 62
250
  6
CONTINUOUS
 10
-4.5820609868
 20
-26.4362418379
 11
-0.432255448
 21
-24.8573080795
  0
LINE
  5
3C8
100
AcDbEntity
  8
0
100
AcDbLine
 62
7
  6
CONTINUOUS
 10
-0.7007455784
 20
-25.3170082971
 11
-4.8487717307
 21
-26.8952645862
  0
LWPOLYLINE
  5
3C9
100
AcDbEntity
  8
715
100
AcDbPolyline
 62
7
  6
CONTINUOUS
 90
9
 70
0
 10
5.7258381507
 20
23.2401269542
 10
5.7197214102
 20
23.2417264519
 10
5.7099511964
 20
23.2432592658
 10
5.699625001
 20
23.2436747102
 10
5.6888378038
 20
23.2429729377
 10
5.6778745449
 20
23.2411544064
 10
5.6668302042
 20
23.2382192688
 10
5.6556098017
 20
23.2341673725
 10
5.6442133375
 20
23.2289987172
  0
LWPOLYLINE
  5
3CA
100
AcDbEntity
  8
715
100
AcDbPolyline
 62
7
  6
CONTINUOUS
 90
28
 70
0
 10
5.7258280145
 20
23.2401030018
 10
5.6171126679
 20
23.2713888476
 10
5.502257625
 20
23.3007425246
 10
5.384996201
 20
23.3270695948
 10
5.2656230362
 20
23.3503316865
 10
5.1444026646
 20
23.3705022393
 10
5.0215732951
 20
23.3875615146
 10
4.8974244977
 20
23.4014853562
 10
4.7722410346
 20
23.4122560252
 10
4.6462605171
 20
23.4198634249
 10
4.519774131
 20
23.4242968036
 10
4.393071408
 20
23.4255513583
 10
4.2663896626
 20
23.4236265852
 10
4.1400183928
 20
23.4185252502
 10
4.0142488022
 20
23.410256038
 10
3.8893192029
 20
23.3988281626
 10
3.7655203283
 20
23.3842583303
 10
3.6431355759
 20
23.3665683087
 10
3.5223871397
 20
23.3457741334
 10
3.4035522186
 20
23.3219025334
 10
3.2869163952
 20
23.2949874816
 10
3.1727048221
 20
23.2650527143
 10
3.0611896439
 20
23.2321356104
 10
2.9526434475
 20
23.1962789756
 10
2.847276556
 20
23.157507358
 10
2.7453297735
 20
23.1158545496
 10
2.6470836361
 20
23.0713737751
 10
2.5527995749
 20
23.0241163857
  0
LWPOLYLINE
  5
3CB
100
AcDbEntity
  8
715
100
AcDbPolyline
 62
7
  6
CONTINUOUS
 90
3
 70
0
 10
13.162500035
 20
19.5229985724
 10
13.1536518247
 20
19.52676582
 10
13.1504593532
 20
19.527816353
  0
LWPOLYLINE
  5
3CC
100
AcDbEntity
  8
715
100
AcDbPolyline
 62
7
  6
CONTINUOUS
 90
3
 70
0
 10
5.7378788325
 20
23.2353091736
 10
5.7290306222
 20
23.2390764212
 10
5.7258381507
 20
23.2401269542
  0
LWPOLYLINE
  5
3CD
100
AcDbEntity
  8
218_STAMPATO
100
AcDbPolyline
 62
7
  6
CONTINUOUS
 90
10
 70
0
 10
13.8003094038
 20
19.6968237116
 10
13.8364150234
 20
19.6811159867
 10
13.8719496258
 20
19.6651074993
 10
13.9069132109
 20
19.6487982492
 10
13.9413159482
 20
19.6321831518
 10
13.9751476682
 20
19.6152672918
 10
14.0083778629
 20
19.5980659232
 10
14.0409963631
 20
19.5805841306
 10
14.0730133381
 20
19.5628168294
 10
14.1044287878
 20
19.5447640196
  0
LWPOLYLINE
  5
3CE
100
AcDbEntity
  8
218_STAMPATO
100
AcDbPolyline
 62
7
  6
CONTINUOUS
 90
10
 70
0
 10
6.3756882014
 20
23.4091343128
 10
6.411793821
 20
23.393426588
 10
6.4473284234
 20
23.3774181005
 10
6.4822920085
 20
23.3611088504
 10
6.5166947457
 20
23.344493753
 10
6.5505264657
 20
23.327577893
 10
6.5837566605
 20
23.3103765244
 10
6.6163751607
 20
23.2928947318
 10
6.6483921356
 20
23.2751274307
 10
6.6798075853
 20
23.2570746208
  0
LINE
  5
3CF
100
AcDbEntity
  8
218_STAMPATO
100
AcDbLine
 62
7
  6
CONTINUOUS
 10
6.1921503603
 20
23.4852433808
 11
6.8236816814
 21
23.1694777202
  0
LINE
  5
3D0
100
AcDbEntity
  8
218_STAMPATO
100
AcDbLine
 62
7
  6
CONTINUOUS
 10
13.6167715628
 20
19.7729327795
 11
14.2483028838
 21
19.457167119
  0
LINE
  5
3D1
100
AcDbEntity
  8
218_STAMPATO
100
AcDbLine
 62
7
  6
CONTINUOUS
 10
13.8003094038
 20
19.6968237116
 11
14.1044287878
 21
19.5447640196
  0
LINE
  5
3D2
100
AcDbEntity
  8
218_STAMPATO
100
AcDbLine
 62
7
  6
CONTINUOUS
 10
6.6798075853
 20
23.2570746208
 11
6.3756882014
 21
23.4091343128
  0
LINE
  5
3D3
100
AcDbEntity
  8
715
100
AcDbLine
 62
7
  6
CONTINUOUS
 10
6.5864069699
 20
22.8110451049
 11
6.6845929946
 21
22.7618826415
  0
LINE
  5
3D4
100
AcDbEntity
  8
715
100
AcDbLine
 62
7
  6
CONTINUOUS
 10
14.0110281724
 20
19.0987345037
 11
14.1092141971
 21
19.0495720403
  0
LWPOLYLINE
  5
3D5
100
AcDbEntity
  8
715
100
AcDbPolyline
 62
7
  6
CONTINUOUS
 90
10
 70
0
 10
6.5484629026
 20
22.8237127599
 10
6.450985849
 20
22.8737681916
 10
6.3553726471
 20
22.9227440672
 10
6.2616232972
 20
22.9706403868
 10
6.1697522159
 20
23.0174585746
 10
6.0797449865
 20
23.0631972063
 10
5.9915583585
 20
23.1078520093
 10
5.9051779151
 20
23.1514215595
 10
5.8206180731
 20
23.1939072809
 10
5.7378788325
 20
23.2353091736
  0
LWPOLYLINE
  5
3D6
100
AcDbEntity
  8
715
100
AcDbPolyline
 62
7
  6
CONTINUOUS
 90
10
 70
0
 10
13.9730841051
 20
19.1114021587
 10
13.8756070514
 20
19.1614575903
 10
13.7799938496
 20
19.210433466
 10
13.6862444996
 20
19.2583297856
 10
13.5943734183
 20
19.3051479733
 10
13.5043661889
 20
19.3508866051
 10
13.4161795609
 20
19.3955414081
 10
13.3297991175
 20
19.4391109582
 10
13.2452392755
 20
19.4815966797
 10
13.162500035
 20
19.5229985724
  0
LINE
  5
3D7
100
AcDbEntity
  8
715
100
AcDbLine
 62
7
  6
CONTINUOUS
 10
13.9808425338
 20
19.1068156866
 11
13.9730841051
 21
19.1114021587
  0
LWPOLYLINE
  5
3D8
100
AcDbEntity
  8
715
100
AcDbPolyline
 62
250
  6
CONTINUOUS
 90
4
 70
0
 10
14.0110281724
 20
19.0987345037
 10
14.0355511627
 20
19.0782301253
 10
14.0599169244
 20
19.0569518609
 10
14.0821836868
 20
19.0365988522
  0
LWPOLYLINE
  5
3D9
100
AcDbEntity
  8
715
100
AcDbPolyline
 62
250
  6
CONTINUOUS
 90
6
 70
0
 10
13.9173915732
 20
19.0924384952
 10
13.9402520026
 20
19.0728597618
 10
13.9628295409
 20
19.0525067152
 10
13.9851241881
 20
19.0313793556
 10
14.0071696865
 20
19.0095494687
 10
14.0130653732
 20
19.0034257868
  0
LWPOLYLINE
  5
3DA
100
AcDbEntity
  8
218_STAMPATO
100
AcDbPolyline
 62
250
  6
CONTINUOUS
 90
26
 70
0
 10
18.1814449562
 20
20.2959499067
 10
18.17439566
 20
20.2993829149
 10
18.1591429502
 20
20.3062033378
 10
18.1435742891
 20
20.3123510679
 10
18.1277012531
 20
20.3178215337
 10
18.1115356449
 20
20.3226106677
 10
18.0950894847
 20
20.3267149088
 10
18.0783750015
 20
20.3301312052
 10
18.0614046235
 20
20.3328570167
 10
18.0441909695
 20
20.3348903164
 10
18.0267468389
 20
20.3362295924
 10
18.0090852021
 20
20.3368738488
 10
17.9912191922
 20
20.3368226067
 10
17.9731620964
 20
20.3360759042
 10
17.9549273428
 20
20.3346342969
 10
17.936528489
 20
20.332498857
 10
17.9179792133
 20
20.3296711723
 10
17.8992932952
 20
20.3261533425
 10
17.880484642
 20
20.3219479853
 10
17.8615672769
 20
20.3170582378
 10
17.8425552868
 20
20.3114877464
 10
17.823462789
 20
20.3052406521
 10
17.8043039571
 20
20.2983215954
 10
17.7850930294
 20
20.2907357194
 10
17.765844298
 20
20.2824886687
 10
17.7465720756
 20
20.2735865771
  0
LWPOLYLINE
  5
3DB
100
AcDbEntity
  8
218_STAMPATO
100
AcDbPolyline
 62
250
  6
CONTINUOUS
 90
24
 70
0
 10
4.5967039745
 20
26.8485206277
 10
4.5762852155
 20
26.8585040341
 10
4.5558732891
 20
26.8677413802
 10
4.5354854604
 20
26.8762248528
 10
4.5151389739
 20
26.8839472763
 10
4.4948510392
 20
26.8909021189
 10
4.4746388164
 20
26.8970834981
 10
4.4545194017
 20
26.9024861853
 10
4.4345098125
 20
26.9071056109
 10
4.4146269736
 20
26.9109378676
 10
4.3948877024
 20
26.9139797139
 10
4.3753086949
 20
26.9162285772
 10
4.3559065116
 20
26.917682555
 10
4.3366975635
 20
26.9183404177
 10
4.3176980979
 20
26.9182016088
 10
4.2989241852
 20
26.9172662458
 10
4.2803917049
 20
26.9155351197
 10
4.2621163323
 20
26.9130096948
 10
4.2441135251
 20
26.9096921072
 10
4.2263985107
 20
26.905585163
 10
4.2089862729
 20
26.9006923359
 10
4.1918915395
 20
26.8950177645
 10
4.1751287697
 20
26.8885662484
 10
4.157819224
 20
26.8809235626
  0
LINE
  5
3DC
100
AcDbEntity
  8
218_STAMPATO
100
AcDbLine
 62
7
  6
CONTINUOUS
 10
16.7058876056
 20
20.2958353267
 11
13.5970720348
 21
21.8502431121
  0
LINE
  5
3DD
100
AcDbEntity
  8
218_STAMPATO
100
AcDbLine
 62
7
  6
CONTINUOUS
 10
9.2812664031
 20
24.008145928
 11
6.1724508324
 21
25.5625537133
  0
LINE
  5
3DE
100
AcDbEntity
  8
218_STAMPATO
100
AcDbLine
 62
250
  6
CONTINUOUS
 10
17.2141742177
 20
20.5397855061
 11
17.7465720756
 21
20.2735865771
  0
LINE
  5
3DF
100
AcDbEntity
  8
218_STAMPATO
100
AcDbLine
 62
250
  6
CONTINUOUS
 10
12.5537230349
 20
22.8700110975
 11
9.7895530152
 21
24.2520961073
  0
LINE
  5
3E0
100
AcDbEntity
  8
218_STAMPATO
100
AcDbLine
 62
250
  6
CONTINUOUS
 10
5.1291018324
 20
26.5823216987
 11
4.5967039745
 21
26.8485206277
  0
LINE
  5
3E1
100
AcDbEntity
  8
218_STAMPATO
100
AcDbLine
 62
7
  6
CONTINUOUS
 10
17.5608062089
 20
20.6062692803
 11
18.1814449562
 21
20.2959499067
  0
LINE
  5
3E2
100
AcDbEntity
  8
218_STAMPATO
100
AcDbLine
 62
7
  6
CONTINUOUS
 10
13.0768368048
 20
22.8482539824
 11
10.1361850065
 21
24.3185798816
  0
LINE
  5
3E3
100
AcDbEntity
  8
218_STAMPATO
100
AcDbLine
 62
7
  6
CONTINUOUS
 10
5.6522156023
 20
26.5605645836
 11
5.0315768551
 21
26.8708839573
  0
LWPOLYLINE
  5
3E4
100
AcDbEntity
  8
218_STAMPATO
100
AcDbPolyline
 62
7
  6
CONTINUOUS
 90
104
 70
0
 10
19.0771289367
 20
17.7519181152
 10
19.0898502814
 20
17.74266329
 10
19.1346718932
 20
17.7087949685
 10
19.1791557401
 20
17.6739200563
 10
19.2233134001
 20
17.6380352688
 10
19.2671439773
 20
17.6011450776
 10
19.3106157297
 20
17.563279744
 10
19.3536933502
 20
17.5244749073
 10
19.3963562709
 20
17.4847548854
 10
19.4385939777
 20
17.4441350816
 10
19.4803864791
 20
17.4026401523
 10
19.5217126052
 20
17.3602968822
 10
19.5625633588
 20
17.317120098
 10
19.6029364806
 20
17.2731167214
 10
19.6428273043
 20
17.228295039
 10
19.6822097768
 20
17.1826873623
 10
19.7210497022
 20
17.1363377402
 10
19.7593186005
 20
17.0892862756
 10
19.797017227
 20
17.0415380339
 10
19.8341549643
 20
16.9930848723
 10
19.8707306666
 20
16.9439297329
 10
19.9067158622
 20
16.8941121585
 10
19.9420788135
 20
16.8436791185
 10
19.9767961012
 20
16.7926686764
 10
20.0108651242
 20
16.7410892017
 10
20.0442856961
 20
16.6889438369
 10
20.0770496677
 20
16.6362467277
 10
20.1091383653
 20
16.5830291717
 10
20.1405355022
 20
16.5293199285
 10
20.1712268464
 20
16.4751453319
 10
20.20120178
 20
16.4205259516
 10
20.2304498137
 20
16.3654822723
 10
20.2589584176
 20
16.3100389654
 10
20.2867163545
 20
16.2542187867
 10
20.3137150368
 20
16.1980393444
 10
20.3399436979
 20
16.1415227497
 10
20.3653901807
 20
16.0846946629
 10
20.3900438869
 20
16.0275779913
 10
20.4138944061
 20
15.9701956882
 10
20.4369306087
 20
15.9125730645
 10
20.4591412778
 20
15.854736586
 10
20.4805137436
 20
15.7967178919
 10
20.5010410942
 20
15.7385340395
 10
20.5207204178
 20
15.6801893892
 10
20.539547197
 20
15.6216903285
 10
20.5575053734
 20
15.563079064
 10
20.5745758008
 20
15.5044135102
 10
20.5907436716
 20
15.445744057
 10
20.6060091283
 20
15.3870692339
 10
20.6203754004
 20
15.3283689043
 10
20.6338395913
 20
15.2696392886
 10
20.6463856618
 20
15.2109330855
 10
20.657997404
 20
15.1523143818
 10
20.6686643095
 20
15.0938302706
 10
20.6783848553
 20
15.0354818898
 10
20.6871572397
 20
14.9772638395
 10
20.6949763733
 20
14.9191835942
 10
20.7018325989
 20
14.8612822115
 10
20.7077172679
 20
14.8036040408
 10
20.7126246866
 20
14.7461754319
 10
20.7165498712
 20
14.6890174836
 10
20.7194872739
 20
14.6321654148
 10
20.7214324229
 20
14.5756523717
 10
20.7223819204
 20
14.5194914041
 10
20.7223317874
 20
14.4636868584
 10
20.7212764741
 20
14.4082284292
 10
20.7192112874
 20
14.3531733979
 10
20.7161372708
 20
14.2986249532
 10
20.7120588452
 20
14.2446507733
 10
20.7069743749
 20
14.1912235676
 10
20.7008770073
 20
14.1383027095
 10
20.6937547815
 20
14.0858458658
 10
20.6856122256
 20
14.0339408471
 10
20.6764715916
 20
13.9827387297
 10
20.6663513673
 20
13.9323171505
 10
20.6552469189
 20
13.8826306498
 10
20.6431503487
 20
13.8336421927
 10
20.6300508331
 20
13.7853221154
 10
20.6159630559
 20
13.737738473
 10
20.6009199576
 20
13.6909983486
 10
20.5849382693
 20
13.6451368666
 10
20.5680205265
 20
13.6001459937
 10
20.5501858123
 20
13.5560622234
 10
20.5314497962
 20
13.5129076306
 10
20.511819979
 20
13.4706840373
 10
20.4913046904
 20
13.429396642
 10
20.4698958285
 20
13.389021604
 10
20.4476235263
 20
13.3496087623
 10
20.4245607167
 20
13.3112677436
 10
20.400767815
 20
13.2740653705
 10
20.3762269889
 20
13.2379415451
 10
20.3508952877
 20
13.2028155257
 10
20.3247553633
 20
13.1686578166
 10
20.2978522817
 20
13.1355220352
 10
20.2702346123
 20
13.1034558975
 10
20.2419374487
 20
13.0724834449
 10
20.2129653266
 20
13.0425933302
 10
20.1833240435
 20
13.0137783129
 10
20.1530360017
 20
12.9860481667
 10
20.1221187579
 20
12.9594071118
 10
20.0905695444
 20
12.9338430409
 10
20.0584002441
 20
12.9093582274
 10
20.0256387414
 20
12.8859665037
 10
19.9923057232
 20
12.8636746584
  0
LWPOLYLINE
  5
3E5
100
AcDbEntity
  8
218_STAMPATO
100
AcDbPolyline
 62
250
  6
CONTINUOUS
 90
105
 70
0
 10
19.0771289367
 20
17.6616694769
 10
19.0916716812
 20
17.6499662698
 10
19.1337267414
 20
17.614973565
 10
19.1755343725
 20
17.5790313911
 10
19.217076308
 20
17.5421554516
 10
19.258334404
 20
17.5043618531
 10
19.2992906504
 20
17.4656670938
 10
19.3399271678
 20
17.4260880661
 10
19.3802262128
 20
17.3856420516
 10
19.4201701886
 20
17.3443467112
 10
19.4597416567
 20
17.3022200733
 10
19.4989233422
 20
17.2592805277
 10
19.5376981324
 20
17.2155468279
 10
19.5760490871
 20
17.1710380807
 10
19.6139594529
 20
17.1257737306
 10
19.6514126846
 20
17.0797735332
 10
19.6883924436
 20
17.0330575557
 10
19.7248825939
 20
16.9856461807
 10
19.76086719
 20
16.9375601244
 10
19.7963304996
 20
16.8888204102
 10
19.8312570238
 20
16.8394483413
 10
19.8656315275
 20
16.7894654563
 10
19.8994390247
 20
16.7388935455
 10
19.9326647695
 20
16.6877546646
 10
19.9652942361
 20
16.6360711677
 10
19.9973131508
 20
16.583865664
 10
20.0287075158
 20
16.5311609795
 10
20.059463642
 20
16.4779800987
 10
20.0895681277
 20
16.4243461947
 10
20.119007845
 20
16.3702826521
 10
20.1477699193
 20
16.3158131101
 10
20.1758417638
 20
16.2609614058
 10
20.2032111041
 20
16.2057515273
 10
20.2298660094
 20
16.150207546
 10
20.2557948681
 20
16.0943536584
 10
20.2809863742
 20
16.038214214
 10
20.305429509
 20
15.9818137636
 10
20.329113574
 20
15.9251769923
 10
20.3520282135
 20
15.86832867
 10
20.3741634397
 20
15.8112935807
 10
20.3955096098
 20
15.7540965702
 10
20.4160574155
 20
15.6967625749
 10
20.4357978688
 20
15.6393166673
 10
20.4547223308
 20
15.5817839876
 10
20.472822528
 20
15.5241896937
 10
20.4900905706
 20
15.4665588975
 10
20.5065189345
 20
15.4089167106
 10
20.5221004539
 20
15.3512882687
 10
20.5368283143
 20
15.2936987684
 10
20.5506960727
 20
15.2361734037
 10
20.5636976682
 20
15.178737322
 10
20.5758274322
 20
15.121415573
 10
20.5870800769
 20
15.0642331453
 10
20.5974506922
 20
15.007214983
 10
20.6069347442
 20
14.9503860076
 10
20.6155280859
 20
14.8937710661
 10
20.6232269634
 20
14.8373948976
 10
20.6300280187
 20
14.7812820997
 10
20.6359282852
 20
14.7254571498
 10
20.640925187
 20
14.6699444113
 10
20.6450165405
 20
14.6147681365
 10
20.6482005579
 20
14.5599524323
 10
20.6504758489
 20
14.5055212399
 10
20.6518414208
 20
14.4514983199
 10
20.6522966775
 20
14.3979072567
 10
20.6518414203
 20
14.3447714506
 10
20.6504758478
 20
14.2921141031
 10
20.6482005562
 20
14.2399582021
 10
20.6450165382
 20
14.1883265155
 10
20.6409251842
 20
14.1372415944
 10
20.6359282817
 20
14.0867257581
 10
20.6300280147
 20
14.0368010751
 10
20.6232269588
 20
13.9874893329
 10
20.6155280807
 20
13.9388120425
 10
20.6069347384
 20
13.8907904431
 10
20.597450686
 20
13.8434455201
 10
20.58708007
 20
13.7967979736
 10
20.5758274248
 20
13.750868191
 10
20.5636976602
 20
13.7056762064
 10
20.5506960641
 20
13.6612417208
 10
20.5368283053
 20
13.617584115
 10
20.5221004443
 20
13.5747224758
 10
20.5065189244
 20
13.5326755538
 10
20.49009056
 20
13.4914617312
 10
20.4728225167
 20
13.4510989781
 10
20.4547223189
 20
13.4116048819
 10
20.4357978565
 20
13.3729966649
 10
20.4160574028
 20
13.3352912115
 10
20.3955095967
 20
13.2985050225
 10
20.374163426
 20
13.2626541827
 10
20.3520281991
 20
13.2277543198
 10
20.329113559
 20
13.1938206376
 10
20.3054294936
 20
13.1608679322
 10
20.2809863587
 20
13.1289106174
 10
20.2557948522
 20
13.09796268
 10
20.2298659928
 20
13.0680376516
 10
20.2032110868
 20
13.039148576
 10
20.1758417459
 20
13.0113080384
 10
20.1477699011
 20
12.9845281795
 10
20.1190078268
 20
12.9588207128
 10
20.0895681092
 20
12.9341968884
 10
20.0594636229
 20
12.9106674706
 10
20.0287074959
 20
12.8882427164
 10
19.9973131303
 20
12.8669323976
 10
19.9923057237
 20
12.8636746587
  0
LWPOLYLINE
  5
3E6
100
AcDbEntity
  8
218_STAMPATO
100
AcDbPolyline
 62
250
  6
CONTINUOUS
 90
34
 70
0
 10
18.7351614934
 20
19.6688498229
 10
18.7342043583
 20
19.6701108961
 10
18.7323316281
 20
19.6715266574
 10
18.7298185657
 20
19.6725679504
 10
18.7266670372
 20
19.6732340018
 10
18.7228793828
 20
19.6735243169
 10
18.7184584154
 20
19.6734386802
 10
18.7134074181
 20
19.6729771553
 10
18.7077301416
 20
19.6721400849
 10
18.7014308019
 20
19.6709280906
 10
18.6945140771
 20
19.6693420725
 10
18.6869851034
 20
19.6673832083
 10
18.678849472
 20
19.6650529527
 10
18.6701132243
 20
19.6623530362
 10
18.6607828481
 20
19.6592854637
 10
18.6508652721
 20
19.6558525132
 10
18.640367861
 20
19.6520567341
 10
18.6292984105
 20
19.6479009451
 10
18.6176651406
 20
19.6433882324
 10
18.6054766903
 20
19.638521947
 10
18.5927421109
 20
19.6333057028
 10
18.5794708591
 20
19.6277433733
 10
18.5656727902
 20
19.6218390892
 10
18.5513581507
 20
19.615597235
 10
18.5365375708
 20
19.6090224459
 10
18.5212220562
 20
19.6021196044
 10
18.5054229805
 20
19.5948938367
 10
18.489152076
 20
19.5873505086
 10
18.4724214257
 20
19.5794952217
 10
18.4552434538
 20
19.5713338096
 10
18.4376309167
 20
19.5628723329
 10
18.4195968936
 20
19.5541170752
 10
18.4011547768
 20
19.545074538
 10
18.3823182614
 20
19.5357514366
  0
LWPOLYLINE
  5
3E7
100
AcDbEntity
  8
218_STAMPATO
100
AcDbPolyline
 62
250
  6
CONTINUOUS
 90
34
 70
0
 10
18.599339172
 20
19.9031086753
 10
18.5983820198
 20
19.9043697776
 10
18.5965092896
 20
19.9057855389
 10
18.593996227
 20
19.9068268318
 10
18.5908446984
 20
19.9074928831
 10
18.5870570439
 20
19.9077831981
 10
18.5826360764
 20
19.9076975614
 10
18.5775850789
 20
19.9072360364
 10
18.5719078024
 20
19.906398966
 10
18.5656084626
 20
19.9051869716
 10
18.5586917377
 20
19.9036009534
 10
18.551162764
 20
19.9016420892
 10
18.5430271325
 20
19.8993118336
 10
18.5342908848
 20
19.896611917
 10
18.5249605085
 20
19.8935443444
 10
18.5150429325
 20
19.8901113939
 10
18.5045455214
 20
19.8863156148
 10
18.4934760708
 20
19.8821598258
 10
18.481842801
 20
19.877647113
 10
18.4696543507
 20
19.8727808277
 10
18.4569197713
 20
19.8675645834
 10
18.4436485195
 20
19.8620022539
 10
18.4298504507
 20
19.8560979698
 10
18.4155358113
 20
19.8498561156
 10
18.4007152314
 20
19.8432813266
 10
18.385399717
 20
19.8363784851
 10
18.3696006413
 20
19.8291527174
 10
18.353329737
 20
19.8216093893
 10
18.3365990868
 20
19.8137541026
 10
18.319421115
 20
19.8055926905
 10
18.301808578
 20
19.7971312139
 10
18.2837745551
 20
19.7883759562
 10
18.2653324385
 20
19.7793334191
 10
18.2464959232
 20
19.7700103178
  0
LWPOLYLINE
  5
3E8
100
AcDbEntity
  8
218_STAMPATO
100
AcDbPolyline
 62
7
  6
CONTINUOUS
 90
23
 70
0
 10
18.599339172
 20
19.9031086753
 10
18.5857590784
 20
19.9258323055
 10
18.5715860614
 20
19.9481826696
 10
18.556830345
 20
19.9701446559
 10
18.5415035729
 20
19.9917019896
 10
18.5256157431
 20
20.0128415844
 10
18.5091748568
 20
20.0335532354
 10
18.4921899236
 20
20.0538254191
 10
18.4746749559
 20
20.0736412189
 10
18.4566460753
 20
20.0929827508
 10
18.4381196859
 20
20.11183337
 10
18.4191056213
 20
20.1301839862
 10
18.3996105452
 20
20.1480282688
 10
18.3796453762
 20
20.1653556481
 10
18.359226207
 20
20.1821515917
 10
18.338367556
 20
20.1984037969
 10
18.3170820302
 20
20.2141020023
 10
18.2953861931
 20
20.2292335675
 10
18.2733014053
 20
20.2437836533
 10
18.2508480414
 20
20.2577395137
 10
18.228037618
 20
20.271094668
 10
18.2048786484
 20
20.2838441597
 10
18.1814454838
 20
20.2959496429
  0
LWPOLYLINE
  5
3E9
100
AcDbEntity
  8
218_STAMPATO
100
AcDbPolyline
 62
250
  6
CONTINUOUS
 90
28
 70
0
 10
18.2464959232
 20
19.7700103178
 10
18.2318864227
 20
19.7950046369
 10
18.2168559917
 20
19.819666138
 10
18.2014173431
 20
19.8439739617
 10
18.1855835356
 20
19.8679075477
 10
18.1693679618
 20
19.8914466524
 10
18.1527843372
 20
19.9145713656
 10
18.1358466888
 20
19.9372621279
 10
18.1185693429
 20
19.9594997468
 10
18.1009669132
 20
19.9812654131
 10
18.0830542882
 20
20.0025407168
 10
18.0648466191
 20
20.0233076626
 10
18.0463593063
 20
20.0435486853
 10
18.0276079869
 20
20.0632466644
 10
18.0086085213
 20
20.0823849388
 10
17.9893769799
 20
20.1009473209
 10
17.9699296291
 20
20.11891811
 10
17.9502829181
 20
20.1362821061
 10
17.9304534647
 20
20.153024622
 10
17.9104580411
 20
20.1691314965
 10
17.8903135601
 20
20.1845891061
 10
17.8700370603
 20
20.1993843761
 10
17.8496456923
 20
20.2135047924
 10
17.8291567036
 20
20.2269384114
 10
17.8085874244
 20
20.2396738708
 10
17.7879552527
 20
20.2517003984
 10
17.7672776399
 20
20.2630078219
 10
17.7465720756
 20
20.2735865771
  0
LINE
  5
3EA
100
AcDbEntity
  8
218_STAMPATO
100
AcDbLine
 62
250
  6
CONTINUOUS
 10
18.2464959232
 20
19.7700103178
 11
18.3823182614
 21
19.5357514366
  0
LINE
  5
3EB
100
AcDbEntity
  8
218_STAMPATO
100
AcDbLine
 62
7
  6
CONTINUOUS
 10
18.599339172
 20
19.9031086753
 11
18.7351615102
 21
19.668849794
  0
LWPOLYLINE
  5
3EC
100
AcDbEntity
  8
218_STAMPATO
100
AcDbPolyline
 62
250
  6
CONTINUOUS
 90
37
 70
0
 10
18.3823182614
 20
19.5357514366
 10
18.4039990691
 20
19.498012765
 10
18.4251878693
 20
19.4599445177
 10
18.4458745379
 20
19.4215647867
 10
18.4660491181
 20
19.3828918637
 10
18.4857020511
 20
19.3439440815
 10
18.5048241711
 20
19.3047398002
 10
18.5234064011
 20
19.2652975419
 10
18.5414397995
 20
19.2256361643
 10
18.5589157897
 20
19.1857747009
 10
18.5758260154
 20
19.145732171
 10
18.5921624265
 20
19.1055275484
 10
18.6079173171
 20
19.065179932
 10
18.6230831815
 20
19.0247085119
 10
18.6376527792
 20
18.9841325329
 10
18.6516192219
 20
18.9434712653
 10
18.6649758705
 20
18.9027440254
 10
18.6777163419
 20
18.8619702112
 10
18.6898345704
 20
18.8211692653
 10
18.7013247976
 20
18.7803606043
 10
18.7121815493
 20
18.7395636408
 10
18.722399642
 20
18.6987978179
 10
18.7319742257
 20
18.6580825691
 10
18.7409007556
 20
18.6174372377
 10
18.7491749693
 20
18.5768810985
 10
18.7567929543
 20
18.5364334607
 10
18.7637510961
 20
18.4961135742
 10
18.7700460473
 20
18.4559405495
 10
18.7756748521
 20
18.4159334585
 10
18.7806348377
 20
18.3761114076
 10
18.7849235648
 20
18.3364934423
 10
18.7885390278
 20
18.2970985475
 10
18.7914795528
 20
18.2579453644
 10
18.7937436781
 20
18.2190522677
 10
18.7953303243
 20
18.1804376966
 10
18.796238808
 20
18.1421201416
 10
18.796468737
 20
18.104117862
  0
ELLIPSE
  5
3ED
100
AcDbEntity
  8
0
100
AcDbEllipse
 62
7
  6
CONTINUOUS
 10
-13.48754654
 20
20.1178984058
 30
0.0
 11
-0.3066085049
 21
0.7391341744
 31
0.0
 40
0.6456738946
 41
-0.6404532698
 42
0.0190629805
  0
ELLIPSE
  5
3EE
100
AcDbEntity
  8
0
100
AcDbEllipse
 62
7
  6
CONTINUOUS
 10
1.078465327
 20
12.8348924723
 30
0.0
 11
-0.3064344976
 21
0.7390167239
 31
0.0
 40
0.6459566419
 41
-2.2110908973
 42
-0.6405230046
  0
ELLIPSE
  5
3EF
100
AcDbEntity
  8
0
100
AcDbEllipse
 62
7
  6
CONTINUOUS
 10
-0.9981257713
 20
-24.5742060192
 30
0.0
 11
-0.3066085049
 21
0.7391341744
 31
0.0
 40
0.6456738946
 41
-3.1608563878
 42
-2.2114780307
  0
ELLIPSE
  5
3F0
100
AcDbEntity
  8
268
100
AcDbEllipse
 62
7
  6
CONTINUOUS
 10
-0.1097997393
 20
-25.678141645
 30
0.0
 11
0.110769438
 21
0.2241226716
 31
0.0
 40
0.6088015717
 41
-4.0304836828
 42
-3.1443955108
  0
ELLIPSE
  5
3F1
100
AcDbEntity
  8
268
100
AcDbEllipse
 62
7
  6
CONTINUOUS
 10
-13.4741179037
 20
22.5569929704
 30
0.0
 11
0.110769438
 21
0.2241226716
 31
0.0
 40
0.6088015717
 41
-4.0304836828
 42
-3.1443650652
  0
ELLIPSE
  5
3F2
100
AcDbEntity
  8
268
100
AcDbEllipse
 62
7
  6
CONTINUOUS
 10
-0.1097997393
 20
15.8748338882
 30
0.0
 11
0.110769438
 21
0.2241226716
 31
0.0
 40
0.6088015717
 41
-4.0304836828
 42
-3.1443650652
  0
ELLIPSE
  5
3F3
100
AcDbEntity
  8
268
100
AcDbEllipse
 62
7
  6
CONTINUOUS
 10
3.946808142
 20
14.5831158391
 30
0.0
 11
-0.1565168911
 21
0.3130623908
 31
0.0
 40
0.6123677712
 41
-2.2554744912
 42
-0.6846781644
  0
ELLIPSE
  5
3F4
100
AcDbEntity
  8
268
100
AcDbEllipse
 62
7
  6
CONTINUOUS
 10
3.946808142
 20
-23.5934660056
 30
0.0
 11
-0.1565168911
 21
0.3130623908
 31
0.0
 40
0.6123677712
 41
-3.1363904945
 42
-2.2554744912
  0
ELLIPSE
  5
3F5
100
AcDbEntity
  8
268
100
AcDbEllipse
 62
7
  6
CONTINUOUS
 10
-1.8197874065
 20
23.6883471442
 30
0.0
 11
0.2999991737
 21
-0.0014183462
 31
0.0
 40
0.4964289597
 41
0.7877451926
 42
2.3527237553
  0
ELLIPSE
  5
3F6
100
AcDbEntity
  8
268
100
AcDbEllipse
 62
7
  6
CONTINUOUS
 10
3.7346761077
 20
20.9111153871
 30
0.0
 11
0.2999991737
 21
-0.0014183462
 31
0.0
 40
0.4964289597
 41
0.7877451926
 42
2.3585415194
  0
ELLIPSE
  5
3F7
100
AcDbEntity
  8
268
100
AcDbEllipse
 62
7
  6
CONTINUOUS
 10
3.2740282432
 20
15.2006868499
 30
0.0
 11
0.110769438
 21
0.2241226716
 31
0.0
 40
0.6088015717
 41
1.2055040732
 42
2.2526937431
  0
ELLIPSE
  5
3F8
100
AcDbEntity
  8
268
100
AcDbEllipse
 62
7
  6
CONTINUOUS
 10
-10.0902899213
 20
21.8828459322
 30
0.0
 11
0.110769438
 21
0.2241226716
 31
0.0
 40
0.6088015717
 41
1.2055040732
 42
2.2526937431
  0
ELLIPSE
  5
3F9
100
AcDbEntity
  8
268
100
AcDbEllipse
 62
7
  6
CONTINUOUS
 10
3.6255247203
 20
16.128492002
 30
0.0
 11
0.110769438
 21
0.2241226716
 31
0.0
 40
0.6088015717
 41
-1.9360885804
 42
-0.8888910292
  0
ELLIPSE
  5
3FA
100
AcDbEntity
  8
268
100
AcDbEllipse
 62
7
  6
CONTINUOUS
 10
2.0053498639
 20
17.1995084065
 30
0.0
 11
0.1128509832
 21
0.2230818409
 31
0.0
 40
0.6159267166
 41
0.0028979148
 42
0.6817883054
  0
ELLIPSE
  5
3FB
100
AcDbEntity
  8
268
100
AcDbEllipse
 62
7
  6
CONTINUOUS
 10
-0.1097997393
 20
16.1282052819
 30
0.0
 11
0.110769438
 21
0.2241226716
 31
0.0
 40
0.6088015717
 41
0.6877230618
 42
2.2527016244
  0
ELLIPSE
  5
3FC
100
AcDbEntity
  8
268
100
AcDbEllipse
 62
7
  6
CONTINUOUS
 10
-9.7387934441
 20
22.8106510842
 30
0.0
 11
0.110769438
 21
0.2241226716
 31
0.0
 40
0.6088015717
 41
-1.9360885804
 42
-0.8888910292
  0
ELLIPSE
  5
3FD
100
AcDbEntity
  8
268
100
AcDbEllipse
 62
7
  6
CONTINUOUS
 10
-11.3589683005
 20
23.8816674887
 30
0.0
 11
0.1128509832
 21
0.2230818409
 31
0.0
 40
0.6159267166
 41
0.0028979148
 42
0.6817883054
  0
ELLIPSE
  5
3FE
100
AcDbEntity
  8
268
100
AcDbEllipse
 62
7
  6
CONTINUOUS
 10
-13.4741179037
 20
22.8103643641
 30
0.0
 11
0.110769438
 21
0.2241226716
 31
0.0
 40
0.6088015717
 41
0.6877230618
 42
2.2527016244
  0
ELLIPSE
  5
3FF
100
AcDbEntity
  8
268
100
AcDbEllipse
 62
7
  6
CONTINUOUS
 10
3.6255247203
 20
-25.4320411138
 30
0.0
 11
0.110769438
 21
0.2241226716
 31
0.0
 40
0.6088015717
 41
-2.4538695918
 42
-0.8888910292
  0
ELLIPSE
  5
400
100
AcDbEntity
  8
268
100
AcDbEllipse
 62
7
  6
CONTINUOUS
 10
-0.1097997393
 20
-25.4247702512
 30
0.0
 11
0.110769438
 21
0.2241226716
 31
0.0
 40
0.6088015717
 41
1.2055040732
 42
2.2527016244
  0
ELLIPSE
  5
401
100
AcDbEntity
  8
268
100
AcDbEllipse
 62
7
  6
CONTINUOUS
 10
3.6255247203
 20
-25.1711121374
 30
0.0
 11
0.110769438
 21
0.2241226716
 31
0.0
 40
0.6088015717
 41
5.394294278
 42
6.4414918292
  0
ELLIPSE
  5
402
100
AcDbEntity
  8
268
100
AcDbEllipse
 62
7
  6
CONTINUOUS
 10
-9.7387934441
 20
23.0715800605
 30
0.0
 11
0.110769438
 21
0.2241226716
 31
0.0
 40
0.6088015717
 41
5.394294278
 42
6.9592728406
  0
ELLIPSE
  5
403
100
AcDbEntity
  8
268
100
AcDbEllipse
 62
7
  6
CONTINUOUS
 10
3.6255247203
 20
16.3894209783
 30
0.0
 11
0.110769438
 21
0.2241226716
 31
0.0
 40
0.6088015717
 41
5.394294278
 42
6.9592728406
  0
ELLIPSE
  5
404
100
AcDbEntity
  8
268
100
AcDbEllipse
 62
7
  6
CONTINUOUS
 10
-1.6393354294
 20
22.3662869743
 30
0.0
 11
0.2999981629
 21
-0.0021225547
 31
0.0
 40
0.4946372042
 41
-0.7818985079
 42
0.0034997008
  0
ELLIPSE
  5
405
100
AcDbEntity
  8
268
100
AcDbEllipse
 62
7
  6
CONTINUOUS
 10
3.9151280848
 20
19.5890552172
 30
0.0
 11
0.2999981629
 21
-0.0021225547
 31
0.0
 40
0.4946372042
 41
-0.7760807437
 42
0.0035109161
  0
ELLIPSE
  5
406
100
AcDbEntity
  8
268
100
AcDbEllipse
 62
7
  6
CONTINUOUS
 10
-7.7882811568
 20
20.7681657763
 30
0.0
 11
0.2999991335
 21
0.0014318851
 31
0.0
 40
0.5035541159
 41
8.6427941204
 42
10.207772683
  0
ELLIPSE
  5
407
100
AcDbEntity
  8
268
100
AcDbEllipse
 62
7
  6
CONTINUOUS
 10
-13.8015720658
 20
20.971095675
 30
0.0
 11
-0.1565168911
 21
0.3130623908
 31
0.0
 40
0.6123677712
 41
-0.6846781644
 42
0.8861181623
  0
ELLIPSE
  5
408
100
AcDbEntity
  8
268
100
AcDbEllipse
 62
7
  6
CONTINUOUS
 10
1.4719344079
 20
13.3343424382
 30
0.0
 11
-0.1565168911
 21
0.3130623908
 31
0.0
 40
0.6123677712
 41
-2.2554744912
 42
-0.6846781644
  0
ELLIPSE
  5
409
100
AcDbEntity
  8
268
100
AcDbEllipse
 62
7
  6
CONTINUOUS
 10
-1.9957720888
 20
17.8719112423
 30
0.0
 11
0.2999991335
 21
0.0014318851
 31
0.0
 40
0.5035541159
 41
-2.3585979313
 42
-0.7936193687
  0
ELLIPSE
  5
40A
100
AcDbEntity
  8
268
100
AcDbEllipse
 62
7
  6
CONTINUOUS
 10
-1.9957720888
 20
16.6577121664
 30
0.0
 11
0.2999980272
 21
0.0021530184
 31
0.0
 40
0.5053247124
 41
-2.3598210761
 42
-0.7948425135
  0
ELLIPSE
  5
40B
100
AcDbEntity
  8
268
100
AcDbEllipse
 62
7
  6
CONTINUOUS
 10
-7.7882811568
 20
19.5539667004
 30
0.0
 11
0.2999980272
 21
0.0021530184
 31
0.0
 40
0.5053247124
 41
3.1379773283
 42
3.9233642311
  0
ELLIPSE
  5
40C
100
AcDbEntity
  8
268
100
AcDbEllipse
 62
7
  6
CONTINUOUS
 10
3.9151280848
 20
20.8208893986
 30
0.0
 11
0.2999991737
 21
-0.0014183462
 31
0.0
 40
0.4964289597
 41
-0.77723337
 42
0.7877451926
  0
ELLIPSE
  5
40D
100
AcDbEntity
  8
268
100
AcDbEllipse
 62
7
  6
CONTINUOUS
 10
-1.6393354294
 20
23.5981211556
 30
0.0
 11
0.2999991737
 21
-0.0014183462
 31
0.0
 40
0.4964289597
 41
-0.7830511342
 42
0.7877451926
  0
ELLIPSE
  5
40E
100
AcDbEntity
  8
268
100
AcDbEllipse
 62
7
  6
CONTINUOUS
 10
1.4719344079
 20
-24.8195663389
 30
0.0
 11
-0.1565168911
 21
0.3130623908
 31
0.0
 40
0.6123677712
 41
2.4569144891
 42
4.0277108159
  0
ELLIPSE
  5
40F
100
AcDbEntity
  8
268
100
AcDbEllipse
 62
7
  6
CONTINUOUS
 10
3.2740282432
 20
-24.5989172894
 30
0.0
 11
0.110769438
 21
0.2241226716
 31
0.0
 40
0.6088015717
 41
2.2527095058
 42
3.2998991756
  0
ELLIPSE
  5
410
100
AcDbEntity
  8
268
100
AcDbEllipse
 62
7
  6
CONTINUOUS
 10
1.4980336364
 20
15.3242885941
 30
0.0
 11
0.1128509832
 21
0.2230818409
 31
0.0
 40
0.6159267166
 41
0.6934238338
 42
2.2584023964
  0
ELLIPSE
  5
411
100
AcDbEntity
  8
268
100
AcDbEllipse
 62
7
  6
CONTINUOUS
 10
1.4980336364
 20
15.0709172004
 30
0.0
 11
0.1128509832
 21
0.2230818409
 31
0.0
 40
0.6159267166
 41
-4.0247829108
 42
-2.9775853596
  0
ELLIPSE
  5
412
100
AcDbEntity
  8
268
100
AcDbEllipse
 62
7
  6
CONTINUOUS
 10
-11.8662845281
 20
22.0064476763
 30
0.0
 11
0.1128509832
 21
0.2230818409
 31
0.0
 40
0.6159267166
 41
0.6934238338
 42
2.2584023964
  0
ELLIPSE
  5
413
100
AcDbEntity
  8
268
100
AcDbEllipse
 62
7
  6
CONTINUOUS
 10
-11.8662845281
 20
21.7530762826
 30
0.0
 11
0.1128509832
 21
0.2230818409
 31
0.0
 40
0.6159267166
 41
-4.0247829108
 42
-2.9775853596
  0
ELLIPSE
  5
414
100
AcDbEntity
  8
268
100
AcDbEllipse
 62
7
  6
CONTINUOUS
 10
1.4980336364
 20
-26.4820583328
 30
0.0
 11
0.1128509832
 21
0.2230818409
 31
0.0
 40
0.6159267166
 41
-4.0247829108
 42
-2.4598043482
  0
ELLIPSE
  5
415
100
AcDbEntity
  8
268
100
AcDbEllipse
 62
7
  6
CONTINUOUS
 10
1.4980336364
 20
-26.228686939
 30
0.0
 11
0.1128509832
 21
0.2230818409
 31
0.0
 40
0.6159267166
 41
1.2112048452
 42
2.2584023964
  0
ELLIPSE
  5
416
100
AcDbEntity
  8
268
100
AcDbEllipse
 62
7
  6
CONTINUOUS
 10
-0.1802718983
 20
-19.3779119721
 30
0.0
 11
-0.542618321
 21
0.8478124368
 31
0.0
 40
0.5451249042
 41
-3.2164376038
 42
-2.3115524019
  0
ELLIPSE
  5
417
100
AcDbEntity
  8
218_STAMPATO
100
AcDbEllipse
 62
7
  6
CONTINUOUS
 10
3.911452803
 20
22.4806423714
 30
0.0
 11
2.7499924258
 21
-0.0130015067
 31
0.0
 40
0.4964289597
 41
2.3672681657
 42
2.9293761837
  0
ELLIPSE
  5
418
100
AcDbEntity
  8
218_STAMPATO
100
AcDbEllipse
 62
7
  6
CONTINUOUS
 10
11.3360740054
 20
18.7683317702
 30
0.0
 11
2.7499924258
 21
-0.0130015067
 31
0.0
 40
0.4964289597
 41
2.3672681657
 42
2.9293761949
  0
ELLIPSE
  5
419
100
AcDbEntity
  8
218_STAMPATO
100
AcDbEllipse
 62
7
  6
CONTINUOUS
 10
12.0078254475
 20
18.6664083203
 30
0.0
 11
2.7583876426
 21
-0.0130411979
 31
0.0
 40
0.4964289597
 41
0.8884696282
 42
2.3585415194
  0
ELLIPSE
  5
41A
100
AcDbEntity
  8
218_STAMPATO
100
AcDbEllipse
 62
7
  6
CONTINUOUS
 10
12.0078254475
 20
18.6664083203
 30
0.0
 11
2.7583876426
 21
-0.0130411979
 31
0.0
 40
0.4964289597
 41
0.4412294433
 42
0.6870207571
  0
ELLIPSE
  5
41B
100
AcDbEntity
  8
218_STAMPATO
100
AcDbEllipse
 62
7
  6
CONTINUOUS
 10
4.5832042451
 20
22.3787189216
 30
0.0
 11
2.7583876426
 21
-0.0130411979
 31
0.0
 40
0.4964289597
 41
0.4412294433
 42
0.6870207571
  0
ELLIPSE
  5
41C
100
AcDbEntity
  8
218_STAMPATO
100
AcDbEllipse
 62
7
  6
CONTINUOUS
 10
4.5832042451
 20
22.3787189216
 30
0.0
 11
2.7583876426
 21
-0.0130411979
 31
0.0
 40
0.4964289597
 41
0.8884696282
 42
2.3585415194
  0
ELLIPSE
  5
41D
100
AcDbEntity
  8
218_STAMPATO
100
AcDbEllipse
 62
7
  6
CONTINUOUS
 10
16.7935241516
 20
19.8718763202
 30
0.0
 11
0.79574694
 21
0.7129684349
 31
0.0
 40
0.2882345029
 41
0.1135239366
 42
0.7807533904
  0
ELLIPSE
  5
41E
100
AcDbEntity
  8
218_STAMPATO
100
AcDbEllipse
 62
7
  6
CONTINUOUS
 10
9.3689029492
 20
23.5841869215
 30
0.0
 11
0.79574694
 21
0.7129684349
 31
0.0
 40
0.2882345029
 41
0.1135239366
 42
0.7807533904
  0
ELLIPSE
  5
41F
100
AcDbEntity
  8
218_STAMPATO
100
AcDbEllipse
 62
7
  6
CONTINUOUS
 10
12.896136081
 20
21.8205703555
 30
0.0
 11
0.4410298232
 21
0.8975092442
 31
0.0
 40
0.607010042
 41
-0.8902711325
 42
-0.7587130969
  0
ELLIPSE
  5
420
100
AcDbEntity
  8
218_STAMPATO
100
AcDbEllipse
 62
7
  6
CONTINUOUS
 10
5.4715148786
 20
25.5328809568
 30
0.0
 11
0.4410298232
 21
0.8975092442
 31
0.0
 40
0.607010042
 41
-0.8902711325
 42
-0.7587130969
  0
ELLIPSE
  5
421
100
AcDbEntity
  8
218_STAMPATO
100
AcDbEllipse
 62
7
  6
CONTINUOUS
 10
5.5250704686
 20
25.5061031617
 30
0.0
 11
-0.3106730325
 21
1.1082908718
 31
0.0
 40
0.6760995073
 41
4.9783291412
 42
6.4001141399
  0
ELLIPSE
  5
422
100
AcDbEntity
  8
218_STAMPATO
100
AcDbEllipse
 62
7
  6
CONTINUOUS
 10
12.9496916711
 20
21.7937925605
 30
0.0
 11
-0.3106730325
 21
1.1082908718
 31
0.0
 40
0.6760995073
 41
4.9783291412
 42
6.4001141399
  0
ELLIPSE
  5
423
100
AcDbEntity
  8
218_STAMPATO
100
AcDbEllipse
 62
7
  6
CONTINUOUS
 10
11.3125409172
 20
19.9955440057
 30
0.0
 11
3.3022643479
 21
-0.04629945
 31
0.0
 40
0.4892378494
 41
2.3616770883
 42
5.5059722822
  0
ELLIPSE
  5
424
100
AcDbEntity
  8
218_STAMPATO
100
AcDbEllipse
 62
7
  6
CONTINUOUS
 10
12.0078254475
 20
20.646896433
 30
0.0
 11
2.7583515655
 21
-1.4175703156
 31
0.0
 40
0.0109499087
 41
-0.8804952881
 42
-0.85781018
  0
ELLIPSE
  5
425
100
AcDbEntity
  8
218_STAMPATO
100
AcDbEllipse
 62
7
  6
CONTINUOUS
 10
4.5832042451
 20
24.3592070342
 30
0.0
 11
2.7583515655
 21
-1.4175703156
 31
0.0
 40
0.0109499087
 41
-0.7017315251
 42
-0.679046417
  0
ELLIPSE
  5
426
100
AcDbEntity
  8
218_STAMPATO
100
AcDbEllipse
 62
7
  6
CONTINUOUS
 10
4.5832042451
 20
22.8117316235
 30
0.0
 11
2.7583876426
 21
-0.0130411979
 31
0.0
 40
0.4964289597
 41
0.1877225706
 42
2.3585415194
  0
ELLIPSE
  5
427
100
AcDbEntity
  8
218_STAMPATO
100
AcDbEllipse
 62
7
  6
CONTINUOUS
 10
12.0078254475
 20
19.0994210222
 30
0.0
 11
2.7583876426
 21
-0.0130411979
 31
0.0
 40
0.4964289597
 41
0.1877225706
 42
2.3585415194
  0
ELLIPSE
  5
428
100
AcDbEntity
  8
218_STAMPATO
100
AcDbEllipse
 62
7
  6
CONTINUOUS
 10
4.5832042451
 20
24.3592070342
 30
0.0
 11
2.7583515655
 21
-1.4175703156
 31
0.0
 40
0.0109499087
 41
-0.8804952881
 42
-0.85781018
  0
ELLIPSE
  5
429
100
AcDbEntity
  8
218_STAMPATO
100
AcDbEllipse
 62
7
  6
CONTINUOUS
 10
12.0078254475
 20
20.646896433
 30
0.0
 11
2.7583515655
 21
-1.4175703156
 31
0.0
 40
0.0109499087
 41
-0.7017315251
 42
-0.679046417
  0
ELLIPSE
  5
42A
100
AcDbEntity
  8
218_STAMPATO
100
AcDbEllipse
 62
7
  6
CONTINUOUS
 10
3.8879197147
 20
23.7078546069
 30
0.0
 11
3.3022643479
 21
-0.04629945
 31
0.0
 40
0.4892378494
 41
2.3616770883
 42
5.5059722822
  0
ELLIPSE
  5
42B
100
AcDbEntity
  8
218_STAMPATO
100
AcDbEllipse
 62
7
  6
CONTINUOUS
 10
-3.4583829725
 20
19.5379409931
 30
0.0
 11
1.2141619185
 21
0.9541526469
 31
0.0
 40
0.2329077568
 41
0.1095198182
 42
0.114024621
  0
ENDSEC
  0
SECTION
  2
OBJECTS
  0
DICTIONARY
  5
C
100
AcDbDictionary
280
0
281
1
  3
ACAD_GROUP
350
D
  3
ACAD_MLINESTYLE
350
17
  3
ACAD_LAYOUT
350
1A
  3
ACAD_PLOTSETTINGS
350
19
  3
ACAD_PLOTSTYLENAME
350
E
  0
DICTIONARY
  5
D
102
{ACAD_REACTORS
330
C
102
}
100
AcDbDictionary
280
0
281
1
  0
ACDBDICTIONARYWDFLT
  5
E
102
{ACAD_REACTORS
330
C
102
}
100
AcDbDictionary
281
1
  3
Normal
350
F
100
AcDbDictionaryWithDefault
340
F
  0
DICTIONARY
  5
17
102
{ACAD_REACTORS
330
C
102
}
100
AcDbDictionary
280
0
281
1
  3
Standard
350
18
  0
DICTIONARY
  5
19
102
{ACAD_REACTORS
330
C
102
}
100
AcDbDictionary
281
1
  0
DICTIONARY
  5
1A
102
{ACAD_REACTORS
330
C
102
}
100
AcDbDictionary
281
1
  3
Model
350
42C
  3
Layout1
350
42D
  0
ACDBPLACEHOLDER
  5
F
102
{ACAD_REACTORS
330
E
102
}
  0
MLINESTYLE
  5
18
102
{ACAD_REACTORS
330
17
102
}
100
AcDbMlineStyle
  2
STANDARD
 70
0
  3

 62
256
 51
90.0
 52
90.0
 71
2
 49
0.5
 62
256
  6
BYLAYER
 49
-0.5
 62
256
  6
BYLAYER
  0
LAYOUT
  5
42C
102
{ACAD_REACTORS
330
1A
102
}
100
AcDbPlotSettings
  1

  2
none_device
  4
ISO_A4_(297.00_x_210.00_MM)
  6

 40
0.0
 41
0.0
 42
0.0
 43
0.0
 44
297.0
 45
210.0
 46
0.0
 47
0.0
 48
0.0
 49
0.0
140
0.0
141
0.0
142
1.0
143
1.0
 70
1024
 72
1
 73
0
 74
0
  7

 75
0
147
1.0
148
0.0
149
0.0
100
AcDbLayout
  1
Model
 70
0
 71
0
 10
0.0
 20
0.0
 11
297.0
 21
210.0
 12
0.0
 22
0.0
 32
0.0
 14
0.0
 24
0.0
 34
0.0
 15
0.0
 25
0.0
 35
0.0
146
0.0
 13
0.0
 23
0.0
 33
0.0
 16
1.0
 26
0.0
 36
0.0
 17
0.0
 27
1.0
 37
0.0
 76
0
330
22B
345
0
346
0
  0
LAYOUT
  5
42D
102
{ACAD_REACTORS
330
1A
102
}
100
AcDbPlotSettings
  1

  2
none_device
  4
ISO_A4_(297.00_x_210.00_MM)
  6

 40
0.0
 41
0.0
 42
0.0
 43
0.0
 44
297.0
 45
210.0
 46
0.0
 47
0.0
 48
0.0
 49
0.0
140
0.0
141
0.0
142
1.0
143
1.0
 70
0
 72
1
 73
0
 74
0
  7

 75
0
147
1.0
148
0.0
149
0.0
100
AcDbLayout
  1
Layout1
 70
0
 71
1
 10
0.0
 20
0.0
 11
297.0
 21
210.0
 12
0.0
 22
0.0
 32
0.0
 14
0.0
 24
0.0
 34
0.0
 15
0.0
 25
0.0
 35
0.0
146
0.0
 13
0.0
 23
0.0
 33
0.0
 16
1.0
 26
0.0
 36
0.0
 17
0.0
 27
1.0
 37
0.0
 76
0
330
22C
345
0
346
0
  0
ENDSEC
  0
EOF
