  0
SECTION
  2
HEADER
  9
$ACADVER
  1
AC1024
  9
$DWGCODEPAGE
  3
ANSI_1252
  9
$EXTMAX
 10
297.0
 20
210.0
 30
0.0
  9
$EXTMIN
 10
0.0
 20
0.0
 30
0.0
  9
$LIMMIN
 10
0.0
 20
0.0
  9
$LIMMAX
 10
297.0
 20
210.0
  9
$VIEWCTR
 10
148.5
 20
105.0
  9
$VIEWSIZE
 40
210.0
  9
$CLAYER
  8
0
  9
$LTSCALE
 40
16.335
  9
$CELTYPE
  6
BYLAYER
  9
$DIMSCALE
 40
1.0
  9
$DIMASZ
 40
3.0
  9
$DIMEXO
 40
0.5
  9
$DIMDLI
 40
11.286
  9
$DIMEXE
 40
1.5
  9
$DIMCEN
 40
2.673
  9
$DIMLFAC
 40
1.0
  9
$DIMBLK
  1
_FILLED
  9
$DIMALT
 70
0
  9
$DIMALTF
 40
0.0393700787
  9
$DIMTXT
 40
3.0
  9
$DIMTOL
 70
1
  9
$DIMLIM
 70
0
  9
$DIMTFAC
 40
1.0
  9
$DIMTP
 40
0.01
  9
$DIMTM
 40
0.01
  9
$DIMGAP
 40
0.625
  9
$DIMDSEP
 70
44
  9
$AUNITS
 70
0
  9
$PDMODE
 70
3
  9
$PDSIZE
 40
3.0
  9
$HANDSEED
  5
36E
  9
$TILEMODE
 70
1
  9
$MEASUREMENT
 70
1
  9
$INSUNITS
 70
4
  0
ENDSEC
  0
SECTION
  2
CLASSES
  0
CLASS
  1
ACDBDICTIONARYWDFLT
  2
AcDbDictionaryWithDefault
  3
AutoCAD 2000
 90
0
 91
1
280
0
281
0
  0
CLASS
  1
ACDBPLACEHOLDER
  2
AcDbPlaceHolder
  3
AutoCAD 2000
 90
0
 91
1
280
0
281
0
  0
CLASS
  1
LAYOUT
  2
AcDbLayout
  3
AutoCAD 2000
 90
0
 91
0
280
0
281
0
  0
ENDSEC
  0
SECTION
  2
TABLES
  0
TABLE
  2
VPORT
  5
8
100
AcDbSymbolTable
 70
2
  0
VPORT
  5
1F4
100
AcDbSymbolTableRecord
100
AcDbViewportTableRecord
  2
*ACTIVE
 70
0
 10
0.0
 20
0.0
 11
1.0
 21
1.0
 12
148.5
 22
105.0
 13
0.0
 23
0.0
 14
1.0
 24
1.0
 15
0.0
 25
0.0
 16
0.0
 26
0.0
 36
1.0
 17
0.0
 27
0.0
 37
0.0
 40
210.0
 41
1.4142857143
 42
50.0
 43
0.0
 44
0.0
 50
0.0
 51
0.0
 71
0
 72
100
 73
1
 74
1
 75
0
 76
0
 77
0
 78
0
  0
ENDTAB
  0
TABLE
  2
LTYPE
  5
5
100
AcDbSymbolTable
 70
6
  0
LTYPE
  5
14
100
AcDbSymbolTableRecord
100
AcDbLinetypeTableRecord
  2
BYBLOCK
 70
0
  3

 72
65
 73
0
 40
0.0
  0
LTYPE
  5
15
100
AcDbSymbolTableRecord
100
AcDbLinetypeTableRecord
  2
BYLAYER
 70
0
  3

 72
65
 73
0
 40
0.0
  0
LTYPE
  5
16
100
AcDbSymbolTableRecord
100
AcDbLinetypeTableRecord
  2
CONTINUOUS
 70
64
  3
Solid line
 72
65
 73
0
 40
0.0
  0
LTYPE
  5
1F5
100
AcDbSymbolTableRecord
100
AcDbLinetypeTableRecord
  2
CENTER
 70
64
  3
____ _ ____ _ ____ _ ____ _ ____ _ ____ _ ____
 72
65
 73
4
 40
0.6
 49
0.375
 74
0
 49
-0.075
 74
0
 49
0.075
 74
0
 49
-0.075
 74
0
  0
LTYPE
  5
1F6
100
AcDbSymbolTableRecord
100
AcDbLinetypeTableRecord
  2
HIDDEN
 70
64
  3
- - - - - - - - - - - - - - - - - - - -
 72
65
 73
2
 40
0.2
 49
0.1
 74
0
 49
-0.1
 74
0
  0
LTYPE
  5
1F7
100
AcDbSymbolTableRecord
100
AcDbLinetypeTableRecord
  2
PHANTOM
 70
64
  3
_____ _ _ _____ _ _ _____ _ _ _____
 72
65
 73
6
 40
0.8
 49
0.45
 74
0
 49
-0.05
 74
0
 49
0.1
 74
0
 49
-0.05
 74
0
 49
0.1
 74
0
 49
-0.05
 74
0
  0
LTYPE
  5
1F8
100
AcDbSymbolTableRecord
100
AcDbLinetypeTableRecord
  2
DOT
 70
64
  3
. . . . . . . . . . . . . . . . . . . .
 72
65
 73
2
 40
0.2
 49
0.1
 74
0
 49
-0.1
 74
0
  0
LTYPE
  5
1F9
100
AcDbSymbolTableRecord
100
AcDbLinetypeTableRecord
  2
DASHED
 70
64
  3
- - - - - - - - - - - - - - - - - - - -
 72
65
 73
2
 40
0.2
 49
0.1
 74
0
 49
-0.1
 74
0
  0
ENDTAB
  0
TABLE
  2
LAYER
  5
2
100
AcDbSymbolTable
 70
36
  0
LAYER
  5
10
100
AcDbSymbolTableRecord
100
AcDbLayerTableRecord
  2
0
 70
0
 62
7
  6
CONTINUOUS
370
-3
390
F
  0
LAYER
  5
1FA
100
AcDbSymbolTableRecord
100
AcDbLayerTableRecord
  2
DEFAULT_1
 70
0
 62
7
  6
CENTER
370
-3
390
F
  0
LAYER
  5
1FB
100
AcDbSymbolTableRecord
100
AcDbLayerTableRecord
  2
DEFAULT_2
 70
0
 62
7
  6
HIDDEN
370
-3
390
F
  0
LAYER
  5
1FC
100
AcDbSymbolTableRecord
100
AcDbLayerTableRecord
  2
DEFAULT_3
 70
0
 62
7
  6
PHANTOM
370
-3
390
F
  0
LAYER
  5
1FD
100
AcDbSymbolTableRecord
100
AcDbLayerTableRecord
  2
218_INCISO
 70
0
 62
7
  6
CONTINUOUS
370
-3
390
F
  0
LAYER
  5
1FE
100
AcDbSymbolTableRecord
100
AcDbLayerTableRecord
  2
218_STAMPATO
 70
0
 62
7
  6
CONTINUOUS
370
-3
390
F
  0
LAYER
  5
1FF
100
AcDbSymbolTableRecord
100
AcDbLayerTableRecord
  2
260
 70
0
 62
7
  6
CONTINUOUS
370
-3
390
F
  0
LAYER
  5
200
100
AcDbSymbolTableRecord
100
AcDbLayerTableRecord
  2
268
 70
0
 62
7
  6
CONTINUOUS
370
-3
390
F
  0
LAYER
  5
201
100
AcDbSymbolTableRecord
100
AcDbLayerTableRecord
  2
284
 70
0
 62
7
  6
CONTINUOUS
370
-3
390
F
  0
LAYER
  5
202
100
AcDbSymbolTableRecord
100
AcDbLayerTableRecord
  2
320
 70
0
 62
7
  6
CONTINUOUS
370
-3
390
F
  0
LAYER
  5
203
100
AcDbSymbolTableRecord
100
AcDbLayerTableRecord
  2
340
 70
0
 62
7
  6
CONTINUOUS
370
-3
390
F
  0
LAYER
  5
204
100
AcDbSymbolTableRecord
100
AcDbLayerTableRecord
  2
712
 70
0
 62
7
  6
CONTINUOUS
370
-3
390
F
  0
LAYER
  5
205
100
AcDbSymbolTableRecord
100
AcDbLayerTableRecord
  2
715
 70
0
 62
7
  6
CONTINUOUS
370
-3
390
F
  0
LAYER
  5
206
100
AcDbSymbolTableRecord
100
AcDbLayerTableRecord
  2
ASSI
 70
0
 62
7
  6
CONTINUOUS
370
-3
390
F
  0
LAYER
  5
207
100
AcDbSymbolTableRecord
100
AcDbLayerTableRecord
  2
COLORE_TOP
 70
0
 62
7
  6
CONTINUOUS
370
-3
390
F
  0
LAYER
  5
208
100
AcDbSymbolTableRecord
100
AcDbLayerTableRecord
  2
COORDINATE
 70
0
 62
7
  6
CONTINUOUS
370
-3
390
F
  0
LAYER
  5
209
100
AcDbSymbolTableRecord
100
AcDbLayerTableRecord
  2
COORD_ORIGINE
 70
0
 62
7
  6
CONTINUOUS
370
-3
390
F
  0
LAYER
  5
20A
100
AcDbSymbolTableRecord
100
AcDbLayerTableRecord
  2
COPY-PUBBLISH
 70
0
 62
7
  6
CONTINUOUS
370
-3
390
F
  0
LAYER
  5
20B
100
AcDbSymbolTableRecord
100
AcDbLayerTableRecord
  2
COSMETICHE
 70
0
 62
7
  6
CONTINUOUS
370
-3
390
F
  0
LAYER
  5
20C
100
AcDbSymbolTableRecord
100
AcDbLayerTableRecord
  2
COSMETICI
 70
0
 62
7
  6
CONTINUOUS
370
-3
390
F
  0
LAYER
  5
20D
100
AcDbSymbolTableRecord
100
AcDbLayerTableRecord
  2
CURVA_CENTRALE
 70
0
 62
7
  6
CONTINUOUS
370
-3
390
F
  0
LAYER
  5
20E
100
AcDbSymbolTableRecord
100
AcDbLayerTableRecord
  2
CURVE
 70
0
 62
7
  6
CONTINUOUS
370
-3
390
F
  0
LAYER
  5
20F
100
AcDbSymbolTableRecord
100
AcDbLayerTableRecord
  2
DRAFT
 70
0
 62
7
  6
CONTINUOUS
370
-3
390
F
  0
LAYER
  5
210
100
AcDbSymbolTableRecord
100
AcDbLayerTableRecord
  2
IGES
 70
0
 62
7
  6
CONTINUOUS
370
-3
390
F
  0
LAYER
  5
211
100
AcDbSymbolTableRecord
100
AcDbLayerTableRecord
  2
IGES_SCRITTE
 70
0
 62
7
  6
CONTINUOUS
370
-3
390
F
  0
LAYER
  5
212
100
AcDbSymbolTableRecord
100
AcDbLayerTableRecord
  2
IMPORT
 70
0
 62
7
  6
CONTINUOUS
370
-3
390
F
  0
LAYER
  5
213
100
AcDbSymbolTableRecord
100
AcDbLayerTableRecord
  2
INCISIONI_LASER
 70
0
 62
7
  6
CONTINUOUS
370
-3
390
F
  0
LAYER
  5
214
100
AcDbSymbolTableRecord
100
AcDbLayerTableRecord
  2
INTF_1
 70
0
 62
7
  6
CONTINUOUS
370
-3
390
F
  0
LAYER
  5
215
100
AcDbSymbolTableRecord
100
AcDbLayerTableRecord
  2
INTF_11
 70
0
 62
7
  6
CONTINUOUS
370
-3
390
F
  0
LAYER
  5
216
100
AcDbSymbolTableRecord
100
AcDbLayerTableRecord
  2
INTF_2
 70
0
 62
7
  6
CONTINUOUS
370
-3
390
F
  0
LAYER
  5
217
100
AcDbSymbolTableRecord
100
AcDbLayerTableRecord
  2
NOTE
 70
0
 62
7
  6
CONTINUOUS
370
-3
390
F
  0
LAYER
  5
218
100
AcDbSymbolTableRecord
100
AcDbLayerTableRecord
  2
PIANI
 70
0
 62
7
  6
CONTINUOUS
370
-3
390
F
  0
LAYER
  5
219
100
AcDbSymbolTableRecord
100
AcDbLayerTableRecord
  2
PIANI_DI_RIFERIMENTO
 70
0
 62
7
  6
CONTINUOUS
370
-3
390
F
  0
LAYER
  5
21A
100
AcDbSymbolTableRecord
100
AcDbLayerTableRecord
  2
PIANI_ORIGINE
 70
0
 62
7
  6
CONTINUOUS
370
-3
390
F
  0
LAYER
  5
21B
100
AcDbSymbolTableRecord
100
AcDbLayerTableRecord
  2
PIANI_RIFERIMENTO
 70
0
 62
7
  6
CONTINUOUS
370
-3
390
F
  0
LAYER
  5
21C
100
AcDbSymbolTableRecord
100
AcDbLayerTableRecord
  2
PIANI_SFORMO
 70
0
 62
7
  6
CONTINUOUS
370
-3
390
F
  0
LAYER
  5
21D
100
AcDbSymbolTableRecord
100
AcDbLayerTableRecord
  2
PUNTI
 70
0
 62
7
  6
CONTINUOUS
370
-3
390
F
  0
LAYER
  5
21E
100
AcDbSymbolTableRecord
100
AcDbLayerTableRecord
  2
RACCORDO
 70
0
 62
7
  6
CONTINUOUS
370
-3
390
F
  0
LAYER
  5
21F
100
AcDbSymbolTableRecord
100
AcDbLayerTableRecord
  2
RGB__255__255__255__
 70
0
 62
7
  6
CONTINUOUS
370
-3
390
F
  0
LAYER
  5
220
100
AcDbSymbolTableRecord
100
AcDbLayerTableRecord
  2
RGB____0____0____0__
 70
0
 62
7
  6
CONTINUOUS
370
-3
390
F
  0
LAYER
  5
221
100
AcDbSymbolTableRecord
100
AcDbLayerTableRecord
  2
SMUSSO
 70
0
 62
7
  6
CONTINUOUS
370
-3
390
F
  0
LAYER
  5
222
100
AcDbSymbolTableRecord
100
AcDbLayerTableRecord
  2
SNAPLINE
 70
0
 62
7
  6
CONTINUOUS
370
-3
390
F
  0
LAYER
  5
223
100
AcDbSymbolTableRecord
100
AcDbLayerTableRecord
  2
SUPERFICI
 70
0
 62
7
  6
CONTINUOUS
370
-3
390
F
  0
LAYER
  5
224
100
AcDbSymbolTableRecord
100
AcDbLayerTableRecord
  2
TRACCIABILITA
 70
0
 62
7
  6
CONTINUOUS
370
-3
390
F
  0
LAYER
  5
225
100
AcDbSymbolTableRecord
100
AcDbLayerTableRecord
  2
TRASH
 70
0
 62
7
  6
CONTINUOUS
370
-3
390
F
  0
LAYER
  5
226
100
AcDbSymbolTableRecord
100
AcDbLayerTableRecord
  2
XSEC_DATUMS
 70
0
 62
7
  6
CONTINUOUS
370
-3
390
F
  0
ENDTAB
  0
TABLE
  2
STYLE
  5
3
100
AcDbSymbolTable
 70
1
  0
STYLE
  5
11
100
AcDbSymbolTableRecord
100
AcDbTextStyleTableRecord
  2
STANDARD
 70
0
 40
0.0
 41
0.8
 50
0.0
 71
0
 42
0.2
  3
txt
  4

  0
STYLE
  5
227
100
AcDbSymbolTableRecord
100
AcDbTextStyleTableRecord
  2
TEXTSTYLE_1
 70
0
 40
0.0
 41
0.8
 50
0.0
 71
0
 42
0.2
  3
gdt
  4

  0
ENDTAB
  0
TABLE
  2
VIEW
  5
6
100
AcDbSymbolTable
 70
0
  0
ENDTAB
  0
TABLE
  2
UCS
  5
7
100
AcDbSymbolTable
 70
0
  0
ENDTAB
  0
TABLE
  2
APPID
  5
9
100
AcDbSymbolTable
 70
1
  0
APPID
  5
228
100
AcDbSymbolTableRecord
100
AcDbRegAppTableRecord
  2
ACAD
 70
0
  0
ENDTAB
  0
TABLE
  2
BLOCK_RECORD
  5
1
100
AcDbSymbolTable
 70
0
  0
BLOCK_RECORD
  5
229
100
AcDbSymbolTableRecord
100
AcDbBlockTableRecord
  2
*Model_Space
  0
BLOCK_RECORD
  5
22A
100
AcDbSymbolTableRecord
100
AcDbBlockTableRecord
  2
*Paper_Space
  0
BLOCK_RECORD
  5
22B
100
AcDbSymbolTableRecord
100
AcDbBlockTableRecord
  2
_FILLED
  0
ENDTAB
  0
TABLE
  2
DIMSTYLE
  5
A
100
AcDbSymbolTable
 70
1
100
AcDbDimStyleTable
 71
0
  0
DIMSTYLE
105
22C
100
AcDbSymbolTableRecord
100
AcDbDimStyleTableRecord
  2
STANDARD
 70
0
  3

  4

 40
1.0
 41
3.0
 42
0.5
 43
0.38
 44
1.5
 45
0.0
 46
0.0
 47
0.01
 48
0.01
140
3.0
141
0.09
142
0.0
143
25.4
144
1.0
145
0.0
146
1.0
147
0.625
 71
1
 72
0
 73
0
 74
0
 75
0
 76
0
 77
1
 78
8
 79
2
170
0
171
1
172
0
173
0
174
0
175
0
176
0
177
0
178
0
270
2
179
2
271
2
272
2
273
2
274
2
275
0
280
0
281
0
282
0
283
1
284
8
285
0
286
0
287
3
288
0
340
11
278
44
341
22B
342
22B
343
22B
344
22B
  0
ENDTAB
  0
ENDSEC
  0
SECTION
  2
BLOCKS
  0
BLOCK
  5
20
100
AcDbEntity
  8
0
100
AcDbBlockBegin
  2
*Model_Space
 70
0
 10
0.0
 20
0.0
 30
0.0
  3
*Model_Space
  1

  0
ENDBLK
  5
21
100
AcDbEntity
  8
0
100
AcDbBlockEnd
  0
BLOCK
  5
1C
100
AcDbEntity
  8
0
100
AcDbBlockBegin
  2
*Paper_Space
 70
0
 10
0.0
 20
0.0
 30
0.0
  3
*Paper_Space
  1

  0
ENDBLK
  5
1D
100
AcDbEntity
  8
0
100
AcDbBlockEnd
  0
BLOCK
  5
22D
100
AcDbEntity
  8
0
100
AcDbBlockBegin
  2
_FILLED
 70
64
 10
0.0
 20
0.0
  3
_FILLED
  1

  0
SOLID
  5
22E
100
AcDbEntity
  8
0
  6
BYBLOCK
 62
0
100
AcDbTrace
 10
0.0
 20
0.0
 11
-1.0
 21
0.3166666667
 12
-1.0
 22
-0.3166666667
 13
-1.0
 23
-0.3166666667
  0
ENDBLK
  5
22F
100
AcDbEntity
  8
0
  6
BYBLOCK
 62
0
100
AcDbBlockEnd
  0
ENDSEC
  0
SECTION
  2
ENTITIES
  0
LINE
  5
230
100
AcDbEntity
  8
268
100
AcDbLine
 62
7
  6
CONTINUOUS
 10
-38.9862723982
 20
19.4377196566
 11
-37.4035157951
 21
20.249703754
  0
LINE
  5
231
100
AcDbEntity
  8
268
100
AcDbLine
 62
7
  6
CONTINUOUS
 10
-39.4702226598
 20
17.6950217318
 11
-38.4580052265
 21
18.2119492173
  0
LINE
  5
232
100
AcDbEntity
  8
268
100
AcDbLine
 62
7
  6
CONTINUOUS
 10
-37.4035157951
 20
20.249703754
 11
-36.8690659164
 21
20.5100512205
  0
LINE
  5
233
100
AcDbEntity
  8
268
100
AcDbLine
 62
250
  6
CONTINUOUS
 10
-39.3127041043
 20
17.685585925
 11
-38.4580052265
 21
18.122070545
  0
LINE
  5
234
100
AcDbEntity
  8
268
100
AcDbLine
 62
7
  6
CONTINUOUS
 10
-35.7771701983
 20
17.704480148
 11
-36.8440011105
 21
17.1658988985
  0
LINE
  5
235
100
AcDbEntity
  8
268
100
AcDbLine
 62
7
  6
CONTINUOUS
 10
-37.3784509892
 20
18.6338089521
 11
-35.7771701983
 21
19.4365309556
  0
LINE
  5
236
100
AcDbEntity
  8
268
100
AcDbLine
 62
7
  6
CONTINUOUS
 10
-35.7771701983
 20
19.4365309556
 11
-35.2489030266
 21
19.6999697756
  0
LWPOLYLINE
  5
237
100
AcDbEntity
  8
RACCORDO
100
AcDbPolyline
 62
7
  6
CONTINUOUS
 90
19
 70
0
 10
-42.5893464637
 20
15.4688209308
 10
-42.6060693802
 20
15.4620756801
 10
-42.6988280766
 20
15.4195776131
 10
-42.7890812358
 20
15.3695613663
 10
-42.8768300828
 20
15.3120717981
 10
-42.9616566923
 20
15.2474302917
 10
-43.0427656813
 20
15.1763460813
 10
-43.1201936739
 20
15.0989034468
 10
-43.1937593415
 20
15.0153117723
 10
-43.2625027965
 20
14.9267075456
 10
-43.3263999245
 20
14.8332701722
 10
-43.3852973847
 20
14.7351804477
 10
-43.4383080641
 20
14.6339540985
 10
-43.4853749035
 20
14.5298622887
 10
-43.5263568983
 20
14.4230806976
 10
-43.5606541896
 20
14.3151807759
 10
-43.5881144355
 20
14.2067983177
 10
-43.6087857937
 20
14.0976891771
 10
-43.6136350403
 20
14.0648648449
  0
LINE
  5
238
100
AcDbEntity
  8
RACCORDO
100
AcDbLine
 62
7
  6
CONTINUOUS
 10
-42.5893509591
 20
15.4688323074
 11
-38.6635260975
 21
17.0188829232
  0
LINE
  5
239
100
AcDbEntity
  8
RACCORDO
100
AcDbLine
 62
250
  6
CONTINUOUS
 10
-42.2362379216
 20
15.4433968246
 11
-38.4629808677
 21
16.9332083682
  0
LWPOLYLINE
  5
23A
100
AcDbEntity
  8
268
100
AcDbPolyline
 62
7
  6
CONTINUOUS
 90
3
 70
0
 10
-27.794596563
 20
20.9248910438
 10
-27.8071615827
 20
20.920191993
 10
-27.8128123675
 20
20.917549393
  0
LWPOLYLINE
  5
23B
100
AcDbEntity
  8
RACCORDO
100
AcDbPolyline
 62
250
  6
CONTINUOUS
 90
7
 70
0
 10
-42.5891641583
 20
15.4689061219
 10
-42.534228272
 20
15.4857722414
 10
-42.4773120968
 20
15.4940530749
 10
-42.4184030849
 20
15.4939083334
 10
-42.3581464683
 20
15.4853396021
 10
-42.2972022393
 20
15.4684407346
 10
-42.2362379216
 20
15.4433968246
  0
LWPOLYLINE
  5
23C
100
AcDbEntity
  8
268
100
AcDbPolyline
 62
7
  6
CONTINUOUS
 90
10
 70
0
 10
-27.794596563
 20
20.9248910438
 10
-27.7853569421
 20
20.9276368428
 10
-27.7767937883
 20
20.9299025613
 10
-27.7689071014
 20
20.9316881993
 10
-27.7616577431
 20
20.9330146039
 10
-27.7550848518
 20
20.9338609281
 10
-27.7493058424
 20
20.9341646308
 10
-27.7443248852
 20
20.933925295
 10
-27.74013781
 20
20.9331433379
 10
-27.7375358378
 20
20.932140626
  0
LWPOLYLINE
  5
23D
100
AcDbEntity
  8
RACCORDO
100
AcDbPolyline
 62
7
  6
CONTINUOUS
 90
12
 70
0
 10
-31.9212702385
 20
-30.9786558684
 10
-31.8941710033
 20
-30.9917648741
 10
-31.81134388
 20
-31.0263035137
 10
-31.7254267716
 20
-31.0540104168
 10
-31.6368757016
 20
-31.0746241169
 10
-31.5458969238
 20
-31.0879589321
 10
-31.4530431739
 20
-31.0937859047
 10
-31.3589356331
 20
-31.0919333536
 10
-31.2637780672
 20
-31.0822409353
 10
-31.1679751
 20
-31.0645610922
 10
-31.0722309053
 20
-31.0388671469
 10
-31.0542578534
 20
-31.0331326995
  0
LINE
  5
23E
100
AcDbEntity
  8
RACCORDO
100
AcDbLine
 62
7
  6
CONTINUOUS
 10
-31.9203715711
 20
-30.9791198111
 11
-46.2609493365
 21
-23.8088309284
  0
LINE
  5
23F
100
AcDbEntity
  8
RACCORDO
100
AcDbLine
 62
250
  6
CONTINUOUS
 10
-32.3150412081
 20
-30.105363018
 11
-46.6437747159
 21
-22.9409962641
  0
LWPOLYLINE
  5
240
100
AcDbEntity
  8
RACCORDO
100
AcDbPolyline
 62
250
  6
CONTINUOUS
 90
14
 70
0
 10
-46.2609496562
 20
-23.8088307685
 10
-46.3219553774
 20
-23.773253989
 10
-46.373891336
 20
-23.7337959665
 10
-46.4218874241
 20
-23.6879275458
 10
-46.4657254763
 20
-23.6358605279
 10
-46.505186899
 20
-23.5778434485
 10
-46.5400563983
 20
-23.5141789152
 10
-46.5701531499
 20
-23.4452021664
 10
-46.5953216301
 20
-23.3712743993
 10
-46.6154371328
 20
-23.2927634429
 10
-46.6304043642
 20
-23.2100539683
 10
-46.6401473486
 20
-23.1235594455
 10
-46.6446122302
 20
-23.0337220602
 10
-46.6437747159
 20
-22.9409962641
  0
LINE
  5
241
100
AcDbEntity
  8
268
100
AcDbLine
 62
7
  6
CONTINUOUS
 10
-35.1620513633
 20
19.078972189
 11
-35.689296079
 21
18.437264461
  0
LWPOLYLINE
  5
242
100
AcDbEntity
  8
268
100
AcDbPolyline
 62
7
  6
CONTINUOUS
 90
12
 70
0
 10
-27.8128123675
 20
20.917549393
 10
-27.8193310928
 20
20.9140773275
 10
-27.8311855193
 20
20.9065730543
 10
-27.8428406994
 20
20.8977005431
 10
-27.8543362942
 20
20.8875154325
 10
-27.8656275919
 20
20.8760843601
 10
-27.8767726583
 20
20.863437334
 10
-27.8878395377
 20
20.8496077978
 10
-27.8987856568
 20
20.834638299
 10
-27.909632958
 20
20.8185553718
 10
-27.9204713867
 20
20.8013871175
 10
-27.9313557547
 20
20.783168486
  0
LINE
  5
243
100
AcDbEntity
  8
268
100
AcDbLine
 62
7
  6
CONTINUOUS
 10
-33.5127757669
 20
17.2849739581
 11
-33.0194537517
 21
17.53805749
  0
LINE
  5
244
100
AcDbEntity
  8
268
100
AcDbLine
 62
7
  6
CONTINUOUS
 10
-34.3213892218
 20
17.6761387518
 11
-27.8127427727
 21
20.9175840619
  0
LINE
  5
245
100
AcDbEntity
  8
268
100
AcDbLine
 62
250
  6
CONTINUOUS
 10
-34.2458960813
 20
17.6383921815
 11
-27.9313557547
 21
20.783168486
  0
LINE
  5
246
100
AcDbEntity
  8
268
100
AcDbLine
 62
7
  6
CONTINUOUS
 10
-26.9383354335
 20
19.9034249553
 11
-31.6759508674
 21
17.5683744407
  0
LINE
  5
247
100
AcDbEntity
  8
268
100
AcDbLine
 62
7
  6
CONTINUOUS
 10
-33.0194537517
 20
17.53805749
 11
-27.5418137622
 21
20.2063894532
  0
LINE
  5
248
100
AcDbEntity
  8
268
100
AcDbLine
 62
7
  6
CONTINUOUS
 10
-22.3249779146
 20
-28.4194987606
 11
-21.7977331989
 21
-28.5277910326
  0
LWPOLYLINE
  5
249
100
AcDbEntity
  8
RACCORDO
100
AcDbPolyline
 62
250
  6
CONTINUOUS
 90
9
 70
0
 10
-46.8781068204
 20
-22.6598205436
 10
-46.876537368
 20
-22.6910187216
 10
-46.8669700322
 20
-22.7299900809
 10
-46.8490505221
 20
-22.7685364543
 10
-46.8229686985
 20
-22.8062494353
 10
-46.7890009035
 20
-22.8427294477
 10
-46.7475070325
 20
-22.8775899786
 10
-46.6989267211
 20
-22.9104616739
 10
-46.6437746874
 20
-22.9409962514
  0
LWPOLYLINE
  5
24A
100
AcDbEntity
  8
RACCORDO
100
AcDbPolyline
 62
7
  6
CONTINUOUS
 90
15
 70
0
 10
-46.8780972365
 20
-22.6598208979
 10
-46.8792018721
 20
-22.711234367
 10
-46.8751930269
 20
-22.8305690115
 10
-46.862101924
 20
-22.9455195675
 10
-46.8402916364
 20
-23.0557170848
 10
-46.8100687114
 20
-23.1610082341
 10
-46.7716924491
 20
-23.2611548345
 10
-46.7256300413
 20
-23.3555375955
 10
-46.6722687798
 20
-23.4438363097
 10
-46.6118332283
 20
-23.525910033
 10
-46.5449255251
 20
-23.6011464238
 10
-46.4721594429
 20
-23.6691025444
 10
-46.3938105604
 20
-23.7296537939
 10
-46.3104503689
 20
-23.782392257
 10
-46.2598803179
 20
-23.8093496279
  0
LINE
  5
24B
100
AcDbEntity
  8
RACCORDO
100
AcDbLine
 62
7
  6
CONTINUOUS
 10
-46.8780989311
 20
-22.6596088723
 11
-46.8781068204
 21
-22.6598205436
  0
LWPOLYLINE
  5
24C
100
AcDbEntity
  8
RACCORDO
100
AcDbPolyline
 62
250
  6
CONTINUOUS
 90
22
 70
0
 10
-43.3775255005
 20
13.8025037116
 10
-43.3613709712
 20
13.9009231476
 10
-43.3400834932
 20
14.0003217249
 10
-43.313772757
 20
14.1001967158
 10
-43.2825778447
 20
14.2000382942
 10
-43.246655978
 20
14.2993472948
 10
-43.2061789118
 20
14.3976372853
 10
-43.1613457562
 20
14.4944270486
 10
-43.1123894113
 20
14.5892115556
 10
-43.0595668141
 20
14.6814815067
 10
-43.0031636745
 20
14.7707541042
 10
-42.943458455
 20
14.8566015471
 10
-42.8807243087
 20
14.9386182779
 10
-42.8152671517
 20
15.0164053198
 10
-42.7474326993
 20
15.0895505587
 10
-42.6775732046
 20
15.1576601422
 10
-42.6060565579
 20
15.2203848681
 10
-42.5332398637
 20
15.2774198888
 10
-42.4594730721
 20
15.328480209
 10
-42.3851260156
 20
15.3733083363
 10
-42.310587019
 20
15.4116782405
 10
-42.2362379216
 20
15.4433968246
  0
LINE
  5
24D
100
AcDbEntity
  8
268
100
AcDbLine
 62
7
  6
CONTINUOUS
 10
-25.6112616051
 20
18.4335507217
 11
-27.0090461116
 21
17.7346584685
  0
LINE
  5
24E
100
AcDbEntity
  8
218_STAMPATO
100
AcDbLine
 62
7
  6
CONTINUOUS
 10
-28.083958326
 20
17.042615273
 11
-28.0224018079
 21
17.073393532
  0
LINE
  5
24F
100
AcDbEntity
  8
218_STAMPATO
100
AcDbLine
 62
250
  6
CONTINUOUS
 10
-27.9989956053
 20
17.0346949163
 11
-27.9329590888
 21
17.0677131746
  0
LWPOLYLINE
  5
250
100
AcDbEntity
  8
218_STAMPATO
100
AcDbPolyline
 62
250
  6
CONTINUOUS
 90
118
 70
0
 10
-27.9329590888
 20
17.0677131746
 10
-27.9257449434
 20
17.0712761403
 10
-27.9184461436
 20
17.0747934089
 10
-27.9110626894
 20
17.0782649804
 10
-27.9035933532
 20
17.0816914009
 10
-27.8960393626
 20
17.0850721243
 10
-27.8884044009
 20
17.0884055119
 10
-27.8806884454
 20
17.0916915299
 10
-27.8728915188
 20
17.0949302122
 10
-27.8650173715
 20
17.0981200211
 10
-27.8570659659
 20
17.1012609309
 10
-27.8490373396
 20
17.1043529673
 10
-27.8409353556
 20
17.1073946705
 10
-27.8327599784
 20
17.1103860141
 10
-27.8245112435
 20
17.1133270244
 10
-27.8161931202
 20
17.1162163207
 10
-27.8078055737
 20
17.1190538764
 10
-27.7993486388
 20
17.121839718
 10
-27.7908263884
 20
17.1245725445
 10
-27.7822387924
 20
17.127252328
 10
-27.773585881
 20
17.1298790963
 10
-27.7648718173
 20
17.1324516322
 10
-27.7560965728
 20
17.1349699074
 10
-27.7472601761
 20
17.1374339502
 10
-27.7383668754
 20
17.1398426275
 10
-27.7294166459
 20
17.1421959106
 10
-27.7204095124
 20
17.1444938283
 10
-27.711349798
 20
17.1467353343
 10
-27.7022374791
 20
17.1489203997
 10
-27.6930725792
 20
17.1510490534
 10
-27.6838594923
 20
17.153120336
 10
-27.6745981989
 20
17.1551342178
 10
-27.6652887183
 20
17.1570907284
 10
-27.6559355024
 20
17.1589889975
 10
-27.6465385332
 20
17.1608289953
 10
-27.6370978286
 20
17.1626107515
 10
-27.6276178944
 20
17.1643334844
 10
-27.6180987167
 20
17.165997164
 10
-27.6085403095
 20
17.1676018205
 10
-27.5989472203
 20
17.1691467622
 10
-27.5893194364
 20
17.1706319594
 10
-27.5796569706
 20
17.1720574418
 10
-27.5699644085
 20
17.1734226081
 10
-27.5602417414
 20
17.1747274279
 10
-27.5504889779
 20
17.1759719314
 10
-27.5407107298
 20
17.1771556075
 10
-27.5309069898
 20
17.1782784264
 10
-27.5210777652
 20
17.1793404179
 10
-27.5112276897
 20
17.1803411609
 10
-27.5013567595
 20
17.1812806255
 10
-27.4914649783
 20
17.1821588417
 10
-27.481556991
 20
17.1829754783
 10
-27.4716327954
 20
17.1837305057
 10
-27.4616923935
 20
17.1844239535
 10
-27.4517404368
 20
17.18505558
 10
-27.4417769261
 20
17.1856253557
 10
-27.4318018604
 20
17.18613331
 10
-27.4218198881
 20
17.1865792902
 10
-27.4118310118
 20
17.1869632667
 10
-27.4018352289
 20
17.1872852691
 10
-27.3918371791
 20
17.1875452321
 10
-27.3818368681
 20
17.1877431269
 10
-27.3718342903
 20
17.1878789824
 10
-27.3618340696
 20
17.1879528206
 10
-27.3518362133
 20
17.1879646128
 10
-27.3418407142
 20
17.1879143878
 10
-27.3318521739
 20
17.1878022532
 10
-27.3218706018
 20
17.187628181
 10
-27.3118959886
 20
17.1873921993
 10
-27.3019329079
 20
17.1870945008
 10
-27.2919813712
 20
17.1867350576
 10
-27.2820413669
 20
17.1863138974
 10
-27.2721174337
 20
17.1858312964
 10
-27.2622095847
 20
17.1852872271
 10
-27.2523178068
 20
17.1846817168
 10
-27.2424465996
 20
17.1840151236
 10
-27.2325959784
 20
17.1832874207
 10
-27.2227659279
 20
17.1824986348
 10
-27.2129609011
 20
17.1816492044
 10
-27.2031809144
 20
17.1807391032
 10
-27.1934259514
 20
17.1797683576
 10
-27.1837004161
 20
17.1787374851
 10
-27.1740043277
 20
17.17764646
 10
-27.1643376669
 20
17.176495308
 10
-27.1547047807
 20
17.1752846241
 10
-27.1451056884
 20
17.1740143828
 10
-27.1355403706
 20
17.1726846096
 10
-27.1260131158
 20
17.1712959753
 10
-27.1165239459
 20
17.1698484553
 10
-27.1070728388
 20
17.1683420742
 10
-27.0976640177
 20
17.166777577
 10
-27.0882975044
 20
17.1651549393
 10
-27.0789732769
 20
17.1634741855
 10
-27.0696954923
 20
17.1617361337
 10
-27.0604641759
 20
17.1599407603
 10
-27.0512793023
 20
17.1580880889
 10
-27.0421449524
 20
17.1561790077
 10
-27.0330611515
 20
17.1542134937
 10
-27.0240278744
 20
17.1521915698
 10
-27.0150491258
 20
17.1501141936
 10
-27.0061249316
 20
17.1479813424
 10
-26.997255266
 20
17.1457930389
 10
-26.9884440558
 20
17.1435503085
 10
-26.9796913259
 20
17.1412531285
 10
-26.9709970515
 20
17.1389015215
 10
-26.9623650839
 20
17.1364965817
 10
-26.9537954548
 20
17.134038288
 10
-26.9452881326
 20
17.1315266614
 10
-26.9368468744
 20
17.1289628585
 10
-26.9284717148
 20
17.1263468599
 10
-26.9201626191
 20
17.1236786849
 10
-26.9119232414
 20
17.1209595481
 10
-26.9037536108
 20
17.1181894287
 10
-26.8956536981
 20
17.1153683474
 10
-26.8876270696
 20
17.1124975807
 10
-26.8796749139
 20
17.109577554
 10
-26.8717960424
 20
17.1066078419
 10
-26.863990455
 20
17.1035884443
  0
LINE
  5
251
100
AcDbEntity
  8
268
100
AcDbLine
 62
7
  6
CONTINUOUS
 10
-27.3625995022
 20
18.4639933531
 11
-26.9383354335
 21
18.6715907739
  0
LINE
  5
252
100
AcDbEntity
  8
268
100
AcDbLine
 62
7
  6
CONTINUOUS
 10
-24.9522658537
 20
19.2936235356
 11
-27.0090461116
 21
18.2872166578
  0
LWPOLYLINE
  5
253
100
AcDbEntity
  8
218_STAMPATO
100
AcDbPolyline
 62
7
  6
CONTINUOUS
 90
45
 70
0
 10
-28.0835230973
 20
17.0428306463
 10
-28.082008574
 20
17.0435459043
 10
-28.0804693409
 20
17.0442203691
 10
-28.078905797
 20
17.0448538417
 10
-28.0773183524
 20
17.0454461307
 10
-28.0757072889
 20
17.0459971217
 10
-28.0740730211
 20
17.0465066465
 10
-28.0724159739
 20
17.0469745444
 10
-28.0707364524
 20
17.047400728
 10
-28.0690348855
 20
17.0477850601
 10
-28.0673117123
 20
17.0481274111
 10
-28.0655672602
 20
17.0484277209
 10
-28.0638019717
 20
17.0486858839
 10
-28.0620162992
 20
17.048901802
 10
-28.0602105914
 20
17.0490754426
 10
-28.0583853033
 20
17.0492067318
 10
-28.0565408997
 20
17.0492956033
 10
-28.0546777499
 20
17.0493420522
 10
-28.0527963205
 20
17.0493460365
 10
-28.0508970877
 20
17.049307522
 10
-28.0489804402
 20
17.0492265312
 10
-28.0470468554
 20
17.0491030545
 10
-28.0450968197
 20
17.0489370895
 10
-28.0431307404
 20
17.0487286865
 10
-28.0411491043
 20
17.0484778679
 10
-28.0391524072
 20
17.0481846635
 10
-28.0371410737
 20
17.0478491509
 10
-28.0351155993
 20
17.0474713845
 10
-28.0330764878
 20
17.0470514264
 10
-28.0310241802
 20
17.046589381
 10
-28.0289591794
 20
17.0460853348
 10
-28.0268819963
 20
17.0455393819
 10
-28.0247930869
 20
17.044951653
 10
-28.0226929607
 20
17.0443222668
 10
-28.0205821344
 20
17.0436513487
 10
-28.0184610779
 20
17.0429390557
 10
-28.0163303061
 20
17.042185538
 10
-28.0141903404
 20
17.0413909524
 10
-28.0120416634
 20
17.0405554813
 10
-28.0098847942
 20
17.039679306
 10
-28.0077202582
 20
17.0387626146
 10
-28.0055485491
 20
17.0378056139
 10
-28.0033701817
 20
17.0368085163
 10
-28.0011856916
 20
17.0357715402
 10
-27.9989956053
 20
17.0346949163
  0
LWPOLYLINE
  5
254
100
AcDbEntity
  8
218_STAMPATO
100
AcDbPolyline
 62
250
  6
CONTINUOUS
 90
37
 70
0
 10
-28.0211338622
 20
17.0740126656
 10
-28.0190509557
 20
17.0749668567
 10
-28.0169379448
 20
17.0758579453
 10
-28.0147955683
 20
17.0766856198
 10
-28.0126245754
 20
17.0774495908
 10
-28.0104257252
 20
17.0781495911
 10
-28.0081997866
 20
17.078785376
 10
-28.005947538
 20
17.0793567232
 10
-28.0036697669
 20
17.0798634329
 10
-28.0013672698
 20
17.0803053278
 10
-27.9990408519
 20
17.0806822535
 10
-27.9966913267
 20
17.0809940782
 10
-27.9943195156
 20
17.0812406928
 10
-27.9919262482
 20
17.081422011
 10
-27.9895123612
 20
17.0815379696
 10
-27.9870786988
 20
17.0815885278
 10
-27.9846261119
 20
17.0815736682
 10
-27.9821554583
 20
17.0814933958
 10
-27.9796676017
 20
17.0813477387
 10
-27.9771634121
 20
17.0811367479
 10
-27.9746437653
 20
17.0808604971
 10
-27.9721095423
 20
17.0805190829
 10
-27.9695616292
 20
17.0801126247
 10
-27.967000917
 20
17.0796412647
 10
-27.9644283011
 20
17.0791051677
 10
-27.9618446811
 20
17.0785045211
 10
-27.9592509604
 20
17.077839535
 10
-27.9566480461
 20
17.0771104418
 10
-27.9540368482
 20
17.0763174966
 10
-27.9514182799
 20
17.0754609766
 10
-27.9487932569
 20
17.0745411814
 10
-27.946162697
 20
17.0735584325
 10
-27.94352752
 20
17.0725130736
 10
-27.9408886475
 20
17.0714054703
 10
-27.9382470022
 20
17.0702360098
 10
-27.9356035079
 20
17.0690051011
 10
-27.9329590888
 20
17.0677131746
  0
LINE
  5
255
100
AcDbEntity
  8
268
100
AcDbLine
 62
7
  6
CONTINUOUS
 10
-25.7320847235
 20
-29.4907038525
 11
-24.1255522541
 21
-30.2939700871
  0
LINE
  5
256
100
AcDbEntity
  8
268
100
AcDbLine
 62
250
  6
CONTINUOUS
 10
-25.7966800163
 20
-29.3556744041
 11
-24.1909035541
 21
-30.1585626352
  0
LINE
  5
257
100
AcDbEntity
  8
268
100
AcDbLine
 62
250
  6
CONTINUOUS
 10
-24.1909035541
 20
-29.9051912415
 11
-25.7966800163
 21
-29.1023030104
  0
LINE
  5
258
100
AcDbEntity
  8
268
100
AcDbLine
 62
250
  6
CONTINUOUS
 10
-24.1020009781
 20
-29.6737541818
 11
-25.708805897
 21
-28.8703517224
  0
LINE
  5
259
100
AcDbEntity
  8
268
100
AcDbLine
 62
7
  6
CONTINUOUS
 10
-26.4681530089
 20
-27.4968392662
 11
-24.0391976306
 21
-28.7113169553
  0
LINE
  5
25A
100
AcDbEntity
  8
268
100
AcDbLine
 62
7
  6
CONTINUOUS
 10
-23.479682946
 20
-28.9286947643
 11
-23.8889481914
 21
-28.7240621417
  0
LINE
  5
25B
100
AcDbEntity
  8
268
100
AcDbLine
 62
7
  6
CONTINUOUS
 10
-26.440278002
 20
-27.1832608311
 11
-23.7917102572
 21
-28.5075447035
  0
LWPOLYLINE
  5
25C
100
AcDbEntity
  8
RACCORDO
100
AcDbPolyline
 62
250
  6
CONTINUOUS
 90
13
 70
0
 10
-46.6437747159
 20
-22.9409962641
 10
-46.5170497766
 20
-19.9383396472
 10
-46.3637864011
 20
-16.9235969802
 10
-46.1840039001
 20
-13.8971563732
 10
-45.9777249535
 20
-10.859407502
 10
-45.744976012
 20
-7.8107412386
 10
-45.4857872908
 20
-4.7515495986
 10
-45.2001923682
 20
-1.6822260889
 10
-44.8882277624
 20
1.3968342507
 10
-44.5499333253
 20
4.4852352211
 10
-44.1853526685
 20
7.582579528
 10
-43.7945331617
 20
10.6884688325
 10
-43.3775255005
 20
13.8025037116
  0
LWPOLYLINE
  5
25D
100
AcDbEntity
  8
RACCORDO
100
AcDbPolyline
 62
250
  6
CONTINUOUS
 90
10
 70
0
 10
-43.6136350403
 20
14.0648648449
 10
-43.6143550468
 20
14.0581754387
 10
-43.6125983074
 20
14.026418805
 10
-43.6024558701
 20
13.9939122592
 10
-43.584035195
 20
13.9610002113
 10
-43.5575314509
 20
13.9280313674
 10
-43.5232254474
 20
13.8953550356
 10
-43.4814806597
 20
13.8633174249
 10
-43.4327393778
 20
13.8322579766
 10
-43.3775180201
 20
13.8025057686
  0
LWPOLYLINE
  5
25E
100
AcDbEntity
  8
RACCORDO
100
AcDbPolyline
 62
7
  6
CONTINUOUS
 90
13
 70
0
 10
-43.6136292433
 20
14.064950209
 10
-44.0230607975
 20
11.0090630084
 10
-44.4155416707
 20
7.8931359683
 10
-44.781612751
 20
4.785728176
 10
-45.1212174722
 20
1.6872886476
 10
-45.4343137367
 20
-1.4017880762
 10
-45.7208634868
 20
-4.4811286957
 10
-45.9808282366
 20
-7.550345134
 10
-46.2141749378
 20
-10.6090512692
 10
-46.4208728431
 20
-13.6568765501
 10
-46.6008915946
 20
-16.693431241
 10
-46.7542062926
 20
-19.7182787133
 10
-46.8780989311
 20
-22.6596088723
  0
LINE
  5
25F
100
AcDbEntity
  8
218_STAMPATO
100
AcDbLine
 62
7
  6
CONTINUOUS
 10
-28.0956476863
 20
17.0348827797
 11
-29.0256871217
 21
16.2432425678
  0
LINE
  5
260
100
AcDbEntity
  8
218_STAMPATO
100
AcDbLine
 62
250
  6
CONTINUOUS
 10
-27.9989956053
 20
17.0346949163
 11
-28.9646615472
 21
16.2127297806
  0
LWPOLYLINE
  5
261
100
AcDbEntity
  8
218_STAMPATO
100
AcDbPolyline
 62
7
  6
CONTINUOUS
 90
10
 70
0
 10
-28.0956476752
 20
17.0348827854
 10
-28.0947108855
 20
17.0356635379
 10
-28.0934057199
 20
17.0366978088
 10
-28.0920732628
 20
17.0376930274
 10
-28.0907138735
 20
17.0386489135
 10
-28.0893277615
 20
17.0395652745
 10
-28.087915293
 20
17.0404418521
 10
-28.0864768453
 20
17.0412783949
 10
-28.0850126523
 20
17.042074736
 10
-28.0839583035
 20
17.0426152842
  0
LINE
  5
262
100
AcDbEntity
  8
268
100
AcDbLine
 62
7
  6
CONTINUOUS
 10
-27.2960098101
 20
14.1765909797
 11
-26.7969140773
 21
14.4267876528
  0
LINE
  5
263
100
AcDbEntity
  8
268
100
AcDbLine
 62
7
  6
CONTINUOUS
 10
-26.7969140773
 20
14.4267876528
 11
-21.3826413821
 21
17.1268032632
  0
LINE
  5
264
100
AcDbEntity
  8
268
100
AcDbLine
 62
7
  6
CONTINUOUS
 10
-21.9885879652
 20
17.4285512211
 11
-26.7262033991
 21
15.0935007065
  0
LINE
  5
265
100
AcDbEntity
  8
268
100
AcDbLine
 62
7
  6
CONTINUOUS
 10
-20.7096251666
 20
17.172303192
 11
-21.2960039537
 21
16.8853811244
  0
LWPOLYLINE
  5
266
100
AcDbEntity
  8
268
100
AcDbPolyline
 62
7
  6
CONTINUOUS
 90
18
 70
0
 10
-20.7096251666
 20
17.172303192
 10
-20.6812506459
 20
17.1854851488
 10
-20.6530161939
 20
17.1972195405
 10
-20.6249218106
 20
17.2075063672
 10
-20.5969174976
 20
17.2163585018
 10
-20.5690532533
 20
17.2237630714
 10
-20.5414790737
 20
17.229681457
 10
-20.514209945
 20
17.2341048783
 10
-20.487230881
 20
17.2370421156
 10
-20.4606469184
 20
17.2384808916
 10
-20.4344419595
 20
17.238413755
 10
-20.4086321021
 20
17.236848157
 10
-20.3833706758
 20
17.2337941736
 10
-20.3586809225
 20
17.2292483892
 10
-20.3345396003
 20
17.2232142194
 10
-20.3110303141
 20
17.2157119866
 10
-20.2881345339
 20
17.206726572
 10
-20.2685865494
 20
17.1976438851
  0
LINE
  5
267
100
AcDbEntity
  8
218_STAMPATO
100
AcDbLine
 62
7
  6
CONTINUOUS
 10
-14.4297949305
 20
19.8375578715
 11
-20.2096943796
 21
17.1682087666
  0
LINE
  5
268
100
AcDbEntity
  8
218_STAMPATO
100
AcDbLine
 62
250
  6
CONTINUOUS
 10
-13.9981755054
 20
19.8017641652
 11
-19.9652342433
 21
17.0459786985
  0
LINE
  5
269
100
AcDbEntity
  8
268
100
AcDbLine
 62
250
  6
CONTINUOUS
 10
-22.3249779146
 20
-28.4194987606
 11
-22.3684002406
 21
-28.3977875977
  0
LINE
  5
26A
100
AcDbEntity
  8
268
100
AcDbLine
 62
7
  6
CONTINUOUS
 10
-26.3606608534
 20
-26.2876118758
 11
-22.9785374589
 21
-27.9786735731
  0
LINE
  5
26B
100
AcDbEntity
  8
268
100
AcDbLine
 62
250
  6
CONTINUOUS
 10
-22.4128520339
 20
-28.2202316151
 11
-21.7977331989
 21
-28.5277910326
  0
LINE
  5
26C
100
AcDbEntity
  8
268
100
AcDbLine
 62
7
  6
CONTINUOUS
 10
-22.4128520339
 20
-28.2166114656
 11
-21.7744543725
 21
-28.5358102963
  0
LINE
  5
26D
100
AcDbEntity
  8
268
100
AcDbLine
 62
7
  6
CONTINUOUS
 10
-26.2202365995
 20
-24.7079165652
 11
-22.9785374589
 21
-26.3287661355
  0
LINE
  5
26E
100
AcDbEntity
  8
268
100
AcDbLine
 62
7
  6
CONTINUOUS
 10
-25.6219542338
 20
12.7555605744
 11
-24.0391976306
 21
13.5675446718
  0
LINE
  5
26F
100
AcDbEntity
  8
268
100
AcDbLine
 62
7
  6
CONTINUOUS
 10
-27.2960098101
 20
12.9623875069
 11
-26.7969140773
 21
13.2143520875
  0
LINE
  5
270
100
AcDbEntity
  8
268
100
AcDbLine
 62
7
  6
CONTINUOUS
 10
-26.7969140773
 20
13.2143520875
 11
-21.3826413821
 21
15.8949646848
  0
LINE
  5
271
100
AcDbEntity
  8
268
100
AcDbLine
 62
7
  6
CONTINUOUS
 10
-24.0391976306
 20
13.5675446718
 11
-23.504747752
 21
13.8278921383
  0
LINE
  5
272
100
AcDbEntity
  8
268
100
AcDbLine
 62
7
  6
CONTINUOUS
 10
-39.5601914777
 20
17.5062091785
 11
-39.5601914777
 21
17.4818136732
  0
LINE
  5
273
100
AcDbEntity
  8
268
100
AcDbLine
 62
250
  6
CONTINUOUS
 10
-21.8987712008
 20
12.2738401026
 11
-16.5404444206
 21
15.1647803296
  0
LINE
  5
274
100
AcDbEntity
  8
268
100
AcDbLine
 62
250
  6
CONTINUOUS
 10
-22.3537813088
 20
11.6923347952
 11
-16.6245959882
 21
14.6587073316
  0
LINE
  5
275
100
AcDbEntity
  8
268
100
AcDbLine
 62
7
  6
CONTINUOUS
 10
-24.0141328247
 20
11.9516498699
 11
-22.4128520339
 21
12.7543718734
  0
LINE
  5
276
100
AcDbEntity
  8
268
100
AcDbLine
 62
7
  6
CONTINUOUS
 10
-22.4128520339
 20
12.7543718734
 11
-21.8845848622
 21
13.0178106934
  0
LINE
  5
277
100
AcDbEntity
  8
268
100
AcDbLine
 62
250
  6
CONTINUOUS
 10
-22.5023742438
 20
13.3886827552
 11
-17.7305352657
 21
15.6827582415
  0
LINE
  5
278
100
AcDbEntity
  8
268
100
AcDbLine
 62
250
  6
CONTINUOUS
 10
-22.274758744
 20
13.2748750052
 11
-17.2886943978
 21
15.6719399612
  0
LINE
  5
279
100
AcDbEntity
  8
268
100
AcDbLine
 62
7
  6
CONTINUOUS
 10
-23.7917102572
 20
9.597573063
 11
-22.9785374589
 21
9.8818747309
  0
LINE
  5
27A
100
AcDbEntity
  8
RACCORDO
100
AcDbLine
 62
250
  6
CONTINUOUS
 10
-23.9045445933
 20
9.653990231
 11
-27.8818679051
 21
8.2662118164
  0
LINE
  5
27B
100
AcDbEntity
  8
268
100
AcDbLine
 62
7
  6
CONTINUOUS
 10
-39.1609981807
 20
18.8794602112
 11
-39.1609981807
 21
19.1328316049
  0
LINE
  5
27C
100
AcDbEntity
  8
268
100
AcDbLine
 62
7
  6
CONTINUOUS
 10
-38.7470186793
 20
17.075227274
 11
-38.7470186793
 21
16.9859171829
  0
LINE
  5
27D
100
AcDbEntity
  8
268
100
AcDbLine
 62
7
  6
CONTINUOUS
 10
-38.4580052265
 20
17.9729009565
 11
-38.4580052265
 21
18.4252319322
  0
LINE
  5
27E
100
AcDbEntity
  8
268
100
AcDbLine
 62
7
  6
CONTINUOUS
 10
-37.5552217186
 20
18.3299433739
 11
-37.5552217186
 21
18.0765719801
  0
LWPOLYLINE
  5
27F
100
AcDbEntity
  8
268
100
AcDbPolyline
 62
7
  6
CONTINUOUS
 90
5
 70
0
 10
-16.5421913575
 20
14.5794700767
 10
-16.5419433453
 20
14.5796101745
 10
-16.5410161093
 20
14.580437846
 10
-16.5405096919
 20
14.5814889173
 10
-16.5403979284
 20
14.5824208413
  0
LINE
  5
280
100
AcDbEntity
  8
268
100
AcDbLine
 62
250
  6
CONTINUOUS
 10
-22.265391354
 20
11.8276279765
 11
-16.6245959882
 21
14.8709664857
  0
LINE
  5
281
100
AcDbEntity
  8
268
100
AcDbLine
 62
7
  6
CONTINUOUS
 10
-22.2340151782
 20
11.6324517299
 11
-16.542191913
 21
14.5794794958
  0
LINE
  5
282
100
AcDbEntity
  8
268
100
AcDbLine
 62
250
  6
CONTINUOUS
 10
-22.2714306777
 20
10.9516103877
 11
-24.0391976306
 21
10.0488326882
  0
LINE
  5
283
100
AcDbEntity
  8
268
100
AcDbLine
 62
250
  6
CONTINUOUS
 10
-22.0239433043
 20
10.5247462678
 11
-23.7917102572
 21
9.6219685683
  0
LINE
  5
284
100
AcDbEntity
  8
268
100
AcDbLine
 62
7
  6
CONTINUOUS
 10
-22.4128520339
 20
11.0223210658
 11
-23.479682946
 21
10.4837398163
  0
LINE
  5
285
100
AcDbEntity
  8
268
100
AcDbLine
 62
250
  6
CONTINUOUS
 10
-21.5643238965
 20
11.2976060891
 11
-22.2714306777
 21
10.9516103877
  0
LINE
  5
286
100
AcDbEntity
  8
268
100
AcDbLine
 62
250
  6
CONTINUOUS
 10
-21.3168365231
 20
10.8707419692
 11
-22.0239433043
 21
10.5247462678
  0
LINE
  5
287
100
AcDbEntity
  8
218_STAMPATO
100
AcDbLine
 62
7
  6
CONTINUOUS
 10
-21.6244589174
 20
11.3276735995
 11
-15.9585943485
 21
14.0798621438
  0
LWPOLYLINE
  5
288
100
AcDbEntity
  8
218_STAMPATO
100
AcDbPolyline
 62
7
  6
CONTINUOUS
 90
67
 70
0
 10
-15.2059002645
 20
12.7816568827
 10
-7.4644675007
 20
16.5420200424
 10
-7.4572628129
 20
16.5454271158
 10
-7.4500980641
 20
16.5487531822
 10
-7.4429741551
 20
16.5519981585
 10
-7.4358917208
 20
16.5551619086
 10
-7.42885113
 20
16.5582442385
 10
-7.4218531442
 20
16.5612450682
 10
-7.4148985123
 20
16.564164318
 10
-7.4079875786
 20
16.5670018041
 10
-7.401121092
 20
16.5697574763
 10
-7.3942997879
 20
16.5724312854
 10
-7.387523985
 20
16.5750230588
 10
-7.3807944189
 20
16.577532776
 10
-7.3741118115
 20
16.5799604179
 10
-7.3674764544
 20
16.5823058241
 10
-7.3608890697
 20
16.5845690037
 10
-7.3543503652
 20
16.5867499677
 10
-7.3478606046
 20
16.5888485686
 10
-7.3414204959
 20
16.590864845
 10
-7.3350307326
 20
16.5927988375
 10
-7.3286915491
 20
16.5946504127
 10
-7.3224036394
 20
16.5964196382
 10
-7.3161676819
 20
16.5981065839
 10
-7.3099838811
 20
16.5997111311
 10
-7.3038529162
 20
16.6012333762
 10
-7.2977754504
 20
16.6026734183
 10
-7.2917516575
 20
16.6040311536
 10
-7.2857822013
 20
16.6053067073
 10
-7.2798677296
 20
16.6065002069
 10
-7.2740083847
 20
16.6076115644
 10
-7.2682048148
 20
16.6086409329
 10
-7.2624576516
 20
16.6095884685
 10
-7.2567670055
 20
16.6104540988
 10
-7.2511335086
 20
16.6112380048
 10
-7.2455577764
 20
16.6119403702
 10
-7.2400398868
 20
16.612561139
 10
-7.2345804555
 20
16.6131005191
 10
-7.2291800814
 20
16.6135587218
 10
-7.2238388095
 20
16.6139357071
 10
-7.2185572389
 20
16.6142317097
 10
-7.2133359516
 20
16.6144469677
 10
-7.2081749595
 20
16.6145814573
 10
-7.2030748446
 20
16.6146354394
 10
-7.198036172
 20
16.6146091781
 10
-7.1930589203
 20
16.6145026659
 10
-7.1881436542
 20
16.6143161892
 10
-7.1832909213
 20
16.6140500378
 10
-7.1785006675
 20
16.61370422
 10
-7.1737734396
 20
16.6132790471
 10
-7.1691097678
 20
16.612774834
 10
-7.1645095643
 20
16.6121916045
 10
-7.1599733577
 20
16.6115296941
 10
-7.1555016608
 20
16.6107894419
 10
-7.1510943547
 20
16.6099708874
 10
-7.1467519499
 20
16.6090743897
 10
-7.142474941
 20
16.6081003113
 10
-7.1382631767
 20
16.6070487069
 10
-7.1341171491
 20
16.6059199583
 10
-7.1300373349
 20
16.6047144511
 10
-7.1260235508
 20
16.6034322543
 10
-7.1220762706
 20
16.602073772
 10
-7.1181959526
 20
16.6006394119
 10
-7.1143823827
 20
16.5991292569
 10
-7.1106360157
 20
16.5975437329
 10
-7.106957292
 20
16.5958832684
 10
-7.103345967
 20
16.5941479605
  0
LINE
  5
289
100
AcDbEntity
  8
218_STAMPATO
100
AcDbLine
 62
250
  6
CONTINUOUS
 10
-7.0349067688
 20
15.9926593793
 11
-7.0190990211
 21
16.0000630883
  0
LINE
  5
28A
100
AcDbEntity
  8
218_STAMPATO
100
AcDbLine
 62
250
  6
CONTINUOUS
 10
-7.0190990211
 20
16.0000630883
 11
-7.0037081274
 21
16.007184353
  0
LINE
  5
28B
100
AcDbEntity
  8
218_STAMPATO
100
AcDbLine
 62
250
  6
CONTINUOUS
 10
-7.0037081274
 20
16.007184353
 11
-6.9887444027
 21
16.0140184006
  0
LINE
  5
28C
100
AcDbEntity
  8
218_STAMPATO
100
AcDbLine
 62
250
  6
CONTINUOUS
 10
-6.9887444027
 20
16.0140184006
 11
-6.9742178758
 21
16.0205606509
  0
LINE
  5
28D
100
AcDbEntity
  8
218_STAMPATO
100
AcDbLine
 62
250
  6
CONTINUOUS
 10
-6.9742178758
 20
16.0205606509
 11
-6.9601382825
 21
16.0268067194
  0
LINE
  5
28E
100
AcDbEntity
  8
218_STAMPATO
100
AcDbLine
 62
250
  6
CONTINUOUS
 10
-6.9601382825
 20
16.0268067194
 11
-6.9465150589
 21
16.0327524197
  0
LINE
  5
28F
100
AcDbEntity
  8
218_STAMPATO
100
AcDbLine
 62
250
  6
CONTINUOUS
 10
-6.9465150589
 20
16.0327524197
 11
-6.9333573355
 21
16.0383937672
  0
LINE
  5
290
100
AcDbEntity
  8
218_STAMPATO
100
AcDbLine
 62
250
  6
CONTINUOUS
 10
-6.9333573355
 20
16.0383937672
 11
-6.9206739306
 21
16.043726981
  0
LINE
  5
291
100
AcDbEntity
  8
218_STAMPATO
100
AcDbLine
 62
250
  6
CONTINUOUS
 10
-6.9206739306
 20
16.043726981
 11
-6.9084733447
 21
16.0487484866
  0
LWPOLYLINE
  5
292
100
AcDbEntity
  8
RACCORDO
100
AcDbPolyline
 62
250
  6
CONTINUOUS
 90
22
 70
0
 10
-27.8818679051
 20
8.2662118164
 10
-27.9580744855
 20
8.2354219737
 10
-28.0344419805
 20
8.1979663187
 10
-28.1105885506
 20
8.1540379482
 10
-28.1861344543
 20
8.1038671841
 10
-28.2607012759
 20
8.0477072271
 10
-28.3339133151
 20
7.9858301974
 10
-28.4054131037
 20
7.9185407609
 10
-28.4748331151
 20
7.8461883015
 10
-28.5417964373
 20
7.7691543422
 10
-28.6059556453
 20
7.6878501423
 10
-28.6670065328
 20
7.6026755334
 10
-28.7246564159
 20
7.5140263076
 10
-28.7786257777
 20
7.4223297388
 10
-28.8286299629
 20
7.3280691519
 10
-28.8743956665
 20
7.2317456626
 10
-28.9156879281
 20
7.1338632699
 10
-28.9523096982
 20
7.034904221
 10
-28.9840790351
 20
6.9353498548
 10
-29.0108353214
 20
6.835697639
 10
-29.0324428708
 20
6.7364590974
 10
-29.0487919927
 20
6.6381369577
  0
LWPOLYLINE
  5
293
100
AcDbEntity
  8
218_STAMPATO
100
AcDbPolyline
 62
250
  6
CONTINUOUS
 90
40
 70
0
 10
-6.9084733447
 20
16.0487484866
 10
-6.8967637546
 20
16.0534549186
 10
-6.8910955486
 20
16.0556889881
 10
-6.8855530084
 20
16.0578431229
 10
-6.8801370628
 20
16.0599169621
 10
-6.8748486193
 20
16.0619101583
 10
-6.8696885641
 20
16.0638223774
 10
-6.8646577617
 20
16.0656532991
 10
-6.859757055
 20
16.0674026166
 10
-6.8549872653
 20
16.0690700367
 10
-6.8503491918
 20
16.0706552801
 10
-6.8458436116
 20
16.0721580811
 10
-6.8414712796
 20
16.073578188
 10
-6.8372329285
 20
16.0749153628
 10
-6.8331292685
 20
16.0761693814
 10
-6.8291609871
 20
16.0773400337
 10
-6.8253287492
 20
16.0784271235
 10
-6.8216331971
 20
16.0794304688
 10
-6.8180749499
 20
16.0803499014
 10
-6.8146546038
 20
16.0811852671
 10
-6.8113727319
 20
16.0819364262
 10
-6.8082298842
 20
16.0826032526
 10
-6.8052265872
 20
16.0831856347
 10
-6.8023633442
 20
16.0836834749
 10
-6.799640635
 20
16.0840966898
 10
-6.7970589157
 20
16.0844252101
 10
-6.7946186189
 20
16.0846689807
 10
-6.7923201536
 20
16.0848279609
 10
-6.7901639048
 20
16.084902124
 10
-6.7881502339
 20
16.0848914575
 10
-6.7862794782
 20
16.0847959633
 10
-6.7845519513
 20
16.0846156574
 10
-6.7829679426
 20
16.0843505699
 10
-6.7815277174
 20
16.0840007453
 10
-6.7802315172
 20
16.0835662422
 10
-6.7790795591
 20
16.0830471334
 10
-6.7780720361
 20
16.0824435059
 10
-6.7772091171
 20
16.0817554608
 10
-6.7764909467
 20
16.0809831135
 10
-6.7759705297
 20
16.0802196133
  0
LWPOLYLINE
  5
294
100
AcDbEntity
  8
RACCORDO
100
AcDbPolyline
 62
250
  6
CONTINUOUS
 90
22
 70
0
 10
-27.3902192853
 20
7.2595726114
 10
-27.4263941875
 20
7.2453776636
 10
-27.4623358621
 20
7.2282479592
 10
-27.4980443091
 20
7.2081834984
 10
-27.5337128294
 20
7.1850489474
 10
-27.5691481221
 20
7.15897964
 10
-27.6037702848
 20
7.1303815766
 10
-27.6375545313
 20
7.0992184757
 10
-27.6705256478
 20
7.0655266188
 10
-27.7021780901
 20
7.0298208518
 10
-27.7324866266
 20
6.9920768747
 10
-27.7614764889
 20
6.9523189875
 10
-27.7887178286
 20
6.9111349356
 10
-27.8141897244
 20
6.8684932225
 10
-27.8379130975
 20
6.8244253447
 10
-27.8595208623
 20
6.779613537
 10
-27.8789789992
 20
6.7340356588
 10
-27.8963215277
 20
6.6877138506
 10
-27.9112834209
 20
6.6413967695
 10
-27.9237763365
 20
6.5953339677
 10
-27.9338886168
 20
6.549275893
 10
-27.9416202618
 20
6.5032225452
  0
LINE
  5
295
100
AcDbEntity
  8
RACCORDO
100
AcDbLine
 62
250
  6
CONTINUOUS
 10
-23.2501298852
 20
8.7041438101
 11
-27.3902192853
 21
7.2595726114
  0
LINE
  5
296
100
AcDbEntity
  8
268
100
AcDbLine
 62
7
  6
CONTINUOUS
 10
-36.8440011105
 20
17.1658988985
 11
-36.8440011105
 21
17.8030684572
  0
LINE
  5
297
100
AcDbEntity
  8
268
100
AcDbLine
 62
7
  6
CONTINUOUS
 10
-35.7771701983
 20
17.704480148
 11
-35.7771701983
 21
19.4365309556
  0
LINE
  5
298
100
AcDbEntity
  8
218_STAMPATO
100
AcDbLine
 62
250
  6
CONTINUOUS
 10
-7.1288137771
 20
15.9471212534
 11
-21.3168365231
 21
8.7289251345
  0
LINE
  5
299
100
AcDbEntity
  8
218_STAMPATO
100
AcDbLine
 62
250
  6
CONTINUOUS
 10
-7.1288137771
 20
15.9471212534
 11
-7.1109098358
 21
15.9559848064
  0
LINE
  5
29A
100
AcDbEntity
  8
218_STAMPATO
100
AcDbLine
 62
250
  6
CONTINUOUS
 10
-7.1109098358
 20
15.9559848064
 11
-7.0933612163
 21
15.9645954565
  0
LINE
  5
29B
100
AcDbEntity
  8
218_STAMPATO
100
AcDbLine
 62
250
  6
CONTINUOUS
 10
-7.0933612163
 20
15.9645954565
 11
-7.0761796798
 21
15.972947433
  0
LINE
  5
29C
100
AcDbEntity
  8
218_STAMPATO
100
AcDbLine
 62
250
  6
CONTINUOUS
 10
-7.0761796798
 20
15.972947433
 11
-7.0593767415
 21
15.9810351381
  0
LWPOLYLINE
  5
29D
100
AcDbEntity
  8
218_STAMPATO
100
AcDbPolyline
 62
250
  6
CONTINUOUS
 90
3
 70
0
 10
-7.0593767415
 20
15.9810351381
 10
-7.0429636628
 20
15.9888531516
 10
-7.0349067688
 20
15.9926593793
  0
LINE
  5
29E
100
AcDbEntity
  8
268
100
AcDbLine
 62
7
  6
CONTINUOUS
 10
-35.0741772441
 20
19.5718524534
 11
-35.0741772441
 21
19.310923477
  0
LINE
  5
29F
100
AcDbEntity
  8
268
100
AcDbLine
 62
7
  6
CONTINUOUS
 10
-33.5994131953
 20
17.1784667895
 11
-33.5994131953
 21
15.9637332893
  0
LINE
  5
2A0
100
AcDbEntity
  8
268
100
AcDbLine
 62
250
  6
CONTINUOUS
 10
-33.5115452297
 20
17.0719580594
 11
-33.5115452297
 21
15.8570031933
  0
LINE
  5
2A1
100
AcDbEntity
  8
268
100
AcDbLine
 62
7
  6
CONTINUOUS
 10
-21.7977331989
 20
12.3968131068
 11
-22.3249779146
 21
11.7551053787
  0
LWPOLYLINE
  5
2A2
100
AcDbEntity
  8
218_STAMPATO
100
AcDbPolyline
 62
250
  6
CONTINUOUS
 90
60
 70
0
 10
-6.7146633015
 20
14.5154876788
 10
-6.7057317955
 20
14.5201724039
 10
-6.6969223174
 20
14.5249145419
 10
-6.6882363435
 20
14.5297132983
 10
-6.679675329
 20
14.5345678689
 10
-6.6712407084
 20
14.5394774405
 10
-6.6629338952
 20
14.5444411903
 10
-6.654756281
 20
14.5494582866
 10
-6.6467092361
 20
14.5545278888
 10
-6.638794109
 20
14.5596491474
 10
-6.6310122258
 20
14.5648212042
 10
-6.6233648905
 20
14.5700431928
 10
-6.6158533844
 20
14.575314238
 10
-6.6084789662
 20
14.5806334567
 10
-6.6012428714
 20
14.5859999576
 10
-6.5941463127
 20
14.5914128416
 10
-6.587190479
 20
14.5968712015
 10
-6.5803765358
 20
14.6023741228
 10
-6.573705625
 20
14.6079206836
 10
-6.5671788642
 20
14.6135099543
 10
-6.5607973471
 20
14.6191409985
 10
-6.5545621429
 20
14.6248128726
 10
-6.5484742965
 20
14.6305246263
 10
-6.5425348278
 20
14.6362753025
 10
-6.5367447322
 20
14.6420639376
 10
-6.5311049797
 20
14.6478895618
 10
-6.5256165153
 20
14.6537511988
 10
-6.5202802588
 20
14.6596478666
 10
-6.5150971042
 20
14.665578577
 10
-6.51006792
 20
14.6715423363
 10
-6.505193549
 20
14.6775381453
 10
-6.5004748077
 20
14.6835649993
 10
-6.495912487
 20
14.6896218884
 10
-6.4915073512
 20
14.6957077979
 10
-6.4872601385
 20
14.7018217078
 10
-6.4831715605
 20
14.7079625938
 10
-6.4792423023
 20
14.714129427
 10
-6.4754730223
 20
14.720321174
 10
-6.4718643521
 20
14.7265367974
 10
-6.4684168963
 20
14.7327752556
 10
-6.4651312326
 20
14.7390355034
 10
-6.4620079115
 20
14.7453164917
 10
-6.4590474563
 20
14.7516171683
 10
-6.4562503632
 20
14.7579364773
 10
-6.4536171007
 20
14.7642733599
 10
-6.4511481102
 20
14.7706267543
 10
-6.4488438052
 20
14.7769955959
 10
-6.446704572
 20
14.7833788176
 10
-6.4447307689
 20
14.7897753498
 10
-6.4429227267
 20
14.7961841207
 10
-6.4412807483
 20
14.8026040565
 10
-6.4398051089
 20
14.8090340814
 10
-6.4384960557
 20
14.8154731181
 10
-6.4373538081
 20
14.8219200877
 10
-6.4363785574
 20
14.8283739098
 10
-6.4355704671
 20
14.8348335032
 10
-6.4349296726
 20
14.8412977854
 10
-6.4344562812
 20
14.8477656733
 10
-6.4341503723
 20
14.8542360832
 10
-6.4340119971
 20
14.8607079308
  0
LINE
  5
2A3
100
AcDbEntity
  8
218_STAMPATO
100
AcDbLine
 62
250
  6
CONTINUOUS
 10
-6.7146633015
 20
14.5154876788
 11
-21.3168365231
 21
7.086591351
  0
LWPOLYLINE
  5
2A4
100
AcDbEntity
  8
RACCORDO
100
AcDbPolyline
 62
250
  6
CONTINUOUS
 90
22
 70
0
 10
-31.1991594793
 20
-30.1422947639
 10
-31.1993924424
 20
-30.1857765339
 10
-31.1970993789
 20
-30.2276093881
 10
-31.1922802888
 20
-30.2677933264
 10
-31.1848868785
 20
-30.3065337825
 10
-31.1749674416
 20
-30.3436253228
 10
-31.1626668591
 20
-30.3784516457
 10
-31.1479465696
 20
-30.4109622434
 10
-31.1308451345
 20
-30.4412076236
 10
-31.1116231181
 20
-30.468723009
 10
-31.0902518138
 20
-30.4934626011
 10
-31.0667599283
 20
-30.5154721983
 10
-31.0414941463
 20
-30.5344244179
 10
-31.0144211979
 20
-30.5502761652
 10
-30.985574353
 20
-30.5630705349
 10
-30.9554001058
 20
-30.5726094284
 10
-30.9238685363
 20
-30.5788358923
 10
-30.8910095646
 20
-30.5818068801
 10
-30.8573594449
 20
-30.5814951534
 10
-30.8230969285
 20
-30.5778916329
 10
-30.7880432641
 20
-30.5710053978
 10
-30.7521984517
 20
-30.5608364483
  0
LWPOLYLINE
  5
2A5
100
AcDbEntity
  8
RACCORDO
100
AcDbPolyline
 62
250
  6
CONTINUOUS
 90
14
 70
0
 10
-32.3150412081
 20
-30.105363018
 10
-32.3156841952
 20
-30.1981860777
 10
-32.3108992835
 20
-30.288183478
 10
-32.3007107661
 20
-30.3749007674
 10
-32.285169057
 20
-30.4578974808
 10
-32.2643535736
 20
-30.5367584275
 10
-32.2383699347
 20
-30.6110937739
 10
-32.2073408956
 20
-30.6805366666
 10
-32.1714239307
 20
-30.7447249326
 10
-32.1308160406
 20
-30.8033152457
 10
-32.0857314095
 20
-30.8560055531
 10
-32.0363897408
 20
-30.9025467641
 10
-31.9830287061
 20
-30.9427173247
 10
-31.9211958226
 20
-30.9787068621
  0
LWPOLYLINE
  5
2A6
100
AcDbEntity
  8
RACCORDO
100
AcDbPolyline
 62
250
  6
CONTINUOUS
 90
7
 70
0
 10
-31.1827060703
 20
-11.9030902088
 10
-31.441181747
 20
-14.9626383711
 10
-31.6717921044
 20
-18.0123739266
 10
-31.8745077523
 20
-21.0519044471
 10
-32.0493025147
 20
-24.0808389234
 10
-32.1961534369
 20
-27.0987878171
 10
-32.3150412081
 20
-30.105363018
  0
LWPOLYLINE
  5
2A7
100
AcDbEntity
  8
RACCORDO
100
AcDbPolyline
 62
250
  6
CONTINUOUS
 90
7
 70
0
 10
-30.0698788476
 20
-11.9885526027
 10
-30.3276492309
 20
-15.0398198721
 10
-30.5576620906
 20
-18.0816950187
 10
-30.7598284436
 20
-21.1129980778
 10
-30.9341186289
 20
-24.1333357275
 10
-31.0805623074
 20
-27.1431012895
 10
-31.1991594793
 20
-30.1422947639
  0
LINE
  5
2A8
100
AcDbEntity
  8
RACCORDO
100
AcDbLine
 62
250
  6
CONTINUOUS
 10
-30.896398103
 20
-8.8341232215
 11
-31.1827060703
 21
-11.9030902088
  0
LWPOLYLINE
  5
2A9
100
AcDbEntity
  8
RACCORDO
100
AcDbPolyline
 62
250
  6
CONTINUOUS
 90
3
 70
0
 10
-30.240437177
 20
-2.669512853
 10
-30.582294913
 20
-5.756132174
 10
-30.896398103
 20
-8.8341232215
  0
LWPOLYLINE
  5
2AA
100
AcDbEntity
  8
RACCORDO
100
AcDbPolyline
 62
250
  6
CONTINUOUS
 90
4
 70
0
 10
-29.0487919927
 20
6.6381369577
 10
-29.4736368218
 20
3.5280206625
 10
-29.8708687818
 20
0.4253375846
 10
-30.240437177
 20
-2.669512853
  0
LWPOLYLINE
  5
2AB
100
AcDbEntity
  8
RACCORDO
100
AcDbPolyline
 62
250
  6
CONTINUOUS
 90
7
 70
0
 10
-27.9416202618
 20
6.5032225452
 10
-28.3654200173
 20
3.4007528013
 10
-28.7615837763
 20
0.3064859451
 10
-29.1301115389
 20
-2.7795780234
 10
-29.471043814
 20
-5.8578355158
 10
-29.7843400926
 20
-8.9278901206
 10
-30.0698788476
 20
-11.9885526027
  0
LINE
  5
2AC
100
AcDbEntity
  8
268
100
AcDbLine
 62
7
  6
CONTINUOUS
 10
-24.8969441865
 20
-9.8216076712
 11
-24.7109490728
 21
-9.914605228
  0
LWPOLYLINE
  5
2AD
100
AcDbEntity
  8
268
100
AcDbPolyline
 62
7
  6
CONTINUOUS
 90
13
 70
0
 10
-16.5438175633
 20
-22.3443421103
 10
-16.5467087283
 20
-22.3404489194
 10
-16.5503974925
 20
-22.3360665792
 10
-16.5548574564
 20
-22.3313092863
 10
-16.5600503147
 20
-22.3261694317
 10
-16.5659329719
 20
-22.320622073
 10
-16.5724935061
 20
-22.3147544744
 10
-16.5797004092
 20
-22.3085571664
 10
-16.5875175549
 20
-22.3020120418
 10
-16.5959414943
 20
-22.2951911657
 10
-16.6049543857
 20
-22.2881091409
 10
-16.6145162311
 20
-22.2807254976
 10
-16.6245959882
 20
-22.2730289429
  0
LINE
  5
2AE
100
AcDbEntity
  8
268
100
AcDbLine
 62
7
  6
CONTINUOUS
 10
-25.5926941895
 20
-17.6484109954
 11
-24.9841624752
 21
-23.320400767
  0
LINE
  5
2AF
100
AcDbEntity
  8
268
100
AcDbLine
 62
250
  6
CONTINUOUS
 10
-27.7190361616
 20
12.9607486593
 11
-27.7190361616
 21
14.1757035254
  0
LINE
  5
2B0
100
AcDbEntity
  8
268
100
AcDbLine
 62
7
  6
CONTINUOUS
 10
-27.3625995022
 20
17.2147369939
 11
-27.3625995022
 21
18.4639933531
  0
LINE
  5
2B1
100
AcDbEntity
  8
268
100
AcDbLine
 62
250
  6
CONTINUOUS
 10
-27.2960098101
 20
12.9623875069
 11
-27.2960098101
 21
14.1765909797
  0
LINE
  5
2B2
100
AcDbEntity
  8
268
100
AcDbLine
 62
7
  6
CONTINUOUS
 10
-27.0090461116
 20
17.7346584685
 11
-27.0090461116
 21
18.2872166578
  0
LINE
  5
2B3
100
AcDbEntity
  8
268
100
AcDbLine
 62
250
  6
CONTINUOUS
 10
-26.9383354335
 20
19.9034249553
 11
-26.9383354335
 21
18.6715907739
  0
LINE
  5
2B4
100
AcDbEntity
  8
268
100
AcDbLine
 62
7
  6
CONTINUOUS
 10
-26.8504674679
 20
20.0084221689
 11
-26.8504674679
 21
18.7760535631
  0
LINE
  5
2B5
100
AcDbEntity
  8
268
100
AcDbLine
 62
7
  6
CONTINUOUS
 10
-26.7969140773
 20
14.4267876528
 11
-26.7969140773
 21
13.2143520875
  0
LWPOLYLINE
  5
2B6
100
AcDbEntity
  8
RACCORDO
100
AcDbPolyline
 62
250
  6
CONTINUOUS
 90
16
 70
0
 10
-27.3902192853
 20
7.2595726114
 10
-27.3870688892
 20
7.336258366
 10
-27.3899855703
 20
7.4152592765
 10
-27.3989374141
 20
7.4957100701
 10
-27.4138264042
 20
7.5767295884
 10
-27.4344894932
 20
7.6574304307
 10
-27.4607003861
 20
7.7369286737
 10
-27.4921720239
 20
7.8143535713
 10
-27.528559721
 20
7.8888570714
 10
-27.5694649332
 20
7.9596230993
 10
-27.614439642
 20
8.0258765354
 10
-27.6629912488
 20
8.0868916756
 10
-27.7145879538
 20
8.1420001692
 10
-27.7686646108
 20
8.1905983802
 10
-27.8246289218
 20
8.2321539921
 10
-27.8818679032
 20
8.2662118171
  0
LWPOLYLINE
  5
2B7
100
AcDbEntity
  8
RACCORDO
100
AcDbPolyline
 62
250
  6
CONTINUOUS
 90
11
 70
0
 10
-30.7521984517
 20
-30.5608364483
 10
-30.7624330668
 20
-30.6347238528
 10
-30.7785882768
 20
-30.7046469574
 10
-30.8004871333
 20
-30.7698398923
 10
-30.8278897775
 20
-30.8295885979
 10
-30.8604960676
 20
-30.8832386448
 10
-30.897948866
 20
-30.9302024029
 10
-30.9398379513
 20
-30.9699654769
 10
-30.9857045112
 20
-31.0020923407
 10
-31.0350461681
 20
-31.026231108
 10
-31.0537963473
 20
-31.0329905039
  0
LINE
  5
2B8
100
AcDbEntity
  8
268
100
AcDbLine
 62
7
  6
CONTINUOUS
 10
-24.7109490728
 20
-9.914605228
 11
-22.9785374589
 21
-26.3287661355
  0
LINE
  5
2B9
100
AcDbEntity
  8
268
100
AcDbLine
 62
7
  6
CONTINUOUS
 10
-25.7966800163
 20
-29.3556744041
 11
-25.7966800163
 21
-29.1023030104
  0
LINE
  5
2BA
100
AcDbEntity
  8
268
100
AcDbLine
 62
7
  6
CONTINUOUS
 10
-25.7966800163
 20
12.197301129
 11
-25.7966800163
 21
12.4506725227
  0
LINE
  5
2BB
100
AcDbEntity
  8
268
100
AcDbLine
 62
7
  6
CONTINUOUS
 10
-25.093687062
 20
11.2907418743
 11
-25.093687062
 21
11.74307285
  0
LINE
  5
2BC
100
AcDbEntity
  8
268
100
AcDbLine
 62
7
  6
CONTINUOUS
 10
-24.251329665
 20
18.7780992018
 11
-24.251329665
 21
18.5072989091
  0
LINE
  5
2BD
100
AcDbEntity
  8
268
100
AcDbLine
 62
7
  6
CONTINUOUS
 10
-24.1909035541
 20
11.6477842916
 11
-24.1909035541
 21
11.3944128979
  0
LINE
  5
2BE
100
AcDbEntity
  8
268
100
AcDbLine
 62
7
  6
CONTINUOUS
 10
-24.1909035541
 20
-29.9051912415
 11
-24.1909035541
 21
-30.1585626352
  0
LINE
  5
2BF
100
AcDbEntity
  8
RACCORDO
100
AcDbLine
 62
7
  6
CONTINUOUS
 10
-26.6201228666
 20
-29.2064162434
 11
-23.2501298852
 21
8.7041438101
  0
LINE
  5
2C0
100
AcDbEntity
  8
268
100
AcDbLine
 62
7
  6
CONTINUOUS
 10
-22.9785374589
 20
8.2319672933
 11
-24.7109490728
 21
-9.914605228
  0
LWPOLYLINE
  5
2C1
100
AcDbEntity
  8
268
100
AcDbPolyline
 62
7
  6
CONTINUOUS
 90
24
 70
0
 10
-24.251329665
 20
18.7780992018
 10
-24.2519028494
 20
18.8125716079
 10
-24.2536019624
 20
18.8463215289
 10
-24.256427004
 20
18.8793489647
 10
-24.2603874385
 20
18.9117105221
 10
-24.2654738016
 20
18.9433495943
 10
-24.2716577
 20
18.9740963608
 10
-24.2789403154
 20
19.0039318882
 10
-24.2873204661
 20
19.03287511
 10
-24.2967662133
 20
19.0608130059
 10
-24.3072900719
 20
19.0877591687
 10
-24.3188795269
 20
19.1137000057
 10
-24.3314650957
 20
19.1384817186
 10
-24.3450402815
 20
19.16207902
 10
-24.3596115811
 20
19.1845171973
 10
-24.3751290011
 20
19.2057183145
 10
-24.3916122885
 20
19.2256954044
 10
-24.4090416963
 20
19.2444354343
 10
-24.427307991
 20
19.2618213699
 10
-24.4463966469
 20
19.2778302962
 10
-24.4663221896
 20
19.2924851283
 10
-24.4870189621
 20
19.3057375766
 10
-24.5085114766
 20
19.3175934379
 10
-27.7375460938
 20
20.9321346237
  0
LINE
  5
2C2
100
AcDbEntity
  8
268
100
AcDbLine
 62
7
  6
CONTINUOUS
 10
-23.7917102572
 20
9.6219685683
 11
-23.7917102572
 21
9.597573063
  0
LINE
  5
2C3
100
AcDbEntity
  8
268
100
AcDbLine
 62
7
  6
CONTINUOUS
 10
-23.7917102572
 20
-28.5075447035
 11
-23.7917102572
 21
-28.5319402088
  0
LINE
  5
2C4
100
AcDbEntity
  8
268
100
AcDbLine
 62
7
  6
CONTINUOUS
 10
-23.479682946
 20
-28.9286947643
 11
-23.479682946
 21
-28.5240726733
  0
LINE
  5
2C5
100
AcDbEntity
  8
268
100
AcDbLine
 62
7
  6
CONTINUOUS
 10
-23.479682946
 20
10.4837398163
 11
-23.479682946
 21
11.120909375
  0
LINE
  5
2C6
100
AcDbEntity
  8
268
100
AcDbLine
 62
7
  6
CONTINUOUS
 10
-22.9785374589
 20
9.8818747309
 11
-22.9785374589
 21
8.2319672933
  0
LINE
  5
2C7
100
AcDbEntity
  8
268
100
AcDbLine
 62
7
  6
CONTINUOUS
 10
-22.9785374589
 20
-26.3287661355
 11
-22.9785374589
 21
-27.9786735731
  0
LINE
  5
2C8
100
AcDbEntity
  8
268
100
AcDbLine
 62
7
  6
CONTINUOUS
 10
-22.4128520339
 20
-28.0020597051
 11
-22.4128520339
 21
-29.5076678313
  0
LINE
  5
2C9
100
AcDbEntity
  8
268
100
AcDbLine
 62
7
  6
CONTINUOUS
 10
-22.4128520339
 20
11.0223210658
 11
-22.4128520339
 21
12.7543718734
  0
LWPOLYLINE
  5
2CA
100
AcDbEntity
  8
268
100
AcDbPolyline
 62
7
  6
CONTINUOUS
 90
31
 70
0
 10
-22.0239433043
 20
10.5247462678
 10
-22.0242829718
 20
10.5407792998
 10
-22.0252994093
 20
10.5571078691
 10
-22.0269901426
 20
10.5736870723
 10
-22.0293511471
 20
10.5904711719
 10
-22.0323759588
 20
10.6074141659
 10
-22.0360556912
 20
10.6244699142
 10
-22.0403805442
 20
10.6415915329
 10
-22.0453389741
 20
10.6587319437
 10
-22.0509168247
 20
10.6758444485
 10
-22.0570990689
 20
10.6928820183
 10
-22.0638690592
 20
10.7097978105
 10
-22.0712077175
 20
10.7265457181
 10
-22.0790951596
 20
10.7430797252
 10
-22.0875100435
 20
10.7593543779
 10
-22.0964288386
 20
10.7753252962
 10
-22.1058272923
 20
10.7909486103
 10
-22.115679894
 20
10.8061813742
 10
-22.1259592394
 20
10.8209820285
 10
-22.1366373048
 20
10.8353099297
 10
-22.1476850386
 20
10.8491256978
 10
-22.1590718379
 20
10.8623916179
 10
-22.1707665977
 20
10.8750712739
 10
-22.1827374408
 20
10.8871298217
 10
-22.1949513198
 20
10.8985343205
 10
-22.2073748143
 20
10.9092534787
 10
-22.2199740066
 20
10.9192578461
 10
-22.2327142189
 20
10.9285200675
 10
-22.2455605151
 20
10.9370147587
 10
-22.2584777955
 20
10.9447185763
 10
-22.2714306777
 20
10.9516103877
  0
LINE
  5
2CB
100
AcDbEntity
  8
268
100
AcDbLine
 62
7
  6
CONTINUOUS
 10
-21.7098590796
 20
12.8896933712
 11
-21.7098590796
 21
12.6287643948
  0
LINE
  5
2CC
100
AcDbEntity
  8
268
100
AcDbLine
 62
7
  6
CONTINUOUS
 10
-21.7098590796
 20
-28.6708397446
 11
-21.7098590796
 21
-28.931768721
  0
LINE
  5
2CD
100
AcDbEntity
  8
268
100
AcDbLine
 62
250
  6
CONTINUOUS
 10
-21.3826413821
 20
17.1268032632
 11
-21.3826413821
 21
15.8949646848
  0
LINE
  5
2CE
100
AcDbEntity
  8
218_STAMPATO
100
AcDbLine
 62
7
  6
CONTINUOUS
 10
-21.3168365231
 20
7.086591351
 11
-21.3168365231
 21
-23.5216892574
  0
LINE
  5
2CF
100
AcDbEntity
  8
268
100
AcDbLine
 62
7
  6
CONTINUOUS
 10
-21.3168365231
 20
-27.3058398755
 11
-21.3168365231
 21
10.8707419692
  0
LINE
  5
2D0
100
AcDbEntity
  8
268
100
AcDbLine
 62
7
  6
CONTINUOUS
 10
-21.2960039537
 20
17.2311904118
 11
-21.2960039537
 21
15.998821806
  0
LWPOLYLINE
  5
2D1
100
AcDbEntity
  8
268
100
AcDbPolyline
 62
7
  6
CONTINUOUS
 90
18
 70
0
 10
-22.0239433043
 20
-27.6669509553
 10
-22.0242819487
 20
-27.6826448314
 10
-22.0252985922
 20
-27.6979568601
 10
-22.0269901426
 20
-27.7128449215
 10
-22.0293513598
 20
-27.7272679103
 10
-22.0323757713
 20
-27.7411862927
 10
-22.0360556912
 20
-27.7545622148
 10
-22.040380755
 20
-27.7673588751
 10
-22.0453388047
 20
-27.7795410462
 10
-22.0509168247
 20
-27.7910756156
 10
-22.0570992725
 20
-27.8019308394
 10
-22.0638689119
 20
-27.8120768167
 10
-22.0712077175
 20
-27.8214859923
 10
-22.0790953511
 20
-27.8301324617
 10
-22.0875099221
 20
-27.837992387
 10
-22.0964288386
 20
-27.8450444495
 10
-22.105827467
 20
-27.8512692224
 10
-22.1139120978
 20
-27.8557634967
  0
LWPOLYLINE
  5
2D2
100
AcDbEntity
  8
268
100
AcDbPolyline
 62
7
  6
CONTINUOUS
 90
4
 70
0
 10
-16.5403979295
 20
-22.3524416988
 10
-16.5406324556
 20
-22.350653704
 10
-16.5417732317
 20
-22.3477214783
 10
-16.5438175633
 20
-22.3443421103
  0
LWPOLYLINE
  5
2D3
100
AcDbEntity
  8
268
100
AcDbPolyline
 62
7
  6
CONTINUOUS
 90
5
 70
0
 10
-16.5403979284
 20
14.5824208413
 10
-16.5404105969
 20
14.5827680973
 10
-16.5407050001
 20
14.584285886
 10
-16.541380335
 20
14.5860025503
 10
-16.542424428
 20
14.5879222542
  0
LWPOLYLINE
  5
2D4
100
AcDbEntity
  8
268
100
AcDbPolyline
 62
7
  6
CONTINUOUS
 90
7
 70
0
 10
-16.5404444206
 20
15.1647803296
 10
-16.5405360287
 20
15.1690881309
 10
-16.5406751995
 20
15.1733994615
 10
-16.5408619329
 20
15.1777143215
 10
-16.541096229
 20
15.1820327108
 10
-16.5413780878
 20
15.1863546296
 10
-16.5417075093
 20
15.1906800776
  0
LINE
  5
2D5
100
AcDbEntity
  8
268
100
AcDbLine
 62
7
  6
CONTINUOUS
 10
-16.5404444206
 20
15.1647803296
 11
-16.5403979295
 21
15.1588026751
  0
LINE
  5
2D6
100
AcDbEntity
  8
268
100
AcDbLine
 62
250
  6
CONTINUOUS
 10
-16.6245959882
 20
14.8709664857
 11
-16.6245959882
 21
14.6587073316
  0
LINE
  5
2D7
100
AcDbEntity
  8
268
100
AcDbLine
 62
250
  6
CONTINUOUS
 10
-16.6245959882
 20
-22.0832592388
 11
-16.6245959882
 21
-22.2730289429
  0
LINE
  5
2D8
100
AcDbEntity
  8
268
100
AcDbLine
 62
7
  6
CONTINUOUS
 10
-16.5403979283
 20
15.1588200308
 11
-16.5403979283
 21
14.5824285485
  0
LINE
  5
2D9
100
AcDbEntity
  8
268
100
AcDbLine
 62
7
  6
CONTINUOUS
 10
-16.5403979283
 20
-22.0387339178
 11
-16.5403979283
 21
-22.3524849769
  0
LWPOLYLINE
  5
2DA
100
AcDbEntity
  8
268
100
AcDbPolyline
 62
7
  6
CONTINUOUS
 90
16
 70
0
 10
-16.5403979295
 20
15.1588026751
 10
-16.5406324556
 20
15.1451286832
 10
-16.5417732317
 20
15.1253634921
 10
-16.5438175633
 20
15.1055098415
 10
-16.5467087283
 20
15.0855740576
 10
-16.5503974925
 20
15.0655918212
 10
-16.5548574564
 20
15.0456299996
 10
-16.5600503147
 20
15.025709282
 10
-16.5659329719
 20
15.0058415306
 10
-16.5724935061
 20
14.9860813044
 10
-16.5797004092
 20
14.9664442378
 10
-16.5875175549
 20
14.9469422732
 10
-16.5959414943
 20
14.9276266743
 10
-16.6049543857
 20
14.9085239478
 10
-16.6145162311
 20
14.889633454
 10
-16.6245959882
 20
14.8709664857
  0
LINE
  5
2DB
100
AcDbEntity
  8
268
100
AcDbLine
 62
7
  6
CONTINUOUS
 10
-16.5404444206
 20
-22.3531638728
 11
-16.5403979295
 21
-22.3524416988
  0
LINE
  5
2DC
100
AcDbEntity
  8
RACCORDO
100
AcDbLine
 62
250
  6
CONTINUOUS
 10
-29.0487919927
 20
6.6381369577
 11
-43.3775255005
 21
13.8025037116
  0
LWPOLYLINE
  5
2DD
100
AcDbEntity
  8
268
100
AcDbPolyline
 62
7
  6
CONTINUOUS
 90
7
 70
0
 10
-16.5404444206
 20
-22.3531638728
 10
-16.5405360287
 20
-22.3536494803
 10
-16.5406751995
 20
-22.354161628
 10
-16.5408619329
 20
-22.3547003161
 10
-16.541096229
 20
-22.3552655444
 10
-16.5413780878
 20
-22.355857313
 10
-16.5417075093
 20
-22.3564756219
  0
LWPOLYLINE
  5
2DE
100
AcDbEntity
  8
RACCORDO
100
AcDbPolyline
 62
250
  6
CONTINUOUS
 90
16
 70
0
 10
-27.9416202618
 20
6.5032225452
 10
-28.0032320196
 20
6.4897750049
 10
-28.0700265985
 20
6.4795218808
 10
-28.1412962968
 20
6.4725718068
 10
-28.2162859981
 20
6.4689984203
 10
-28.2942011718
 20
6.4688395819
 10
-28.3742162914
 20
6.4720969747
 10
-28.4554835808
 20
6.4787360858
 10
-28.5371419974
 20
6.4886865727
 10
-28.618326354
 20
6.501843008
 10
-28.6981764866
 20
6.5180659966
 10
-28.7758463673
 20
6.5371836528
 10
-28.8505130684
 20
6.5589934214
 10
-28.9213854817
 20
6.5832642237
 10
-28.9877127
 20
6.6097389057
 10
-29.0487919733
 20
6.638136963
  0
LINE
  5
2DF
100
AcDbEntity
  8
RACCORDO
100
AcDbLine
 62
250
  6
CONTINUOUS
 10
-27.8818679051
 20
8.2662118164
 11
-42.2362379216
 21
15.4433968246
  0
LINE
  5
2E0
100
AcDbEntity
  8
268
100
AcDbLine
 62
7
  6
CONTINUOUS
 10
-23.2787593416
 20
8.3820782347
 11
-22.9785374589
 21
8.2319672933
  0
LINE
  5
2E1
100
AcDbEntity
  8
268
100
AcDbLine
 62
7
  6
CONTINUOUS
 10
-39.5601914777
 20
17.4818136732
 11
-23.7917102572
 21
9.597573063
  0
LINE
  5
2E2
100
AcDbEntity
  8
268
100
AcDbLine
 62
7
  6
CONTINUOUS
 10
-24.0391976306
 20
10.0488326882
 11
-39.3127041043
 21
17.685585925
  0
LINE
  5
2E3
100
AcDbEntity
  8
268
100
AcDbLine
 62
7
  6
CONTINUOUS
 10
-23.479682946
 20
10.4837398163
 11
-25.093687062
 21
11.2907418743
  0
LINE
  5
2E4
100
AcDbEntity
  8
268
100
AcDbLine
 62
7
  6
CONTINUOUS
 10
-36.8440011105
 20
17.1658988985
 11
-38.4580052265
 21
17.9729009565
  0
LINE
  5
2E5
100
AcDbEntity
  8
268
100
AcDbLine
 62
7
  6
CONTINUOUS
 10
-33.5115452297
 20
15.8570031933
 11
-27.7190361616
 21
12.9607486593
  0
LINE
  5
2E6
100
AcDbEntity
  8
268
100
AcDbLine
 62
7
  6
CONTINUOUS
 10
-25.708805897
 20
-28.8703517224
 11
-25.1300155568
 21
-28.1659079922
  0
LINE
  5
2E7
100
AcDbEntity
  8
268
100
AcDbLine
 62
7
  6
CONTINUOUS
 10
-24.1020009781
 20
-29.6737541818
 11
-23.479682946
 21
-28.9286947643
  0
LINE
  5
2E8
100
AcDbEntity
  8
268
100
AcDbLine
 62
250
  6
CONTINUOUS
 10
-24.9841624752
 20
-23.320400767
 11
-26.1445335055
 21
-23.8562985621
  0
LINE
  5
2E9
100
AcDbEntity
  8
268
100
AcDbLine
 62
7
  6
CONTINUOUS
 10
-25.1848575324
 20
-23.8340966098
 11
-26.1835605034
 21
-24.2953307377
  0
LINE
  5
2EA
100
AcDbEntity
  8
268
100
AcDbLine
 62
7
  6
CONTINUOUS
 10
-23.479682946
 20
11.120909375
 11
-24.1020009781
 21
11.2508499575
  0
LINE
  5
2EB
100
AcDbEntity
  8
268
100
AcDbLine
 62
7
  6
CONTINUOUS
 10
-39.0964028879
 20
18.7444307629
 11
-37.4898704186
 21
17.9411645282
  0
LINE
  5
2EC
100
AcDbEntity
  8
268
100
AcDbLine
 62
7
  6
CONTINUOUS
 10
-25.7320847235
 20
12.0622716807
 11
-24.1255522541
 21
11.259005446
  0
LINE
  5
2ED
100
AcDbEntity
  8
268
100
AcDbLine
 62
250
  6
CONTINUOUS
 10
-39.1609981807
 20
18.8794602112
 11
-37.5552217186
 21
18.0765719801
  0
LINE
  5
2EE
100
AcDbEntity
  8
268
100
AcDbLine
 62
250
  6
CONTINUOUS
 10
-25.7966800163
 20
12.197301129
 11
-24.1909035541
 21
11.3944128979
  0
LINE
  5
2EF
100
AcDbEntity
  8
268
100
AcDbLine
 62
250
  6
CONTINUOUS
 10
-24.1909035541
 20
11.6477842916
 11
-25.7966800163
 21
12.4506725227
  0
LINE
  5
2F0
100
AcDbEntity
  8
268
100
AcDbLine
 62
250
  6
CONTINUOUS
 10
-37.5552217186
 20
18.3299433739
 11
-39.1609981807
 21
19.1328316049
  0
LINE
  5
2F1
100
AcDbEntity
  8
268
100
AcDbLine
 62
7
  6
CONTINUOUS
 10
-35.7771701983
 20
17.704480148
 11
-33.5994131953
 21
16.6156016465
  0
LINE
  5
2F2
100
AcDbEntity
  8
268
100
AcDbLine
 62
7
  6
CONTINUOUS
 10
-26.7969140773
 20
13.2143520875
 11
-25.7157921261
 21
12.6737911119
  0
LINE
  5
2F3
100
AcDbEntity
  8
268
100
AcDbLine
 62
7
  6
CONTINUOUS
 10
-22.4128520339
 20
11.0223210658
 11
-22.2714306777
 21
10.9516103877
  0
LINE
  5
2F4
100
AcDbEntity
  8
268
100
AcDbLine
 62
250
  6
CONTINUOUS
 10
-24.0141328247
 20
11.9516498699
 11
-25.6219542338
 21
12.7555605744
  0
LINE
  5
2F5
100
AcDbEntity
  8
268
100
AcDbLine
 62
250
  6
CONTINUOUS
 10
-37.3784509892
 20
18.6338089521
 11
-38.9862723982
 21
19.4377196566
  0
LINE
  5
2F6
100
AcDbEntity
  8
268
100
AcDbLine
 62
7
  6
CONTINUOUS
 10
-33.5115452297
 20
17.0719580594
 11
-27.7190361616
 21
14.1757035254
  0
LINE
  5
2F7
100
AcDbEntity
  8
268
100
AcDbLine
 62
7
  6
CONTINUOUS
 10
-21.5643238965
 20
11.2976060891
 11
-22.3640559203
 21
11.697472101
  0
LINE
  5
2F8
100
AcDbEntity
  8
268
100
AcDbLine
 62
7
  6
CONTINUOUS
 10
-34.2458960813
 20
17.6383921815
 11
-35.7283740847
 21
18.3796311832
  0
LINE
  5
2F9
100
AcDbEntity
  8
268
100
AcDbLine
 62
7
  6
CONTINUOUS
 10
-33.0194537517
 20
17.53805749
 11
-26.7969140773
 21
14.4267876528
  0
LINE
  5
2FA
100
AcDbEntity
  8
268
100
AcDbLine
 62
7
  6
CONTINUOUS
 10
-37.4035157951
 20
20.249703754
 11
-35.7771701983
 21
19.4365309556
  0
LINE
  5
2FB
100
AcDbEntity
  8
268
100
AcDbLine
 62
7
  6
CONTINUOUS
 10
-24.0391976306
 20
13.5675446718
 11
-22.4128520339
 21
12.7543718734
  0
LINE
  5
2FC
100
AcDbEntity
  8
218_STAMPATO
100
AcDbLine
 62
250
  6
CONTINUOUS
 10
-6.7146633015
 20
-15.829592567
 11
-6.7146933913
 21
14.5344481513
  0
LINE
  5
2FD
100
AcDbEntity
  8
218_STAMPATO
100
AcDbLine
 62
7
  6
CONTINUOUS
 10
-15.2059002645
 20
-21.1855554239
 11
-15.9585943485
 21
-21.731066601
  0
LWPOLYLINE
  5
2FE
100
AcDbEntity
  8
268
100
AcDbPolyline
 62
7
  6
CONTINUOUS
 90
25
 70
0
 10
-17.2886943978
 20
-22.816316687
 10
-17.2627779874
 20
-22.8014844704
 10
-17.2362757508
 20
-22.7862174936
 10
-17.2091876878
 20
-22.7705157567
 10
-17.1814860314
 20
-22.754366654
 10
-17.1531985487
 20
-22.7377827912
 10
-17.1244085408
 20
-22.7208019852
 10
-17.0951350217
 20
-22.7034354113
 10
-17.0653589773
 20
-22.6856718944
 10
-17.0351066663
 20
-22.667515726
 10
-17.0043642319
 20
-22.6489588291
 10
-16.9731455309
 20
-22.6300092807
 10
-16.9415183913
 20
-22.6106956043
 10
-16.9094716567
 20
-22.5910109696
 10
-16.8770164836
 20
-22.5709622068
 10
-16.8442541702
 20
-22.5505983301
 10
-16.8111693961
 20
-22.5299094908
 10
-16.7777774817
 20
-22.5089055376
 10
-16.7442256863
 20
-22.4876650309
 10
-16.7104943713
 20
-22.466174745
 10
-16.6766031753
 20
-22.4444479055
 10
-16.6427582735
 20
-22.4226027498
 10
-16.6090283912
 20
-22.4006786901
 10
-16.5753448031
 20
-22.3786363142
 10
-16.5417075093
 20
-22.3564756219
  0
LWPOLYLINE
  5
2FF
100
AcDbEntity
  8
268
100
AcDbPolyline
 62
7
  6
CONTINUOUS
 90
3
 70
0
 10
-17.2886943978
 20
-22.816316687
 10
-17.3232788749
 20
-22.8351923846
 10
-17.3384456549
 20
-22.8429571209
  0
LWPOLYLINE
  5
300
100
AcDbEntity
  8
218_STAMPATO
100
AcDbPolyline
 62
250
  6
CONTINUOUS
 90
10
 70
0
 10
-7.1288137771
 20
-16.847075666
 10
-7.1198181357
 20
-16.8422333733
 10
-7.1109098358
 20
-16.8372484501
 10
-7.10209037
 20
-16.8321217318
 10
-7.0933612163
 20
-16.8268540772
 10
-7.0847238371
 20
-16.8214463691
 10
-7.0761796798
 20
-16.8158995136
 10
-7.067730176
 20
-16.81021444
 10
-7.0593767415
 20
-16.804392101
 10
-7.0542461831
 20
-16.8007135332
  0
LWPOLYLINE
  5
301
100
AcDbEntity
  8
218_STAMPATO
100
AcDbPolyline
 62
7
  6
CONTINUOUS
 90
12
 70
0
 10
-7.4717113531
 20
-17.0955889256
 10
-7.4644675007
 20
-17.0916956369
 10
-7.4572628129
 20
-17.0876985294
 10
-7.4500980641
 20
-17.0835982499
 10
-7.4429741551
 20
-17.079395425
 10
-7.4358917208
 20
-17.0750907448
 10
-7.42885113
 20
-17.0706849589
 10
-7.4218531442
 20
-17.066178733
 10
-7.4148985123
 20
-17.0615727522
 10
-7.4079875786
 20
-17.0568677978
 10
-7.401121092
 20
-17.0520645529
 10
-7.3954535425
 20
-17.048001779
  0
LINE
  5
302
100
AcDbEntity
  8
218_STAMPATO
100
AcDbLine
 62
7
  6
CONTINUOUS
 10
-7.4717113531
 20
-17.0955889256
 11
-15.2059002645
 21
-21.1855554239
  0
LINE
  5
303
100
AcDbEntity
  8
218_STAMPATO
100
AcDbLine
 62
7
  6
CONTINUOUS
 10
-21.3168365231
 20
-24.5645933269
 11
-15.9585943485
 21
-21.731066601
  0
LINE
  5
304
100
AcDbEntity
  8
218_STAMPATO
100
AcDbLine
 62
250
  6
CONTINUOUS
 10
-21.3168365231
 20
-24.3210071933
 11
-7.1288137771
 21
-16.847075666
  0
LWPOLYLINE
  5
305
100
AcDbEntity
  8
218_STAMPATO
100
AcDbPolyline
 62
250
  6
CONTINUOUS
 90
61
 70
0
 10
-21.3168365231
 20
-23.5216892574
 10
-6.705833752
 20
-15.8249620096
 10
-6.697123425
 20
-15.8202753424
 10
-6.6885337468
 20
-15.8155333327
 10
-6.6800661237
 20
-15.810736757
 10
-6.6717219421
 20
-15.8058864007
 10
-6.6635025681
 20
-15.8009830578
 10
-6.6554093476
 20
-15.7960275312
 10
-6.6474436056
 20
-15.7910206323
 10
-6.6396066463
 20
-15.7859631807
 10
-6.631899753
 20
-15.7808560047
 10
-6.6243241874
 20
-15.7756999403
 10
-6.6168811898
 20
-15.7704958318
 10
-6.609571979
 20
-15.7652445312
 10
-6.6023977516
 20
-15.7599468984
 10
-6.5953596823
 20
-15.7546038006
 10
-6.5884589234
 20
-15.7492161128
 10
-6.5816966048
 20
-15.743784717
 10
-6.5750738336
 20
-15.7383105025
 10
-6.5685916942
 20
-15.7327943657
 10
-6.562251248
 20
-15.7272372096
 10
-6.5560535329
 20
-15.7216399442
 10
-6.5499995638
 20
-15.7160034858
 10
-6.544090332
 20
-15.7103287573
 10
-6.5383268048
 20
-15.7046166879
 10
-6.532709926
 20
-15.6988682127
 10
-6.5272406152
 20
-15.693084273
 10
-6.5219197678
 20
-15.6872658158
 10
-6.5167482552
 20
-15.6814137937
 10
-6.5117269239
 20
-15.6755291649
 10
-6.5068565962
 20
-15.6696128928
 10
-6.5021380694
 20
-15.6636659461
 10
-6.4975721162
 20
-15.6576892985
 10
-6.493159484
 20
-15.6516839286
 10
-6.4889008954
 20
-15.6456508196
 10
-6.4847970476
 20
-15.6395909593
 10
-6.4808486126
 20
-15.6335053399
 10
-6.4770562367
 20
-15.6273949578
 10
-6.4734205411
 20
-15.6212608134
 10
-6.4699421208
 20
-15.615103911
 10
-6.4666215454
 20
-15.6089252588
 10
-6.4634593587
 20
-15.6027258683
 10
-6.4604560783
 20
-15.5965067546
 10
-6.457612196
 20
-15.5902689359
 10
-6.4549281773
 20
-15.5840134336
 10
-6.4524044618
 20
-15.5777412718
 10
-6.4500414627
 20
-15.5714534775
 10
-6.4478395668
 20
-15.5651510802
 10
-6.4457991347
 20
-15.5588351117
 10
-6.4439205004
 20
-15.5525066062
 10
-6.4422039715
 20
-15.5461665999
 10
-6.4406498291
 20
-15.5398161307
 10
-6.4392583277
 20
-15.5334562384
 10
-6.438029695
 20
-15.5270879644
 10
-6.4369641322
 20
-15.5207123513
 10
-6.4360618138
 20
-15.514330443
 10
-6.4353228875
 20
-15.5079432843
 10
-6.4347474744
 20
-15.5015519212
 10
-6.4343356685
 20
-15.4951573999
 10
-6.4340875374
 20
-15.4887607675
 10
-6.4340031018
 20
-15.4822634092
  0
LINE
  5
306
100
AcDbEntity
  8
268
100
AcDbLine
 62
250
  6
CONTINUOUS
 10
-21.3168365231
 20
-24.8382198706
 11
-17.2886943978
 21
-22.816316687
  0
LINE
  5
307
100
AcDbEntity
  8
268
100
AcDbLine
 62
7
  6
CONTINUOUS
 10
-21.3168365231
 20
-24.8398879514
 11
-17.3384529448
 21
-22.8429607894
  0
LINE
  5
308
100
AcDbEntity
  8
268
100
AcDbLine
 62
250
  6
CONTINUOUS
 10
-21.3168365231
 20
-24.6004148399
 11
-16.6245959882
 21
-22.2730289429
  0
LINE
  5
309
100
AcDbEntity
  8
268
100
AcDbLine
 62
250
  6
CONTINUOUS
 10
-21.3168365231
 20
-24.7222895676
 11
-16.5404444206
 21
-22.3531638728
  0
LWPOLYLINE
  5
30A
100
AcDbEntity
  8
218_STAMPATO
100
AcDbPolyline
 62
7
  6
CONTINUOUS
 90
4
 70
0
 10
-26.7797492509
 20
17.1118695592
 10
-26.780999075
 20
17.1124782956
 10
-26.7829654879
 20
17.1133721371
 10
-26.7848880051
 20
17.1141732621
  0
LINE
  5
30B
100
AcDbEntity
  8
268
100
AcDbLine
 62
7
  6
CONTINUOUS
 10
-31.6759508674
 20
17.5683744407
 11
-26.7262033991
 21
15.0935007065
  0
LINE
  5
30C
100
AcDbEntity
  8
268
100
AcDbLine
 62
250
  6
CONTINUOUS
 10
-36.8690659164
 20
20.5100512205
 11
-35.2489030266
 21
19.6999697756
  0
LINE
  5
30D
100
AcDbEntity
  8
268
100
AcDbLine
 62
250
  6
CONTINUOUS
 10
-23.504747752
 20
13.8278921383
 11
-21.8845848622
 21
13.0178106934
  0
LINE
  5
30E
100
AcDbEntity
  8
268
100
AcDbLine
 62
7
  6
CONTINUOUS
 10
-36.757646487
 20
20.5163188767
 11
-35.1387725369
 21
19.7068819017
  0
LINE
  5
30F
100
AcDbEntity
  8
268
100
AcDbLine
 62
7
  6
CONTINUOUS
 10
-23.3933283225
 20
13.8341597945
 11
-21.7744543725
 21
13.0247228195
  0
LINE
  5
310
100
AcDbEntity
  8
218_STAMPATO
100
AcDbLine
 62
7
  6
CONTINUOUS
 10
-25.4120414188
 20
15.7412178231
 11
-27.9989956053
 21
17.0346949163
  0
LINE
  5
311
100
AcDbEntity
  8
218_STAMPATO
100
AcDbLine
 62
250
  6
CONTINUOUS
 10
-24.771078224
 20
16.0571323288
 11
-26.863990455
 21
17.1035884443
  0
LINE
  5
312
100
AcDbEntity
  8
218_STAMPATO
100
AcDbLine
 62
7
  6
CONTINUOUS
 10
-24.7203147995
 20
16.0821523335
 11
-26.7797492654
 21
17.1118695665
  0
LWPOLYLINE
  5
313
100
AcDbEntity
  8
268
100
AcDbPolyline
 62
7
  6
CONTINUOUS
 90
20
 70
0
 10
-16.542424428
 20
14.5879222542
 10
-16.5438245796
 20
14.5900533189
 10
-16.5455710059
 20
14.5923617663
 10
-16.5476526158
 20
14.5948514054
 10
-16.5500575802
 20
14.5975288482
 10
-16.5527776721
 20
14.6003640642
 10
-16.5558026034
 20
14.6033605905
 10
-16.5591211047
 20
14.6065236687
 10
-16.5627252616
 20
14.6098256612
 10
-16.5666051185
 20
14.6132696439
 10
-16.57074979
 20
14.6168598883
 10
-16.5751510227
 20
14.6205703879
 10
-16.5797993613
 20
14.6244039797
 10
-16.5846838152
 20
14.6283638533
 10
-16.5897942036
 20
14.6324242737
 10
-16.5951210786
 20
14.6365874889
 10
-16.600653282
 20
14.6408558603
 10
-16.6063777532
 20
14.6452033599
 10
-16.6122829366
 20
14.649622242
 10
-16.6245959882
 20
14.6587073316
  0
LINE
  5
314
100
AcDbEntity
  8
218_STAMPATO
100
AcDbLine
 62
7
  6
CONTINUOUS
 10
-15.2059002645
 20
12.7816568827
 11
-15.9585943485
 21
14.0798621438
  0
LWPOLYLINE
  5
315
100
AcDbEntity
  8
218_STAMPATO
100
AcDbPolyline
 62
250
  6
CONTINUOUS
 90
72
 70
0
 10
-6.7146933913
 20
14.5344481513
 10
-6.7148931579
 20
14.5534897291
 10
-6.7152625837
 20
14.5726101438
 10
-6.715801636
 20
14.5918071126
 10
-6.7165102506
 20
14.611078354
 10
-6.7173883323
 20
14.6304215881
 10
-6.7184357818
 20
14.6498345148
 10
-6.7196524801
 20
14.6693148184
 10
-6.7210382714
 20
14.6888601839
 10
-6.7225929949
 20
14.7084682822
 10
-6.7243164711
 20
14.7281367797
 10
-6.7262084857
 20
14.7478633433
 10
-6.7282688175
 20
14.7676456244
 10
-6.730497226
 20
14.7874812673
 10
-6.732893438
 20
14.8073679182
 10
-6.7354571718
 20
14.8273032105
 10
-6.7381881265
 20
14.84728477
 10
-6.7410859699
 20
14.867310223
 10
-6.7441503602
 20
14.8873771857
 10
-6.7473809363
 20
14.9074832695
 10
-6.750777308
 20
14.9276260864
 10
-6.7543390734
 20
14.9478032389
 10
-6.758065812
 20
14.9680123255
 10
-6.7619570756
 20
14.9882509461
 10
-6.7660124031
 20
15.0085166924
 10
-6.7702313147
 20
15.0288071525
 10
-6.7746133047
 20
15.0491199154
 10
-6.7791578531
 20
15.0694525644
 10
-6.7838644214
 20
15.0898026797
 10
-6.7887324469
 20
15.1101678427
 10
-6.7937613513
 20
15.1305456305
 10
-6.7989505379
 20
15.1509336184
 10
-6.804299388
 20
15.1713293829
 10
-6.8098072653
 20
15.1917304977
 10
-6.8154735158
 20
15.2121345358
 10
-6.8212974649
 20
15.232539071
 10
-6.8272784197
 20
15.2529416766
 10
-6.833415669
 20
15.2733399254
 10
-6.8397084836
 20
15.2937313915
 10
-6.8461561141
 20
15.31411365
 10
-6.8527577934
 20
15.3344842764
 10
-6.8595127381
 20
15.3548408474
 10
-6.8664201433
 20
15.3751809425
 10
-6.8734791866
 20
15.3955021425
 10
-6.8806890315
 20
15.4158020294
 10
-6.8880488182
 20
15.4360781893
 10
-6.89555767
 20
15.4563282113
 10
-6.9032146982
 20
15.4765496852
 10
-6.9110189891
 20
15.496740207
 10
-6.9189696128
 20
15.516897376
 10
-6.9270656292
 20
15.5370187931
 10
-6.9353060721
 20
15.5571020668
 10
-6.9436899591
 20
15.5771448089
 10
-6.9522162992
 20
15.597144633
 10
-6.9608840749
 20
15.6170991621
 10
-6.969692252
 20
15.6370060237
 10
-6.97863979
 20
15.6568628458
 10
-6.98772562
 20
15.676667268
 10
-6.9969486582
 20
15.6964169369
 10
-7.0063078167
 20
15.7161095004
 10
-7.0158019774
 20
15.7357426183
 10
-7.0254300071
 20
15.7553139574
 10
-7.0351907708
 20
15.7748211866
 10
-7.0450831031
 20
15.7942619898
 10
-7.055105822
 20
15.813634055
 10
-7.0652577445
 20
15.8329350691
 10
-7.0755376554
 20
15.8521627356
 10
-7.0859443287
 20
15.8713147734
 10
-7.0964765414
 20
15.8903889054
 10
-7.1071330419
 20
15.9093828652
 10
-7.1179125499
 20
15.9282943967
 10
-7.4717113531
 20
16.538532089
  0
LWPOLYLINE
  5
316
100
AcDbEntity
  8
218_STAMPATO
100
AcDbPolyline
 62
7
  6
CONTINUOUS
 90
61
 70
0
 10
-6.434003102
 20
14.8628168165
 10
-6.4340938454
 20
14.8821774443
 10
-6.4343961784
 20
14.9031639184
 10
-6.4349100769
 20
14.9241804802
 10
-6.4356350342
 20
14.9452285494
 10
-6.436570418
 20
14.9663047921
 10
-6.4377152526
 20
14.9874008048
 10
-6.439068808
 20
15.0085157215
 10
-6.4406304006
 20
15.0296486341
 10
-6.442398712
 20
15.0507909373
 10
-6.4443729121
 20
15.071941864
 10
-6.4465522189
 20
15.0931004859
 10
-6.4489349351
 20
15.1142578688
 10
-6.4515201245
 20
15.1354131734
 10
-6.4543069084
 20
15.1565655718
 10
-6.457293234
 20
15.1777060439
 10
-6.4604780743
 20
15.1988337613
 10
-6.4638604408
 20
15.2199479272
 10
-6.4674379477
 20
15.2410394831
 10
-6.4712093793
 20
15.2621071082
 10
-6.4751737279
 20
15.2831505355
 10
-6.4793285938
 20
15.3041622055
 10
-6.4836725859
 20
15.3251403524
 10
-6.4882047566
 20
15.3460851852
 10
-6.4929231244
 20
15.3669920089
 10
-6.4978264948
 20
15.3878599198
 10
-6.5029137968
 20
15.4086882709
 10
-6.5081830244
 20
15.4294726461
 10
-6.513633028
 20
15.450212176
 10
-6.5192627638
 20
15.4709061795
 10
-6.5250702006
 20
15.4915504293
 10
-6.5310541268
 20
15.5121436933
 10
-6.5372136211
 20
15.532685649
 10
-6.5435469985
 20
15.553173346
 10
-6.5500531887
 20
15.5736058208
 10
-6.5567312536
 20
15.5939824593
 10
-6.5635796752
 20
15.6143007488
 10
-6.570597487
 20
15.6345598549
 10
-6.577783787
 20
15.6547590005
 10
-6.5851370871
 20
15.6748956878
 10
-6.5926564048
 20
15.6949688591
 10
-6.6003409909
 20
15.7149779233
 10
-6.6081896256
 20
15.7349210271
 10
-6.616201434
 20
15.7547971429
 10
-6.6243757266
 20
15.7746055966
 10
-6.6327115435
 20
15.7943450096
 10
-6.6412081779
 20
15.81401449
 10
-6.6498649499
 20
15.8336131634
 10
-6.658680985
 20
15.8531396184
 10
-6.6676556659
 20
15.8725929514
 10
-6.6767883869
 20
15.8919722286
 10
-6.686078328
 20
15.9112759541
 10
-6.6955249202
 20
15.9305031444
 10
-6.7051276817
 20
15.9496528874
 10
-6.7148859137
 20
15.9687237762
 10
-6.7247991276
 20
15.9877147839
 10
-6.7348669038
 20
16.0066249002
 10
-6.7450886845
 20
16.0254528235
 10
-6.7554640951
 20
16.0441975054
 10
-6.7659927698
 20
16.0628578666
 10
-6.7759705298
 20
16.0802196132
  0
LINE
  5
317
100
AcDbEntity
  8
218_STAMPATO
100
AcDbLine
 62
7
  6
CONTINUOUS
 10
-6.4340031018
 20
-15.4822633818
 11
-6.4340031018
 21
14.862816864
  0
LWPOLYLINE
  5
318
100
AcDbEntity
  8
218_STAMPATO
100
AcDbPolyline
 62
250
  6
CONTINUOUS
 90
73
 70
0
 10
-7.1288137771
 20
-16.847075666
 10
-7.1179125499
 20
-16.8390400454
 10
-7.1071330419
 20
-16.8308009547
 10
-7.0964765414
 20
-16.8223593776
 10
-7.0859443287
 20
-16.8137163258
 10
-7.0755376554
 20
-16.804872827
 10
-7.0652577445
 20
-16.7958299243
 10
-7.055105822
 20
-16.7865886946
 10
-7.0450831031
 20
-16.7771502418
 10
-7.0351907708
 20
-16.7675156849
 10
-7.0254300071
 20
-16.7576861734
 10
-7.0158019774
 20
-16.7476628788
 10
-7.0063078167
 20
-16.7374469877
 10
-6.9969486582
 20
-16.7270397177
 10
-6.98772562
 20
-16.7164423094
 10
-6.97863979
 20
-16.7056560184
 10
-6.969692252
 20
-16.6946821293
 10
-6.9608840749
 20
-16.6835219502
 10
-6.9522162992
 20
-16.6721768052
 10
-6.9436899591
 20
-16.6606480456
 10
-6.9353060721
 20
-16.6489370447
 10
-6.9270656292
 20
-16.6370451922
 10
-6.9189696128
 20
-16.6249739041
 10
-6.9110189891
 20
-16.6127246179
 10
-6.9032146982
 20
-16.6002987875
 10
-6.89555767
 20
-16.5876978917
 10
-6.8880488182
 20
-16.5749234312
 10
-6.8806890315
 20
-16.5619769229
 10
-6.8734791866
 20
-16.5488599075
 10
-6.8664201433
 20
-16.5355739464
 10
-6.8595127381
 20
-16.5221206184
 10
-6.8527577934
 20
-16.508501524
 10
-6.8461561141
 20
-16.4947182841
 10
-6.8397084836
 20
-16.4807725368
 10
-6.833415669
 20
-16.4666659412
 10
-6.8272784197
 20
-16.4524001758
 10
-6.8212974649
 20
-16.4379769365
 10
-6.8154735158
 20
-16.4233979388
 10
-6.8098072653
 20
-16.4086649172
 10
-6.804299388
 20
-16.3937796238
 10
-6.7989505379
 20
-16.3787438286
 10
-6.7937613513
 20
-16.3635593201
 10
-6.7887324469
 20
-16.3482279048
 10
-6.7838644214
 20
-16.3327514055
 10
-6.7791578531
 20
-16.3171316628
 10
-6.7746133047
 20
-16.3013705357
 10
-6.7702313147
 20
-16.2854698978
 10
-6.7660124031
 20
-16.2694316398
 10
-6.7619570756
 20
-16.2532576708
 10
-6.758065812
 20
-16.2369499134
 10
-6.7543390734
 20
-16.2205103063
 10
-6.750777308
 20
-16.2039408066
 10
-6.7473809363
 20
-16.1872433832
 10
-6.7441503602
 20
-16.1704200212
 10
-6.7410859699
 20
-16.1534727245
 10
-6.7381881265
 20
-16.1364035065
 10
-6.7354571718
 20
-16.1192143964
 10
-6.732893438
 20
-16.1019074428
 10
-6.730497226
 20
-16.0844847026
 10
-6.7282688175
 20
-16.0669482459
 10
-6.7262084857
 20
-16.0493001616
 10
-6.7243164711
 20
-16.0315425464
 10
-6.7225929949
 20
-16.0136775104
 10
-6.7210382714
 20
-15.9957071817
 10
-6.7196524801
 20
-15.9776336934
 10
-6.7184357818
 20
-15.9594591945
 10
-6.7173883323
 20
-15.9411858555
 10
-6.7165102506
 20
-15.9228158502
 10
-6.715801636
 20
-15.9043513578
 10
-6.7152625837
 20
-15.8857945736
 10
-6.7148931579
 20
-15.8671477026
 10
-6.7146933913
 20
-15.8484129587
 10
-6.7146633015
 20
-15.829592567
  0
LWPOLYLINE
  5
319
100
AcDbEntity
  8
218_STAMPATO
100
AcDbPolyline
 62
7
  6
CONTINUOUS
 90
82
 70
0
 10
-7.0542456266
 20
-16.8007131297
 10
-7.0423458537
 20
-16.7919917596
 10
-7.0288477889
 20
-16.7818602039
 10
-7.0154613223
 20
-16.7715553455
 10
-7.0021896494
 20
-16.7610792504
 10
-6.989033952
 20
-16.7504324661
 10
-6.9759934308
 20
-16.7396138735
 10
-6.9630701561
 20
-16.7286246491
 10
-6.9502662964
 20
-16.7174661025
 10
-6.9375812776
 20
-16.7061371202
 10
-6.9250172459
 20
-16.6946389391
 10
-6.9125763125
 20
-16.6829728344
 10
-6.9002579636
 20
-16.671137581
 10
-6.8880642339
 20
-16.6591342968
 10
-6.8759973677
 20
-16.6469643687
 10
-6.8640572573
 20
-16.6346268172
 10
-6.8522459726
 20
-16.6221228287
 10
-6.8405656801
 20
-16.6094537428
 10
-6.8290164965
 20
-16.5966186645
 10
-6.8176005368
 20
-16.5836188707
 10
-6.8063198759
 20
-16.5704556516
 10
-6.7951746437
 20
-16.5571279961
 10
-6.7841670101
 20
-16.5436372591
 10
-6.7732989619
 20
-16.5299846618
 10
-6.7625704515
 20
-16.5161688254
 10
-6.7519836532
 20
-16.5021911232
 10
-6.7415405429
 20
-16.4880527378
 10
-6.7312408873
 20
-16.4737518277
 10
-6.7210867885
 20
-16.4592896552
 10
-6.7110803088
 20
-16.4446674798
 10
-6.7012212866
 20
-16.4298832604
 10
-6.6915117663
 20
-16.4149381373
 10
-6.6819538886
 20
-16.3998334543
 10
-6.6725477639
 20
-16.3845672818
 10
-6.6632952773
 20
-16.3691404333
 10
-6.654198754
 20
-16.3535545314
 10
-6.6452590542
 20
-16.3378086823
 10
-6.6364782205
 20
-16.3219039836
 10
-6.6278583661
 20
-16.3058417646
 10
-6.6194005112
 20
-16.2896213116
 10
-6.6111067223
 20
-16.2732438259
 10
-6.6029790262
 20
-16.2567105141
 10
-6.5950184245
 20
-16.2400205066
 10
-6.5872270159
 20
-16.2231751302
 10
-6.5796067419
 20
-16.2061754312
 10
-6.5721584273
 20
-16.1890199444
 10
-6.5648839952
 20
-16.1717095725
 10
-6.5577855661
 20
-16.1542457183
 10
-6.5508643193
 20
-16.1366274877
 10
-6.5441219565
 20
-16.1188551911
 10
-6.5375607955
 20
-16.1009307637
 10
-6.5311828984
 20
-16.0828556053
 10
-6.5249901665
 20
-16.0646308001
 10
-6.5189845187
 20
-16.0462575075
 10
-6.5131679276
 20
-16.0277371199
 10
-6.507542215
 20
-16.0090707038
 10
-6.5021092193
 20
-15.9902594008
 10
-6.496870832
 20
-15.971304585
 10
-6.4918285024
 20
-15.952206111
 10
-6.4869843335
 20
-15.9329662683
 10
-6.4823409839
 20
-15.9135899833
 10
-6.4778997878
 20
-15.8940771895
 10
-6.4736626132
 20
-15.8744300954
 10
-6.4696324828
 20
-15.8546570022
 10
-6.4658107047
 20
-15.834758972
 10
-6.4621986081
 20
-15.8147371164
 10
-6.4587987092
 20
-15.7945998014
 10
-6.4556120656
 20
-15.7743481098
 10
-6.4526397561
 20
-15.7539831214
 10
-6.4498838021
 20
-15.7335131943
 10
-6.4473450123
 20
-15.7129392442
 10
-6.445024265
 20
-15.6922624857
 10
-6.4429231575
 20
-15.671491727
 10
-6.4410422949
 20
-15.6506279837
 10
-6.4393823209
 20
-15.6296723126
 10
-6.4379443668
 20
-15.6086336165
 10
-6.436728844
 20
-15.5875129472
 10
-6.4357361923
 20
-15.5663113044
 10
-6.4349670978
 20
-15.5450374699
 10
-6.4344218523
 20
-15.5236949762
 10
-6.4341006006
 20
-15.502282374
 10
-6.434003102
 20
-15.4822634092
  0
LINE
  5
31A
100
AcDbEntity
  8
218_STAMPATO
100
AcDbLine
 62
250
  6
CONTINUOUS
 10
-7.4717113531
 20
-17.0955889256
 11
-7.1288137771
 21
-16.847075666
  0
LINE
  5
31B
100
AcDbEntity
  8
218_STAMPATO
100
AcDbLine
 62
7
  6
CONTINUOUS
 10
-7.3954534895
 20
-17.0480017786
 11
-7.0542461831
 21
-16.8007135332
  0
LINE
  5
31C
100
AcDbEntity
  8
268
100
AcDbLine
 62
7
  6
CONTINUOUS
 10
-22.9785374589
 20
-27.9786735731
 11
-23.7917102572
 21
-28.5075447035
  0
LINE
  5
31D
100
AcDbEntity
  8
268
100
AcDbLine
 62
250
  6
CONTINUOUS
 10
-22.0239433043
 20
-27.6669509553
 11
-21.3168365231
 21
-27.3058398755
  0
LWPOLYLINE
  5
31E
100
AcDbEntity
  8
RACCORDO
100
AcDbPolyline
 62
250
  6
CONTINUOUS
 90
16
 70
0
 10
-31.1991594794
 20
-30.1422947639
 10
-31.2616665061
 20
-30.1658172799
 10
-31.3293467237
 20
-30.1860386503
 10
-31.4014830571
 20
-30.2027446286
 10
-31.4773112188
 20
-30.2157582143
 10
-31.5560278058
 20
-30.2249415277
 10
-31.6367988125
 20
-30.2301972714
 10
-31.7187684662
 20
-30.2314697605
 10
-31.8010682948
 20
-30.2287455128
 10
-31.8828263279
 20
-30.222053392
 10
-31.9631763355
 20
-30.2114643013
 10
-32.0412670055
 20
-30.1970904327
 10
-32.1162709638
 20
-30.1790840781
 10
-32.1873935401
 20
-30.1576360158
 10
-32.2538811874
 20
-30.1329734888
 10
-32.3150294661
 20
-30.1053577978
  0
LWPOLYLINE
  5
31F
100
AcDbEntity
  8
268
100
AcDbPolyline
 62
7
  6
CONTINUOUS
 90
13
 70
0
 10
-17.2886943978
 20
15.6719399612
 10
-17.3233452077
 20
15.6783696424
 10
-17.3585494308
 20
15.6837527951
 10
-17.3942692827
 20
15.688114936
 10
-17.4304945996
 20
15.6915088591
 10
-17.4671623377
 20
15.6939386088
 10
-17.5041585476
 20
15.695349838
 10
-17.5414455825
 20
15.6957599729
 10
-17.5789965644
 20
15.6951960914
 10
-17.6167172653
 20
15.6936041032
 10
-17.65455664
 20
15.6909750122
 10
-17.6925058262
 20
15.687353031
 10
-17.7305352657
 20
15.6827582415
  0
LINE
  5
320
100
AcDbEntity
  8
268
100
AcDbLine
 62
7
  6
CONTINUOUS
 10
-36.8440011105
 20
17.8030684572
 11
-37.4663191426
 21
17.9330090398
  0
LWPOLYLINE
  5
321
100
AcDbEntity
  8
218_STAMPATO
100
AcDbPolyline
 62
7
  6
CONTINUOUS
 90
35
 70
0
 10
-26.7848880051
 20
17.1141732621
 10
-26.7869819468
 20
17.1149673334
 10
-26.7890305932
 20
17.115668149
 10
-26.7911051733
 20
17.1163040897
 10
-26.7932050181
 20
17.1168749697
 10
-26.7953293447
 20
17.1173805731
 10
-26.7974773657
 20
17.1178207087
 10
-26.799648391
 20
17.1181952612
 10
-26.8018416116
 20
17.1185040828
 10
-26.8040562146
 20
17.1187470503
 10
-26.8062914914
 20
17.1189241196
 10
-26.8085466096
 20
17.119035211
 10
-26.8108207332
 20
17.1190802698
 10
-26.813113138
 20
17.119059323
 10
-26.8154229705
 20
17.1189723596
 10
-26.8177493746
 20
17.118819393
 10
-26.8200916129
 20
17.1186005217
 10
-26.8224488136
 20
17.1183158027
 10
-26.8248201033
 20
17.117965318
 10
-26.827204734
 20
17.1175492367
 10
-26.8296018183
 20
17.1170676841
 10
-26.8320104681
 20
17.11652081
 10
-26.8344299278
 20
17.1159088537
 10
-26.8368592972
 20
17.1152320083
 10
-26.8392976762
 20
17.1144904907
 10
-26.8417443042
 20
17.11368461
 10
-26.8441982711
 20
17.1128146259
 10
-26.8466586677
 20
17.1118808223
 10
-26.8491247309
 20
17.1108835763
 10
-26.8515955435
 20
17.1098232139
 10
-26.8540701903
 20
17.1087000845
 10
-26.8565479082
 20
17.1075146326
 10
-26.8590278294
 20
17.1062672745
 10
-26.8615089817
 20
17.1049583985
 10
-26.8639904443
 20
17.1035884389
  0
LWPOLYLINE
  5
322
100
AcDbEntity
  8
218_STAMPATO
100
AcDbPolyline
 62
7
  6
CONTINUOUS
 90
104
 70
0
 10
-26.7848880168
 20
17.1141732679
 10
-26.7878184889
 20
17.1153363911
 10
-26.7987808556
 20
17.1196054375
 10
-26.8098183248
 20
17.1237759683
 10
-26.8209302309
 20
17.1278488815
 10
-26.8321145306
 20
17.1318245324
 10
-26.8433691572
 20
17.135703251
 10
-26.8546933195
 20
17.1394857663
 10
-26.8660849813
 20
17.1431723674
 10
-26.8775421306
 20
17.1467633251
 10
-26.889063903
 20
17.1502592519
 10
-26.9006482626
 20
17.1536603749
 10
-26.9122932433
 20
17.1569669202
 10
-26.9239979855
 20
17.1601794234
 10
-26.935760507
 20
17.1632980701
 10
-26.9475788237
 20
17.1663230393
 10
-26.9594520021
 20
17.1692547743
 10
-26.9713780796
 20
17.1720934212
 10
-26.9833550748
 20
17.1748391319
 10
-26.9953819789
 20
17.1774922661
 10
-27.0074567677
 20
17.1800529279
 10
-27.0195775359
 20
17.1825212638
 10
-27.0317434169
 20
17.184897603
 10
-27.043952317
 20
17.1871820181
 10
-27.0562024176
 20
17.1893746432
 10
-27.0684932329
 20
17.1914758165
 10
-27.0808228031
 20
17.1934856111
 10
-27.093189202
 20
17.1954041021
 10
-27.1055919614
 20
17.1972315693
 10
-27.1180291485
 20
17.1989680648
 10
-27.130498832
 20
17.2006136299
 10
-27.1430005116
 20
17.2021684877
 10
-27.1555322799
 20
17.203632667
 10
-27.1680921965
 20
17.2050061828
 10
-27.1806796843
 20
17.2062892027
 10
-27.1932928698
 20
17.2074817333
 10
-27.205929788
 20
17.2085837721
 10
-27.2185897032
 20
17.2095954283
 10
-27.2312707054
 20
17.2105166861
 10
-27.2439708688
 20
17.2113475406
 10
-27.2566894171
 20
17.2120880567
 10
-27.269424433
 20
17.2127382052
 10
-27.282173998
 20
17.213297976
 10
-27.2949373189
 20
17.2137673919
 10
-27.3077124812
 20
17.2141464175
 10
-27.3204975614
 20
17.2144350325
 10
-27.3332917397
 20
17.2146332211
 10
-27.3460931122
 20
17.2147409447
 10
-27.3588997401
 20
17.2147581693
 10
-27.3717107449
 20
17.2146848464
 10
-27.3845242071
 20
17.2145209333
 10
-27.3973381952
 20
17.2142663826
 10
-27.4101518167
 20
17.2139211197
 10
-27.4229631449
 20
17.2134850933
 10
-27.4357702434
 20
17.2129582435
 10
-27.4485722171
 20
17.212340471
 10
-27.4613671517
 20
17.21163171
 10
-27.4741530837
 20
17.2108318927
 10
-27.4869290571
 20
17.2099408956
 10
-27.4996931658
 20
17.2089586368
 10
-27.5124434227
 20
17.2078850458
 10
-27.5251787587
 20
17.206719977
 10
-27.5378972225
 20
17.2054633401
 10
-27.550596858
 20
17.2041150596
 10
-27.5632765914
 20
17.2026749565
 10
-27.5759344572
 20
17.2011429322
 10
-27.5885684985
 20
17.1995189031
 10
-27.601177657
 20
17.1978026501
 10
-27.6137599406
 20
17.1959940701
 10
-27.6263134016
 20
17.1940930611
 10
-27.6388370658
 20
17.1920993508
 10
-27.6513289393
 20
17.1900128231
 10
-27.6637870514
 20
17.1878333533
 10
-27.6762105013
 20
17.185560612
 10
-27.6885972948
 20
17.1831944597
 10
-27.7009454274
 20
17.1807347456
 10
-27.713254039
 20
17.1781810826
 10
-27.7255211302
 20
17.1755332972
 10
-27.7377446592
 20
17.1727912115
 10
-27.7499237622
 20
17.1699543806
 10
-27.7620566911
 20
17.1670225239
 10
-27.7741411034
 20
17.1639954979
 10
-27.7861753049
 20
17.1608730035
 10
-27.7981574817
 20
17.1576547426
 10
-27.8100853388
 20
17.1543405493
 10
-27.8219565366
 20
17.1509302707
 10
-27.8337690199
 20
17.1474236638
 10
-27.8455207474
 20
17.1438204878
 10
-27.8572094934
 20
17.1401205385
 10
-27.8688332111
 20
17.1363235553
 10
-27.880389858
 20
17.1324292697
 10
-27.8918773361
 20
17.128437408
 10
-27.9032936285
 20
17.1243476712
 10
-27.9146366547
 20
17.1201597595
 10
-27.9259043805
 20
17.1158733397
 10
-27.937094747
 20
17.1114880816
 10
-27.948205708
 20
17.1070036168
 10
-27.9592354157
 20
17.1024194883
 10
-27.9701817626
 20
17.097735316
 10
-27.9810426878
 20
17.0929506686
 10
-27.9918166076
 20
17.0880648837
 10
-28.0025016634
 20
17.0830773633
 10
-28.0130954525
 20
17.0779877496
 10
-28.0224020098
 20
17.0733934307
  0
LINE
  5
323
100
AcDbEntity
  8
268
100
AcDbLine
 62
7
  6
CONTINUOUS
 10
-24.2085276544
 20
16.3343992398
 11
-27.0090461116
 21
17.7346584685
  0
LINE
  5
324
100
AcDbEntity
  8
268
100
AcDbLine
 62
7
  6
CONTINUOUS
 10
-27.3625995022
 20
18.4639933531
 11
-27.0090461116
 21
18.2872166578
  0
LINE
  5
325
100
AcDbEntity
  8
268
100
AcDbLine
 62
7
  6
CONTINUOUS
 10
-22.8007119581
 20
17.0282758982
 11
-25.6112616051
 21
18.4335507217
  0
LINE
  5
326
100
AcDbEntity
  8
218_STAMPATO
100
AcDbLine
 62
7
  6
CONTINUOUS
 10
-16.7463829962
 20
14.4737564676
 11
-15.9585943485
 21
14.0798621438
  0
LINE
  5
327
100
AcDbEntity
  8
268
100
AcDbLine
 62
7
  6
CONTINUOUS
 10
-24.251329665
 20
18.5072989091
 11
-22.0415887768
 21
17.402428465
  0
LINE
  5
328
100
AcDbEntity
  8
268
100
AcDbLine
 62
7
  6
CONTINUOUS
 10
-21.2960039537
 20
17.0296360535
 11
-21.1501905436
 21
16.9567293484
  0
LWPOLYLINE
  5
329
100
AcDbEntity
  8
268
100
AcDbPolyline
 62
7
  6
CONTINUOUS
 90
17
 70
0
 10
-16.5417075093
 20
15.1906800776
 10
-16.5753448031
 20
15.2267422281
 10
-16.6090283912
 20
15.2613808878
 10
-16.6427582735
 20
15.2945960566
 10
-16.6766031753
 20
15.3264033605
 10
-16.7104943713
 20
15.3567871736
 10
-16.7442256863
 20
15.3857006178
 10
-16.7777774817
 20
15.4131197931
 10
-16.8111693961
 20
15.4390685994
 10
-16.8442541702
 20
15.4635718579
 10
-16.8770164836
 20
15.4866155648
 10
-16.9094716567
 20
15.5082137238
 10
-16.9415183913
 20
15.5284331679
 10
-16.9731455309
 20
15.5472670819
 10
-17.0043642319
 20
15.5647222808
 10
-17.0351066663
 20
15.5808860423
 10
-17.0422564446
 20
15.5845009295
  0
LINE
  5
32A
100
AcDbEntity
  8
268
100
AcDbLine
 62
7
  6
CONTINUOUS
 10
-22.4128520339
 20
-29.5076678313
 11
-21.8845848622
 21
-29.2366567726
  0
LINE
  5
32B
100
AcDbEntity
  8
268
100
AcDbLine
 62
7
  6
CONTINUOUS
 10
-22.1139121221
 20
-27.8557635086
 11
-21.4068053409
 21
-27.4946524289
  0
LINE
  5
32C
100
AcDbEntity
  8
268
100
AcDbLine
 62
7
  6
CONTINUOUS
 10
-22.1139120978
 20
-27.8557634967
 11
-22.1159196931
 21
-27.8567672029
  0
LINE
  5
32D
100
AcDbEntity
  8
268
100
AcDbLine
 62
250
  6
CONTINUOUS
 10
-23.7917102572
 20
-28.5319402088
 11
-22.0239433043
 21
-27.6669509553
  0
LINE
  5
32E
100
AcDbEntity
  8
268
100
AcDbLine
 62
7
  6
CONTINUOUS
 10
-23.8836866952
 20
-28.7217564805
 11
-22.1159197423
 21
-27.856767227
  0
LINE
  5
32F
100
AcDbEntity
  8
268
100
AcDbLine
 62
7
  6
CONTINUOUS
 10
-24.0141328247
 20
-30.2877024309
 11
-22.4128520339
 21
-29.5076678313
  0
LINE
  5
330
100
AcDbEntity
  8
RACCORDO
100
AcDbLine
 62
250
  6
CONTINUOUS
 10
-30.7521984517
 20
-30.5608364483
 11
-26.6201228666
 21
-29.2064162434
  0
LINE
  5
331
100
AcDbEntity
  8
RACCORDO
100
AcDbLine
 62
7
  6
CONTINUOUS
 10
-26.9242346752
 20
-29.6793943145
 11
-31.0542552762
 21
-31.0331405724
  0
LINE
  5
332
100
AcDbEntity
  8
268
100
AcDbLine
 62
7
  6
CONTINUOUS
 10
-25.6112616051
 20
18.4335507217
 11
-24.251329665
 21
18.5072989091
  0
LWPOLYLINE
  5
333
100
AcDbEntity
  8
268
100
AcDbPolyline
 62
7
  6
CONTINUOUS
 90
18
 70
0
 10
-24.5112272365
 20
19.3189642287
 10
-24.530775221
 20
19.3280469155
 10
-24.5536710012
 20
19.3370323302
 10
-24.5771802875
 20
19.344534563
 10
-24.6013216096
 20
19.3505687328
 10
-24.6260113629
 20
19.3551145172
 10
-24.6512727892
 20
19.3581685006
 10
-24.6770826466
 20
19.3597340986
 10
-24.7032876055
 20
19.3598012351
 10
-24.7298715681
 20
19.3583624592
 10
-24.7568506321
 20
19.3554252218
 10
-24.7841197608
 20
19.3510018006
 10
-24.8116939404
 20
19.3450834149
 10
-24.8395581847
 20
19.3376788454
 10
-24.8675624978
 20
19.3288267108
 10
-24.895656881
 20
19.3185398841
 10
-24.923891333
 20
19.3068054924
 10
-24.9522658537
 20
19.2936235356
  0
LWPOLYLINE
  5
334
100
AcDbEntity
  8
268
100
AcDbPolyline
 62
7
  6
CONTINUOUS
 90
10
 70
0
 10
-17.0422564446
 20
15.5845009295
 10
-17.0653589773
 20
15.5957539215
 10
-17.0951350217
 20
15.6093303633
 10
-17.1244085408
 20
15.62171598
 10
-17.1531985487
 20
15.6329177766
 10
-17.1814860314
 20
15.6429287481
 10
-17.2091876878
 20
15.6518284925
 10
-17.2362757508
 20
15.6596435425
 10
-17.2627779874
 20
15.6663473654
 10
-17.2886943978
 20
15.6719399612
  0
LINE
  5
335
100
AcDbEntity
  8
268
100
AcDbLine
 62
7
  6
CONTINUOUS
 10
-27.1187874106
 20
20.2042714617
 11
-26.9383354335
 21
20.1140454731
  0
LINE
  5
336
100
AcDbEntity
  8
268
100
AcDbLine
 62
7
  6
CONTINUOUS
 10
-21.5643238965
 20
17.4270397046
 11
-21.3838719193
 21
17.336813716
  0
LINE
  5
337
100
AcDbEntity
  8
268
100
AcDbLine
 62
250
  6
CONTINUOUS
 10
-27.9313557547
 20
20.783168486
 11
-24.9522658537
 21
19.2936235356
  0
LINE
  5
338
100
AcDbEntity
  8
268
100
AcDbLine
 62
250
  6
CONTINUOUS
 10
-20.7096251666
 20
17.172303192
 11
-17.7305352657
 21
15.6827582415
  0
LINE
  5
339
100
AcDbEntity
  8
268
100
AcDbLine
 62
7
  6
CONTINUOUS
 10
-20.2685821636
 20
17.1976526586
 11
-17.0422589204
 21
15.584491037
  0
LWPOLYLINE
  5
33A
100
AcDbEntity
  8
218_STAMPATO
100
AcDbPolyline
 62
250
  6
CONTINUOUS
 90
52
 70
0
 10
-13.5673817041
 20
19.826133916
 10
-13.5743678512
 20
19.8294356213
 10
-13.5816087761
 20
19.8326724399
 10
-13.5889215682
 20
19.835757958
 10
-13.5963050019
 20
19.8386916585
 10
-13.6037578402
 20
19.8414730499
 10
-13.6112788343
 20
19.8441016661
 10
-13.618866724
 20
19.8465770667
 10
-13.6265202378
 20
19.8488988369
 10
-13.6342380934
 20
19.8510665877
 10
-13.6420189975
 20
19.8530799558
 10
-13.6498616464
 20
19.8549386039
 10
-13.6577647261
 20
19.8566422205
 10
-13.6657269122
 20
19.8581905203
 10
-13.6737468707
 20
19.8595832437
 10
-13.6818232577
 20
19.8608201574
 10
-13.6899547199
 20
19.8619010542
 10
-13.6981398949
 20
19.8628257529
 10
-13.7063774112
 20
19.8635940986
 10
-13.7146658886
 20
19.8642059626
 10
-13.7230039381
 20
19.8646612423
 10
-13.7313901627
 20
19.8649598614
 10
-13.7398231572
 20
19.8651017699
 10
-13.7483015086
 20
19.8650869441
 10
-13.7568237963
 20
19.8649153864
 10
-13.7653885923
 20
19.8645871256
 10
-13.7739944615
 20
19.8641022166
 10
-13.7826399619
 20
19.8634607407
 10
-13.7913236449
 20
19.8626628055
 10
-13.8000440554
 20
19.8617085445
 10
-13.8087997323
 20
19.8605981178
 10
-13.8175892085
 20
19.8593317112
 10
-13.8264110113
 20
19.8579095372
 10
-13.8352636624
 20
19.8563318339
 10
-13.8441456786
 20
19.8545988657
 10
-13.8530555715
 20
19.852710923
 10
-13.8619918483
 20
19.8506683221
 10
-13.8709530116
 20
19.8484714053
 10
-13.8799375598
 20
19.8461205406
 10
-13.8889439877
 20
19.8436161221
 10
-13.897970786
 20
19.8409585693
 10
-13.9070164422
 20
19.8381483275
 10
-13.9160794406
 20
19.8351858676
 10
-13.9251582628
 20
19.8320716861
 10
-13.9342513874
 20
19.8288063046
 10
-13.9433572908
 20
19.8253902704
 10
-13.9524744472
 20
19.8218241558
 10
-13.961601329
 20
19.8181085583
 10
-13.970736407
 20
19.8142441006
 10
-13.9798781503
 20
19.8102314301
 10
-13.9890250274
 20
19.8060712193
 10
-13.9981755054
 20
19.8017641652
  0
LINE
  5
33B
100
AcDbEntity
  8
218_STAMPATO
100
AcDbLine
 62
250
  6
CONTINUOUS
 10
-13.5633026249
 20
19.8241274948
 11
-13.5673817041
 21
19.826133916
  0
LINE
  5
33C
100
AcDbEntity
  8
218_STAMPATO
100
AcDbLine
 62
250
  6
CONTINUOUS
 10
-7.4717113531
 20
16.538532089
 11
-13.9981755054
 21
19.8017641652
  0
LINE
  5
33D
100
AcDbEntity
  8
218_STAMPATO
100
AcDbLine
 62
7
  6
CONTINUOUS
 10
-7.1028129223
 20
16.5938826435
 11
-13.5633026249
 21
19.8241274948
  0
LWPOLYLINE
  5
33E
100
AcDbEntity
  8
218_STAMPATO
100
AcDbPolyline
 62
250
  6
CONTINUOUS
 90
52
 70
0
 10
-13.9981755054
 20
19.8017641652
 10
-14.007267646
 20
19.8063930271
 10
-14.0163603429
 20
19.8108717304
 10
-14.0254520389
 20
19.8151995081
 10
-14.0345411767
 20
19.8193756189
 10
-14.0436261996
 20
19.8233993476
 10
-14.0527055514
 20
19.8272700048
 10
-14.0617776771
 20
19.8309869278
 10
-14.0708410228
 20
19.8345494799
 10
-14.0798940362
 20
19.8379570508
 10
-14.0889351666
 20
19.8412090569
 10
-14.0979628656
 20
19.8443049413
 10
-14.1069755869
 20
19.8472441736
 10
-14.1159717868
 20
19.8500262505
 10
-14.1249499244
 20
19.8526506954
 10
-14.1339084619
 20
19.8551170588
 10
-14.1428458651
 20
19.8574249184
 10
-14.151760603
 20
19.8595738787
 10
-14.1606511488
 20
19.8615635718
 10
-14.1695159798
 20
19.8633936568
 10
-14.1783535775
 20
19.8650638203
 10
-14.1871624283
 20
19.8665737762
 10
-14.1959410235
 20
19.8679232659
 10
-14.2046878593
 20
19.8691120583
 10
-14.2134014378
 20
19.8701399497
 10
-14.2220802664
 20
19.8710067642
 10
-14.2307228586
 20
19.8717123531
 10
-14.2393277342
 20
19.8722565958
 10
-14.2478934193
 20
19.8726393988
 10
-14.2564184469
 20
19.8728606968
 10
-14.2649013567
 20
19.8729204518
 10
-14.2733406958
 20
19.8728186535
 10
-14.2817350187
 20
19.8725553194
 10
-14.2900828878
 20
19.8721304946
 10
-14.2983828731
 20
19.8715442518
 10
-14.306633553
 20
19.8707966916
 10
-14.3148335145
 20
19.8698879418
 10
-14.3229813529
 20
19.8688181582
 10
-14.3310756729
 20
19.8675875239
 10
-14.3391150879
 20
19.8661962499
 10
-14.347098221
 20
19.8646445743
 10
-14.3550237049
 20
19.8629327629
 10
-14.3628901821
 20
19.861061109
 10
-14.3706963053
 20
19.859029933
 10
-14.3784407374
 20
19.856839583
 10
-14.3861221519
 20
19.854490434
 10
-14.3937392333
 20
19.8519828885
 10
-14.4012906768
 20
19.8493173758
 10
-14.4087751892
 20
19.8464943526
 10
-14.4161914883
 20
19.8435143024
 10
-14.423538304
 20
19.8403777355
 10
-14.4297949305
 20
19.8375578715
  0
LWPOLYLINE
  5
33F
100
AcDbEntity
  8
218_STAMPATO
100
AcDbPolyline
 62
7
  6
CONTINUOUS
 90
24
 70
0
 10
-7.1028129223
 20
16.5938826435
 10
-7.0998024767
 20
16.5923382552
 10
-7.0963272432
 20
16.5904546019
 10
-7.0929199923
 20
16.5884971106
 10
-7.0895811413
 20
16.5864662474
 10
-7.0863110939
 20
16.5843624813
 10
-7.0831095472
 20
16.5821859351
 10
-7.0799768996
 20
16.5799370937
 10
-7.0769135365
 20
16.5776164453
 10
-7.073919127
 20
16.5752241248
 10
-7.0709940506
 20
16.5727606354
 10
-7.0681386744
 20
16.5702264835
 10
-7.0653526406
 20
16.5676218155
 10
-7.0626363098
 20
16.5649471522
 10
-7.0599900308
 20
16.5622030174
 10
-7.0574134195
 20
16.5593895687
 10
-7.054906818
 20
16.5565073436
 10
-7.0524705565
 20
16.5535568824
 10
-7.050104226
 20
16.5505383535
 10
-7.0478081497
 20
16.5474523102
 10
-7.0455826396
 20
16.5442993089
 10
-7.0434272625
 20
16.5410795279
 10
-7.0413423228
 20
16.5377935356
 10
-7.0393281145
 20
16.5344419036
  0
LINE
  5
340
100
AcDbEntity
  8
218_STAMPATO
100
AcDbLine
 62
7
  6
CONTINUOUS
 10
-6.7759705284
 20
16.0802196109
 11
-7.0393281145
 21
16.5344419036
  0
ARC
  5
341
100
AcDbEntity
  8
218_STAMPATO
100
AcDbCircle
 62
7
  6
CONTINUOUS
 10
-14.0105162204
 20
18.9297003038
 40
1.0
100
AcDbArc
 50
63.4349488046
 51
114.7890578208
  0
ELLIPSE
  5
342
100
AcDbEntity
  8
RACCORDO
100
AcDbEllipse
 62
7
  6
CONTINUOUS
 10
-38.3820357187
 20
16.2699248456
 30
0.0
 11
-0.2716744575
 21
0.752666523
 31
0.0
 40
0.6649647587
 41
-0.0141941604
 42
0.01971916
  0
ELLIPSE
  5
343
100
AcDbEntity
  8
RACCORDO
100
AcDbEllipse
 62
7
  6
CONTINUOUS
 10
-23.8160238517
 20
8.9869189121
 30
0.0
 11
-0.2714751061
 21
0.7525560125
 31
0.0
 40
0.6652500739
 41
-2.1803628262
 42
-0.7866790722
  0
ELLIPSE
  5
344
100
AcDbEntity
  8
RACCORDO
100
AcDbEllipse
 62
7
  6
CONTINUOUS
 10
-27.1859875754
 20
-28.9233120077
 30
0.0
 11
-0.2716744575
 21
0.752666523
 31
0.0
 40
0.6649647587
 41
-3.1613118219
 42
-2.1807945504
  0
ELLIPSE
  5
345
100
AcDbEntity
  8
268
100
AcDbEllipse
 62
7
  6
CONTINUOUS
 10
-25.6209317778
 20
-29.2667718281
 30
0.0
 11
0.110769438
 21
0.2241226716
 31
0.0
 40
0.6088015717
 41
-4.0304836828
 42
-3.1444065583
  0
ELLIPSE
  5
346
100
AcDbEntity
  8
268
100
AcDbEllipse
 62
7
  6
CONTINUOUS
 10
-38.9852499422
 20
18.9683627872
 30
0.0
 11
0.110769438
 21
0.2241226716
 31
0.0
 40
0.6088015717
 41
-4.0304836828
 42
-3.144406558
  0
ELLIPSE
  5
347
100
AcDbEntity
  8
268
100
AcDbEllipse
 62
7
  6
CONTINUOUS
 10
-25.6209317778
 20
12.286203705
 30
0.0
 11
0.110769438
 21
0.2241226716
 31
0.0
 40
0.6088015717
 41
-4.0304836828
 42
-3.144406558
  0
ELLIPSE
  5
348
100
AcDbEntity
  8
268
100
AcDbEllipse
 62
7
  6
CONTINUOUS
 10
-21.5643238965
 20
10.9944856559
 30
0.0
 11
-0.1565168911
 21
0.3130623908
 31
0.0
 40
0.6123677712
 41
-2.2554744912
 42
-0.6846781644
  0
ELLIPSE
  5
349
100
AcDbEntity
  8
268
100
AcDbEllipse
 62
7
  6
CONTINUOUS
 10
-21.5643238965
 20
-27.1820961888
 30
0.0
 11
-0.1565168911
 21
0.3130623908
 31
0.0
 40
0.6123677712
 41
-3.1363565269
 42
-2.2554744912
  0
ELLIPSE
  5
34A
100
AcDbEntity
  8
268
100
AcDbEllipse
 62
7
  6
CONTINUOUS
 10
-27.330919445
 20
20.099716961
 30
0.0
 11
0.2999991737
 21
-0.0014183462
 31
0.0
 40
0.4964289597
 41
0.7877451926
 42
2.3527237553
  0
ELLIPSE
  5
34B
100
AcDbEntity
  8
268
100
AcDbEllipse
 62
7
  6
CONTINUOUS
 10
-21.7764559308
 20
17.322485204
 30
0.0
 11
0.2999991737
 21
-0.0014183462
 31
0.0
 40
0.4964289597
 41
0.7877451926
 42
2.3585415194
  0
ELLIPSE
  5
34C
100
AcDbEntity
  8
268
100
AcDbEllipse
 62
7
  6
CONTINUOUS
 10
-22.2371037953
 20
11.6120566668
 30
0.0
 11
0.110769438
 21
0.2241226716
 31
0.0
 40
0.6088015717
 41
1.2055040732
 42
2.2526937431
  0
ELLIPSE
  5
34D
100
AcDbEntity
  8
268
100
AcDbEllipse
 62
7
  6
CONTINUOUS
 10
-35.6014219598
 20
18.294215749
 30
0.0
 11
0.110769438
 21
0.2241226716
 31
0.0
 40
0.6088015717
 41
1.2055040732
 42
2.2526937431
  0
ELLIPSE
  5
34E
100
AcDbEntity
  8
268
100
AcDbEllipse
 62
7
  6
CONTINUOUS
 10
-21.8856073182
 20
12.5398618188
 30
0.0
 11
0.110769438
 21
0.2241226716
 31
0.0
 40
0.6088015717
 41
-1.9360885804
 42
-0.8888910292
  0
ELLIPSE
  5
34F
100
AcDbEntity
  8
268
100
AcDbEllipse
 62
7
  6
CONTINUOUS
 10
-23.5057821746
 20
13.6108782233
 30
0.0
 11
0.1128509832
 21
0.2230818409
 31
0.0
 40
0.6159267166
 41
0.0028868672
 42
0.6817883054
  0
ELLIPSE
  5
350
100
AcDbEntity
  8
268
100
AcDbEllipse
 62
7
  6
CONTINUOUS
 10
-25.6209317778
 20
12.5395750987
 30
0.0
 11
0.110769438
 21
0.2241226716
 31
0.0
 40
0.6088015717
 41
0.6877230618
 42
2.2527016244
  0
ELLIPSE
  5
351
100
AcDbEntity
  8
268
100
AcDbEllipse
 62
7
  6
CONTINUOUS
 10
-35.2499254826
 20
19.222020901
 30
0.0
 11
0.110769438
 21
0.2241226716
 31
0.0
 40
0.6088015717
 41
-1.9360885804
 42
-0.8888910292
  0
ELLIPSE
  5
352
100
AcDbEntity
  8
268
100
AcDbEllipse
 62
7
  6
CONTINUOUS
 10
-36.870100339
 20
20.2930373055
 30
0.0
 11
0.1128509832
 21
0.2230818409
 31
0.0
 40
0.6159267166
 41
0.0028868672
 42
0.6817883054
  0
ELLIPSE
  5
353
100
AcDbEntity
  8
268
100
AcDbEllipse
 62
7
  6
CONTINUOUS
 10
-38.9852499422
 20
19.221734181
 30
0.0
 11
0.110769438
 21
0.2241226716
 31
0.0
 40
0.6088015717
 41
0.6877230618
 42
2.2527016244
  0
ELLIPSE
  5
354
100
AcDbEntity
  8
268
100
AcDbEllipse
 62
7
  6
CONTINUOUS
 10
-21.8856073182
 20
-29.020671297
 30
0.0
 11
0.110769438
 21
0.2241226716
 31
0.0
 40
0.6088015717
 41
-2.4538695918
 42
-0.8888910292
  0
ELLIPSE
  5
355
100
AcDbEntity
  8
268
100
AcDbEllipse
 62
7
  6
CONTINUOUS
 10
-25.6209317778
 20
-29.0134004344
 30
0.0
 11
0.110769438
 21
0.2241226716
 31
0.0
 40
0.6088015717
 41
1.2055040732
 42
2.2527016244
  0
ELLIPSE
  5
356
100
AcDbEntity
  8
268
100
AcDbEllipse
 62
7
  6
CONTINUOUS
 10
-21.8856073182
 20
-28.7597423206
 30
0.0
 11
0.110769438
 21
0.2241226716
 31
0.0
 40
0.6088015717
 41
5.394294278
 42
6.4414918292
  0
ELLIPSE
  5
357
100
AcDbEntity
  8
268
100
AcDbEllipse
 62
7
  6
CONTINUOUS
 10
-35.2499254826
 20
19.4829498774
 30
0.0
 11
0.110769438
 21
0.2241226716
 31
0.0
 40
0.6088015717
 41
5.394294278
 42
6.9592728406
  0
ELLIPSE
  5
358
100
AcDbEntity
  8
268
100
AcDbEllipse
 62
7
  6
CONTINUOUS
 10
-21.8856073182
 20
12.8007907951
 30
0.0
 11
0.110769438
 21
0.2241226716
 31
0.0
 40
0.6088015717
 41
5.394294278
 42
6.9592728406
  0
ELLIPSE
  5
359
100
AcDbEntity
  8
268
100
AcDbEllipse
 62
7
  6
CONTINUOUS
 10
-27.1504674679
 20
18.7776567911
 30
0.0
 11
0.2999981629
 21
-0.0021225547
 31
0.0
 40
0.4946372042
 41
-0.7818985079
 42
0.0034996555
  0
ELLIPSE
  5
35A
100
AcDbEntity
  8
268
100
AcDbEllipse
 62
7
  6
CONTINUOUS
 10
-21.5960039537
 20
16.000425034
 30
0.0
 11
0.2999981629
 21
-0.0021225547
 31
0.0
 40
0.4946372042
 41
-0.7760807437
 42
0.0034996555
  0
ELLIPSE
  5
35B
100
AcDbEntity
  8
268
100
AcDbEllipse
 62
7
  6
CONTINUOUS
 10
-33.2994131953
 20
17.1795355931
 30
0.0
 11
0.2999991335
 21
0.0014318851
 31
0.0
 40
0.5035541159
 41
8.6427941204
 42
10.207772683
  0
ELLIPSE
  5
35C
100
AcDbEntity
  8
268
100
AcDbEllipse
 62
7
  6
CONTINUOUS
 10
-24.0391976306
 20
-28.4081965221
 30
0.0
 11
-0.1565168911
 21
0.3130623908
 31
0.0
 40
0.6123677712
 41
2.4569144891
 42
4.0277108159
  0
ELLIPSE
  5
35D
100
AcDbEntity
  8
268
100
AcDbEllipse
 62
7
  6
CONTINUOUS
 10
-39.3127041043
 20
17.3824654918
 30
0.0
 11
-0.1565168911
 21
0.3130623908
 31
0.0
 40
0.6123677712
 41
-0.6846781644
 42
0.8861181623
  0
ELLIPSE
  5
35E
100
AcDbEntity
  8
268
100
AcDbEllipse
 62
7
  6
CONTINUOUS
 10
-24.0391976306
 20
9.745712255
 30
0.0
 11
-0.1565168911
 21
0.3130623908
 31
0.0
 40
0.6123677712
 41
-2.2554744912
 42
-0.6846781644
  0
ELLIPSE
  5
35F
100
AcDbEntity
  8
268
100
AcDbEllipse
 62
7
  6
CONTINUOUS
 10
-27.5069041273
 20
14.2832810591
 30
0.0
 11
0.2999991335
 21
0.0014318851
 31
0.0
 40
0.5035541159
 41
-2.3585979313
 42
-0.7936193687
  0
ELLIPSE
  5
360
100
AcDbEntity
  8
268
100
AcDbEllipse
 62
7
  6
CONTINUOUS
 10
-27.5069041273
 20
13.0690819832
 30
0.0
 11
0.2999980272
 21
0.0021530184
 31
0.0
 40
0.5053247124
 41
-2.3598210761
 42
-0.7948425135
  0
ELLIPSE
  5
361
100
AcDbEntity
  8
268
100
AcDbEllipse
 62
7
  6
CONTINUOUS
 10
-33.2994131953
 20
15.9653365173
 30
0.0
 11
0.2999980272
 21
0.0021530184
 31
0.0
 40
0.5053247124
 41
3.1379660677
 42
3.9233642311
  0
ELLIPSE
  5
362
100
AcDbEntity
  8
268
100
AcDbEllipse
 62
7
  6
CONTINUOUS
 10
-21.5960039537
 20
17.2322592154
 30
0.0
 11
0.2999991737
 21
-0.0014183462
 31
0.0
 40
0.4964289597
 41
-0.77723337
 42
0.7877451926
  0
ELLIPSE
  5
363
100
AcDbEntity
  8
268
100
AcDbEllipse
 62
7
  6
CONTINUOUS
 10
-27.1504674679
 20
20.0094909725
 30
0.0
 11
0.2999991737
 21
-0.0014183462
 31
0.0
 40
0.4964289597
 41
-0.7830511342
 42
0.7877451926
  0
ELLIPSE
  5
364
100
AcDbEntity
  8
268
100
AcDbEllipse
 62
7
  6
CONTINUOUS
 10
-22.2371037953
 20
-28.1875474726
 30
0.0
 11
0.110769438
 21
0.2241226716
 31
0.0
 40
0.6088015717
 41
2.2527095058
 42
3.2998991756
  0
ELLIPSE
  5
365
100
AcDbEntity
  8
268
100
AcDbEllipse
 62
7
  6
CONTINUOUS
 10
-24.0130984021
 20
11.7356584109
 30
0.0
 11
0.1128509832
 21
0.2230818409
 31
0.0
 40
0.6159267166
 41
0.6934238338
 42
2.2584023964
  0
ELLIPSE
  5
366
100
AcDbEntity
  8
268
100
AcDbEllipse
 62
7
  6
CONTINUOUS
 10
-24.0130984021
 20
11.4822870172
 30
0.0
 11
0.1128509832
 21
0.2230818409
 31
0.0
 40
0.6159267166
 41
-4.0247829108
 42
-2.9775853596
  0
ELLIPSE
  5
367
100
AcDbEntity
  8
268
100
AcDbEllipse
 62
7
  6
CONTINUOUS
 10
-37.3774165665
 20
18.4178174931
 30
0.0
 11
0.1128509832
 21
0.2230818409
 31
0.0
 40
0.6159267166
 41
0.6934238338
 42
2.2584023964
  0
ELLIPSE
  5
368
100
AcDbEntity
  8
268
100
AcDbEllipse
 62
7
  6
CONTINUOUS
 10
-37.3774165665
 20
18.1644460994
 30
0.0
 11
0.1128509832
 21
0.2230818409
 31
0.0
 40
0.6159267166
 41
-4.0247829108
 42
-2.9775853596
  0
ELLIPSE
  5
369
100
AcDbEntity
  8
268
100
AcDbEllipse
 62
7
  6
CONTINUOUS
 10
-25.6914039368
 20
-22.9665421553
 30
0.0
 11
-0.542618321
 21
0.8478124368
 31
0.0
 40
0.5451249042
 41
-3.2164266024
 42
-2.3115524019
  0
ELLIPSE
  5
36A
100
AcDbEntity
  8
268
100
AcDbEllipse
 62
7
  6
CONTINUOUS
 10
-24.0130984021
 20
-30.070688516
 30
0.0
 11
0.1128509832
 21
0.2230818409
 31
0.0
 40
0.6159267166
 41
-4.0247829108
 42
-2.4598043482
  0
ELLIPSE
  5
36B
100
AcDbEntity
  8
268
100
AcDbEllipse
 62
7
  6
CONTINUOUS
 10
-24.0130984021
 20
-29.8173171222
 30
0.0
 11
0.1128509832
 21
0.2230818409
 31
0.0
 40
0.6159267166
 41
1.2112048452
 42
2.2584023964
  0
ENDSEC
  0
SECTION
  2
OBJECTS
  0
DICTIONARY
  5
C
100
AcDbDictionary
280
0
281
1
  3
ACAD_GROUP
350
D
  3
ACAD_MLINESTYLE
350
17
  3
ACAD_LAYOUT
350
1A
  3
ACAD_PLOTSETTINGS
350
19
  3
ACAD_PLOTSTYLENAME
350
E
  0
DICTIONARY
  5
D
102
{ACAD_REACTORS
330
C
102
}
100
AcDbDictionary
280
0
281
1
  0
ACDBDICTIONARYWDFLT
  5
E
102
{ACAD_REACTORS
330
C
102
}
100
AcDbDictionary
281
1
  3
Normal
350
F
100
AcDbDictionaryWithDefault
340
F
  0
DICTIONARY
  5
17
102
{ACAD_REACTORS
330
C
102
}
100
AcDbDictionary
280
0
281
1
  3
Standard
350
18
  0
DICTIONARY
  5
19
102
{ACAD_REACTORS
330
C
102
}
100
AcDbDictionary
281
1
  0
DICTIONARY
  5
1A
102
{ACAD_REACTORS
330
C
102
}
100
AcDbDictionary
281
1
  3
Model
350
36C
  3
Layout1
350
36D
  0
ACDBPLACEHOLDER
  5
F
102
{ACAD_REACTORS
330
E
102
}
  0
MLINESTYLE
  5
18
102
{ACAD_REACTORS
330
17
102
}
100
AcDbMlineStyle
  2
STANDARD
 70
0
  3

 62
256
 51
90.0
 52
90.0
 71
2
 49
0.5
 62
256
  6
BYLAYER
 49
-0.5
 62
256
  6
BYLAYER
  0
LAYOUT
  5
36C
102
{ACAD_REACTORS
330
1A
102
}
100
AcDbPlotSettings
  1

  2
none_device
  4
ISO_A4_(297.00_x_210.00_MM)
  6

 40
0.0
 41
0.0
 42
0.0
 43
0.0
 44
297.0
 45
210.0
 46
0.0
 47
0.0
 48
0.0
 49
0.0
140
0.0
141
0.0
142
1.0
143
1.0
 70
1024
 72
1
 73
0
 74
0
  7

 75
0
147
1.0
148
0.0
149
0.0
100
AcDbLayout
  1
Model
 70
0
 71
0
 10
0.0
 20
0.0
 11
297.0
 21
210.0
 12
0.0
 22
0.0
 32
0.0
 14
0.0
 24
0.0
 34
0.0
 15
0.0
 25
0.0
 35
0.0
146
0.0
 13
0.0
 23
0.0
 33
0.0
 16
1.0
 26
0.0
 36
0.0
 17
0.0
 27
1.0
 37
0.0
 76
0
330
229
345
0
346
0
  0
LAYOUT
  5
36D
102
{ACAD_REACTORS
330
1A
102
}
100
AcDbPlotSettings
  1

  2
none_device
  4
ISO_A4_(297.00_x_210.00_MM)
  6

 40
0.0
 41
0.0
 42
0.0
 43
0.0
 44
297.0
 45
210.0
 46
0.0
 47
0.0
 48
0.0
 49
0.0
140
0.0
141
0.0
142
1.0
143
1.0
 70
0
 72
1
 73
0
 74
0
  7

 75
0
147
1.0
148
0.0
149
0.0
100
AcDbLayout
  1
Layout1
 70
0
 71
1
 10
0.0
 20
0.0
 11
297.0
 21
210.0
 12
0.0
 22
0.0
 32
0.0
 14
0.0
 24
0.0
 34
0.0
 15
0.0
 25
0.0
 35
0.0
146
0.0
 13
0.0
 23
0.0
 33
0.0
 16
1.0
 26
0.0
 36
0.0
 17
0.0
 27
1.0
 37
0.0
 76
0
330
22A
345
0
346
0
  0
ENDSEC
  0
EOF
