  0
SECTION
  2
HEADER
  9
$ACADVER
  1
AC1024
  9
$DWGCODEPAGE
  3
ANSI_1252
  9
$EXTMAX
 10
297.0
 20
210.0
 30
0.0
  9
$EXTMIN
 10
0.0
 20
0.0
 30
0.0
  9
$LIMMIN
 10
0.0
 20
0.0
  9
$LIMMAX
 10
297.0
 20
210.0
  9
$VIEWCTR
 10
148.5
 20
105.0
  9
$VIEWSIZE
 40
210.0
  9
$CLAYER
  8
0
  9
$LTSCALE
 40
16.335
  9
$CELTYPE
  6
BYLAYER
  9
$DIMSCALE
 40
1.0
  9
$DIMASZ
 40
3.0
  9
$DIMEXO
 40
0.5
  9
$DIMDLI
 40
11.286
  9
$DIMEXE
 40
1.5
  9
$DIMCEN
 40
2.673
  9
$DIMLFAC
 40
1.0
  9
$DIMBLK
  1
_FILLED
  9
$DIMALT
 70
0
  9
$DIMALTF
 40
0.0393700787
  9
$DIMTXT
 40
3.0
  9
$DIMTOL
 70
1
  9
$DIMLIM
 70
0
  9
$DIMTFAC
 40
1.0
  9
$DIMTP
 40
0.01
  9
$DIMTM
 40
0.01
  9
$DIMGAP
 40
0.625
  9
$DIMDSEP
 70
44
  9
$AUNITS
 70
0
  9
$PDMODE
 70
3
  9
$PDSIZE
 40
3.0
  9
$HANDSEED
  5
57A
  9
$TILEMODE
 70
1
  9
$MEASUREMENT
 70
1
  9
$INSUNITS
 70
4
  0
ENDSEC
  0
SECTION
  2
CLASSES
  0
CLASS
  1
ACDBDICTIONARYWDFLT
  2
AcDbDictionaryWithDefault
  3
AutoCAD 2000
 90
0
 91
1
280
0
281
0
  0
CLASS
  1
ACDBPLACEHOLDER
  2
AcDbPlaceHolder
  3
AutoCAD 2000
 90
0
 91
1
280
0
281
0
  0
CLASS
  1
LAYOUT
  2
AcDbLayout
  3
AutoCAD 2000
 90
0
 91
0
280
0
281
0
  0
ENDSEC
  0
SECTION
  2
TABLES
  0
TABLE
  2
VPORT
  5
8
100
AcDbSymbolTable
 70
2
  0
VPORT
  5
1F4
100
AcDbSymbolTableRecord
100
AcDbViewportTableRecord
  2
*ACTIVE
 70
0
 10
0.0
 20
0.0
 11
1.0
 21
1.0
 12
148.5
 22
105.0
 13
0.0
 23
0.0
 14
1.0
 24
1.0
 15
0.0
 25
0.0
 16
0.0
 26
0.0
 36
1.0
 17
0.0
 27
0.0
 37
0.0
 40
210.0
 41
1.4142857143
 42
50.0
 43
0.0
 44
0.0
 50
0.0
 51
0.0
 71
0
 72
100
 73
1
 74
1
 75
0
 76
0
 77
0
 78
0
  0
ENDTAB
  0
TABLE
  2
LTYPE
  5
5
100
AcDbSymbolTable
 70
6
  0
LTYPE
  5
14
100
AcDbSymbolTableRecord
100
AcDbLinetypeTableRecord
  2
BYBLOCK
 70
0
  3

 72
65
 73
0
 40
0.0
  0
LTYPE
  5
15
100
AcDbSymbolTableRecord
100
AcDbLinetypeTableRecord
  2
BYLAYER
 70
0
  3

 72
65
 73
0
 40
0.0
  0
LTYPE
  5
16
100
AcDbSymbolTableRecord
100
AcDbLinetypeTableRecord
  2
CONTINUOUS
 70
64
  3
Solid line
 72
65
 73
0
 40
0.0
  0
LTYPE
  5
1F5
100
AcDbSymbolTableRecord
100
AcDbLinetypeTableRecord
  2
CENTER
 70
64
  3
____ _ ____ _ ____ _ ____ _ ____ _ ____ _ ____
 72
65
 73
4
 40
0.6
 49
0.375
 74
0
 49
-0.075
 74
0
 49
0.075
 74
0
 49
-0.075
 74
0
  0
LTYPE
  5
1F6
100
AcDbSymbolTableRecord
100
AcDbLinetypeTableRecord
  2
HIDDEN
 70
64
  3
- - - - - - - - - - - - - - - - - - - -
 72
65
 73
2
 40
0.2
 49
0.1
 74
0
 49
-0.1
 74
0
  0
LTYPE
  5
1F7
100
AcDbSymbolTableRecord
100
AcDbLinetypeTableRecord
  2
PHANTOM
 70
64
  3
_____ _ _ _____ _ _ _____ _ _ _____
 72
65
 73
6
 40
0.8
 49
0.45
 74
0
 49
-0.05
 74
0
 49
0.1
 74
0
 49
-0.05
 74
0
 49
0.1
 74
0
 49
-0.05
 74
0
  0
LTYPE
  5
1F8
100
AcDbSymbolTableRecord
100
AcDbLinetypeTableRecord
  2
DOT
 70
64
  3
. . . . . . . . . . . . . . . . . . . .
 72
65
 73
2
 40
0.2
 49
0.1
 74
0
 49
-0.1
 74
0
  0
LTYPE
  5
1F9
100
AcDbSymbolTableRecord
100
AcDbLinetypeTableRecord
  2
DASHED
 70
64
  3
- - - - - - - - - - - - - - - - - - - -
 72
65
 73
2
 40
0.2
 49
0.1
 74
0
 49
-0.1
 74
0
  0
ENDTAB
  0
TABLE
  2
LAYER
  5
2
100
AcDbSymbolTable
 70
36
  0
LAYER
  5
10
100
AcDbSymbolTableRecord
100
AcDbLayerTableRecord
  2
0
 70
0
 62
7
  6
CONTINUOUS
370
-3
390
F
  0
LAYER
  5
1FA
100
AcDbSymbolTableRecord
100
AcDbLayerTableRecord
  2
DEFAULT_1
 70
0
 62
7
  6
CENTER
370
-3
390
F
  0
LAYER
  5
1FB
100
AcDbSymbolTableRecord
100
AcDbLayerTableRecord
  2
DEFAULT_2
 70
0
 62
7
  6
HIDDEN
370
-3
390
F
  0
LAYER
  5
1FC
100
AcDbSymbolTableRecord
100
AcDbLayerTableRecord
  2
DEFAULT_3
 70
0
 62
7
  6
PHANTOM
370
-3
390
F
  0
LAYER
  5
1FD
100
AcDbSymbolTableRecord
100
AcDbLayerTableRecord
  2
218140000
 70
0
 62
7
  6
CONTINUOUS
370
-3
390
F
  0
LAYER
  5
1FE
100
AcDbSymbolTableRecord
100
AcDbLayerTableRecord
  2
218140080
 70
0
 62
7
  6
CONTINUOUS
370
-3
390
F
  0
LAYER
  5
1FF
100
AcDbSymbolTableRecord
100
AcDbLayerTableRecord
  2
260
 70
0
 62
7
  6
CONTINUOUS
370
-3
390
F
  0
LAYER
  5
200
100
AcDbSymbolTableRecord
100
AcDbLayerTableRecord
  2
268
 70
0
 62
7
  6
CONTINUOUS
370
-3
390
F
  0
LAYER
  5
201
100
AcDbSymbolTableRecord
100
AcDbLayerTableRecord
  2
284
 70
0
 62
7
  6
CONTINUOUS
370
-3
390
F
  0
LAYER
  5
202
100
AcDbSymbolTableRecord
100
AcDbLayerTableRecord
  2
290
 70
0
 62
7
  6
CONTINUOUS
370
-3
390
F
  0
LAYER
  5
203
100
AcDbSymbolTableRecord
100
AcDbLayerTableRecord
  2
320
 70
0
 62
7
  6
CONTINUOUS
370
-3
390
F
  0
LAYER
  5
204
100
AcDbSymbolTableRecord
100
AcDbLayerTableRecord
  2
340
 70
0
 62
7
  6
CONTINUOUS
370
-3
390
F
  0
LAYER
  5
205
100
AcDbSymbolTableRecord
100
AcDbLayerTableRecord
  2
712
 70
0
 62
7
  6
CONTINUOUS
370
-3
390
F
  0
LAYER
  5
206
100
AcDbSymbolTableRecord
100
AcDbLayerTableRecord
  2
715
 70
0
 62
7
  6
CONTINUOUS
370
-3
390
F
  0
LAYER
  5
207
100
AcDbSymbolTableRecord
100
AcDbLayerTableRecord
  2
ASSI
 70
0
 62
7
  6
CONTINUOUS
370
-3
390
F
  0
LAYER
  5
208
100
AcDbSymbolTableRecord
100
AcDbLayerTableRecord
  2
COLORE_TOP
 70
0
 62
7
  6
CONTINUOUS
370
-3
390
F
  0
LAYER
  5
209
100
AcDbSymbolTableRecord
100
AcDbLayerTableRecord
  2
COORDINATE
 70
0
 62
7
  6
CONTINUOUS
370
-3
390
F
  0
LAYER
  5
20A
100
AcDbSymbolTableRecord
100
AcDbLayerTableRecord
  2
COORD_ORIGINE
 70
0
 62
7
  6
CONTINUOUS
370
-3
390
F
  0
LAYER
  5
20B
100
AcDbSymbolTableRecord
100
AcDbLayerTableRecord
  2
COPY_PUBLISH
 70
0
 62
7
  6
CONTINUOUS
370
-3
390
F
  0
LAYER
  5
20C
100
AcDbSymbolTableRecord
100
AcDbLayerTableRecord
  2
COSMETICHE
 70
0
 62
7
  6
CONTINUOUS
370
-3
390
F
  0
LAYER
  5
20D
100
AcDbSymbolTableRecord
100
AcDbLayerTableRecord
  2
COSMETICI
 70
0
 62
7
  6
CONTINUOUS
370
-3
390
F
  0
LAYER
  5
20E
100
AcDbSymbolTableRecord
100
AcDbLayerTableRecord
  2
CURVE
 70
0
 62
7
  6
CONTINUOUS
370
-3
390
F
  0
LAYER
  5
20F
100
AcDbSymbolTableRecord
100
AcDbLayerTableRecord
  2
DRAFT
 70
0
 62
7
  6
CONTINUOUS
370
-3
390
F
  0
LAYER
  5
210
100
AcDbSymbolTableRecord
100
AcDbLayerTableRecord
  2
IMPORT
 70
0
 62
7
  6
CONTINUOUS
370
-3
390
F
  0
LAYER
  5
211
100
AcDbSymbolTableRecord
100
AcDbLayerTableRecord
  2
IMPORTED
 70
0
 62
7
  6
CONTINUOUS
370
-3
390
F
  0
LAYER
  5
212
100
AcDbSymbolTableRecord
100
AcDbLayerTableRecord
  2
IMPORT_IGES
 70
0
 62
7
  6
CONTINUOUS
370
-3
390
F
  0
LAYER
  5
213
100
AcDbSymbolTableRecord
100
AcDbLayerTableRecord
  2
INCISIONI_LASER
 70
0
 62
7
  6
CONTINUOUS
370
-3
390
F
  0
LAYER
  5
214
100
AcDbSymbolTableRecord
100
AcDbLayerTableRecord
  2
INTF_1
 70
0
 62
7
  6
CONTINUOUS
370
-3
390
F
  0
LAYER
  5
215
100
AcDbSymbolTableRecord
100
AcDbLayerTableRecord
  2
INTF_11
 70
0
 62
7
  6
CONTINUOUS
370
-3
390
F
  0
LAYER
  5
216
100
AcDbSymbolTableRecord
100
AcDbLayerTableRecord
  2
INTF_12
 70
0
 62
7
  6
CONTINUOUS
370
-3
390
F
  0
LAYER
  5
217
100
AcDbSymbolTableRecord
100
AcDbLayerTableRecord
  2
INTF_13
 70
0
 62
7
  6
CONTINUOUS
370
-3
390
F
  0
LAYER
  5
218
100
AcDbSymbolTableRecord
100
AcDbLayerTableRecord
  2
INTF_2
 70
0
 62
7
  6
CONTINUOUS
370
-3
390
F
  0
LAYER
  5
219
100
AcDbSymbolTableRecord
100
AcDbLayerTableRecord
  2
INTF_6
 70
0
 62
7
  6
CONTINUOUS
370
-3
390
F
  0
LAYER
  5
21A
100
AcDbSymbolTableRecord
100
AcDbLayerTableRecord
  2
NOTE
 70
0
 62
7
  6
CONTINUOUS
370
-3
390
F
  0
LAYER
  5
21B
100
AcDbSymbolTableRecord
100
AcDbLayerTableRecord
  2
PIANI
 70
0
 62
7
  6
CONTINUOUS
370
-3
390
F
  0
LAYER
  5
21C
100
AcDbSymbolTableRecord
100
AcDbLayerTableRecord
  2
PIANI_DI_RIFERIMENTO
 70
0
 62
7
  6
CONTINUOUS
370
-3
390
F
  0
LAYER
  5
21D
100
AcDbSymbolTableRecord
100
AcDbLayerTableRecord
  2
PIANI_ORIGINE
 70
0
 62
7
  6
CONTINUOUS
370
-3
390
F
  0
LAYER
  5
21E
100
AcDbSymbolTableRecord
100
AcDbLayerTableRecord
  2
PIANI_RIFERIMENTO
 70
0
 62
7
  6
CONTINUOUS
370
-3
390
F
  0
LAYER
  5
21F
100
AcDbSymbolTableRecord
100
AcDbLayerTableRecord
  2
PIANI_SFORMO
 70
0
 62
7
  6
CONTINUOUS
370
-3
390
F
  0
LAYER
  5
220
100
AcDbSymbolTableRecord
100
AcDbLayerTableRecord
  2
PUNTI
 70
0
 62
7
  6
CONTINUOUS
370
-3
390
F
  0
LAYER
  5
221
100
AcDbSymbolTableRecord
100
AcDbLayerTableRecord
  2
RACCORDO
 70
0
 62
7
  6
CONTINUOUS
370
-3
390
F
  0
LAYER
  5
222
100
AcDbSymbolTableRecord
100
AcDbLayerTableRecord
  2
RGB__255__255__255__
 70
0
 62
7
  6
CONTINUOUS
370
-3
390
F
  0
LAYER
  5
223
100
AcDbSymbolTableRecord
100
AcDbLayerTableRecord
  2
RINTRACCIABILITA
 70
0
 62
7
  6
CONTINUOUS
370
-3
390
F
  0
LAYER
  5
224
100
AcDbSymbolTableRecord
100
AcDbLayerTableRecord
  2
SIMBOLI
 70
0
 62
7
  6
CONTINUOUS
370
-3
390
F
  0
LAYER
  5
225
100
AcDbSymbolTableRecord
100
AcDbLayerTableRecord
  2
SMUSSO
 70
0
 62
7
  6
CONTINUOUS
370
-3
390
F
  0
LAYER
  5
226
100
AcDbSymbolTableRecord
100
AcDbLayerTableRecord
  2
SNAPLINE
 70
0
 62
7
  6
CONTINUOUS
370
-3
390
F
  0
LAYER
  5
227
100
AcDbSymbolTableRecord
100
AcDbLayerTableRecord
  2
SUPERFICI
 70
0
 62
7
  6
CONTINUOUS
370
-3
390
F
  0
LAYER
  5
228
100
AcDbSymbolTableRecord
100
AcDbLayerTableRecord
  2
TRASH
 70
0
 62
7
  6
CONTINUOUS
370
-3
390
F
  0
LAYER
  5
229
100
AcDbSymbolTableRecord
100
AcDbLayerTableRecord
  2
WHITE
 70
0
 62
7
  6
CONTINUOUS
370
-3
390
F
  0
LAYER
  5
22A
100
AcDbSymbolTableRecord
100
AcDbLayerTableRecord
  2
XSEC_DATUMS
 70
0
 62
7
  6
CONTINUOUS
370
-3
390
F
  0
ENDTAB
  0
TABLE
  2
STYLE
  5
3
100
AcDbSymbolTable
 70
1
  0
STYLE
  5
11
100
AcDbSymbolTableRecord
100
AcDbTextStyleTableRecord
  2
STANDARD
 70
0
 40
0.0
 41
0.8
 50
0.0
 71
0
 42
0.2
  3
txt
  4

  0
STYLE
  5
22B
100
AcDbSymbolTableRecord
100
AcDbTextStyleTableRecord
  2
TEXTSTYLE_1
 70
0
 40
0.0
 41
0.8
 50
0.0
 71
0
 42
0.2
  3
gdt
  4

  0
ENDTAB
  0
TABLE
  2
VIEW
  5
6
100
AcDbSymbolTable
 70
0
  0
ENDTAB
  0
TABLE
  2
UCS
  5
7
100
AcDbSymbolTable
 70
0
  0
ENDTAB
  0
TABLE
  2
APPID
  5
9
100
AcDbSymbolTable
 70
1
  0
APPID
  5
22C
100
AcDbSymbolTableRecord
100
AcDbRegAppTableRecord
  2
ACAD
 70
0
  0
ENDTAB
  0
TABLE
  2
BLOCK_RECORD
  5
1
100
AcDbSymbolTable
 70
0
  0
BLOCK_RECORD
  5
22D
100
AcDbSymbolTableRecord
100
AcDbBlockTableRecord
  2
*Model_Space
  0
BLOCK_RECORD
  5
22E
100
AcDbSymbolTableRecord
100
AcDbBlockTableRecord
  2
*Paper_Space
  0
BLOCK_RECORD
  5
22F
100
AcDbSymbolTableRecord
100
AcDbBlockTableRecord
  2
_FILLED
  0
ENDTAB
  0
TABLE
  2
DIMSTYLE
  5
A
100
AcDbSymbolTable
 70
1
100
AcDbDimStyleTable
 71
0
  0
DIMSTYLE
105
230
100
AcDbSymbolTableRecord
100
AcDbDimStyleTableRecord
  2
STANDARD
 70
0
  3

  4

 40
1.0
 41
3.0
 42
0.5
 43
0.38
 44
1.5
 45
0.0
 46
0.0
 47
0.01
 48
0.01
140
3.0
141
0.09
142
0.0
143
25.4
144
1.0
145
0.0
146
1.0
147
0.625
 71
1
 72
0
 73
0
 74
0
 75
0
 76
0
 77
1
 78
8
 79
2
170
0
171
1
172
0
173
0
174
0
175
0
176
0
177
0
178
0
270
2
179
2
271
2
272
2
273
2
274
2
275
0
280
0
281
0
282
0
283
1
284
8
285
0
286
0
287
3
288
0
340
11
278
44
341
22F
342
22F
343
22F
344
22F
  0
ENDTAB
  0
ENDSEC
  0
SECTION
  2
BLOCKS
  0
BLOCK
  5
20
100
AcDbEntity
  8
0
100
AcDbBlockBegin
  2
*Model_Space
 70
0
 10
0.0
 20
0.0
 30
0.0
  3
*Model_Space
  1

  0
ENDBLK
  5
21
100
AcDbEntity
  8
0
100
AcDbBlockEnd
  0
BLOCK
  5
1C
100
AcDbEntity
  8
0
100
AcDbBlockBegin
  2
*Paper_Space
 70
0
 10
0.0
 20
0.0
 30
0.0
  3
*Paper_Space
  1

  0
ENDBLK
  5
1D
100
AcDbEntity
  8
0
100
AcDbBlockEnd
  0
BLOCK
  5
231
100
AcDbEntity
  8
0
100
AcDbBlockBegin
  2
_FILLED
 70
64
 10
0.0
 20
0.0
  3
_FILLED
  1

  0
SOLID
  5
232
100
AcDbEntity
  8
0
  6
BYBLOCK
 62
0
100
AcDbTrace
 10
0.0
 20
0.0
 11
-1.0
 21
0.3166666667
 12
-1.0
 22
-0.3166666667
 13
-1.0
 23
-0.3166666667
  0
ENDBLK
  5
233
100
AcDbEntity
  8
0
  6
BYBLOCK
 62
0
100
AcDbBlockEnd
  0
ENDSEC
  0
SECTION
  2
ENTITIES
  0
LINE
  5
234
100
AcDbEntity
  8
268
100
AcDbLine
 62
7
  6
CONTINUOUS
 10
-15.1990381084
 20
28.7684728362
 11
-13.6162815052
 21
29.5804569336
  0
LINE
  5
235
100
AcDbEntity
  8
268
100
AcDbLine
 62
7
  6
CONTINUOUS
 10
-15.6829932207
 20
27.0257724342
 11
-14.6707709366
 21
27.5427023969
  0
LINE
  5
236
100
AcDbEntity
  8
268
100
AcDbLine
 62
250
  6
CONTINUOUS
 10
-15.5254698144
 20
27.0163391046
 11
-14.6707709366
 21
27.4528237246
  0
LINE
  5
237
100
AcDbEntity
  8
268
100
AcDbLine
 62
7
  6
CONTINUOUS
 10
-13.5912166993
 20
27.9645621317
 11
-11.9899359085
 21
28.7672841352
  0
LINE
  5
238
100
AcDbEntity
  8
268
100
AcDbLine
 62
7
  6
CONTINUOUS
 10
-11.9899359085
 20
28.7672841352
 11
-11.4616687368
 21
29.0307229552
  0
LINE
  5
239
100
AcDbEntity
  8
268
100
AcDbLine
 62
7
  6
CONTINUOUS
 10
-13.6162815052
 20
29.5804569336
 11
-13.0818316265
 21
29.8408044001
  0
LWPOLYLINE
  5
23A
100
AcDbEntity
  8
RACCORDO
100
AcDbPolyline
 62
250
  6
CONTINUOUS
 90
19
 70
0
 10
8.9675607567
 20
-29.0647303863
 10
8.9263462486
 20
-29.0764025254
 10
8.886280607
 20
-29.083656935
 10
8.8473638321
 20
-29.0864936149
 10
8.8093212133
 20
-29.0848810139
 10
8.772427461
 20
-29.0788506832
 10
8.7375067067
 20
-29.0684972771
 10
8.7046237871
 20
-29.053724069
 10
8.6737138654
 20
-29.0346277855
 10
8.6454065629
 20
-29.0115932598
 10
8.6197555012
 20
-28.9845375471
 10
8.5967070587
 20
-28.9535435923
 10
8.576729992
 20
-28.9192450634
 10
8.5598890433
 20
-28.881545439
 10
8.5461194703
 20
-28.8405412406
 10
8.5356958029
 20
-28.7971557003
 10
8.528709551
 20
-28.7516965624
 10
8.5250692046
 20
-28.7038560826
 10
8.5247747638
 20
-28.6536342611
  0
LWPOLYLINE
  5
23B
100
AcDbEntity
  8
268
100
AcDbPolyline
 62
7
  6
CONTINUOUS
 90
12
 70
0
 10
-4.0258100115
 20
30.2481868807
 10
-4.0320968029
 20
30.2448305071
 10
-4.0439512295
 20
30.2373262339
 10
-4.0556064095
 20
30.2284537227
 10
-4.0671020043
 20
30.2182686121
 10
-4.078393302
 20
30.2068375397
 10
-4.0895383685
 20
30.1941905136
 10
-4.1006052479
 20
30.1803609774
 10
-4.111551367
 20
30.1653914786
 10
-4.1223986682
 20
30.1493085514
 10
-4.1332370969
 20
30.1321402971
 10
-4.1441214649
 20
30.1139216656
  0
LINE
  5
23C
100
AcDbEntity
  8
268
100
AcDbLine
 62
7
  6
CONTINUOUS
 10
-9.7255414771
 20
26.6157271377
 11
-9.2322194619
 21
26.8688106696
  0
LINE
  5
23D
100
AcDbEntity
  8
268
100
AcDbLine
 62
7
  6
CONTINUOUS
 10
-11.9899359085
 20
27.0352333276
 11
-13.0567668206
 21
26.4966520781
  0
LINE
  5
23E
100
AcDbEntity
  8
268
100
AcDbLine
 62
7
  6
CONTINUOUS
 10
-10.534154932
 20
27.0068919313
 11
-4.0261183053
 21
30.2480335369
  0
LINE
  5
23F
100
AcDbEntity
  8
268
100
AcDbLine
 62
250
  6
CONTINUOUS
 10
-10.4586617915
 20
26.9691453611
 11
-4.1441214649
 21
30.1139216656
  0
LINE
  5
240
100
AcDbEntity
  8
268
100
AcDbLine
 62
7
  6
CONTINUOUS
 10
-9.2322194619
 20
26.8688106696
 11
-3.7545794724
 21
29.5371426328
  0
LWPOLYLINE
  5
241
100
AcDbEntity
  8
RACCORDO
100
AcDbPolyline
 62
250
  6
CONTINUOUS
 90
19
 70
0
 10
-18.49395378
 20
24.5986144897
 10
-18.5806580581
 20
24.5594715723
 10
-18.6674104162
 20
24.5114762627
 10
-18.7536154761
 20
24.4549533495
 10
-18.8386784031
 20
24.3902826341
 10
-18.9220188918
 20
24.3179053193
 10
-19.0030753928
 20
24.2383219601
 10
-19.0812904528
 20
24.1520761646
 10
-19.1561301971
 20
24.0597513328
 10
-19.2270974631
 20
23.9619752934
 10
-19.293706598
 20
23.8594119724
 10
-19.3555001275
 20
23.7527572318
 10
-19.4120665019
 20
23.6427341508
 10
-19.463019681
 20
23.5300867803
 10
-19.5080067581
 20
23.4155830091
 10
-19.5467232387
 20
23.3000084314
 10
-19.5789053067
 20
23.1841513901
 10
-19.6043308565
 20
23.0687974395
 10
-19.6228256376
 20
22.9547314088
  0
LWPOLYLINE
  5
242
100
AcDbEntity
  8
RACCORDO
100
AcDbPolyline
 62
7
  6
CONTINUOUS
 90
18
 70
0
 10
-18.8461031133
 20
24.6242220264
 10
-18.9286835391
 20
24.5870439075
 10
-19.0208725146
 20
24.5372213052
 10
-19.1106645038
 20
24.4796052927
 10
-19.1975471324
 20
24.4144881917
 10
-19.2806618486
 20
24.3426337576
 10
-19.3600393031
 20
24.264099951
 10
-19.4354633276
 20
24.1790625853
 10
-19.5059086703
 20
24.0887709631
 10
-19.5713061398
 20
23.993381117
 10
-19.6314735217
 20
23.8930885129
 10
-19.6854680728
 20
23.7895419249
 10
-19.7331875123
 20
23.6830030975
 10
-19.7745079231
 20
23.5736416223
 10
-19.8087789105
 20
23.463119991
 10
-19.835821431
 20
23.352127732
 10
-19.8556928097
 20
23.2404452315
 10
-19.8586762326
 20
23.218902798
  0
LINE
  5
243
100
AcDbEntity
  8
RACCORDO
100
AcDbLine
 62
7
  6
CONTINUOUS
 10
-14.8700696027
 20
26.2495224372
 11
-18.8461098109
 21
24.6242384037
  0
LINE
  5
244
100
AcDbEntity
  8
RACCORDO
100
AcDbLine
 62
250
  6
CONTINUOUS
 10
-14.5606674686
 20
26.2064219932
 11
-18.49395378
 21
24.5986144897
  0
LWPOLYLINE
  5
245
100
AcDbEntity
  8
268
100
AcDbPolyline
 62
7
  6
CONTINUOUS
 90
3
 70
0
 10
-4.0073622731
 20
30.2556442234
 10
-4.0199272929
 20
30.2509451726
 10
-4.0258100115
 20
30.2481868807
  0
LWPOLYLINE
  5
246
100
AcDbEntity
  8
268
100
AcDbPolyline
 62
7
  6
CONTINUOUS
 90
10
 70
0
 10
-4.0073622731
 20
30.2556442234
 10
-3.9981226523
 20
30.2583900224
 10
-3.9895594985
 20
30.2606557409
 10
-3.9816728115
 20
30.2624413789
 10
-3.9744234533
 20
30.2637677835
 10
-3.9678505619
 20
30.2646141077
 10
-3.9620715525
 20
30.2649178104
 10
-3.9570905954
 20
30.2646784746
 10
-3.9529035202
 20
30.2638965174
 10
-3.950313839
 20
30.2629000843
  0
LINE
  5
247
100
AcDbEntity
  8
268
100
AcDbLine
 62
7
  6
CONTINUOUS
 10
-11.3748170735
 20
28.4097253686
 11
-11.9020617892
 21
27.7680176405
  0
LINE
  5
248
100
AcDbEntity
  8
268
100
AcDbLine
 62
7
  6
CONTINUOUS
 10
-1.8240273153
 20
27.7643039013
 11
-3.2218118218
 21
27.065411648
  0
LINE
  5
249
100
AcDbEntity
  8
268
100
AcDbLine
 62
7
  6
CONTINUOUS
 10
-3.1511011437
 20
29.2341781349
 11
-7.8887165776
 21
26.8991276203
  0
LINE
  5
24A
100
AcDbEntity
  8
268
100
AcDbLine
 62
7
  6
CONTINUOUS
 10
-3.5753652124
 20
27.7947465326
 11
-3.1511011437
 21
28.0023439535
  0
LINE
  5
24B
100
AcDbEntity
  8
268
100
AcDbLine
 62
7
  6
CONTINUOUS
 10
-1.1650315639
 20
28.6243767152
 11
-3.2218118218
 21
27.6179698374
  0
LINE
  5
24C
100
AcDbEntity
  8
218140080
100
AcDbLine
 62
7
  6
CONTINUOUS
 10
-4.1590190321
 20
26.4383158651
 11
-4.2971338342
 21
26.3730787797
  0
LINE
  5
24D
100
AcDbEntity
  8
218140000
100
AcDbLine
 62
7
  6
CONTINUOUS
 10
-4.1590190321
 20
26.4383158651
 11
-4.2971338342
 21
26.3730787797
  0
LINE
  5
24E
100
AcDbEntity
  8
218140080
100
AcDbLine
 62
250
  6
CONTINUOUS
 10
-4.0754850256
 20
26.4298167784
 11
-4.2117613146
 21
26.3654480955
  0
LINE
  5
24F
100
AcDbEntity
  8
218140000
100
AcDbLine
 62
250
  6
CONTINUOUS
 10
-4.0754850256
 20
26.4298167784
 11
-4.2117613146
 21
26.3654480955
  0
LWPOLYLINE
  5
250
100
AcDbEntity
  8
218140080
100
AcDbPolyline
 62
250
  6
CONTINUOUS
 90
11
 70
0
 10
-3.2420189026
 20
26.4836367515
 10
-3.2329264421
 20
26.4877272026
 10
-3.2238677678
 20
26.4910839878
 10
-3.2148806463
 20
26.4936909599
 10
-3.2059994586
 20
26.4955355641
 10
-3.1972649942
 20
26.4966067097
 10
-3.1887236458
 20
26.4968977238
 10
-3.1804068204
 20
26.4964072297
 10
-3.1723535964
 20
26.4951372173
 10
-3.1646176161
 20
26.4930997011
 10
-3.1572439734
 20
26.4903163322
  0
LWPOLYLINE
  5
251
100
AcDbEntity
  8
218140000
100
AcDbPolyline
 62
250
  6
CONTINUOUS
 90
11
 70
0
 10
-3.2420189026
 20
26.4836367515
 10
-3.2329264421
 20
26.4877272026
 10
-3.2238677678
 20
26.4910839878
 10
-3.2148806463
 20
26.4936909599
 10
-3.2059994586
 20
26.4955355641
 10
-3.1972649942
 20
26.4966067097
 10
-3.1887236458
 20
26.4968977238
 10
-3.1804068204
 20
26.4964072297
 10
-3.1723535964
 20
26.4951372173
 10
-3.1646176161
 20
26.4930997011
 10
-3.1572439734
 20
26.4903163322
  0
LINE
  5
252
100
AcDbEntity
  8
218140080
100
AcDbLine
 62
7
  6
CONTINUOUS
 10
-4.1589655166
 20
26.4383411425
 11
-4.1557574764
 21
26.4397567721
  0
LINE
  5
253
100
AcDbEntity
  8
218140000
100
AcDbLine
 62
7
  6
CONTINUOUS
 10
-4.1589655166
 20
26.4383411425
 11
-4.1557574764
 21
26.4397567721
  0
LWPOLYLINE
  5
254
100
AcDbEntity
  8
218140080
100
AcDbPolyline
 62
7
  6
CONTINUOUS
 90
5
 70
0
 10
-4.2972523029
 20
26.3730218775
 10
-4.2924091381
 20
26.3750795017
 10
-4.2849827783
 20
26.3773973642
 10
-4.2768363601
 20
26.3789297288
 10
-4.2679180251
 20
26.3795806425
  0
LWPOLYLINE
  5
255
100
AcDbEntity
  8
218140000
100
AcDbPolyline
 62
7
  6
CONTINUOUS
 90
5
 70
0
 10
-4.2972523029
 20
26.3730218775
 10
-4.2924091381
 20
26.3750795017
 10
-4.2849827783
 20
26.3773973642
 10
-4.2768363601
 20
26.3789297288
 10
-4.2679180251
 20
26.3795806425
  0
LINE
  5
256
100
AcDbEntity
  8
218140080
100
AcDbLine
 62
7
  6
CONTINUOUS
 10
-4.0859168866
 20
26.4658579094
 11
-4.1557578378
 21
26.4397566019
  0
LINE
  5
257
100
AcDbEntity
  8
218140000
100
AcDbLine
 62
7
  6
CONTINUOUS
 10
-4.0859168866
 20
26.4658579094
 11
-4.1557578378
 21
26.4397566019
  0
LINE
  5
258
100
AcDbEntity
  8
218140080
100
AcDbLine
 62
7
  6
CONTINUOUS
 10
-4.0108777765
 20
26.4887854744
 11
-4.0859168866
 21
26.4658579094
  0
LINE
  5
259
100
AcDbEntity
  8
218140000
100
AcDbLine
 62
7
  6
CONTINUOUS
 10
-4.0108777765
 20
26.4887854744
 11
-4.0859168866
 21
26.4658579094
  0
LWPOLYLINE
  5
25A
100
AcDbEntity
  8
218140080
100
AcDbPolyline
 62
7
  6
CONTINUOUS
 90
6
 70
0
 10
-4.1557574764
 20
26.4397567721
 10
-4.1425292019
 20
26.4436987971
 10
-4.1267455817
 20
26.4450374325
 10
-4.1101082492
 20
26.4431436074
 10
-4.0929196481
 20
26.4380423985
 10
-4.0754850256
 20
26.4298167784
  0
LWPOLYLINE
  5
25B
100
AcDbEntity
  8
218140000
100
AcDbPolyline
 62
7
  6
CONTINUOUS
 90
6
 70
0
 10
-4.1557574764
 20
26.4397567721
 10
-4.1425292019
 20
26.4436987971
 10
-4.1267455817
 20
26.4450374325
 10
-4.1101082492
 20
26.4431436074
 10
-4.0929196481
 20
26.4380423985
 10
-4.0754850256
 20
26.4298167784
  0
LWPOLYLINE
  5
25C
100
AcDbEntity
  8
RACCORDO
100
AcDbPolyline
 62
250
  6
CONTINUOUS
 90
9
 70
0
 10
16.2202423467
 20
-27.0921606434
 10
16.2460734273
 20
-27.0930596588
 10
16.2719939074
 20
-27.0925545135
 10
16.2978184967
 20
-27.0906599204
 10
16.3232844351
 20
-27.0873796666
 10
16.3480950199
 20
-27.0827381537
 10
16.3720126874
 20
-27.0767821007
 10
16.394776241
 20
-27.0695598784
 10
16.416108455
 20
-27.061128107
  0
LWPOLYLINE
  5
25D
100
AcDbEntity
  8
RACCORDO
100
AcDbPolyline
 62
250
  6
CONTINUOUS
 90
12
 70
0
 10
-22.6313452586
 20
-13.6068119355
 10
-22.6310367528
 20
-13.7137576907
 10
-22.6235710586
 20
-13.8166639217
 10
-22.609000177
 20
-13.9148298005
 10
-22.5874265576
 20
-14.007586741
 10
-22.5589971152
 20
-14.094302425
 10
-22.523903073
 20
-14.1743858977
 10
-22.4823890706
 20
-14.2472893122
 10
-22.4347393235
 20
-14.3125192778
 10
-22.3812699312
 20
-14.3696389004
 10
-22.3223489462
 20
-14.4182573277
 10
-22.2583800493
 20
-14.4580423073
  0
LWPOLYLINE
  5
25E
100
AcDbEntity
  8
RACCORDO
100
AcDbPolyline
 62
7
  6
CONTINUOUS
 90
13
 70
0
 10
-19.858675145
 20
23.2190029119
 10
-20.2448873314
 20
20.2005396792
 10
-20.6170315471
 20
17.095726813
 10
-20.9625626709
 20
13.9996000416
 10
-21.2814272814
 20
10.9126052789
 10
-21.5735860882
 20
7.8351342808
 10
-21.8390036848
 20
4.7675577497
 10
-22.0776443562
 20
1.7102611196
 10
-22.2894778481
 20
-1.3363723066
 10
-22.4744760888
 20
-4.371974832
 10
-22.632611558
 20
-7.3961594055
 10
-22.7638625713
 20
-10.4084923247
 10
-22.8656689723
 20
-13.3251975311
  0
LINE
  5
25F
100
AcDbEntity
  8
218140080
100
AcDbLine
 62
7
  6
CONTINUOUS
 10
-4.3118650328
 20
26.3634023486
 11
-5.2227913912
 21
25.566165027
  0
LINE
  5
260
100
AcDbEntity
  8
218140000
100
AcDbLine
 62
7
  6
CONTINUOUS
 10
-4.3118650328
 20
26.3634023486
 11
-5.2227913912
 21
25.566165027
  0
LINE
  5
261
100
AcDbEntity
  8
218140080
100
AcDbLine
 62
250
  6
CONTINUOUS
 10
-4.212420189
 20
26.3657775327
 11
-5.1612303693
 21
25.5353845161
  0
LINE
  5
262
100
AcDbEntity
  8
218140000
100
AcDbLine
 62
250
  6
CONTINUOUS
 10
-4.212420189
 20
26.3657775327
 11
-5.1612303693
 21
25.5353845161
  0
LWPOLYLINE
  5
263
100
AcDbEntity
  8
218140080
100
AcDbPolyline
 62
7
  6
CONTINUOUS
 90
5
 70
0
 10
-4.3119622716
 20
26.3633167501
 10
-4.3108814683
 20
26.3642482706
 10
-4.3053331036
 20
26.368431007
 10
-4.2991786436
 20
26.3720686556
 10
-4.2972523029
 20
26.3730218775
  0
LWPOLYLINE
  5
264
100
AcDbEntity
  8
218140000
100
AcDbPolyline
 62
7
  6
CONTINUOUS
 90
5
 70
0
 10
-4.3119622716
 20
26.3633167501
 10
-4.3108814683
 20
26.3642482706
 10
-4.3053331036
 20
26.368431007
 10
-4.2991786436
 20
26.3720686556
 10
-4.2972523029
 20
26.3730218775
  0
LINE
  5
265
100
AcDbEntity
  8
218140080
100
AcDbLine
 62
250
  6
CONTINUOUS
 10
-4.6605014109
 20
25.2850200369
 11
-4.1866929673
 21
25.6564400934
  0
LINE
  5
266
100
AcDbEntity
  8
218140000
100
AcDbLine
 62
250
  6
CONTINUOUS
 10
-4.6605014109
 20
25.2850200369
 11
-4.1866929673
 21
25.6564400934
  0
LWPOLYLINE
  5
267
100
AcDbEntity
  8
218140080
100
AcDbPolyline
 62
250
  6
CONTINUOUS
 90
13
 70
0
 10
-4.1866929673
 20
25.6564400934
 10
-4.145514048
 20
25.6859862233
 10
-4.1023186757
 20
25.7125963594
 10
-4.0571068504
 20
25.7362705018
 10
-4.0093298823
 20
25.7571654698
 10
-3.9595364612
 20
25.7751244441
 10
-3.909372656
 20
25.7896769663
 10
-3.8588668651
 20
25.8006954644
 10
-3.80799069
 20
25.8083075104
 10
-3.7583050046
 20
25.8124253623
 10
-3.7099500503
 20
25.8129635577
 10
-3.6627855856
 20
25.8100075591
 10
-3.6179517607
 20
25.8037260109
  0
LWPOLYLINE
  5
268
100
AcDbEntity
  8
218140000
100
AcDbPolyline
 62
250
  6
CONTINUOUS
 90
13
 70
0
 10
-4.1866929673
 20
25.6564400934
 10
-4.145514048
 20
25.6859862233
 10
-4.1023186757
 20
25.7125963594
 10
-4.0571068504
 20
25.7362705018
 10
-4.0093298823
 20
25.7571654698
 10
-3.9595364612
 20
25.7751244441
 10
-3.909372656
 20
25.7896769663
 10
-3.8588668651
 20
25.8006954644
 10
-3.80799069
 20
25.8083075104
 10
-3.7583050046
 20
25.8124253623
 10
-3.7099500503
 20
25.8129635577
 10
-3.6627855856
 20
25.8100075591
 10
-3.6179517607
 20
25.8037260109
  0
LINE
  5
269
100
AcDbEntity
  8
268
100
AcDbLine
 62
7
  6
CONTINUOUS
 10
-3.5087755202
 20
23.5073441593
 11
-3.0096797874
 21
23.7575408324
  0
LINE
  5
26A
100
AcDbEntity
  8
268
100
AcDbLine
 62
7
  6
CONTINUOUS
 10
-3.0096797874
 20
23.7575408324
 11
2.4045929077
 21
26.4575564428
  0
LINE
  5
26B
100
AcDbEntity
  8
268
100
AcDbLine
 62
7
  6
CONTINUOUS
 10
1.7986463246
 20
26.7593044007
 11
-2.9389691093
 21
24.4242538861
  0
LWPOLYLINE
  5
26C
100
AcDbEntity
  8
268
100
AcDbPolyline
 62
7
  6
CONTINUOUS
 90
18
 70
0
 10
3.0776091232
 20
26.5030563716
 10
3.105983644
 20
26.5162383284
 10
3.134218096
 20
26.5279727201
 10
3.1623124792
 20
26.5382595468
 10
3.1903167923
 20
26.5471116814
 10
3.2181810365
 20
26.554516251
 10
3.2457552162
 20
26.5604346366
 10
3.2730243448
 20
26.5648580579
 10
3.3000034088
 20
26.5677952952
 10
3.3265873714
 20
26.5692340712
 10
3.3527923303
 20
26.5691669346
 10
3.3786021878
 20
26.5676013366
 10
3.403863614
 20
26.5645473532
 10
3.4285533674
 20
26.5600015688
 10
3.4526946895
 20
26.553967399
 10
3.4762039758
 20
26.5464651662
 10
3.499099756
 20
26.5374797515
 10
3.5186618403
 20
26.5283900185
  0
LWPOLYLINE
  5
26D
100
AcDbEntity
  8
218140080
100
AcDbPolyline
 62
250
  6
CONTINUOUS
 90
9
 70
0
 10
9.6954050767
 20
29.0397384588
 10
9.7494114782
 20
29.0627699748
 10
9.8031315513
 20
29.0800116114
 10
9.8561673958
 20
29.0912763829
 10
9.908153321
 20
29.0964202995
 10
9.9586545709
 20
29.0953321605
 10
10.0071827071
 20
29.0879767653
 10
10.0533649998
 20
29.0743826158
 10
10.0867760902
 20
29.0598727445
  0
LWPOLYLINE
  5
26E
100
AcDbEntity
  8
218140000
100
AcDbPolyline
 62
250
  6
CONTINUOUS
 90
9
 70
0
 10
9.6954050767
 20
29.0397384588
 10
9.7494114782
 20
29.0627699748
 10
9.8031315513
 20
29.0800116114
 10
9.8561673958
 20
29.0912763829
 10
9.908153321
 20
29.0964202995
 10
9.9586545709
 20
29.0953321605
 10
10.0071827071
 20
29.0879767653
 10
10.0533649998
 20
29.0743826158
 10
10.0867760902
 20
29.0598727445
  0
LWPOLYLINE
  5
26F
100
AcDbEntity
  8
218140080
100
AcDbPolyline
 62
7
  6
CONTINUOUS
 90
12
 70
0
 10
9.3069475941
 20
29.0719527945
 10
9.3725750702
 20
29.099172444
 10
9.4412739008
 20
29.1214482135
 10
9.5125813833
 20
29.1383475957
 10
9.5861380328
 20
29.1495119202
 10
9.6611660151
 20
29.154583643
 10
9.7365519725
 20
29.1533627962
 10
9.8117374813
 20
29.1458126612
 10
9.8860949128
 20
29.1319660297
 10
9.9586162842
 20
29.1120564129
 10
10.0289683158
 20
29.0862669621
 10
10.0868084448
 20
29.059856567
  0
LWPOLYLINE
  5
270
100
AcDbEntity
  8
218140000
100
AcDbPolyline
 62
7
  6
CONTINUOUS
 90
12
 70
0
 10
9.3069475941
 20
29.0719527945
 10
9.3725750702
 20
29.099172444
 10
9.4412739008
 20
29.1214482135
 10
9.5125813833
 20
29.1383475957
 10
9.5861380328
 20
29.1495119202
 10
9.6611660151
 20
29.154583643
 10
9.7365519725
 20
29.1533627962
 10
9.8117374813
 20
29.1458126612
 10
9.8860949128
 20
29.1319660297
 10
9.9586162842
 20
29.1120564129
 10
10.0289683158
 20
29.0862669621
 10
10.0868084448
 20
29.059856567
  0
LWPOLYLINE
  5
271
100
AcDbEntity
  8
218140080
100
AcDbPolyline
 62
250
  6
CONTINUOUS
 90
9
 70
0
 10
9.3069475941
 20
29.0719527945
 10
9.3348602196
 20
29.083351774
 10
9.3813746326
 20
29.096330827
 10
9.4301935853
 20
29.1029084203
 10
9.4809456798
 20
29.1030345139
 10
9.5332448118
 20
29.0967081484
 10
9.5866931076
 20
29.0839774527
 10
9.6408839509
 20
29.0649392776
 10
9.6954050767
 20
29.0397384588
  0
LWPOLYLINE
  5
272
100
AcDbEntity
  8
218140000
100
AcDbPolyline
 62
250
  6
CONTINUOUS
 90
9
 70
0
 10
9.3069475941
 20
29.0719527945
 10
9.3348602196
 20
29.083351774
 10
9.3813746326
 20
29.096330827
 10
9.4301935853
 20
29.1029084203
 10
9.4809456798
 20
29.1030345139
 10
9.5332448118
 20
29.0967081484
 10
9.5866931076
 20
29.0839774527
 10
9.6408839509
 20
29.0649392776
 10
9.6954050767
 20
29.0397384588
  0
LINE
  5
273
100
AcDbEntity
  8
RACCORDO
100
AcDbLine
 62
250
  6
CONTINUOUS
 10
17.8499702576
 20
-27.403160784
 11
17.3196401717
 21
-27.2933258269
  0
LINE
  5
274
100
AcDbEntity
  8
RACCORDO
100
AcDbLine
 62
250
  6
CONTINUOUS
 10
17.7615819099
 20
-27.0830782625
 11
17.231251824
 21
-26.9732433055
  0
LWPOLYLINE
  5
275
100
AcDbEntity
  8
RACCORDO
100
AcDbPolyline
 62
7
  6
CONTINUOUS
 90
10
 70
0
 10
7.7962273145
 20
-29.4855137109
 10
7.883657306
 20
-29.5245231025
 10
7.9746989074
 20
-29.5557390873
 10
8.0686596222
 20
-29.5788286481
 10
8.1653991939
 20
-29.5936404462
 10
8.2642412572
 20
-29.5998942947
 10
8.3644274392
 20
-29.597383301
 10
8.4658423933
 20
-29.5859025684
 10
8.5680242074
 20
-29.5652648576
 10
8.6652401251
 20
-29.5370527233
  0
LWPOLYLINE
  5
276
100
AcDbEntity
  8
RACCORDO
100
AcDbPolyline
 62
250
  6
CONTINUOUS
 90
16
 70
0
 10
7.4036921647
 20
-28.624330624
 10
7.4652003345
 20
-28.6521055085
 10
7.5321065833
 20
-28.6768275555
 10
7.6036940199
 20
-28.6982318718
 10
7.679195595
 20
-28.7160891131
 10
7.7578023197
 20
-28.7302079414
 10
7.8386719339
 20
-28.7404370753
 10
7.920937931
 20
-28.7466669107
 10
8.0037188423
 20
-28.7488306961
 10
8.0861276818
 20
-28.7469052467
 10
8.1672814503
 20
-28.7409111934
 10
8.2463105965
 20
-28.7309127617
 10
8.3223683342
 20
-28.7170170834
 10
8.3946397152
 20
-28.6993730487
 10
8.4623503617
 20
-28.678169711
 10
8.5247747638
 20
-28.6536342611
  0
LINE
  5
277
100
AcDbEntity
  8
RACCORDO
100
AcDbLine
 62
7
  6
CONTINUOUS
 10
7.7967287155
 20
-29.4857893788
 11
-22.2461407052
 21
-14.4643546685
  0
LWPOLYLINE
  5
278
100
AcDbEntity
  8
RACCORDO
100
AcDbPolyline
 62
250
  6
CONTINUOUS
 90
13
 70
0
 10
7.7961203257
 20
-29.4854847729
 10
7.7842141547
 20
-29.4793394093
 10
7.7190931576
 20
-29.4389783796
 10
7.6591007932
 20
-29.3898242626
 10
7.6046424493
 20
-29.3322101641
 10
7.5560844713
 20
-29.2665260831
 10
7.5137613547
 20
-29.1932181115
 10
7.4779593943
 20
-29.1127806798
 10
7.4489211503
 20
-29.0257605949
 10
7.4268500033
 20
-28.9327548907
 10
7.4118969206
 20
-28.8343979113
 10
7.4041602993
 20
-28.7313562168
 10
7.4036921405
 20
-28.624330635
  0
LWPOLYLINE
  5
279
100
AcDbEntity
  8
RACCORDO
100
AcDbPolyline
 62
250
  6
CONTINUOUS
 90
9
 70
0
 10
-22.6313300502
 20
-13.606805012
 10
-22.6867755521
 20
-13.5761031949
 10
-22.7355700323
 20
-13.5429751869
 10
-22.7771906749
 20
-13.507775943
 10
-22.8111915293
 20
-13.4708826108
 10
-22.8372082881
 20
-13.4326904894
 10
-22.854962191
 20
-13.3936087936
 10
-22.8642630109
 20
-13.35405627
 10
-22.8656630971
 20
-13.3254279318
  0
LWPOLYLINE
  5
27A
100
AcDbEntity
  8
RACCORDO
100
AcDbPolyline
 62
7
  6
CONTINUOUS
 90
15
 70
0
 10
-22.8656630971
 20
-13.3254279318
 10
-22.8662481879
 20
-13.3523329479
 10
-22.8629473753
 20
-13.4756896743
 10
-22.8499436932
 20
-13.5946961455
 10
-22.8275627746
 20
-13.7087603055
 10
-22.7961255618
 20
-13.8177514382
 10
-22.7558302685
 20
-13.9215615911
 10
-22.7070058593
 20
-14.0195639786
 10
-22.6500716897
 20
-14.1112081623
 10
-22.5854166462
 20
-14.1960743543
 10
-22.5136644439
 20
-14.2734775189
 10
-22.4355375351
 20
-14.3428025898
 10
-22.3517763032
 20
-14.4036290918
 10
-22.2632829534
 20
-14.4555589504
 10
-22.2448012712
 20
-14.4649984558
  0
LINE
  5
27B
100
AcDbEntity
  8
RACCORDO
100
AcDbLine
 62
7
  6
CONTINUOUS
 10
-22.8656630971
 20
-13.3254279318
 11
-22.8656562132
 21
-13.3251979132
  0
LWPOLYLINE
  5
27C
100
AcDbEntity
  8
RACCORDO
100
AcDbPolyline
 62
250
  6
CONTINUOUS
 90
13
 70
0
 10
-19.6228256376
 20
22.9547314088
 10
-20.0191089654
 20
19.8550915851
 10
-20.3890572679
 20
16.7637497471
 10
-20.7326229099
 20
13.6811015537
 10
-21.0497616003
 20
10.6075415737
 10
-21.3404326814
 20
7.5434632567
 10
-21.6045991313
 20
4.4892588834
 10
-21.842227279
 20
1.4453195705
 10
-22.053286549
 20
-1.5879650309
 10
-22.2377497434
 20
-4.6102067616
 10
-22.3955933042
 20
-7.6210186788
 10
-22.526797319
 20
-10.6200151068
 10
-22.6313452586
 20
-13.6068119355
  0
LWPOLYLINE
  5
27D
100
AcDbEntity
  8
218140080
100
AcDbPolyline
 62
250
  6
CONTINUOUS
 90
10
 70
0
 10
-3.2420189026
 20
26.4836367515
 10
-3.2367617751
 20
26.489164257
 10
-3.2315273071
 20
26.4939272146
 10
-3.2263381007
 20
26.4979028431
 10
-3.2212146627
 20
26.5010727442
 10
-3.2161814261
 20
26.5034190724
 10
-3.211266231
 20
26.5049279235
 10
-3.2064881095
 20
26.5055933857
 10
-3.2018699059
 20
26.5054122059
 10
-3.199830591
 20
26.505050539
  0
LWPOLYLINE
  5
27E
100
AcDbEntity
  8
218140000
100
AcDbPolyline
 62
250
  6
CONTINUOUS
 90
10
 70
0
 10
-3.2420189026
 20
26.4836367515
 10
-3.2367617751
 20
26.489164257
 10
-3.2315273071
 20
26.4939272146
 10
-3.2263381007
 20
26.4979028431
 10
-3.2212146627
 20
26.5010727442
 10
-3.2161814261
 20
26.5034190724
 10
-3.211266231
 20
26.5049279235
 10
-3.2064881095
 20
26.5055933857
 10
-3.2018699059
 20
26.5054122059
 10
-3.199830591
 20
26.505050539
  0
LWPOLYLINE
  5
27F
100
AcDbEntity
  8
218140080
100
AcDbPolyline
 62
250
  6
CONTINUOUS
 90
10
 70
0
 10
-3.4985742736
 20
25.7650967142
 10
-3.5176151621
 20
25.7470371491
 10
-3.5354632176
 20
25.7263266838
 10
-3.551751514
 20
25.7033910908
 10
-3.5661451912
 20
25.6787018875
 10
-3.5783483393
 20
25.6527666425
 10
-3.588110082
 20
25.6261185411
 10
-3.5952297343
 20
25.5993054234
 10
-3.599560928
 20
25.5728785224
 10
-3.6010146211
 20
25.5473811308
  0
LWPOLYLINE
  5
280
100
AcDbEntity
  8
218140000
100
AcDbPolyline
 62
250
  6
CONTINUOUS
 90
10
 70
0
 10
-3.4985742736
 20
25.7650967142
 10
-3.5176151621
 20
25.7470371491
 10
-3.5354632176
 20
25.7263266838
 10
-3.551751514
 20
25.7033910908
 10
-3.5661451912
 20
25.6787018875
 10
-3.5783483393
 20
25.6527666425
 10
-3.588110082
 20
25.6261185411
 10
-3.5952297343
 20
25.5993054234
 10
-3.599560928
 20
25.5728785224
 10
-3.6010146211
 20
25.5473811308
  0
LWPOLYLINE
  5
281
100
AcDbEntity
  8
218140080
100
AcDbPolyline
 62
250
  6
CONTINUOUS
 90
10
 70
0
 10
-2.7401686749
 20
25.3858939149
 10
-2.7592101274
 20
25.3678337206
 10
-2.7770585193
 20
25.3471226602
 10
-2.793346935
 20
25.3241866002
 10
-2.8077405358
 20
25.2994971516
 10
-2.8199434753
 20
25.2735619148
 10
-2.8297049614
 20
25.2469140337
 10
-2.8368243697
 20
25.2201013216
 10
-2.8411553833
 20
25.1936750051
 10
-2.8426090203
 20
25.1681783304
  0
LWPOLYLINE
  5
282
100
AcDbEntity
  8
218140000
100
AcDbPolyline
 62
250
  6
CONTINUOUS
 90
10
 70
0
 10
-2.7401686749
 20
25.3858939149
 10
-2.7592101274
 20
25.3678337206
 10
-2.7770585193
 20
25.3471226602
 10
-2.793346935
 20
25.3241866002
 10
-2.8077405358
 20
25.2994971516
 10
-2.8199434753
 20
25.2735619148
 10
-2.8297049614
 20
25.2469140337
 10
-2.8368243697
 20
25.2201013216
 10
-2.8411553833
 20
25.1936750051
 10
-2.8426090203
 20
25.1681783304
  0
LWPOLYLINE
  5
283
100
AcDbEntity
  8
218140080
100
AcDbPolyline
 62
250
  6
CONTINUOUS
 90
16
 70
0
 10
-4.0138858374
 20
25.4351207055
 10
-3.9896565019
 20
25.457983708
 10
-3.9636151738
 20
25.4790030199
 10
-3.9360599363
 20
25.4981019724
 10
-3.907291009
 20
25.5153327564
 10
-3.8776333267
 20
25.5305388271
 10
-3.84743549
 20
25.5433595962
 10
-3.8170207569
 20
25.5537536059
 10
-3.7867039817
 20
25.5617680165
 10
-3.7568160795
 20
25.567207233
 10
-3.7277043356
 20
25.5700841259
 10
-3.6995941781
 20
25.5704949902
 10
-3.6726247086
 20
25.56837405
 10
-3.6470203355
 20
25.5637388622
 10
-3.6230729959
 20
25.5567112468
 10
-3.6010146211
 20
25.5473811308
  0
LWPOLYLINE
  5
284
100
AcDbEntity
  8
218140000
100
AcDbPolyline
 62
250
  6
CONTINUOUS
 90
16
 70
0
 10
-4.0138858374
 20
25.4351207055
 10
-3.9896565019
 20
25.457983708
 10
-3.9636151738
 20
25.4790030199
 10
-3.9360599363
 20
25.4981019724
 10
-3.907291009
 20
25.5153327564
 10
-3.8776333267
 20
25.5305388271
 10
-3.84743549
 20
25.5433595962
 10
-3.8170207569
 20
25.5537536059
 10
-3.7867039817
 20
25.5617680165
 10
-3.7568160795
 20
25.567207233
 10
-3.7277043356
 20
25.5700841259
 10
-3.6995941781
 20
25.5704949902
 10
-3.6726247086
 20
25.56837405
 10
-3.6470203355
 20
25.5637388622
 10
-3.6230729959
 20
25.5567112468
 10
-3.6010146211
 20
25.5473811308
  0
LINE
  5
285
100
AcDbEntity
  8
218140080
100
AcDbLine
 62
250
  6
CONTINUOUS
 10
-2.7221496528
 20
24.9241684361
 11
-3.1487686916
 21
24.5291536772
  0
LINE
  5
286
100
AcDbEntity
  8
218140000
100
AcDbLine
 62
250
  6
CONTINUOUS
 10
-2.7221496528
 20
24.9241684361
 11
-3.1487686916
 21
24.5291536772
  0
LINE
  5
287
100
AcDbEntity
  8
218140080
100
AcDbLine
 62
7
  6
CONTINUOUS
 10
-2.8189500238
 20
24.9240081963
 11
-3.2115137288
 21
24.5605261959
  0
LINE
  5
288
100
AcDbEntity
  8
218140000
100
AcDbLine
 62
7
  6
CONTINUOUS
 10
-2.8189500238
 20
24.9240081963
 11
-3.2115137288
 21
24.5605261959
  0
LINE
  5
289
100
AcDbEntity
  8
218140080
100
AcDbLine
 62
250
  6
CONTINUOUS
 10
-4.3826117479
 20
25.1460752054
 11
-4.0138858374
 21
25.4351207055
  0
LINE
  5
28A
100
AcDbEntity
  8
218140000
100
AcDbLine
 62
250
  6
CONTINUOUS
 10
-4.3826117479
 20
25.1460752054
 11
-4.0138858374
 21
25.4351207055
  0
LINE
  5
28B
100
AcDbEntity
  8
268
100
AcDbLine
 62
7
  6
CONTINUOUS
 10
-1.834719944
 20
22.086313754
 11
-0.2519633408
 21
22.8982978513
  0
LINE
  5
28C
100
AcDbEntity
  8
268
100
AcDbLine
 62
7
  6
CONTINUOUS
 10
-3.5087755202
 20
22.2931406864
 11
-3.0096797874
 21
22.5451052671
  0
LINE
  5
28D
100
AcDbEntity
  8
268
100
AcDbLine
 62
7
  6
CONTINUOUS
 10
-3.0096797874
 20
22.5451052671
 11
2.4045929077
 21
25.2257178644
  0
LINE
  5
28E
100
AcDbEntity
  8
268
100
AcDbLine
 62
7
  6
CONTINUOUS
 10
3.0776091232
 20
26.5030563716
 11
2.4912303361
 21
26.2161343039
  0
LINE
  5
28F
100
AcDbEntity
  8
268
100
AcDbLine
 62
7
  6
CONTINUOUS
 10
-0.2519633408
 20
22.8982978513
 11
0.2824865379
 21
23.1586453179
  0
LINE
  5
290
100
AcDbEntity
  8
218140080
100
AcDbLine
 62
7
  6
CONTINUOUS
 10
10.6665639103
 20
28.554159042
 11
7.2361600099
 21
26.916822229
  0
LINE
  5
291
100
AcDbEntity
  8
218140000
100
AcDbLine
 62
7
  6
CONTINUOUS
 10
10.6665639103
 20
28.554159042
 11
7.2361600099
 21
26.916822229
  0
LINE
  5
292
100
AcDbEntity
  8
218140080
100
AcDbLine
 62
7
  6
CONTINUOUS
 10
9.3069475941
 20
29.0719527945
 11
3.6534777036
 21
26.4609930495
  0
LINE
  5
293
100
AcDbEntity
  8
218140000
100
AcDbLine
 62
7
  6
CONTINUOUS
 10
9.3069475941
 20
29.0719527945
 11
3.6534777036
 21
26.4609930495
  0
LINE
  5
294
100
AcDbEntity
  8
218140080
100
AcDbLine
 62
250
  6
CONTINUOUS
 10
9.6954050767
 20
29.0397384588
 11
3.8734918263
 21
26.3509859882
  0
LINE
  5
295
100
AcDbEntity
  8
218140000
100
AcDbLine
 62
250
  6
CONTINUOUS
 10
9.6954050767
 20
29.0397384588
 11
3.8734918263
 21
26.3509859882
  0
LINE
  5
296
100
AcDbEntity
  8
RACCORDO
100
AcDbLine
 62
250
  6
CONTINUOUS
 10
17.231251824
 20
-26.9732433055
 11
17.2140764493
 21
-26.9679957583
  0
LINE
  5
297
100
AcDbEntity
  8
RACCORDO
100
AcDbLine
 62
250
  6
CONTINUOUS
 10
7.4036921405
 20
-28.624330635
 11
-22.6313452586
 21
-13.6068119355
  0
LINE
  5
298
100
AcDbEntity
  8
218140080
100
AcDbLine
 62
250
  6
CONTINUOUS
 10
-2.689049728
 20
24.9578948177
 11
-2.7221496528
 21
24.9241684361
  0
LINE
  5
299
100
AcDbEntity
  8
218140000
100
AcDbLine
 62
250
  6
CONTINUOUS
 10
-2.689049728
 20
24.9578948177
 11
-2.7221496528
 21
24.9241684361
  0
LWPOLYLINE
  5
29A
100
AcDbEntity
  8
RACCORDO
100
AcDbPolyline
 62
7
  6
CONTINUOUS
 90
10
 70
0
 10
0.7322487712
 20
20.8530028254
 10
0.7039140008
 20
20.8364244587
 10
0.6775825719
 20
20.8159101766
 10
0.6539497679
 20
20.7917569734
 10
0.6336770361
 20
20.7644600466
 10
0.6172482049
 20
20.7345621892
 10
0.6049858785
 20
20.7025213191
 10
0.5971599485
 20
20.6686918295
 10
0.5940963652
 20
20.6340966264
 10
0.5940521738
 20
20.629417584
  0
LWPOLYLINE
  5
29B
100
AcDbEntity
  8
RACCORDO
100
AcDbPolyline
 62
250
  6
CONTINUOUS
 90
13
 70
0
 10
0.84405217
 20
20.8459023786
 10
0.8214914038
 20
20.8328515702
 10
0.7991435494
 20
20.8163452123
 10
0.7773912014
 20
20.7965885418
 10
0.7565732557
 20
20.773795241
 10
0.7371262077
 20
20.7483431908
 10
0.7195377122
 20
20.720824272
 10
0.7041446418
 20
20.6917820736
 10
0.6911724873
 20
20.6616608501
 10
0.6808487003
 20
20.630992497
 10
0.6733495221
 20
20.6003111143
 10
0.6688000144
 20
20.5701428757
 10
0.6672754747
 20
20.54100768
  0
LWPOLYLINE
  5
29C
100
AcDbEntity
  8
218140080
100
AcDbPolyline
 62
7
  6
CONTINUOUS
 90
13
 70
0
 10
7.6507375216
 20
25.8412436888
 10
7.5217527035
 20
25.7708899704
 10
7.4028394192
 20
25.6962319218
 10
7.2945705857
 20
25.6176292409
 10
7.1974678357
 20
25.5354606307
 10
7.1119990044
 20
25.4501219746
 10
7.0385758753
 20
25.3620244289
 10
6.9775521967
 20
25.2715924424
 10
6.9292219769
 20
25.1792617109
 10
6.893818068
 20
25.0854770782
 10
6.8715110439
 20
24.9906903931
 10
6.8624083785
 20
24.8953583319
 10
6.8621762568
 20
24.8774934504
  0
LWPOLYLINE
  5
29D
100
AcDbEntity
  8
218140000
100
AcDbPolyline
 62
7
  6
CONTINUOUS
 90
13
 70
0
 10
7.6507375216
 20
25.8412436888
 10
7.5217527035
 20
25.7708899704
 10
7.4028394192
 20
25.6962319218
 10
7.2945705857
 20
25.6176292409
 10
7.1974678357
 20
25.5354606307
 10
7.1119990044
 20
25.4501219746
 10
7.0385758753
 20
25.3620244289
 10
6.9775521967
 20
25.2715924424
 10
6.9292219769
 20
25.1792617109
 10
6.893818068
 20
25.0854770782
 10
6.8715110439
 20
24.9906903931
 10
6.8624083785
 20
24.8953583319
 10
6.8621762568
 20
24.8774934504
  0
LINE
  5
29E
100
AcDbEntity
  8
268
100
AcDbLine
 62
250
  6
CONTINUOUS
 10
1.8884630891
 20
21.6045932822
 11
7.2467898692
 21
24.4955335092
  0
LINE
  5
29F
100
AcDbEntity
  8
268
100
AcDbLine
 62
250
  6
CONTINUOUS
 10
2.9696720494
 20
21.9395181785
 11
7.1626383016
 21
24.2017196653
  0
LINE
  5
2A0
100
AcDbEntity
  8
715
100
AcDbLine
 62
7
  6
CONTINUOUS
 10
7.3199066615
 20
24.5693416085
 11
7.9706803162
 21
24.9125074246
  0
LINE
  5
2A1
100
AcDbEntity
  8
715
100
AcDbLine
 62
250
  6
CONTINUOUS
 10
7.9705525342
 20
24.9124400377
 11
7.9706803162
 21
24.9125074246
  0
LINE
  5
2A2
100
AcDbEntity
  8
268
100
AcDbLine
 62
250
  6
CONTINUOUS
 10
3.115998779
 20
21.8942515639
 11
7.1626383016
 21
23.9894605112
  0
LINE
  5
2A3
100
AcDbEntity
  8
268
100
AcDbLine
 62
7
  6
CONTINUOUS
 10
3.2357649097
 20
21.8343684986
 11
7.244848014
 21
23.9101320411
  0
LINE
  5
2A4
100
AcDbEntity
  8
218140080
100
AcDbLine
 62
7
  6
CONTINUOUS
 10
11.6628935
 20
27.8826434815
 11
7.6507375216
 21
25.8412436888
  0
LINE
  5
2A5
100
AcDbEntity
  8
218140000
100
AcDbLine
 62
7
  6
CONTINUOUS
 10
11.6628935
 20
27.8826434815
 11
7.6507375216
 21
25.8412436888
  0
LINE
  5
2A6
100
AcDbEntity
  8
268
100
AcDbLine
 62
7
  6
CONTINUOUS
 10
0.7577026034
 20
20.0417483417
 11
0.3075513438
 21
19.8144929959
  0
LINE
  5
2A7
100
AcDbEntity
  8
268
100
AcDbLine
 62
7
  6
CONTINUOUS
 10
-0.2268985349
 20
21.2824030495
 11
1.3743822559
 21
22.085125053
  0
LINE
  5
2A8
100
AcDbEntity
  8
715
100
AcDbLine
 62
7
  6
CONTINUOUS
 10
8.098967745
 20
24.6894156932
 11
8.5939424918
 21
24.9369030667
  0
LINE
  5
2A9
100
AcDbEntity
  8
RACCORDO
100
AcDbLine
 62
7
  6
CONTINUOUS
 10
0.7322487712
 20
20.8530028254
 11
2.8535691147
 21
21.9136629972
  0
LINE
  5
2AA
100
AcDbEntity
  8
RACCORDO
100
AcDbLine
 62
250
  6
CONTINUOUS
 10
0.84405217
 20
20.8459023786
 11
2.9653725136
 21
21.9065625504
  0
LINE
  5
2AB
100
AcDbEntity
  8
715
100
AcDbLine
 62
7
  6
CONTINUOUS
 10
11.0621204044
 20
25.117402919
 11
9.7506560933
 21
24.4616707634
  0
LINE
  5
2AC
100
AcDbEntity
  8
268
100
AcDbLine
 62
7
  6
CONTINUOUS
 10
1.3743822559
 20
22.085125053
 11
1.9026494277
 21
22.348563873
  0
LINE
  5
2AD
100
AcDbEntity
  8
218140080
100
AcDbLine
 62
7
  6
CONTINUOUS
 10
11.6628935
 20
27.4747922142
 11
7.6507375216
 21
25.5199194066
  0
LINE
  5
2AE
100
AcDbEntity
  8
218140000
100
AcDbLine
 62
7
  6
CONTINUOUS
 10
11.6628935
 20
27.4747922142
 11
7.6507375216
 21
25.5199194066
  0
LINE
  5
2AF
100
AcDbEntity
  8
218140080
100
AcDbLine
 62
7
  6
CONTINUOUS
 10
7.8286399413
 20
23.4106153234
 11
3.899968447
 21
21.5022667299
  0
LINE
  5
2B0
100
AcDbEntity
  8
218140000
100
AcDbLine
 62
7
  6
CONTINUOUS
 10
7.8286399413
 20
23.4106153234
 11
3.899968447
 21
21.5022667299
  0
LINE
  5
2B1
100
AcDbEntity
  8
268
100
AcDbLine
 62
250
  6
CONTINUOUS
 10
1.284860046
 20
22.7194359347
 11
6.0566990241
 21
25.0135114211
  0
LINE
  5
2B2
100
AcDbEntity
  8
268
100
AcDbLine
 62
250
  6
CONTINUOUS
 10
1.5124755458
 20
22.6056281848
 11
6.4985398921
 21
25.0026931408
  0
LINE
  5
2B3
100
AcDbEntity
  8
RACCORDO
100
AcDbLine
 62
7
  6
CONTINUOUS
 10
2.8629704199
 20
21.9181214304
 11
2.8534074845
 21
21.9135819872
  0
LWPOLYLINE
  5
2B4
100
AcDbEntity
  8
RACCORDO
100
AcDbPolyline
 62
250
  6
CONTINUOUS
 90
7
 70
0
 10
0.7322487712
 20
20.8530028254
 10
0.7364373364
 20
20.8549694812
 10
0.7556638224
 20
20.8610902015
 10
0.7764026575
 20
20.8632465702
 10
0.7982989946
 20
20.8614016914
 10
0.8209781811
 20
20.8555871312
 10
0.84405217
 20
20.8459023786
  0
LWPOLYLINE
  5
2B5
100
AcDbEntity
  8
RACCORDO
100
AcDbPolyline
 62
250
  6
CONTINUOUS
 90
7
 70
0
 10
2.8535944747
 20
21.9136756724
 10
2.8584465512
 20
21.915929325
 10
2.8778935993
 20
21.9219343271
 10
2.898711545
 20
21.9239096822
 10
2.920463893
 20
21.9219140047
 10
2.9428117474
 20
21.9160725082
 10
2.9653725136
 20
21.9065625504
  0
LWPOLYLINE
  5
2B6
100
AcDbEntity
  8
715
100
AcDbPolyline
 62
7
  6
CONTINUOUS
 90
10
 70
0
 10
11.9106222162
 20
24.6931256874
 10
11.9220186805
 20
24.6982943427
 10
11.9332390829
 20
24.7023462391
 10
11.9442834237
 20
24.7052813766
 10
11.9552466826
 20
24.7070999079
 10
11.9660338797
 20
24.7078016804
 10
11.9763600752
 20
24.707386236
 10
11.9861302889
 20
24.7058534222
 10
11.9954395009
 20
24.7032033914
 10
12.0042877112
 20
24.6994361438
  0
LINE
  5
2B7
100
AcDbEntity
  8
268
100
AcDbLine
 62
7
  6
CONTINUOUS
 10
-0.0044759674
 20
18.9283262426
 11
0.5610026951
 21
19.1260290276
  0
LINE
  5
2B8
100
AcDbEntity
  8
RACCORDO
100
AcDbLine
 62
250
  6
CONTINUOUS
 10
18.3803003435
 20
-18.6243471633
 11
22.5789104262
 21
-18.3281392405
  0
LINE
  5
2B9
100
AcDbEntity
  8
RACCORDO
100
AcDbLine
 62
7
  6
CONTINUOUS
 10
22.1112401975
 20
-17.6925157437
 11
18.3803003435
 21
-17.8911672255
  0
LINE
  5
2BA
100
AcDbEntity
  8
RACCORDO
100
AcDbLine
 62
7
  6
CONTINUOUS
 10
15.4400698198
 20
-28.950353378
 11
14.0965669356
 21
-28.2786019358
  0
LINE
  5
2BB
100
AcDbEntity
  8
RACCORDO
100
AcDbLine
 62
250
  6
CONTINUOUS
 10
15.3750965234
 20
-28.8151349279
 11
14.0315936392
 21
-28.1433834857
  0
LINE
  5
2BC
100
AcDbEntity
  8
RACCORDO
100
AcDbLine
 62
250
  6
CONTINUOUS
 10
14.0315936392
 20
-27.7920695136
 11
15.3750965234
 21
-28.4638209558
  0
LINE
  5
2BD
100
AcDbEntity
  8
RACCORDO
100
AcDbLine
 62
250
  6
CONTINUOUS
 10
14.1199819868
 20
-27.5603753398
 11
15.4634848711
 21
-28.2321267819
  0
LINE
  5
2BE
100
AcDbEntity
  8
RACCORDO
100
AcDbLine
 62
250
  6
CONTINUOUS
 10
15.993814957
 20
-27.591961739
 11
14.6503120727
 21
-26.9202102969
  0
LWPOLYLINE
  5
2BF
100
AcDbEntity
  8
RACCORDO
100
AcDbPolyline
 62
7
  6
CONTINUOUS
 90
7
 70
0
 10
14.0967514377
 20
-28.2786939334
 10
14.0853587054
 20
-28.2726372604
 10
14.0582730645
 20
-28.2549221486
 10
14.0336421314
 20
-28.2337968394
 10
14.0118906315
 20
-28.2095775637
 10
13.9933827557
 20
-28.1825895776
 10
13.9784785778
 20
-28.1532284328
  0
LINE
  5
2C0
100
AcDbEntity
  8
268
100
AcDbLine
 62
7
  6
CONTINUOUS
 10
-15.7729571878
 20
26.8369623581
 11
-15.7729571878
 21
26.8125668528
  0
LINE
  5
2C1
100
AcDbEntity
  8
268
100
AcDbLine
 62
7
  6
CONTINUOUS
 10
-15.3737638909
 20
28.2102133908
 11
-15.3737638909
 21
28.4635847845
  0
LINE
  5
2C2
100
AcDbEntity
  8
268
100
AcDbLine
 62
7
  6
CONTINUOUS
 10
-14.9597843895
 20
26.4059804536
 11
-14.9597843895
 21
26.2128497681
  0
LWPOLYLINE
  5
2C3
100
AcDbEntity
  8
RACCORDO
100
AcDbPolyline
 62
7
  6
CONTINUOUS
 90
11
 70
0
 10
1.0825625699
 20
19.4717233825
 10
1.0543338653
 20
19.4536301716
 10
1.0275767581
 20
19.4356397427
 10
1.0023505007
 20
19.4181290149
 10
0.9784426585
 20
19.4013252899
 10
0.9562583552
 20
19.3858800423
 10
0.9366123743
 20
19.3726191232
 10
0.9196009229
 20
19.3617222687
 10
0.9053622949
 20
19.3532667563
 10
0.8944768044
 20
19.3474023814
 10
0.8927201475
 20
19.3465213619
  0
LWPOLYLINE
  5
2C4
100
AcDbEntity
  8
RACCORDO
100
AcDbPolyline
 62
250
  6
CONTINUOUS
 90
13
 70
0
 10
2.1875550543
 20
20.1741509365
 10
2.164994288
 20
20.161100128
 10
2.1426464337
 20
20.1445937702
 10
2.1208940857
 20
20.1248370997
 10
2.10007614
 20
20.1020437989
 10
2.0806290919
 20
20.0765917487
 10
2.0630405964
 20
20.0490728298
 10
2.0476475261
 20
20.0200306315
 10
2.0346753716
 20
19.989909408
 10
2.0243515845
 20
19.9592410549
 10
2.0168524063
 20
19.9285596722
 10
2.0123028987
 20
19.8983914335
 10
2.010778359
 20
19.8692562379
  0
LWPOLYLINE
  5
2C5
100
AcDbEntity
  8
RACCORDO
100
AcDbPolyline
 62
250
  6
CONTINUOUS
 90
7
 70
0
 10
3.778545312
 20
19.475049047
 10
3.8001069517
 20
19.487342216
 10
3.8182749676
 20
19.5009373947
 10
3.8327384998
 20
19.5156019656
 10
3.8432500732
 20
19.531085014
 10
3.849629832
 20
19.5471216206
 10
3.8517686167
 20
19.5634373947
  0
LWPOLYLINE
  5
2C6
100
AcDbEntity
  8
268
100
AcDbPolyline
 62
7
  6
CONTINUOUS
 90
5
 70
0
 10
7.2450565077
 20
23.9102303523
 10
7.2452909446
 20
23.9103633541
 10
7.2462181805
 20
23.9111910255
 10
7.246724598
 20
23.9122420969
 10
7.2468363433
 20
23.9131863412
  0
LWPOLYLINE
  5
2C7
100
AcDbEntity
  8
RACCORDO
100
AcDbPolyline
 62
250
  6
CONTINUOUS
 90
13
 70
0
 10
1.2304927567
 20
19.2462201884
 10
1.2491746016
 20
19.2566768179
 10
1.2675728354
 20
19.270001378
 10
1.2853656351
 20
19.2859607947
 10
1.3022417681
 20
19.3042759051
 10
1.317906036
 20
19.32462634
 10
1.3320844384
 20
19.3466561284
 10
1.3445289661
 20
19.369979924
 10
1.3550219385
 20
19.3941897455
 10
1.3633798119
 20
19.4188621134
 10
1.3694563898
 20
19.443565457
 10
1.3731453805
 20
19.467867664
 10
1.3743822559
 20
19.4913436388
  0
LWPOLYLINE
  5
2C8
100
AcDbEntity
  8
RACCORDO
100
AcDbPolyline
 62
250
  6
CONTINUOUS
 90
13
 70
0
 10
2.573995641
 20
18.5744687463
 10
2.5926777336
 20
18.5849255354
 10
2.6110761553
 20
18.5982502901
 10
2.6288690766
 20
18.614209906
 10
2.6457452619
 20
18.6325251905
 10
2.6614095191
 20
18.6528757522
 10
2.6755878613
 20
18.6749056082
 10
2.6880322897
 20
18.6982293974
 10
2.6985251414
 20
18.7224391355
 10
2.7068828955
 20
18.7471113596
 10
2.7129593718
 20
18.7718145115
 10
2.7166482911
 20
18.7961164841
 10
2.7178851402
 20
18.8195921967
  0
LWPOLYLINE
  5
2C9
100
AcDbEntity
  8
RACCORDO
100
AcDbPolyline
 62
250
  6
CONTINUOUS
 90
8
 70
0
 10
3.778545312
 20
19.1512266193
 10
3.7962724539
 20
19.1603515903
 10
3.8117616268
 20
19.170346301
 10
3.8248635861
 20
19.1810826284
 10
3.8354550739
 20
19.192415923
 10
3.8434511826
 20
19.2042186
 10
3.8487964209
 20
19.2163832679
 10
3.8514513729
 20
19.2287596493
  0
LWPOLYLINE
  5
2CA
100
AcDbEntity
  8
RACCORDO
100
AcDbPolyline
 62
7
  6
CONTINUOUS
 90
4
 70
0
 10
1.1748693825
 20
19.5230604405
 10
1.1424673649
 20
19.5064646897
 10
1.1119410305
 20
19.4894171644
 10
1.0825625699
 20
19.4717233825
  0
LINE
  5
2CB
100
AcDbEntity
  8
268
100
AcDbLine
 62
250
  6
CONTINUOUS
 10
0.9026909448
 20
19.969254171
 11
-0.2519633408
 21
19.3795858678
  0
LINE
  5
2CC
100
AcDbEntity
  8
268
100
AcDbLine
 62
250
  6
CONTINUOUS
 10
1.3011589512
 20
19.6194940768
 11
-0.0044759674
 21
18.9527217479
  0
LINE
  5
2CD
100
AcDbEntity
  8
RACCORDO
100
AcDbLine
 62
250
  6
CONTINUOUS
 10
2.1875550543
 20
20.1741509365
 11
4.3088753979
 21
21.2348111083
  0
LINE
  5
2CE
100
AcDbEntity
  8
715
100
AcDbLine
 62
7
  6
CONTINUOUS
 10
11.9106511121
 20
24.6931401354
 11
11.0317584609
 21
24.2536938098
  0
LINE
  5
2CF
100
AcDbEntity
  8
RACCORDO
100
AcDbLine
 62
250
  6
CONTINUOUS
 10
2.3643317496
 20
19.8692562379
 11
4.4856520931
 21
20.9299164097
  0
LINE
  5
2D0
100
AcDbEntity
  8
218140080
100
AcDbLine
 62
250
  6
CONTINUOUS
 10
16.5934421365
 20
25.076886533
 11
4.9193021673
 21
19.2726045413
  0
LINE
  5
2D1
100
AcDbEntity
  8
218140000
100
AcDbLine
 62
250
  6
CONTINUOUS
 10
16.5934421365
 20
25.076886533
 11
4.9193021673
 21
19.2726045413
  0
LINE
  5
2D2
100
AcDbEntity
  8
RACCORDO
100
AcDbLine
 62
250
  6
CONTINUOUS
 10
0.8812415145
 20
19.2156641131
 11
1.1210081504
 21
19.3346289547
  0
LINE
  5
2D3
100
AcDbEntity
  8
RACCORDO
100
AcDbLine
 62
7
  6
CONTINUOUS
 10
0.6580843873
 20
19.2301322168
 11
0.8927106961
 21
19.3465085956
  0
LINE
  5
2D4
100
AcDbEntity
  8
RACCORDO
100
AcDbLine
 62
7
  6
CONTINUOUS
 10
1.291149288
 20
19.5798188506
 11
1.1749193735
 21
19.5230827851
  0
LINE
  5
2D5
100
AcDbEntity
  8
RACCORDO
100
AcDbLine
 62
7
  6
CONTINUOUS
 10
1.3011589512
 20
19.5847059029
 11
1.291149288
 21
19.5798188506
  0
LINE
  5
2D6
100
AcDbEntity
  8
RACCORDO
100
AcDbLine
 62
7
  6
CONTINUOUS
 10
1.1748701937
 20
19.523058773
 11
1.1749193735
 21
19.5230827851
  0
LINE
  5
2D7
100
AcDbEntity
  8
218140080
100
AcDbLine
 62
7
  6
CONTINUOUS
 10
16.1738989255
 20
25.8004915344
 11
8.5813340253
 21
22.1124100623
  0
LINE
  5
2D8
100
AcDbEntity
  8
218140000
100
AcDbLine
 62
7
  6
CONTINUOUS
 10
16.1738989255
 20
25.8004915344
 11
8.5813340253
 21
22.1124100623
  0
LINE
  5
2D9
100
AcDbEntity
  8
RACCORDO
100
AcDbLine
 62
250
  6
CONTINUOUS
 10
1.2790382739
 20
19.5439482985
 11
1.2975177407
 21
19.5528424831
  0
LINE
  5
2DA
100
AcDbEntity
  8
218140080
100
AcDbLine
 62
7
  6
CONTINUOUS
 10
15.3682269894
 20
26.2033275024
 11
11.9470809197
 21
24.5613617741
  0
LINE
  5
2DB
100
AcDbEntity
  8
218140000
100
AcDbLine
 62
7
  6
CONTINUOUS
 10
15.3682269894
 20
26.2033275024
 11
11.9470809197
 21
24.5613617741
  0
LINE
  5
2DC
100
AcDbEntity
  8
RACCORDO
100
AcDbLine
 62
250
  6
CONTINUOUS
 10
3.0714385308
 20
18.8127897583
 11
3.778545312
 21
19.1512266193
  0
LINE
  5
2DD
100
AcDbEntity
  8
RACCORDO
100
AcDbLine
 62
250
  6
CONTINUOUS
 10
3.210391744
 20
18.5676663079
 11
3.9174985252
 21
18.9061031689
  0
LWPOLYLINE
  5
2DE
100
AcDbEntity
  8
RACCORDO
100
AcDbPolyline
 62
250
  6
CONTINUOUS
 90
5
 70
0
 10
1.1749193735
 20
19.5230827851
 10
1.181870817
 20
19.5263133809
 10
1.2124895135
 20
19.5370110433
 10
1.2449908941
 20
19.5429097175
 10
1.2790382739
 20
19.5439482985
  0
LWPOLYLINE
  5
2DF
100
AcDbEntity
  8
218140080
100
AcDbPolyline
 62
7
  6
CONTINUOUS
 90
9
 70
0
 10
16.1738989255
 20
25.8004915344
 10
16.2300448032
 20
25.8257545727
 10
16.2832775141
 20
25.8452070652
 10
16.3331479746
 20
25.8588366762
 10
16.3791187443
 20
25.8667443637
 10
16.4209107059
 20
25.8689773416
 10
16.458503616
 20
25.8655203273
 10
16.4915379045
 20
25.8565837231
 10
16.506099855
 20
25.8502106652
  0
LWPOLYLINE
  5
2E0
100
AcDbEntity
  8
218140000
100
AcDbPolyline
 62
7
  6
CONTINUOUS
 90
9
 70
0
 10
16.1738989255
 20
25.8004915344
 10
16.2300448032
 20
25.8257545727
 10
16.2832775141
 20
25.8452070652
 10
16.3331479746
 20
25.8588366762
 10
16.3791187443
 20
25.8667443637
 10
16.4209107059
 20
25.8689773416
 10
16.458503616
 20
25.8655203273
 10
16.4915379045
 20
25.8565837231
 10
16.506099855
 20
25.8502106652
  0
LWPOLYLINE
  5
2E1
100
AcDbEntity
  8
RACCORDO
100
AcDbPolyline
 62
250
  6
CONTINUOUS
 90
8
 70
0
 10
0.8927234323
 20
19.3465149123
 10
0.9083987909
 20
19.3534669115
 10
0.9403215961
 20
19.363080602
 10
0.9741566041
 20
19.3676049265
 10
1.0095372932
 20
19.3669899388
 10
1.0460778448
 20
19.3612402626
 10
1.0833766984
 20
19.3504170893
 10
1.121025077
 20
19.3346373505
  0
LWPOLYLINE
  5
2E2
100
AcDbEntity
  8
RACCORDO
100
AcDbPolyline
 62
250
  6
CONTINUOUS
 90
13
 70
0
 10
2.3643317496
 20
19.8692562379
 10
2.3403254371
 20
19.8586986279
 10
2.3136236714
 20
19.8497016564
 10
2.2846204283
 20
19.8424509299
 10
2.2536907212
 20
19.8370978378
 10
2.2214013853
 20
19.8337954577
 10
2.1885242599
 20
19.8326455249
 10
2.1557025285
 20
19.8336633202
 10
2.1234323579
 20
19.8368262511
 10
2.0922826338
 20
19.842077326
 10
2.0627937382
 20
19.8493225956
 10
2.0354692956
 20
19.8584353093
 10
2.010778359
 20
19.8692562379
  0
LWPOLYLINE
  5
2E3
100
AcDbEntity
  8
RACCORDO
100
AcDbPolyline
 62
250
  6
CONTINUOUS
 90
13
 70
0
 10
2.3643317496
 20
19.5179422658
 10
2.3397454115
 20
19.5071614459
 10
2.3125550543
 20
19.498077438
 10
2.2832259124
 20
19.4908456719
 10
2.2522598156
 20
19.4855898852
 10
2.2201866023
 20
19.4824000058
 10
2.1875550543
 20
19.4813306135
 10
2.1549235062
 20
19.4824000058
 10
2.122850293
 20
19.4855898852
 10
2.0918841962
 20
19.4908456719
 10
2.0625550543
 20
19.498077438
 10
2.035364697
 20
19.5071614459
 10
2.010778359
 20
19.5179422658
  0
LWPOLYLINE
  5
2E4
100
AcDbEntity
  8
RACCORDO
100
AcDbPolyline
 62
250
  6
CONTINUOUS
 90
13
 70
0
 10
3.0714385308
 20
19.1214956564
 10
3.0468521927
 20
19.1107148365
 10
3.0196618355
 20
19.1016308286
 10
2.9903326936
 20
19.0943990625
 10
2.9593665968
 20
19.0891432758
 10
2.9272933835
 20
19.0859533964
 10
2.8946618355
 20
19.0848840041
 10
2.8620302874
 20
19.0859533964
 10
2.8299570742
 20
19.0891432758
 10
2.7989909774
 20
19.0943990625
 10
2.7696618355
 20
19.1016308286
 10
2.7424714782
 20
19.1107148365
 10
2.7178851402
 20
19.1214956564
  0
LWPOLYLINE
  5
2E5
100
AcDbEntity
  8
RACCORDO
100
AcDbPolyline
 62
250
  6
CONTINUOUS
 90
4
 70
0
 10
3.9174985252
 20
19.217498782
 10
3.8992667125
 20
19.2102219496
 10
3.8813812658
 20
19.2059852729
 10
3.8641414566
 20
19.2048596428
  0
LWPOLYLINE
  5
2E6
100
AcDbEntity
  8
RACCORDO
100
AcDbPolyline
 62
7
  6
CONTINUOUS
 90
18
 70
0
 10
22.1112261812
 20
-17.6924706622
 10
22.1481680343
 20
-17.6937622983
 10
22.1851876992
 20
-17.7010746971
 10
22.2233468947
 20
-17.7146188989
 10
22.2623953767
 20
-17.7341431399
 10
22.3005545722
 20
-17.7587581336
 10
22.3375742371
 20
-17.7884653997
 10
22.3737046154
 20
-17.8232634184
 10
22.4079178664
 20
-17.8622583441
 10
22.4403680504
 20
-17.9058423603
 10
22.4709011071
 20
-17.9536232834
 10
22.4980270144
 20
-18.0035307168
 10
22.5215210189
 20
-18.0554431208
 10
22.5416078741
 20
-18.1094820349
 10
22.5574718186
 20
-18.1639416817
 10
22.5688409319
 20
-18.2182534687
 10
22.5759871344
 20
-18.2729859882
 10
22.5789104262
 20
-18.3281392405
  0
LWPOLYLINE
  5
2E7
100
AcDbEntity
  8
RACCORDO
100
AcDbPolyline
 62
250
  6
CONTINUOUS
 90
3
 70
0
 10
17.7846784225
 20
-27.0910071241
 10
17.7788415226
 20
-27.0883605455
 10
17.7615819099
 20
-27.0830782625
  0
LINE
  5
2E8
100
AcDbEntity
  8
RACCORDO
100
AcDbLine
 62
250
  6
CONTINUOUS
 10
17.2140764493
 20
-26.9679957583
 11
17.2078367728
 21
-26.9651559294
  0
LINE
  5
2E9
100
AcDbEntity
  8
RACCORDO
100
AcDbLine
 62
250
  6
CONTINUOUS
 10
16.0822033046
 20
-27.3602675652
 11
14.7387004204
 21
-26.688516123
  0
LINE
  5
2EA
100
AcDbEntity
  8
RACCORDO
100
AcDbLine
 62
7
  6
CONTINUOUS
 10
13.2211251822
 20
-25.812681929
 11
15.8682372649
 21
-27.1362379703
  0
LINE
  5
2EB
100
AcDbEntity
  8
DRAFT
100
AcDbLine
 62
7
  6
CONTINUOUS
 10
16.2219522156
 20
-26.854015236
 11
13.2574084523
 21
-25.3717433543
  0
LINE
  5
2EC
100
AcDbEntity
  8
RACCORDO
100
AcDbLine
 62
250
  6
CONTINUOUS
 10
17.231251824
 20
-26.9732433055
 11
17.2219736514
 21
-26.9686042192
  0
LINE
  5
2ED
100
AcDbEntity
  8
DRAFT
100
AcDbLine
 62
7
  6
CONTINUOUS
 10
16.68959431
 20
-26.5590994186
 11
13.2991970158
 21
-24.8639007715
  0
LINE
  5
2EE
100
AcDbEntity
  8
RACCORDO
100
AcDbLine
 62
250
  6
CONTINUOUS
 10
17.2160867811
 20
-26.8103306981
 11
17.7615819099
 21
-27.0830782625
  0
LINE
  5
2EF
100
AcDbEntity
  8
RACCORDO
100
AcDbLine
 62
7
  6
CONTINUOUS
 10
17.2160867811
 20
-26.8067105486
 11
17.7849969612
 21
-27.0911656386
  0
LWPOLYLINE
  5
2F0
100
AcDbEntity
  8
RACCORDO
100
AcDbPolyline
 62
250
  6
CONTINUOUS
 90
8
 70
0
 10
14.0965922956
 20
-28.278614611
 10
14.0838558766
 20
-28.2709378402
 10
14.0684628062
 20
-28.2572887122
 10
14.0554906518
 20
-28.2401396432
 10
14.0451668647
 20
-28.2197950772
 10
14.0376676865
 20
-28.1966128727
 10
14.0331181788
 20
-28.1709941417
 10
14.0315936392
 20
-28.1433834857
  0
LWPOLYLINE
  5
2F1
100
AcDbEntity
  8
RACCORDO
100
AcDbPolyline
 62
250
  6
CONTINUOUS
 90
8
 70
0
 10
15.4399081897
 20
-28.950272368
 10
15.4273587609
 20
-28.9426892823
 10
15.4119656905
 20
-28.9290401544
 10
15.398993536
 20
-28.9118910853
 10
15.3886697489
 20
-28.8915465193
 10
15.3811705708
 20
-28.8683643148
 10
15.3766210631
 20
-28.8427455838
 10
15.3750965234
 20
-28.8151349279
  0
LINE
  5
2F2
100
AcDbEntity
  8
268
100
AcDbLine
 62
7
  6
CONTINUOUS
 10
-14.6707709366
 20
27.3036541361
 11
-14.6707709366
 21
27.7559851118
  0
LINE
  5
2F3
100
AcDbEntity
  8
268
100
AcDbLine
 62
7
  6
CONTINUOUS
 10
-13.7679874287
 20
27.6606965534
 11
-13.7679874287
 21
27.4073251597
  0
LINE
  5
2F4
100
AcDbEntity
  8
268
100
AcDbLine
 62
7
  6
CONTINUOUS
 10
-13.0567668206
 20
26.4966520781
 11
-13.0567668206
 21
27.1338216368
  0
LWPOLYLINE
  5
2F5
100
AcDbEntity
  8
RACCORDO
100
AcDbPolyline
 62
250
  6
CONTINUOUS
 90
16
 70
0
 10
3.9174985252
 20
18.9061031689
 10
3.949810104
 20
18.9235452182
 10
3.9776291243
 20
18.9420511255
 10
4.000955586
 20
18.9616208908
 10
4.0198952847
 20
18.9824901658
 10
4.0343424248
 20
19.0044232988
 10
4.0439796196
 20
19.0267133349
 10
4.0486894541
 20
19.0493427279
 10
4.0485893434
 20
19.072329024
 10
4.0437141455
 20
19.0950179074
 10
4.0339553808
 20
19.1174171294
 10
4.019421529
 20
19.1395189387
 10
4.0004728878
 20
19.1606457656
 10
3.9772295564
 20
19.1805717535
 10
3.9495714355
 20
19.199522759
 10
3.9174985252
 20
19.217498782
  0
LWPOLYLINE
  5
2F6
100
AcDbEntity
  8
RACCORDO
100
AcDbPolyline
 62
7
  6
CONTINUOUS
 90
13
 70
0
 10
6.3241414189
 20
18.7391131487
 10
6.3014198418
 20
18.7270972019
 10
6.2804803819
 20
18.7144793514
 10
6.261323039
 20
18.701259597
 10
6.2438807441
 20
18.6873759001
 10
6.2282205663
 20
18.6728902994
 10
6.2145437131
 20
18.6579889111
 10
6.2028757766
 20
18.64266637
 10
6.1931911648
 20
18.6269280412
 10
6.1856143089
 20
18.6109761364
 10
6.1801724067
 20
18.5948078998
 10
6.1768382605
 20
18.5784260871
 10
6.1756526936
 20
18.561325681
  0
LINE
  5
2F7
100
AcDbEntity
  8
218140080
100
AcDbLine
 62
250
  6
CONTINUOUS
 10
16.9324056204
 20
23.9051590265
 11
12.8456894906
 21
21.7891998084
  0
LINE
  5
2F8
100
AcDbEntity
  8
218140000
100
AcDbLine
 62
250
  6
CONTINUOUS
 10
16.9324056204
 20
23.9051590265
 11
12.8456894906
 21
21.7891998084
  0
LINE
  5
2F9
100
AcDbEntity
  8
RACCORDO
100
AcDbLine
 62
7
  6
CONTINUOUS
 10
12.6173800768
 20
21.2473117592
 11
8.0211859991
 21
18.9492147203
  0
LINE
  5
2FA
100
AcDbEntity
  8
RACCORDO
100
AcDbLine
 62
7
  6
CONTINUOUS
 10
5.3218376358
 20
19.071336807
 11
11.5868406204
 21
22.1788244736
  0
LINE
  5
2FB
100
AcDbEntity
  8
RACCORDO
100
AcDbLine
 62
7
  6
CONTINUOUS
 10
12.0115291317
 20
21.5502372317
 11
6.3241414189
 21
18.7391131487
  0
LINE
  5
2FC
100
AcDbEntity
  8
DRAFT
100
AcDbLine
 62
7
  6
CONTINUOUS
 10
12.9709334674
 20
20.0907206519
 11
9.2755539742
 21
18.3220307328
  0
LINE
  5
2FD
100
AcDbEntity
  8
DRAFT
100
AcDbLine
 62
7
  6
CONTINUOUS
 10
16.68959431
 20
-24.9384616954
 11
13.4272836444
 21
-23.3073063626
  0
LINE
  5
2FE
100
AcDbEntity
  8
RACCORDO
100
AcDbLine
 62
250
  6
CONTINUOUS
 10
17.78393252
 20
-27.0966210497
 11
17.7615819099
 21
-27.0830782625
  0
LINE
  5
2FF
100
AcDbEntity
  8
268
100
AcDbLine
 62
7
  6
CONTINUOUS
 10
-11.9899359085
 20
27.0352333276
 11
-11.9899359085
 21
28.7672841352
  0
LINE
  5
300
100
AcDbEntity
  8
268
100
AcDbLine
 62
7
  6
CONTINUOUS
 10
-11.2869429542
 20
28.902605633
 11
-11.2869429542
 21
28.6416766566
  0
LINE
  5
301
100
AcDbEntity
  8
268
100
AcDbLine
 62
7
  6
CONTINUOUS
 10
1.9895010909
 20
21.7275662864
 11
1.6465384888
 21
21.3101476843
  0
LINE
  5
302
100
AcDbEntity
  8
0
100
AcDbLine
 62
7
  6
CONTINUOUS
 10
10.1933927376
 20
17.863111351
 11
13.5985362979
 21
19.5656831312
  0
LINE
  5
303
100
AcDbEntity
  8
RACCORDO
100
AcDbLine
 62
7
  6
CONTINUOUS
 10
14.7510411353
 20
20.5967242162
 11
9.6291073648
 21
18.1452540375
  0
LINE
  5
304
100
AcDbEntity
  8
268
100
AcDbLine
 62
7
  6
CONTINUOUS
 10
-9.8121789055
 20
26.5092201958
 11
-9.8121789055
 21
25.2944868096
  0
LINE
  5
305
100
AcDbEntity
  8
268
100
AcDbLine
 62
250
  6
CONTINUOUS
 10
-9.7243109399
 20
26.402711239
 11
-9.7243109399
 21
25.1877563729
  0
LWPOLYLINE
  5
306
100
AcDbEntity
  8
218140080
100
AcDbPolyline
 62
7
  6
CONTINUOUS
 90
9
 70
0
 10
-2.7550886079
 20
25.0208899296
 10
-2.756671602
 20
25.013072852
 10
-2.7600939623
 20
25.0028012448
 10
-2.765857701
 20
24.9902448957
 10
-2.7741764565
 20
24.9760034763
 10
-2.7848550706
 20
24.9609442227
 10
-2.797669625
 20
24.9455748496
 10
-2.8125129087
 20
24.9301243465
 10
-2.8189498457
 20
24.9240080031
  0
LWPOLYLINE
  5
307
100
AcDbEntity
  8
218140000
100
AcDbPolyline
 62
7
  6
CONTINUOUS
 90
9
 70
0
 10
-2.7550886079
 20
25.0208899296
 10
-2.756671602
 20
25.013072852
 10
-2.7600939623
 20
25.0028012448
 10
-2.765857701
 20
24.9902448957
 10
-2.7741764565
 20
24.9760034763
 10
-2.7848550706
 20
24.9609442227
 10
-2.797669625
 20
24.9455748496
 10
-2.8125129087
 20
24.9301243465
 10
-2.8189498457
 20
24.9240080031
  0
LWPOLYLINE
  5
308
100
AcDbEntity
  8
RACCORDO
100
AcDbPolyline
 62
250
  6
CONTINUOUS
 90
5
 70
0
 10
3.9288946365
 20
19.9044550524
 10
3.9044068895
 20
19.8691752037
 10
3.8818587661
 20
19.8325978486
 10
3.8611266727
 20
19.7944453759
 10
3.842334203
 20
19.7549953968
  0
LWPOLYLINE
  5
309
100
AcDbEntity
  8
RACCORDO
100
AcDbPolyline
 62
7
  6
CONTINUOUS
 90
7
 70
0
 10
4.5013944359
 20
20.5075027921
 10
4.5204800064
 20
20.5338613939
 10
4.5359860787
 20
20.5624886084
 10
4.5476433454
 20
20.592897147
 10
4.5552607263
 20
20.624632019
 10
4.5586800728
 20
20.6571102796
 10
4.5588753969
 20
20.666979681
  0
LWPOLYLINE
  5
30A
100
AcDbEntity
  8
715
100
AcDbPolyline
 62
250
  6
CONTINUOUS
 90
47
 70
0
 10
7.5358990649
 20
24.476248929
 10
7.5748318392
 20
24.5282909238
 10
7.6241150575
 20
24.5850716012
 10
7.6792487321
 20
24.6406622156
 10
7.7397522105
 20
24.6946047379
 10
7.8056245621
 20
24.7468576374
 10
7.8768667174
 20
24.7974624448
 10
7.9530008151
 20
24.8460857233
 10
8.0340174441
 20
24.8927134658
 10
8.1199260155
 20
24.9373596795
 10
8.2102769012
 20
24.9797329486
 10
8.3053271814
 20
25.0198921466
 10
8.4048197759
 20
25.0577784
 10
8.5075338162
 20
25.0929236732
 10
8.613874685
 20
25.1253013931
 10
8.7234369996
 20
25.1549381326
 10
8.833783744
 20
25.1814455748
 10
8.9448882609
 20
25.2046449683
 10
9.0567772076
 20
25.2247150643
 10
9.1670935397
 20
25.2418038001
 10
9.2754840296
 20
25.255777696
 10
9.3823019049
 20
25.2667702315
 10
9.486249804
 20
25.2753297828
 10
9.5870856385
 20
25.2814323523
 10
9.6850514967
 20
25.2851019375
 10
9.7795762831
 20
25.2869589063
 10
9.8704980232
 20
25.2870247752
 10
9.9579786913
 20
25.2852780277
 10
10.0419331147
 20
25.2822744823
 10
10.1222371881
 20
25.2780556817
 10
10.1990150167
 20
25.2725800832
 10
10.2725537431
 20
25.2662788775
 10
10.3428202768
 20
25.2591928438
 10
10.4098477084
 20
25.2512812029
 10
10.4740224525
 20
25.2428528087
 10
10.5353301994
 20
25.2339421681
 10
10.5937852588
 20
25.2245147743
 10
10.6498169753
 20
25.2147759605
 10
10.7034215588
 20
25.2047544388
 10
10.7546027995
 20
25.1944214971
 10
10.8038014118
 20
25.1838963323
 10
10.8510205567
 20
25.1732017932
 10
10.8962570733
 20
25.162315031
 10
10.9399421932
 20
25.1512866974
 10
10.9822196602
 20
25.1401336761
 10
11.0229457306
 20
25.1288390833
 10
11.0621204044
 20
25.117402919
  0
LWPOLYLINE
  5
30B
100
AcDbEntity
  8
715
100
AcDbPolyline
 62
250
  6
CONTINUOUS
 90
10
 70
0
 10
7.4542451954
 20
24.509906571
 10
7.4565398834
 20
24.5129665818
 10
7.5094025345
 20
24.5736836798
 10
7.568481405
 20
24.632942897
 10
7.6335741844
 20
24.6905508302
 10
7.7044500163
 20
24.7463242978
 10
7.7809431541
 20
24.8001522334
 10
7.8629345578
 20
24.851953417
 10
7.9501831548
 20
24.9015710564
 10
7.9705525342
 20
24.9124400377
  0
LINE
  5
30C
100
AcDbEntity
  8
RACCORDO
100
AcDbLine
 62
250
  6
CONTINUOUS
 10
3.9553220073
 20
19.9384373947
 11
3.9288946365
 21
19.9044550524
  0
LINE
  5
30D
100
AcDbEntity
  8
RACCORDO
100
AcDbLine
 62
250
  6
CONTINUOUS
 10
3.9553220073
 20
19.9384373947
 11
4.4856520931
 21
20.5786024376
  0
LINE
  5
30E
100
AcDbEntity
  8
RACCORDO
100
AcDbLine
 62
7
  6
CONTINUOUS
 10
3.9710643501
 20
19.8673377491
 11
4.5013944359
 21
20.5075027921
  0
LINE
  5
30F
100
AcDbEntity
  8
RACCORDO
100
AcDbLine
 62
7
  6
CONTINUOUS
 10
18.1729784902
 20
18.4695125525
 11
12.5507303242
 21
15.6258186961
  0
LINE
  5
310
100
AcDbEntity
  8
RACCORDO
100
AcDbLine
 62
7
  6
CONTINUOUS
 10
17.5671275451
 20
18.772438025
 11
12.9709334674
 21
16.4743409862
  0
LINE
  5
311
100
AcDbEntity
  8
RACCORDO
100
AcDbLine
 62
7
  6
CONTINUOUS
 10
18.5244955369
 20
17.3139396172
 11
12.5507303242
 21
14.4208978634
  0
LINE
  5
312
100
AcDbEntity
  8
RACCORDO
100
AcDbLine
 62
7
  6
CONTINUOUS
 10
18.5230713501
 20
18.2501593478
 11
18.9936818224
 21
18.4754038726
  0
LWPOLYLINE
  5
313
100
AcDbEntity
  8
RACCORDO
100
AcDbPolyline
 62
7
  6
CONTINUOUS
 90
12
 70
0
 10
17.5671275451
 20
18.772438025
 10
17.5904136783
 20
18.7831210962
 10
17.6134052933
 20
18.7918434978
 10
17.6361023899
 20
18.7986052298
 10
17.6585993683
 20
18.8034184205
 10
17.6808018284
 20
18.8062709416
 10
17.7024265701
 20
18.8071264082
 10
17.723466193
 20
18.8059592385
 10
17.7439280974
 20
18.8027950142
 10
17.7635512847
 20
18.7976740963
 10
17.7823250111
 20
18.7905714197
 10
17.790724378
 20
18.7866245148
  0
LWPOLYLINE
  5
314
100
AcDbEntity
  8
RACCORDO
100
AcDbPolyline
 62
7
  6
CONTINUOUS
 90
12
 70
0
 10
18.9936818224
 20
18.4754038726
 10
19.0396965939
 20
18.4955511047
 10
19.0850911462
 20
18.5118524903
 10
19.1298654796
 20
18.5243080295
 10
19.1742013859
 20
18.5329376156
 10
19.2179170731
 20
18.5377213552
 10
19.2604671652
 20
18.5385995688
 10
19.3018370598
 20
18.5355233294
 10
19.3420413592
 20
18.5285415639
 10
19.3805784935
 20
18.5177413736
 10
19.4174275773
 20
18.5030749226
 10
19.4285193883
 20
18.4977489182
  0
LWPOLYLINE
  5
315
100
AcDbEntity
  8
RACCORDO
100
AcDbPolyline
 62
7
  6
CONTINUOUS
 90
6
 70
0
 10
16.2178872791
 20
15.231503915
 10
16.2461738743
 20
15.2435334802
 10
16.2761610754
 20
15.252098449
 10
16.3073356583
 20
15.2568956174
 10
16.3392403022
 20
15.2577146001
 10
16.3711251904
 20
15.2544395604
  0
LWPOLYLINE
  5
316
100
AcDbEntity
  8
RACCORDO
100
AcDbPolyline
 62
250
  6
CONTINUOUS
 90
6
 70
0
 10
16.2220758444
 20
15.2334705708
 10
16.2413023304
 20
15.2395912911
 10
16.2620411655
 20
15.2417476598
 10
16.2839375026
 20
15.2399027809
 10
16.3066166891
 20
15.2340882208
 10
16.329690678
 20
15.2244034682
  0
LINE
  5
317
100
AcDbEntity
  8
DRAFT
100
AcDbLine
 62
7
  6
CONTINUOUS
 10
22.5789104262
 20
-19.9699152305
 11
23.3126878812
 21
-20.336803958
  0
LWPOLYLINE
  5
318
100
AcDbEntity
  8
RACCORDO
100
AcDbPolyline
 62
250
  6
CONTINUOUS
 90
19
 70
0
 10
1.1364997501
 20
19.385907164
 10
1.1396082245
 20
19.3956092435
 10
1.1430166208
 20
19.4055309622
 10
1.1470074174
 20
19.4155709229
 10
1.1515780884
 20
19.4256930455
 10
1.1566914256
 20
19.435853853
 10
1.1625526662
 20
19.4459535413
 10
1.169118095
 20
19.455928626
 10
1.1763130978
 20
19.4657270922
 10
1.1842644597
 20
19.4752786663
 10
1.1929272739
 20
19.4845237542
 10
1.202165261
 20
19.4934165827
 10
1.2119667529
 20
19.5019262187
 10
1.2222949737
 20
19.5100220221
 10
1.233066718
 20
19.5176891873
 10
1.2442003615
 20
19.5249290153
 10
1.2556110461
 20
19.531729645
 10
1.2672384002
 20
19.5380714085
 10
1.2790370372
 20
19.5439508934
  0
LWPOLYLINE
  5
319
100
AcDbEntity
  8
RACCORDO
100
AcDbPolyline
 62
250
  6
CONTINUOUS
 90
7
 70
0
 10
1.12098555
 20
19.3346647506
 10
1.1235985751
 20
19.3422362834
 10
1.1261439591
 20
19.3502180175
 10
1.1286769287
 20
19.3586031024
 10
1.1311566624
 20
19.3673767151
 10
1.1336804322
 20
19.3764936003
 10
1.1364997501
 20
19.385907164
  0
LWPOLYLINE
  5
31A
100
AcDbEntity
  8
RACCORDO
100
AcDbPolyline
 62
250
  6
CONTINUOUS
 90
12
 70
0
 10
2.3643317496
 20
19.5179422658
 10
2.3513868152
 20
19.4886622435
 10
2.3356406942
 20
19.4613079534
 10
2.3173424244
 20
19.4363577114
 10
2.2967715131
 20
19.4142387268
 10
2.2742792077
 20
19.3953699033
 10
2.2502958361
 20
19.3801284347
 10
2.225252367
 20
19.3687831599
 10
2.1995617689
 20
19.3615163387
 10
2.1736661145
 20
19.358452725
 10
2.1480102865
 20
19.3596443398
 10
2.1380711199
 20
19.3612788839
  0
LWPOLYLINE
  5
31B
100
AcDbEntity
  8
RACCORDO
100
AcDbPolyline
 62
250
  6
CONTINUOUS
 90
12
 70
0
 10
2.8946618355
 20
19.4081073088
 10
2.8816124919
 20
19.3786213251
 10
2.8657617279
 20
19.3511522039
 10
2.8473807545
 20
19.3261699494
 10
2.8267840753
 20
19.304102015
 10
2.8043241051
 20
19.2853259892
 10
2.7803851402
 20
19.2701631349
 10
2.755376783
 20
19.2588728929
 10
2.7297269334
 20
19.2516484422
 10
2.7038744674
 20
19.2486133952
 10
2.6782617279
 20
19.2498196824
 10
2.6671843876
 20
19.2516907674
  0
LINE
  5
31C
100
AcDbEntity
  8
218140080
100
AcDbLine
 62
7
  6
CONTINUOUS
 10
18.190682652
 20
18.586664764
 11
18.255722894
 21
18.6287322434
  0
LINE
  5
31D
100
AcDbEntity
  8
218140000
100
AcDbLine
 62
7
  6
CONTINUOUS
 10
18.190682652
 20
18.586664764
 11
18.255722894
 21
18.6287322434
  0
LWPOLYLINE
  5
31E
100
AcDbEntity
  8
RACCORDO
100
AcDbPolyline
 62
250
  6
CONTINUOUS
 90
13
 70
0
 10
14.2083703345
 20
14.1637432964
 10
14.1852963456
 20
14.1503540601
 10
14.162617159
 20
14.1334894337
 10
14.1407208219
 20
14.1134379755
 10
14.1199819868
 20
14.0905427716
 10
14.1007555008
 20
14.0651955654
 10
14.0833703345
 20
14.0378300544
 10
14.0681239528
 20
14.0089144702
 10
14.0552772255
 20
13.9789435665
 10
14.0450499639
 20
13.9484301537
 10
14.037617159
 20
13.9178963247
 10
14.0331059883
 20
13.887864522
 10
14.0315936392
 20
13.8588485978
  0
LWPOLYLINE
  5
31F
100
AcDbEntity
  8
RACCORDO
100
AcDbPolyline
 62
7
  6
CONTINUOUS
 90
10
 70
0
 10
14.0967514377
 20
14.1709357408
 10
14.0853587054
 20
14.1648790678
 10
14.0582730645
 20
14.147163956
 10
14.0336421314
 20
14.1260386468
 10
14.0118906315
 20
14.1018193711
 10
13.9933827557
 20
14.074831385
 10
13.9784785778
 20
14.0454702402
 10
13.9675183024
 20
14.0142465719
 10
13.9607603746
 20
13.9817232874
 10
13.9583704928
 20
13.947377638
  0
LINE
  5
320
100
AcDbEntity
  8
RACCORDO
100
AcDbLine
 62
7
  6
CONTINUOUS
 10
14.0965669356
 20
14.1708437432
 11
16.2178872791
 21
15.231503915
  0
LINE
  5
321
100
AcDbEntity
  8
RACCORDO
100
AcDbLine
 62
250
  6
CONTINUOUS
 10
14.2083703345
 20
14.1637432964
 11
16.329690678
 21
15.2244034682
  0
LINE
  5
322
100
AcDbEntity
  8
RACCORDO
100
AcDbLine
 62
250
  6
CONTINUOUS
 10
15.5518732187
 20
13.4919918543
 11
17.6731935623
 21
14.5526520261
  0
LINE
  5
323
100
AcDbEntity
  8
RACCORDO
100
AcDbLine
 62
250
  6
CONTINUOUS
 10
15.728649914
 20
13.1870971557
 11
17.8499702576
 21
14.2477573275
  0
LINE
  5
324
100
AcDbEntity
  8
RACCORDO
100
AcDbLine
 62
250
  6
CONTINUOUS
 10
14.6647380182
 20
12.9089253663
 11
14.5948109211
 21
12.8754567194
  0
LINE
  5
325
100
AcDbEntity
  8
RACCORDO
100
AcDbLine
 62
250
  6
CONTINUOUS
 10
16.2178872791
 20
15.231503915
 11
16.2220758444
 21
15.2334705708
  0
LWPOLYLINE
  5
326
100
AcDbEntity
  8
RACCORDO
100
AcDbPolyline
 62
250
  6
CONTINUOUS
 90
7
 70
0
 10
14.0967514377
 20
14.1709357408
 10
14.1014443721
 20
14.173110071
 10
14.1208914201
 20
14.1791150731
 10
14.1417093658
 20
14.1810904282
 10
14.1634617139
 20
14.1790947507
 10
14.1858095682
 20
14.1732532542
 10
14.2083703345
 20
14.1637432964
  0
LINE
  5
327
100
AcDbEntity
  8
RACCORDO
100
AcDbLine
 62
7
  6
CONTINUOUS
 10
17.4585289383
 20
14.7229864843
 11
22.1578823373
 21
16.8933036152
  0
LWPOLYLINE
  5
328
100
AcDbEntity
  8
RACCORDO
100
AcDbPolyline
 62
250
  6
CONTINUOUS
 90
13
 70
0
 10
15.728649914
 20
12.8357831836
 10
15.7042506956
 20
12.8250742249
 10
15.6772185333
 20
12.8160182233
 10
15.6479955991
 20
12.8087803618
 10
15.6170430427
 20
12.8034933497
 10
15.5849025843
 20
12.8002672729
 10
15.5521943299
 20
12.7991716344
 10
15.5195044141
 20
12.800223699
 10
15.4873703504
 20
12.8034037997
 10
15.4563449948
 20
12.808657075
 10
15.4269611614
 20
12.8158929808
 10
15.3997225957
 20
12.8249871223
 10
15.3750965234
 20
12.8357831836
  0
LWPOLYLINE
  5
329
100
AcDbEntity
  8
RACCORDO
100
AcDbPolyline
 62
250
  6
CONTINUOUS
 90
13
 70
0
 10
15.728649914
 20
13.1870971557
 10
15.704063576
 20
13.1763163358
 10
15.6768732187
 20
13.1672323279
 10
15.6475440768
 20
13.1600005618
 10
15.61657798
 20
13.1547447751
 10
15.5845047668
 20
13.1515548957
 10
15.5518732187
 20
13.1504855033
 10
15.5192416707
 20
13.1515548957
 10
15.4871684574
 20
13.1547447751
 10
15.4562023606
 20
13.1600005618
 10
15.4268732187
 20
13.1672323279
 10
15.3996828615
 20
13.1763163358
 10
15.3750965234
 20
13.1870971557
  0
LWPOLYLINE
  5
32A
100
AcDbEntity
  8
RACCORDO
100
AcDbPolyline
 62
250
  6
CONTINUOUS
 90
13
 70
0
 10
16.4357566952
 20
12.4393365742
 10
16.4111703572
 20
12.4285557543
 10
16.3839799999
 20
12.4194717464
 10
16.354650858
 20
12.4122399803
 10
16.3236847612
 20
12.4069841936
 10
16.291611548
 20
12.4037943142
 10
16.2589799999
 20
12.4027249219
 10
16.2263484518
 20
12.4037943142
 10
16.1942752386
 20
12.4069841936
 10
16.1633091418
 20
12.4122399803
 10
16.1339799999
 20
12.4194717464
 10
16.1067896427
 20
12.4285557543
 10
16.0822033046
 20
12.4393365742
  0
LWPOLYLINE
  5
32B
100
AcDbEntity
  8
RACCORDO
100
AcDbPolyline
 62
250
  6
CONTINUOUS
 90
4
 70
0
 10
17.2818166896
 20
12.5353396998
 10
17.263584877
 20
12.5280628674
 10
17.2456994302
 20
12.5238261906
 10
17.228459621
 20
12.5227005606
  0
LINE
  5
32C
100
AcDbEntity
  8
RACCORDO
100
AcDbLine
 62
250
  6
CONTINUOUS
 10
11.5580218727
 20
9.5726266634
 11
15.6717644385
 21
11.1254663303
  0
LINE
  5
32D
100
AcDbEntity
  8
DRAFT
100
AcDbLine
 62
7
  6
CONTINUOUS
 10
16.68959431
 20
11.2429094566
 11
16.2219522156
 21
11.0862285528
  0
LWPOLYLINE
  5
32E
100
AcDbEntity
  8
RACCORDO
100
AcDbPolyline
 62
250
  6
CONTINUOUS
 90
13
 70
0
 10
17.5608292805
 20
11.7519809804
 10
17.5906416271
 20
11.7605588496
 10
17.601554302
 20
11.7636722672
 10
17.613025481
 20
11.7670314782
 10
17.625078119
 20
11.7706285148
 10
17.6376892609
 20
11.7744713447
 10
17.6508638219
 20
11.7786986959
 10
17.664586926
 20
11.7832907693
 10
17.6788734492
 20
11.788267364
 10
17.693772934
 20
11.7938266046
 10
17.7093018948
 20
11.8000345329
 10
17.7254438173
 20
11.8068251072
 10
17.7421987014
 20
11.8141983275
  0
LINE
  5
32F
100
AcDbEntity
  8
DRAFT
100
AcDbLine
 62
7
  6
CONTINUOUS
 10
18.3803003435
 20
-17.1667642178
 11
19.6896729609
 21
-17.8214505265
  0
LINE
  5
330
100
AcDbEntity
  8
218140080
100
AcDbLine
 62
7
  6
CONTINUOUS
 10
-2.7547410932
 20
25.0258174096
 11
-2.7547410577
 21
25.0257184333
  0
LINE
  5
331
100
AcDbEntity
  8
218140000
100
AcDbLine
 62
7
  6
CONTINUOUS
 10
-2.7547410932
 20
25.0258174096
 11
-2.7547410577
 21
25.0257184333
  0
LINE
  5
332
100
AcDbEntity
  8
218140080
100
AcDbLine
 62
250
  6
CONTINUOUS
 10
-4.0138858374
 20
25.4351207055
 11
-4.0138858374
 21
24.9617122501
  0
LINE
  5
333
100
AcDbEntity
  8
218140000
100
AcDbLine
 62
250
  6
CONTINUOUS
 10
-4.0138858374
 20
25.4351207055
 11
-4.0138858374
 21
24.9617122501
  0
LINE
  5
334
100
AcDbEntity
  8
268
100
AcDbLine
 62
250
  6
CONTINUOUS
 10
-3.9318018718
 20
22.2915018389
 11
-3.9318018718
 21
23.506456705
  0
LINE
  5
335
100
AcDbEntity
  8
218140080
100
AcDbLine
 62
250
  6
CONTINUOUS
 10
-3.6010146211
 20
25.5473811308
 11
-3.6010146211
 21
24.755276642
  0
LINE
  5
336
100
AcDbEntity
  8
218140000
100
AcDbLine
 62
250
  6
CONTINUOUS
 10
-3.6010146211
 20
25.5473811308
 11
-3.6010146211
 21
24.755276642
  0
LINE
  5
337
100
AcDbEntity
  8
268
100
AcDbLine
 62
7
  6
CONTINUOUS
 10
-3.5753652124
 20
26.5444756734
 11
-3.5753652124
 21
27.7947465326
  0
LINE
  5
338
100
AcDbEntity
  8
268
100
AcDbLine
 62
250
  6
CONTINUOUS
 10
-3.5087755202
 20
22.2931406864
 11
-3.5087755202
 21
23.5073441593
  0
LINE
  5
339
100
AcDbEntity
  8
268
100
AcDbLine
 62
7
  6
CONTINUOUS
 10
-3.2218118218
 20
27.065411648
 11
-3.2218118218
 21
27.6179698374
  0
LINE
  5
33A
100
AcDbEntity
  8
268
100
AcDbLine
 62
250
  6
CONTINUOUS
 10
-3.1511011437
 20
29.2341781349
 11
-3.1511011437
 21
28.0023439535
  0
LINE
  5
33B
100
AcDbEntity
  8
268
100
AcDbLine
 62
7
  6
CONTINUOUS
 10
-3.063233178
 20
29.3391753489
 11
-3.063233178
 21
28.106806744
  0
LINE
  5
33C
100
AcDbEntity
  8
268
100
AcDbLine
 62
7
  6
CONTINUOUS
 10
-3.0096797874
 20
23.7575408324
 11
-3.0096797874
 21
22.5451052671
  0
LINE
  5
33D
100
AcDbEntity
  8
218140080
100
AcDbLine
 62
250
  6
CONTINUOUS
 10
-2.8426090225
 20
25.1681783315
 11
-2.8426090225
 21
24.9021021462
  0
LINE
  5
33E
100
AcDbEntity
  8
218140000
100
AcDbLine
 62
250
  6
CONTINUOUS
 10
-2.8426090225
 20
25.1681783315
 11
-2.8426090225
 21
24.9021021462
  0
LINE
  5
33F
100
AcDbEntity
  8
218140080
100
AcDbLine
 62
7
  6
CONTINUOUS
 10
-2.7547460219
 20
25.0257602823
 11
-2.7550886079
 21
25.0208899296
  0
LINE
  5
340
100
AcDbEntity
  8
218140000
100
AcDbLine
 62
7
  6
CONTINUOUS
 10
-2.7547460219
 20
25.0257602823
 11
-2.7550886079
 21
25.0208899296
  0
LWPOLYLINE
  5
341
100
AcDbEntity
  8
RACCORDO
100
AcDbPolyline
 62
250
  6
CONTINUOUS
 90
3
 70
0
 10
3.842334203
 20
19.7549953968
 10
3.8258521378
 20
19.7150807452
 10
3.8117179408
 20
19.6746994522
  0
LWPOLYLINE
  5
342
100
AcDbEntity
  8
RACCORDO
100
AcDbPolyline
 62
250
  6
CONTINUOUS
 90
13
 70
0
 10
15.5518732187
 20
13.4919918543
 10
15.5287068218
 20
13.4785414837
 10
15.5059318868
 20
13.46158203
 10
15.4839421694
 20
13.4414025913
 10
15.4631162324
 20
13.4183456175
 10
15.4438182163
 20
13.3928090298
 10
15.4263895553
 20
13.3652421153
 10
15.4111009254
 20
13.3360563807
 10
15.3982586375
 20
13.3058175644
 10
15.3881468761
 20
13.2752650115
 10
15.3808959811
 20
13.2449984873
 10
15.3765420697
 20
13.2154511116
 10
15.3750965234
 20
13.1870971557
  0
LWPOLYLINE
  5
343
100
AcDbEntity
  8
RACCORDO
100
AcDbPolyline
 62
250
  6
CONTINUOUS
 90
7
 70
0
 10
17.1428634764
 20
12.7928899648
 10
17.1644251162
 20
12.8051831338
 10
17.182593132
 20
12.8187783124
 10
17.1970566642
 20
12.8334428834
 10
17.2075682377
 20
12.8489259318
 10
17.2139479964
 20
12.8649625384
 10
17.2160867811
 20
12.8812783124
  0
LWPOLYLINE
  5
344
100
AcDbEntity
  8
RACCORDO
100
AcDbPolyline
 62
250
  6
CONTINUOUS
 90
13
 70
0
 10
14.5948109211
 20
12.5640611062
 10
14.613492766
 20
12.5745177356
 10
14.6318909998
 20
12.5878422958
 10
14.6496837996
 20
12.6038017125
 10
14.6665599325
 20
12.6221168229
 10
14.6822242004
 20
12.6424672578
 10
14.6964026029
 20
12.6644970462
 10
14.7088471305
 20
12.6878208418
 10
14.7193401029
 20
12.7120306633
 10
14.7276979763
 20
12.7367030312
 10
14.7337745543
 20
12.7614063748
 10
14.737463545
 20
12.7857085818
 10
14.7387004204
 20
12.8091845566
  0
LWPOLYLINE
  5
345
100
AcDbEntity
  8
RACCORDO
100
AcDbPolyline
 62
250
  6
CONTINUOUS
 90
13
 70
0
 10
15.9383138054
 20
11.892309664
 10
15.956995898
 20
11.9027664532
 10
15.9753943198
 20
11.9160912078
 10
15.993187241
 20
11.9320508238
 10
16.0100634263
 20
11.9503661083
 10
16.0257276835
 20
11.97071667
 10
16.0399060257
 20
11.992746526
 10
16.0523504541
 20
12.0160703152
 10
16.0628433058
 20
12.0402800532
 10
16.07120106
 20
12.0649522774
 10
16.0772775362
 20
12.0896554293
 10
16.0809664556
 20
12.1139574018
 10
16.0822033046
 20
12.1374331144
  0
LWPOLYLINE
  5
346
100
AcDbEntity
  8
RACCORDO
100
AcDbPolyline
 62
250
  6
CONTINUOUS
 90
16
 70
0
 10
14.5948109211
 20
12.8754567194
 10
14.5624993599
 20
12.8580146674
 10
14.5346803412
 20
12.8395087592
 10
14.511353865
 20
12.8199389949
 10
14.4924141265
 20
12.7990697247
 10
14.4779669305
 20
12.7771365985
 10
14.4683296916
 20
12.7548465649
 10
14.4636198492
 20
12.7322171703
 10
14.4637199639
 20
12.7092308684
 10
14.4685951326
 20
12.68654197
 10
14.4783537785
 20
12.6641427105
 10
14.4928874784
 20
12.6420408544
 10
14.5118360599
 20
12.6209140056
 10
14.5350794654
 20
12.6009880319
 10
14.5627377525
 20
12.5820370654
 10
14.5948109211
 20
12.5640611062
  0
LINE
  5
347
100
AcDbEntity
  8
RACCORDO
100
AcDbLine
 62
7
  6
CONTINUOUS
 10
17.3910517423
 20
13.2523773693
 11
23.2692196489
 21
16.42378381
  0
LINE
  5
348
100
AcDbEntity
  8
DRAFT
100
AcDbLine
 62
7
  6
CONTINUOUS
 10
17.6265566586
 20
12.9189772956
 11
23.3126878812
 21
15.8630579202
  0
LWPOLYLINE
  5
349
100
AcDbEntity
  8
RACCORDO
100
AcDbPolyline
 62
250
  6
CONTINUOUS
 90
8
 70
0
 10
17.1428634764
 20
12.469067537
 10
17.1605906183
 20
12.4781925081
 10
17.1760797912
 20
12.4881872187
 10
17.1891817506
 20
12.4989235462
 10
17.1997732384
 20
12.5102568408
 10
17.207769347
 20
12.5220595177
 10
17.2131145853
 20
12.5342241857
 10
17.2157695373
 20
12.5466005671
  0
LWPOLYLINE
  5
34A
100
AcDbEntity
  8
RACCORDO
100
AcDbPolyline
 62
250
  6
CONTINUOUS
 90
24
 70
0
 10
17.2370740067
 20
12.2553918689
 10
17.2467714682
 20
12.2600800997
 10
17.2563779163
 20
12.2650522414
 10
17.2658886937
 20
12.2702939631
 10
17.2752811292
 20
12.275774459
 10
17.284503908
 20
12.2814777641
 10
17.2934881484
 20
12.2874040406
 10
17.3021717836
 20
12.2935343044
 10
17.3105382918
 20
12.2998513779
 10
17.318581134
 20
12.3063559468
 10
17.326248022
 20
12.3130507854
 10
17.3335135913
 20
12.3199071462
 10
17.3404021976
 20
12.3268776798
 10
17.3468393307
 20
12.3339728387
 10
17.3528001515
 20
12.3411602517
 10
17.3583758329
 20
12.348336531
 10
17.3635089723
 20
12.3554918804
 10
17.3681638854
 20
12.3626403775
 10
17.3724786887
 20
12.3697297023
 10
17.3764557575
 20
12.376794645
 10
17.3800930424
 20
12.3838349392
 10
17.3835142676
 20
12.3907531719
 10
17.3867041986
 20
12.3975511755
 10
17.3925461523
 20
12.410844535
  0
LWPOLYLINE
  5
34B
100
AcDbEntity
  8
RACCORDO
100
AcDbPolyline
 62
250
  6
CONTINUOUS
 90
10
 70
0
 10
16.4576983523
 20
11.2209774717
 10
16.4746958888
 20
11.2291493486
 10
16.4916689831
 20
11.2377608497
 10
16.508617635
 20
11.246811975
 10
16.5256806664
 20
11.2564407543
 10
16.5427192554
 20
11.2665091579
 10
16.5593169367
 20
11.2766030965
 10
16.5754897551
 20
11.2867610089
 10
16.5912216658
 20
11.2969444562
 10
16.6197796038
 20
11.3156521131
  0
LINE
  5
34C
100
AcDbEntity
  8
RACCORDO
100
AcDbLine
 62
250
  6
CONTINUOUS
 10
16.4357566952
 20
12.1306306761
 11
17.1428634764
 21
12.469067537
  0
LINE
  5
34D
100
AcDbEntity
  8
RACCORDO
100
AcDbLine
 62
250
  6
CONTINUOUS
 10
16.5264624359
 20
11.9202362175
 11
17.2370738008
 21
12.2553909713
  0
LINE
  5
34E
100
AcDbEntity
  8
RACCORDO
100
AcDbLine
 62
250
  6
CONTINUOUS
 10
17.4010403816
 20
12.430064531
 11
18.0265853928
 21
12.7189629285
  0
LINE
  5
34F
100
AcDbEntity
  8
RACCORDO
100
AcDbLine
 62
250
  6
CONTINUOUS
 10
17.7421987014
 20
11.8141983275
 11
18.3803003435
 21
12.1088948814
  0
LINE
  5
350
100
AcDbEntity
  8
RACCORDO
100
AcDbLine
 62
250
  6
CONTINUOUS
 10
16.2219522156
 20
11.1120981907
 11
16.4576983523
 21
11.2209774717
  0
LINE
  5
351
100
AcDbEntity
  8
RACCORDO
100
AcDbLine
 62
250
  6
CONTINUOUS
 10
15.8682372649
 20
11.7221662379
 11
16.1166020333
 21
11.8368318427
  0
LWPOLYLINE
  5
352
100
AcDbEntity
  8
RACCORDO
100
AcDbPolyline
 62
250
  6
CONTINUOUS
 90
4
 70
0
 10
16.7470740738
 20
11.3912242937
 10
16.8269722314
 20
11.4275152321
 10
16.9068784283
 20
11.4638153789
 10
17.4662973348
 20
11.7181058029
  0
LWPOLYLINE
  5
353
100
AcDbEntity
  8
RACCORDO
100
AcDbPolyline
 62
250
  6
CONTINUOUS
 90
14
 70
0
 10
17.4662973348
 20
11.7181058029
 10
17.4722244094
 20
11.7207691332
 10
17.4783326166
 20
11.723412661
 10
17.4846219564
 20
11.7260363864
 10
17.4910695496
 20
11.7286357727
 10
17.4976982753
 20
11.7312153565
 10
17.5045767714
 20
11.7337887475
 10
17.5117081327
 20
11.7363540455
 10
17.5190892643
 20
11.7389131507
 10
17.5267795197
 20
11.7414853729
 10
17.5347734122
 20
11.7440644221
 10
17.5430764284
 20
11.7466565884
 10
17.5517643815
 20
11.7493000515
 10
17.5608292805
 20
11.7519809804
  0
LINE
  5
354
100
AcDbEntity
  8
RACCORDO
100
AcDbLine
 62
250
  6
CONTINUOUS
 10
12.0644999187
 20
8.5713463791
 11
16.1782424845
 21
10.124186046
  0
LWPOLYLINE
  5
355
100
AcDbEntity
  8
RACCORDO
100
AcDbPolyline
 62
250
  6
CONTINUOUS
 90
13
 70
0
 10
15.728649914
 20
-28.4638209558
 10
15.7157049796
 20
-28.4445045669
 10
15.6999588586
 20
-28.4239762386
 10
15.6816605888
 20
-28.4025770554
 10
15.6610896775
 20
-28.3806504499
 10
15.6385973721
 20
-28.3585856269
 10
15.6146140006
 20
-28.3368105525
 10
15.5895705314
 20
-28.3157147017
 10
15.5638799333
 20
-28.2956442137
 10
15.5379842789
 20
-28.2769443481
 10
15.5123284509
 20
-28.2599361458
 10
15.4873524559
 20
-28.2449110818
 10
15.4634848711
 20
-28.2321267819
  0
LWPOLYLINE
  5
356
100
AcDbEntity
  8
268
100
AcDbPolyline
 62
7
  6
CONTINUOUS
 90
24
 70
0
 10
-0.4640953752
 20
28.1088523813
 10
-0.4646685596
 20
28.1433247875
 10
-0.4663676726
 20
28.1770747085
 10
-0.4691927141
 20
28.2101021443
 10
-0.4731531487
 20
28.2424637017
 10
-0.4782395118
 20
28.2741027739
 10
-0.4844234102
 20
28.3048495404
 10
-0.4917060256
 20
28.3346850678
 10
-0.5000861763
 20
28.3636282896
 10
-0.5095319235
 20
28.3915661855
 10
-0.520055782
 20
28.4185123483
 10
-0.5316452371
 20
28.4444531853
 10
-0.5442308058
 20
28.4692348982
 10
-0.5578059917
 20
28.4928321996
 10
-0.5723772912
 20
28.5152703769
 10
-0.5878947113
 20
28.5364714941
 10
-0.6043779986
 20
28.556448584
 10
-0.6218074065
 20
28.5751886139
 10
-0.6400737011
 20
28.5925745495
 10
-0.659162357
 20
28.6085834758
 10
-0.6790878997
 20
28.6232383079
 10
-0.6997846722
 20
28.6364907562
 10
-0.7212771868
 20
28.6483466175
 10
-3.950478453
 20
30.2629711278
  0
LINE
  5
357
100
AcDbEntity
  8
268
100
AcDbLine
 62
7
  6
CONTINUOUS
 10
-2.0094457265
 20
21.5280543086
 11
-2.0094457265
 21
21.7814257023
  0
LINE
  5
358
100
AcDbEntity
  8
268
100
AcDbLine
 62
7
  6
CONTINUOUS
 10
-1.3064527722
 20
20.6214950539
 11
-1.3064527722
 21
21.0738260295
  0
LINE
  5
359
100
AcDbEntity
  8
268
100
AcDbLine
 62
7
  6
CONTINUOUS
 10
-0.4640953752
 20
28.1088523813
 11
-0.4640953752
 21
27.8380520887
  0
LINE
  5
35A
100
AcDbEntity
  8
268
100
AcDbLine
 62
7
  6
CONTINUOUS
 10
-0.4036692643
 20
20.9785374712
 11
-0.4036692643
 21
20.7251660775
  0
LINE
  5
35B
100
AcDbEntity
  8
268
100
AcDbLine
 62
7
  6
CONTINUOUS
 10
-0.0044759674
 20
18.9527217479
 11
-0.0044759674
 21
18.9283262426
  0
LINE
  5
35C
100
AcDbEntity
  8
268
100
AcDbLine
 62
7
  6
CONTINUOUS
 10
0.3075513438
 20
19.8144929959
 11
0.3075513438
 21
20.4516625546
  0
LWPOLYLINE
  5
35D
100
AcDbEntity
  8
RACCORDO
100
AcDbPolyline
 62
250
  6
CONTINUOUS
 90
6
 70
0
 10
3.8117179408
 20
19.6746994522
 10
3.7998941483
 20
19.6338534867
 10
3.7906391502
 20
19.5933815894
 10
3.7840390764
 20
19.5535633405
 10
3.780007797
 20
19.5141191597
 10
3.778545312
 20
19.475049047
  0
LWPOLYLINE
  5
35E
100
AcDbEntity
  8
218140080
100
AcDbPolyline
 62
7
  6
CONTINUOUS
 90
66
 70
0
 10
17.5853547298
 20
18.8320440566
 10
17.6313030086
 20
18.8745683267
 10
17.6758452163
 20
18.9163643374
 10
17.7189871056
 20
18.9574321348
 10
17.7607229239
 20
18.9977716728
 10
17.8011179995
 20
19.037465243
 10
17.8401798206
 20
19.0765123665
 10
17.877900899
 20
19.1149135221
 10
17.9143240999
 20
19.1527524382
 10
17.9494601248
 20
19.1900280319
 10
17.9832982721
 20
19.2267413862
 10
18.0158493024
 20
19.2629794782
 10
18.0471313808
 20
19.2987425085
 10
18.0771263421
 20
19.3340302764
 10
18.1057904521
 20
19.3689291581
 10
18.1331544628
 20
19.403441739
 10
18.1591876221
 20
19.4375654337
 10
18.1837539393
 20
19.4713788614
 10
18.2069223921
 20
19.5049272269
 10
18.2286240028
 20
19.5381653256
 10
18.2485158474
 20
19.5710361619
 10
18.2666740711
 20
19.6036568024
 10
18.2830225288
 20
19.6359101806
 10
18.2969898604
 20
19.6673881022
 10
18.3085293069
 20
19.6981039598
 10
18.3176876274
 20
19.7280443609
 10
18.3240337394
 20
19.7567609334
 10
18.327458395
 20
19.7842133098
 10
18.3280708422
 20
19.8104418576
 10
18.3257677426
 20
19.8351193081
 10
18.3203836162
 20
19.8582079263
 10
18.3120839429
 20
19.8797454472
 10
18.3012618243
 20
19.8995178066
 10
18.2878410476
 20
19.9173960127
 10
18.2718978255
 20
19.9335090574
 10
18.2540538972
 20
19.948029852
 10
18.2343894241
 20
19.9609079132
 10
18.2128242448
 20
19.9721937244
 10
18.1897396152
 20
19.9822116469
 10
18.165209837
 20
19.9909901073
 10
18.1391606085
 20
19.998500679
 10
18.1117502798
 20
20.0049824427
 10
18.0830141748
 20
20.0104670154
 10
18.0529169695
 20
20.0149227802
 10
18.0215110429
 20
20.0184939674
 10
17.988815776
 20
20.0212009588
 10
17.9548117876
 20
20.0230233727
 10
17.919493313
 20
20.0240442948
 10
17.8828725718
 20
20.0242768875
 10
17.8449373443
 20
20.0237079883
 10
17.8056452067
 20
20.0223811961
 10
17.7650017109
 20
20.0203050988
 10
17.7230013049
 20
20.0174711083
 10
17.6795849092
 20
20.0138970593
 10
17.6347566617
 20
20.0095886704
 10
17.5885124245
 20
20.0045402229
 10
17.5407807048
 20
19.9987523951
 10
17.4915721122
 20
19.9922306011
 10
17.4408760371
 20
19.9849694269
 10
17.3885891581
 20
19.9769533084
 10
17.3347183691
 20
19.9681872891
 10
17.2792567763
 20
19.9586663255
 10
17.2220803769
 20
19.9483597241
 10
17.1631478368
 20
19.9372572534
 10
17.1025004902
 20
19.9253691448
 10
17.0401383371
 20
19.9126953983
  0
LWPOLYLINE
  5
35F
100
AcDbEntity
  8
218140000
100
AcDbPolyline
 62
7
  6
CONTINUOUS
 90
66
 70
0
 10
17.5853547298
 20
18.8320440566
 10
17.6313030086
 20
18.8745683267
 10
17.6758452163
 20
18.9163643374
 10
17.7189871056
 20
18.9574321348
 10
17.7607229239
 20
18.9977716728
 10
17.8011179995
 20
19.037465243
 10
17.8401798206
 20
19.0765123665
 10
17.877900899
 20
19.1149135221
 10
17.9143240999
 20
19.1527524382
 10
17.9494601248
 20
19.1900280319
 10
17.9832982721
 20
19.2267413862
 10
18.0158493024
 20
19.2629794782
 10
18.0471313808
 20
19.2987425085
 10
18.0771263421
 20
19.3340302764
 10
18.1057904521
 20
19.3689291581
 10
18.1331544628
 20
19.403441739
 10
18.1591876221
 20
19.4375654337
 10
18.1837539393
 20
19.4713788614
 10
18.2069223921
 20
19.5049272269
 10
18.2286240028
 20
19.5381653256
 10
18.2485158474
 20
19.5710361619
 10
18.2666740711
 20
19.6036568024
 10
18.2830225288
 20
19.6359101806
 10
18.2969898604
 20
19.6673881022
 10
18.3085293069
 20
19.6981039598
 10
18.3176876274
 20
19.7280443609
 10
18.3240337394
 20
19.7567609334
 10
18.327458395
 20
19.7842133098
 10
18.3280708422
 20
19.8104418576
 10
18.3257677426
 20
19.8351193081
 10
18.3203836162
 20
19.8582079263
 10
18.3120839429
 20
19.8797454472
 10
18.3012618243
 20
19.8995178066
 10
18.2878410476
 20
19.9173960127
 10
18.2718978255
 20
19.9335090574
 10
18.2540538972
 20
19.948029852
 10
18.2343894241
 20
19.9609079132
 10
18.2128242448
 20
19.9721937244
 10
18.1897396152
 20
19.9822116469
 10
18.165209837
 20
19.9909901073
 10
18.1391606085
 20
19.998500679
 10
18.1117502798
 20
20.0049824427
 10
18.0830141748
 20
20.0104670154
 10
18.0529169695
 20
20.0149227802
 10
18.0215110429
 20
20.0184939674
 10
17.988815776
 20
20.0212009588
 10
17.9548117876
 20
20.0230233727
 10
17.919493313
 20
20.0240442948
 10
17.8828725718
 20
20.0242768875
 10
17.8449373443
 20
20.0237079883
 10
17.8056452067
 20
20.0223811961
 10
17.7650017109
 20
20.0203050988
 10
17.7230013049
 20
20.0174711083
 10
17.6795849092
 20
20.0138970593
 10
17.6347566617
 20
20.0095886704
 10
17.5885124245
 20
20.0045402229
 10
17.5407807048
 20
19.9987523951
 10
17.4915721122
 20
19.9922306011
 10
17.4408760371
 20
19.9849694269
 10
17.3885891581
 20
19.9769533084
 10
17.3347183691
 20
19.9681872891
 10
17.2792567763
 20
19.9586663255
 10
17.2220803769
 20
19.9483597241
 10
17.1631478368
 20
19.9372572534
 10
17.1025004902
 20
19.9253691448
 10
17.0401383371
 20
19.9126953983
  0
LINE
  5
360
100
AcDbEntity
  8
218140080
100
AcDbLine
 62
7
  6
CONTINUOUS
 10
17.5721133766
 20
18.8199477128
 11
17.5853547298
 21
18.8320440566
  0
LINE
  5
361
100
AcDbEntity
  8
218140000
100
AcDbLine
 62
7
  6
CONTINUOUS
 10
17.5721133766
 20
18.8199477128
 11
17.5853547298
 21
18.8320440566
  0
LWPOLYLINE
  5
362
100
AcDbEntity
  8
RACCORDO
100
AcDbPolyline
 62
250
  6
CONTINUOUS
 90
14
 70
0
 10
16.6197796038
 20
11.3156521131
 10
16.644629631
 20
11.3321101284
 10
16.6557987662
 20
11.3393852207
 10
16.6661658741
 20
11.3460699093
 10
16.6759929463
 20
11.3522825918
 10
16.6853096503
 20
11.3580264543
 10
16.6940863186
 20
11.3632983105
 10
16.7024959414
 20
11.3682069995
 10
16.7105412792
 20
11.3727527269
 10
16.7182195715
 20
11.3769352871
 10
16.7256955262
 20
11.3808629017
 10
16.7330240462
 20
11.3845716446
 10
16.7401502287
 20
11.388025442
 10
16.7470740738
 20
11.3912242937
  0
LINE
  5
363
100
AcDbEntity
  8
DRAFT
100
AcDbLine
 62
7
  6
CONTINUOUS
 10
14.9269433388
 20
-8.5091811093
 11
14.6561117291
 21
-8.3737653045
  0
LWPOLYLINE
  5
364
100
AcDbEntity
  8
RACCORDO
100
AcDbPolyline
 62
7
  6
CONTINUOUS
 90
6
 70
0
 10
17.8870195564
 20
-27.185240874
 10
17.8672878017
 20
-27.1572052453
 10
17.8439476386
 20
-27.1321716548
 10
17.8174094776
 20
-27.1105627009
 10
17.7881158462
 20
-27.0927529821
 10
17.7846784225
 20
-27.0910071241
  0
LWPOLYLINE
  5
365
100
AcDbEntity
  8
RACCORDO
100
AcDbPolyline
 62
250
  6
CONTINUOUS
 90
13
 70
0
 10
16.2589799999
 20
-27.8236559128
 10
16.2459306563
 20
-27.8041945744
 10
16.2300798923
 20
-27.7835538758
 10
16.211698919
 20
-27.762086985
 10
16.1911022397
 20
-27.7401612065
 10
16.1686422695
 20
-27.7181516965
 10
16.1447033046
 20
-27.6964350437
 10
16.1196949474
 20
-27.6753828261
 10
16.0940450978
 20
-27.655355253
 10
16.0681926318
 20
-27.6366950017
 10
16.0425798923
 20
-27.6197213544
 10
16.0176451204
 20
-27.6047247347
 10
15.993814957
 20
-27.591961739
  0
LINE
  5
366
100
AcDbEntity
  8
RACCORDO
100
AcDbLine
 62
7
  6
CONTINUOUS
 10
0.5958944335
 20
20.247787868
 11
0.594052174
 21
20.2781043029
  0
LWPOLYLINE
  5
367
100
AcDbEntity
  8
RACCORDO
100
AcDbPolyline
 62
250
  6
CONTINUOUS
 90
8
 70
0
 10
1.301158952
 20
19.5777299548
 10
1.3015143247
 20
19.5713282344
 10
1.3042399179
 20
19.5588695092
 10
1.3096366876
 20
19.5465403846
 10
1.3176548432
 20
19.5344872431
 10
1.3282406816
 20
19.5228108917
 10
1.3413123546
 20
19.5116356121
 10
1.3567426478
 20
19.501104716
  0
LWPOLYLINE
  5
368
100
AcDbEntity
  8
RACCORDO
100
AcDbPolyline
 62
250
  6
CONTINUOUS
 90
9
 70
0
 10
0.6672754747
 20
20.189693708
 10
0.6684830011
 20
20.1650348428
 10
0.6720890913
 20
20.1419203476
 10
0.6780444916
 20
20.1206660126
 10
0.6862836643
 20
20.1015318009
 10
0.6966855548
 20
20.0848177249
 10
0.7090396665
 20
20.0708173127
 10
0.7231235168
 20
20.059695624
 10
0.732340004
 20
20.0544297034
  0
LINE
  5
369
100
AcDbEntity
  8
RACCORDO
100
AcDbLine
 62
7
  6
CONTINUOUS
 10
0.5275265638
 20
18.9593110166
 11
0.5275265638
 21
18.9334413787
  0
LINE
  5
36A
100
AcDbEntity
  8
RACCORDO
100
AcDbLine
 62
7
  6
CONTINUOUS
 10
0.59405217
 20
20.2780820556
 11
0.59405217
 21
20.6293960277
  0
LINE
  5
36B
100
AcDbEntity
  8
RACCORDO
100
AcDbLine
 62
250
  6
CONTINUOUS
 10
0.6672754747
 20
20.189693708
 11
0.6672754747
 21
20.54100768
  0
LINE
  5
36C
100
AcDbEntity
  8
268
100
AcDbLine
 62
7
  6
CONTINUOUS
 10
0.808696831
 20
18.7928562451
 11
0.808696831
 21
18.557000134
  0
LINE
  5
36D
100
AcDbEntity
  8
DRAFT
100
AcDbLine
 62
7
  6
CONTINUOUS
 10
0.9791232849
 20
18.471786907
 11
0.9791232849
 21
18.7076430182
  0
LINE
  5
36E
100
AcDbEntity
  8
RACCORDO
100
AcDbLine
 62
7
  6
CONTINUOUS
 10
1.3011589512
 20
19.5776818436
 11
1.3011589512
 21
19.7700201678
  0
LINE
  5
36F
100
AcDbEntity
  8
RACCORDO
100
AcDbLine
 62
250
  6
CONTINUOUS
 10
1.3743822559
 20
19.4913436388
 11
1.3743822559
 21
19.7334085155
  0
LINE
  5
370
100
AcDbEntity
  8
268
100
AcDbLine
 62
7
  6
CONTINUOUS
 10
1.3743822559
 20
21.1740695678
 11
1.3743822559
 21
22.085125053
  0
LINE
  5
371
100
AcDbEntity
  8
RACCORDO
100
AcDbLine
 62
250
  6
CONTINUOUS
 10
2.010778359
 20
19.8692562379
 11
2.010778359
 21
19.5179422658
  0
LINE
  5
372
100
AcDbEntity
  8
268
100
AcDbLine
 62
7
  6
CONTINUOUS
 10
2.0773752102
 20
22.2204465507
 11
2.0773752102
 21
21.9595175744
  0
LINE
  5
373
100
AcDbEntity
  8
RACCORDO
100
AcDbLine
 62
250
  6
CONTINUOUS
 10
2.3643317496
 20
19.8692562379
 11
2.3643317496
 21
19.5179422658
  0
LINE
  5
374
100
AcDbEntity
  8
268
100
AcDbLine
 62
250
  6
CONTINUOUS
 10
2.4045929077
 20
26.4575564428
 11
2.4045929077
 21
25.2257178644
  0
LINE
  5
375
100
AcDbEntity
  8
268
100
AcDbLine
 62
7
  6
CONTINUOUS
 10
2.4912303361
 20
26.5619438181
 11
2.4912303361
 21
25.3295753263
  0
LINE
  5
376
100
AcDbEntity
  8
RACCORDO
100
AcDbLine
 62
250
  6
CONTINUOUS
 10
2.7178851402
 20
19.1214956564
 11
2.7178851402
 21
18.8195921967
  0
LWPOLYLINE
  5
377
100
AcDbEntity
  8
RACCORDO
100
AcDbPolyline
 62
7
  6
CONTINUOUS
 90
6
 70
0
 10
1.3011633655
 20
19.5779133859
 10
1.3009538904
 20
19.5715581545
 10
1.2992854162
 20
19.5593035533
 10
1.2964415027
 20
19.5489087013
 10
1.2931275727
 20
19.5408588525
 10
1.2907731704
 20
19.5364782583
  0
LINE
  5
378
100
AcDbEntity
  8
RACCORDO
100
AcDbLine
 62
250
  6
CONTINUOUS
 10
3.8514513729
 20
19.2287596493
 11
3.8517686159
 21
19.2348145601
  0
LWPOLYLINE
  5
379
100
AcDbEntity
  8
RACCORDO
100
AcDbPolyline
 62
250
  6
CONTINUOUS
 90
7
 70
0
 10
4.5588753979
 20
21.0183047573
 10
4.5567366132
 20
21.0019889833
 10
4.5503568544
 20
20.9859523767
 10
4.539845281
 20
20.9704693283
 10
4.5253817488
 20
20.9558047573
 10
4.5072137329
 20
20.9422095787
 10
4.4856520931
 20
20.9299164097
  0
LWPOLYLINE
  5
37A
100
AcDbEntity
  8
RACCORDO
100
AcDbPolyline
 62
250
  6
CONTINUOUS
 90
7
 70
0
 10
4.5588753969
 20
20.666979681
 10
4.5566839147
 20
20.6504761025
 10
4.550231761
 20
20.6344058733
 10
4.5396577368
 20
20.618929595
 10
4.5251820138
 20
20.604318128
 10
4.5070700106
 20
20.5908020468
 10
4.4856520931
 20
20.5786024376
  0
LWPOLYLINE
  5
37B
100
AcDbEntity
  8
RACCORDO
100
AcDbPolyline
 62
250
  6
CONTINUOUS
 90
9
 70
0
 10
2.010778359
 20
19.5179422658
 10
2.0119373243
 20
19.4937705997
 10
2.0154229363
 20
19.4709614009
 10
2.0212246257
 20
19.4498422596
 10
2.0293151943
 20
19.4306952957
 10
2.0396105093
 20
19.4138525715
 10
2.0519338412
 20
19.3996483761
 10
2.0660907774
 20
19.3882941707
 10
2.0757516844
 20
19.3827238012
  0
LWPOLYLINE
  5
37C
100
AcDbEntity
  8
RACCORDO
100
AcDbPolyline
 62
250
  6
CONTINUOUS
 90
13
 70
0
 10
3.0714385308
 20
19.1214956564
 10
3.069966558
 20
19.1591744581
 10
3.0659215373
 20
19.1946431133
 10
3.0593034687
 20
19.2279016221
 10
3.0500215451
 20
19.259143579
 10
3.0381665736
 20
19.2881753896
 10
3.0240109754
 20
19.3144162701
 10
3.0075213811
 20
19.33782015
 10
2.98873116
 20
19.3584330998
 10
2.968012842
 20
19.3758125478
 10
2.9454906035
 20
19.38981097
 10
2.921040268
 20
19.4005758903
 10
2.8946618355
 20
19.4081073088
  0
LINE
  5
37D
100
AcDbEntity
  8
RACCORDO
100
AcDbLine
 62
7
  6
CONTINUOUS
 10
3.8519017825
 20
19.2297404613
 11
3.8517640908
 21
19.2349007781
  0
LINE
  5
37E
100
AcDbEntity
  8
RACCORDO
100
AcDbLine
 62
250
  6
CONTINUOUS
 10
3.0714385308
 20
19.1214956564
 11
3.0714385308
 21
18.8127897583
  0
LINE
  5
37F
100
AcDbEntity
  8
RACCORDO
100
AcDbLine
 62
250
  6
CONTINUOUS
 10
3.778545312
 20
19.1512266193
 11
3.778545312
 21
19.475049047
  0
LINE
  5
380
100
AcDbEntity
  8
RACCORDO
100
AcDbLine
 62
7
  6
CONTINUOUS
 10
3.8517686159
 20
19.2348145601
 11
3.8517686167
 21
19.5634373947
  0
LINE
  5
381
100
AcDbEntity
  8
RACCORDO
100
AcDbLine
 62
250
  6
CONTINUOUS
 10
4.4856520931
 20
20.9299164097
 11
4.4856520931
 21
20.5786024376
  0
LINE
  5
382
100
AcDbEntity
  8
RACCORDO
100
AcDbLine
 62
7
  6
CONTINUOUS
 10
4.5588753979
 20
21.0183047573
 11
4.5588753979
 21
20.6669907853
  0
LWPOLYLINE
  5
383
100
AcDbEntity
  8
RACCORDO
100
AcDbPolyline
 62
7
  6
CONTINUOUS
 90
13
 70
0
 10
3.8517686167
 20
19.5634373947
 10
3.8524466338
 20
19.583535983
 10
3.8546319647
 20
19.6058829424
 10
3.8585192537
 20
19.6302066835
 10
3.8642736602
 20
19.65625417
 10
3.8719786754
 20
19.6835754556
 10
3.8815918952
 20
19.7115464653
 10
3.8930687916
 20
19.7397664903
 10
3.9062990452
 20
19.7677895467
 10
3.9209854353
 20
19.7949429658
 10
3.9368387534
 20
19.8207661384
 10
3.953631014
 20
19.8449983795
 10
3.9710643501
 20
19.8673377491
  0
LINE
  5
384
100
AcDbEntity
  8
RACCORDO
100
AcDbLine
 62
250
  6
CONTINUOUS
 10
17.3196401717
 20
13.2562783124
 11
17.8499702576
 21
13.8964433554
  0
LINE
  5
385
100
AcDbEntity
  8
RACCORDO
100
AcDbLine
 62
7
  6
CONTINUOUS
 10
17.3353825145
 20
13.1851786669
 11
17.8657126004
 21
13.8253437099
  0
LINE
  5
386
100
AcDbEntity
  8
RACCORDO
100
AcDbLine
 62
7
  6
CONTINUOUS
 10
18.3803003435
 20
10.4265569707
 11
22.4932280713
 21
14.339725927
  0
LINE
  5
387
100
AcDbEntity
  8
RACCORDO
100
AcDbLine
 62
250
  6
CONTINUOUS
 10
18.3803003435
 20
10.61184192
 11
22.5789104262
 21
14.5881706576
  0
LWPOLYLINE
  5
388
100
AcDbEntity
  8
RACCORDO
100
AcDbPolyline
 62
250
  6
CONTINUOUS
 90
5
 70
0
 10
17.8510231095
 20
-27.1849884127
 10
17.8382194426
 20
-27.158474459
 10
17.8225831907
 20
-27.1346448922
 10
17.8043833736
 20
-27.1139086845
 10
17.78393252
 20
-27.0966210497
  0
LWPOLYLINE
  5
389
100
AcDbEntity
  8
RACCORDO
100
AcDbPolyline
 62
7
  6
CONTINUOUS
 90
8
 70
0
 10
17.2261594267
 20
-26.9797843954
 10
17.2261465642
 20
-26.9797573316
 10
17.2253826212
 20
-26.9782398794
 10
17.2237363094
 20
-26.9741999158
 10
17.2216725853
 20
-26.967648461
 10
17.2195899558
 20
-26.958711147
 10
17.2177940304
 20
-26.9474548578
 10
17.2165474451
 20
-26.9339373451
  0
LWPOLYLINE
  5
38A
100
AcDbEntity
  8
RACCORDO
100
AcDbPolyline
 62
7
  6
CONTINUOUS
 90
4
 70
0
 10
13.9784785778
 20
-28.1532284328
 10
13.9675183024
 20
-28.1220047645
 10
13.9607603746
 20
-28.0894814801
 10
13.9583704928
 20
-28.0551358306
  0
LWPOLYLINE
  5
38B
100
AcDbEntity
  8
RACCORDO
100
AcDbPolyline
 62
250
  6
CONTINUOUS
 90
7
 70
0
 10
0.59405217
 20
20.2780820547
 10
0.5961565055
 20
20.2618976533
 10
0.6025167068
 20
20.2458306215
 10
0.6130232575
 20
20.2303179437
 10
0.6274950692
 20
20.2156260269
 10
0.6456833521
 20
20.2020067441
 10
0.6672754747
 20
20.189693708
  0
LWPOLYLINE
  5
38C
100
AcDbEntity
  8
RACCORDO
100
AcDbPolyline
 62
250
  6
CONTINUOUS
 90
7
 70
0
 10
0.59405217
 20
20.6293960155
 10
0.5960896394
 20
20.6134697648
 10
0.602415501
 20
20.5973346795
 10
0.612917651
 20
20.5817598174
 10
0.6274081902
 20
20.5670153697
 10
0.6456336175
 20
20.5533531483
 10
0.6672754747
 20
20.54100768
  0
LWPOLYLINE
  5
38D
100
AcDbEntity
  8
RACCORDO
100
AcDbPolyline
 62
7
  6
CONTINUOUS
 90
10
 70
0
 10
4.5588753979
 20
21.0183047573
 10
4.5568144301
 20
21.0503353963
 10
4.5505793141
 20
21.0821721205
 10
4.5401770982
 20
21.1131705753
 10
4.525715757
 20
21.1427243843
 10
4.507451021
 20
21.1701853572
 10
4.4857631867
 20
21.1949702892
 10
4.460887004
 20
21.2167800571
 10
4.4333482874
 20
21.2351145789
 10
4.4206948485
 20
21.2419035273
  0
LWPOLYLINE
  5
38E
100
AcDbEntity
  8
RACCORDO
100
AcDbPolyline
 62
7
  6
CONTINUOUS
 90
13
 70
0
 10
6.1756526936
 20
18.561325681
 10
6.1766495013
 20
18.5456531319
 10
6.1797948883
 20
18.5292619893
 10
6.1850504566
 20
18.5130783493
 10
6.192443435
 20
18.4971048895
 10
6.2019465947
 20
18.4813389322
 10
6.2134378356
 20
18.4659830442
 10
6.2269428113
 20
18.4510425167
 10
6.2424358681
 20
18.4365120585
 10
6.2597179459
 20
18.422578362
 10
6.2787226912
 20
18.409303658
 10
6.2995164575
 20
18.3966257157
 10
6.3220992446
 20
18.3845445352
  0
LWPOLYLINE
  5
38F
100
AcDbEntity
  8
268
100
AcDbPolyline
 62
7
  6
CONTINUOUS
 90
7
 70
0
 10
7.2467898692
 20
24.4955335092
 10
7.2466982611
 20
24.4998413104
 10
7.2465590904
 20
24.5041526411
 10
7.2463723569
 20
24.5084675011
 10
7.2461380608
 20
24.5127858904
 10
7.245856202
 20
24.5171078091
 10
7.2455267806
 20
24.5214332572
  0
LINE
  5
390
100
AcDbEntity
  8
268
100
AcDbLine
 62
7
  6
CONTINUOUS
 10
7.2467898692
 20
24.4955335092
 11
7.2468363398
 21
24.4893961711
  0
LINE
  5
391
100
AcDbEntity
  8
RACCORDO
100
AcDbLine
 62
7
  6
CONTINUOUS
 10
6.1756526352
 20
17.3617868228
 11
6.1756526352
 21
18.5613212305
  0
LINE
  5
392
100
AcDbEntity
  8
RACCORDO
100
AcDbLine
 62
250
  6
CONTINUOUS
 10
6.3220992446
 20
17.1872254995
 11
6.3220992446
 21
18.3845445352
  0
LINE
  5
393
100
AcDbEntity
  8
268
100
AcDbLine
 62
250
  6
CONTINUOUS
 10
7.1626383016
 20
24.2017196653
 11
7.1626383016
 21
23.9894605112
  0
LINE
  5
394
100
AcDbEntity
  8
268
100
AcDbLine
 62
7
  6
CONTINUOUS
 10
7.2468363615
 20
24.4893405436
 11
7.2468363615
 21
23.913377354
  0
LINE
  5
395
100
AcDbEntity
  8
218140080
100
AcDbLine
 62
250
  6
CONTINUOUS
 10
7.6507375216
 20
25.8412436888
 11
7.6507375216
 21
25.5199194066
  0
LINE
  5
396
100
AcDbEntity
  8
218140000
100
AcDbLine
 62
250
  6
CONTINUOUS
 10
7.6507375216
 20
25.8412436888
 11
7.6507375216
 21
25.5199194066
  0
LWPOLYLINE
  5
397
100
AcDbEntity
  8
268
100
AcDbPolyline
 62
7
  6
CONTINUOUS
 90
16
 70
0
 10
7.2468363398
 20
24.4893961711
 10
7.2466018342
 20
24.4758818628
 10
7.2454610581
 20
24.4561166716
 10
7.2434167266
 20
24.436263021
 10
7.2405255615
 20
24.4163272371
 10
7.2368367973
 20
24.3963450008
 10
7.2323768334
 20
24.3763831792
 10
7.2271839751
 20
24.3564624616
 10
7.221301318
 20
24.3365947102
 10
7.2147407838
 20
24.316834484
 10
7.2075338806
 20
24.2971974174
 10
7.1997167349
 20
24.2776954528
 10
7.1912927955
 20
24.2583798539
 10
7.1822799041
 20
24.2392771274
 10
7.1727180587
 20
24.2203866336
 10
7.1626383016
 20
24.2017196653
  0
LWPOLYLINE
  5
398
100
AcDbEntity
  8
RACCORDO
100
AcDbPolyline
 62
250
  6
CONTINUOUS
 90
5
 70
0
 10
17.293212801
 20
13.2222959701
 10
17.2687250539
 20
13.1870161215
 10
17.2461769305
 20
13.1504387664
 10
17.2254448371
 20
13.1122862937
 10
17.2066523674
 20
13.0728363146
  0
LINE
  5
399
100
AcDbEntity
  8
RACCORDO
100
AcDbLine
 62
250
  6
CONTINUOUS
 10
17.3196401717
 20
13.2562783124
 11
17.293212801
 21
13.2222959701
  0
LINE
  5
39A
100
AcDbEntity
  8
218140080
100
AcDbLine
 62
7
  6
CONTINUOUS
 10
6.8621762568
 20
24.8774934504
 11
6.8638556851
 21
24.8477412999
  0
LINE
  5
39B
100
AcDbEntity
  8
218140000
100
AcDbLine
 62
7
  6
CONTINUOUS
 10
6.8621762568
 20
24.8774934504
 11
6.8638556851
 21
24.8477412999
  0
LWPOLYLINE
  5
39C
100
AcDbEntity
  8
268
100
AcDbPolyline
 62
7
  6
CONTINUOUS
 90
5
 70
0
 10
7.2468363433
 20
23.9131863412
 10
7.2468236929
 20
23.9135212769
 10
7.2465292898
 20
23.9150390656
 10
7.2458539548
 20
23.9167557299
 10
7.2448098619
 20
23.9186754337
  0
LINE
  5
39D
100
AcDbEntity
  8
218140080
100
AcDbLine
 62
7
  6
CONTINUOUS
 10
8.3334477195
 20
25.4195487078
 11
8.3334477195
 21
25.8525614097
  0
LINE
  5
39E
100
AcDbEntity
  8
218140000
100
AcDbLine
 62
7
  6
CONTINUOUS
 10
8.3334477195
 20
25.4195487078
 11
8.3334477195
 21
25.8525614097
  0
LINE
  5
39F
100
AcDbEntity
  8
715
100
AcDbLine
 62
7
  6
CONTINUOUS
 10
9.300911432
 20
24.5834185966
 11
9.300911432
 21
24.1175438302
  0
LINE
  5
3A0
100
AcDbEntity
  8
218140080
100
AcDbLine
 62
250
  6
CONTINUOUS
 10
9.7182446129
 20
25.3125338204
 11
9.7182446129
 21
25.7712653865
  0
LINE
  5
3A1
100
AcDbEntity
  8
218140000
100
AcDbLine
 62
250
  6
CONTINUOUS
 10
9.7182446129
 20
25.3125338204
 11
9.7182446129
 21
25.7712653865
  0
LINE
  5
3A2
100
AcDbEntity
  8
715
100
AcDbLine
 62
7
  6
CONTINUOUS
 10
9.7506560933
 20
24.4616707634
 11
9.7506560933
 21
24.1084852096
  0
LINE
  5
3A3
100
AcDbEntity
  8
218140080
100
AcDbLine
 62
250
  6
CONTINUOUS
 10
9.8592575342
 20
25.3134640985
 11
9.8592575342
 21
25.7822612837
  0
LINE
  5
3A4
100
AcDbEntity
  8
218140000
100
AcDbLine
 62
250
  6
CONTINUOUS
 10
9.8592575342
 20
25.3134640985
 11
9.8592575342
 21
25.7822612837
  0
LWPOLYLINE
  5
3A5
100
AcDbEntity
  8
RACCORDO
100
AcDbPolyline
 62
250
  6
CONTINUOUS
 90
13
 70
0
 10
7.4036921405
 20
-28.624330635
 10
7.5030417242
 20
-25.6349346284
 10
7.6299923904
 20
-22.633811526
 10
7.7845276096
 20
-19.6213454381
 10
7.9666272883
 20
-16.5979219495
 10
8.1762680495
 20
-13.5639280937
 10
8.41342324
 20
-10.5197523022
 10
8.6780626471
 20
-7.4657844075
 10
8.9701522369
 20
-4.4024153448
 10
9.289654443
 20
-1.3300371228
 10
9.6365284266
 20
1.7509568999
 10
10.0107300778
 20
4.8401720635
 10
10.4122117615
 20
7.9372127093
  0
LWPOLYLINE
  5
3A6
100
AcDbEntity
  8
RACCORDO
100
AcDbPolyline
 62
250
  6
CONTINUOUS
 90
13
 70
0
 10
8.5247747638
 20
-28.6536342611
 10
8.6238849879
 20
-25.6715786517
 10
8.7504855209
 20
-22.678591087
 10
8.9045763625
 20
-19.6746715672
 10
9.0861843304
 20
-16.6594309891
 10
9.2952826071
 20
-13.6332584559
 10
9.5317907401
 20
-10.5973212764
 10
9.7957194657
 20
-7.5516154752
 10
10.0870580477
 20
-4.4961450277
 10
10.4056938248
 20
-1.4320891694
 10
10.7515892434
 20
1.6401590211
 10
11.124781857
 20
4.7209926223
 10
11.5252716658
 20
7.8104116343
  0
LWPOLYLINE
  5
3A7
100
AcDbEntity
  8
RACCORDO
100
AcDbPolyline
 62
250
  6
CONTINUOUS
 90
19
 70
0
 10
10.4122117615
 20
7.9372127093
 10
10.4308661956
 20
8.0511989134
 10
10.4565626725
 20
8.1664174005
 10
10.4891269417
 20
8.2820833413
 10
10.5283409498
 20
8.3974091551
 10
10.5739368285
 20
8.5116085256
 10
10.6255979258
 20
8.6239019369
 10
10.6829734144
 20
8.7335204609
 10
10.7456751747
 20
8.8397210861
 10
10.8132732613
 20
8.9417899312
 10
10.8853119067
 20
9.0390302809
 10
10.9613037512
 20
9.1307790626
 10
11.0407281165
 20
9.2164202054
 10
11.1230521031
 20
9.2953698218
 10
11.2077172826
 20
9.3670847912
 10
11.2941356648
 20
9.431077779
 10
11.3817181308
 20
9.4869119892
 10
11.4698786596
 20
9.5342032134
 10
11.5580218727
 20
9.5726266634
  0
LWPOLYLINE
  5
3A8
100
AcDbEntity
  8
RACCORDO
100
AcDbPolyline
 62
250
  6
CONTINUOUS
 90
19
 70
0
 10
11.5252716658
 20
7.8104116343
 10
11.5340986448
 20
7.8638829249
 10
11.5460698789
 20
7.9172849673
 10
11.5611853683
 20
7.9706177616
 10
11.5795943257
 20
8.0242748083
 10
11.6011475383
 20
8.0778626068
 10
11.6253973675
 20
8.1302006554
 10
11.6523961014
 20
8.181234124
 10
11.6820914519
 20
8.2310178426
 10
11.7138789161
 20
8.2785357988
 10
11.7478012916
 20
8.3237393966
 10
11.7838157807
 20
8.3666772319
 10
11.821189488
 20
8.4064790803
 10
11.859974767
 20
8.4430899639
 10
11.9001192642
 20
8.4765648607
 10
11.9407330235
 20
8.5061984796
 10
11.9815193931
 20
8.5317557239
 10
12.0227750248
 20
8.5534716903
 10
12.0644999187
 20
8.5713463791
  0
LWPOLYLINE
  5
3A9
100
AcDbEntity
  8
RACCORDO
100
AcDbPolyline
 62
250
  6
CONTINUOUS
 90
12
 70
0
 10
15.728649914
 20
12.8357831836
 10
15.7156005704
 20
12.8062971999
 10
15.6997498065
 20
12.7788280787
 10
15.6813688331
 20
12.7538458243
 10
15.6607721538
 20
12.7317778899
 10
15.6383121836
 20
12.7130018641
 10
15.6143732187
 20
12.6978390098
 10
15.5893648615
 20
12.6865487677
 10
15.5637150119
 20
12.679324317
 10
15.5378625459
 20
12.67628927
 10
15.5122498065
 20
12.6774955572
 10
15.5011724661
 20
12.6793666422
  0
LWPOLYLINE
  5
3AA
100
AcDbEntity
  8
RACCORDO
100
AcDbPolyline
 62
250
  6
CONTINUOUS
 90
12
 70
0
 10
16.2589799999
 20
12.7259482266
 10
16.2459306563
 20
12.6964622429
 10
16.2300798923
 20
12.6689931216
 10
16.211698919
 20
12.6440108672
 10
16.1911022397
 20
12.6219429328
 10
16.1686422695
 20
12.603166907
 10
16.1447033046
 20
12.5880040527
 10
16.1196949474
 20
12.5767138107
 10
16.0940450978
 20
12.5694893599
 10
16.0681926318
 20
12.5664543129
 10
16.0425798923
 20
12.5676606002
 10
16.031502552
 20
12.5695316852
  0
LWPOLYLINE
  5
3AB
100
AcDbEntity
  8
RACCORDO
100
AcDbPolyline
 62
250
  6
CONTINUOUS
 90
20
 70
0
 10
16.1901649851
 20
11.843482708
 10
16.2082767787
 20
11.8453330003
 10
16.2274859951
 20
11.8474241376
 10
16.2476645895
 20
11.8497965481
 10
16.26812472
 20
11.8524108005
 10
16.288514578
 20
11.8552536366
 10
16.3089179558
 20
11.8583700477
 10
16.3292230086
 20
11.8617753072
 10
16.3491587429
 20
11.8654527698
 10
16.3685561717
 20
11.8693830041
 10
16.3874230126
 20
11.8735725352
 10
16.4056497077
 20
11.8779954991
 10
16.4231534889
 20
11.8826282693
 10
16.4400365554
 20
11.8874965215
 10
16.4562387635
 20
11.8925749902
 10
16.4716833971
 20
11.8978155658
 10
16.4864499959
 20
11.9032258207
 10
16.5005358313
 20
11.9087920322
 10
16.5138764596
 20
11.9144706189
 10
16.5264629681
 20
11.9202355242
  0
LWPOLYLINE
  5
3AC
100
AcDbEntity
  8
RACCORDO
100
AcDbPolyline
 62
250
  6
CONTINUOUS
 90
5
 70
0
 10
16.1166580947
 20
11.8368274789
 10
16.1293276012
 20
11.837849483
 10
16.1428708017
 20
11.8390126157
 10
16.1573907001
 20
11.8403267264
 10
16.1901649851
 20
11.843482708
  0
LWPOLYLINE
  5
3AD
100
AcDbEntity
  8
RACCORDO
100
AcDbPolyline
 62
7
  6
CONTINUOUS
 90
4
 70
0
 10
0.6202483963
 20
20.1666734794
 10
0.6091500704
 20
20.192519221
 10
0.6009815933
 20
20.2196296412
 10
0.5958944335
 20
20.247787868
  0
LWPOLYLINE
  5
3AE
100
AcDbEntity
  8
RACCORDO
100
AcDbPolyline
 62
250
  6
CONTINUOUS
 90
5
 70
0
 10
2.6990818699
 20
19.2092618941
 10
2.707224201
 20
19.19021472
 10
2.7131201015
 20
19.1690429377
 10
2.7166898394
 20
19.1460328592
 10
2.7178851402
 20
19.1214956564
  0
LINE
  5
3AF
100
AcDbEntity
  8
RACCORDO
100
AcDbLine
 62
250
  6
CONTINUOUS
 10
17.8607736854
 20
-27.2137307101
 11
17.8510231095
 21
-27.1849884127
  0
LWPOLYLINE
  5
3B0
100
AcDbEntity
  8
RACCORDO
100
AcDbPolyline
 62
250
  6
CONTINUOUS
 90
7
 70
0
 10
13.9583703345
 20
-27.703681166
 10
13.9605091191
 20
-27.71999694
 10
13.9668888779
 20
-27.7360335466
 10
13.9774004513
 20
-27.751516595
 10
13.9918639835
 20
-27.766181166
 10
14.0100319994
 20
-27.7797763446
 10
14.0315936392
 20
-27.7920695136
  0
LWPOLYLINE
  5
3B1
100
AcDbEntity
  8
RACCORDO
100
AcDbPolyline
 62
250
  6
CONTINUOUS
 90
7
 70
0
 10
13.9583704928
 20
-28.0551358306
 10
13.9604078038
 20
-28.070921401
 10
13.9667336655
 20
-28.0870564863
 10
13.9772358154
 20
-28.1026313483
 10
13.9917263546
 20
-28.1173757961
 10
14.0099517819
 20
-28.1310380174
 10
14.0315936392
 20
-28.1433834857
  0
LINE
  5
3B2
100
AcDbEntity
  8
RACCORDO
100
AcDbLine
 62
7
  6
CONTINUOUS
 10
13.9035802576
 20
-17.5190312431
 11
14.4049912211
 21
-22.1925721447
  0
LINE
  5
3B3
100
AcDbEntity
  8
218140080
100
AcDbLine
 62
7
  6
CONTINUOUS
 10
11.6628935
 20
27.8826434815
 11
11.6628935
 21
27.4747922142
  0
LINE
  5
3B4
100
AcDbEntity
  8
218140000
100
AcDbLine
 62
7
  6
CONTINUOUS
 10
11.6628935
 20
27.8826434815
 11
11.6628935
 21
27.4747922142
  0
LINE
  5
3B5
100
AcDbEntity
  8
RACCORDO
100
AcDbLine
 62
250
  6
CONTINUOUS
 10
11.8415930971
 20
15.6247976089
 11
11.8415930971
 21
14.4274785733
  0
LINE
  5
3B6
100
AcDbEntity
  8
RACCORDO
100
AcDbLine
 62
250
  6
CONTINUOUS
 10
12.5507303242
 20
15.6258186961
 11
12.5507303242
 21
14.4208978634
  0
LINE
  5
3B7
100
AcDbEntity
  8
RACCORDO
100
AcDbLine
 62
7
  6
CONTINUOUS
 10
12.9709334674
 20
20.0907206519
 11
12.9709334674
 21
20.9910757526
  0
LWPOLYLINE
  5
3B8
100
AcDbEntity
  8
RACCORDO
100
AcDbPolyline
 62
250
  6
CONTINUOUS
 90
6
 70
0
 10
17.1760361052
 20
12.99254037
 10
17.1642123128
 20
12.9516944045
 10
17.1549573147
 20
12.9112225072
 10
17.1483572409
 20
12.8714042582
 10
17.1443259614
 20
12.8319600774
 10
17.1428634764
 20
12.7928899648
  0
LWPOLYLINE
  5
3B9
100
AcDbEntity
  8
RACCORDO
100
AcDbPolyline
 62
250
  6
CONTINUOUS
 90
3
 70
0
 10
17.2066523674
 20
13.0728363146
 10
17.1901703022
 20
13.032921663
 10
17.1760361052
 20
12.99254037
  0
LINE
  5
3BA
100
AcDbEntity
  8
RACCORDO
100
AcDbLine
 62
250
  6
CONTINUOUS
 10
17.3925461523
 20
12.410844535
 11
17.4010408406
 21
12.4300635573
  0
LWPOLYLINE
  5
3BB
100
AcDbEntity
  8
RACCORDO
100
AcDbPolyline
 62
250
  6
CONTINUOUS
 90
4
 70
0
 10
14.6491183377
 20
12.8616732954
 10
14.6658521919
 20
12.8634682452
 10
14.6814127476
 20
12.8684525702
 10
14.6836231765
 20
12.8694680109
  0
LWPOLYLINE
  5
3BC
100
AcDbEntity
  8
RACCORDO
100
AcDbPolyline
 62
250
  6
CONTINUOUS
 90
16
 70
0
 10
10.4122267531
 20
7.9372169983
 10
10.4736767996
 20
7.9087445132
 10
10.5404394165
 20
7.8822876094
 10
10.6117992656
 20
7.8581297634
 10
10.686991751
 20
7.8365298181
 10
10.7652112116
 20
7.8177192092
 10
10.845619553
 20
7.8018994854
 10
10.9273552279
 20
7.7892401493
 10
11.0095424671
 20
7.7798768415
 10
11.0913006631
 20
7.7739098864
 10
11.1717538052
 20
7.7714032178
 10
11.2500398663
 20
7.7723836939
 10
11.3253200384
 20
7.7768408091
 10
11.3967877208
 20
7.784726807
 10
11.4636771622
 20
7.795957192
 10
11.5252716657
 20
7.8104116344
  0
LINE
  5
3BD
100
AcDbEntity
  8
RACCORDO
100
AcDbLine
 62
250
  6
CONTINUOUS
 10
-19.6228256376
 20
22.9547314088
 11
10.4122117615
 21
7.9372127093
  0
LWPOLYLINE
  5
3BE
100
AcDbEntity
  8
RACCORDO
100
AcDbPolyline
 62
250
  6
CONTINUOUS
 90
10
 70
0
 10
-19.6228256114
 20
22.9547314163
 10
-19.6783289755
 20
22.9847357297
 10
-19.7272664607
 20
23.0161291136
 10
-19.7691137085
 20
23.0485751923
 10
-19.8034223316
 20
23.0817263108
 10
-19.8298247178
 20
23.1152272593
 10
-19.8480379693
 20
23.1487190795
 10
-19.8578669337
 20
23.181842911
 10
-19.859206295
 20
23.2142438367
 10
-19.8586881041
 20
23.2189043599
  0
LWPOLYLINE
  5
3BF
100
AcDbEntity
  8
RACCORDO
100
AcDbPolyline
 62
250
  6
CONTINUOUS
 90
7
 70
0
 10
1.1210081504
 20
19.3346289547
 10
1.1331397787
 20
19.3184280184
 10
1.1477177294
 20
19.3028135389
 10
1.1647420025
 20
19.2877855162
 10
1.1842125981
 20
19.2733439501
 10
1.2061295162
 20
19.2594888409
 10
1.2304927567
 20
19.2462201884
  0
LWPOLYLINE
  5
3C0
100
AcDbEntity
  8
RACCORDO
100
AcDbPolyline
 62
7
  6
CONTINUOUS
 90
5
 70
0
 10
3.8619320308
 20
19.1943164254
 10
3.8589444137
 20
19.200002547
 10
3.8558933502
 20
19.2078775402
 10
3.8533347769
 20
19.2179295892
 10
3.8519017825
 20
19.2297404613
  0
LWPOLYLINE
  5
3C1
100
AcDbEntity
  8
RACCORDO
100
AcDbPolyline
 62
250
  6
CONTINUOUS
 90
7
 70
0
 10
14.6654771157
 20
-26.6001277754
 10
14.6676159003
 20
-26.6164435494
 10
14.6739956591
 20
-26.632480156
 10
14.6845072325
 20
-26.6479632044
 10
14.6989707647
 20
-26.6626277754
 10
14.7171387806
 20
-26.676222954
 10
14.7387004204
 20
-26.688516123
  0
LINE
  5
3C2
100
AcDbEntity
  8
DRAFT
100
AcDbLine
 62
7
  6
CONTINUOUS
 10
16.68959431
 20
-24.9384616954
 11
14.9269433388
 21
-8.5091811093
  0
LWPOLYLINE
  5
3C3
100
AcDbEntity
  8
RACCORDO
100
AcDbPolyline
 62
250
  6
CONTINUOUS
 90
3
 70
0
 10
17.8705032907
 20
-27.2759436433
 10
17.8673072913
 20
-27.2442306673
 10
17.8607736854
 20
-27.2137307101
  0
LWPOLYLINE
  5
3C4
100
AcDbEntity
  8
RACCORDO
100
AcDbPolyline
 62
7
  6
CONTINUOUS
 90
10
 70
0
 10
13.9583703345
 20
13.5959229734
 10
13.9606375848
 20
13.5623351867
 10
13.9674751208
 20
13.5290703359
 10
13.9788357712
 20
13.4968579227
 10
13.9945443403
 20
13.466391411
 10
14.0142760951
 20
13.4383557823
 10
14.0376162581
 20
13.4133221919
 10
14.0641544192
 20
13.3917132379
 10
14.0934480506
 20
13.3739035192
 10
14.0968854743
 20
13.3721576612
  0
LWPOLYLINE
  5
3C5
100
AcDbEntity
  8
RACCORDO
100
AcDbPolyline
 62
250
  6
CONTINUOUS
 90
8
 70
0
 10
14.6654771164
 20
12.8955708726
 10
14.6658324891
 20
12.8891691522
 10
14.6685580824
 20
12.876710427
 10
14.673954852
 20
12.8643813024
 10
14.6819730077
 20
12.8523281609
 10
14.692558846
 20
12.8406518094
 10
14.705630519
 20
12.8294765299
 10
14.7210608122
 20
12.8189456338
  0
LWPOLYLINE
  5
3C6
100
AcDbEntity
  8
RACCORDO
100
AcDbPolyline
 62
250
  6
CONTINUOUS
 90
9
 70
0
 10
14.0315936392
 20
13.5075346257
 10
14.0327526045
 20
13.4833629596
 10
14.0362382165
 20
13.4605537608
 10
14.0420399059
 20
13.4394346195
 10
14.0501304745
 20
13.4202876556
 10
14.0604257894
 20
13.4034449314
 10
14.0727491214
 20
13.3892407361
 10
14.0869060575
 20
13.3778865306
 10
14.0965669646
 20
13.3723161612
  0
LWPOLYLINE
  5
3C7
100
AcDbEntity
  8
RACCORDO
100
AcDbPolyline
 62
7
  6
CONTINUOUS
 90
15
 70
0
 10
12.9709334674
 20
20.9910757526
 10
12.9701496344
 20
21.0192034083
 10
12.967885158
 20
21.0462300326
 10
12.9641400381
 20
21.0721556254
 10
12.9588856389
 20
21.0970814847
 10
12.9521505963
 20
21.1209063125
 10
12.944020818
 20
21.1433262149
 10
12.9344784378
 20
21.164323195
 10
12.9235413221
 20
21.1839152496
 10
12.9113489774
 20
21.2018524753
 10
12.8978853246
 20
21.2181136739
 10
12.8831664429
 20
21.2327200437
 10
12.8673800768
 20
21.2454852751
 10
12.850512552
 20
21.2563857837
 10
12.8409769097
 20
21.2614982489
  0
LINE
  5
3C8
100
AcDbEntity
  8
RACCORDO
100
AcDbLine
 62
250
  6
CONTINUOUS
 10
13.9583703345
 20
-28.0549951503
 11
13.9583704928
 21
-28.0551358306
  0
LINE
  5
3C9
100
AcDbEntity
  8
RACCORDO
100
AcDbLine
 62
7
  6
CONTINUOUS
 10
13.9583703345
 20
-28.0549951381
 11
13.9583703345
 21
-27.703681166
  0
LINE
  5
3CA
100
AcDbEntity
  8
RACCORDO
100
AcDbLine
 62
7
  6
CONTINUOUS
 10
13.9583703345
 20
13.5959229734
 11
13.9583703345
 21
13.9472369455
  0
LINE
  5
3CB
100
AcDbEntity
  8
RACCORDO
100
AcDbLine
 62
250
  6
CONTINUOUS
 10
14.0315936392
 20
-28.1433834857
 11
14.0315936392
 21
-27.7920695136
  0
LINE
  5
3CC
100
AcDbEntity
  8
RACCORDO
100
AcDbLine
 62
250
  6
CONTINUOUS
 10
14.0315936392
 20
13.5075346257
 11
14.0315936392
 21
13.8588485978
  0
LINE
  5
3CD
100
AcDbEntity
  8
RACCORDO
100
AcDbLine
 62
7
  6
CONTINUOUS
 10
14.6654771157
 20
-26.6001277754
 11
14.6654771157
 21
-26.5348578957
  0
LINE
  5
3CE
100
AcDbEntity
  8
RACCORDO
100
AcDbLine
 62
7
  6
CONTINUOUS
 10
14.6654771157
 20
12.8955227613
 11
14.6654771157
 21
13.0878610856
  0
LINE
  5
3CF
100
AcDbEntity
  8
RACCORDO
100
AcDbLine
 62
250
  6
CONTINUOUS
 10
14.7387004204
 20
-26.688516123
 11
14.7387004204
 21
-26.571469548
  0
LINE
  5
3D0
100
AcDbEntity
  8
RACCORDO
100
AcDbLine
 62
250
  6
CONTINUOUS
 10
14.7387004204
 20
12.8091845566
 11
14.7387004204
 21
13.0512494333
  0
LINE
  5
3D1
100
AcDbEntity
  8
RACCORDO
100
AcDbLine
 62
250
  6
CONTINUOUS
 10
15.3750965234
 20
13.1870971557
 11
15.3750965234
 21
12.8357831836
  0
LINE
  5
3D2
100
AcDbEntity
  8
RACCORDO
100
AcDbLine
 62
250
  6
CONTINUOUS
 10
15.3750965234
 20
-28.4638209558
 11
15.3750965234
 21
-28.8151349279
  0
LINE
  5
3D3
100
AcDbEntity
  8
RACCORDO
100
AcDbLine
 62
7
  6
CONTINUOUS
 10
15.4458072015
 20
19.8831008004
 11
15.4458072015
 21
20.0782137454
  0
LWPOLYLINE
  5
3D4
100
AcDbEntity
  8
RACCORDO
100
AcDbPolyline
 62
7
  6
CONTINUOUS
 90
6
 70
0
 10
14.6654815299
 20
12.8957543037
 10
14.6652720548
 20
12.8893990723
 10
14.6636035807
 20
12.8771444711
 10
14.6607596671
 20
12.8667496191
 10
14.6574457371
 20
12.8586997703
 10
14.6550913348
 20
12.8543191761
  0
LWPOLYLINE
  5
3D5
100
AcDbEntity
  8
RACCORDO
100
AcDbPolyline
 62
7
  6
CONTINUOUS
 90
9
 70
0
 10
14.6654771157
 20
-26.6001277754
 10
14.6647990985
 20
-26.6202263637
 10
14.6626137676
 20
-26.6425733231
 10
14.6587264786
 20
-26.6668970643
 10
14.6529720721
 20
-26.6929445508
 10
14.6452670569
 20
-26.7202658363
 10
14.6356538371
 20
-26.748236846
 10
14.6241769407
 20
-26.776456871
 10
14.6109466871
 20
-26.8044799274
  0
LWPOLYLINE
  5
3D6
100
AcDbEntity
  8
218140080
100
AcDbPolyline
 62
250
  6
CONTINUOUS
 90
10
 70
0
 10
17.1849998
 20
24.2177552932
 10
17.1822934471
 20
24.1828837039
 10
17.1729432346
 20
24.1443447063
 10
17.1569844824
 20
24.1063520686
 10
17.1345359639
 20
24.069188552
 10
17.1057647527
 20
24.0331307469
 10
17.0708849793
 20
23.9984470142
 10
17.0301562372
 20
23.9653954885
 10
16.983881651
 20
23.9342221566
 10
16.9324056204
 20
23.9051590265
  0
LWPOLYLINE
  5
3D7
100
AcDbEntity
  8
218140000
100
AcDbPolyline
 62
250
  6
CONTINUOUS
 90
10
 70
0
 10
17.1849998
 20
24.2177552932
 10
17.1822934471
 20
24.1828837039
 10
17.1729432346
 20
24.1443447063
 10
17.1569844824
 20
24.1063520686
 10
17.1345359639
 20
24.069188552
 10
17.1057647527
 20
24.0331307469
 10
17.0708849793
 20
23.9984470142
 10
17.0301562372
 20
23.9653954885
 10
16.983881651
 20
23.9342221566
 10
16.9324056204
 20
23.9051590265
  0
LINE
  5
3D8
100
AcDbEntity
  8
RACCORDO
100
AcDbLine
 62
7
  6
CONTINUOUS
 10
16.1782424845
 20
10.124186046
 11
13.0664962157
 21
-27.691836587
  0
LWPOLYLINE
  5
3D9
100
AcDbEntity
  8
RACCORDO
100
AcDbPolyline
 62
250
  6
CONTINUOUS
 90
4
 70
0
 10
17.228459621
 20
12.5227005606
 10
17.2121539178
 20
12.5247048121
 10
17.1970551588
 20
12.5298054086
 10
17.1948421135
 20
12.5308670339
  0
LINE
  5
3DA
100
AcDbEntity
  8
RACCORDO
100
AcDbLine
 62
7
  6
CONTINUOUS
 10
15.5011724661
 20
12.6793666422
 11
16.031502552
 21
12.5695316852
  0
LWPOLYLINE
  5
3DB
100
AcDbEntity
  8
RACCORDO
100
AcDbPolyline
 62
250
  6
CONTINUOUS
 90
7
 70
0
 10
-18.49395378
 20
24.5986144897
 10
-18.5543620141
 20
24.6238515096
 10
-18.614648535
 20
24.6409830606
 10
-18.674153074
 20
24.6498215483
 10
-18.7322239427
 20
24.6502702058
 10
-18.7882251351
 20
24.6423241517
 10
-18.845958923
 20
24.6243001228
  0
LINE
  5
3DC
100
AcDbEntity
  8
RACCORDO
100
AcDbLine
 62
250
  6
CONTINUOUS
 10
-18.49395378
 20
24.5986144897
 11
11.5580218727
 21
9.5726266634
  0
LWPOLYLINE
  5
3DD
100
AcDbEntity
  8
RACCORDO
100
AcDbPolyline
 62
250
  6
CONTINUOUS
 90
16
 70
0
 10
11.5580218727
 20
9.5726266634
 10
11.6158340133
 20
9.5387536129
 10
11.6724730352
 20
9.4974226879
 10
11.7273186299
 20
9.4490865432
 10
11.7797701303
 20
9.3942745544
 10
11.8292530896
 20
9.3335870206
 10
11.8752255724
 20
9.2676885896
 10
11.9171840898
 20
9.1973009788
 10
11.9546691135
 20
9.1231950706
 10
11.9872701089
 20
9.0461824705
 10
12.014630031
 20
8.9671066177
 10
12.0364492351
 20
8.8868335482
 10
12.0524887578
 20
8.8062424096
 10
12.062572935
 20
8.7262158334
 10
12.066591325
 20
8.6476302678
 10
12.0644999187
 20
8.5713463791
  0
LWPOLYLINE
  5
3DE
100
AcDbEntity
  8
RACCORDO
100
AcDbPolyline
 62
250
  6
CONTINUOUS
 90
7
 70
0
 10
3.9553220073
 20
19.9384373947
 10
3.9653466526
 20
19.9204884054
 10
3.9721750752
 20
19.9043588775
 10
3.9756904388
 20
19.8903247916
 10
3.9758325947
 20
19.8786262748
 10
3.9725991105
 20
19.8694634919
 10
3.9710643501
 20
19.8673377491
  0
LWPOLYLINE
  5
3DF
100
AcDbEntity
  8
RACCORDO
100
AcDbPolyline
 62
250
  6
CONTINUOUS
 90
6
 70
0
 10
4.4856520931
 20
20.5786024376
 10
4.4956767385
 20
20.5606534484
 10
4.5025051611
 20
20.5445239204
 10
4.5060205247
 20
20.5304898345
 10
4.5061626806
 20
20.5187913177
 10
4.5029291964
 20
20.5096285349
  0
LWPOLYLINE
  5
3E0
100
AcDbEntity
  8
RACCORDO
100
AcDbPolyline
 62
250
  6
CONTINUOUS
 90
7
 70
0
 10
13.9583703345
 20
13.5959229734
 10
13.9605091191
 20
13.5796071994
 10
13.9668888779
 20
13.5635705928
 10
13.9774004513
 20
13.5480875443
 10
13.9918639835
 20
13.5334229734
 10
14.0100319994
 20
13.5198277948
 10
14.0315936392
 20
13.5075346257
  0
LWPOLYLINE
  5
3E1
100
AcDbEntity
  8
RACCORDO
100
AcDbPolyline
 62
7
  6
CONTINUOUS
 90
5
 70
0
 10
17.9231935623
 20
-27.3147724363
 10
17.9209263119
 20
-27.2811846497
 10
17.9140887759
 20
-27.2479197988
 10
17.9027281255
 20
-27.2157073857
 10
17.8870195564
 20
-27.185240874
  0
LWPOLYLINE
  5
3E2
100
AcDbEntity
  8
RACCORDO
100
AcDbPolyline
 62
250
  6
CONTINUOUS
 90
9
 70
0
 10
15.3750965234
 20
12.8357831836
 10
15.3763040498
 20
12.8111243184
 10
15.37991014
 20
12.7880098232
 10
15.3858655403
 20
12.7667554883
 10
15.394104713
 20
12.7476212766
 10
15.4045066035
 20
12.7309072005
 10
15.4168607152
 20
12.7169067884
 10
15.4309445655
 20
12.7057850996
 10
15.440062137
 20
12.7005685754
  0
LWPOLYLINE
  5
3E3
100
AcDbEntity
  8
RACCORDO
100
AcDbPolyline
 62
250
  6
CONTINUOUS
 90
13
 70
0
 10
17.1428634764
 20
-27.0067141746
 10
17.1443354492
 20
-27.0443929762
 10
17.1483804699
 20
-27.0798616314
 10
17.1549985385
 20
-27.1131201403
 10
17.1642804621
 20
-27.1443620972
 10
17.1761354336
 20
-27.1733939077
 10
17.1902910318
 20
-27.1996347882
 10
17.2067806261
 20
-27.2230386681
 10
17.2255708471
 20
-27.243651618
 10
17.2462891652
 20
-27.261031066
 10
17.2688114037
 20
-27.2750294882
 10
17.2932617392
 20
-27.2857944085
 10
17.3196401717
 20
-27.2933258269
  0
LWPOLYLINE
  5
3E4
100
AcDbEntity
  8
RACCORDO
100
AcDbPolyline
 62
250
  6
CONTINUOUS
 90
13
 70
0
 10
16.4357566952
 20
12.4393365742
 10
16.4342847224
 20
12.4770153758
 10
16.4302397017
 20
12.5124840311
 10
16.4236216331
 20
12.5457425399
 10
16.4143397095
 20
12.5769844968
 10
16.402484738
 20
12.6060163074
 10
16.3883291398
 20
12.6322571879
 10
16.3718395455
 20
12.6556610678
 10
16.3530493244
 20
12.6762740176
 10
16.3323310064
 20
12.6936534656
 10
16.3098087679
 20
12.7076518878
 10
16.2853584324
 20
12.7184168081
 10
16.2589799999
 20
12.7259482266
  0
LWPOLYLINE
  5
3E5
100
AcDbEntity
  8
218140080
100
AcDbPolyline
 62
7
  6
CONTINUOUS
 90
10
 70
0
 10
17.1849998
 20
24.2177552932
 10
17.181194904
 20
24.3316929896
 10
17.1700488149
 20
24.4449571866
 10
17.1519104898
 20
24.55734446
 10
17.1269553886
 20
24.6690812368
 10
17.0954083892
 20
24.7797134043
 10
17.057787123
 20
24.8880197934
 10
17.0144858875
 20
24.9935037644
 10
16.9655331059
 20
25.096430645
 10
16.9110010604
 20
25.1966750547
  0
LWPOLYLINE
  5
3E6
100
AcDbEntity
  8
218140000
100
AcDbPolyline
 62
7
  6
CONTINUOUS
 90
10
 70
0
 10
17.1849998
 20
24.2177552932
 10
17.181194904
 20
24.3316929896
 10
17.1700488149
 20
24.4449571866
 10
17.1519104898
 20
24.55734446
 10
17.1269553886
 20
24.6690812368
 10
17.0954083892
 20
24.7797134043
 10
17.057787123
 20
24.8880197934
 10
17.0144858875
 20
24.9935037644
 10
16.9655331059
 20
25.096430645
 10
16.9110010604
 20
25.1966750547
  0
LINE
  5
3E7
100
AcDbEntity
  8
RACCORDO
100
AcDbLine
 62
7
  6
CONTINUOUS
 10
17.2165474451
 20
-26.9339373451
 11
17.2160867811
 21
-26.9183258269
  0
LWPOLYLINE
  5
3E8
100
AcDbEntity
  8
RACCORDO
100
AcDbPolyline
 62
7
  6
CONTINUOUS
 90
15
 70
0
 10
15.4458072015
 20
20.0782137454
 10
15.44427532
 20
20.1338454932
 10
15.4398461368
 20
20.1873308028
 10
15.4325196519
 20
20.2386696743
 10
15.4222410732
 20
20.2880585658
 10
15.409065193
 20
20.3353010191
 10
15.393156387
 20
20.3798076599
 10
15.3744804184
 20
20.4215442148
 10
15.353071524
 20
20.4605449571
 10
15.3291967913
 20
20.4963233321
 10
15.302825329
 20
20.5288389711
 10
15.2739880283
 20
20.5581322427
 10
15.2430446496
 20
20.5838376981
 10
15.2099688089
 20
20.6059103903
 10
15.1858787012
 20
20.6190692618
  0
LINE
  5
3E9
100
AcDbEntity
  8
RACCORDO
100
AcDbLine
 62
7
  6
CONTINUOUS
 10
17.2162226984
 20
12.547531436
 11
17.2160822551
 21
12.5527417261
  0
LINE
  5
3EA
100
AcDbEntity
  8
RACCORDO
100
AcDbLine
 62
250
  6
CONTINUOUS
 10
15.728649914
 20
13.1870971557
 11
15.728649914
 21
12.8357831836
  0
LINE
  5
3EB
100
AcDbEntity
  8
RACCORDO
100
AcDbLine
 62
250
  6
CONTINUOUS
 10
15.728649914
 20
-28.4638209558
 11
15.728649914
 21
-28.8151349279
  0
LINE
  5
3EC
100
AcDbEntity
  8
RACCORDO
100
AcDbLine
 62
250
  6
CONTINUOUS
 10
16.0822033046
 20
12.4393365742
 11
16.0822033046
 21
12.1374331144
  0
LINE
  5
3ED
100
AcDbEntity
  8
RACCORDO
100
AcDbLine
 62
250
  6
CONTINUOUS
 10
16.0822033046
 20
-27.1501751639
 11
16.0822033046
 21
-27.3602675652
  0
LINE
  5
3EE
100
AcDbEntity
  8
RACCORDO
100
AcDbLine
 62
7
  6
CONTINUOUS
 10
16.2219522156
 20
11.1120981907
 11
16.2219522156
 21
11.0862285528
  0
LINE
  5
3EF
100
AcDbEntity
  8
RACCORDO
100
AcDbLine
 62
7
  6
CONTINUOUS
 10
16.2219522156
 20
-26.8798848739
 11
16.2219522156
 21
-26.854015236
  0
LINE
  5
3F0
100
AcDbEntity
  8
RACCORDO
100
AcDbLine
 62
250
  6
CONTINUOUS
 10
16.4357566952
 20
12.4393365742
 11
16.4357566952
 21
12.1306306761
  0
LINE
  5
3F1
100
AcDbEntity
  8
RACCORDO
100
AcDbLine
 62
250
  6
CONTINUOUS
 10
16.4357566952
 20
-27.0515616671
 11
16.4357566952
 21
-27.3602675652
  0
LINE
  5
3F2
100
AcDbEntity
  8
DRAFT
100
AcDbLine
 62
7
  6
CONTINUOUS
 10
16.68959431
 20
-26.5590994186
 11
16.68959431
 21
-24.9384616954
  0
LINE
  5
3F3
100
AcDbEntity
  8
DRAFT
100
AcDbLine
 62
7
  6
CONTINUOUS
 10
16.68959431
 20
9.6222717334
 11
16.68959431
 21
11.2429094566
  0
LINE
  5
3F4
100
AcDbEntity
  8
218140080
100
AcDbLine
 62
250
  6
CONTINUOUS
 10
16.9324056204
 20
23.9051590265
 11
16.9324056204
 21
19.930266722
  0
LINE
  5
3F5
100
AcDbEntity
  8
218140000
100
AcDbLine
 62
250
  6
CONTINUOUS
 10
16.9324056204
 20
23.9051590265
 11
16.9324056204
 21
19.930266722
  0
LINE
  5
3F6
100
AcDbEntity
  8
RACCORDO
100
AcDbLine
 62
250
  6
CONTINUOUS
 10
17.1428634764
 20
-27.0067141746
 11
17.1428634764
 21
-26.6828917468
  0
LINE
  5
3F7
100
AcDbEntity
  8
RACCORDO
100
AcDbLine
 62
250
  6
CONTINUOUS
 10
17.1428634764
 20
12.469067537
 11
17.1428634764
 21
12.7928899648
  0
LINE
  5
3F8
100
AcDbEntity
  8
218140080
100
AcDbLine
 62
7
  6
CONTINUOUS
 10
17.1849998
 20
24.2177552932
 11
17.1849998
 21
20.8120698466
  0
LINE
  5
3F9
100
AcDbEntity
  8
218140000
100
AcDbLine
 62
7
  6
CONTINUOUS
 10
17.1849998
 20
24.2177552932
 11
17.1849998
 21
20.8120698466
  0
LINE
  5
3FA
100
AcDbEntity
  8
RACCORDO
100
AcDbLine
 62
7
  6
CONTINUOUS
 10
17.2160867811
 20
-26.9183258269
 11
17.2160867811
 21
-26.6162705677
  0
LINE
  5
3FB
100
AcDbEntity
  8
RACCORDO
100
AcDbLine
 62
7
  6
CONTINUOUS
 10
17.2160867803
 20
12.5526554779
 11
17.2160867811
 21
12.8812783124
  0
LINE
  5
3FC
100
AcDbEntity
  8
RACCORDO
100
AcDbLine
 62
250
  6
CONTINUOUS
 10
17.8499702576
 20
14.2477573275
 11
17.8499702576
 21
13.8964433554
  0
LINE
  5
3FD
100
AcDbEntity
  8
RACCORDO
100
AcDbLine
 62
250
  6
CONTINUOUS
 10
17.8499702576
 20
-27.403160784
 11
17.8499702576
 21
-27.7544747561
  0
LINE
  5
3FE
100
AcDbEntity
  8
RACCORDO
100
AcDbLine
 62
7
  6
CONTINUOUS
 10
17.9231935623
 20
14.3361456751
 11
17.9231935623
 21
13.984831703
  0
LINE
  5
3FF
100
AcDbEntity
  8
RACCORDO
100
AcDbLine
 62
7
  6
CONTINUOUS
 10
17.9231935623
 20
-27.3147724363
 11
17.9231935623
 21
-27.6660864084
  0
LINE
  5
400
100
AcDbEntity
  8
218140080
100
AcDbLine
 62
7
  6
CONTINUOUS
 10
17.1849996499
 20
20.8110513439
 11
17.1849995621
 21
20.8108037638
  0
LINE
  5
401
100
AcDbEntity
  8
218140000
100
AcDbLine
 62
7
  6
CONTINUOUS
 10
17.1849996499
 20
20.8110513439
 11
17.1849995621
 21
20.8108037638
  0
LWPOLYLINE
  5
402
100
AcDbEntity
  8
218140080
100
AcDbPolyline
 62
250
  6
CONTINUOUS
 90
29
 70
0
 10
17.1849995621
 20
20.8108037638
 10
17.1846711913
 20
20.7673494564
 10
17.1834648753
 20
20.715623507
 10
17.1814339167
 20
20.6653063965
 10
17.1786275626
 20
20.616406883
 10
17.1750983589
 20
20.5689413286
 10
17.1708974191
 20
20.5229109787
 10
17.1660481581
 20
20.4783011099
 10
17.1605921017
 20
20.4351268994
 10
17.1545657087
 20
20.3933854161
 10
17.1479594531
 20
20.3530359303
 10
17.1407964382
 20
20.3140510632
 10
17.1331024849
 20
20.2764693415
 10
17.1248472117
 20
20.240351683
 10
17.1160385972
 20
20.2056521983
 10
17.1066946411
 20
20.1724294764
 10
17.0967807429
 20
20.1409044503
 10
17.0862995122
 20
20.1110461548
 10
17.0752603748
 20
20.0829007074
 10
17.0636252466
 20
20.0568079488
 10
17.0513819353
 20
20.0327508514
 10
17.0385442902
 20
20.0107652118
 10
17.0251069958
 20
19.991272163
 10
17.0110575365
 20
19.974335109
 10
16.9964119826
 20
19.9599105701
 10
16.9812118465
 20
19.948258292
 10
16.9654780029
 20
19.9394697594
 10
16.9492063499
 20
19.9334698241
 10
16.9324056204
 20
19.930266722
  0
LWPOLYLINE
  5
403
100
AcDbEntity
  8
218140000
100
AcDbPolyline
 62
250
  6
CONTINUOUS
 90
29
 70
0
 10
17.1849995621
 20
20.8108037638
 10
17.1846711913
 20
20.7673494564
 10
17.1834648753
 20
20.715623507
 10
17.1814339167
 20
20.6653063965
 10
17.1786275626
 20
20.616406883
 10
17.1750983589
 20
20.5689413286
 10
17.1708974191
 20
20.5229109787
 10
17.1660481581
 20
20.4783011099
 10
17.1605921017
 20
20.4351268994
 10
17.1545657087
 20
20.3933854161
 10
17.1479594531
 20
20.3530359303
 10
17.1407964382
 20
20.3140510632
 10
17.1331024849
 20
20.2764693415
 10
17.1248472117
 20
20.240351683
 10
17.1160385972
 20
20.2056521983
 10
17.1066946411
 20
20.1724294764
 10
17.0967807429
 20
20.1409044503
 10
17.0862995122
 20
20.1110461548
 10
17.0752603748
 20
20.0829007074
 10
17.0636252466
 20
20.0568079488
 10
17.0513819353
 20
20.0327508514
 10
17.0385442902
 20
20.0107652118
 10
17.0251069958
 20
19.991272163
 10
17.0110575365
 20
19.974335109
 10
16.9964119826
 20
19.9599105701
 10
16.9812118465
 20
19.948258292
 10
16.9654780029
 20
19.9394697594
 10
16.9492063499
 20
19.9334698241
 10
16.9324056204
 20
19.930266722
  0
LWPOLYLINE
  5
404
100
AcDbEntity
  8
RACCORDO
100
AcDbPolyline
 62
250
  6
CONTINUOUS
 90
10
 70
0
 10
16.7470025821
 20
-26.6519432542
 10
16.7460737992
 20
-26.6945939011
 10
16.741556623
 20
-26.7349397994
 10
16.7334978472
 20
-26.7725630022
 10
16.7219809534
 20
-26.8070737673
 10
16.7071252462
 20
-26.8381145945
 10
16.6890846172
 20
-26.8653639291
 10
16.6680459509
 20
-26.8885394927
 10
16.6442271888
 20
-26.9074012076
 10
16.6274582973
 20
-26.9172083157
  0
LWPOLYLINE
  5
405
100
AcDbEntity
  8
RACCORDO
100
AcDbPolyline
 62
250
  6
CONTINUOUS
 90
10
 70
0
 10
17.4663811695
 20
-26.2841985402
 10
17.4653728021
 20
-26.3277570901
 10
17.4606202762
 20
-26.3689004987
 10
17.4521749714
 20
-26.4071839572
 10
17.4401281908
 20
-26.4421935761
 10
17.4246101738
 20
-26.4735508598
 10
17.4057886883
 20
-26.500916799
 10
17.3838672168
 20
-26.5239955352
 10
17.3590827565
 20
-26.54253756
 10
17.346604934
 20
-26.5495828429
  0
LWPOLYLINE
  5
406
100
AcDbEntity
  8
RACCORDO
100
AcDbPolyline
 62
250
  6
CONTINUOUS
 90
6
 70
0
 10
16.4357566952
 20
-27.0515616671
 10
16.4362379614
 20
-27.0344549596
 10
16.438178395
 20
-27.0182574346
 10
16.4415579065
 20
-27.0031367868
 10
16.4463415074
 20
-26.9892495618
 10
16.446405019
 20
-26.9891201206
  0
LWPOLYLINE
  5
407
100
AcDbEntity
  8
RACCORDO
100
AcDbPolyline
 62
250
  6
CONTINUOUS
 90
10
 70
0
 10
16.4577045333
 20
-26.7611064879
 10
16.456456279
 20
-26.8050688895
 10
16.4514146913
 20
-26.846578043
 10
16.4426350671
 20
-26.8851790036
 10
16.4302136733
 20
-26.9204487068
 10
16.4142866941
 20
-26.9520006169
 10
16.3950287318
 20
-26.9794889568
 10
16.3726508944
 20
-27.0026124778
 10
16.3473984762
 20
-27.021117782
 10
16.3353558413
 20
-27.0277888963
  0
LWPOLYLINE
  5
408
100
AcDbEntity
  8
RACCORDO
100
AcDbPolyline
 62
250
  6
CONTINUOUS
 90
3
 70
0
 10
17.1428634764
 20
-26.6828917468
 10
17.1433700854
 20
-26.6654409849
 10
17.1449436798
 20
-26.6526273111
  0
LWPOLYLINE
  5
409
100
AcDbEntity
  8
RACCORDO
100
AcDbPolyline
 62
7
  6
CONTINUOUS
 90
13
 70
0
 10
17.2160867811
 20
12.8812783124
 10
17.2167647982
 20
12.9013769008
 10
17.2189501291
 20
12.9237238602
 10
17.2228374181
 20
12.9480476013
 10
17.2285918246
 20
12.9740950878
 10
17.2362968398
 20
13.0014163733
 10
17.2459100597
 20
13.0293873831
 10
17.257386956
 20
13.057607408
 10
17.2706172097
 20
13.0856304644
 10
17.2853035997
 20
13.1127838836
 10
17.3011569178
 20
13.1386070562
 10
17.3179491784
 20
13.1628392973
 10
17.3353825145
 20
13.1851786669
  0
LWPOLYLINE
  5
40A
100
AcDbEntity
  8
RACCORDO
100
AcDbPolyline
 62
250
  6
CONTINUOUS
 90
10
 70
0
 10
14.7387004204
 20
-26.688516123
 10
14.7375051196
 20
-26.7142486266
 10
14.7339353817
 20
-26.740828443
 10
14.7280394812
 20
-26.7678961258
 10
14.71989715
 20
-26.795085631
 10
14.7096184993
 20
-26.8220292672
 10
14.6973425302
 20
-26.848362668
 10
14.683235254
 20
-26.8737297191
 10
14.6674874475
 20
-26.897787375
 10
14.6503120727
 20
-26.9202102969
  0
LWPOLYLINE
  5
40B
100
AcDbEntity
  8
RACCORDO
100
AcDbPolyline
 62
250
  6
CONTINUOUS
 90
10
 70
0
 10
16.0822033046
 20
-27.3602675652
 10
16.0810080038
 20
-27.3860000688
 10
16.0774382659
 20
-27.4125798852
 10
16.0715423654
 20
-27.439647568
 10
16.0634000343
 20
-27.4668370732
 10
16.0531213836
 20
-27.4937807093
 10
16.0408454144
 20
-27.5201141101
 10
16.0267381382
 20
-27.5454811613
 10
16.0109903317
 20
-27.5695388171
 10
15.993814957
 20
-27.591961739
  0
LINE
  5
40C
100
AcDbEntity
  8
RACCORDO
100
AcDbLine
 62
250
  6
CONTINUOUS
 10
17.2157695373
 20
12.5466005671
 11
17.2160867803
 21
12.5526554779
  0
LWPOLYLINE
  5
40D
100
AcDbEntity
  8
RACCORDO
100
AcDbPolyline
 62
250
  6
CONTINUOUS
 90
8
 70
0
 10
15.728649914
 20
-28.8151349279
 10
15.7271375649
 20
-28.8426385029
 10
15.7226263942
 20
-28.8681591349
 10
15.7151935893
 20
-28.891260159
 10
15.7049663276
 20
-28.9115463101
 10
15.6921196004
 20
-28.9286704866
 10
15.6768732187
 20
-28.9423396891
 10
15.6636766176
 20
-28.950353378
  0
LWPOLYLINE
  5
40E
100
AcDbEntity
  8
RACCORDO
100
AcDbPolyline
 62
7
  6
CONTINUOUS
 90
6
 70
0
 10
13.9583703345
 20
-27.703681166
 10
13.9606375848
 20
-27.6700933793
 10
13.9674751208
 20
-27.6368285285
 10
13.9788357712
 20
-27.6046161153
 10
13.9945443403
 20
-27.5741496036
 10
14.0158340262
 20
-27.5442140491
  0
LWPOLYLINE
  5
40F
100
AcDbEntity
  8
RACCORDO
100
AcDbPolyline
 62
7
  6
CONTINUOUS
 90
6
 70
0
 10
17.9231935623
 20
13.984831703
 10
17.9209263119
 20
13.9512439164
 10
17.9140887759
 20
13.9179790655
 10
17.9027281255
 20
13.8857666524
 10
17.8870195564
 20
13.8553001407
 10
17.8657298706
 20
13.8253645861
  0
LINE
  5
410
100
AcDbEntity
  8
DRAFT
100
AcDbLine
 62
7
  6
CONTINUOUS
 10
14.9269433388
 20
-8.5091811093
 11
16.68959431
 21
9.6222717334
  0
LWPOLYLINE
  5
411
100
AcDbEntity
  8
RACCORDO
100
AcDbPolyline
 62
250
  6
CONTINUOUS
 90
7
 70
0
 10
17.9231935623
 20
14.3361456751
 10
17.9210547776
 20
14.3198299011
 10
17.9146750189
 20
14.3037932945
 10
17.9041634454
 20
14.2883102461
 10
17.8896999132
 20
14.2736456751
 10
17.8715318974
 20
14.2600504965
 10
17.8499702576
 20
14.2477573275
  0
LWPOLYLINE
  5
412
100
AcDbEntity
  8
RACCORDO
100
AcDbPolyline
 62
250
  6
CONTINUOUS
 90
7
 70
0
 10
17.9231935623
 20
13.984831703
 10
17.9210547776
 20
13.968515929
 10
17.9146750189
 20
13.9524793224
 10
17.9041634454
 20
13.936996274
 10
17.8896999132
 20
13.922331703
 10
17.8715318974
 20
13.9087365244
 10
17.8499702576
 20
13.8964433554
  0
LINE
  5
413
100
AcDbEntity
  8
0
100
AcDbLine
 62
7
  6
CONTINUOUS
 10
13.5985362979
 20
19.5656831312
 11
15.4458072015
 21
19.8831008004
  0
LWPOLYLINE
  5
414
100
AcDbEntity
  8
218140080
100
AcDbPolyline
 62
7
  6
CONTINUOUS
 90
7
 70
0
 10
17.0401383371
 20
19.9126953983
 10
17.019166391
 20
19.9098056662
 10
16.9994010422
 20
19.9092432486
 10
16.9808422908
 20
19.9110081453
 10
16.9634901367
 20
19.9151003564
 10
16.9473445798
 20
19.921519882
 10
16.9324056204
 20
19.930266722
  0
LWPOLYLINE
  5
415
100
AcDbEntity
  8
218140000
100
AcDbPolyline
 62
7
  6
CONTINUOUS
 90
7
 70
0
 10
17.0401383371
 20
19.9126953983
 10
17.019166391
 20
19.9098056662
 10
16.9994010422
 20
19.9092432486
 10
16.9808422908
 20
19.9110081453
 10
16.9634901367
 20
19.9151003564
 10
16.9473445798
 20
19.921519882
 10
16.9324056204
 20
19.930266722
  0
LINE
  5
416
100
AcDbEntity
  8
RACCORDO
100
AcDbLine
 62
250
  6
CONTINUOUS
 10
15.728649914
 20
12.8357831836
 11
16.2589799999
 21
12.7259482266
  0
LWPOLYLINE
  5
417
100
AcDbEntity
  8
RACCORDO
100
AcDbPolyline
 62
7
  6
CONTINUOUS
 90
10
 70
0
 10
15.5011724661
 20
12.6793666422
 10
15.493574709
 20
12.6810639766
 10
15.4860192653
 20
12.6830009352
 10
15.4785168931
 20
12.6851760303
 10
15.4710524477
 20
12.6875959558
 10
15.46366426
 20
12.6902502206
 10
15.456438093
 20
12.6931041455
 10
15.4494033592
 20
12.6961366046
 10
15.4425391606
 20
12.699347014
 10
15.440062137
 20
12.7005685754
  0
LWPOLYLINE
  5
418
100
AcDbEntity
  8
RACCORDO
100
AcDbPolyline
 62
250
  6
CONTINUOUS
 90
4
 70
0
 10
14.5948109211
 20
12.8754567194
 10
14.6132911964
 20
12.8677192598
 10
14.6314975068
 20
12.8630984295
 10
14.6491183377
 20
12.8616732954
  0
LWPOLYLINE
  5
419
100
AcDbEntity
  8
RACCORDO
100
AcDbPolyline
 62
250
  6
CONTINUOUS
 90
16
 70
0
 10
2.573995641
 20
18.5744687463
 10
2.6100322883
 20
18.5583897939
 10
2.6481579923
 20
18.5444487628
 10
2.6883727529
 20
18.5326456528
 10
2.731135552
 20
18.522916813
 10
2.7759874077
 20
18.5153258943
 10
2.8215513742
 20
18.5100638499
 10
2.8678139513
 20
18.5071838763
 10
2.9147886392
 20
18.5066327769
 10
2.9611389932
 20
18.5084419155
 10
3.0069034382
 20
18.5126683452
 10
3.0520435494
 20
18.5192550129
 10
3.0951076075
 20
18.5280621227
 10
3.1356117061
 20
18.5390430757
 10
3.1740397516
 20
18.5522444708
 10
3.210391744
 20
18.5676663079
  0
LWPOLYLINE
  5
41A
100
AcDbEntity
  8
RACCORDO
100
AcDbPolyline
 62
250
  6
CONTINUOUS
 90
16
 70
0
 10
16.0822033046
 20
12.1374331144
 10
16.1018103433
 20
12.1285708683
 10
16.1230962044
 20
12.1207436873
 10
16.1458100169
 20
12.1140262241
 10
16.1696724887
 20
12.1084784204
 10
16.1944277251
 20
12.1041448658
 10
16.2198521198
 20
12.1010634082
 10
16.2456548191
 20
12.0992579873
 10
16.2715705227
 20
12.0987377021
 10
16.2974151914
 20
12.0995192252
 10
16.3229294905
 20
12.1015993624
 10
16.3478092726
 20
12.1049602021
 10
16.3718012505
 20
12.1095932514
 10
16.3946374202
 20
12.1154624737
 10
16.416041317
 20
12.1224998227
 10
16.4357566952
 20
12.1306306761
  0
LWPOLYLINE
  5
41B
100
AcDbEntity
  8
RACCORDO
100
AcDbPolyline
 62
250
  6
CONTINUOUS
 90
7
 70
0
 10
15.9383138054
 20
11.892309664
 10
15.9648981824
 20
11.880104441
 10
15.9927346905
 20
11.8690827858
 10
16.0218233296
 20
11.8592446983
 10
16.0521640998
 20
11.8505901787
 10
16.083757001
 20
11.8431192268
 10
16.1166020333
 20
11.8368318427
  0
LINE
  5
41C
100
AcDbEntity
  8
DRAFT
100
AcDbLine
 62
7
  6
CONTINUOUS
 10
16.68959431
 20
9.6222717334
 11
16.1587811045
 21
9.8876783362
  0
LINE
  5
41D
100
AcDbEntity
  8
268
100
AcDbLine
 62
7
  6
CONTINUOUS
 10
-15.7729571878
 20
26.8125668528
 11
-0.0044759674
 21
18.9283262426
  0
LINE
  5
41E
100
AcDbEntity
  8
RACCORDO
100
AcDbLine
 62
7
  6
CONTINUOUS
 10
0.0370252693
 20
18.9428359149
 11
15.6717644385
 21
11.1254663303
  0
LINE
  5
41F
100
AcDbEntity
  8
DRAFT
100
AcDbLine
 62
7
  6
CONTINUOUS
 10
16.2219522156
 20
11.0862285528
 11
0.5275265638
 21
18.9334413787
  0
LINE
  5
420
100
AcDbEntity
  8
268
100
AcDbLine
 62
7
  6
CONTINUOUS
 10
-0.2519633408
 20
19.3795858678
 11
-15.5254698144
 21
27.0163391046
  0
LINE
  5
421
100
AcDbEntity
  8
RACCORDO
100
AcDbLine
 62
7
  6
CONTINUOUS
 10
15.8682372649
 20
11.7221662379
 11
0.8812415145
 21
19.2156641131
  0
LINE
  5
422
100
AcDbEntity
  8
RACCORDO
100
AcDbLine
 62
250
  6
CONTINUOUS
 10
1.2304927567
 20
19.2462201884
 11
2.573995641
 21
18.5744687463
  0
LINE
  5
423
100
AcDbEntity
  8
RACCORDO
100
AcDbLine
 62
250
  6
CONTINUOUS
 10
14.5948109211
 20
12.5640611062
 11
15.9383138054
 21
11.892309664
  0
LINE
  5
424
100
AcDbEntity
  8
268
100
AcDbLine
 62
7
  6
CONTINUOUS
 10
0.3075513438
 20
19.8144929959
 11
-1.3064527722
 21
20.6214950539
  0
LINE
  5
425
100
AcDbEntity
  8
268
100
AcDbLine
 62
7
  6
CONTINUOUS
 10
-13.0567668206
 20
26.4966520781
 11
-14.6707709366
 21
27.3036541361
  0
LINE
  5
426
100
AcDbEntity
  8
RACCORDO
100
AcDbLine
 62
250
  6
CONTINUOUS
 10
1.3743822559
 20
19.4913436388
 11
2.7178851402
 21
18.8195921967
  0
LINE
  5
427
100
AcDbEntity
  8
RACCORDO
100
AcDbLine
 62
250
  6
CONTINUOUS
 10
14.7387004204
 20
12.8091845566
 11
16.0822033046
 21
12.1374331144
  0
LINE
  5
428
100
AcDbEntity
  8
RACCORDO
100
AcDbLine
 62
250
  6
CONTINUOUS
 10
1.3567426478
 20
19.501104716
 11
1.3743822559
 21
19.4913436388
  0
LWPOLYLINE
  5
429
100
AcDbEntity
  8
RACCORDO
100
AcDbPolyline
 62
7
  6
CONTINUOUS
 90
7
 70
0
 10
0.7323563307
 20
20.0544215643
 10
0.7118697214
 20
20.0658856391
 10
0.6894895065
 20
20.081587573
 10
0.668819993
 20
20.0997742203
 10
0.650264459
 20
20.1201381598
 10
0.6340364082
 20
20.1424598606
 10
0.6202483963
 20
20.1666734794
  0
LWPOLYLINE
  5
42A
100
AcDbEntity
  8
RACCORDO
100
AcDbPolyline
 62
250
  6
CONTINUOUS
 90
5
 70
0
 10
2.6585268373
 20
19.2534838048
 10
2.6624199738
 20
19.2512440861
 10
2.67652725
 20
19.2399843111
 10
2.6888032191
 20
19.2259268796
 10
2.6990818699
 20
19.2092618941
  0
LWPOLYLINE
  5
42B
100
AcDbEntity
  8
RACCORDO
100
AcDbPolyline
 62
250
  6
CONTINUOUS
 90
13
 70
0
 10
3.210391744
 20
18.5676663079
 10
3.1919536682
 20
18.5783880289
 10
3.1738733036
 20
18.5919105492
 10
3.1564600102
 20
18.6080024947
 10
3.1400117344
 20
18.6263885277
 10
3.1248099106
 20
18.6467540582
 10
3.1111146464
 20
18.6687506262
 10
3.0991602714
 20
18.6920018644
 10
3.0891513284
 20
18.7161099376
 10
3.0812590731
 20
18.7406623501
 10
3.0756185442
 20
18.7652390032
 10
3.0723262528
 20
18.7894193836
 10
3.0714385308
 20
18.8127897583
  0
LWPOLYLINE
  5
42C
100
AcDbEntity
  8
RACCORDO
100
AcDbPolyline
 62
7
  6
CONTINUOUS
 90
4
 70
0
 10
3.8637855355
 20
19.1914164742
 10
3.8641254478
 20
19.1910646823
 10
3.8639351479
 20
19.1913334717
 10
3.8619320308
 20
19.1943164254
  0
LINE
  5
42D
100
AcDbEntity
  8
218140080
100
AcDbLine
 62
250
  6
CONTINUOUS
 10
7.2361600099
 20
26.916822229
 11
7.6507375216
 21
25.8412436888
  0
LINE
  5
42E
100
AcDbEntity
  8
218140000
100
AcDbLine
 62
250
  6
CONTINUOUS
 10
7.2361600099
 20
26.916822229
 11
7.6507375216
 21
25.8412436888
  0
LINE
  5
42F
100
AcDbEntity
  8
715
100
AcDbLine
 62
7
  6
CONTINUOUS
 10
8.7954418498
 20
24.3411786409
 11
8.5939424918
 21
24.9369030667
  0
LWPOLYLINE
  5
430
100
AcDbEntity
  8
RACCORDO
100
AcDbPolyline
 62
250
  6
CONTINUOUS
 90
7
 70
0
 10
13.9583703345
 20
13.9472369577
 10
13.9606720788
 20
13.93031378
 10
13.967276839
 20
13.914169112
 10
13.9779830232
 20
13.8987042585
 10
13.9924844762
 20
13.8842026369
 10
14.0104784192
 20
13.8708517541
 10
14.0315936392
 20
13.8588485978
  0
LWPOLYLINE
  5
431
100
AcDbEntity
  8
RACCORDO
100
AcDbPolyline
 62
7
  6
CONTINUOUS
 90
10
 70
0
 10
17.9231935623
 20
14.3361456751
 10
17.9211325945
 20
14.3681763141
 10
17.9148974785
 20
14.4000130383
 10
17.9044952626
 20
14.4310114931
 10
17.8900339214
 20
14.4605653021
 10
17.8717691854
 20
14.488026275
 10
17.8500813512
 20
14.512811207
 10
17.8252051685
 20
14.5346209749
 10
17.7976664519
 20
14.5529554967
 10
17.785013013
 20
14.559744445
  0
LINE
  5
432
100
AcDbEntity
  8
RACCORDO
100
AcDbLine
 62
7
  6
CONTINUOUS
 10
18.3803003435
 20
-25.7923890053
 11
18.3803003435
 21
12.1088948814
  0
LINE
  5
433
100
AcDbEntity
  8
RACCORDO
100
AcDbLine
 62
7
  6
CONTINUOUS
 10
18.5244955369
 20
17.3139396172
 11
18.5244955369
 21
18.2142947178
  0
LWPOLYLINE
  5
434
100
AcDbEntity
  8
RACCORDO
100
AcDbPolyline
 62
250
  6
CONTINUOUS
 90
10
 70
0
 10
17.7421886261
 20
-26.1139096863
 10
17.7409400062
 20
-26.1578691888
 10
17.735898615
 20
-26.1993760457
 10
17.7271196893
 20
-26.2379753825
 10
17.7146994264
 20
-26.2732441885
 10
17.6987739296
 20
-26.3047959529
 10
17.6795177167
 20
-26.3322849007
 10
17.6571418073
 20
-26.355409782
 10
17.6318914103
 20
-26.3739171736
 10
17.6198327356
 20
-26.3805979739
  0
LWPOLYLINE
  5
435
100
AcDbEntity
  8
RACCORDO
100
AcDbPolyline
 62
250
  6
CONTINUOUS
 90
8
 70
0
 10
17.8499702576
 20
-27.7544747561
 10
17.8484579084
 20
-27.7819783311
 10
17.8439467378
 20
-27.8074989632
 10
17.8365139329
 20
-27.8305999872
 10
17.8262866712
 20
-27.8508861384
 10
17.813439944
 20
-27.8680103149
 10
17.7981935623
 20
-27.8816795173
 10
17.7849969612
 20
-27.8896932062
  0
LINE
  5
436
100
AcDbEntity
  8
RACCORDO
100
AcDbLine
 62
250
  6
CONTINUOUS
 10
17.2139479964
 20
-26.934641601
 11
17.2160867811
 21
-26.9183258269
  0
LWPOLYLINE
  5
437
100
AcDbEntity
  8
RACCORDO
100
AcDbPolyline
 62
7
  6
CONTINUOUS
 90
3
 70
0
 10
2.9239380012
 20
21.9365986426
 10
2.8929304705
 20
21.9293304154
 10
2.8629704199
 20
21.9181214304
  0
LWPOLYLINE
  5
438
100
AcDbEntity
  8
RACCORDO
100
AcDbPolyline
 62
250
  6
CONTINUOUS
 90
4
 70
0
 10
1.292388769
 20
19.544235497
 10
1.3051240308
 20
19.5464669014
 10
1.3171122094
 20
19.5506194181
 10
1.3193050122
 20
19.5516270932
  0
LINE
  5
439
100
AcDbEntity
  8
RACCORDO
100
AcDbLine
 62
250
  6
CONTINUOUS
 10
1.2790382739
 20
19.5439482985
 11
1.292388769
 21
19.544235497
  0
LWPOLYLINE
  5
43A
100
AcDbEntity
  8
RACCORDO
100
AcDbPolyline
 62
250
  6
CONTINUOUS
 90
4
 70
0
 10
3.8641414566
 20
19.2048596428
 10
3.8478357534
 20
19.2068638943
 10
3.8327369943
 20
19.2119644908
 10
3.8305239491
 20
19.2130261161
  0
LINE
  5
43B
100
AcDbEntity
  8
RACCORDO
100
AcDbLine
 62
7
  6
CONTINUOUS
 10
2.1368543017
 20
19.3615257245
 11
2.6671843876
 21
19.2516907674
  0
LINE
  5
43C
100
AcDbEntity
  8
RACCORDO
100
AcDbLine
 62
250
  6
CONTINUOUS
 10
2.3643317496
 20
19.5179422658
 11
2.8946618355
 21
19.4081073088
  0
LINE
  5
43D
100
AcDbEntity
  8
268
100
AcDbLine
 62
7
  6
CONTINUOUS
 10
0.3075513438
 20
20.4516625546
 11
-0.3147666883
 21
20.5816031371
  0
LWPOLYLINE
  5
43E
100
AcDbEntity
  8
RACCORDO
100
AcDbPolyline
 62
7
  6
CONTINUOUS
 90
3
 70
0
 10
16.3711251904
 20
15.2544395604
 10
16.4021327211
 20
15.2471713331
 10
16.4320927717
 20
15.2359623481
  0
LWPOLYLINE
  5
43F
100
AcDbEntity
  8
RACCORDO
100
AcDbPolyline
 62
250
  6
CONTINUOUS
 90
16
 70
0
 10
2.7178851402
 20
18.8195921967
 10
2.7374921789
 20
18.8107299505
 10
2.75877804
 20
18.8029027695
 10
2.7814918525
 20
18.7961853063
 10
2.8053543243
 20
18.7906375027
 10
2.8301095607
 20
18.7863039481
 10
2.8555339554
 20
18.7832224905
 10
2.8813366547
 20
18.7814170695
 10
2.9072523582
 20
18.7808967843
 10
2.933097027
 20
18.7816783074
 10
2.9586113261
 20
18.7837584446
 10
2.9834911082
 20
18.7871192844
 10
3.0074830861
 20
18.7917523336
 10
3.0303192558
 20
18.7976215559
 10
3.0517231525
 20
18.8046589049
 10
3.0714385308
 20
18.8127897583
  0
LWPOLYLINE
  5
440
100
AcDbEntity
  8
RACCORDO
100
AcDbPolyline
 62
7
  6
CONTINUOUS
 90
25
 70
0
 10
11.8415930971
 20
15.6247976089
 10
11.8657554582
 20
15.6135062153
 10
11.8911113427
 20
15.6031093322
 10
11.9176607507
 20
15.5936069596
 10
11.9455281438
 20
15.5849659207
 10
11.9745890602
 20
15.5772193922
 10
12.0044701151
 20
15.5704669044
 10
12.0351818912
 20
15.564721284
 10
12.0667138057
 20
15.5599697041
 10
12.0986607254
 20
15.5562732149
 10
12.1310280054
 20
15.5536454308
 10
12.1638102905
 20
15.5520727373
 10
12.1965863823
 20
15.5515753409
 10
12.229356201
 20
15.5521671169
 10
12.2621198263
 20
15.55383419
 10
12.2944562997
 20
15.5565551411
 10
12.3263601092
 20
15.560343569
 10
12.3578367668
 20
15.5651858749
 10
12.388481849
 20
15.5710198432
 10
12.4182846257
 20
15.5778582698
 10
12.447255827
 20
15.5856883587
 10
12.4750232208
 20
15.5944095061
 10
12.5014627295
 20
15.6039881776
 10
12.5266984306
 20
15.6144579075
 10
12.5507303242
 20
15.6258186961
  0
LINE
  5
441
100
AcDbEntity
  8
268
100
AcDbLine
 62
7
  6
CONTINUOUS
 10
-9.7243109399
 20
25.1877563729
 11
-3.9318018718
 21
22.2915018389
  0
LINE
  5
442
100
AcDbEntity
  8
RACCORDO
100
AcDbLine
 62
7
  6
CONTINUOUS
 10
6.3220992446
 20
17.1872254995
 11
11.8415930971
 21
14.4274785733
  0
LINE
  5
443
100
AcDbEntity
  8
268
100
AcDbLine
 62
7
  6
CONTINUOUS
 10
-15.3091691449
 20
28.0751842159
 11
-13.7026355819
 21
27.2719174344
  0
LINE
  5
444
100
AcDbEntity
  8
268
100
AcDbLine
 62
7
  6
CONTINUOUS
 10
-1.9448509805
 20
21.3930251337
 11
-0.3383174175
 21
20.5897583522
  0
LINE
  5
445
100
AcDbEntity
  8
RACCORDO
100
AcDbLine
 62
7
  6
CONTINUOUS
 10
0.7322487712
 20
20.0544752579
 11
2.0757516554
 21
19.3827238157
  0
LINE
  5
446
100
AcDbEntity
  8
RACCORDO
100
AcDbLine
 62
7
  6
CONTINUOUS
 10
14.0965669356
 20
13.3723161756
 11
15.4401610527
 21
12.7005191791
  0
LINE
  5
447
100
AcDbEntity
  8
RACCORDO
100
AcDbLine
 62
250
  6
CONTINUOUS
 10
16.0822033046
 20
12.4393365742
 11
15.6735402369
 21
12.6436681081
  0
LINE
  5
448
100
AcDbEntity
  8
RACCORDO
100
AcDbLine
 62
250
  6
CONTINUOUS
 10
2.7178851402
 20
19.1214956564
 11
2.3092220725
 21
19.3258271903
  0
LINE
  5
449
100
AcDbEntity
  8
268
100
AcDbLine
 62
250
  6
CONTINUOUS
 10
-15.3737638909
 20
28.2102133908
 11
-13.7679874287
 21
27.4073251597
  0
LINE
  5
44A
100
AcDbEntity
  8
268
100
AcDbLine
 62
250
  6
CONTINUOUS
 10
-2.0094457265
 20
21.5280543086
 11
-0.4036692643
 21
20.7251660775
  0
LINE
  5
44B
100
AcDbEntity
  8
RACCORDO
100
AcDbLine
 62
250
  6
CONTINUOUS
 10
0.6672754747
 20
20.189693708
 11
2.010778359
 21
19.5179422658
  0
LINE
  5
44C
100
AcDbEntity
  8
RACCORDO
100
AcDbLine
 62
250
  6
CONTINUOUS
 10
14.0315936392
 20
13.5075346257
 11
15.3750965234
 21
12.8357831836
  0
LINE
  5
44D
100
AcDbEntity
  8
268
100
AcDbLine
 62
250
  6
CONTINUOUS
 10
-0.4036692643
 20
20.9785374712
 11
-2.0094457265
 21
21.7814257023
  0
LINE
  5
44E
100
AcDbEntity
  8
268
100
AcDbLine
 62
250
  6
CONTINUOUS
 10
-13.7679874287
 20
27.6606965534
 11
-15.3737638909
 21
28.4635847845
  0
LINE
  5
44F
100
AcDbEntity
  8
RACCORDO
100
AcDbLine
 62
250
  6
CONTINUOUS
 10
0.6672754747
 20
20.54100768
 11
2.010778359
 21
19.8692562379
  0
LINE
  5
450
100
AcDbEntity
  8
RACCORDO
100
AcDbLine
 62
250
  6
CONTINUOUS
 10
14.0315936392
 20
13.8588485978
 11
15.3750965234
 21
13.1870971557
  0
LINE
  5
451
100
AcDbEntity
  8
268
100
AcDbLine
 62
7
  6
CONTINUOUS
 10
-11.9899359085
 20
27.0352333276
 11
-9.8121789055
 21
25.9463548261
  0
LINE
  5
452
100
AcDbEntity
  8
268
100
AcDbLine
 62
7
  6
CONTINUOUS
 10
-3.0096797874
 20
22.5451052671
 11
-1.9285578363
 21
22.0045442915
  0
LINE
  5
453
100
AcDbEntity
  8
268
100
AcDbLine
 62
250
  6
CONTINUOUS
 10
-0.2268985349
 20
21.2824030495
 11
-1.834719944
 21
22.086313754
  0
LINE
  5
454
100
AcDbEntity
  8
268
100
AcDbLine
 62
250
  6
CONTINUOUS
 10
-13.5912166993
 20
27.9645621317
 11
-15.1990381084
 21
28.7684728362
  0
LINE
  5
455
100
AcDbEntity
  8
RACCORDO
100
AcDbLine
 62
250
  6
CONTINUOUS
 10
17.2818166896
 20
12.5353396998
 11
17.2222683315
 21
12.5651138789
  0
LINE
  5
456
100
AcDbEntity
  8
RACCORDO
100
AcDbLine
 62
250
  6
CONTINUOUS
 10
3.9174985252
 20
19.217498782
 11
3.8579501792
 21
19.247272955
  0
LINE
  5
457
100
AcDbEntity
  8
RACCORDO
100
AcDbLine
 62
250
  6
CONTINUOUS
 10
0.84405217
 20
20.8459023786
 11
2.1875550543
 21
20.1741509365
  0
LINE
  5
458
100
AcDbEntity
  8
RACCORDO
100
AcDbLine
 62
250
  6
CONTINUOUS
 10
14.2083703345
 20
14.1637432964
 11
15.5518732187
 21
13.4919918543
  0
LINE
  5
459
100
AcDbEntity
  8
268
100
AcDbLine
 62
7
  6
CONTINUOUS
 10
-9.7243109399
 20
26.402711239
 11
-3.9318018718
 21
23.506456705
  0
LINE
  5
45A
100
AcDbEntity
  8
RACCORDO
100
AcDbLine
 62
7
  6
CONTINUOUS
 10
6.3220992446
 20
18.3845445352
 11
11.8415930971
 21
15.6247976089
  0
LINE
  5
45B
100
AcDbEntity
  8
RACCORDO
100
AcDbLine
 62
7
  6
CONTINUOUS
 10
3.9111168905
 20
19.7766971796
 11
5.3218376358
 21
19.071336807
  0
LINE
  5
45C
100
AcDbEntity
  8
RACCORDO
100
AcDbLine
 62
7
  6
CONTINUOUS
 10
17.2754350549
 20
13.0945380974
 11
18.0265853928
 21
12.7189629285
  0
LINE
  5
45D
100
AcDbEntity
  8
268
100
AcDbLine
 62
7
  6
CONTINUOUS
 10
-10.4586617915
 20
26.9691453611
 11
-11.9411397949
 21
27.7103843628
  0
LINE
  5
45E
100
AcDbEntity
  8
268
100
AcDbLine
 62
7
  6
CONTINUOUS
 10
-9.2322194619
 20
26.8688106696
 11
-3.0096797874
 21
23.7575408324
  0
LINE
  5
45F
100
AcDbEntity
  8
268
100
AcDbLine
 62
7
  6
CONTINUOUS
 10
-13.6162815052
 20
29.5804569336
 11
-11.9899359085
 21
28.7672841352
  0
LINE
  5
460
100
AcDbEntity
  8
268
100
AcDbLine
 62
7
  6
CONTINUOUS
 10
-0.2519633408
 20
22.8982978513
 11
1.3743822559
 21
22.085125053
  0
LINE
  5
461
100
AcDbEntity
  8
268
100
AcDbLine
 62
7
  6
CONTINUOUS
 10
-7.8887165776
 20
26.8991276203
 11
-2.9389691093
 21
24.4242538861
  0
LINE
  5
462
100
AcDbEntity
  8
0
100
AcDbLine
 62
7
  6
CONTINUOUS
 10
8.0211859991
 20
18.9492147203
 11
12.9709334674
 21
16.4743409862
  0
LINE
  5
463
100
AcDbEntity
  8
RACCORDO
100
AcDbLine
 62
250
  6
CONTINUOUS
 10
14.7210608122
 20
12.8189456338
 11
14.7387004204
 21
12.8091845566
  0
LWPOLYLINE
  5
464
100
AcDbEntity
  8
218140080
100
AcDbPolyline
 62
250
  6
CONTINUOUS
 90
15
 70
0
 10
-2.7401686749
 20
25.3858939149
 10
-2.7065866985
 20
25.366650789
 10
-2.6772701104
 20
25.3450273861
 10
-2.6522189107
 20
25.3210237063
 10
-2.6312297187
 20
25.2943913577
 10
-2.614505915
 20
25.2653787321
 10
-2.6026576418
 20
25.2347310057
 10
-2.5958008482
 20
25.202371058
 10
-2.5938195852
 20
25.1683760095
 10
-2.596976148
 20
25.1337223973
 10
-2.6054388873
 20
25.0983563086
 10
-2.6190394524
 20
25.0623316563
 10
-2.6375350872
 20
25.0267867153
 10
-2.6608448728
 20
24.9921009108
 10
-2.689049728
 20
24.9578948177
  0
LWPOLYLINE
  5
465
100
AcDbEntity
  8
218140000
100
AcDbPolyline
 62
250
  6
CONTINUOUS
 90
15
 70
0
 10
-2.7401686749
 20
25.3858939149
 10
-2.7065866985
 20
25.366650789
 10
-2.6772701104
 20
25.3450273861
 10
-2.6522189107
 20
25.3210237063
 10
-2.6312297187
 20
25.2943913577
 10
-2.614505915
 20
25.2653787321
 10
-2.6026576418
 20
25.2347310057
 10
-2.5958008482
 20
25.202371058
 10
-2.5938195852
 20
25.1683760095
 10
-2.596976148
 20
25.1337223973
 10
-2.6054388873
 20
25.0983563086
 10
-2.6190394524
 20
25.0623316563
 10
-2.6375350872
 20
25.0267867153
 10
-2.6608448728
 20
24.9921009108
 10
-2.689049728
 20
24.9578948177
  0
LWPOLYLINE
  5
466
100
AcDbEntity
  8
RACCORDO
100
AcDbPolyline
 62
250
  6
CONTINUOUS
 90
5
 70
0
 10
16.0228450017
 20
12.5713247226
 10
16.0267381382
 20
12.5690850039
 10
16.0408454144
 20
12.5578252289
 10
16.0531213836
 20
12.5437677973
 10
16.0634000343
 20
12.5271028119
  0
LWPOLYLINE
  5
467
100
AcDbEntity
  8
RACCORDO
100
AcDbPolyline
 62
250
  6
CONTINUOUS
 90
13
 70
0
 10
2.1875550543
 20
20.1741509365
 10
2.2106290432
 20
20.1607617002
 10
2.2333082298
 20
20.1438970738
 10
2.2552045668
 20
20.1238456156
 10
2.2759434019
 20
20.1009504117
 10
2.2951698879
 20
20.0756032055
 10
2.3125550543
 20
20.0482376945
 10
2.327801436
 20
20.0193221103
 10
2.3406481632
 20
19.9893512066
 10
2.3508754249
 20
19.9588377938
 10
2.3583082298
 20
19.9283039648
 10
2.3628194005
 20
19.8982721621
 10
2.3643317496
 20
19.8692562379
  0
LWPOLYLINE
  5
468
100
AcDbEntity
  8
RACCORDO
100
AcDbPolyline
 62
250
  6
CONTINUOUS
 90
13
 70
0
 10
15.5518732187
 20
13.4919918543
 10
15.5750396156
 20
13.4785414837
 10
15.5978145506
 20
13.46158203
 10
15.619804268
 20
13.4414025913
 10
15.640630205
 20
13.4183456175
 10
15.6599282211
 20
13.3928090298
 10
15.6773568821
 20
13.3652421153
 10
15.6926455121
 20
13.3360563807
 10
15.7054877999
 20
13.3058175644
 10
15.7155995613
 20
13.2752650115
 10
15.7228504564
 20
13.2449984873
 10
15.7272043678
 20
13.2154511116
 10
15.728649914
 20
13.1870971557
  0
LWPOLYLINE
  5
469
100
AcDbEntity
  8
RACCORDO
100
AcDbPolyline
 62
250
  6
CONTINUOUS
 90
13
 70
0
 10
4.3088753979
 20
21.2348111083
 10
4.3320417947
 20
21.2213607377
 10
4.3548167298
 20
21.204401284
 10
4.3768064471
 20
21.1842218453
 10
4.3976323842
 20
21.1611648715
 10
4.4169304003
 20
21.1356282838
 10
4.4343590613
 20
21.1080613693
 10
4.4496476912
 20
21.0788756347
 10
4.462489979
 20
21.0486368184
 10
4.4726017405
 20
21.0180842655
 10
4.4798526355
 20
20.9878177413
 10
4.4842065469
 20
20.9582703656
 10
4.4856520931
 20
20.9299164097
  0
LWPOLYLINE
  5
46A
100
AcDbEntity
  8
RACCORDO
100
AcDbPolyline
 62
250
  6
CONTINUOUS
 90
13
 70
0
 10
3.9174985252
 20
18.9061031689
 10
3.8990604804
 20
18.9168248692
 10
3.8809801389
 20
18.9303473649
 10
3.8635668601
 20
18.9464392856
 10
3.8471185898
 20
18.9648252976
 10
3.8319167638
 20
18.9851908135
 10
3.8182214914
 20
19.0071873743
 10
3.806267104
 20
19.0304386143
 10
3.7962581461
 20
19.0545466989
 10
3.7883658767
 20
19.0790991294
 10
3.7827253361
 20
19.1036758056
 10
3.7794330366
 20
19.1278562138
 10
3.778545312
 20
19.1512266193
  0
LWPOLYLINE
  5
46B
100
AcDbEntity
  8
RACCORDO
100
AcDbPolyline
 62
250
  6
CONTINUOUS
 90
16
 70
0
 10
16.1165987297
 20
11.8368303149
 10
16.1528982015
 20
11.8156450763
 10
16.1887246662
 20
11.7899122939
 10
16.2236855947
 20
11.7599156898
 10
16.2573960533
 20
11.7259865727
 10
16.2894892973
 20
11.6884973495
 10
16.3196201012
 20
11.6478560859
 10
16.3474601033
 20
11.6045066514
 10
16.3727022362
 20
11.5589251861
 10
16.3950699828
 20
11.5116111412
 10
16.4143181945
 20
11.4630829185
 10
16.4302359163
 20
11.4138722396
 10
16.4426488054
 20
11.3645183464
 10
16.4514208286
 20
11.3155620227
 10
16.456455757
 20
11.2675396691
 10
16.4576983523
 20
11.2209774718
  0
LWPOLYLINE
  5
46C
100
AcDbEntity
  8
RACCORDO
100
AcDbPolyline
 62
250
  6
CONTINUOUS
 90
16
 70
0
 10
17.40104028
 20
12.4300644841
 10
17.4373194332
 20
12.4088872419
 10
17.4731333114
 20
12.3831630253
 10
17.5080893802
 20
12.3531737827
 10
17.5418045069
 20
12.3192482088
 10
17.57390916
 20
12.2817581423
 10
17.6040514597
 20
12.2411144902
 10
17.6319010342
 20
12.1977627239
 10
17.657152641
 20
12.1521779971
 10
17.6795295124
 20
12.1048599377
 10
17.698786389
 20
12.0563271714
 10
17.7147122079
 20
12.0071116379
 10
17.7271324158
 20
11.95775276
 10
17.7359108826
 20
11.9087915319
 10
17.740951393
 20
11.8607645892
 10
17.7421987014
 20
11.8141983275
  0
LWPOLYLINE
  5
46D
100
AcDbEntity
  8
218140080
100
AcDbPolyline
 62
250
  6
CONTINUOUS
 90
9
 70
0
 10
-2.8426090225
 20
25.1681783315
 10
-2.822727846
 20
25.1565643407
 10
-2.8050661143
 20
25.1428198586
 10
-2.7898145393
 20
25.1270551732
 10
-2.7771499556
 20
25.1093614108
 10
-2.7672062598
 20
25.0898971257
 10
-2.7600916466
 20
25.0688837737
 10
-2.75591523
 20
25.0464191605
 10
-2.7547410932
 20
25.0258174096
  0
LWPOLYLINE
  5
46E
100
AcDbEntity
  8
218140000
100
AcDbPolyline
 62
250
  6
CONTINUOUS
 90
9
 70
0
 10
-2.8426090225
 20
25.1681783315
 10
-2.822727846
 20
25.1565643407
 10
-2.8050661143
 20
25.1428198586
 10
-2.7898145393
 20
25.1270551732
 10
-2.7771499556
 20
25.1093614108
 10
-2.7672062598
 20
25.0898971257
 10
-2.7600916466
 20
25.0688837737
 10
-2.75591523
 20
25.0464191605
 10
-2.7547410932
 20
25.0258174096
  0
LWPOLYLINE
  5
46F
100
AcDbEntity
  8
218140080
100
AcDbPolyline
 62
250
  6
CONTINUOUS
 90
13
 70
0
 10
-4.1866929673
 20
25.6564400934
 10
-4.1689820317
 20
25.6453182174
 10
-4.1509139182
 20
25.6319137294
 10
-4.132792157
 20
25.6164518613
 10
-4.1149211716
 20
25.5991924019
 10
-4.097601152
 20
25.5804253177
 10
-4.0811230135
 20
25.5604658769
 10
-4.0657635434
 20
25.5396493929
 10
-4.0517807064
 20
25.5183255341
 10
-4.0394093138
 20
25.4968524323
 10
-4.0288571399
 20
25.4755907564
 10
-4.0203014192
 20
25.4548976571
 10
-4.0138858357
 20
25.4351207068
  0
LWPOLYLINE
  5
470
100
AcDbEntity
  8
218140000
100
AcDbPolyline
 62
250
  6
CONTINUOUS
 90
13
 70
0
 10
-4.1866929673
 20
25.6564400934
 10
-4.1689820317
 20
25.6453182174
 10
-4.1509139182
 20
25.6319137294
 10
-4.132792157
 20
25.6164518613
 10
-4.1149211716
 20
25.5991924019
 10
-4.097601152
 20
25.5804253177
 10
-4.0811230135
 20
25.5604658769
 10
-4.0657635434
 20
25.5396493929
 10
-4.0517807064
 20
25.5183255341
 10
-4.0394093138
 20
25.4968524323
 10
-4.0288571399
 20
25.4755907564
 10
-4.0203014192
 20
25.4548976571
 10
-4.0138858357
 20
25.4351207068
  0
LWPOLYLINE
  5
471
100
AcDbEntity
  8
RACCORDO
100
AcDbPolyline
 62
250
  6
CONTINUOUS
 90
13
 70
0
 10
16.5264624359
 20
11.9202362175
 10
16.513314055
 20
11.9337689436
 10
16.5008242995
 20
11.9486087968
 10
16.4891227235
 20
11.9646028213
 10
16.4783302886
 20
11.9815869
 10
16.4685598129
 20
11.9993848091
 10
16.4599142406
 20
12.0178096501
 10
16.4524834624
 20
12.0366696187
 10
16.446343948
 20
12.0557703544
 10
16.4415592746
 20
12.0749140615
 10
16.4381789894
 20
12.0939024988
 10
16.4362380967
 20
12.1125390333
 10
16.4357566952
 20
12.1306306761
  0
LWPOLYLINE
  5
472
100
AcDbEntity
  8
RACCORDO
100
AcDbPolyline
 62
250
  6
CONTINUOUS
 90
13
 70
0
 10
16.5264624358
 20
11.9202362175
 10
16.5586861233
 20
11.8860621029
 10
16.5892625833
 20
11.8486245085
 10
16.6178750716
 20
11.8083112537
 10
16.6442271889
 20
11.7655399472
 10
16.668045951
 20
11.7207536609
 10
16.6890846174
 20
11.67441634
 10
16.7071252464
 20
11.627007997
 10
16.7219809536
 20
11.5790197394
 10
16.7334978474
 20
11.5309486818
 10
16.7415566232
 20
11.4832927967
 10
16.7460737994
 20
11.4365457559
 10
16.7470025821
 20
11.3911918161
  0
LWPOLYLINE
  5
473
100
AcDbEntity
  8
268
100
AcDbPolyline
 62
7
  6
CONTINUOUS
 90
20
 70
0
 10
7.2448098619
 20
23.9186754337
 10
7.2434097102
 20
23.9208064985
 10
7.2416632839
 20
23.9231149459
 10
7.239581674
 20
23.925604585
 10
7.2371767096
 20
23.9282820278
 10
7.2344566177
 20
23.9311172438
 10
7.2314316865
 20
23.9341137701
 10
7.2281131851
 20
23.9372768483
 10
7.2245090282
 20
23.9405788407
 10
7.2206291713
 20
23.9440228235
 10
7.2164844998
 20
23.9476130679
 10
7.2120832671
 20
23.9513235674
 10
7.2074349286
 20
23.9551571593
 10
7.2025504746
 20
23.9591170329
 10
7.1974400862
 20
23.9631774533
 10
7.1921132112
 20
23.9673406685
 10
7.1865810079
 20
23.9716090399
 10
7.1808565366
 20
23.9759565394
 10
7.1749513532
 20
23.9803754216
 10
7.1626383016
 20
23.9894605112
  0
LINE
  5
474
100
AcDbEntity
  8
218140080
100
AcDbLine
 62
7
  6
CONTINUOUS
 10
8.5813340253
 20
22.1124100623
 11
7.8286399413
 21
23.4106153234
  0
LINE
  5
475
100
AcDbEntity
  8
218140000
100
AcDbLine
 62
7
  6
CONTINUOUS
 10
8.5813340253
 20
22.1124100623
 11
7.8286399413
 21
23.4106153234
  0
LWPOLYLINE
  5
476
100
AcDbEntity
  8
RACCORDO
100
AcDbPolyline
 62
250
  6
CONTINUOUS
 90
5
 70
0
 10
16.0634000343
 20
12.5271028119
 10
16.0715423654
 20
12.5080556378
 10
16.0774382659
 20
12.4868838555
 10
16.0810080038
 20
12.463873777
 10
16.0822033046
 20
12.4393365742
  0
LINE
  5
477
100
AcDbEntity
  8
RACCORDO
100
AcDbLine
 62
7
  6
CONTINUOUS
 10
22.5789104262
 20
15.483133521
 11
22.5789104262
 21
14.5881706576
  0
LINE
  5
478
100
AcDbEntity
  8
RACCORDO
100
AcDbLine
 62
7
  6
CONTINUOUS
 10
22.5789104262
 20
-18.3281392405
 11
22.5789104262
 21
-19.9699152305
  0
LWPOLYLINE
  5
479
100
AcDbEntity
  8
RACCORDO
100
AcDbPolyline
 62
7
  6
CONTINUOUS
 90
8
 70
0
 10
22.5789104262
 20
14.5881706576
 10
22.5759871344
 20
14.5359406971
 10
22.5688409319
 20
14.4883543801
 10
22.5574718186
 20
14.4454117064
 10
22.5416078741
 20
14.4068160041
 10
22.5215210189
 20
14.3728639452
 10
22.4980270144
 20
14.3444455458
 10
22.4932221993
 20
14.3397349584
  0
LWPOLYLINE
  5
47A
100
AcDbEntity
  8
RACCORDO
100
AcDbPolyline
 62
250
  6
CONTINUOUS
 90
7
 70
0
 10
17.9231935623
 20
-27.3147724363
 10
17.9210547776
 20
-27.3310882104
 10
17.9146750189
 20
-27.347124817
 10
17.9041634454
 20
-27.3626078654
 10
17.8896999132
 20
-27.3772724363
 10
17.8715318974
 20
-27.390867615
 10
17.8499702576
 20
-27.403160784
  0
LWPOLYLINE
  5
47B
100
AcDbEntity
  8
RACCORDO
100
AcDbPolyline
 62
250
  6
CONTINUOUS
 90
7
 70
0
 10
17.9231935586
 20
-27.6661079648
 10
17.920891818
 20
-27.6830095739
 10
17.9142870578
 20
-27.6991542419
 10
17.9035808735
 20
-27.7146190954
 10
17.8890794205
 20
-27.729120717
 10
17.8710854776
 20
-27.7424715998
 10
17.8499702576
 20
-27.7544747561
  0
LWPOLYLINE
  5
47C
100
AcDbEntity
  8
RACCORDO
100
AcDbPolyline
 62
250
  6
CONTINUOUS
 90
6
 70
0
 10
3.0729873472
 20
21.915629653
 10
3.0537608612
 20
21.9217503733
 10
3.0330220261
 20
21.923906742
 10
3.0111256891
 20
21.9220618631
 10
2.9884465025
 20
21.916247303
 10
2.9653725136
 20
21.9065625504
  0
LWPOLYLINE
  5
47D
100
AcDbEntity
  8
218140080
100
AcDbPolyline
 62
250
  6
CONTINUOUS
 90
8
 70
0
 10
-2.7221496528
 20
24.9241684361
 10
-2.7409743258
 20
24.9313144967
 10
-2.7588279862
 20
24.9358711484
 10
-2.7754107302
 20
24.9377618492
 10
-2.7904440031
 20
24.9369548393
 10
-2.8036752777
 20
24.9334636747
 10
-2.8148822967
 20
24.9273469997
 10
-2.8189500238
 20
24.9240081963
  0
LWPOLYLINE
  5
47E
100
AcDbEntity
  8
218140000
100
AcDbPolyline
 62
250
  6
CONTINUOUS
 90
8
 70
0
 10
-2.7221496528
 20
24.9241684361
 10
-2.7409743258
 20
24.9313144967
 10
-2.7588279862
 20
24.9358711484
 10
-2.7754107302
 20
24.9377618492
 10
-2.7904440031
 20
24.9369548393
 10
-2.8036752777
 20
24.9334636747
 10
-2.8148822967
 20
24.9273469997
 10
-2.8189500238
 20
24.9240081963
  0
LWPOLYLINE
  5
47F
100
AcDbEntity
  8
RACCORDO
100
AcDbPolyline
 62
7
  6
CONTINUOUS
 90
6
 70
0
 10
3.0771759125
 20
21.9136629972
 10
3.0488893173
 20
21.9256925624
 10
3.0189021162
 20
21.9342575312
 10
2.9877275333
 20
21.9390546996
 10
2.9558228895
 20
21.9398736823
 10
2.9239380012
 20
21.9365986426
  0
LWPOLYLINE
  5
480
100
AcDbEntity
  8
RACCORDO
100
AcDbPolyline
 62
250
  6
CONTINUOUS
 90
7
 70
0
 10
16.4414687169
 20
15.2315165902
 10
16.4366166404
 20
15.2337702427
 10
16.4171695923
 20
15.2397752449
 10
16.3963516466
 20
15.2417506
 10
16.3745992986
 20
15.2397549225
 10
16.3522514443
 20
15.233913426
 10
16.329690678
 20
15.2244034682
  0
LINE
  5
481
100
AcDbEntity
  8
218140080
100
AcDbLine
 62
250
  6
CONTINUOUS
 10
-3.1572439734
 20
26.4903163322
 11
-3.1538031439
 21
26.4887030653
  0
LINE
  5
482
100
AcDbEntity
  8
218140000
100
AcDbLine
 62
250
  6
CONTINUOUS
 10
-3.1572439734
 20
26.4903163322
 11
-3.1538031439
 21
26.4887030653
  0
LINE
  5
483
100
AcDbEntity
  8
RACCORDO
100
AcDbLine
 62
250
  6
CONTINUOUS
 10
3.0771759125
 20
21.9136629972
 11
3.0729873472
 21
21.915629653
  0
LWPOLYLINE
  5
484
100
AcDbEntity
  8
RACCORDO
100
AcDbPolyline
 62
250
  6
CONTINUOUS
 90
7
 70
0
 10
17.7849952936
 20
14.5597533066
 10
17.7812485647
 20
14.561524204
 10
17.7619505486
 20
14.5677627756
 10
17.7411246115
 20
14.5699938124
 10
17.7191348942
 20
14.5681835337
 10
17.6963599592
 20
14.5623680524
 10
17.6731935623
 20
14.5526520261
  0
LWPOLYLINE
  5
485
100
AcDbEntity
  8
RACCORDO
100
AcDbPolyline
 62
250
  6
CONTINUOUS
 90
7
 70
0
 10
4.4206771291
 20
21.2419123889
 10
4.4169304003
 20
21.2436832862
 10
4.3976323842
 20
21.2499218578
 10
4.3768064471
 20
21.2521528946
 10
4.3548167298
 20
21.2503426159
 10
4.3320417947
 20
21.2445271346
 10
4.3088753979
 20
21.2348111083
  0
LINE
  5
486
100
AcDbEntity
  8
RACCORDO
100
AcDbLine
 62
7
  6
CONTINUOUS
 10
16.4320927717
 20
15.2359623481
 11
16.4416557071
 21
15.231422905
  0
LINE
  5
487
100
AcDbEntity
  8
268
100
AcDbLine
 62
250
  6
CONTINUOUS
 10
-13.0818316265
 20
29.8408044001
 11
-11.4616687368
 21
29.0307229552
  0
LINE
  5
488
100
AcDbEntity
  8
268
100
AcDbLine
 62
250
  6
CONTINUOUS
 10
0.2824865379
 20
23.1586453179
 11
1.9026494277
 21
22.348563873
  0
LINE
  5
489
100
AcDbEntity
  8
268
100
AcDbLine
 62
7
  6
CONTINUOUS
 10
-12.9704140112
 20
29.8470729633
 11
-11.351536433
 21
29.0376341742
  0
LINE
  5
48A
100
AcDbEntity
  8
268
100
AcDbLine
 62
7
  6
CONTINUOUS
 10
0.3939041532
 20
23.1649138811
 11
2.0127817314
 21
22.355475092
  0
LINE
  5
48B
100
AcDbEntity
  8
RACCORDO
100
AcDbLine
 62
250
  6
CONTINUOUS
 10
2.9653725136
 20
21.9065625504
 11
4.3088753979
 21
21.2348111083
  0
LINE
  5
48C
100
AcDbEntity
  8
RACCORDO
100
AcDbLine
 62
250
  6
CONTINUOUS
 10
16.329690678
 20
15.2244034682
 11
17.6731935623
 21
14.5526520261
  0
LINE
  5
48D
100
AcDbEntity
  8
RACCORDO
100
AcDbLine
 62
7
  6
CONTINUOUS
 10
3.0771759125
 20
21.9136629972
 11
4.4206787967
 21
21.2419115551
  0
LINE
  5
48E
100
AcDbEntity
  8
RACCORDO
100
AcDbLine
 62
7
  6
CONTINUOUS
 10
16.4414940769
 20
15.231503915
 11
17.7849969612
 21
14.5597524729
  0
LINE
  5
48F
100
AcDbEntity
  8
218140080
100
AcDbLine
 62
250
  6
CONTINUOUS
 10
-3.6010146211
 20
25.5473811308
 11
-2.8426090225
 21
25.1681783315
  0
LINE
  5
490
100
AcDbEntity
  8
218140000
100
AcDbLine
 62
250
  6
CONTINUOUS
 10
-3.6010146211
 20
25.5473811308
 11
-2.8426090225
 21
25.1681783315
  0
LINE
  5
491
100
AcDbEntity
  8
218140080
100
AcDbLine
 62
250
  6
CONTINUOUS
 10
-3.4985742736
 20
25.7650967142
 11
-2.7401686749
 21
25.3858939149
  0
LINE
  5
492
100
AcDbEntity
  8
218140000
100
AcDbLine
 62
250
  6
CONTINUOUS
 10
-3.4985742736
 20
25.7650967142
 11
-2.7401686749
 21
25.3858939149
  0
LINE
  5
493
100
AcDbEntity
  8
218140080
100
AcDbLine
 62
7
  6
CONTINUOUS
 10
-4.2117613146
 20
26.3654480955
 11
-1.624807129
 21
25.0719710027
  0
LINE
  5
494
100
AcDbEntity
  8
218140000
100
AcDbLine
 62
7
  6
CONTINUOUS
 10
-4.2117613146
 20
26.3654480955
 11
-1.624807129
 21
25.0719710027
  0
LINE
  5
495
100
AcDbEntity
  8
218140080
100
AcDbLine
 62
250
  6
CONTINUOUS
 10
-1.0174194125
 20
25.3713370065
 11
-3.2420189026
 21
26.4836367515
  0
LINE
  5
496
100
AcDbEntity
  8
218140000
100
AcDbLine
 62
250
  6
CONTINUOUS
 10
-1.0174194125
 20
25.3713370065
 11
-3.2420189026
 21
26.4836367515
  0
LINE
  5
497
100
AcDbEntity
  8
218140080
100
AcDbLine
 62
7
  6
CONTINUOUS
 10
-0.9678923207
 20
25.3957476542
 11
-3.153810302
 21
26.4887066448
  0
LINE
  5
498
100
AcDbEntity
  8
218140000
100
AcDbLine
 62
7
  6
CONTINUOUS
 10
-0.9678923207
 20
25.3957476542
 11
-3.153810302
 21
26.4887066448
  0
LINE
  5
499
100
AcDbEntity
  8
268
100
AcDbLine
 62
7
  6
CONTINUOUS
 10
-0.4212933646
 20
25.6651524194
 11
-3.2218118218
 21
27.065411648
  0
LINE
  5
49A
100
AcDbEntity
  8
268
100
AcDbLine
 62
7
  6
CONTINUOUS
 10
-3.5753652124
 20
27.7947465326
 11
-3.2218118218
 21
27.6179698374
  0
LWPOLYLINE
  5
49B
100
AcDbEntity
  8
RACCORDO
100
AcDbPolyline
 62
250
  6
CONTINUOUS
 90
13
 70
0
 10
17.6731935623
 20
14.5526520261
 10
17.6963599592
 20
14.5392016555
 10
17.7191348942
 20
14.5222422018
 10
17.7411246115
 20
14.5020627631
 10
17.7619505486
 20
14.4790057893
 10
17.7812485647
 20
14.4534692016
 10
17.7986772257
 20
14.4259022871
 10
17.8139658556
 20
14.3967165525
 10
17.8268081435
 20
14.3664777362
 10
17.8369199049
 20
14.3359251833
 10
17.8441707999
 20
14.305658659
 10
17.8485247113
 20
14.2761112833
 10
17.8499702576
 20
14.2477573275
  0
LWPOLYLINE
  5
49C
100
AcDbEntity
  8
RACCORDO
100
AcDbPolyline
 62
250
  6
CONTINUOUS
 90
13
 70
0
 10
17.2370738008
 20
12.2553909713
 10
17.2234881159
 20
12.2688688567
 10
17.2105593509
 20
12.2837458731
 10
17.1984272022
 20
12.2998612714
 10
17.18722276
 20
12.317040919
 10
17.177067087
 20
12.3350991897
 10
17.1680699115
 20
12.3538409699
 10
17.1603284485
 20
12.3730637564
 10
17.1539263479
 20
12.3925598417
 10
17.1489327861
 20
12.4121185672
 10
17.14540172
 20
12.4315285979
 10
17.1433713036
 20
12.4505802063
 10
17.1428634764
 20
12.469067537
  0
LWPOLYLINE
  5
49D
100
AcDbEntity
  8
RACCORDO
100
AcDbPolyline
 62
250
  6
CONTINUOUS
 90
13
 70
0
 10
17.2370740067
 20
12.2553918689
 10
17.2703656454
 20
12.2213687786
 10
17.3020202704
 20
12.1838489226
 10
17.3316956501
 20
12.1432379358
 10
17.3590709524
 20
12.099974873
 10
17.3838502136
 20
12.0545274619
 10
17.4057655384
 20
12.0073870468
 10
17.4245799961
 20
11.9590632763
 10
17.4400901829
 20
11.9100785935
 10
17.4521284202
 20
11.8609625881
 10
17.4605645686
 20
11.8122462705
 10
17.4653074341
 20
11.7644563313
 10
17.4663057546
 20
11.7181094468
  0
LWPOLYLINE
  5
49E
100
AcDbEntity
  8
RACCORDO
100
AcDbPolyline
 62
7
  6
CONTINUOUS
 90
4
 70
0
 10
17.2280946878
 20
12.5092664954
 10
17.2284388552
 20
12.5089106494
 10
17.2282608821
 20
12.509164496
 10
17.2262661086
 20
12.512131067
  0
LWPOLYLINE
  5
49F
100
AcDbEntity
  8
268
100
AcDbPolyline
 62
7
  6
CONTINUOUS
 90
17
 70
0
 10
7.2455267806
 20
24.5214332572
 10
7.2118894867
 20
24.5574954077
 10
7.1782058987
 20
24.5921340674
 10
7.1444760163
 20
24.6253492361
 10
7.1106311145
 20
24.6571565401
 10
7.0767399185
 20
24.6875403532
 10
7.0430086035
 20
24.7164537973
 10
7.0094568081
 20
24.7438729727
 10
6.9760648937
 20
24.769821779
 10
6.9429801196
 20
24.7943250375
 10
6.9102178062
 20
24.8173687444
 10
6.8777626331
 20
24.8389669034
 10
6.8457158985
 20
24.8591863475
 10
6.814088759
 20
24.8780202615
 10
6.7828700579
 20
24.8954754604
 10
6.7521276236
 20
24.9116392219
 10
6.7448549916
 20
24.9153156689
  0
LWPOLYLINE
  5
4A0
100
AcDbEntity
  8
RACCORDO
100
AcDbPolyline
 62
250
  6
CONTINUOUS
 90
7
 70
0
 10
17.4010403816
 20
12.430064531
 10
17.3895010634
 20
12.4495872777
 10
17.3746292264
 20
12.4683192703
 10
17.3564248705
 20
12.4862605088
 10
17.3348879958
 20
12.5034109933
 10
17.3100186021
 20
12.5197707236
 10
17.2818166896
 20
12.5353396998
  0
LWPOLYLINE
  5
4A1
100
AcDbEntity
  8
RACCORDO
100
AcDbPolyline
 62
250
  6
CONTINUOUS
 90
6
 70
0
 10
17.8499702576
 20
13.8964433554
 10
17.8599338911
 20
13.878617617
 10
17.8667598529
 20
13.8625493683
 10
17.8703109116
 20
13.8485237906
 10
17.8705032907
 20
13.8367864512
 10
17.8673072913
 20
13.8275657806
  0
LWPOLYLINE
  5
4A2
100
AcDbEntity
  8
RACCORDO
100
AcDbPolyline
 62
250
  6
CONTINUOUS
 90
7
 70
0
 10
17.3196401717
 20
13.2562783124
 10
17.329664817
 20
13.2383293232
 10
17.3364932396
 20
13.2221997953
 10
17.3400086033
 20
13.2081657094
 10
17.3401507591
 20
13.1964671925
 10
17.3369172749
 20
13.1873044097
 10
17.3353825145
 20
13.1851786669
  0
LWPOLYLINE
  5
4A3
100
AcDbEntity
  8
RACCORDO
100
AcDbPolyline
 62
7
  6
CONTINUOUS
 90
5
 70
0
 10
17.2262661086
 20
12.512131067
 10
17.2232819728
 20
12.5178012036
 10
17.2202287265
 20
12.5256653215
 10
17.2176634674
 20
12.5357152039
 10
17.2162226984
 20
12.547531436
  0
LINE
  5
4A4
100
AcDbEntity
  8
218140080
100
AcDbLine
 62
7
  6
CONTINUOUS
 10
11.6537780413
 20
27.9065372826
 11
11.6628935
 21
27.8826434815
  0
LINE
  5
4A5
100
AcDbEntity
  8
218140000
100
AcDbLine
 62
7
  6
CONTINUOUS
 10
11.6537780413
 20
27.9065372826
 11
11.6628935
 21
27.8826434815
  0
LWPOLYLINE
  5
4A6
100
AcDbEntity
  8
218140080
100
AcDbPolyline
 62
250
  6
CONTINUOUS
 90
35
 70
0
 10
17.1849998
 20
21.5030748482
 10
17.1965973264
 20
21.4661999277
 10
17.2165348338
 20
21.3932860562
 10
17.2328488309
 20
21.3223143058
 10
17.2464445912
 20
21.2532479708
 10
17.257502348
 20
21.1862691016
 10
17.266029723
 20
21.1213456001
 10
17.2726294045
 20
21.058094037
 10
17.2774418184
 20
20.9965353486
 10
17.2804613578
 20
20.9367405429
 10
17.2820334959
 20
20.878381838
 10
17.2822496748
 20
20.8214111086
 10
17.2811187278
 20
20.7659347153
 10
17.2788408998
 20
20.7118466134
 10
17.2754797542
 20
20.6591320999
 10
17.2710571781
 20
20.6078459755
 10
17.265702261
 20
20.557982039
 10
17.2594735215
 20
20.5095657954
 10
17.2523897534
 20
20.4625998406
 10
17.2445156697
 20
20.4170407955
 10
17.2359089855
 20
20.3729041695
 10
17.2265799499
 20
20.3301930593
 10
17.2165180314
 20
20.2888430311
 10
17.2057684398
 20
20.2488154743
 10
17.194344885
 20
20.2101604382
 10
17.1821889157
 20
20.1729447621
 10
17.1693364722
 20
20.1371177118
 10
17.1558065845
 20
20.1027370259
 10
17.1415193919
 20
20.0700314631
 10
17.1265079341
 20
20.0389638183
 10
17.1107918358
 20
20.0095761736
 10
17.0942767514
 20
19.9822163033
 10
17.0769484734
 20
19.95700204
 10
17.0588676385
 20
19.9338210642
 10
17.0400518096
 20
19.912676531
  0
LWPOLYLINE
  5
4A7
100
AcDbEntity
  8
218140000
100
AcDbPolyline
 62
250
  6
CONTINUOUS
 90
35
 70
0
 10
17.1849998
 20
21.5030748482
 10
17.1965973264
 20
21.4661999277
 10
17.2165348338
 20
21.3932860562
 10
17.2328488309
 20
21.3223143058
 10
17.2464445912
 20
21.2532479708
 10
17.257502348
 20
21.1862691016
 10
17.266029723
 20
21.1213456001
 10
17.2726294045
 20
21.058094037
 10
17.2774418184
 20
20.9965353486
 10
17.2804613578
 20
20.9367405429
 10
17.2820334959
 20
20.878381838
 10
17.2822496748
 20
20.8214111086
 10
17.2811187278
 20
20.7659347153
 10
17.2788408998
 20
20.7118466134
 10
17.2754797542
 20
20.6591320999
 10
17.2710571781
 20
20.6078459755
 10
17.265702261
 20
20.557982039
 10
17.2594735215
 20
20.5095657954
 10
17.2523897534
 20
20.4625998406
 10
17.2445156697
 20
20.4170407955
 10
17.2359089855
 20
20.3729041695
 10
17.2265799499
 20
20.3301930593
 10
17.2165180314
 20
20.2888430311
 10
17.2057684398
 20
20.2488154743
 10
17.194344885
 20
20.2101604382
 10
17.1821889157
 20
20.1729447621
 10
17.1693364722
 20
20.1371177118
 10
17.1558065845
 20
20.1027370259
 10
17.1415193919
 20
20.0700314631
 10
17.1265079341
 20
20.0389638183
 10
17.1107918358
 20
20.0095761736
 10
17.0942767514
 20
19.9822163033
 10
17.0769484734
 20
19.95700204
 10
17.0588676385
 20
19.9338210642
 10
17.0400518096
 20
19.912676531
  0
LINE
  5
4A8
100
AcDbEntity
  8
RACCORDO
100
AcDbLine
 62
7
  6
CONTINUOUS
 10
23.3126878812
 20
16.1447734056
 11
23.3126878812
 21
15.8630579202
  0
LINE
  5
4A9
100
AcDbEntity
  8
RACCORDO
100
AcDbLine
 62
7
  6
CONTINUOUS
 10
23.3126878812
 20
-20.336803958
 11
23.3126878812
 21
-20.6185194434
  0
LWPOLYLINE
  5
4AA
100
AcDbEntity
  8
RACCORDO
100
AcDbPolyline
 62
250
  6
CONTINUOUS
 90
13
 70
0
 10
17.3196401717
 20
-27.2933258269
 10
17.329664817
 20
-27.2623274941
 10
17.3364932396
 20
-27.2303472022
 10
17.3400086033
 20
-27.1979321429
 10
17.3401507591
 20
-27.1656369468
 10
17.3369172749
 20
-27.1340141938
 10
17.3303634764
 20
-27.1036049578
 10
17.3206015009
 20
-27.0749295494
 10
17.3077983785
 20
-27.0484786127
 10
17.2921731742
 20
-27.0247047305
 10
17.2739932396
 20
-27.0040146807
 10
17.2535696384
 20
-26.9867624757
 10
17.231251824
 20
-26.9732433055
  0
LWPOLYLINE
  5
4AB
100
AcDbEntity
  8
RACCORDO
100
AcDbPolyline
 62
250
  6
CONTINUOUS
 90
5
 70
0
 10
17.8499702576
 20
-27.403160784
 10
17.8599338911
 20
-27.3723901112
 10
17.8667598529
 20
-27.3405757415
 10
17.8703109116
 20
-27.308251894
 10
17.8705032907
 20
-27.2759436433
  0
LWPOLYLINE
  5
4AC
100
AcDbEntity
  8
RACCORDO
100
AcDbPolyline
 62
7
  6
CONTINUOUS
 90
4
 70
0
 10
14.6109466871
 20
-26.8044799274
 10
14.596260297
 20
-26.8316333465
 10
14.580406979
 20
-26.8574565191
 10
14.5636147184
 20
-26.8816887603
  0
LWPOLYLINE
  5
4AD
100
AcDbEntity
  8
218140080
100
AcDbPolyline
 62
7
  6
CONTINUOUS
 90
10
 70
0
 10
-3.2792474254
 20
26.5205834017
 10
-3.3603698838
 20
26.5323037564
 10
-3.4426435029
 20
26.5402070077
 10
-3.5254365644
 20
26.5442959711
 10
-3.6083157352
 20
26.5445942683
 10
-3.6910455652
 20
26.541102273
 10
-3.7730963115
 20
26.5338066753
 10
-3.8539287431
 20
26.5227023763
 10
-3.9333269463
 20
26.5077223235
 10
-4.0108777765
 20
26.4887854744
  0
LWPOLYLINE
  5
4AE
100
AcDbEntity
  8
218140000
100
AcDbPolyline
 62
7
  6
CONTINUOUS
 90
10
 70
0
 10
-3.2792474254
 20
26.5205834017
 10
-3.3603698838
 20
26.5323037564
 10
-3.4426435029
 20
26.5402070077
 10
-3.5254365644
 20
26.5442959711
 10
-3.6083157352
 20
26.5445942683
 10
-3.6910455652
 20
26.541102273
 10
-3.7730963115
 20
26.5338066753
 10
-3.8539287431
 20
26.5227023763
 10
-3.9333269463
 20
26.5077223235
 10
-4.0108777765
 20
26.4887854744
  0
LWPOLYLINE
  5
4AF
100
AcDbEntity
  8
268
100
AcDbPolyline
 62
7
  6
CONTINUOUS
 90
13
 70
0
 10
6.4985398921
 20
25.0026931408
 10
6.4638890821
 20
25.0091228219
 10
6.428684859
 20
25.0145059747
 10
6.3929650071
 20
25.0188681156
 10
6.3567396903
 20
25.0222620387
 10
6.3200719522
 20
25.0246917884
 10
6.2830757423
 20
25.0261030176
 10
6.2457887073
 20
25.0265131525
 10
6.2082377254
 20
25.025949271
 10
6.1705170246
 20
25.0243572828
 10
6.1326776498
 20
25.0217281918
 10
6.0947284636
 20
25.0181062106
 10
6.0566990241
 20
25.0135114211
  0
LWPOLYLINE
  5
4B0
100
AcDbEntity
  8
218140080
100
AcDbPolyline
 62
250
  6
CONTINUOUS
 90
13
 70
0
 10
-3.2420189026
 20
26.4836367515
 10
-3.3117411325
 20
26.4972114962
 10
-3.3824829314
 20
26.5074749974
 10
-3.4542442993
 20
26.5144272549
 10
-3.5276836756
 20
26.5180776295
 10
-3.6021426209
 20
26.5184167605
 10
-3.6756458166
 20
26.5154165659
 10
-3.7481703268
 20
26.5089720042
 10
-3.8197390876
 20
26.4991881169
 10
-3.8884455888
 20
26.4863519464
 10
-3.9536543272
 20
26.4705591736
 10
-4.0160008061
 20
26.4517141176
 10
-4.0754850256
 20
26.4298167784
  0
LWPOLYLINE
  5
4B1
100
AcDbEntity
  8
218140000
100
AcDbPolyline
 62
250
  6
CONTINUOUS
 90
13
 70
0
 10
-3.2420189026
 20
26.4836367515
 10
-3.3117411325
 20
26.4972114962
 10
-3.3824829314
 20
26.5074749974
 10
-3.4542442993
 20
26.5144272549
 10
-3.5276836756
 20
26.5180776295
 10
-3.6021426209
 20
26.5184167605
 10
-3.6756458166
 20
26.5154165659
 10
-3.7481703268
 20
26.5089720042
 10
-3.8197390876
 20
26.4991881169
 10
-3.8884455888
 20
26.4863519464
 10
-3.9536543272
 20
26.4705591736
 10
-4.0160008061
 20
26.4517141176
 10
-4.0754850256
 20
26.4298167784
  0
LINE
  5
4B2
100
AcDbEntity
  8
218140080
100
AcDbLine
 62
7
  6
CONTINUOUS
 10
-3.1998237334
 20
26.5050490145
 11
-3.2792474254
 21
26.5205834017
  0
LINE
  5
4B3
100
AcDbEntity
  8
218140000
100
AcDbLine
 62
7
  6
CONTINUOUS
 10
-3.1998237334
 20
26.5050490145
 11
-3.2792474254
 21
26.5205834017
  0
LINE
  5
4B4
100
AcDbEntity
  8
268
100
AcDbLine
 62
7
  6
CONTINUOUS
 10
-13.0567668206
 20
27.1338216368
 11
-13.6790848527
 21
27.2637622193
  0
LWPOLYLINE
  5
4B5
100
AcDbEntity
  8
218140080
100
AcDbPolyline
 62
250
  6
CONTINUOUS
 90
4
 70
0
 10
-3.6179517607
 20
25.8037260109
 10
-3.5758286253
 20
25.7941751282
 10
-3.5360361296
 20
25.7812986959
 10
-3.4985742736
 20
25.7650967142
  0
LWPOLYLINE
  5
4B6
100
AcDbEntity
  8
218140000
100
AcDbPolyline
 62
250
  6
CONTINUOUS
 90
4
 70
0
 10
-3.6179517607
 20
25.8037260109
 10
-3.5758286253
 20
25.7941751282
 10
-3.5360361296
 20
25.7812986959
 10
-3.4985742736
 20
25.7650967142
  0
LWPOLYLINE
  5
4B7
100
AcDbEntity
  8
218140080
100
AcDbPolyline
 62
7
  6
CONTINUOUS
 90
4
 70
0
 10
-4.2478268184
 20
26.377788358
 10
-4.2367057787
 20
26.3751111315
 10
-4.2248893377
 20
26.371133955
 10
-4.212420189
 20
26.3657775327
  0
LWPOLYLINE
  5
4B8
100
AcDbEntity
  8
218140000
100
AcDbPolyline
 62
7
  6
CONTINUOUS
 90
4
 70
0
 10
-4.2478268184
 20
26.377788358
 10
-4.2367057787
 20
26.3751111315
 10
-4.2248893377
 20
26.371133955
 10
-4.212420189
 20
26.3657775327
  0
LWPOLYLINE
  5
4B9
100
AcDbEntity
  8
218140080
100
AcDbPolyline
 62
7
  6
CONTINUOUS
 90
7
 70
0
 10
-3.199830591
 20
26.505050539
 10
-3.1919699082
 20
26.5031345335
 10
-3.1828738553
 20
26.5004893904
 10
-3.1739104716
 20
26.4974154784
 10
-3.1650901886
 20
26.4939151273
 10
-3.1564327272
 20
26.4899940017
 10
-3.153792169
 20
26.4886975753
  0
LWPOLYLINE
  5
4BA
100
AcDbEntity
  8
218140000
100
AcDbPolyline
 62
7
  6
CONTINUOUS
 90
7
 70
0
 10
-3.199830591
 20
26.505050539
 10
-3.1919699082
 20
26.5031345335
 10
-3.1828738553
 20
26.5004893904
 10
-3.1739104716
 20
26.4974154784
 10
-3.1650901886
 20
26.4939151273
 10
-3.1564327272
 20
26.4899940017
 10
-3.153792169
 20
26.4886975753
  0
LWPOLYLINE
  5
4BB
100
AcDbEntity
  8
268
100
AcDbPolyline
 62
7
  6
CONTINUOUS
 90
18
 70
0
 10
-0.7239788469
 20
28.649710362
 10
-0.7435409312
 20
28.6588000951
 10
-0.7664367114
 20
28.6677855098
 10
-0.7899459976
 20
28.6752877425
 10
-0.8140873198
 20
28.6813219124
 10
-0.8387770731
 20
28.6858676968
 10
-0.8640384993
 20
28.6889216802
 10
-0.8898483568
 20
28.6904872782
 10
-0.9160533157
 20
28.6905544147
 10
-0.9426372783
 20
28.6891156388
 10
-0.9696163423
 20
28.6861784014
 10
-0.9968854709
 20
28.6817549802
 10
-1.0244596506
 20
28.6758365945
 10
-1.0523238949
 20
28.668432025
 10
-1.0803282079
 20
28.6595798904
 10
-1.1084225911
 20
28.6492930637
 10
-1.1366570431
 20
28.637558672
 10
-1.1650315639
 20
28.6243767152
  0
LWPOLYLINE
  5
4BC
100
AcDbEntity
  8
RACCORDO
100
AcDbPolyline
 62
7
  6
CONTINUOUS
 90
12
 70
0
 10
12.8409769097
 20
21.2614982489
 10
12.8325775428
 20
21.2654451539
 10
12.8138038164
 20
21.2725478304
 10
12.7941806291
 20
21.2776687484
 10
12.7737187247
 20
21.2808329726
 10
12.7526791018
 20
21.2820001424
 10
12.7310543601
 20
21.2811446758
 10
12.7088519
 20
21.2782921546
 10
12.6863549216
 20
21.2734789639
 10
12.663657825
 20
21.2667172319
 10
12.64066621
 20
21.2579948303
 10
12.6173800768
 20
21.2473117592
  0
LWPOLYLINE
  5
4BD
100
AcDbEntity
  8
RACCORDO
100
AcDbPolyline
 62
7
  6
CONTINUOUS
 90
12
 70
0
 10
15.1858787012
 20
20.6190692618
 10
15.1747868902
 20
20.6243952661
 10
15.1379378064
 20
20.6390617171
 10
15.099400672
 20
20.6498619075
 10
15.0591963727
 20
20.656843673
 10
15.017826478
 20
20.6599199124
 10
14.975276386
 20
20.6590416988
 10
14.9315606988
 20
20.6542579591
 10
14.8872247924
 20
20.6456283731
 10
14.8424504591
 20
20.6331728338
 10
14.7970559067
 20
20.6168714482
 10
14.7510411353
 20
20.5967242162
  0
LWPOLYLINE
  5
4BE
100
AcDbEntity
  8
268
100
AcDbPolyline
 62
7
  6
CONTINUOUS
 90
10
 70
0
 10
6.7448549916
 20
24.9153156689
 10
6.7218753125
 20
24.9265071011
 10
6.6920992681
 20
24.9400835429
 10
6.6628257491
 20
24.9524691596
 10
6.6340357411
 20
24.9636709561
 10
6.6057482584
 20
24.9736819277
 10
6.5780466021
 20
24.9825816721
 10
6.5509585391
 20
24.9903967221
 10
6.5244563024
 20
24.997100545
 10
6.4985398921
 20
25.0026931408
  0
LINE
  5
4BF
100
AcDbEntity
  8
0
100
AcDbLine
 62
7
  6
CONTINUOUS
 10
16.3760770277
 20
18.1769127663
 11
13.5985362979
 21
19.5656831312
  0
LINE
  5
4C0
100
AcDbEntity
  8
268
100
AcDbLine
 62
7
  6
CONTINUOUS
 10
0.9865223317
 20
26.3590290778
 11
-1.8240273153
 21
27.7643039013
  0
LINE
  5
4C1
100
AcDbEntity
  8
218140080
100
AcDbLine
 62
7
  6
CONTINUOUS
 10
7.8286399413
 20
23.4106153234
 11
7.0408512937
 21
23.8045096472
  0
LINE
  5
4C2
100
AcDbEntity
  8
218140000
100
AcDbLine
 62
7
  6
CONTINUOUS
 10
7.8286399413
 20
23.4106153234
 11
7.0408512937
 21
23.8045096472
  0
LINE
  5
4C3
100
AcDbEntity
  8
RACCORDO
100
AcDbLine
 62
250
  6
CONTINUOUS
 10
18.1729784902
 20
18.4695125525
 11
17.5671275451
 21
18.772438025
  0
LINE
  5
4C4
100
AcDbEntity
  8
RACCORDO
100
AcDbLine
 62
250
  6
CONTINUOUS
 10
12.6173800768
 20
21.2473117592
 11
12.0115291317
 21
21.5502372317
  0
LINE
  5
4C5
100
AcDbEntity
  8
268
100
AcDbLine
 62
7
  6
CONTINUOUS
 10
-0.4640953752
 20
27.8380520887
 11
1.745645513
 21
26.7331816446
  0
LINE
  5
4C6
100
AcDbEntity
  8
268
100
AcDbLine
 62
7
  6
CONTINUOUS
 10
2.4912303361
 20
26.3603892331
 11
2.6370437462
 21
26.287482528
  0
LINE
  5
4C7
100
AcDbEntity
  8
0
100
AcDbLine
 62
7
  6
CONTINUOUS
 10
15.4458072015
 20
19.8831008004
 11
17.6227525132
 21
18.7946281445
  0
LINE
  5
4C8
100
AcDbEntity
  8
0
100
AcDbLine
 62
7
  6
CONTINUOUS
 10
18.5018474978
 20
18.3550806522
 11
18.6194409172
 21
18.2962839425
  0
LINE
  5
4C9
100
AcDbEntity
  8
RACCORDO
100
AcDbLine
 62
7
  6
CONTINUOUS
 10
18.3953036012
 20
18.4843542895
 11
17.7907343429
 21
18.7866389186
  0
LINE
  5
4CA
100
AcDbEntity
  8
RACCORDO
100
AcDbLine
 62
7
  6
CONTINUOUS
 10
12.8409868745
 20
21.2615126528
 11
12.2364176162
 21
21.5637972819
  0
LINE
  5
4CB
100
AcDbEntity
  8
268
100
AcDbLine
 62
7
  6
CONTINUOUS
 10
-3.3315531208
 20
29.5350246413
 11
-3.1511011437
 21
29.4447986527
  0
LINE
  5
4CC
100
AcDbEntity
  8
268
100
AcDbLine
 62
7
  6
CONTINUOUS
 10
2.2229103934
 20
26.7577928842
 11
2.4033623705
 21
26.6675668956
  0
LINE
  5
4CD
100
AcDbEntity
  8
RACCORDO
100
AcDbLine
 62
250
  6
CONTINUOUS
 10
11.5868406204
 20
22.1788244736
 11
14.7510411353
 21
20.5967242162
  0
LINE
  5
4CE
100
AcDbEntity
  8
RACCORDO
100
AcDbLine
 62
250
  6
CONTINUOUS
 10
18.9936818224
 20
18.4754038726
 11
22.1578823373
 21
16.8933036152
  0
LINE
  5
4CF
100
AcDbEntity
  8
268
100
AcDbLine
 62
250
  6
CONTINUOUS
 10
-4.1441214649
 20
30.1139216656
 11
-1.1650315639
 21
28.6243767152
  0
LINE
  5
4D0
100
AcDbEntity
  8
268
100
AcDbLine
 62
250
  6
CONTINUOUS
 10
3.0776091232
 20
26.5030563716
 11
6.0566990241
 21
25.0135114211
  0
LINE
  5
4D1
100
AcDbEntity
  8
RACCORDO
100
AcDbLine
 62
7
  6
CONTINUOUS
 10
11.8610067575
 20
22.281541175
 11
15.1859140159
 21
20.6190875458
  0
LINE
  5
4D2
100
AcDbEntity
  8
RACCORDO
100
AcDbLine
 62
7
  6
CONTINUOUS
 10
19.428554703
 20
18.4977672022
 11
22.7534619614
 21
16.835313573
  0
LINE
  5
4D3
100
AcDbEntity
  8
268
100
AcDbLine
 62
7
  6
CONTINUOUS
 10
3.5186521263
 20
26.5284058382
 11
6.7451420184
 21
24.9151608921
  0
LINE
  5
4D4
100
AcDbEntity
  8
715
100
AcDbLine
 62
7
  6
CONTINUOUS
 10
8.8059366851
 20
24.3359312232
 11
8.098967745
 21
24.6894156932
  0
LINE
  5
4D5
100
AcDbEntity
  8
715
100
AcDbLine
 62
7
  6
CONTINUOUS
 10
8.8059366851
 20
24.3359312232
 11
9.0198291391
 21
24.1383979555
  0
LINE
  5
4D6
100
AcDbEntity
  8
715
100
AcDbLine
 62
250
  6
CONTINUOUS
 10
12.0004292253
 20
24.6102511089
 11
12.0157622645
 21
24.594325118
  0
LWPOLYLINE
  5
4D7
100
AcDbEntity
  8
RACCORDO
100
AcDbPolyline
 62
7
  6
CONTINUOUS
 90
5
 70
0
 10
17.8999975274
 20
-27.77125257
 10
17.9122598538
 20
-27.7392116999
 10
17.9200857838
 20
-27.7053822103
 10
17.9231493671
 20
-27.6707870072
 10
17.9231935586
 20
-27.6661079648
  0
LWPOLYLINE
  5
4D8
100
AcDbEntity
  8
RACCORDO
100
AcDbPolyline
 62
250
  6
CONTINUOUS
 90
10
 70
0
 10
14.1199819868
 20
-27.5603753398
 10
14.1027223742
 20
-27.5829172355
 10
14.0869060575
 20
-27.6071090002
 10
14.0727491214
 20
-27.6326201418
 10
14.0604257894
 20
-27.6591476691
 10
14.0501304745
 20
-27.6862857081
 10
14.0420399059
 20
-27.7135232407
 10
14.0362382165
 20
-27.7404440714
 10
14.0327526045
 20
-27.7667388822
 10
14.0315936392
 20
-27.7920695136
  0
LINE
  5
4D9
100
AcDbEntity
  8
RACCORDO
100
AcDbLine
 62
7
  6
CONTINUOUS
 10
14.5636147184
 20
-26.8816887603
 11
14.5461813823
 21
-26.9040281299
  0
LINE
  5
4DA
100
AcDbEntity
  8
DRAFT
100
AcDbLine
 62
7
  6
CONTINUOUS
 10
18.3803003435
 20
-22.1061835607
 11
22.5789104262
 21
-19.9699152305
  0
LINE
  5
4DB
100
AcDbEntity
  8
RACCORDO
100
AcDbLine
 62
250
  6
CONTINUOUS
 10
13.4840115347
 20
-22.6179110841
 11
14.4049912211
 21
-22.1925721447
  0
LINE
  5
4DC
100
AcDbEntity
  8
RACCORDO
100
AcDbLine
 62
7
  6
CONTINUOUS
 10
13.4660056275
 20
-22.836730916
 11
14.3044474148
 21
-22.4495107136
  0
LINE
  5
4DD
100
AcDbEntity
  8
268
100
AcDbLine
 62
7
  6
CONTINUOUS
 10
-1.8240273153
 20
27.7643039013
 11
-0.4640953752
 21
27.8380520887
  0
LWPOLYLINE
  5
4DE
100
AcDbEntity
  8
218140080
100
AcDbPolyline
 62
7
  6
CONTINUOUS
 90
3
 70
0
 10
-4.2679180251
 20
26.3795806425
 10
-4.2582380148
 20
26.3792432285
 10
-4.2478268184
 20
26.377788358
  0
LWPOLYLINE
  5
4DF
100
AcDbEntity
  8
218140000
100
AcDbPolyline
 62
7
  6
CONTINUOUS
 90
3
 70
0
 10
-4.2679180251
 20
26.3795806425
 10
-4.2582380148
 20
26.3792432285
 10
-4.2478268184
 20
26.377788358
  0
LWPOLYLINE
  5
4E0
100
AcDbEntity
  8
715
100
AcDbPolyline
 62
7
  6
CONTINUOUS
 90
9
 70
0
 10
11.1437188921
 20
25.1285179932
 10
11.1376021515
 20
25.1301174909
 10
11.1278319378
 20
25.1316503048
 10
11.1175057423
 20
25.1320657491
 10
11.1067185452
 20
25.1313639766
 10
11.0957552862
 20
25.1295454453
 10
11.0847109455
 20
25.1266103078
 10
11.073490543
 20
25.1225584114
 10
11.0620940788
 20
25.1173897562
  0
LINE
  5
4E1
100
AcDbEntity
  8
715
100
AcDbLine
 62
7
  6
CONTINUOUS
 10
9.7506560933
 20
24.4616707634
 11
9.300911432
 21
24.5834185966
  0
LWPOLYLINE
  5
4E2
100
AcDbEntity
  8
715
100
AcDbPolyline
 62
7
  6
CONTINUOUS
 90
28
 70
0
 10
11.1437087558
 20
25.1284940407
 10
11.0349934092
 20
25.1597798865
 10
10.9201383663
 20
25.1891335635
 10
10.8028769423
 20
25.2154606337
 10
10.6835037775
 20
25.2387227254
 10
10.5622834059
 20
25.2588932783
 10
10.4394540364
 20
25.2759525536
 10
10.315305239
 20
25.2898763951
 10
10.1901217759
 20
25.3006470641
 10
10.0641412584
 20
25.3082544638
 10
9.9376548723
 20
25.3126878425
 10
9.8109521494
 20
25.3139423972
 10
9.6842704039
 20
25.3120176241
 10
9.5578991341
 20
25.3069162891
 10
9.4321295435
 20
25.298647077
 10
9.3071999442
 20
25.2872192015
 10
9.1834010696
 20
25.2726493693
 10
9.0610163172
 20
25.2549593477
 10
8.940267881
 20
25.2341651723
 10
8.8214329599
 20
25.2102935723
 10
8.7047971365
 20
25.1833785205
 10
8.5905855635
 20
25.1534437532
 10
8.4790703853
 20
25.1205266493
 10
8.3705241889
 20
25.0846700145
 10
8.2651572973
 20
25.0458983969
 10
8.1632105148
 20
25.0042455886
 10
8.0649643774
 20
24.959764814
 10
7.9706803162
 20
24.9125074246
  0
LWPOLYLINE
  5
4E3
100
AcDbEntity
  8
715
100
AcDbPolyline
 62
7
  6
CONTINUOUS
 90
3
 70
0
 10
11.1557595738
 20
25.1237002126
 10
11.1469113635
 20
25.1274674601
 10
11.1437188921
 20
25.1285179932
  0
LINE
  5
4E4
100
AcDbEntity
  8
715
100
AcDbLine
 62
7
  6
CONTINUOUS
 10
9.300911432
 20
24.5834185966
 11
8.5939424918
 21
24.9369030667
  0
LINE
  5
4E5
100
AcDbEntity
  8
218140080
100
AcDbLine
 62
7
  6
CONTINUOUS
 10
8.3334477195
 20
25.4195487078
 11
7.894837247
 21
25.6388539441
  0
LINE
  5
4E6
100
AcDbEntity
  8
218140000
100
AcDbLine
 62
7
  6
CONTINUOUS
 10
8.3334477195
 20
25.4195487078
 11
7.894837247
 21
25.6388539441
  0
LINE
  5
4E7
100
AcDbEntity
  8
218140080
100
AcDbLine
 62
7
  6
CONTINUOUS
 10
12.5633606995
 20
25.1798123333
 11
11.8368633108
 21
25.5430610276
  0
LINE
  5
4E8
100
AcDbEntity
  8
218140000
100
AcDbLine
 62
7
  6
CONTINUOUS
 10
12.5633606995
 20
25.1798123333
 11
11.8368633108
 21
25.5430610276
  0
LINE
  5
4E9
100
AcDbEntity
  8
218140080
100
AcDbLine
 62
7
  6
CONTINUOUS
 10
12.3805310391
 20
25.286887016
 11
12.0764116552
 21
25.438946708
  0
LINE
  5
4EA
100
AcDbEntity
  8
218140000
100
AcDbLine
 62
7
  6
CONTINUOUS
 10
12.3805310391
 20
25.286887016
 11
12.0764116552
 21
25.438946708
  0
LINE
  5
4EB
100
AcDbEntity
  8
715
100
AcDbLine
 62
7
  6
CONTINUOUS
 10
12.0042877112
 20
24.6994361438
 11
12.1170625965
 21
24.6429438177
  0
LWPOLYLINE
  5
4EC
100
AcDbEntity
  8
715
100
AcDbPolyline
 62
7
  6
CONTINUOUS
 90
10
 70
0
 10
11.966343644
 20
24.7121037988
 10
11.8688665903
 20
24.7621592305
 10
11.7732533884
 20
24.8111351061
 10
11.6795040385
 20
24.8590314257
 10
11.5876329572
 20
24.9058496135
 10
11.4976257278
 20
24.9515882452
 10
11.4094390998
 20
24.9962430483
 10
11.3230586564
 20
25.0398125984
 10
11.2384988144
 20
25.0822983198
 10
11.1557595738
 20
25.1237002126
  0
LWPOLYLINE
  5
4ED
100
AcDbEntity
  8
218140080
100
AcDbPolyline
 62
7
  6
CONTINUOUS
 90
10
 70
0
 10
12.3805310391
 20
25.286887016
 10
12.3491155847
 20
25.3049398283
 10
12.3170986074
 20
25.3227071307
 10
12.2844801073
 20
25.3401889233
 10
12.2512499165
 20
25.3573902899
 10
12.2174182029
 20
25.3743061467
 10
12.1830154697
 20
25.3909212421
 10
12.1480518845
 20
25.4072304921
 10
12.1125172797
 20
25.4232389808
 10
12.0764116552
 20
25.438946708
  0
LWPOLYLINE
  5
4EE
100
AcDbEntity
  8
218140000
100
AcDbPolyline
 62
7
  6
CONTINUOUS
 90
10
 70
0
 10
12.3805310391
 20
25.286887016
 10
12.3491155847
 20
25.3049398283
 10
12.3170986074
 20
25.3227071307
 10
12.2844801073
 20
25.3401889233
 10
12.2512499165
 20
25.3573902899
 10
12.2174182029
 20
25.3743061467
 10
12.1830154697
 20
25.3909212421
 10
12.1480518845
 20
25.4072304921
 10
12.1125172797
 20
25.4232389808
 10
12.0764116552
 20
25.438946708
  0
LINE
  5
4EF
100
AcDbEntity
  8
715
100
AcDbLine
 62
7
  6
CONTINUOUS
 10
11.9741020726
 20
24.7075173267
 11
11.966343644
 21
24.7121037988
  0
LWPOLYLINE
  5
4F0
100
AcDbEntity
  8
715
100
AcDbPolyline
 62
250
  6
CONTINUOUS
 90
5
 70
0
 10
12.0042877112
 20
24.6994361438
 10
12.0288107016
 20
24.6789317654
 10
12.0531764632
 20
24.657653501
 10
12.0773132134
 20
24.6355912238
 10
12.0854620408
 20
24.6277772541
  0
LWPOLYLINE
  5
4F1
100
AcDbEntity
  8
715
100
AcDbPolyline
 62
250
  6
CONTINUOUS
 90
4
 70
0
 10
11.9106511121
 20
24.6931401354
 10
11.9335115415
 20
24.6735614019
 10
11.9560890798
 20
24.6532083554
 10
11.978383727
 20
24.6320809958
  0
LINE
  5
4F2
100
AcDbEntity
  8
715
100
AcDbLine
 62
250
  6
CONTINUOUS
 10
11.978383727
 20
24.6320809958
 11
12.0004292253
 21
24.6102511089
  0
LINE
  5
4F3
100
AcDbEntity
  8
218140080
100
AcDbLine
 62
250
  6
CONTINUOUS
 10
16.1738989255
 20
25.8004915344
 11
16.5934421365
 21
25.076886533
  0
LINE
  5
4F4
100
AcDbEntity
  8
218140000
100
AcDbLine
 62
250
  6
CONTINUOUS
 10
16.1738989255
 20
25.8004915344
 11
16.5934421365
 21
25.076886533
  0
LINE
  5
4F5
100
AcDbEntity
  8
218140080
100
AcDbLine
 62
7
  6
CONTINUOUS
 10
16.5641632899
 20
25.7948817206
 11
16.9110010604
 21
25.1966750547
  0
LINE
  5
4F6
100
AcDbEntity
  8
218140000
100
AcDbLine
 62
7
  6
CONTINUOUS
 10
16.5641632899
 20
25.7948817206
 11
16.9110010604
 21
25.1966750547
  0
LWPOLYLINE
  5
4F7
100
AcDbEntity
  8
218140080
100
AcDbPolyline
 62
250
  6
CONTINUOUS
 90
13
 70
0
 10
16.5934421365
 20
25.076886533
 10
16.6452113859
 20
24.9833060155
 10
16.6932547363
 20
24.8875865609
 10
16.7373664588
 20
24.7901380545
 10
16.77735766
 20
24.6913777853
 10
16.8130570912
 20
24.5917286604
 10
16.8443118816
 20
24.4916173936
 10
16.8709881932
 20
24.3914726769
 10
16.8929717941
 20
24.2917233453
 10
16.9101685469
 20
24.1927965419
 10
16.9225048126
 20
24.0951158867
 10
16.9299277658
 20
23.9990996629
 10
16.9324056204
 20
23.9051590265
  0
LWPOLYLINE
  5
4F8
100
AcDbEntity
  8
218140000
100
AcDbPolyline
 62
250
  6
CONTINUOUS
 90
13
 70
0
 10
16.5934421365
 20
25.076886533
 10
16.6452113859
 20
24.9833060155
 10
16.6932547363
 20
24.8875865609
 10
16.7373664588
 20
24.7901380545
 10
16.77735766
 20
24.6913777853
 10
16.8130570912
 20
24.5917286604
 10
16.8443118816
 20
24.4916173936
 10
16.8709881932
 20
24.3914726769
 10
16.8929717941
 20
24.2917233453
 10
16.9101685469
 20
24.1927965419
 10
16.9225048126
 20
24.0951158867
 10
16.9299277658
 20
23.9990996629
 10
16.9324056204
 20
23.9051590265
  0
LWPOLYLINE
  5
4F9
100
AcDbEntity
  8
RACCORDO
100
AcDbPolyline
 62
250
  6
CONTINUOUS
 90
10
 70
0
 10
15.4634848711
 20
-28.2321267819
 10
15.4462252584
 20
-28.2546686776
 10
15.4304089418
 20
-28.2788604423
 10
15.4162520056
 20
-28.3043715839
 10
15.4039286737
 20
-28.3308991112
 10
15.3936333588
 20
-28.3580371503
 10
15.3855427902
 20
-28.3852746828
 10
15.3797411008
 20
-28.4121955135
 10
15.3762554887
 20
-28.4384903243
 10
15.3750965234
 20
-28.4638209558
  0
LWPOLYLINE
  5
4FA
100
AcDbEntity
  8
RACCORDO
100
AcDbPolyline
 62
250
  6
CONTINUOUS
 90
13
 70
0
 10
16.2589799999
 20
-27.8236559128
 10
16.2854073706
 20
-27.7896735705
 10
16.3098951177
 20
-27.7543937218
 10
16.3324432411
 20
-27.7178163668
 10
16.3531753345
 20
-27.6796638941
 10
16.3719678042
 20
-27.640213915
 10
16.3884498694
 20
-27.6002992634
 10
16.4025840664
 20
-27.5599179704
 10
16.4144078588
 20
-27.5190720049
 10
16.4236628569
 20
-27.4786001076
 10
16.4302629307
 20
-27.4387818586
 10
16.4342942101
 20
-27.3993376778
 10
16.4357566952
 20
-27.3602675652
  0
LINE
  5
4FB
100
AcDbEntity
  8
RACCORDO
100
AcDbLine
 62
7
  6
CONTINUOUS
 10
14.0158512964
 20
-27.5441931728
 11
14.5461813823
 21
-26.9040281299
  0
LINE
  5
4FC
100
AcDbEntity
  8
RACCORDO
100
AcDbLine
 62
250
  6
CONTINUOUS
 10
14.1199819868
 20
-27.5603753398
 11
14.6503120727
 21
-26.9202102969
  0
LINE
  5
4FD
100
AcDbEntity
  8
RACCORDO
100
AcDbLine
 62
250
  6
CONTINUOUS
 10
15.993814957
 20
-27.591961739
 11
15.4634848711
 21
-28.2321267819
  0
LINE
  5
4FE
100
AcDbEntity
  8
RACCORDO
100
AcDbLine
 62
250
  6
CONTINUOUS
 10
16.2589799999
 20
-27.8236559128
 11
15.728649914
 21
-28.4638209558
  0
LWPOLYLINE
  5
4FF
100
AcDbEntity
  8
RACCORDO
100
AcDbPolyline
 62
250
  6
CONTINUOUS
 90
8
 70
0
 10
14.0158488363
 20
-27.544196143
 10
14.0207902113
 20
-27.5398986579
 10
14.0305407872
 20
-27.5361998297
 10
14.0433444541
 20
-27.5353764741
 10
14.058980706
 20
-27.5374425617
 10
14.0771805231
 20
-27.5423621819
 10
14.0976313768
 20
-27.5500505422
 10
14.1199819868
 20
-27.5603753398
  0
LWPOLYLINE
  5
500
100
AcDbEntity
  8
RACCORDO
100
AcDbPolyline
 62
250
  6
CONTINUOUS
 90
8
 70
0
 10
14.5461813823
 20
-26.9040281299
 10
14.5512004204
 20
-26.8996836016
 10
14.5609623959
 20
-26.8960165503
 10
14.5737655182
 20
-26.8952154632
 10
14.5893907225
 20
-26.8972940471
 10
14.6075706571
 20
-26.9022167368
 10
14.6279942584
 20
-26.9098993036
 10
14.6503120727
 20
-26.9202102969
  0
LINE
  5
501
100
AcDbEntity
  8
DRAFT
100
AcDbLine
 62
7
  6
CONTINUOUS
 10
18.3803003435
 20
-22.8906223654
 11
23.3126878812
 21
-20.336803958
  0
LINE
  5
502
100
AcDbEntity
  8
RACCORDO
100
AcDbLine
 62
7
  6
CONTINUOUS
 10
18.3803003435
 20
-23.5051322195
 11
22.1578823373
 21
-21.6017762417
  0
LINE
  5
503
100
AcDbEntity
  8
RACCORDO
100
AcDbLine
 62
7
  6
CONTINUOUS
 10
18.3803003435
 20
-23.3674825372
 11
23.2692196489
 21
-20.9425425201
  0
LWPOLYLINE
  5
504
100
AcDbEntity
  8
RACCORDO
100
AcDbPolyline
 62
250
  6
CONTINUOUS
 90
11
 70
0
 10
8.6658582541
 20
-29.5368658052
 10
8.6826417731
 20
-29.5307588588
 10
8.7323893056
 20
-29.5064883352
 10
8.778625426
 20
-29.4742425778
 10
8.820843763
 20
-29.4343748054
 10
8.8585819715
 20
-29.3873217043
 10
8.8914267835
 20
-29.333598641
 10
8.91901852
 20
-29.2737940376
 10
8.9410550426
 20
-29.2085629083
 10
8.9572950583
 20
-29.1386196819
 10
8.9675607567
 20
-29.0647303863
  0
LINE
  5
505
100
AcDbEntity
  8
RACCORDO
100
AcDbLine
 62
250
  6
CONTINUOUS
 10
13.0664962157
 20
-27.691836587
 11
8.9675607567
 21
-29.0647303863
  0
LINE
  5
506
100
AcDbEntity
  8
RACCORDO
100
AcDbLine
 62
7
  6
CONTINUOUS
 10
8.6652459816
 20
-29.5370702449
 11
12.7686589121
 21
-28.1626773996
  0
LWPOLYLINE
  5
507
100
AcDbEntity
  8
RACCORDO
100
AcDbPolyline
 62
7
  6
CONTINUOUS
 90
7
 70
0
 10
16.4522392032
 20
-26.9873267846
 10
16.4784909156
 20
-26.9788860274
 10
16.5068481506
 20
-26.9691416883
 10
16.5358445286
 20
-26.9583243736
 10
16.5655726964
 20
-26.9461945597
 10
16.5985205079
 20
-26.931415869
 10
16.6274595207
 20
-26.9172108643
  0
LWPOLYLINE
  5
508
100
AcDbEntity
  8
RACCORDO
100
AcDbPolyline
 62
250
  6
CONTINUOUS
 90
13
 70
0
 10
16.6435791292
 20
-26.6920408613
 10
16.6547353031
 20
-26.6885433813
 10
16.6652105361
 20
-26.6851967762
 10
16.6751753647
 20
-26.6818865837
 10
16.6846414958
 20
-26.6785900625
 10
16.6935972225
 20
-26.6753299538
 10
16.7021779603
 20
-26.672060019
 10
16.710392949
 20
-26.6687726672
 10
16.7182329488
 20
-26.6654754894
 10
16.7258056562
 20
-26.6621450202
 10
16.7331469699
 20
-26.6587734378
 10
16.740220991
 20
-26.6553685639
 10
16.7470277197
 20
-26.6519303986
  0
LWPOLYLINE
  5
509
100
AcDbEntity
  8
RACCORDO
100
AcDbPolyline
 62
250
  6
CONTINUOUS
 90
3
 70
0
 10
16.5916553396
 20
-26.7079849797
 10
16.6191820844
 20
-26.6994470706
 10
16.6435791292
 20
-26.6920408613
  0
LINE
  5
50A
100
AcDbEntity
  8
218140080
100
AcDbLine
 62
7
  6
CONTINUOUS
 10
14.7751310729
 20
25.9186734278
 11
11.6628935
 21
27.4747922142
  0
LINE
  5
50B
100
AcDbEntity
  8
218140000
100
AcDbLine
 62
7
  6
CONTINUOUS
 10
14.7751310729
 20
25.9186734278
 11
11.6628935
 21
27.4747922142
  0
LINE
  5
50C
100
AcDbEntity
  8
218140080
100
AcDbLine
 62
250
  6
CONTINUOUS
 10
16.1738989255
 20
25.8004915344
 11
15.3682269894
 21
26.2033275024
  0
LINE
  5
50D
100
AcDbEntity
  8
218140000
100
AcDbLine
 62
250
  6
CONTINUOUS
 10
16.1738989255
 20
25.8004915344
 11
15.3682269894
 21
26.2033275024
  0
LINE
  5
50E
100
AcDbEntity
  8
218140080
100
AcDbLine
 62
250
  6
CONTINUOUS
 10
10.6665639103
 20
28.554159042
 11
9.6954050767
 21
29.0397384588
  0
LINE
  5
50F
100
AcDbEntity
  8
218140000
100
AcDbLine
 62
250
  6
CONTINUOUS
 10
10.6665639103
 20
28.554159042
 11
9.6954050767
 21
29.0397384588
  0
LINE
  5
510
100
AcDbEntity
  8
218140080
100
AcDbLine
 62
7
  6
CONTINUOUS
 10
16.5041743031
 20
25.8511736385
 11
15.6784154029
 21
26.2640530886
  0
LINE
  5
511
100
AcDbEntity
  8
218140000
100
AcDbLine
 62
7
  6
CONTINUOUS
 10
16.5041743031
 20
25.8511736385
 11
15.6784154029
 21
26.2640530886
  0
LINE
  5
512
100
AcDbEntity
  8
218140080
100
AcDbLine
 62
7
  6
CONTINUOUS
 10
11.1391466819
 20
28.5336874491
 11
10.0867906692
 21
29.0598654555
  0
LINE
  5
513
100
AcDbEntity
  8
218140000
100
AcDbLine
 62
7
  6
CONTINUOUS
 10
11.1391466819
 20
28.5336874491
 11
10.0867906692
 21
29.0598654555
  0
LWPOLYLINE
  5
514
100
AcDbEntity
  8
218140080
100
AcDbPolyline
 62
7
  6
CONTINUOUS
 90
4
 70
0
 10
16.506099855
 20
25.8502106652
 10
16.519743331
 20
25.8423959234
 10
16.5432790276
 20
25.8230236449
 10
16.5634571703
 20
25.7961458134
  0
LWPOLYLINE
  5
515
100
AcDbEntity
  8
218140000
100
AcDbPolyline
 62
7
  6
CONTINUOUS
 90
4
 70
0
 10
16.506099855
 20
25.8502106652
 10
16.519743331
 20
25.8423959234
 10
16.5432790276
 20
25.8230236449
 10
16.5634571703
 20
25.7961458134
  0
LWPOLYLINE
  5
516
100
AcDbEntity
  8
218140080
100
AcDbPolyline
 62
7
  6
CONTINUOUS
 90
35
 70
0
 10
17.1849998
 20
23.58516292
 10
17.3017733288
 20
23.5080608137
 10
17.4415700023
 20
23.4035471675
 10
17.578307858
 20
23.2890185705
 10
17.7111733016
 20
23.165302066
 10
17.8395587548
 20
23.0331552909
 10
17.9631403549
 20
22.8930878849
 10
18.0815205163
 20
22.7456823812
 10
18.1942748994
 20
22.5915714917
 10
18.3009504654
 20
22.4314647076
 10
18.4011074775
 20
22.2661089505
 10
18.4943234213
 20
22.0962911887
 10
18.5802765439
 20
21.9226731582
 10
18.6586919255
 20
21.7458351994
 10
18.7292586005
 20
21.5664446357
 10
18.7916331829
 20
21.3853100756
 10
18.8455179189
 20
21.2032147806
 10
18.890654642
 20
21.0209101976
 10
18.9268135447
 20
20.8391333606
 10
18.9537892887
 20
20.6586099007
 10
18.971409094
 20
20.4799074484
 10
18.9794819952
 20
20.3039109327
 10
18.9778819334
 20
20.1317306919
 10
18.9665345613
 20
19.9638147165
 10
18.945399959
 20
19.8010377802
 10
18.914670605
 20
19.6449441399
 10
18.8745661126
 20
19.4962021751
 10
18.8252397645
 20
19.3551092447
 10
18.7670446448
 20
19.2224431547
 10
18.7002362611
 20
19.0985458039
 10
18.6251675474
 20
18.9838867058
 10
18.542577842
 20
18.8792890677
 10
18.453138671
 20
18.7851617283
 10
18.3573143626
 20
18.7015811684
 10
18.2557228931
 20
18.6287322429
  0
LWPOLYLINE
  5
517
100
AcDbEntity
  8
218140000
100
AcDbPolyline
 62
7
  6
CONTINUOUS
 90
35
 70
0
 10
17.1849998
 20
23.58516292
 10
17.3017733288
 20
23.5080608137
 10
17.4415700023
 20
23.4035471675
 10
17.578307858
 20
23.2890185705
 10
17.7111733016
 20
23.165302066
 10
17.8395587548
 20
23.0331552909
 10
17.9631403549
 20
22.8930878849
 10
18.0815205163
 20
22.7456823812
 10
18.1942748994
 20
22.5915714917
 10
18.3009504654
 20
22.4314647076
 10
18.4011074775
 20
22.2661089505
 10
18.4943234213
 20
22.0962911887
 10
18.5802765439
 20
21.9226731582
 10
18.6586919255
 20
21.7458351994
 10
18.7292586005
 20
21.5664446357
 10
18.7916331829
 20
21.3853100756
 10
18.8455179189
 20
21.2032147806
 10
18.890654642
 20
21.0209101976
 10
18.9268135447
 20
20.8391333606
 10
18.9537892887
 20
20.6586099007
 10
18.971409094
 20
20.4799074484
 10
18.9794819952
 20
20.3039109327
 10
18.9778819334
 20
20.1317306919
 10
18.9665345613
 20
19.9638147165
 10
18.945399959
 20
19.8010377802
 10
18.914670605
 20
19.6449441399
 10
18.8745661126
 20
19.4962021751
 10
18.8252397645
 20
19.3551092447
 10
18.7670446448
 20
19.2224431547
 10
18.7002362611
 20
19.0985458039
 10
18.6251675474
 20
18.9838867058
 10
18.542577842
 20
18.8792890677
 10
18.453138671
 20
18.7851617283
 10
18.3573143626
 20
18.7015811684
 10
18.2557228931
 20
18.6287322429
  0
LWPOLYLINE
  5
518
100
AcDbEntity
  8
218140080
100
AcDbPolyline
 62
250
  6
CONTINUOUS
 90
34
 70
0
 10
17.1849998
 20
23.506552399
 10
17.2630948908
 20
23.4510405956
 10
17.4002357607
 20
23.3415849863
 10
17.5347782523
 20
23.2220595128
 10
17.6660948312
 20
23.0930216641
 10
17.7935729897
 20
22.9550733157
 10
17.9166181266
 20
22.8088579051
 10
18.034656322
 20
22.6550574264
 10
18.1471370165
 20
22.4943892443
 10
18.2535355711
 20
22.3276027569
 10
18.3533557141
 20
22.1554759014
 10
18.4461318555
 20
21.9788115266
 10
18.5314312608
 20
21.7984336457
 10
18.6088560696
 20
21.6151835919
 10
18.6780451513
 20
21.429916094
 10
18.738675789
 20
21.2434952909
 10
18.7904651845
 20
21.0567907011
 10
18.8331717775
 20
20.870673167
 10
18.8665963726
 20
20.6860107926
 10
18.8905830681
 20
20.5036648949
 10
18.9050199834
 20
20.3244859858
 10
18.9098397807
 20
20.1493098058
 10
18.9050199791
 20
19.9789534254
 10
18.8905830595
 20
19.8142114342
 10
18.8665963597
 20
19.6558522348
 10
18.8331717604
 20
19.5046144586
 10
18.7904651632
 20
19.3612035209
 10
18.7386757635
 20
19.2262883302
 10
18.6780451217
 20
19.1004981689
 10
18.608856036
 20
18.9844197571
 10
18.5314312233
 20
18.8785945167
 10
18.4461318142
 20
18.7835160458
 10
18.3533556691
 20
18.6996278174
 10
18.2557228931
 20
18.6287322429
  0
LWPOLYLINE
  5
519
100
AcDbEntity
  8
218140000
100
AcDbPolyline
 62
250
  6
CONTINUOUS
 90
34
 70
0
 10
17.1849998
 20
23.506552399
 10
17.2630948908
 20
23.4510405956
 10
17.4002357607
 20
23.3415849863
 10
17.5347782523
 20
23.2220595128
 10
17.6660948312
 20
23.0930216641
 10
17.7935729897
 20
22.9550733157
 10
17.9166181266
 20
22.8088579051
 10
18.034656322
 20
22.6550574264
 10
18.1471370165
 20
22.4943892443
 10
18.2535355711
 20
22.3276027569
 10
18.3533557141
 20
22.1554759014
 10
18.4461318555
 20
21.9788115266
 10
18.5314312608
 20
21.7984336457
 10
18.6088560696
 20
21.6151835919
 10
18.6780451513
 20
21.429916094
 10
18.738675789
 20
21.2434952909
 10
18.7904651845
 20
21.0567907011
 10
18.8331717775
 20
20.870673167
 10
18.8665963726
 20
20.6860107926
 10
18.8905830681
 20
20.5036648949
 10
18.9050199834
 20
20.3244859858
 10
18.9098397807
 20
20.1493098058
 10
18.9050199791
 20
19.9789534254
 10
18.8905830595
 20
19.8142114342
 10
18.8665963597
 20
19.6558522348
 10
18.8331717604
 20
19.5046144586
 10
18.7904651632
 20
19.3612035209
 10
18.7386757635
 20
19.2262883302
 10
18.6780451217
 20
19.1004981689
 10
18.608856036
 20
18.9844197571
 10
18.5314312233
 20
18.8785945167
 10
18.4461318142
 20
18.7835160458
 10
18.3533556691
 20
18.6996278174
 10
18.2557228931
 20
18.6287322429
  0
LWPOLYLINE
  5
51A
100
AcDbEntity
  8
218140080
100
AcDbPolyline
 62
250
  6
CONTINUOUS
 90
12
 70
0
 10
16.9110010604
 20
25.1966750547
 10
16.9096419237
 20
25.1982721687
 10
16.9017230056
 20
25.2007937718
 10
16.8880784131
 20
25.1999249626
 10
16.8688096965
 20
25.1956722073
 10
16.8440602635
 20
25.188067157
 10
16.8140143125
 20
25.1771664125
 10
16.7788954611
 20
25.1630511028
 10
16.738965082
 20
25.1458262817
 10
16.6945203581
 20
25.1256201454
 10
16.6458920702
 20
25.1025830784
 10
16.5934421354
 20
25.0768865347
  0
LWPOLYLINE
  5
51B
100
AcDbEntity
  8
218140000
100
AcDbPolyline
 62
250
  6
CONTINUOUS
 90
12
 70
0
 10
16.9110010604
 20
25.1966750547
 10
16.9096419237
 20
25.1982721687
 10
16.9017230056
 20
25.2007937718
 10
16.8880784131
 20
25.1999249626
 10
16.8688096965
 20
25.1956722073
 10
16.8440602635
 20
25.188067157
 10
16.8140143125
 20
25.1771664125
 10
16.7788954611
 20
25.1630511028
 10
16.738965082
 20
25.1458262817
 10
16.6945203581
 20
25.1256201454
 10
16.6458920702
 20
25.1025830784
 10
16.5934421354
 20
25.0768865347
  0
LINE
  5
51C
100
AcDbEntity
  8
RACCORDO
100
AcDbLine
 62
250
  6
CONTINUOUS
 10
17.565354692
 20
-26.2237732988
 11
17.5998389524
 21
-26.2003738576
  0
LWPOLYLINE
  5
51D
100
AcDbEntity
  8
RACCORDO
100
AcDbPolyline
 62
250
  6
CONTINUOUS
 90
9
 70
0
 10
17.5998389524
 20
-26.2003738576
 10
17.626049493
 20
-26.1827453401
 10
17.6402565277
 20
-26.1734448935
 10
17.655264092
 20
-26.1638085319
 10
17.671043792
 20
-26.153882067
 10
17.6876233257
 20
-26.1439049998
 10
17.7050119256
 20
-26.1339571642
 10
17.7232003591
 20
-26.1239587264
 10
17.7421886261
 20
-26.1139096863
  0
LINE
  5
51E
100
AcDbEntity
  8
DRAFT
100
AcDbLine
 62
7
  6
CONTINUOUS
 10
16.2219522156
 20
-26.854015236
 11
16.68959431
 21
-26.5590994186
  0
LWPOLYLINE
  5
51F
100
AcDbEntity
  8
RACCORDO
100
AcDbPolyline
 62
250
  6
CONTINUOUS
 90
7
 70
0
 10
17.1428634764
 20
-26.6828917468
 10
17.1605363853
 20
-26.6723376411
 10
17.1759900467
 20
-26.6609665932
 10
17.189074699
 20
-26.6489049202
 10
17.1996644196
 20
-26.6362848938
 10
17.2076751492
 20
-26.6232434535
 10
17.2090344075
 20
-26.6198745902
  0
LWPOLYLINE
  5
520
100
AcDbEntity
  8
RACCORDO
100
AcDbPolyline
 62
7
  6
CONTINUOUS
 90
6
 70
0
 10
17.7849969612
 20
-27.8896932062
 10
17.8133317315
 20
-27.8731148395
 10
17.8396631604
 20
-27.8526005574
 10
17.8632959644
 20
-27.8284473542
 10
17.8835686962
 20
-27.8011504274
 10
17.8999975274
 20
-27.77125257
  0
LWPOLYLINE
  5
521
100
AcDbEntity
  8
RACCORDO
100
AcDbPolyline
 62
250
  6
CONTINUOUS
 90
6
 70
0
 10
17.1428634764
 20
-27.0067141746
 10
17.1644251162
 20
-26.9944210056
 10
17.182593132
 20
-26.9808258269
 10
17.1970566642
 20
-26.966161256
 10
17.2075682377
 20
-26.9506782076
 10
17.2139479964
 20
-26.934641601
  0
LWPOLYLINE
  5
522
100
AcDbEntity
  8
RACCORDO
100
AcDbPolyline
 62
7
  6
CONTINUOUS
 90
11
 70
0
 10
17.352415493
 20
-26.5465908276
 10
17.3867400822
 20
-26.5280141761
 10
17.4191941617
 20
-26.5090403276
 10
17.4505111509
 20
-26.4895403529
 10
17.4807581936
 20
-26.4697738975
 10
17.5093727319
 20
-26.4504986753
 10
17.5361451867
 20
-26.4323254803
 10
17.5614438286
 20
-26.4154343455
 10
17.5845511655
 20
-26.4006653909
 10
17.6040435095
 20
-26.3890826693
 10
17.6197509976
 20
-26.3806481601
  0
LINE
  5
523
100
AcDbEntity
  8
RACCORDO
100
AcDbLine
 62
250
  6
CONTINUOUS
 10
16.4357566952
 20
-27.0515616671
 11
17.1428634764
 21
-26.6828917468
  0
LWPOLYLINE
  5
524
100
AcDbEntity
  8
RACCORDO
100
AcDbPolyline
 62
250
  6
CONTINUOUS
 90
12
 70
0
 10
17.4663410844
 20
-26.2842200168
 10
17.4729889097
 20
-26.2807848737
 10
17.4798817452
 20
-26.2770918615
 10
17.4870195908
 20
-26.2731409803
 10
17.4943748045
 20
-26.2689531889
 10
17.5019750284
 20
-26.2645075285
 10
17.5099031889
 20
-26.259741122
 10
17.5181561867
 20
-26.2546518241
 10
17.5267371212
 20
-26.2492417802
 10
17.5357382165
 20
-26.2434545498
 10
17.5451499794
 20
-26.2372833012
 10
17.565354692
 20
-26.2237732988
  0
LINE
  5
525
100
AcDbEntity
  8
RACCORDO
100
AcDbLine
 62
7
  6
CONTINUOUS
 10
16.6273694072
 20
-26.9172538161
 11
17.0295673669
 21
-26.7115965147
  0
LINE
  5
526
100
AcDbEntity
  8
RACCORDO
100
AcDbLine
 62
250
  6
CONTINUOUS
 10
16.7470277197
 20
-26.6519303986
 11
17.3065064865
 21
-26.3658882492
  0
LINE
  5
527
100
AcDbEntity
  8
RACCORDO
100
AcDbLine
 62
7
  6
CONTINUOUS
 10
17.0295673669
 20
-26.7115965147
 11
17.3465238852
 21
-26.5496246592
  0
LINE
  5
528
100
AcDbEntity
  8
RACCORDO
100
AcDbLine
 62
7
  6
CONTINUOUS
 10
17.352415493
 20
-26.5465908276
 11
17.3465236544
 21
-26.5496243945
  0
LINE
  5
529
100
AcDbEntity
  8
RACCORDO
100
AcDbLine
 62
250
  6
CONTINUOUS
 10
17.3065064865
 20
-26.3658882492
 11
17.4663410844
 21
-26.2842200168
  0
LINE
  5
52A
100
AcDbEntity
  8
RACCORDO
100
AcDbLine
 62
250
  6
CONTINUOUS
 10
16.2219522156
 20
-26.8798848739
 11
16.4577045333
 21
-26.7611064879
  0
LINE
  5
52B
100
AcDbEntity
  8
RACCORDO
100
AcDbLine
 62
250
  6
CONTINUOUS
 10
17.7421886261
 20
-26.1139096863
 11
18.3803003435
 21
-25.7923890053
  0
LWPOLYLINE
  5
52C
100
AcDbEntity
  8
RACCORDO
100
AcDbPolyline
 62
7
  6
CONTINUOUS
 90
7
 70
0
 10
16.0924563699
 20
-27.1501751639
 10
16.3371445812
 20
-27.0268918564
 10
16.35188694
 20
-27.020176118
 10
16.3683624883
 20
-27.0137863238
 10
16.3859937129
 20
-27.0077688556
 10
16.4052185537
 20
-27.001713348
 10
16.4522392032
 20
-26.9873267846
  0
LINE
  5
52D
100
AcDbEntity
  8
RACCORDO
100
AcDbLine
 62
7
  6
CONTINUOUS
 10
18.2508044978
 20
-26.0626792954
 11
17.6197472751
 21
-26.3806410044
  0
LINE
  5
52E
100
AcDbEntity
  8
RACCORDO
100
AcDbLine
 62
250
  6
CONTINUOUS
 10
15.728649914
 20
-28.8151349279
 11
17.8499702576
 21
-27.7544747561
  0
LINE
  5
52F
100
AcDbEntity
  8
RACCORDO
100
AcDbLine
 62
7
  6
CONTINUOUS
 10
15.6636766176
 20
-28.950353378
 11
17.7849969612
 21
-27.8896932062
  0
LINE
  5
530
100
AcDbEntity
  8
RACCORDO
100
AcDbLine
 62
250
  6
CONTINUOUS
 10
16.416108455
 20
-27.061128107
 11
16.4357566952
 21
-27.0515616671
  0
LWPOLYLINE
  5
531
100
AcDbEntity
  8
RACCORDO
100
AcDbPolyline
 62
250
  6
CONTINUOUS
 90
9
 70
0
 10
16.4577045333
 20
-26.7611064879
 10
16.4754857031
 20
-26.752526198
 10
16.4930428847
 20
-26.7445050427
 10
16.5103760781
 20
-26.7370430222
 10
16.5276266561
 20
-26.7301571629
 10
16.5446532459
 20
-26.7238304383
 10
16.5610317296
 20
-26.718011769
 10
16.5766675877
 20
-26.7127443467
 10
16.5916553396
 20
-26.7079849797
  0
LWPOLYLINE
  5
532
100
AcDbEntity
  8
RACCORDO
100
AcDbPolyline
 62
250
  6
CONTINUOUS
 90
13
 70
0
 10
15.728649914
 20
-28.8151349279
 10
15.7046436015
 20
-28.8256925378
 10
15.6779418358
 20
-28.8346895093
 10
15.6489385927
 20
-28.8419402358
 10
15.6180088856
 20
-28.8472933279
 10
15.5857195497
 20
-28.8505957081
 10
15.5528424243
 20
-28.8517456408
 10
15.5200206929
 20
-28.8507278455
 10
15.4877505223
 20
-28.8475649147
 10
15.4566007982
 20
-28.8423138397
 10
15.4271119027
 20
-28.8350685701
 10
15.39978746
 20
-28.8259558565
 10
15.3750965234
 20
-28.8151349279
  0
LWPOLYLINE
  5
533
100
AcDbEntity
  8
RACCORDO
100
AcDbPolyline
 62
250
  6
CONTINUOUS
 90
13
 70
0
 10
16.4357566952
 20
-27.3602675652
 10
16.4111703572
 20
-27.3710483851
 10
16.3839799999
 20
-27.380132393
 10
16.354650858
 20
-27.3873641591
 10
16.3236847612
 20
-27.3926199458
 10
16.291611548
 20
-27.3958098252
 10
16.2589799999
 20
-27.3968792175
 10
16.2263484518
 20
-27.3958098252
 10
16.1942752386
 20
-27.3926199458
 10
16.1633091418
 20
-27.3873641591
 10
16.1339799999
 20
-27.380132393
 10
16.1067896427
 20
-27.3710483851
 10
16.0822033046
 20
-27.3602675652
  0
LWPOLYLINE
  5
534
100
AcDbEntity
  8
RACCORDO
100
AcDbPolyline
 62
250
  6
CONTINUOUS
 90
13
 70
0
 10
15.728649914
 20
-28.4638209558
 10
15.704063576
 20
-28.4746017757
 10
15.6768732187
 20
-28.4836857836
 10
15.6475440768
 20
-28.4909175497
 10
15.61657798
 20
-28.4961733364
 10
15.5845047668
 20
-28.4993632158
 10
15.5518732187
 20
-28.5004326081
 10
15.5192416707
 20
-28.4993632158
 10
15.4871684574
 20
-28.4961733364
 10
15.4562023606
 20
-28.4909175497
 10
15.4268732187
 20
-28.4836857836
 10
15.3996828615
 20
-28.4746017757
 10
15.3750965234
 20
-28.4638209558
  0
LWPOLYLINE
  5
535
100
AcDbEntity
  8
RACCORDO
100
AcDbPolyline
 62
7
  6
CONTINUOUS
 90
9
 70
0
 10
15.6636766176
 20
-28.950353378
 10
15.6353900224
 20
-28.9623829431
 10
15.6054028213
 20
-28.970947912
 10
15.5742282385
 20
-28.9757450804
 10
15.5423235946
 20
-28.976564063
 10
15.5104387063
 20
-28.9732890233
 10
15.4794311756
 20
-28.9660207961
 10
15.449471125
 20
-28.9548118111
 10
15.4399081897
 20
-28.950272368
  0
ARC
  5
536
100
AcDbEntity
  8
RACCORDO
100
AcDbCircle
 62
7
  6
CONTINUOUS
 10
2.1875550543
 20
19.6063306135
 40
0.25
100
AcDbArc
 50
244.0406531095
 51
258.6758098606
  0
ELLIPSE
  5
537
100
AcDbEntity
  8
218140080
100
AcDbEllipse
 62
7
  6
CONTINUOUS
 10
9.6121762568
 20
24.5558064021
 30
0.0
 11
2.7499350056
 21
-0.0386453369
 31
0.0
 40
0.4892375088
 41
8.654981679
 42
9.2557277435
  0
ELLIPSE
  5
538
100
AcDbEntity
  8
218140080
100
AcDbEllipse
 62
7
  6
CONTINUOUS
 10
10.2839276989
 20
24.4443087181
 30
0.0
 11
2.7583300471
 21
-0.038763314
 31
0.0
 40
0.4892375088
 41
0.9280596999
 42
2.3630697256
  0
ELLIPSE
  5
539
100
AcDbEntity
  8
218140080
100
AcDbEllipse
 62
7
  6
CONTINUOUS
 10
14.98964193
 20
25.6022092352
 30
0.0
 11
0.716172246
 21
0.6416715914
 31
0.0
 40
0.2882345029
 41
0.1142323894
 42
0.7807533904
  0
ELLIPSE
  5
53A
100
AcDbEntity
  8
218140080
100
AcDbEllipse
 62
7
  6
CONTINUOUS
 10
9.5884374377
 20
25.7375685348
 30
0.0
 11
3.3311333813
 21
-0.0467042088
 31
0.0
 40
0.4892378494
 41
3.8528301344
 42
5.5059722822
  0
ELLIPSE
  5
53B
100
AcDbEntity
  8
218140080
100
AcDbEllipse
 62
7
  6
CONTINUOUS
 10
10.2839276989
 20
24.4443087181
 30
0.0
 11
2.7583300471
 21
-0.038763314
 31
0.0
 40
0.4892375088
 41
0.4291477653
 42
0.6564870977
  0
ELLIPSE
  5
53C
100
AcDbEntity
  8
218140080
100
AcDbEllipse
 62
7
  6
CONTINUOUS
 10
10.2839276989
 20
26.3890194294
 30
0.0
 11
2.7583515655
 21
-1.4175703156
 31
0.0
 40
0.0109499087
 41
-0.7017315251
 42
-0.6439845515
  0
ELLIPSE
  5
53D
100
AcDbEntity
  8
218140080
100
AcDbEllipse
 62
7
  6
CONTINUOUS
 10
11.0229356829
 20
27.5855623587
 30
0.0
 11
-0.2796057293
 21
0.9974617846
 31
0.0
 40
0.6760995073
 41
4.8467711056
 42
6.4001141399
  0
ELLIPSE
  5
53E
100
AcDbEntity
  8
218140080
100
AcDbEllipse
 62
7
  6
CONTINUOUS
 10
9.5884374377
 20
25.7375685348
 30
0.0
 11
3.3311333813
 21
-0.0467042088
 31
0.0
 40
0.4892378494
 41
2.3616770883
 42
3.7058786528
  0
ELLIPSE
  5
53F
100
AcDbEntity
  8
218140080
100
AcDbEllipse
 62
7
  6
CONTINUOUS
 10
10.2839276989
 20
26.3890194294
 30
0.0
 11
2.7583515655
 21
-1.4175703156
 31
0.0
 40
0.0109499087
 41
-0.9155571536
 42
-0.85781018
  0
ELLIPSE
  5
540
100
AcDbEntity
  8
218140080
100
AcDbEllipse
 62
7
  6
CONTINUOUS
 10
10.2839276989
 20
24.87732142
 30
0.0
 11
2.7583300471
 21
-0.038763314
 31
0.0
 40
0.4892375088
 41
0.1708839954
 42
2.3630697256
  0
ELLIPSE
  5
541
100
AcDbEntity
  8
218140000
100
AcDbEllipse
 62
7
  6
CONTINUOUS
 10
9.5884374377
 20
25.7375685348
 30
0.0
 11
3.3311333813
 21
-0.0467042088
 31
0.0
 40
0.4892378494
 41
3.8528301344
 42
5.5059722822
  0
ELLIPSE
  5
542
100
AcDbEntity
  8
218140000
100
AcDbEllipse
 62
7
  6
CONTINUOUS
 10
10.2839276989
 20
24.4443087181
 30
0.0
 11
2.7583300471
 21
-0.038763314
 31
0.0
 40
0.4892375088
 41
0.4291477653
 42
0.6564870977
  0
ELLIPSE
  5
543
100
AcDbEntity
  8
218140000
100
AcDbEllipse
 62
7
  6
CONTINUOUS
 10
9.6121762568
 20
24.5558064021
 30
0.0
 11
2.7499350056
 21
-0.0386453369
 31
0.0
 40
0.4892375088
 41
8.654981679
 42
9.2557277435
  0
ELLIPSE
  5
544
100
AcDbEntity
  8
218140000
100
AcDbEllipse
 62
7
  6
CONTINUOUS
 10
10.2839276989
 20
24.4443087181
 30
0.0
 11
2.7583300471
 21
-0.038763314
 31
0.0
 40
0.4892375088
 41
0.9280596999
 42
2.3630697256
  0
ELLIPSE
  5
545
100
AcDbEntity
  8
218140000
100
AcDbEllipse
 62
7
  6
CONTINUOUS
 10
14.98964193
 20
25.6022092352
 30
0.0
 11
0.716172246
 21
0.6416715914
 31
0.0
 40
0.2882345029
 41
0.1142323894
 42
0.7807533904
  0
ELLIPSE
  5
546
100
AcDbEntity
  8
218140000
100
AcDbEllipse
 62
7
  6
CONTINUOUS
 10
10.2839276989
 20
26.3890194294
 30
0.0
 11
2.7583515655
 21
-1.4175703156
 31
0.0
 40
0.0109499087
 41
-0.9155571536
 42
-0.85781018
  0
ELLIPSE
  5
547
100
AcDbEntity
  8
218140000
100
AcDbEllipse
 62
7
  6
CONTINUOUS
 10
10.2839276989
 20
26.3890194294
 30
0.0
 11
2.7583515655
 21
-1.4175703156
 31
0.0
 40
0.0109499087
 41
-0.7017315251
 42
-0.6439845515
  0
ELLIPSE
  5
548
100
AcDbEntity
  8
218140000
100
AcDbEllipse
 62
7
  6
CONTINUOUS
 10
10.2839276989
 20
24.87732142
 30
0.0
 11
2.7583300471
 21
-0.038763314
 31
0.0
 40
0.4892375088
 41
0.1708839954
 42
2.3630697256
  0
ELLIPSE
  5
549
100
AcDbEntity
  8
218140000
100
AcDbEllipse
 62
7
  6
CONTINUOUS
 10
11.0229356829
 20
27.5855623587
 30
0.0
 11
-0.2796057293
 21
0.9974617846
 31
0.0
 40
0.6760995073
 41
4.8467711056
 42
6.4001141399
  0
ELLIPSE
  5
54A
100
AcDbEntity
  8
218140000
100
AcDbEllipse
 62
7
  6
CONTINUOUS
 10
9.5884374377
 20
25.7375685348
 30
0.0
 11
3.3311333813
 21
-0.0467042088
 31
0.0
 40
0.4892378494
 41
2.3616770883
 42
3.7058786528
  0
ELLIPSE
  5
54B
100
AcDbEntity
  8
268
100
AcDbEllipse
 62
7
  6
CONTINUOUS
 10
-15.1980156523
 20
28.2991159668
 30
0.0
 11
0.110769438
 21
0.2241226716
 31
0.0
 40
0.6088015717
 41
-4.0304836828
 42
-3.1443650652
  0
ELLIPSE
  5
54C
100
AcDbEntity
  8
268
100
AcDbEllipse
 62
7
  6
CONTINUOUS
 10
-1.8336974879
 20
21.6169568846
 30
0.0
 11
0.110769438
 21
0.2241226716
 31
0.0
 40
0.6088015717
 41
-4.0304836828
 42
-3.1443650652
  0
ELLIPSE
  5
54D
100
AcDbEntity
  8
268
100
AcDbEllipse
 62
7
  6
CONTINUOUS
 10
-3.5436851552
 20
29.4304701406
 30
0.0
 11
0.2999991737
 21
-0.0014183462
 31
0.0
 40
0.4964289597
 41
0.7877451926
 42
2.3527237553
  0
ELLIPSE
  5
54E
100
AcDbEntity
  8
268
100
AcDbEllipse
 62
7
  6
CONTINUOUS
 10
2.010778359
 20
26.6532383835
 30
0.0
 11
0.2999991737
 21
-0.0014183462
 31
0.0
 40
0.4964289597
 41
0.7877451926
 42
2.3585415194
  0
ELLIPSE
  5
54F
100
AcDbEntity
  8
268
100
AcDbEllipse
 62
7
  6
CONTINUOUS
 10
-11.8141876699
 20
27.6249689286
 30
0.0
 11
0.110769438
 21
0.2241226716
 31
0.0
 40
0.6088015717
 41
1.2055040732
 42
2.2526937431
  0
ELLIPSE
  5
550
100
AcDbEntity
  8
268
100
AcDbEllipse
 62
7
  6
CONTINUOUS
 10
1.9016269716
 20
21.8706149984
 30
0.0
 11
0.110769438
 21
0.2241226716
 31
0.0
 40
0.6088015717
 41
-1.9360885804
 42
-0.8888910292
  0
ELLIPSE
  5
551
100
AcDbEntity
  8
268
100
AcDbEllipse
 62
7
  6
CONTINUOUS
 10
0.2814521153
 20
22.9416314029
 30
0.0
 11
0.1128509832
 21
0.2230818409
 31
0.0
 40
0.6159267166
 41
0.0028979148
 42
0.6817883054
  0
ELLIPSE
  5
552
100
AcDbEntity
  8
268
100
AcDbEllipse
 62
7
  6
CONTINUOUS
 10
-1.8336974879
 20
21.8703282783
 30
0.0
 11
0.110769438
 21
0.2241226716
 31
0.0
 40
0.6088015717
 41
0.6877230618
 42
2.2527016244
  0
ELLIPSE
  5
553
100
AcDbEntity
  8
268
100
AcDbEllipse
 62
7
  6
CONTINUOUS
 10
-11.4626911928
 20
28.5527740806
 30
0.0
 11
0.110769438
 21
0.2241226716
 31
0.0
 40
0.6088015717
 41
-1.9360885804
 42
-0.8888910292
  0
ELLIPSE
  5
554
100
AcDbEntity
  8
268
100
AcDbEllipse
 62
7
  6
CONTINUOUS
 10
-13.0828660492
 20
29.6237904851
 30
0.0
 11
0.1128509832
 21
0.2230818409
 31
0.0
 40
0.6159267166
 41
0.0028979148
 42
0.6817883054
  0
ELLIPSE
  5
555
100
AcDbEntity
  8
268
100
AcDbEllipse
 62
7
  6
CONTINUOUS
 10
-15.1980156523
 20
28.5524873605
 30
0.0
 11
0.110769438
 21
0.2241226716
 31
0.0
 40
0.6088015717
 41
0.6877230618
 42
2.2527016244
  0
ELLIPSE
  5
556
100
AcDbEntity
  8
268
100
AcDbEllipse
 62
7
  6
CONTINUOUS
 10
-11.4626911928
 20
28.8137030569
 30
0.0
 11
0.110769438
 21
0.2241226716
 31
0.0
 40
0.6088015717
 41
5.394294278
 42
6.9592728406
  0
ELLIPSE
  5
557
100
AcDbEntity
  8
268
100
AcDbEllipse
 62
7
  6
CONTINUOUS
 10
1.9016269716
 20
22.1315439747
 30
0.0
 11
0.110769438
 21
0.2241226716
 31
0.0
 40
0.6088015717
 41
5.394294278
 42
6.9592728406
  0
ELLIPSE
  5
558
100
AcDbEntity
  8
268
100
AcDbEllipse
 62
7
  6
CONTINUOUS
 10
-3.363233178
 20
28.1084099707
 30
0.0
 11
0.2999981629
 21
-0.0021225547
 31
0.0
 40
0.4946372042
 41
-0.7818985079
 42
0.0034997008
  0
ELLIPSE
  5
559
100
AcDbEntity
  8
268
100
AcDbEllipse
 62
7
  6
CONTINUOUS
 10
2.1912303361
 20
25.3311782136
 30
0.0
 11
0.2999981629
 21
-0.0021225547
 31
0.0
 40
0.4946372042
 41
-0.7760807437
 42
0.0035109161
  0
ELLIPSE
  5
55A
100
AcDbEntity
  8
268
100
AcDbEllipse
 62
7
  6
CONTINUOUS
 10
-9.5121789055
 20
26.5102887727
 30
0.0
 11
0.2999991335
 21
0.0014318851
 31
0.0
 40
0.5035541159
 41
8.6427941204
 42
10.207772683
  0
ELLIPSE
  5
55B
100
AcDbEntity
  8
268
100
AcDbEllipse
 62
7
  6
CONTINUOUS
 10
-15.5254698144
 20
26.7132186714
 30
0.0
 11
-0.1565168911
 21
0.3130623908
 31
0.0
 40
0.6123677712
 41
-0.6846781644
 42
0.8861181623
  0
ELLIPSE
  5
55C
100
AcDbEntity
  8
268
100
AcDbEllipse
 62
7
  6
CONTINUOUS
 10
-0.2519633408
 20
19.0764654346
 30
0.0
 11
-0.1565168911
 21
0.3130623908
 31
0.0
 40
0.6123677712
 41
-2.2554744912
 42
-0.6846781644
  0
ELLIPSE
  5
55D
100
AcDbEntity
  8
268
100
AcDbEllipse
 62
7
  6
CONTINUOUS
 10
-3.7196698375
 20
23.6140342387
 30
0.0
 11
0.2999991335
 21
0.0014318851
 31
0.0
 40
0.5035541159
 41
-2.3585979313
 42
-0.7936193687
  0
ELLIPSE
  5
55E
100
AcDbEntity
  8
268
100
AcDbEllipse
 62
7
  6
CONTINUOUS
 10
-3.7196698375
 20
22.3998351628
 30
0.0
 11
0.2999980272
 21
0.0021530184
 31
0.0
 40
0.5053247124
 41
-2.3598210761
 42
-0.7948425135
  0
ELLIPSE
  5
55F
100
AcDbEntity
  8
268
100
AcDbEllipse
 62
7
  6
CONTINUOUS
 10
-9.5121789055
 20
25.2960896969
 30
0.0
 11
0.2999980272
 21
0.0021530184
 31
0.0
 40
0.5053247124
 41
3.1379773283
 42
3.9233642311
  0
ELLIPSE
  5
560
100
AcDbEntity
  8
268
100
AcDbEllipse
 62
7
  6
CONTINUOUS
 10
2.1912303361
 20
26.563012395
 30
0.0
 11
0.2999991737
 21
-0.0014183462
 31
0.0
 40
0.4964289597
 41
-0.77723337
 42
0.7877451926
  0
ELLIPSE
  5
561
100
AcDbEntity
  8
268
100
AcDbEllipse
 62
7
  6
CONTINUOUS
 10
-3.363233178
 20
29.3402441521
 30
0.0
 11
0.2999991737
 21
-0.0014183462
 31
0.0
 40
0.4964289597
 41
-0.7830511342
 42
0.7877451926
  0
ELLIPSE
  5
562
100
AcDbEntity
  8
268
100
AcDbEllipse
 62
7
  6
CONTINUOUS
 10
-0.2258641123
 20
21.0664115905
 30
0.0
 11
0.1128509832
 21
0.2230818409
 31
0.0
 40
0.6159267166
 41
0.6934238338
 42
2.2584023964
  0
ELLIPSE
  5
563
100
AcDbEntity
  8
268
100
AcDbEllipse
 62
7
  6
CONTINUOUS
 10
-0.2258641123
 20
20.8130401968
 30
0.0
 11
0.1128509832
 21
0.2230818409
 31
0.0
 40
0.6159267166
 41
-4.0247829108
 42
-2.9775853596
  0
ELLIPSE
  5
564
100
AcDbEntity
  8
268
100
AcDbEllipse
 62
7
  6
CONTINUOUS
 10
-13.5901822767
 20
27.7485706727
 30
0.0
 11
0.1128509832
 21
0.2230818409
 31
0.0
 40
0.6159267166
 41
0.6934238338
 42
2.2584023964
  0
ELLIPSE
  5
565
100
AcDbEntity
  8
268
100
AcDbEllipse
 62
7
  6
CONTINUOUS
 10
-13.5901822767
 20
27.495199279
 30
0.0
 11
0.1128509832
 21
0.2230818409
 31
0.0
 40
0.6159267166
 41
-4.0247829108
 42
-2.9775853596
  0
ELLIPSE
  5
566
100
AcDbEntity
  8
RACCORDO
100
AcDbEllipse
 62
7
  6
CONTINUOUS
 10
18.0266930968
 20
12.2858304146
 30
0.0
 11
-0.2237009107
 21
0.4473351135
 31
0.0
 40
0.6121897086
 41
-2.2557347926
 42
-0.6846338794
  0
ELLIPSE
  5
567
100
AcDbEntity
  8
RACCORDO
100
AcDbEllipse
 62
7
  6
CONTINUOUS
 10
18.0266930968
 20
-25.6157172919
 30
0.0
 11
-0.2235807756
 21
0.4472283268
 31
0.0
 40
0.6125552124
 41
-3.139671321
 42
-2.255296188
  0
ELLIPSE
  5
568
100
AcDbEntity
  8
RACCORDO
100
AcDbEllipse
 62
7
  6
CONTINUOUS
 10
22.8525407077
 20
-21.0955526379
 30
0.0
 11
0.9987332359
 21
0.6172510855
 31
0.0
 40
0.0815198604
 41
-2.3890806779
 42
-1.1913468732
  0
ELLIPSE
  5
569
100
AcDbEntity
  8
RACCORDO
100
AcDbEllipse
 62
7
  6
CONTINUOUS
 10
22.6179236948
 20
-20.9782441314
 30
0.0
 11
0.4349639225
 21
0.9005141702
 31
0.0
 40
0.6016116119
 41
-1.2499156631
 42
-0.8943064336
  0
ELLIPSE
  5
56A
100
AcDbEntity
  8
RACCORDO
100
AcDbEllipse
 62
7
  6
CONTINUOUS
 10
22.6179236948
 20
15.7850487176
 30
0.0
 11
0.4349639225
 21
0.9005141702
 31
0.0
 40
0.6016116119
 41
-0.8943064336
 42
-0.538697204
  0
ELLIPSE
  5
56B
100
AcDbEntity
  8
RACCORDO
100
AcDbEllipse
 62
7
  6
CONTINUOUS
 10
10.8675008201
 20
21.6602601549
 30
0.0
 11
0.9987332359
 21
0.6172510855
 31
0.0
 40
0.0815198604
 41
0.0505521044
 42
0.7176053907
  0
ELLIPSE
  5
56C
100
AcDbEntity
  8
RACCORDO
100
AcDbEllipse
 62
7
  6
CONTINUOUS
 10
12.0115291317
 20
21.1172245298
 30
0.0
 11
0.2256808774
 21
0.4461742732
 31
0.0
 40
0.6158912572
 41
0.0028657685
 42
0.6875768343
  0
ELLIPSE
  5
56D
100
AcDbEntity
  8
RACCORDO
100
AcDbEllipse
 62
7
  6
CONTINUOUS
 10
15.8683449689
 20
-26.7032131604
 30
0.0
 11
-0.2235807756
 21
0.4472283268
 31
0.0
 40
0.6125552124
 41
2.4567882058
 42
4.0278891191
  0
ELLIPSE
  5
56E
100
AcDbEntity
  8
RACCORDO
100
AcDbEllipse
 62
7
  6
CONTINUOUS
 10
0.8811338105
 20
18.7826393032
 30
0.0
 11
-0.2235807756
 21
0.4472283268
 31
0.0
 40
0.6125552124
 41
-0.6848044477
 42
0.8862964655
  0
ELLIPSE
  5
56F
100
AcDbEntity
  8
RACCORDO
100
AcDbEllipse
 62
7
  6
CONTINUOUS
 10
18.1729784902
 20
18.0364998506
 30
0.0
 11
0.2215594226
 21
0.4482351134
 31
0.0
 40
0.6088373611
 41
5.3943220613
 42
6.9651183881
  0
ELLIPSE
  5
570
100
AcDbEntity
  8
RACCORDO
100
AcDbEllipse
 62
7
  6
CONTINUOUS
 10
15.8683449689
 20
11.289033724
 30
0.0
 11
-0.2237009107
 21
0.4473351135
 31
0.0
 40
0.6121897086
 41
4.0274505145
 42
5.5985514278
  0
ELLIPSE
  5
571
100
AcDbEntity
  8
RACCORDO
100
AcDbEllipse
 62
7
  6
CONTINUOUS
 10
22.8525407077
 20
15.6677402111
 30
0.0
 11
-0.7417913999
 21
1.2002436976
 31
0.0
 40
0.5587454355
 41
5.0176587298
 42
6.2153925345
  0
ELLIPSE
  5
572
100
AcDbEntity
  8
RACCORDO
100
AcDbEllipse
 62
7
  6
CONTINUOUS
 10
12.1951464877
 20
14.5966970038
 30
0.0
 11
0.4999881828
 21
-0.0070264249
 31
0.0
 40
0.4892375088
 41
-2.3493192548
 42
-0.7727633415
  0
ELLIPSE
  5
573
100
AcDbEntity
  8
RACCORDO
100
AcDbEllipse
 62
7
  6
CONTINUOUS
 10
6.6756526352
 20
17.35644393
 30
0.0
 11
0.4999881828
 21
-0.0070264249
 31
0.0
 40
0.4892375088
 41
-3.1347355197
 42
-2.3493192548
  0
ELLIPSE
  5
574
100
AcDbEntity
  8
RACCORDO
100
AcDbEllipse
 62
7
  6
CONTINUOUS
 10
14.0513704903
 20
-22.0156428388
 30
0.0
 11
-0.2713091605
 21
0.4239062184
 31
0.0
 40
0.5451249042
 41
-3.2164578779
 42
-2.3115524019
  0
ELLIPSE
  5
575
100
AcDbEntity
  8
RACCORDO
100
AcDbEllipse
 62
7
  6
CONTINUOUS
 10
-14.5808343404
 20
25.5034965457
 30
0.0
 11
-0.2786191524
 21
0.7501668109
 31
0.0
 40
0.6610921126
 41
-0.3090511146
 42
0.0213201203
  0
ELLIPSE
  5
576
100
AcDbEntity
  8
RACCORDO
100
AcDbEllipse
 62
7
  6
CONTINUOUS
 10
12.5007426341
 20
-27.4087318835
 30
0.0
 11
-0.2786191524
 21
0.7501668109
 31
0.0
 40
0.6610921126
 41
-3.1630638698
 42
-2.1868166574
  0
ELLIPSE
  5
577
100
AcDbEntity
  8
RACCORDO
100
AcDbEllipse
 62
7
  6
CONTINUOUS
 10
15.6124528767
 20
10.4068529371
 30
0.0
 11
-0.2783604326
 21
0.7500177284
 31
0.0
 40
0.6614719787
 41
-2.1862531203
 42
-0.61576138
  0
ENDSEC
  0
SECTION
  2
OBJECTS
  0
DICTIONARY
  5
C
100
AcDbDictionary
280
0
281
1
  3
ACAD_GROUP
350
D
  3
ACAD_MLINESTYLE
350
17
  3
ACAD_LAYOUT
350
1A
  3
ACAD_PLOTSETTINGS
350
19
  3
ACAD_PLOTSTYLENAME
350
E
  0
DICTIONARY
  5
D
102
{ACAD_REACTORS
330
C
102
}
100
AcDbDictionary
280
0
281
1
  0
ACDBDICTIONARYWDFLT
  5
E
102
{ACAD_REACTORS
330
C
102
}
100
AcDbDictionary
281
1
  3
Normal
350
F
100
AcDbDictionaryWithDefault
340
F
  0
DICTIONARY
  5
17
102
{ACAD_REACTORS
330
C
102
}
100
AcDbDictionary
280
0
281
1
  3
Standard
350
18
  0
DICTIONARY
  5
19
102
{ACAD_REACTORS
330
C
102
}
100
AcDbDictionary
281
1
  0
DICTIONARY
  5
1A
102
{ACAD_REACTORS
330
C
102
}
100
AcDbDictionary
281
1
  3
Model
350
578
  3
Layout1
350
579
  0
ACDBPLACEHOLDER
  5
F
102
{ACAD_REACTORS
330
E
102
}
  0
MLINESTYLE
  5
18
102
{ACAD_REACTORS
330
17
102
}
100
AcDbMlineStyle
  2
STANDARD
 70
0
  3

 62
256
 51
90.0
 52
90.0
 71
2
 49
0.5
 62
256
  6
BYLAYER
 49
-0.5
 62
256
  6
BYLAYER
  0
LAYOUT
  5
578
102
{ACAD_REACTORS
330
1A
102
}
100
AcDbPlotSettings
  1

  2
none_device
  4
ISO_A4_(297.00_x_210.00_MM)
  6

 40
0.0
 41
0.0
 42
0.0
 43
0.0
 44
297.0
 45
210.0
 46
0.0
 47
0.0
 48
0.0
 49
0.0
140
0.0
141
0.0
142
1.0
143
1.0
 70
1024
 72
1
 73
0
 74
0
  7

 75
0
147
1.0
148
0.0
149
0.0
100
AcDbLayout
  1
Model
 70
0
 71
0
 10
0.0
 20
0.0
 11
297.0
 21
210.0
 12
0.0
 22
0.0
 32
0.0
 14
0.0
 24
0.0
 34
0.0
 15
0.0
 25
0.0
 35
0.0
146
0.0
 13
0.0
 23
0.0
 33
0.0
 16
1.0
 26
0.0
 36
0.0
 17
0.0
 27
1.0
 37
0.0
 76
0
330
22D
345
0
346
0
  0
LAYOUT
  5
579
102
{ACAD_REACTORS
330
1A
102
}
100
AcDbPlotSettings
  1

  2
none_device
  4
ISO_A4_(297.00_x_210.00_MM)
  6

 40
0.0
 41
0.0
 42
0.0
 43
0.0
 44
297.0
 45
210.0
 46
0.0
 47
0.0
 48
0.0
 49
0.0
140
0.0
141
0.0
142
1.0
143
1.0
 70
0
 72
1
 73
0
 74
0
  7

 75
0
147
1.0
148
0.0
149
0.0
100
AcDbLayout
  1
Layout1
 70
0
 71
1
 10
0.0
 20
0.0
 11
297.0
 21
210.0
 12
0.0
 22
0.0
 32
0.0
 14
0.0
 24
0.0
 34
0.0
 15
0.0
 25
0.0
 35
0.0
146
0.0
 13
0.0
 23
0.0
 33
0.0
 16
1.0
 26
0.0
 36
0.0
 17
0.0
 27
1.0
 37
0.0
 76
0
330
22E
345
0
346
0
  0
ENDSEC
  0
EOF
