  0
SECTION
  2
HEADER
  9
$ACADVER
  1
AC1024
  9
$DWGCODEPAGE
  3
ANSI_1252
  9
$EXTMAX
 10
297.0
 20
210.0
 30
0.0
  9
$EXTMIN
 10
0.0
 20
0.0
 30
0.0
  9
$LIMMIN
 10
0.0
 20
0.0
  9
$LIMMAX
 10
297.0
 20
210.0
  9
$VIEWCTR
 10
148.5
 20
105.0
  9
$VIEWSIZE
 40
210.0
  9
$CLAYER
  8
0
  9
$LTSCALE
 40
16.335
  9
$CELTYPE
  6
BYLAYER
  9
$DIMSCALE
 40
1.0
  9
$DIMASZ
 40
3.0
  9
$DIMEXO
 40
0.5
  9
$DIMDLI
 40
11.286
  9
$DIMEXE
 40
1.5
  9
$DIMCEN
 40
2.673
  9
$DIMLFAC
 40
1.0
  9
$DIMBLK
  1
_FILLED
  9
$DIMALT
 70
0
  9
$DIMALTF
 40
0.0393700787
  9
$DIMTXT
 40
3.0
  9
$DIMTOL
 70
1
  9
$DIMLIM
 70
0
  9
$DIMTFAC
 40
1.0
  9
$DIMTP
 40
0.01
  9
$DIMTM
 40
0.01
  9
$DIMGAP
 40
0.625
  9
$DIMDSEP
 70
44
  9
$AUNITS
 70
0
  9
$PDMODE
 70
3
  9
$PDSIZE
 40
3.0
  9
$HANDSEED
  5
640
  9
$TILEMODE
 70
1
  9
$MEASUREMENT
 70
1
  9
$INSUNITS
 70
4
  0
ENDSEC
  0
SECTION
  2
CLASSES
  0
CLASS
  1
ACDBDICTIONARYWDFLT
  2
AcDbDictionaryWithDefault
  3
AutoCAD 2000
 90
0
 91
1
280
0
281
0
  0
CLASS
  1
ACDBPLACEHOLDER
  2
AcDbPlaceHolder
  3
AutoCAD 2000
 90
0
 91
1
280
0
281
0
  0
CLASS
  1
LAYOUT
  2
AcDbLayout
  3
AutoCAD 2000
 90
0
 91
0
280
0
281
0
  0
ENDSEC
  0
SECTION
  2
TABLES
  0
TABLE
  2
VPORT
  5
8
100
AcDbSymbolTable
 70
2
  0
VPORT
  5
1F4
100
AcDbSymbolTableRecord
100
AcDbViewportTableRecord
  2
*ACTIVE
 70
0
 10
0.0
 20
0.0
 11
1.0
 21
1.0
 12
148.5
 22
105.0
 13
0.0
 23
0.0
 14
1.0
 24
1.0
 15
0.0
 25
0.0
 16
0.0
 26
0.0
 36
1.0
 17
0.0
 27
0.0
 37
0.0
 40
210.0
 41
1.4142857143
 42
50.0
 43
0.0
 44
0.0
 50
0.0
 51
0.0
 71
0
 72
100
 73
1
 74
1
 75
0
 76
0
 77
0
 78
0
  0
ENDTAB
  0
TABLE
  2
LTYPE
  5
5
100
AcDbSymbolTable
 70
6
  0
LTYPE
  5
14
100
AcDbSymbolTableRecord
100
AcDbLinetypeTableRecord
  2
BYBLOCK
 70
0
  3

 72
65
 73
0
 40
0.0
  0
LTYPE
  5
15
100
AcDbSymbolTableRecord
100
AcDbLinetypeTableRecord
  2
BYLAYER
 70
0
  3

 72
65
 73
0
 40
0.0
  0
LTYPE
  5
16
100
AcDbSymbolTableRecord
100
AcDbLinetypeTableRecord
  2
CONTINUOUS
 70
64
  3
Solid line
 72
65
 73
0
 40
0.0
  0
LTYPE
  5
1F5
100
AcDbSymbolTableRecord
100
AcDbLinetypeTableRecord
  2
CENTER
 70
64
  3
____ _ ____ _ ____ _ ____ _ ____ _ ____ _ ____
 72
65
 73
4
 40
0.6
 49
0.375
 74
0
 49
-0.075
 74
0
 49
0.075
 74
0
 49
-0.075
 74
0
  0
LTYPE
  5
1F6
100
AcDbSymbolTableRecord
100
AcDbLinetypeTableRecord
  2
HIDDEN
 70
64
  3
- - - - - - - - - - - - - - - - - - - -
 72
65
 73
2
 40
0.2
 49
0.1
 74
0
 49
-0.1
 74
0
  0
LTYPE
  5
1F7
100
AcDbSymbolTableRecord
100
AcDbLinetypeTableRecord
  2
PHANTOM
 70
64
  3
_____ _ _ _____ _ _ _____ _ _ _____
 72
65
 73
6
 40
0.8
 49
0.45
 74
0
 49
-0.05
 74
0
 49
0.1
 74
0
 49
-0.05
 74
0
 49
0.1
 74
0
 49
-0.05
 74
0
  0
LTYPE
  5
1F8
100
AcDbSymbolTableRecord
100
AcDbLinetypeTableRecord
  2
DOT
 70
64
  3
. . . . . . . . . . . . . . . . . . . .
 72
65
 73
2
 40
0.2
 49
0.1
 74
0
 49
-0.1
 74
0
  0
LTYPE
  5
1F9
100
AcDbSymbolTableRecord
100
AcDbLinetypeTableRecord
  2
DASHED
 70
64
  3
- - - - - - - - - - - - - - - - - - - -
 72
65
 73
2
 40
0.2
 49
0.1
 74
0
 49
-0.1
 74
0
  0
ENDTAB
  0
TABLE
  2
LAYER
  5
2
100
AcDbSymbolTable
 70
36
  0
LAYER
  5
10
100
AcDbSymbolTableRecord
100
AcDbLayerTableRecord
  2
0
 70
0
 62
7
  6
CONTINUOUS
370
-3
390
F
  0
LAYER
  5
1FA
100
AcDbSymbolTableRecord
100
AcDbLayerTableRecord
  2
DEFAULT_1
 70
0
 62
7
  6
CENTER
370
-3
390
F
  0
LAYER
  5
1FB
100
AcDbSymbolTableRecord
100
AcDbLayerTableRecord
  2
DEFAULT_2
 70
0
 62
7
  6
HIDDEN
370
-3
390
F
  0
LAYER
  5
1FC
100
AcDbSymbolTableRecord
100
AcDbLayerTableRecord
  2
DEFAULT_3
 70
0
 62
7
  6
PHANTOM
370
-3
390
F
  0
LAYER
  5
1FD
100
AcDbSymbolTableRecord
100
AcDbLayerTableRecord
  2
218140000
 70
0
 62
7
  6
CONTINUOUS
370
-3
390
F
  0
LAYER
  5
1FE
100
AcDbSymbolTableRecord
100
AcDbLayerTableRecord
  2
218140080
 70
0
 62
7
  6
CONTINUOUS
370
-3
390
F
  0
LAYER
  5
1FF
100
AcDbSymbolTableRecord
100
AcDbLayerTableRecord
  2
260
 70
0
 62
7
  6
CONTINUOUS
370
-3
390
F
  0
LAYER
  5
200
100
AcDbSymbolTableRecord
100
AcDbLayerTableRecord
  2
268
 70
0
 62
7
  6
CONTINUOUS
370
-3
390
F
  0
LAYER
  5
201
100
AcDbSymbolTableRecord
100
AcDbLayerTableRecord
  2
284
 70
0
 62
7
  6
CONTINUOUS
370
-3
390
F
  0
LAYER
  5
202
100
AcDbSymbolTableRecord
100
AcDbLayerTableRecord
  2
290
 70
0
 62
7
  6
CONTINUOUS
370
-3
390
F
  0
LAYER
  5
203
100
AcDbSymbolTableRecord
100
AcDbLayerTableRecord
  2
320
 70
0
 62
7
  6
CONTINUOUS
370
-3
390
F
  0
LAYER
  5
204
100
AcDbSymbolTableRecord
100
AcDbLayerTableRecord
  2
340
 70
0
 62
7
  6
CONTINUOUS
370
-3
390
F
  0
LAYER
  5
205
100
AcDbSymbolTableRecord
100
AcDbLayerTableRecord
  2
712
 70
0
 62
7
  6
CONTINUOUS
370
-3
390
F
  0
LAYER
  5
206
100
AcDbSymbolTableRecord
100
AcDbLayerTableRecord
  2
715
 70
0
 62
7
  6
CONTINUOUS
370
-3
390
F
  0
LAYER
  5
207
100
AcDbSymbolTableRecord
100
AcDbLayerTableRecord
  2
ASSI
 70
0
 62
7
  6
CONTINUOUS
370
-3
390
F
  0
LAYER
  5
208
100
AcDbSymbolTableRecord
100
AcDbLayerTableRecord
  2
COLORE_TOP
 70
0
 62
7
  6
CONTINUOUS
370
-3
390
F
  0
LAYER
  5
209
100
AcDbSymbolTableRecord
100
AcDbLayerTableRecord
  2
COORDINATE
 70
0
 62
7
  6
CONTINUOUS
370
-3
390
F
  0
LAYER
  5
20A
100
AcDbSymbolTableRecord
100
AcDbLayerTableRecord
  2
COORD_ORIGINE
 70
0
 62
7
  6
CONTINUOUS
370
-3
390
F
  0
LAYER
  5
20B
100
AcDbSymbolTableRecord
100
AcDbLayerTableRecord
  2
COPY_PUBLISH
 70
0
 62
7
  6
CONTINUOUS
370
-3
390
F
  0
LAYER
  5
20C
100
AcDbSymbolTableRecord
100
AcDbLayerTableRecord
  2
COSMETIC
 70
0
 62
7
  6
CONTINUOUS
370
-3
390
F
  0
LAYER
  5
20D
100
AcDbSymbolTableRecord
100
AcDbLayerTableRecord
  2
COSMETICHE
 70
0
 62
7
  6
CONTINUOUS
370
-3
390
F
  0
LAYER
  5
20E
100
AcDbSymbolTableRecord
100
AcDbLayerTableRecord
  2
COSMETICI
 70
0
 62
7
  6
CONTINUOUS
370
-3
390
F
  0
LAYER
  5
20F
100
AcDbSymbolTableRecord
100
AcDbLayerTableRecord
  2
CURVE
 70
0
 62
7
  6
CONTINUOUS
370
-3
390
F
  0
LAYER
  5
210
100
AcDbSymbolTableRecord
100
AcDbLayerTableRecord
  2
DRAFT
 70
0
 62
7
  6
CONTINUOUS
370
-3
390
F
  0
LAYER
  5
211
100
AcDbSymbolTableRecord
100
AcDbLayerTableRecord
  2
IGS
 70
0
 62
7
  6
CONTINUOUS
370
-3
390
F
  0
LAYER
  5
212
100
AcDbSymbolTableRecord
100
AcDbLayerTableRecord
  2
IMPORT
 70
0
 62
7
  6
CONTINUOUS
370
-3
390
F
  0
LAYER
  5
213
100
AcDbSymbolTableRecord
100
AcDbLayerTableRecord
  2
IMPORTED
 70
0
 62
7
  6
CONTINUOUS
370
-3
390
F
  0
LAYER
  5
214
100
AcDbSymbolTableRecord
100
AcDbLayerTableRecord
  2
IMPORT_IGES
 70
0
 62
7
  6
CONTINUOUS
370
-3
390
F
  0
LAYER
  5
215
100
AcDbSymbolTableRecord
100
AcDbLayerTableRecord
  2
INCISIONI_LASER
 70
0
 62
7
  6
CONTINUOUS
370
-3
390
F
  0
LAYER
  5
216
100
AcDbSymbolTableRecord
100
AcDbLayerTableRecord
  2
INTF_1
 70
0
 62
7
  6
CONTINUOUS
370
-3
390
F
  0
LAYER
  5
217
100
AcDbSymbolTableRecord
100
AcDbLayerTableRecord
  2
INTF_11
 70
0
 62
7
  6
CONTINUOUS
370
-3
390
F
  0
LAYER
  5
218
100
AcDbSymbolTableRecord
100
AcDbLayerTableRecord
  2
INTF_12
 70
0
 62
7
  6
CONTINUOUS
370
-3
390
F
  0
LAYER
  5
219
100
AcDbSymbolTableRecord
100
AcDbLayerTableRecord
  2
INTF_13
 70
0
 62
7
  6
CONTINUOUS
370
-3
390
F
  0
LAYER
  5
21A
100
AcDbSymbolTableRecord
100
AcDbLayerTableRecord
  2
INTF_2
 70
0
 62
7
  6
CONTINUOUS
370
-3
390
F
  0
LAYER
  5
21B
100
AcDbSymbolTableRecord
100
AcDbLayerTableRecord
  2
INTF_6
 70
0
 62
7
  6
CONTINUOUS
370
-3
390
F
  0
LAYER
  5
21C
100
AcDbSymbolTableRecord
100
AcDbLayerTableRecord
  2
INTF_YELLOW
 70
0
 62
7
  6
CONTINUOUS
370
-3
390
F
  0
LAYER
  5
21D
100
AcDbSymbolTableRecord
100
AcDbLayerTableRecord
  2
NOTE
 70
0
 62
7
  6
CONTINUOUS
370
-3
390
F
  0
LAYER
  5
21E
100
AcDbSymbolTableRecord
100
AcDbLayerTableRecord
  2
PIANI
 70
0
 62
7
  6
CONTINUOUS
370
-3
390
F
  0
LAYER
  5
21F
100
AcDbSymbolTableRecord
100
AcDbLayerTableRecord
  2
PIANI_DI_RIFERIMENTO
 70
0
 62
7
  6
CONTINUOUS
370
-3
390
F
  0
LAYER
  5
220
100
AcDbSymbolTableRecord
100
AcDbLayerTableRecord
  2
PIANI_ORIGINE
 70
0
 62
7
  6
CONTINUOUS
370
-3
390
F
  0
LAYER
  5
221
100
AcDbSymbolTableRecord
100
AcDbLayerTableRecord
  2
PIANI_RIFERIMENTO
 70
0
 62
7
  6
CONTINUOUS
370
-3
390
F
  0
LAYER
  5
222
100
AcDbSymbolTableRecord
100
AcDbLayerTableRecord
  2
PIANI_SFORMO
 70
0
 62
7
  6
CONTINUOUS
370
-3
390
F
  0
LAYER
  5
223
100
AcDbSymbolTableRecord
100
AcDbLayerTableRecord
  2
PUNTI
 70
0
 62
7
  6
CONTINUOUS
370
-3
390
F
  0
LAYER
  5
224
100
AcDbSymbolTableRecord
100
AcDbLayerTableRecord
  2
RACCORDO
 70
0
 62
7
  6
CONTINUOUS
370
-3
390
F
  0
LAYER
  5
225
100
AcDbSymbolTableRecord
100
AcDbLayerTableRecord
  2
RGB__255__255__255__
 70
0
 62
7
  6
CONTINUOUS
370
-3
390
F
  0
LAYER
  5
226
100
AcDbSymbolTableRecord
100
AcDbLayerTableRecord
  2
RINTRACCIABILITA
 70
0
 62
7
  6
CONTINUOUS
370
-3
390
F
  0
LAYER
  5
227
100
AcDbSymbolTableRecord
100
AcDbLayerTableRecord
  2
SIMBOLI
 70
0
 62
7
  6
CONTINUOUS
370
-3
390
F
  0
LAYER
  5
228
100
AcDbSymbolTableRecord
100
AcDbLayerTableRecord
  2
SMUSSO
 70
0
 62
7
  6
CONTINUOUS
370
-3
390
F
  0
LAYER
  5
229
100
AcDbSymbolTableRecord
100
AcDbLayerTableRecord
  2
SNAPLINE
 70
0
 62
7
  6
CONTINUOUS
370
-3
390
F
  0
LAYER
  5
22A
100
AcDbSymbolTableRecord
100
AcDbLayerTableRecord
  2
SUPERFICI
 70
0
 62
7
  6
CONTINUOUS
370
-3
390
F
  0
LAYER
  5
22B
100
AcDbSymbolTableRecord
100
AcDbLayerTableRecord
  2
TRASH
 70
0
 62
7
  6
CONTINUOUS
370
-3
390
F
  0
LAYER
  5
22C
100
AcDbSymbolTableRecord
100
AcDbLayerTableRecord
  2
WHITE
 70
0
 62
7
  6
CONTINUOUS
370
-3
390
F
  0
LAYER
  5
22D
100
AcDbSymbolTableRecord
100
AcDbLayerTableRecord
  2
XSEC_DATUMS
 70
0
 62
7
  6
CONTINUOUS
370
-3
390
F
  0
ENDTAB
  0
TABLE
  2
STYLE
  5
3
100
AcDbSymbolTable
 70
1
  0
STYLE
  5
11
100
AcDbSymbolTableRecord
100
AcDbTextStyleTableRecord
  2
STANDARD
 70
0
 40
0.0
 41
0.8
 50
0.0
 71
0
 42
0.2
  3
txt
  4

  0
STYLE
  5
22E
100
AcDbSymbolTableRecord
100
AcDbTextStyleTableRecord
  2
TEXTSTYLE_1
 70
0
 40
0.0
 41
0.8
 50
0.0
 71
0
 42
0.2
  3
gdt
  4

  0
ENDTAB
  0
TABLE
  2
VIEW
  5
6
100
AcDbSymbolTable
 70
0
  0
ENDTAB
  0
TABLE
  2
UCS
  5
7
100
AcDbSymbolTable
 70
0
  0
ENDTAB
  0
TABLE
  2
APPID
  5
9
100
AcDbSymbolTable
 70
1
  0
APPID
  5
22F
100
AcDbSymbolTableRecord
100
AcDbRegAppTableRecord
  2
ACAD
 70
0
  0
ENDTAB
  0
TABLE
  2
BLOCK_RECORD
  5
1
100
AcDbSymbolTable
 70
0
  0
BLOCK_RECORD
  5
230
100
AcDbSymbolTableRecord
100
AcDbBlockTableRecord
  2
*Model_Space
  0
BLOCK_RECORD
  5
231
100
AcDbSymbolTableRecord
100
AcDbBlockTableRecord
  2
*Paper_Space
  0
BLOCK_RECORD
  5
232
100
AcDbSymbolTableRecord
100
AcDbBlockTableRecord
  2
_FILLED
  0
ENDTAB
  0
TABLE
  2
DIMSTYLE
  5
A
100
AcDbSymbolTable
 70
1
100
AcDbDimStyleTable
 71
0
  0
DIMSTYLE
105
233
100
AcDbSymbolTableRecord
100
AcDbDimStyleTableRecord
  2
STANDARD
 70
0
  3

  4

 40
1.0
 41
3.0
 42
0.5
 43
0.38
 44
1.5
 45
0.0
 46
0.0
 47
0.01
 48
0.01
140
3.0
141
0.09
142
0.0
143
25.4
144
1.0
145
0.0
146
1.0
147
0.625
 71
1
 72
0
 73
0
 74
0
 75
0
 76
0
 77
1
 78
8
 79
2
170
0
171
1
172
0
173
0
174
0
175
0
176
0
177
0
178
0
270
2
179
2
271
2
272
2
273
2
274
2
275
0
280
0
281
0
282
0
283
1
284
8
285
0
286
0
287
3
288
0
340
11
278
44
341
232
342
232
343
232
344
232
  0
ENDTAB
  0
ENDSEC
  0
SECTION
  2
BLOCKS
  0
BLOCK
  5
20
100
AcDbEntity
  8
0
100
AcDbBlockBegin
  2
*Model_Space
 70
0
 10
0.0
 20
0.0
 30
0.0
  3
*Model_Space
  1

  0
ENDBLK
  5
21
100
AcDbEntity
  8
0
100
AcDbBlockEnd
  0
BLOCK
  5
1C
100
AcDbEntity
  8
0
100
AcDbBlockBegin
  2
*Paper_Space
 70
0
 10
0.0
 20
0.0
 30
0.0
  3
*Paper_Space
  1

  0
ENDBLK
  5
1D
100
AcDbEntity
  8
0
100
AcDbBlockEnd
  0
BLOCK
  5
234
100
AcDbEntity
  8
0
100
AcDbBlockBegin
  2
_FILLED
 70
64
 10
0.0
 20
0.0
  3
_FILLED
  1

  0
SOLID
  5
235
100
AcDbEntity
  8
0
  6
BYBLOCK
 62
0
100
AcDbTrace
 10
0.0
 20
0.0
 11
-1.0
 21
0.3166666667
 12
-1.0
 22
-0.3166666667
 13
-1.0
 23
-0.3166666667
  0
ENDBLK
  5
236
100
AcDbEntity
  8
0
  6
BYBLOCK
 62
0
100
AcDbBlockEnd
  0
ENDSEC
  0
SECTION
  2
ENTITIES
  0
LINE
  5
237
100
AcDbEntity
  8
268
100
AcDbLine
 62
7
  6
CONTINUOUS
 10
-13.7739582615
 20
28.3051510744
 11
-12.1912016584
 21
29.1171351717
  0
LINE
  5
238
100
AcDbEntity
  8
268
100
AcDbLine
 62
7
  6
CONTINUOUS
 10
-12.1912016584
 20
29.1171351717
 11
-11.6567517797
 21
29.3774826383
  0
LWPOLYLINE
  5
239
100
AcDbEntity
  8
290
100
AcDbPolyline
 62
250
  6
CONTINUOUS
 90
27
 70
0
 10
-17.2784030522
 20
23.7193855559
 10
-17.3220366431
 20
23.6796781958
 10
-17.3655814103
 20
23.6374058973
 10
-17.4089304294
 20
23.5925633883
 10
-17.4519556563
 20
23.5451703162
 10
-17.4942753653
 20
23.4955638472
 10
-17.5357847716
 20
23.4438047201
 10
-17.5763679139
 20
23.3899724925
 10
-17.615666282
 20
23.3345129188
 10
-17.6535951058
 20
23.2775448371
 10
-17.690072283
 20
23.219189182
 10
-17.7248009189
 20
23.1599579483
 10
-17.7577337452
 20
23.100006611
 10
-17.7888366464
 20
23.039473029
 10
-17.8179009673
 20
22.9788813699
 10
-17.8449284487
 20
22.9183937715
 10
-17.8699366101
 20
22.8581421117
 10
-17.8928113099
 20
22.7986185467
 10
-17.9136056541
 20
22.7399623576
 10
-17.9323838085
 20
22.6822831828
 10
-17.9491148497
 20
22.6260216542
 10
-17.9638972057
 20
22.571273041
 10
-17.9768323215
 20
22.5181157633
 10
-17.9879534998
 20
22.4669444351
 10
-17.9973710377
 20
22.4179173719
 10
-18.0052413621
 20
22.3709603355
 10
-18.0116930693
 20
22.3260965846
  0
LINE
  5
23A
100
AcDbEntity
  8
268
100
AcDbLine
 62
7
  6
CONTINUOUS
 10
-14.2579133739
 20
26.5624506724
 11
-13.2456910898
 21
27.079380635
  0
LINE
  5
23B
100
AcDbEntity
  8
268
100
AcDbLine
 62
250
  6
CONTINUOUS
 10
-14.1003899676
 20
26.5530173428
 11
-13.2456910898
 21
26.9895019627
  0
LINE
  5
23C
100
AcDbEntity
  8
268
100
AcDbLine
 62
7
  6
CONTINUOUS
 10
-10.5648560616
 20
26.5719115658
 11
-11.6316869738
 21
26.0333303163
  0
LINE
  5
23D
100
AcDbEntity
  8
268
100
AcDbLine
 62
7
  6
CONTINUOUS
 10
-12.1661368525
 20
27.5012403699
 11
-10.5648560616
 21
28.3039623734
  0
LINE
  5
23E
100
AcDbEntity
  8
268
100
AcDbLine
 62
7
  6
CONTINUOUS
 10
-10.5648560616
 20
28.3039623734
 11
-10.0365888899
 21
28.5674011934
  0
LWPOLYLINE
  5
23F
100
AcDbEntity
  8
290
100
AcDbPolyline
 62
7
  6
CONTINUOUS
 90
11
 70
0
 10
-17.2354001021
 20
23.9962942845
 10
-17.3024421071
 20
23.9666117501
 10
-17.4592759344
 20
23.8788011655
 10
-17.6093369614
 20
23.7678333851
 10
-17.7499218441
 20
23.6351809754
 10
-17.8761206324
 20
23.4859583542
 10
-17.9880343121
 20
23.3207290228
 10
-18.0842913938
 20
23.1406890867
 10
-18.1603626542
 20
22.9542757017
 10
-18.2154542439
 20
22.765350785
 10
-18.2475999424
 20
22.589917085
  0
LWPOLYLINE
  5
240
100
AcDbEntity
  8
290
100
AcDbPolyline
 62
250
  6
CONTINUOUS
 90
11
 70
0
 10
-16.882700418
 20
23.970893411
 10
-16.9167707732
 20
23.9565704823
 10
-16.9522916829
 20
23.9401820485
 10
-16.9892275427
 20
23.9215704473
 10
-17.027615082
 20
23.9005301529
 10
-17.0673153667
 20
23.8769443066
 10
-17.1080150759
 20
23.8508235625
 10
-17.1496387717
 20
23.8220502467
 10
-17.1920978665
 20
23.7905143436
 10
-17.2350510745
 20
23.7563151131
 10
-17.2784030522
 20
23.7193855559
  0
LINE
  5
241
100
AcDbEntity
  8
290
100
AcDbLine
 62
7
  6
CONTINUOUS
 10
-13.3189319403
 20
25.5972278937
 11
-17.2354000986
 21
23.9962942759
  0
LINE
  5
242
100
AcDbEntity
  8
290
100
AcDbLine
 62
250
  6
CONTINUOUS
 10
-12.9705361459
 20
25.570066869
 11
-16.882700418
 21
23.970893411
  0
LWPOLYLINE
  5
243
100
AcDbEntity
  8
268
100
AcDbPolyline
 62
7
  6
CONTINUOUS
 90
3
 70
0
 10
-2.5822824263
 20
29.7923224616
 10
-2.594847446
 20
29.7876234107
 10
-2.6007301646
 20
29.7848651188
  0
LWPOLYLINE
  5
244
100
AcDbEntity
  8
268
100
AcDbPolyline
 62
7
  6
CONTINUOUS
 90
10
 70
0
 10
-2.5822824263
 20
29.7923224616
 10
-2.5730428054
 20
29.7950682605
 10
-2.5644796516
 20
29.797333979
 10
-2.5565929647
 20
29.7991196171
 10
-2.5493436064
 20
29.8004460217
 10
-2.5427707151
 20
29.8012923458
 10
-2.5369917057
 20
29.8015960486
 10
-2.5320107485
 20
29.8013567128
 10
-2.5278236733
 20
29.8005747556
 10
-2.5252339922
 20
29.7995783224
  0
LWPOLYLINE
  5
245
100
AcDbEntity
  8
268
100
AcDbPolyline
 62
7
  6
CONTINUOUS
 90
12
 70
0
 10
-2.6007301646
 20
29.7848651188
 10
-2.6070169561
 20
29.7815087453
 10
-2.6188713826
 20
29.7740044721
 10
-2.6305265626
 20
29.7651319608
 10
-2.6420221575
 20
29.7549468503
 10
-2.6533134552
 20
29.7435157779
 10
-2.6644585216
 20
29.7308687517
 10
-2.675525401
 20
29.7170392156
 10
-2.6864715201
 20
29.7020697168
 10
-2.6973188213
 20
29.6859867896
 10
-2.70815725
 20
29.6688185353
 10
-2.719041618
 20
29.6505999038
  0
LINE
  5
246
100
AcDbEntity
  8
268
100
AcDbLine
 62
7
  6
CONTINUOUS
 10
-8.3004616302
 20
26.1524053759
 11
-7.807139615
 21
26.4054889078
  0
LINE
  5
247
100
AcDbEntity
  8
268
100
AcDbLine
 62
7
  6
CONTINUOUS
 10
-9.1090750851
 20
26.5435701695
 11
-2.6010384584
 21
29.7847117751
  0
LINE
  5
248
100
AcDbEntity
  8
268
100
AcDbLine
 62
250
  6
CONTINUOUS
 10
-9.0335819446
 20
26.5058235993
 11
-2.719041618
 21
29.6505999038
  0
LINE
  5
249
100
AcDbEntity
  8
268
100
AcDbLine
 62
7
  6
CONTINUOUS
 10
-1.7260212968
 20
28.770856373
 11
-6.4636367307
 21
26.4358058584
  0
LINE
  5
24A
100
AcDbEntity
  8
268
100
AcDbLine
 62
7
  6
CONTINUOUS
 10
-2.1502853655
 20
27.3314247708
 11
-1.7260212968
 21
27.5390221916
  0
LINE
  5
24B
100
AcDbEntity
  8
268
100
AcDbLine
 62
7
  6
CONTINUOUS
 10
-7.807139615
 20
26.4054889078
 11
-2.3294996255
 21
29.073820871
  0
LINE
  5
24C
100
AcDbEntity
  8
218140000
100
AcDbLine
 62
7
  6
CONTINUOUS
 10
-2.5857979296
 20
26.0254637126
 11
-2.6608370398
 21
26.0025361475
  0
LINE
  5
24D
100
AcDbEntity
  8
218140080
100
AcDbLine
 62
7
  6
CONTINUOUS
 10
-2.5857979296
 20
26.0254637126
 11
-2.6608370398
 21
26.0025361475
  0
LWPOLYLINE
  5
24E
100
AcDbEntity
  8
218140000
100
AcDbPolyline
 62
7
  6
CONTINUOUS
 90
6
 70
0
 10
-2.7306776296
 20
25.9764350103
 10
-2.717449355
 20
25.9803770353
 10
-2.7016657349
 20
25.9817156707
 10
-2.6850284023
 20
25.9798218455
 10
-2.6678398012
 20
25.9747206366
 10
-2.6504051787
 20
25.9664950165
  0
LWPOLYLINE
  5
24F
100
AcDbEntity
  8
218140080
100
AcDbPolyline
 62
7
  6
CONTINUOUS
 90
6
 70
0
 10
-2.7306776296
 20
25.9764350103
 10
-2.717449355
 20
25.9803770353
 10
-2.7016657349
 20
25.9817156707
 10
-2.6850284023
 20
25.9798218455
 10
-2.6678398012
 20
25.9747206366
 10
-2.6504051787
 20
25.9664950165
  0
LWPOLYLINE
  5
250
100
AcDbEntity
  8
284
100
AcDbPolyline
 62
250
  6
CONTINUOUS
 90
9
 70
0
 10
17.6453221936
 20
-27.5554824052
 10
17.6711532742
 20
-27.5563814207
 10
17.6970737543
 20
-27.5558762753
 10
17.7228983436
 20
-27.5539816822
 10
17.748364282
 20
-27.5507014285
 10
17.7731748668
 20
-27.5460599156
 10
17.7970925343
 20
-27.5401038625
 10
17.8198560879
 20
-27.5328816402
 10
17.8411883019
 20
-27.5244498688
  0
LINE
  5
251
100
AcDbEntity
  8
268
100
AcDbLine
 62
7
  6
CONTINUOUS
 10
-9.9497372266
 20
27.9464036067
 11
-10.4769819423
 21
27.3046958787
  0
LINE
  5
252
100
AcDbEntity
  8
268
100
AcDbLine
 62
7
  6
CONTINUOUS
 10
-0.3989474684
 20
27.3009821395
 11
-1.7967319749
 21
26.6020898862
  0
LINE
  5
253
100
AcDbEntity
  8
268
100
AcDbLine
 62
7
  6
CONTINUOUS
 10
0.260048283
 20
28.1610549533
 11
-1.7967319749
 21
27.1546480755
  0
LINE
  5
254
100
AcDbEntity
  8
218140000
100
AcDbLine
 62
7
  6
CONTINUOUS
 10
-2.7339391852
 20
25.9749941032
 11
-2.8720539873
 21
25.9097570179
  0
LINE
  5
255
100
AcDbEntity
  8
218140080
100
AcDbLine
 62
7
  6
CONTINUOUS
 10
-2.7339391852
 20
25.9749941032
 11
-2.8720539873
 21
25.9097570179
  0
LINE
  5
256
100
AcDbEntity
  8
218140000
100
AcDbLine
 62
250
  6
CONTINUOUS
 10
-2.6504051787
 20
25.9664950165
 11
-2.7866814678
 21
25.9021263337
  0
LINE
  5
257
100
AcDbEntity
  8
218140080
100
AcDbLine
 62
250
  6
CONTINUOUS
 10
-2.6504051787
 20
25.9664950165
 11
-2.7866814678
 21
25.9021263337
  0
LWPOLYLINE
  5
258
100
AcDbEntity
  8
218140000
100
AcDbPolyline
 62
250
  6
CONTINUOUS
 90
11
 70
0
 10
-1.8169390557
 20
26.0203149897
 10
-1.8078465952
 20
26.0244054408
 10
-1.798787921
 20
26.027762226
 10
-1.7898007994
 20
26.0303691981
 10
-1.7809196117
 20
26.0322138023
 10
-1.7721851473
 20
26.0332849479
 10
-1.7636437989
 20
26.0335759619
 10
-1.7553269736
 20
26.0330854679
 10
-1.7472737496
 20
26.0318154555
 10
-1.7395377692
 20
26.0297779393
 10
-1.7321641265
 20
26.0269945704
  0
LWPOLYLINE
  5
259
100
AcDbEntity
  8
218140080
100
AcDbPolyline
 62
250
  6
CONTINUOUS
 90
11
 70
0
 10
-1.8169390557
 20
26.0203149897
 10
-1.8078465952
 20
26.0244054408
 10
-1.798787921
 20
26.027762226
 10
-1.7898007994
 20
26.0303691981
 10
-1.7809196117
 20
26.0322138023
 10
-1.7721851473
 20
26.0332849479
 10
-1.7636437989
 20
26.0335759619
 10
-1.7553269736
 20
26.0330854679
 10
-1.7472737496
 20
26.0318154555
 10
-1.7395377692
 20
26.0297779393
 10
-1.7321641265
 20
26.0269945704
  0
LINE
  5
25A
100
AcDbEntity
  8
218140000
100
AcDbLine
 62
7
  6
CONTINUOUS
 10
-2.7338856697
 20
25.9750193807
 11
-2.7306776296
 21
25.9764350103
  0
LINE
  5
25B
100
AcDbEntity
  8
218140080
100
AcDbLine
 62
7
  6
CONTINUOUS
 10
-2.7338856697
 20
25.9750193807
 11
-2.7306776296
 21
25.9764350103
  0
LWPOLYLINE
  5
25C
100
AcDbEntity
  8
218140000
100
AcDbPolyline
 62
7
  6
CONTINUOUS
 90
5
 70
0
 10
-2.872172456
 20
25.9097001156
 10
-2.8673292913
 20
25.9117577399
 10
-2.8599029314
 20
25.9140756024
 10
-2.8517565132
 20
25.915607967
 10
-2.8428381783
 20
25.9162588807
  0
LWPOLYLINE
  5
25D
100
AcDbEntity
  8
218140080
100
AcDbPolyline
 62
7
  6
CONTINUOUS
 90
5
 70
0
 10
-2.872172456
 20
25.9097001156
 10
-2.8673292913
 20
25.9117577399
 10
-2.8599029314
 20
25.9140756024
 10
-2.8517565132
 20
25.915607967
 10
-2.8428381783
 20
25.9162588807
  0
LINE
  5
25E
100
AcDbEntity
  8
218140000
100
AcDbLine
 62
7
  6
CONTINUOUS
 10
-2.6608370398
 20
26.0025361475
 11
-2.7306779909
 21
25.9764348401
  0
LINE
  5
25F
100
AcDbEntity
  8
218140080
100
AcDbLine
 62
7
  6
CONTINUOUS
 10
-2.6608370398
 20
26.0025361475
 11
-2.7306779909
 21
25.9764348401
  0
LINE
  5
260
100
AcDbEntity
  8
284
100
AcDbLine
 62
250
  6
CONTINUOUS
 10
19.2750501044
 20
-27.8664825458
 11
18.7447200186
 21
-27.7566475888
  0
LINE
  5
261
100
AcDbEntity
  8
284
100
AcDbLine
 62
250
  6
CONTINUOUS
 10
19.1866617568
 20
-27.5464000244
 11
18.6563316709
 21
-27.4365650673
  0
LWPOLYLINE
  5
262
100
AcDbEntity
  8
290
100
AcDbPolyline
 62
250
  6
CONTINUOUS
 90
10
 70
0
 10
8.9050288004
 20
-28.8249505873
 10
9.0105842613
 20
-28.8695714054
 10
9.129801223
 20
-28.9052389172
 10
9.2591370101
 20
-28.9308932198
 10
9.3947482541
 20
-28.9457719646
 10
9.5326051035
 20
-28.9494330119
 10
9.6686109761
 20
-28.9417675691
 10
9.7987242939
 20
-28.9230034243
 10
9.919078583
 20
-28.8936981764
 10
10.0260973707
 20
-28.8547226663
  0
LWPOLYLINE
  5
263
100
AcDbEntity
  8
290
100
AcDbPolyline
 62
7
  6
CONTINUOUS
 90
8
 70
0
 10
9.2944806085
 20
-29.6854912395
 10
9.3582879432
 20
-29.7151098935
 10
9.4963751574
 20
-29.7629997025
 10
9.6405582137
 20
-29.792005326
 10
9.788933778
 20
-29.8015940623
 10
9.9413738101
 20
-29.7911816109
 10
10.0965162292
 20
-29.7597561379
 10
10.1648032801
 20
-29.7391472089
  0
LWPOLYLINE
  5
264
100
AcDbEntity
  8
290
100
AcDbPolyline
 62
7
  6
CONTINUOUS
 90
7
 70
0
 10
-21.1524011842
 20
-14.0980659861
 10
-21.0861704828
 20
-14.2537497685
 10
-21.0004638413
 20
-14.3952722997
 10
-20.8977227812
 20
-14.5197003622
 10
-20.7800728586
 20
-14.625686989
 10
-20.6488869946
 20
-14.7125438225
 10
-20.6041742414
 20
-14.7361777755
  0
LWPOLYLINE
  5
265
100
AcDbEntity
  8
290
100
AcDbPolyline
 62
7
  6
CONTINUOUS
 90
4
 70
0
 10
-21.2250773367
 20
-13.5965346895
 10
-21.2221130342
 20
-13.7505882347
 10
-21.198016036
 20
-13.9299872823
 10
-21.1524011842
 20
-14.0980659861
  0
LWPOLYLINE
  5
266
100
AcDbEntity
  8
290
100
AcDbPolyline
 62
250
  6
CONTINUOUS
 90
23
 70
0
 10
-20.9907235073
 20
-13.8770744772
 10
-20.9914726385
 20
-13.9187153316
 10
-20.9911238425
 20
-13.9615644242
 10
-20.9895344685
 20
-14.0055010978
 10
-20.9865485456
 20
-14.0504894395
 10
-20.9820185947
 20
-14.0962761878
 10
-20.9758375667
 20
-14.1424100333
 10
-20.9678799458
 20
-14.1887296978
 10
-20.9580200241
 20
-14.235060269
 10
-20.946209242
 20
-14.280952236
 10
-20.9323549174
 20
-14.3262375327
 10
-20.9163706157
 20
-14.3707268152
 10
-20.8982857901
 20
-14.4139801914
 10
-20.8780524845
 20
-14.4558391254
 10
-20.855634256
 20
-14.4961262456
 10
-20.8311548662
 20
-14.5344396201
 10
-20.8046199225
 20
-14.5706513102
 10
-20.7760464828
 20
-14.6046255232
 10
-20.7456550955
 20
-14.6360401031
 10
-20.7135060381
 20
-14.6648198801
 10
-20.6796637521
 20
-14.6908945581
 10
-20.644428086
 20
-14.7140595175
 10
-20.6052161781
 20
-14.7356599275
  0
LINE
  5
267
100
AcDbEntity
  8
290
100
AcDbLine
 62
7
  6
CONTINUOUS
 10
-21.2250773367
 20
-13.5965346895
 11
-21.225048424
 21
-13.5955137997
  0
LWPOLYLINE
  5
268
100
AcDbEntity
  8
290
100
AcDbPolyline
 62
250
  6
CONTINUOUS
 90
10
 70
0
 10
-18.0116930693
 20
22.3260965846
 10
-18.5272720178
 20
18.2361854305
 10
-18.9969162232
 20
14.1609997267
 10
-19.4205203322
 20
10.1014486413
 10
-19.7979894378
 20
6.0584380784
 10
-20.1292391396
 20
2.0328700743
 10
-20.4141955465
 20
-1.9743573985
 10
-20.6527952496
 20
-5.9623500974
 10
-20.8449853518
 20
-9.9302177152
 10
-20.9907235073
 20
-13.8770744772
  0
LWPOLYLINE
  5
269
100
AcDbEntity
  8
290
100
AcDbPolyline
 62
7
  6
CONTINUOUS
 90
10
 70
0
 10
-18.24752709
 20
22.5904819255
 10
-18.7418105426
 20
18.676515268
 10
-19.2182900678
 20
14.5562090103
 10
-19.6477160225
 20
10.4517134381
 10
-20.0299674979
 20
6.3640887573
 10
-20.3649641834
 20
2.2942116576
 10
-20.6526363539
 20
-1.7571103631
 10
-20.8929138135
 20
-5.7890047902
 10
-21.0857383958
 20
-9.8004355934
 10
-21.2250484073
 20
-13.5955138004
  0
LINE
  5
26A
100
AcDbEntity
  8
218140000
100
AcDbLine
 62
7
  6
CONTINUOUS
 10
-2.8867851859
 20
25.9000805867
 11
-3.7977115443
 21
25.1028432652
  0
LINE
  5
26B
100
AcDbEntity
  8
218140080
100
AcDbLine
 62
7
  6
CONTINUOUS
 10
-2.8867851859
 20
25.9000805867
 11
-3.7977115443
 21
25.1028432652
  0
LINE
  5
26C
100
AcDbEntity
  8
218140000
100
AcDbLine
 62
250
  6
CONTINUOUS
 10
-2.7873403422
 20
25.9024557709
 11
-3.7361505224
 21
25.0720627543
  0
LINE
  5
26D
100
AcDbEntity
  8
218140080
100
AcDbLine
 62
250
  6
CONTINUOUS
 10
-2.7873403422
 20
25.9024557709
 11
-3.7361505224
 21
25.0720627543
  0
LWPOLYLINE
  5
26E
100
AcDbEntity
  8
218140000
100
AcDbPolyline
 62
7
  6
CONTINUOUS
 90
5
 70
0
 10
-2.8868824248
 20
25.8999949882
 10
-2.8858016214
 20
25.9009265088
 10
-2.8802532567
 20
25.9051092451
 10
-2.8740987968
 20
25.9087468937
 10
-2.872172456
 20
25.9097001156
  0
LWPOLYLINE
  5
26F
100
AcDbEntity
  8
218140080
100
AcDbPolyline
 62
7
  6
CONTINUOUS
 90
5
 70
0
 10
-2.8868824248
 20
25.8999949882
 10
-2.8858016214
 20
25.9009265088
 10
-2.8802532567
 20
25.9051092451
 10
-2.8740987968
 20
25.9087468937
 10
-2.872172456
 20
25.9097001156
  0
LINE
  5
270
100
AcDbEntity
  8
218140000
100
AcDbLine
 62
250
  6
CONTINUOUS
 10
-3.2354215641
 20
24.8216982751
 11
-2.7616131205
 21
25.1931183315
  0
LINE
  5
271
100
AcDbEntity
  8
218140080
100
AcDbLine
 62
250
  6
CONTINUOUS
 10
-3.2354215641
 20
24.8216982751
 11
-2.7616131205
 21
25.1931183315
  0
LINE
  5
272
100
AcDbEntity
  8
218140000
100
AcDbLine
 62
250
  6
CONTINUOUS
 10
-2.9575319011
 20
24.6827534436
 11
-2.5888059905
 21
24.9717989437
  0
LINE
  5
273
100
AcDbEntity
  8
218140080
100
AcDbLine
 62
250
  6
CONTINUOUS
 10
-2.9575319011
 20
24.6827534436
 11
-2.5888059905
 21
24.9717989437
  0
LWPOLYLINE
  5
274
100
AcDbEntity
  8
218140000
100
AcDbPolyline
 62
250
  6
CONTINUOUS
 90
13
 70
0
 10
-2.7616131205
 20
25.1931183315
 10
-2.7204342012
 20
25.2226644615
 10
-2.6772388288
 20
25.2492745976
 10
-2.6320270035
 20
25.27294874
 10
-2.5842500354
 20
25.293843708
 10
-2.5344566144
 20
25.3118026823
 10
-2.4842928092
 20
25.3263552045
 10
-2.4337870182
 20
25.3373737026
 10
-2.3829108431
 20
25.3449857486
 10
-2.3332251577
 20
25.3491036005
 10
-2.2848702034
 20
25.3496417959
 10
-2.2377057388
 20
25.3466857972
 10
-2.1928719138
 20
25.3404042491
  0
LWPOLYLINE
  5
275
100
AcDbEntity
  8
218140080
100
AcDbPolyline
 62
250
  6
CONTINUOUS
 90
13
 70
0
 10
-2.7616131205
 20
25.1931183315
 10
-2.7204342012
 20
25.2226644615
 10
-2.6772388288
 20
25.2492745976
 10
-2.6320270035
 20
25.27294874
 10
-2.5842500354
 20
25.293843708
 10
-2.5344566144
 20
25.3118026823
 10
-2.4842928092
 20
25.3263552045
 10
-2.4337870182
 20
25.3373737026
 10
-2.3829108431
 20
25.3449857486
 10
-2.3332251577
 20
25.3491036005
 10
-2.2848702034
 20
25.3496417959
 10
-2.2377057388
 20
25.3466857972
 10
-2.1928719138
 20
25.3404042491
  0
LINE
  5
276
100
AcDbEntity
  8
268
100
AcDbLine
 62
7
  6
CONTINUOUS
 10
-2.0836956734
 20
21.8298189246
 11
-1.5845999406
 21
22.0817835053
  0
LINE
  5
277
100
AcDbEntity
  8
268
100
AcDbLine
 62
7
  6
CONTINUOUS
 10
-2.0836956734
 20
23.0440223974
 11
-1.5845999406
 21
23.2942190705
  0
LINE
  5
278
100
AcDbEntity
  8
268
100
AcDbLine
 62
7
  6
CONTINUOUS
 10
-1.5845999406
 20
23.2942190705
 11
3.8296727546
 21
25.9942346809
  0
LINE
  5
279
100
AcDbEntity
  8
268
100
AcDbLine
 62
7
  6
CONTINUOUS
 10
-1.5845999406
 20
22.0817835053
 11
3.8296727546
 21
24.7623961026
  0
LINE
  5
27A
100
AcDbEntity
  8
268
100
AcDbLine
 62
7
  6
CONTINUOUS
 10
3.2237261715
 20
26.2959826389
 11
-1.5138892624
 21
23.9609321243
  0
LINE
  5
27B
100
AcDbEntity
  8
268
100
AcDbLine
 62
7
  6
CONTINUOUS
 10
4.5026889701
 20
26.0397346098
 11
3.916310183
 21
25.7528125421
  0
LWPOLYLINE
  5
27C
100
AcDbEntity
  8
268
100
AcDbPolyline
 62
7
  6
CONTINUOUS
 90
18
 70
0
 10
4.5026889701
 20
26.0397346098
 10
4.5310634909
 20
26.0529165666
 10
4.5592979428
 20
26.0646509583
 10
4.5873923261
 20
26.074937785
 10
4.6153966391
 20
26.0837899196
 10
4.6432608834
 20
26.0911944891
 10
4.670835063
 20
26.0971128748
 10
4.6981041917
 20
26.101536296
 10
4.7250832557
 20
26.1044735334
 10
4.7516672183
 20
26.1059123093
 10
4.7778721772
 20
26.1058451728
 10
4.8036820347
 20
26.1042795748
 10
4.8289434609
 20
26.1012255914
 10
4.8536332142
 20
26.096679807
 10
4.8777745364
 20
26.0906456371
 10
4.9012838226
 20
26.0831434044
 10
4.9241796028
 20
26.0741579897
 10
4.9437416871
 20
26.0650682566
  0
LINE
  5
27D
100
AcDbEntity
  8
218140000
100
AcDbLine
 62
7
  6
CONTINUOUS
 10
10.732027441
 20
28.6086310327
 11
5.0785575505
 21
25.9976712877
  0
LINE
  5
27E
100
AcDbEntity
  8
218140080
100
AcDbLine
 62
7
  6
CONTINUOUS
 10
10.732027441
 20
28.6086310327
 11
5.0785575505
 21
25.9976712877
  0
LINE
  5
27F
100
AcDbEntity
  8
218140000
100
AcDbLine
 62
250
  6
CONTINUOUS
 10
11.1204849235
 20
28.576416697
 11
5.2985716731
 21
25.8876642264
  0
LINE
  5
280
100
AcDbEntity
  8
218140080
100
AcDbLine
 62
250
  6
CONTINUOUS
 10
11.1204849235
 20
28.576416697
 11
5.2985716731
 21
25.8876642264
  0
LWPOLYLINE
  5
281
100
AcDbEntity
  8
218140000
100
AcDbPolyline
 62
250
  6
CONTINUOUS
 90
9
 70
0
 10
11.1204849235
 20
28.576416697
 10
11.1744913251
 20
28.5994482129
 10
11.2282113982
 20
28.6166898495
 10
11.2812472426
 20
28.6279546211
 10
11.3332331679
 20
28.6330985377
 10
11.3837344178
 20
28.6320103987
 10
11.432262554
 20
28.6246550034
 10
11.4784448467
 20
28.611060854
 10
11.5118559371
 20
28.5965509827
  0
LWPOLYLINE
  5
282
100
AcDbEntity
  8
218140080
100
AcDbPolyline
 62
250
  6
CONTINUOUS
 90
9
 70
0
 10
11.1204849235
 20
28.576416697
 10
11.1744913251
 20
28.5994482129
 10
11.2282113982
 20
28.6166898495
 10
11.2812472426
 20
28.6279546211
 10
11.3332331679
 20
28.6330985377
 10
11.3837344178
 20
28.6320103987
 10
11.432262554
 20
28.6246550034
 10
11.4784448467
 20
28.611060854
 10
11.5118559371
 20
28.5965509827
  0
LWPOLYLINE
  5
283
100
AcDbEntity
  8
218140000
100
AcDbPolyline
 62
7
  6
CONTINUOUS
 90
12
 70
0
 10
10.732027441
 20
28.6086310327
 10
10.7976549171
 20
28.6358506822
 10
10.8663537476
 20
28.6581264516
 10
10.9376612302
 20
28.6750258339
 10
11.0112178797
 20
28.6861901584
 10
11.086245862
 20
28.6912618812
 10
11.1616318194
 20
28.6900410344
 10
11.2368173281
 20
28.6824908994
 10
11.3111747597
 20
28.6686442679
 10
11.3836961311
 20
28.648734651
 10
11.4540481627
 20
28.6229452003
 10
11.5118882916
 20
28.5965348052
  0
LWPOLYLINE
  5
284
100
AcDbEntity
  8
218140080
100
AcDbPolyline
 62
7
  6
CONTINUOUS
 90
12
 70
0
 10
10.732027441
 20
28.6086310327
 10
10.7976549171
 20
28.6358506822
 10
10.8663537476
 20
28.6581264516
 10
10.9376612302
 20
28.6750258339
 10
11.0112178797
 20
28.6861901584
 10
11.086245862
 20
28.6912618812
 10
11.1616318194
 20
28.6900410344
 10
11.2368173281
 20
28.6824908994
 10
11.3111747597
 20
28.6686442679
 10
11.3836961311
 20
28.648734651
 10
11.4540481627
 20
28.6229452003
 10
11.5118882916
 20
28.5965348052
  0
LWPOLYLINE
  5
285
100
AcDbEntity
  8
218140000
100
AcDbPolyline
 62
250
  6
CONTINUOUS
 90
9
 70
0
 10
10.732027441
 20
28.6086310327
 10
10.7599400665
 20
28.6200300122
 10
10.8064544795
 20
28.6330090652
 10
10.8552734321
 20
28.6395866585
 10
10.9060255267
 20
28.639712752
 10
10.9583246587
 20
28.6333863866
 10
11.0117729544
 20
28.6206556909
 10
11.0659637978
 20
28.6016175158
 10
11.1204849235
 20
28.576416697
  0
LWPOLYLINE
  5
286
100
AcDbEntity
  8
218140080
100
AcDbPolyline
 62
250
  6
CONTINUOUS
 90
9
 70
0
 10
10.732027441
 20
28.6086310327
 10
10.7599400665
 20
28.6200300122
 10
10.8064544795
 20
28.6330090652
 10
10.8552734321
 20
28.6395866585
 10
10.9060255267
 20
28.639712752
 10
10.9583246587
 20
28.6333863866
 10
11.0117729544
 20
28.6206556909
 10
11.0659637978
 20
28.6016175158
 10
11.1204849235
 20
28.576416697
  0
LINE
  5
287
100
AcDbEntity
  8
284
100
AcDbLine
 62
250
  6
CONTINUOUS
 10
19.8053801903
 20
-19.0876689251
 11
24.0039902731
 21
-18.7914610023
  0
LINE
  5
288
100
AcDbEntity
  8
284
100
AcDbLine
 62
250
  6
CONTINUOUS
 10
18.6563316709
 20
-27.4365650673
 11
18.6391562961
 21
-27.4313175201
  0
LINE
  5
289
100
AcDbEntity
  8
290
100
AcDbLine
 62
7
  6
CONTINUOUS
 10
9.2980174677
 20
-29.6872768629
 11
-20.6055245713
 21
-14.7355058434
  0
LINE
  5
28A
100
AcDbEntity
  8
290
100
AcDbLine
 62
250
  6
CONTINUOUS
 10
8.9050287546
 20
-28.8249506081
 11
-20.9907235073
 21
-13.8770744772
  0
LINE
  5
28B
100
AcDbEntity
  8
290
100
AcDbLine
 62
250
  6
CONTINUOUS
 10
9.2983138005
 20
-29.6874249153
 11
9.2980174677
 21
-29.6872768629
  0
LWPOLYLINE
  5
28C
100
AcDbEntity
  8
290
100
AcDbPolyline
 62
250
  6
CONTINUOUS
 90
23
 70
0
 10
9.2944699391
 20
-29.6854877633
 10
9.2642409794
 20
-29.6689478592
 10
9.2282209159
 20
-29.6459734184
 10
9.1935554986
 20
-29.6200790341
 10
9.1605592807
 20
-29.5914605697
 10
9.1293030691
 20
-29.5601791016
 10
9.0998527432
 20
-29.5263006226
 10
9.0724435084
 20
-29.4901395726
 10
9.0471003387
 20
-29.4518246049
 10
9.0238349773
 20
-29.4114765521
 10
9.0027834031
 20
-29.3694916282
 10
8.9839173926
 20
-29.3260430959
 10
8.9671947832
 20
-29.2812849916
 10
8.9526530646
 20
-29.2356531747
 10
8.9402131398
 20
-29.1893360098
 10
8.9297871861
 20
-29.1424995648
 10
8.9213299747
 20
-29.0955897826
 10
8.9147214687
 20
-29.048783043
 10
8.9098397493
 20
-29.0022406953
 10
8.9065768229
 20
-28.956409813
 10
8.9047866979
 20
-28.9115438651
 10
8.9043175585
 20
-28.8676830557
 10
8.9050287546
 20
-28.8249506081
  0
LWPOLYLINE
  5
28D
100
AcDbEntity
  8
290
100
AcDbPolyline
 62
250
  6
CONTINUOUS
 90
6
 70
0
 10
-20.9907234724
 20
-13.8770744613
 10
-21.0794721878
 20
-13.824543191
 10
-21.1487854193
 20
-13.7659456056
 10
-21.1966034404
 20
-13.7030230028
 10
-21.2215052811
 20
-13.6376452038
 10
-21.2250773367
 20
-13.5965346895
  0
LWPOLYLINE
  5
28E
100
AcDbEntity
  8
290
100
AcDbPolyline
 62
250
  6
CONTINUOUS
 90
21
 70
0
 10
-15.7314027536
 20
-14.1621165722
 10
-16.0462267187
 20
-13.9438700957
 10
-16.3504355642
 20
-13.6919463445
 10
-16.6470321069
 20
-13.4028140139
 10
-16.9329300078
 20
-13.0799675063
 10
-17.1989641936
 20
-12.7339315756
 10
-17.4439571398
 20
-12.3648407658
 10
-17.6689533266
 20
-11.9725023159
 10
-17.8681332513
 20
-11.5669557475
 10
-18.0411292949
 20
-11.1468345611
 10
-18.1881624233
 20
-10.7134421395
 10
-18.3043409504
 20
-10.2808427029
 10
-18.3884749756
 20
-9.8498384873
 10
-18.4416608225
 20
-9.4195883313
 10
-18.4625076327
 20
-9.0017224404
 10
-18.450141744
 20
-8.5961208537
 10
-18.4054120709
 20
-8.2028947628
 10
-18.3295940843
 20
-7.8340562859
 10
-18.2215710491
 20
-7.4903962579
 10
-18.0825239813
 20
-7.1711525465
 10
-17.9172582113
 20
-6.8860426723
  0
LWPOLYLINE
  5
28F
100
AcDbEntity
  8
290
100
AcDbPolyline
 62
250
  6
CONTINUOUS
 90
4
 70
0
 10
-15.6432025991
 20
-14.0491417126
 10
-15.9526021649
 20
-13.8346445996
 10
-16.2543213721
 20
-13.5846458542
 10
-16.5457574375
 20
-13.3014363225
  0
LWPOLYLINE
  5
290
100
AcDbEntity
  8
290
100
AcDbPolyline
 62
7
  6
CONTINUOUS
 90
3
 70
0
 10
-16.1632317355
 20
-13.6279061881
 10
-15.9713633729
 20
-13.7764242822
 10
-15.7763155464
 20
-13.9102850388
  0
LWPOLYLINE
  5
291
100
AcDbEntity
  8
290
100
AcDbPolyline
 62
250
  6
CONTINUOUS
 90
5
 70
0
 10
-16.2217012225
 20
-13.5389474462
 10
-16.0357248917
 20
-13.6877397664
 10
-15.8479165143
 20
-13.8213380359
 10
-15.6573868992
 20
-13.9405033706
 10
-15.4641393462
 20
-14.0452372281
  0
LINE
  5
292
100
AcDbEntity
  8
290
100
AcDbLine
 62
250
  6
CONTINUOUS
 10
-16.4049430461
 20
-13.3757163358
 11
-16.2217012225
 21
-13.5389474462
  0
LWPOLYLINE
  5
293
100
AcDbEntity
  8
290
100
AcDbPolyline
 62
7
  6
CONTINUOUS
 90
3
 70
0
 10
-16.7465645055
 20
-13.0623267216
 10
-16.3806527078
 20
-13.4382581815
 10
-15.9955283615
 20
-13.7586549214
  0
LWPOLYLINE
  5
294
100
AcDbEntity
  8
290
100
AcDbPolyline
 62
7
  6
CONTINUOUS
 90
3
 70
0
 10
-16.7483347
 20
-13.0603176271
 10
-16.3826252679
 20
-13.4364287818
 10
-15.9976673377
 20
-13.7570692737
  0
LWPOLYLINE
  5
295
100
AcDbEntity
  8
290
100
AcDbPolyline
 62
250
  6
CONTINUOUS
 90
3
 70
0
 10
-16.5457574375
 20
-13.3014363225
 10
-16.8236574617
 20
-12.9879796743
 10
-17.0842816514
 20
-12.6481269472
  0
LINE
  5
296
100
AcDbEntity
  8
290
100
AcDbLine
 62
250
  6
CONTINUOUS
 10
-17.0842816514
 20
-12.6481269472
 11
-17.3248078814
 21
-12.2862889553
  0
LINE
  5
297
100
AcDbEntity
  8
290
100
AcDbLine
 62
250
  6
CONTINUOUS
 10
-17.3248078814
 20
-12.2862889553
 11
-17.4426527613
 21
-12.0812253563
  0
LWPOLYLINE
  5
298
100
AcDbEntity
  8
290
100
AcDbPolyline
 62
250
  6
CONTINUOUS
 90
13
 70
0
 10
-17.9226102297
 20
-11.0576223992
 10
-18.0526821063
 20
-10.6756556153
 10
-18.1663159678
 20
-10.2515585222
 10
-18.2493566162
 20
-9.8290261952
 10
-18.3015317273
 20
-9.4114891474
 10
-18.3220926624
 20
-9.0019215956
 10
-18.3108050062
 20
-8.603984547
 10
-18.2678392708
 20
-8.2222367626
 10
-18.1933945852
 20
-7.8608368735
 10
-18.0882382561
 20
-7.5232605691
 10
-17.9536430892
 20
-7.2130899397
 10
-17.7913127076
 20
-6.9340108819
 10
-17.6020943479
 20
-6.6874348048
  0
LWPOLYLINE
  5
299
100
AcDbEntity
  8
218140000
100
AcDbPolyline
 62
250
  6
CONTINUOUS
 90
10
 70
0
 10
-1.8169390557
 20
26.0203149897
 10
-1.8116819283
 20
26.0258424952
 10
-1.8064474602
 20
26.0306054528
 10
-1.8012582538
 20
26.0345810813
 10
-1.7961348159
 20
26.0377509823
 10
-1.7911015792
 20
26.0400973105
 10
-1.7861863841
 20
26.0416061616
 10
-1.7814082627
 20
26.0422716238
 10
-1.776790059
 20
26.0420904441
 10
-1.7747507441
 20
26.0417287771
  0
LWPOLYLINE
  5
29A
100
AcDbEntity
  8
218140080
100
AcDbPolyline
 62
250
  6
CONTINUOUS
 90
10
 70
0
 10
-1.8169390557
 20
26.0203149897
 10
-1.8116819283
 20
26.0258424952
 10
-1.8064474602
 20
26.0306054528
 10
-1.8012582538
 20
26.0345810813
 10
-1.7961348159
 20
26.0377509823
 10
-1.7911015792
 20
26.0400973105
 10
-1.7861863841
 20
26.0416061616
 10
-1.7814082627
 20
26.0422716238
 10
-1.776790059
 20
26.0420904441
 10
-1.7747507441
 20
26.0417287771
  0
LINE
  5
29B
100
AcDbEntity
  8
218140000
100
AcDbLine
 62
250
  6
CONTINUOUS
 10
-1.2639698811
 20
24.4945730559
 11
-1.2970698059
 21
24.4608466743
  0
LINE
  5
29C
100
AcDbEntity
  8
218140080
100
AcDbLine
 62
250
  6
CONTINUOUS
 10
-1.2639698811
 20
24.4945730559
 11
-1.2970698059
 21
24.4608466743
  0
LWPOLYLINE
  5
29D
100
AcDbEntity
  8
218140000
100
AcDbPolyline
 62
250
  6
CONTINUOUS
 90
10
 70
0
 10
-2.0734944267
 20
25.3017749524
 10
-2.0925353152
 20
25.2837153873
 10
-2.1103833707
 20
25.263004922
 10
-2.1266716671
 20
25.240069329
 10
-2.1410653443
 20
25.2153801257
 10
-2.1532684924
 20
25.1894448807
 10
-2.1630302351
 20
25.1627967792
 10
-2.1701498874
 20
25.1359836616
 10
-2.1744810812
 20
25.1095567606
 10
-2.1759347742
 20
25.084059369
  0
LWPOLYLINE
  5
29E
100
AcDbEntity
  8
218140080
100
AcDbPolyline
 62
250
  6
CONTINUOUS
 90
10
 70
0
 10
-2.0734944267
 20
25.3017749524
 10
-2.0925353152
 20
25.2837153873
 10
-2.1103833707
 20
25.263004922
 10
-2.1266716671
 20
25.240069329
 10
-2.1410653443
 20
25.2153801257
 10
-2.1532684924
 20
25.1894448807
 10
-2.1630302351
 20
25.1627967792
 10
-2.1701498874
 20
25.1359836616
 10
-2.1744810812
 20
25.1095567606
 10
-2.1759347742
 20
25.084059369
  0
LWPOLYLINE
  5
29F
100
AcDbEntity
  8
218140000
100
AcDbPolyline
 62
250
  6
CONTINUOUS
 90
10
 70
0
 10
-1.315088828
 20
24.9225721531
 10
-1.3341302806
 20
24.9045119587
 10
-1.3519786724
 20
24.8838008984
 10
-1.3682670881
 20
24.8608648384
 10
-1.382660689
 20
24.8361753898
 10
-1.3948636284
 20
24.8102401529
 10
-1.4046251145
 20
24.7835922719
 10
-1.4117445228
 20
24.7567795597
 10
-1.4160755364
 20
24.7303532433
 10
-1.4175291734
 20
24.7048565686
  0
LWPOLYLINE
  5
2A0
100
AcDbEntity
  8
218140080
100
AcDbPolyline
 62
250
  6
CONTINUOUS
 90
10
 70
0
 10
-1.315088828
 20
24.9225721531
 10
-1.3341302806
 20
24.9045119587
 10
-1.3519786724
 20
24.8838008984
 10
-1.3682670881
 20
24.8608648384
 10
-1.382660689
 20
24.8361753898
 10
-1.3948636284
 20
24.8102401529
 10
-1.4046251145
 20
24.7835922719
 10
-1.4117445228
 20
24.7567795597
 10
-1.4160755364
 20
24.7303532433
 10
-1.4175291734
 20
24.7048565686
  0
LWPOLYLINE
  5
2A1
100
AcDbEntity
  8
218140000
100
AcDbPolyline
 62
250
  6
CONTINUOUS
 90
16
 70
0
 10
-2.5888059905
 20
24.9717989437
 10
-2.5645766551
 20
24.9946619462
 10
-2.5385353269
 20
25.015681258
 10
-2.5109800894
 20
25.0347802106
 10
-2.4822111622
 20
25.0520109945
 10
-2.4525534798
 20
25.0672170653
 10
-2.4223556432
 20
25.0800378344
 10
-2.3919409101
 20
25.0904318441
 10
-2.3616241349
 20
25.0984462547
 10
-2.3317362326
 20
25.1038854711
 10
-2.3026244888
 20
25.1067623641
 10
-2.2745143312
 20
25.1071732284
 10
-2.2475448618
 20
25.1050522881
 10
-2.2219404886
 20
25.1004171004
 10
-2.197993149
 20
25.093389485
 10
-2.1759347742
 20
25.084059369
  0
LWPOLYLINE
  5
2A2
100
AcDbEntity
  8
218140080
100
AcDbPolyline
 62
250
  6
CONTINUOUS
 90
16
 70
0
 10
-2.5888059905
 20
24.9717989437
 10
-2.5645766551
 20
24.9946619462
 10
-2.5385353269
 20
25.015681258
 10
-2.5109800894
 20
25.0347802106
 10
-2.4822111622
 20
25.0520109945
 10
-2.4525534798
 20
25.0672170653
 10
-2.4223556432
 20
25.0800378344
 10
-2.3919409101
 20
25.0904318441
 10
-2.3616241349
 20
25.0984462547
 10
-2.3317362326
 20
25.1038854711
 10
-2.3026244888
 20
25.1067623641
 10
-2.2745143312
 20
25.1071732284
 10
-2.2475448618
 20
25.1050522881
 10
-2.2219404886
 20
25.1004171004
 10
-2.197993149
 20
25.093389485
 10
-2.1759347742
 20
25.084059369
  0
LINE
  5
2A3
100
AcDbEntity
  8
218140000
100
AcDbLine
 62
250
  6
CONTINUOUS
 10
-1.2970698059
 20
24.4608466743
 11
-1.7236888447
 21
24.0658319154
  0
LINE
  5
2A4
100
AcDbEntity
  8
218140080
100
AcDbLine
 62
250
  6
CONTINUOUS
 10
-1.2970698059
 20
24.4608466743
 11
-1.7236888447
 21
24.0658319154
  0
LINE
  5
2A5
100
AcDbEntity
  8
218140000
100
AcDbLine
 62
7
  6
CONTINUOUS
 10
-1.3938701769
 20
24.4606864344
 11
-1.786433882
 21
24.097204434
  0
LINE
  5
2A6
100
AcDbEntity
  8
218140080
100
AcDbLine
 62
7
  6
CONTINUOUS
 10
-1.3938701769
 20
24.4606864344
 11
-1.786433882
 21
24.097204434
  0
LWPOLYLINE
  5
2A7
100
AcDbEntity
  8
218140000
100
AcDbPolyline
 62
7
  6
CONTINUOUS
 90
13
 70
0
 10
9.0758173684
 20
25.377921927
 10
8.9468325503
 20
25.3075682086
 10
8.8279192661
 20
25.23291016
 10
8.7196504326
 20
25.1543074791
 10
8.6225476826
 20
25.0721388689
 10
8.5370788512
 20
24.9868002127
 10
8.4636557222
 20
24.8987026671
 10
8.4026320435
 20
24.8082706806
 10
8.3543018238
 20
24.7159399491
 10
8.3188979149
 20
24.6221553164
 10
8.2965908908
 20
24.5273686312
 10
8.2874882254
 20
24.4320365701
 10
8.2872561036
 20
24.4141716886
  0
LWPOLYLINE
  5
2A8
100
AcDbEntity
  8
218140080
100
AcDbPolyline
 62
7
  6
CONTINUOUS
 90
13
 70
0
 10
9.0758173684
 20
25.377921927
 10
8.9468325503
 20
25.3075682086
 10
8.8279192661
 20
25.23291016
 10
8.7196504326
 20
25.1543074791
 10
8.6225476826
 20
25.0721388689
 10
8.5370788512
 20
24.9868002127
 10
8.4636557222
 20
24.8987026671
 10
8.4026320435
 20
24.8082706806
 10
8.3543018238
 20
24.7159399491
 10
8.3188979149
 20
24.6221553164
 10
8.2965908908
 20
24.5273686312
 10
8.2874882254
 20
24.4320365701
 10
8.2872561036
 20
24.4141716886
  0
LINE
  5
2A9
100
AcDbEntity
  8
268
100
AcDbLine
 62
7
  6
CONTINUOUS
 10
-0.4096400971
 20
21.6229919922
 11
1.1731165061
 21
22.4349760895
  0
LINE
  5
2AA
100
AcDbEntity
  8
218140000
100
AcDbLine
 62
7
  6
CONTINUOUS
 10
13.0879733469
 20
27.4193217197
 11
9.0758173684
 21
25.377921927
  0
LINE
  5
2AB
100
AcDbEntity
  8
218140080
100
AcDbLine
 62
7
  6
CONTINUOUS
 10
13.0879733469
 20
27.4193217197
 11
9.0758173684
 21
25.377921927
  0
LINE
  5
2AC
100
AcDbEntity
  8
268
100
AcDbLine
 62
7
  6
CONTINUOUS
 10
1.198181312
 20
20.8190812876
 11
2.7994621028
 21
21.6218032911
  0
LINE
  5
2AD
100
AcDbEntity
  8
268
100
AcDbLine
 62
7
  6
CONTINUOUS
 10
2.7994621028
 20
21.6218032911
 11
3.3277292745
 21
21.8852421112
  0
LINE
  5
2AE
100
AcDbEntity
  8
268
100
AcDbLine
 62
7
  6
CONTINUOUS
 10
1.1731165061
 20
22.4349760895
 11
1.7075663848
 21
22.6953235561
  0
LINE
  5
2AF
100
AcDbEntity
  8
218140000
100
AcDbLine
 62
7
  6
CONTINUOUS
 10
13.0879733469
 20
27.0114704524
 11
9.0758173684
 21
25.0565976448
  0
LINE
  5
2B0
100
AcDbEntity
  8
218140080
100
AcDbLine
 62
7
  6
CONTINUOUS
 10
13.0879733469
 20
27.0114704524
 11
9.0758173684
 21
25.0565976448
  0
LINE
  5
2B1
100
AcDbEntity
  8
268
100
AcDbLine
 62
250
  6
CONTINUOUS
 10
2.7099398929
 20
22.2561141729
 11
7.481778871
 21
24.5501896593
  0
LINE
  5
2B2
100
AcDbEntity
  8
268
100
AcDbLine
 62
250
  6
CONTINUOUS
 10
2.9375553927
 20
22.142306423
 11
7.9236197389
 21
24.539371379
  0
LINE
  5
2B3
100
AcDbEntity
  8
218140000
100
AcDbLine
 62
7
  6
CONTINUOUS
 10
12.0916437572
 20
28.0908372801
 11
8.6612398568
 21
26.4535004672
  0
LINE
  5
2B4
100
AcDbEntity
  8
218140080
100
AcDbLine
 62
7
  6
CONTINUOUS
 10
12.0916437572
 20
28.0908372801
 11
8.6612398568
 21
26.4535004672
  0
LINE
  5
2B5
100
AcDbEntity
  8
284
100
AcDbLine
 62
7
  6
CONTINUOUS
 10
23.5363200443
 20
-18.1558375055
 11
19.8053801903
 21
-18.3544889873
  0
LWPOLYLINE
  5
2B6
100
AcDbEntity
  8
290
100
AcDbPolyline
 62
250
  6
CONTINUOUS
 90
6
 70
0
 10
-11.9173415822
 20
-15.7469313946
 10
-11.727313106
 20
-15.7862089572
 10
-11.5388578304
 20
-15.8089203007
 10
-11.3546079368
 20
-15.8146304316
 10
-11.1746696486
 20
-15.8030697461
 10
-10.9989122066
 20
-15.7744970617
  0
LINE
  5
2B7
100
AcDbEntity
  8
290
100
AcDbLine
 62
7
  6
CONTINUOUS
 10
-12.0535142732
 20
-15.7600006369
 11
-11.7163837096
 21
-15.8463051285
  0
LINE
  5
2B8
100
AcDbEntity
  8
290
100
AcDbLine
 62
7
  6
CONTINUOUS
 10
-12.0556821758
 20
-15.75928972
 11
-11.7183280865
 21
-15.8459474061
  0
LINE
  5
2B9
100
AcDbEntity
  8
290
100
AcDbLine
 62
250
  6
CONTINUOUS
 10
-12.1080704809
 20
-15.6912346485
 11
-11.9173415822
 21
-15.7469313946
  0
LWPOLYLINE
  5
2BA
100
AcDbEntity
  8
290
100
AcDbPolyline
 62
7
  6
CONTINUOUS
 90
3
 70
0
 10
-12.1607664493
 20
-15.7224786805
 10
-11.9758329877
 20
-15.7841729697
 10
-11.7921959861
 20
-15.8311402233
  0
LINE
  5
2BB
100
AcDbEntity
  8
290
100
AcDbLine
 62
250
  6
CONTINUOUS
 10
-11.9078576143
 20
-15.8955819494
 11
-12.1383620754
 21
-15.8114743416
  0
LINE
  5
2BC
100
AcDbEntity
  8
290
100
AcDbLine
 62
250
  6
CONTINUOUS
 10
-12.3003858104
 20
-15.6189775215
 11
-12.1080704809
 21
-15.6912346485
  0
LINE
  5
2BD
100
AcDbEntity
  8
290
100
AcDbLine
 62
7
  6
CONTINUOUS
 10
-12.3928402514
 20
-15.6249498967
 11
-12.0535142732
 21
-15.7600006369
  0
LINE
  5
2BE
100
AcDbEntity
  8
290
100
AcDbLine
 62
7
  6
CONTINUOUS
 10
-12.395199532
 20
-15.6238437574
 11
-12.0556821758
 21
-15.75928972
  0
LINE
  5
2BF
100
AcDbEntity
  8
290
100
AcDbLine
 62
250
  6
CONTINUOUS
 10
-12.1383620754
 20
-15.8114743416
 11
-12.3595226294
 21
-15.7108485995
  0
LINE
  5
2C0
100
AcDbEntity
  8
290
100
AcDbLine
 62
250
  6
CONTINUOUS
 10
-12.4942908652
 20
-15.5301614686
 11
-12.3003858104
 21
-15.6189775215
  0
LWPOLYLINE
  5
2C1
100
AcDbEntity
  8
290
100
AcDbPolyline
 62
7
  6
CONTINUOUS
 90
3
 70
0
 10
-12.4683828579
 20
-15.5883810564
 10
-12.3462101745
 20
-15.6463378845
 10
-12.1607664493
 20
-15.7224786805
  0
LINE
  5
2C2
100
AcDbEntity
  8
290
100
AcDbLine
 62
250
  6
CONTINUOUS
 10
-12.2073211404
 20
-15.9402368485
 11
-12.4361359564
 21
-15.8316192144
  0
LINE
  5
2C3
100
AcDbEntity
  8
290
100
AcDbLine
 62
7
  6
CONTINUOUS
 10
-12.4683739451
 20
-15.5883855119
 11
-12.3928402514
 21
-15.6249498967
  0
LINE
  5
2C4
100
AcDbEntity
  8
290
100
AcDbLine
 62
250
  6
CONTINUOUS
 10
-12.4361359564
 20
-15.8316192144
 11
-15.4059844374
 21
-14.3466949739
  0
LINE
  5
2C5
100
AcDbEntity
  8
290
100
AcDbLine
 62
250
  6
CONTINUOUS
 10
-12.3595238427
 20
-15.710849082
 11
-15.3291861956
 21
-14.2260179055
  0
LINE
  5
2C6
100
AcDbEntity
  8
290
100
AcDbLine
 62
7
  6
CONTINUOUS
 10
-15.4382294642
 20
-14.1034681812
 11
-12.4683809838
 21
-15.5883924214
  0
LINE
  5
2C7
100
AcDbEntity
  8
290
100
AcDbLine
 62
250
  6
CONTINUOUS
 10
-15.4641393462
 20
-14.0452372281
 11
-12.4942908652
 21
-15.5301614686
  0
LINE
  5
2C8
100
AcDbEntity
  8
284
100
AcDbLine
 62
7
  6
CONTINUOUS
 10
16.8651496667
 20
-29.4136751398
 11
15.5216467825
 21
-28.7419236977
  0
LINE
  5
2C9
100
AcDbEntity
  8
284
100
AcDbLine
 62
250
  6
CONTINUOUS
 10
16.8001763703
 20
-29.2784566897
 11
15.456673486
 21
-28.6067052476
  0
LINE
  5
2CA
100
AcDbEntity
  8
284
100
AcDbLine
 62
250
  6
CONTINUOUS
 10
15.456673486
 20
-28.2553912755
 11
16.8001763703
 21
-28.9271427176
  0
LINE
  5
2CB
100
AcDbEntity
  8
284
100
AcDbLine
 62
250
  6
CONTINUOUS
 10
15.5450618337
 20
-28.0236971017
 11
16.8885647179
 21
-28.6954485438
  0
LINE
  5
2CC
100
AcDbEntity
  8
290
100
AcDbLine
 62
250
  6
CONTINUOUS
 10
-14.095945459
 20
-13.0311561437
 11
-14.3069270306
 21
-12.9256653579
  0
LINE
  5
2CD
100
AcDbEntity
  8
290
100
AcDbLine
 62
250
  6
CONTINUOUS
 10
-14.9275843509
 20
-12.6153366977
 11
-15.1395700142
 21
-12.5093438661
  0
LINE
  5
2CE
100
AcDbEntity
  8
290
100
AcDbLine
 62
7
  6
CONTINUOUS
 10
-15.5789884562
 20
-14.0289082987
 11
-15.4382193555
 21
-14.1034666684
  0
LWPOLYLINE
  5
2CF
100
AcDbEntity
  8
284
100
AcDbPolyline
 62
7
  6
CONTINUOUS
 90
7
 70
0
 10
15.5218312846
 20
-28.7420156953
 10
15.5104385522
 20
-28.7359590222
 10
15.4833529114
 20
-28.7182439105
 10
15.4587219782
 20
-28.6971186013
 10
15.4369704784
 20
-28.6728993255
 10
15.4184626026
 20
-28.6459113394
 10
15.4035584246
 20
-28.6165501947
  0
LINE
  5
2D0
100
AcDbEntity
  8
290
100
AcDbLine
 62
7
  6
CONTINUOUS
 10
-15.5975508253
 20
-14.0184541672
 11
-15.4380685414
 21
-14.1035415969
  0
LINE
  5
2D1
100
AcDbEntity
  8
290
100
AcDbLine
 62
250
  6
CONTINUOUS
 10
-15.3291861956
 20
-14.2260179055
 11
-15.6432025991
 21
-14.0491417126
  0
LINE
  5
2D2
100
AcDbEntity
  8
290
100
AcDbLine
 62
250
  6
CONTINUOUS
 10
-15.4059844374
 20
-14.3466949739
 11
-15.7314027536
 21
-14.1621165722
  0
LINE
  5
2D3
100
AcDbEntity
  8
290
100
AcDbLine
 62
7
  6
CONTINUOUS
 10
-15.7763155464
 20
-13.9102850388
 11
-15.5789884562
 21
-14.0289082987
  0
LINE
  5
2D4
100
AcDbEntity
  8
290
100
AcDbLine
 62
250
  6
CONTINUOUS
 10
-12.4737444789
 20
-15.5851252712
 11
-12.4683810362
 21
-15.5883923952
  0
LINE
  5
2D5
100
AcDbEntity
  8
290
100
AcDbLine
 62
7
  6
CONTINUOUS
 10
-15.9955283615
 20
-13.7586549214
 11
-15.5975508253
 21
-14.0184541672
  0
LWPOLYLINE
  5
2D6
100
AcDbEntity
  8
290
100
AcDbPolyline
 62
7
  6
CONTINUOUS
 90
3
 70
0
 10
-15.9976673377
 20
-13.7570692737
 10
-15.5998146562
 20
-14.017169342
 10
-15.5881883198
 20
-14.023377797
  0
LWPOLYLINE
  5
2D7
100
AcDbEntity
  8
290
100
AcDbPolyline
 62
250
  6
CONTINUOUS
 90
7
 70
0
 10
-15.4641393462
 20
-14.0452372281
 10
-15.4637202133
 20
-14.0593974667
 10
-15.4613655216
 20
-14.0723069213
 10
-15.4571401836
 20
-14.0836097131
 10
-15.4511606806
 20
-14.0929942544
 10
-15.4435918512
 20
-14.1002018387
 10
-15.4382294642
 20
-14.1034681812
  0
LWPOLYLINE
  5
2D8
100
AcDbEntity
  8
284
100
AcDbPolyline
 62
7
  6
CONTINUOUS
 90
10
 70
0
 10
2.157328618
 20
20.3896810636
 10
2.1289938477
 20
20.3731026969
 10
2.1026624187
 20
20.3525884148
 10
2.0790296148
 20
20.3284352116
 10
2.0587568829
 20
20.3011382848
 10
2.0423280518
 20
20.2712404274
 10
2.0300657254
 20
20.2391995573
 10
2.0222397954
 20
20.2053700677
 10
2.0191762121
 20
20.1707748646
 10
2.0191320206
 20
20.1660958222
  0
LWPOLYLINE
  5
2D9
100
AcDbEntity
  8
284
100
AcDbPolyline
 62
250
  6
CONTINUOUS
 90
13
 70
0
 10
2.2691320169
 20
20.3825806168
 10
2.2465712507
 20
20.3695298083
 10
2.2242233963
 20
20.3530234505
 10
2.2024710483
 20
20.33326678
 10
2.1816531026
 20
20.3104734792
 10
2.1622060546
 20
20.285021429
 10
2.1446175591
 20
20.2575025101
 10
2.1292244887
 20
20.2284603118
 10
2.1162523342
 20
20.1983390883
 10
2.1059285471
 20
20.1676707352
 10
2.0984293689
 20
20.1369893525
 10
2.0938798613
 20
20.1068211138
 10
2.0923553216
 20
20.0776859182
  0
LWPOLYLINE
  5
2DA
100
AcDbEntity
  8
284
100
AcDbPolyline
 62
250
  6
CONTINUOUS
 90
13
 70
0
 10
3.6126349012
 20
19.7108291747
 10
3.5900741349
 20
19.6977783662
 10
3.5677262806
 20
19.6812720084
 10
3.5459739325
 20
19.6615153378
 10
3.5251559868
 20
19.638722037
 10
3.5057089388
 20
19.6132699869
 10
3.4881204433
 20
19.585751068
 10
3.4727273729
 20
19.5567088697
 10
3.4597552185
 20
19.5265876462
 10
3.4494314314
 20
19.495919293
 10
3.4419322532
 20
19.4652379104
 10
3.4373827455
 20
19.4350696717
 10
3.4358582059
 20
19.4059344761
  0
LWPOLYLINE
  5
2DB
100
AcDbEntity
  8
268
100
AcDbPolyline
 62
7
  6
CONTINUOUS
 90
5
 70
0
 10
8.6701363545
 20
23.4469085905
 10
8.6703707914
 20
23.4470415923
 10
8.6712980274
 20
23.4478692637
 10
8.6718044448
 20
23.4489203351
 10
8.6719161902
 20
23.4498645794
  0
LINE
  5
2DC
100
AcDbEntity
  8
268
100
AcDbLine
 62
250
  6
CONTINUOUS
 10
3.3135429359
 20
21.1412715204
 11
8.6718697161
 21
24.0322117473
  0
LINE
  5
2DD
100
AcDbEntity
  8
268
100
AcDbLine
 62
250
  6
CONTINUOUS
 10
4.3947518963
 20
21.4761964167
 11
8.5877181485
 21
23.7383979035
  0
LINE
  5
2DE
100
AcDbEntity
  8
715
100
AcDbLine
 62
7
  6
CONTINUOUS
 10
8.7449865083
 20
24.1060198467
 11
9.3957601631
 21
24.4491856628
  0
LINE
  5
2DF
100
AcDbEntity
  8
715
100
AcDbLine
 62
250
  6
CONTINUOUS
 10
9.3956323811
 20
24.4491182759
 11
9.3957601631
 21
24.4491856628
  0
LINE
  5
2E0
100
AcDbEntity
  8
268
100
AcDbLine
 62
250
  6
CONTINUOUS
 10
4.5410786259
 20
21.4309298021
 11
8.5877181485
 21
23.5261387494
  0
LINE
  5
2E1
100
AcDbEntity
  8
268
100
AcDbLine
 62
7
  6
CONTINUOUS
 10
4.6608447566
 20
21.3710467368
 11
8.6699278608
 21
23.4468102793
  0
LWPOLYLINE
  5
2E2
100
AcDbEntity
  8
284
100
AcDbPolyline
 62
7
  6
CONTINUOUS
 90
4
 70
0
 10
2.5999492293
 20
19.0597386786
 10
2.5675472118
 20
19.0431429278
 10
2.5370208773
 20
19.0260954026
 10
2.5076424168
 20
19.0084016206
  0
LINE
  5
2E3
100
AcDbEntity
  8
268
100
AcDbLine
 62
250
  6
CONTINUOUS
 10
2.3277707917
 20
19.5059324092
 11
1.1731165061
 21
18.916264106
  0
LINE
  5
2E4
100
AcDbEntity
  8
268
100
AcDbLine
 62
250
  6
CONTINUOUS
 10
2.7262387981
 20
19.1561723149
 11
1.4206038795
 21
18.489399986
  0
LINE
  5
2E5
100
AcDbEntity
  8
268
100
AcDbLine
 62
7
  6
CONTINUOUS
 10
2.1827824503
 20
19.5784265799
 11
1.7326311907
 21
19.3511712341
  0
LINE
  5
2E6
100
AcDbEntity
  8
715
100
AcDbLine
 62
7
  6
CONTINUOUS
 10
9.5240475919
 20
24.2260939314
 11
10.0190223387
 21
24.4735813048
  0
LINE
  5
2E7
100
AcDbEntity
  8
284
100
AcDbLine
 62
7
  6
CONTINUOUS
 10
2.157328618
 20
20.3896810636
 11
4.2786489616
 21
21.4503412354
  0
LINE
  5
2E8
100
AcDbEntity
  8
284
100
AcDbLine
 62
250
  6
CONTINUOUS
 10
2.2691320169
 20
20.3825806168
 11
4.3904523605
 21
21.4432407886
  0
LINE
  5
2E9
100
AcDbEntity
  8
715
100
AcDbLine
 62
7
  6
CONTINUOUS
 10
12.4872002512
 20
24.6540811571
 11
11.1757359402
 21
23.9983490016
  0
LINE
  5
2EA
100
AcDbEntity
  8
284
100
AcDbLine
 62
250
  6
CONTINUOUS
 10
3.6126349012
 20
19.7108291747
 11
5.7339552447
 21
20.7714893464
  0
LINE
  5
2EB
100
AcDbEntity
  8
715
100
AcDbLine
 62
7
  6
CONTINUOUS
 10
13.335730959
 20
24.2298183736
 11
12.4568383078
 21
23.790372048
  0
LINE
  5
2EC
100
AcDbEntity
  8
284
100
AcDbLine
 62
250
  6
CONTINUOUS
 10
3.7894115965
 20
19.4059344761
 11
5.91073194
 21
20.4665946479
  0
LINE
  5
2ED
100
AcDbEntity
  8
284
100
AcDbLine
 62
250
  6
CONTINUOUS
 10
2.3063213613
 20
18.7523423512
 11
2.5460879973
 21
18.8713071929
  0
LINE
  5
2EE
100
AcDbEntity
  8
284
100
AcDbLine
 62
7
  6
CONTINUOUS
 10
2.0831642342
 20
18.766810455
 11
2.3177905429
 21
18.8831868338
  0
LINE
  5
2EF
100
AcDbEntity
  8
284
100
AcDbLine
 62
7
  6
CONTINUOUS
 10
2.7162291349
 20
19.1164970888
 11
2.5999992204
 21
19.0597610232
  0
LINE
  5
2F0
100
AcDbEntity
  8
284
100
AcDbLine
 62
7
  6
CONTINUOUS
 10
2.7262387981
 20
19.1213841411
 11
2.7162291349
 21
19.1164970888
  0
LINE
  5
2F1
100
AcDbEntity
  8
284
100
AcDbLine
 62
7
  6
CONTINUOUS
 10
2.5999500406
 20
19.0597370112
 11
2.5999992204
 21
19.0597610232
  0
LINE
  5
2F2
100
AcDbEntity
  8
218140000
100
AcDbLine
 62
7
  6
CONTINUOUS
 10
9.2537197882
 20
22.9472935615
 11
5.3250482939
 21
21.0389449681
  0
LINE
  5
2F3
100
AcDbEntity
  8
218140080
100
AcDbLine
 62
7
  6
CONTINUOUS
 10
9.2537197882
 20
22.9472935615
 11
5.3250482939
 21
21.0389449681
  0
LINE
  5
2F4
100
AcDbEntity
  8
284
100
AcDbLine
 62
250
  6
CONTINUOUS
 10
2.7041181208
 20
19.0806265367
 11
2.7225975876
 21
19.0895207212
  0
LINE
  5
2F5
100
AcDbEntity
  8
218140000
100
AcDbLine
 62
7
  6
CONTINUOUS
 10
16.7933068363
 20
25.7400057406
 11
13.3721607665
 21
24.0980400123
  0
LINE
  5
2F6
100
AcDbEntity
  8
218140080
100
AcDbLine
 62
7
  6
CONTINUOUS
 10
16.7933068363
 20
25.7400057406
 11
13.3721607665
 21
24.0980400123
  0
LINE
  5
2F7
100
AcDbEntity
  8
284
100
AcDbLine
 62
7
  6
CONTINUOUS
 10
4.2880502668
 20
21.4547996685
 11
4.2784873314
 21
21.4502602254
  0
LWPOLYLINE
  5
2F8
100
AcDbEntity
  8
284
100
AcDbPolyline
 62
250
  6
CONTINUOUS
 90
7
 70
0
 10
2.157328618
 20
20.3896810636
 10
2.1615171833
 20
20.3916477194
 10
2.1807436693
 20
20.3977684397
 10
2.2014825044
 20
20.3999248084
 10
2.2233788414
 20
20.3980799295
 10
2.246058028
 20
20.3922653694
 10
2.2691320169
 20
20.3825806168
  0
LWPOLYLINE
  5
2F9
100
AcDbEntity
  8
284
100
AcDbPolyline
 62
250
  6
CONTINUOUS
 90
5
 70
0
 10
2.5999992204
 20
19.0597610232
 10
2.6069506639
 20
19.0629916191
 10
2.6375693604
 20
19.0736892815
 10
2.670070741
 20
19.0795879557
 10
2.7041181208
 20
19.0806265367
  0
LWPOLYLINE
  5
2FA
100
AcDbEntity
  8
284
100
AcDbPolyline
 62
250
  6
CONTINUOUS
 90
7
 70
0
 10
4.2786743216
 20
21.4503539106
 10
4.2835263981
 20
21.4526075631
 10
4.3029734462
 20
21.4586125653
 10
4.3237913919
 20
21.4605879204
 10
4.3455437399
 20
21.4585922429
 10
4.3678915942
 20
21.4527507463
 10
4.3904523605
 20
21.4432407886
  0
LWPOLYLINE
  5
2FB
100
AcDbEntity
  8
715
100
AcDbPolyline
 62
7
  6
CONTINUOUS
 90
10
 70
0
 10
13.3357020631
 20
24.2298039256
 10
13.3470985273
 20
24.2349725808
 10
13.3583189298
 20
24.2390244772
 10
13.3693632705
 20
24.2419596148
 10
13.3803265295
 20
24.2437781461
 10
13.3911137266
 20
24.2444799186
 10
13.4014399221
 20
24.2440644742
 10
13.4112101358
 20
24.2425316603
 10
13.4205193478
 20
24.2398816296
 10
13.4293675581
 20
24.236114382
  0
LWPOLYLINE
  5
2FC
100
AcDbEntity
  8
218140000
100
AcDbPolyline
 62
7
  6
CONTINUOUS
 90
9
 70
0
 10
17.5989787724
 20
25.3371697726
 10
17.6551246501
 20
25.3624328109
 10
17.708357361
 20
25.3818853034
 10
17.7582278215
 20
25.3955149143
 10
17.8041985912
 20
25.4034226018
 10
17.8459905527
 20
25.4056555797
 10
17.8835834628
 20
25.4021985654
 10
17.9166177514
 20
25.3932619613
 10
17.9311797019
 20
25.3868889034
  0
LWPOLYLINE
  5
2FD
100
AcDbEntity
  8
218140080
100
AcDbPolyline
 62
7
  6
CONTINUOUS
 90
9
 70
0
 10
17.5989787724
 20
25.3371697726
 10
17.6551246501
 20
25.3624328109
 10
17.708357361
 20
25.3818853034
 10
17.7582278215
 20
25.3955149143
 10
17.8041985912
 20
25.4034226018
 10
17.8459905527
 20
25.4056555797
 10
17.8835834628
 20
25.4021985654
 10
17.9166177514
 20
25.3932619613
 10
17.9311797019
 20
25.3868889034
  0
LWPOLYLINE
  5
2FE
100
AcDbEntity
  8
284
100
AcDbPolyline
 62
250
  6
CONTINUOUS
 90
8
 70
0
 10
2.3178032791
 20
18.8831931505
 10
2.3334786377
 20
18.8901451496
 10
2.365401443
 20
18.8997588402
 10
2.399236451
 20
18.9042831647
 10
2.4346171401
 20
18.9036681769
 10
2.4711576917
 20
18.8979185008
 10
2.5084565452
 20
18.8870953275
 10
2.5461049238
 20
18.8713155887
  0
LWPOLYLINE
  5
2FF
100
AcDbEntity
  8
284
100
AcDbPolyline
 62
250
  6
CONTINUOUS
 90
13
 70
0
 10
3.7894115965
 20
19.4059344761
 10
3.765405284
 20
19.3953768661
 10
3.7387035182
 20
19.3863798946
 10
3.7097002752
 20
19.3791291681
 10
3.678770568
 20
19.373776076
 10
3.6464812322
 20
19.3704736959
 10
3.6136041067
 20
19.3693237631
 10
3.5807823754
 20
19.3703415584
 10
3.5485122048
 20
19.3735044892
 10
3.5173624807
 20
19.3787555642
 10
3.4878735851
 20
19.3860008338
 10
3.4605491424
 20
19.3951135475
 10
3.4358582059
 20
19.4059344761
  0
LWPOLYLINE
  5
300
100
AcDbEntity
  8
284
100
AcDbPolyline
 62
250
  6
CONTINUOUS
 90
13
 70
0
 10
3.7894115965
 20
19.054620504
 10
3.7648252584
 20
19.0438396841
 10
3.7376349012
 20
19.0347556762
 10
3.7083057593
 20
19.0275239101
 10
3.6773396624
 20
19.0222681234
 10
3.6452664492
 20
19.019078244
 10
3.6126349012
 20
19.0180088516
 10
3.5800033531
 20
19.019078244
 10
3.5479301399
 20
19.0222681234
 10
3.5169640431
 20
19.0275239101
 10
3.4876349012
 20
19.0347556762
 10
3.4604445439
 20
19.0438396841
 10
3.4358582059
 20
19.054620504
  0
LWPOLYLINE
  5
301
100
AcDbEntity
  8
284
100
AcDbPolyline
 62
250
  6
CONTINUOUS
 90
13
 70
0
 10
4.4965183776
 20
18.6581738946
 10
4.4719320396
 20
18.6473930747
 10
4.4447416824
 20
18.6383090668
 10
4.4154125404
 20
18.6310773007
 10
4.3844464436
 20
18.6258215139
 10
4.3523732304
 20
18.6226316346
 10
4.3197416824
 20
18.6215622422
 10
4.2871101343
 20
18.6226316346
 10
4.2550369211
 20
18.6258215139
 10
4.2240708243
 20
18.6310773007
 10
4.1947416824
 20
18.6383090668
 10
4.1675513251
 20
18.6473930747
 10
4.1429649871
 20
18.6581738946
  0
LWPOLYLINE
  5
302
100
AcDbEntity
  8
284
100
AcDbPolyline
 62
250
  6
CONTINUOUS
 90
4
 70
0
 10
5.3425783721
 20
18.7541770202
 10
5.3243465594
 20
18.7469001878
 10
5.3064611127
 20
18.742663511
 10
5.2892213035
 20
18.741537881
  0
LINE
  5
303
100
AcDbEntity
  8
268
100
AcDbLine
 62
7
  6
CONTINUOUS
 10
1.4206038795
 20
18.4650044807
 11
1.986082542
 21
18.6627072657
  0
LWPOLYLINE
  5
304
100
AcDbEntity
  8
290
100
AcDbPolyline
 62
250
  6
CONTINUOUS
 90
6
 70
0
 10
-10.9671084556
 20
-16.1259400127
 10
-11.2233567931
 20
-16.1434648453
 10
-11.4801482536
 20
-16.1266575724
 10
-11.7305062707
 20
-16.0860139187
 10
-11.9721138338
 20
-16.0250362306
 10
-12.2073211404
 20
-15.9402368485
  0
LWPOLYLINE
  5
305
100
AcDbEntity
  8
290
100
AcDbPolyline
 62
250
  6
CONTINUOUS
 90
5
 70
0
 10
-10.922545081
 20
-15.9991184693
 10
-11.1746793009
 20
-16.0150225133
 10
-11.4242555819
 20
-16.0007851013
 10
-11.6692575991
 20
-15.9598437075
 10
-11.9078576143
 20
-15.8955819494
  0
LINE
  5
306
100
AcDbEntity
  8
290
100
AcDbLine
 62
7
  6
CONTINUOUS
 10
-11.3856403976
 20
-15.8825737243
 11
-11.0650954438
 21
-15.8681452485
  0
LINE
  5
307
100
AcDbEntity
  8
290
100
AcDbLine
 62
7
  6
CONTINUOUS
 10
-11.3873388889
 20
-15.8825157853
 11
-11.0665335615
 21
-15.8683270525
  0
LINE
  5
308
100
AcDbEntity
  8
290
100
AcDbLine
 62
7
  6
CONTINUOUS
 10
-10.8183180585
 20
-15.9122044133
 11
-11.0723514432
 21
-15.9124002312
  0
LWPOLYLINE
  5
309
100
AcDbEntity
  8
290
100
AcDbPolyline
 62
7
  6
CONTINUOUS
 90
3
 70
0
 10
-11.4309611927
 20
-15.8805617629
 10
-11.2543908948
 20
-15.882857163
 10
-11.0813878981
 20
-15.8701413784
  0
LINE
  5
30A
100
AcDbEntity
  8
290
100
AcDbLine
 62
7
  6
CONTINUOUS
 10
-10.9950441873
 20
-15.8559819241
 11
-10.7207113967
 21
-15.8649112185
  0
LWPOLYLINE
  5
30B
100
AcDbEntity
  8
284
100
AcDbPolyline
 62
7
  6
CONTINUOUS
 90
18
 70
0
 10
23.5363060281
 20
-18.155792424
 10
23.5732478812
 20
-18.1570840601
 10
23.6102675461
 20
-18.1643964589
 10
23.6484267416
 20
-18.1779406608
 10
23.6874752236
 20
-18.1974649018
 10
23.7256344191
 20
-18.2220798954
 10
23.7626540839
 20
-18.2517871615
 10
23.7987844623
 20
-18.2865851802
 10
23.8329977133
 20
-18.3255801059
 10
23.8654478973
 20
-18.3691641221
 10
23.8959809539
 20
-18.4169450453
 10
23.9231068613
 20
-18.4668524787
 10
23.9466008658
 20
-18.5187648826
 10
23.966687721
 20
-18.5728037968
 10
23.9825516655
 20
-18.6272634436
 10
23.9939207787
 20
-18.6815752305
 10
24.0010669813
 20
-18.7363077501
 10
24.0039902731
 20
-18.7914610023
  0
LINE
  5
30C
100
AcDbEntity
  8
290
100
AcDbLine
 62
7
  6
CONTINUOUS
 10
-11.7163837096
 20
-15.8463051285
 11
-11.3856403976
 21
-15.8825737243
  0
LINE
  5
30D
100
AcDbEntity
  8
290
100
AcDbLine
 62
7
  6
CONTINUOUS
 10
-11.7183280865
 20
-15.8459474061
 11
-11.3873388889
 21
-15.8825157853
  0
LWPOLYLINE
  5
30E
100
AcDbEntity
  8
290
100
AcDbPolyline
 62
7
  6
CONTINUOUS
 90
3
 70
0
 10
-11.0723514432
 20
-15.9124002312
 10
-11.3314938759
 20
-15.8827642288
 10
-11.3415555923
 20
-15.8804908596
  0
LWPOLYLINE
  5
30F
100
AcDbEntity
  8
290
100
AcDbPolyline
 62
7
  6
CONTINUOUS
 90
3
 70
0
 10
-11.7921959861
 20
-15.8311402233
 10
-11.6104290939
 20
-15.8632870359
 10
-11.4309611927
 20
-15.8805617629
  0
LWPOLYLINE
  5
310
100
AcDbEntity
  8
284
100
AcDbPolyline
 62
250
  6
CONTINUOUS
 90
3
 70
0
 10
19.2097582694
 20
-27.554328886
 10
19.2039213694
 20
-27.5516823074
 10
19.1866617568
 20
-27.5464000244
  0
LINE
  5
311
100
AcDbEntity
  8
284
100
AcDbLine
 62
250
  6
CONTINUOUS
 10
18.6391562961
 20
-27.4313175201
 11
18.6329166197
 21
-27.4284776912
  0
LWPOLYLINE
  5
312
100
AcDbEntity
  8
290
100
AcDbPolyline
 62
250
  6
CONTINUOUS
 90
67
 70
0
 10
-12.1241153475
 20
-13.6653390325
 10
-12.1227914171
 20
-13.665982947
 10
-12.1215156802
 20
-13.6665670037
 10
-12.1202524453
 20
-13.6671095593
 10
-12.1183288698
 20
-13.6678728474
 10
-12.1163881232
 20
-13.6685686989
 10
-12.1144581866
 20
-13.6691852965
 10
-12.1125389442
 20
-13.6697249982
 10
-12.1106250259
 20
-13.6701928368
 10
-12.1087181397
 20
-13.6705903663
 10
-12.1061914173
 20
-13.6710127211
 10
-12.1036846812
 20
-13.6713159359
 10
-12.1011992341
 20
-13.6715046481
 10
-12.0987363188
 20
-13.671583398
 10
-12.0962969403
 20
-13.6715563375
 10
-12.0938820438
 20
-13.6714275215
 10
-12.0914923949
 20
-13.6712008444
 10
-12.089128041
 20
-13.6708795587
 10
-12.0867888499
 20
-13.670466757
 10
-12.0844749106
 20
-13.6699656176
 10
-12.0821871967
 20
-13.6693796643
 10
-12.0799269031
 20
-13.668712507
 10
-12.0765888225
 20
-13.6675656236
 10
-12.0733091583
 20
-13.6662456178
 10
-12.0700819431
 20
-13.6647539541
 10
-12.0669012095
 20
-13.6630920969
 10
-12.0637629425
 20
-13.6612620504
 10
-12.0606709361
 20
-13.6592679776
 10
-12.057630937
 20
-13.6571145809
 10
-12.0546486915
 20
-13.654806563
 10
-12.0517299461
 20
-13.6523486265
 10
-12.0488804473
 20
-13.6497454739
 10
-12.0461059415
 20
-13.6470018078
 10
-12.0434121753
 20
-13.6441223308
 10
-12.0408046974
 20
-13.6411120283
 10
-12.0382882658
 20
-13.6379770176
 10
-12.0358674411
 20
-13.6347236988
 10
-12.0335467834
 20
-13.6313584718
 10
-12.0313308533
 20
-13.6278877367
 10
-12.0292242111
 20
-13.6243178936
 10
-12.0272314172
 20
-13.6206553427
 10
-12.0253570319
 20
-13.6169064838
 10
-12.0236049634
 20
-13.613075323
 10
-12.0219765103
 20
-13.6091562898
 10
-12.0204723191
 20
-13.6051414195
 10
-12.0190930362
 20
-13.6010227473
 10
-12.0182437091
 20
-13.5982159164
 10
-12.0174532685
 20
-13.5953603591
 10
-12.0167247988
 20
-13.5924570234
 10
-12.0160612936
 20
-13.5895065914
 10
-12.015465383
 20
-13.586508684
 10
-12.0149396064
 20
-13.5834626565
 10
-12.0144866595
 20
-13.5803680773
 10
-12.014109863
 20
-13.577225367
 10
-12.013812694
 20
-13.574035159
 10
-12.0135987196
 20
-13.5707981626
 10
-12.0134718684
 20
-13.5675153885
 10
-12.0134361592
 20
-13.564187923
 10
-12.0134715092
 20
-13.5616643237
 10
-12.013561497
 20
-13.5591207051
 10
-12.0137076658
 20
-13.5565591404
 10
-12.0139132919
 20
-13.5539719616
 10
-12.0141802842
 20
-13.5513587692
 10
-12.014503349
 20
-13.5487579783
 10
-12.0147482934
 20
-13.5470441805
 10
-12.015024422
 20
-13.5453080021
 10
-12.0153411508
 20
-13.5435001647
  0
LINE
  5
313
100
AcDbEntity
  8
290
100
AcDbLine
 62
250
  6
CONTINUOUS
 10
-15.6552059168
 20
-11.8997947707
 11
-12.1241153915
 21
-13.6653400334
  0
LINE
  5
314
100
AcDbEntity
  8
290
100
AcDbLine
 62
250
  6
CONTINUOUS
 10
-12.1136888759
 20
-13.5394421828
 11
-15.6544369872
 21
-11.7690681271
  0
LINE
  5
315
100
AcDbEntity
  8
290
100
AcDbLine
 62
250
  6
CONTINUOUS
 10
-12.25704439
 20
-13.3274658538
 11
-15.4988496746
 21
-11.7065632115
  0
LINE
  5
316
100
AcDbEntity
  8
284
100
AcDbLine
 62
250
  6
CONTINUOUS
 10
17.4188948038
 20
-28.0552835008
 11
16.0753919196
 21
-27.3835320587
  0
LINE
  5
317
100
AcDbEntity
  8
284
100
AcDbLine
 62
250
  6
CONTINUOUS
 10
17.5072831515
 20
-27.823589327
 11
16.1637802672
 21
-27.1518378849
  0
LINE
  5
318
100
AcDbEntity
  8
284
100
AcDbLine
 62
7
  6
CONTINUOUS
 10
14.6409751419
 20
-26.2733887472
 11
17.2933171118
 21
-27.5995597321
  0
LINE
  5
319
100
AcDbEntity
  8
284
100
AcDbLine
 62
7
  6
CONTINUOUS
 10
17.6470320624
 20
-27.3173369978
 11
14.6772584121
 21
-25.8324501726
  0
LINE
  5
31A
100
AcDbEntity
  8
284
100
AcDbLine
 62
250
  6
CONTINUOUS
 10
18.6563316709
 20
-27.4365650673
 11
18.6470534983
 21
-27.431925981
  0
LINE
  5
31B
100
AcDbEntity
  8
284
100
AcDbLine
 62
7
  6
CONTINUOUS
 10
18.1146741568
 20
-27.0224211804
 11
14.7190469755
 21
-25.3246075898
  0
LINE
  5
31C
100
AcDbEntity
  8
284
100
AcDbLine
 62
250
  6
CONTINUOUS
 10
18.641166628
 20
-27.2736524599
 11
19.1866617568
 21
-27.5464000244
  0
LINE
  5
31D
100
AcDbEntity
  8
284
100
AcDbLine
 62
7
  6
CONTINUOUS
 10
18.641166628
 20
-27.2700323104
 11
19.210076808
 21
-27.5544874004
  0
LWPOLYLINE
  5
31E
100
AcDbEntity
  8
284
100
AcDbPolyline
 62
250
  6
CONTINUOUS
 90
8
 70
0
 10
15.5216721424
 20
-28.7419363729
 10
15.5089357235
 20
-28.7342596021
 10
15.4935426531
 20
-28.7206104741
 10
15.4805704986
 20
-28.703461405
 10
15.4702467116
 20
-28.683116839
 10
15.4627475334
 20
-28.6599346345
 10
15.4581980257
 20
-28.6343159035
 10
15.456673486
 20
-28.6067052476
  0
LWPOLYLINE
  5
31F
100
AcDbEntity
  8
284
100
AcDbPolyline
 62
250
  6
CONTINUOUS
 90
8
 70
0
 10
16.8649880365
 20
-29.4135941298
 10
16.8524386077
 20
-29.4060110442
 10
16.8370455374
 20
-29.3923619162
 10
16.8240733829
 20
-29.3752128472
 10
16.8137495958
 20
-29.3548682811
 10
16.8062504176
 20
-29.3316860767
 10
16.80170091
 20
-29.3060673456
 10
16.8001763703
 20
-29.2784566897
  0
LWPOLYLINE
  5
320
100
AcDbEntity
  8
290
100
AcDbPolyline
 62
250
  6
CONTINUOUS
 90
7
 70
0
 10
-12.4942908652
 20
-15.5301614686
 10
-12.4938718176
 20
-15.5443208733
 10
-12.49151739
 20
-15.5572298756
 10
-12.4872923859
 20
-15.5685325683
 10
-12.4813131653
 20
-15.5779173122
 10
-12.4737444789
 20
-15.5851252712
 10
-12.4683870187
 20
-15.5883894032
  0
LWPOLYLINE
  5
321
100
AcDbEntity
  8
290
100
AcDbPolyline
 62
250
  6
CONTINUOUS
 90
7
 70
0
 10
-15.0100564598
 20
-6.2565637571
 10
-15.0099589024
 20
-6.2711732343
 10
-15.0078441817
 20
-6.2845439954
 10
-15.0037728852
 20
-6.2962929615
 10
-14.9978616574
 20
-6.3060835185
 10
-14.990279858
 20
-6.3136351619
 10
-14.984274394
 20
-6.3173805313
  0
LINE
  5
322
100
AcDbEntity
  8
268
100
AcDbLine
 62
7
  6
CONTINUOUS
 10
-14.347877341
 20
26.3736405963
 11
-14.347877341
 21
26.349245091
  0
LINE
  5
323
100
AcDbEntity
  8
268
100
AcDbLine
 62
7
  6
CONTINUOUS
 10
-13.948684044
 20
27.7468916289
 11
-13.948684044
 21
28.0002630227
  0
LINE
  5
324
100
AcDbEntity
  8
268
100
AcDbLine
 62
7
  6
CONTINUOUS
 10
-13.5347045426
 20
25.9426586918
 11
-13.5347045426
 21
25.5090266336
  0
LINE
  5
325
100
AcDbEntity
  8
268
100
AcDbLine
 62
7
  6
CONTINUOUS
 10
-13.2456910898
 20
26.8403323743
 11
-13.2456910898
 21
27.2926633499
  0
LWPOLYLINE
  5
326
100
AcDbEntity
  8
290
100
AcDbPolyline
 62
250
  6
CONTINUOUS
 90
89
 70
0
 10
-15.1395700142
 20
-12.5093438661
 10
-15.1399767019
 20
-12.5236746097
 10
-15.140134012
 20
-12.5376157207
 10
-15.1400524394
 20
-12.5513612523
 10
-15.139742479
 20
-12.5651052578
 10
-15.1389884656
 20
-12.5836631337
 10
-15.1378503502
 20
-12.602420312
 10
-15.1363313964
 20
-12.6212338249
 10
-15.1344358134
 20
-12.6399882425
 10
-15.1321715946
 20
-12.6586782872
 10
-15.1295476794
 20
-12.6773262193
 10
-15.1249561354
 20
-12.7052446503
 10
-15.1196007863
 20
-12.7330543417
 10
-15.1135058999
 20
-12.7606992702
 10
-15.1066912226
 20
-12.7881556062
 10
-15.0991753702
 20
-12.8154075686
 10
-15.0909769586
 20
-12.8424393761
 10
-15.0821159736
 20
-12.8692303203
 10
-15.0726178806
 20
-12.8957399822
 10
-15.0624978695
 20
-12.921948192
 10
-15.0517245479
 20
-12.9479354845
 10
-15.0402630686
 20
-12.9737827654
 10
-15.0281113464
 20
-12.999471716
 10
-15.0152754865
 20
-13.0249592121
 10
-15.0017615941
 20
-13.0502021293
 10
-14.9875812904
 20
-13.0751511098
 10
-14.9727682593
 20
-13.099731862
 10
-14.9573617009
 20
-13.1238638611
 10
-14.941400815
 20
-13.1474665821
 10
-14.9249320216
 20
-13.1704598447
 10
-14.9080306208
 20
-13.1927648469
 10
-14.8907791327
 20
-13.2143031316
 10
-14.8732600775
 20
-13.2349962414
 10
-14.8555370148
 20
-13.2547862779
 10
-14.8375976628
 20
-13.2736975776
 10
-14.8194107792
 20
-13.2917750359
 10
-14.8009451217
 20
-13.3090635483
 10
-14.7821802751
 20
-13.3255955957
 10
-14.7631391323
 20
-13.3413540021
 10
-14.7438554137
 20
-13.3563091773
 10
-14.7243628393
 20
-13.3704315308
 10
-14.7046951294
 20
-13.3836914724
 10
-14.684886004
 20
-13.3960594118
 10
-14.6649691834
 20
-13.4075057586
 10
-14.6449783877
 20
-13.4180009225
 10
-14.6249474945
 20
-13.427519474
 10
-14.6049110105
 20
-13.4360526271
 10
-14.5849036
 20
-13.4435957568
 10
-14.564959927
 20
-13.450144238
 10
-14.5451146559
 20
-13.4556934454
 10
-14.5254024507
 20
-13.4602387539
 10
-14.5058579756
 20
-13.4637755386
 10
-14.4865158949
 20
-13.4662991742
 10
-14.4673994697
 20
-13.4678037352
 10
-14.4484863501
 20
-13.4682780945
 10
-14.429742783
 20
-13.4677098244
 10
-14.4111350154
 20
-13.4660864975
 10
-14.3926491488
 20
-13.4633968442
 10
-14.3743507021
 20
-13.4596342267
 10
-14.3563250485
 20
-13.4547931654
 10
-14.3386575614
 20
-13.4488681806
 10
-14.321426714
 20
-13.4418612025
 10
-14.3046833802
 20
-13.4338038
 10
-14.2884715337
 20
-13.4247349521
 10
-14.2728351483
 20
-13.4146936377
 10
-14.2578124034
 20
-13.4037182551
 10
-14.2434183
 20
-13.3918448807
 10
-14.229662045
 20
-13.3791090101
 10
-14.2165528451
 20
-13.3655461393
 10
-14.2040900099
 20
-13.3511759865
 10
-14.1922332615
 20
-13.3359551611
 10
-14.1809456623
 20
-13.3198372433
 10
-14.1702432244
 20
-13.3028268072
 10
-14.1601534776
 20
-13.2849377893
 10
-14.1506970718
 20
-13.2661705829
 10
-14.1418929373
 20
-13.2465221955
 10
-14.133760004
 20
-13.2259896344
 10
-14.1263189609
 20
-13.204576513
 10
-14.1195975314
 20
-13.1823128689
 10
-14.1155305714
 20
-13.1670092042
 10
-14.1118031702
 20
-13.1513137643
 10
-14.1084219552
 20
-13.1351964979
 10
-14.1053949641
 20
-13.1186546669
 10
-14.1027358764
 20
-13.1017947852
 10
-14.1004597821
 20
-13.0847506797
 10
-14.0990110204
 20
-13.0718850973
 10
-14.0977798998
 20
-13.058794955
 10
-14.0967601396
 20
-13.045284041
 10
-14.095945459
 20
-13.0311561437
  0
LWPOLYLINE
  5
327
100
AcDbEntity
  8
290
100
AcDbPolyline
 62
250
  6
CONTINUOUS
 90
89
 70
0
 10
-14.3069270306
 20
-12.9256653579
 10
-14.3074445987
 20
-12.9340156645
 10
-14.308082085
 20
-12.9420021115
 10
-14.3088436747
 20
-12.9497400715
 10
-14.3097335529
 20
-12.9573449173
 10
-14.3111236614
 20
-12.9674183714
 10
-14.3127400636
 20
-12.9773816622
 10
-14.3145735445
 20
-12.9871561672
 10
-14.3166157876
 20
-12.9966793175
 10
-14.3188620693
 20
-13.005952759
 10
-14.3213085648
 20
-13.0149941914
 10
-14.3253445856
 20
-13.028146508
 10
-14.3298050372
 20
-13.0407951675
 10
-14.334673525
 20
-13.0529225826
 10
-14.3399378517
 20
-13.0645266613
 10
-14.3455868691
 20
-13.0756091854
 10
-14.351609429
 20
-13.0861719364
 10
-14.3579933589
 20
-13.0962147048
 10
-14.3647223881
 20
-13.105729316
 10
-14.3717870492
 20
-13.1147130769
 10
-14.3792091844
 20
-13.1231931844
 10
-14.3870125939
 20
-13.131195054
 10
-14.3951976012
 20
-13.1387070846
 10
-14.40375866
 20
-13.1457084213
 10
-14.4126902245
 20
-13.1521782089
 10
-14.421983339
 20
-13.1580952632
 10
-14.43161541
 20
-13.1634370832
 10
-14.4415604348
 20
-13.168180839
 10
-14.4517924102
 20
-13.1723037005
 10
-14.4622812835
 20
-13.1757871899
 10
-14.4729808013
 20
-13.1786302396
 10
-14.4838406604
 20
-13.180836134
 10
-14.4948105576
 20
-13.1824081577
 10
-14.5058518866
 20
-13.1833502563
 10
-14.5169728291
 20
-13.183669019
 10
-14.5281932638
 20
-13.1833716963
 10
-14.5395330695
 20
-13.1824655385
 10
-14.5510054063
 20
-13.1809570444
 10
-14.5625965598
 20
-13.1788497073
 10
-14.5742860971
 20
-13.1761462694
 10
-14.5860535852
 20
-13.1728494725
 10
-14.5978785913
 20
-13.1689620586
 10
-14.6097406824
 20
-13.1644867697
 10
-14.6216194255
 20
-13.1594263477
 10
-14.6334943878
 20
-13.1537835346
 10
-14.6453452346
 20
-13.1475635146
 10
-14.6571520251
 20
-13.1407812406
 10
-14.6688949168
 20
-13.1334541078
 10
-14.6805540673
 20
-13.1255995114
 10
-14.692109634
 20
-13.1172348465
 10
-14.7035417745
 20
-13.1083775083
 10
-14.7148306463
 20
-13.099044892
 10
-14.7259564068
 20
-13.0892543927
 10
-14.7369055893
 20
-13.079016107
 10
-14.7476902288
 20
-13.0683109378
 10
-14.7583287361
 20
-13.0571124891
 10
-14.7688395222
 20
-13.0453943652
 10
-14.7792298322
 20
-13.0331422627
 10
-14.7894622495
 20
-13.0203902475
 10
-14.7994881922
 20
-13.0071844779
 10
-14.8092590782
 20
-12.9935711122
 10
-14.8187305682
 20
-12.9795965149
 10
-14.8278752942
 20
-12.9653078751
 10
-14.8366701309
 20
-12.9507525878
 10
-14.8450919531
 20
-12.9359780483
 10
-14.853120881
 20
-12.921027995
 10
-14.8607500162
 20
-12.9059315398
 10
-14.8679757061
 20
-12.890714138
 10
-14.8747942978
 20
-12.8754012446
 10
-14.881206998
 20
-12.8600036961
 10
-14.8872344522
 20
-12.8444738528
 10
-14.8928952792
 20
-12.828764286
 10
-14.8981805526
 20
-12.812886886
 10
-14.9030752767
 20
-12.7968654609
 10
-14.9075677241
 20
-12.7807121703
 10
-14.9116469842
 20
-12.7644362619
 10
-14.9153021465
 20
-12.7480469833
 10
-14.9185216205
 20
-12.7315583207
 10
-14.9212910952
 20
-12.7150032141
 10
-14.9228798868
 20
-12.7039441091
 10
-14.9242568406
 20
-12.6928590198
 10
-14.9254167811
 20
-12.6817347467
 10
-14.9263550222
 20
-12.6705743486
 10
-14.9270688359
 20
-12.6594459174
 10
-14.9275559834
 20
-12.6484338034
 10
-14.9277704556
 20
-12.6402767591
 10
-14.927850472
 20
-12.6321179721
 10
-14.9277903361
 20
-12.6238428244
 10
-14.9275843509
 20
-12.6153366977
  0
LWPOLYLINE
  5
328
100
AcDbEntity
  8
290
100
AcDbPolyline
 62
250
  6
CONTINUOUS
 90
3
 70
0
 10
-15.4059844374
 20
-14.3466949739
 10
-15.4042719792
 20
-14.330483305
 10
-15.4003529887
 20
-14.3137901727
  0
LWPOLYLINE
  5
329
100
AcDbEntity
  8
290
100
AcDbPolyline
 62
250
  6
CONTINUOUS
 90
10
 70
0
 10
-15.1010313074
 20
-6.6249195583
 10
-15.0990131518
 20
-6.6089031988
 10
-15.0948823553
 20
-6.5924941344
 10
-15.0887662247
 20
-6.5761984921
 10
-15.0808532978
 20
-6.5605189075
 10
-15.0713875907
 20
-6.5459391344
 10
-15.0606611115
 20
-6.5329090891
 10
-15.0490047551
 20
-6.52183081
 10
-15.0367780641
 20
-6.5130460848
 10
-15.024358219
 20
-6.5068259954
  0
LINE
  5
32A
100
AcDbEntity
  8
284
100
AcDbLine
 62
7
  6
CONTINUOUS
 10
-7.4613384902
 20
22.9059756656
 11
-7.4871160662
 21
22.8283568291
  0
LWPOLYLINE
  5
32B
100
AcDbEntity
  8
290
100
AcDbPolyline
 62
7
  6
CONTINUOUS
 90
13
 70
0
 10
-17.8353476648
 20
-7.2068469456
 10
-18.0279071117
 20
-7.5890210939
 10
-18.1703880655
 20
-8.0203009061
 10
-18.2597929812
 20
-8.4929919823
 10
-18.2942895604
 20
-8.9975340216
 10
-18.2734463912
 20
-9.5248789101
 10
-18.1977569154
 20
-10.0661315589
 10
-18.0689354844
 20
-10.6108762929
 10
-17.8896974626
 20
-11.1492541996
 10
-17.6633776496
 20
-11.6723037811
 10
-17.3941618173
 20
-12.1710611395
 10
-17.0866671637
 20
-12.6372352258
 10
-16.7465645055
 20
-13.0623267216
  0
LWPOLYLINE
  5
32C
100
AcDbEntity
  8
284
100
AcDbPolyline
 62
7
  6
CONTINUOUS
 90
11
 70
0
 10
2.5076424168
 20
19.0084016206
 10
2.4794137121
 20
18.9903084098
 10
2.4526566049
 20
18.9723179809
 10
2.4274303475
 20
18.954807253
 10
2.4035225054
 20
18.938003528
 10
2.3813382021
 20
18.9225582805
 10
2.3616922212
 20
18.9092973613
 10
2.3446807698
 20
18.8984005069
 10
2.3304421418
 20
18.8899449945
 10
2.3195566512
 20
18.8840806195
 10
2.3177999943
 20
18.8831996001
  0
LWPOLYLINE
  5
32D
100
AcDbEntity
  8
284
100
AcDbPolyline
 62
250
  6
CONTINUOUS
 90
7
 70
0
 10
5.2036251588
 20
19.0117272852
 10
5.2251867986
 20
19.0240204542
 10
5.2433548145
 20
19.0376156328
 10
5.2578183467
 20
19.0522802038
 10
5.2683299201
 20
19.0677632522
 10
5.2747096789
 20
19.0837998588
 10
5.2768484635
 20
19.1001156328
  0
LWPOLYLINE
  5
32E
100
AcDbEntity
  8
284
100
AcDbPolyline
 62
250
  6
CONTINUOUS
 90
13
 70
0
 10
2.6555726036
 20
18.7828984266
 10
2.6742544484
 20
18.793355056
 10
2.6926526822
 20
18.8066796161
 10
2.710445482
 20
18.8226390329
 10
2.727321615
 20
18.8409541432
 10
2.7429858828
 20
18.8613045781
 10
2.7571642853
 20
18.8833343666
 10
2.769608813
 20
18.9066581622
 10
2.7801017853
 20
18.9308679837
 10
2.7884596587
 20
18.9555403515
 10
2.7945362367
 20
18.9802436952
 10
2.7982252274
 20
19.0045459022
 10
2.7994621028
 20
19.0280218769
  0
LWPOLYLINE
  5
32F
100
AcDbEntity
  8
284
100
AcDbPolyline
 62
250
  6
CONTINUOUS
 90
13
 70
0
 10
3.9990754878
 20
18.1111469844
 10
4.0177575804
 20
18.1216037736
 10
4.0361560022
 20
18.1349285282
 10
4.0539489235
 20
18.1508881442
 10
4.0708251088
 20
18.1692034286
 10
4.086489366
 20
18.1895539904
 10
4.1006677081
 20
18.2115838464
 10
4.1131121366
 20
18.2349076356
 10
4.1236049883
 20
18.2591173736
 10
4.1319627424
 20
18.2837895978
 10
4.1380392186
 20
18.3084927497
 10
4.141728138
 20
18.3327947222
 10
4.1429649871
 20
18.3562704348
  0
LWPOLYLINE
  5
330
100
AcDbEntity
  8
284
100
AcDbPolyline
 62
250
  6
CONTINUOUS
 90
16
 70
0
 10
5.3425783721
 20
18.442781407
 10
5.3748899509
 20
18.4602234563
 10
5.4027089712
 20
18.4787293637
 10
5.4260354329
 20
18.498299129
 10
5.4449751316
 20
18.519168404
 10
5.4594222717
 20
18.5411015369
 10
5.4690594665
 20
18.5633915731
 10
5.473769301
 20
18.586020966
 10
5.4736691902
 20
18.6090072622
 10
5.4687939924
 20
18.6316961456
 10
5.4590352277
 20
18.6540953676
 10
5.4445013759
 20
18.6761971769
 10
5.4255527347
 20
18.6973240037
 10
5.4023094033
 20
18.7172499916
 10
5.3746512824
 20
18.7362009971
 10
5.3425783721
 20
18.7541770202
  0
LWPOLYLINE
  5
331
100
AcDbEntity
  8
284
100
AcDbPolyline
 62
250
  6
CONTINUOUS
 90
8
 70
0
 10
5.2036251588
 20
18.6879048574
 10
5.2213523007
 20
18.6970298285
 10
5.2368414737
 20
18.7070245391
 10
5.249943433
 20
18.7177608666
 10
5.2605349208
 20
18.7290941611
 10
5.2685310294
 20
18.7408968381
 10
5.2738762678
 20
18.7530615061
 10
5.2765312197
 20
18.7654378875
  0
LINE
  5
332
100
AcDbEntity
  8
218140000
100
AcDbLine
 62
250
  6
CONTINUOUS
 10
18.0185219833
 20
24.6135647711
 11
6.3443820141
 21
18.8092827794
  0
LINE
  5
333
100
AcDbEntity
  8
218140080
100
AcDbLine
 62
250
  6
CONTINUOUS
 10
18.0185219833
 20
24.6135647711
 11
6.3443820141
 21
18.8092827794
  0
LINE
  5
334
100
AcDbEntity
  8
284
100
AcDbLine
 62
7
  6
CONTINUOUS
 10
6.7469174827
 20
18.6080150452
 11
13.0119204673
 21
21.7155027118
  0
LINE
  5
335
100
AcDbEntity
  8
284
100
AcDbLine
 62
7
  6
CONTINUOUS
 10
13.4366089786
 20
21.0869154699
 11
7.7492212658
 21
18.2757913869
  0
LINE
  5
336
100
AcDbEntity
  8
218140000
100
AcDbLine
 62
7
  6
CONTINUOUS
 10
17.5989787724
 20
25.3371697726
 11
10.0064138722
 21
21.6490883005
  0
LINE
  5
337
100
AcDbEntity
  8
218140080
100
AcDbLine
 62
7
  6
CONTINUOUS
 10
17.5989787724
 20
25.3371697726
 11
10.0064138722
 21
21.6490883005
  0
LINE
  5
338
100
AcDbEntity
  8
284
100
AcDbLine
 62
250
  6
CONTINUOUS
 10
4.4965183776
 20
18.3494679965
 11
5.2036251588
 21
18.6879048574
  0
LINE
  5
339
100
AcDbEntity
  8
284
100
AcDbLine
 62
250
  6
CONTINUOUS
 10
4.6354715909
 20
18.1043445461
 11
5.3425783721
 21
18.442781407
  0
LINE
  5
33A
100
AcDbEntity
  8
290
100
AcDbLine
 62
7
  6
CONTINUOUS
 10
-10.4215559813
 20
-15.8315271495
 11
-10.3040402916
 21
-15.8004560529
  0
LWPOLYLINE
  5
33B
100
AcDbEntity
  8
290
100
AcDbPolyline
 62
7
  6
CONTINUOUS
 90
3
 70
0
 10
-10.9125296816
 20
-15.8424504188
 10
-10.7484565779
 20
-15.7998211363
 10
-10.6982704278
 20
-15.783446948
  0
LINE
  5
33C
100
AcDbEntity
  8
290
100
AcDbLine
 62
7
  6
CONTINUOUS
 10
-10.3502834519
 20
-15.8270797911
 11
-10.5710526291
 21
-15.8821960335
  0
LINE
  5
33D
100
AcDbEntity
  8
290
100
AcDbLine
 62
7
  6
CONTINUOUS
 10
-11.0650954438
 20
-15.8681452485
 11
-10.7586161899
 21
-15.8029397187
  0
LINE
  5
33E
100
AcDbEntity
  8
290
100
AcDbLine
 62
7
  6
CONTINUOUS
 10
-11.0665335615
 20
-15.8683270525
 11
-10.7597890617
 21
-15.8032955415
  0
LINE
  5
33F
100
AcDbEntity
  8
290
100
AcDbLine
 62
250
  6
CONTINUOUS
 10
-10.7092416433
 20
-16.0724909668
 11
-10.9671084556
 21
-16.1259400127
  0
LINE
  5
340
100
AcDbEntity
  8
290
100
AcDbLine
 62
250
  6
CONTINUOUS
 10
-10.6694084534
 20
-15.9491957483
 11
-10.922545081
 21
-15.9991184693
  0
LINE
  5
341
100
AcDbEntity
  8
290
100
AcDbLine
 62
7
  6
CONTINUOUS
 10
-11.0813878981
 20
-15.8701413784
 11
-10.9125296816
 21
-15.8424504188
  0
LINE
  5
342
100
AcDbEntity
  8
290
100
AcDbLine
 62
7
  6
CONTINUOUS
 10
-10.5710526291
 20
-15.8821960335
 11
-10.8183180585
 21
-15.9122044133
  0
LINE
  5
343
100
AcDbEntity
  8
290
100
AcDbLine
 62
7
  6
CONTINUOUS
 10
-10.7207113967
 20
-15.8649112185
 11
-10.4215559813
 21
-15.8315271495
  0
LINE
  5
344
100
AcDbEntity
  8
284
100
AcDbLine
 62
7
  6
CONTINUOUS
 10
18.1146741568
 20
-25.4017834572
 11
14.8471336041
 21
-23.7680131809
  0
LINE
  5
345
100
AcDbEntity
  8
290
100
AcDbLine
 62
250
  6
CONTINUOUS
 10
-12.1311828264
 20
-8.1098437988
 11
-15.1010313074
 21
-6.6249195583
  0
LINE
  5
346
100
AcDbEntity
  8
290
100
AcDbLine
 62
250
  6
CONTINUOUS
 10
-12.0402079789
 20
-7.7414879976
 11
-11.7144718452
 21
-7.926818894
  0
LINE
  5
347
100
AcDbEntity
  8
284
100
AcDbLine
 62
250
  6
CONTINUOUS
 10
19.2090123668
 20
-27.5599428116
 11
19.1866617568
 21
-27.5464000244
  0
LWPOLYLINE
  5
348
100
AcDbEntity
  8
290
100
AcDbPolyline
 62
7
  6
CONTINUOUS
 90
11
 70
0
 10
-11.8557620268
 20
-7.8870682278
 10
-11.5313749639
 20
-8.0931852982
 10
-11.2137093816
 20
-8.3401195575
 10
-10.9068700618
 20
-8.6253380748
 10
-10.6142464783
 20
-8.9455791742
 10
-10.3389583365
 20
-9.2974436386
 10
-10.0840446938
 20
-9.6774042165
 10
-9.8523659248
 20
-10.0810050533
 10
-9.6466767725
 20
-10.5034187776
 10
-9.4694266334
 20
-10.9398694559
 10
-9.3223324856
 20
-11.3854560181
  0
LWPOLYLINE
  5
349
100
AcDbEntity
  8
290
100
AcDbPolyline
 62
250
  6
CONTINUOUS
 90
11
 70
0
 10
-11.7144718452
 20
-7.926818894
 10
-11.4003526691
 20
-8.146260314
 10
-11.0978295909
 20
-8.3998037782
 10
-10.8038675781
 20
-8.690992237
 10
-10.5214177845
 20
-9.0162485471
 10
-10.2594280735
 20
-9.3648797211
 10
-10.0189635386
 20
-9.7367127744
 10
-9.798825618
 20
-10.1318657127
 10
-9.604579545
 20
-10.5400870982
 10
-9.436497261
 20
-10.962640513
 10
-9.2941602398
 20
-11.3982009313
  0
LWPOLYLINE
  5
34A
100
AcDbEntity
  8
290
100
AcDbPolyline
 62
250
  6
CONTINUOUS
 90
73
 70
0
 10
-12.5681079997
 20
-10.4774593969
 10
-12.5822648837
 20
-10.4007972113
 10
-12.5976719072
 20
-10.3243744954
 10
-12.6143795829
 20
-10.2481636129
 10
-12.6324384235
 20
-10.1721369277
 10
-12.6518989414
 20
-10.0962668035
 10
-12.6728140183
 20
-10.0205403284
 10
-12.6952460113
 20
-9.9450034871
 10
-12.7192596466
 20
-9.8697169885
 10
-12.7449196505
 20
-9.7947415416
 10
-12.7722907489
 20
-9.7201378554
 10
-12.7964502127
 20
-9.6583074528
 10
-12.8218589352
 20
-9.5968818302
 10
-12.8485329664
 20
-9.5359654416
 10
-12.8764883562
 20
-9.4756627408
 10
-12.9057411543
 20
-9.4160781817
 10
-12.9363074107
 20
-9.3573162183
 10
-12.9681968902
 20
-9.2994763276
 10
-13.0013942173
 20
-9.2426380794
 10
-13.0358777312
 20
-9.1868760663
 10
-13.0716257713
 20
-9.1322648814
 10
-13.108616677
 20
-9.0788791173
 10
-13.1468287877
 20
-9.026793367
 10
-13.180532796
 20
-8.9832473655
 10
-13.2150757236
 20
-8.940804332
 10
-13.2504151918
 20
-8.8995573193
 10
-13.286508822
 20
-8.8595993804
 10
-13.3233142355
 20
-8.8210235681
 10
-13.3607890538
 20
-8.7839229355
 10
-13.3988908981
 20
-8.7483905353
 10
-13.4375737791
 20
-8.7145221181
 10
-13.4767772639
 20
-8.6824242239
 10
-13.5164373087
 20
-8.6522060907
 10
-13.5564898697
 20
-8.623976956
 10
-13.5968709034
 20
-8.5978460576
 10
-13.6375163659
 20
-8.5739226332
 10
-13.6783622136
 20
-8.5523159206
 10
-13.7193427947
 20
-8.5331100738
 10
-13.7603860263
 20
-8.5162889129
 10
-13.8014182174
 20
-8.501811174
 10
-13.8423656769
 20
-8.4896355934
 10
-13.883154714
 20
-8.4797209076
 10
-13.9237116375
 20
-8.4720258527
 10
-13.9639627566
 20
-8.4665091652
 10
-14.003838283
 20
-8.463128639
 10
-14.0432840391
 20
-8.4618382994
 10
-14.0822497503
 20
-8.4625912293
 10
-14.1206851418
 20
-8.4653405118
 10
-14.1585399387
 20
-8.4700392298
 10
-14.1957638664
 20
-8.4766404664
 10
-14.23230665
 20
-8.4850973044
 10
-14.2740204229
 20
-8.4972504117
 10
-14.3147097447
 20
-8.5118155237
 10
-14.3543457065
 20
-8.5287428244
 10
-14.3928993996
 20
-8.5479824978
 10
-14.4303419149
 20
-8.5694847281
 10
-14.4666443438
 20
-8.5931996995
 10
-14.5017832831
 20
-8.6190670631
 10
-14.5357573531
 20
-8.6469843395
 10
-14.5685706797
 20
-8.6768385164
 10
-14.600227389
 20
-8.7085165814
 10
-14.6307316069
 20
-8.7419055223
 10
-14.6600874595
 20
-8.7768923268
 10
-14.6938122385
 20
-8.8208395041
 10
-14.7259431757
 20
-8.8668073014
 10
-14.7565341339
 20
-8.914678153
 10
-14.7856389758
 20
-8.9643344931
 10
-14.8133115644
 20
-9.0156587558
 10
-14.8396049451
 20
-9.0685492069
 10
-14.864568894
 20
-9.1229674378
 10
-14.8882523698
 20
-9.1788908716
 10
-14.9107043313
 20
-9.2362969312
 10
-14.9319737371
 20
-9.2951630397
  0
LWPOLYLINE
  5
34B
100
AcDbEntity
  8
290
100
AcDbPolyline
 62
250
  6
CONTINUOUS
 90
7
 70
0
 10
-12.0402079789
 20
-7.7414879976
 10
-12.040109856
 20
-7.7561046665
 10
-12.0379929699
 20
-7.7694793507
 10
-12.0339188599
 20
-7.7812291845
 10
-12.0280052432
 20
-7.7910179696
 10
-12.020422255
 20
-7.7985663515
 10
-12.014425587
 20
-7.8023049348
  0
LINE
  5
34C
100
AcDbEntity
  8
268
100
AcDbLine
 62
7
  6
CONTINUOUS
 10
-12.3429075819
 20
27.1973747916
 11
-12.3429075819
 21
26.9440033979
  0
LINE
  5
34D
100
AcDbEntity
  8
268
100
AcDbLine
 62
7
  6
CONTINUOUS
 10
-11.6316869738
 20
26.0333303163
 11
-11.6316869738
 21
26.670499875
  0
LINE
  5
34E
100
AcDbEntity
  8
268
100
AcDbLine
 62
7
  6
CONTINUOUS
 10
-10.5648560616
 20
26.5719115658
 11
-10.5648560616
 21
28.3039623734
  0
LWPOLYLINE
  5
34F
100
AcDbEntity
  8
290
100
AcDbPolyline
 62
250
  6
CONTINUOUS
 90
3
 70
0
 10
-12.4361359564
 20
-15.8316192144
 10
-12.4344249802
 20
-15.8154161823
 10
-12.4305089897
 20
-15.7987294461
  0
LWPOLYLINE
  5
350
100
AcDbEntity
  8
290
100
AcDbPolyline
 62
250
  6
CONTINUOUS
 90
10
 70
0
 10
-12.1311828264
 20
-8.1098437988
 10
-12.1291644775
 20
-8.0938264208
 10
-12.12503332
 20
-8.077416607
 10
-12.1189167902
 20
-8.0611205603
 10
-12.1110035681
 20
-8.0454409741
 10
-12.1015377574
 20
-8.0308615256
 10
-12.0908113553
 20
-8.0178319552
 10
-12.0791552451
 20
-8.0067541937
 10
-12.0669289896
 20
-7.997969963
 10
-12.054509739
 20
-7.9917502353
  0
LWPOLYLINE
  5
351
100
AcDbEntity
  8
290
100
AcDbPolyline
 62
250
  6
CONTINUOUS
 90
67
 70
0
 10
-15.7487929789
 20
-11.6765505569
 10
-15.7492496933
 20
-11.6779495723
 10
-15.7496623235
 20
-11.6793205416
 10
-15.7500439141
 20
-11.6807004858
 10
-15.7505774989
 20
-11.6828410549
 10
-15.7510597982
 20
-11.6850471076
 10
-15.7514825311
 20
-11.6872879686
 10
-15.7518474807
 20
-11.6895622888
 10
-15.7521583303
 20
-11.6918741902
 10
-15.7524162994
 20
-11.6942203521
 10
-15.7526793963
 20
-11.6973941676
 10
-15.7528531076
 20
-11.7006149641
 10
-15.7529409847
 20
-11.7038780266
 10
-15.7529465039
 20
-11.7071787851
 10
-15.7528728416
 20
-11.7105132493
 10
-15.7527230992
 20
-11.713877574
 10
-15.7525002527
 20
-11.7172682596
 10
-15.7522067763
 20
-11.7206831906
 10
-15.751845019
 20
-11.7241205972
 10
-15.7514173983
 20
-11.7275783574
 10
-15.7509266059
 20
-11.7310529399
 10
-15.7503754025
 20
-11.7345404614
 10
-15.7494399849
 20
-11.739790886
 10
-15.7483758876
 20
-11.7450688408
 10
-15.7471841448
 20
-11.7503814808
 10
-15.7458657906
 20
-11.7557359614
 10
-15.7444223016
 20
-11.7611364587
 10
-15.742856924
 20
-11.7665752323
 10
-15.7411733462
 20
-11.7720415629
 10
-15.7393752568
 20
-11.777524731
 10
-15.7374663444
 20
-11.7830140172
 10
-15.7354502975
 20
-11.7884987021
 10
-15.7333308047
 20
-11.7939680662
 10
-15.7311115545
 20
-11.7994113902
 10
-15.728796444
 20
-11.804818047
 10
-15.7263902046
 20
-11.8101777796
 10
-15.7238977763
 20
-11.8154804234
 10
-15.721324099
 20
-11.8207158136
 10
-15.7186741126
 20
-11.8258737856
 10
-15.7159527571
 20
-11.8309441748
 10
-15.7131649724
 20
-11.8359168165
 10
-15.7103156986
 20
-11.8407815461
 10
-15.7074080624
 20
-11.8455305834
 10
-15.7044379387
 20
-11.8501656859
 10
-15.7013993891
 20
-11.8546909955
 10
-15.6982864752
 20
-11.8591106543
 10
-15.6961673781
 20
-11.8619994469
 10
-15.6940133799
 20
-11.8648383691
 10
-15.6918252694
 20
-11.8676226656
 10
-15.6896036342
 20
-11.8703478708
 10
-15.6873482559
 20
-11.8730106792
 10
-15.685058715
 20
-11.875608075
 10
-15.682734755
 20
-11.8781366995
 10
-15.6803767715
 20
-11.8805918218
 10
-15.6779853235
 20
-11.8829683682
 10
-15.6755610275
 20
-11.885261098
 10
-15.6731047321
 20
-11.8874641018
 10
-15.6706173435
 20
-11.8895713031
 10
-15.6687324452
 20
-11.8910848928
 10
-15.6668339664
 20
-11.8925368985
 10
-15.6649234924
 20
-11.8939239668
 10
-15.6629953512
 20
-11.8952464385
 10
-15.6610492821
 20
-11.8965020006
 10
-15.6591139258
 20
-11.8976740299
 10
-15.6578394647
 20
-11.8984029661
 10
-15.6565490116
 20
-11.8991036091
 10
-15.6552058728
 20
-11.8997937699
  0
LWPOLYLINE
  5
352
100
AcDbEntity
  8
290
100
AcDbPolyline
 62
250
  6
CONTINUOUS
 90
76
 70
0
 10
-14.7340228398
 20
-9.4768379122
 10
-14.7165148167
 20
-9.4280146465
 10
-14.6984816338
 20
-9.3810279208
 10
-14.6798763787
 20
-9.3357896735
 10
-14.660652139
 20
-9.2922118429
 10
-14.6407620024
 20
-9.2502063673
 10
-14.6201590564
 20
-9.2096851852
 10
-14.5988047688
 20
-9.1705847218
 10
-14.5766941271
 20
-9.1329393505
 10
-14.5538304993
 20
-9.0968079319
 10
-14.5302172529
 20
-9.0622493262
 10
-14.5058577559
 20
-9.0293223938
 10
-14.4807553759
 20
-8.9980859953
 10
-14.4549144378
 20
-8.9685935151
 10
-14.4283430956
 20
-8.9408764337
 10
-14.4010504601
 20
-8.914960756
 10
-14.3730456425
 20
-8.8908724867
 10
-14.3443377537
 20
-8.8686376304
 10
-14.3149359048
 20
-8.848282192
 10
-14.2848543515
 20
-8.8298267517
 10
-14.2541279287
 20
-8.8132701923
 10
-14.222796616
 20
-8.7986059724
 10
-14.1909003931
 20
-8.7858275505
 10
-14.1584792396
 20
-8.7749283849
 10
-14.1255731352
 20
-8.7659019342
 10
-14.0922215775
 20
-8.7587477863
 10
-14.0584621364
 20
-8.7534900474
 10
-14.0243318999
 20
-8.7501589528
 10
-13.9898679559
 20
-8.7487847383
 10
-13.9551073923
 20
-8.7493976392
 10
-13.9200872971
 20
-8.7520278912
 10
-13.8848535795
 20
-8.7567052848
 10
-13.8494874341
 20
-8.7634578301
 10
-13.8140788766
 20
-8.7723130926
 10
-13.7875414355
 20
-8.7803542601
 10
-13.7610247056
 20
-8.7896247225
 10
-13.7345226212
 20
-8.8001554908
 10
-13.7080291165
 20
-8.8119775762
 10
-13.6815396944
 20
-8.8251157549
 10
-13.6550561328
 20
-8.8395698642
 10
-13.6285817786
 20
-8.8553335066
 10
-13.6021199785
 20
-8.8724002844
 10
-13.5756820479
 20
-8.8907548362
 10
-13.5493111777
 20
-8.9103459441
 10
-13.5230585274
 20
-8.9311134262
 10
-13.4969752565
 20
-8.9529971007
 10
-13.4625337142
 20
-8.9838221022
 10
-13.428511004
 20
-9.0164687274
 10
-13.3949338885
 20
-9.0508812481
 10
-13.3618291304
 20
-9.0870039359
 10
-13.3292234926
 20
-9.1247810627
 10
-13.2971437376
 20
-9.1641569
 10
-13.2656218775
 20
-9.2050768272
 10
-13.234710921
 20
-9.2474906534
 10
-13.204469126
 20
-9.2913492955
 10
-13.1749547504
 20
-9.3366036702
 10
-13.1462260523
 20
-9.3832046942
 10
-13.1183412895
 20
-9.4311032844
 10
-13.091351222
 20
-9.4802481055
 10
-13.0652766178
 20
-9.5305788139
 10
-13.0401307471
 20
-9.5820328142
 10
-13.0159268799
 20
-9.6345475107
 10
-12.9926782863
 20
-9.6880603079
 10
-12.9703982363
 20
-9.7425086103
 10
-12.9490952825
 20
-9.7978321843
 10
-12.9287591065
 20
-9.8539802444
 10
-12.9093746724
 20
-9.9109043671
 10
-12.8909269444
 20
-9.9685561288
 10
-12.8734008867
 20
-10.026887106
 10
-12.8567814632
 20
-10.0858488753
 10
-12.841049622
 20
-10.145424261
 10
-12.8261702472
 20
-10.2057210793
 10
-12.8121042068
 20
-10.2668783943
 10
-12.7988123686
 20
-10.3290352701
 10
-12.7862556006
 20
-10.3923307709
 10
-12.7743947709
 20
-10.4569039607
  0
LWPOLYLINE
  5
353
100
AcDbEntity
  8
290
100
AcDbPolyline
 62
250
  6
CONTINUOUS
 90
77
 70
0
 10
-14.8361760434
 20
-9.3825729759
 10
-14.816599077
 20
-9.3283444025
 10
-14.7959447885
 20
-9.2753721355
 10
-14.7741865413
 20
-9.2236671695
 10
-14.7512976991
 20
-9.173240499
 10
-14.7272516256
 20
-9.1241031183
 10
-14.7020161409
 20
-9.0762802634
 10
-14.6755368915
 20
-9.0298541353
 10
-14.6477539802
 20
-8.9849211767
 10
-14.6186075101
 20
-8.9415778301
 10
-14.588037584
 20
-8.899920538
 10
-14.5614357941
 20
-8.8665760293
 10
-14.5337915759
 20
-8.8345993644
 10
-14.5050926077
 20
-8.8041205421
 10
-14.4753265674
 20
-8.7752695611
 10
-14.4444811331
 20
-8.7481764201
 10
-14.4125439829
 20
-8.7229711178
 10
-14.3795091724
 20
-8.6997850589
 10
-14.3453962671
 20
-8.678755272
 10
-14.3102312103
 20
-8.6600201914
 10
-14.283180314
 20
-8.6475574625
 10
-14.2555497061
 20
-8.636518199
 10
-14.2273369174
 20
-8.6269572245
 10
-14.1985394784
 20
-8.6189293625
 10
-14.1691611096
 20
-8.6124827205
 10
-14.1392302904
 20
-8.6076385412
 10
-14.1087816898
 20
-8.604411351
 10
-14.0778499769
 20
-8.6028156764
 10
-14.0464750677
 20
-8.6028561697
 10
-14.014717866
 20
-8.6044979855
 10
-13.9826445223
 20
-8.6076964043
 10
-13.9503211874
 20
-8.6124067065
 10
-13.917806807
 20
-8.6185876994
 10
-13.8851315076
 20
-8.626212298
 10
-13.8523182106
 20
-8.6352569437
 10
-13.8193898376
 20
-8.6456980783
 10
-13.7753518348
 20
-8.6617529825
 10
-13.731239639
 20
-8.6802035703
 10
-13.6871428873
 20
-8.7010047599
 10
-13.6431530104
 20
-8.724111261
 10
-13.5993686128
 20
-8.7494769505
 10
-13.5558900928
 20
-8.7770554968
 10
-13.5235394445
 20
-8.799166917
 10
-13.4914423641
 20
-8.8224966274
 10
-13.4596238896
 20
-8.8470442479
 10
-13.4281090589
 20
-8.872809398
 10
-13.3969300017
 20
-8.8997881443
 10
-13.3661472155
 20
-8.9279623402
 10
-13.3358282893
 20
-8.9573102856
 10
-13.3060408125
 20
-8.9878102808
 10
-13.2768465309
 20
-9.0194362429
 10
-13.2482838178
 20
-9.0521445572
 10
-13.2203852034
 20
-9.0858872261
 10
-13.1931832178
 20
-9.120616252
 10
-13.1667034652
 20
-9.1562833946
 10
-13.1409438474
 20
-9.1928394427
 10
-13.11589534
 20
-9.2302349427
 10
-13.0915489189
 20
-9.2684204408
 10
-13.060168739
 20
-9.3204708273
 10
-13.0300303469
 20
-9.3736783867
 10
-13.0011434195
 20
-9.4278837687
 10
-12.9735114851
 20
-9.4829358139
 10
-12.9471134762
 20
-9.538716126
 10
-12.9219221764
 20
-9.5951144994
 10
-12.8979103693
 20
-9.6520207285
 10
-12.8750508383
 20
-9.7093246079
 10
-12.8533163672
 20
-9.766915932
 10
-12.8286782551
 20
-9.8362762392
 10
-12.8055529784
 20
-9.9058601002
 10
-12.7838724781
 20
-9.9756358442
 10
-12.7635686951
 20
-10.0455718005
 10
-12.7445735703
 20
-10.1156362985
 10
-12.7268259163
 20
-10.1858055369
 10
-12.7102920317
 20
-10.2560871921
 10
-12.6949450869
 20
-10.3264968099
 10
-12.680758252
 20
-10.3970499363
 10
-12.6677046974
 20
-10.467762117
  0
LWPOLYLINE
  5
354
100
AcDbEntity
  8
290
100
AcDbPolyline
 62
7
  6
CONTINUOUS
 90
30
 70
0
 10
-17.6861898323
 20
-6.9891940564
 10
-17.801321966
 20
-7.1525323225
 10
-17.9053315807
 20
-7.3291983769
 10
-17.9978213164
 20
-7.51859986
 10
-18.0783993365
 20
-7.7200721035
 10
-18.1466922813
 20
-7.9327173422
 10
-18.2023411822
 20
-8.1555873727
 10
-18.2450889616
 20
-8.3878456221
 10
-18.2747519726
 20
-8.6284808923
 10
-18.291151942
 20
-8.8762134895
 10
-18.2942212292
 20
-9.1299694967
 10
-18.2839993832
 20
-9.3887218919
 10
-18.2605498684
 20
-9.6512046313
 10
-18.2240004553
 20
-9.9162567221
 10
-18.1745690279
 20
-10.182824127
 10
-18.1124878788
 20
-10.4497828259
 10
-18.0380304747
 20
-10.7160176334
 10
-17.9515702164
 20
-10.9804201871
 10
-17.853494099
 20
-11.2418738022
 10
-17.7442213302
 20
-11.4992849327
 10
-17.6242638302
 20
-11.7515899326
 10
-17.4941493631
 20
-11.997719855
 10
-17.3544237875
 20
-12.236644128
 10
-17.2057154407
 20
-12.4673800053
 10
-17.0486739166
 20
-12.6889387473
 10
-16.883942365
 20
-12.9003977663
 10
-16.7122579461
 20
-13.100878602
 10
-16.5344083455
 20
-13.2894787387
 10
-16.3511557743
 20
-13.4653751481
 10
-16.1632317355
 20
-13.6279061881
  0
LWPOLYLINE
  5
355
100
AcDbEntity
  8
290
100
AcDbPolyline
 62
250
  6
CONTINUOUS
 90
29
 70
0
 10
-17.6535735024
 20
-7.0490099989
 10
-17.766923482
 20
-7.2043832777
 10
-17.8701228307
 20
-7.3737949202
 10
-17.9618381663
 20
-7.555089376
 10
-18.0419138204
 20
-7.7484170683
 10
-18.1104808191
 20
-7.9536169569
 10
-18.1666467857
 20
-8.1680708454
 10
-18.2102479111
 20
-8.391897292
 10
-18.2414345913
 20
-8.6249717135
 10
-18.2597985779
 20
-8.864316583
 10
-18.2651765
 20
-9.1100162998
 10
-18.2577316117
 20
-9.36198602
 10
-18.2375591015
 20
-9.6170000859
 10
-18.2045021681
 20
-9.8751041001
 10
-18.1587308495
 20
-10.1362577535
 10
-18.1008434901
 20
-10.3971120629
 10
-18.0306976729
 20
-10.6576672221
 10
-17.9484604085
 20
-10.9179333327
 10
-17.8552052567
 20
-11.174581085
 10
-17.7508043632
 20
-11.427575526
 10
-17.6354177303
 20
-11.6769653417
 10
-17.5105590395
 20
-11.9195503437
 10
-17.3761425809
 20
-12.1552269081
 10
-17.2322888883
 20
-12.3841137313
 10
-17.0808260666
 20
-12.6033463546
 10
-16.921671906
 20
-12.812823043
 10
-16.7549406428
 20
-13.0126595217
 10
-16.5827568984
 20
-13.2003183614
 10
-16.4049430461
 20
-13.3757163358
  0
LINE
  5
356
100
AcDbEntity
  8
290
100
AcDbLine
 62
7
  6
CONTINUOUS
 10
-17.5956008653
 20
-6.8790398609
 11
-17.8353476648
 21
-7.2068469456
  0
LWPOLYLINE
  5
357
100
AcDbEntity
  8
290
100
AcDbPolyline
 62
7
  6
CONTINUOUS
 90
14
 70
0
 10
-17.6331492412
 20
-6.9303616504
 10
-17.8349226835
 20
-7.2061491884
 10
-18.0275351805
 20
-7.5881187804
 10
-18.17010077
 20
-8.0191824751
 10
-18.2596231237
 20
-8.491653619
 10
-18.2942690105
 20
-8.9959840255
 10
-18.2736036015
 20
-9.5231353312
 10
-18.1981168071
 20
-10.0642195759
 10
-18.069517438
 20
-10.6088302298
 10
-17.8905139893
 20
-11.1471164309
 10
-17.6644355858
 20
-11.670121472
 10
-17.3954624858
 20
-12.1688842251
 10
-17.088208235
 20
-12.6351133944
 10
-16.7483347
 20
-13.0603176271
  0
LINE
  5
358
100
AcDbEntity
  8
268
100
AcDbLine
 62
7
  6
CONTINUOUS
 10
3.4145809378
 20
21.2642445245
 11
3.0716183357
 21
20.8468259224
  0
LWPOLYLINE
  5
359
100
AcDbEntity
  8
284
100
AcDbPolyline
 62
7
  6
CONTINUOUS
 90
13
 70
0
 10
7.7492212658
 20
18.2757913869
 10
7.7264996887
 20
18.2637754401
 10
7.7055602288
 20
18.2511575895
 10
7.6864028859
 20
18.2379378352
 10
7.668960591
 20
18.2240541383
 10
7.6533004132
 20
18.2095685376
 10
7.63962356
 20
18.1946671493
 10
7.6279556235
 20
18.1793446082
 10
7.6182710117
 20
18.1636062794
 10
7.6106941558
 20
18.1476543746
 10
7.6052522536
 20
18.1314861379
 10
7.6019181074
 20
18.1151043253
 10
7.6007325404
 20
18.0980039192
  0
LINE
  5
35A
100
AcDbEntity
  8
218140000
100
AcDbLine
 62
250
  6
CONTINUOUS
 10
18.3574854672
 20
23.4418372647
 11
14.2707693375
 21
21.3258780466
  0
LINE
  5
35B
100
AcDbEntity
  8
218140080
100
AcDbLine
 62
250
  6
CONTINUOUS
 10
18.3574854672
 20
23.4418372647
 11
14.2707693375
 21
21.3258780466
  0
LINE
  5
35C
100
AcDbEntity
  8
284
100
AcDbLine
 62
7
  6
CONTINUOUS
 10
14.0424599237
 20
20.7839899973
 11
9.446265846
 21
18.4858929585
  0
LINE
  5
35D
100
AcDbEntity
  8
284
100
AcDbLine
 62
7
  6
CONTINUOUS
 10
11.6184725845
 20
17.3997895892
 11
15.0236161448
 21
19.1023613694
  0
LINE
  5
35E
100
AcDbEntity
  8
284
100
AcDbLine
 62
7
  6
CONTINUOUS
 10
14.3960133143
 20
19.6273988901
 11
10.700633821
 21
17.8587089709
  0
LINE
  5
35F
100
AcDbEntity
  8
284
100
AcDbLine
 62
7
  6
CONTINUOUS
 10
16.1761209822
 20
20.1334024543
 11
11.0541872116
 21
17.6819322756
  0
LINE
  5
360
100
AcDbEntity
  8
290
100
AcDbLine
 62
250
  6
CONTINUOUS
 10
-10.9989122066
 20
-15.7744970617
 11
-10.8296115021
 21
-15.7292696719
  0
LWPOLYLINE
  5
361
100
AcDbEntity
  8
290
100
AcDbPolyline
 62
250
  6
CONTINUOUS
 90
9
 70
0
 10
-15.1010313074
 20
-6.6249195583
 10
-15.2953303107
 20
-6.5360869063
 10
-15.4883580383
 20
-6.4639750585
 10
-15.6801111981
 20
-6.4085826725
 10
-15.8714747808
 20
-6.3697711233
 10
-16.0615505743
 20
-6.3476736385
 10
-16.2476577922
 20
-6.3426955528
 10
-16.4296647767
 20
-6.3550988892
 10
-16.6076787087
 20
-6.384611592
  0
LWPOLYLINE
  5
362
100
AcDbEntity
  8
290
100
AcDbPolyline
 62
250
  6
CONTINUOUS
 90
11
 70
0
 10
-15.02435822
 20
-6.5068259948
 10
-15.2220546133
 20
-6.4163266204
 10
-15.4201024784
 20
-6.3423368809
 10
-15.6176568276
 20
-6.2852275371
 10
-15.8139415768
 20
-6.2452883642
 10
-16.0080320136
 20
-6.222769518
 10
-16.1988673593
 20
-6.217816344
 10
-16.3855667342
 20
-6.2304423717
 10
-16.567374536
 20
-6.2605883422
 10
-16.7434528111
 20
-6.3081074579
 10
-16.8495277076
 20
-6.3462489178
  0
LINE
  5
363
100
AcDbEntity
  8
290
100
AcDbLine
 62
7
  6
CONTINUOUS
 10
-15.1501293338
 20
-6.2401900716
 11
-14.984253264
 21
-6.3174347145
  0
LINE
  5
364
100
AcDbEntity
  8
290
100
AcDbLine
 62
250
  6
CONTINUOUS
 10
-15.2401494156
 20
-6.1474772215
 11
-15.0100564598
 21
-6.2565637571
  0
LINE
  5
365
100
AcDbEntity
  8
290
100
AcDbLine
 62
250
  6
CONTINUOUS
 10
-12.054509739
 20
-7.9917502353
 11
-15.02435822
 21
-6.5068259948
  0
LINE
  5
366
100
AcDbEntity
  8
290
100
AcDbLine
 62
7
  6
CONTINUOUS
 10
-12.0593782754
 20
-7.7798285906
 11
-12.0143379751
 21
-7.8023485968
  0
LINE
  5
367
100
AcDbEntity
  8
290
100
AcDbLine
 62
7
  6
CONTINUOUS
 10
-14.984274394
 20
-6.3173805313
 11
-12.0144259477
 21
-7.8023047545
  0
LINE
  5
368
100
AcDbEntity
  8
290
100
AcDbLine
 62
250
  6
CONTINUOUS
 10
-15.0100564598
 20
-6.2565637571
 11
-12.0402079789
 21
-7.7414879976
  0
LINE
  5
369
100
AcDbEntity
  8
290
100
AcDbLine
 62
7
  6
CONTINUOUS
 10
-12.014373268
 20
-7.8024194965
 11
-11.8557620268
 21
-7.8870682278
  0
LWPOLYLINE
  5
36A
100
AcDbEntity
  8
290
100
AcDbPolyline
 62
250
  6
CONTINUOUS
 90
8
 70
0
 10
-9.2941602398
 20
-11.3982009313
 10
-9.1821431192
 20
-11.8326523724
 10
-9.101523138
 20
-12.2651672537
 10
-9.0511292828
 20
-12.6965324975
 10
-9.0322351926
 20
-13.1150834846
 10
-9.0456860317
 20
-13.5209522898
 10
-9.0906115555
 20
-13.913994435
 10
-9.1657949546
 20
-14.2821654292
  0
LWPOLYLINE
  5
36B
100
AcDbEntity
  8
290
100
AcDbPolyline
 62
7
  6
CONTINUOUS
 90
8
 70
0
 10
-9.3223324856
 20
-11.3854560181
 10
-9.2069461674
 20
-11.8351016555
 10
-9.1246656931
 20
-12.28351796
 10
-9.0760873655
 20
-12.7258843299
 10
-9.0616377432
 20
-13.157730504
 10
-9.0816648927
 20
-13.5740185656
 10
-9.1357701759
 20
-13.9701189648
 10
-9.2234371663
 20
-14.3419077564
  0
LINE
  5
36C
100
AcDbEntity
  8
268
100
AcDbLine
 62
7
  6
CONTINUOUS
 10
-9.8618631074
 20
28.4392838711
 11
-9.8618631074
 21
28.1783548948
  0
LINE
  5
36D
100
AcDbEntity
  8
268
100
AcDbLine
 62
7
  6
CONTINUOUS
 10
-8.3870990586
 20
26.045898434
 11
-8.3870990586
 21
24.8311650478
  0
LINE
  5
36E
100
AcDbEntity
  8
268
100
AcDbLine
 62
250
  6
CONTINUOUS
 10
-8.299231093
 20
25.9393894772
 11
-8.299231093
 21
24.7244346111
  0
LINE
  5
36F
100
AcDbEntity
  8
268
100
AcDbLine
 62
7
  6
CONTINUOUS
 10
-8.1253376665
 20
23.2379752538
 11
-8.1253376665
 21
23.1474676293
  0
LINE
  5
370
100
AcDbEntity
  8
290
100
AcDbLine
 62
7
  6
CONTINUOUS
 10
-10.2420142301
 20
-15.7725819495
 11
-10.2296032447
 21
-15.6217553513
  0
LINE
  5
371
100
AcDbEntity
  8
290
100
AcDbLine
 62
7
  6
CONTINUOUS
 10
-10.0860583543
 20
-15.6666594212
 11
-10.0780480105
 21
-15.5693123633
  0
LWPOLYLINE
  5
372
100
AcDbEntity
  8
290
100
AcDbPolyline
 62
250
  6
CONTINUOUS
 90
80
 70
0
 10
-14.2260363229
 20
-13.1061890732
 10
-14.2291579137
 20
-13.1157656895
 10
-14.2323403094
 20
-13.1248260378
 10
-14.2356261832
 20
-13.1335157336
 10
-14.2390582079
 20
-13.1419803923
 10
-14.2439122189
 20
-13.1530948074
 10
-14.2490643251
 20
-13.1639726746
 10
-14.2544769345
 20
-13.1745186402
 10
-14.2601188249
 20
-13.1846573575
 10
-14.2659842531
 20
-13.1943935075
 10
-14.2720738459
 20
-13.2037517781
 10
-14.2816245297
 20
-13.2171176493
 10
-14.2916508023
 20
-13.2296700681
 10
-14.3021252641
 20
-13.2413944426
 10
-14.3130316812
 20
-13.2522928998
 10
-14.3243566113
 20
-13.2623717467
 10
-14.3360866119
 20
-13.2716372899
 10
-14.3482057258
 20
-13.2800936938
 10
-14.3606879365
 20
-13.2877365524
 10
-14.3735200679
 20
-13.2945645013
 10
-14.3867503644
 20
-13.3005969112
 10
-14.3976572984
 20
-13.3048619867
 10
-14.4088519989
 20
-13.308618814
 10
-14.4203267029
 20
-13.3118525748
 10
-14.4320736475
 20
-13.314548451
 10
-14.4440850696
 20
-13.3166916244
 10
-14.4563502548
 20
-13.3182682875
 10
-14.4688466819
 20
-13.3192686769
 10
-14.481548878
 20
-13.3196840397
 10
-14.4944313704
 20
-13.3195056233
 10
-14.5074686863
 20
-13.3187246749
 10
-14.5206328428
 20
-13.3173368333
 10
-14.533885817
 20
-13.315355303
 10
-14.5471870757
 20
-13.31279768
 10
-14.5604960858
 20
-13.3096815605
 10
-14.5737723142
 20
-13.3060245404
 10
-14.5869852144
 20
-13.3018407503
 10
-14.6001441859
 20
-13.2971304592
 10
-14.613268615
 20
-13.2918904707
 10
-14.626377888
 20
-13.2861175882
 10
-14.6394913909
 20
-13.2798086153
 10
-14.6540826159
 20
-13.2721677099
 10
-14.6686823463
 20
-13.2638668347
 10
-14.6832699318
 20
-13.2549118063
 10
-14.6978247221
 20
-13.2453084414
 10
-14.7123260666
 20
-13.2350625563
 10
-14.7267533152
 20
-13.2241799677
 10
-14.7410858174
 20
-13.2126664922
 10
-14.7553029228
 20
-13.2005279462
 10
-14.7693839812
 20
-13.1877701464
 10
-14.7819198752
 20
-13.1757701819
 10
-14.794291766
 20
-13.1633178341
 10
-14.8064625752
 20
-13.1504576037
 10
-14.8183952246
 20
-13.1372339917
 10
-14.8300526357
 20
-13.1236914989
 10
-14.8414041336
 20
-13.1098694859
 10
-14.8524446564
 20
-13.0957867525
 10
-14.8631755455
 20
-13.0814569585
 10
-14.8735981423
 20
-13.0668937633
 10
-14.8837137882
 20
-13.0521108265
 10
-14.8959308405
 20
-13.0333353053
 10
-14.9076856033
 20
-13.0142125696
 10
-14.918993302
 20
-12.9947174082
 10
-14.929869162
 20
-12.9748246097
 10
-14.9403221792
 20
-12.9545165053
 10
-14.9503364325
 20
-12.933805597
 10
-14.9598897712
 20
-12.9127119294
 10
-14.9689600448
 20
-12.8912555473
 10
-14.9775252705
 20
-12.8694596211
 10
-14.9855641363
 20
-12.8473598253
 10
-14.9906212621
 20
-12.8324711025
 10
-14.9954332611
 20
-12.8174408491
 10
-14.9999983417
 20
-12.802245343
 10
-15.0043103439
 20
-12.7868861265
 10
-15.0083456344
 20
-12.771465799
 10
-15.0120762112
 20
-12.7561122243
 10
-15.0146641333
 20
-12.7446785361
 10
-15.0170939046
 20
-12.7331728725
 10
-15.0193945268
 20
-12.721413786
 10
-15.0215950014
 20
-12.7092198296
  0
LINE
  5
373
100
AcDbEntity
  8
284
100
AcDbLine
 62
7
  6
CONTINUOUS
 10
-3.218697803
 20
20.784655322
 11
-3.2444753791
 21
20.7070364856
  0
LWPOLYLINE
  5
374
100
AcDbEntity
  8
290
100
AcDbPolyline
 62
250
  6
CONTINUOUS
 90
7
 70
0
 10
-15.4003529887
 20
-14.3137901727
 10
-15.3943538767
 20
-14.2971501148
 10
-15.3864677182
 20
-14.2810959266
 10
-15.3769474988
 20
-14.2661405275
 10
-15.3660976267
 20
-14.2527608622
 10
-15.3542650983
 20
-14.241384167
 10
-15.3418287028
 20
-14.2323740302
  0
LINE
  5
375
100
AcDbEntity
  8
290
100
AcDbLine
 62
250
  6
CONTINUOUS
 10
-17.9172582113
 20
-6.8860426723
 11
-17.7234557618
 21
-6.6363466722
  0
LINE
  5
376
100
AcDbEntity
  8
284
100
AcDbLine
 62
250
  6
CONTINUOUS
 10
5.3804018541
 20
19.4751156328
 11
5.3539744834
 21
19.4411332905
  0
LINE
  5
377
100
AcDbEntity
  8
284
100
AcDbLine
 62
250
  6
CONTINUOUS
 10
5.3804018541
 20
19.4751156328
 11
5.91073194
 21
20.1152806758
  0
LINE
  5
378
100
AcDbEntity
  8
284
100
AcDbLine
 62
7
  6
CONTINUOUS
 10
5.3961441969
 20
19.4040159873
 11
5.9264742828
 21
20.0441810302
  0
LINE
  5
379
100
AcDbEntity
  8
290
100
AcDbLine
 62
7
  6
CONTINUOUS
 10
-17.5603826718
 20
-6.8398902181
 11
-17.6861898323
 21
-6.9891940564
  0
LINE
  5
37A
100
AcDbEntity
  8
290
100
AcDbLine
 62
7
  6
CONTINUOUS
 10
-17.2617402572
 20
-6.5743386179
 11
-17.2055356258
 21
-6.5091524698
  0
LINE
  5
37B
100
AcDbEntity
  8
290
100
AcDbLine
 62
7
  6
CONTINUOUS
 10
-17.4244593405
 20
-6.7052816021
 11
-17.5603826718
 21
-6.8398902181
  0
LINE
  5
37C
100
AcDbEntity
  8
290
100
AcDbLine
 62
250
  6
CONTINUOUS
 10
-17.6020943479
 20
-6.6874348048
 11
-17.3889733677
 21
-6.4770622725
  0
LINE
  5
37D
100
AcDbEntity
  8
290
100
AcDbLine
 62
250
  6
CONTINUOUS
 10
-17.7234557618
 20
-6.6363466722
 11
-17.5035643469
 21
-6.420839569
  0
LINE
  5
37E
100
AcDbEntity
  8
284
100
AcDbLine
 62
7
  6
CONTINUOUS
 10
18.992207392
 20
18.3091162632
 11
14.3960133143
 21
16.0110192243
  0
LINE
  5
37F
100
AcDbEntity
  8
284
100
AcDbLine
 62
7
  6
CONTINUOUS
 10
19.948151197
 20
17.7868375859
 11
20.4187616693
 21
18.0120821108
  0
LWPOLYLINE
  5
380
100
AcDbEntity
  8
284
100
AcDbPolyline
 62
7
  6
CONTINUOUS
 90
12
 70
0
 10
18.992207392
 20
18.3091162632
 10
19.0154935252
 20
18.3197993344
 10
19.0384851401
 20
18.3285217359
 10
19.0611822368
 20
18.3352834679
 10
19.0836792152
 20
18.3400966587
 10
19.1058816753
 20
18.3429491798
 10
19.127506417
 20
18.3438046464
 10
19.1485460398
 20
18.3426374767
 10
19.1690079443
 20
18.3394732524
 10
19.1886311316
 20
18.3343523345
 10
19.2074048579
 20
18.3272496579
 10
19.2158042249
 20
18.3233027529
  0
LWPOLYLINE
  5
381
100
AcDbEntity
  8
284
100
AcDbPolyline
 62
7
  6
CONTINUOUS
 90
12
 70
0
 10
20.4187616693
 20
18.0120821108
 10
20.4647764407
 20
18.0322293428
 10
20.5101709931
 20
18.0485307284
 10
20.5549453264
 20
18.0609862677
 10
20.5992812328
 20
18.0696158537
 10
20.64299692
 20
18.0743995934
 10
20.685547012
 20
18.075277807
 10
20.7269169067
 20
18.0722015676
 10
20.767121206
 20
18.0652198021
 10
20.8056583404
 20
18.0544196117
 10
20.8425074241
 20
18.0397531607
 10
20.8535992352
 20
18.0344271564
  0
LWPOLYLINE
  5
382
100
AcDbEntity
  8
284
100
AcDbPolyline
 62
250
  6
CONTINUOUS
 90
6
 70
0
 10
17.6471556913
 20
14.770148809
 10
17.6663821772
 20
14.7762695292
 10
17.6871210124
 20
14.778425898
 10
17.7090173494
 20
14.7765810191
 10
17.731696536
 20
14.770766459
 10
17.7547705249
 20
14.7610817064
  0
LWPOLYLINE
  5
383
100
AcDbEntity
  8
290
100
AcDbPolyline
 62
7
  6
CONTINUOUS
 90
4
 70
0
 10
-16.0945561415
 20
-6.0202935979
 10
-15.7858763268
 20
-6.0498368323
 10
-15.4698976797
 20
-6.1232616833
 10
-15.1501293338
 20
-6.2401900716
  0
LINE
  5
384
100
AcDbEntity
  8
284
100
AcDbLine
 62
7
  6
CONTINUOUS
 10
24.0039902731
 20
-20.4332369924
 11
24.7377677281
 21
-20.8001257199
  0
LWPOLYLINE
  5
385
100
AcDbEntity
  8
218140000
100
AcDbPolyline
 62
7
  6
CONTINUOUS
 90
9
 70
0
 10
-1.330008761
 20
24.5575681678
 10
-1.3315917551
 20
24.5497510902
 10
-1.3350141154
 20
24.539479483
 10
-1.3407778541
 20
24.5269231339
 10
-1.3490966096
 20
24.5126817144
 10
-1.3597752238
 20
24.4976224609
 10
-1.3725897781
 20
24.4822530877
 10
-1.3874330619
 20
24.4668025846
 10
-1.3938699988
 20
24.4606862413
  0
LWPOLYLINE
  5
386
100
AcDbEntity
  8
218140080
100
AcDbPolyline
 62
7
  6
CONTINUOUS
 90
9
 70
0
 10
-1.330008761
 20
24.5575681678
 10
-1.3315917551
 20
24.5497510902
 10
-1.3350141154
 20
24.539479483
 10
-1.3407778541
 20
24.5269231339
 10
-1.3490966096
 20
24.5126817144
 10
-1.3597752238
 20
24.4976224609
 10
-1.3725897781
 20
24.4822530877
 10
-1.3874330619
 20
24.4668025846
 10
-1.3938699988
 20
24.4606862413
  0
LWPOLYLINE
  5
387
100
AcDbEntity
  8
290
100
AcDbPolyline
 62
250
  6
CONTINUOUS
 90
29
 70
0
 10
-9.387629869
 20
-14.2440997594
 10
-9.3310719825
 20
-14.0245636358
 10
-9.2869260755
 20
-13.7954158291
 10
-9.2554255513
 20
-13.5576539892
 10
-9.2366214013
 20
-13.3122773642
 10
-9.2306202519
 20
-13.0603501824
 10
-9.2374910341
 20
-12.8029680499
 10
-9.2571426261
 20
-12.5412190002
 10
-9.2895126183
 20
-12.2762348982
 10
-9.3345025664
 20
-12.0091665127
 10
-9.3918828063
 20
-11.7411496428
 10
-9.4614251782
 20
-11.4733431947
 10
-9.5428676135
 20
-11.2069050191
 10
-9.6358499488
 20
-10.9429665102
 10
-9.7399937183
 20
-10.682657222
 10
-9.8548804566
 20
-10.4271104626
 10
-9.9800150221
 20
-10.177437763
 10
-10.114860375
 20
-9.9347359668
 10
-10.2588721685
 20
-9.7000254871
 10
-10.4114844918
 20
-9.4742622204
 10
-10.5720706541
 20
-9.2584096857
 10
-10.7399538161
 20
-9.0534166229
 10
-10.9144465392
 20
-8.8601617095
 10
-11.0949196594
 20
-8.6793846907
 10
-11.2805140483
 20
-8.5119889192
 10
-11.4701320082
 20
-8.3589509727
 10
-11.6628429235
 20
-8.220938812
 10
-11.8579150707
 20
-8.0983871131
 10
-12.054509739
 20
-7.9917502353
  0
LWPOLYLINE
  5
388
100
AcDbEntity
  8
290
100
AcDbPolyline
 62
250
  6
CONTINUOUS
 90
7
 70
0
 10
-12.4305089897
 20
-15.7987294461
 10
-12.4245132641
 20
-15.782092844
 10
-12.4166296173
 20
-15.7660386105
 10
-12.4071102609
 20
-15.751080349
 10
-12.3962597355
 20
-15.7376966012
 10
-12.3844251686
 20
-15.7263155373
 10
-12.3719851691
 20
-15.7173012579
  0
LWPOLYLINE
  5
389
100
AcDbEntity
  8
284
100
AcDbPolyline
 62
250
  6
CONTINUOUS
 90
5
 70
0
 10
5.3539744834
 20
19.4411332905
 10
5.3294867363
 20
19.4058534418
 10
5.3069386129
 20
19.3692760868
 10
5.2862065196
 20
19.3311236141
 10
5.2674140498
 20
19.291673635
  0
LWPOLYLINE
  5
38A
100
AcDbEntity
  8
284
100
AcDbPolyline
 62
7
  6
CONTINUOUS
 90
7
 70
0
 10
5.9264742828
 20
20.0441810302
 10
5.9455598533
 20
20.0705396321
 10
5.9610659256
 20
20.0991668466
 10
5.9727231923
 20
20.1295753852
 10
5.9803405732
 20
20.1613102572
 10
5.9837599196
 20
20.1937885178
 10
5.9839552437
 20
20.2036579192
  0
LWPOLYLINE
  5
38B
100
AcDbEntity
  8
715
100
AcDbPolyline
 62
250
  6
CONTINUOUS
 90
47
 70
0
 10
8.9609789118
 20
24.0129271672
 10
8.999911686
 20
24.0649691619
 10
9.0491949044
 20
24.1217498394
 10
9.104328579
 20
24.1773404537
 10
9.1648320574
 20
24.231282976
 10
9.230704409
 20
24.2835358755
 10
9.3019465643
 20
24.334140683
 10
9.378080662
 20
24.3827639615
 10
9.4590972909
 20
24.429391704
 10
9.5450058623
 20
24.4740379176
 10
9.635356748
 20
24.5164111867
 10
9.7304070282
 20
24.5565703847
 10
9.8298996227
 20
24.5944566382
 10
9.9326136631
 20
24.6296019113
 10
10.0389545319
 20
24.6619796312
 10
10.1485168464
 20
24.6916163708
 10
10.2588635908
 20
24.718123813
 10
10.3699681078
 20
24.7413232064
 10
10.4818570545
 20
24.7613933025
 10
10.5921733866
 20
24.7784820383
 10
10.7005638765
 20
24.7924559341
 10
10.8073817518
 20
24.8034484697
 10
10.9113296509
 20
24.8120080209
 10
11.0121654853
 20
24.8181105905
 10
11.1101313436
 20
24.8217801757
 10
11.2046561299
 20
24.8236371445
 10
11.29557787
 20
24.8237030133
 10
11.3830585382
 20
24.8219562658
 10
11.4670129616
 20
24.8189527205
 10
11.547317035
 20
24.8147339198
 10
11.6240948636
 20
24.8092583213
 10
11.69763359
 20
24.8029571157
 10
11.7679001237
 20
24.7958710819
 10
11.8349275553
 20
24.787959441
 10
11.8991022994
 20
24.7795310469
 10
11.9604100462
 20
24.7706204063
 10
12.0188651057
 20
24.7611930125
 10
12.0748968222
 20
24.7514541987
 10
12.1285014057
 20
24.741432677
 10
12.1796826464
 20
24.7310997352
 10
12.2288812587
 20
24.7205745705
 10
12.2761004036
 20
24.7098800313
 10
12.3213369201
 20
24.6989932692
 10
12.36502204
 20
24.6879649356
 10
12.4072995071
 20
24.6768119143
 10
12.4480255775
 20
24.6655173214
 10
12.4872002512
 20
24.6540811571
  0
LWPOLYLINE
  5
38C
100
AcDbEntity
  8
715
100
AcDbPolyline
 62
250
  6
CONTINUOUS
 90
10
 70
0
 10
8.8793250422
 20
24.0465848092
 10
8.8816197303
 20
24.0496448199
 10
8.9344823814
 20
24.1103619179
 10
8.9935612519
 20
24.1696211352
 10
9.0586540313
 20
24.2272290684
 10
9.1295298632
 20
24.283002536
 10
9.206023001
 20
24.3368304715
 10
9.2880144047
 20
24.3886316552
 10
9.3752630017
 20
24.4382492945
 10
9.3956323811
 20
24.4491182759
  0
LWPOLYLINE
  5
38D
100
AcDbEntity
  8
290
100
AcDbPolyline
 62
250
  6
CONTINUOUS
 90
3
 70
0
 10
-17.3962213884
 20
-6.7807609998
 10
-17.5299567259
 20
-6.9078595455
 10
-17.6535735024
 20
-7.0490099989
  0
LINE
  5
38E
100
AcDbEntity
  8
290
100
AcDbLine
 62
7
  6
CONTINUOUS
 10
-17.3136231615
 20
-6.6122660573
 11
-17.5960482031
 21
-6.8795495854
  0
LINE
  5
38F
100
AcDbEntity
  8
290
100
AcDbLine
 62
7
  6
CONTINUOUS
 10
-17.2055356258
 20
-6.5091524698
 11
-16.9963898106
 21
-6.3202688673
  0
LINE
  5
390
100
AcDbEntity
  8
290
100
AcDbLine
 62
7
  6
CONTINUOUS
 10
-17.27900399
 20
-6.5859182635
 11
-17.4244593405
 21
-6.7052816021
  0
LINE
  5
391
100
AcDbEntity
  8
290
100
AcDbLine
 62
250
  6
CONTINUOUS
 10
-17.254105732
 20
-6.6693402295
 11
-17.3962213884
 21
-6.7807609998
  0
LINE
  5
392
100
AcDbEntity
  8
290
100
AcDbLine
 62
250
  6
CONTINUOUS
 10
-17.5035643469
 20
-6.420839569
 11
-17.2696042392
 21
-6.2455086632
  0
LINE
  5
393
100
AcDbEntity
  8
290
100
AcDbLine
 62
250
  6
CONTINUOUS
 10
-17.3889733677
 20
-6.4770622725
 11
-17.1585385505
 21
-6.3073632824
  0
LINE
  5
394
100
AcDbEntity
  8
284
100
AcDbLine
 62
7
  6
CONTINUOUS
 10
19.5980583371
 20
18.0061907906
 11
13.9758101711
 21
15.1624969342
  0
LINE
  5
395
100
AcDbEntity
  8
284
100
AcDbLine
 62
7
  6
CONTINUOUS
 10
15.5216467825
 20
13.7075219814
 11
17.642967126
 21
14.7681821532
  0
LINE
  5
396
100
AcDbEntity
  8
284
100
AcDbLine
 62
250
  6
CONTINUOUS
 10
15.6334501813
 20
13.7004215346
 11
17.7547705249
 21
14.7610817064
  0
LINE
  5
397
100
AcDbEntity
  8
284
100
AcDbLine
 62
7
  6
CONTINUOUS
 10
19.9495753838
 20
16.8506178553
 11
13.9758101711
 21
13.9575761015
  0
LINE
  5
398
100
AcDbEntity
  8
284
100
AcDbLine
 62
250
  6
CONTINUOUS
 10
17.642967126
 20
14.7681821532
 11
17.6471556913
 21
14.770148809
  0
LWPOLYLINE
  5
399
100
AcDbEntity
  8
284
100
AcDbPolyline
 62
250
  6
CONTINUOUS
 90
7
 70
0
 10
15.5218312846
 20
13.707613979
 10
15.526524219
 20
13.7097883091
 10
15.545971267
 20
13.7157933113
 10
15.5667892127
 20
13.7177686664
 10
15.5885415607
 20
13.7157729889
 10
15.6108894151
 20
13.7099314923
 10
15.6334501813
 20
13.7004215346
  0
LINE
  5
39A
100
AcDbEntity
  8
284
100
AcDbLine
 62
7
  6
CONTINUOUS
 10
18.8836087851
 20
14.2596647225
 11
23.5829621841
 21
16.4299818534
  0
LWPOLYLINE
  5
39B
100
AcDbEntity
  8
284
100
AcDbPolyline
 62
7
  6
CONTINUOUS
 90
6
 70
0
 10
17.642967126
 20
14.7681821532
 10
17.6712537212
 20
14.7802117183
 10
17.7012409223
 20
14.7887766872
 10
17.7324155052
 20
14.7935738556
 10
17.764320149
 20
14.7943928382
 10
17.7962050373
 20
14.7911177986
  0
LWPOLYLINE
  5
39C
100
AcDbEntity
  8
284
100
AcDbPolyline
 62
250
  6
CONTINUOUS
 90
13
 70
0
 10
18.9859091274
 20
11.2886592186
 10
19.015721474
 20
11.2972370877
 10
19.0266341489
 20
11.3003505053
 10
19.0381053278
 20
11.3037097164
 10
19.0501579658
 20
11.3073067529
 10
19.0627691078
 20
11.3111495829
 10
19.0759436688
 20
11.3153769341
 10
19.0896667729
 20
11.3199690075
 10
19.1039532961
 20
11.3249456021
 10
19.1188527809
 20
11.3305048428
 10
19.1343817417
 20
11.336712771
 10
19.1505236641
 20
11.3435033453
 10
19.1672785483
 20
11.3508765657
  0
LINE
  5
39D
100
AcDbEntity
  8
290
100
AcDbLine
 62
7
  6
CONTINUOUS
 10
-16.3929147982
 20
-6.0347026691
 11
-16.0945561415
 21
-6.0202935979
  0
LINE
  5
39E
100
AcDbEntity
  8
284
100
AcDbLine
 62
7
  6
CONTINUOUS
 10
19.8053801903
 20
-17.6300859796
 11
21.1147528078
 21
-18.2847722884
  0
LINE
  5
39F
100
AcDbEntity
  8
268
100
AcDbLine
 62
7
  6
CONTINUOUS
 10
-3.1755901982
 20
20.7631015196
 11
-3.1755901982
 21
20.6725938951
  0
LINE
  5
3A0
100
AcDbEntity
  8
218140000
100
AcDbLine
 62
250
  6
CONTINUOUS
 10
-2.5888059905
 20
24.9717989437
 11
-2.5888059905
 21
24.4983904883
  0
LINE
  5
3A1
100
AcDbEntity
  8
218140080
100
AcDbLine
 62
250
  6
CONTINUOUS
 10
-2.5888059905
 20
24.9717989437
 11
-2.5888059905
 21
24.4983904883
  0
LINE
  5
3A2
100
AcDbEntity
  8
268
100
AcDbLine
 62
250
  6
CONTINUOUS
 10
-2.5067220249
 20
21.8281800771
 11
-2.5067220249
 21
23.0431349431
  0
LINE
  5
3A3
100
AcDbEntity
  8
218140000
100
AcDbLine
 62
7
  6
CONTINUOUS
 10
-1.329666175
 20
24.5624385205
 11
-1.330008761
 21
24.5575681678
  0
LINE
  5
3A4
100
AcDbEntity
  8
218140080
100
AcDbLine
 62
7
  6
CONTINUOUS
 10
-1.329666175
 20
24.5624385205
 11
-1.330008761
 21
24.5575681678
  0
LINE
  5
3A5
100
AcDbEntity
  8
290
100
AcDbLine
 62
250
  6
CONTINUOUS
 10
-9.1657949546
 20
-14.2821654292
 11
-9.2725109459
 21
-14.6247703778
  0
LWPOLYLINE
  5
3A6
100
AcDbEntity
  8
284
100
AcDbPolyline
 62
250
  6
CONTINUOUS
 90
19
 70
0
 10
2.5615795969
 20
18.9225854022
 10
2.5646880714
 20
18.9322874816
 10
2.5680964677
 20
18.9422092004
 10
2.5720872643
 20
18.9522491611
 10
2.5766579352
 20
18.9623712837
 10
2.5817712725
 20
18.9725320912
 10
2.587632513
 20
18.9826317795
 10
2.5941979419
 20
18.9926068642
 10
2.6013929447
 20
19.0024053304
 10
2.6093443065
 20
19.0119569044
 10
2.6180071207
 20
19.0212019924
 10
2.6272451078
 20
19.0300948209
 10
2.6370465997
 20
19.0386044569
 10
2.6473748205
 20
19.0467002603
 10
2.6581465648
 20
19.0543674254
 10
2.6692802084
 20
19.0616072535
 10
2.680690893
 20
19.0684078832
 10
2.692318247
 20
19.0747496467
 10
2.704116884
 20
19.0806291316
  0
LINE
  5
3A7
100
AcDbEntity
  8
290
100
AcDbLine
 62
250
  6
CONTINUOUS
 10
-9.4563262089
 20
-14.4530701568
 11
-9.387629869
 21
-14.2440997594
  0
LWPOLYLINE
  5
3A8
100
AcDbEntity
  8
284
100
AcDbPolyline
 62
250
  6
CONTINUOUS
 90
7
 70
0
 10
2.5460653969
 20
18.8713429888
 10
2.548678422
 20
18.8789145216
 10
2.5512238059
 20
18.8868962556
 10
2.5537567756
 20
18.8952813405
 10
2.5562365092
 20
18.9040549533
 10
2.5587602791
 20
18.9131718385
 10
2.5615795969
 20
18.9225854022
  0
LINE
  5
3A9
100
AcDbEntity
  8
290
100
AcDbLine
 62
7
  6
CONTINUOUS
 10
-9.2234371663
 20
-14.3419077564
 11
-9.3440025067
 21
-14.6850402415
  0
LWPOLYLINE
  5
3AA
100
AcDbEntity
  8
284
100
AcDbPolyline
 62
250
  6
CONTINUOUS
 90
3
 70
0
 10
5.2674140498
 20
19.291673635
 10
5.2509319847
 20
19.2517589834
 10
5.2367977877
 20
19.2113776904
  0
LINE
  5
3AB
100
AcDbEntity
  8
290
100
AcDbLine
 62
250
  6
CONTINUOUS
 10
-9.2725109459
 20
-14.6247703778
 11
-9.4095490175
 21
-14.9425300424
  0
LWPOLYLINE
  5
3AC
100
AcDbEntity
  8
284
100
AcDbPolyline
 62
250
  6
CONTINUOUS
 90
12
 70
0
 10
3.7894115965
 20
19.054620504
 10
3.776466662
 20
19.0253404816
 10
3.7607205411
 20
18.9979861915
 10
3.7424222712
 20
18.9730359496
 10
3.72185136
 20
18.950916965
 10
3.6993590546
 20
18.9320481414
 10
3.675375683
 20
18.9168066729
 10
3.6503322138
 20
18.905461398
 10
3.6246416157
 20
18.8981945769
 10
3.5987459614
 20
18.8951309632
 10
3.5730901334
 20
18.896322578
 10
3.5631509668
 20
18.8979571221
  0
LWPOLYLINE
  5
3AD
100
AcDbEntity
  8
284
100
AcDbPolyline
 62
250
  6
CONTINUOUS
 90
12
 70
0
 10
4.3197416824
 20
18.9447855469
 10
4.3066923388
 20
18.9152995632
 10
4.2908415748
 20
18.887830442
 10
4.2724606014
 20
18.8628481876
 10
4.2518639222
 20
18.8407802532
 10
4.2294039519
 20
18.8220042274
 10
4.2054649871
 20
18.8068413731
 10
4.1804566298
 20
18.795551131
 10
4.1548067802
 20
18.7883266803
 10
4.1289543143
 20
18.7852916333
 10
4.1033415748
 20
18.7864979206
 10
4.0922642345
 20
18.7883690056
  0
LINE
  5
3AE
100
AcDbEntity
  8
290
100
AcDbLine
 62
7
  6
CONTINUOUS
 10
-16.9963898106
 20
-6.3202688673
 11
-16.7696837952
 21
-6.1641525464
  0
LINE
  5
3AF
100
AcDbEntity
  8
290
100
AcDbLine
 62
7
  6
CONTINUOUS
 10
-17.1246293277
 20
-6.4823714873
 11
-17.27900399
 21
-6.5859182635
  0
LINE
  5
3B0
100
AcDbEntity
  8
218140000
100
AcDbLine
 62
7
  6
CONTINUOUS
 10
19.6157624989
 20
18.1233430022
 11
19.6808027409
 21
18.1654104816
  0
LINE
  5
3B1
100
AcDbEntity
  8
218140080
100
AcDbLine
 62
7
  6
CONTINUOUS
 10
19.6157624989
 20
18.1233430022
 11
19.6808027409
 21
18.1654104816
  0
LINE
  5
3B2
100
AcDbEntity
  8
290
100
AcDbLine
 62
250
  6
CONTINUOUS
 10
-17.1035424128
 20
-6.5738111491
 11
-17.254105732
 21
-6.6693402295
  0
LINE
  5
3B3
100
AcDbEntity
  8
290
100
AcDbLine
 62
7
  6
CONTINUOUS
 10
-16.994130732
 20
-6.4107376801
 11
-17.3140641237
 21
-6.6126095893
  0
LWPOLYLINE
  5
3B4
100
AcDbEntity
  8
284
100
AcDbPolyline
 62
250
  6
CONTINUOUS
 90
13
 70
0
 10
16.9769530656
 20
13.0286700925
 10
16.9537866687
 20
13.0152197219
 10
16.9310117337
 20
12.9982602682
 10
16.9090220163
 20
12.9780808295
 10
16.8881960793
 20
12.9550238557
 10
16.8688980632
 20
12.9294872679
 10
16.8514694022
 20
12.9019203535
 10
16.8361807722
 20
12.8727346188
 10
16.8233384844
 20
12.8424958026
 10
16.813226723
 20
12.8119432496
 10
16.8059758279
 20
12.7816767254
 10
16.8016219165
 20
12.7521293497
 10
16.8001763703
 20
12.7237753939
  0
LWPOLYLINE
  5
3B5
100
AcDbEntity
  8
284
100
AcDbPolyline
 62
250
  6
CONTINUOUS
 90
13
 70
0
 10
15.6334501813
 20
13.7004215346
 10
15.6103761924
 20
13.6870322983
 10
15.5876970059
 20
13.6701676718
 10
15.5658006688
 20
13.6501162137
 10
15.5450618337
 20
13.6272210098
 10
15.5258353477
 20
13.6018738035
 10
15.5084501813
 20
13.5745082926
 10
15.4932037996
 20
13.5455927084
 10
15.4803570724
 20
13.5156218046
 10
15.4701298107
 20
13.4851083918
 10
15.4626970059
 20
13.4545745629
 10
15.4581858352
 20
13.4245427601
 10
15.456673486
 20
13.395526836
  0
LWPOLYLINE
  5
3B6
100
AcDbEntity
  8
284
100
AcDbPolyline
 62
250
  6
CONTINUOUS
 90
13
 70
0
 10
16.019890768
 20
12.1007393443
 10
16.0385726129
 20
12.1111959738
 10
16.0569708467
 20
12.1245205339
 10
16.0747636464
 20
12.1404799507
 10
16.0916397794
 20
12.158795061
 10
16.1073040473
 20
12.1791454959
 10
16.1214824497
 20
12.2011752844
 10
16.1339269774
 20
12.22449908
 10
16.1444199498
 20
12.2487089015
 10
16.1527778232
 20
12.2733812693
 10
16.1588544011
 20
12.2980846129
 10
16.1625433918
 20
12.32238682
 10
16.1637802672
 20
12.3458627947
  0
LWPOLYLINE
  5
3B7
100
AcDbEntity
  8
284
100
AcDbPolyline
 62
250
  6
CONTINUOUS
 90
16
 70
0
 10
16.019890768
 20
12.4121349575
 10
15.9875792068
 20
12.3946929055
 10
15.9597601881
 20
12.3761869973
 10
15.9364337119
 20
12.356617233
 10
15.9174939734
 20
12.3357479629
 10
15.9030467773
 20
12.3138148366
 10
15.8934095385
 20
12.2915248031
 10
15.888699696
 20
12.2688954085
 10
15.8887998108
 20
12.2459091066
 10
15.8936749795
 20
12.2232202081
 10
15.9034336254
 20
12.2008209487
 10
15.9179673253
 20
12.1787190926
 10
15.9369159067
 20
12.1575922437
 10
15.9601593123
 20
12.13766627
 10
15.9878175993
 20
12.1187153036
 10
16.019890768
 20
12.1007393443
  0
LINE
  5
3B8
100
AcDbEntity
  8
284
100
AcDbLine
 62
7
  6
CONTINUOUS
 10
18.8161315891
 20
12.7890556074
 11
24.6942994958
 21
15.9604620482
  0
LINE
  5
3B9
100
AcDbEntity
  8
290
100
AcDbLine
 62
7
  6
CONTINUOUS
 10
-16.9620531579
 20
-6.3951426382
 11
-17.1246293277
 21
-6.4823714873
  0
LWPOLYLINE
  5
3BA
100
AcDbEntity
  8
284
100
AcDbPolyline
 62
7
  6
CONTINUOUS
 90
10
 70
0
 10
15.5218312846
 20
13.707613979
 10
15.5104385522
 20
13.7015573059
 10
15.4833529114
 20
13.6838421942
 10
15.4587219782
 20
13.662716885
 10
15.4369704784
 20
13.6384976093
 10
15.4184626026
 20
13.6115096231
 10
15.4035584246
 20
13.5821484784
 10
15.3925981493
 20
13.5509248101
 10
15.3858402215
 20
13.5184015256
 10
15.3834503397
 20
13.4840558762
  0
LINE
  5
3BB
100
AcDbEntity
  8
290
100
AcDbLine
 62
250
  6
CONTINUOUS
 10
-17.1585385505
 20
-6.3073632824
 11
-16.9144290905
 21
-6.1778381463
  0
LINE
  5
3BC
100
AcDbEntity
  8
290
100
AcDbLine
 62
250
  6
CONTINUOUS
 10
-17.2696042392
 20
-6.2455086632
 11
-17.0210885141
 21
-6.1141744752
  0
LINE
  5
3BD
100
AcDbEntity
  8
284
100
AcDbLine
 62
7
  6
CONTINUOUS
 10
19.0516365055
 20
12.4556555338
 11
24.7377677281
 21
15.3997361583
  0
LINE
  5
3BE
100
AcDbEntity
  8
284
100
AcDbLine
 62
250
  6
CONTINUOUS
 10
16.9769530656
 20
13.0286700925
 11
19.0982734091
 21
14.0893302642
  0
LINE
  5
3BF
100
AcDbEntity
  8
284
100
AcDbLine
 62
250
  6
CONTINUOUS
 10
17.1537297609
 20
12.7237753939
 11
19.2750501044
 21
13.7844355656
  0
LWPOLYLINE
  5
3C0
100
AcDbEntity
  8
284
100
AcDbPolyline
 62
250
  6
CONTINUOUS
 90
24
 70
0
 10
18.6621538535
 20
11.792070107
 10
18.6718513151
 20
11.7967583379
 10
18.6814577632
 20
11.8017304796
 10
18.6909685406
 20
11.8069722013
 10
18.7003609761
 20
11.8124526972
 10
18.7095837549
 20
11.8181560022
 10
18.7185679952
 20
11.8240822787
 10
18.7272516305
 20
11.8302125425
 10
18.7356181387
 20
11.8365296161
 10
18.7436609809
 20
11.843034185
 10
18.7513278689
 20
11.8497290236
 10
18.7585934381
 20
11.8565853844
 10
18.7654820444
 20
11.863555918
 10
18.7719191776
 20
11.8706510768
 10
18.7778799983
 20
11.8778384899
 10
18.7834556797
 20
11.8850147691
 10
18.7885888192
 20
11.8921701186
 10
18.7932437322
 20
11.8993186157
 10
18.7975585356
 20
11.9064079405
 10
18.8015356044
 20
11.9134728831
 10
18.8051728893
 20
11.9205131774
 10
18.8085941145
 20
11.9274314101
 10
18.8117840455
 20
11.9342294136
 10
18.8176259992
 20
11.9475227731
  0
LINE
  5
3C1
100
AcDbEntity
  8
284
100
AcDbLine
 62
250
  6
CONTINUOUS
 10
16.089817865
 20
12.4456036045
 11
16.019890768
 21
12.4121349575
  0
LINE
  5
3C2
100
AcDbEntity
  8
284
100
AcDbLine
 62
250
  6
CONTINUOUS
 10
17.8608365421
 20
11.6673089143
 11
18.5679433233
 21
12.0057457752
  0
LINE
  5
3C3
100
AcDbEntity
  8
284
100
AcDbLine
 62
250
  6
CONTINUOUS
 10
17.9515422827
 20
11.4569144557
 11
18.6621536477
 21
11.7920692094
  0
LINE
  5
3C4
100
AcDbEntity
  8
284
100
AcDbLine
 62
250
  6
CONTINUOUS
 10
18.8261202285
 20
11.9667427692
 11
19.4516652397
 21
12.2556411667
  0
LINE
  5
3C5
100
AcDbEntity
  8
284
100
AcDbLine
 62
250
  6
CONTINUOUS
 10
19.1672785483
 20
11.3508765657
 11
19.8053801903
 21
11.6455731196
  0
LINE
  5
3C6
100
AcDbEntity
  8
284
100
AcDbLine
 62
250
  6
CONTINUOUS
 10
17.6470320624
 20
10.6487764289
 11
17.8827781991
 21
10.7576557099
  0
LINE
  5
3C7
100
AcDbEntity
  8
284
100
AcDbLine
 62
250
  6
CONTINUOUS
 10
17.2933171118
 20
11.258844476
 11
17.5416818802
 21
11.3735100809
  0
LWPOLYLINE
  5
3C8
100
AcDbEntity
  8
284
100
AcDbPolyline
 62
250
  6
CONTINUOUS
 90
4
 70
0
 10
18.1721539207
 20
10.9279025319
 10
18.2520520783
 20
10.9641934703
 10
18.3319582752
 20
11.0004936171
 10
18.8913771817
 20
11.254784041
  0
LWPOLYLINE
  5
3C9
100
AcDbEntity
  8
284
100
AcDbPolyline
 62
250
  6
CONTINUOUS
 90
14
 70
0
 10
18.8913771817
 20
11.254784041
 10
18.8973042563
 20
11.2574473714
 10
18.9034124635
 20
11.2600908992
 10
18.9097018033
 20
11.2627146245
 10
18.9161493965
 20
11.2653140108
 10
18.9227781222
 20
11.2678935947
 10
18.9296566183
 20
11.2704669856
 10
18.9367879796
 20
11.2730322837
 10
18.9441691112
 20
11.2755913889
 10
18.9518593665
 20
11.2781636111
 10
18.959853259
 20
11.2807426603
 10
18.9681562753
 20
11.2833348266
 10
18.9768442284
 20
11.2859782897
 10
18.9859091274
 20
11.2886592186
  0
LWPOLYLINE
  5
3CA
100
AcDbEntity
  8
284
100
AcDbPolyline
 62
250
  6
CONTINUOUS
 90
13
 70
0
 10
17.1537297609
 20
12.3724614218
 10
17.1293305425
 20
12.361752463
 10
17.1022983802
 20
12.3526964614
 10
17.073075446
 20
12.3454585999
 10
17.0421228896
 20
12.3401715878
 10
17.0099824312
 20
12.336945511
 10
16.9772741768
 20
12.3358498725
 10
16.944584261
 20
12.3369019372
 10
16.9124501973
 20
12.3400820378
 10
16.8814248417
 20
12.3453353131
 10
16.8520410083
 20
12.352571219
 10
16.8248024426
 20
12.3616653605
 10
16.8001763703
 20
12.3724614218
  0
LWPOLYLINE
  5
3CB
100
AcDbEntity
  8
284
100
AcDbPolyline
 62
250
  6
CONTINUOUS
 90
13
 70
0
 10
17.1537297609
 20
12.7237753939
 10
17.1291434228
 20
12.712994574
 10
17.1019530656
 20
12.703910566
 10
17.0726239237
 20
12.6966787999
 10
17.0416578269
 20
12.6914230132
 10
17.0095846136
 20
12.6882331338
 10
16.9769530656
 20
12.6871637415
 10
16.9443215175
 20
12.6882331338
 10
16.9122483043
 20
12.6914230132
 10
16.8812822075
 20
12.6966787999
 10
16.8519530656
 20
12.703910566
 10
16.8247627083
 20
12.712994574
 10
16.8001763703
 20
12.7237753939
  0
LWPOLYLINE
  5
3CC
100
AcDbEntity
  8
284
100
AcDbPolyline
 62
250
  6
CONTINUOUS
 90
13
 70
0
 10
17.8608365421
 20
11.9760148124
 10
17.836250204
 20
11.9652339925
 10
17.8090598468
 20
11.9561499845
 10
17.7797307049
 20
11.9489182185
 10
17.7487646081
 20
11.9436624317
 10
17.7166913948
 20
11.9404725523
 10
17.6840598468
 20
11.93940316
 10
17.6514282987
 20
11.9404725523
 10
17.6193550855
 20
11.9436624317
 10
17.5883889887
 20
11.9489182185
 10
17.5590598468
 20
11.9561499845
 10
17.5318694895
 20
11.9652339925
 10
17.5072831515
 20
11.9760148124
  0
LWPOLYLINE
  5
3CD
100
AcDbEntity
  8
284
100
AcDbPolyline
 62
250
  6
CONTINUOUS
 90
4
 70
0
 10
18.7068965365
 20
12.072017938
 10
18.6886647238
 20
12.0647411055
 10
18.6707792771
 20
12.0605044288
 10
18.6535394679
 20
12.0593787988
  0
LINE
  5
3CE
100
AcDbEntity
  8
290
100
AcDbLine
 62
250
  6
CONTINUOUS
 10
13.0299908749
 20
9.0145477645
 11
17.0816743678
 21
10.5439616121
  0
LINE
  5
3CF
100
AcDbEntity
  8
290
100
AcDbLine
 62
250
  6
CONTINUOUS
 10
13.5364689209
 20
8.0132674802
 11
17.5881524138
 21
9.5426813278
  0
LINE
  5
3D0
100
AcDbEntity
  8
284
100
AcDbLine
 62
7
  6
CONTINUOUS
 10
18.1146741568
 20
10.7795876948
 11
17.6470320624
 21
10.622906791
  0
LINE
  5
3D1
100
AcDbEntity
  8
290
100
AcDbLine
 62
7
  6
CONTINUOUS
 10
-16.6784937146
 20
-6.0926849262
 11
-16.3929147982
 21
-6.0347026691
  0
LWPOLYLINE
  5
3D2
100
AcDbEntity
  8
290
100
AcDbPolyline
 62
250
  6
CONTINUOUS
 90
6
 70
0
 10
-16.4960715759
 20
-5.9668666554
 10
-16.2355796158
 20
-5.9472910498
 10
-15.9750218419
 20
-5.9626328576
 10
-15.7214699563
 20
-6.0022861304
 10
-15.4772898768
 20
-6.0627190806
 10
-15.2401494156
 20
-6.1474772215
  0
LINE
  5
3D3
100
AcDbEntity
  8
218140000
100
AcDbLine
 62
7
  6
CONTINUOUS
 10
-1.3296612463
 20
24.5624956477
 11
-1.3296612108
 21
24.5623966715
  0
LINE
  5
3D4
100
AcDbEntity
  8
218140080
100
AcDbLine
 62
7
  6
CONTINUOUS
 10
-1.3296612463
 20
24.5624956477
 11
-1.3296612108
 21
24.5623966715
  0
LINE
  5
3D5
100
AcDbEntity
  8
218140000
100
AcDbLine
 62
250
  6
CONTINUOUS
 10
-2.1759347742
 20
25.084059369
 11
-2.1759347742
 21
24.2919548802
  0
LINE
  5
3D6
100
AcDbEntity
  8
218140080
100
AcDbLine
 62
250
  6
CONTINUOUS
 10
-2.1759347742
 20
25.084059369
 11
-2.1759347742
 21
24.2919548802
  0
LINE
  5
3D7
100
AcDbEntity
  8
268
100
AcDbLine
 62
7
  6
CONTINUOUS
 10
-2.1502853655
 20
26.0811539116
 11
-2.1502853655
 21
27.3314247708
  0
LINE
  5
3D8
100
AcDbEntity
  8
268
100
AcDbLine
 62
250
  6
CONTINUOUS
 10
-2.0836956734
 20
21.8298189246
 11
-2.0836956734
 21
23.0440223974
  0
LINE
  5
3D9
100
AcDbEntity
  8
268
100
AcDbLine
 62
7
  6
CONTINUOUS
 10
-1.7967319749
 20
26.6020898862
 11
-1.7967319749
 21
27.1546480755
  0
LINE
  5
3DA
100
AcDbEntity
  8
268
100
AcDbLine
 62
250
  6
CONTINUOUS
 10
-1.7260212968
 20
28.770856373
 11
-1.7260212968
 21
27.5390221916
  0
LINE
  5
3DB
100
AcDbEntity
  8
268
100
AcDbLine
 62
7
  6
CONTINUOUS
 10
-1.6381533312
 20
28.875853587
 11
-1.6381533312
 21
27.6434849822
  0
LINE
  5
3DC
100
AcDbEntity
  8
268
100
AcDbLine
 62
7
  6
CONTINUOUS
 10
-1.5845999406
 20
23.2942190705
 11
-1.5845999406
 21
22.0817835053
  0
LINE
  5
3DD
100
AcDbEntity
  8
218140000
100
AcDbLine
 62
250
  6
CONTINUOUS
 10
-1.4175291756
 20
24.7048565696
 11
-1.4175291756
 21
24.4387803843
  0
LINE
  5
3DE
100
AcDbEntity
  8
218140080
100
AcDbLine
 62
250
  6
CONTINUOUS
 10
-1.4175291756
 20
24.7048565696
 11
-1.4175291756
 21
24.4387803843
  0
LINE
  5
3DF
100
AcDbEntity
  8
268
100
AcDbLine
 62
7
  6
CONTINUOUS
 10
-0.5843658796
 20
21.0647325467
 11
-0.5843658796
 21
21.3181039405
  0
LINE
  5
3E0
100
AcDbEntity
  8
268
100
AcDbLine
 62
7
  6
CONTINUOUS
 10
0.1186270747
 20
20.1581732921
 11
0.1186270747
 21
20.6105042677
  0
LWPOLYLINE
  5
3E1
100
AcDbEntity
  8
284
100
AcDbPolyline
 62
250
  6
CONTINUOUS
 90
6
 70
0
 10
5.2367977877
 20
19.2113776904
 10
5.2249739952
 20
19.1705317249
 10
5.2157189971
 20
19.1300598276
 10
5.2091189233
 20
19.0902415786
 10
5.2050876439
 20
19.0507973978
 10
5.2036251588
 20
19.0117272852
  0
LWPOLYLINE
  5
3E2
100
AcDbEntity
  8
290
100
AcDbPolyline
 62
7
  6
CONTINUOUS
 90
5
 70
0
 10
-9.3440025067
 20
-14.6850402415
 10
-9.4959271238
 20
-14.9953889752
 10
-9.677339287
 20
-15.2691061522
 10
-9.886201605
 20
-15.5028666083
 10
-10.1200883947
 20
-15.6945487773
  0
LWPOLYLINE
  5
3E3
100
AcDbEntity
  8
290
100
AcDbPolyline
 62
250
  6
CONTINUOUS
 90
32
 70
0
 10
-9.7586372146
 20
-14.7942285224
 10
-9.6688619528
 20
-14.6136514483
 10
-9.590492309
 20
-14.4209406723
 10
-9.5233683533
 20
-14.2162471435
 10
-9.4683434824
 20
-14.0021928819
 10
-9.4255708617
 20
-13.7786563273
 10
-9.3948840734
 20
-13.5457537397
 10
-9.3766700335
 20
-13.3064694107
 10
-9.3710923897
 20
-13.0607243728
 10
-9.3779875934
 20
-12.8085980308
 10
-9.3972652669
 20
-12.5533179688
 10
-9.4290937484
 20
-12.294849173
 10
-9.4733181
 20
-12.0332326771
 10
-9.5293758557
 20
-11.7718155209
 10
-9.5974319461
 20
-11.5106107712
 10
-9.6773460784
 20
-11.2496159763
 10
-9.768108922
 20
-10.9921594503
 10
-9.8698805632
 20
-10.7382885436
 10
-9.9825329895
 20
-10.4879694516
 10
-10.1046329796
 20
-10.2444121423
 10
-10.2363048824
 20
-10.0077321286
 10
-10.3774590479
 20
-9.7778283563
 10
-10.5263462856
 20
-9.5575879793
 10
-10.6830886798
 20
-9.3471227008
 10
-10.8475960663
 20
-9.1463339902
 10
-11.0178027409
 20
-8.9577943843
 10
-11.1939176303
 20
-8.7815993423
 10
-11.3757562638
 20
-8.6176634292
 10
-11.5606620617
 20
-8.4682875071
 10
-11.7477541335
 20
-8.3342404216
 10
-11.937926623
 20
-8.2147587375
 10
-12.1311828264
 20
-8.1098437988
  0
LWPOLYLINE
  5
3E4
100
AcDbEntity
  8
290
100
AcDbPolyline
 62
250
  6
CONTINUOUS
 90
3
 70
0
 10
-9.6291600418
 20
-14.8358404486
 10
-9.5369662117
 20
-14.6506043266
 10
-9.4563262089
 20
-14.4530701568
  0
LINE
  5
3E5
100
AcDbEntity
  8
290
100
AcDbLine
 62
250
  6
CONTINUOUS
 10
-9.4095490175
 20
-14.9425300424
 11
-9.5720493478
 21
-15.2255599634
  0
LWPOLYLINE
  5
3E6
100
AcDbEntity
  8
218140000
100
AcDbPolyline
 62
7
  6
CONTINUOUS
 90
66
 70
0
 10
19.0104345767
 20
18.3687222948
 10
19.0563828554
 20
18.4112465649
 10
19.1009250632
 20
18.4530425756
 10
19.1440669525
 20
18.494110373
 10
19.1858027707
 20
18.534449911
 10
19.2261978464
 20
18.5741434812
 10
19.2652596674
 20
18.6131906046
 10
19.3029807459
 20
18.6515917602
 10
19.3394039468
 20
18.6894306764
 10
19.3745399717
 20
18.7267062701
 10
19.4083781189
 20
18.7634196244
 10
19.4409291493
 20
18.7996577164
 10
19.4722112276
 20
18.8354207466
 10
19.502206189
 20
18.8707085146
 10
19.530870299
 20
18.9056073963
 10
19.5582343097
 20
18.9401199772
 10
19.584267469
 20
18.9742436718
 10
19.6088337861
 20
19.0080570995
 10
19.632002239
 20
19.0416054651
 10
19.6537038497
 20
19.0748435637
 10
19.6735956942
 20
19.1077144001
 10
19.691753918
 20
19.1403350406
 10
19.7081023756
 20
19.1725884187
 10
19.7220697073
 20
19.2040663404
 10
19.7336091537
 20
19.234782198
 10
19.7427674742
 20
19.264722599
 10
19.7491135863
 20
19.2934391716
 10
19.7525382419
 20
19.320891548
 10
19.7531506891
 20
19.3471200958
 10
19.7508475895
 20
19.3717975463
 10
19.7454634631
 20
19.3948861645
 10
19.7371637898
 20
19.4164236854
 10
19.7263416711
 20
19.4361960448
 10
19.7129208944
 20
19.4540742509
 10
19.6969776723
 20
19.4701872955
 10
19.6791337441
 20
19.4847080901
 10
19.6594692709
 20
19.4975861514
 10
19.6379040917
 20
19.5088719626
 10
19.6148194621
 20
19.518889885
 10
19.5902896839
 20
19.5276683455
 10
19.5642404554
 20
19.5351789171
 10
19.5368301267
 20
19.5416606809
 10
19.5080940216
 20
19.5471452536
 10
19.4779968164
 20
19.5516010183
 10
19.4465908897
 20
19.5551722056
 10
19.4138956228
 20
19.557879197
 10
19.3798916345
 20
19.5597016109
 10
19.3445731599
 20
19.560722533
 10
19.3079524187
 20
19.5609551256
 10
19.2700171912
 20
19.5603862265
 10
19.2307250536
 20
19.5590594342
 10
19.1900815578
 20
19.5569833369
 10
19.1480811518
 20
19.5541493465
 10
19.1046647561
 20
19.5505752975
 10
19.0598365086
 20
19.5462669086
 10
19.0135922713
 20
19.5412184611
 10
18.9658605517
 20
19.5354306333
 10
18.916651959
 20
19.5289088393
 10
18.8659558839
 20
19.521647665
 10
18.813669005
 20
19.5136315466
 10
18.759798216
 20
19.5048655272
 10
18.7043366231
 20
19.4953445637
 10
18.6471602238
 20
19.4850379622
 10
18.5882276837
 20
19.4739354916
 10
18.5275803371
 20
19.462047383
 10
18.465218184
 20
19.4493736365
  0
LWPOLYLINE
  5
3E7
100
AcDbEntity
  8
218140080
100
AcDbPolyline
 62
7
  6
CONTINUOUS
 90
66
 70
0
 10
19.0104345767
 20
18.3687222948
 10
19.0563828554
 20
18.4112465649
 10
19.1009250632
 20
18.4530425756
 10
19.1440669525
 20
18.494110373
 10
19.1858027707
 20
18.534449911
 10
19.2261978464
 20
18.5741434812
 10
19.2652596674
 20
18.6131906046
 10
19.3029807459
 20
18.6515917602
 10
19.3394039468
 20
18.6894306764
 10
19.3745399717
 20
18.7267062701
 10
19.4083781189
 20
18.7634196244
 10
19.4409291493
 20
18.7996577164
 10
19.4722112276
 20
18.8354207466
 10
19.502206189
 20
18.8707085146
 10
19.530870299
 20
18.9056073963
 10
19.5582343097
 20
18.9401199772
 10
19.584267469
 20
18.9742436718
 10
19.6088337861
 20
19.0080570995
 10
19.632002239
 20
19.0416054651
 10
19.6537038497
 20
19.0748435637
 10
19.6735956942
 20
19.1077144001
 10
19.691753918
 20
19.1403350406
 10
19.7081023756
 20
19.1725884187
 10
19.7220697073
 20
19.2040663404
 10
19.7336091537
 20
19.234782198
 10
19.7427674742
 20
19.264722599
 10
19.7491135863
 20
19.2934391716
 10
19.7525382419
 20
19.320891548
 10
19.7531506891
 20
19.3471200958
 10
19.7508475895
 20
19.3717975463
 10
19.7454634631
 20
19.3948861645
 10
19.7371637898
 20
19.4164236854
 10
19.7263416711
 20
19.4361960448
 10
19.7129208944
 20
19.4540742509
 10
19.6969776723
 20
19.4701872955
 10
19.6791337441
 20
19.4847080901
 10
19.6594692709
 20
19.4975861514
 10
19.6379040917
 20
19.5088719626
 10
19.6148194621
 20
19.518889885
 10
19.5902896839
 20
19.5276683455
 10
19.5642404554
 20
19.5351789171
 10
19.5368301267
 20
19.5416606809
 10
19.5080940216
 20
19.5471452536
 10
19.4779968164
 20
19.5516010183
 10
19.4465908897
 20
19.5551722056
 10
19.4138956228
 20
19.557879197
 10
19.3798916345
 20
19.5597016109
 10
19.3445731599
 20
19.560722533
 10
19.3079524187
 20
19.5609551256
 10
19.2700171912
 20
19.5603862265
 10
19.2307250536
 20
19.5590594342
 10
19.1900815578
 20
19.5569833369
 10
19.1480811518
 20
19.5541493465
 10
19.1046647561
 20
19.5505752975
 10
19.0598365086
 20
19.5462669086
 10
19.0135922713
 20
19.5412184611
 10
18.9658605517
 20
19.5354306333
 10
18.916651959
 20
19.5289088393
 10
18.8659558839
 20
19.521647665
 10
18.813669005
 20
19.5136315466
 10
18.759798216
 20
19.5048655272
 10
18.7043366231
 20
19.4953445637
 10
18.6471602238
 20
19.4850379622
 10
18.5882276837
 20
19.4739354916
 10
18.5275803371
 20
19.462047383
 10
18.465218184
 20
19.4493736365
  0
LINE
  5
3E8
100
AcDbEntity
  8
218140000
100
AcDbLine
 62
7
  6
CONTINUOUS
 10
18.9971932234
 20
18.356625951
 11
19.0104345767
 21
18.3687222948
  0
LINE
  5
3E9
100
AcDbEntity
  8
218140080
100
AcDbLine
 62
7
  6
CONTINUOUS
 10
18.9971932234
 20
18.356625951
 11
19.0104345767
 21
18.3687222948
  0
LWPOLYLINE
  5
3EA
100
AcDbEntity
  8
284
100
AcDbPolyline
 62
250
  6
CONTINUOUS
 90
7
 70
0
 10
18.5679433233
 20
12.329568203
 10
18.589504963
 20
12.341861372
 10
18.6076729789
 20
12.3554565506
 10
18.6221365111
 20
12.3701211216
 10
18.6326480845
 20
12.38560417
 10
18.6390278433
 20
12.4016407766
 10
18.641166628
 20
12.4179565506
  0
LWPOLYLINE
  5
3EB
100
AcDbEntity
  8
284
100
AcDbPolyline
 62
250
  6
CONTINUOUS
 90
13
 70
0
 10
17.3633936523
 20
11.4289879022
 10
17.3820757449
 20
11.4394446914
 10
17.4004741666
 20
11.452769446
 10
17.4182670879
 20
11.4687290619
 10
17.4351432732
 20
11.4870443464
 10
17.4508075304
 20
11.5073949081
 10
17.4649858726
 20
11.5294247642
 10
17.477430301
 20
11.5527485534
 10
17.4879231527
 20
11.5769582914
 10
17.4962809068
 20
11.6016305156
 10
17.5023573831
 20
11.6263336675
 10
17.5060463024
 20
11.65063564
 10
17.5072831515
 20
11.6741113526
  0
LWPOLYLINE
  5
3EC
100
AcDbEntity
  8
284
100
AcDbPolyline
 62
250
  6
CONTINUOUS
 90
8
 70
0
 10
18.5679433233
 20
12.0057457752
 10
18.5856704652
 20
12.0148707463
 10
18.6011596381
 20
12.0248654569
 10
18.6142615974
 20
12.0356017844
 10
18.6248530852
 20
12.0469350789
 10
18.6328491938
 20
12.0587377559
 10
18.6381944322
 20
12.0709024238
 10
18.6408493842
 20
12.0832788053
  0
LINE
  5
3ED
100
AcDbEntity
  8
290
100
AcDbLine
 62
7
  6
CONTINUOUS
 10
-16.7696837952
 20
-6.1641525464
 11
-16.5936461917
 21
-6.0754579861
  0
LINE
  5
3EE
100
AcDbEntity
  8
290
100
AcDbLine
 62
250
  6
CONTINUOUS
 10
-16.9446334761
 20
-6.4939743038
 11
-17.1035424128
 21
-6.5738111491
  0
LWPOLYLINE
  5
3EF
100
AcDbEntity
  8
284
100
AcDbPolyline
 62
250
  6
CONTINUOUS
 90
10
 70
0
 10
17.8827781991
 20
10.7576557099
 10
17.8997757357
 20
10.7658275867
 10
17.91674883
 20
10.7744390878
 10
17.9336974819
 20
10.7834902132
 10
17.9507605132
 20
10.7931189925
 10
17.9677991023
 20
10.8031873961
 10
17.9843967836
 20
10.8132813347
 10
18.000569602
 20
10.8234392471
 10
18.0163015127
 20
10.8336226944
 10
18.0448594507
 20
10.8523303512
  0
LINE
  5
3F0
100
AcDbEntity
  8
290
100
AcDbLine
 62
7
  6
CONTINUOUS
 10
-16.8465592348
 20
-6.3450887493
 11
-16.99453977
 21
-6.4109414742
  0
LINE
  5
3F1
100
AcDbEntity
  8
290
100
AcDbLine
 62
7
  6
CONTINUOUS
 10
-16.849383855
 20
-6.3462031589
 11
-16.9620531579
 21
-6.3951426382
  0
LINE
  5
3F2
100
AcDbEntity
  8
290
100
AcDbLine
 62
7
  6
CONTINUOUS
 10
-16.2975315943
 20
-6.1265581497
 11
-16.8532422398
 21
-6.3477225017
  0
LINE
  5
3F3
100
AcDbEntity
  8
290
100
AcDbLine
 62
250
  6
CONTINUOUS
 10
-16.9144290905
 20
-6.1778381463
 11
-16.7636118794
 21
-6.1191993306
  0
LINE
  5
3F4
100
AcDbEntity
  8
290
100
AcDbLine
 62
250
  6
CONTINUOUS
 10
-16.7793762696
 20
-6.4308375394
 11
-16.9446334761
 21
-6.4939743038
  0
LWPOLYLINE
  5
3F5
100
AcDbEntity
  8
290
100
AcDbPolyline
 62
7
  6
CONTINUOUS
 90
4
 70
0
 10
-16.2974719312
 20
-6.1265511837
 10
-16.1923128035
 20
-6.088275722
 10
-16.0849115579
 20
-6.0563157202
 10
-15.9785099546
 20
-6.0314001865
  0
LINE
  5
3F6
100
AcDbEntity
  8
290
100
AcDbLine
 62
250
  6
CONTINUOUS
 10
-16.7434528111
 20
-6.3081074579
 11
-16.8466994685
 21
-6.345133346
  0
LWPOLYLINE
  5
3F7
100
AcDbEntity
  8
290
100
AcDbPolyline
 62
250
  6
CONTINUOUS
 90
3
 70
0
 10
-17.0210885141
 20
-6.1141744752
 10
-16.7586637366
 20
-6.0230826519
 10
-16.4960715759
 20
-5.9668666554
  0
LINE
  5
3F8
100
AcDbEntity
  8
290
100
AcDbLine
 62
250
  6
CONTINUOUS
 10
-16.6076787087
 20
-6.384611592
 11
-16.7793762696
 21
-6.4308375394
  0
LINE
  5
3F9
100
AcDbEntity
  8
284
100
AcDbLine
 62
7
  6
CONTINUOUS
 10
16.3520231857
 20
-8.9725028712
 11
16.0759616889
 21
-8.8344721227
  0
LWPOLYLINE
  5
3FA
100
AcDbEntity
  8
284
100
AcDbPolyline
 62
7
  6
CONTINUOUS
 90
6
 70
0
 10
19.3120994033
 20
-27.6485626358
 10
19.2923676485
 20
-27.6205270071
 10
19.2690274855
 20
-27.5954934166
 10
19.2424893244
 20
-27.5738844627
 10
19.213195693
 20
-27.556074744
 10
19.2097582694
 20
-27.554328886
  0
LWPOLYLINE
  5
3FB
100
AcDbEntity
  8
284
100
AcDbPolyline
 62
250
  6
CONTINUOUS
 90
13
 70
0
 10
17.6840598468
 20
-28.2869776747
 10
17.6710105032
 20
-28.2675163363
 10
17.6551597392
 20
-28.2468756377
 10
17.6367787658
 20
-28.2254087469
 10
17.6161820866
 20
-28.2034829684
 10
17.5937221164
 20
-28.1814734583
 10
17.5697831515
 20
-28.1597568055
 10
17.5447747943
 20
-28.138704588
 10
17.5191249447
 20
-28.1186770149
 10
17.4932724787
 20
-28.1000167636
 10
17.4676597392
 20
-28.0830431162
 10
17.4427249673
 20
-28.0680464965
 10
17.4188948038
 20
-28.0552835008
  0
LWPOLYLINE
  5
3FC
100
AcDbEntity
  8
284
100
AcDbPolyline
 62
250
  6
CONTINUOUS
 90
13
 70
0
 10
17.1537297609
 20
-28.9271427176
 10
17.1407848265
 20
-28.9078263288
 10
17.1250387055
 20
-28.8872980005
 10
17.1067404357
 20
-28.8658988172
 10
17.0861695244
 20
-28.8439722117
 10
17.063677219
 20
-28.8219073887
 10
17.0396938474
 20
-28.8001323143
 10
17.0146503783
 20
-28.7790364636
 10
16.9889597802
 20
-28.7589659755
 10
16.9630641258
 20
-28.74026611
 10
16.9374082978
 20
-28.7232579076
 10
16.9124323028
 20
-28.7082328436
 10
16.8885647179
 20
-28.6954485438
  0
LWPOLYLINE
  5
3FD
100
AcDbEntity
  8
268
100
AcDbPolyline
 62
7
  6
CONTINUOUS
 90
24
 70
0
 10
0.9609844717
 20
27.6455306195
 10
0.9604112873
 20
27.6800030257
 10
0.9587121743
 20
27.7137529467
 10
0.9558871327
 20
27.7467803824
 10
0.9519266982
 20
27.7791419398
 10
0.9468403351
 20
27.810781012
 10
0.9406564367
 20
27.8415277786
 10
0.9333738213
 20
27.871363306
 10
0.9249936706
 20
27.9003065277
 10
0.9155479234
 20
27.9282444237
 10
0.9050240649
 20
27.9551905865
 10
0.8934346098
 20
27.9811314234
 10
0.880849041
 20
28.0059131363
 10
0.8672738552
 20
28.0295104377
 10
0.8527025556
 20
28.051948615
 10
0.8371851356
 20
28.0731497323
 10
0.8207018482
 20
28.0931268222
 10
0.8032724404
 20
28.1118668521
 10
0.7850061457
 20
28.1292527876
 10
0.7659174898
 20
28.145261714
 10
0.7459919471
 20
28.159916546
 10
0.7252951746
 20
28.1731689944
 10
0.7038026601
 20
28.1850248557
 10
-2.5253986061
 20
29.799649366
  0
LINE
  5
3FE
100
AcDbEntity
  8
268
100
AcDbLine
 62
7
  6
CONTINUOUS
 10
0.9609844717
 20
27.6455306195
 11
0.9609844717
 21
27.3747303269
  0
LINE
  5
3FF
100
AcDbEntity
  8
268
100
AcDbLine
 62
7
  6
CONTINUOUS
 10
1.0214105826
 20
20.5152157094
 11
1.0214105826
 21
20.2618443156
  0
LINE
  5
400
100
AcDbEntity
  8
268
100
AcDbLine
 62
7
  6
CONTINUOUS
 10
1.4206038795
 20
18.489399986
 11
1.4206038795
 21
18.4650044807
  0
LINE
  5
401
100
AcDbEntity
  8
268
100
AcDbLine
 62
7
  6
CONTINUOUS
 10
1.7326311907
 20
19.3511712341
 11
1.7326311907
 21
19.9883407928
  0
LINE
  5
402
100
AcDbEntity
  8
284
100
AcDbLine
 62
7
  6
CONTINUOUS
 10
1.9526064106
 20
18.4959892548
 11
1.9526064106
 21
18.4701196169
  0
LINE
  5
403
100
AcDbEntity
  8
284
100
AcDbLine
 62
7
  6
CONTINUOUS
 10
2.0191320169
 20
19.8147602938
 11
2.0191320169
 21
20.1660742658
  0
LINE
  5
404
100
AcDbEntity
  8
284
100
AcDbLine
 62
250
  6
CONTINUOUS
 10
2.0923553216
 20
19.7263719461
 11
2.0923553216
 21
20.0776859182
  0
LINE
  5
405
100
AcDbEntity
  8
268
100
AcDbLine
 62
7
  6
CONTINUOUS
 10
2.2337766779
 20
18.3295344833
 11
2.2337766779
 21
17.9679104571
  0
LINE
  5
406
100
AcDbEntity
  8
284
100
AcDbLine
 62
7
  6
CONTINUOUS
 10
2.4042031318
 20
17.8826972301
 11
2.4042031318
 21
18.2443212563
  0
LINE
  5
407
100
AcDbEntity
  8
284
100
AcDbLine
 62
7
  6
CONTINUOUS
 10
2.7262387981
 20
19.1143600817
 11
2.7262387981
 21
19.306698406
  0
LINE
  5
408
100
AcDbEntity
  8
284
100
AcDbLine
 62
250
  6
CONTINUOUS
 10
2.7994621028
 20
19.0280218769
 11
2.7994621028
 21
19.2700867536
  0
LINE
  5
409
100
AcDbEntity
  8
268
100
AcDbLine
 62
7
  6
CONTINUOUS
 10
2.7994621028
 20
20.710747806
 11
2.7994621028
 21
21.6218032911
  0
LWPOLYLINE
  5
40A
100
AcDbEntity
  8
284
100
AcDbPolyline
 62
7
  6
CONTINUOUS
 90
6
 70
0
 10
2.7262432123
 20
19.1145916241
 10
2.7260337373
 20
19.1082363927
 10
2.7243652631
 20
19.0959817915
 10
2.7215213496
 20
19.0855869395
 10
2.7182074196
 20
19.0775370907
 10
2.7158530173
 20
19.0731564964
  0
LWPOLYLINE
  5
40B
100
AcDbEntity
  8
290
100
AcDbPolyline
 62
250
  6
CONTINUOUS
 90
3
 70
0
 10
-9.8465863698
 20
-15.1663094742
 10
-9.7324774725
 20
-15.0079756662
 10
-9.6291600418
 20
-14.8358404486
  0
LINE
  5
40C
100
AcDbEntity
  8
290
100
AcDbLine
 62
250
  6
CONTINUOUS
 10
-9.5720493478
 20
-15.2255599634
 11
-9.7624878906
 21
-15.4724590221
  0
LWPOLYLINE
  5
40D
100
AcDbEntity
  8
290
100
AcDbPolyline
 62
250
  6
CONTINUOUS
 90
4
 70
0
 10
-10.091880991
 20
-15.2575042943
 10
-9.9707133947
 20
-15.1173163947
 10
-9.8596827666
 20
-14.9628331427
 10
-9.7586372146
 20
-14.7942285224
  0
LWPOLYLINE
  5
40E
100
AcDbEntity
  8
284
100
AcDbPolyline
 62
250
  6
CONTINUOUS
 90
14
 70
0
 10
18.0448594507
 20
10.8523303512
 10
18.0697094778
 20
10.8687883665
 10
18.0808786131
 20
10.8760634588
 10
18.0912457209
 20
10.8827481475
 10
18.1010727932
 20
10.88896083
 10
18.1103894971
 20
10.8947046924
 10
18.1191661655
 20
10.8999765487
 10
18.1275757883
 20
10.9048852377
 10
18.1356211261
 20
10.9094309651
 10
18.1432994183
 20
10.9136135253
 10
18.1507753731
 20
10.9175411399
 10
18.1581038931
 20
10.9212498828
 10
18.1652300756
 20
10.9247036801
 10
18.1721539207
 20
10.9279025319
  0
LINE
  5
40F
100
AcDbEntity
  8
290
100
AcDbLine
 62
250
  6
CONTINUOUS
 10
-14.7897348286
 20
-6.414650314
 11
-15.02435822
 21
-6.5068259948
  0
LINE
  5
410
100
AcDbEntity
  8
290
100
AcDbLine
 62
7
  6
CONTINUOUS
 10
-16.7577531072
 20
-6.1172916554
 11
-16.6784937146
 21
-6.0926849262
  0
LINE
  5
411
100
AcDbEntity
  8
284
100
AcDbLine
 62
7
  6
CONTINUOUS
 10
2.0209742804
 20
19.7844661062
 11
2.0191320209
 21
19.814782541
  0
LWPOLYLINE
  5
412
100
AcDbEntity
  8
284
100
AcDbPolyline
 62
250
  6
CONTINUOUS
 90
8
 70
0
 10
2.7262387989
 20
19.114408193
 10
2.7265941716
 20
19.1080064725
 10
2.7293197648
 20
19.0955477474
 10
2.7347165345
 20
19.0832186228
 10
2.7427346901
 20
19.0711654813
 10
2.7533205284
 20
19.0594891298
 10
2.7663922014
 20
19.0483138503
 10
2.7818224947
 20
19.0377829542
  0
LWPOLYLINE
  5
413
100
AcDbEntity
  8
284
100
AcDbPolyline
 62
250
  6
CONTINUOUS
 90
9
 70
0
 10
2.0923553216
 20
19.7263719461
 10
2.093562848
 20
19.7017130809
 10
2.0971689382
 20
19.6785985857
 10
2.1031243385
 20
19.6573442508
 10
2.1113635112
 20
19.6382100391
 10
2.1217654017
 20
19.621495963
 10
2.1341195134
 20
19.6074955509
 10
2.1482033637
 20
19.5963738622
 10
2.1574198509
 20
19.5911079416
  0
LWPOLYLINE
  5
414
100
AcDbEntity
  8
284
100
AcDbPolyline
 62
250
  6
CONTINUOUS
 90
9
 70
0
 10
3.4358582059
 20
19.054620504
 10
3.4370171712
 20
19.0304488378
 10
3.4405027832
 20
19.0076396391
 10
3.4463044726
 20
18.9865204978
 10
3.4543950412
 20
18.9673735338
 10
3.4646903561
 20
18.9505308097
 10
3.4770136881
 20
18.9363266143
 10
3.4911706242
 20
18.9249724089
 10
3.5008315313
 20
18.9194020394
  0
LWPOLYLINE
  5
415
100
AcDbEntity
  8
284
100
AcDbPolyline
 62
250
  6
CONTINUOUS
 90
13
 70
0
 10
4.4965183776
 20
18.6581738946
 10
4.4950464048
 20
18.6958526962
 10
4.4910013841
 20
18.7313213515
 10
4.4843833155
 20
18.7645798603
 10
4.4751013919
 20
18.7958218172
 10
4.4632464205
 20
18.8248536277
 10
4.4490908223
 20
18.8510945083
 10
4.4326012279
 20
18.8744983881
 10
4.4138110069
 20
18.895111338
 10
4.3930926889
 20
18.912490786
 10
4.3705704504
 20
18.9264892082
 10
4.3461201149
 20
18.9372541285
 10
4.3197416824
 20
18.9447855469
  0
LINE
  5
416
100
AcDbEntity
  8
284
100
AcDbLine
 62
250
  6
CONTINUOUS
 10
3.4358582059
 20
19.4059344761
 11
3.4358582059
 21
19.054620504
  0
LINE
  5
417
100
AcDbEntity
  8
268
100
AcDbLine
 62
7
  6
CONTINUOUS
 10
3.5024550571
 20
21.7571247889
 11
3.5024550571
 21
21.4961958125
  0
LINE
  5
418
100
AcDbEntity
  8
284
100
AcDbLine
 62
250
  6
CONTINUOUS
 10
3.7894115965
 20
19.4059344761
 11
3.7894115965
 21
19.054620504
  0
LINE
  5
419
100
AcDbEntity
  8
268
100
AcDbLine
 62
250
  6
CONTINUOUS
 10
3.8296727546
 20
25.9942346809
 11
3.8296727546
 21
24.7623961026
  0
LINE
  5
41A
100
AcDbEntity
  8
268
100
AcDbLine
 62
7
  6
CONTINUOUS
 10
3.916310183
 20
26.0986220563
 11
3.916310183
 21
24.8662535645
  0
LINE
  5
41B
100
AcDbEntity
  8
284
100
AcDbLine
 62
250
  6
CONTINUOUS
 10
4.1429649871
 20
18.6581738946
 11
4.1429649871
 21
18.3562704348
  0
LINE
  5
41C
100
AcDbEntity
  8
284
100
AcDbLine
 62
250
  6
CONTINUOUS
 10
4.4965183776
 20
18.6581738946
 11
4.4965183776
 21
18.3494679965
  0
LINE
  5
41D
100
AcDbEntity
  8
284
100
AcDbLine
 62
250
  6
CONTINUOUS
 10
5.2036251588
 20
18.6879048574
 11
5.2036251588
 21
19.0117272852
  0
LINE
  5
41E
100
AcDbEntity
  8
284
100
AcDbLine
 62
7
  6
CONTINUOUS
 10
5.2768484627
 20
18.7714927983
 11
5.2768484635
 21
19.1001156328
  0
LWPOLYLINE
  5
41F
100
AcDbEntity
  8
284
100
AcDbPolyline
 62
7
  6
CONTINUOUS
 90
13
 70
0
 10
5.2768484635
 20
19.1001156328
 10
5.2775264806
 20
19.1202142211
 10
5.2797118116
 20
19.1425611806
 10
5.2835991005
 20
19.1668849217
 10
5.2893535071
 20
19.1929324082
 10
5.2970585223
 20
19.2202536937
 10
5.3066717421
 20
19.2482247035
 10
5.3181486385
 20
19.2764447284
 10
5.3313788921
 20
19.3044677848
 10
5.3460652821
 20
19.331621204
 10
5.3619186002
 20
19.3574443765
 10
5.3787108608
 20
19.3816766177
 10
5.3961441969
 20
19.4040159873
  0
LINE
  5
420
100
AcDbEntity
  8
284
100
AcDbLine
 62
250
  6
CONTINUOUS
 10
5.2765312197
 20
18.7654378875
 11
5.2768484627
 21
18.7714927983
  0
LWPOLYLINE
  5
421
100
AcDbEntity
  8
284
100
AcDbPolyline
 62
250
  6
CONTINUOUS
 90
7
 70
0
 10
5.9839552447
 20
20.5549829955
 10
5.9818164601
 20
20.5386672215
 10
5.9754367013
 20
20.5226306149
 10
5.9649251279
 20
20.5071475665
 10
5.9504615957
 20
20.4924829955
 10
5.9322935798
 20
20.4788878169
 10
5.91073194
 20
20.4665946479
  0
LWPOLYLINE
  5
422
100
AcDbEntity
  8
284
100
AcDbPolyline
 62
250
  6
CONTINUOUS
 90
7
 70
0
 10
5.9839552437
 20
20.2036579192
 10
5.9817637615
 20
20.1871543406
 10
5.9753116079
 20
20.1710841114
 10
5.9647375837
 20
20.1556078332
 10
5.9502618607
 20
20.1409963661
 10
5.9321498575
 20
20.127480285
 10
5.91073194
 20
20.1152806758
  0
LINE
  5
423
100
AcDbEntity
  8
290
100
AcDbLine
 62
250
  6
CONTINUOUS
 10
-9.7624878906
 20
-15.4724590221
 11
-9.9785212955
 21
-15.6846847397
  0
LINE
  5
424
100
AcDbEntity
  8
290
100
AcDbLine
 62
250
  6
CONTINUOUS
 10
-10.2230658125
 20
-15.3835845591
 11
-10.091880991
 21
-15.2575042943
  0
LINE
  5
425
100
AcDbEntity
  8
290
100
AcDbLine
 62
250
  6
CONTINUOUS
 10
-11.861464567
 20
-7.9159126889
 11
-12.054509739
 21
-7.9917502353
  0
LINE
  5
426
100
AcDbEntity
  8
290
100
AcDbLine
 62
250
  6
CONTINUOUS
 10
-11.8298857182
 20
-7.9035101564
 11
-11.9553115176
 21
-7.9527803422
  0
LINE
  5
427
100
AcDbEntity
  8
290
100
AcDbLine
 62
250
  6
CONTINUOUS
 10
-11.8298857182
 20
-7.9035101564
 11
-11.861464567
 21
-7.9159126889
  0
LWPOLYLINE
  5
428
100
AcDbEntity
  8
284
100
AcDbPolyline
 62
250
  6
CONTINUOUS
 90
5
 70
0
 10
19.2761029564
 20
-27.6483101745
 10
19.2632992895
 20
-27.6217962208
 10
19.2476630376
 20
-27.5979666541
 10
19.2294632205
 20
-27.5772304463
 10
19.2090123668
 20
-27.5599428116
  0
LWPOLYLINE
  5
429
100
AcDbEntity
  8
284
100
AcDbPolyline
 62
7
  6
CONTINUOUS
 90
8
 70
0
 10
18.6512392736
 20
-27.4431061572
 10
18.651226411
 20
-27.4430790934
 10
18.6504624681
 20
-27.4415616413
 10
18.6488161562
 20
-27.4375216776
 10
18.6467524322
 20
-27.4309702229
 10
18.6446698027
 20
-27.4220329088
 10
18.6428738773
 20
-27.4107766196
 10
18.641627292
 20
-27.3972591069
  0
LWPOLYLINE
  5
42A
100
AcDbEntity
  8
284
100
AcDbPolyline
 62
7
  6
CONTINUOUS
 90
4
 70
0
 10
15.4035584246
 20
-28.6165501947
 10
15.3925981493
 20
-28.5853265263
 10
15.3858402215
 20
-28.5528032419
 10
15.3834503397
 20
-28.5184575925
  0
LWPOLYLINE
  5
42B
100
AcDbEntity
  8
284
100
AcDbPolyline
 62
250
  6
CONTINUOUS
 90
7
 70
0
 10
2.0191320169
 20
19.8147602929
 10
2.0212363524
 20
19.7985758915
 10
2.0275965537
 20
19.7825088596
 10
2.0381031044
 20
19.7669961818
 10
2.052574916
 20
19.7523042651
 10
2.070763199
 20
19.7386849823
 10
2.0923553216
 20
19.7263719461
  0
LWPOLYLINE
  5
42C
100
AcDbEntity
  8
284
100
AcDbPolyline
 62
250
  6
CONTINUOUS
 90
7
 70
0
 10
2.0191320169
 20
20.1660742536
 10
2.0211694863
 20
20.150148003
 10
2.0274953479
 20
20.1340129177
 10
2.0379974979
 20
20.1184380556
 10
2.052488037
 20
20.1036936078
 10
2.0707134644
 20
20.0900313865
 10
2.0923553216
 20
20.0776859182
  0
LWPOLYLINE
  5
42D
100
AcDbEntity
  8
284
100
AcDbPolyline
 62
7
  6
CONTINUOUS
 90
10
 70
0
 10
5.9839552447
 20
20.5549829955
 10
5.981894277
 20
20.5870136344
 10
5.9756591609
 20
20.6188503587
 10
5.9652569451
 20
20.6498488135
 10
5.9507956039
 20
20.6794026225
 10
5.9325308678
 20
20.7068635954
 10
5.9108430336
 20
20.7316485273
 10
5.8859668509
 20
20.7534582953
 10
5.8584281343
 20
20.7717928171
 10
5.8457746954
 20
20.7785817654
  0
LINE
  5
42E
100
AcDbEntity
  8
284
100
AcDbLine
 62
7
  6
CONTINUOUS
 10
5.2769816294
 20
18.7664186994
 11
5.2768439376
 21
18.7715790163
  0
LINE
  5
42F
100
AcDbEntity
  8
284
100
AcDbLine
 62
250
  6
CONTINUOUS
 10
5.91073194
 20
20.4665946479
 11
5.91073194
 21
20.1152806758
  0
LINE
  5
430
100
AcDbEntity
  8
284
100
AcDbLine
 62
7
  6
CONTINUOUS
 10
5.9839552447
 20
20.5549829955
 11
5.9839552447
 21
20.2036690234
  0
LINE
  5
431
100
AcDbEntity
  8
284
100
AcDbLine
 62
7
  6
CONTINUOUS
 10
7.6007324821
 20
16.898465061
 11
7.6007324821
 21
18.0979994686
  0
LINE
  5
432
100
AcDbEntity
  8
284
100
AcDbLine
 62
250
  6
CONTINUOUS
 10
7.7471790915
 20
16.7239037377
 11
7.7471790915
 21
17.9212227733
  0
LINE
  5
433
100
AcDbEntity
  8
284
100
AcDbLine
 62
250
  6
CONTINUOUS
 10
18.7447200186
 20
12.7929565506
 11
18.7182926478
 21
12.7589742083
  0
LINE
  5
434
100
AcDbEntity
  8
284
100
AcDbLine
 62
250
  6
CONTINUOUS
 10
18.7447200186
 20
12.7929565506
 11
19.2750501044
 21
13.4331215936
  0
LINE
  5
435
100
AcDbEntity
  8
284
100
AcDbLine
 62
7
  6
CONTINUOUS
 10
18.7604623614
 20
12.7218569051
 11
19.2907924472
 21
13.362021948
  0
LINE
  5
436
100
AcDbEntity
  8
284
100
AcDbLine
 62
7
  6
CONTINUOUS
 10
19.8053801903
 20
9.9632352089
 11
23.9183079182
 21
13.8764041651
  0
LINE
  5
437
100
AcDbEntity
  8
284
100
AcDbLine
 62
250
  6
CONTINUOUS
 10
19.8053801903
 20
10.1485201582
 11
24.0039902731
 21
14.1248488957
  0
LINE
  5
438
100
AcDbEntity
  8
290
100
AcDbLine
 62
250
  6
CONTINUOUS
 10
-10.362583529
 20
-15.4939544908
 11
-10.2230658125
 21
-15.3835845591
  0
LWPOLYLINE
  5
439
100
AcDbEntity
  8
290
100
AcDbPolyline
 62
250
  6
CONTINUOUS
 90
4
 70
0
 10
-10.2483198353
 20
-15.551984547
 10
-10.1050332306
 20
-15.4388890771
 10
-9.9709630957
 20
-15.3101574357
 10
-9.8465863698
 20
-15.1663094742
  0
LINE
  5
43A
100
AcDbEntity
  8
290
100
AcDbLine
 62
250
  6
CONTINUOUS
 10
-9.9785212955
 20
-15.6846847397
 11
-10.2081279759
 21
-15.8566700714
  0
LINE
  5
43B
100
AcDbEntity
  8
290
100
AcDbLine
 62
250
  6
CONTINUOUS
 10
-10.4001564495
 20
-15.6489474879
 11
-10.2483198353
 21
-15.551984547
  0
LINE
  5
43C
100
AcDbEntity
  8
290
100
AcDbLine
 62
250
  6
CONTINUOUS
 10
-10.5105394603
 20
-15.588412619
 11
-10.362583529
 21
-15.4939544908
  0
LINE
  5
43D
100
AcDbEntity
  8
290
100
AcDbLine
 62
250
  6
CONTINUOUS
 10
-15.3418287028
 20
-14.2323740302
 11
-15.3291861556
 21
-14.2260179222
  0
LINE
  5
43E
100
AcDbEntity
  8
290
100
AcDbLine
 62
250
  6
CONTINUOUS
 10
-15.252994015
 20
-14.1960859058
 11
-15.3291861956
 21
-14.2260179055
  0
LWPOLYLINE
  5
43F
100
AcDbEntity
  8
284
100
AcDbPolyline
 62
7
  6
CONTINUOUS
 90
13
 70
0
 10
7.6007325404
 20
18.0980039192
 10
7.6017293482
 20
18.08233137
 10
7.6048747352
 20
18.0659402275
 10
7.6101303035
 20
18.0497565875
 10
7.6175232819
 20
18.0337831277
 10
7.6270264416
 20
18.0180171704
 10
7.6385176825
 20
18.0026612824
 10
7.6520226581
 20
17.9877207549
 10
7.667515715
 20
17.9731902967
 10
7.6847977928
 20
17.9592566001
 10
7.7038025381
 20
17.9459818962
 10
7.7245963043
 20
17.9333039539
 10
7.7471790915
 20
17.9212227733
  0
LINE
  5
440
100
AcDbEntity
  8
218140000
100
AcDbLine
 62
7
  6
CONTINUOUS
 10
8.2872561036
 20
24.4141716886
 11
8.288935532
 21
24.3844195381
  0
LINE
  5
441
100
AcDbEntity
  8
218140080
100
AcDbLine
 62
7
  6
CONTINUOUS
 10
8.2872561036
 20
24.4141716886
 11
8.288935532
 21
24.3844195381
  0
LWPOLYLINE
  5
442
100
AcDbEntity
  8
268
100
AcDbPolyline
 62
7
  6
CONTINUOUS
 90
5
 70
0
 10
8.6719161902
 20
23.4498645794
 10
8.6719035398
 20
23.450199515
 10
8.6716091367
 20
23.4517173038
 10
8.6709338017
 20
23.4534339681
 10
8.6698897087
 20
23.4553536719
  0
LWPOLYLINE
  5
443
100
AcDbEntity
  8
268
100
AcDbPolyline
 62
7
  6
CONTINUOUS
 90
7
 70
0
 10
8.6718697161
 20
24.0322117473
 10
8.671778108
 20
24.0365195486
 10
8.6716389372
 20
24.0408308792
 10
8.6714522038
 20
24.0451457392
 10
8.6712179077
 20
24.0494641286
 10
8.6709360489
 20
24.0537860473
 10
8.6706066274
 20
24.0581114954
  0
LINE
  5
444
100
AcDbEntity
  8
268
100
AcDbLine
 62
7
  6
CONTINUOUS
 10
8.6718697161
 20
24.0322117473
 11
8.6719161867
 21
24.0260744093
  0
LINE
  5
445
100
AcDbEntity
  8
268
100
AcDbLine
 62
250
  6
CONTINUOUS
 10
8.5877181485
 20
23.7383979035
 11
8.5877181485
 21
23.5261387494
  0
LINE
  5
446
100
AcDbEntity
  8
268
100
AcDbLine
 62
7
  6
CONTINUOUS
 10
8.6719162084
 20
24.0260187817
 11
8.6719162084
 21
23.4500555922
  0
LINE
  5
447
100
AcDbEntity
  8
218140000
100
AcDbLine
 62
250
  6
CONTINUOUS
 10
9.0758173684
 20
25.377921927
 11
9.0758173684
 21
25.0565976448
  0
LINE
  5
448
100
AcDbEntity
  8
218140080
100
AcDbLine
 62
250
  6
CONTINUOUS
 10
9.0758173684
 20
25.377921927
 11
9.0758173684
 21
25.0565976448
  0
LINE
  5
449
100
AcDbEntity
  8
218140000
100
AcDbLine
 62
7
  6
CONTINUOUS
 10
9.7585275664
 20
24.956226946
 11
9.7585275664
 21
25.3892396479
  0
LINE
  5
44A
100
AcDbEntity
  8
218140080
100
AcDbLine
 62
7
  6
CONTINUOUS
 10
9.7585275664
 20
24.956226946
 11
9.7585275664
 21
25.3892396479
  0
LWPOLYLINE
  5
44B
100
AcDbEntity
  8
268
100
AcDbPolyline
 62
7
  6
CONTINUOUS
 90
16
 70
0
 10
8.6719161867
 20
24.0260744093
 10
8.6716816811
 20
24.012560101
 10
8.670540905
 20
23.9927949098
 10
8.6684965734
 20
23.9729412592
 10
8.6656054084
 20
23.9530054753
 10
8.6619166442
 20
23.933023239
 10
8.6574566803
 20
23.9130614174
 10
8.652263822
 20
23.8931406997
 10
8.6463811648
 20
23.8732729483
 10
8.6398206306
 20
23.8535127222
 10
8.6326137275
 20
23.8338756555
 10
8.6247965818
 20
23.8143736909
 10
8.6163726424
 20
23.795058092
 10
8.607359751
 20
23.7759553656
 10
8.5977979056
 20
23.7570648717
 10
8.5877181485
 20
23.7383979035
  0
LWPOLYLINE
  5
44C
100
AcDbEntity
  8
290
100
AcDbPolyline
 62
250
  6
CONTINUOUS
 90
10
 70
0
 10
8.9050287546
 20
-28.8249506081
 10
9.0441764776
 20
-24.8747986299
 10
9.2314237554
 20
-20.9044595999
 10
9.4667282422
 20
-16.9148192928
 10
9.7500370408
 20
-12.9067680159
 10
10.0812867423
 20
-8.8812000117
 10
10.4604034559
 20
-4.8390132528
 10
10.8873027812
 20
-0.7811097755
 10
11.3618898113
 20
3.291604516
 10
11.8840591926
 20
7.3782204537
  0
LWPOLYLINE
  5
44D
100
AcDbEntity
  8
284
100
AcDbPolyline
 62
250
  6
CONTINUOUS
 90
5
 70
0
 10
18.7182926478
 20
12.7589742083
 10
18.6938049008
 20
12.7236943596
 10
18.6712567774
 20
12.6871170046
 10
18.650524684
 20
12.6489645319
 10
18.6317322143
 20
12.6095145528
  0
LINE
  5
44E
100
AcDbEntity
  8
290
100
AcDbLine
 62
7
  6
CONTINUOUS
 10
-10.1200883947
 20
-15.6945487773
 11
-10.3767051514
 21
-15.8422916495
  0
LINE
  5
44F
100
AcDbEntity
  8
290
100
AcDbLine
 62
250
  6
CONTINUOUS
 10
-10.2081279759
 20
-15.8566700714
 11
-10.4518178599
 21
-15.9846657674
  0
LINE
  5
450
100
AcDbEntity
  8
290
100
AcDbLine
 62
250
  6
CONTINUOUS
 10
-10.6668631163
 20
-15.6671754891
 11
-10.5105394603
 21
-15.588412619
  0
LINE
  5
451
100
AcDbEntity
  8
290
100
AcDbLine
 62
250
  6
CONTINUOUS
 10
-12.3719851691
 20
-15.7173012579
 11
-12.3593377147
 21
-15.710942146
  0
LWPOLYLINE
  5
452
100
AcDbEntity
  8
290
100
AcDbPolyline
 62
7
  6
CONTINUOUS
 90
3
 70
0
 10
-9.8723644125
 20
-15.4873799064
 10
-9.8750652574
 20
-15.4887341067
 10
-9.9738935445
 20
-15.5313763758
  0
LINE
  5
453
100
AcDbEntity
  8
290
100
AcDbLine
 62
7
  6
CONTINUOUS
 10
-9.8724146825
 20
-15.4874361691
 11
-9.9738935447
 21
-15.5313763759
  0
LINE
  5
454
100
AcDbEntity
  8
290
100
AcDbLine
 62
7
  6
CONTINUOUS
 10
-10.3767051514
 20
-15.8422916495
 11
-10.495257181
 21
-15.8925393778
  0
LINE
  5
455
100
AcDbEntity
  8
290
100
AcDbLine
 62
250
  6
CONTINUOUS
 10
-12.2675327255
 20
-15.6747747428
 11
-12.3595238427
 21
-15.710849082
  0
LWPOLYLINE
  5
456
100
AcDbEntity
  8
284
100
AcDbPolyline
 62
250
  6
CONTINUOUS
 90
4
 70
0
 10
16.0741981845
 20
12.3983515336
 10
16.0909320388
 20
12.4001464833
 10
16.1064925945
 20
12.4051308083
 10
16.1087030234
 20
12.4061462491
  0
LWPOLYLINE
  5
457
100
AcDbEntity
  8
284
100
AcDbPolyline
 62
250
  6
CONTINUOUS
 90
20
 70
0
 10
17.6152448319
 20
11.3801609462
 10
17.6333566255
 20
11.3820112385
 10
17.6525658419
 20
11.3841023758
 10
17.6727444364
 20
11.3864747863
 10
17.6932045669
 20
11.3890890387
 10
17.7135944249
 20
11.3919318748
 10
17.7339978027
 20
11.3950482858
 10
17.7543028555
 20
11.3984535454
 10
17.7742385898
 20
11.4021310079
 10
17.7936360185
 20
11.4060612423
 10
17.8125028594
 20
11.4102507734
 10
17.8307295546
 20
11.4146737373
 10
17.8482333358
 20
11.4193065075
 10
17.8651164022
 20
11.4241747597
 10
17.8813186104
 20
11.4292532284
 10
17.896763244
 20
11.434493804
 10
17.9115298427
 20
11.4399040589
 10
17.9256156782
 20
11.4454702703
 10
17.9389563064
 20
11.4511488571
 10
17.951542815
 20
11.4569137624
  0
LWPOLYLINE
  5
458
100
AcDbEntity
  8
284
100
AcDbPolyline
 62
250
  6
CONTINUOUS
 90
5
 70
0
 10
17.5417379416
 20
11.3735057171
 10
17.554407448
 20
11.3745277212
 10
17.5679506486
 20
11.3756908539
 10
17.582470547
 20
11.3770049646
 10
17.6152448319
 20
11.3801609462
  0
LWPOLYLINE
  5
459
100
AcDbEntity
  8
290
100
AcDbPolyline
 62
250
  6
CONTINUOUS
 90
6
 70
0
 10
-18.0116930184
 20
22.3260965992
 10
-18.100583525
 20
22.3769046831
 10
-18.170270403
 20
22.4309614331
 10
-18.218682823
 20
22.4866604878
 10
-18.2443821516
 20
22.5423466828
 10
-18.2475999677
 20
22.589917088
  0
LWPOLYLINE
  5
45A
100
AcDbEntity
  8
284
100
AcDbPolyline
 62
7
  6
CONTINUOUS
 90
4
 70
0
 10
2.0453282431
 20
19.7033517176
 10
2.0342299173
 20
19.7291974592
 10
2.0260614402
 20
19.7563078793
 10
2.0209742804
 20
19.7844661062
  0
LINE
  5
45B
100
AcDbEntity
  8
284
100
AcDbLine
 62
250
  6
CONTINUOUS
 10
19.2858535323
 20
-27.6770524719
 11
19.2761029564
 21
-27.6483101745
  0
LINE
  5
45C
100
AcDbEntity
  8
715
100
AcDbLine
 62
7
  6
CONTINUOUS
 10
10.7259912788
 20
24.1200968348
 11
10.7259912788
 21
23.6542220683
  0
LINE
  5
45D
100
AcDbEntity
  8
218140000
100
AcDbLine
 62
250
  6
CONTINUOUS
 10
11.1433244597
 20
24.8492120585
 11
11.1433244597
 21
25.3079436247
  0
LINE
  5
45E
100
AcDbEntity
  8
218140080
100
AcDbLine
 62
250
  6
CONTINUOUS
 10
11.1433244597
 20
24.8492120585
 11
11.1433244597
 21
25.3079436247
  0
LINE
  5
45F
100
AcDbEntity
  8
715
100
AcDbLine
 62
7
  6
CONTINUOUS
 10
11.1757359402
 20
23.9983490016
 11
11.1757359402
 21
23.6451634478
  0
LINE
  5
460
100
AcDbEntity
  8
218140000
100
AcDbLine
 62
250
  6
CONTINUOUS
 10
11.2843373811
 20
24.8501423367
 11
11.2843373811
 21
25.3189395218
  0
LINE
  5
461
100
AcDbEntity
  8
218140080
100
AcDbLine
 62
250
  6
CONTINUOUS
 10
11.2843373811
 20
24.8501423367
 11
11.2843373811
 21
25.3189395218
  0
LINE
  5
462
100
AcDbEntity
  8
218140000
100
AcDbLine
 62
7
  6
CONTINUOUS
 10
13.0879733469
 20
27.4193217197
 11
13.0879733469
 21
27.0114704524
  0
LINE
  5
463
100
AcDbEntity
  8
218140080
100
AcDbLine
 62
7
  6
CONTINUOUS
 10
13.0879733469
 20
27.4193217197
 11
13.0879733469
 21
27.0114704524
  0
LWPOLYLINE
  5
464
100
AcDbEntity
  8
290
100
AcDbPolyline
 62
250
  6
CONTINUOUS
 90
10
 70
0
 10
10.0260973707
 20
-28.8547226663
 10
10.1649500835
 20
-24.9136627155
 10
10.3516760457
 20
-20.954222519
 10
10.5862752574
 20
-16.9764020768
 10
10.8688227198
 20
-12.97929031
 10
11.1992434317
 20
-8.9637982976
 10
11.5773123888
 20
-4.9326592761
 10
12.0029545898
 20
-0.8867843245
 10
12.476245036
 20
3.1747376362
 10
12.9971837275
 20
7.251906606
  0
LWPOLYLINE
  5
465
100
AcDbEntity
  8
290
100
AcDbPolyline
 62
250
  6
CONTINUOUS
 90
37
 70
0
 10
12.9971837275
 20
7.251906606
 10
13.0000402159
 20
7.2723257632
 10
13.0036801112
 20
7.293710385
 10
13.0081034134
 20
7.3160604713
 10
13.0132659738
 20
7.3394565492
 10
13.0192119411
 20
7.3638180917
 10
13.0260737617
 20
7.3889035176
 10
13.0338723354
 20
7.4147323325
 10
13.0425867625
 20
7.4412850308
 10
13.0522867901
 20
7.4682615145
 10
13.0629994941
 20
7.4956792481
 10
13.0746977986
 20
7.5235207671
 10
13.0873702232
 20
7.5514335801
 10
13.1010474588
 20
7.579426797
 10
13.1156988144
 20
7.6074913079
 10
13.1312207371
 20
7.6352472906
 10
13.1476424889
 20
7.6626898151
 10
13.1649348078
 20
7.6898238115
 10
13.1829063544
 20
7.716284248
 10
13.2015790272
 20
7.7420502588
 10
13.2209309278
 20
7.7671427096
 10
13.2407050207
 20
7.7912591664
 10
13.2609117707
 20
7.8143662162
 10
13.281540713
 20
7.8364972718
 10
13.3023034191
 20
7.8574501384
 10
13.3231987031
 20
7.8771859801
 10
13.3442277508
 20
7.8957436328
 10
13.3651056904
 20
7.9130374085
 10
13.3858230565
 20
7.9290304076
 10
13.4063893145
 20
7.9437595297
 10
13.4265479897
 20
7.9572497861
 10
13.4462861434
 20
7.9694709096
 10
13.4656167142
 20
7.9804531672
 10
13.4843220433
 20
7.9903123719
 10
13.5023295776
 20
7.9990871277
 10
13.5197118702
 20
8.0067388305
 10
13.5364689209
 20
8.0132674802
  0
LWPOLYLINE
  5
466
100
AcDbEntity
  8
290
100
AcDbPolyline
 62
250
  6
CONTINUOUS
 90
37
 70
0
 10
11.8840591926
 20
7.3782204537
 10
11.890376659
 20
7.4219286869
 10
11.8980932248
 20
7.4677722397
 10
11.9073400486
 20
7.5157321131
 10
11.9182748961
 20
7.5658888767
 10
11.9310134872
 20
7.6180869878
 10
11.9455988233
 20
7.671930847
 10
11.9621376891
 20
7.7273454233
 10
11.9807332858
 20
7.7842407922
 10
12.0013645341
 20
7.8421776457
 10
12.0241024051
 20
7.9010486779
 10
12.0490056598
 20
7.9607184522
 10
12.0759689868
 20
8.0206970419
 10
12.1050175962
 20
8.0808530758
 10
12.136158973
 20
8.1410254918
 10
12.1691905642
 20
8.2006912055
 10
12.2040858245
 20
8.2597103409
 10
12.2408024346
 20
8.3179250603
 10
12.2790450943
 20
8.374821686
 10
12.3187378688
 20
8.4302744764
 10
12.3597994191
 20
8.4841590108
 10
12.4018673924
 20
8.5360248115
 10
12.4448294786
 20
8.58578516
 10
12.4885825039
 20
8.6333715806
 10
12.5327360896
 20
8.6784403518
 10
12.57716285
 20
8.7209633792
 10
12.6217558284
 20
8.7609375194
 10
12.6661332226
 20
8.7981434931
 10
12.7101758955
 20
8.8326203716
 10
12.7537872824
 20
8.864427367
 10
12.7966146418
 20
8.8934606267
 10
12.838565756
 20
8.9198229872
 10
12.8795632457
 20
8.9436257972
 10
12.9192842151
 20
8.9648564248
 10
12.9575843681
 20
8.9836280528
 10
12.9944994721
 20
9.0001405116
 10
13.0299908749
 20
9.0145477645
  0
LWPOLYLINE
  5
467
100
AcDbEntity
  8
284
100
AcDbPolyline
 62
250
  6
CONTINUOUS
 90
3
 70
0
 10
18.6317322143
 20
12.6095145528
 10
18.6152501491
 20
12.5695999012
 10
18.6011159521
 20
12.5292186082
  0
LWPOLYLINE
  5
468
100
AcDbEntity
  8
284
100
AcDbPolyline
 62
250
  6
CONTINUOUS
 90
12
 70
0
 10
17.1537297609
 20
12.3724614218
 10
17.1406804173
 20
12.3429754381
 10
17.1248296533
 20
12.3155063169
 10
17.1064486799
 20
12.2905240624
 10
17.0858520007
 20
12.2684561281
 10
17.0633920305
 20
12.2496801022
 10
17.0394530656
 20
12.234517248
 10
17.0144447084
 20
12.2232270059
 10
16.9887948588
 20
12.2160025552
 10
16.9629423928
 20
12.2129675082
 10
16.9373296533
 20
12.2141737954
 10
16.926252313
 20
12.2160448804
  0
LWPOLYLINE
  5
469
100
AcDbEntity
  8
284
100
AcDbPolyline
 62
250
  6
CONTINUOUS
 90
12
 70
0
 10
17.6840598468
 20
12.2626264647
 10
17.6710105032
 20
12.233140481
 10
17.6551597392
 20
12.2056713598
 10
17.6367787658
 20
12.1806891054
 10
17.6161820866
 20
12.158621171
 10
17.5937221164
 20
12.1398451452
 10
17.5697831515
 20
12.1246822909
 10
17.5447747943
 20
12.1133920488
 10
17.5191249447
 20
12.1061675981
 10
17.4932724787
 20
12.1031325511
 10
17.4676597392
 20
12.1043388383
 10
17.4565823989
 20
12.1062099234
  0
LINE
  5
46A
100
AcDbEntity
  8
284
100
AcDbLine
 62
250
  6
CONTINUOUS
 10
18.8176259992
 20
11.9475227731
 11
18.8261206875
 21
11.9667417955
  0
LWPOLYLINE
  5
46B
100
AcDbEntity
  8
290
100
AcDbPolyline
 62
7
  6
CONTINUOUS
 90
3
 70
0
 10
-9.8773412668
 20
-15.4929500435
 10
-9.9871259869
 20
-15.5365848319
 10
-10.0559307961
 20
-15.5618346847
  0
LWPOLYLINE
  5
46C
100
AcDbEntity
  8
290
100
AcDbPolyline
 62
250
  6
CONTINUOUS
 90
3
 70
0
 10
-10.6943304002
 20
-15.7820960451
 10
-10.5598700142
 20
-15.7293752124
 10
-10.4001564496
 20
-15.648947488
  0
LINE
  5
46D
100
AcDbEntity
  8
290
100
AcDbLine
 62
250
  6
CONTINUOUS
 10
-10.4792923541
 20
-15.886402843
 11
-10.4959505552
 21
-15.8928515756
  0
LINE
  5
46E
100
AcDbEntity
  8
290
100
AcDbLine
 62
250
  6
CONTINUOUS
 10
-10.8296115021
 20
-15.7292696719
 11
-10.6668631163
 21
-15.6671754891
  0
LINE
  5
46F
100
AcDbEntity
  8
290
100
AcDbLine
 62
7
  6
CONTINUOUS
 10
-9.9738935445
 20
-15.5313763758
 11
-10.0559307961
 21
-15.5618346848
  0
LINE
  5
470
100
AcDbEntity
  8
290
100
AcDbLine
 62
7
  6
CONTINUOUS
 10
-10.698125374
 20
-15.7834005217
 11
-10.0559307962
 21
-15.5618346848
  0
LINE
  5
471
100
AcDbEntity
  8
290
100
AcDbLine
 62
250
  6
CONTINUOUS
 10
-10.4518178599
 20
-15.9846657674
 11
-10.7092416433
 21
-16.0724909668
  0
LINE
  5
472
100
AcDbEntity
  8
290
100
AcDbLine
 62
250
  6
CONTINUOUS
 10
-10.4959505552
 20
-15.8928515756
 11
-10.6694084534
 21
-15.9491957483
  0
LINE
  5
473
100
AcDbEntity
  8
290
100
AcDbLine
 62
7
  6
CONTINUOUS
 10
-10.7597890617
 20
-15.8032955415
 11
-10.6955422952
 21
-15.7825099062
  0
LWPOLYLINE
  5
474
100
AcDbEntity
  8
290
100
AcDbPolyline
 62
250
  6
CONTINUOUS
 90
10
 70
0
 10
11.884059227
 20
7.3782204635
 10
11.9894728968
 20
7.3318764596
 10
12.1083162133
 20
7.2916681132
 10
12.2370576042
 20
7.2587902639
 10
12.3718713638
 20
7.2342199166
 10
12.5087513387
 20
7.2186872088
 10
12.6436299754
 20
7.2126537136
 10
12.7724991926
 20
7.2162987236
 10
12.8915294862
 20
7.2295139229
 10
12.9971837275
 20
7.251906606
  0
LINE
  5
475
100
AcDbEntity
  8
290
100
AcDbLine
 62
250
  6
CONTINUOUS
 10
-18.0116930693
 20
22.3260965846
 11
11.8840591926
 21
7.3782204537
  0
LWPOLYLINE
  5
476
100
AcDbEntity
  8
284
100
AcDbPolyline
 62
250
  6
CONTINUOUS
 90
5
 70
0
 10
4.1241617167
 20
18.7459401322
 10
4.1323040479
 20
18.7268929582
 10
4.1381999484
 20
18.7057211759
 10
4.1417696863
 20
18.6827110974
 10
4.1429649871
 20
18.6581738946
  0
LWPOLYLINE
  5
477
100
AcDbEntity
  8
284
100
AcDbPolyline
 62
250
  6
CONTINUOUS
 90
7
 70
0
 10
15.3834501813
 20
-28.1670029278
 10
15.385588966
 20
-28.1833187019
 10
15.3919687248
 20
-28.1993553085
 10
15.4024802982
 20
-28.2148383569
 10
15.4169438304
 20
-28.2295029278
 10
15.4351118463
 20
-28.2430981065
 10
15.456673486
 20
-28.2553912755
  0
LWPOLYLINE
  5
478
100
AcDbEntity
  8
284
100
AcDbPolyline
 62
250
  6
CONTINUOUS
 90
7
 70
0
 10
16.0905569625
 20
-27.0634495372
 10
16.0926957472
 20
-27.0797653113
 10
16.0990755059
 20
-27.0958019179
 10
16.1095870794
 20
-27.1112849663
 10
16.1240506116
 20
-27.1259495372
 10
16.1422186274
 20
-27.1395447159
 10
16.1637802672
 20
-27.1518378849
  0
LWPOLYLINE
  5
479
100
AcDbEntity
  8
284
100
AcDbPolyline
 62
250
  6
CONTINUOUS
 90
7
 70
0
 10
15.3834503397
 20
-28.5184575925
 10
15.3854876507
 20
-28.5342431628
 10
15.3918135123
 20
-28.5503782481
 10
15.4023156623
 20
-28.5659531102
 10
15.4168062015
 20
-28.5806975579
 10
15.4350316288
 20
-28.5943597793
 10
15.456673486
 20
-28.6067052476
  0
LINE
  5
47A
100
AcDbEntity
  8
284
100
AcDbLine
 62
7
  6
CONTINUOUS
 10
15.3255785299
 20
-17.953630329
 11
15.830071068
 21
-22.6558939065
  0
LINE
  5
47B
100
AcDbEntity
  8
284
100
AcDbLine
 62
7
  6
CONTINUOUS
 10
18.1146741568
 20
-25.4017834572
 11
16.3520231857
 21
-8.9725028712
  0
LWPOLYLINE
  5
47C
100
AcDbEntity
  8
284
100
AcDbPolyline
 62
7
  6
CONTINUOUS
 90
15
 70
0
 10
14.3960133143
 20
20.5277539907
 10
14.3952294813
 20
20.5558816465
 10
14.3929650048
 20
20.5829082708
 10
14.389219885
 20
20.6088338636
 10
14.3839654858
 20
20.6337597229
 10
14.3772304431
 20
20.6575845507
 10
14.3691006649
 20
20.6800044531
 10
14.3595582847
 20
20.7010014331
 10
14.3486211689
 20
20.7205934878
 10
14.3364288243
 20
20.7385307134
 10
14.3229651715
 20
20.7547919121
 10
14.3082462898
 20
20.7693982818
 10
14.2924599237
 20
20.7821635133
 10
14.2755923989
 20
20.7930640218
 10
14.2660567566
 20
20.7981764871
  0
LINE
  5
47D
100
AcDbEntity
  8
284
100
AcDbLine
 62
250
  6
CONTINUOUS
 10
15.3834501813
 20
-28.5183169121
 11
15.3834503397
 21
-28.5184575925
  0
LINE
  5
47E
100
AcDbEntity
  8
284
100
AcDbLine
 62
250
  6
CONTINUOUS
 10
13.266672944
 20
15.1614758471
 11
13.266672944
 21
13.9641568115
  0
LINE
  5
47F
100
AcDbEntity
  8
284
100
AcDbLine
 62
250
  6
CONTINUOUS
 10
13.9758101711
 20
15.1624969342
 11
13.9758101711
 21
13.9575761015
  0
LINE
  5
480
100
AcDbEntity
  8
284
100
AcDbLine
 62
7
  6
CONTINUOUS
 10
14.3960133143
 20
19.6273988901
 11
14.3960133143
 21
20.5277539907
  0
LINE
  5
481
100
AcDbEntity
  8
284
100
AcDbLine
 62
7
  6
CONTINUOUS
 10
15.3834501813
 20
-28.5183168999
 11
15.3834501813
 21
-28.1670029278
  0
LINE
  5
482
100
AcDbEntity
  8
284
100
AcDbLine
 62
7
  6
CONTINUOUS
 10
15.3834501813
 20
13.1326012116
 11
15.3834501813
 21
13.4839151836
  0
LINE
  5
483
100
AcDbEntity
  8
284
100
AcDbLine
 62
250
  6
CONTINUOUS
 10
15.456673486
 20
-28.6067052476
 11
15.456673486
 21
-28.2553912755
  0
LINE
  5
484
100
AcDbEntity
  8
284
100
AcDbLine
 62
250
  6
CONTINUOUS
 10
15.456673486
 20
13.0442128639
 11
15.456673486
 21
13.395526836
  0
LWPOLYLINE
  5
485
100
AcDbEntity
  8
284
100
AcDbPolyline
 62
7
  6
CONTINUOUS
 90
6
 70
0
 10
16.0905613768
 20
12.4324325419
 10
16.0903519017
 20
12.4260773105
 10
16.0886834275
 20
12.4138227093
 10
16.085839514
 20
12.4034278573
 10
16.082525584
 20
12.3953780085
 10
16.0801711817
 20
12.3909974142
  0
LWPOLYLINE
  5
486
100
AcDbEntity
  8
284
100
AcDbPolyline
 62
250
  6
CONTINUOUS
 90
6
 70
0
 10
18.6011159521
 20
12.5292186082
 10
18.5892921596
 20
12.4883726427
 10
18.5800371615
 20
12.4479007454
 10
18.5734370877
 20
12.4080824964
 10
18.5694058083
 20
12.3686383156
 10
18.5679433233
 20
12.329568203
  0
LWPOLYLINE
  5
487
100
AcDbEntity
  8
284
100
AcDbPolyline
 62
250
  6
CONTINUOUS
 90
4
 70
0
 10
18.6535394679
 20
12.0593787988
 10
18.6372337647
 20
12.0613830503
 10
18.6221350056
 20
12.0664836468
 10
18.6199219604
 20
12.0675452721
  0
LINE
  5
488
100
AcDbEntity
  8
284
100
AcDbLine
 62
7
  6
CONTINUOUS
 10
16.926252313
 20
12.2160448804
 11
17.4565823989
 21
12.1062099234
  0
LINE
  5
489
100
AcDbEntity
  8
284
100
AcDbLine
 62
250
  6
CONTINUOUS
 10
17.1537297609
 20
12.3724614218
 11
17.6840598468
 21
12.2626264647
  0
LWPOLYLINE
  5
48A
100
AcDbEntity
  8
284
100
AcDbPolyline
 62
7
  6
CONTINUOUS
 90
10
 70
0
 10
16.926252313
 20
12.2160448804
 10
16.9186545559
 20
12.2177422147
 10
16.9110991122
 20
12.2196791733
 10
16.9035967399
 20
12.2218542684
 10
16.8961322945
 20
12.224274194
 10
16.8887441069
 20
12.2269284587
 10
16.8815179399
 20
12.2297823836
 10
16.8744832061
 20
12.2328148428
 10
16.8676190075
 20
12.2360252522
 10
16.8651419838
 20
12.2372468136
  0
LINE
  5
48B
100
AcDbEntity
  8
290
100
AcDbLine
 62
250
  6
CONTINUOUS
 10
-16.882700418
 20
23.970893411
 11
13.0299908749
 21
9.0145477645
  0
LWPOLYLINE
  5
48C
100
AcDbEntity
  8
290
100
AcDbPolyline
 62
250
  6
CONTINUOUS
 90
10
 70
0
 10
13.0299908749
 20
9.0145477645
 10
13.1257313386
 20
8.9539231045
 10
13.2170664428
 20
8.8734282739
 10
13.3012220898
 20
8.7755081212
 10
13.3756422421
 20
8.66313675
 10
13.4380665556
 20
8.539727187
 10
13.4865990327
 20
8.4090277188
 10
13.5197656091
 20
8.2750080467
 10
13.5365589248
 20
8.1417387155
 10
13.5364689209
 20
8.0132674802
  0
LWPOLYLINE
  5
48D
100
AcDbEntity
  8
284
100
AcDbPolyline
 62
250
  6
CONTINUOUS
 90
7
 70
0
 10
2.5460879973
 20
18.8713071929
 10
2.5582196255
 20
18.8551062566
 10
2.5727975762
 20
18.8394917771
 10
2.5898218494
 20
18.8244637543
 10
2.609292445
 20
18.8100221883
 10
2.6312093631
 20
18.7961670791
 10
2.6555726036
 20
18.7828984266
  0
LWPOLYLINE
  5
48E
100
AcDbEntity
  8
284
100
AcDbPolyline
 62
250
  6
CONTINUOUS
 90
7
 70
0
 10
5.3804018541
 20
19.4751156328
 10
5.3904264995
 20
19.4571666436
 10
5.397254922
 20
19.4410371156
 10
5.4007702857
 20
19.4270030297
 10
5.4009124416
 20
19.4153045129
 10
5.3976789574
 20
19.4061417301
 10
5.3961441969
 20
19.4040159873
  0
LWPOLYLINE
  5
48F
100
AcDbEntity
  8
284
100
AcDbPolyline
 62
250
  6
CONTINUOUS
 90
6
 70
0
 10
5.91073194
 20
20.1152806758
 10
5.9207565853
 20
20.0973316865
 10
5.9275850079
 20
20.0812021586
 10
5.9311003716
 20
20.0671680727
 10
5.9312425275
 20
20.0554695559
 10
5.9280090432
 20
20.046306773
  0
LWPOLYLINE
  5
490
100
AcDbEntity
  8
284
100
AcDbPolyline
 62
7
  6
CONTINUOUS
 90
5
 70
0
 10
5.2870118777
 20
18.7309946635
 10
5.2840242606
 20
18.7366807852
 10
5.2809731971
 20
18.7445557784
 10
5.2784146237
 20
18.7546078274
 10
5.2769816294
 20
18.7664186994
  0
LWPOLYLINE
  5
491
100
AcDbEntity
  8
284
100
AcDbPolyline
 62
250
  6
CONTINUOUS
 90
3
 70
0
 10
19.2955831375
 20
-27.7392654051
 10
19.2923871382
 20
-27.7075524292
 10
19.2858535323
 20
-27.6770524719
  0
LWPOLYLINE
  5
492
100
AcDbEntity
  8
284
100
AcDbPolyline
 62
7
  6
CONTINUOUS
 90
10
 70
0
 10
15.3834501813
 20
13.1326012116
 10
15.3857174317
 20
13.0990134249
 10
15.3925549677
 20
13.0657485741
 10
15.4039156181
 20
13.0335361609
 10
15.4196241872
 20
13.0030696492
 10
15.439355942
 20
12.9750340205
 10
15.462696105
 20
12.95000043
 10
15.4892342661
 20
12.9283914761
 10
15.5185278975
 20
12.9105817573
 10
15.5219653211
 20
12.9088358993
  0
LWPOLYLINE
  5
493
100
AcDbEntity
  8
284
100
AcDbPolyline
 62
7
  6
CONTINUOUS
 90
5
 70
0
 10
19.3482734091
 20
-27.7780941982
 10
19.3460061588
 20
-27.7445064115
 10
19.3391686228
 20
-27.7112415607
 10
19.3278079724
 20
-27.6790291475
 10
19.3120994033
 20
-27.6485626358
  0
LWPOLYLINE
  5
494
100
AcDbEntity
  8
284
100
AcDbPolyline
 62
250
  6
CONTINUOUS
 90
8
 70
0
 10
16.0905569633
 20
12.4322491108
 10
16.090912336
 20
12.4258473903
 10
16.0936379292
 20
12.4133886652
 10
16.0990346989
 20
12.4010595406
 10
16.1070528545
 20
12.3890063991
 10
16.1176386929
 20
12.3773300476
 10
16.1307103659
 20
12.3661547681
 10
16.1461406591
 20
12.3556238719
  0
LWPOLYLINE
  5
495
100
AcDbEntity
  8
284
100
AcDbPolyline
 62
250
  6
CONTINUOUS
 90
9
 70
0
 10
16.8001763703
 20
12.3724614218
 10
16.8013838967
 20
12.3478025566
 10
16.8049899869
 20
12.3246880614
 10
16.8109453872
 20
12.3034337264
 10
16.8191845599
 20
12.2842995148
 10
16.8295864504
 20
12.2675854387
 10
16.8419405621
 20
12.2535850265
 10
16.8560244124
 20
12.2424633378
 10
16.8651419838
 20
12.2372468136
  0
LWPOLYLINE
  5
496
100
AcDbEntity
  8
284
100
AcDbPolyline
 62
250
  6
CONTINUOUS
 90
9
 70
0
 10
15.456673486
 20
13.0442128639
 10
15.4578324513
 20
13.0200411978
 10
15.4613180634
 20
12.997231999
 10
15.4671197528
 20
12.9761128577
 10
15.4752103214
 20
12.9569658938
 10
15.4855056363
 20
12.9401231696
 10
15.4978289682
 20
12.9259189742
 10
15.5119859044
 20
12.9145647688
 10
15.5216468114
 20
12.9089943993
  0
LWPOLYLINE
  5
497
100
AcDbEntity
  8
284
100
AcDbPolyline
 62
250
  6
CONTINUOUS
 90
13
 70
0
 10
18.5679433233
 20
-27.4700359364
 10
18.5694152961
 20
-27.5077147381
 10
18.5734603168
 20
-27.5431833933
 10
18.5800783854
 20
-27.5764419021
 10
18.589360309
 20
-27.607683859
 10
18.6012152805
 20
-27.6367156696
 10
18.6153708786
 20
-27.6629565501
 10
18.631860473
 20
-27.68636043
 10
18.650650694
 20
-27.7069733798
 10
18.6713690121
 20
-27.7243528278
 10
18.6938912505
 20
-27.73835125
 10
18.718341586
 20
-27.7491161703
 10
18.7447200186
 20
-27.7566475888
  0
LWPOLYLINE
  5
498
100
AcDbEntity
  8
284
100
AcDbPolyline
 62
250
  6
CONTINUOUS
 90
13
 70
0
 10
17.8608365421
 20
11.9760148124
 10
17.8593645693
 20
12.013693614
 10
17.8553195486
 20
12.0491622692
 10
17.84870148
 20
12.0824207781
 10
17.8394195564
 20
12.113662735
 10
17.8275645849
 20
12.1426945455
 10
17.8134089867
 20
12.168935426
 10
17.7969193924
 20
12.1923393059
 10
17.7781291713
 20
12.2129522558
 10
17.7574108533
 20
12.2303317038
 10
17.7348886148
 20
12.2443301259
 10
17.7104382793
 20
12.2550950463
 10
17.6840598468
 20
12.2626264647
  0
LINE
  5
499
100
AcDbEntity
  8
284
100
AcDbLine
 62
7
  6
CONTINUOUS
 10
18.641627292
 20
-27.3972591069
 11
18.641166628
 21
-27.3816475888
  0
LWPOLYLINE
  5
49A
100
AcDbEntity
  8
284
100
AcDbPolyline
 62
7
  6
CONTINUOUS
 90
15
 70
0
 10
16.8708870484
 20
19.6148919836
 10
16.8693551669
 20
19.6705237313
 10
16.8649259836
 20
19.724009041
 10
16.8575994987
 20
19.7753479125
 10
16.8473209201
 20
19.8247368039
 10
16.8341450398
 20
19.8719792573
 10
16.8182362339
 20
19.916485898
 10
16.7995602652
 20
19.9582224529
 10
16.7781513709
 20
19.9972231953
 10
16.7542766382
 20
20.0330015702
 10
16.7279051759
 20
20.0655172093
 10
16.6990678752
 20
20.0948104809
 10
16.6681244965
 20
20.1205159362
 10
16.6350486557
 20
20.1425886284
 10
16.6109585481
 20
20.1557475
  0
LINE
  5
49B
100
AcDbEntity
  8
284
100
AcDbLine
 62
7
  6
CONTINUOUS
 10
16.0905569625
 20
-27.0634495372
 11
16.0905569625
 21
-26.9981796575
  0
LINE
  5
49C
100
AcDbEntity
  8
284
100
AcDbLine
 62
7
  6
CONTINUOUS
 10
16.0905569625
 20
12.4322009995
 11
16.0905569625
 21
12.6245393238
  0
LINE
  5
49D
100
AcDbEntity
  8
284
100
AcDbLine
 62
250
  6
CONTINUOUS
 10
16.1637802672
 20
-27.1518378849
 11
16.1637802672
 21
-27.0347913099
  0
LINE
  5
49E
100
AcDbEntity
  8
284
100
AcDbLine
 62
250
  6
CONTINUOUS
 10
16.1637802672
 20
12.3458627947
 11
16.1637802672
 21
12.5879276714
  0
LINE
  5
49F
100
AcDbEntity
  8
284
100
AcDbLine
 62
250
  6
CONTINUOUS
 10
16.8001763703
 20
12.7237753939
 11
16.8001763703
 21
12.3724614218
  0
LINE
  5
4A0
100
AcDbEntity
  8
284
100
AcDbLine
 62
250
  6
CONTINUOUS
 10
16.8001763703
 20
-28.9271427176
 11
16.8001763703
 21
-29.2784566897
  0
LINE
  5
4A1
100
AcDbEntity
  8
284
100
AcDbLine
 62
7
  6
CONTINUOUS
 10
16.8708870484
 20
19.4197790385
 11
16.8708870484
 21
19.6148919836
  0
LINE
  5
4A2
100
AcDbEntity
  8
284
100
AcDbLine
 62
250
  6
CONTINUOUS
 10
17.1537297609
 20
12.7237753939
 11
17.1537297609
 21
12.3724614218
  0
LINE
  5
4A3
100
AcDbEntity
  8
284
100
AcDbLine
 62
250
  6
CONTINUOUS
 10
17.1537297609
 20
-28.9271427176
 11
17.1537297609
 21
-29.2784566897
  0
LINE
  5
4A4
100
AcDbEntity
  8
284
100
AcDbLine
 62
250
  6
CONTINUOUS
 10
17.5072831515
 20
11.9760148124
 11
17.5072831515
 21
11.6741113526
  0
LINE
  5
4A5
100
AcDbEntity
  8
284
100
AcDbLine
 62
250
  6
CONTINUOUS
 10
17.5072831515
 20
-27.6134969258
 11
17.5072831515
 21
-27.823589327
  0
LINE
  5
4A6
100
AcDbEntity
  8
284
100
AcDbLine
 62
7
  6
CONTINUOUS
 10
17.6470320624
 20
10.6487764289
 11
17.6470320624
 21
10.622906791
  0
LINE
  5
4A7
100
AcDbEntity
  8
284
100
AcDbLine
 62
7
  6
CONTINUOUS
 10
17.6470320624
 20
-27.3432066357
 11
17.6470320624
 21
-27.3173369978
  0
LINE
  5
4A8
100
AcDbEntity
  8
284
100
AcDbLine
 62
250
  6
CONTINUOUS
 10
17.8608365421
 20
11.9760148124
 11
17.8608365421
 21
11.6673089143
  0
LINE
  5
4A9
100
AcDbEntity
  8
284
100
AcDbLine
 62
250
  6
CONTINUOUS
 10
17.8608365421
 20
-27.5148834289
 11
17.8608365421
 21
-27.823589327
  0
LINE
  5
4AA
100
AcDbEntity
  8
284
100
AcDbLine
 62
7
  6
CONTINUOUS
 10
18.1146741568
 20
-27.0224211804
 11
18.1146741568
 21
-25.4017834572
  0
LINE
  5
4AB
100
AcDbEntity
  8
284
100
AcDbLine
 62
7
  6
CONTINUOUS
 10
18.1146741568
 20
9.1589499716
 11
18.1146741568
 21
10.7795876948
  0
LINE
  5
4AC
100
AcDbEntity
  8
218140000
100
AcDbLine
 62
250
  6
CONTINUOUS
 10
18.3574854672
 20
23.4418372647
 11
18.3574854672
 21
19.4669449601
  0
LINE
  5
4AD
100
AcDbEntity
  8
218140080
100
AcDbLine
 62
250
  6
CONTINUOUS
 10
18.3574854672
 20
23.4418372647
 11
18.3574854672
 21
19.4669449601
  0
LWPOLYLINE
  5
4AE
100
AcDbEntity
  8
284
100
AcDbPolyline
 62
7
  6
CONTINUOUS
 90
9
 70
0
 10
16.0905569625
 20
-27.0634495372
 10
16.0898789454
 20
-27.0835481255
 10
16.0876936145
 20
-27.105895085
 10
16.0838063255
 20
-27.1302188261
 10
16.078051919
 20
-27.1562663126
 10
16.0703469038
 20
-27.1835875981
 10
16.060733684
 20
-27.2115586079
 10
16.0492567876
 20
-27.2397786328
 10
16.0360265339
 20
-27.2678016892
  0
LWPOLYLINE
  5
4AF
100
AcDbEntity
  8
284
100
AcDbPolyline
 62
7
  6
CONTINUOUS
 90
13
 70
0
 10
18.641166628
 20
12.4179565506
 10
18.6418446451
 20
12.4380551389
 10
18.644029976
 20
12.4604020983
 10
18.647917265
 20
12.4847258395
 10
18.6536716715
 20
12.510773326
 10
18.6613766867
 20
12.5380946115
 10
18.6709899065
 20
12.5660656212
 10
18.6824668029
 20
12.5942856462
 10
18.6956970565
 20
12.6223087026
 10
18.7103834466
 20
12.6494621218
 10
18.7262367647
 20
12.6752852943
 10
18.7430290252
 20
12.6995175355
 10
18.7604623614
 20
12.7218569051
  0
LWPOLYLINE
  5
4B0
100
AcDbEntity
  8
284
100
AcDbPolyline
 62
250
  6
CONTINUOUS
 90
10
 70
0
 10
16.1637802672
 20
-27.1518378849
 10
16.1625849665
 20
-27.1775703885
 10
16.1590152285
 20
-27.2041502049
 10
16.153119328
 20
-27.2312178877
 10
16.1449769969
 20
-27.2584073929
 10
16.1346983462
 20
-27.2853510291
 10
16.122422377
 20
-27.3116844298
 10
16.1083151008
 20
-27.337051481
 10
16.0925672943
 20
-27.3611091368
 10
16.0753919196
 20
-27.3835320587
  0
LINE
  5
4B1
100
AcDbEntity
  8
284
100
AcDbLine
 62
250
  6
CONTINUOUS
 10
18.6408493842
 20
12.0832788053
 11
18.6411666272
 21
12.0893337161
  0
LWPOLYLINE
  5
4B2
100
AcDbEntity
  8
284
100
AcDbPolyline
 62
7
  6
CONTINUOUS
 90
6
 70
0
 10
15.3834501813
 20
-28.1670029278
 10
15.3857174317
 20
-28.1334151412
 10
15.3925549677
 20
-28.1001502903
 10
15.4039156181
 20
-28.0679378771
 10
15.4196241872
 20
-28.0374713654
 10
15.440913873
 20
-28.0075358109
  0
LWPOLYLINE
  5
4B3
100
AcDbEntity
  8
284
100
AcDbPolyline
 62
7
  6
CONTINUOUS
 90
6
 70
0
 10
19.3482734091
 20
13.5215099412
 10
19.3460061588
 20
13.4879221545
 10
19.3391686228
 20
13.4546573037
 10
19.3278079724
 20
13.4224448905
 10
19.3120994033
 20
13.3919783788
 10
19.2908097175
 20
13.3620428243
  0
LWPOLYLINE
  5
4B4
100
AcDbEntity
  8
218140000
100
AcDbPolyline
 62
250
  6
CONTINUOUS
 90
10
 70
0
 10
18.6100796469
 20
23.7544335314
 10
18.607373294
 20
23.7195619421
 10
18.5980230814
 20
23.6810229444
 10
18.5820643292
 20
23.6430303068
 10
18.5596158107
 20
23.6058667902
 10
18.5308445996
 20
23.5698089851
 10
18.4959648262
 20
23.5351252524
 10
18.4552360841
 20
23.5020737267
 10
18.4089614979
 20
23.4709003947
 10
18.3574854672
 20
23.4418372647
  0
LWPOLYLINE
  5
4B5
100
AcDbEntity
  8
218140080
100
AcDbPolyline
 62
250
  6
CONTINUOUS
 90
10
 70
0
 10
18.6100796469
 20
23.7544335314
 10
18.607373294
 20
23.7195619421
 10
18.5980230814
 20
23.6810229444
 10
18.5820643292
 20
23.6430303068
 10
18.5596158107
 20
23.6058667902
 10
18.5308445996
 20
23.5698089851
 10
18.4959648262
 20
23.5351252524
 10
18.4552360841
 20
23.5020737267
 10
18.4089614979
 20
23.4709003947
 10
18.3574854672
 20
23.4418372647
  0
LINE
  5
4B6
100
AcDbEntity
  8
290
100
AcDbLine
 62
7
  6
CONTINUOUS
 10
17.5881524138
 20
9.5426813278
 11
14.5059712592
 21
-27.9140462577
  0
LINE
  5
4B7
100
AcDbEntity
  8
284
100
AcDbLine
 62
7
  6
CONTINUOUS
 10
16.3520231857
 20
-8.9725028712
 11
18.1146741568
 21
9.1589499716
  0
LWPOLYLINE
  5
4B8
100
AcDbEntity
  8
284
100
AcDbPolyline
 62
250
  6
CONTINUOUS
 90
7
 70
0
 10
19.3482734091
 20
13.8728239133
 10
19.3461346245
 20
13.8565081393
 10
19.3397548657
 20
13.8404715327
 10
19.3292432923
 20
13.8249884842
 10
19.3147797601
 20
13.8103239133
 10
19.2966117442
 20
13.7967287347
 10
19.2750501044
 20
13.7844355656
  0
LWPOLYLINE
  5
4B9
100
AcDbEntity
  8
284
100
AcDbPolyline
 62
250
  6
CONTINUOUS
 90
7
 70
0
 10
19.3482734091
 20
13.5215099412
 10
19.3461346245
 20
13.5051941672
 10
19.3397548657
 20
13.4891575606
 10
19.3292432923
 20
13.4736745122
 10
19.3147797601
 20
13.4590099412
 10
19.2966117442
 20
13.4454147626
 10
19.2750501044
 20
13.4331215936
  0
LWPOLYLINE
  5
4BA
100
AcDbEntity
  8
284
100
AcDbPolyline
 62
250
  6
CONTINUOUS
 90
4
 70
0
 10
2.7174686158
 20
19.0809137352
 10
2.7302038777
 20
19.0831451396
 10
2.7421920562
 20
19.0872976563
 10
2.744384859
 20
19.0883053313
  0
LINE
  5
4BB
100
AcDbEntity
  8
284
100
AcDbLine
 62
7
  6
CONTINUOUS
 10
15.0236161448
 20
19.1023613694
 11
16.8708870484
 21
19.4197790385
  0
LWPOLYLINE
  5
4BC
100
AcDbEntity
  8
218140000
100
AcDbPolyline
 62
7
  6
CONTINUOUS
 90
7
 70
0
 10
18.465218184
 20
19.4493736365
 10
18.4442462379
 20
19.4464839044
 10
18.4244808891
 20
19.4459214867
 10
18.4059221377
 20
19.4476863835
 10
18.3885699835
 20
19.4517785946
 10
18.3724244267
 20
19.4581981202
 10
18.3574854672
 20
19.4669449601
  0
LWPOLYLINE
  5
4BD
100
AcDbEntity
  8
218140080
100
AcDbPolyline
 62
7
  6
CONTINUOUS
 90
7
 70
0
 10
18.465218184
 20
19.4493736365
 10
18.4442462379
 20
19.4464839044
 10
18.4244808891
 20
19.4459214867
 10
18.4059221377
 20
19.4476863835
 10
18.3885699835
 20
19.4517785946
 10
18.3724244267
 20
19.4581981202
 10
18.3574854672
 20
19.4669449601
  0
LWPOLYLINE
  5
4BE
100
AcDbEntity
  8
290
100
AcDbPolyline
 62
250
  6
CONTINUOUS
 90
5
 70
0
 10
-16.882700418
 20
23.970893411
 10
-16.9833528256
 20
24.0084651868
 10
-17.082445603
 20
24.0231842973
 10
-17.1769690309
 20
24.0146036826
 10
-17.234705532
 20
23.996579056
  0
LWPOLYLINE
  5
4BF
100
AcDbEntity
  8
284
100
AcDbPolyline
 62
250
  6
CONTINUOUS
 90
4
 70
0
 10
16.019890768
 20
12.4121349575
 10
16.0383710433
 20
12.4043974979
 10
16.0565773536
 20
12.3997766677
 10
16.0741981845
 20
12.3983515336
  0
LWPOLYLINE
  5
4C0
100
AcDbEntity
  8
284
100
AcDbPolyline
 62
250
  6
CONTINUOUS
 90
16
 70
0
 10
3.9990754878
 20
18.1111469844
 10
4.0351121352
 20
18.0950680321
 10
4.0732378392
 20
18.0811270009
 10
4.1134525997
 20
18.069323891
 10
4.1562153988
 20
18.0595950511
 10
4.2010672545
 20
18.0520041325
 10
4.2466312211
 20
18.0467420881
 10
4.2928937981
 20
18.0438621144
 10
4.339868486
 20
18.043311015
 10
4.3862188401
 20
18.0451201536
 10
4.4319832851
 20
18.0493465834
 10
4.4771233963
 20
18.0559332511
 10
4.5201874544
 20
18.0647403608
 10
4.560691553
 20
18.0757213139
 10
4.5991195985
 20
18.088922709
 10
4.6354715909
 20
18.1043445461
  0
LWPOLYLINE
  5
4C1
100
AcDbEntity
  8
284
100
AcDbPolyline
 62
250
  6
CONTINUOUS
 90
16
 70
0
 10
17.5072831515
 20
11.6741113526
 10
17.5268901902
 20
11.6652491065
 10
17.5481760513
 20
11.6574219255
 10
17.5708898638
 20
11.6507044623
 10
17.5947523356
 20
11.6451566586
 10
17.619507572
 20
11.640823104
 10
17.6449319667
 20
11.6377416464
 10
17.670734666
 20
11.6359362254
 10
17.6966503695
 20
11.6354159403
 10
17.7224950383
 20
11.6361974633
 10
17.7480093374
 20
11.6382776006
 10
17.7728891195
 20
11.6416384403
 10
17.7968810974
 20
11.6462714895
 10
17.8197172671
 20
11.6521407119
 10
17.8411211638
 20
11.6591780609
 10
17.8608365421
 20
11.6673089143
  0
LWPOLYLINE
  5
4C2
100
AcDbEntity
  8
284
100
AcDbPolyline
 62
250
  6
CONTINUOUS
 90
7
 70
0
 10
17.3633936523
 20
11.4289879022
 10
17.3899780293
 20
11.4167826792
 10
17.4178145373
 20
11.4057610239
 10
17.4469031765
 20
11.3959229365
 10
17.4772439467
 20
11.3872684168
 10
17.5088368479
 20
11.379797465
 10
17.5416818802
 20
11.3735100809
  0
LINE
  5
4C3
100
AcDbEntity
  8
284
100
AcDbLine
 62
7
  6
CONTINUOUS
 10
18.1146741568
 20
9.1589499716
 11
17.5786310643
 21
9.4269715179
  0
LINE
  5
4C4
100
AcDbEntity
  8
290
100
AcDbLine
 62
7
  6
CONTINUOUS
 10
-12.9705361459
 20
25.570066869
 11
17.0816743678
 21
10.5439616121
  0
LINE
  5
4C5
100
AcDbEntity
  8
268
100
AcDbLine
 62
7
  6
CONTINUOUS
 10
-14.347877341
 20
26.349245091
 11
1.4206038795
 21
18.4650044807
  0
LINE
  5
4C6
100
AcDbEntity
  8
284
100
AcDbLine
 62
7
  6
CONTINUOUS
 10
17.6470320624
 20
10.622906791
 11
1.9526064106
 21
18.4701196169
  0
LINE
  5
4C7
100
AcDbEntity
  8
268
100
AcDbLine
 62
7
  6
CONTINUOUS
 10
1.1731165061
 20
18.916264106
 11
-14.1003899676
 21
26.5530173428
  0
LINE
  5
4C8
100
AcDbEntity
  8
284
100
AcDbLine
 62
7
  6
CONTINUOUS
 10
17.2933171118
 20
11.258844476
 11
2.3063213613
 21
18.7523423512
  0
LINE
  5
4C9
100
AcDbEntity
  8
284
100
AcDbLine
 62
250
  6
CONTINUOUS
 10
2.6555726036
 20
18.7828984266
 11
3.9990754878
 21
18.1111469844
  0
LINE
  5
4CA
100
AcDbEntity
  8
284
100
AcDbLine
 62
250
  6
CONTINUOUS
 10
16.019890768
 20
12.1007393443
 11
17.3633936523
 21
11.4289879022
  0
LINE
  5
4CB
100
AcDbEntity
  8
268
100
AcDbLine
 62
7
  6
CONTINUOUS
 10
1.7326311907
 20
19.3511712341
 11
0.1186270747
 21
20.1581732921
  0
LINE
  5
4CC
100
AcDbEntity
  8
268
100
AcDbLine
 62
7
  6
CONTINUOUS
 10
-11.6316869738
 20
26.0333303163
 11
-13.2456910898
 21
26.8403323743
  0
LINE
  5
4CD
100
AcDbEntity
  8
284
100
AcDbLine
 62
250
  6
CONTINUOUS
 10
2.7994621028
 20
19.0280218769
 11
4.1429649871
 21
18.3562704348
  0
LINE
  5
4CE
100
AcDbEntity
  8
284
100
AcDbLine
 62
250
  6
CONTINUOUS
 10
16.1637802672
 20
12.3458627947
 11
17.5072831515
 21
11.6741113526
  0
LINE
  5
4CF
100
AcDbEntity
  8
268
100
AcDbLine
 62
7
  6
CONTINUOUS
 10
-8.299231093
 20
24.7244346111
 11
-2.5067220249
 21
21.8281800771
  0
LINE
  5
4D0
100
AcDbEntity
  8
284
100
AcDbLine
 62
250
  6
CONTINUOUS
 10
2.7818224947
 20
19.0377829542
 11
2.7994621028
 21
19.0280218769
  0
LWPOLYLINE
  5
4D1
100
AcDbEntity
  8
284
100
AcDbPolyline
 62
7
  6
CONTINUOUS
 90
7
 70
0
 10
2.1574361776
 20
19.5910998024
 10
2.1369495683
 20
19.6025638773
 10
2.1145693533
 20
19.6182658112
 10
2.0938998399
 20
19.6364524584
 10
2.0753443058
 20
19.6568163979
 10
2.0591162551
 20
19.6791380988
 10
2.0453282431
 20
19.7033517176
  0
LWPOLYLINE
  5
4D2
100
AcDbEntity
  8
284
100
AcDbPolyline
 62
250
  6
CONTINUOUS
 90
5
 70
0
 10
4.0836066842
 20
18.7901620429
 10
4.0874998207
 20
18.7879223243
 10
4.1016070969
 20
18.7766625493
 10
4.113883066
 20
18.7626051177
 10
4.1241617167
 20
18.7459401322
  0
LWPOLYLINE
  5
4D3
100
AcDbEntity
  8
284
100
AcDbPolyline
 62
250
  6
CONTINUOUS
 90
13
 70
0
 10
4.6354715909
 20
18.1043445461
 10
4.6170335151
 20
18.1150662671
 10
4.5989531505
 20
18.1285887874
 10
4.5815398571
 20
18.1446807329
 10
4.5650915812
 20
18.1630667659
 10
4.5498897575
 20
18.1834322963
 10
4.5361944932
 20
18.2054288644
 10
4.5242401183
 20
18.2286801026
 10
4.5142311753
 20
18.2527881758
 10
4.50633892
 20
18.2773405883
 10
4.5006983911
 20
18.3019172414
 10
4.4974060997
 20
18.3260976218
 10
4.4965183776
 20
18.3494679965
  0
LWPOLYLINE
  5
4D4
100
AcDbEntity
  8
284
100
AcDbPolyline
 62
7
  6
CONTINUOUS
 90
4
 70
0
 10
5.2888653824
 20
18.7280947123
 10
5.2892052947
 20
18.7277429205
 10
5.2890149948
 20
18.7280117098
 10
5.2870118777
 20
18.7309946635
  0
LINE
  5
4D5
100
AcDbEntity
  8
218140000
100
AcDbLine
 62
250
  6
CONTINUOUS
 10
8.6612398568
 20
26.4535004672
 11
9.0758173684
 21
25.377921927
  0
LINE
  5
4D6
100
AcDbEntity
  8
218140080
100
AcDbLine
 62
250
  6
CONTINUOUS
 10
8.6612398568
 20
26.4535004672
 11
9.0758173684
 21
25.377921927
  0
LINE
  5
4D7
100
AcDbEntity
  8
715
100
AcDbLine
 62
7
  6
CONTINUOUS
 10
10.2205216967
 20
23.877856879
 11
10.0190223387
 21
24.4735813048
  0
LWPOLYLINE
  5
4D8
100
AcDbEntity
  8
284
100
AcDbPolyline
 62
250
  6
CONTINUOUS
 90
7
 70
0
 10
15.3834501813
 20
13.4839151958
 10
15.3857519256
 20
13.4669920181
 10
15.3923566858
 20
13.4508473502
 10
15.4030628701
 20
13.4353824966
 10
15.4175643231
 20
13.4208808751
 10
15.435558266
 20
13.4075299922
 10
15.456673486
 20
13.395526836
  0
LWPOLYLINE
  5
4D9
100
AcDbEntity
  8
284
100
AcDbPolyline
 62
250
  6
CONTINUOUS
 90
7
 70
0
 10
15.3834501813
 20
13.1326012116
 10
15.385588966
 20
13.1162854375
 10
15.3919687248
 20
13.1002488309
 10
15.4024802982
 20
13.0847657825
 10
15.4169438304
 20
13.0701012116
 10
15.4351118463
 20
13.0565060329
 10
15.456673486
 20
13.0442128639
  0
LWPOLYLINE
  5
4DA
100
AcDbEntity
  8
284
100
AcDbPolyline
 62
7
  6
CONTINUOUS
 90
10
 70
0
 10
19.3482734091
 20
13.8728239133
 10
19.3462124414
 20
13.9048545522
 10
19.3399773254
 20
13.9366912764
 10
19.3295751095
 20
13.9676897313
 10
19.3151137683
 20
13.9972435403
 10
19.2968490322
 20
14.0247045132
 10
19.275161198
 20
14.0494894451
 10
19.2502850153
 20
14.071299213
 10
19.2227462987
 20
14.0896337349
 10
19.2100928598
 20
14.0964226832
  0
LWPOLYLINE
  5
4DB
100
AcDbEntity
  8
218140000
100
AcDbPolyline
 62
7
  6
CONTINUOUS
 90
10
 70
0
 10
18.6100796469
 20
23.7544335314
 10
18.6062747508
 20
23.8683712277
 10
18.5951286618
 20
23.9816354247
 10
18.5769903367
 20
24.0940226982
 10
18.5520352355
 20
24.205759475
 10
18.520488236
 20
24.3163916424
 10
18.4828669699
 20
24.4246980316
 10
18.4395657344
 20
24.5301820026
 10
18.3906129528
 20
24.6331088831
 10
18.3360809072
 20
24.7333532928
  0
LWPOLYLINE
  5
4DC
100
AcDbEntity
  8
218140080
100
AcDbPolyline
 62
7
  6
CONTINUOUS
 90
10
 70
0
 10
18.6100796469
 20
23.7544335314
 10
18.6062747508
 20
23.8683712277
 10
18.5951286618
 20
23.9816354247
 10
18.5769903367
 20
24.0940226982
 10
18.5520352355
 20
24.205759475
 10
18.520488236
 20
24.3163916424
 10
18.4828669699
 20
24.4246980316
 10
18.4395657344
 20
24.5301820026
 10
18.3906129528
 20
24.6331088831
 10
18.3360809072
 20
24.7333532928
  0
LINE
  5
4DD
100
AcDbEntity
  8
284
100
AcDbLine
 62
7
  6
CONTINUOUS
 10
18.6413025453
 20
12.0842096741
 11
18.641162102
 21
12.0894199642
  0
LINE
  5
4DE
100
AcDbEntity
  8
284
100
AcDbLine
 62
250
  6
CONTINUOUS
 10
18.5679433233
 20
-27.4700359364
 11
18.5679433233
 21
-27.1462135087
  0
LINE
  5
4DF
100
AcDbEntity
  8
284
100
AcDbLine
 62
250
  6
CONTINUOUS
 10
18.5679433233
 20
12.0057457752
 11
18.5679433233
 21
12.329568203
  0
LINE
  5
4E0
100
AcDbEntity
  8
218140000
100
AcDbLine
 62
7
  6
CONTINUOUS
 10
18.6100796469
 20
23.7544335314
 11
18.6100796469
 21
20.3487480848
  0
LINE
  5
4E1
100
AcDbEntity
  8
218140080
100
AcDbLine
 62
7
  6
CONTINUOUS
 10
18.6100796469
 20
23.7544335314
 11
18.6100796469
 21
20.3487480848
  0
LINE
  5
4E2
100
AcDbEntity
  8
284
100
AcDbLine
 62
7
  6
CONTINUOUS
 10
18.641166628
 20
-27.3816475888
 11
18.641166628
 21
-27.0795923296
  0
LINE
  5
4E3
100
AcDbEntity
  8
284
100
AcDbLine
 62
7
  6
CONTINUOUS
 10
18.6411666272
 20
12.0893337161
 11
18.641166628
 21
12.4179565506
  0
LINE
  5
4E4
100
AcDbEntity
  8
284
100
AcDbLine
 62
250
  6
CONTINUOUS
 10
19.2750501044
 20
13.7844355656
 11
19.2750501044
 21
13.4331215936
  0
LINE
  5
4E5
100
AcDbEntity
  8
284
100
AcDbLine
 62
250
  6
CONTINUOUS
 10
19.2750501044
 20
-27.8664825458
 11
19.2750501044
 21
-28.2177965179
  0
LINE
  5
4E6
100
AcDbEntity
  8
284
100
AcDbLine
 62
7
  6
CONTINUOUS
 10
19.3482734091
 20
13.8728239133
 11
19.3482734091
 21
13.5215099412
  0
LINE
  5
4E7
100
AcDbEntity
  8
284
100
AcDbLine
 62
7
  6
CONTINUOUS
 10
19.3482734091
 20
-27.7780941982
 11
19.3482734091
 21
-28.1294081703
  0
LINE
  5
4E8
100
AcDbEntity
  8
284
100
AcDbLine
 62
7
  6
CONTINUOUS
 10
19.8053801903
 20
-26.2557107671
 11
19.8053801903
 21
11.6455731196
  0
LINE
  5
4E9
100
AcDbEntity
  8
284
100
AcDbLine
 62
7
  6
CONTINUOUS
 10
19.9495753838
 20
16.8506178553
 11
19.9495753838
 21
17.750972956
  0
LINE
  5
4EA
100
AcDbEntity
  8
218140000
100
AcDbLine
 62
7
  6
CONTINUOUS
 10
18.6100794968
 20
20.347729582
 11
18.610079409
 21
20.3474820019
  0
LINE
  5
4EB
100
AcDbEntity
  8
218140080
100
AcDbLine
 62
7
  6
CONTINUOUS
 10
18.6100794968
 20
20.347729582
 11
18.610079409
 21
20.3474820019
  0
LWPOLYLINE
  5
4EC
100
AcDbEntity
  8
218140000
100
AcDbPolyline
 62
250
  6
CONTINUOUS
 90
29
 70
0
 10
18.610079409
 20
20.3474820019
 10
18.6097510381
 20
20.3040276946
 10
18.6085447222
 20
20.2523017452
 10
18.6065137635
 20
20.2019846346
 10
18.6037074094
 20
20.1530851212
 10
18.6001782057
 20
20.1056195667
 10
18.595977266
 20
20.0595892168
 10
18.5911280049
 20
20.0149793481
 10
18.5856719486
 20
19.9718051376
 10
18.5796455556
 20
19.9300636542
 10
18.5730393
 20
19.8897141685
 10
18.565876285
 20
19.8507293013
 10
18.5581823317
 20
19.8131475796
 10
18.5499270586
 20
19.7770299211
 10
18.5411184441
 20
19.7423304365
 10
18.531774488
 20
19.7091077145
 10
18.5218605898
 20
19.6775826884
 10
18.511379359
 20
19.647724393
 10
18.5003402217
 20
19.6195789456
 10
18.4887050935
 20
19.593486187
 10
18.4764617822
 20
19.5694290896
 10
18.463624137
 20
19.54744345
 10
18.4501868427
 20
19.5279504012
 10
18.4361373834
 20
19.5110133472
 10
18.4214918295
 20
19.4965888083
 10
18.4062916934
 20
19.4849365301
 10
18.3905578498
 20
19.4761479976
 10
18.3742861968
 20
19.4701480623
 10
18.3574854672
 20
19.4669449601
  0
LWPOLYLINE
  5
4ED
100
AcDbEntity
  8
218140080
100
AcDbPolyline
 62
250
  6
CONTINUOUS
 90
29
 70
0
 10
18.610079409
 20
20.3474820019
 10
18.6097510381
 20
20.3040276946
 10
18.6085447222
 20
20.2523017452
 10
18.6065137635
 20
20.2019846346
 10
18.6037074094
 20
20.1530851212
 10
18.6001782057
 20
20.1056195667
 10
18.595977266
 20
20.0595892168
 10
18.5911280049
 20
20.0149793481
 10
18.5856719486
 20
19.9718051376
 10
18.5796455556
 20
19.9300636542
 10
18.5730393
 20
19.8897141685
 10
18.565876285
 20
19.8507293013
 10
18.5581823317
 20
19.8131475796
 10
18.5499270586
 20
19.7770299211
 10
18.5411184441
 20
19.7423304365
 10
18.531774488
 20
19.7091077145
 10
18.5218605898
 20
19.6775826884
 10
18.511379359
 20
19.647724393
 10
18.5003402217
 20
19.6195789456
 10
18.4887050935
 20
19.593486187
 10
18.4764617822
 20
19.5694290896
 10
18.463624137
 20
19.54744345
 10
18.4501868427
 20
19.5279504012
 10
18.4361373834
 20
19.5110133472
 10
18.4214918295
 20
19.4965888083
 10
18.4062916934
 20
19.4849365301
 10
18.3905578498
 20
19.4761479976
 10
18.3742861968
 20
19.4701480623
 10
18.3574854672
 20
19.4669449601
  0
LWPOLYLINE
  5
4EE
100
AcDbEntity
  8
284
100
AcDbPolyline
 62
250
  6
CONTINUOUS
 90
10
 70
0
 10
18.172082429
 20
-27.115265016
 10
18.1711536461
 20
-27.1579156629
 10
18.1666364699
 20
-27.1982615612
 10
18.158577694
 20
-27.235884764
 10
18.1470608003
 20
-27.2703955291
 10
18.1322050931
 20
-27.3014363563
 10
18.1141644641
 20
-27.3286856909
 10
18.0931257978
 20
-27.3518612546
 10
18.0693070356
 20
-27.3707229695
 10
18.0525381442
 20
-27.3805300776
  0
LWPOLYLINE
  5
4EF
100
AcDbEntity
  8
284
100
AcDbPolyline
 62
250
  6
CONTINUOUS
 90
10
 70
0
 10
18.8914610163
 20
-26.747520302
 10
18.890452649
 20
-26.7910788519
 10
18.8857001231
 20
-26.8322222606
 10
18.8772548183
 20
-26.8705057191
 10
18.8652080376
 20
-26.9055153379
 10
18.8496900206
 20
-26.9368726216
 10
18.8308685352
 20
-26.9642385608
 10
18.8089470637
 20
-26.9873172971
 10
18.7841626034
 20
-27.0058593218
 10
18.7716847809
 20
-27.0129046048
  0
LWPOLYLINE
  5
4F0
100
AcDbEntity
  8
284
100
AcDbPolyline
 62
250
  6
CONTINUOUS
 90
6
 70
0
 10
17.8608365421
 20
-27.5148834289
 10
17.8613178082
 20
-27.4977767214
 10
17.8632582418
 20
-27.4815791964
 10
17.8666377533
 20
-27.4664585486
 10
17.8714213543
 20
-27.4525713237
 10
17.8714848659
 20
-27.4524418825
  0
LWPOLYLINE
  5
4F1
100
AcDbEntity
  8
284
100
AcDbPolyline
 62
250
  6
CONTINUOUS
 90
10
 70
0
 10
17.8827843802
 20
-27.2244282497
 10
17.8815361259
 20
-27.2683906513
 10
17.8764945382
 20
-27.3098998048
 10
17.867714914
 20
-27.3485007654
 10
17.8552935202
 20
-27.3837704686
 10
17.8393665409
 20
-27.4153223787
 10
17.8201085786
 20
-27.4428107186
 10
17.7977307412
 20
-27.4659342396
 10
17.7724783231
 20
-27.4844395438
 10
17.7604356882
 20
-27.4911106581
  0
LWPOLYLINE
  5
4F2
100
AcDbEntity
  8
284
100
AcDbPolyline
 62
250
  6
CONTINUOUS
 90
10
 70
0
 10
19.167268473
 20
-26.5772314482
 10
19.1660198531
 20
-26.6211909506
 10
19.1609784619
 20
-26.6626978076
 10
19.1521995362
 20
-26.7012971443
 10
19.1397792733
 20
-26.7365659503
 10
19.1238537765
 20
-26.7681177147
 10
19.1045975635
 20
-26.7956066625
 10
19.0822216541
 20
-26.8187315439
 10
19.0569712572
 20
-26.8372389354
 10
19.0449125824
 20
-26.8439197357
  0
LWPOLYLINE
  5
4F3
100
AcDbEntity
  8
284
100
AcDbPolyline
 62
250
  6
CONTINUOUS
 90
3
 70
0
 10
18.5679433233
 20
-27.1462135087
 10
18.5684499322
 20
-27.1287627467
 10
18.5700235266
 20
-27.115949073
  0
LWPOLYLINE
  5
4F4
100
AcDbEntity
  8
284
100
AcDbPolyline
 62
250
  6
CONTINUOUS
 90
10
 70
0
 10
17.5072831515
 20
-27.823589327
 10
17.5060878507
 20
-27.8493218306
 10
17.5025181128
 20
-27.875901647
 10
17.4966222123
 20
-27.9029693298
 10
17.4884798811
 20
-27.930158835
 10
17.4782012304
 20
-27.9571024712
 10
17.4659252613
 20
-27.9834358719
 10
17.4518179851
 20
-28.0088029231
 10
17.4360701786
 20
-28.0328605789
 10
17.4188948038
 20
-28.0552835008
  0
LWPOLYLINE
  5
4F5
100
AcDbEntity
  8
284
100
AcDbPolyline
 62
250
  6
CONTINUOUS
 90
8
 70
0
 10
17.1537297609
 20
-29.2784566897
 10
17.1522174118
 20
-29.3059602647
 10
17.1477062411
 20
-29.3314808968
 10
17.1402734362
 20
-29.3545819209
 10
17.1300461745
 20
-29.374868072
 10
17.1171994473
 20
-29.3919922485
 10
17.1019530656
 20
-29.405661451
 10
17.0887564645
 20
-29.4136751398
  0
LWPOLYLINE
  5
4F6
100
AcDbEntity
  8
284
100
AcDbPolyline
 62
250
  6
CONTINUOUS
 90
8
 70
0
 10
19.2750501044
 20
-28.2177965179
 10
19.2735377553
 20
-28.2453000929
 10
19.2690265846
 20
-28.270820725
 10
19.2615937798
 20
-28.2939217491
 10
19.2513665181
 20
-28.3142079002
 10
19.2385197908
 20
-28.3313320767
 10
19.2232734091
 20
-28.3450012792
 10
19.210076808
 20
-28.353014968
  0
LWPOLYLINE
  5
4F7
100
AcDbEntity
  8
284
100
AcDbPolyline
 62
7
  6
CONTINUOUS
 90
3
 70
0
 10
4.3490178481
 20
21.4732768808
 10
4.3180103173
 20
21.4660086535
 10
4.2880502668
 20
21.4547996685
  0
LINE
  5
4F8
100
AcDbEntity
  8
284
100
AcDbLine
 62
250
  6
CONTINUOUS
 10
2.7041181208
 20
19.0806265367
 11
2.7174686158
 21
19.0809137352
  0
LWPOLYLINE
  5
4F9
100
AcDbEntity
  8
284
100
AcDbPolyline
 62
250
  6
CONTINUOUS
 90
4
 70
0
 10
5.2892213035
 20
18.741537881
 10
5.2729156002
 20
18.7435421325
 10
5.2578168412
 20
18.748642729
 10
5.255603796
 20
18.7497043543
  0
LINE
  5
4FA
100
AcDbEntity
  8
284
100
AcDbLine
 62
7
  6
CONTINUOUS
 10
3.5619341486
 20
18.8982039626
 11
4.0922642345
 21
18.7883690056
  0
LINE
  5
4FB
100
AcDbEntity
  8
284
100
AcDbLine
 62
250
  6
CONTINUOUS
 10
3.7894115965
 20
19.054620504
 11
4.3197416824
 21
18.9447855469
  0
LINE
  5
4FC
100
AcDbEntity
  8
268
100
AcDbLine
 62
7
  6
CONTINUOUS
 10
1.7326311907
 20
19.9883407928
 11
1.1103131586
 21
20.1182813753
  0
LWPOLYLINE
  5
4FD
100
AcDbEntity
  8
284
100
AcDbPolyline
 62
7
  6
CONTINUOUS
 90
3
 70
0
 10
17.7962050373
 20
14.7911177986
 10
17.827212568
 20
14.7838495713
 10
17.8571726186
 20
14.7726405863
  0
LWPOLYLINE
  5
4FE
100
AcDbEntity
  8
284
100
AcDbPolyline
 62
250
  6
CONTINUOUS
 90
16
 70
0
 10
4.1429649871
 20
18.3562704348
 10
4.1625720257
 20
18.3474081887
 10
4.1838578869
 20
18.3395810077
 10
4.2065716993
 20
18.3328635445
 10
4.2304341712
 20
18.3273157408
 10
4.2551894076
 20
18.3229821862
 10
4.2806138022
 20
18.3199007286
 10
4.3064165015
 20
18.3180953076
 10
4.3323322051
 20
18.3175750225
 10
4.3581768739
 20
18.3183565455
 10
4.3836911729
 20
18.3204366828
 10
4.408570955
 20
18.3237975225
 10
4.432562933
 20
18.3284305717
 10
4.4553991027
 20
18.3342997941
 10
4.4768029994
 20
18.3413371431
 10
4.4965183776
 20
18.3494679965
  0
LWPOLYLINE
  5
4FF
100
AcDbEntity
  8
284
100
AcDbPolyline
 62
250
  6
CONTINUOUS
 90
7
 70
0
 10
17.8665485638
 20
14.7681948284
 10
17.8616964872
 20
14.7704484809
 10
17.8422494392
 20
14.776453483
 10
17.8214314935
 20
14.7784288381
 10
17.7996791455
 20
14.7764331607
 10
17.7773312911
 20
14.7705916641
 10
17.7547705249
 20
14.7610817064
  0
LWPOLYLINE
  5
500
100
AcDbEntity
  8
284
100
AcDbPolyline
 62
7
  6
CONTINUOUS
 90
25
 70
0
 10
13.266672944
 20
15.1614758471
 10
13.2908353051
 20
15.1501844535
 10
13.3161911896
 20
15.1397875704
 10
13.3427405976
 20
15.1302851977
 10
13.3706079906
 20
15.1216441588
 10
13.3996689071
 20
15.1138976304
 10
13.429549962
 20
15.1071451426
 10
13.4602617381
 20
15.1013995221
 10
13.4917936526
 20
15.0966479423
 10
13.5237405723
 20
15.0929514531
 10
13.5561078522
 20
15.090323669
 10
13.5888901374
 20
15.0887509754
 10
13.6216662292
 20
15.0882535791
 10
13.6544360478
 20
15.088845355
 10
13.6871996732
 20
15.0905124281
 10
13.7195361465
 20
15.0932333792
 10
13.7514399561
 20
15.0970218072
 10
13.7829166136
 20
15.1018641131
 10
13.8135616959
 20
15.1076980813
 10
13.8433644725
 20
15.1145365079
 10
13.8723356739
 20
15.1223665968
 10
13.9001030676
 20
15.1310877443
 10
13.9265425764
 20
15.1406664157
 10
13.9517782775
 20
15.1511361457
 10
13.9758101711
 20
15.1624969342
  0
LWPOLYLINE
  5
501
100
AcDbEntity
  8
284
100
AcDbPolyline
 62
250
  6
CONTINUOUS
 90
7
 70
0
 10
19.2100751404
 20
14.0964315448
 10
19.2063284116
 20
14.0982024422
 10
19.1870303955
 20
14.1044410138
 10
19.1662044584
 20
14.1066720505
 10
19.1442147411
 20
14.1048617719
 10
19.121439806
 20
14.0990462906
 10
19.0982734091
 20
14.0893302642
  0
LINE
  5
502
100
AcDbEntity
  8
284
100
AcDbLine
 62
7
  6
CONTINUOUS
 10
7.7471790915
 20
16.7239037377
 11
13.266672944
 21
13.9641568115
  0
LINE
  5
503
100
AcDbEntity
  8
268
100
AcDbLine
 62
7
  6
CONTINUOUS
 10
-13.8840892981
 20
27.6118624541
 11
-12.277555735
 21
26.8085956725
  0
LINE
  5
504
100
AcDbEntity
  8
268
100
AcDbLine
 62
7
  6
CONTINUOUS
 10
-0.5197711336
 20
20.9297033719
 11
1.0867624294
 21
20.1264365903
  0
LINE
  5
505
100
AcDbEntity
  8
284
100
AcDbLine
 62
7
  6
CONTINUOUS
 10
2.157328618
 20
19.591153496
 11
3.5008315023
 21
18.9194020539
  0
LINE
  5
506
100
AcDbEntity
  8
284
100
AcDbLine
 62
7
  6
CONTINUOUS
 10
15.5216467825
 20
12.9089944138
 11
16.8652408996
 21
12.2371974173
  0
LINE
  5
507
100
AcDbEntity
  8
284
100
AcDbLine
 62
250
  6
CONTINUOUS
 10
17.5072831515
 20
11.9760148124
 11
17.0986200838
 21
12.1803463462
  0
LINE
  5
508
100
AcDbEntity
  8
284
100
AcDbLine
 62
250
  6
CONTINUOUS
 10
4.1429649871
 20
18.6581738946
 11
3.7343019194
 21
18.8625054284
  0
LINE
  5
509
100
AcDbEntity
  8
268
100
AcDbLine
 62
250
  6
CONTINUOUS
 10
-13.948684044
 20
27.7468916289
 11
-12.3429075819
 21
26.9440033979
  0
LINE
  5
50A
100
AcDbEntity
  8
268
100
AcDbLine
 62
250
  6
CONTINUOUS
 10
-0.5843658796
 20
21.0647325467
 11
1.0214105826
 21
20.2618443156
  0
LINE
  5
50B
100
AcDbEntity
  8
284
100
AcDbLine
 62
250
  6
CONTINUOUS
 10
2.0923553216
 20
19.7263719461
 11
3.4358582059
 21
19.054620504
  0
LINE
  5
50C
100
AcDbEntity
  8
284
100
AcDbLine
 62
250
  6
CONTINUOUS
 10
15.456673486
 20
13.0442128639
 11
16.8001763703
 21
12.3724614218
  0
LINE
  5
50D
100
AcDbEntity
  8
268
100
AcDbLine
 62
250
  6
CONTINUOUS
 10
1.0214105826
 20
20.5152157094
 11
-0.5843658796
 21
21.3181039405
  0
LINE
  5
50E
100
AcDbEntity
  8
268
100
AcDbLine
 62
250
  6
CONTINUOUS
 10
-12.3429075819
 20
27.1973747916
 11
-13.948684044
 21
28.0002630227
  0
LINE
  5
50F
100
AcDbEntity
  8
284
100
AcDbLine
 62
250
  6
CONTINUOUS
 10
2.0923553216
 20
20.0776859182
 11
3.4358582059
 21
19.4059344761
  0
LINE
  5
510
100
AcDbEntity
  8
284
100
AcDbLine
 62
250
  6
CONTINUOUS
 10
15.456673486
 20
13.395526836
 11
16.8001763703
 21
12.7237753939
  0
LINE
  5
511
100
AcDbEntity
  8
268
100
AcDbLine
 62
7
  6
CONTINUOUS
 10
-10.5648560616
 20
26.5719115658
 11
-8.3870990586
 21
25.4830330643
  0
LINE
  5
512
100
AcDbEntity
  8
268
100
AcDbLine
 62
7
  6
CONTINUOUS
 10
-1.5845999406
 20
22.0817835053
 11
-0.5034779894
 21
21.5412225297
  0
LINE
  5
513
100
AcDbEntity
  8
268
100
AcDbLine
 62
250
  6
CONTINUOUS
 10
1.198181312
 20
20.8190812876
 11
-0.4096400971
 21
21.6229919922
  0
LINE
  5
514
100
AcDbEntity
  8
268
100
AcDbLine
 62
250
  6
CONTINUOUS
 10
-12.1661368525
 20
27.5012403699
 11
-13.7739582615
 21
28.3051510744
  0
LINE
  5
515
100
AcDbEntity
  8
284
100
AcDbLine
 62
250
  6
CONTINUOUS
 10
18.7068965365
 20
12.072017938
 11
18.6473481784
 21
12.1017921171
  0
LINE
  5
516
100
AcDbEntity
  8
284
100
AcDbLine
 62
250
  6
CONTINUOUS
 10
5.3425783721
 20
18.7541770202
 11
5.2830300261
 21
18.7839511932
  0
LINE
  5
517
100
AcDbEntity
  8
284
100
AcDbLine
 62
250
  6
CONTINUOUS
 10
2.2691320169
 20
20.3825806168
 11
3.6126349012
 21
19.7108291747
  0
LINE
  5
518
100
AcDbEntity
  8
284
100
AcDbLine
 62
250
  6
CONTINUOUS
 10
15.6334501813
 20
13.7004215346
 11
16.9769530656
 21
13.0286700925
  0
LINE
  5
519
100
AcDbEntity
  8
268
100
AcDbLine
 62
7
  6
CONTINUOUS
 10
-8.299231093
 20
25.9393894772
 11
-2.5067220249
 21
23.0431349431
  0
LINE
  5
51A
100
AcDbEntity
  8
284
100
AcDbLine
 62
7
  6
CONTINUOUS
 10
7.7471790915
 20
17.9212227733
 11
13.266672944
 21
15.1614758471
  0
LINE
  5
51B
100
AcDbEntity
  8
284
100
AcDbLine
 62
7
  6
CONTINUOUS
 10
5.3361967374
 20
19.3133754178
 11
6.7469174827
 21
18.6080150452
  0
LINE
  5
51C
100
AcDbEntity
  8
284
100
AcDbLine
 62
7
  6
CONTINUOUS
 10
18.7005149018
 20
12.6312163356
 11
19.4516652397
 21
12.2556411667
  0
LINE
  5
51D
100
AcDbEntity
  8
268
100
AcDbLine
 62
7
  6
CONTINUOUS
 10
-9.0335819446
 20
26.5058235993
 11
-10.516059948
 21
27.247062601
  0
LINE
  5
51E
100
AcDbEntity
  8
268
100
AcDbLine
 62
7
  6
CONTINUOUS
 10
-7.807139615
 20
26.4054889078
 11
-1.5845999406
 21
23.2942190705
  0
LINE
  5
51F
100
AcDbEntity
  8
268
100
AcDbLine
 62
7
  6
CONTINUOUS
 10
-12.1912016584
 20
29.1171351717
 11
-10.5648560616
 21
28.3039623734
  0
LINE
  5
520
100
AcDbEntity
  8
268
100
AcDbLine
 62
7
  6
CONTINUOUS
 10
1.1731165061
 20
22.4349760895
 11
2.7994621028
 21
21.6218032911
  0
LINE
  5
521
100
AcDbEntity
  8
268
100
AcDbLine
 62
7
  6
CONTINUOUS
 10
-6.4636367307
 20
26.4358058584
 11
-1.5138892624
 21
23.9609321243
  0
LINE
  5
522
100
AcDbEntity
  8
284
100
AcDbLine
 62
7
  6
CONTINUOUS
 10
9.446265846
 20
18.4858929585
 11
14.3960133143
 21
16.0110192243
  0
LINE
  5
523
100
AcDbEntity
  8
284
100
AcDbLine
 62
250
  6
CONTINUOUS
 10
16.1461406591
 20
12.3556238719
 11
16.1637802672
 21
12.3458627947
  0
LWPOLYLINE
  5
524
100
AcDbEntity
  8
218140000
100
AcDbPolyline
 62
250
  6
CONTINUOUS
 90
15
 70
0
 10
-1.315088828
 20
24.9225721531
 10
-1.2815068516
 20
24.9033290271
 10
-1.2521902636
 20
24.8817056243
 10
-1.2271390639
 20
24.8577019445
 10
-1.2061498718
 20
24.8310695958
 10
-1.1894260681
 20
24.8020569702
 10
-1.177577795
 20
24.7714092438
 10
-1.1707210014
 20
24.7390492962
 10
-1.1687397383
 20
24.7050542477
 10
-1.1718963011
 20
24.6704006354
 10
-1.1803590404
 20
24.6350345468
 10
-1.1939596055
 20
24.5990098944
 10
-1.2124552403
 20
24.5634649535
 10
-1.2357650259
 20
24.528779149
 10
-1.2639698811
 20
24.4945730559
  0
LWPOLYLINE
  5
525
100
AcDbEntity
  8
218140080
100
AcDbPolyline
 62
250
  6
CONTINUOUS
 90
15
 70
0
 10
-1.315088828
 20
24.9225721531
 10
-1.2815068516
 20
24.9033290271
 10
-1.2521902636
 20
24.8817056243
 10
-1.2271390639
 20
24.8577019445
 10
-1.2061498718
 20
24.8310695958
 10
-1.1894260681
 20
24.8020569702
 10
-1.177577795
 20
24.7714092438
 10
-1.1707210014
 20
24.7390492962
 10
-1.1687397383
 20
24.7050542477
 10
-1.1718963011
 20
24.6704006354
 10
-1.1803590404
 20
24.6350345468
 10
-1.1939596055
 20
24.5990098944
 10
-1.2124552403
 20
24.5634649535
 10
-1.2357650259
 20
24.528779149
 10
-1.2639698811
 20
24.4945730559
  0
LWPOLYLINE
  5
526
100
AcDbEntity
  8
284
100
AcDbPolyline
 62
250
  6
CONTINUOUS
 90
5
 70
0
 10
17.4479248486
 20
12.1080029607
 10
17.4518179851
 20
12.1057632421
 10
17.4659252613
 20
12.0945034671
 10
17.4782012304
 20
12.0804460355
 10
17.4884798811
 20
12.06378105
  0
LWPOLYLINE
  5
527
100
AcDbEntity
  8
284
100
AcDbPolyline
 62
250
  6
CONTINUOUS
 90
13
 70
0
 10
3.6126349012
 20
19.7108291747
 10
3.6357088901
 20
19.6974399384
 10
3.6583880766
 20
19.6805753119
 10
3.6802844137
 20
19.6605238538
 10
3.7010232488
 20
19.6376286499
 10
3.7202497348
 20
19.6122814436
 10
3.7376349012
 20
19.5849159326
 10
3.7528812829
 20
19.5560003485
 10
3.7657280101
 20
19.5260294447
 10
3.7759552718
 20
19.4955160319
 10
3.7833880766
 20
19.464982203
 10
3.7878992473
 20
19.4349504002
 10
3.7894115965
 20
19.4059344761
  0
LWPOLYLINE
  5
528
100
AcDbEntity
  8
284
100
AcDbPolyline
 62
250
  6
CONTINUOUS
 90
13
 70
0
 10
16.9769530656
 20
13.0286700925
 10
17.0001194625
 20
13.0152197219
 10
17.0228943975
 20
12.9982602682
 10
17.0448841149
 20
12.9780808295
 10
17.0657100519
 20
12.9550238557
 10
17.085008068
 20
12.9294872679
 10
17.102436729
 20
12.9019203535
 10
17.1177253589
 20
12.8727346188
 10
17.1305676468
 20
12.8424958026
 10
17.1406794082
 20
12.8119432496
 10
17.1479303032
 20
12.7816767254
 10
17.1522842146
 20
12.7521293497
 10
17.1537297609
 20
12.7237753939
  0
LWPOLYLINE
  5
529
100
AcDbEntity
  8
284
100
AcDbPolyline
 62
250
  6
CONTINUOUS
 90
13
 70
0
 10
5.7339552447
 20
20.7714893464
 10
5.7571216416
 20
20.7580389759
 10
5.7798965766
 20
20.7410795222
 10
5.801886294
 20
20.7209000835
 10
5.822712231
 20
20.6978431097
 10
5.8420102471
 20
20.6723065219
 10
5.8594389081
 20
20.6447396075
 10
5.8747275381
 20
20.6155538728
 10
5.8875698259
 20
20.5853150566
 10
5.8976815873
 20
20.5547625036
 10
5.9049324824
 20
20.5244959794
 10
5.9092863938
 20
20.4949486037
 10
5.91073194
 20
20.4665946479
  0
LWPOLYLINE
  5
52A
100
AcDbEntity
  8
284
100
AcDbPolyline
 62
250
  6
CONTINUOUS
 90
13
 70
0
 10
5.3425783721
 20
18.442781407
 10
5.3241403273
 20
18.4535031074
 10
5.3060599858
 20
18.467025603
 10
5.2886467069
 20
18.4831175237
 10
5.2721984367
 20
18.5015035358
 10
5.2569966106
 20
18.5218690516
 10
5.2433013383
 20
18.5438656124
 10
5.2313469508
 20
18.5671168525
 10
5.221337993
 20
18.591224937
 10
5.2134457235
 20
18.6157773676
 10
5.2078051829
 20
18.6403540438
 10
5.2045128835
 20
18.664534452
 10
5.2036251588
 20
18.6879048574
  0
LWPOLYLINE
  5
52B
100
AcDbEntity
  8
284
100
AcDbPolyline
 62
250
  6
CONTINUOUS
 90
16
 70
0
 10
17.5416785766
 20
11.373508553
 10
17.5779780483
 20
11.3523233145
 10
17.613804513
 20
11.326590532
 10
17.6487654416
 20
11.2965939279
 10
17.6824759002
 20
11.2626648108
 10
17.7145691441
 20
11.2251755877
 10
17.7446999481
 20
11.184534324
 10
17.7725399501
 20
11.1411848896
 10
17.7977820831
 20
11.0956034243
 10
17.8201498296
 20
11.0482893794
 10
17.8393980414
 20
10.9997611567
 10
17.8553157632
 20
10.9505504778
 10
17.8677286523
 20
10.9011965846
 10
17.8765006755
 20
10.8522402608
 10
17.8815356039
 20
10.8042179073
 10
17.8827781991
 20
10.7576557099
  0
LWPOLYLINE
  5
52C
100
AcDbEntity
  8
284
100
AcDbPolyline
 62
250
  6
CONTINUOUS
 90
16
 70
0
 10
18.8261201269
 20
11.9667427223
 10
18.86239928
 20
11.9455654801
 10
18.8982131583
 20
11.9198412635
 10
18.9331692271
 20
11.8898520209
 10
18.9668843538
 20
11.855926447
 10
18.9989890069
 20
11.8184363805
 10
19.0291313066
 20
11.7777927283
 10
19.0569808811
 20
11.734440962
 10
19.0822324879
 20
11.6888562353
 10
19.1046093593
 20
11.6415381758
 10
19.1238662359
 20
11.5930054096
 10
19.1397920548
 20
11.543789876
 10
19.1522122627
 20
11.4944309982
 10
19.1609907295
 20
11.4454697701
 10
19.1660312399
 20
11.3974428274
 10
19.1672785483
 20
11.3508765657
  0
LWPOLYLINE
  5
52D
100
AcDbEntity
  8
218140000
100
AcDbPolyline
 62
250
  6
CONTINUOUS
 90
9
 70
0
 10
-1.4175291756
 20
24.7048565696
 10
-1.3976479992
 20
24.6932425788
 10
-1.3799862674
 20
24.6794980968
 10
-1.3647346925
 20
24.6637334114
 10
-1.3520701087
 20
24.646039649
 10
-1.3421264129
 20
24.6265753639
 10
-1.3350117998
 20
24.6055620119
 10
-1.3308353831
 20
24.5830973987
 10
-1.3296612463
 20
24.5624956477
  0
LWPOLYLINE
  5
52E
100
AcDbEntity
  8
218140080
100
AcDbPolyline
 62
250
  6
CONTINUOUS
 90
9
 70
0
 10
-1.4175291756
 20
24.7048565696
 10
-1.3976479992
 20
24.6932425788
 10
-1.3799862674
 20
24.6794980968
 10
-1.3647346925
 20
24.6637334114
 10
-1.3520701087
 20
24.646039649
 10
-1.3421264129
 20
24.6265753639
 10
-1.3350117998
 20
24.6055620119
 10
-1.3308353831
 20
24.5830973987
 10
-1.3296612463
 20
24.5624956477
  0
LWPOLYLINE
  5
52F
100
AcDbEntity
  8
218140000
100
AcDbPolyline
 62
250
  6
CONTINUOUS
 90
13
 70
0
 10
-2.7616131205
 20
25.1931183315
 10
-2.7439021848
 20
25.1819964556
 10
-2.7258340714
 20
25.1685919675
 10
-2.7077123101
 20
25.1531300995
 10
-2.6898413247
 20
25.1358706401
 10
-2.6725213051
 20
25.1171035558
 10
-2.6560431666
 20
25.0971441151
 10
-2.6406836965
 20
25.076327631
 10
-2.6267008596
 20
25.0550037723
 10
-2.6143294669
 20
25.0335306705
 10
-2.603777293
 20
25.0122689946
 10
-2.5952215724
 20
24.9915758952
 10
-2.5888059888
 20
24.971798945
  0
LWPOLYLINE
  5
530
100
AcDbEntity
  8
218140080
100
AcDbPolyline
 62
250
  6
CONTINUOUS
 90
13
 70
0
 10
-2.7616131205
 20
25.1931183315
 10
-2.7439021848
 20
25.1819964556
 10
-2.7258340714
 20
25.1685919675
 10
-2.7077123101
 20
25.1531300995
 10
-2.6898413247
 20
25.1358706401
 10
-2.6725213051
 20
25.1171035558
 10
-2.6560431666
 20
25.0971441151
 10
-2.6406836965
 20
25.076327631
 10
-2.6267008596
 20
25.0550037723
 10
-2.6143294669
 20
25.0335306705
 10
-2.603777293
 20
25.0122689946
 10
-2.5952215724
 20
24.9915758952
 10
-2.5888059888
 20
24.971798945
  0
LWPOLYLINE
  5
531
100
AcDbEntity
  8
284
100
AcDbPolyline
 62
250
  6
CONTINUOUS
 90
13
 70
0
 10
17.9515422827
 20
11.4569144557
 10
17.9383939019
 20
11.4704471818
 10
17.9259041463
 20
11.4852870349
 10
17.9142025704
 20
11.5012810595
 10
17.9034101355
 20
11.5182651382
 10
17.8936396598
 20
11.5360630473
 10
17.8849940874
 20
11.5544878883
 10
17.8775633092
 20
11.5733478568
 10
17.8714237949
 20
11.5924485926
 10
17.8666391214
 20
11.6115922996
 10
17.8632588363
 20
11.630580737
 10
17.8613179436
 20
11.6492172715
 10
17.8608365421
 20
11.6673089143
  0
LWPOLYLINE
  5
532
100
AcDbEntity
  8
284
100
AcDbPolyline
 62
250
  6
CONTINUOUS
 90
13
 70
0
 10
17.9515422827
 20
11.4569144556
 10
17.9837659701
 20
11.4227403411
 10
18.0143424302
 20
11.3853027467
 10
18.0429549185
 20
11.3449894919
 10
18.0693070358
 20
11.3022181854
 10
18.0931257979
 20
11.257431899
 10
18.1141644642
 20
11.2110945781
 10
18.1322050933
 20
11.1636862352
 10
18.1470608005
 20
11.1156979775
 10
18.1585776943
 20
11.0676269199
 10
18.16663647
 20
11.0199710349
 10
18.1711536462
 20
10.9732239941
 10
18.172082429
 20
10.9278700543
  0
LWPOLYLINE
  5
533
100
AcDbEntity
  8
268
100
AcDbPolyline
 62
7
  6
CONTINUOUS
 90
20
 70
0
 10
8.6698897087
 20
23.4553536719
 10
8.6684895571
 20
23.4574847367
 10
8.6667431308
 20
23.4597931841
 10
8.6646615209
 20
23.4622828231
 10
8.6622565565
 20
23.464960266
 10
8.6595364646
 20
23.4677954819
 10
8.6565115333
 20
23.4707920083
 10
8.653193032
 20
23.4739550865
 10
8.6495888751
 20
23.4772570789
 10
8.6457090182
 20
23.4807010617
 10
8.6415643467
 20
23.484291306
 10
8.637163114
 20
23.4880018056
 10
8.6325147754
 20
23.4918353975
 10
8.6276303215
 20
23.4957952711
 10
8.6225199331
 20
23.4998556914
 10
8.6171930581
 20
23.5040189067
 10
8.6116608547
 20
23.5082872781
 10
8.6059363835
 20
23.5126347776
 10
8.6000312001
 20
23.5170536598
 10
8.5877181485
 20
23.5261387494
  0
LINE
  5
534
100
AcDbEntity
  8
218140000
100
AcDbLine
 62
7
  6
CONTINUOUS
 10
10.0064138722
 20
21.6490883005
 11
9.2537197882
 21
22.9472935615
  0
LINE
  5
535
100
AcDbEntity
  8
218140080
100
AcDbLine
 62
7
  6
CONTINUOUS
 10
10.0064138722
 20
21.6490883005
 11
9.2537197882
 21
22.9472935615
  0
LWPOLYLINE
  5
536
100
AcDbEntity
  8
284
100
AcDbPolyline
 62
250
  6
CONTINUOUS
 90
5
 70
0
 10
17.4884798811
 20
12.06378105
 10
17.4966222123
 20
12.044733876
 10
17.5025181128
 20
12.0235620937
 10
17.5060878507
 20
12.0005520152
 10
17.5072831515
 20
11.9760148124
  0
LWPOLYLINE
  5
537
100
AcDbEntity
  8
284
100
AcDbPolyline
 62
7
  6
CONTINUOUS
 90
8
 70
0
 10
24.0039902731
 20
14.1248488957
 10
24.0010669813
 20
14.0726189353
 10
23.9939207787
 20
14.0250326183
 10
23.9825516655
 20
13.9820899446
 10
23.966687721
 20
13.9434942423
 10
23.9466008658
 20
13.9095421833
 10
23.9231068613
 20
13.8811237839
 10
23.9183020461
 20
13.8764131966
  0
LINE
  5
538
100
AcDbEntity
  8
284
100
AcDbLine
 62
250
  6
CONTINUOUS
 10
18.6390278433
 20
-27.3979633628
 11
18.641166628
 21
-27.3816475888
  0
LWPOLYLINE
  5
539
100
AcDbEntity
  8
284
100
AcDbPolyline
 62
250
  6
CONTINUOUS
 90
7
 70
0
 10
19.3482734091
 20
-27.7780941982
 10
19.3461346245
 20
-27.7944099722
 10
19.3397548657
 20
-27.8104465788
 10
19.3292432923
 20
-27.8259296272
 10
19.3147797601
 20
-27.8405941982
 10
19.2966117442
 20
-27.8541893768
 10
19.2750501044
 20
-27.8664825458
  0
LWPOLYLINE
  5
53A
100
AcDbEntity
  8
284
100
AcDbPolyline
 62
250
  6
CONTINUOUS
 90
7
 70
0
 10
19.3482734054
 20
-28.1294297266
 10
19.3459716649
 20
-28.1463313358
 10
19.3393669046
 20
-28.1624760037
 10
19.3286607204
 20
-28.1779408573
 10
19.3141592674
 20
-28.1924424788
 10
19.2961653244
 20
-28.2057933617
 10
19.2750501044
 20
-28.2177965179
  0
LWPOLYLINE
  5
53B
100
AcDbEntity
  8
284
100
AcDbPolyline
 62
250
  6
CONTINUOUS
 90
6
 70
0
 10
4.4980671941
 20
21.4523078912
 10
4.4788407081
 20
21.4584286115
 10
4.458101873
 20
21.4605849802
 10
4.4362055359
 20
21.4587401013
 10
4.4135263494
 20
21.4529255412
 10
4.3904523605
 20
21.4432407886
  0
LWPOLYLINE
  5
53C
100
AcDbEntity
  8
218140000
100
AcDbPolyline
 62
250
  6
CONTINUOUS
 90
8
 70
0
 10
-1.2970698059
 20
24.4608466743
 10
-1.315894479
 20
24.4679927348
 10
-1.3337481393
 20
24.4725493866
 10
-1.3503308833
 20
24.4744400873
 10
-1.3653641562
 20
24.4736330774
 10
-1.3785954308
 20
24.4701419129
 10
-1.3898024499
 20
24.4640252379
 10
-1.3938701769
 20
24.4606864344
  0
LWPOLYLINE
  5
53D
100
AcDbEntity
  8
218140080
100
AcDbPolyline
 62
250
  6
CONTINUOUS
 90
8
 70
0
 10
-1.2970698059
 20
24.4608466743
 10
-1.315894479
 20
24.4679927348
 10
-1.3337481393
 20
24.4725493866
 10
-1.3503308833
 20
24.4744400873
 10
-1.3653641562
 20
24.4736330774
 10
-1.3785954308
 20
24.4701419129
 10
-1.3898024499
 20
24.4640252379
 10
-1.3938701769
 20
24.4606864344
  0
LWPOLYLINE
  5
53E
100
AcDbEntity
  8
284
100
AcDbPolyline
 62
7
  6
CONTINUOUS
 90
6
 70
0
 10
4.5022557593
 20
21.4503412354
 10
4.4739691642
 20
21.4623708005
 10
4.4439819631
 20
21.4709357694
 10
4.4128073802
 20
21.4757329378
 10
4.3809027363
 20
21.4765519205
 10
4.3490178481
 20
21.4732768808
  0
LINE
  5
53F
100
AcDbEntity
  8
218140000
100
AcDbLine
 62
250
  6
CONTINUOUS
 10
-1.7321641265
 20
26.0269945704
 11
-1.7287232971
 21
26.0253813035
  0
LINE
  5
540
100
AcDbEntity
  8
218140080
100
AcDbLine
 62
250
  6
CONTINUOUS
 10
-1.7321641265
 20
26.0269945704
 11
-1.7287232971
 21
26.0253813035
  0
LINE
  5
541
100
AcDbEntity
  8
284
100
AcDbLine
 62
250
  6
CONTINUOUS
 10
4.5022557593
 20
21.4503412354
 11
4.4980671941
 21
21.4523078912
  0
LWPOLYLINE
  5
542
100
AcDbEntity
  8
284
100
AcDbPolyline
 62
250
  6
CONTINUOUS
 90
7
 70
0
 10
5.845756976
 20
20.778590627
 10
5.8420102471
 20
20.7803615244
 10
5.822712231
 20
20.786600096
 10
5.801886294
 20
20.7888311327
 10
5.7798965766
 20
20.7870208541
 10
5.7571216416
 20
20.7812053728
 10
5.7339552447
 20
20.7714893464
  0
LINE
  5
543
100
AcDbEntity
  8
284
100
AcDbLine
 62
7
  6
CONTINUOUS
 10
17.8571726186
 20
14.7726405863
 11
17.866735554
 21
14.7681011432
  0
LINE
  5
544
100
AcDbEntity
  8
268
100
AcDbLine
 62
250
  6
CONTINUOUS
 10
-11.6567517797
 20
29.3774826383
 11
-10.0365888899
 21
28.5674011934
  0
LINE
  5
545
100
AcDbEntity
  8
268
100
AcDbLine
 62
250
  6
CONTINUOUS
 10
1.7075663848
 20
22.6953235561
 11
3.3277292745
 21
21.8852421112
  0
LINE
  5
546
100
AcDbEntity
  8
268
100
AcDbLine
 62
7
  6
CONTINUOUS
 10
-11.5453341643
 20
29.3837512015
 11
-9.9264565861
 21
28.5743124124
  0
LINE
  5
547
100
AcDbEntity
  8
268
100
AcDbLine
 62
7
  6
CONTINUOUS
 10
1.8189840001
 20
22.7015921193
 11
3.4378615783
 21
21.8921533302
  0
LINE
  5
548
100
AcDbEntity
  8
284
100
AcDbLine
 62
250
  6
CONTINUOUS
 10
4.3904523605
 20
21.4432407886
 11
5.7339552447
 21
20.7714893464
  0
LINE
  5
549
100
AcDbEntity
  8
284
100
AcDbLine
 62
250
  6
CONTINUOUS
 10
17.7547705249
 20
14.7610817064
 11
19.0982734091
 21
14.0893302642
  0
LINE
  5
54A
100
AcDbEntity
  8
284
100
AcDbLine
 62
7
  6
CONTINUOUS
 10
4.5022557593
 20
21.4503412354
 11
5.8457586436
 21
20.7785897933
  0
LINE
  5
54B
100
AcDbEntity
  8
284
100
AcDbLine
 62
7
  6
CONTINUOUS
 10
17.8665739238
 20
14.7681821532
 11
19.210076808
 21
14.096430711
  0
LINE
  5
54C
100
AcDbEntity
  8
218140000
100
AcDbLine
 62
250
  6
CONTINUOUS
 10
-2.1759347742
 20
25.084059369
 11
-1.4175291756
 21
24.7048565696
  0
LINE
  5
54D
100
AcDbEntity
  8
218140080
100
AcDbLine
 62
250
  6
CONTINUOUS
 10
-2.1759347742
 20
25.084059369
 11
-1.4175291756
 21
24.7048565696
  0
LINE
  5
54E
100
AcDbEntity
  8
218140000
100
AcDbLine
 62
250
  6
CONTINUOUS
 10
-2.0734944267
 20
25.3017749524
 11
-1.315088828
 21
24.9225721531
  0
LINE
  5
54F
100
AcDbEntity
  8
218140080
100
AcDbLine
 62
250
  6
CONTINUOUS
 10
-2.0734944267
 20
25.3017749524
 11
-1.315088828
 21
24.9225721531
  0
LINE
  5
550
100
AcDbEntity
  8
218140000
100
AcDbLine
 62
7
  6
CONTINUOUS
 10
-2.7866814678
 20
25.9021263337
 11
-0.1997272821
 21
24.6086492409
  0
LINE
  5
551
100
AcDbEntity
  8
218140080
100
AcDbLine
 62
7
  6
CONTINUOUS
 10
-2.7866814678
 20
25.9021263337
 11
-0.1997272821
 21
24.6086492409
  0
LINE
  5
552
100
AcDbEntity
  8
218140000
100
AcDbLine
 62
250
  6
CONTINUOUS
 10
0.4076604343
 20
24.9080152446
 11
-1.8169390557
 21
26.0203149897
  0
LINE
  5
553
100
AcDbEntity
  8
218140080
100
AcDbLine
 62
250
  6
CONTINUOUS
 10
0.4076604343
 20
24.9080152446
 11
-1.8169390557
 21
26.0203149897
  0
LINE
  5
554
100
AcDbEntity
  8
218140000
100
AcDbLine
 62
7
  6
CONTINUOUS
 10
0.4571875262
 20
24.9324258923
 11
-1.7287304551
 21
26.025384883
  0
LINE
  5
555
100
AcDbEntity
  8
218140080
100
AcDbLine
 62
7
  6
CONTINUOUS
 10
0.4571875262
 20
24.9324258923
 11
-1.7287304551
 21
26.025384883
  0
LINE
  5
556
100
AcDbEntity
  8
268
100
AcDbLine
 62
7
  6
CONTINUOUS
 10
1.0037864823
 20
25.2018306576
 11
-1.7967319749
 21
26.6020898862
  0
LINE
  5
557
100
AcDbEntity
  8
268
100
AcDbLine
 62
7
  6
CONTINUOUS
 10
-2.1502853655
 20
27.3314247708
 11
-1.7967319749
 21
27.1546480755
  0
LWPOLYLINE
  5
558
100
AcDbEntity
  8
284
100
AcDbPolyline
 62
250
  6
CONTINUOUS
 90
13
 70
0
 10
19.0982734091
 20
14.0893302642
 10
19.121439806
 20
14.0758798937
 10
19.1442147411
 20
14.05892044
 10
19.1662044584
 20
14.0387410012
 10
19.1870303955
 20
14.0156840274
 10
19.2063284116
 20
13.9901474397
 10
19.2237570726
 20
13.9625805253
 10
19.2390457025
 20
13.9333947906
 10
19.2518879903
 20
13.9031559744
 10
19.2619997518
 20
13.8726034214
 10
19.2692506468
 20
13.8423368972
 10
19.2736045582
 20
13.8127895215
 10
19.2750501044
 20
13.7844355656
  0
LWPOLYLINE
  5
559
100
AcDbEntity
  8
284
100
AcDbPolyline
 62
250
  6
CONTINUOUS
 90
13
 70
0
 10
18.6621536477
 20
11.7920692094
 10
18.6485679628
 20
11.8055470949
 10
18.6356391978
 20
11.8204241113
 10
18.623507049
 20
11.8365395095
 10
18.6123026069
 20
11.8537191572
 10
18.6021469339
 20
11.8717774279
 10
18.5931497584
 20
11.8905192081
 10
18.5854082954
 20
11.9097419946
 10
18.5790061948
 20
11.9292380799
 10
18.574012633
 20
11.9487968054
 10
18.5704815669
 20
11.9682068361
 10
18.5684511504
 20
11.9872584445
 10
18.5679433233
 20
12.0057457752
  0
LWPOLYLINE
  5
55A
100
AcDbEntity
  8
284
100
AcDbPolyline
 62
250
  6
CONTINUOUS
 90
13
 70
0
 10
18.6621538535
 20
11.792070107
 10
18.6954454922
 20
11.7580470168
 10
18.7271001173
 20
11.7205271607
 10
18.756775497
 20
11.6799161739
 10
18.7841507993
 20
11.6366531111
 10
18.8089300605
 20
11.5912057001
 10
18.8308453853
 20
11.544065285
 10
18.849659843
 20
11.4957415144
 10
18.8651700297
 20
11.4467568317
 10
18.8772082671
 20
11.3976408263
 10
18.8856444155
 20
11.3489245087
 10
18.890387281
 20
11.3011345694
 10
18.8913856014
 20
11.254787685
  0
LWPOLYLINE
  5
55B
100
AcDbEntity
  8
284
100
AcDbPolyline
 62
7
  6
CONTINUOUS
 90
4
 70
0
 10
18.6531745347
 20
12.0459447336
 10
18.6535187021
 20
12.0455888876
 10
18.653340729
 20
12.0458427341
 10
18.6513459555
 20
12.0488093052
  0
LWPOLYLINE
  5
55C
100
AcDbEntity
  8
268
100
AcDbPolyline
 62
7
  6
CONTINUOUS
 90
17
 70
0
 10
8.6706066274
 20
24.0581114954
 10
8.6369693336
 20
24.0941736459
 10
8.6032857455
 20
24.1288123055
 10
8.5695558632
 20
24.1620274743
 10
8.5357109614
 20
24.1938347783
 10
8.5018197654
 20
24.2242185914
 10
8.4680884504
 20
24.2531320355
 10
8.434536655
 20
24.2805512108
 10
8.4011447406
 20
24.3065000171
 10
8.3680599665
 20
24.3310032756
 10
8.3352976531
 20
24.3540469825
 10
8.30284248
 20
24.3756451416
 10
8.2707957454
 20
24.3958645856
 10
8.2391686058
 20
24.4146984996
 10
8.2079499048
 20
24.4321536986
 10
8.1772074704
 20
24.4483174601
 10
8.1699348385
 20
24.4519939071
  0
LWPOLYLINE
  5
55D
100
AcDbEntity
  8
284
100
AcDbPolyline
 62
250
  6
CONTINUOUS
 90
7
 70
0
 10
18.8261202285
 20
11.9667427692
 10
18.8145809103
 20
11.9862655159
 10
18.7997090733
 20
12.0049975085
 10
18.7815047174
 20
12.022938747
 10
18.7599678426
 20
12.0400892314
 10
18.735098449
 20
12.0564489618
 10
18.7068965365
 20
12.072017938
  0
LWPOLYLINE
  5
55E
100
AcDbEntity
  8
284
100
AcDbPolyline
 62
250
  6
CONTINUOUS
 90
6
 70
0
 10
19.2750501044
 20
13.4331215936
 10
19.285013738
 20
13.4152958552
 10
19.2918396998
 20
13.3992276065
 10
19.2953907585
 20
13.3852020288
 10
19.2955831375
 20
13.3734646894
 10
19.2923871382
 20
13.3642440188
  0
LWPOLYLINE
  5
55F
100
AcDbEntity
  8
284
100
AcDbPolyline
 62
250
  6
CONTINUOUS
 90
7
 70
0
 10
18.7447200186
 20
12.7929565506
 10
18.7547446639
 20
12.7750075614
 10
18.7615730865
 20
12.7588780334
 10
18.7650884501
 20
12.7448439475
 10
18.765230606
 20
12.7331454307
 10
18.7619971218
 20
12.7239826479
 10
18.7604623614
 20
12.7218569051
  0
LWPOLYLINE
  5
560
100
AcDbEntity
  8
284
100
AcDbPolyline
 62
7
  6
CONTINUOUS
 90
5
 70
0
 10
18.6513459555
 20
12.0488093052
 10
18.6483618197
 20
12.0544794418
 10
18.6453085734
 20
12.0623435597
 10
18.6427433142
 20
12.072393442
 10
18.6413025453
 20
12.0842096741
  0
LINE
  5
561
100
AcDbEntity
  8
218140000
100
AcDbLine
 62
7
  6
CONTINUOUS
 10
13.0788578882
 20
27.4432155207
 11
13.0879733469
 21
27.4193217197
  0
LINE
  5
562
100
AcDbEntity
  8
218140080
100
AcDbLine
 62
7
  6
CONTINUOUS
 10
13.0788578882
 20
27.4432155207
 11
13.0879733469
 21
27.4193217197
  0
LINE
  5
563
100
AcDbEntity
  8
284
100
AcDbLine
 62
7
  6
CONTINUOUS
 10
24.0039902731
 20
15.0198117592
 11
24.0039902731
 21
14.1248488957
  0
LINE
  5
564
100
AcDbEntity
  8
284
100
AcDbLine
 62
7
  6
CONTINUOUS
 10
24.0039902731
 20
-18.7914610023
 11
24.0039902731
 21
-20.4332369924
  0
LINE
  5
565
100
AcDbEntity
  8
284
100
AcDbLine
 62
7
  6
CONTINUOUS
 10
24.7377677281
 20
15.6814516437
 11
24.7377677281
 21
15.3997361583
  0
LINE
  5
566
100
AcDbEntity
  8
284
100
AcDbLine
 62
7
  6
CONTINUOUS
 10
24.7377677281
 20
-20.8001257199
 11
24.7377677281
 21
-21.0818412053
  0
LWPOLYLINE
  5
567
100
AcDbEntity
  8
218140000
100
AcDbPolyline
 62
7
  6
CONTINUOUS
 90
3
 70
0
 10
-2.8428381783
 20
25.9162588807
 10
-2.8331581679
 20
25.9159214667
 10
-2.8227469715
 20
25.9144665961
  0
LWPOLYLINE
  5
568
100
AcDbEntity
  8
218140080
100
AcDbPolyline
 62
7
  6
CONTINUOUS
 90
3
 70
0
 10
-2.8428381783
 20
25.9162588807
 10
-2.8331581679
 20
25.9159214667
 10
-2.8227469715
 20
25.9144665961
  0
LWPOLYLINE
  5
569
100
AcDbEntity
  8
218140000
100
AcDbPolyline
 62
7
  6
CONTINUOUS
 90
10
 70
0
 10
-1.8541675785
 20
26.0572616399
 10
-1.9352900369
 20
26.0689819946
 10
-2.017563656
 20
26.0768852458
 10
-2.1003567175
 20
26.0809742093
 10
-2.1832358883
 20
26.0812725065
 10
-2.2659657183
 20
26.0777805111
 10
-2.3480164646
 20
26.0704849135
 10
-2.4288488962
 20
26.0593806145
 10
-2.5082470994
 20
26.0444005617
 10
-2.5857979296
 20
26.0254637126
  0
LWPOLYLINE
  5
56A
100
AcDbEntity
  8
218140080
100
AcDbPolyline
 62
7
  6
CONTINUOUS
 90
10
 70
0
 10
-1.8541675785
 20
26.0572616399
 10
-1.9352900369
 20
26.0689819946
 10
-2.017563656
 20
26.0768852458
 10
-2.1003567175
 20
26.0809742093
 10
-2.1832358883
 20
26.0812725065
 10
-2.2659657183
 20
26.0777805111
 10
-2.3480164646
 20
26.0704849135
 10
-2.4288488962
 20
26.0593806145
 10
-2.5082470994
 20
26.0444005617
 10
-2.5857979296
 20
26.0254637126
  0
LWPOLYLINE
  5
56B
100
AcDbEntity
  8
268
100
AcDbPolyline
 62
7
  6
CONTINUOUS
 90
13
 70
0
 10
7.9236197389
 20
24.539371379
 10
7.888968929
 20
24.5458010601
 10
7.8537647059
 20
24.5511842129
 10
7.818044854
 20
24.5555463538
 10
7.7818195371
 20
24.5589402769
 10
7.745151799
 20
24.5613700266
 10
7.7081555891
 20
24.5627812557
 10
7.6708685542
 20
24.5631913907
 10
7.6333175723
 20
24.5626275091
 10
7.5955968714
 20
24.561035521
 10
7.5577574967
 20
24.55840643
 10
7.5198083105
 20
24.5547844488
 10
7.481778871
 20
24.5501896593
  0
LWPOLYLINE
  5
56C
100
AcDbEntity
  8
218140000
100
AcDbPolyline
 62
250
  6
CONTINUOUS
 90
13
 70
0
 10
-1.8169390557
 20
26.0203149897
 10
-1.8866612857
 20
26.0338897344
 10
-1.9574030846
 20
26.0441532355
 10
-2.0291644524
 20
26.0511054931
 10
-2.1026038287
 20
26.0547558677
 10
-2.177062774
 20
26.0550949987
 10
-2.2505659698
 20
26.0520948041
 10
-2.32309048
 20
26.0456502424
 10
-2.3946592407
 20
26.0358663551
 10
-2.4633657419
 20
26.0230301846
 10
-2.5285744803
 20
26.0072374117
 10
-2.5909209593
 20
25.9883923557
 10
-2.6504051787
 20
25.9664950165
  0
LWPOLYLINE
  5
56D
100
AcDbEntity
  8
218140080
100
AcDbPolyline
 62
250
  6
CONTINUOUS
 90
13
 70
0
 10
-1.8169390557
 20
26.0203149897
 10
-1.8866612857
 20
26.0338897344
 10
-1.9574030846
 20
26.0441532355
 10
-2.0291644524
 20
26.0511054931
 10
-2.1026038287
 20
26.0547558677
 10
-2.177062774
 20
26.0550949987
 10
-2.2505659698
 20
26.0520948041
 10
-2.32309048
 20
26.0456502424
 10
-2.3946592407
 20
26.0358663551
 10
-2.4633657419
 20
26.0230301846
 10
-2.5285744803
 20
26.0072374117
 10
-2.5909209593
 20
25.9883923557
 10
-2.6504051787
 20
25.9664950165
  0
LINE
  5
56E
100
AcDbEntity
  8
218140000
100
AcDbLine
 62
7
  6
CONTINUOUS
 10
-1.7747438865
 20
26.0417272527
 11
-1.8541675785
 21
26.0572616399
  0
LINE
  5
56F
100
AcDbEntity
  8
218140080
100
AcDbLine
 62
7
  6
CONTINUOUS
 10
-1.7747438865
 20
26.0417272527
 11
-1.8541675785
 21
26.0572616399
  0
LINE
  5
570
100
AcDbEntity
  8
268
100
AcDbLine
 62
7
  6
CONTINUOUS
 10
-11.6316869738
 20
26.670499875
 11
-12.2540050059
 21
26.8004404575
  0
LWPOLYLINE
  5
571
100
AcDbEntity
  8
218140000
100
AcDbPolyline
 62
250
  6
CONTINUOUS
 90
4
 70
0
 10
-2.1928719138
 20
25.3404042491
 10
-2.1507487784
 20
25.3308533663
 10
-2.1109562827
 20
25.3179769341
 10
-2.0734944267
 20
25.3017749524
  0
LWPOLYLINE
  5
572
100
AcDbEntity
  8
218140080
100
AcDbPolyline
 62
250
  6
CONTINUOUS
 90
4
 70
0
 10
-2.1928719138
 20
25.3404042491
 10
-2.1507487784
 20
25.3308533663
 10
-2.1109562827
 20
25.3179769341
 10
-2.0734944267
 20
25.3017749524
  0
LWPOLYLINE
  5
573
100
AcDbEntity
  8
218140000
100
AcDbPolyline
 62
7
  6
CONTINUOUS
 90
4
 70
0
 10
-2.8227469715
 20
25.9144665961
 10
-2.8116259318
 20
25.9117893697
 10
-2.7998094908
 20
25.9078121932
 10
-2.7873403422
 20
25.9024557709
  0
LWPOLYLINE
  5
574
100
AcDbEntity
  8
218140080
100
AcDbPolyline
 62
7
  6
CONTINUOUS
 90
4
 70
0
 10
-2.8227469715
 20
25.9144665961
 10
-2.8116259318
 20
25.9117893697
 10
-2.7998094908
 20
25.9078121932
 10
-2.7873403422
 20
25.9024557709
  0
LWPOLYLINE
  5
575
100
AcDbEntity
  8
218140000
100
AcDbPolyline
 62
7
  6
CONTINUOUS
 90
7
 70
0
 10
-1.7747507441
 20
26.0417287771
 10
-1.7668900614
 20
26.0398127716
 10
-1.7577940084
 20
26.0371676286
 10
-1.7488306248
 20
26.0340937166
 10
-1.7400103417
 20
26.0305933654
 10
-1.7313528803
 20
26.0266722399
 10
-1.7287123221
 20
26.0253758134
  0
LWPOLYLINE
  5
576
100
AcDbEntity
  8
218140080
100
AcDbPolyline
 62
7
  6
CONTINUOUS
 90
7
 70
0
 10
-1.7747507441
 20
26.0417287771
 10
-1.7668900614
 20
26.0398127716
 10
-1.7577940084
 20
26.0371676286
 10
-1.7488306248
 20
26.0340937166
 10
-1.7400103417
 20
26.0305933654
 10
-1.7313528803
 20
26.0266722399
 10
-1.7287123221
 20
26.0253758134
  0
LINE
  5
577
100
AcDbEntity
  8
715
100
AcDbLine
 62
7
  6
CONTINUOUS
 10
11.1757359402
 20
23.9983490016
 11
10.7259912788
 21
24.1200968348
  0
LWPOLYLINE
  5
578
100
AcDbEntity
  8
268
100
AcDbPolyline
 62
7
  6
CONTINUOUS
 90
18
 70
0
 10
0.701101
 20
28.1863886002
 10
0.6815389157
 20
28.1954783333
 10
0.6586431355
 20
28.2044637479
 10
0.6351338492
 20
28.2119659807
 10
0.6109925271
 20
28.2180001505
 10
0.5863027738
 20
28.2225459349
 10
0.5610413475
 20
28.2255999183
 10
0.5352314901
 20
28.2271655163
 10
0.5090265312
 20
28.2272326529
 10
0.4824425686
 20
28.2257938769
 10
0.4554635046
 20
28.2228566396
 10
0.4281943759
 20
28.2184332183
 10
0.4006201963
 20
28.2125148327
 10
0.372755952
 20
28.2051102632
 10
0.3447516389
 20
28.1962581286
 10
0.3166572557
 20
28.1859713019
 10
0.2884228037
 20
28.1742369101
 10
0.260048283
 20
28.1610549533
  0
LWPOLYLINE
  5
579
100
AcDbEntity
  8
284
100
AcDbPolyline
 62
7
  6
CONTINUOUS
 90
12
 70
0
 10
14.2660567566
 20
20.7981764871
 10
14.2576573896
 20
20.8021233921
 10
14.2388836633
 20
20.8092260686
 10
14.219260476
 20
20.8143469866
 10
14.1987985715
 20
20.8175112108
 10
14.1777589487
 20
20.8186783806
 10
14.156134207
 20
20.8178229139
 10
14.1339317469
 20
20.8149703928
 10
14.1114347685
 20
20.8101572021
 10
14.0887376718
 20
20.8033954701
 10
14.0657460569
 20
20.7946730685
 10
14.0424599237
 20
20.7839899973
  0
LWPOLYLINE
  5
57A
100
AcDbEntity
  8
284
100
AcDbPolyline
 62
7
  6
CONTINUOUS
 90
12
 70
0
 10
16.6109585481
 20
20.1557475
 10
16.599866737
 20
20.1610735043
 10
16.5630176533
 20
20.1757399553
 10
16.5244805189
 20
20.1865401457
 10
16.4842762195
 20
20.1935219111
 10
16.4429063249
 20
20.1965981506
 10
16.4003562329
 20
20.195719937
 10
16.3566405456
 20
20.1909361973
 10
16.3123046393
 20
20.1823066112
 10
16.267530306
 20
20.169851072
 10
16.2221357536
 20
20.1535496864
 10
16.1761209822
 20
20.1334024543
  0
LWPOLYLINE
  5
57B
100
AcDbEntity
  8
268
100
AcDbPolyline
 62
7
  6
CONTINUOUS
 90
10
 70
0
 10
8.1699348385
 20
24.4519939071
 10
8.1469551594
 20
24.4631853393
 10
8.117179115
 20
24.476761781
 10
8.0879055959
 20
24.4891473978
 10
8.059115588
 20
24.5003491943
 10
8.0308281053
 20
24.5103601658
 10
8.0031264489
 20
24.5192599103
 10
7.9760383859
 20
24.5270749603
 10
7.9495361493
 20
24.5337787832
 10
7.9236197389
 20
24.539371379
  0
LINE
  5
57C
100
AcDbEntity
  8
284
100
AcDbLine
 62
7
  6
CONTINUOUS
 10
17.8011568745
 20
17.7135910045
 11
15.0236161448
 21
19.1023613694
  0
LINE
  5
57D
100
AcDbEntity
  8
268
100
AcDbLine
 62
7
  6
CONTINUOUS
 10
2.4116021786
 20
25.895707316
 11
-0.3989474684
 21
27.3009821395
  0
LINE
  5
57E
100
AcDbEntity
  8
218140000
100
AcDbLine
 62
7
  6
CONTINUOUS
 10
9.2537197882
 20
22.9472935615
 11
8.4659311405
 21
23.3411878854
  0
LINE
  5
57F
100
AcDbEntity
  8
218140080
100
AcDbLine
 62
7
  6
CONTINUOUS
 10
9.2537197882
 20
22.9472935615
 11
8.4659311405
 21
23.3411878854
  0
LINE
  5
580
100
AcDbEntity
  8
284
100
AcDbLine
 62
250
  6
CONTINUOUS
 10
19.5980583371
 20
18.0061907906
 11
18.992207392
 21
18.3091162632
  0
LINE
  5
581
100
AcDbEntity
  8
284
100
AcDbLine
 62
250
  6
CONTINUOUS
 10
14.0424599237
 20
20.7839899973
 11
13.4366089786
 21
21.0869154699
  0
LINE
  5
582
100
AcDbEntity
  8
268
100
AcDbLine
 62
7
  6
CONTINUOUS
 10
0.9609844717
 20
27.3747303269
 11
3.1707253599
 21
26.2698598828
  0
LINE
  5
583
100
AcDbEntity
  8
268
100
AcDbLine
 62
7
  6
CONTINUOUS
 10
3.916310183
 20
25.8970674712
 11
4.0621235931
 21
25.8241607662
  0
LINE
  5
584
100
AcDbEntity
  8
284
100
AcDbLine
 62
7
  6
CONTINUOUS
 10
16.8708870484
 20
19.4197790385
 11
19.0478323601
 21
18.3313063827
  0
LINE
  5
585
100
AcDbEntity
  8
284
100
AcDbLine
 62
7
  6
CONTINUOUS
 10
19.9269273446
 20
17.8917588904
 11
20.044520764
 21
17.8329621807
  0
LINE
  5
586
100
AcDbEntity
  8
284
100
AcDbLine
 62
7
  6
CONTINUOUS
 10
19.8203834481
 20
18.0210325276
 11
19.2158141897
 21
18.3233171568
  0
LINE
  5
587
100
AcDbEntity
  8
284
100
AcDbLine
 62
7
  6
CONTINUOUS
 10
14.2660667214
 20
20.7981908909
 11
13.6614974631
 21
21.1004755201
  0
LINE
  5
588
100
AcDbEntity
  8
268
100
AcDbLine
 62
7
  6
CONTINUOUS
 10
-1.9064732739
 20
29.0717028794
 11
-1.7260212968
 21
28.9814768909
  0
LINE
  5
589
100
AcDbEntity
  8
268
100
AcDbLine
 62
7
  6
CONTINUOUS
 10
3.6479902402
 20
26.2944711224
 11
3.8284422174
 21
26.2042451338
  0
LINE
  5
58A
100
AcDbEntity
  8
284
100
AcDbLine
 62
250
  6
CONTINUOUS
 10
13.0119204673
 20
21.7155027118
 11
16.1761209822
 21
20.1334024543
  0
LINE
  5
58B
100
AcDbEntity
  8
284
100
AcDbLine
 62
250
  6
CONTINUOUS
 10
20.4187616693
 20
18.0120821108
 11
23.5829621841
 21
16.4299818534
  0
LINE
  5
58C
100
AcDbEntity
  8
268
100
AcDbLine
 62
250
  6
CONTINUOUS
 10
-2.719041618
 20
29.6505999038
 11
0.260048283
 21
28.1610549533
  0
LINE
  5
58D
100
AcDbEntity
  8
268
100
AcDbLine
 62
250
  6
CONTINUOUS
 10
4.5026889701
 20
26.0397346098
 11
7.481778871
 21
24.5501896593
  0
LINE
  5
58E
100
AcDbEntity
  8
284
100
AcDbLine
 62
7
  6
CONTINUOUS
 10
13.2860866043
 20
21.8182194132
 11
16.6109938627
 21
20.155765784
  0
LINE
  5
58F
100
AcDbEntity
  8
284
100
AcDbLine
 62
7
  6
CONTINUOUS
 10
20.8536345498
 20
18.0344454404
 11
24.1785418082
 21
16.3719918112
  0
LINE
  5
590
100
AcDbEntity
  8
268
100
AcDbLine
 62
7
  6
CONTINUOUS
 10
4.9437319731
 20
26.0650840764
 11
8.1702218653
 21
24.4518391303
  0
LINE
  5
591
100
AcDbEntity
  8
715
100
AcDbLine
 62
7
  6
CONTINUOUS
 10
10.231016532
 20
23.8726094613
 11
9.5240475919
 21
24.2260939314
  0
LINE
  5
592
100
AcDbEntity
  8
715
100
AcDbLine
 62
7
  6
CONTINUOUS
 10
10.231016532
 20
23.8726094613
 11
10.444908986
 21
23.6750761937
  0
LWPOLYLINE
  5
593
100
AcDbEntity
  8
218140000
100
AcDbPolyline
 62
250
  6
CONTINUOUS
 90
35
 70
0
 10
18.6100796469
 20
21.0397530864
 10
18.6216771733
 20
21.0028781659
 10
18.6416146807
 20
20.9299642944
 10
18.6579286778
 20
20.858992544
 10
18.6715244381
 20
20.789926209
 10
18.6825821949
 20
20.7229473397
 10
18.6911095699
 20
20.6580238383
 10
18.6977092513
 20
20.5947722751
 10
18.7025216653
 20
20.5332135868
 10
18.7055412047
 20
20.4734187811
 10
18.7071133428
 20
20.4150600762
 10
18.7073295217
 20
20.3580893468
 10
18.7061985747
 20
20.3026129534
 10
18.7039207466
 20
20.2485248516
 10
18.7005596011
 20
20.1958103381
 10
18.696137025
 20
20.1445242137
 10
18.6907821079
 20
20.0946602772
 10
18.6845533684
 20
20.0462440336
 10
18.6774696003
 20
19.9992780788
 10
18.6695955166
 20
19.9537190336
 10
18.6609888324
 20
19.9095824076
 10
18.6516597968
 20
19.8668712975
 10
18.6415978783
 20
19.8255212693
 10
18.6308482866
 20
19.7854937124
 10
18.6194247319
 20
19.7468386764
 10
18.6072687626
 20
19.7096230003
 10
18.594416319
 20
19.67379595
 10
18.5808864313
 20
19.6394152641
 10
18.5665992388
 20
19.6067097013
 10
18.5515877809
 20
19.5756420564
 10
18.5358716826
 20
19.5462544118
 10
18.5193565983
 20
19.5188945415
 10
18.5020283203
 20
19.4936802782
 10
18.4839474853
 20
19.4704993023
 10
18.4651316564
 20
19.4493547692
  0
LWPOLYLINE
  5
594
100
AcDbEntity
  8
218140080
100
AcDbPolyline
 62
250
  6
CONTINUOUS
 90
35
 70
0
 10
18.6100796469
 20
21.0397530864
 10
18.6216771733
 20
21.0028781659
 10
18.6416146807
 20
20.9299642944
 10
18.6579286778
 20
20.858992544
 10
18.6715244381
 20
20.789926209
 10
18.6825821949
 20
20.7229473397
 10
18.6911095699
 20
20.6580238383
 10
18.6977092513
 20
20.5947722751
 10
18.7025216653
 20
20.5332135868
 10
18.7055412047
 20
20.4734187811
 10
18.7071133428
 20
20.4150600762
 10
18.7073295217
 20
20.3580893468
 10
18.7061985747
 20
20.3026129534
 10
18.7039207466
 20
20.2485248516
 10
18.7005596011
 20
20.1958103381
 10
18.696137025
 20
20.1445242137
 10
18.6907821079
 20
20.0946602772
 10
18.6845533684
 20
20.0462440336
 10
18.6774696003
 20
19.9992780788
 10
18.6695955166
 20
19.9537190336
 10
18.6609888324
 20
19.9095824076
 10
18.6516597968
 20
19.8668712975
 10
18.6415978783
 20
19.8255212693
 10
18.6308482866
 20
19.7854937124
 10
18.6194247319
 20
19.7468386764
 10
18.6072687626
 20
19.7096230003
 10
18.594416319
 20
19.67379595
 10
18.5808864313
 20
19.6394152641
 10
18.5665992388
 20
19.6067097013
 10
18.5515877809
 20
19.5756420564
 10
18.5358716826
 20
19.5462544118
 10
18.5193565983
 20
19.5188945415
 10
18.5020283203
 20
19.4936802782
 10
18.4839474853
 20
19.4704993023
 10
18.4651316564
 20
19.4493547692
  0
LWPOLYLINE
  5
595
100
AcDbEntity
  8
284
100
AcDbPolyline
 62
250
  6
CONTINUOUS
 90
13
 70
0
 10
18.7447200186
 20
-27.7566475888
 10
18.7547446639
 20
-27.7256492559
 10
18.7615730865
 20
-27.693668964
 10
18.7650884501
 20
-27.6612539047
 10
18.765230606
 20
-27.6289587087
 10
18.7619971218
 20
-27.5973359556
 10
18.7554433233
 20
-27.5669267196
 10
18.7456813478
 20
-27.5382513112
 10
18.7328782254
 20
-27.5118003745
 10
18.7172530211
 20
-27.4880264924
 10
18.6990730865
 20
-27.4673364426
 10
18.6786494853
 20
-27.4500842375
 10
18.6563316709
 20
-27.4365650673
  0
LWPOLYLINE
  5
596
100
AcDbEntity
  8
284
100
AcDbPolyline
 62
250
  6
CONTINUOUS
 90
5
 70
0
 10
19.2750501044
 20
-27.8664825458
 10
19.285013738
 20
-27.835711873
 10
19.2918396998
 20
-27.8038975033
 10
19.2953907585
 20
-27.7715736558
 10
19.2955831375
 20
-27.7392654051
  0
LWPOLYLINE
  5
597
100
AcDbEntity
  8
284
100
AcDbPolyline
 62
7
  6
CONTINUOUS
 90
5
 70
0
 10
19.3250773743
 20
-28.2345743318
 10
19.3373397007
 20
-28.2025334617
 10
19.3451656307
 20
-28.1687039721
 10
19.348229214
 20
-28.134108769
 10
19.3482734054
 20
-28.1294297266
  0
LWPOLYLINE
  5
598
100
AcDbEntity
  8
284
100
AcDbPolyline
 62
7
  6
CONTINUOUS
 90
4
 70
0
 10
16.0360265339
 20
-27.2678016892
 10
16.0213401439
 20
-27.2949551084
 10
16.0054868258
 20
-27.3207782809
 10
15.9886945652
 20
-27.3450105221
  0
LINE
  5
599
100
AcDbEntity
  8
284
100
AcDbLine
 62
250
  6
CONTINUOUS
 10
14.9034312191
 20
-23.0838468965
 11
15.830071068
 21
-22.6558939065
  0
LINE
  5
59A
100
AcDbEntity
  8
284
100
AcDbLine
 62
7
  6
CONTINUOUS
 10
14.8854253118
 20
-23.3026667285
 11
15.7295272617
 21
-22.9128324755
  0
LINE
  5
59B
100
AcDbEntity
  8
268
100
AcDbLine
 62
7
  6
CONTINUOUS
 10
-0.3989474684
 20
27.3009821395
 11
0.9609844717
 21
27.3747303269
  0
LWPOLYLINE
  5
59C
100
AcDbEntity
  8
715
100
AcDbPolyline
 62
7
  6
CONTINUOUS
 90
9
 70
0
 10
12.5687987389
 20
24.6651962313
 10
12.5626819984
 20
24.666795729
 10
12.5529117846
 20
24.6683285429
 10
12.5425855892
 20
24.6687439873
 10
12.531798392
 20
24.6680422148
 10
12.5208351331
 20
24.6662236835
 10
12.5097907924
 20
24.6632885459
 10
12.4985703899
 20
24.6592366496
 10
12.4871739256
 20
24.6540679943
  0
LWPOLYLINE
  5
59D
100
AcDbEntity
  8
715
100
AcDbPolyline
 62
7
  6
CONTINUOUS
 90
28
 70
0
 10
12.5687886027
 20
24.6651722789
 10
12.4600732561
 20
24.6964581247
 10
12.3452182132
 20
24.7258118017
 10
12.2279567892
 20
24.7521388719
 10
12.1085836244
 20
24.7754009636
 10
11.9873632527
 20
24.7955715164
 10
11.8645338833
 20
24.8126307917
 10
11.7403850859
 20
24.8265546333
 10
11.6152016228
 20
24.8373253023
 10
11.4892211053
 20
24.844932702
 10
11.3627347192
 20
24.8493660807
 10
11.2360319962
 20
24.8506206354
 10
11.1093502508
 20
24.8486958623
 10
10.982978981
 20
24.8435945273
 10
10.8572093904
 20
24.8353253151
 10
10.7322797911
 20
24.8238974397
 10
10.6084809165
 20
24.8093276074
 10
10.4860961641
 20
24.7916375858
 10
10.3653477279
 20
24.7708434105
 10
10.2465128068
 20
24.7469718105
 10
10.1298769834
 20
24.7200567587
 10
10.0156654103
 20
24.6901219914
 10
9.9041502321
 20
24.6572048875
 10
9.7956040357
 20
24.6213482527
 10
9.6902371442
 20
24.5825766351
 10
9.5882903617
 20
24.5409238267
 10
9.4900442243
 20
24.4964430522
 10
9.3957601631
 20
24.4491856628
  0
LWPOLYLINE
  5
59E
100
AcDbEntity
  8
715
100
AcDbPolyline
 62
7
  6
CONTINUOUS
 90
3
 70
0
 10
12.5808394207
 20
24.6603784507
 10
12.5719912104
 20
24.6641456983
 10
12.5687987389
 20
24.6651962313
  0
LINE
  5
59F
100
AcDbEntity
  8
715
100
AcDbLine
 62
7
  6
CONTINUOUS
 10
10.7259912788
 20
24.1200968348
 11
10.0190223387
 21
24.4735813048
  0
LINE
  5
5A0
100
AcDbEntity
  8
218140000
100
AcDbLine
 62
7
  6
CONTINUOUS
 10
9.7585275664
 20
24.956226946
 11
9.3199170939
 21
25.1755321823
  0
LINE
  5
5A1
100
AcDbEntity
  8
218140080
100
AcDbLine
 62
7
  6
CONTINUOUS
 10
9.7585275664
 20
24.956226946
 11
9.3199170939
 21
25.1755321823
  0
LINE
  5
5A2
100
AcDbEntity
  8
218140000
100
AcDbLine
 62
7
  6
CONTINUOUS
 10
13.9884405464
 20
24.7164905714
 11
13.2619431576
 21
25.0797392658
  0
LINE
  5
5A3
100
AcDbEntity
  8
218140080
100
AcDbLine
 62
7
  6
CONTINUOUS
 10
13.9884405464
 20
24.7164905714
 11
13.2619431576
 21
25.0797392658
  0
LINE
  5
5A4
100
AcDbEntity
  8
218140000
100
AcDbLine
 62
7
  6
CONTINUOUS
 10
13.805610886
 20
24.8235652542
 11
13.501491502
 21
24.9756249462
  0
LINE
  5
5A5
100
AcDbEntity
  8
218140080
100
AcDbLine
 62
7
  6
CONTINUOUS
 10
13.805610886
 20
24.8235652542
 11
13.501491502
 21
24.9756249462
  0
LINE
  5
5A6
100
AcDbEntity
  8
715
100
AcDbLine
 62
7
  6
CONTINUOUS
 10
13.4293675581
 20
24.236114382
 11
13.5421424433
 21
24.1796220559
  0
LWPOLYLINE
  5
5A7
100
AcDbEntity
  8
715
100
AcDbPolyline
 62
7
  6
CONTINUOUS
 90
10
 70
0
 10
13.3914234908
 20
24.248782037
 10
13.2939464371
 20
24.2988374687
 10
13.1983332353
 20
24.3478133443
 10
13.1045838854
 20
24.3957096639
 10
13.0127128041
 20
24.4425278517
 10
12.9227055747
 20
24.4882664834
 10
12.8345189466
 20
24.5329212864
 10
12.7481385032
 20
24.5764908366
 10
12.6635786613
 20
24.618976558
 10
12.5808394207
 20
24.6603784507
  0
LWPOLYLINE
  5
5A8
100
AcDbEntity
  8
218140000
100
AcDbPolyline
 62
7
  6
CONTINUOUS
 90
10
 70
0
 10
13.805610886
 20
24.8235652542
 10
13.7741954316
 20
24.8416180664
 10
13.7421784543
 20
24.8593853688
 10
13.7095599541
 20
24.8768671614
 10
13.6763297634
 20
24.8940685281
 10
13.6424980498
 20
24.9109843849
 10
13.6080953165
 20
24.9275994802
 10
13.5731317314
 20
24.9439087303
 10
13.5375971265
 20
24.9599172189
 10
13.501491502
 20
24.9756249462
  0
LWPOLYLINE
  5
5A9
100
AcDbEntity
  8
218140080
100
AcDbPolyline
 62
7
  6
CONTINUOUS
 90
10
 70
0
 10
13.805610886
 20
24.8235652542
 10
13.7741954316
 20
24.8416180664
 10
13.7421784543
 20
24.8593853688
 10
13.7095599541
 20
24.8768671614
 10
13.6763297634
 20
24.8940685281
 10
13.6424980498
 20
24.9109843849
 10
13.6080953165
 20
24.9275994802
 10
13.5731317314
 20
24.9439087303
 10
13.5375971265
 20
24.9599172189
 10
13.501491502
 20
24.9756249462
  0
LINE
  5
5AA
100
AcDbEntity
  8
715
100
AcDbLine
 62
7
  6
CONTINUOUS
 10
13.3991819195
 20
24.2441955649
 11
13.3914234908
 21
24.248782037
  0
LWPOLYLINE
  5
5AB
100
AcDbEntity
  8
715
100
AcDbPolyline
 62
250
  6
CONTINUOUS
 90
5
 70
0
 10
13.4293675581
 20
24.236114382
 10
13.4538905484
 20
24.2156100036
 10
13.4782563101
 20
24.1943317392
 10
13.5023930603
 20
24.1722694619
 10
13.5105418877
 20
24.1644554923
  0
LWPOLYLINE
  5
5AC
100
AcDbEntity
  8
715
100
AcDbPolyline
 62
250
  6
CONTINUOUS
 90
4
 70
0
 10
13.335730959
 20
24.2298183736
 10
13.3585913884
 20
24.2102396401
 10
13.3811689267
 20
24.1898865936
 10
13.4034635739
 20
24.168759234
  0
LINE
  5
5AD
100
AcDbEntity
  8
715
100
AcDbLine
 62
250
  6
CONTINUOUS
 10
13.4034635739
 20
24.168759234
 11
13.4255090722
 21
24.146929347
  0
LINE
  5
5AE
100
AcDbEntity
  8
715
100
AcDbLine
 62
250
  6
CONTINUOUS
 10
13.4255090722
 20
24.146929347
 11
13.4408421113
 21
24.1310033562
  0
LINE
  5
5AF
100
AcDbEntity
  8
218140000
100
AcDbLine
 62
250
  6
CONTINUOUS
 10
17.5989787724
 20
25.3371697726
 11
18.0185219833
 21
24.6135647711
  0
LINE
  5
5B0
100
AcDbEntity
  8
218140080
100
AcDbLine
 62
250
  6
CONTINUOUS
 10
17.5989787724
 20
25.3371697726
 11
18.0185219833
 21
24.6135647711
  0
LINE
  5
5B1
100
AcDbEntity
  8
218140000
100
AcDbLine
 62
7
  6
CONTINUOUS
 10
17.9892431367
 20
25.3315599587
 11
18.3360809072
 21
24.7333532928
  0
LINE
  5
5B2
100
AcDbEntity
  8
218140080
100
AcDbLine
 62
7
  6
CONTINUOUS
 10
17.9892431367
 20
25.3315599587
 11
18.3360809072
 21
24.7333532928
  0
LWPOLYLINE
  5
5B3
100
AcDbEntity
  8
218140000
100
AcDbPolyline
 62
250
  6
CONTINUOUS
 90
13
 70
0
 10
18.0185219833
 20
24.6135647711
 10
18.0702912327
 20
24.5199842537
 10
18.1183345832
 20
24.4242647991
 10
18.1624463056
 20
24.3268162927
 10
18.2024375069
 20
24.2280560235
 10
18.2381369381
 20
24.1284068985
 10
18.2693917284
 20
24.0282956318
 10
18.2960680401
 20
23.9281509151
 10
18.3180516409
 20
23.8284015835
 10
18.3352483938
 20
23.7294747801
 10
18.3475846595
 20
23.6317941249
 10
18.3550076127
 20
23.535777901
 10
18.3574854672
 20
23.4418372647
  0
LWPOLYLINE
  5
5B4
100
AcDbEntity
  8
218140080
100
AcDbPolyline
 62
250
  6
CONTINUOUS
 90
13
 70
0
 10
18.0185219833
 20
24.6135647711
 10
18.0702912327
 20
24.5199842537
 10
18.1183345832
 20
24.4242647991
 10
18.1624463056
 20
24.3268162927
 10
18.2024375069
 20
24.2280560235
 10
18.2381369381
 20
24.1284068985
 10
18.2693917284
 20
24.0282956318
 10
18.2960680401
 20
23.9281509151
 10
18.3180516409
 20
23.8284015835
 10
18.3352483938
 20
23.7294747801
 10
18.3475846595
 20
23.6317941249
 10
18.3550076127
 20
23.535777901
 10
18.3574854672
 20
23.4418372647
  0
LWPOLYLINE
  5
5B5
100
AcDbEntity
  8
284
100
AcDbPolyline
 62
250
  6
CONTINUOUS
 90
10
 70
0
 10
15.5450618337
 20
-28.0236971017
 10
15.527802221
 20
-28.0462389973
 10
15.5119859044
 20
-28.070430762
 10
15.4978289682
 20
-28.0959419036
 10
15.4855056363
 20
-28.1224694309
 10
15.4752103214
 20
-28.14960747
 10
15.4671197528
 20
-28.1768450025
 10
15.4613180634
 20
-28.2037658332
 10
15.4578324513
 20
-28.230060644
 10
15.456673486
 20
-28.2553912755
  0
LWPOLYLINE
  5
5B6
100
AcDbEntity
  8
284
100
AcDbPolyline
 62
250
  6
CONTINUOUS
 90
10
 70
0
 10
16.8885647179
 20
-28.6954485438
 10
16.8713051053
 20
-28.7179904394
 10
16.8554887887
 20
-28.7421822041
 10
16.8413318525
 20
-28.7676933457
 10
16.8290085206
 20
-28.794220873
 10
16.8187132056
 20
-28.8213589121
 10
16.810622637
 20
-28.8485964447
 10
16.8048209476
 20
-28.8755172754
 10
16.8013353356
 20
-28.9018120861
 10
16.8001763703
 20
-28.9271427176
  0
LWPOLYLINE
  5
5B7
100
AcDbEntity
  8
284
100
AcDbPolyline
 62
250
  6
CONTINUOUS
 90
13
 70
0
 10
17.6840598468
 20
-28.2869776747
 10
17.7104872175
 20
-28.2529953324
 10
17.7349749646
 20
-28.2177154837
 10
17.757523088
 20
-28.1811381286
 10
17.7782551813
 20
-28.1429856559
 10
17.7970476511
 20
-28.1035356768
 10
17.8135297163
 20
-28.0636210252
 10
17.8276639132
 20
-28.0232397322
 10
17.8394877057
 20
-27.9823937667
 10
17.8487427038
 20
-27.9419218694
 10
17.8553427776
 20
-27.9021036205
 10
17.859374057
 20
-27.8626594397
 10
17.8608365421
 20
-27.823589327
  0
LINE
  5
5B8
100
AcDbEntity
  8
284
100
AcDbLine
 62
7
  6
CONTINUOUS
 10
15.9886945652
 20
-27.3450105221
 11
15.9712612291
 21
-27.3673498917
  0
LINE
  5
5B9
100
AcDbEntity
  8
284
100
AcDbLine
 62
7
  6
CONTINUOUS
 10
15.4409311432
 20
-28.0075149346
 11
15.9712612291
 21
-27.3673498917
  0
LINE
  5
5BA
100
AcDbEntity
  8
284
100
AcDbLine
 62
250
  6
CONTINUOUS
 10
15.5450618337
 20
-28.0236971017
 11
16.0753919196
 21
-27.3835320587
  0
LINE
  5
5BB
100
AcDbEntity
  8
284
100
AcDbLine
 62
250
  6
CONTINUOUS
 10
17.4188948038
 20
-28.0552835008
 11
16.8885647179
 21
-28.6954485438
  0
LWPOLYLINE
  5
5BC
100
AcDbEntity
  8
284
100
AcDbPolyline
 62
250
  6
CONTINUOUS
 90
8
 70
0
 10
15.4409286832
 20
-28.0075179048
 10
15.4458700582
 20
-28.0032204197
 10
15.4556206341
 20
-27.9995215915
 10
15.468424301
 20
-27.9986982359
 10
15.4840605529
 20
-28.0007643235
 10
15.50226037
 20
-28.0056839437
 10
15.5227112236
 20
-28.013372304
 10
15.5450618337
 20
-28.0236971017
  0
LWPOLYLINE
  5
5BD
100
AcDbEntity
  8
284
100
AcDbPolyline
 62
250
  6
CONTINUOUS
 90
8
 70
0
 10
15.9712612291
 20
-27.3673498917
 10
15.9762802672
 20
-27.3630053634
 10
15.9860422427
 20
-27.3593383122
 10
15.9988453651
 20
-27.3585372251
 10
16.0144705694
 20
-27.3606158089
 10
16.032650504
 20
-27.3655384986
 10
16.0530741052
 20
-27.3732210655
 10
16.0753919196
 20
-27.3835320587
  0
LINE
  5
5BE
100
AcDbEntity
  8
284
100
AcDbLine
 62
7
  6
CONTINUOUS
 10
19.8053801903
 20
-23.3539441272
 11
24.7377677281
 21
-20.8001257199
  0
LINE
  5
5BF
100
AcDbEntity
  8
284
100
AcDbLine
 62
7
  6
CONTINUOUS
 10
19.8053801903
 20
-22.5695053226
 11
24.0039902731
 21
-20.4332369924
  0
LINE
  5
5C0
100
AcDbEntity
  8
284
100
AcDbLine
 62
7
  6
CONTINUOUS
 10
19.8053801903
 20
-23.9684539813
 11
23.5829621841
 21
-22.0650980035
  0
LINE
  5
5C1
100
AcDbEntity
  8
284
100
AcDbLine
 62
7
  6
CONTINUOUS
 10
19.8053801903
 20
-23.830804299
 11
24.6942994958
 21
-21.4058642819
  0
LINE
  5
5C2
100
AcDbEntity
  8
290
100
AcDbLine
 62
250
  6
CONTINUOUS
 10
14.5059712592
 20
-27.9140462577
 11
10.468871496
 21
-29.266228864
  0
LWPOLYLINE
  5
5C3
100
AcDbEntity
  8
290
100
AcDbPolyline
 62
250
  6
CONTINUOUS
 90
37
 70
0
 10
10.468871496
 20
-29.266228864
 10
10.452611407
 20
-29.2714897154
 10
10.4358487897
 20
-29.2760573964
 10
10.4185836442
 20
-29.2799319068
 10
10.4007332559
 20
-29.2832094716
 10
10.3823803394
 20
-29.2857938659
 10
10.3637730384
 20
-29.2873964147
 10
10.3449024312
 20
-29.2879956894
 10
10.3257774395
 20
-29.2876131187
 10
10.3066729719
 20
-29.2860243136
 10
10.2875844845
 20
-29.2831981523
 10
10.2685165212
 20
-29.2791657566
 10
10.2497576216
 20
-29.2737961026
 10
10.231312011
 20
-29.2670495363
 10
10.213175464
 20
-29.2589657116
 10
10.1956238448
 20
-29.2495325669
 10
10.178672776
 20
-29.2387069555
 10
10.1623066348
 20
-29.226532024
 10
10.1467544178
 20
-29.2131251509
 10
10.1320420675
 20
-29.1984473603
 10
10.1181436412
 20
-29.1825376281
 10
10.1052103072
 20
-29.1656302594
 10
10.0932736621
 20
-29.1476972819
 10
10.0823021093
 20
-29.128766668
 10
10.0723520273
 20
-29.1091566401
 10
10.0634546934
 20
-29.0888529941
 10
10.0555788304
 20
-29.067869934
 10
10.0486869848
 20
-29.0465682951
 10
10.0428055576
 20
-29.0249456734
 10
10.0379081479
 20
-29.0030044728
 10
10.033878099
 20
-28.9811127403
 10
10.0307351066
 20
-28.9592751805
 10
10.0284594749
 20
-28.9374870888
 10
10.0268754599
 20
-28.9161023981
 10
10.0259244802
 20
-28.8952390864
 10
10.0256651171
 20
-28.8747791758
 10
10.0260973707
 20
-28.8547226663
  0
LWPOLYLINE
  5
5C4
100
AcDbEntity
  8
284
100
AcDbPolyline
 62
250
  6
CONTINUOUS
 90
13
 70
0
 10
18.0686589761
 20
-27.1553626231
 10
18.07981515
 20
-27.1518651431
 10
18.090290383
 20
-27.1485185381
 10
18.1002552116
 20
-27.1452083456
 10
18.1097213427
 20
-27.1419118243
 10
18.1186770694
 20
-27.1386517156
 10
18.1272578072
 20
-27.1353817809
 10
18.1354727959
 20
-27.1320944291
 10
18.1433127957
 20
-27.1287972513
 10
18.1508855031
 20
-27.125466782
 10
18.1582268167
 20
-27.1220951996
 10
18.1653008379
 20
-27.1186903257
 10
18.1721075666
 20
-27.1152521605
  0
LWPOLYLINE
  5
5C5
100
AcDbEntity
  8
284
100
AcDbPolyline
 62
250
  6
CONTINUOUS
 90
3
 70
0
 10
18.0167351865
 20
-27.1713067415
 10
18.0442619313
 20
-27.1627688324
 10
18.0686589761
 20
-27.1553626231
  0
LINE
  5
5C6
100
AcDbEntity
  8
218140000
100
AcDbLine
 62
7
  6
CONTINUOUS
 10
16.2002109198
 20
25.455351666
 11
13.0879733469
 21
27.0114704524
  0
LINE
  5
5C7
100
AcDbEntity
  8
218140080
100
AcDbLine
 62
7
  6
CONTINUOUS
 10
16.2002109198
 20
25.455351666
 11
13.0879733469
 21
27.0114704524
  0
LINE
  5
5C8
100
AcDbEntity
  8
218140000
100
AcDbLine
 62
250
  6
CONTINUOUS
 10
17.5989787724
 20
25.3371697726
 11
16.7933068363
 21
25.7400057406
  0
LINE
  5
5C9
100
AcDbEntity
  8
218140080
100
AcDbLine
 62
250
  6
CONTINUOUS
 10
17.5989787724
 20
25.3371697726
 11
16.7933068363
 21
25.7400057406
  0
LINE
  5
5CA
100
AcDbEntity
  8
218140000
100
AcDbLine
 62
250
  6
CONTINUOUS
 10
12.0916437572
 20
28.0908372801
 11
11.1204849235
 21
28.576416697
  0
LINE
  5
5CB
100
AcDbEntity
  8
218140080
100
AcDbLine
 62
250
  6
CONTINUOUS
 10
12.0916437572
 20
28.0908372801
 11
11.1204849235
 21
28.576416697
  0
LINE
  5
5CC
100
AcDbEntity
  8
218140000
100
AcDbLine
 62
7
  6
CONTINUOUS
 10
17.9292541499
 20
25.3878518767
 11
17.1034952498
 21
25.8007313268
  0
LINE
  5
5CD
100
AcDbEntity
  8
218140080
100
AcDbLine
 62
7
  6
CONTINUOUS
 10
17.9292541499
 20
25.3878518767
 11
17.1034952498
 21
25.8007313268
  0
LINE
  5
5CE
100
AcDbEntity
  8
218140000
100
AcDbLine
 62
7
  6
CONTINUOUS
 10
12.5642265287
 20
28.0703656873
 11
11.511870516
 21
28.5965436936
  0
LINE
  5
5CF
100
AcDbEntity
  8
218140080
100
AcDbLine
 62
7
  6
CONTINUOUS
 10
12.5642265287
 20
28.0703656873
 11
11.511870516
 21
28.5965436936
  0
LWPOLYLINE
  5
5D0
100
AcDbEntity
  8
218140000
100
AcDbPolyline
 62
7
  6
CONTINUOUS
 90
4
 70
0
 10
17.9311797019
 20
25.3868889034
 10
17.9448231779
 20
25.3790741615
 10
17.9683588744
 20
25.3597018831
 10
17.9885370172
 20
25.3328240515
  0
LWPOLYLINE
  5
5D1
100
AcDbEntity
  8
218140080
100
AcDbPolyline
 62
7
  6
CONTINUOUS
 90
4
 70
0
 10
17.9311797019
 20
25.3868889034
 10
17.9448231779
 20
25.3790741615
 10
17.9683588744
 20
25.3597018831
 10
17.9885370172
 20
25.3328240515
  0
LWPOLYLINE
  5
5D2
100
AcDbEntity
  8
218140000
100
AcDbPolyline
 62
7
  6
CONTINUOUS
 90
35
 70
0
 10
18.6100796469
 20
23.1218411582
 10
18.7268531756
 20
23.0447390519
 10
18.8666498491
 20
22.9402254057
 10
19.0033877049
 20
22.8256968086
 10
19.1362531484
 20
22.7019803041
 10
19.2646386017
 20
22.5698335291
 10
19.3882202018
 20
22.4297661231
 10
19.5066003631
 20
22.2823606194
 10
19.6193547462
 20
22.1282497298
 10
19.7260303123
 20
21.9681429458
 10
19.8261873244
 20
21.8027871887
 10
19.9194032681
 20
21.6329694269
 10
20.0053563908
 20
21.4593513963
 10
20.0837717724
 20
21.2825134376
 10
20.1543384474
 20
21.1031228738
 10
20.2167130298
 20
20.9219883138
 10
20.2705977658
 20
20.7398930187
 10
20.3157344889
 20
20.5575884357
 10
20.3518933916
 20
20.3758115987
 10
20.3788691356
 20
20.1952881389
 10
20.3964889409
 20
20.0165856866
 10
20.4045618421
 20
19.8405891708
 10
20.4029617803
 20
19.6684089301
 10
20.3916144082
 20
19.5004929547
 10
20.3704798059
 20
19.3377160184
 10
20.3397504519
 20
19.181622378
 10
20.2996459595
 20
19.0328804133
 10
20.2503196113
 20
18.8917874828
 10
20.1921244916
 20
18.7591213929
 10
20.125316108
 20
18.6352240421
 10
20.0502473943
 20
18.5205649439
 10
19.9676576889
 20
18.4159673058
 10
19.8782185179
 20
18.3218399664
 10
19.7823942095
 20
18.2382594065
 10
19.68080274
 20
18.165410481
  0
LWPOLYLINE
  5
5D3
100
AcDbEntity
  8
218140080
100
AcDbPolyline
 62
7
  6
CONTINUOUS
 90
35
 70
0
 10
18.6100796469
 20
23.1218411582
 10
18.7268531756
 20
23.0447390519
 10
18.8666498491
 20
22.9402254057
 10
19.0033877049
 20
22.8256968086
 10
19.1362531484
 20
22.7019803041
 10
19.2646386017
 20
22.5698335291
 10
19.3882202018
 20
22.4297661231
 10
19.5066003631
 20
22.2823606194
 10
19.6193547462
 20
22.1282497298
 10
19.7260303123
 20
21.9681429458
 10
19.8261873244
 20
21.8027871887
 10
19.9194032681
 20
21.6329694269
 10
20.0053563908
 20
21.4593513963
 10
20.0837717724
 20
21.2825134376
 10
20.1543384474
 20
21.1031228738
 10
20.2167130298
 20
20.9219883138
 10
20.2705977658
 20
20.7398930187
 10
20.3157344889
 20
20.5575884357
 10
20.3518933916
 20
20.3758115987
 10
20.3788691356
 20
20.1952881389
 10
20.3964889409
 20
20.0165856866
 10
20.4045618421
 20
19.8405891708
 10
20.4029617803
 20
19.6684089301
 10
20.3916144082
 20
19.5004929547
 10
20.3704798059
 20
19.3377160184
 10
20.3397504519
 20
19.181622378
 10
20.2996459595
 20
19.0328804133
 10
20.2503196113
 20
18.8917874828
 10
20.1921244916
 20
18.7591213929
 10
20.125316108
 20
18.6352240421
 10
20.0502473943
 20
18.5205649439
 10
19.9676576889
 20
18.4159673058
 10
19.8782185179
 20
18.3218399664
 10
19.7823942095
 20
18.2382594065
 10
19.68080274
 20
18.165410481
  0
LWPOLYLINE
  5
5D4
100
AcDbEntity
  8
218140000
100
AcDbPolyline
 62
250
  6
CONTINUOUS
 90
34
 70
0
 10
18.6100796469
 20
23.0432306372
 10
18.6881747377
 20
22.9877188337
 10
18.8253156076
 20
22.8782632245
 10
18.9598580992
 20
22.758737751
 10
19.0911746781
 20
22.6296999022
 10
19.2186528366
 20
22.4917515539
 10
19.3416979734
 20
22.3455361433
 10
19.4597361689
 20
22.1917356645
 10
19.5722168634
 20
22.0310674825
 10
19.678615418
 20
21.8642809951
 10
19.778435561
 20
21.6921541396
 10
19.8712117024
 20
21.5154897648
 10
19.9565111076
 20
21.3351118839
 10
20.0339359165
 20
21.15186183
 10
20.1031249982
 20
20.9665943321
 10
20.1637556359
 20
20.7801735291
 10
20.2155450314
 20
20.5934689393
 10
20.2582516244
 20
20.4073514051
 10
20.2916762195
 20
20.2226890308
 10
20.315662915
 20
20.040343133
 10
20.3300998303
 20
19.861164224
 10
20.3349196276
 20
19.685988044
 10
20.330099826
 20
19.5156316635
 10
20.3156629064
 20
19.3508896724
 10
20.2916762066
 20
19.192530473
 10
20.2582516073
 20
19.0412926968
 10
20.21554501
 20
18.897881759
 10
20.1637556104
 20
18.7629665684
 10
20.1031249686
 20
18.6371764071
 10
20.0339358829
 20
18.5210979953
 10
19.9565110702
 20
18.4152727549
 10
19.8712116611
 20
18.320194284
 10
19.778435516
 20
18.2363060556
 10
19.68080274
 20
18.165410481
  0
LWPOLYLINE
  5
5D5
100
AcDbEntity
  8
218140080
100
AcDbPolyline
 62
250
  6
CONTINUOUS
 90
34
 70
0
 10
18.6100796469
 20
23.0432306372
 10
18.6881747377
 20
22.9877188337
 10
18.8253156076
 20
22.8782632245
 10
18.9598580992
 20
22.758737751
 10
19.0911746781
 20
22.6296999022
 10
19.2186528366
 20
22.4917515539
 10
19.3416979734
 20
22.3455361433
 10
19.4597361689
 20
22.1917356645
 10
19.5722168634
 20
22.0310674825
 10
19.678615418
 20
21.8642809951
 10
19.778435561
 20
21.6921541396
 10
19.8712117024
 20
21.5154897648
 10
19.9565111076
 20
21.3351118839
 10
20.0339359165
 20
21.15186183
 10
20.1031249982
 20
20.9665943321
 10
20.1637556359
 20
20.7801735291
 10
20.2155450314
 20
20.5934689393
 10
20.2582516244
 20
20.4073514051
 10
20.2916762195
 20
20.2226890308
 10
20.315662915
 20
20.040343133
 10
20.3300998303
 20
19.861164224
 10
20.3349196276
 20
19.685988044
 10
20.330099826
 20
19.5156316635
 10
20.3156629064
 20
19.3508896724
 10
20.2916762066
 20
19.192530473
 10
20.2582516073
 20
19.0412926968
 10
20.21554501
 20
18.897881759
 10
20.1637556104
 20
18.7629665684
 10
20.1031249686
 20
18.6371764071
 10
20.0339358829
 20
18.5210979953
 10
19.9565110702
 20
18.4152727549
 10
19.8712116611
 20
18.320194284
 10
19.778435516
 20
18.2363060556
 10
19.68080274
 20
18.165410481
  0
LWPOLYLINE
  5
5D6
100
AcDbEntity
  8
218140000
100
AcDbPolyline
 62
250
  6
CONTINUOUS
 90
12
 70
0
 10
18.3360809072
 20
24.7333532928
 10
18.3347217706
 20
24.7349504069
 10
18.3268028525
 20
24.73747201
 10
18.31315826
 20
24.7366032008
 10
18.2938895433
 20
24.7323504455
 10
18.2691401104
 20
24.7247453952
 10
18.2390941593
 20
24.7138446506
 10
18.2039753079
 20
24.699729341
 10
18.1640449289
 20
24.6825045199
 10
18.1196002049
 20
24.6622983835
 10
18.070971917
 20
24.6392613166
 10
18.0185219823
 20
24.6135647729
  0
LWPOLYLINE
  5
5D7
100
AcDbEntity
  8
218140080
100
AcDbPolyline
 62
250
  6
CONTINUOUS
 90
12
 70
0
 10
18.3360809072
 20
24.7333532928
 10
18.3347217706
 20
24.7349504069
 10
18.3268028525
 20
24.73747201
 10
18.31315826
 20
24.7366032008
 10
18.2938895433
 20
24.7323504455
 10
18.2691401104
 20
24.7247453952
 10
18.2390941593
 20
24.7138446506
 10
18.2039753079
 20
24.699729341
 10
18.1640449289
 20
24.6825045199
 10
18.1196002049
 20
24.6622983835
 10
18.070971917
 20
24.6392613166
 10
18.0185219823
 20
24.6135647729
  0
LINE
  5
5D8
100
AcDbEntity
  8
284
100
AcDbLine
 62
250
  6
CONTINUOUS
 10
17.6840598468
 20
-28.2869776747
 11
17.1537297609
 21
-28.9271427176
  0
LINE
  5
5D9
100
AcDbEntity
  8
284
100
AcDbLine
 62
250
  6
CONTINUOUS
 10
18.9904345388
 20
-26.6870950606
 11
19.0249187993
 21
-26.6636956194
  0
LWPOLYLINE
  5
5DA
100
AcDbEntity
  8
284
100
AcDbPolyline
 62
250
  6
CONTINUOUS
 90
9
 70
0
 10
19.0249187993
 20
-26.6636956194
 10
19.0511293399
 20
-26.646067102
 10
19.0653363746
 20
-26.6367666553
 10
19.0803439388
 20
-26.6271302937
 10
19.0961236389
 20
-26.6172038288
 10
19.1127031726
 20
-26.6072267617
 10
19.1300917725
 20
-26.5972789261
 10
19.1482802059
 20
-26.5872804882
 10
19.167268473
 20
-26.5772314482
  0
LINE
  5
5DB
100
AcDbEntity
  8
284
100
AcDbLine
 62
7
  6
CONTINUOUS
 10
17.6470320624
 20
-27.3173369978
 11
18.1146741568
 21
-27.0224211804
  0
LWPOLYLINE
  5
5DC
100
AcDbEntity
  8
284
100
AcDbPolyline
 62
250
  6
CONTINUOUS
 90
7
 70
0
 10
18.5679433233
 20
-27.1462135087
 10
18.5856162322
 20
-27.1356594029
 10
18.6010698935
 20
-27.124288355
 10
18.6141545459
 20
-27.112226682
 10
18.6247442665
 20
-27.0996066557
 10
18.6327549961
 20
-27.0865652154
 10
18.6341142544
 20
-27.0831963521
  0
LWPOLYLINE
  5
5DD
100
AcDbEntity
  8
284
100
AcDbPolyline
 62
250
  6
CONTINUOUS
 90
6
 70
0
 10
18.5679433233
 20
-27.4700359364
 10
18.589504963
 20
-27.4577427674
 10
18.6076729789
 20
-27.4441475888
 10
18.6221365111
 20
-27.4294830178
 10
18.6326480845
 20
-27.4139999694
 10
18.6390278433
 20
-27.3979633628
  0
LWPOLYLINE
  5
5DE
100
AcDbEntity
  8
284
100
AcDbPolyline
 62
7
  6
CONTINUOUS
 90
11
 70
0
 10
18.7774953398
 20
-27.0099125895
 10
18.811819929
 20
-26.9913359379
 10
18.8442740086
 20
-26.9723620895
 10
18.8755909978
 20
-26.9528621148
 10
18.9058380405
 20
-26.9330956593
 10
18.9344525787
 20
-26.9138204371
 10
18.9612250335
 20
-26.8956472421
 10
18.9865236755
 20
-26.8787561073
 10
19.0096310124
 20
-26.8639871527
 10
19.0291233564
 20
-26.8524044311
 10
19.0448308445
 20
-26.8439699219
  0
LINE
  5
5DF
100
AcDbEntity
  8
284
100
AcDbLine
 62
250
  6
CONTINUOUS
 10
17.8608365421
 20
-27.5148834289
 11
18.5679433233
 21
-27.1462135087
  0
LWPOLYLINE
  5
5E0
100
AcDbEntity
  8
284
100
AcDbPolyline
 62
250
  6
CONTINUOUS
 90
12
 70
0
 10
18.8914209313
 20
-26.7475417786
 10
18.8980687566
 20
-26.7441066355
 10
18.904961592
 20
-26.7404136234
 10
18.9120994377
 20
-26.7364627421
 10
18.9194546514
 20
-26.7322749507
 10
18.9270548753
 20
-26.7278292903
 10
18.9349830358
 20
-26.7230628838
 10
18.9432360336
 20
-26.7179735859
 10
18.951816968
 20
-26.712563542
 10
18.9608180634
 20
-26.7067763116
 10
18.9702298263
 20
-26.700605063
 10
18.9904345388
 20
-26.6870950606
  0
LINE
  5
5E1
100
AcDbEntity
  8
284
100
AcDbLine
 62
7
  6
CONTINUOUS
 10
18.0524492541
 20
-27.3805755779
 11
18.4546472138
 21
-27.1749182766
  0
LINE
  5
5E2
100
AcDbEntity
  8
284
100
AcDbLine
 62
250
  6
CONTINUOUS
 10
18.1721075666
 20
-27.1152521605
 11
18.5717346576
 21
-26.9109089747
  0
LWPOLYLINE
  5
5E3
100
AcDbEntity
  8
284
100
AcDbPolyline
 62
250
  6
CONTINUOUS
 90
3
 70
0
 10
18.5717346576
 20
-26.9109089747
 10
18.8115054918
 20
-26.7883721921
 10
18.8914209313
 20
-26.7475417786
  0
LINE
  5
5E4
100
AcDbEntity
  8
284
100
AcDbLine
 62
7
  6
CONTINUOUS
 10
18.4546472138
 20
-27.1749182766
 11
18.7774953398
 21
-27.0099125895
  0
LINE
  5
5E5
100
AcDbEntity
  8
284
100
AcDbLine
 62
250
  6
CONTINUOUS
 10
17.6470320624
 20
-27.3432066357
 11
17.8827843802
 21
-27.2244282497
  0
LINE
  5
5E6
100
AcDbEntity
  8
284
100
AcDbLine
 62
250
  6
CONTINUOUS
 10
19.167268473
 20
-26.5772314482
 11
19.8053801903
 21
-26.2557107671
  0
LINE
  5
5E7
100
AcDbEntity
  8
284
100
AcDbLine
 62
7
  6
CONTINUOUS
 10
17.5175362168
 20
-27.6134969258
 11
17.7604357543
 21
-27.4911106248
  0
LWPOLYLINE
  5
5E8
100
AcDbEntity
  8
284
100
AcDbPolyline
 62
7
  6
CONTINUOUS
 90
7
 70
0
 10
17.7589624309
 20
-27.491857505
 10
17.7622244281
 20
-27.4902136182
 10
17.7769667869
 20
-27.4834978798
 10
17.7934423352
 20
-27.4771080856
 10
17.8110735597
 20
-27.4710906174
 10
17.8302984006
 20
-27.4650351098
 10
17.8773190501
 20
-27.4506485464
  0
LINE
  5
5E9
100
AcDbEntity
  8
284
100
AcDbLine
 62
7
  6
CONTINUOUS
 10
19.6758843446
 20
-26.5260010572
 11
19.044827122
 21
-26.8439627663
  0
LINE
  5
5EA
100
AcDbEntity
  8
284
100
AcDbLine
 62
250
  6
CONTINUOUS
 10
17.1537297609
 20
-29.2784566897
 11
19.2750501044
 21
-28.2177965179
  0
LINE
  5
5EB
100
AcDbEntity
  8
284
100
AcDbLine
 62
250
  6
CONTINUOUS
 10
17.8411883019
 20
-27.5244498688
 11
17.8608365421
 21
-27.5148834289
  0
LWPOLYLINE
  5
5EC
100
AcDbEntity
  8
284
100
AcDbPolyline
 62
250
  6
CONTINUOUS
 90
9
 70
0
 10
17.8827843802
 20
-27.2244282497
 10
17.9005655499
 20
-27.2158479598
 10
17.9181227315
 20
-27.2078268046
 10
17.935455925
 20
-27.2003647841
 10
17.952706503
 20
-27.1934789248
 10
17.9697330928
 20
-27.1871522002
 10
17.9861115765
 20
-27.1813335308
 10
18.0017474346
 20
-27.1760661085
 10
18.0167351865
 20
-27.1713067415
  0
LWPOLYLINE
  5
5ED
100
AcDbEntity
  8
284
100
AcDbPolyline
 62
250
  6
CONTINUOUS
 90
13
 70
0
 10
17.1537297609
 20
-29.2784566897
 10
17.1297234484
 20
-29.2890142997
 10
17.1030216827
 20
-29.2980112712
 10
17.0740184396
 20
-29.3052619976
 10
17.0430887325
 20
-29.3106150898
 10
17.0107993966
 20
-29.3139174699
 10
16.9779222712
 20
-29.3150674027
 10
16.9451005398
 20
-29.3140496074
 10
16.9128303692
 20
-29.3108866765
 10
16.8816806451
 20
-29.3056356016
 10
16.8521917495
 20
-29.298390332
 10
16.8248673069
 20
-29.2892776183
 10
16.8001763703
 20
-29.2784566897
  0
LWPOLYLINE
  5
5EE
100
AcDbEntity
  8
284
100
AcDbPolyline
 62
250
  6
CONTINUOUS
 90
13
 70
0
 10
17.8608365421
 20
-27.823589327
 10
17.836250204
 20
-27.8343701469
 10
17.8090598468
 20
-27.8434541548
 10
17.7797307049
 20
-27.8506859209
 10
17.7487646081
 20
-27.8559417076
 10
17.7166913948
 20
-27.859131587
 10
17.6840598468
 20
-27.8602009794
 10
17.6514282987
 20
-27.859131587
 10
17.6193550855
 20
-27.8559417076
 10
17.5883889887
 20
-27.8506859209
 10
17.5590598468
 20
-27.8434541548
 10
17.5318694895
 20
-27.8343701469
 10
17.5072831515
 20
-27.823589327
  0
LWPOLYLINE
  5
5EF
100
AcDbEntity
  8
284
100
AcDbPolyline
 62
250
  6
CONTINUOUS
 90
13
 70
0
 10
17.1537297609
 20
-28.9271427176
 10
17.1291434228
 20
-28.9379235375
 10
17.1019530656
 20
-28.9470075454
 10
17.0726239237
 20
-28.9542393115
 10
17.0416578269
 20
-28.9594950982
 10
17.0095846136
 20
-28.9626849776
 10
16.9769530656
 20
-28.96375437
 10
16.9443215175
 20
-28.9626849776
 10
16.9122483043
 20
-28.9594950982
 10
16.8812822075
 20
-28.9542393115
 10
16.8519530656
 20
-28.9470075454
 10
16.8247627083
 20
-28.9379235375
 10
16.8001763703
 20
-28.9271427176
  0
LWPOLYLINE
  5
5F0
100
AcDbEntity
  8
284
100
AcDbPolyline
 62
7
  6
CONTINUOUS
 90
9
 70
0
 10
17.0887564645
 20
-29.4136751398
 10
17.0604698693
 20
-29.4257047049
 10
17.0304826682
 20
-29.4342696738
 10
16.9993080853
 20
-29.4390668422
 10
16.9674034414
 20
-29.4398858249
 10
16.9355185532
 20
-29.4366107852
 10
16.9045110225
 20
-29.4293425579
 10
16.8745509719
 20
-29.4181335729
 10
16.8649880365
 20
-29.4135941298
  0
LWPOLYLINE
  5
5F1
100
AcDbEntity
  8
290
100
AcDbPolyline
 62
250
  6
CONTINUOUS
 90
7
 70
0
 10
10.1671689659
 20
-29.7383642921
 10
10.2174787063
 20
-29.7169795523
 10
10.29447661
 20
-29.6632810982
 10
10.3598907786
 20
-29.5888229596
 10
10.4117344046
 20
-29.495866634
 10
10.4484328546
 20
-29.38723546
 10
10.468871496
 20
-29.266228864
  0
LINE
  5
5F2
100
AcDbEntity
  8
290
100
AcDbLine
 62
7
  6
CONTINUOUS
 10
14.2078762958
 20
-28.3849733707
 11
10.167168966
 21
-29.7383642921
  0
LWPOLYLINE
  5
5F3
100
AcDbEntity
  8
284
100
AcDbPolyline
 62
7
  6
CONTINUOUS
 90
7
 70
0
 10
17.8773190501
 20
-27.4506485464
 10
17.9035707624
 20
-27.4422077892
 10
17.9319279975
 20
-27.4324634501
 10
17.9609243754
 20
-27.4216461354
 10
17.9906525433
 20
-27.4095163215
 10
18.0236003548
 20
-27.3947376308
 10
18.0525393676
 20
-27.3805326261
  0
LWPOLYLINE
  5
5F4
100
AcDbEntity
  8
284
100
AcDbPolyline
 62
7
  6
CONTINUOUS
 90
6
 70
0
 10
19.210076808
 20
-28.353014968
 10
19.2384115783
 20
-28.3364366013
 10
19.2647430073
 20
-28.3159223192
 10
19.2883758113
 20
-28.291769116
 10
19.3086485431
 20
-28.2644721892
 10
19.3250773743
 20
-28.2345743318
  0
LINE
  5
5F5
100
AcDbEntity
  8
284
100
AcDbLine
 62
7
  6
CONTINUOUS
 10
17.0887564645
 20
-29.4136751398
 11
19.210076808
 21
-28.353014968
  0
ARC
  5
5F6
100
AcDbEntity
  8
284
100
AcDbCircle
 62
7
  6
CONTINUOUS
 10
3.6126349012
 20
19.1430088516
 40
0.25
100
AcDbArc
 50
244.0406531095
 51
258.6758098606
  0
ELLIPSE
  5
5F7
100
AcDbEntity
  8
290
100
AcDbEllipse
 62
250
  6
CONTINUOUS
 10
199.6306034624
 20
78.0560790168
 30
0.0
 11
203.9978070403
 21
231.1464996498
 31
0.0
 40
0.4508270242
 41
-3.9741549943
 42
-3.9645622474
  0
ELLIPSE
  5
5F8
100
AcDbEntity
  8
290
100
AcDbEllipse
 62
250
  6
CONTINUOUS
 10
196.3546479245
 20
79.6940567857
 30
0.0
 11
18.1147634409
 21
312.725800517
 31
0.0
 40
0.687383215
 41
-4.3804067758
 42
-4.3708149508
  0
ELLIPSE
  5
5F9
100
AcDbEntity
  8
290
100
AcDbEllipse
 62
250
  6
CONTINUOUS
 10
199.5156841752
 20
78.1135386604
 30
0.0
 11
203.9978127335
 21
231.1464965974
 31
0.0
 40
0.4508270068
 41
-3.9743117266
 42
-3.9640451272
  0
ELLIPSE
  5
5FA
100
AcDbEntity
  8
290
100
AcDbEllipse
 62
250
  6
CONTINUOUS
 10
196.4695638228
 20
79.6365988365
 30
0.0
 11
18.1146603174
 21
312.7258282855
 31
0.0
 40
0.687383216
 41
-4.3805625096
 42
-4.3702980862
  0
ELLIPSE
  5
5FB
100
AcDbEntity
  8
290
100
AcDbEllipse
 62
250
  6
CONTINUOUS
 10
199.4082534254
 20
78.1672540352
 30
0.0
 11
203.9989027992
 21
231.1459121538
 31
0.0
 40
0.4508236841
 41
-3.974455551
 42
-3.9642112737
  0
ELLIPSE
  5
5FC
100
AcDbEntity
  8
290
100
AcDbEllipse
 62
250
  6
CONTINUOUS
 10
196.5763795082
 20
79.5831909939
 30
0.0
 11
18.0867540282
 21
312.7333421033
 31
0.0
 40
0.6873834834
 41
-4.3807769993
 42
-4.3705323858
  0
ELLIPSE
  5
5FD
100
AcDbEntity
  8
218140000
100
AcDbEllipse
 62
7
  6
CONTINUOUS
 10
11.0135172846
 20
25.274246773
 30
0.0
 11
3.3311333813
 21
-0.0467042088
 31
0.0
 40
0.4892378494
 41
3.8528301344
 42
5.5059722822
  0
ELLIPSE
  5
5FE
100
AcDbEntity
  8
218140000
100
AcDbEllipse
 62
7
  6
CONTINUOUS
 10
11.7090075458
 20
23.9809869563
 30
0.0
 11
2.7583300471
 21
-0.038763314
 31
0.0
 40
0.4892375088
 41
0.4291477653
 42
0.6564870977
  0
ELLIPSE
  5
5FF
100
AcDbEntity
  8
218140000
100
AcDbEllipse
 62
7
  6
CONTINUOUS
 10
11.0372561036
 20
24.0924846403
 30
0.0
 11
2.7499350056
 21
-0.0386453369
 31
0.0
 40
0.4892375088
 41
8.654981679
 42
9.2557277435
  0
ELLIPSE
  5
600
100
AcDbEntity
  8
218140000
100
AcDbEllipse
 62
7
  6
CONTINUOUS
 10
11.7090075458
 20
23.9809869563
 30
0.0
 11
2.7583300471
 21
-0.038763314
 31
0.0
 40
0.4892375088
 41
0.9280596999
 42
2.3630697256
  0
ELLIPSE
  5
601
100
AcDbEntity
  8
218140000
100
AcDbEllipse
 62
7
  6
CONTINUOUS
 10
16.4147217769
 20
25.1388874734
 30
0.0
 11
0.716172246
 21
0.6416715914
 31
0.0
 40
0.2882345029
 41
0.1142323894
 42
0.7807533904
  0
ELLIPSE
  5
602
100
AcDbEntity
  8
218140000
100
AcDbEllipse
 62
7
  6
CONTINUOUS
 10
11.7090075458
 20
25.9256976675
 30
0.0
 11
2.7583515655
 21
-1.4175703156
 31
0.0
 40
0.0109499087
 41
-0.9155571536
 42
-0.85781018
  0
ELLIPSE
  5
603
100
AcDbEntity
  8
218140000
100
AcDbEllipse
 62
7
  6
CONTINUOUS
 10
11.7090075458
 20
25.9256976675
 30
0.0
 11
2.7583515655
 21
-1.4175703156
 31
0.0
 40
0.0109499087
 41
-0.7017315251
 42
-0.6439845515
  0
ELLIPSE
  5
604
100
AcDbEntity
  8
218140000
100
AcDbEllipse
 62
7
  6
CONTINUOUS
 10
11.7090075458
 20
24.4139996582
 30
0.0
 11
2.7583300471
 21
-0.038763314
 31
0.0
 40
0.4892375088
 41
0.1708839954
 42
2.3630697256
  0
ELLIPSE
  5
605
100
AcDbEntity
  8
218140000
100
AcDbEllipse
 62
7
  6
CONTINUOUS
 10
12.4480155298
 20
27.1222405969
 30
0.0
 11
-0.2796057293
 21
0.9974617846
 31
0.0
 40
0.6760995073
 41
4.8467711056
 42
6.4001141399
  0
ELLIPSE
  5
606
100
AcDbEntity
  8
218140000
100
AcDbEllipse
 62
7
  6
CONTINUOUS
 10
11.0135172846
 20
25.274246773
 30
0.0
 11
3.3311333813
 21
-0.0467042088
 31
0.0
 40
0.4892378494
 41
2.3616770883
 42
3.7058786528
  0
ELLIPSE
  5
607
100
AcDbEntity
  8
218140080
100
AcDbEllipse
 62
7
  6
CONTINUOUS
 10
11.0372561036
 20
24.0924846403
 30
0.0
 11
2.7499350056
 21
-0.0386453369
 31
0.0
 40
0.4892375088
 41
8.654981679
 42
9.2557277435
  0
ELLIPSE
  5
608
100
AcDbEntity
  8
218140080
100
AcDbEllipse
 62
7
  6
CONTINUOUS
 10
11.7090075458
 20
23.9809869563
 30
0.0
 11
2.7583300471
 21
-0.038763314
 31
0.0
 40
0.4892375088
 41
0.9280596999
 42
2.3630697256
  0
ELLIPSE
  5
609
100
AcDbEntity
  8
218140080
100
AcDbEllipse
 62
7
  6
CONTINUOUS
 10
16.4147217769
 20
25.1388874734
 30
0.0
 11
0.716172246
 21
0.6416715914
 31
0.0
 40
0.2882345029
 41
0.1142323894
 42
0.7807533904
  0
ELLIPSE
  5
60A
100
AcDbEntity
  8
218140080
100
AcDbEllipse
 62
7
  6
CONTINUOUS
 10
11.0135172846
 20
25.274246773
 30
0.0
 11
3.3311333813
 21
-0.0467042088
 31
0.0
 40
0.4892378494
 41
3.8528301344
 42
5.5059722822
  0
ELLIPSE
  5
60B
100
AcDbEntity
  8
218140080
100
AcDbEllipse
 62
7
  6
CONTINUOUS
 10
11.7090075458
 20
23.9809869563
 30
0.0
 11
2.7583300471
 21
-0.038763314
 31
0.0
 40
0.4892375088
 41
0.4291477653
 42
0.6564870977
  0
ELLIPSE
  5
60C
100
AcDbEntity
  8
218140080
100
AcDbEllipse
 62
7
  6
CONTINUOUS
 10
11.7090075458
 20
25.9256976675
 30
0.0
 11
2.7583515655
 21
-1.4175703156
 31
0.0
 40
0.0109499087
 41
-0.7017315251
 42
-0.6439845515
  0
ELLIPSE
  5
60D
100
AcDbEntity
  8
218140080
100
AcDbEllipse
 62
7
  6
CONTINUOUS
 10
12.4480155298
 20
27.1222405969
 30
0.0
 11
-0.2796057293
 21
0.9974617846
 31
0.0
 40
0.6760995073
 41
4.8467711056
 42
6.4001141399
  0
ELLIPSE
  5
60E
100
AcDbEntity
  8
218140080
100
AcDbEllipse
 62
7
  6
CONTINUOUS
 10
11.0135172846
 20
25.274246773
 30
0.0
 11
3.3311333813
 21
-0.0467042088
 31
0.0
 40
0.4892378494
 41
2.3616770883
 42
3.7058786528
  0
ELLIPSE
  5
60F
100
AcDbEntity
  8
218140080
100
AcDbEllipse
 62
7
  6
CONTINUOUS
 10
11.7090075458
 20
25.9256976675
 30
0.0
 11
2.7583515655
 21
-1.4175703156
 31
0.0
 40
0.0109499087
 41
-0.9155571536
 42
-0.85781018
  0
ELLIPSE
  5
610
100
AcDbEntity
  8
218140080
100
AcDbEllipse
 62
7
  6
CONTINUOUS
 10
11.7090075458
 20
24.4139996582
 30
0.0
 11
2.7583300471
 21
-0.038763314
 31
0.0
 40
0.4892375088
 41
0.1708839954
 42
2.3630697256
  0
ELLIPSE
  5
611
100
AcDbEntity
  8
268
100
AcDbEllipse
 62
7
  6
CONTINUOUS
 10
-13.7729358055
 20
27.835794205
 30
0.0
 11
0.110769438
 21
0.2241226716
 31
0.0
 40
0.6088015717
 41
-4.0304836828
 42
-3.1443650652
  0
ELLIPSE
  5
612
100
AcDbEntity
  8
268
100
AcDbEllipse
 62
7
  6
CONTINUOUS
 10
-0.408617641
 20
21.1536351227
 30
0.0
 11
0.110769438
 21
0.2241226716
 31
0.0
 40
0.6088015717
 41
-4.0304836828
 42
-3.1443650652
  0
ELLIPSE
  5
613
100
AcDbEntity
  8
268
100
AcDbEllipse
 62
7
  6
CONTINUOUS
 10
-2.1186053083
 20
28.9671483788
 30
0.0
 11
0.2999991737
 21
-0.0014183462
 31
0.0
 40
0.4964289597
 41
0.7877451926
 42
2.3527237553
  0
ELLIPSE
  5
614
100
AcDbEntity
  8
268
100
AcDbEllipse
 62
7
  6
CONTINUOUS
 10
3.4358582059
 20
26.1899166217
 30
0.0
 11
0.2999991737
 21
-0.0014183462
 31
0.0
 40
0.4964289597
 41
0.7877451926
 42
2.3585415194
  0
ELLIPSE
  5
615
100
AcDbEntity
  8
268
100
AcDbEllipse
 62
7
  6
CONTINUOUS
 10
-10.3891078231
 20
27.1616471667
 30
0.0
 11
0.110769438
 21
0.2241226716
 31
0.0
 40
0.6088015717
 41
1.2055040732
 42
2.2526937431
  0
ELLIPSE
  5
616
100
AcDbEntity
  8
268
100
AcDbEllipse
 62
7
  6
CONTINUOUS
 10
3.3267068185
 20
21.4072932365
 30
0.0
 11
0.110769438
 21
0.2241226716
 31
0.0
 40
0.6088015717
 41
-1.9360885804
 42
-0.8888910292
  0
ELLIPSE
  5
617
100
AcDbEntity
  8
268
100
AcDbEllipse
 62
7
  6
CONTINUOUS
 10
1.7065319621
 20
22.4783096411
 30
0.0
 11
0.1128509832
 21
0.2230818409
 31
0.0
 40
0.6159267166
 41
0.0028979148
 42
0.6817883054
  0
ELLIPSE
  5
618
100
AcDbEntity
  8
268
100
AcDbEllipse
 62
7
  6
CONTINUOUS
 10
-0.408617641
 20
21.4070065165
 30
0.0
 11
0.110769438
 21
0.2241226716
 31
0.0
 40
0.6088015717
 41
0.6877230618
 42
2.2527016244
  0
ELLIPSE
  5
619
100
AcDbEntity
  8
268
100
AcDbEllipse
 62
7
  6
CONTINUOUS
 10
-10.0376113459
 20
28.0894523187
 30
0.0
 11
0.110769438
 21
0.2241226716
 31
0.0
 40
0.6088015717
 41
-1.9360885804
 42
-0.8888910292
  0
ELLIPSE
  5
61A
100
AcDbEntity
  8
268
100
AcDbEllipse
 62
7
  6
CONTINUOUS
 10
-11.6577862023
 20
29.1604687233
 30
0.0
 11
0.1128509832
 21
0.2230818409
 31
0.0
 40
0.6159267166
 41
0.0028979148
 42
0.6817883054
  0
ELLIPSE
  5
61B
100
AcDbEntity
  8
268
100
AcDbEllipse
 62
7
  6
CONTINUOUS
 10
-13.7729358055
 20
28.0891655987
 30
0.0
 11
0.110769438
 21
0.2241226716
 31
0.0
 40
0.6088015717
 41
0.6877230618
 42
2.2527016244
  0
ELLIPSE
  5
61C
100
AcDbEntity
  8
268
100
AcDbEllipse
 62
7
  6
CONTINUOUS
 10
-10.0376113459
 20
28.3503812951
 30
0.0
 11
0.110769438
 21
0.2241226716
 31
0.0
 40
0.6088015717
 41
5.394294278
 42
6.9592728406
  0
ELLIPSE
  5
61D
100
AcDbEntity
  8
268
100
AcDbEllipse
 62
7
  6
CONTINUOUS
 10
3.3267068185
 20
21.6682222129
 30
0.0
 11
0.110769438
 21
0.2241226716
 31
0.0
 40
0.6088015717
 41
5.394294278
 42
6.9592728406
  0
ELLIPSE
  5
61E
100
AcDbEntity
  8
268
100
AcDbEllipse
 62
7
  6
CONTINUOUS
 10
-1.9381533312
 20
27.6450882088
 30
0.0
 11
0.2999981629
 21
-0.0021225547
 31
0.0
 40
0.4946372042
 41
-0.7818985079
 42
0.0034997008
  0
ELLIPSE
  5
61F
100
AcDbEntity
  8
268
100
AcDbEllipse
 62
7
  6
CONTINUOUS
 10
3.616310183
 20
24.8678564517
 30
0.0
 11
0.2999981629
 21
-0.0021225547
 31
0.0
 40
0.4946372042
 41
-0.7760807437
 42
0.0035109161
  0
ELLIPSE
  5
620
100
AcDbEntity
  8
268
100
AcDbEllipse
 62
7
  6
CONTINUOUS
 10
-8.0870990586
 20
26.0469670109
 30
0.0
 11
0.2999991335
 21
0.0014318851
 31
0.0
 40
0.5035541159
 41
8.6427941204
 42
10.207772683
  0
ELLIPSE
  5
621
100
AcDbEntity
  8
268
100
AcDbEllipse
 62
7
  6
CONTINUOUS
 10
-14.1003899676
 20
26.2498969096
 30
0.0
 11
-0.1565168911
 21
0.3130623908
 31
0.0
 40
0.6123677712
 41
-0.6846781644
 42
0.8861181623
  0
ELLIPSE
  5
622
100
AcDbEntity
  8
268
100
AcDbEllipse
 62
7
  6
CONTINUOUS
 10
1.1731165061
 20
18.6131436727
 30
0.0
 11
-0.1565168911
 21
0.3130623908
 31
0.0
 40
0.6123677712
 41
-2.2554744912
 42
-0.6846781644
  0
ELLIPSE
  5
623
100
AcDbEntity
  8
268
100
AcDbEllipse
 62
7
  6
CONTINUOUS
 10
-2.2945899906
 20
23.1507124768
 30
0.0
 11
0.2999991335
 21
0.0014318851
 31
0.0
 40
0.5035541159
 41
-2.3585979313
 42
-0.7936193687
  0
ELLIPSE
  5
624
100
AcDbEntity
  8
268
100
AcDbEllipse
 62
7
  6
CONTINUOUS
 10
-2.2945899906
 20
21.936513401
 30
0.0
 11
0.2999980272
 21
0.0021530184
 31
0.0
 40
0.5053247124
 41
-2.3598210761
 42
-0.7948425135
  0
ELLIPSE
  5
625
100
AcDbEntity
  8
268
100
AcDbEllipse
 62
7
  6
CONTINUOUS
 10
-8.0870990586
 20
24.832767935
 30
0.0
 11
0.2999980272
 21
0.0021530184
 31
0.0
 40
0.5053247124
 41
3.1379773283
 42
3.9233642311
  0
ELLIPSE
  5
626
100
AcDbEntity
  8
268
100
AcDbEllipse
 62
7
  6
CONTINUOUS
 10
3.616310183
 20
26.0996906331
 30
0.0
 11
0.2999991737
 21
-0.0014183462
 31
0.0
 40
0.4964289597
 41
-0.77723337
 42
0.7877451926
  0
ELLIPSE
  5
627
100
AcDbEntity
  8
268
100
AcDbEllipse
 62
7
  6
CONTINUOUS
 10
-1.9381533312
 20
28.8769223902
 30
0.0
 11
0.2999991737
 21
-0.0014183462
 31
0.0
 40
0.4964289597
 41
-0.7830511342
 42
0.7877451926
  0
ELLIPSE
  5
628
100
AcDbEntity
  8
268
100
AcDbEllipse
 62
7
  6
CONTINUOUS
 10
1.1992157346
 20
20.6030898287
 30
0.0
 11
0.1128509832
 21
0.2230818409
 31
0.0
 40
0.6159267166
 41
0.6934238338
 42
2.2584023964
  0
ELLIPSE
  5
629
100
AcDbEntity
  8
268
100
AcDbEllipse
 62
7
  6
CONTINUOUS
 10
1.1992157346
 20
20.3497184349
 30
0.0
 11
0.1128509832
 21
0.2230818409
 31
0.0
 40
0.6159267166
 41
-4.0247829108
 42
-2.9775853596
  0
ELLIPSE
  5
62A
100
AcDbEntity
  8
268
100
AcDbEllipse
 62
7
  6
CONTINUOUS
 10
-12.1651024298
 20
27.2852489109
 30
0.0
 11
0.1128509832
 21
0.2230818409
 31
0.0
 40
0.6159267166
 41
0.6934238338
 42
2.2584023964
  0
ELLIPSE
  5
62B
100
AcDbEntity
  8
268
100
AcDbEllipse
 62
7
  6
CONTINUOUS
 10
-12.1651024298
 20
27.0318775171
 30
0.0
 11
0.1128509832
 21
0.2230818409
 31
0.0
 40
0.6159267166
 41
-4.0247829108
 42
-2.9775853596
  0
ELLIPSE
  5
62C
100
AcDbEntity
  8
284
100
AcDbEllipse
 62
7
  6
CONTINUOUS
 10
19.4517729436
 20
11.8225086528
 30
0.0
 11
-0.2237009107
 21
0.4473351135
 31
0.0
 40
0.6121897086
 41
-2.2557347926
 42
-0.6846338794
  0
ELLIPSE
  5
62D
100
AcDbEntity
  8
284
100
AcDbEllipse
 62
7
  6
CONTINUOUS
 10
19.4517729436
 20
-26.0790390537
 30
0.0
 11
-0.2235807756
 21
0.4472283268
 31
0.0
 40
0.6125552124
 41
-3.139671321
 42
-2.255296188
  0
ELLIPSE
  5
62E
100
AcDbEntity
  8
284
100
AcDbEllipse
 62
7
  6
CONTINUOUS
 10
24.2776205546
 20
-21.5588743997
 30
0.0
 11
0.9987332359
 21
0.6172510855
 31
0.0
 40
0.0815198604
 41
-2.3890806779
 42
-1.1913468732
  0
ELLIPSE
  5
62F
100
AcDbEntity
  8
284
100
AcDbEllipse
 62
7
  6
CONTINUOUS
 10
24.0430035416
 20
-21.4415658933
 30
0.0
 11
0.4349639225
 21
0.9005141702
 31
0.0
 40
0.6016116119
 41
-1.2499156631
 42
-0.8943064336
  0
ELLIPSE
  5
630
100
AcDbEntity
  8
284
100
AcDbEllipse
 62
7
  6
CONTINUOUS
 10
24.0430035416
 20
15.3217269558
 30
0.0
 11
0.4349639225
 21
0.9005141702
 31
0.0
 40
0.6016116119
 41
-0.8943064336
 42
-0.538697204
  0
ELLIPSE
  5
631
100
AcDbEntity
  8
284
100
AcDbEllipse
 62
7
  6
CONTINUOUS
 10
12.292580667
 20
21.1969383931
 30
0.0
 11
0.9987332359
 21
0.6172510855
 31
0.0
 40
0.0815198604
 41
0.0505521044
 42
0.7176053907
  0
ELLIPSE
  5
632
100
AcDbEntity
  8
284
100
AcDbEllipse
 62
7
  6
CONTINUOUS
 10
13.4366089786
 20
20.653902768
 30
0.0
 11
0.2256808774
 21
0.4461742732
 31
0.0
 40
0.6158912572
 41
0.0028657685
 42
0.6875768343
  0
ELLIPSE
  5
633
100
AcDbEntity
  8
284
100
AcDbEllipse
 62
7
  6
CONTINUOUS
 10
17.2934248158
 20
-27.1665349223
 30
0.0
 11
-0.2235807756
 21
0.4472283268
 31
0.0
 40
0.6125552124
 41
2.4567882058
 42
4.0278891191
  0
ELLIPSE
  5
634
100
AcDbEntity
  8
284
100
AcDbEllipse
 62
7
  6
CONTINUOUS
 10
2.3062136573
 20
18.3193175414
 30
0.0
 11
-0.2235807756
 21
0.4472283268
 31
0.0
 40
0.6125552124
 41
-0.6848044477
 42
0.8862964655
  0
ELLIPSE
  5
635
100
AcDbEntity
  8
284
100
AcDbEllipse
 62
7
  6
CONTINUOUS
 10
19.5980583371
 20
17.5731780887
 30
0.0
 11
0.2215594226
 21
0.4482351134
 31
0.0
 40
0.6088373611
 41
5.3943220613
 42
6.9651183881
  0
ELLIPSE
  5
636
100
AcDbEntity
  8
284
100
AcDbEllipse
 62
7
  6
CONTINUOUS
 10
17.2934248158
 20
10.8257119622
 30
0.0
 11
-0.2237009107
 21
0.4473351135
 31
0.0
 40
0.6121897086
 41
4.0274505145
 42
5.5985514278
  0
ELLIPSE
  5
637
100
AcDbEntity
  8
284
100
AcDbEllipse
 62
7
  6
CONTINUOUS
 10
24.2776205546
 20
15.2044184493
 30
0.0
 11
-0.7417913999
 21
1.2002436976
 31
0.0
 40
0.5587454355
 41
5.0176587298
 42
6.2153925345
  0
ELLIPSE
  5
638
100
AcDbEntity
  8
284
100
AcDbEllipse
 62
7
  6
CONTINUOUS
 10
13.6202263346
 20
14.1333752419
 30
0.0
 11
0.4999881828
 21
-0.0070264249
 31
0.0
 40
0.4892375088
 41
-2.3493192548
 42
-0.7727633415
  0
ELLIPSE
  5
639
100
AcDbEntity
  8
284
100
AcDbEllipse
 62
7
  6
CONTINUOUS
 10
8.1007324821
 20
16.8931221682
 30
0.0
 11
0.4999881828
 21
-0.0070264249
 31
0.0
 40
0.4892375088
 41
-3.1347355197
 42
-2.3493192548
  0
ELLIPSE
  5
63A
100
AcDbEntity
  8
284
100
AcDbEllipse
 62
7
  6
CONTINUOUS
 10
15.4764503372
 20
-22.4789646007
 30
0.0
 11
-0.2713091605
 21
0.4239062184
 31
0.0
 40
0.5451249042
 41
-3.2164578779
 42
-2.3115524019
  0
ELLIPSE
  5
63B
100
AcDbEntity
  8
290
100
AcDbEllipse
 62
7
  6
CONTINUOUS
 10
-13.0295030548
 20
24.8512811495
 30
0.0
 11
-0.2786191524
 21
0.7501668109
 31
0.0
 40
0.6610921126
 41
-0.6157157441
 42
0.0220661573
  0
ELLIPSE
  5
63C
100
AcDbEntity
  8
290
100
AcDbEllipse
 62
7
  6
CONTINUOUS
 10
13.9402176775
 20
-27.6309415542
 30
0.0
 11
-0.2786191524
 21
0.7501668109
 31
0.0
 40
0.6610921126
 41
-3.1629083636
 42
-2.1868166574
  0
ELLIPSE
  5
63D
100
AcDbEntity
  8
290
100
AcDbEllipse
 62
7
  6
CONTINUOUS
 10
17.0223628061
 20
9.825348219
 30
0.0
 11
-0.2783604326
 21
0.7500177284
 31
0.0
 40
0.6614719787
 41
-2.1862531203
 42
-0.61576138
  0
ENDSEC
  0
SECTION
  2
OBJECTS
  0
DICTIONARY
  5
C
100
AcDbDictionary
280
0
281
1
  3
ACAD_GROUP
350
D
  3
ACAD_MLINESTYLE
350
17
  3
ACAD_LAYOUT
350
1A
  3
ACAD_PLOTSETTINGS
350
19
  3
ACAD_PLOTSTYLENAME
350
E
  0
DICTIONARY
  5
D
102
{ACAD_REACTORS
330
C
102
}
100
AcDbDictionary
280
0
281
1
  0
ACDBDICTIONARYWDFLT
  5
E
102
{ACAD_REACTORS
330
C
102
}
100
AcDbDictionary
281
1
  3
Normal
350
F
100
AcDbDictionaryWithDefault
340
F
  0
DICTIONARY
  5
17
102
{ACAD_REACTORS
330
C
102
}
100
AcDbDictionary
280
0
281
1
  3
Standard
350
18
  0
DICTIONARY
  5
19
102
{ACAD_REACTORS
330
C
102
}
100
AcDbDictionary
281
1
  0
DICTIONARY
  5
1A
102
{ACAD_REACTORS
330
C
102
}
100
AcDbDictionary
281
1
  3
Model
350
63E
  3
Layout1
350
63F
  0
ACDBPLACEHOLDER
  5
F
102
{ACAD_REACTORS
330
E
102
}
  0
MLINESTYLE
  5
18
102
{ACAD_REACTORS
330
17
102
}
100
AcDbMlineStyle
  2
STANDARD
 70
0
  3

 62
256
 51
90.0
 52
90.0
 71
2
 49
0.5
 62
256
  6
BYLAYER
 49
-0.5
 62
256
  6
BYLAYER
  0
LAYOUT
  5
63E
102
{ACAD_REACTORS
330
1A
102
}
100
AcDbPlotSettings
  1

  2
none_device
  4
ISO_A4_(297.00_x_210.00_MM)
  6

 40
0.0
 41
0.0
 42
0.0
 43
0.0
 44
297.0
 45
210.0
 46
0.0
 47
0.0
 48
0.0
 49
0.0
140
0.0
141
0.0
142
1.0
143
1.0
 70
1024
 72
1
 73
0
 74
0
  7

 75
0
147
1.0
148
0.0
149
0.0
100
AcDbLayout
  1
Model
 70
0
 71
0
 10
0.0
 20
0.0
 11
297.0
 21
210.0
 12
0.0
 22
0.0
 32
0.0
 14
0.0
 24
0.0
 34
0.0
 15
0.0
 25
0.0
 35
0.0
146
0.0
 13
0.0
 23
0.0
 33
0.0
 16
1.0
 26
0.0
 36
0.0
 17
0.0
 27
1.0
 37
0.0
 76
0
330
230
345
0
346
0
  0
LAYOUT
  5
63F
102
{ACAD_REACTORS
330
1A
102
}
100
AcDbPlotSettings
  1

  2
none_device
  4
ISO_A4_(297.00_x_210.00_MM)
  6

 40
0.0
 41
0.0
 42
0.0
 43
0.0
 44
297.0
 45
210.0
 46
0.0
 47
0.0
 48
0.0
 49
0.0
140
0.0
141
0.0
142
1.0
143
1.0
 70
0
 72
1
 73
0
 74
0
  7

 75
0
147
1.0
148
0.0
149
0.0
100
AcDbLayout
  1
Layout1
 70
0
 71
1
 10
0.0
 20
0.0
 11
297.0
 21
210.0
 12
0.0
 22
0.0
 32
0.0
 14
0.0
 24
0.0
 34
0.0
 15
0.0
 25
0.0
 35
0.0
146
0.0
 13
0.0
 23
0.0
 33
0.0
 16
1.0
 26
0.0
 36
0.0
 17
0.0
 27
1.0
 37
0.0
 76
0
330
231
345
0
346
0
  0
ENDSEC
  0
EOF
