  0
SECTION
  2
HEADER
  9
$ACADVER
  1
AC1024
  9
$DWGCODEPAGE
  3
ANSI_1252
  9
$EXTMAX
 10
297.0
 20
210.0
 30
0.0
  9
$EXTMIN
 10
0.0
 20
0.0
 30
0.0
  9
$LIMMIN
 10
0.0
 20
0.0
  9
$LIMMAX
 10
297.0
 20
210.0
  9
$VIEWCTR
 10
148.5
 20
105.0
  9
$VIEWSIZE
 40
210.0
  9
$CLAYER
  8
0
  9
$LTSCALE
 40
16.335
  9
$CELTYPE
  6
BYLAYER
  9
$DIMSCALE
 40
1.0
  9
$DIMASZ
 40
3.0
  9
$DIMEXO
 40
0.5
  9
$DIMDLI
 40
11.286
  9
$DIMEXE
 40
1.5
  9
$DIMCEN
 40
2.673
  9
$DIMLFAC
 40
1.0
  9
$DIMBLK
  1
_FILLED
  9
$DIMALT
 70
0
  9
$DIMALTF
 40
0.0393700787
  9
$DIMTXT
 40
3.0
  9
$DIMTOL
 70
1
  9
$DIMLIM
 70
0
  9
$DIMTFAC
 40
1.0
  9
$DIMTP
 40
0.01
  9
$DIMTM
 40
0.01
  9
$DIMGAP
 40
0.625
  9
$DIMDSEP
 70
44
  9
$AUNITS
 70
0
  9
$PDMODE
 70
3
  9
$PDSIZE
 40
3.0
  9
$HANDSEED
  5
3BD
  9
$TILEMODE
 70
1
  9
$MEASUREMENT
 70
1
  9
$INSUNITS
 70
4
  0
ENDSEC
  0
SECTION
  2
CLASSES
  0
CLASS
  1
ACDBDICTIONARYWDFLT
  2
AcDbDictionaryWithDefault
  3
AutoCAD 2000
 90
0
 91
1
280
0
281
0
  0
CLASS
  1
ACDBPLACEHOLDER
  2
AcDbPlaceHolder
  3
AutoCAD 2000
 90
0
 91
1
280
0
281
0
  0
CLASS
  1
LAYOUT
  2
AcDbLayout
  3
AutoCAD 2000
 90
0
 91
0
280
0
281
0
  0
ENDSEC
  0
SECTION
  2
TABLES
  0
TABLE
  2
VPORT
  5
8
100
AcDbSymbolTable
 70
2
  0
VPORT
  5
1F4
100
AcDbSymbolTableRecord
100
AcDbViewportTableRecord
  2
*ACTIVE
 70
0
 10
0.0
 20
0.0
 11
1.0
 21
1.0
 12
148.5
 22
105.0
 13
0.0
 23
0.0
 14
1.0
 24
1.0
 15
0.0
 25
0.0
 16
0.0
 26
0.0
 36
1.0
 17
0.0
 27
0.0
 37
0.0
 40
210.0
 41
1.4142857143
 42
50.0
 43
0.0
 44
0.0
 50
0.0
 51
0.0
 71
0
 72
100
 73
1
 74
1
 75
0
 76
0
 77
0
 78
0
  0
ENDTAB
  0
TABLE
  2
LTYPE
  5
5
100
AcDbSymbolTable
 70
6
  0
LTYPE
  5
14
100
AcDbSymbolTableRecord
100
AcDbLinetypeTableRecord
  2
BYBLOCK
 70
0
  3

 72
65
 73
0
 40
0.0
  0
LTYPE
  5
15
100
AcDbSymbolTableRecord
100
AcDbLinetypeTableRecord
  2
BYLAYER
 70
0
  3

 72
65
 73
0
 40
0.0
  0
LTYPE
  5
16
100
AcDbSymbolTableRecord
100
AcDbLinetypeTableRecord
  2
CONTINUOUS
 70
64
  3
Solid line
 72
65
 73
0
 40
0.0
  0
LTYPE
  5
1F5
100
AcDbSymbolTableRecord
100
AcDbLinetypeTableRecord
  2
CENTER
 70
64
  3
____ _ ____ _ ____ _ ____ _ ____ _ ____ _ ____
 72
65
 73
4
 40
0.6
 49
0.375
 74
0
 49
-0.075
 74
0
 49
0.075
 74
0
 49
-0.075
 74
0
  0
LTYPE
  5
1F6
100
AcDbSymbolTableRecord
100
AcDbLinetypeTableRecord
  2
HIDDEN
 70
64
  3
- - - - - - - - - - - - - - - - - - - -
 72
65
 73
2
 40
0.2
 49
0.1
 74
0
 49
-0.1
 74
0
  0
LTYPE
  5
1F7
100
AcDbSymbolTableRecord
100
AcDbLinetypeTableRecord
  2
PHANTOM
 70
64
  3
_____ _ _ _____ _ _ _____ _ _ _____
 72
65
 73
6
 40
0.8
 49
0.45
 74
0
 49
-0.05
 74
0
 49
0.1
 74
0
 49
-0.05
 74
0
 49
0.1
 74
0
 49
-0.05
 74
0
  0
LTYPE
  5
1F8
100
AcDbSymbolTableRecord
100
AcDbLinetypeTableRecord
  2
DOT
 70
64
  3
. . . . . . . . . . . . . . . . . . . .
 72
65
 73
2
 40
0.2
 49
0.1
 74
0
 49
-0.1
 74
0
  0
LTYPE
  5
1F9
100
AcDbSymbolTableRecord
100
AcDbLinetypeTableRecord
  2
DASHED
 70
64
  3
- - - - - - - - - - - - - - - - - - - -
 72
65
 73
2
 40
0.2
 49
0.1
 74
0
 49
-0.1
 74
0
  0
ENDTAB
  0
TABLE
  2
LAYER
  5
2
100
AcDbSymbolTable
 70
36
  0
LAYER
  5
10
100
AcDbSymbolTableRecord
100
AcDbLayerTableRecord
  2
0
 70
0
 62
7
  6
CONTINUOUS
370
-3
390
F
  0
LAYER
  5
1FA
100
AcDbSymbolTableRecord
100
AcDbLayerTableRecord
  2
DEFAULT_1
 70
0
 62
7
  6
CENTER
370
-3
390
F
  0
LAYER
  5
1FB
100
AcDbSymbolTableRecord
100
AcDbLayerTableRecord
  2
DEFAULT_2
 70
0
 62
7
  6
HIDDEN
370
-3
390
F
  0
LAYER
  5
1FC
100
AcDbSymbolTableRecord
100
AcDbLayerTableRecord
  2
DEFAULT_3
 70
0
 62
7
  6
PHANTOM
370
-3
390
F
  0
LAYER
  5
1FD
100
AcDbSymbolTableRecord
100
AcDbLayerTableRecord
  2
218
 70
0
 62
7
  6
CONTINUOUS
370
-3
390
F
  0
LAYER
  5
1FE
100
AcDbSymbolTableRecord
100
AcDbLayerTableRecord
  2
260
 70
0
 62
7
  6
CONTINUOUS
370
-3
390
F
  0
LAYER
  5
1FF
100
AcDbSymbolTableRecord
100
AcDbLayerTableRecord
  2
268
 70
0
 62
7
  6
CONTINUOUS
370
-3
390
F
  0
LAYER
  5
200
100
AcDbSymbolTableRecord
100
AcDbLayerTableRecord
  2
284
 70
0
 62
7
  6
CONTINUOUS
370
-3
390
F
  0
LAYER
  5
201
100
AcDbSymbolTableRecord
100
AcDbLayerTableRecord
  2
320
 70
0
 62
7
  6
CONTINUOUS
370
-3
390
F
  0
LAYER
  5
202
100
AcDbSymbolTableRecord
100
AcDbLayerTableRecord
  2
340
 70
0
 62
7
  6
CONTINUOUS
370
-3
390
F
  0
LAYER
  5
203
100
AcDbSymbolTableRecord
100
AcDbLayerTableRecord
  2
712
 70
0
 62
7
  6
CONTINUOUS
370
-3
390
F
  0
LAYER
  5
204
100
AcDbSymbolTableRecord
100
AcDbLayerTableRecord
  2
715
 70
0
 62
7
  6
CONTINUOUS
370
-3
390
F
  0
LAYER
  5
205
100
AcDbSymbolTableRecord
100
AcDbLayerTableRecord
  2
ASSI
 70
0
 62
7
  6
CONTINUOUS
370
-3
390
F
  0
LAYER
  5
206
100
AcDbSymbolTableRecord
100
AcDbLayerTableRecord
  2
COLORE_TOP
 70
0
 62
7
  6
CONTINUOUS
370
-3
390
F
  0
LAYER
  5
207
100
AcDbSymbolTableRecord
100
AcDbLayerTableRecord
  2
COORDINATE
 70
0
 62
7
  6
CONTINUOUS
370
-3
390
F
  0
LAYER
  5
208
100
AcDbSymbolTableRecord
100
AcDbLayerTableRecord
  2
COORD_ORIGINE
 70
0
 62
7
  6
CONTINUOUS
370
-3
390
F
  0
LAYER
  5
209
100
AcDbSymbolTableRecord
100
AcDbLayerTableRecord
  2
COPY-PUBBLISH
 70
0
 62
7
  6
CONTINUOUS
370
-3
390
F
  0
LAYER
  5
20A
100
AcDbSymbolTableRecord
100
AcDbLayerTableRecord
  2
COSMETICHE
 70
0
 62
7
  6
CONTINUOUS
370
-3
390
F
  0
LAYER
  5
20B
100
AcDbSymbolTableRecord
100
AcDbLayerTableRecord
  2
CURVA_CENTRALE
 70
0
 62
7
  6
CONTINUOUS
370
-3
390
F
  0
LAYER
  5
20C
100
AcDbSymbolTableRecord
100
AcDbLayerTableRecord
  2
CURVE
 70
0
 62
7
  6
CONTINUOUS
370
-3
390
F
  0
LAYER
  5
20D
100
AcDbSymbolTableRecord
100
AcDbLayerTableRecord
  2
DRAFT
 70
0
 62
7
  6
CONTINUOUS
370
-3
390
F
  0
LAYER
  5
20E
100
AcDbSymbolTableRecord
100
AcDbLayerTableRecord
  2
IGES
 70
0
 62
7
  6
CONTINUOUS
370
-3
390
F
  0
LAYER
  5
20F
100
AcDbSymbolTableRecord
100
AcDbLayerTableRecord
  2
IMPORT
 70
0
 62
7
  6
CONTINUOUS
370
-3
390
F
  0
LAYER
  5
210
100
AcDbSymbolTableRecord
100
AcDbLayerTableRecord
  2
IMPORTED
 70
0
 62
7
  6
CONTINUOUS
370
-3
390
F
  0
LAYER
  5
211
100
AcDbSymbolTableRecord
100
AcDbLayerTableRecord
  2
INCISIONI_LASER
 70
0
 62
7
  6
CONTINUOUS
370
-3
390
F
  0
LAYER
  5
212
100
AcDbSymbolTableRecord
100
AcDbLayerTableRecord
  2
INTF_1
 70
0
 62
7
  6
CONTINUOUS
370
-3
390
F
  0
LAYER
  5
213
100
AcDbSymbolTableRecord
100
AcDbLayerTableRecord
  2
INTF_11
 70
0
 62
7
  6
CONTINUOUS
370
-3
390
F
  0
LAYER
  5
214
100
AcDbSymbolTableRecord
100
AcDbLayerTableRecord
  2
INTF_2
 70
0
 62
7
  6
CONTINUOUS
370
-3
390
F
  0
LAYER
  5
215
100
AcDbSymbolTableRecord
100
AcDbLayerTableRecord
  2
NOTE
 70
0
 62
7
  6
CONTINUOUS
370
-3
390
F
  0
LAYER
  5
216
100
AcDbSymbolTableRecord
100
AcDbLayerTableRecord
  2
PIANI
 70
0
 62
7
  6
CONTINUOUS
370
-3
390
F
  0
LAYER
  5
217
100
AcDbSymbolTableRecord
100
AcDbLayerTableRecord
  2
PIANI_DI_RIFERIMENTO
 70
0
 62
7
  6
CONTINUOUS
370
-3
390
F
  0
LAYER
  5
218
100
AcDbSymbolTableRecord
100
AcDbLayerTableRecord
  2
PIANI_ORIGINE
 70
0
 62
7
  6
CONTINUOUS
370
-3
390
F
  0
LAYER
  5
219
100
AcDbSymbolTableRecord
100
AcDbLayerTableRecord
  2
PIANI_RIFERIMENTO
 70
0
 62
7
  6
CONTINUOUS
370
-3
390
F
  0
LAYER
  5
21A
100
AcDbSymbolTableRecord
100
AcDbLayerTableRecord
  2
PIANI_SFORMO
 70
0
 62
7
  6
CONTINUOUS
370
-3
390
F
  0
LAYER
  5
21B
100
AcDbSymbolTableRecord
100
AcDbLayerTableRecord
  2
PUNTI
 70
0
 62
7
  6
CONTINUOUS
370
-3
390
F
  0
LAYER
  5
21C
100
AcDbSymbolTableRecord
100
AcDbLayerTableRecord
  2
RACCORDO
 70
0
 62
7
  6
CONTINUOUS
370
-3
390
F
  0
LAYER
  5
21D
100
AcDbSymbolTableRecord
100
AcDbLayerTableRecord
  2
RGB__255__255__255__
 70
0
 62
7
  6
CONTINUOUS
370
-3
390
F
  0
LAYER
  5
21E
100
AcDbSymbolTableRecord
100
AcDbLayerTableRecord
  2
RGB____0____0____0__
 70
0
 62
7
  6
CONTINUOUS
370
-3
390
F
  0
LAYER
  5
21F
100
AcDbSymbolTableRecord
100
AcDbLayerTableRecord
  2
RINTRACCIABILITA
 70
0
 62
7
  6
CONTINUOUS
370
-3
390
F
  0
LAYER
  5
220
100
AcDbSymbolTableRecord
100
AcDbLayerTableRecord
  2
SMUSSO
 70
0
 62
7
  6
CONTINUOUS
370
-3
390
F
  0
LAYER
  5
221
100
AcDbSymbolTableRecord
100
AcDbLayerTableRecord
  2
SNAPLINE
 70
0
 62
7
  6
CONTINUOUS
370
-3
390
F
  0
LAYER
  5
222
100
AcDbSymbolTableRecord
100
AcDbLayerTableRecord
  2
SUPERFICI
 70
0
 62
7
  6
CONTINUOUS
370
-3
390
F
  0
LAYER
  5
223
100
AcDbSymbolTableRecord
100
AcDbLayerTableRecord
  2
TRASH
 70
0
 62
7
  6
CONTINUOUS
370
-3
390
F
  0
LAYER
  5
224
100
AcDbSymbolTableRecord
100
AcDbLayerTableRecord
  2
WHITE
 70
0
 62
7
  6
CONTINUOUS
370
-3
390
F
  0
LAYER
  5
225
100
AcDbSymbolTableRecord
100
AcDbLayerTableRecord
  2
XSEC_DATUMS
 70
0
 62
7
  6
CONTINUOUS
370
-3
390
F
  0
ENDTAB
  0
TABLE
  2
STYLE
  5
3
100
AcDbSymbolTable
 70
1
  0
STYLE
  5
11
100
AcDbSymbolTableRecord
100
AcDbTextStyleTableRecord
  2
STANDARD
 70
0
 40
0.0
 41
0.8
 50
0.0
 71
0
 42
0.2
  3
txt
  4

  0
STYLE
  5
226
100
AcDbSymbolTableRecord
100
AcDbTextStyleTableRecord
  2
TEXTSTYLE_1
 70
0
 40
0.0
 41
0.8
 50
0.0
 71
0
 42
0.2
  3
gdt
  4

  0
ENDTAB
  0
TABLE
  2
VIEW
  5
6
100
AcDbSymbolTable
 70
0
  0
ENDTAB
  0
TABLE
  2
UCS
  5
7
100
AcDbSymbolTable
 70
0
  0
ENDTAB
  0
TABLE
  2
APPID
  5
9
100
AcDbSymbolTable
 70
1
  0
APPID
  5
227
100
AcDbSymbolTableRecord
100
AcDbRegAppTableRecord
  2
ACAD
 70
0
  0
ENDTAB
  0
TABLE
  2
BLOCK_RECORD
  5
1
100
AcDbSymbolTable
 70
0
  0
BLOCK_RECORD
  5
228
100
AcDbSymbolTableRecord
100
AcDbBlockTableRecord
  2
*Model_Space
  0
BLOCK_RECORD
  5
229
100
AcDbSymbolTableRecord
100
AcDbBlockTableRecord
  2
*Paper_Space
  0
BLOCK_RECORD
  5
22A
100
AcDbSymbolTableRecord
100
AcDbBlockTableRecord
  2
_FILLED
  0
ENDTAB
  0
TABLE
  2
DIMSTYLE
  5
A
100
AcDbSymbolTable
 70
1
100
AcDbDimStyleTable
 71
0
  0
DIMSTYLE
105
22B
100
AcDbSymbolTableRecord
100
AcDbDimStyleTableRecord
  2
STANDARD
 70
0
  3

  4

 40
1.0
 41
3.0
 42
0.5
 43
0.38
 44
1.5
 45
0.0
 46
0.0
 47
0.01
 48
0.01
140
3.0
141
0.09
142
0.0
143
25.4
144
1.0
145
0.0
146
1.0
147
0.625
 71
1
 72
0
 73
0
 74
0
 75
0
 76
0
 77
1
 78
8
 79
2
170
0
171
1
172
0
173
0
174
0
175
0
176
0
177
0
178
0
270
2
179
2
271
2
272
2
273
2
274
2
275
0
280
0
281
0
282
0
283
1
284
8
285
0
286
0
287
3
288
0
340
11
278
44
341
22A
342
22A
343
22A
344
22A
  0
ENDTAB
  0
ENDSEC
  0
SECTION
  2
BLOCKS
  0
BLOCK
  5
20
100
AcDbEntity
  8
0
100
AcDbBlockBegin
  2
*Model_Space
 70
0
 10
0.0
 20
0.0
 30
0.0
  3
*Model_Space
  1

  0
ENDBLK
  5
21
100
AcDbEntity
  8
0
100
AcDbBlockEnd
  0
BLOCK
  5
1C
100
AcDbEntity
  8
0
100
AcDbBlockBegin
  2
*Paper_Space
 70
0
 10
0.0
 20
0.0
 30
0.0
  3
*Paper_Space
  1

  0
ENDBLK
  5
1D
100
AcDbEntity
  8
0
100
AcDbBlockEnd
  0
BLOCK
  5
22C
100
AcDbEntity
  8
0
100
AcDbBlockBegin
  2
_FILLED
 70
64
 10
0.0
 20
0.0
  3
_FILLED
  1

  0
SOLID
  5
22D
100
AcDbEntity
  8
0
  6
BYBLOCK
 62
0
100
AcDbTrace
 10
0.0
 20
0.0
 11
-1.0
 21
0.3166666667
 12
-1.0
 22
-0.3166666667
 13
-1.0
 23
-0.3166666667
  0
ENDBLK
  5
22E
100
AcDbEntity
  8
0
  6
BYBLOCK
 62
0
100
AcDbBlockEnd
  0
ENDSEC
  0
SECTION
  2
ENTITIES
  0
LWPOLYLINE
  5
22F
100
AcDbEntity
  8
RACCORDO
100
AcDbPolyline
 62
250
  6
CONTINUOUS
 90
14
 70
0
 10
-13.2512703473
 20
-18.8264924766
 10
-13.3056435747
 20
-18.7953069003
 10
-13.3580487822
 20
-18.7566499625
 10
-13.4065461751
 20
-18.7115556319
 10
-13.4509151157
 20
-18.6602318926
 10
-13.4909346581
 20
-18.6029229146
 10
-13.526386021
 20
-18.5399278313
 10
-13.5570844069
 20
-18.4715801531
 10
-13.5828709492
 20
-18.3982397899
 10
-13.6036188634
 20
-18.3202705083
 10
-13.6192304735
 20
-18.2380513439
 10
-13.6296263458
 20
-18.1519919372
 10
-13.6347487633
 20
-18.0625330517
 10
-13.6345697862
 20
-17.9701270606
  0
LINE
  5
230
100
AcDbEntity
  8
268
100
AcDbLine
 62
7
  6
CONTINUOUS
 10
-6.0991533787
 20
24.398555006
 11
-4.5163967756
 21
25.2105391034
  0
LINE
  5
231
100
AcDbEntity
  8
268
100
AcDbLine
 62
7
  6
CONTINUOUS
 10
-6.5831036403
 20
22.6558570812
 11
-5.570886207
 21
23.1727845667
  0
LINE
  5
232
100
AcDbEntity
  8
268
100
AcDbLine
 62
250
  6
CONTINUOUS
 10
-6.4255850848
 20
22.6464212744
 11
-5.570886207
 21
23.0829058944
  0
LINE
  5
233
100
AcDbEntity
  8
268
100
AcDbLine
 62
7
  6
CONTINUOUS
 10
-4.4913319697
 20
23.5946443015
 11
-2.8900511788
 21
24.397366305
  0
LINE
  5
234
100
AcDbEntity
  8
268
100
AcDbLine
 62
7
  6
CONTINUOUS
 10
-2.8900511788
 20
24.397366305
 11
-2.3617840071
 21
24.660805125
  0
LINE
  5
235
100
AcDbEntity
  8
268
100
AcDbLine
 62
7
  6
CONTINUOUS
 10
-4.5163967756
 20
25.2105391034
 11
-3.9819468969
 21
25.4708865699
  0
LWPOLYLINE
  5
236
100
AcDbEntity
  8
RACCORDO
100
AcDbPolyline
 62
7
  6
CONTINUOUS
 90
12
 70
0
 10
1.08810308
 20
-25.9961703448
 10
1.1170487975
 20
-26.0101415672
 10
1.200833551
 20
-26.0448556304
 10
1.2876587693
 20
-26.0725599327
 10
1.3770701243
 20
-26.0930217375
 10
1.4689320414
 20
-26.1060675406
 10
1.562687961
 20
-26.1114618843
 10
1.6576886856
 20
-26.1090356358
 10
1.7537741194
 20
-26.0986223342
 10
1.8505612445
 20
-26.0800360672
 10
1.9473149614
 20
-26.0532405999
 10
1.9667970861
 20
-26.0468327798
  0
LINE
  5
237
100
AcDbEntity
  8
RACCORDO
100
AcDbLine
 62
7
  6
CONTINUOUS
 10
-13.2512703473
 20
-18.8264924766
 11
1.0891175908
 21
-25.9966864457
  0
LINE
  5
238
100
AcDbEntity
  8
RACCORDO
100
AcDbLine
 62
250
  6
CONTINUOUS
 10
-13.6345697862
 20
-17.9701270606
 11
0.6941637216
 21
-25.1344938145
  0
LINE
  5
239
100
AcDbEntity
  8
RACCORDO
100
AcDbLine
 62
7
  6
CONTINUOUS
 10
1.0882071082
 20
-25.9962301984
 11
1.0891184959
 21
-25.9966868982
  0
LWPOLYLINE
  5
23A
100
AcDbEntity
  8
268
100
AcDbPolyline
 62
7
  6
CONTINUOUS
 90
12
 70
0
 10
5.074306652
 20
25.8783847424
 10
5.0677879267
 20
25.8749126769
 10
5.0559335002
 20
25.8674084037
 10
5.0442783202
 20
25.8585358925
 10
5.0327827253
 20
25.8483507819
 10
5.0214914276
 20
25.8369197095
 10
5.0103463612
 20
25.8242726834
 10
4.9992794818
 20
25.8104431472
 10
4.9883333627
 20
25.7954736484
 10
4.9774860615
 20
25.7793907212
 10
4.9666476328
 20
25.7622224669
 10
4.9557632648
 20
25.7440038354
  0
LINE
  5
23B
100
AcDbEntity
  8
268
100
AcDbLine
 62
7
  6
CONTINUOUS
 10
-3.956882091
 20
22.1267342479
 11
-2.8900511788
 21
22.6653154974
  0
LINE
  5
23C
100
AcDbEntity
  8
268
100
AcDbLine
 62
7
  6
CONTINUOUS
 10
-1.4342702023
 20
22.6369741012
 11
5.0743762468
 21
25.8784194113
  0
LINE
  5
23D
100
AcDbEntity
  8
268
100
AcDbLine
 62
250
  6
CONTINUOUS
 10
-1.3587770618
 20
22.5992275309
 11
4.9557632648
 21
25.7440038354
  0
LINE
  5
23E
100
AcDbEntity
  8
218
100
AcDbLine
 62
7
  6
CONTINUOUS
 10
11.6798423458
 20
28.3671500987
 11
5.7727497149
 21
25.5813815785
  0
LWPOLYLINE
  5
23F
100
AcDbEntity
  8
218
100
AcDbPolyline
 62
7
  6
CONTINUOUS
 90
32
 70
0
 10
11.6798423458
 20
28.3671500987
 10
11.6955155152
 20
28.3742648351
 10
11.7112901553
 20
28.3808769574
 10
11.7271574666
 20
28.3869853783
 10
11.7431076056
 20
28.3925886101
 10
11.7591327458
 20
28.3976866686
 10
11.7752271174
 20
28.4022809955
 10
11.7913818451
 20
28.4063712808
 10
11.8075881337
 20
28.4099575548
 10
11.8238403767
 20
28.4130419804
 10
11.8401297049
 20
28.4156248426
 10
11.8564473603
 20
28.417706771
 10
11.8727879485
 20
28.4192906699
 10
11.8891426364
 20
28.4203774112
 10
11.9055027315
 20
28.4209682074
 10
11.9218631001
 20
28.4210667081
 10
11.9382149783
 20
28.4206743586
 10
11.9545497674
 20
28.4197929354
 10
11.9708626407
 20
28.4184268192
 10
11.9871449374
 20
28.416578012
 10
12.0033881812
 20
28.4142488307
 10
12.0195878934
 20
28.4114443592
 10
12.0357355486
 20
28.4081671345
 10
12.0518228223
 20
28.4044199874
 10
12.0678456214
 20
28.4002086636
 10
12.0837955934
 20
28.395536208
 10
12.0996645877
 20
28.3904059368
 10
12.1154489107
 20
28.3848242115
 10
12.1311404064
 20
28.3787945585
 10
12.1467311303
 20
28.372320748
 10
12.1622178145
 20
28.3654096993
 10
12.1775925296
 20
28.3580653887
  0
LWPOLYLINE
  5
240
100
AcDbEntity
  8
RACCORDO
100
AcDbPolyline
 62
7
  6
CONTINUOUS
 90
19
 70
0
 10
-9.8401253314
 20
20.3556620363
 10
-9.8568928427
 20
20.348712291
 10
-9.9490431625
 20
20.3054557024
 10
-10.03868433
 20
20.2547643586
 10
-10.1258107583
 20
20.1966783298
 10
-10.2100052356
 20
20.131509298
 10
-10.2904900296
 20
20.0599672088
 10
-10.3673014277
 20
19.9821149439
 10
-10.4402574147
 20
19.8981599121
 10
-10.5084050635
 20
19.8092388874
 10
-10.571707966
 20
19.7155177394
 10
-10.6300138161
 20
19.6171822061
 10
-10.6824359478
 20
19.5157286176
 10
-10.728917991
 20
19.4114191751
 10
-10.7693067875
 20
19.3044370622
 10
-10.8029987422
 20
19.1963493705
 10
-10.8298446221
 20
19.0877815611
 10
-10.8498697049
 20
18.9784648726
 10
-10.8545181697
 20
18.9455788387
  0
LINE
  5
241
100
AcDbEntity
  8
RACCORDO
100
AcDbLine
 62
7
  6
CONTINUOUS
 10
-9.8401283113
 20
20.3556693753
 11
-5.9107650694
 21
21.9506024493
  0
LINE
  5
242
100
AcDbEntity
  8
RACCORDO
100
AcDbLine
 62
250
  6
CONTINUOUS
 10
-9.4849036679
 20
20.3311973114
 11
-5.6021761447
 21
21.9072008659
  0
LWPOLYLINE
  5
243
100
AcDbEntity
  8
268
100
AcDbPolyline
 62
7
  6
CONTINUOUS
 90
3
 70
0
 10
5.0925224565
 20
25.8857263932
 10
5.0799574368
 20
25.8810273424
 10
5.074306652
 20
25.8783847424
  0
LWPOLYLINE
  5
244
100
AcDbEntity
  8
RACCORDO
100
AcDbPolyline
 62
250
  6
CONTINUOUS
 90
7
 70
0
 10
-9.8400018768
 20
20.355720723
 10
-9.7822426369
 20
20.3737385677
 10
-9.7255585925
 20
20.3819467962
 10
-9.6668325058
 20
20.3817486927
 10
-9.6067076051
 20
20.373146427
 10
-9.5458424398
 20
20.35623422
 10
-9.4849036679
 20
20.3311973114
  0
LWPOLYLINE
  5
245
100
AcDbEntity
  8
268
100
AcDbPolyline
 62
7
  6
CONTINUOUS
 90
10
 70
0
 10
5.0925224565
 20
25.8857263932
 10
5.1017620774
 20
25.8884721922
 10
5.1103252312
 20
25.8907379107
 10
5.1182119181
 20
25.8925235487
 10
5.1254612764
 20
25.8938499533
 10
5.1320341677
 20
25.8946962775
 10
5.1378131771
 20
25.8949999802
 10
5.1427941343
 20
25.8947606444
 10
5.1469812095
 20
25.8939786873
 10
5.1495831817
 20
25.8929759754
  0
LINE
  5
246
100
AcDbEntity
  8
268
100
AcDbLine
 62
7
  6
CONTINUOUS
 10
11.0893858206
 20
-23.5669556832
 11
10.5621411049
 21
-23.4586634112
  0
LINE
  5
247
100
AcDbEntity
  8
268
100
AcDbLine
 62
7
  6
CONTINUOUS
 10
7.155034296
 20
-24.5298685031
 11
8.7615667654
 21
-25.3331347377
  0
LINE
  5
248
100
AcDbEntity
  8
268
100
AcDbLine
 62
250
  6
CONTINUOUS
 10
7.0904390032
 20
-24.3948390547
 11
8.6962154654
 21
-25.1977272858
  0
LINE
  5
249
100
AcDbEntity
  8
268
100
AcDbLine
 62
250
  6
CONTINUOUS
 10
8.6962154654
 20
-24.9443558921
 11
7.0904390032
 21
-24.141467661
  0
LWPOLYLINE
  5
24A
100
AcDbEntity
  8
RACCORDO
100
AcDbPolyline
 62
250
  6
CONTINUOUS
 90
9
 70
0
 10
-13.8688873402
 20
-17.688310128
 10
-13.8672878828
 20
-17.7186242463
 10
-13.8577327689
 20
-17.7579875739
 10
-13.8398236782
 20
-17.7968728461
 10
-13.8137503611
 20
-17.8348680659
 10
-13.7797890695
 20
-17.8715706666
 10
-13.7382996299
 20
-17.906591777
 10
-13.6897216311
 20
-17.9395603415
 10
-13.6345697665
 20
-17.9701270516
  0
LWPOLYLINE
  5
24B
100
AcDbEntity
  8
RACCORDO
100
AcDbPolyline
 62
7
  6
CONTINUOUS
 90
15
 70
0
 10
-13.8688810347
 20
-17.6883103178
 10
-13.8696271051
 20
-17.7382241719
 10
-13.8649625699
 20
-17.856299211
 10
-13.8513836606
 20
-17.9701208355
 10
-13.8292146099
 20
-18.0792887049
 10
-13.7987517244
 20
-18.1836489366
 10
-13.7602393222
 20
-18.2829547881
 10
-13.7141155623
 20
-18.3765921657
 10
-13.6607620392
 20
-18.4642408972
 10
-13.600408355
 20
-18.5457396171
 10
-13.5336323413
 20
-18.6204682332
 10
-13.4610391435
 20
-18.6879871761
 10
-13.3829250381
 20
-18.7481577063
 10
-13.2998648786
 20
-18.8005749613
 10
-13.2502692423
 20
-18.8269831203
  0
LINE
  5
24C
100
AcDbEntity
  8
RACCORDO
100
AcDbLine
 62
7
  6
CONTINUOUS
 10
-13.8688812903
 20
-17.6881112246
 11
-13.8688873402
 21
-17.688310128
  0
LINE
  5
24D
100
AcDbEntity
  8
268
100
AcDbLine
 62
7
  6
CONTINUOUS
 10
-2.8021770595
 20
23.3980998104
 11
-2.2749323438
 21
24.0398075384
  0
LINE
  5
24E
100
AcDbEntity
  8
268
100
AcDbLine
 62
7
  6
CONTINUOUS
 10
-0.6256567474
 20
22.2458093075
 11
-0.1323347322
 21
22.4988928394
  0
LINE
  5
24F
100
AcDbEntity
  8
268
100
AcDbLine
 62
7
  6
CONTINUOUS
 10
5.948783586
 20
24.8642603047
 11
1.2111681521
 21
22.5292097901
  0
LINE
  5
250
100
AcDbEntity
  8
268
100
AcDbLine
 62
7
  6
CONTINUOUS
 10
5.5245195173
 20
23.4248287025
 11
5.948783586
 21
23.6324261233
  0
LINE
  5
251
100
AcDbEntity
  8
268
100
AcDbLine
 62
7
  6
CONTINUOUS
 10
7.9348531658
 20
24.254458885
 11
5.8780729079
 21
23.2480520072
  0
LINE
  5
252
100
AcDbEntity
  8
268
100
AcDbLine
 62
7
  6
CONTINUOUS
 10
-0.1323347322
 20
22.4988928394
 11
5.3453052573
 21
25.1672248026
  0
LINE
  5
253
100
AcDbEntity
  8
268
100
AcDbLine
 62
250
  6
CONTINUOUS
 10
8.7851180414
 20
-24.7129188324
 11
7.1783131225
 21
-23.909516373
  0
LINE
  5
254
100
AcDbEntity
  8
268
100
AcDbLine
 62
7
  6
CONTINUOUS
 10
6.528468463
 20
-22.590755143
 11
8.8479213889
 21
-23.7504816059
  0
LINE
  5
255
100
AcDbEntity
  8
268
100
AcDbLine
 62
7
  6
CONTINUOUS
 10
8.9981708281
 20
-23.7632267923
 11
9.4074360735
 21
-23.967859415
  0
LINE
  5
256
100
AcDbEntity
  8
268
100
AcDbLine
 62
7
  6
CONTINUOUS
 10
9.0954087623
 20
-23.5467093541
 11
6.5543535894
 21
-22.2761817677
  0
LINE
  5
257
100
AcDbEntity
  8
268
100
AcDbLine
 62
250
  6
CONTINUOUS
 10
10.518718779
 20
-23.4369522483
 11
10.5621411049
 21
-23.4586634112
  0
LINE
  5
258
100
AcDbEntity
  8
268
100
AcDbLine
 62
7
  6
CONTINUOUS
 10
9.9085815607
 20
-23.0178382237
 11
6.6282872017
 21
-21.3776910442
  0
LWPOLYLINE
  5
259
100
AcDbEntity
  8
RACCORDO
100
AcDbPolyline
 62
250
  6
CONTINUOUS
 90
13
 70
0
 10
-13.6345697862
 20
-17.9701270606
 10
-13.5288204626
 20
-14.9767577982
 10
-13.3965202345
 20
-11.971004928
 10
-13.2376857152
 20
-8.9532554031
 10
-13.052336889
 20
-5.9238977813
 10
-12.8404975139
 20
-2.8833218547
 10
-12.6021951152
 20
0.1680814014
 10
-12.3374605842
 20
3.2299194821
 10
-12.0463277547
 20
6.301798311
 10
-11.7288337989
 20
9.3833226127
 10
-11.3850196527
 20
12.4740959781
 10
-11.0149300131
 20
15.5737209137
 10
-10.6186129085
 20
18.6817988025
  0
LWPOLYLINE
  5
25A
100
AcDbEntity
  8
RACCORDO
100
AcDbPolyline
 62
250
  6
CONTINUOUS
 90
10
 70
0
 10
-10.8545181697
 20
18.9455788387
 10
-10.8551539733
 20
18.9395200779
 10
-10.8534600536
 20
18.9073046574
 10
-10.8433736267
 20
18.8743901448
 10
-10.8250015589
 20
18.8411252707
 10
-10.7985385029
 20
18.8078624781
 10
-10.7642648362
 20
18.7749541879
 10
-10.7225436896
 20
18.7427490649
 10
-10.6738171007
 20
18.711588324
 10
-10.6186013298
 20
18.6818021146
  0
LWPOLYLINE
  5
25B
100
AcDbEntity
  8
RACCORDO
100
AcDbPolyline
 62
7
  6
CONTINUOUS
 90
13
 70
0
 10
-10.8545166079
 20
18.9456600581
 10
-11.2436522304
 20
15.8955573731
 10
-11.6153448631
 20
12.7858500269
 10
-11.9605896909
 20
9.6849706976
 10
-12.2793332065
 20
6.5933670919
 10
-12.5715360195
 20
3.5114326257
 10
-12.8371625394
 20
0.439539979
 10
-13.0761769034
 20
-2.6219235147
 10
-13.2885487239
 20
-5.6725729294
 10
-13.4742497732
 20
-8.7120390063
 10
-13.6332523738
 20
-11.7399328898
 10
-13.7655346447
 20
-14.755818844
 10
-13.8688812903
 20
-17.6881112246
  0
LWPOLYLINE
  5
25C
100
AcDbEntity
  8
RACCORDO
100
AcDbPolyline
 62
250
  6
CONTINUOUS
 90
22
 70
0
 10
-10.6186129085
 20
18.6817988025
 10
-10.6031029838
 20
18.7800612081
 10
-10.5824486698
 20
18.8793660229
 10
-10.5567561422
 20
18.9792110607
 10
-10.5261606194
 20
19.0790879396
 10
-10.4908163222
 20
19.1784959878
 10
-10.4508934758
 20
19.2769444492
 10
-10.4065897035
 20
19.3739492537
 10
-10.3581345659
 20
19.4690066246
 10
-10.3057810602
 20
19.5616085955
 10
-10.2498117935
 20
19.6512713532
 10
-10.1905034995
 20
19.7375641764
 10
-10.1281273719
 20
19.820079333
 10
-10.0629868694
 20
19.8984160795
 10
-9.9954264925
 20
19.9721584691
 10
-9.9257989128
 20
20.0409073931
 10
-9.8544725036
 20
20.1043092158
 10
-9.781802049
 20
20.1620576426
 10
-9.7081340634
 20
20.2138663788
 10
-9.6338368874
 20
20.2594743786
 10
-9.5592994731
 20
20.2986505487
 10
-9.4849036679
 20
20.3311973114
  0
LWPOLYLINE
  5
25D
100
AcDbEntity
  8
218
100
AcDbPolyline
 62
7
  6
CONTINUOUS
 90
6
 70
0
 10
4.8031606408
 20
22.0034505763
 10
4.8016151936
 20
22.0026489064
 10
4.7983530265
 20
22.0007559963
 10
4.7952255447
 20
21.9986581932
 10
4.7922359174
 20
21.996357811
 10
4.7914710737
 20
21.9957179082
  0
LINE
  5
25E
100
AcDbEntity
  8
268
100
AcDbLine
 62
7
  6
CONTINUOUS
 10
7.2758574144
 20
23.3943860711
 11
5.8780729079
 21
22.6954938179
  0
LINE
  5
25F
100
AcDbEntity
  8
218
100
AcDbLine
 62
7
  6
CONTINUOUS
 10
4.8031606935
 20
22.0034506224
 11
4.8647172116
 21
22.0342288814
  0
LINE
  5
260
100
AcDbEntity
  8
218
100
AcDbLine
 62
250
  6
CONTINUOUS
 10
4.8881234142
 20
21.9955302657
 11
4.9541599307
 21
22.028548524
  0
LWPOLYLINE
  5
261
100
AcDbEntity
  8
218
100
AcDbPolyline
 62
250
  6
CONTINUOUS
 90
55
 70
0
 10
4.9541599307
 20
22.028548524
 10
4.9699105708
 20
22.0362160453
 10
4.9860396144
 20
22.0436609521
 10
5.0025470616
 20
22.0508832443
 10
5.0194463001
 20
22.057888144
 10
5.0367239421
 20
22.0646704291
 10
5.0543398243
 20
22.0712144338
 10
5.0722943828
 20
22.0775193919
 10
5.0905871815
 20
22.0835860695
 10
5.1091767487
 20
22.0894010998
 10
5.1280636792
 20
22.0949638425
 10
5.1472473781
 20
22.1002749379
 10
5.1666845899
 20
22.1053229402
 10
5.1863757863
 20
22.1101072017
 10
5.2063204956
 20
22.11462837
 10
5.2264740468
 20
22.118876942
 10
5.2468368992
 20
22.1228522792
 10
5.2674085935
 20
22.12655502
 10
5.2881430808
 20
22.1299775769
 10
5.3090405918
 20
22.1331192814
 10
5.3301008958
 20
22.1359808019
 10
5.3512772517
 20
22.1385565555
 10
5.3725698173
 20
22.1408458831
 10
5.3939784349
 20
22.1428494437
 10
5.4154558893
 20
22.1445636319
 10
5.4370021657
 20
22.1459877921
 10
5.458617279
 20
22.1471225799
 10
5.4802540588
 20
22.147966357
 10
5.5019124535
 20
22.148518484
 10
5.5235925148
 20
22.1487796002
 10
5.5452472273
 20
22.1487499855
 10
5.5668763759
 20
22.1484290154
 10
5.5884801757
 20
22.1478173144
 10
5.610012257
 20
22.1469170348
 10
5.6314723799
 20
22.1457275692
 10
5.6528607842
 20
22.1442495251
 10
5.6741318198
 20
22.1424868772
 10
5.6952850886
 20
22.140439045
 10
5.7163209885
 20
22.1381066091
 10
5.7371950636
 20
22.1354952865
 10
5.7579068413
 20
22.1326045278
 10
5.7784567942
 20
22.1294348824
 10
5.7988018834
 20
22.125993715
 10
5.8189415689
 20
22.1222805081
 10
5.8388763907
 20
22.1182957792
 10
5.8585649301
 20
22.1140484453
 10
5.878006716
 20
22.109537985
 10
5.8972022195
 20
22.1047649197
 10
5.916111436
 20
22.0997397302
 10
5.9347338502
 20
22.0944618785
 10
5.9530699772
 20
22.0889319026
 10
5.9710813581
 20
22.0831618968
 10
5.9887551731
 20
22.0771558924
 10
6.0061042419
 20
22.070909858
 10
6.0231285645
 20
22.0644237937
  0
LWPOLYLINE
  5
262
100
AcDbEntity
  8
218
100
AcDbPolyline
 62
250
  6
CONTINUOUS
 90
17
 70
0
 10
4.8647172116
 20
22.0342288814
 10
4.8680680692
 20
22.0358022084
 10
4.8730439787
 20
22.0377827199
 10
4.8781742969
 20
22.0394159479
 10
4.8834492581
 20
22.0406987834
 10
4.8888588211
 20
22.0416287845
 10
4.8943926883
 20
22.0422041809
 10
4.9000403258
 20
22.0424238773
 10
4.905790983
 20
22.0422874555
 10
4.9116337132
 20
22.0417951752
 10
4.9175573944
 20
22.0409479734
 10
4.9235507505
 20
22.039747463
 10
4.9296023729
 20
22.0381959291
 10
4.9357007419
 20
22.0362963253
 10
4.941834249
 20
22.0340522674
 10
4.9479912186
 20
22.0314680272
 10
4.9541599307
 20
22.028548524
  0
LINE
  5
263
100
AcDbEntity
  8
268
100
AcDbLine
 62
250
  6
CONTINUOUS
 10
10.4742669856
 20
-23.2593962657
 11
11.0893858206
 21
-23.5669556832
  0
LINE
  5
264
100
AcDbEntity
  8
268
100
AcDbLine
 62
7
  6
CONTINUOUS
 10
10.4742669856
 20
-23.2557761162
 11
11.112664647
 21
-23.5749749469
  0
LINE
  5
265
100
AcDbEntity
  8
268
100
AcDbLine
 62
7
  6
CONTINUOUS
 10
9.9085815607
 20
-21.3679307861
 11
6.7586871536
 21
-19.7929835826
  0
LINE
  5
266
100
AcDbEntity
  8
218
100
AcDbLine
 62
7
  6
CONTINUOUS
 10
4.7914713332
 20
21.9957181291
 11
3.8614318978
 21
21.2040779172
  0
LINE
  5
267
100
AcDbEntity
  8
218
100
AcDbLine
 62
250
  6
CONTINUOUS
 10
4.8881234142
 20
21.9955302657
 11
3.9224574723
 21
21.17356513
  0
LINE
  5
268
100
AcDbEntity
  8
268
100
AcDbLine
 62
7
  6
CONTINUOUS
 10
5.5911092094
 20
19.1374263291
 11
6.0902049422
 21
19.3876230022
  0
LINE
  5
269
100
AcDbEntity
  8
268
100
AcDbLine
 62
7
  6
CONTINUOUS
 10
6.0902049422
 20
19.3876230022
 11
11.5044776374
 21
22.0876386126
  0
LINE
  5
26A
100
AcDbEntity
  8
268
100
AcDbLine
 62
7
  6
CONTINUOUS
 10
10.8985310543
 20
22.3893865705
 11
6.1609156204
 21
20.0543360559
  0
LINE
  5
26B
100
AcDbEntity
  8
268
100
AcDbLine
 62
7
  6
CONTINUOUS
 10
12.1774938529
 20
22.1331385414
 11
11.5911150658
 21
21.8462164738
  0
LWPOLYLINE
  5
26C
100
AcDbEntity
  8
268
100
AcDbPolyline
 62
7
  6
CONTINUOUS
 90
18
 70
0
 10
12.1774938529
 20
22.1331385414
 10
12.2058683737
 20
22.1463204982
 10
12.2341028256
 20
22.1580548899
 10
12.2621972089
 20
22.1683417166
 10
12.2902015219
 20
22.1771938512
 10
12.3180657662
 20
22.1845984208
 10
12.3456399458
 20
22.1905168064
 10
12.3729090745
 20
22.1949402277
 10
12.3998881385
 20
22.197877465
 10
12.4264721011
 20
22.199316241
 10
12.45267706
 20
22.1992491044
 10
12.4784869175
 20
22.1976835064
 10
12.5037483437
 20
22.194629523
 10
12.528438097
 20
22.1900837386
 10
12.5525794192
 20
22.1840495688
 10
12.5760887054
 20
22.176547336
 10
12.5989844856
 20
22.1675619214
 10
12.6185324702
 20
22.1584792345
  0
LINE
  5
26D
100
AcDbEntity
  8
268
100
AcDbLine
 62
7
  6
CONTINUOUS
 10
-6.6730724582
 20
22.4426490226
 11
-6.6730724582
 21
22.4670445279
  0
LINE
  5
26E
100
AcDbEntity
  8
268
100
AcDbLine
 62
7
  6
CONTINUOUS
 10
7.2651647857
 20
17.7163959238
 11
8.8479213889
 21
18.5283800212
  0
LINE
  5
26F
100
AcDbEntity
  8
218
100
AcDbLine
 62
7
  6
CONTINUOUS
 10
16.7506222513
 20
21.5146271288
 11
20.967002029
 21
23.6599367455
  0
LINE
  5
270
100
AcDbEntity
  8
268
100
AcDbLine
 62
7
  6
CONTINUOUS
 10
5.5911092094
 20
17.9232228563
 11
6.0902049422
 21
18.1751874369
  0
LINE
  5
271
100
AcDbEntity
  8
218
100
AcDbLine
 62
7
  6
CONTINUOUS
 10
16.7506222513
 20
21.1044080859
 11
20.9730590158
 21
23.2224482783
  0
LINE
  5
272
100
AcDbEntity
  8
268
100
AcDbLine
 62
7
  6
CONTINUOUS
 10
6.0902049422
 20
18.1751874369
 11
11.5044776374
 21
20.8558000342
  0
LINE
  5
273
100
AcDbEntity
  8
268
100
AcDbLine
 62
7
  6
CONTINUOUS
 10
8.8479213889
 20
18.5283800212
 11
9.3823712676
 21
18.7887274877
  0
LINE
  5
274
100
AcDbEntity
  8
268
100
AcDbLine
 62
250
  6
CONTINUOUS
 10
10.3847447757
 20
18.3495181046
 11
15.1565837538
 21
20.6435935909
  0
LINE
  5
275
100
AcDbEntity
  8
268
100
AcDbLine
 62
250
  6
CONTINUOUS
 10
10.6123602755
 20
18.2357103546
 11
15.5984246217
 21
20.6327753106
  0
LINE
  5
276
100
AcDbEntity
  8
218
100
AcDbLine
 62
7
  6
CONTINUOUS
 10
16.3566363174
 20
22.5367829468
 11
19.9297100159
 21
24.2422162637
  0
LINE
  5
277
100
AcDbEntity
  8
268
100
AcDbLine
 62
7
  6
CONTINUOUS
 10
-6.2738791612
 20
23.8402955606
 11
-6.2738791612
 21
24.0936669543
  0
LINE
  5
278
100
AcDbEntity
  8
268
100
AcDbLine
 62
7
  6
CONTINUOUS
 10
-5.8598996598
 20
21.9665864395
 11
-5.8598996598
 21
22.0360626234
  0
LINE
  5
279
100
AcDbEntity
  8
268
100
AcDbLine
 62
7
  6
CONTINUOUS
 10
-5.570886207
 20
23.3860672816
 11
-5.570886207
 21
22.9337363059
  0
LINE
  5
27A
100
AcDbEntity
  8
268
100
AcDbLine
 62
7
  6
CONTINUOUS
 10
-4.6681026991
 20
23.2907787233
 11
-4.6681026991
 21
23.0374073295
  0
LWPOLYLINE
  5
27B
100
AcDbEntity
  8
268
100
AcDbPolyline
 62
7
  6
CONTINUOUS
 90
5
 70
0
 10
16.344927662
 20
19.5403054261
 10
16.3451756742
 20
19.5404455239
 10
16.3461029102
 20
19.5412731954
 10
16.3466093276
 20
19.5423242667
 10
16.3467210911
 20
19.5432561907
  0
LINE
  5
27C
100
AcDbEntity
  8
715
100
AcDbLine
 62
250
  6
CONTINUOUS
 10
16.5376739018
 20
20.2538583583
 11
16.4484142684
 21
20.2044948999
  0
LINE
  5
27D
100
AcDbEntity
  8
715
100
AcDbLine
 62
7
  6
CONTINUOUS
 10
16.5376739018
 20
20.2538583583
 11
16.4482739682
 21
20.2045596254
  0
LINE
  5
27E
100
AcDbEntity
  8
268
100
AcDbLine
 62
250
  6
CONTINUOUS
 10
10.9883478187
 20
17.234675452
 11
16.3466745989
 21
20.125615679
  0
LINE
  5
27F
100
AcDbEntity
  8
268
100
AcDbLine
 62
250
  6
CONTINUOUS
 10
10.6217276655
 20
16.7884633259
 11
16.2625230313
 21
19.8318018351
  0
LINE
  5
280
100
AcDbEntity
  8
715
100
AcDbLine
 62
7
  6
CONTINUOUS
 10
16.5376739018
 20
20.2538583583
 11
17.3534077584
 21
20.6840109506
  0
LINE
  5
281
100
AcDbEntity
  8
268
100
AcDbLine
 62
250
  6
CONTINUOUS
 10
10.5333377107
 20
16.6531701446
 11
16.2625230313
 21
19.619542681
  0
LINE
  5
282
100
AcDbEntity
  8
268
100
AcDbLine
 62
7
  6
CONTINUOUS
 10
10.6531038413
 20
16.5932870793
 11
16.3449271065
 21
19.5403148452
  0
LINE
  5
283
100
AcDbEntity
  8
268
100
AcDbLine
 62
250
  6
CONTINUOUS
 10
10.6156883418
 20
15.9124457371
 11
8.8479213889
 21
15.0096680376
  0
LINE
  5
284
100
AcDbEntity
  8
268
100
AcDbLine
 62
7
  6
CONTINUOUS
 10
9.4074360735
 20
15.4445751657
 11
10.4742669856
 21
15.9831564152
  0
LINE
  5
285
100
AcDbEntity
  8
268
100
AcDbLine
 62
7
  6
CONTINUOUS
 10
8.8729861948
 20
16.9124852193
 11
10.4742669856
 21
17.7152072228
  0
LINE
  5
286
100
AcDbEntity
  8
715
100
AcDbLine
 62
7
  6
CONTINUOUS
 10
17.4816951872
 20
20.4609192193
 11
17.976669934
 21
20.7084065927
  0
LINE
  5
287
100
AcDbEntity
  8
715
100
AcDbLine
 62
7
  6
CONTINUOUS
 10
20.4448478465
 20
20.888906445
 11
19.1333835355
 21
20.2331742895
  0
LINE
  5
288
100
AcDbEntity
  8
715
100
AcDbLine
 62
7
  6
CONTINUOUS
 10
18.4321597936
 20
19.8825624185
 11
18.2145070345
 21
19.773736039
  0
LINE
  5
289
100
AcDbEntity
  8
268
100
AcDbLine
 62
7
  6
CONTINUOUS
 10
10.4742669856
 20
17.7152072228
 11
11.0025341573
 21
17.9786460428
  0
LINE
  5
28A
100
AcDbEntity
  8
268
100
AcDbLine
 62
250
  6
CONTINUOUS
 10
11.322795123
 20
16.2584414385
 11
10.6156883418
 21
15.9124457371
  0
LINE
  5
28B
100
AcDbEntity
  8
268
100
AcDbLine
 62
250
  6
CONTINUOUS
 10
11.5702824964
 20
15.8315773186
 11
10.8631757153
 21
15.4855816172
  0
LINE
  5
28C
100
AcDbEntity
  8
218
100
AcDbLine
 62
7
  6
CONTINUOUS
 10
11.2626601021
 20
16.2885089489
 11
16.928524671
 21
19.0406974932
  0
LWPOLYLINE
  5
28D
100
AcDbEntity
  8
715
100
AcDbPolyline
 62
7
  6
CONTINUOUS
 90
10
 70
0
 10
21.2933496583
 20
20.4646292135
 10
21.3047461226
 20
20.4697978687
 10
21.3159665251
 20
20.4738497651
 10
21.3270108658
 20
20.4767849026
 10
21.3379741247
 20
20.478603434
 10
21.3487613219
 20
20.4793052065
 10
21.3590875173
 20
20.4788897621
 10
21.3688577311
 20
20.4773569482
 10
21.3781669431
 20
20.4747069175
 10
21.3870151534
 20
20.4709396699
  0
LWPOLYLINE
  5
28E
100
AcDbEntity
  8
RACCORDO
100
AcDbPolyline
 62
250
  6
CONTINUOUS
 90
22
 70
0
 10
4.8694663486
 20
13.1540123031
 10
4.7932127454
 20
13.1223944394
 10
4.7168466089
 20
13.0841326304
 10
4.6407497865
 20
13.0394244539
 10
4.5653027077
 20
12.9885052642
 10
4.4908822356
 20
12.9316318462
 10
4.4178604524
 20
12.8690777106
 10
4.3465923807
 20
12.8011490325
 10
4.2774461551
 20
12.7281995672
 10
4.2107992995
 20
12.6506159973
 10
4.1469980958
 20
12.5688133787
 10
4.0863442211
 20
12.4831933459
 10
4.0291283754
 20
12.3941538777
 10
3.9756284024
 20
12.3021251405
 10
3.9261257991
 20
12.2075915024
 10
3.8808897394
 20
12.1110528416
 10
3.8401517343
 20
12.0130119596
 10
3.8041074565
 20
11.9139539017
 10
3.772937456
 20
11.8143642616
 10
3.7467993953
 20
11.7147419904
 10
3.7258250512
 20
11.6155971906
 10
3.7101205993
 20
11.5174320485
  0
LINE
  5
28F
100
AcDbEntity
  8
RACCORDO
100
AcDbLine
 62
250
  6
CONTINUOUS
 10
8.9619911157
 20
14.6251172357
 11
4.8694663486
 21
13.1540123031
  0
LINE
  5
290
100
AcDbEntity
  8
268
100
AcDbLine
 62
7
  6
CONTINUOUS
 10
9.9085815607
 20
14.8427100803
 11
9.0954087623
 21
14.5584084124
  0
LINE
  5
291
100
AcDbEntity
  8
268
100
AcDbLine
 62
7
  6
CONTINUOUS
 10
-3.956882091
 20
22.7639038066
 11
-3.956882091
 21
22.1267342479
  0
LINE
  5
292
100
AcDbEntity
  8
268
100
AcDbLine
 62
7
  6
CONTINUOUS
 10
-2.8900511788
 20
22.6653154974
 11
-2.8900511788
 21
24.397366305
  0
LINE
  5
293
100
AcDbEntity
  8
268
100
AcDbLine
 62
7
  6
CONTINUOUS
 10
-2.1870582245
 20
24.5326878028
 11
-2.1870582245
 21
24.2717588264
  0
LINE
  5
294
100
AcDbEntity
  8
268
100
AcDbLine
 62
250
  6
CONTINUOUS
 10
10.8631757153
 20
15.4855816172
 11
9.0954087623
 21
14.5828039177
  0
LINE
  5
295
100
AcDbEntity
  8
218
100
AcDbLine
 62
250
  6
CONTINUOUS
 10
25.7583052424
 20
20.9079566028
 11
11.5702824964
 21
13.6897604839
  0
LINE
  5
296
100
AcDbEntity
  8
715
100
AcDbLine
 62
7
  6
CONTINUOUS
 10
21.2933785542
 20
20.4646436614
 11
20.188752016
 21
19.9123303923
  0
LINE
  5
297
100
AcDbEntity
  8
218
100
AcDbLine
 62
7
  6
CONTINUOUS
 10
25.4154076664
 20
21.4993674384
 11
17.681218755
 21
17.7424922321
  0
LINE
  5
298
100
AcDbEntity
  8
218
100
AcDbLine
 62
7
  6
CONTINUOUS
 10
24.5901611987
 20
21.9119906723
 11
21.0267303622
 21
20.2017359245
  0
LWPOLYLINE
  5
299
100
AcDbEntity
  8
218
100
AcDbPolyline
 62
7
  6
CONTINUOUS
 90
33
 70
0
 10
25.4154076664
 20
21.4993674384
 10
25.4307183004
 20
21.5066634425
 10
25.4458479451
 20
21.5135980625
 10
25.460790779
 20
21.5201687221
 10
25.4755416561
 20
21.5263715849
 10
25.4900946715
 20
21.5322057057
 10
25.504443114
 20
21.5376729973
 10
25.5185820591
 20
21.5427711738
 10
25.532506452
 20
21.5474983956
 10
25.5462095983
 20
21.5518573696
 10
25.5596871051
 20
21.5558461425
 10
25.5729344835
 20
21.5594632094
 10
25.5859451218
 20
21.5627120833
 10
25.5987151641
 20
21.5655911473
 10
25.611240692
 20
21.5680992272
 10
25.6235152378
 20
21.5702406392
 10
25.6355354858
 20
21.5720141049
 10
25.6472980896
 20
21.5734187743
 10
25.6587967796
 20
21.5744597498
 10
25.6700287808
 20
21.5751360904
 10
25.6809913163
 20
21.5754472631
 10
25.6916783603
 20
21.5753991257
 10
25.702087675
 20
21.5749910713
 10
25.7122170475
 20
21.5742228748
 10
25.7220607354
 20
21.5731011066
 10
25.7316170342
 20
21.5716254875
 10
25.7408842818
 20
21.5697960897
 10
25.7498570395
 20
21.5676201471
 10
25.7585341234
 20
21.5650977
 10
25.7669144134
 20
21.5622291065
 10
25.7749927999
 20
21.5590222066
 10
25.7827686077
 20
21.5554773496
 10
25.7843057547
 20
21.5547185246
  0
LWPOLYLINE
  5
29A
100
AcDbEntity
  8
RACCORDO
100
AcDbPolyline
 62
250
  6
CONTINUOUS
 90
22
 70
0
 10
5.3660125832
 20
12.1490588461
 10
5.3297887783
 20
12.1344621026
 10
5.2938251234
 20
12.1169443883
 10
5.2581216184
 20
12.0965057031
 10
5.2224870772
 20
12.0730098513
 10
5.1871126861
 20
12.0465930286
 10
5.1525720031
 20
12.017663822
 10
5.1188867172
 20
11.9861830205
 10
5.0860351396
 20
11.9521898349
 10
5.0545257617
 20
11.9162104853
 10
5.0243862695
 20
11.8782228289
 10
4.995588977
 20
11.8382490085
 10
4.968559318
 20
11.7968816716
 10
4.9433196619
 20
11.7540925777
 10
4.9198476394
 20
11.7099099674
 10
4.8985015758
 20
11.6650112102
 10
4.8793134615
 20
11.6193700486
 10
4.8622513061
 20
11.5730127402
 10
4.8475774634
 20
11.5266954264
 10
4.8353793845
 20
11.4806701546
 10
4.8255696182
 20
11.4346848775
 10
4.8181481646
 20
11.3887395951
  0
LINE
  5
29B
100
AcDbEntity
  8
RACCORDO
100
AcDbLine
 62
250
  6
CONTINUOUS
 10
9.5096482441
 20
13.6385361752
 11
5.3660125832
 21
12.1490588461
  0
LINE
  5
29C
100
AcDbEntity
  8
268
100
AcDbLine
 62
7
  6
CONTINUOUS
 10
-0.7122941758
 20
22.1393021389
 11
-0.7122941758
 21
20.9245686387
  0
LINE
  5
29D
100
AcDbEntity
  8
268
100
AcDbLine
 62
250
  6
CONTINUOUS
 10
-0.6244262102
 20
22.0327934088
 11
-0.6244262102
 21
20.8178385427
  0
LINE
  5
29E
100
AcDbEntity
  8
268
100
AcDbLine
 62
7
  6
CONTINUOUS
 10
10.5621411049
 20
16.7159407281
 11
11.0893858206
 21
17.3576484562
  0
LWPOLYLINE
  5
29F
100
AcDbEntity
  8
218
100
AcDbPolyline
 62
250
  6
CONTINUOUS
 90
30
 70
0
 10
26.172455718
 20
19.4763230282
 10
26.1911168565
 20
19.4862534913
 10
26.2092299515
 20
19.4964344941
 10
26.226781552
 20
19.5068584772
 10
26.2437586241
 20
19.5175176991
 10
26.2601485607
 20
19.5284042462
 10
26.2759391904
 20
19.5395100384
 10
26.2911187869
 20
19.5508268293
 10
26.305676078
 20
19.5623462156
 10
26.3196002532
 20
19.5740596472
 10
26.3328809723
 20
19.5859584265
 10
26.3455083731
 20
19.598033718
 10
26.3574730784
 20
19.6102765587
 10
26.368766203
 20
19.6226778576
 10
26.3793793607
 20
19.6352284063
 10
26.3893046701
 20
19.6479188885
 10
26.3985347606
 20
19.6607398808
 10
26.4070627778
 20
19.6736818632
 10
26.4148823889
 20
19.6867352281
 10
26.4219877869
 20
19.6998902832
 10
26.4283736953
 20
19.7131372599
 10
26.4340353719
 20
19.7264663238
 10
26.4389686124
 20
19.7398675777
 10
26.4431697532
 20
19.7533310703
 10
26.4466356746
 20
19.7668468059
 10
26.4493638028
 20
19.7804047485
 10
26.4513521118
 20
19.7939948305
 10
26.4525991251
 20
19.8076069617
 10
26.4531039168
 20
19.8212310345
 10
26.4531159177
 20
19.8236807929
  0
LINE
  5
2A0
100
AcDbEntity
  8
218
100
AcDbLine
 62
250
  6
CONTINUOUS
 10
26.172455718
 20
19.4763230282
 11
11.5702824964
 21
12.0474267004
  0
LWPOLYLINE
  5
2A1
100
AcDbEntity
  8
RACCORDO
100
AcDbPolyline
 62
250
  6
CONTINUOUS
 90
22
 70
0
 10
1.8102338386
 20
-25.1654477989
 10
1.810312003
 20
-25.2088105673
 10
1.8129142497
 20
-25.2504927074
 10
1.8180405787
 20
-25.2904942193
 10
1.825740675
 20
-25.3290171887
 10
1.8359648536
 20
-25.3658595298
 10
1.84856406
 20
-25.4004149855
 10
1.8635782805
 20
-25.4326359887
 10
1.8809675288
 20
-25.4625701065
 10
1.9004627921
 20
-25.489753783
 10
1.9220918143
 20
-25.5141388044
 10
1.9458268514
 20
-25.5357733846
 10
1.9713156596
 20
-25.5543386091
 10
1.9985892854
 20
-25.5697908433
 10
2.0276166822
 20
-25.5821737219
 10
2.0579524662
 20
-25.5912992341
 10
2.0896293246
 20
-25.5971113547
 10
2.1226145701
 20
-25.5996661089
 10
2.156364758
 20
-25.5989435612
 10
2.1906987399
 20
-25.5949370663
 10
2.2257976642
 20
-25.5876532695
 10
2.2616615308
 20
-25.5770921707
  0
LWPOLYLINE
  5
2A2
100
AcDbEntity
  8
RACCORDO
100
AcDbPolyline
 62
250
  6
CONTINUOUS
 90
14
 70
0
 10
0.6941637216
 20
-25.1344938145
 10
0.6941793371
 20
-25.2269971019
 10
0.6996218259
 20
-25.3166160231
 10
0.7104632485
 20
-25.4028982049
 10
0.7266492831
 20
-25.4854045815
 10
0.7480971006
 20
-25.5637238148
 10
0.7746988385
 20
-25.6374717757
 10
0.8063297724
 20
-25.706285728
 10
0.8428289755
 20
-25.7698047314
 10
0.8839952825
 20
-25.8276870917
 10
0.9296109666
 20
-25.8796342028
 10
0.9794540275
 20
-25.9254013673
 10
1.0332842968
 20
-25.964770836
 10
1.0882071082
 20
-25.9962301984
  0
LWPOLYLINE
  5
2A3
100
AcDbEntity
  8
RACCORDO
100
AcDbPolyline
 62
250
  6
CONTINUOUS
 90
7
 70
0
 10
1.7008861052
 20
-6.9834592089
 10
1.4632967514
 20
-10.0352189873
 10
1.2535959604
 20
-13.076864206
 10
1.071810433
 20
-16.1080034772
 10
0.9179636523
 20
-19.1282468713
 10
0.7920758774
 20
-22.1372059682
 10
0.6941637216
 20
-25.1344938145
  0
LINE
  5
2A4
100
AcDbEntity
  8
RACCORDO
100
AcDbLine
 62
250
  6
CONTINUOUS
 10
1.9663336808
 20
-3.9219776505
 11
1.7008861052
 21
-6.9834592089
  0
LWPOLYLINE
  5
2A5
100
AcDbEntity
  8
RACCORDO
100
AcDbPolyline
 62
250
  6
CONTINUOUS
 90
3
 70
0
 10
2.5806623489
 20
2.2285745388
 10
2.2596050944
 20
-0.8511681136
 10
1.9663336808
 20
-3.9219776505
  0
LWPOLYLINE
  5
2A6
100
AcDbEntity
  8
RACCORDO
100
AcDbPolyline
 62
250
  6
CONTINUOUS
 90
4
 70
0
 10
3.7101205993
 20
11.5174320485
 10
3.3059663266
 20
8.4132727438
 10
2.9294642337
 20
5.3168540349
 10
2.5806623489
 20
2.2285745388
  0
LWPOLYLINE
  5
2A7
100
AcDbEntity
  8
218
100
AcDbPolyline
 62
250
  6
CONTINUOUS
 90
56
 70
0
 10
26.2900077433
 20
14.0338213597
 10
26.2970514385
 20
14.0363487791
 10
26.3041595843
 20
14.0386488322
 10
26.3113312273
 20
14.0407228514
 10
26.31854702
 20
14.0425859389
 10
26.3258240976
 20
14.044225952
 10
26.3332156695
 20
14.0456040571
 10
26.3407466464
 20
14.0467321127
 10
26.3483880775
 20
14.0476034361
 10
26.3561113368
 20
14.0481526377
 10
26.3639317485
 20
14.0483777409
 10
26.3718277027
 20
14.0482884151
 10
26.3797143752
 20
14.0478375504
 10
26.3875708076
 20
14.0470222778
 10
26.3954101036
 20
14.045854717
 10
26.4031979749
 20
14.0443107463
 10
26.4109129365
 20
14.042400563
 10
26.418566838
 20
14.0401252047
 10
26.4261740719
 20
14.0374483301
 10
26.4337287216
 20
14.0343853406
 10
26.4412235994
 20
14.0309362864
 10
26.448668592
 20
14.0270449056
 10
26.4560683952
 20
14.0227199393
 10
26.4633999153
 20
14.0179746868
 10
26.4706284372
 20
14.0127632092
 10
26.4777467402
 20
14.0070968827
 10
26.484738822
 20
14.0009926597
 10
26.4915543863
 20
13.9944158777
 10
26.4981738678
 20
13.9873959443
 10
26.5045892961
 20
13.9799379333
 10
26.5107640088
 20
13.9719753952
 10
26.5166819065
 20
13.9635518534
 10
26.5223235262
 20
13.9546698
 10
26.5276392396
 20
13.9452113874
 10
26.532620074
 20
13.9352187694
 10
26.5372245937
 20
13.92471734
 10
26.5413430092
 20
13.9135791724
 10
26.5449616405
 20
13.9018211778
 10
26.5480247166
 20
13.8895234287
 10
26.55035277
 20
13.8766618536
 10
26.5519043006
 20
13.8632209859
 10
26.5526442142
 20
13.8493298793
 10
26.5524161782
 20
13.8351632697
 10
26.5511596442
 20
13.8207106337
 10
26.5488851973
 20
13.8060663546
 10
26.5455794159
 20
13.7915113786
 10
26.5412180311
 20
13.7770685048
 10
26.5358230103
 20
13.7627332692
 10
26.5294863025
 20
13.7486923178
 10
26.5222349964
 20
13.7349768086
 10
26.5140677207
 20
13.7215303961
 10
26.5050485668
 20
13.7083853576
 10
26.4951875852
 20
13.6955261765
 10
26.4844988089
 20
13.6829431585
 10
26.4730552932
 20
13.6706721193
 10
26.4608780586
 20
13.6587044896
  0
LINE
  5
2A8
100
AcDbEntity
  8
268
100
AcDbLine
 62
7
  6
CONTINUOUS
 10
8.1761699467
 20
-4.9537698786
 11
7.9875152384
 21
-4.8594425244
  0
LWPOLYLINE
  5
2A9
100
AcDbEntity
  8
RACCORDO
100
AcDbPolyline
 62
250
  6
CONTINUOUS
 90
16
 70
0
 10
5.3660125832
 20
12.1490588461
 10
5.3686497216
 20
12.2255524455
 10
5.3652255152
 20
12.3043650756
 10
5.3557774481
 20
12.3846335167
 10
5.3404089835
 20
12.4654786006
 10
5.3192884315
 20
12.5460148341
 10
5.2926471078
 20
12.6253600977
 10
5.2607767966
 20
12.7026453209
 10
5.2240265585
 20
12.7770239867
 10
5.1827989132
 20
12.8476813998
 10
5.1375454171
 20
12.9138436364
 10
5.0887617264
 20
12.9747860015
 10
5.0369821791
 20
13.0298409588
 10
4.9827739223
 20
13.07840547
 10
4.9267306971
 20
13.1199475949
 10
4.8694663501
 20
13.1540123037
  0
LWPOLYLINE
  5
2AA
100
AcDbEntity
  8
RACCORDO
100
AcDbPolyline
 62
250
  6
CONTINUOUS
 90
7
 70
0
 10
2.814238112
 20
-7.0627905162
 10
2.5772974009
 20
-10.1062899055
 10
2.3681400708
 20
-13.1400950796
 10
2.1868469652
 20
-16.1630309636
 10
2.0334450319
 20
-19.1747058656
 10
1.907907323
 20
-22.1755114774
 10
1.8102338386
 20
-25.1654477989
  0
LINE
  5
2AB
100
AcDbEntity
  8
RACCORDO
100
AcDbLine
 62
250
  6
CONTINUOUS
 10
3.0789731645
 20
-4.0095925076
 11
2.814238112
 21
-7.0627905162
  0
LINE
  5
2AC
100
AcDbEntity
  8
RACCORDO
100
AcDbLine
 62
250
  6
CONTINUOUS
 10
3.3714915979
 20
-0.9467002837
 11
3.0789731645
 21
-4.0095925076
  0
LWPOLYLINE
  5
2AD
100
AcDbEntity
  8
RACCORDO
100
AcDbPolyline
 62
250
  6
CONTINUOUS
 90
5
 70
0
 10
4.8181481646
 20
11.3887395951
 10
4.4149890163
 20
8.2922197587
 10
4.0394995238
 20
5.2042058494
 10
3.6916796871
 20
2.1246978672
 10
3.3714915979
 20
-0.9467002837
  0
LWPOLYLINE
  5
2AE
100
AcDbEntity
  8
268
100
AcDbPolyline
 62
7
  6
CONTINUOUS
 90
13
 70
0
 10
16.3433014562
 20
-17.3835067609
 10
16.3404102912
 20
-17.37961357
 10
16.336721527
 20
-17.3752312298
 10
16.3322615631
 20
-17.3704739369
 10
16.3270687048
 20
-17.3653340823
 10
16.3211860476
 20
-17.3597867236
 10
16.3146255134
 20
-17.353919125
 10
16.3074186103
 20
-17.347721817
 10
16.2996014646
 20
-17.3411766924
 10
16.2911775252
 20
-17.3343558163
 10
16.2821646338
 20
-17.3272737915
 10
16.2726027884
 20
-17.3198901482
 10
16.2625230313
 20
-17.3121935935
  0
LINE
  5
2AF
100
AcDbEntity
  8
268
100
AcDbLine
 62
7
  6
CONTINUOUS
 10
7.3221225355
 20
-12.945739844
 11
7.9029565443
 21
-18.3595654176
  0
LINE
  5
2B0
100
AcDbEntity
  8
268
100
AcDbLine
 62
250
  6
CONTINUOUS
 10
5.1680828579
 20
17.9215840087
 11
5.1680828579
 21
19.1365388748
  0
LINE
  5
2B1
100
AcDbEntity
  8
268
100
AcDbLine
 62
7
  6
CONTINUOUS
 10
5.5245195173
 20
23.4248287025
 11
5.5245195173
 21
22.1755338828
  0
LINE
  5
2B2
100
AcDbEntity
  8
268
100
AcDbLine
 62
250
  6
CONTINUOUS
 10
5.5911092094
 20
17.9232228563
 11
5.5911092094
 21
19.1374263291
  0
LINE
  5
2B3
100
AcDbEntity
  8
268
100
AcDbLine
 62
7
  6
CONTINUOUS
 10
5.8780729079
 20
22.6954938179
 11
5.8780729079
 21
23.2480520072
  0
LINE
  5
2B4
100
AcDbEntity
  8
268
100
AcDbLine
 62
250
  6
CONTINUOUS
 10
5.948783586
 20
24.8642603047
 11
5.948783586
 21
23.6324261233
  0
LINE
  5
2B5
100
AcDbEntity
  8
268
100
AcDbLine
 62
7
  6
CONTINUOUS
 10
6.0366515517
 20
24.9692575183
 11
6.0366515517
 21
23.7368889125
  0
LINE
  5
2B6
100
AcDbEntity
  8
268
100
AcDbLine
 62
7
  6
CONTINUOUS
 10
6.0902049422
 20
19.3876230022
 11
6.0902049422
 21
18.1751874369
  0
LINE
  5
2B7
100
AcDbEntity
  8
268
100
AcDbLine
 62
7
  6
CONTINUOUS
 10
7.0904390032
 20
-24.3948390547
 11
7.0904390032
 21
-24.141467661
  0
LINE
  5
2B8
100
AcDbEntity
  8
268
100
AcDbLine
 62
7
  6
CONTINUOUS
 10
7.0904390032
 20
17.1581364784
 11
7.0904390032
 21
17.4115078721
  0
LWPOLYLINE
  5
2B9
100
AcDbEntity
  8
RACCORDO
100
AcDbPolyline
 62
250
  6
CONTINUOUS
 90
11
 70
0
 10
2.2616615308
 20
-25.5770921707
 10
2.2519393491
 20
-25.6507967633
 10
2.2362911138
 20
-25.7205372581
 10
2.2148882206
 20
-25.7855497855
 10
2.1879650958
 20
-25.8451222618
 10
2.1558166292
 20
-25.898602188
 10
2.1187949437
 20
-25.9454037972
 10
2.0773055388
 20
-25.98501447
 10
2.031802849
 20
-26.0170003499
 10
1.9827852664
 20
-26.0410110945
 10
1.9673069908
 20
-26.0466740496
  0
LINE
  5
2BA
100
AcDbEntity
  8
218
100
AcDbLine
 62
7
  6
CONTINUOUS
 10
26.4531159177
 20
13.6439512058
 11
27.3682927043
 21
14.2358798246
  0
LWPOLYLINE
  5
2BB
100
AcDbEntity
  8
218
100
AcDbPolyline
 62
7
  6
CONTINUOUS
 90
16
 70
0
 10
26.2899999318
 20
3.7021356984
 10
26.2809870323
 20
3.7003557151
 10
26.272099334
 20
3.6989969957
 10
26.2633368369
 20
3.6980595403
 10
26.2546776561
 20
3.6975449248
 10
26.2461436766
 20
3.6974515733
 10
26.2378005533
 20
3.6977747579
 10
26.2296585202
 20
3.6985264254
 10
26.2217073434
 20
3.6996946291
 10
26.2139819755
 20
3.7012388008
 10
26.2064935464
 20
3.7031655687
 10
26.1992309262
 20
3.7054683047
 10
26.192195677
 20
3.7080865566
 10
26.1853883197
 20
3.7110001736
 10
26.1788083333
 20
3.7142293065
 10
26.172455718
 20
3.7177739554
  0
LINE
  5
2BC
100
AcDbEntity
  8
268
100
AcDbLine
 62
7
  6
CONTINUOUS
 10
9.9085815607
 20
-21.3679307861
 11
8.1761699467
 21
-4.9537698786
  0
LWPOLYLINE
  5
2BD
100
AcDbEntity
  8
268
100
AcDbPolyline
 62
7
  6
CONTINUOUS
 90
24
 70
0
 10
8.6357893545
 20
23.7389345512
 10
8.6352161701
 20
23.7734069573
 10
8.6335170571
 20
23.8071568783
 10
8.6306920155
 20
23.8401843141
 10
8.626731581
 20
23.8725458715
 10
8.6216452179
 20
23.9041849437
 10
8.6154613195
 20
23.9349317102
 10
8.6081787041
 20
23.9647672376
 10
8.5997985534
 20
23.9937104594
 10
8.5903528062
 20
24.0216483553
 10
8.5798289477
 20
24.0485945181
 10
8.5682394926
 20
24.0745353551
 10
8.5556539239
 20
24.099317068
 10
8.542078738
 20
24.1229143694
 10
8.5275074384
 20
24.1453525467
 10
8.5119900184
 20
24.1665536639
 10
8.495506731
 20
24.1865307538
 10
8.4780773232
 20
24.2052707837
 10
8.4598110285
 20
24.2226567193
 10
8.4407223726
 20
24.2386656456
 10
8.4207968299
 20
24.2533204777
 10
8.4001000574
 20
24.266572926
 10
8.3786075429
 20
24.2784287873
 10
5.1495729257
 20
25.8929699731
  0
LINE
  5
2BE
100
AcDbEntity
  8
268
100
AcDbLine
 62
7
  6
CONTINUOUS
 10
7.7934319575
 20
16.7039081994
 11
7.7934319575
 21
16.2515772237
  0
LINE
  5
2BF
100
AcDbEntity
  8
268
100
AcDbLine
 62
7
  6
CONTINUOUS
 10
8.6357893545
 20
23.7389345512
 11
8.6357893545
 21
23.4681342585
  0
LINE
  5
2C0
100
AcDbEntity
  8
268
100
AcDbLine
 62
7
  6
CONTINUOUS
 10
8.6962154654
 20
16.608619641
 11
8.6962154654
 21
16.3552482473
  0
LINE
  5
2C1
100
AcDbEntity
  8
268
100
AcDbLine
 62
7
  6
CONTINUOUS
 10
8.6962154654
 20
-24.9443558921
 11
8.6962154654
 21
-25.1977272858
  0
LINE
  5
2C2
100
AcDbEntity
  8
268
100
AcDbLine
 62
7
  6
CONTINUOUS
 10
9.0954087623
 20
-23.5711048594
 11
9.0954087623
 21
-23.5467093541
  0
LINE
  5
2C3
100
AcDbEntity
  8
268
100
AcDbLine
 62
7
  6
CONTINUOUS
 10
9.0954087623
 20
14.5584084124
 11
9.0954087623
 21
14.5828039177
  0
LINE
  5
2C4
100
AcDbEntity
  8
268
100
AcDbLine
 62
7
  6
CONTINUOUS
 10
9.4074360735
 20
16.0817447244
 11
9.4074360735
 21
15.4445751657
  0
LINE
  5
2C5
100
AcDbEntity
  8
268
100
AcDbLine
 62
7
  6
CONTINUOUS
 10
9.4074360735
 20
-23.5632373239
 11
9.4074360735
 21
-23.967859415
  0
LINE
  5
2C6
100
AcDbEntity
  8
RACCORDO
100
AcDbLine
 62
7
  6
CONTINUOUS
 10
9.5096482441
 20
13.6385361752
 11
6.3978974745
 21
-24.1775411562
  0
LINE
  5
2C7
100
AcDbEntity
  8
268
100
AcDbLine
 62
7
  6
CONTINUOUS
 10
8.1761699467
 20
-4.9537698786
 11
9.9085815607
 21
13.1928026427
  0
LWPOLYLINE
  5
2C8
100
AcDbEntity
  8
715
100
AcDbPolyline
 62
250
  6
CONTINUOUS
 90
13
 70
0
 10
16.7180767933
 20
20.0921635271
 10
16.7193509964
 20
20.0952560257
 10
16.7527578967
 20
20.1593302141
 10
16.792769552
 20
20.2224644319
 10
16.8392673256
 20
20.2844701078
 10
16.8921299767
 20
20.3451872058
 10
16.9512088472
 20
20.4044464231
 10
17.0163016266
 20
20.4620543562
 10
17.0871774584
 20
20.5178278239
 10
17.1636705962
 20
20.5716557594
 10
17.245662
 20
20.6234569431
 10
17.3329105969
 20
20.6730745824
 10
17.3534077584
 20
20.6840109506
  0
LWPOLYLINE
  5
2C9
100
AcDbEntity
  8
218
100
AcDbPolyline
 62
7
  6
CONTINUOUS
 90
136
 70
0
 10
26.2899998259
 20
14.0338148236
 10
26.3493660536
 20
14.0825176957
 10
26.4068554787
 20
14.1300055154
 10
26.4624681011
 20
14.1762782828
 10
26.5161488511
 20
14.221301412
 10
26.5679527985
 20
14.2651094888
 10
26.6180451525
 20
14.3078062711
 10
26.6664333325
 20
14.3493968359
 10
26.7131099192
 20
14.3898761062
 10
26.7582178641
 20
14.4293326094
 10
26.8017613955
 20
14.467768899
 10
26.8437362851
 20
14.5051824214
 10
26.8842727999
 20
14.5416540436
 10
26.9233748334
 20
14.5771861305
 10
26.9610384921
 20
14.6117763172
 10
26.9973823625
 20
14.6454983753
 10
27.0324100403
 20
14.6783545148
 10
27.0661179299
 20
14.7103425258
 10
27.0986138302
 20
14.7415295492
 10
27.1299010616
 20
14.7719176656
 10
27.1599763037
 20
14.8015047945
 10
27.1889373943
 20
14.830351836
 10
27.2167874012
 20
14.8584607731
 10
27.2435232565
 20
14.8858296229
 10
27.2692335949
 20
14.9125133363
 10
27.2939212454
 20
14.9385138335
 10
27.317583379
 20
14.9638291944
 10
27.3403001427
 20
14.9885086098
 10
27.3620741309
 20
15.0125539758
 10
27.3829027493
 20
15.0359633963
 10
27.4028583619
 20
15.0587803742
 10
27.4219433155
 20
15.0810068236
 10
27.4401552634
 20
15.1026408305
 10
27.4575595301
 20
15.1237201552
 10
27.4741581732
 20
15.1442467679
 10
27.4899491351
 20
15.1642186984
 10
27.5049915675
 20
15.1836677972
 10
27.5192871579
 20
15.2025961107
 10
27.5328342187
 20
15.2210015925
 10
27.545686839
 20
15.2389099536
 10
27.557846203
 20
15.2563232903
 10
27.5693111265
 20
15.2732395063
 10
27.5801321462
 20
15.2896780236
 10
27.5903096958
 20
15.305640743
 10
27.5998433415
 20
15.3211257637
 10
27.6087823193
 20
15.3361468048
 10
27.6171263539
 20
15.3507056989
 10
27.6248757205
 20
15.3648006134
 10
27.6320804809
 20
15.378439769
 10
27.6387392818
 20
15.3916240153
 10
27.6448534764
 20
15.4043525028
 10
27.6504771862
 20
15.4166309026
 10
27.6556057434
 20
15.4284500064
 10
27.6602438158
 20
15.4398190226
 10
27.6644595287
 20
15.4507712482
 10
27.6682509023
 20
15.4612930805
 10
27.6716199164
 20
15.4713981222
 10
27.6746406354
 20
15.4811604792
 10
27.6773184408
 20
15.4905780159
 10
27.6796479512
 20
15.4996528678
 10
27.681687087
 20
15.5084655465
 10
27.6834432667
 20
15.5170211468
 10
27.6849090718
 20
15.5253145739
 10
27.686120168
 20
15.5334110557
 10
27.6870828213
 20
15.5413148648
 10
27.6877907656
 20
15.5490217286
 10
27.688260868
 20
15.5565840575
 10
27.6884987501
 20
15.564005065
 10
27.6884987903
 20
15.5712815376
 10
27.6882609899
 20
15.5784562444
 10
27.6877909714
 20
15.5855317918
 10
27.6870831124
 20
15.5925055733
 10
27.6861205478
 20
15.5994125393
 10
27.6849095436
 20
15.6062549084
 10
27.6834438338
 20
15.6130304619
 10
27.6816877556
 20
15.6197674938
 10
27.6796487282
 20
15.6264685888
 10
27.6773193325
 20
15.6331311623
 10
27.6746416478
 20
15.6397757538
 10
27.6716210583
 20
15.6464100693
 10
27.6682521799
 20
15.6530264028
 10
27.6644609397
 20
15.6596221755
 10
27.6602453565
 20
15.6662089454
 10
27.6556074115
 20
15.6727751546
 10
27.6504789754
 20
15.6792835498
 10
27.6448553788
 20
15.685738507
 10
27.638741291
 20
15.6921356504
 10
27.6320825908
 20
15.6984245999
 10
27.6248779263
 20
15.7046031024
 10
27.6171286493
 20
15.7106734109
 10
27.6087846945
 20
15.7165919046
 10
27.5998457854
 20
15.722356466
 10
27.5903121985
 20
15.7279692125
 10
27.5801346973
 20
15.733392875
 10
27.5693137154
 20
15.738626001
 10
27.5578488193
 20
15.743670043
 10
27.545689472
 20
15.7484920887
 10
27.5328368574
 20
15.7530912678
 10
27.5192897916
 20
15.7574684507
 10
27.5049941862
 20
15.7615933362
 10
27.4899517285
 20
15.7654656251
 10
27.4741607313
 20
15.7690856166
 10
27.4575620438
 20
15.772423907
 10
27.4401577236
 20
15.7754806569
 10
27.4219457131
 20
15.7782557056
 10
27.4028606894
 20
15.780719168
 10
27.382904999
 20
15.7828715597
 10
27.3620762953
 20
15.7847123651
 10
27.340302216
 20
15.7862101518
 10
27.3175853554
 20
15.7873657101
 10
27.2939231192
 20
15.7881782497
 10
27.2692353624
 20
15.7886139671
 10
27.2435249139
 20
15.7886738717
 10
27.2167889448
 20
15.7883569541
 10
27.1889388225
 20
15.7876263822
 10
27.1599776149
 20
15.7864833497
 10
27.1299022542
 20
15.7849266628
 10
27.098614905
 20
15.7829159086
 10
27.0661188876
 20
15.780452445
 10
27.0324108818
 20
15.777534914
 10
26.997383091
 20
15.7741188286
 10
26.961039111
 20
15.7702057022
 10
26.923375346
 20
15.7657940213
 10
26.8842732124
 20
15.760834759
 10
26.8437366035
 20
15.7553295817
 10
26.8017616259
 20
15.749276823
 10
26.7582180159
 20
15.7426224555
 10
26.7131100017
 20
15.7353683042
 10
26.666433355
 20
15.7275125442
 10
26.6180451276
 20
15.7189956735
 10
26.5679527387
 20
15.7098202982
 10
26.5161487691
 20
15.6999838122
 10
26.4624680131
 20
15.6894188958
 10
26.4068554021
 20
15.6781031091
 10
26.3493660048
 20
15.666058892
 10
26.289999821
 20
15.6532862444
  0
LWPOLYLINE
  5
2CA
100
AcDbEntity
  8
218
100
AcDbPolyline
 62
250
  6
CONTINUOUS
 90
104
 70
0
 10
27.3682927047
 20
14.2358798249
 10
27.4025927774
 20
14.2589724951
 10
27.4334467173
 20
14.281363014
 10
27.4636475464
 20
14.3048627736
 10
27.4931820157
 20
14.3294614614
 10
27.5220372004
 20
14.3551483092
 10
27.5502004803
 20
14.3819120825
 10
27.5776595286
 20
14.4097410707
 10
27.6044022956
 20
14.4386230658
 10
27.6304170396
 20
14.4685453867
 10
27.6556923475
 20
14.4994949018
 10
27.6802171599
 20
14.5314580647
 10
27.7039807514
 20
14.564420897
 10
27.7269727207
 20
14.5983689756
 10
27.749182978
 20
14.6332874069
 10
27.7706017714
 20
14.6691608597
 10
27.791219705
 20
14.7059735922
 10
27.8110277573
 20
14.7437094916
 10
27.8300172647
 20
14.782352053
 10
27.8481799143
 20
14.8218843656
 10
27.865507736
 20
14.862289087
 10
27.8819931235
 20
14.9035484811
 10
27.8976288464
 20
14.9456444464
 10
27.9124080622
 20
14.9885585553
 10
27.926324305
 20
15.0322720323
 10
27.939371481
 20
15.076765742
 10
27.9515438662
 20
15.1220201695
 10
27.9628361193
 20
15.1680154576
 10
27.9732432892
 20
15.2147314338
 10
27.9827608203
 20
15.2621476429
 10
27.9913845467
 20
15.3102433295
 10
27.9991106909
 20
15.3589974322
 10
28.0059358642
 20
15.4083885741
 10
28.0118570735
 20
15.4583950947
 10
28.0168717234
 20
15.5089950711
 10
28.0209776182
 20
15.5601663396
 10
28.0241729597
 20
15.6118864878
 10
28.0264563476
 20
15.6641328572
 10
28.0278267808
 20
15.7168825484
 10
28.0282836585
 20
15.7701124429
 10
28.0278267807
 20
15.8237992152
 10
28.0264563474
 20
15.8779193397
 10
28.0241729594
 20
15.932449097
 10
28.0209776178
 20
15.9873645868
 10
28.0168717229
 20
16.0426417501
 10
28.0118570729
 20
16.0982563765
 10
28.0059358636
 20
16.1541841063
 10
27.9991106901
 20
16.2104004216
 10
27.9913845458
 20
16.2668806686
 10
27.9827608193
 20
16.3236000817
 10
27.9732432881
 20
16.3805338219
 10
27.9628361182
 20
16.437656968
 10
27.951543865
 20
16.4949445092
 10
27.9393714797
 20
16.5523713219
 10
27.9263243036
 20
16.6099122077
 10
27.9124080607
 20
16.6675419275
 10
27.8976288448
 20
16.7252352523
 10
27.8819931218
 20
16.7829669405
 10
27.8655077342
 20
16.840711722
 10
27.8481799124
 20
16.8984442652
 10
27.8300172627
 20
16.9561392274
 10
27.8110277553
 20
17.0137712962
 10
27.7912197029
 20
17.0713152479
 10
27.7706017692
 20
17.1287459141
 10
27.7491829757
 20
17.1860381603
 10
27.7269727184
 20
17.2431668488
 10
27.703980749
 20
17.3001068967
 10
27.6802171574
 20
17.3568333206
 10
27.6556923449
 20
17.4133212959
 10
27.6304170369
 20
17.4695461189
 10
27.6044022928
 20
17.5254831838
 10
27.5776595258
 20
17.5811079458
 10
27.5502004774
 20
17.6363959823
 10
27.5220371975
 20
17.6913230355
 10
27.4931820126
 20
17.7458650682
 10
27.4636475432
 20
17.7999982253
 10
27.4334467141
 20
17.8536988138
 10
27.4025927742
 20
17.9069432725
 10
27.3710992677
 20
17.9597082281
 10
27.3389800119
 20
18.0119705338
 10
27.3062490665
 20
18.063707315
 10
27.2729207514
 20
18.1148959372
 10
27.2390096554
 20
18.1655139912
 10
27.2045306522
 20
18.2155392727
 10
27.1694988717
 20
18.26494983
 10
27.1339296789
 20
18.3137239936
 10
27.0978386475
 20
18.3618404098
 10
27.0612415744
 20
18.4092780186
 10
27.0241544849
 20
18.4560160461
 10
26.9865936411
 20
18.5020339971
 10
26.9485755168
 20
18.5473116883
 10
26.9101167801
 20
18.5918292699
 10
26.8712342758
 20
18.6355672445
 10
26.831945032
 20
18.6785064576
 10
26.7922662603
 20
18.7206280982
 10
26.7522153527
 20
18.7619137028
 10
26.7118098644
 20
18.802345175
 10
26.6710675026
 20
18.8419047962
 10
26.6300061192
 20
18.880575233
 10
26.5886437081
 20
18.9183395394
 10
26.5469983966
 20
18.9551811653
 10
26.5050884314
 20
18.9910839688
 10
26.4629321713
 20
19.0260322227
 10
26.4531159177
 20
19.0339016979
  0
LWPOLYLINE
  5
2CB
100
AcDbEntity
  8
268
100
AcDbPolyline
 62
7
  6
CONTINUOUS
 90
31
 70
0
 10
10.8631757153
 20
15.4855816172
 10
10.8628370708
 20
15.5016151608
 10
10.8618204273
 20
15.517943627
 10
10.8601288769
 20
15.5345224217
 10
10.8577676597
 20
15.551306415
 10
10.8547432482
 20
15.568249609
 10
10.8510633283
 20
15.5853052636
 10
10.8467382645
 20
15.6024267769
 10
10.8417802149
 20
15.6195673778
 10
10.8362021948
 20
15.6366797979
 10
10.830019747
 20
15.6537172659
 10
10.8232501076
 20
15.6706332335
 10
10.815911302
 20
15.6873810675
 10
10.8080236684
 20
15.7039149789
 10
10.7996090974
 20
15.720189788
 10
10.7906901809
 20
15.7361606456
 10
10.7812915525
 20
15.7517838723
 10
10.7714392181
 20
15.7670167699
 10
10.7611597801
 20
15.7818173779
 10
10.7504815611
 20
15.7961452023
 10
10.7394340424
 20
15.809961078
 10
10.7280471816
 20
15.8232269672
 10
10.7163522932
 20
15.835906559
 10
10.7043816076
 20
15.8479651856
 10
10.6921676997
 20
15.8593696699
 10
10.6797441047
 20
15.8700887778
 10
10.6671450085
 20
15.8800931932
 10
10.6544048006
 20
15.8893554169
 10
10.6415583859
 20
15.8978500488
 10
10.6286410892
 20
15.9055538583
 10
10.6156883418
 20
15.9124457371
  0
LINE
  5
2CC
100
AcDbEntity
  8
268
100
AcDbLine
 62
7
  6
CONTINUOUS
 10
9.9085815607
 20
-23.0178382237
 11
9.9085815607
 21
-21.3679307861
  0
LINE
  5
2CD
100
AcDbEntity
  8
268
100
AcDbLine
 62
7
  6
CONTINUOUS
 10
9.9085815607
 20
13.1928026427
 11
9.9085815607
 21
14.8427100803
  0
LINE
  5
2CE
100
AcDbEntity
  8
268
100
AcDbLine
 62
7
  6
CONTINUOUS
 10
10.4742669856
 20
-23.0412243557
 11
10.4742669856
 21
-24.5468324819
  0
LINE
  5
2CF
100
AcDbEntity
  8
268
100
AcDbLine
 62
7
  6
CONTINUOUS
 10
10.4742669856
 20
15.9831564152
 11
10.4742669856
 21
17.7152072228
  0
LINE
  5
2D0
100
AcDbEntity
  8
268
100
AcDbLine
 62
7
  6
CONTINUOUS
 10
11.1772599399
 20
17.8505287206
 11
11.1772599399
 21
17.5895997442
  0
LINE
  5
2D1
100
AcDbEntity
  8
268
100
AcDbLine
 62
7
  6
CONTINUOUS
 10
11.1772599399
 20
-23.7100043952
 11
11.1772599399
 21
-23.9709333716
  0
LINE
  5
2D2
100
AcDbEntity
  8
268
100
AcDbLine
 62
250
  6
CONTINUOUS
 10
11.5044776374
 20
22.0876386126
 11
11.5044776374
 21
20.8558000342
  0
LINE
  5
2D3
100
AcDbEntity
  8
268
100
AcDbLine
 62
7
  6
CONTINUOUS
 10
11.5702824964
 20
15.8315773186
 11
11.5702824964
 21
-22.3450045261
  0
LINE
  5
2D4
100
AcDbEntity
  8
218
100
AcDbLine
 62
7
  6
CONTINUOUS
 10
11.5702824964
 20
12.0474267004
 11
11.5702824964
 21
-18.560853908
  0
LINE
  5
2D5
100
AcDbEntity
  8
268
100
AcDbLine
 62
7
  6
CONTINUOUS
 10
11.5911150658
 20
22.1920257612
 11
11.5911150658
 21
20.9596571554
  0
LWPOLYLINE
  5
2D6
100
AcDbEntity
  8
268
100
AcDbPolyline
 62
7
  6
CONTINUOUS
 90
18
 70
0
 10
10.8631757153
 20
-22.7061156059
 10
10.8628360477
 20
-22.7218099935
 10
10.8618196102
 20
-22.7371219193
 10
10.8601288769
 20
-22.7520095721
 10
10.8577678724
 20
-22.7664324545
 10
10.8547430607
 20
-22.780351037
 10
10.8510633283
 20
-22.7937268655
 10
10.8467384753
 20
-22.8065234203
 10
10.8417800454
 20
-22.8187057815
 10
10.8362021948
 20
-22.8302402662
 10
10.8300199506
 20
-22.8410953882
 10
10.8232499603
 20
-22.8512415409
 10
10.815911302
 20
-22.8606506429
 10
10.80802386
 20
-22.8692970165
 10
10.799608976
 20
-22.8771570983
 10
10.7906901809
 20
-22.8842091001
 10
10.7812917272
 20
-22.8904337857
 10
10.7732068732
 20
-22.8949281716
  0
LWPOLYLINE
  5
2D7
100
AcDbEntity
  8
715
100
AcDbPolyline
 62
250
  6
CONTINUOUS
 90
51
 70
0
 10
16.8182306663
 20
20.0560559917
 10
16.8201314002
 20
20.0621852196
 10
16.8452930168
 20
20.1227700683
 10
16.876662674
 20
20.1826483493
 10
16.9141857495
 20
20.2418164311
 10
16.9575592813
 20
20.2997944498
 10
17.0068424996
 20
20.3565751273
 10
17.0619761743
 20
20.4121657416
 10
17.1224796526
 20
20.4661082639
 10
17.1883520042
 20
20.5183611634
 10
17.2595941595
 20
20.5689659708
 10
17.3357282572
 20
20.6175892494
 10
17.4167448862
 20
20.6642169919
 10
17.5026534576
 20
20.7088632055
 10
17.5930043433
 20
20.7512364746
 10
17.6880546235
 20
20.7913956726
 10
17.787547218
 20
20.8292819261
 10
17.8902612584
 20
20.8644271992
 10
17.9966021271
 20
20.8968049191
 10
18.1061644417
 20
20.9264416587
 10
18.2165111861
 20
20.9529491009
 10
18.327615703
 20
20.9761484943
 10
18.4395046498
 20
20.9962185904
 10
18.5498209819
 20
21.0133073261
 10
18.6582114718
 20
21.027281222
 10
18.765029347
 20
21.0382737576
 10
18.8689772462
 20
21.0468333088
 10
18.9698130806
 20
21.0529358784
 10
19.0677789389
 20
21.0566054636
 10
19.1623037252
 20
21.0584624324
 10
19.2532254653
 20
21.0585283012
 10
19.3407061335
 20
21.0567815537
 10
19.4246605569
 20
21.0537780083
 10
19.5049646302
 20
21.0495592077
 10
19.5817424588
 20
21.0440836092
 10
19.6552811853
 20
21.0377824036
 10
19.725547719
 20
21.0306963698
 10
19.7925751505
 20
21.0227847289
 10
19.8567498947
 20
21.0143563347
 10
19.9180576415
 20
21.0054456942
 10
19.9765127009
 20
20.9960183004
 10
20.0325444174
 20
20.9862794866
 10
20.086149001
 20
20.9762579648
 10
20.1373302416
 20
20.9659250231
 10
20.1865288539
 20
20.9553998584
 10
20.2337479989
 20
20.9447053192
 10
20.2789845154
 20
20.9338185571
 10
20.3226696353
 20
20.9227902235
 10
20.3649471024
 20
20.9116372021
 10
20.4056731728
 20
20.9003426093
 10
20.4448478465
 20
20.888906445
  0
LINE
  5
2D8
100
AcDbEntity
  8
218
100
AcDbLine
 62
250
  6
CONTINUOUS
 10
26.4608780586
 20
13.6587044896
 11
26.4531159177
 21
13.6516744002
  0
LWPOLYLINE
  5
2D9
100
AcDbEntity
  8
218
100
AcDbPolyline
 62
250
  6
CONTINUOUS
 90
57
 70
0
 10
26.172455718
 20
13.8964650747
 10
26.1782566312
 20
13.9016497338
 10
26.1840366551
 20
13.9066186534
 10
26.1897945663
 20
13.9113719978
 10
26.1955241244
 20
13.9159127332
 10
26.2012291774
 20
13.9202381596
 10
26.2069231846
 20
13.9243401237
 10
26.2126065366
 20
13.9282216539
 10
26.218275342
 20
13.9318803864
 10
26.2239359161
 20
13.9353003659
 10
26.2295879767
 20
13.9384832655
 10
26.2352276218
 20
13.9414282326
 10
26.2408553422
 20
13.9441156522
 10
26.2464678669
 20
13.946545241
 10
26.2520639556
 20
13.9487180817
 10
26.2576467954
 20
13.9506167041
 10
26.2632029395
 20
13.9522416683
 10
26.2687409361
 20
13.9535931967
 10
26.274295188
 20
13.9546539079
 10
26.2798497667
 20
13.9554341416
 10
26.2854123167
 20
13.9559253122
 10
26.2910477772
 20
13.9560832256
 10
26.2967581578
 20
13.9559214625
 10
26.3025250103
 20
13.9554304505
 10
26.3083770095
 20
13.9545329287
 10
26.3143242816
 20
13.9532255438
 10
26.3203335186
 20
13.9515169379
 10
26.3263672106
 20
13.9493479535
 10
26.3324185921
 20
13.9467053411
 10
26.3384726316
 20
13.9436062408
 10
26.3444831261
 20
13.9400358186
 10
26.3504232796
 20
13.9359994357
 10
26.3563027435
 20
13.9314935161
 10
26.3621306547
 20
13.9264893981
 10
26.3678876682
 20
13.9209994174
 10
26.3735708064
 20
13.9150133953
 10
26.3792075794
 20
13.9084700222
 10
26.3847851854
 20
13.9013695805
 10
26.3902826157
 20
13.893715117
 10
26.3957069583
 20
13.8854507257
 10
26.4010437609
 20
13.8765623548
 10
26.4062630003
 20
13.8670674748
 10
26.4113437464
 20
13.8569577673
 10
26.4162564125
 20
13.8462403646
 10
26.4209822721
 20
13.8349097534
 10
26.4255116252
 20
13.8229386976
 10
26.429806687
 20
13.8103484612
 10
26.4338454032
 20
13.7971179662
 10
26.4376265367
 20
13.7831573018
 10
26.4411050094
 20
13.7684683552
 10
26.444237362
 20
13.7530480174
 10
26.4469991787
 20
13.73679972
 10
26.4493323704
 20
13.7196720383
 10
26.4511653595
 20
13.7017110142
 10
26.4524327725
 20
13.6829653776
 10
26.4530620119
 20
13.663319507
 10
26.4531159174
 20
13.6556316874
  0
LWPOLYLINE
  5
2DA
100
AcDbEntity
  8
218
100
AcDbPolyline
 62
250
  6
CONTINUOUS
 90
56
 70
0
 10
26.2900063537
 20
2.0826696405
 10
26.2970052919
 20
2.0851807826
 10
26.3040626544
 20
2.0874671175
 10
26.3111775175
 20
2.089529934
 10
26.318332897
 20
2.0913833727
 10
26.3255436338
 20
2.0930161578
 10
26.3328560291
 20
2.0943920917
 10
26.3402873526
 20
2.0955221084
 10
26.3478165285
 20
2.09640014
 10
26.3554313342
 20
2.0969657053
 10
26.3631429226
 20
2.0972206823
 10
26.3709341488
 20
2.0971705401
 10
26.3787493207
 20
2.096761308
 10
26.3865749803
 20
2.0959938056
 10
26.39441651
 20
2.0948768001
 10
26.4022454312
 20
2.0933693592
 10
26.4100452463
 20
2.0914816558
 10
26.4178218536
 20
2.0892159729
 10
26.4255785952
 20
2.0865215801
 10
26.4333179525
 20
2.0834066637
 10
26.4410225842
 20
2.0798806264
 10
26.4486637784
 20
2.075897274
 10
26.4562412286
 20
2.0714599276
 10
26.4637359346
 20
2.0665883669
 10
26.471089564
 20
2.0612629138
 10
26.4782787863
 20
2.0555066962
 10
26.4853050297
 20
2.0493232631
 10
26.4921449192
 20
2.0426662313
 10
26.4987812685
 20
2.0355719801
 10
26.5052036292
 20
2.0280387733
 10
26.5113929786
 20
2.019970283
 10
26.5173452888
 20
2.0113936436
 10
26.5230252833
 20
2.0023325763
 10
26.5283590394
 20
1.9926959155
 10
26.533331059
 20
1.9825289215
 10
26.5379058548
 20
1.9718548563
 10
26.5419701523
 20
1.9605619453
 10
26.5455074214
 20
1.9486843153
 10
26.5484664704
 20
1.9362828948
 10
26.5506740095
 20
1.9232972622
 10
26.5520884177
 20
1.9096865466
 10
26.5526697299
 20
1.895612657
 10
26.5522619913
 20
1.8812994614
 10
26.5507973673
 20
1.8667271112
 10
26.5482975111
 20
1.8519945291
 10
26.5447850825
 20
1.8374406967
 10
26.5402585711
 20
1.8231229601
 10
26.5347318055
 20
1.8089803284
 10
26.5282842231
 20
1.7951241717
 10
26.5209346714
 20
1.7815632825
 10
26.5126877753
 20
1.7682666843
 10
26.503610581
 20
1.7552720457
 10
26.4937170704
 20
1.7425682619
 10
26.4830177633
 20
1.7301400433
 10
26.4715772453
 20
1.7180140181
 10
26.4594112642
 20
1.706177861
  0
LWPOLYLINE
  5
2DB
100
AcDbEntity
  8
268
100
AcDbPolyline
 62
7
  6
CONTINUOUS
 90
4
 70
0
 10
16.34672109
 20
-17.3916063494
 10
16.3464865639
 20
-17.3898183546
 10
16.3453457878
 20
-17.3868861289
 10
16.3433014562
 20
-17.3835067609
  0
LINE
  5
2DC
100
AcDbEntity
  8
268
100
AcDbLine
 62
250
  6
CONTINUOUS
 10
16.2625230313
 20
19.8318018351
 11
16.2625230313
 21
19.619542681
  0
LINE
  5
2DD
100
AcDbEntity
  8
268
100
AcDbLine
 62
250
  6
CONTINUOUS
 10
16.2625230313
 20
-17.1224238894
 11
16.2625230313
 21
-17.3121935935
  0
LINE
  5
2DE
100
AcDbEntity
  8
268
100
AcDbLine
 62
7
  6
CONTINUOUS
 10
16.3466745989
 20
20.125615679
 11
16.3467210912
 21
19.5432638979
  0
LINE
  5
2DF
100
AcDbEntity
  8
268
100
AcDbLine
 62
7
  6
CONTINUOUS
 10
16.3467210912
 20
-17.0778985684
 11
16.3467210912
 21
-17.3916496275
  0
LWPOLYLINE
  5
2E0
100
AcDbEntity
  8
218
100
AcDbPolyline
 62
7
  6
CONTINUOUS
 90
38
 70
0
 10
15.9620609864
 20
20.5508768904
 10
15.9622452448
 20
20.5667937596
 10
15.9635427333
 20
20.5960083995
 10
15.9660816124
 20
20.6252026553
 10
15.9698607352
 20
20.6543633413
 10
15.9748783949
 20
20.6834772869
 10
15.9811323252
 20
20.7125313423
 10
15.9886197015
 20
20.7415123853
 10
15.9973371421
 20
20.7704073262
 10
16.0072807096
 20
20.7992031144
 10
16.018445913
 20
20.827886744
 10
16.0308277093
 20
20.8564452599
 10
16.0444205064
 20
20.8848657634
 10
16.0592181648
 20
20.9131354181
 10
16.0752140011
 20
20.9412414559
 10
16.0924007906
 20
20.9691711823
 10
16.1107707708
 20
20.9969119827
 10
16.1303156448
 20
21.0244513278
 10
16.1510265849
 20
21.0517767791
 10
16.1728942368
 20
21.078875995
 10
16.195908724
 20
21.1057367358
 10
16.2200596516
 20
21.1323468697
 10
16.2453361118
 20
21.158694378
 10
16.2717266881
 20
21.1847673605
 10
16.2992194612
 20
21.2105540414
 10
16.3278020136
 20
21.2360427737
 10
16.3574614359
 20
21.2612220453
 10
16.388184332
 20
21.2860804838
 10
16.4199568258
 20
21.3106068617
 10
16.452764567
 20
21.3347901014
 10
16.4865927377
 20
21.3586192803
 10
16.521426059
 20
21.3820836359
 10
16.5572487983
 20
21.4051725702
 10
16.594044776
 20
21.427875655
 10
16.6317973727
 20
21.4501826362
 10
16.6704895374
 20
21.4720834387
 10
16.7101037942
 20
21.4935681708
 10
16.7506222513
 20
21.5146271288
  0
LWPOLYLINE
  5
2E1
100
AcDbEntity
  8
268
100
AcDbPolyline
 62
7
  6
CONTINUOUS
 90
16
 70
0
 10
16.3466835971
 20
20.1196645455
 10
16.3464069766
 20
20.1060203295
 10
16.3452827526
 20
20.08624343
 10
16.3433014562
 20
20.0663451909
 10
16.3404306407
 20
20.0463950125
 10
16.3367139738
 20
20.0264325134
 10
16.3322615631
 20
20.006465349
 10
16.327083765
 20
19.9865339784
 10
16.3211785593
 20
19.9666821769
 10
16.3146255134
 20
19.9469166538
 10
16.307430375
 20
19.9272712653
 10
16.2995937835
 20
19.9077830559
 10
16.2911775252
 20
19.8884620237
 10
16.2822011148
 20
19.869333492
 10
16.2726481773
 20
19.8504366971
 10
16.2625230313
 20
19.8318018351
  0
LWPOLYLINE
  5
2E2
100
AcDbEntity
  8
218
100
AcDbPolyline
 62
7
  6
CONTINUOUS
 90
19
 70
0
 10
26.172455718
 20
13.8964560546
 10
26.1777118586
 20
13.90484561
 10
26.1831098169
 20
13.9131698791
 10
26.1886495928
 20
13.9214288618
 10
26.1943280844
 20
13.9296292516
 10
26.2001483937
 20
13.9377643551
 10
26.2061198263
 20
13.9458140916
 10
26.2122425086
 20
13.9537776247
 10
26.2185163143
 20
13.9616557909
 10
26.2249501694
 20
13.9694310192
 10
26.2315466571
 20
13.977105194
 10
26.2383031944
 20
13.9846764309
 10
26.2452209586
 20
13.9921215056
 10
26.2523046323
 20
13.9994430946
 10
26.2595495329
 20
14.0066385214
 10
26.2669427897
 20
14.013676533
 10
26.2744801123
 20
14.0205467117
 10
26.282165791
 20
14.0272594752
 10
26.2899998259
 20
14.0338148236
  0
LINE
  5
2E3
100
AcDbEntity
  8
RACCORDO
100
AcDbLine
 62
250
  6
CONTINUOUS
 10
-10.6186129085
 20
18.6817988025
 11
3.7101205993
 21
11.5174320485
  0
LWPOLYLINE
  5
2E4
100
AcDbEntity
  8
218
100
AcDbPolyline
 62
7
  6
CONTINUOUS
 90
4
 70
0
 10
15.9655056028
 20
20.4827499112
 10
15.9633762222
 20
20.5083561112
 10
15.9621897327
 20
20.5375719307
 10
15.9620609864
 20
20.5508768904
  0
LWPOLYLINE
  5
2E5
100
AcDbEntity
  8
268
100
AcDbPolyline
 62
7
  6
CONTINUOUS
 90
5
 70
0
 10
16.3467210911
 20
19.5432561907
 10
16.3467084226
 20
19.5436034467
 10
16.3464140195
 20
19.5451212354
 10
16.3457386845
 20
19.5468378997
 10
16.3446945915
 20
19.5487576036
  0
LWPOLYLINE
  5
2E6
100
AcDbEntity
  8
268
100
AcDbPolyline
 62
7
  6
CONTINUOUS
 90
7
 70
0
 10
16.3466745989
 20
20.125615679
 10
16.3465829908
 20
20.1299234803
 10
16.3464438201
 20
20.1342348109
 10
16.3462570866
 20
20.1385496709
 10
16.3460227905
 20
20.1428680602
 10
16.3457409317
 20
20.1471899789
 10
16.3454115102
 20
20.151515427
  0
LINE
  5
2E7
100
AcDbEntity
  8
218
100
AcDbLine
 62
250
  6
CONTINUOUS
 10
16.7506222513
 20
21.5146271288
 11
16.7506222513
 21
21.1044080859
  0
LINE
  5
2E8
100
AcDbEntity
  8
218
100
AcDbLine
 62
7
  6
CONTINUOUS
 10
17.4333324492
 20
21.4468661781
 11
17.4333324492
 21
21.0138534762
  0
LINE
  5
2E9
100
AcDbEntity
  8
715
100
AcDbLine
 62
7
  6
CONTINUOUS
 10
18.4321597936
 20
19.8825624185
 11
18.4321597936
 21
19.7595067647
  0
LINE
  5
2EA
100
AcDbEntity
  8
715
100
AcDbLine
 62
7
  6
CONTINUOUS
 10
18.6836388741
 20
20.3549221226
 11
18.6836388741
 21
19.7520087435
  0
LINE
  5
2EB
100
AcDbEntity
  8
218
100
AcDbLine
 62
7
  6
CONTINUOUS
 10
18.8888376817
 20
21.3874436122
 11
18.8888376817
 21
21.0750147524
  0
LINE
  5
2EC
100
AcDbEntity
  8
268
100
AcDbLine
 62
7
  6
CONTINUOUS
 10
16.3466745989
 20
-17.3923285234
 11
16.34672109
 21
-17.3916063494
  0
LWPOLYLINE
  5
2ED
100
AcDbEntity
  8
218
100
AcDbPolyline
 62
7
  6
CONTINUOUS
 90
136
 70
0
 10
26.2899997639
 20
2.0826641972
 10
26.3493661511
 20
2.131367203
 10
26.4068556924
 20
2.1788551207
 10
26.4624683878
 20
2.2251279502
 10
26.5161491531
 20
2.2701510936
 10
26.5679530724
 20
2.3139591488
 10
26.618045399
 20
2.3566559099
 10
26.6664335666
 20
2.3982464658
 10
26.7131101414
 20
2.4387257276
 10
26.758218075
 20
2.4781822225
 10
26.8017615955
 20
2.5166185042
 10
26.8437364747
 20
2.554032019
 10
26.8842729796
 20
2.5905036338
 10
26.9233750035
 20
2.6260357137
 10
26.9610386531
 20
2.6606258936
 10
26.9973825147
 20
2.694347945
 10
27.0324101842
 20
2.7272040783
 10
27.0661180657
 20
2.7591920831
 10
27.0986139583
 20
2.7903791008
 10
27.1299011824
 20
2.8207672115
 10
27.1599764175
 20
2.8503543349
 10
27.1889375015
 20
2.8792013712
 10
27.2167875019
 20
2.9073103033
 10
27.2435233512
 20
2.9346791482
 10
27.2692336837
 20
2.961362857
 10
27.2939213287
 20
2.9873633497
 10
27.317583457
 20
3.0126787062
 10
27.3403002157
 20
3.0373581175
 10
27.3620741991
 20
3.0614034795
 10
27.3829028129
 20
3.0848128961
 10
27.4028584212
 20
3.1076298703
 10
27.4219433706
 20
3.1298563162
 10
27.4401553146
 20
3.1514903196
 10
27.4575595776
 20
3.172569641
 10
27.4741582171
 20
3.1930962505
 10
27.4899491756
 20
3.213068178
 10
27.5049916048
 20
3.2325172738
 10
27.5192871921
 20
3.2514455845
 10
27.5328342501
 20
3.2698510635
 10
27.5456868677
 20
3.287759422
 10
27.5578462292
 20
3.3051727562
 10
27.5693111503
 20
3.3220889697
 10
27.5801321678
 20
3.3385274846
 10
27.5903097152
 20
3.3544902018
 10
27.5998433589
 20
3.3699752203
 10
27.6087823349
 20
3.3849962593
 10
27.6171263678
 20
3.3995551514
 10
27.6248757328
 20
3.413650064
 10
27.6320804918
 20
3.4272892177
 10
27.6387392913
 20
3.4404734623
 10
27.6448534846
 20
3.4532019481
 10
27.6504771933
 20
3.4654803463
 10
27.6556057494
 20
3.4772994485
 10
27.6602438209
 20
3.4886684632
 10
27.664459533
 20
3.4996206875
 10
27.6682509058
 20
3.5101425185
 10
27.6716199193
 20
3.520247559
 10
27.6746406378
 20
3.5300099148
 10
27.6773184427
 20
3.5394274505
 10
27.6796479526
 20
3.5485023015
 10
27.6816870881
 20
3.5573149793
 10
27.6834432675
 20
3.5658705788
 10
27.6849090724
 20
3.5741640051
 10
27.6861201683
 20
3.5822604862
 10
27.6870828215
 20
3.5901642946
 10
27.6877907657
 20
3.5978711577
 10
27.688260868
 20
3.6054334859
 10
27.6884987501
 20
3.6128544928
 10
27.6884987903
 20
3.6201309648
 10
27.68826099
 20
3.627305671
 10
27.6877909715
 20
3.6343812178
 10
27.6870831127
 20
3.6413549988
 10
27.6861205483
 20
3.6482619643
 10
27.6849095443
 20
3.6551043328
 10
27.6834438347
 20
3.6618798858
 10
27.6816877569
 20
3.6686169171
 10
27.6796487299
 20
3.6753180117
 10
27.6773193345
 20
3.6819805846
 10
27.6746416503
 20
3.6886251755
 10
27.6716210614
 20
3.6952594906
 10
27.6682521837
 20
3.7018758235
 10
27.6644609443
 20
3.7084715957
 10
27.6602453619
 20
3.7150583651
 10
27.6556074179
 20
3.7216245737
 10
27.6504789829
 20
3.7281329686
 10
27.6448553874
 20
3.7345879253
 10
27.6387413009
 20
3.7409850683
 10
27.6320826022
 20
3.7472740174
 10
27.6248779392
 20
3.7534525196
 10
27.6171286639
 20
3.7595228279
 10
27.6087847108
 20
3.7654413213
 10
27.5998458036
 20
3.7712058826
 10
27.5903122187
 20
3.776818629
 10
27.5801347196
 20
3.7822422914
 10
27.5693137401
 20
3.7874754174
 10
27.5578488464
 20
3.7925194594
 10
27.5456895017
 20
3.7973415053
 10
27.5328368899
 20
3.8019406846
 10
27.5192898269
 20
3.8063178677
 10
27.5049942246
 20
3.8104427535
 10
27.4899517702
 20
3.8143150428
 10
27.4741607764
 20
3.8179350347
 10
27.4575620925
 20
3.8212733256
 10
27.4401577761
 20
3.824330076
 10
27.4219457696
 20
3.8271051254
 10
27.4028607502
 20
3.8295685886
 10
27.3829050641
 20
3.8317209811
 10
27.3620763651
 20
3.8335617874
 10
27.3403022907
 20
3.8350595751
 10
27.3175854352
 20
3.8362151345
 10
27.2939232044
 20
3.8370276753
 10
27.2692354532
 20
3.8374633939
 10
27.2435250106
 20
3.8375232999
 10
27.2167890476
 20
3.8372063838
 10
27.1889389319
 20
3.8364758136
 10
27.159977731
 20
3.8353327828
 10
27.1299023774
 20
3.8337760978
 10
27.0986150356
 20
3.8317653455
 10
27.066119026
 20
3.829301884
 10
27.0324110283
 20
3.8263843553
 10
26.9973832459
 20
3.8229682723
 10
26.9610392748
 20
3.8190551484
 10
26.9233755191
 20
3.8146434702
 10
26.8842733951
 20
3.8096842107
 10
26.8437367963
 20
3.8041790365
 10
26.8017618292
 20
3.798126281
 10
26.7582182302
 20
3.7914719169
 10
26.7131102275
 20
3.7842177692
 10
26.6664335927
 20
3.7763620129
 10
26.6180453779
 20
3.7678451462
 10
26.5679530104
 20
3.7586697768
 10
26.5161490627
 20
3.748833297
 10
26.4624683041
 20
3.7382683817
 10
26.4068556576
 20
3.7269525894
 10
26.3493662002
 20
3.7149083616
 10
26.2899999318
 20
3.7021356984
  0
LWPOLYLINE
  5
2EE
100
AcDbEntity
  8
218
100
AcDbPolyline
 62
250
  6
CONTINUOUS
 90
104
 70
0
 10
27.3682927047
 20
2.2847292527
 10
27.4025927774
 20
2.3078219229
 10
27.4334467173
 20
2.3302124418
 10
27.4636475464
 20
2.3537122014
 10
27.4931820157
 20
2.3783108892
 10
27.5220372004
 20
2.403997737
 10
27.5502004803
 20
2.4307615102
 10
27.5776595286
 20
2.4585904985
 10
27.6044022956
 20
2.4874724936
 10
27.6304170396
 20
2.5173948145
 10
27.6556923475
 20
2.5483443296
 10
27.6802171599
 20
2.5803074924
 10
27.7039807514
 20
2.6132703248
 10
27.7269727207
 20
2.6472184033
 10
27.749182978
 20
2.6821368347
 10
27.7706017714
 20
2.7180102875
 10
27.791219705
 20
2.75482302
 10
27.8110277573
 20
2.7925589193
 10
27.8300172647
 20
2.8312014808
 10
27.8481799143
 20
2.8707337934
 10
27.865507736
 20
2.9111385148
 10
27.8819931235
 20
2.9523979089
 10
27.8976288464
 20
2.9944938742
 10
27.9124080622
 20
3.0374079831
 10
27.926324305
 20
3.08112146
 10
27.939371481
 20
3.1256151697
 10
27.9515438662
 20
3.1708695972
 10
27.9628361193
 20
3.2168648854
 10
27.9732432892
 20
3.2635808616
 10
27.9827608203
 20
3.3109970706
 10
27.9913845467
 20
3.3590927573
 10
27.9991106909
 20
3.40784686
 10
28.0059358642
 20
3.4572380019
 10
28.0118570735
 20
3.5072445224
 10
28.0168717234
 20
3.5578444989
 10
28.0209776182
 20
3.6090157674
 10
28.0241729597
 20
3.6607359156
 10
28.0264563476
 20
3.712982285
 10
28.0278267808
 20
3.7657319762
 10
28.0282836585
 20
3.8189618707
 10
28.0278267807
 20
3.872648643
 10
28.0264563474
 20
3.9267687675
 10
28.0241729594
 20
3.9812985248
 10
28.0209776178
 20
4.0362140146
 10
28.0168717229
 20
4.0914911779
 10
28.0118570729
 20
4.1471058043
 10
28.0059358636
 20
4.2030335341
 10
27.9991106901
 20
4.2592498494
 10
27.9913845458
 20
4.3157300964
 10
27.9827608193
 20
4.3724495095
 10
27.9732432881
 20
4.4293832496
 10
27.9628361182
 20
4.4865063957
 10
27.951543865
 20
4.543793937
 10
27.9393714797
 20
4.6012207497
 10
27.9263243036
 20
4.6587616355
 10
27.9124080607
 20
4.7163913552
 10
27.8976288448
 20
4.77408468
 10
27.8819931218
 20
4.8318163683
 10
27.8655077342
 20
4.8895611498
 10
27.8481799124
 20
4.947293693
 10
27.8300172627
 20
5.0049886551
 10
27.8110277553
 20
5.062620724
 10
27.7912197029
 20
5.1201646757
 10
27.7706017692
 20
5.1775953418
 10
27.7491829757
 20
5.2348875881
 10
27.7269727184
 20
5.2920162766
 10
27.703980749
 20
5.3489563245
 10
27.6802171574
 20
5.4056827483
 10
27.6556923449
 20
5.4621707237
 10
27.6304170369
 20
5.5183955467
 10
27.6044022928
 20
5.5743326116
 10
27.5776595258
 20
5.6299573736
 10
27.5502004774
 20
5.6852454101
 10
27.5220371975
 20
5.7401724633
 10
27.4931820126
 20
5.7947144959
 10
27.4636475432
 20
5.8488476531
 10
27.4334467141
 20
5.9025482416
 10
27.4025927742
 20
5.9557927003
 10
27.3710992677
 20
6.0085576559
 10
27.3389800119
 20
6.0608199616
 10
27.3062490665
 20
6.1125567428
 10
27.2729207514
 20
6.163745365
 10
27.2390096554
 20
6.2143634189
 10
27.2045306522
 20
6.2643887005
 10
27.1694988717
 20
6.3137992578
 10
27.1339296789
 20
6.3625734214
 10
27.0978386475
 20
6.4106898376
 10
27.0612415744
 20
6.4581274464
 10
27.0241544849
 20
6.5048654739
 10
26.9865936411
 20
6.5508834248
 10
26.9485755168
 20
6.596161116
 10
26.9101167801
 20
6.6406786976
 10
26.8712342758
 20
6.6844166723
 10
26.831945032
 20
6.7273558853
 10
26.7922662603
 20
6.7694775259
 10
26.7522153527
 20
6.8107631306
 10
26.7118098644
 20
6.8511946027
 10
26.6710675026
 20
6.890754224
 10
26.6300061192
 20
6.9294246608
 10
26.5886437081
 20
6.9671889672
 10
26.5469983966
 20
7.0040305931
 10
26.5050884314
 20
7.0399333966
 10
26.4629321713
 20
7.0748816504
 10
26.4531159177
 20
7.0827511257
  0
LINE
  5
2EF
100
AcDbEntity
  8
218
100
AcDbLine
 62
7
  6
CONTINUOUS
 10
26.4531159177
 20
1.6928006336
 11
27.3682927043
 21
2.2847292524
  0
LWPOLYLINE
  5
2F0
100
AcDbEntity
  8
RACCORDO
100
AcDbPolyline
 62
250
  6
CONTINUOUS
 90
16
 70
0
 10
4.8181481646
 20
11.3887395951
 10
4.7564470654
 20
11.3746366521
 10
4.689564241
 20
11.3637368107
 10
4.6182083279
 20
11.356155557
 10
4.5431353561
 20
11.3519732159
 10
4.4651407385
 20
11.3512340999
 10
4.3850508432
 20
11.3539460404
 10
4.3037142384
 20
11.3600803035
 10
4.2219927014
 20
11.3695718958
 10
4.1407520879
 20
11.3823202519
 10
4.0608531581
 20
11.3981903004
 10
3.9831424568
 20
11.417013895
 10
3.9084433442
 20
11.4385915964
 10
3.837547272
 20
11.4626947845
 10
3.771205398
 20
11.4890680813
 10
3.7101206274
 20
11.5174320566
  0
LWPOLYLINE
  5
2F1
100
AcDbEntity
  8
218
100
AcDbPolyline
 62
7
  6
CONTINUOUS
 90
19
 70
0
 10
26.289999821
 20
15.6532862444
 10
26.2822146212
 20
15.6517352742
 10
26.2745631039
 20
15.6504928271
 10
26.2670452691
 20
15.6495589031
 10
26.2596540821
 20
15.6489380568
 10
26.2523965777
 20
15.6486257336
 10
26.2452938597
 20
15.6486082695
 10
26.2383505796
 20
15.6488891401
 10
26.231562086
 20
15.6494648698
 10
26.224935528
 20
15.6503113679
 10
26.2184742287
 20
15.651430639
 10
26.2121748651
 20
15.6528206786
 10
26.2060346174
 20
15.6544513823
 10
26.2000552569
 20
15.656324005
 10
26.1942350122
 20
15.658437292
 10
26.1885657494
 20
15.6607573746
 10
26.1830447571
 20
15.6632729633
 10
26.1776747466
 20
15.6659953476
 10
26.172455718
 20
15.6689245276
  0
LINE
  5
2F2
100
AcDbEntity
  8
RACCORDO
100
AcDbLine
 62
250
  6
CONTINUOUS
 10
-9.4849036679
 20
20.3311973114
 11
4.8694663486
 21
13.1540123031
  0
LWPOLYLINE
  5
2F3
100
AcDbEntity
  8
218
100
AcDbPolyline
 62
250
  6
CONTINUOUS
 90
33
 70
0
 10
20.457201429
 20
-6.0260246325
 10
20.457262345
 20
-6.0495744055
 10
20.45677717
 20
-6.0728426474
 10
20.4557462724
 20
-6.0958116955
 10
20.4541704346
 20
-6.1184641142
 10
20.4520508529
 20
-6.1407827082
 10
20.4493891362
 20
-6.1627505357
 10
20.4461873051
 20
-6.1843509212
 10
20.4424477899
 20
-6.2055674678
 10
20.4381734294
 20
-6.2263840704
 10
20.4333674682
 20
-6.2467849272
 10
20.4280335544
 20
-6.2667545521
 10
20.4221757369
 20
-6.2862777864
 10
20.4157984624
 20
-6.3053398101
 10
20.4089065719
 20
-6.3239261533
 10
20.4015052968
 20
-6.3420227074
 10
20.3936002554
 20
-6.3596157354
 10
20.3851974485
 20
-6.3766918827
 10
20.3763032544
 20
-6.3932381867
 10
20.3669244247
 20
-6.4092420875
 10
20.3570680788
 20
-6.4246914365
 10
20.3467416985
 20
-6.4395745062
 10
20.3359531226
 20
-6.4538799992
 10
20.3247105404
 20
-6.4675970562
 10
20.3130224863
 20
-6.4807152646
 10
20.3008978324
 20
-6.4932246666
 10
20.2883457826
 20
-6.5051157665
 10
20.2753758649
 20
-6.5163795377
 10
20.2619979247
 20
-6.52700743
 10
20.2482221171
 20
-6.5369913759
 10
20.2340588992
 20
-6.5463237966
 10
20.2195190222
 20
-6.5549976081
 10
20.2126854491
 20
-6.5587763183
  0
LINE
  5
2F4
100
AcDbEntity
  8
715
100
AcDbLine
 62
7
  6
CONTINUOUS
 10
19.1333835355
 20
20.2331742895
 11
19.1333835355
 21
19.7619335819
  0
LINE
  5
2F5
100
AcDbEntity
  8
218
100
AcDbLine
 62
250
  6
CONTINUOUS
 10
19.4332431098
 20
-14.4188229655
 11
19.4332431098
 21
-7.8550348282
  0
LINE
  5
2F6
100
AcDbEntity
  8
218
100
AcDbLine
 62
7
  6
CONTINUOUS
 10
20.9730590158
 20
23.549414326
 11
20.9730590158
 21
23.2224482783
  0
LWPOLYLINE
  5
2F7
100
AcDbEntity
  8
218
100
AcDbPolyline
 62
7
  6
CONTINUOUS
 90
81
 70
0
 10
19.7139033095
 20
-14.0714937803
 10
19.7139147451
 20
-7.5039204044
 10
19.7140397071
 20
-7.4945257038
 10
19.714311798
 20
-7.4846835206
 10
19.7147426539
 20
-7.4743970729
 10
19.7153434352
 20
-7.4636753811
 10
19.7161245013
 20
-7.4525334693
 10
19.717096126
 20
-7.4409788498
 10
19.7182681833
 20
-7.4290196445
 10
19.7196492128
 20
-7.4166732422
 10
19.7212478753
 20
-7.4039506336
 10
19.7230726253
 20
-7.3908610234
 10
19.7251305182
 20
-7.3774202193
 10
19.7274287852
 20
-7.3636400948
 10
19.7299743765
 20
-7.3495321698
 10
19.7327729383
 20
-7.3351123515
 10
19.7358302386
 20
-7.3203932005
 10
19.7391515829
 20
-7.3053883622
 10
19.7427408011
 20
-7.2901158084
 10
19.7466026009
 20
-7.2745872702
 10
19.7507400218
 20
-7.258819843
 10
19.7551529716
 20
-7.2428402314
 10
19.7598438057
 20
-7.226663043
 10
19.7648137224
 20
-7.2103050999
 10
19.7700590435
 20
-7.1937971642
 10
19.7755795826
 20
-7.1771560444
 10
19.7813746313
 20
-7.1603983277
 10
19.7874377701
 20
-7.1435548816
 10
19.7937666576
 20
-7.1266429863
 10
19.8003584194
 20
-7.1096797887
 10
19.8072039791
 20
-7.0926960648
 10
19.8142988215
 20
-7.0757091367
 10
19.8216380202
 20
-7.0587361946
 10
19.8292100321
 20
-7.0418075368
 10
19.8370083187
 20
-7.0249399615
 10
19.8450259521
 20
-7.0081503689
 10
19.8532489182
 20
-6.9914685423
 10
19.8616689395
 20
-6.9749102631
 10
19.8702771089
 20
-6.9584917843
 10
19.8790567217
 20
-6.9422426328
 10
19.8879977546
 20
-6.9261776556
 10
19.8970897223
 20
-6.9103115141
 10
19.9063137821
 20
-6.8946722199
 10
19.9156581367
 20
-6.8792737332
 10
19.9251113631
 20
-6.8641282718
 10
19.9346540342
 20
-6.8492597744
 10
19.9442731988
 20
-6.8346805027
 10
19.9539566716
 20
-6.8204005032
 10
19.9636853324
 20
-6.8064388833
 10
19.9734461036
 20
-6.7928049907
 10
19.9832256832
 20
-6.779507642
 10
19.9930040183
 20
-6.766563579
 10
20.0027672935
 20
-6.7539801224
 10
20.012502102
 20
-6.7417635273
 10
20.0221884358
 20
-6.7299272307
 10
20.0318123566
 20
-6.7184760113
 10
20.0413602468
 20
-6.7074138673
 10
20.0508121334
 20
-6.6967512852
 10
20.0601541988
 20
-6.6864906287
 10
20.0693729493
 20
-6.6766333575
 10
20.078448882
 20
-6.667186763
 10
20.0873670012
 20
-6.6581523749
 10
20.0961159896
 20
-6.6495273804
 10
20.1046819298
 20
-6.6413112111
 10
20.113050605
 20
-6.6335031372
 10
20.1212112492
 20
-6.6260986705
 10
20.1291550362
 20
-6.6190913123
 10
20.1368697536
 20
-6.6124774212
 10
20.1443435115
 20
-6.6062527399
 10
20.1515674121
 20
-6.6004101511
 10
20.1585302295
 20
-6.5949441453
 10
20.1652196125
 20
-6.5898497497
 10
20.1716242183
 20
-6.5851208242
 10
20.1777334884
 20
-6.5807502047
 10
20.1835350375
 20
-6.576731569
 10
20.1890141968
 20
-6.5730596029
 10
20.194160256
 20
-6.5697257661
 10
20.1989625587
 20
-6.5667210338
 10
20.2034061204
 20
-6.564038489
 10
20.2074788841
 20
-6.5616687543
 10
20.2111723414
 20
-6.5595999533
  0
LWPOLYLINE
  5
2F8
100
AcDbEntity
  8
218
100
AcDbPolyline
 62
250
  6
CONTINUOUS
 90
67
 70
0
 10
19.4332431098
 20
-7.8550348282
 10
19.4335203737
 20
-7.8246510483
 10
19.434369272
 20
-7.7939580367
 10
19.4357898047
 20
-7.7629557934
 10
19.4377810741
 20
-7.7316205271
 10
19.4403439779
 20
-7.6999760291
 10
19.4434812099
 20
-7.6680936734
 10
19.4471951162
 20
-7.6359733754
 10
19.4514833507
 20
-7.6036152198
 10
19.4563415686
 20
-7.5710908346
 10
19.4617721564
 20
-7.5383992496
 10
19.4677727276
 20
-7.505541435
 10
19.4743317788
 20
-7.4725919301
 10
19.4814514148
 20
-7.4395510029
 10
19.4891295308
 20
-7.4064183854
 10
19.4973483083
 20
-7.3732678133
 10
19.5061079429
 20
-7.3401046402
 10
19.515408239
 20
-7.3069235124
 10
19.5252307916
 20
-7.2737821049
 10
19.5355747222
 20
-7.2406852408
 10
19.5464409094
 20
-7.207628097
 10
19.5578135835
 20
-7.1746538782
 10
19.5696930179
 20
-7.1417622987
 10
19.5820789392
 20
-7.1089536443
 10
19.5949547579
 20
-7.0762719768
 10
19.6083221499
 20
-7.0437143928
 10
19.6221794393
 20
-7.0112837959
 10
19.6365050087
 20
-6.9790329582
 10
19.6513004494
 20
-6.9469605422
 10
19.6665641702
 20
-6.9150678855
 10
19.6822697802
 20
-6.8834117742
 10
19.6984181453
 20
-6.851992797
 10
19.7150083997
 20
-6.8208103651
 10
19.7320115556
 20
-6.7899194984
 10
19.7494284531
 20
-6.7593208023
 10
19.767258252
 20
-6.7290136713
 10
19.7854694444
 20
-6.6990513087
 10
19.8040629067
 20
-6.669434293
 10
19.8230377624
 20
-6.6401620458
 10
19.8423598741
 20
-6.6112860348
 10
19.8620289739
 20
-6.5828083192
 10
19.8820453295
 20
-6.5547268398
 10
19.9023756075
 20
-6.5270868866
 10
19.9230182468
 20
-6.4998914261
 10
19.9439748084
 20
-6.4731374918
 10
19.9652166418
 20
-6.4468614753
 10
19.9867434258
 20
-6.4210640534
 10
20.0085554817
 20
-6.3957445493
 10
20.0306251223
 20
-6.3709373238
 10
20.0529555327
 20
-6.3466396467
 10
20.0755435279
 20
-6.3228542482
 10
20.0983518654
 20
-6.2996236797
 10
20.1213849495
 20
-6.276945665
 10
20.1446383761
 20
-6.2548224802
 10
20.1680616899
 20
-6.2333035049
 10
20.1916563321
 20
-6.2123904146
 10
20.2154208617
 20
-6.1920815338
 10
20.2393005004
 20
-6.1724212152
 10
20.2632955223
 20
-6.1534122902
 10
20.2874056533
 20
-6.1350519273
 10
20.3115752934
 20
-6.1173759853
 10
20.335805546
 20
-6.1003867969
 10
20.3600953076
 20
-6.0840820294
 10
20.3843856677
 20
-6.0684905431
 10
20.4086569896
 20
-6.0536219583
 10
20.43292891
 20
-6.0394666548
 10
20.457201429
 20
-6.0260246325
  0
LWPOLYLINE
  5
2F9
100
AcDbEntity
  8
268
100
AcDbPolyline
 62
7
  6
CONTINUOUS
 90
7
 70
0
 10
16.3466745989
 20
-17.3923285234
 10
16.3465829908
 20
-17.3928141309
 10
16.3464438201
 20
-17.3933262786
 10
16.3462570866
 20
-17.3938649667
 10
16.3460227905
 20
-17.394430195
 10
16.3457409317
 20
-17.3950219636
 10
16.3454115102
 20
-17.3956402725
  0
LINE
  5
2FA
100
AcDbEntity
  8
218
100
AcDbLine
 62
250
  6
CONTINUOUS
 10
26.4594112642
 20
1.706177861
 11
26.4531159177
 21
1.7005263303
  0
LWPOLYLINE
  5
2FB
100
AcDbEntity
  8
218
100
AcDbPolyline
 62
250
  6
CONTINUOUS
 90
57
 70
0
 10
26.172455718
 20
1.9453136775
 10
26.1782246221
 20
1.950469902
 10
26.1839703375
 20
1.9554113291
 10
26.1896917298
 20
1.9601380886
 10
26.1953823065
 20
1.9646524436
 10
26.2010463582
 20
1.9689523266
 10
26.2066984534
 20
1.973031566
 10
26.2123390055
 20
1.9768933755
 10
26.2179642464
 20
1.9805351633
 10
26.2235816948
 20
1.9839423622
 10
26.2291910244
 20
1.9871168732
 10
26.2347884662
 20
1.9900576028
 10
26.2403759051
 20
1.9927456532
 10
26.2459505196
 20
1.9951811398
 10
26.2515106064
 20
1.9973647768
 10
26.2570593349
 20
1.9992786773
 10
26.2625848575
 20
2.0009233428
 10
26.2680940767
 20
2.0022990964
 10
26.2736167139
 20
2.0033883091
 10
26.2791379672
 20
2.0041998537
 10
26.2846647461
 20
2.0047265068
 10
26.2902550872
 20
2.0049278817
 10
26.2959086539
 20
2.0048166983
 10
26.3016107142
 20
2.0043838585
 10
26.3073924852
 20
2.0035578121
 10
26.3132580401
 20
2.0023398736
 10
26.3191817961
 20
2.000733619
 10
26.3251481061
 20
1.998671416
 10
26.3311496363
 20
1.9961463843
 10
26.337170616
 20
1.9931697848
 10
26.3431835446
 20
1.9897007274
 10
26.3491658393
 20
1.9857429313
 10
26.3551177582
 20
1.9812958281
 10
26.3610451191
 20
1.9763120443
 10
26.3669300533
 20
1.970797491
 10
26.3727622962
 20
1.9647496587
 10
26.3785539832
 20
1.9581093652
 10
26.3842963594
 20
1.950862804
 10
26.3899600755
 20
1.9430277547
 10
26.3955229063
 20
1.9345927026
 10
26.4009634145
 20
1.9255533356
 10
26.4062627475
 20
1.9159163742
 10
26.4114016686
 20
1.9056864799
 10
26.4163438891
 20
1.8948942819
 10
26.4210828448
 20
1.8835097967
 10
26.4256339016
 20
1.8714475314
 10
26.4299643978
 20
1.8587073422
 10
26.434039661
 20
1.8452902475
 10
26.4378522199
 20
1.8311138806
 10
26.441358551
 20
1.8161572639
 10
26.4445067147
 20
1.8004402675
 10
26.4472578778
 20
1.7839419893
 10
26.4495514394
 20
1.766661019
 10
26.4513292796
 20
1.7485922279
 10
26.4525341943
 20
1.7297081402
 10
26.4530895574
 20
1.7098563543
 10
26.4531159174
 20
1.7044829995
  0
LINE
  5
2FC
100
AcDbEntity
  8
218
100
AcDbLine
 62
250
  6
CONTINUOUS
 10
20.457201429
 20
-6.0260246325
 11
26.172455718
 21
-2.942513826
  0
LINE
  5
2FD
100
AcDbEntity
  8
218
100
AcDbLine
 62
7
  6
CONTINUOUS
 10
20.2111723414
 20
-6.5595999533
 11
25.9279397381
 21
-3.4752655118
  0
LWPOLYLINE
  5
2FE
100
AcDbEntity
  8
218
100
AcDbPolyline
 62
250
  6
CONTINUOUS
 90
29
 70
0
 10
26.172455718
 20
-2.942513826
 10
26.1911170334
 20
-2.9325843863
 10
26.209230297
 20
-2.9224043855
 10
26.2267820573
 20
-2.9119813833
 10
26.2437592807
 20
-2.9013231194
 10
26.2601493584
 20
-2.8904375093
 10
26.2759401162
 20
-2.8793326385
 10
26.2911198268
 20
-2.8680167541
 10
26.3056772183
 20
-2.8564982592
 10
26.31960148
 20
-2.8447857076
 10
26.3328822717
 20
-2.8328877973
 10
26.3455097306
 20
-2.8208133639
 10
26.357474479
 20
-2.8085713745
 10
26.3687676319
 20
-2.7961709203
 10
26.3793808027
 20
-2.7836212102
 10
26.3893061099
 20
-2.7709315639
 10
26.398536183
 20
-2.758111405
 10
26.4070641674
 20
-2.7451702541
 10
26.4148837302
 20
-2.7321177218
 10
26.4219890646
 20
-2.7189635012
 10
26.4283748941
 20
-2.7057173608
 10
26.4340364766
 20
-2.692389138
 10
26.4389696078
 20
-2.6789887303
 10
26.4431706245
 20
-2.6655260894
 10
26.446636407
 20
-2.6520112131
 10
26.4493643819
 20
-2.6384541378
 10
26.4513525236
 20
-2.6248649313
 10
26.4525993559
 20
-2.6112536855
 10
26.4530879649
 20
-2.5980621584
  0
LWPOLYLINE
  5
2FF
100
AcDbEntity
  8
218
100
AcDbPolyline
 62
250
  6
CONTINUOUS
 90
30
 70
0
 10
19.4332431098
 20
-7.8550348282
 10
19.4519042502
 20
-7.8451054842
 10
19.4700173469
 20
-7.8349255852
 10
19.4875689489
 20
-7.8245026909
 10
19.5045460224
 20
-7.8138445414
 10
19.5209359601
 20
-7.8029590514
 10
19.5367265908
 20
-7.7918543046
 10
19.5519061882
 20
-7.7805385475
 10
19.5664634799
 20
-7.7690201832
 10
19.5803876556
 20
-7.7573077653
 10
19.5936683751
 20
-7.7454099916
 10
19.606295776
 20
-7.7333356973
 10
19.6182604814
 20
-7.7210938489
 10
19.6295536059
 20
-7.7086935373
 10
19.6401667635
 20
-7.696143971
 10
19.6500920725
 20
-7.6834544694
 10
19.6593221626
 20
-7.6706344558
 10
19.6678501793
 20
-7.6576934504
 10
19.6756697898
 20
-7.6446410633
 10
19.6827751871
 20
-7.6314869872
 10
19.6891610948
 20
-7.6182409905
 10
19.6948227706
 20
-7.6049129097
 10
19.6997560102
 20
-7.5915126423
 10
19.7039571501
 20
-7.5780501393
 10
19.7074230706
 20
-7.5645353983
 10
19.7101511978
 20
-7.5509784551
 10
19.7121395058
 20
-7.5373893774
 10
19.7133865181
 20
-7.5237782565
 10
19.7138913088
 20
-7.5101552
 10
19.7139033095
 20
-7.507705643
  0
LINE
  5
300
100
AcDbEntity
  8
268
100
AcDbLine
 62
7
  6
CONTINUOUS
 10
9.9085815607
 20
13.1928026427
 11
9.4901846138
 21
13.4020011162
  0
LINE
  5
301
100
AcDbEntity
  8
268
100
AcDbLine
 62
7
  6
CONTINUOUS
 10
9.0954087623
 20
14.5584084124
 11
-6.6730724582
 21
22.4426490226
  0
LINE
  5
302
100
AcDbEntity
  8
268
100
AcDbLine
 62
7
  6
CONTINUOUS
 10
8.8479213889
 20
15.0096680376
 11
-6.4255850848
 21
22.6464212744
  0
LINE
  5
303
100
AcDbEntity
  8
268
100
AcDbLine
 62
7
  6
CONTINUOUS
 10
-5.570886207
 20
22.9337363059
 11
-3.956882091
 21
22.1267342479
  0
LINE
  5
304
100
AcDbEntity
  8
268
100
AcDbLine
 62
7
  6
CONTINUOUS
 10
7.7934319575
 20
16.2515772237
 11
9.4074360735
 21
15.4445751657
  0
LWPOLYLINE
  5
305
100
AcDbEntity
  8
218
100
AcDbPolyline
 62
7
  6
CONTINUOUS
 90
19
 70
0
 10
26.172455718
 20
1.9453054824
 10
26.1777194405
 20
1.9537065151
 10
26.1831233729
 20
1.9620395585
 10
26.1886675153
 20
1.9703046126
 10
26.1943486766
 20
1.9785080319
 10
26.200170048
 20
1.9866434619
 10
26.206141202
 20
1.9946918389
 10
26.2122621044
 20
2.0026522219
 10
26.2185327895
 20
2.010525552
 10
26.2249629337
 20
2.0182955884
 10
26.2315549899
 20
2.0259642375
 10
26.2383065052
 20
2.0335295928
 10
26.2452197971
 20
2.0409696943
 10
26.2522994059
 20
2.0482872906
 10
26.2595407914
 20
2.0554796331
 10
26.2669326503
 20
2.0625165155
 10
26.2744712148
 20
2.0693878694
 10
26.2821602526
 20
2.0761037632
 10
26.2899997639
 20
2.0826641972
  0
LINE
  5
306
100
AcDbEntity
  8
268
100
AcDbLine
 62
7
  6
CONTINUOUS
 10
7.7571034627
 20
-23.2050726428
 11
7.1783131225
 21
-23.909516373
  0
LINE
  5
307
100
AcDbEntity
  8
268
100
AcDbLine
 62
7
  6
CONTINUOUS
 10
8.7851180414
 20
16.2116853069
 11
9.4074360735
 21
16.0817447244
  0
LINE
  5
308
100
AcDbEntity
  8
268
100
AcDbLine
 62
7
  6
CONTINUOUS
 10
5.1680828579
 20
17.9215840087
 11
-0.6244262102
 21
20.8178385427
  0
LINE
  5
309
100
AcDbEntity
  8
268
100
AcDbLine
 62
7
  6
CONTINUOUS
 10
-6.2092838684
 20
23.7052661123
 11
-4.6027513991
 21
22.9019998776
  0
LINE
  5
30A
100
AcDbEntity
  8
268
100
AcDbLine
 62
7
  6
CONTINUOUS
 10
7.155034296
 20
17.0231070301
 11
8.7615667654
 21
16.2198407954
  0
LINE
  5
30B
100
AcDbEntity
  8
268
100
AcDbLine
 62
250
  6
CONTINUOUS
 10
-6.2738791612
 20
23.8402955606
 11
-4.6681026991
 21
23.0374073295
  0
LINE
  5
30C
100
AcDbEntity
  8
268
100
AcDbLine
 62
250
  6
CONTINUOUS
 10
7.0904390032
 20
17.1581364784
 11
8.6962154654
 21
16.3552482473
  0
LINE
  5
30D
100
AcDbEntity
  8
268
100
AcDbLine
 62
250
  6
CONTINUOUS
 10
8.6962154654
 20
16.608619641
 11
7.0904390032
 21
17.4115078721
  0
LINE
  5
30E
100
AcDbEntity
  8
268
100
AcDbLine
 62
250
  6
CONTINUOUS
 10
-4.6681026991
 20
23.2907787233
 11
-6.2738791612
 21
24.0936669543
  0
LINE
  5
30F
100
AcDbEntity
  8
268
100
AcDbLine
 62
7
  6
CONTINUOUS
 10
10.6156883418
 20
15.9124457371
 11
10.4742669856
 21
15.9831564152
  0
LINE
  5
310
100
AcDbEntity
  8
268
100
AcDbLine
 62
7
  6
CONTINUOUS
 10
7.1713268934
 20
17.6346264613
 11
6.0902049422
 21
18.1751874369
  0
LINE
  5
311
100
AcDbEntity
  8
268
100
AcDbLine
 62
7
  6
CONTINUOUS
 10
-0.7122941758
 20
21.5764369959
 11
-2.8900511788
 21
22.6653154974
  0
LINE
  5
312
100
AcDbEntity
  8
268
100
AcDbLine
 62
250
  6
CONTINUOUS
 10
8.8729861948
 20
16.9124852193
 11
7.2651647857
 21
17.7163959238
  0
LINE
  5
313
100
AcDbEntity
  8
268
100
AcDbLine
 62
250
  6
CONTINUOUS
 10
-4.4913319697
 20
23.5946443015
 11
-6.0991533787
 21
24.398555006
  0
LINE
  5
314
100
AcDbEntity
  8
268
100
AcDbLine
 62
7
  6
CONTINUOUS
 10
-0.6244262102
 20
22.0327934088
 11
5.1680828579
 21
19.1365388748
  0
LINE
  5
315
100
AcDbEntity
  8
268
100
AcDbLine
 62
7
  6
CONTINUOUS
 10
11.322795123
 20
16.2584414385
 11
10.5230630992
 21
16.6583074504
  0
LINE
  5
316
100
AcDbEntity
  8
268
100
AcDbLine
 62
7
  6
CONTINUOUS
 10
-1.3587770618
 20
22.5992275309
 11
-2.8412550652
 21
23.3404665326
  0
LINE
  5
317
100
AcDbEntity
  8
268
100
AcDbLine
 62
7
  6
CONTINUOUS
 10
-0.1323347322
 20
22.4988928394
 11
6.0902049422
 21
19.3876230022
  0
LINE
  5
318
100
AcDbEntity
  8
268
100
AcDbLine
 62
7
  6
CONTINUOUS
 10
-4.5163967756
 20
25.2105391034
 11
-2.8900511788
 21
24.397366305
  0
LINE
  5
319
100
AcDbEntity
  8
268
100
AcDbLine
 62
7
  6
CONTINUOUS
 10
8.8479213889
 20
18.5283800212
 11
10.4742669856
 21
17.7152072228
  0
LWPOLYLINE
  5
31A
100
AcDbEntity
  8
218
100
AcDbPolyline
 62
7
  6
CONTINUOUS
 90
104
 70
0
 10
26.4531159177
 20
7.1729727092
 10
26.4658372556
 20
7.163717889
 10
26.5106588676
 20
7.1298495675
 10
26.5551427149
 20
7.0949746553
 10
26.5993003751
 20
7.0590898677
 10
26.6431309525
 20
7.0221996765
 10
26.6866027052
 20
6.9843343428
 10
26.729680326
 20
6.9455295061
 10
26.7723432469
 20
6.9058094841
 10
26.814580954
 20
6.8651896802
 10
26.8563734557
 20
6.8236947508
 10
26.8976995819
 20
6.7813514806
 10
26.9385503358
 20
6.7381746963
 10
26.9789234579
 20
6.6941713196
 10
27.0188142818
 20
6.649349637
 10
27.0581967546
 20
6.6037419601
 10
27.0970366801
 20
6.5573923379
 10
27.1353055787
 20
6.510340873
 10
27.1730042054
 20
6.4625926312
 10
27.2101419429
 20
6.4141394694
 10
27.2467176454
 20
6.3649843298
 10
27.2827028412
 20
6.3151667552
 10
27.3180657928
 20
6.264733715
 10
27.3527830806
 20
6.2137232726
 10
27.3868521038
 20
6.1621437977
 10
27.4202726759
 20
6.1099984328
 10
27.4530366477
 20
6.0573013233
 10
27.4851253455
 20
6.004083767
 10
27.5165224826
 20
5.9503745236
 10
27.5472138269
 20
5.8961999267
 10
27.5771887607
 20
5.8415805462
 10
27.6064367945
 20
5.7865368666
 10
27.6349453986
 20
5.7310935594
 10
27.6627033356
 20
5.6752733804
 10
27.689702018
 20
5.6190939379
 10
27.7159306793
 20
5.5625773429
 10
27.7413771622
 20
5.5057492558
 10
27.7660308684
 20
5.4486325839
 10
27.7898813877
 20
5.3912502806
 10
27.8129175904
 20
5.3336276566
 10
27.8351282597
 20
5.2757911778
 10
27.8565007255
 20
5.2177724834
 10
27.8770280762
 20
5.1595886307
 10
27.8967073998
 20
5.1012439801
 10
27.9155341791
 20
5.0427449191
 10
27.9334923555
 20
4.9841336544
 10
27.950562783
 20
4.9254681003
 10
27.9667306537
 20
4.8667986467
 10
27.9819961105
 20
4.8081238234
 10
27.9963623825
 20
4.7494234935
 10
28.0098265734
 20
4.6906938775
 10
28.0223726439
 20
4.6319876741
 10
28.0339843861
 20
4.5733689702
 10
28.0446512915
 20
4.5148848587
 10
28.0543718372
 20
4.4565364776
 10
28.0631442217
 20
4.3983184271
 10
28.0709633552
 20
4.3402381815
 10
28.0778195806
 20
4.2823367985
 10
28.0837042496
 20
4.2246586276
 10
28.0886116682
 20
4.1672300185
 10
28.0925368527
 20
4.1100720699
 10
28.0954742553
 20
4.0532200009
 10
28.0974194041
 20
3.9967069575
 10
28.0983689015
 20
3.9405459898
 10
28.0983187683
 20
3.8847414438
 10
28.0972634548
 20
3.8292830145
 10
28.095198268
 20
3.7742279829
 10
28.0921242512
 20
3.719679538
 10
28.0880458254
 20
3.665705358
 10
28.0829613549
 20
3.6122781521
 10
28.0768639871
 20
3.5593572939
 10
28.0697417611
 20
3.50690045
 10
28.0615992049
 20
3.4549954311
 10
28.0524585707
 20
3.4037933137
 10
28.0423383462
 20
3.3533717344
 10
28.0312338975
 20
3.3036852336
 10
28.019137327
 20
3.2546967764
 10
28.0060378112
 20
3.2063766991
 10
27.9919500337
 20
3.1587930565
 10
27.9769069351
 20
3.1120529321
 10
27.9609252465
 20
3.0661914501
 10
27.9440075034
 20
3.0212005772
 10
27.9261727889
 20
2.9771168069
 10
27.9074367725
 20
2.9339622141
 10
27.887806955
 20
2.8917386209
 10
27.8672916661
 20
2.8504512256
 10
27.8458828039
 20
2.8100761876
 10
27.8236105013
 20
2.770663346
 10
27.8005476914
 20
2.7323223274
 10
27.7767547894
 20
2.6951199544
 10
27.752213963
 20
2.6589961291
 10
27.7268822614
 20
2.6238701099
 10
27.7007423366
 20
2.5897124009
 10
27.6738392547
 20
2.5565766196
 10
27.646221585
 20
2.5245104821
 10
27.617924421
 20
2.4935380297
 10
27.5889522986
 20
2.4636479152
 10
27.5593110151
 20
2.4348328981
 10
27.529022973
 20
2.4071027521
 10
27.4981057288
 20
2.3804616974
 10
27.4665565149
 20
2.3548976267
 10
27.4343872143
 20
2.3304128134
 10
27.4016257113
 20
2.30702109
 10
27.3682927042
 20
2.2847292524
  0
LINE
  5
31B
100
AcDbEntity
  8
218
100
AcDbLine
 62
250
  6
CONTINUOUS
 10
16.7506222513
 20
21.5146271288
 11
16.3566363174
 21
22.5367829468
  0
LINE
  5
31C
100
AcDbEntity
  8
268
100
AcDbLine
 62
7
  6
CONTINUOUS
 10
9.4074360735
 20
-23.967859415
 11
8.7851180414
 21
-24.7129188324
  0
LINE
  5
31D
100
AcDbEntity
  8
268
100
AcDbLine
 62
250
  6
CONTINUOUS
 10
7.9029565443
 20
-18.3595654176
 11
6.8360945046
 21
-18.8522776621
  0
LINE
  5
31E
100
AcDbEntity
  8
268
100
AcDbLine
 62
7
  6
CONTINUOUS
 10
7.7022614871
 20
-18.8732612604
 11
6.8000826901
 21
-19.289917326
  0
LWPOLYLINE
  5
31F
100
AcDbEntity
  8
218
100
AcDbPolyline
 62
7
  6
CONTINUOUS
 90
3
 70
0
 10
6.1073699163
 20
22.0727048348
 10
6.105074982
 20
22.0737981897
 10
6.1022389939
 20
22.0750054091
  0
LWPOLYLINE
  5
320
100
AcDbEntity
  8
218
100
AcDbPolyline
 62
7
  6
CONTINUOUS
 90
21
 70
0
 10
4.8881234142
 20
21.9955302657
 10
4.8831672437
 20
21.9979134917
 10
4.8782433867
 20
22.0000917354
 10
4.8733578231
 20
22.0020624402
 10
4.8685163153
 20
22.0038231505
 10
4.8637247976
 20
22.0053719182
 10
4.8589893727
 20
22.0067072972
 10
4.854315544
 20
22.0078276109
 10
4.8497088968
 20
22.0087315597
 10
4.8451754911
 20
22.0094186199
 10
4.8407204827
 20
22.0098878451
 10
4.8363490744
 20
22.0101386698
 10
4.8320671993
 20
22.0101715099
 10
4.8278796055
 20
22.0099861601
 10
4.8237910601
 20
22.0095827921
 10
4.8198072976
 20
22.0089627622
 10
4.8159326107
 20
22.0081266083
 10
4.812171274
 20
22.0070752345
 10
4.8085287412
 20
22.0058109204
 10
4.8050088009
 20
22.0043349373
 10
4.8031606408
 20
22.0034505763
  0
LINE
  5
321
100
AcDbEntity
  8
268
100
AcDbLine
 62
7
  6
CONTINUOUS
 10
6.1609156204
 20
20.0543360559
 11
1.2111681521
 21
22.5292097901
  0
LINE
  5
322
100
AcDbEntity
  8
268
100
AcDbLine
 62
250
  6
CONTINUOUS
 10
-3.9819468969
 20
25.4708865699
 11
-2.3617840071
 21
24.660805125
  0
LINE
  5
323
100
AcDbEntity
  8
268
100
AcDbLine
 62
250
  6
CONTINUOUS
 10
9.3823712676
 20
18.7887274877
 11
11.0025341573
 21
17.9786460428
  0
LINE
  5
324
100
AcDbEntity
  8
268
100
AcDbLine
 62
7
  6
CONTINUOUS
 10
-3.8705274675
 20
25.4771542261
 11
-2.2516535174
 21
24.6677172511
  0
LINE
  5
325
100
AcDbEntity
  8
268
100
AcDbLine
 62
7
  6
CONTINUOUS
 10
9.493790697
 20
18.7949951439
 11
11.112664647
 21
17.9855581689
  0
LINE
  5
326
100
AcDbEntity
  8
218
100
AcDbLine
 62
7
  6
CONTINUOUS
 10
7.4750776007
 20
20.7020531725
 11
4.8881234142
 21
21.9955302657
  0
LINE
  5
327
100
AcDbEntity
  8
218
100
AcDbLine
 62
250
  6
CONTINUOUS
 10
8.1160407955
 20
21.0179676782
 11
6.0231285645
 21
22.0644237937
  0
LINE
  5
328
100
AcDbEntity
  8
218
100
AcDbLine
 62
7
  6
CONTINUOUS
 10
8.16680422
 20
21.0429876829
 11
6.1073699213
 21
22.0727048322
  0
LWPOLYLINE
  5
329
100
AcDbEntity
  8
268
100
AcDbPolyline
 62
7
  6
CONTINUOUS
 90
20
 70
0
 10
16.3446945915
 20
19.5487576036
 10
16.3432944399
 20
19.5508886683
 10
16.3415480136
 20
19.5531971157
 10
16.3394664037
 20
19.5556867548
 10
16.3370614393
 20
19.5583641976
 10
16.3343413474
 20
19.5611994136
 10
16.3313164161
 20
19.5641959399
 10
16.3279979148
 20
19.5673590181
 10
16.3243937579
 20
19.5706610106
 10
16.320513901
 20
19.5741049933
 10
16.3163692295
 20
19.5776952377
 10
16.3119679968
 20
19.5814057373
 10
16.3073196582
 20
19.5852393291
 10
16.3024352043
 20
19.5891992027
 10
16.2973248159
 20
19.5932596231
 10
16.2919979409
 20
19.5974228383
 10
16.2864657375
 20
19.6016912097
 10
16.2807412663
 20
19.6060387093
 10
16.2748360829
 20
19.6104575914
 10
16.2625230313
 20
19.619542681
  0
LINE
  5
32A
100
AcDbEntity
  8
218
100
AcDbLine
 62
7
  6
CONTINUOUS
 10
17.681218755
 20
17.7424922321
 11
16.928524671
 21
19.0406974932
  0
LINE
  5
32B
100
AcDbEntity
  8
715
100
AcDbLine
 62
7
  6
CONTINUOUS
 10
18.1781692919
 20
20.1126821669
 11
17.976669934
 21
20.7084065927
  0
LWPOLYLINE
  5
32C
100
AcDbEntity
  8
218
100
AcDbPolyline
 62
7
  6
CONTINUOUS
 90
31
 70
0
 10
26.4531159083
 20
19.8236831942
 10
26.4528239403
 20
19.8584078256
 10
26.4516814957
 20
19.9008911693
 10
26.4496824351
 20
19.9434379551
 10
26.4468330922
 20
19.9860534041
 10
26.4431409526
 20
20.0287170552
 10
26.4386169581
 20
20.0713794457
 10
26.43326907
 20
20.1140344673
 10
26.4271045376
 20
20.1566743709
 10
26.4201378991
 20
20.1992451163
 10
26.412377754
 20
20.2417401258
 10
26.4038316225
 20
20.2841528137
 10
26.3945178463
 20
20.3264275414
 10
26.3844459501
 20
20.36855554
 10
26.3736235929
 20
20.4105325471
 10
26.3620709691
 20
20.4523082953
 10
26.349800118
 20
20.4938665458
 10
26.3368170175
 20
20.5352107931
 10
26.323134752
 20
20.5763190867
 10
26.3087623961
 20
20.6171817119
 10
26.2937064862
 20
20.6577951015
 10
26.2779764852
 20
20.6981452026
 10
26.2615791563
 20
20.7382248944
 10
26.2445203431
 20
20.7780272264
 10
26.2268087688
 20
20.8175375167
 10
26.2084502648
 20
20.8567474424
 10
26.1894491823
 20
20.8956497315
 10
26.1698123094
 20
20.9342316454
 10
26.1495439902
 20
20.9724841218
 10
26.1286473305
 20
21.0103995856
 10
26.1111484631
 20
21.0410549827
  0
LINE
  5
32D
100
AcDbEntity
  8
218
100
AcDbLine
 62
250
  6
CONTINUOUS
 10
26.1725166316
 20
-2.9660638653
 11
26.172455718
 21
1.9453054824
  0
LINE
  5
32E
100
AcDbEntity
  8
218
100
AcDbLine
 62
250
  6
CONTINUOUS
 10
26.172455718
 20
3.7177739554
 11
26.172455718
 21
13.8964560546
  0
LINE
  5
32F
100
AcDbEntity
  8
218
100
AcDbLine
 62
250
  6
CONTINUOUS
 10
26.172455718
 20
15.6689245276
 11
26.172455718
 21
19.4763230282
  0
LINE
  5
330
100
AcDbEntity
  8
218
100
AcDbLine
 62
7
  6
CONTINUOUS
 10
26.4531159177
 20
-2.5951846408
 11
26.4531159177
 21
1.7044715765
  0
LINE
  5
331
100
AcDbEntity
  8
218
100
AcDbLine
 62
7
  6
CONTINUOUS
 10
26.4531159177
 20
4.6532662213
 11
26.4531159177
 21
13.6556210637
  0
LINE
  5
332
100
AcDbEntity
  8
218
100
AcDbLine
 62
7
  6
CONTINUOUS
 10
26.4531159177
 20
16.604417904
 11
26.4531159177
 21
19.8236807929
  0
LWPOLYLINE
  5
333
100
AcDbEntity
  8
218
100
AcDbPolyline
 62
250
  6
CONTINUOUS
 90
57
 70
0
 10
26.4531159177
 20
4.6532664696
 10
26.4530897484
 20
4.6406665068
 10
26.4525349883
 20
4.5939657605
 10
26.4513307663
 20
4.5494384703
 10
26.4495538736
 20
4.5067686421
 10
26.4472612457
 20
4.4657670791
 10
26.4445106485
 20
4.4264125784
 10
26.4413627186
 20
4.3887328996
 10
26.4378564026
 20
4.3526113026
 10
26.4340436359
 20
4.3180886116
 10
26.4299679113
 20
4.2851251186
 10
26.4256369105
 20
4.2534834676
 10
26.421085415
 20
4.2231666698
 10
26.4163460585
 20
4.1941708337
 10
26.4114035362
 20
4.1662496239
 10
26.4062646527
 20
4.1393229176
 10
26.400965545
 20
4.1134701798
 10
26.3955248287
 20
4.0886852375
 10
26.389960961
 20
4.0649666981
 10
26.3842956276
 20
4.0423135737
 10
26.3785513503
 20
4.0207199337
 10
26.3727574159
 20
4.0002240612
 10
26.366922619
 20
3.9807837084
 10
26.3610353677
 20
3.9622724175
 10
26.3551061039
 20
3.9446761982
 10
26.3491526075
 20
3.9280056213
 10
26.3431692671
 20
3.9121718779
 10
26.3371560577
 20
3.8971491446
 10
26.3311354304
 20
3.8829600682
 10
26.3251345283
 20
3.8695884973
 10
26.3191691275
 20
3.8570483789
 10
26.3132465815
 20
3.8453213771
 10
26.3073821484
 20
3.8343424614
 10
26.3016012675
 20
3.824134059
 10
26.2958999819
 20
3.8146688593
 10
26.2902470531
 20
3.8058077571
 10
26.2846571552
 20
3.7975488059
 10
26.2791306626
 20
3.7898903364
 10
26.2736096681
 20
3.7826952208
 10
26.2680872836
 20
3.7759390135
 10
26.262578286
 20
3.7696445114
 10
26.2570530237
 20
3.7637468349
 10
26.2515046214
 20
3.7582328298
 10
26.2459449018
 20
3.7531148246
 10
26.2403706892
 20
3.7483666865
 10
26.2347836936
 20
3.7439875751
 10
26.2291867308
 20
3.7399775004
 10
26.22357789
 20
3.736311719
 10
26.2179609388
 20
3.7329903942
 10
26.2123362041
 20
3.7300125551
 10
26.206696143
 20
3.7273519189
 10
26.2010445223
 20
3.7250076583
 10
26.1953809281
 20
3.7229799792
 10
26.1896907676
 20
3.7212444614
 10
26.1839697409
 20
3.7197929753
 10
26.1782243467
 20
3.7186334561
 10
26.172455718
 20
3.7177657744
  0
LWPOLYLINE
  5
334
100
AcDbEntity
  8
218
100
AcDbPolyline
 62
250
  6
CONTINUOUS
 90
57
 70
0
 10
26.4531159177
 20
16.6044183225
 10
26.4530616104
 20
16.5862692045
 10
26.4524315397
 20
16.5400586
 10
26.4511635409
 20
16.4958490417
 10
26.4493302031
 20
16.4534172011
 10
26.4469968751
 20
16.412767684
 10
26.444235073
 20
16.3740019267
 10
26.4411028948
 20
16.3370238713
 10
26.437624892
 20
16.3015409774
 10
26.4338446955
 20
16.2675443176
 10
26.4298073112
 20
16.2350440255
 10
26.4255137353
 20
16.203776991
 10
26.4209860085
 20
16.1736877747
 10
26.4162618675
 20
16.1448316312
 10
26.4113505846
 20
16.117112348
 10
26.4062704928
 20
16.0905021766
 10
26.4010513525
 20
16.0650272778
 10
26.395714528
 20
16.0406723523
 10
26.390290173
 20
16.0174732684
 10
26.3847926033
 20
15.9953907419
 10
26.3792148561
 20
15.9742970337
 10
26.3735780005
 20
15.9542016354
 10
26.3678947938
 20
15.9350917242
 10
26.3621377048
 20
15.9168073445
 10
26.3563097146
 20
15.8993180971
 10
26.3504301696
 20
15.8826522236
 10
26.3444899028
 20
15.8667388544
 10
26.3384792515
 20
15.8515366401
 10
26.3324250217
 20
15.8370851456
 10
26.3263734163
 20
15.8234344512
 10
26.3203394558
 20
15.8106049318
 10
26.3143299163
 20
15.7985723227
 10
26.3083823418
 20
15.7873184824
 10
26.3025300505
 20
15.77688225
 10
26.2967629105
 20
15.7672194969
 10
26.2910522602
 20
15.7581877403
 10
26.2854165583
 20
15.7497888943
 10
26.2798537892
 20
15.7420170354
 10
26.2742990026
 20
15.7347195865
 10
26.2687445558
 20
15.7278691919
 10
26.2632063774
 20
15.7214914525
 10
26.2576500485
 20
15.7155148017
 10
26.2520670162
 20
15.7099237615
 10
26.2464707324
 20
15.7047330275
 10
26.2408580066
 20
15.6999168902
 10
26.2352300773
 20
15.6954743221
 10
26.2295902177
 20
15.6914055515
 10
26.2239379391
 20
15.6876868483
 10
26.2182771444
 20
15.6843187204
 10
26.2126081154
 20
15.6812998392
 10
26.2069245386
 20
15.678603849
 10
26.2012303059
 20
15.6762301716
 10
26.1955250265
 20
15.6741787204
 10
26.1897952421
 20
15.6724241631
 10
26.1840371051
 20
15.6709580378
 10
26.1782568558
 20
15.6697885402
 10
26.172455718
 20
15.6689155057
  0
LINE
  5
335
100
AcDbEntity
  8
218
100
AcDbLine
 62
250
  6
CONTINUOUS
 10
26.4530879649
 20
-2.5980621584
 11
26.4531159177
 21
-2.5951846408
  0
LWPOLYLINE
  5
336
100
AcDbEntity
  8
218
100
AcDbPolyline
 62
250
  6
CONTINUOUS
 90
32
 70
0
 10
26.1725166316
 20
-2.9660638653
 10
26.1720314417
 20
-2.989332369
 10
26.1710005165
 20
-3.0123016739
 10
26.1694246384
 20
-3.0349543444
 10
26.1673050035
 20
-3.0572731837
 10
26.164643221
 20
-3.0792412471
 10
26.1614413115
 20
-3.1008418577
 10
26.1577017057
 20
-3.122058619
 10
26.1534272423
 20
-3.142875425
 10
26.1486211662
 20
-3.1632764736
 10
26.1432871257
 20
-3.1832462781
 10
26.1374291701
 20
-3.2027696789
 10
26.1310517462
 20
-3.2218318555
 10
26.1241596954
 20
-3.2404183378
 10
26.1167582495
 20
-3.2585150165
 10
26.1088530272
 20
-3.2761081544
 10
26.1004500294
 20
-3.2931843963
 10
26.0915556352
 20
-3.3097307793
 10
26.0821765964
 20
-3.325734743
 10
26.072320033
 20
-3.3411841388
 10
26.0619934273
 20
-3.3560672388
 10
26.0512046186
 20
-3.3703727451
 10
26.0399617968
 20
-3.3840897986
 10
26.0282734969
 20
-3.3972079863
 10
26.0161485917
 20
-3.4097173504
 10
26.0035962854
 20
-3.421608395
 10
25.990626107
 20
-3.4328720935
 10
25.9772479025
 20
-3.4434998959
 10
25.9634718276
 20
-3.4534837348
 10
25.9493083401
 20
-3.4628160314
 10
25.934768192
 20
-3.4714897018
 10
25.9279397381
 20
-3.4752655118
  0
LWPOLYLINE
  5
337
100
AcDbEntity
  8
218
100
AcDbPolyline
 62
7
  6
CONTINUOUS
 90
7
 70
0
 10
26.4531164312
 20
13.6556358007
 10
26.4531684963
 20
13.6574087194
 10
26.4533688276
 20
13.6594802463
 10
26.4536428152
 20
13.6610826017
 10
26.4539139556
 20
13.662204571
 10
26.4540957243
 20
13.6627887613
 10
26.4541169966
 20
13.6628464074
  0
LWPOLYLINE
  5
338
100
AcDbEntity
  8
218
100
AcDbPolyline
 62
7
  6
CONTINUOUS
 90
7
 70
0
 10
26.4531164435
 20
1.7044836955
 10
26.4531684973
 20
1.7062570047
 10
26.4533686334
 20
1.7083285558
 10
26.453642664
 20
1.7099311858
 10
26.4539138093
 20
1.7110533795
 10
26.4540954953
 20
1.7116376076
 10
26.4541167928
 20
1.7116953369
  0
LWPOLYLINE
  5
339
100
AcDbEntity
  8
218
100
AcDbPolyline
 62
250
  6
CONTINUOUS
 90
34
 70
0
 10
19.0826489233
 20
-15.3850600921
 10
19.1028235045
 20
-15.3663804602
 10
19.1224764371
 20
-15.346916534
 10
19.1415985563
 20
-15.3266774301
 10
19.1601807851
 20
-15.3056727275
 10
19.1782141819
 20
-15.2839124956
 10
19.1956901712
 20
-15.2614071252
 10
19.212600397
 20
-15.2381673729
 10
19.2289368084
 20
-15.2142042843
 10
19.2446916991
 20
-15.1895292094
 10
19.2598575629
 20
-15.1641538942
 10
19.2744271597
 20
-15.1380904261
 10
19.2883936014
 20
-15.1113511593
 10
19.301750249
 20
-15.0839487954
 10
19.3144907193
 20
-15.0558963978
 10
19.326608947
 20
-15.0272073334
 10
19.3380991738
 20
-14.9978952485
 10
19.3489559253
 20
-14.9679740933
 10
19.3591740179
 20
-14.937458137
 10
19.3687486016
 20
-14.9063619142
 10
19.3776751315
 20
-14.8747001993
 10
19.3859493451
 20
-14.842488033
 10
19.3935673298
 20
-14.8097407286
 10
19.4005254712
 20
-14.7764738601
 10
19.406820422
 20
-14.7427032347
 10
19.4124492265
 20
-14.7084448476
 10
19.4174092118
 20
-14.6737150372
 10
19.4216979386
 20
-14.6385304744
 10
19.4253134016
 20
-14.6029079841
 10
19.4282539266
 20
-14.5668644005
 10
19.4305180517
 20
-14.5304167159
 10
19.4321046976
 20
-14.4935821983
 10
19.433013181
 20
-14.4563783907
 10
19.4332431098
 20
-14.4188229655
  0
LWPOLYLINE
  5
33A
100
AcDbEntity
  8
218
100
AcDbPolyline
 62
250
  6
CONTINUOUS
 90
4
 70
0
 10
19.0190926342
 20
-15.4363060645
 10
19.0407734477
 20
-15.420031275
 10
19.0619622521
 20
-15.4029465631
 10
19.0826489233
 20
-15.3850600921
  0
LWPOLYLINE
  5
33B
100
AcDbEntity
  8
218
100
AcDbPolyline
 62
7
  6
CONTINUOUS
 90
40
 70
0
 10
19.0936713732
 20
-15.3899358389
 10
19.113274392
 20
-15.3754635692
 10
19.1413713687
 20
-15.3537683703
 10
19.1689761639
 20
-15.3313039076
 10
19.1960607219
 20
-15.30808777
 10
19.2226119973
 20
-15.2841260567
 10
19.2486312987
 20
-15.2594111931
 10
19.2740986991
 20
-15.2339545253
 10
19.2989948667
 20
-15.2077678278
 10
19.3233205668
 20
-15.1808411959
 10
19.34705657
 20
-15.1531855577
 10
19.3701830516
 20
-15.1248137661
 10
19.3926982024
 20
-15.0957160311
 10
19.414583463
 20
-15.0659024381
 10
19.4358188757
 20
-15.0353867302
 10
19.4563990903
 20
-15.004161565
 10
19.4763052201
 20
-14.9722384715
 10
19.4955188608
 20
-14.9396297579
 10
19.5140342702
 20
-14.906326273
 10
19.5318318765
 20
-14.8723418207
 10
19.5488949926
 20
-14.8376859828
 10
19.5652204782
 20
-14.8023397537
 10
19.580792038
 20
-14.7663083405
 10
19.59558875
 20
-14.7296081261
 10
19.6095991511
 20
-14.692233321
 10
19.6228109302
 20
-14.6541769941
 10
19.6351996017
 20
-14.6154664063
 10
19.6467385459
 20
-14.5761451721
 10
19.6574137184
 20
-14.5362230392
 10
19.6672105263
 20
-14.4957114804
 10
19.6761080067
 20
-14.4546557661
 10
19.6840955085
 20
-14.413064235
 10
19.6911613472
 20
-14.3709488842
 10
19.697289379
 20
-14.3283596375
 10
19.702471456
 20
-14.2853058579
 10
19.7066989197
 20
-14.2417975707
 10
19.7099607815
 20
-14.197884291
 10
19.7122502431
 20
-14.1535876463
 10
19.713561962
 20
-14.1089044318
 10
19.7139032998
 20
-14.0714949071
  0
LINE
  5
33C
100
AcDbEntity
  8
218
100
AcDbLine
 62
7
  6
CONTINUOUS
 10
17.681218755
 20
-16.2247200745
 11
16.928524671
 21
-16.7702312516
  0
LINE
  5
33D
100
AcDbEntity
  8
218
100
AcDbLine
 62
250
  6
CONTINUOUS
 10
18.6060628493
 20
-15.7356472828
 11
19.0190926342
 21
-15.4363060645
  0
LWPOLYLINE
  5
33E
100
AcDbEntity
  8
268
100
AcDbPolyline
 62
7
  6
CONTINUOUS
 90
25
 70
0
 10
15.5984246217
 20
-17.8554813376
 10
15.6243410321
 20
-17.840649121
 10
15.6508432687
 20
-17.8253821442
 10
15.6779313317
 20
-17.8096804073
 10
15.7056329881
 20
-17.7935313046
 10
15.7339204708
 20
-17.7769474418
 10
15.7627104787
 20
-17.7599666358
 10
15.7919839978
 20
-17.7426000619
 10
15.8217600422
 20
-17.724836545
 10
15.8520123532
 20
-17.7066803766
 10
15.8827547876
 20
-17.6881234797
 10
15.9139734886
 20
-17.6691739313
 10
15.9456006282
 20
-17.6498602549
 10
15.9776473628
 20
-17.6301756202
 10
16.0101025359
 20
-17.6101268574
 10
16.0428648493
 20
-17.5897629807
 10
16.0759496234
 20
-17.5690741414
 10
16.1093415378
 20
-17.5480701882
 10
16.1428933332
 20
-17.5268296815
 10
16.1766246482
 20
-17.5053393956
 10
16.2105158442
 20
-17.4836125561
 10
16.244360746
 20
-17.4617674004
 10
16.2780906283
 20
-17.4398433407
 10
16.3117742164
 20
-17.4178009648
 10
16.3454115102
 20
-17.3956402725
  0
LWPOLYLINE
  5
33F
100
AcDbEntity
  8
218
100
AcDbPolyline
 62
250
  6
CONTINUOUS
 90
5
 70
0
 10
19.0190926342
 20
-15.4363060645
 10
19.0379291495
 20
-15.4259458567
 10
19.0563712663
 20
-15.4149576195
 10
19.0744052893
 20
-15.403349513
 10
19.0936602282
 20
-15.3899439317
  0
LWPOLYLINE
  5
340
100
AcDbEntity
  8
218
100
AcDbPolyline
 62
7
  6
CONTINUOUS
 90
7
 70
0
 10
18.6060628493
 20
-15.7356472828
 10
18.6213734833
 20
-15.7272701175
 10
18.6365031281
 20
-15.7184300974
 10
18.651445962
 20
-15.7091334457
 10
18.666196839
 20
-15.6993861694
 10
18.6807498545
 20
-15.6891951501
 10
19.0936602282
 20
-15.3899439317
  0
LWPOLYLINE
  5
341
100
AcDbEntity
  8
268
100
AcDbPolyline
 62
7
  6
CONTINUOUS
 90
3
 70
0
 10
15.5984246217
 20
-17.8554813376
 10
15.5638401446
 20
-17.8743570352
 10
15.5486733646
 20
-17.8821217715
  0
LWPOLYLINE
  5
342
100
AcDbEntity
  8
218
100
AcDbPolyline
 62
250
  6
CONTINUOUS
 90
29
 70
0
 10
19.4332431098
 20
-14.4188229655
 10
19.4519042483
 20
-14.4088936226
 10
19.4700173433
 20
-14.3987137247
 10
19.4875689438
 20
-14.3882908314
 10
19.504546016
 20
-14.3776326829
 10
19.5209359525
 20
-14.366747194
 10
19.5367265822
 20
-14.3556424482
 10
19.5519061788
 20
-14.3443266921
 10
19.5664634698
 20
-14.3328083288
 10
19.580387645
 20
-14.3210959119
 10
19.5936683642
 20
-14.309198139
 10
19.6062957649
 20
-14.2971238456
 10
19.6182604702
 20
-14.2848819981
 10
19.6295535948
 20
-14.2724816873
 10
19.6401667525
 20
-14.2599321217
 10
19.6500920619
 20
-14.2472426209
 10
19.6593221524
 20
-14.2344226079
 10
19.6678501697
 20
-14.2214816031
 10
19.6756697807
 20
-14.2084292166
 10
19.6827751787
 20
-14.195275141
 10
19.6891610871
 20
-14.1820291447
 10
19.6948227638
 20
-14.1687010643
 10
19.6997560042
 20
-14.1553007972
 10
19.703957145
 20
-14.1418382945
 10
19.7074230665
 20
-14.1283235536
 10
19.7101511946
 20
-14.1147666106
 10
19.7121395036
 20
-14.101177533
 10
19.713386517
 20
-14.087566412
 10
19.7138913086
 20
-14.0739433554
  0
LINE
  5
343
100
AcDbEntity
  8
218
100
AcDbLine
 62
7
  6
CONTINUOUS
 10
18.6060628493
 20
-15.7356472828
 11
17.681218755
 21
-16.2247200745
  0
LINE
  5
344
100
AcDbEntity
  8
218
100
AcDbLine
 62
7
  6
CONTINUOUS
 10
11.5702824964
 20
-19.6037579775
 11
16.928524671
 21
-16.7702312516
  0
LINE
  5
345
100
AcDbEntity
  8
218
100
AcDbLine
 62
250
  6
CONTINUOUS
 10
11.5702824964
 20
-18.560853908
 11
19.4332431098
 21
-14.4188229655
  0
LINE
  5
346
100
AcDbEntity
  8
218
100
AcDbLine
 62
250
  6
CONTINUOUS
 10
11.5702824964
 20
-19.3601718439
 11
19.0190926342
 21
-15.4363060645
  0
LINE
  5
347
100
AcDbEntity
  8
268
100
AcDbLine
 62
250
  6
CONTINUOUS
 10
11.5702824964
 20
-19.8773845212
 11
15.5984246217
 21
-17.8554813376
  0
LINE
  5
348
100
AcDbEntity
  8
268
100
AcDbLine
 62
7
  6
CONTINUOUS
 10
11.5702824964
 20
-19.879052602
 11
15.5486660747
 21
-17.88212544
  0
LINE
  5
349
100
AcDbEntity
  8
268
100
AcDbLine
 62
250
  6
CONTINUOUS
 10
11.5702824964
 20
-19.6395794905
 11
16.2625230313
 21
-17.3121935935
  0
LINE
  5
34A
100
AcDbEntity
  8
268
100
AcDbLine
 62
250
  6
CONTINUOUS
 10
11.5702824964
 20
-19.7614542182
 11
16.3466745989
 21
-17.3923285234
  0
LWPOLYLINE
  5
34B
100
AcDbEntity
  8
268
100
AcDbPolyline
 62
7
  6
CONTINUOUS
 90
13
 70
0
 10
15.5984246217
 20
20.6327753106
 10
15.5637738118
 20
20.6392049918
 10
15.5285695887
 20
20.6445881445
 10
15.4928497368
 20
20.6489502854
 10
15.4566244199
 20
20.6523442085
 10
15.4199566818
 20
20.6547739582
 10
15.3829604719
 20
20.6561851874
 10
15.345673437
 20
20.6565953223
 10
15.3081224551
 20
20.6560314408
 10
15.2704017542
 20
20.6544394526
 10
15.2325623795
 20
20.6518103616
 10
15.1946131933
 20
20.6481883804
 10
15.1565837538
 20
20.6435935909
  0
LINE
  5
34C
100
AcDbEntity
  8
268
100
AcDbLine
 62
7
  6
CONTINUOUS
 10
-4.5792001231
 20
22.8938443891
 11
-3.956882091
 21
22.7639038066
  0
LWPOLYLINE
  5
34D
100
AcDbEntity
  8
218
100
AcDbPolyline
 62
7
  6
CONTINUOUS
 90
19
 70
0
 10
6.1013536507
 20
22.0753510823
 10
6.097537821
 20
22.0766793796
 10
6.0936324115
 20
22.07778138
 10
6.0896418067
 20
22.0786559811
 10
6.0855711994
 20
22.0793020042
 10
6.0814258357
 20
22.0797185698
 10
6.077210334
 20
22.0799054375
 10
6.0729301753
 20
22.0798622574
 10
6.0685908749
 20
22.0795889794
 10
6.0641972263
 20
22.0790862274
 10
6.0597549386
 20
22.078354482
 10
6.0552697348
 20
22.0773945213
 10
6.0507465226
 20
22.076207826
 10
6.0461911756
 20
22.0747956999
 10
6.0416095627
 20
22.0731597383
 10
6.0370066444
 20
22.0713022617
 10
6.0323880517
 20
22.0692255447
 10
6.0277600784
 20
22.066931816
 10
6.0231287094
 20
22.0644237212
  0
LWPOLYLINE
  5
34E
100
AcDbEntity
  8
218
100
AcDbPolyline
 62
7
  6
CONTINUOUS
 90
51
 70
0
 10
6.1022389939
 20
22.0750054091
 10
6.0916663578
 20
22.0791582216
 10
6.0687043962
 20
22.0877730363
 10
6.0454331711
 20
22.0959660433
 10
6.0218665258
 20
22.1037421852
 10
5.998010478
 20
22.1111079277
 10
5.973883025
 20
22.1180650529
 10
5.9495020523
 20
22.1246156955
 10
5.9248741649
 20
22.130764334
 10
5.9000172436
 20
22.1365120254
 10
5.8749486285
 20
22.1418602181
 10
5.8496748342
 20
22.1468120245
 10
5.8242132116
 20
22.1513680777
 10
5.7985812904
 20
22.1555291768
 10
5.7727865197
 20
22.1592972341
 10
5.7468464493
 20
22.1626725573
 10
5.7207782108
 20
22.1656556136
 10
5.6945892019
 20
22.1682475349
 10
5.66829699
 20
22.1704484313
 10
5.6419185506
 20
22.1722584756
 10
5.6154607995
 20
22.1736781613
 10
5.5889409624
 20
22.1747074384
 10
5.5623762908
 20
22.1753461826
 10
5.5357739421
 20
22.1755942571
 10
5.5091511036
 20
22.1754514391
 10
5.4825251218
 20
22.1749173702
 10
5.4559033686
 20
22.1739913374
 10
5.4293029719
 20
22.1726729186
 10
5.4027415267
 20
22.1709615325
 10
5.3762268365
 20
22.1688559103
 10
5.3497761965
 20
22.1663554027
 10
5.3234073576
 20
22.1634591934
 10
5.2971282927
 20
22.1601654041
 10
5.27095501
 20
22.1564728609
 10
5.2449070381
 20
22.1523806401
 10
5.2189967847
 20
22.1478869139
 10
5.1932406807
 20
22.1429902619
 10
5.1676582027
 20
22.1376896086
 10
5.142265047
 20
22.1319833893
 10
5.117079106
 20
22.1258702389
 10
5.0921185229
 20
22.1193486747
 10
5.0673977495
 20
22.1124163672
 10
5.0429346707
 20
22.1050714164
 10
5.0187476063
 20
22.097311945
 10
4.9948500312
 20
22.0891344645
 10
4.9712607772
 20
22.0805365506
 10
4.947997498
 20
22.071515209
 10
4.9250701338
 20
22.0620638978
 10
4.9024939661
 20
22.0521770039
 10
4.8802922963
 20
22.0418523681
 10
4.8647131835
 20
22.0342268356
  0
LINE
  5
34F
100
AcDbEntity
  8
268
100
AcDbLine
 62
7
  6
CONTINUOUS
 10
8.6785913651
 20
21.2952345892
 11
5.8780729079
 21
22.6954938179
  0
LINE
  5
350
100
AcDbEntity
  8
268
100
AcDbLine
 62
7
  6
CONTINUOUS
 10
5.8780729079
 20
23.2480520072
 11
5.5245195173
 21
23.4248287025
  0
LINE
  5
351
100
AcDbEntity
  8
268
100
AcDbLine
 62
7
  6
CONTINUOUS
 10
10.0864070614
 20
21.9891112476
 11
7.2758574144
 21
23.3943860711
  0
LINE
  5
352
100
AcDbEntity
  8
218
100
AcDbLine
 62
7
  6
CONTINUOUS
 10
16.1407360233
 20
19.434591817
 11
16.928524671
 21
19.0406974932
  0
LINE
  5
353
100
AcDbEntity
  8
268
100
AcDbLine
 62
7
  6
CONTINUOUS
 10
11.7369284759
 20
21.9175646978
 11
11.5911150658
 21
21.9904714029
  0
LINE
  5
354
100
AcDbEntity
  8
268
100
AcDbLine
 62
7
  6
CONTINUOUS
 10
10.8455302427
 20
22.3632638144
 11
8.6357893545
 21
23.4681342585
  0
LINE
  5
355
100
AcDbEntity
  8
268
100
AcDbLine
 62
7
  6
CONTINUOUS
 10
5.7683316089
 20
25.1651068111
 11
5.948783586
 21
25.0748808225
  0
LINE
  5
356
100
AcDbEntity
  8
268
100
AcDbLine
 62
7
  6
CONTINUOUS
 10
11.322795123
 20
22.387875054
 11
11.5032471002
 21
22.2976490654
  0
LWPOLYLINE
  5
357
100
AcDbEntity
  8
268
100
AcDbPolyline
 62
7
  6
CONTINUOUS
 90
17
 70
0
 10
16.3454115102
 20
20.151515427
 10
16.3117742164
 20
20.1875775775
 10
16.2780906283
 20
20.2222162372
 10
16.244360746
 20
20.255431406
 10
16.2105158442
 20
20.2872387099
 10
16.1766246482
 20
20.317622523
 10
16.1428933332
 20
20.3465359672
 10
16.1093415378
 20
20.3739551425
 10
16.0759496234
 20
20.3999039488
 10
16.0428648493
 20
20.4244072073
 10
16.0101025359
 20
20.4474509142
 10
15.9776473628
 20
20.4690490732
 10
15.9456006282
 20
20.4892685173
 10
15.9139734886
 20
20.5081024313
 10
15.8827547876
 20
20.5255576302
 10
15.8520123532
 20
20.5417213917
 10
15.8448625749
 20
20.5453362789
  0
LWPOLYLINE
  5
358
100
AcDbEntity
  8
218
100
AcDbPolyline
 62
250
  6
CONTINUOUS
 90
57
 70
0
 10
26.4531159177
 20
5.3538418043
 10
26.4593968479
 20
5.3340481193
 10
26.4715627349
 20
5.2925105336
 10
26.4830031684
 20
5.2500182902
 10
26.493702501
 20
5.2065786648
 10
26.503596258
 20
5.1622262274
 10
26.5126739553
 20
5.1169528121
 10
26.5209215733
 20
5.0707646853
 10
26.5282720581
 20
5.023720092
 10
26.534720737
 20
4.975739373
 10
26.5402488234
 20
4.9269034782
 10
26.5447769812
 20
4.8775166422
 10
26.5482914587
 20
4.8272976527
 10
26.5507935594
 20
4.7765363293
 10
26.5522602619
 20
4.7264097731
 10
26.5526697486
 20
4.6770192627
 10
26.5520899235
 20
4.6282963782
 10
26.5506768546
 20
4.5811823883
 10
26.548470657
 20
4.5360084547
 10
26.5455129612
 20
4.4924829334
 10
26.5419769919
 20
4.4506179281
 10
26.5379139868
 20
4.4104991141
 10
26.5333404038
 20
4.3720681432
 10
26.5283691881
 20
4.335117927
 10
26.5230355588
 20
4.2996462782
 10
26.5173552134
 20
4.265672903
 10
26.5114024639
 20
4.2330205378
 10
26.5052126778
 20
4.2017212768
 10
26.4987898262
 20
4.1717545875
 10
26.4921531408
 20
4.1428620214
 10
26.4853132931
 20
4.114997639
 10
26.4782872799
 20
4.0882143971
 10
26.4710980508
 20
4.0624007146
 10
26.4637441792
 20
4.0375137634
 10
26.456248984
 20
4.0136011441
 10
26.4486703307
 20
3.9906864288
 10
26.4410267878
 20
3.9688030105
 10
26.4333190722
 20
3.9479212846
 10
26.425576703
 20
3.9279700807
 10
26.4178171281
 20
3.9089692696
 10
26.4100377808
 20
3.890901714
 10
26.4022358579
 20
3.8736403441
 10
26.3944056586
 20
3.8571588958
 10
26.3865635035
 20
3.8414854949
 10
26.3787378459
 20
3.8265743931
 10
26.3709234863
 20
3.8124171956
 10
26.3631337065
 20
3.7990238109
 10
26.3554236249
 20
3.7863758753
 10
26.3478102883
 20
3.7745005846
 10
26.3402826379
 20
3.7633720973
 10
26.3328526062
 20
3.7528923906
 10
26.3255411265
 20
3.7430784045
 10
26.3183310684
 20
3.7339142579
 10
26.3111762645
 20
3.7252524829
 10
26.3040619182
 20
3.717044121
 10
26.2970049687
 20
3.7093388519
 10
26.2900063392
 20
3.7021370407
  0
LINE
  5
359
100
AcDbEntity
  8
268
100
AcDbLine
 62
7
  6
CONTINUOUS
 10
9.0954087623
 20
-23.5467093541
 11
9.9085815607
 21
-23.0178382237
  0
LINE
  5
35A
100
AcDbEntity
  8
268
100
AcDbLine
 62
250
  6
CONTINUOUS
 10
10.8631757153
 20
-22.7061156059
 11
11.5702824964
 21
-22.3450045261
  0
LINE
  5
35B
100
AcDbEntity
  8
268
100
AcDbLine
 62
7
  6
CONTINUOUS
 10
10.7732068974
 20
-22.8949281592
 11
11.4803136786
 21
-22.5338170795
  0
LINE
  5
35C
100
AcDbEntity
  8
268
100
AcDbLine
 62
7
  6
CONTINUOUS
 10
10.7732068732
 20
-22.8949281716
 11
10.7711992286
 21
-22.8959319025
  0
LINE
  5
35D
100
AcDbEntity
  8
268
100
AcDbLine
 62
250
  6
CONTINUOUS
 10
9.0954087623
 20
-23.5711048594
 11
10.8631757153
 21
-22.7061156059
  0
LINE
  5
35E
100
AcDbEntity
  8
268
100
AcDbLine
 62
7
  6
CONTINUOUS
 10
9.0034323243
 20
-23.7609211311
 11
10.7711992772
 21
-22.8959318776
  0
LWPOLYLINE
  5
35F
100
AcDbEntity
  8
RACCORDO
100
AcDbPolyline
 62
250
  6
CONTINUOUS
 90
16
 70
0
 10
1.8102338386
 20
-25.1654477989
 10
1.747705936
 20
-25.189600858
 10
1.680005167
 20
-25.210444343
 10
1.6078488277
 20
-25.2277574153
 10
1.5320014211
 20
-25.2413566414
 10
1.4532665575
 20
-25.2510979361
 10
1.3724784402
 20
-25.2568780895
 10
1.2904930267
 20
-25.2586358603
 10
1.2081789601
 20
-25.2563526249
 10
1.1264083655
 20
-25.2500525743
 10
1.0460476101
 20
-25.2398024582
 10
0.9679481235
 20
-25.2257108775
 10
0.892937377
 20
-25.207927134
 10
0.8218101163
 20
-25.1866396481
 10
0.7553199416
 20
-25.1620739628
 10
0.6941713222
 20
-25.1344903538
  0
LINE
  5
360
100
AcDbEntity
  8
268
100
AcDbLine
 62
7
  6
CONTINUOUS
 10
8.6357893545
 20
23.4681342585
 11
7.2758574144
 21
23.3943860711
  0
LWPOLYLINE
  5
361
100
AcDbEntity
  8
715
100
AcDbPolyline
 62
7
  6
CONTINUOUS
 90
9
 70
0
 10
20.5264463342
 20
20.9000215192
 10
20.5203295936
 20
20.9016210169
 10
20.5105593799
 20
20.9031538308
 10
20.5002331845
 20
20.9035692752
 10
20.4894459873
 20
20.9028675027
 10
20.4784827284
 20
20.9010489714
 10
20.4674383877
 20
20.8981138338
 10
20.4562179852
 20
20.8940619374
 10
20.4448215209
 20
20.8888932822
  0
LINE
  5
362
100
AcDbEntity
  8
715
100
AcDbLine
 62
7
  6
CONTINUOUS
 10
19.1333835355
 20
20.2331742895
 11
18.6836388741
 21
20.3549221226
  0
LWPOLYLINE
  5
363
100
AcDbEntity
  8
715
100
AcDbPolyline
 62
7
  6
CONTINUOUS
 90
28
 70
0
 10
20.526436198
 20
20.8999975668
 10
20.4177208514
 20
20.9312834126
 10
20.3028658084
 20
20.9606370896
 10
20.1856043845
 20
20.9869641598
 10
20.0662312197
 20
21.0102262515
 10
19.945010848
 20
21.0303968043
 10
19.8221814786
 20
21.0474560796
 10
19.6980326812
 20
21.0613799212
 10
19.5728492181
 20
21.0721505901
 10
19.4468687006
 20
21.0797579899
 10
19.3203823144
 20
21.0841913685
 10
19.1936795915
 20
21.0854459232
 10
19.0669978461
 20
21.0835211502
 10
18.9406265763
 20
21.0784198152
 10
18.8148569857
 20
21.070150603
 10
18.6899273863
 20
21.0587227276
 10
18.5661285117
 20
21.0441528953
 10
18.4437437594
 20
21.0264628737
 10
18.3229953232
 20
21.0056686984
 10
18.2041604021
 20
20.9817970983
 10
18.0875245786
 20
20.9548820466
 10
17.9733130056
 20
20.9249472793
 10
17.8617978274
 20
20.8920301754
 10
17.753251631
 20
20.8561735406
 10
17.6478847394
 20
20.817401923
 10
17.545937957
 20
20.7757491146
 10
17.4476918196
 20
20.7312683401
 10
17.3534077584
 20
20.6840109506
  0
LWPOLYLINE
  5
364
100
AcDbEntity
  8
268
100
AcDbPolyline
 62
7
  6
CONTINUOUS
 90
18
 70
0
 10
8.375891783
 20
24.2797995781
 10
8.3563437985
 20
24.2888822649
 10
8.3334480183
 20
24.2978676796
 10
8.309938732
 20
24.3053699124
 10
8.2857974099
 20
24.3114040822
 10
8.2611076566
 20
24.3159498666
 10
8.2358462303
 20
24.31900385
 10
8.2100363729
 20
24.320569448
 10
8.183831414
 20
24.3206365845
 10
8.1572474514
 20
24.3191978086
 10
8.1302683874
 20
24.3162605712
 10
8.1029992587
 20
24.31183715
 10
8.0754250791
 20
24.3059187643
 10
8.0475608348
 20
24.2985141948
 10
8.0195565217
 20
24.2896620602
 10
7.9914621385
 20
24.2793752335
 10
7.9632276865
 20
24.2676408418
 10
7.9348531658
 20
24.254458885
  0
LWPOLYLINE
  5
365
100
AcDbEntity
  8
268
100
AcDbPolyline
 62
7
  6
CONTINUOUS
 90
10
 70
0
 10
15.8448625749
 20
20.5453362789
 10
15.8217600422
 20
20.5565892709
 10
15.7919839978
 20
20.5701657127
 10
15.7627104787
 20
20.5825513294
 10
15.7339204708
 20
20.593753126
 10
15.7056329881
 20
20.6037640975
 10
15.6779313317
 20
20.6126638419
 10
15.6508432687
 20
20.6204788919
 10
15.6243410321
 20
20.6271827148
 10
15.5984246217
 20
20.6327753106
  0
LINE
  5
366
100
AcDbEntity
  8
268
100
AcDbLine
 62
250
  6
CONTINUOUS
 10
4.9557632648
 20
25.7440038354
 11
7.9348531658
 21
24.254458885
  0
LINE
  5
367
100
AcDbEntity
  8
268
100
AcDbLine
 62
250
  6
CONTINUOUS
 10
12.1774938529
 20
22.1331385414
 11
15.1565837538
 21
20.6435935909
  0
LINE
  5
368
100
AcDbEntity
  8
268
100
AcDbLine
 62
7
  6
CONTINUOUS
 10
12.6185368559
 20
22.158488008
 11
15.8448600991
 21
20.5453263864
  0
LINE
  5
369
100
AcDbEntity
  8
715
100
AcDbLine
 62
7
  6
CONTINUOUS
 10
18.1886641273
 20
20.1074347492
 11
17.4816951872
 21
20.4609192193
  0
LINE
  5
36A
100
AcDbEntity
  8
715
100
AcDbLine
 62
7
  6
CONTINUOUS
 10
18.6836388741
 20
20.3549221226
 11
17.976669934
 21
20.7084065927
  0
LINE
  5
36B
100
AcDbEntity
  8
218
100
AcDbLine
 62
7
  6
CONTINUOUS
 10
17.4333324492
 20
21.0138534762
 11
17.0010181984
 21
21.2300106016
  0
LINE
  5
36C
100
AcDbEntity
  8
715
100
AcDbLine
 62
7
  6
CONTINUOUS
 10
18.1886641273
 20
20.1074347492
 11
18.4321597936
 21
19.8825624185
  0
LINE
  5
36D
100
AcDbEntity
  8
268
100
AcDbLine
 62
7
  6
CONTINUOUS
 10
10.4742669856
 20
-24.5468324819
 11
11.0025341573
 21
-24.2758214232
  0
LINE
  5
36E
100
AcDbEntity
  8
268
100
AcDbLine
 62
7
  6
CONTINUOUS
 10
8.8729861948
 20
-25.3268670815
 11
10.4742669856
 21
-24.5468324819
  0
LINE
  5
36F
100
AcDbEntity
  8
RACCORDO
100
AcDbLine
 62
250
  6
CONTINUOUS
 10
2.2616615308
 20
-25.5770921707
 11
6.3978974745
 21
-24.1775411562
  0
LINE
  5
370
100
AcDbEntity
  8
RACCORDO
100
AcDbLine
 62
7
  6
CONTINUOUS
 10
6.1010888513
 20
-24.6479534071
 11
1.9668011356
 21
-26.0468447657
  0
LWPOLYLINE
  5
371
100
AcDbEntity
  8
715
100
AcDbPolyline
 62
7
  6
CONTINUOUS
 90
3
 70
0
 10
20.538487016
 20
20.8952037386
 10
20.5296388057
 20
20.8989709862
 10
20.5264463342
 20
20.9000215192
  0
LWPOLYLINE
  5
372
100
AcDbEntity
  8
218
100
AcDbPolyline
 62
7
  6
CONTINUOUS
 90
10
 70
0
 10
21.1762963848
 20
21.0690288778
 10
21.2124020044
 20
21.053321153
 10
21.2479366068
 20
21.0373126655
 10
21.282900192
 20
21.0210034154
 10
21.3173029292
 20
21.004388318
 10
21.3511346492
 20
20.987472458
 10
21.3843648439
 20
20.9702710894
 10
21.4169833441
 20
20.9527892968
 10
21.4490003191
 20
20.9350219956
 10
21.4804157688
 20
20.9169691858
  0
LINE
  5
373
100
AcDbEntity
  8
218
100
AcDbLine
 62
7
  6
CONTINUOUS
 10
21.6242898649
 20
20.8293722852
 11
20.9927585438
 21
21.1451379457
  0
LINE
  5
374
100
AcDbEntity
  8
218
100
AcDbLine
 62
7
  6
CONTINUOUS
 10
21.1762963848
 20
21.0690288778
 11
21.4804157688
 21
20.9169691858
  0
LINE
  5
375
100
AcDbEntity
  8
715
100
AcDbLine
 62
7
  6
CONTINUOUS
 10
21.3870151534
 20
20.4709396699
 11
21.4852011781
 21
20.4217772065
  0
LWPOLYLINE
  5
376
100
AcDbEntity
  8
715
100
AcDbPolyline
 62
7
  6
CONTINUOUS
 90
10
 70
0
 10
21.3490710861
 20
20.4836073249
 10
21.2515940324
 20
20.5336627565
 10
21.1559808306
 20
20.5826386322
 10
21.0622314806
 20
20.6305349518
 10
20.9703603994
 20
20.6773531395
 10
20.8803531699
 20
20.7230917713
 10
20.7921665419
 20
20.7677465743
 10
20.7057860985
 20
20.8113161244
 10
20.6212262565
 20
20.8538018459
 10
20.538487016
 20
20.8952037386
  0
LINE
  5
377
100
AcDbEntity
  8
715
100
AcDbLine
 62
7
  6
CONTINUOUS
 10
21.3568295148
 20
20.4790208528
 11
21.3490710861
 21
20.4836073249
  0
LWPOLYLINE
  5
378
100
AcDbEntity
  8
715
100
AcDbPolyline
 62
250
  6
CONTINUOUS
 90
4
 70
0
 10
21.3870151534
 20
20.4709396699
 10
21.4115381437
 20
20.4504352915
 10
21.4359039054
 20
20.4291570271
 10
21.4581706678
 20
20.4088040184
  0
LWPOLYLINE
  5
379
100
AcDbEntity
  8
715
100
AcDbPolyline
 62
250
  6
CONTINUOUS
 90
6
 70
0
 10
21.2933785542
 20
20.4646436614
 10
21.3162389836
 20
20.445064928
 10
21.3388165219
 20
20.4247118815
 10
21.3611111691
 20
20.4035845218
 10
21.3831566675
 20
20.3817546349
 10
21.3890523542
 20
20.375630953
  0
LWPOLYLINE
  5
37A
100
AcDbEntity
  8
218
100
AcDbPolyline
 62
250
  6
CONTINUOUS
 90
57
 70
0
 10
26.4531159177
 20
17.3050004127
 10
26.460887113
 20
17.2802927099
 10
26.4730644367
 20
17.238291121
 10
26.484507845
 20
17.1952897209
 10
26.4951963788
 20
17.1513126687
 10
26.5050570586
 20
17.1064250219
 10
26.5140758847
 20
17.0606361782
 10
26.522242759
 20
17.0139356062
 10
26.5294935403
 20
16.9663606716
 10
26.5358295619
 20
16.917731109
 10
26.5412237723
 20
16.8682277169
 10
26.5455842596
 20
16.8184377223
 10
26.5488890698
 20
16.7682320448
 10
26.5511623558
 20
16.7177557526
 10
26.5524174792
 20
16.6680247319
 10
26.5526438525
 20
16.6191443563
 10
26.5519022466
 20
16.5710432434
 10
26.5503493407
 20
16.5244871143
 10
26.5480203742
 20
16.4797052004
 10
26.5449567523
 20
16.4365052758
 10
26.5413378284
 20
16.3950252847
 10
26.5372192482
 20
16.3554084605
 10
26.5326147657
 20
16.3175390814
 10
26.5276343355
 20
16.2811640829
 10
26.5223194884
 20
16.2463032813
 10
26.5166791182
 20
16.2129540023
 10
26.5107627683
 20
16.1808258558
 10
26.5045900658
 20
16.1498779094
 10
26.4981769362
 20
16.1201615451
 10
26.4915594144
 20
16.0915226073
 10
26.4847452397
 20
16.0639239537
 10
26.4777541441
 20
16.0374096564
 10
26.4706363804
 20
16.0119464221
 10
26.4634077544
 20
15.9875492855
 10
26.4560756536
 20
15.9642083104
 10
26.4486753209
 20
15.9418522499
 10
26.4412300598
 20
15.9205125863
 10
26.4337349766
 20
15.9001614824
 10
26.4261801162
 20
15.8806381465
 10
26.418572649
 20
15.8619291048
 10
26.4109185111
 20
15.8440501787
 10
26.4032032936
 20
15.826884012
 10
26.3954151472
 20
15.8103930558
 10
26.3875755581
 20
15.7946164584
 10
26.3797188007
 20
15.7795517088
 10
26.3718317591
 20
15.7651836303
 10
26.3639354048
 20
15.7515287958
 10
26.3561145853
 20
15.7386323699
 10
26.34839091
 20
15.7265365454
 10
26.3407490564
 20
15.715200537
 10
26.3332176771
 20
15.7045450289
 10
26.3258257352
 20
15.6945988644
 10
26.3185483087
 20
15.6853343362
 10
26.3113321792
 20
15.6765870889
 10
26.3041602088
 20
15.6683025381
 10
26.2970517481
 20
15.6605360157
 10
26.2900077509
 20
15.6532879006
  0
LINE
  5
37B
100
AcDbEntity
  8
218
100
AcDbLine
 62
7
  6
CONTINUOUS
 10
24.0818745866
 20
21.6680404929
 11
20.9730590158
 21
23.2224482783
  0
LINE
  5
37C
100
AcDbEntity
  8
218
100
AcDbLine
 62
250
  6
CONTINUOUS
 10
25.4154076664
 20
21.4993674384
 11
24.5901611987
 21
21.9119906723
  0
LINE
  5
37D
100
AcDbEntity
  8
218
100
AcDbLine
 62
250
  6
CONTINUOUS
 10
19.9297100159
 20
24.2422162637
 11
11.6798423458
 21
28.3671500987
  0
LINE
  5
37E
100
AcDbEntity
  8
218
100
AcDbLine
 62
7
  6
CONTINUOUS
 10
25.7843064651
 20
21.554717809
 11
24.9368673095
 21
21.9784373868
  0
LINE
  5
37F
100
AcDbEntity
  8
218
100
AcDbLine
 62
7
  6
CONTINUOUS
 10
20.4527496662
 20
24.2204962084
 11
12.1775925296
 21
28.3580653887
  0
LWPOLYLINE
  5
380
100
AcDbEntity
  8
218
100
AcDbPolyline
 62
7
  6
CONTINUOUS
 90
12
 70
0
 10
25.7843057547
 20
21.5547185246
 10
25.7902412418
 20
21.5515951667
 10
25.7974059338
 20
21.5473840431
 10
25.804262503
 20
21.5428446234
 10
25.8108108596
 20
21.5379777994
 10
25.8170465809
 20
21.5327924401
 10
25.8229699621
 20
21.5272894715
 10
25.8285813997
 20
21.5214700325
 10
25.8338768164
 20
21.5153434153
 10
25.8388569643
 20
21.5089108125
 10
25.8435227053
 20
21.5021735962
 10
25.8480972586
 20
21.4947512246
  0
LWPOLYLINE
  5
381
100
AcDbEntity
  8
218
100
AcDbPolyline
 62
7
  6
CONTINUOUS
 90
104
 70
0
 10
26.4531159177
 20
19.1241232814
 10
26.4658372556
 20
19.1148684612
 10
26.5106588676
 20
19.0810001397
 10
26.5551427149
 20
19.0461252275
 10
26.5993003751
 20
19.0102404399
 10
26.6431309525
 20
18.9733502488
 10
26.6866027052
 20
18.935484915
 10
26.729680326
 20
18.8966800783
 10
26.7723432469
 20
18.8569600563
 10
26.814580954
 20
18.8163402525
 10
26.8563734557
 20
18.774845323
 10
26.8976995819
 20
18.7325020528
 10
26.9385503358
 20
18.6893252685
 10
26.9789234579
 20
18.6453218918
 10
27.0188142818
 20
18.6005002092
 10
27.0581967546
 20
18.5548925324
 10
27.0970366801
 20
18.5085429101
 10
27.1353055787
 20
18.4614914453
 10
27.1730042054
 20
18.4137432034
 10
27.2101419429
 20
18.3652900417
 10
27.2467176454
 20
18.316134902
 10
27.2827028412
 20
18.2663173274
 10
27.3180657928
 20
18.2158842872
 10
27.3527830806
 20
18.1648738449
 10
27.3868521038
 20
18.11329437
 10
27.4202726759
 20
18.061149005
 10
27.4530366477
 20
18.0084518955
 10
27.4851253455
 20
17.9552343392
 10
27.5165224826
 20
17.9015250958
 10
27.5472138269
 20
17.8473504989
 10
27.5771887607
 20
17.7927311184
 10
27.6064367945
 20
17.7376874388
 10
27.6349453986
 20
17.6822441316
 10
27.6627033356
 20
17.6264239527
 10
27.689702018
 20
17.5702445101
 10
27.7159306793
 20
17.5137279151
 10
27.7413771622
 20
17.4568998281
 10
27.7660308684
 20
17.3997831562
 10
27.7898813877
 20
17.3424008528
 10
27.8129175904
 20
17.2847782289
 10
27.8351282597
 20
17.22694175
 10
27.8565007255
 20
17.1689230556
 10
27.8770280762
 20
17.1107392029
 10
27.8967073998
 20
17.0523945523
 10
27.9155341791
 20
16.9938954913
 10
27.9334923555
 20
16.9352842266
 10
27.950562783
 20
16.8766186725
 10
27.9667306537
 20
16.817949219
 10
27.9819961105
 20
16.7592743956
 10
27.9963623825
 20
16.7005740658
 10
28.0098265734
 20
16.6418444497
 10
28.0223726439
 20
16.5831382464
 10
28.0339843861
 20
16.5245195424
 10
28.0446512915
 20
16.4660354309
 10
28.0543718372
 20
16.4076870498
 10
28.0631442217
 20
16.3494689993
 10
28.0709633552
 20
16.2913887538
 10
28.0778195806
 20
16.2334873708
 10
28.0837042496
 20
16.1758091998
 10
28.0886116682
 20
16.1183805907
 10
28.0925368527
 20
16.0612226421
 10
28.0954742553
 20
16.0043705731
 10
28.0974194041
 20
15.9478575298
 10
28.0983689015
 20
15.891696562
 10
28.0983187683
 20
15.8358920161
 10
28.0972634548
 20
15.7804335867
 10
28.095198268
 20
15.7253785551
 10
28.0921242512
 20
15.6708301103
 10
28.0880458254
 20
15.6168559302
 10
28.0829613549
 20
15.5634287244
 10
28.0768639871
 20
15.5105078661
 10
28.0697417611
 20
15.4580510222
 10
28.0615992049
 20
15.4061460034
 10
28.0524585707
 20
15.3549438859
 10
28.0423383462
 20
15.3045223066
 10
28.0312338975
 20
15.2548358058
 10
28.019137327
 20
15.2058473486
 10
28.0060378112
 20
15.1575272713
 10
27.9919500337
 20
15.1099436288
 10
27.9769069351
 20
15.0632035044
 10
27.9609252465
 20
15.0173420224
 10
27.9440075034
 20
14.9723511494
 10
27.9261727889
 20
14.9282673791
 10
27.9074367725
 20
14.8851127864
 10
27.887806955
 20
14.8428891931
 10
27.8672916661
 20
14.8016017978
 10
27.8458828039
 20
14.7612267598
 10
27.8236105013
 20
14.7218139182
 10
27.8005476914
 20
14.6834728997
 10
27.7767547894
 20
14.6462705266
 10
27.752213963
 20
14.6101467013
 10
27.7268822614
 20
14.5750206821
 10
27.7007423366
 20
14.5408629731
 10
27.6738392547
 20
14.5077271918
 10
27.646221585
 20
14.4756610543
 10
27.617924421
 20
14.4446886019
 10
27.5889522986
 20
14.4147984874
 10
27.5593110151
 20
14.3859834703
 10
27.529022973
 20
14.3582533243
 10
27.4981057288
 20
14.3316122696
 10
27.4665565149
 20
14.3060481989
 10
27.4343872143
 20
14.2815633856
 10
27.4016257113
 20
14.2581716622
 10
27.3682927042
 20
14.2358798246
  0
LWPOLYLINE
  5
382
100
AcDbEntity
  8
218
100
AcDbPolyline
 62
250
  6
CONTINUOUS
 90
34
 70
0
 10
26.1111484744
 20
21.0410549893
 10
26.1101913394
 20
21.0423160622
 10
26.1083186093
 20
21.0437318236
 10
26.1058055469
 20
21.0447731166
 10
26.1026540184
 20
21.0454391679
 10
26.0988663641
 20
21.0457294831
 10
26.0944453967
 20
21.0456438464
 10
26.0893943994
 20
21.0451823216
 10
26.0837171229
 20
21.0443452512
 10
26.0774177833
 20
21.0431332569
 10
26.0705010585
 20
21.0415472388
 10
26.0629720848
 20
21.0395883746
 10
26.0548364534
 20
21.0372581191
 10
26.0461002058
 20
21.0345582026
 10
26.0367698296
 20
21.0314906301
 10
26.0268522536
 20
21.0280576796
 10
26.0163548425
 20
21.0242619005
 10
26.005285392
 20
21.0201061115
 10
25.9936521221
 20
21.0155933988
 10
25.9814636718
 20
21.0107271134
 10
25.9687290924
 20
21.0055108692
 10
25.9554578406
 20
20.9999485397
 10
25.9416597716
 20
20.9940442556
 10
25.9273451321
 20
20.9878024014
 10
25.9125245522
 20
20.9812276123
 10
25.8972090376
 20
20.9743247708
 10
25.8814099618
 20
20.9670990031
 10
25.8651390573
 20
20.9595556749
 10
25.8484084069
 20
20.9517003881
 10
25.831230435
 20
20.9435389759
 10
25.8136178978
 20
20.9350774992
 10
25.7955838748
 20
20.9263222414
 10
25.7771417579
 20
20.9172797043
 10
25.7583052424
 20
20.9079566028
  0
LINE
  5
383
100
AcDbEntity
  8
218
100
AcDbLine
 62
250
  6
CONTINUOUS
 10
25.4154076664
 20
21.4993674384
 11
25.7583052424
 21
20.9079566028
  0
LINE
  5
384
100
AcDbEntity
  8
218
100
AcDbLine
 62
7
  6
CONTINUOUS
 10
25.8480972586
 20
21.4947512246
 11
26.1111484912
 21
21.0410549602
  0
LWPOLYLINE
  5
385
100
AcDbEntity
  8
218
100
AcDbPolyline
 62
250
  6
CONTINUOUS
 90
37
 70
0
 10
25.7583052424
 20
20.9079566028
 10
25.77998605
 20
20.8702179314
 10
25.8011748502
 20
20.8321496841
 10
25.8218615188
 20
20.7937699532
 10
25.842036099
 20
20.7550970302
 10
25.861689032
 20
20.716149248
 10
25.880811152
 20
20.6769449667
 10
25.899393382
 20
20.6375027083
 10
25.9174267804
 20
20.5978413307
 10
25.9349027707
 20
20.5579798673
 10
25.9518129964
 20
20.5179373374
 10
25.9681494074
 20
20.4777327148
 10
25.983904298
 20
20.4373850984
 10
25.9990701625
 20
20.3969136783
 10
26.0136397602
 20
20.3563376992
 10
26.0276062028
 20
20.3156764317
 10
26.0409628514
 20
20.2749491917
 10
26.0537033228
 20
20.2341753775
 10
26.0658215514
 20
20.1933744315
 10
26.0773117786
 20
20.1525657705
 10
26.0881685303
 20
20.111768807
 10
26.0983866231
 20
20.0710029841
 10
26.1079612067
 20
20.0302877353
 10
26.1168877366
 20
19.9896424039
 10
26.1251619503
 20
19.9490862646
 10
26.1327799353
 20
19.9086386269
 10
26.1397380771
 20
19.8683187403
 10
26.1460330283
 20
19.8281457156
 10
26.1516618331
 20
19.7881386246
 10
26.1566218188
 20
19.7483165737
 10
26.1609105458
 20
19.7086986084
 10
26.1645260088
 20
19.6693037136
 10
26.1674665338
 20
19.6301505305
 10
26.1697306591
 20
19.5912574338
 10
26.1713173053
 20
19.5526428628
 10
26.172225789
 20
19.5143253078
 10
26.172455718
 20
19.4763230282
  0
ARC
  5
386
100
AcDbEntity
  8
218
100
AcDbCircle
 62
7
  6
CONTINUOUS
 10
25.4531159177
 20
-2.5951846408
 40
1.0
100
AcDbArc
 50
298.3477792495
 51
0.0000847911
  0
ELLIPSE
  5
387
100
AcDbEntity
  8
RACCORDO
100
AcDbEllipse
 62
7
  6
CONTINUOUS
 10
-5.6222564684
 20
21.2043176208
 30
0.0
 11
-0.2788365272
 21
0.7500446945
 31
0.0
 40
0.6612065299
 41
-0.3094034508
 42
0.0196120994
  0
ELLIPSE
  5
388
100
AcDbEntity
  8
RACCORDO
100
AcDbEllipse
 62
7
  6
CONTINUOUS
 10
5.8320316447
 20
-23.8944373307
 30
0.0
 11
-0.2788365272
 21
0.7500446945
 31
0.0
 40
0.6612065299
 41
-3.1612047631
 42
-2.1871130547
  0
ELLIPSE
  5
389
100
AcDbEntity
  8
RACCORDO
100
AcDbEllipse
 62
7
  6
CONTINUOUS
 10
8.9437553986
 20
13.9213116873
 30
0.0
 11
-0.2786426855
 21
0.7499328199
 31
0.0
 40
0.6614915248
 41
-2.1866907741
 42
-0.8229222114
  0
ELLIPSE
  5
38A
100
AcDbEntity
  8
268
100
AcDbEllipse
 62
7
  6
CONTINUOUS
 10
-6.0981309227
 20
23.9291981366
 30
0.0
 11
0.110769438
 21
0.2241226716
 31
0.0
 40
0.6088015717
 41
-4.0304836828
 42
-3.144406558
  0
ELLIPSE
  5
38B
100
AcDbEntity
  8
268
100
AcDbEllipse
 62
7
  6
CONTINUOUS
 10
7.2661872418
 20
17.2470390544
 30
0.0
 11
0.110769438
 21
0.2241226716
 31
0.0
 40
0.6088015717
 41
-4.0304836828
 42
-3.144406558
  0
ELLIPSE
  5
38C
100
AcDbEntity
  8
268
100
AcDbEllipse
 62
7
  6
CONTINUOUS
 10
7.2661872418
 20
-24.3059364787
 30
0.0
 11
0.110769438
 21
0.2241226716
 31
0.0
 40
0.6088015717
 41
-4.0304836828
 42
-3.1444065583
  0
ELLIPSE
  5
38D
100
AcDbEntity
  8
268
100
AcDbEllipse
 62
7
  6
CONTINUOUS
 10
11.322795123
 20
15.9553210053
 30
0.0
 11
-0.1565168911
 21
0.3130623908
 31
0.0
 40
0.6123677712
 41
-2.2554744912
 42
-0.6846781644
  0
ELLIPSE
  5
38E
100
AcDbEntity
  8
268
100
AcDbEllipse
 62
7
  6
CONTINUOUS
 10
11.322795123
 20
-22.2212608394
 30
0.0
 11
-0.1565168911
 21
0.3130623908
 31
0.0
 40
0.6123677712
 41
-3.1363565269
 42
-2.2554744912
  0
ELLIPSE
  5
38F
100
AcDbEntity
  8
268
100
AcDbEllipse
 62
7
  6
CONTINUOUS
 10
5.5561995745
 20
25.0605523104
 30
0.0
 11
0.2999991737
 21
-0.0014183462
 31
0.0
 40
0.4964289597
 41
0.7877451926
 42
2.3527237553
  0
ELLIPSE
  5
390
100
AcDbEntity
  8
268
100
AcDbEllipse
 62
7
  6
CONTINUOUS
 10
11.1106630887
 20
22.2833205534
 30
0.0
 11
0.2999991737
 21
-0.0014183462
 31
0.0
 40
0.4964289597
 41
0.7877451926
 42
2.3585415194
  0
ELLIPSE
  5
391
100
AcDbEntity
  8
268
100
AcDbEllipse
 62
7
  6
CONTINUOUS
 10
10.6500152242
 20
16.5728920162
 30
0.0
 11
0.110769438
 21
0.2241226716
 31
0.0
 40
0.6088015717
 41
1.2055040732
 42
2.252693743
  0
ELLIPSE
  5
392
100
AcDbEntity
  8
268
100
AcDbEllipse
 62
7
  6
CONTINUOUS
 10
-2.7143029403
 20
23.2550510984
 30
0.0
 11
0.110769438
 21
0.2241226716
 31
0.0
 40
0.6088015717
 41
1.2055040732
 42
2.2526937431
  0
ELLIPSE
  5
393
100
AcDbEntity
  8
268
100
AcDbEllipse
 62
7
  6
CONTINUOUS
 10
11.0015117013
 20
-24.0598359476
 30
0.0
 11
0.110769438
 21
0.2241226716
 31
0.0
 40
0.6088015717
 41
-2.4538695918
 42
-0.8888910292
  0
ELLIPSE
  5
394
100
AcDbEntity
  8
268
100
AcDbEllipse
 62
7
  6
CONTINUOUS
 10
7.2661872418
 20
-24.052565085
 30
0.0
 11
0.110769438
 21
0.2241226716
 31
0.0
 40
0.6088015717
 41
1.2055040732
 42
2.2527016244
  0
ELLIPSE
  5
395
100
AcDbEntity
  8
268
100
AcDbEllipse
 62
7
  6
CONTINUOUS
 10
11.0015117013
 20
17.5006971682
 30
0.0
 11
0.110769438
 21
0.2241226716
 31
0.0
 40
0.6088015717
 41
-1.9360885804
 42
-0.8888910292
  0
ELLIPSE
  5
396
100
AcDbEntity
  8
268
100
AcDbEllipse
 62
7
  6
CONTINUOUS
 10
9.3813368449
 20
18.5717135727
 30
0.0
 11
0.1128509832
 21
0.2230818409
 31
0.0
 40
0.6159267166
 41
0.0028868672
 42
0.6817883054
  0
ELLIPSE
  5
397
100
AcDbEntity
  8
268
100
AcDbEllipse
 62
7
  6
CONTINUOUS
 10
7.2661872418
 20
17.5004104481
 30
0.0
 11
0.110769438
 21
0.2241226716
 31
0.0
 40
0.6088015717
 41
0.6877230618
 42
2.2527016244
  0
ELLIPSE
  5
398
100
AcDbEntity
  8
268
100
AcDbEllipse
 62
7
  6
CONTINUOUS
 10
-6.0981309227
 20
24.1825695304
 30
0.0
 11
0.110769438
 21
0.2241226716
 31
0.0
 40
0.6088015717
 41
0.6877230618
 42
2.2527016244
  0
ELLIPSE
  5
399
100
AcDbEntity
  8
268
100
AcDbEllipse
 62
7
  6
CONTINUOUS
 10
-2.3628064631
 20
24.1828562504
 30
0.0
 11
0.110769438
 21
0.2241226716
 31
0.0
 40
0.6088015717
 41
-1.9360885804
 42
-0.8888910292
  0
ELLIPSE
  5
39A
100
AcDbEntity
  8
268
100
AcDbEllipse
 62
7
  6
CONTINUOUS
 10
-3.9829813195
 20
25.2538726549
 30
0.0
 11
0.1128509832
 21
0.2230818409
 31
0.0
 40
0.6159267166
 41
0.0028868672
 42
0.6817883054
  0
ELLIPSE
  5
39B
100
AcDbEntity
  8
268
100
AcDbEllipse
 62
7
  6
CONTINUOUS
 10
11.0015117013
 20
17.7616261445
 30
0.0
 11
0.110769438
 21
0.2241226716
 31
0.0
 40
0.6088015717
 41
5.394294278
 42
6.9592728406
  0
ELLIPSE
  5
39C
100
AcDbEntity
  8
268
100
AcDbEllipse
 62
7
  6
CONTINUOUS
 10
11.0015117013
 20
-23.7989069712
 30
0.0
 11
0.110769438
 21
0.2241226716
 31
0.0
 40
0.6088015717
 41
5.394294278
 42
6.4414918292
  0
ELLIPSE
  5
39D
100
AcDbEntity
  8
268
100
AcDbEllipse
 62
7
  6
CONTINUOUS
 10
-0.4122941758
 20
22.1403709425
 30
0.0
 11
0.2999991335
 21
0.0014318851
 31
0.0
 40
0.5035541159
 41
8.6427941204
 42
10.207772683
  0
ELLIPSE
  5
39E
100
AcDbEntity
  8
268
100
AcDbEllipse
 62
7
  6
CONTINUOUS
 10
11.2911150658
 20
20.9612603834
 30
0.0
 11
0.2999981629
 21
-0.0021225547
 31
0.0
 40
0.4946372042
 41
-0.7760807437
 42
0.0034996555
  0
ELLIPSE
  5
39F
100
AcDbEntity
  8
268
100
AcDbEllipse
 62
7
  6
CONTINUOUS
 10
5.7366515517
 20
23.7384921405
 30
0.0
 11
0.2999981629
 21
-0.0021225547
 31
0.0
 40
0.4946372042
 41
-0.7818985079
 42
0.0034996555
  0
ELLIPSE
  5
3A0
100
AcDbEntity
  8
268
100
AcDbEllipse
 62
7
  6
CONTINUOUS
 10
8.8479213889
 20
-23.4473611727
 30
0.0
 11
-0.1565168911
 21
0.3130623908
 31
0.0
 40
0.6123677712
 41
2.4569144891
 42
4.0277108159
  0
ELLIPSE
  5
3A1
100
AcDbEntity
  8
268
100
AcDbEllipse
 62
7
  6
CONTINUOUS
 10
8.8479213889
 20
14.7065476044
 30
0.0
 11
-0.1565168911
 21
0.3130623908
 31
0.0
 40
0.6123677712
 41
-2.2554744912
 42
-0.6846781644
  0
ELLIPSE
  5
3A2
100
AcDbEntity
  8
268
100
AcDbEllipse
 62
7
  6
CONTINUOUS
 10
-6.4255850848
 20
22.3433008412
 30
0.0
 11
-0.1565168911
 21
0.3130623908
 31
0.0
 40
0.6123677712
 41
-0.6846781644
 42
0.8861181623
  0
ELLIPSE
  5
3A3
100
AcDbEntity
  8
268
100
AcDbEllipse
 62
7
  6
CONTINUOUS
 10
5.7366515517
 20
24.9703263219
 30
0.0
 11
0.2999991737
 21
-0.0014183462
 31
0.0
 40
0.4964289597
 41
-0.7830511342
 42
0.7877451926
  0
ELLIPSE
  5
3A4
100
AcDbEntity
  8
268
100
AcDbEllipse
 62
7
  6
CONTINUOUS
 10
11.2911150658
 20
22.1930945648
 30
0.0
 11
0.2999991737
 21
-0.0014183462
 31
0.0
 40
0.4964289597
 41
-0.77723337
 42
0.7877451926
  0
ELLIPSE
  5
3A5
100
AcDbEntity
  8
268
100
AcDbEllipse
 62
7
  6
CONTINUOUS
 10
-0.4122941758
 20
20.9261718667
 30
0.0
 11
0.2999980272
 21
0.0021530184
 31
0.0
 40
0.5053247124
 41
3.1379660677
 42
3.9233642311
  0
ELLIPSE
  5
3A6
100
AcDbEntity
  8
268
100
AcDbEllipse
 62
7
  6
CONTINUOUS
 10
5.3802148922
 20
19.2441164085
 30
0.0
 11
0.2999991335
 21
0.0014318851
 31
0.0
 40
0.5035541159
 41
-2.3585979313
 42
-0.7936193687
  0
ELLIPSE
  5
3A7
100
AcDbEntity
  8
268
100
AcDbEllipse
 62
7
  6
CONTINUOUS
 10
5.3802148922
 20
18.0299173326
 30
0.0
 11
0.2999980272
 21
0.0021530184
 31
0.0
 40
0.5053247124
 41
-2.3598210761
 42
-0.7948425135
  0
ELLIPSE
  5
3A8
100
AcDbEntity
  8
268
100
AcDbEllipse
 62
7
  6
CONTINUOUS
 10
7.1957150827
 20
-18.0057068059
 30
0.0
 11
-0.542618321
 21
0.8478124368
 31
0.0
 40
0.5451249042
 41
-3.2164266024
 42
-2.3115524019
  0
ELLIPSE
  5
3A9
100
AcDbEntity
  8
268
100
AcDbEllipse
 62
7
  6
CONTINUOUS
 10
10.6500152242
 20
-23.2267121232
 30
0.0
 11
0.110769438
 21
0.2241226716
 31
0.0
 40
0.6088015717
 41
2.2527095058
 42
3.2998991756
  0
ELLIPSE
  5
3AA
100
AcDbEntity
  8
268
100
AcDbEllipse
 62
7
  6
CONTINUOUS
 10
8.8740206174
 20
-25.1098531666
 30
0.0
 11
0.1128509832
 21
0.2230818409
 31
0.0
 40
0.6159267166
 41
-4.0247829108
 42
-2.4598043482
  0
ELLIPSE
  5
3AB
100
AcDbEntity
  8
268
100
AcDbEllipse
 62
7
  6
CONTINUOUS
 10
8.8740206174
 20
-24.8564817728
 30
0.0
 11
0.1128509832
 21
0.2230818409
 31
0.0
 40
0.6159267166
 41
1.2112048452
 42
2.2584023964
  0
ELLIPSE
  5
3AC
100
AcDbEntity
  8
268
100
AcDbEllipse
 62
7
  6
CONTINUOUS
 10
-4.490297547
 20
23.1252814488
 30
0.0
 11
0.1128509832
 21
0.2230818409
 31
0.0
 40
0.6159267166
 41
-4.0247829108
 42
-2.9775853596
  0
ELLIPSE
  5
3AD
100
AcDbEntity
  8
268
100
AcDbEllipse
 62
7
  6
CONTINUOUS
 10
8.8740206174
 20
16.6964937603
 30
0.0
 11
0.1128509832
 21
0.2230818409
 31
0.0
 40
0.6159267166
 41
0.6934238338
 42
2.2584023964
  0
ELLIPSE
  5
3AE
100
AcDbEntity
  8
268
100
AcDbEllipse
 62
7
  6
CONTINUOUS
 10
8.8740206174
 20
16.4431223666
 30
0.0
 11
0.1128509832
 21
0.2230818409
 31
0.0
 40
0.6159267166
 41
-4.0247829108
 42
-2.9775853596
  0
ELLIPSE
  5
3AF
100
AcDbEntity
  8
268
100
AcDbEllipse
 62
7
  6
CONTINUOUS
 10
-4.490297547
 20
23.3786528425
 30
0.0
 11
0.1128509832
 21
0.2230818409
 31
0.0
 40
0.6159267166
 41
0.6934238338
 42
2.2584023964
  0
ELLIPSE
  5
3B0
100
AcDbEntity
  8
268
100
AcDbEllipse
 62
7
  6
CONTINUOUS
 10
-2.3628064631
 20
24.4437852268
 30
0.0
 11
0.110769438
 21
0.2241226716
 31
0.0
 40
0.6088015717
 41
5.394294278
 42
6.9592728406
  0
ELLIPSE
  5
3B1
100
AcDbEntity
  8
218
100
AcDbEllipse
 62
7
  6
CONTINUOUS
 10
18.7120609864
 20
20.1405369364
 30
0.0
 11
2.7499924258
 21
-0.0130015067
 31
0.0
 40
0.4964289597
 41
2.3672681657
 42
2.9293761949
  0
ELLIPSE
  5
3B2
100
AcDbEntity
  8
218
100
AcDbEllipse
 62
7
  6
CONTINUOUS
 10
20.272123062
 20
23.1927755217
 30
0.0
 11
0.4410298232
 21
0.8975092442
 31
0.0
 40
0.607010042
 41
-0.8902711325
 42
-0.7587130969
  0
ELLIPSE
  5
3B3
100
AcDbEntity
  8
218
100
AcDbEllipse
 62
7
  6
CONTINUOUS
 10
19.3838124286
 20
20.0386134865
 30
0.0
 11
2.7583876426
 21
-0.0130411979
 31
0.0
 40
0.4964289597
 41
0.8884696282
 42
2.3585415194
  0
ELLIPSE
  5
3B4
100
AcDbEntity
  8
218
100
AcDbEllipse
 62
7
  6
CONTINUOUS
 10
19.3838124286
 20
20.0386134865
 30
0.0
 11
2.7583876426
 21
-0.0130411979
 31
0.0
 40
0.4964289597
 41
0.4412294433
 42
0.6870207571
  0
ELLIPSE
  5
3B5
100
AcDbEntity
  8
218
100
AcDbEllipse
 62
7
  6
CONTINUOUS
 10
24.1695111326
 20
21.2440814864
 30
0.0
 11
0.79574694
 21
0.7129684349
 31
0.0
 40
0.2882345029
 41
0.1134874795
 42
0.7807533904
  0
ELLIPSE
  5
3B6
100
AcDbEntity
  8
218
100
AcDbEllipse
 62
7
  6
CONTINUOUS
 10
19.3838124286
 20
22.0191015992
 30
0.0
 11
2.7583515655
 21
-1.4175703156
 31
0.0
 40
0.0109499087
 41
-0.7017315251
 42
-0.679046417
  0
ELLIPSE
  5
3B7
100
AcDbEntity
  8
218
100
AcDbEllipse
 62
7
  6
CONTINUOUS
 10
19.3838124286
 20
22.0191015992
 30
0.0
 11
2.7583515655
 21
-1.4175703156
 31
0.0
 40
0.0109499087
 41
-0.8804952881
 42
-0.85781018
  0
ELLIPSE
  5
3B8
100
AcDbEntity
  8
218
100
AcDbEllipse
 62
7
  6
CONTINUOUS
 10
19.3838124286
 20
20.4716261884
 30
0.0
 11
2.7583876426
 21
-0.0130411979
 31
0.0
 40
0.4964289597
 41
0.1877225706
 42
2.3585415194
  0
ELLIPSE
  5
3B9
100
AcDbEntity
  8
218
100
AcDbEllipse
 62
7
  6
CONTINUOUS
 10
18.6885278982
 20
21.3677491719
 30
0.0
 11
3.3022643479
 21
-0.04629945
 31
0.0
 40
0.4892378494
 41
2.3616770883
 42
5.5059722822
  0
ELLIPSE
  5
3BA
100
AcDbEntity
  8
218
100
AcDbEllipse
 62
7
  6
CONTINUOUS
 10
20.3256786521
 20
23.1659977267
 30
0.0
 11
-0.3106730325
 21
1.1082908718
 31
0.0
 40
0.6760995073
 41
4.9783291412
 42
6.4001141399
  0
ENDSEC
  0
SECTION
  2
OBJECTS
  0
DICTIONARY
  5
C
100
AcDbDictionary
280
0
281
1
  3
ACAD_GROUP
350
D
  3
ACAD_MLINESTYLE
350
17
  3
ACAD_LAYOUT
350
1A
  3
ACAD_PLOTSETTINGS
350
19
  3
ACAD_PLOTSTYLENAME
350
E
  0
DICTIONARY
  5
D
102
{ACAD_REACTORS
330
C
102
}
100
AcDbDictionary
280
0
281
1
  0
ACDBDICTIONARYWDFLT
  5
E
102
{ACAD_REACTORS
330
C
102
}
100
AcDbDictionary
281
1
  3
Normal
350
F
100
AcDbDictionaryWithDefault
340
F
  0
DICTIONARY
  5
17
102
{ACAD_REACTORS
330
C
102
}
100
AcDbDictionary
280
0
281
1
  3
Standard
350
18
  0
DICTIONARY
  5
19
102
{ACAD_REACTORS
330
C
102
}
100
AcDbDictionary
281
1
  0
DICTIONARY
  5
1A
102
{ACAD_REACTORS
330
C
102
}
100
AcDbDictionary
281
1
  3
Model
350
3BB
  3
Layout1
350
3BC
  0
ACDBPLACEHOLDER
  5
F
102
{ACAD_REACTORS
330
E
102
}
  0
MLINESTYLE
  5
18
102
{ACAD_REACTORS
330
17
102
}
100
AcDbMlineStyle
  2
STANDARD
 70
0
  3

 62
256
 51
90.0
 52
90.0
 71
2
 49
0.5
 62
256
  6
BYLAYER
 49
-0.5
 62
256
  6
BYLAYER
  0
LAYOUT
  5
3BB
102
{ACAD_REACTORS
330
1A
102
}
100
AcDbPlotSettings
  1

  2
none_device
  4
ISO_A4_(297.00_x_210.00_MM)
  6

 40
0.0
 41
0.0
 42
0.0
 43
0.0
 44
297.0
 45
210.0
 46
0.0
 47
0.0
 48
0.0
 49
0.0
140
0.0
141
0.0
142
1.0
143
1.0
 70
1024
 72
1
 73
0
 74
0
  7

 75
0
147
1.0
148
0.0
149
0.0
100
AcDbLayout
  1
Model
 70
0
 71
0
 10
0.0
 20
0.0
 11
297.0
 21
210.0
 12
0.0
 22
0.0
 32
0.0
 14
0.0
 24
0.0
 34
0.0
 15
0.0
 25
0.0
 35
0.0
146
0.0
 13
0.0
 23
0.0
 33
0.0
 16
1.0
 26
0.0
 36
0.0
 17
0.0
 27
1.0
 37
0.0
 76
0
330
228
345
0
346
0
  0
LAYOUT
  5
3BC
102
{ACAD_REACTORS
330
1A
102
}
100
AcDbPlotSettings
  1

  2
none_device
  4
ISO_A4_(297.00_x_210.00_MM)
  6

 40
0.0
 41
0.0
 42
0.0
 43
0.0
 44
297.0
 45
210.0
 46
0.0
 47
0.0
 48
0.0
 49
0.0
140
0.0
141
0.0
142
1.0
143
1.0
 70
0
 72
1
 73
0
 74
0
  7

 75
0
147
1.0
148
0.0
149
0.0
100
AcDbLayout
  1
Layout1
 70
0
 71
1
 10
0.0
 20
0.0
 11
297.0
 21
210.0
 12
0.0
 22
0.0
 32
0.0
 14
0.0
 24
0.0
 34
0.0
 15
0.0
 25
0.0
 35
0.0
146
0.0
 13
0.0
 23
0.0
 33
0.0
 16
1.0
 26
0.0
 36
0.0
 17
0.0
 27
1.0
 37
0.0
 76
0
330
229
345
0
346
0
  0
ENDSEC
  0
EOF
