  0
SECTION
  2
HEADER
  9
$ACADVER
  1
AC1015
  9
$DWGCODEPAGE
  3
ANSI_1252
  9
$EXTMAX
 10
297.0
 20
210.0
 30
0.0
  9
$EXTMIN
 10
0.0
 20
0.0
 30
0.0
  9
$LIMMIN
 10
0.0
 20
0.0
  9
$LIMMAX
 10
297.0
 20
210.0
  9
$VIEWCTR
 10
148.5
 20
105.0
  9
$VIEWSIZE
 40
210.0
  9
$CLAYER
  8
0
  9
$LTSCALE
 40
16.335
  9
$CELTYPE
  6
BYLAYER
  9
$DIMSCALE
 40
1.0
  9
$DIMASZ
 40
3.0
  9
$DIMEXO
 40
0.5
  9
$DIMDLI
 40
11.286
  9
$DIMEXE
 40
1.5
  9
$DIMCEN
 40
2.673
  9
$DIMLFAC
 40
1.0
  9
$DIMBLK
  1
_FILLED
  9
$DIMTXT
 40
3.0
  9
$DIMTOL
 70
1
  9
$DIMLIM
 70
0
  9
$DIMTFAC
 40
1.0
  9
$DIMTP
 40
0.01
  9
$DIMTM
 40
0.01
  9
$DIMGAP
 40
0.625
  9
$DIMDSEP
 70
44
  9
$PDMODE
 70
3
  9
$PDSIZE
 40
3.0
  9
$HANDSEED
  5
591
  9
$TILEMODE
 70
1
  9
$MEASUREMENT
 70
1
  9
$INSUNITS
 70
4
  0
ENDSEC
  0
SECTION
  2
CLASSES
  0
CLASS
  1
ACDBDICTIONARYWDFLT
  2
AcDbDictionaryWithDefault
  3
AutoCAD 2000
 90
0
280
0
281
0
  0
CLASS
  1
ACDBPLACEHOLDER
  2
AcDbPlaceHolder
  3
AutoCAD 2000
 90
0
280
0
281
0
  0
CLASS
  1
LAYOUT
  2
AcDbLayout
  3
AutoCAD 2000
 90
0
280
0
281
0
  0
ENDSEC
  0
SECTION
  2
TABLES
  0
TABLE
  2
VPORT
  5
8
100
AcDbSymbolTable
 70
2
  0
VPORT
  5
1F4
100
AcDbSymbolTableRecord
100
AcDbViewportTableRecord
  2
*ACTIVE
 70
0
 10
0.0
 20
0.0
 11
1.0
 21
1.0
 12
148.5
 22
105.0
 13
0.0
 23
0.0
 14
1.0
 24
1.0
 15
0.0
 25
0.0
 16
0.0
 26
0.0
 36
1.0
 17
0.0
 27
0.0
 37
0.0
 40
210.0
 41
1.4142857143
 42
50.0
 43
0.0
 44
0.0
 50
0.0
 51
0.0
 71
0
 72
100
 73
1
 74
1
 75
0
 76
0
 77
0
 78
0
  0
ENDTAB
  0
TABLE
  2
LTYPE
  5
5
100
AcDbSymbolTable
 70
6
  0
LTYPE
  5
14
100
AcDbSymbolTableRecord
100
AcDbLinetypeTableRecord
  2
BYBLOCK
 70
0
  3

 72
65
 73
0
 40
0.0
  0
LTYPE
  5
15
100
AcDbSymbolTableRecord
100
AcDbLinetypeTableRecord
  2
BYLAYER
 70
0
  3

 72
65
 73
0
 40
0.0
  0
LTYPE
  5
16
100
AcDbSymbolTableRecord
100
AcDbLinetypeTableRecord
  2
CONTINUOUS
 70
64
  3
Solid line
 72
65
 73
0
 40
0.0
  0
LTYPE
  5
1F5
100
AcDbSymbolTableRecord
100
AcDbLinetypeTableRecord
  2
CENTER
 70
64
  3
____ _ ____ _ ____ _ ____ _ ____ _ ____ _ ____
 72
65
 73
4
 40
0.6
 49
0.375
 74
0
 49
-0.075
 74
0
 49
0.075
 74
0
 49
-0.075
 74
0
  0
LTYPE
  5
1F6
100
AcDbSymbolTableRecord
100
AcDbLinetypeTableRecord
  2
HIDDEN
 70
64
  3
- - - - - - - - - - - - - - - - - - - -
 72
65
 73
2
 40
0.2
 49
0.1
 74
0
 49
-0.1
 74
0
  0
LTYPE
  5
1F7
100
AcDbSymbolTableRecord
100
AcDbLinetypeTableRecord
  2
PHANTOM
 70
64
  3
_____ _ _ _____ _ _ _____ _ _ _____
 72
65
 73
6
 40
0.8
 49
0.45
 74
0
 49
-0.05
 74
0
 49
0.1
 74
0
 49
-0.05
 74
0
 49
0.1
 74
0
 49
-0.05
 74
0
  0
LTYPE
  5
1F8
100
AcDbSymbolTableRecord
100
AcDbLinetypeTableRecord
  2
DOT
 70
64
  3
. . . . . . . . . . . . . . . . . . . .
 72
65
 73
2
 40
0.2
 49
0.1
 74
0
 49
-0.1
 74
0
  0
LTYPE
  5
1F9
100
AcDbSymbolTableRecord
100
AcDbLinetypeTableRecord
  2
DASHED
 70
64
  3
- - - - - - - - - - - - - - - - - - - -
 72
65
 73
2
 40
0.2
 49
0.1
 74
0
 49
-0.1
 74
0
  0
ENDTAB
  0
TABLE
  2
LAYER
  5
2
100
AcDbSymbolTable
 70
36
  0
LAYER
  5
10
100
AcDbSymbolTableRecord
100
AcDbLayerTableRecord
  2
0
 70
0
 62
7
  6
CONTINUOUS
370
-3
390
F
  0
LAYER
  5
1FA
100
AcDbSymbolTableRecord
100
AcDbLayerTableRecord
  2
DEFAULT_1
 70
0
 62
7
  6
CENTER
370
-3
390
F
  0
LAYER
  5
1FB
100
AcDbSymbolTableRecord
100
AcDbLayerTableRecord
  2
DEFAULT_2
 70
0
 62
7
  6
HIDDEN
370
-3
390
F
  0
LAYER
  5
1FC
100
AcDbSymbolTableRecord
100
AcDbLayerTableRecord
  2
DEFAULT_3
 70
0
 62
7
  6
PHANTOM
370
-3
390
F
  0
LAYER
  5
1FD
100
AcDbSymbolTableRecord
100
AcDbLayerTableRecord
  2
21814000
 70
0
 62
7
  6
CONTINUOUS
370
-3
390
F
  0
LAYER
  5
1FE
100
AcDbSymbolTableRecord
100
AcDbLayerTableRecord
  2
260140000
 70
0
 62
7
  6
CONTINUOUS
370
-3
390
F
  0
LAYER
  5
1FF
100
AcDbSymbolTableRecord
100
AcDbLayerTableRecord
  2
26814000
 70
0
 62
7
  6
CONTINUOUS
370
-3
390
F
  0
LAYER
  5
200
100
AcDbSymbolTableRecord
100
AcDbLayerTableRecord
  2
28414000
 70
0
 62
7
  6
CONTINUOUS
370
-3
390
F
  0
LAYER
  5
201
100
AcDbSymbolTableRecord
100
AcDbLayerTableRecord
  2
290140000
 70
0
 62
7
  6
CONTINUOUS
370
-3
390
F
  0
LAYER
  5
202
100
AcDbSymbolTableRecord
100
AcDbLayerTableRecord
  2
340000230
 70
0
 62
7
  6
CONTINUOUS
370
-3
390
F
  0
LAYER
  5
203
100
AcDbSymbolTableRecord
100
AcDbLayerTableRecord
  2
712140000
 70
0
 62
7
  6
CONTINUOUS
370
-3
390
F
  0
LAYER
  5
204
100
AcDbSymbolTableRecord
100
AcDbLayerTableRecord
  2
715140000
 70
0
 62
7
  6
CONTINUOUS
370
-3
390
F
  0
LAYER
  5
205
100
AcDbSymbolTableRecord
100
AcDbLayerTableRecord
  2
ASSI
 70
0
 62
7
  6
CONTINUOUS
370
-3
390
F
  0
LAYER
  5
206
100
AcDbSymbolTableRecord
100
AcDbLayerTableRecord
  2
COLORE_SERIE
 70
0
 62
7
  6
CONTINUOUS
370
-3
390
F
  0
LAYER
  5
207
100
AcDbSymbolTableRecord
100
AcDbLayerTableRecord
  2
COLORE_TOP
 70
0
 62
7
  6
CONTINUOUS
370
-3
390
F
  0
LAYER
  5
208
100
AcDbSymbolTableRecord
100
AcDbLayerTableRecord
  2
COORDINATE
 70
0
 62
7
  6
CONTINUOUS
370
-3
390
F
  0
LAYER
  5
209
100
AcDbSymbolTableRecord
100
AcDbLayerTableRecord
  2
COORD_ORIGINE
 70
0
 62
7
  6
CONTINUOUS
370
-3
390
F
  0
LAYER
  5
20A
100
AcDbSymbolTableRecord
100
AcDbLayerTableRecord
  2
COPY_PUBLISH
 70
0
 62
7
  6
CONTINUOUS
370
-3
390
F
  0
LAYER
  5
20B
100
AcDbSymbolTableRecord
100
AcDbLayerTableRecord
  2
COSMETIC
 70
0
 62
7
  6
CONTINUOUS
370
-3
390
F
  0
LAYER
  5
20C
100
AcDbSymbolTableRecord
100
AcDbLayerTableRecord
  2
COSMETICI
 70
0
 62
7
  6
CONTINUOUS
370
-3
390
F
  0
LAYER
  5
20D
100
AcDbSymbolTableRecord
100
AcDbLayerTableRecord
  2
CURVE
 70
0
 62
7
  6
CONTINUOUS
370
-3
390
F
  0
LAYER
  5
20E
100
AcDbSymbolTableRecord
100
AcDbLayerTableRecord
  2
DRAFT
 70
0
 62
7
  6
CONTINUOUS
370
-3
390
F
  0
LAYER
  5
20F
100
AcDbSymbolTableRecord
100
AcDbLayerTableRecord
  2
IMPORT
 70
0
 62
7
  6
CONTINUOUS
370
-3
390
F
  0
LAYER
  5
210
100
AcDbSymbolTableRecord
100
AcDbLayerTableRecord
  2
IMPORTED
 70
0
 62
7
  6
CONTINUOUS
370
-3
390
F
  0
LAYER
  5
211
100
AcDbSymbolTableRecord
100
AcDbLayerTableRecord
  2
IMPORT_IGES
 70
0
 62
7
  6
CONTINUOUS
370
-3
390
F
  0
LAYER
  5
212
100
AcDbSymbolTableRecord
100
AcDbLayerTableRecord
  2
NOTE
 70
0
 62
7
  6
CONTINUOUS
370
-3
390
F
  0
LAYER
  5
213
100
AcDbSymbolTableRecord
100
AcDbLayerTableRecord
  2
PIANI
 70
0
 62
7
  6
CONTINUOUS
370
-3
390
F
  0
LAYER
  5
214
100
AcDbSymbolTableRecord
100
AcDbLayerTableRecord
  2
PIANI_DI_RIFERIMENTO
 70
0
 62
7
  6
CONTINUOUS
370
-3
390
F
  0
LAYER
  5
215
100
AcDbSymbolTableRecord
100
AcDbLayerTableRecord
  2
PIANI_ORIGINE
 70
0
 62
7
  6
CONTINUOUS
370
-3
390
F
  0
LAYER
  5
216
100
AcDbSymbolTableRecord
100
AcDbLayerTableRecord
  2
PIANI_RIFERIMENTO
 70
0
 62
7
  6
CONTINUOUS
370
-3
390
F
  0
LAYER
  5
217
100
AcDbSymbolTableRecord
100
AcDbLayerTableRecord
  2
PIANI_SFORMO
 70
0
 62
7
  6
CONTINUOUS
370
-3
390
F
  0
LAYER
  5
218
100
AcDbSymbolTableRecord
100
AcDbLayerTableRecord
  2
PUNTI
 70
0
 62
7
  6
CONTINUOUS
370
-3
390
F
  0
LAYER
  5
219
100
AcDbSymbolTableRecord
100
AcDbLayerTableRecord
  2
RACCORDO
 70
0
 62
7
  6
CONTINUOUS
370
-3
390
F
  0
LAYER
  5
21A
100
AcDbSymbolTableRecord
100
AcDbLayerTableRecord
  2
SIMBOLI
 70
0
 62
7
  6
CONTINUOUS
370
-3
390
F
  0
LAYER
  5
21B
100
AcDbSymbolTableRecord
100
AcDbLayerTableRecord
  2
SMUSSO
 70
0
 62
7
  6
CONTINUOUS
370
-3
390
F
  0
LAYER
  5
21C
100
AcDbSymbolTableRecord
100
AcDbLayerTableRecord
  2
SNAPLINE
 70
0
 62
7
  6
CONTINUOUS
370
-3
390
F
  0
LAYER
  5
21D
100
AcDbSymbolTableRecord
100
AcDbLayerTableRecord
  2
SUPERFICI
 70
0
 62
7
  6
CONTINUOUS
370
-3
390
F
  0
LAYER
  5
21E
100
AcDbSymbolTableRecord
100
AcDbLayerTableRecord
  2
TRASH
 70
0
 62
7
  6
CONTINUOUS
370
-3
390
F
  0
LAYER
  5
21F
100
AcDbSymbolTableRecord
100
AcDbLayerTableRecord
  2
WHITE
 70
0
 62
7
  6
CONTINUOUS
370
-3
390
F
  0
LAYER
  5
220
100
AcDbSymbolTableRecord
100
AcDbLayerTableRecord
  2
XSEC_DATUMS
 70
0
 62
7
  6
CONTINUOUS
370
-3
390
F
  0
ENDTAB
  0
TABLE
  2
STYLE
  5
3
100
AcDbSymbolTable
 70
1
  0
STYLE
  5
11
100
AcDbSymbolTableRecord
100
AcDbTextStyleTableRecord
  2
STANDARD
 70
0
 40
0.0
 41
0.8
 50
0.0
 71
0
 42
0.2
  3
txt
  4

  0
STYLE
  5
221
100
AcDbSymbolTableRecord
100
AcDbTextStyleTableRecord
  2
TEXTSTYLE_1
 70
0
 40
0.0
 41
0.8
 50
0.0
 71
0
 42
0.2
  3
gdt
  4

  0
ENDTAB
  0
TABLE
  2
VIEW
  5
6
100
AcDbSymbolTable
 70
0
  0
ENDTAB
  0
TABLE
  2
UCS
  5
7
100
AcDbSymbolTable
 70
0
  0
ENDTAB
  0
TABLE
  2
APPID
  5
9
100
AcDbSymbolTable
 70
1
  0
APPID
  5
222
100
AcDbSymbolTableRecord
100
AcDbRegAppTableRecord
  2
ACAD
 70
0
  0
ENDTAB
  0
TABLE
  2
BLOCK_RECORD
  5
1
100
AcDbSymbolTable
 70
0
  0
BLOCK_RECORD
  5
223
100
AcDbSymbolTableRecord
100
AcDbBlockTableRecord
  2
*Model_Space
  0
BLOCK_RECORD
  5
224
100
AcDbSymbolTableRecord
100
AcDbBlockTableRecord
  2
*Paper_Space
  0
ENDTAB
  0
TABLE
  2
DIMSTYLE
  5
A
100
AcDbSymbolTable
 70
1
100
AcDbDimStyleTable
 71
0
  0
DIMSTYLE
105
225
100
AcDbSymbolTableRecord
100
AcDbDimStyleTableRecord
  2
STANDARD
 70
0
  3

  4

 40
1.0
 41
3.0
 42
0.5
 43
0.38
 44
1.5
 45
0.0
 46
0.0
 47
0.01
 48
0.01
140
3.0
141
0.09
142
0.0
143
25.4
144
1.0
145
0.0
146
1.0
147
0.625
 71
1.0
 72
0.0
 73
0
 74
0
 75
0
 76
0
 77
1
 78
8
170
0
171
2
172
0
173
0
174
0
175
0
176
0
177
0
178
0
270
2
271
2
272
2
273
2
274
2
275
0
280
0
281
0
282
0
283
1
284
8
285
0
286
0
287
3
288
0
340
11
278
44
  0
ENDTAB
  0
ENDSEC
  0
SECTION
  2
BLOCKS
  0
BLOCK
  5
20
100
AcDbEntity
  8
0
100
AcDbBlockBegin
  2
*Model_Space
 70
0
 10
0.0
 20
0.0
 30
0.0
  3
*Model_Space
  1

  0
ENDBLK
  5
21
100
AcDbEntity
  8
0
100
AcDbBlockEnd
  0
BLOCK
  5
1C
100
AcDbEntity
  8
0
100
AcDbBlockBegin
  2
*Paper_Space
 70
0
 10
0.0
 20
0.0
 30
0.0
  3
*Paper_Space
  1

  0
ENDBLK
  5
1D
100
AcDbEntity
  8
0
100
AcDbBlockEnd
  0
ENDSEC
  0
SECTION
  2
ENTITIES
  0
LINE
  5
226
100
AcDbEntity
  8
26814000
100
AcDbLine
 62
7
  6
CONTINUOUS
 10
46.7678598283
 20
137.3788909804
 11
48.3506164315
 21
138.1908750778
  0
LINE
  5
227
100
AcDbEntity
  8
26814000
100
AcDbLine
 62
7
  6
CONTINUOUS
 10
48.3506164315
 20
138.1908750778
 11
48.8850663101
 21
138.4512225443
  0
LINE
  5
228
100
AcDbEntity
  8
RACCORDO
100
AcDbLine
 62
253
  6
CONTINUOUS
 10
39.7952645774
 20
94.3474776461
 11
39.7365690119
 21
94.3814666155
  0
LWPOLYLINE
  5
229
100
AcDbEntity
  8
ASSI
100
AcDbPolyline
 62
253
  6
CONTINUOUS
 90
14
 70
0
 10
39.7945455032
 20
94.3478378472
 10
39.7365690119
 20
94.3814666155
 10
39.6844768176
 20
94.4205093993
 10
39.6362822835
 20
94.4659003209
 10
39.5922046079
 20
94.5174308138
 10
39.5524604463
 20
94.574857793
 10
39.5172629608
 20
94.6378855991
 10
39.486794498
 20
94.7061852197
 10
39.4612104123
 20
94.7794031993
 10
39.4406352739
 20
94.8571794771
 10
39.4251668721
 20
94.9391362589
 10
39.4148829824
 20
95.0248680438
 10
39.4098386601
 20
95.1139417062
 10
39.4100605868
 20
95.2059115396
  0
LWPOLYLINE
  5
22A
100
AcDbEntity
  8
RACCORDO
100
AcDbPolyline
 62
253
  6
CONTINUOUS
 90
13
 70
0
 10
39.7365690119
 20
94.3814666155
 10
39.6844768176
 20
94.4205093993
 10
39.6362822835
 20
94.4659003209
 10
39.5922046079
 20
94.5174308138
 10
39.5524604463
 20
94.574857793
 10
39.5172629608
 20
94.6378855991
 10
39.486794498
 20
94.7061852197
 10
39.4612104123
 20
94.7794031993
 10
39.4406352739
 20
94.8571794771
 10
39.4251668721
 20
94.9391362589
 10
39.4148829824
 20
95.0248680438
 10
39.4098386601
 20
95.1139417062
 10
39.4100605868
 20
95.2059115396
  0
LWPOLYLINE
  5
22B
100
AcDbEntity
  8
ASSI
100
AcDbPolyline
 62
253
  6
CONTINUOUS
 90
4
 70
0
 10
42.9414836807
 20
132.619765486
 10
43.0087600332
 20
132.6933777718
 10
43.0781212103
 20
132.7620768441
 10
43.1492072911
 20
132.8255134506
  0
LWPOLYLINE
  5
22C
100
AcDbEntity
  8
RACCORDO
100
AcDbPolyline
 62
253
  6
CONTINUOUS
 90
6
 70
0
 10
43.1492072911
 20
132.8255134506
 10
43.2216682839
 20
132.8833817253
 10
43.2951567511
 20
132.9353970589
 10
43.3693082049
 20
132.9812999776
 10
43.4437424178
 20
133.0208600077
 10
43.5180836761
 20
133.0538794278
  0
LWPOLYLINE
  5
22D
100
AcDbEntity
  8
ASSI
100
AcDbPolyline
 62
253
  6
CONTINUOUS
 90
4
 70
0
 10
43.1492072911
 20
132.8255134506
 10
43.2216682839
 20
132.8833817253
 10
43.2951567511
 20
132.9353970589
 10
43.3693082049
 20
132.9812999776
  0
LINE
  5
22E
100
AcDbEntity
  8
ASSI
100
AcDbLine
 62
253
  6
CONTINUOUS
 10
43.3693082049
 20
132.9812999776
 11
43.4437424178
 21
133.0208600077
  0
LINE
  5
22F
100
AcDbEntity
  8
26814000
100
AcDbLine
 62
7
  6
CONTINUOUS
 10
46.2839047159
 20
135.6361905784
 11
47.296127
 21
136.1531205411
  0
LINE
  5
230
100
AcDbEntity
  8
26814000
100
AcDbLine
 62
253
  6
CONTINUOUS
 10
46.4414281222
 20
135.6267572488
 11
47.296127
 21
136.0632418688
  0
LINE
  5
231
100
AcDbEntity
  8
26814000
100
AcDbLine
 62
7
  6
CONTINUOUS
 10
49.9769620282
 20
135.6456514718
 11
48.910131116
 21
135.1070702223
  0
LINE
  5
232
100
AcDbEntity
  8
26814000
100
AcDbLine
 62
7
  6
CONTINUOUS
 10
48.3756812374
 20
136.5749802759
 11
49.9769620282
 21
137.3777022794
  0
LINE
  5
233
100
AcDbEntity
  8
26814000
100
AcDbLine
 62
7
  6
CONTINUOUS
 10
49.9769620282
 20
137.3777022794
 11
50.5052291999
 21
137.6411410994
  0
LWPOLYLINE
  5
234
100
AcDbEntity
  8
ASSI
100
AcDbPolyline
 62
7
  6
CONTINUOUS
 90
10
 70
0
 10
43.1651546637
 20
133.0791729755
 10
43.0267272396
 20
133.0128003323
 10
42.8689506272
 20
132.9116915007
 10
42.7182683866
 20
132.7856319511
 10
42.5814133321
 20
132.6401379783
 10
42.4582346541
 20
132.4754203797
 10
42.3505718372
 20
132.2927043428
 10
42.2645067173
 20
132.1025112636
 10
42.2009043027
 20
131.9098021497
 10
42.1588109889
 20
131.7122241066
  0
LINE
  5
235
100
AcDbEntity
  8
ASSI
100
AcDbLine
 62
253
  6
CONTINUOUS
 10
43.4437424178
 20
133.0208600077
 11
43.5180836761
 21
133.0538794278
  0
LWPOLYLINE
  5
236
100
AcDbEntity
  8
RACCORDO
100
AcDbPolyline
 62
7
  6
CONTINUOUS
 90
17
 70
0
 10
43.165942103
 20
133.0794963413
 10
43.1483211742
 20
133.0721362293
 10
43.0559394371
 20
133.028452623
 10
42.966171061
 20
132.9773947202
 10
42.8790092017
 20
132.919022078
 10
42.7948459362
 20
132.8536588816
 10
42.714444933
 20
132.7820045219
 10
42.6377776259
 20
132.7041536784
 10
42.565025351
 20
132.6203185328
 10
42.4971172302
 20
132.5316124135
 10
42.4340846857
 20
132.4382208685
 10
42.3760832856
 20
132.3403246362
 10
42.3239606779
 20
132.2393872892
 10
42.2777803209
 20
132.1356748315
 10
42.2376847222
 20
132.0293586845
 10
42.2042436492
 20
131.9219330716
 10
42.1776118154
 20
131.8140030989
  0
LINE
  5
237
100
AcDbEntity
  8
RACCORDO
100
AcDbLine
 62
7
  6
CONTINUOUS
 10
43.1659375782
 20
133.0795074073
 11
47.0820457769
 21
134.6802930577
  0
LINE
  5
238
100
AcDbEntity
  8
ASSI
100
AcDbLine
 62
7
  6
CONTINUOUS
 10
43.1651501349
 20
133.0791840185
 11
47.0820457769
 21
134.6802930577
  0
LINE
  5
239
100
AcDbEntity
  8
RACCORDO
100
AcDbLine
 62
253
  6
CONTINUOUS
 10
43.5180836761
 20
133.0538794278
 11
47.4302479482
 21
134.6530528857
  0
LINE
  5
23A
100
AcDbEntity
  8
ASSI
100
AcDbLine
 62
253
  6
CONTINUOUS
 10
43.5180836761
 20
133.0538794278
 11
47.4302479482
 21
134.6530528857
  0
LWPOLYLINE
  5
23B
100
AcDbEntity
  8
26814000
100
AcDbPolyline
 62
7
  6
CONTINUOUS
 90
3
 70
0
 10
57.9595356635
 20
138.8660623676
 10
57.9469706438
 20
138.8613633168
 10
57.9410879252
 20
138.8586050249
  0
LWPOLYLINE
  5
23C
100
AcDbEntity
  8
26814000
100
AcDbPolyline
 62
7
  6
CONTINUOUS
 90
10
 70
0
 10
57.9595356635
 20
138.8660623676
 10
57.9687752844
 20
138.8688081666
 10
57.9773384382
 20
138.8710738851
 10
57.9852251251
 20
138.8728595231
 10
57.9924744834
 20
138.8741859277
 10
57.9990473748
 20
138.8750322519
 10
58.0048263841
 20
138.8753359546
 10
58.0098073413
 20
138.8750966188
 10
58.0139944165
 20
138.8743146617
 10
58.0165840976
 20
138.8733182285
  0
LWPOLYLINE
  5
23D
100
AcDbEntity
  8
RACCORDO
100
AcDbPolyline
 62
7
  6
CONTINUOUS
 90
12
 70
0
 10
53.9293851615
 20
87.2804312717
 10
53.9631218999
 20
87.264254576
 10
54.0457565974
 20
87.2304633522
 10
54.1314070714
 20
87.2034894583
 10
54.2196226131
 20
87.1835858648
 10
54.3102120387
 20
87.1709322966
 10
54.4026262222
 20
87.1657549126
 10
54.4962459573
 20
87.1682224117
 10
54.5908810357
 20
87.1784962097
 10
54.6861341781
 20
87.1967263209
 10
54.7813020962
 20
87.2229393731
 10
54.7989956146
 20
87.2287117882
  0
LWPOLYLINE
  5
23E
100
AcDbEntity
  8
ASSI
100
AcDbPolyline
 62
7
  6
CONTINUOUS
 90
8
 70
0
 10
53.9258503864
 20
87.2822205044
 10
53.9624756582
 20
87.2645581476
 10
54.113321221
 20
87.2085383876
 10
54.272635126
 20
87.1752525062
 10
54.4371554276
 20
87.1657703308
 10
54.6044354593
 20
87.1806066434
 10
54.771995595
 20
87.2200203539
 10
54.7976963738
 20
87.2282815753
  0
LINE
  5
23F
100
AcDbEntity
  8
RACCORDO
100
AcDbLine
 62
7
  6
CONTINUOUS
 10
53.9303349739
 20
87.2799424478
 11
39.7952458424
 21
94.3474870135
  0
LINE
  5
240
100
AcDbEntity
  8
RACCORDO
100
AcDbLine
 62
253
  6
CONTINUOUS
 10
53.5373316282
 20
88.1422760189
 11
39.4100605868
 21
95.2059115396
  0
LINE
  5
241
100
AcDbEntity
  8
ASSI
100
AcDbLine
 62
253
  6
CONTINUOUS
 10
53.5373316282
 20
88.1422760189
 11
39.4100605868
 21
95.2059115396
  0
LINE
  5
242
100
AcDbEntity
  8
ASSI
100
AcDbLine
 62
7
  6
CONTINUOUS
 10
53.9303349739
 20
87.2799424478
 11
39.7945455032
 21
94.3478378472
  0
LINE
  5
243
100
AcDbEntity
  8
26814000
100
AcDbLine
 62
7
  6
CONTINUOUS
 10
50.5920808632
 20
137.0201435128
 11
50.0648361475
 21
136.3784357848
  0
LWPOLYLINE
  5
244
100
AcDbEntity
  8
26814000
100
AcDbPolyline
 62
7
  6
CONTINUOUS
 90
12
 70
0
 10
57.9410879252
 20
138.8586050249
 10
57.9348011337
 20
138.8552486513
 10
57.9229467072
 20
138.8477443781
 10
57.9112915272
 20
138.8388718669
 10
57.8997959323
 20
138.8286867563
 10
57.8885046346
 20
138.8172556839
 10
57.8773595682
 20
138.8046086578
 10
57.8662926888
 20
138.7907791216
 10
57.8553465697
 20
138.7758096228
 10
57.8444992685
 20
138.7597266956
 10
57.8336608398
 20
138.7425584413
 10
57.8227764718
 20
138.7243398098
  0
LINE
  5
245
100
AcDbEntity
  8
26814000
100
AcDbLine
 62
7
  6
CONTINUOUS
 10
52.2413564596
 20
135.2261452819
 11
52.7346784748
 21
135.4792288138
  0
LINE
  5
246
100
AcDbEntity
  8
26814000
100
AcDbLine
 62
7
  6
CONTINUOUS
 10
51.4327430047
 20
135.6173100756
 11
57.9407796314
 21
138.8584516811
  0
LINE
  5
247
100
AcDbEntity
  8
26814000
100
AcDbLine
 62
253
  6
CONTINUOUS
 10
51.5082361452
 20
135.5795635053
 11
57.8227764718
 21
138.7243398098
  0
LINE
  5
248
100
AcDbEntity
  8
26814000
100
AcDbLine
 62
7
  6
CONTINUOUS
 10
58.815796793
 20
137.8445962791
 11
54.0781813591
 21
135.5095457645
  0
LINE
  5
249
100
AcDbEntity
  8
26814000
100
AcDbLine
 62
7
  6
CONTINUOUS
 10
52.7346784748
 20
135.4792288138
 11
58.2123184643
 21
138.147560777
  0
LWPOLYLINE
  5
24A
100
AcDbEntity
  8
RACCORDO
100
AcDbPolyline
 62
253
  6
CONTINUOUS
 90
7
 70
0
 10
43.1660785625
 20
133.0795650729
 10
43.2238150623
 20
133.0975896993
 10
43.2798159529
 20
133.105535308
 10
43.3378863812
 20
133.1050863324
 10
43.397390362
 20
133.0962476896
 10
43.4576762097
 20
133.0791161802
 10
43.5180836761
 20
133.0538794278
  0
LWPOLYLINE
  5
24B
100
AcDbEntity
  8
ASSI
100
AcDbPolyline
 62
253
  6
CONTINUOUS
 90
7
 70
0
 10
43.1660785625
 20
133.0795650729
 10
43.2238150623
 20
133.0975896993
 10
43.2798159529
 20
133.105535308
 10
43.3378863812
 20
133.1050863324
 10
43.397390362
 20
133.0962476896
 10
43.4576762097
 20
133.0791161802
 10
43.5180836761
 20
133.0538794278
  0
LINE
  5
24C
100
AcDbEntity
  8
26814000
100
AcDbLine
 62
7
  6
CONTINUOUS
 10
63.4291543119
 20
89.5216725632
 11
63.9563990276
 21
89.4133802912
  0
LINE
  5
24D
100
AcDbEntity
  8
26814000
100
AcDbLine
 62
7
  6
CONTINUOUS
 10
60.022045689
 20
88.4504683784
 11
61.6285817864
 21
87.6472003296
  0
LINE
  5
24E
100
AcDbEntity
  8
26814000
100
AcDbLine
 62
253
  6
CONTINUOUS
 10
59.9574522102
 20
88.5854969197
 11
61.5632286724
 21
87.7826086886
  0
LWPOLYLINE
  5
24F
100
AcDbEntity
  8
ASSI
100
AcDbPolyline
 62
253
  6
CONTINUOUS
 90
9
 70
0
 10
39.1757205232
 20
95.4869626897
 10
39.1771258069
 20
95.4585406652
 10
39.1864266395
 20
95.4190184358
 10
39.2041806506
 20
95.3799630101
 10
39.2301976089
 20
95.341792861
 10
39.2641987465
 20
95.3049169758
 10
39.3058197463
 20
95.269730474
 10
39.3546146455
 20
95.2366103738
 10
39.4100606142
 20
95.205911552
  0
LWPOLYLINE
  5
250
100
AcDbEntity
  8
RACCORDO
100
AcDbPolyline
 62
253
  6
CONTINUOUS
 90
9
 70
0
 10
39.175729029
 20
95.4872547052
 10
39.1771258069
 20
95.4585406652
 10
39.1864266395
 20
95.4190184358
 10
39.2041806506
 20
95.3799630101
 10
39.2301976089
 20
95.341792861
 10
39.2641987465
 20
95.3049169758
 10
39.3058197463
 20
95.269730474
 10
39.3546146455
 20
95.2366103738
 10
39.4100606142
 20
95.205911552
  0
LWPOLYLINE
  5
251
100
AcDbEntity
  8
ASSI
100
AcDbPolyline
 62
7
  6
CONTINUOUS
 90
9
 70
0
 10
39.1757301157
 20
95.4869624036
 10
39.176357198
 20
95.3735980397
 10
39.1974883952
 20
95.1807059632
 10
39.2441645271
 20
94.9973248426
 10
39.3163485679
 20
94.8258887599
 10
39.412358571
 20
94.6710781089
 10
39.5286999543
 20
94.5374166163
 10
39.6629049989
 20
94.4262430765
 10
39.7944651239
 20
94.3478911001
  0
LWPOLYLINE
  5
252
100
AcDbEntity
  8
RACCORDO
100
AcDbPolyline
 62
7
  6
CONTINUOUS
 90
15
 70
0
 10
39.1757386107
 20
95.4872544159
 10
39.1749856521
 20
95.437655693
 10
39.1796233581
 20
95.3196725577
 10
39.1931845246
 20
95.2059802171
 10
39.2153088766
 20
95.0969701539
 10
39.2456874526
 20
94.9927967562
 10
39.2840694973
 20
94.8936712747
 10
39.3299945489
 20
94.8002049771
 10
39.3830774248
 20
94.7127143859
 10
39.4431188041
 20
94.6313078808
 10
39.5095438249
 20
94.556584718
 10
39.5817552158
 20
94.4889865244
 10
39.6595075891
 20
94.4286256885
 10
39.7422606396
 20
94.3759076604
 10
39.7963100403
 20
94.3469699081
  0
LINE
  5
253
100
AcDbEntity
  8
ASSI
100
AcDbLine
 62
7
  6
CONTINUOUS
 10
39.1757356661
 20
95.4874721257
 11
39.1757205232
 21
95.4869626897
  0
LINE
  5
254
100
AcDbEntity
  8
RACCORDO
100
AcDbLine
 62
7
  6
CONTINUOUS
 10
39.175735674
 20
95.4874723813
 11
39.175729029
 21
95.4872547052
  0
LWPOLYLINE
  5
255
100
AcDbEntity
  8
RACCORDO
100
AcDbPolyline
 62
253
  6
CONTINUOUS
 90
13
 70
0
 10
39.4100605868
 20
95.2059115396
 10
39.5150076885
 20
98.164049907
 10
39.6460893653
 20
101.1341310862
 10
39.8032894211
 20
104.115782104
 10
39.9865884078
 20
107.1086284843
 10
40.1959633726
 20
110.1122945335
 10
40.4313878638
 20
113.1264033891
 10
40.6928321828
 20
116.1505767558
 10
40.9802636552
 20
119.1844349295
 10
41.2936463852
 20
122.2275970851
 10
41.6329409819
 20
125.2796812741
 10
41.9981045613
 20
128.3403044713
 10
42.3890910248
 20
131.4090826014
  0
LWPOLYLINE
  5
256
100
AcDbEntity
  8
ASSI
100
AcDbPolyline
 62
253
  6
CONTINUOUS
 90
13
 70
0
 10
39.4100605868
 20
95.2059115396
 10
39.5150076885
 20
98.164049907
 10
39.6460893653
 20
101.1341310862
 10
39.8032894211
 20
104.115782104
 10
39.9865884078
 20
107.1086284843
 10
40.1959633726
 20
110.1122945335
 10
40.4313878638
 20
113.1264033891
 10
40.6928321828
 20
116.1505767558
 10
40.9802636552
 20
119.1844349295
 10
41.2936463852
 20
122.2275970851
 10
41.6329409819
 20
125.2796812741
 10
41.9981045613
 20
128.3403044713
 10
42.3890910248
 20
131.4090826014
  0
LINE
  5
257
100
AcDbEntity
  8
ASSI
100
AcDbLine
 62
7
  6
CONTINUOUS
 10
39.3115100055
 20
99.1987001146
 11
39.1757356661
 21
95.4874721257
  0
LWPOLYLINE
  5
258
100
AcDbEntity
  8
RACCORDO
100
AcDbPolyline
 62
7
  6
CONTINUOUS
 90
3
 70
0
 10
39.4093402386
 20
101.3649467163
 10
39.2782735605
 20
98.3846702545
 10
39.175735674
 20
95.4874723813
  0
LWPOLYLINE
  5
259
100
AcDbEntity
  8
ASSI
100
AcDbPolyline
 62
253
  6
CONTINUOUS
 90
10
 70
0
 10
42.1532003065
 20
131.6729839085
 10
42.1527385382
 20
131.6687596965
 10
42.1540736679
 20
131.6363229857
 10
42.1638987914
 20
131.6031672295
 10
42.1821086349
 20
131.5696476834
 10
42.2085080847
 20
131.5361235009
 10
42.2428142773
 20
131.5029538851
 10
42.2846596307
 20
131.4704942403
 10
42.3335957824
 20
131.4390923631
 10
42.3890983941
 20
131.4090847169
  0
LWPOLYLINE
  5
25A
100
AcDbEntity
  8
RACCORDO
100
AcDbPolyline
 62
253
  6
CONTINUOUS
 90
10
 70
0
 10
42.1532513214
 20
131.6733794708
 10
42.1527385382
 20
131.6687596965
 10
42.1540736679
 20
131.6363229857
 10
42.1638987914
 20
131.6031672295
 10
42.1821086349
 20
131.5696476834
 10
42.2085080847
 20
131.5361235009
 10
42.2428142773
 20
131.5029538851
 10
42.2846596307
 20
131.4704942403
 10
42.3335957824
 20
131.4390923631
 10
42.3890983941
 20
131.4090847169
  0
LWPOLYLINE
  5
25B
100
AcDbEntity
  8
RACCORDO
100
AcDbPolyline
 62
7
  6
CONTINUOUS
 90
10
 70
0
 10
41.7694173622
 20
128.6624622404
 10
41.402642268
 20
125.5916911955
 10
41.0619092565
 20
122.5294367244
 10
40.7472698798
 20
119.4761304221
 10
40.4587621089
 20
116.4321514652
 10
40.1964201615
 20
113.3978585844
 10
39.9602785768
 20
110.3736247477
 10
39.7503666747
 20
107.3598210314
 10
39.5667116594
 20
104.3568035103
 10
39.4093402386
 20
101.3649467163
  0
LWPOLYLINE
  5
25C
100
AcDbEntity
  8
ASSI
100
AcDbPolyline
 62
7
  6
CONTINUOUS
 90
9
 70
0
 10
42.1532569795
 20
131.6734679869
 10
41.6641659979
 20
127.8023705344
 10
41.1851660276
 20
123.6634848919
 10
40.7536515664
 20
119.5405867431
 10
40.3697263186
 20
115.4346549043
 10
40.0334767041
 20
111.3465994195
 10
39.7449791142
 20
107.2773097783
 10
39.5043027203
 20
103.2276890621
 10
39.3115100055
 20
99.1987001146
  0
LINE
  5
25D
100
AcDbEntity
  8
RACCORDO
100
AcDbLine
 62
7
  6
CONTINUOUS
 10
42.1532569581
 20
131.6734678237
 11
41.7694173622
 21
128.6624622404
  0
LINE
  5
25E
100
AcDbEntity
  8
ASSI
100
AcDbLine
 62
7
  6
CONTINUOUS
 10
42.1588109889
 20
131.7122241066
 11
42.1532003065
 21
131.6729839085
  0
LWPOLYLINE
  5
25F
100
AcDbEntity
  8
RACCORDO
100
AcDbPolyline
 62
253
  6
CONTINUOUS
 90
17
 70
0
 10
42.3890910248
 20
131.4090826013
 10
42.4044782432
 20
131.5067992002
 10
42.4249782152
 20
131.6055433531
 10
42.4504866029
 20
131.7048207276
 10
42.4808708217
 20
131.8041294615
 10
42.5159791864
 20
131.9029781907
 10
42.5556443934
 20
132.0008881196
 10
42.5996742239
 20
132.09738429
 10
42.6478428631
 20
132.1919685398
 10
42.6998985644
 20
132.2841392171
 10
42.7555639324
 20
132.3734186274
 10
42.8145676721
 20
132.4593827225
 10
42.876640324
 20
132.5416305399
 10
42.9414836807
 20
132.619765486
 10
43.0087600332
 20
132.6933777718
 10
43.0781212103
 20
132.7620768441
 10
43.1492072911
 20
132.8255134506
  0
LWPOLYLINE
  5
260
100
AcDbEntity
  8
ASSI
100
AcDbPolyline
 62
253
  6
CONTINUOUS
 90
14
 70
0
 10
42.3890910248
 20
131.4090826013
 10
42.4044782432
 20
131.5067992002
 10
42.4249782152
 20
131.6055433531
 10
42.4504866029
 20
131.7048207276
 10
42.4808708217
 20
131.8041294615
 10
42.5159791864
 20
131.9029781907
 10
42.5556443934
 20
132.0008881196
 10
42.5996742239
 20
132.09738429
 10
42.6478428631
 20
132.1919685398
 10
42.6998985644
 20
132.2841392171
 10
42.7555639324
 20
132.3734186274
 10
42.8145676721
 20
132.4593827225
 10
42.876640324
 20
132.5416305399
 10
42.9414836807
 20
132.619765486
  0
LWPOLYLINE
  5
261
100
AcDbEntity
  8
RACCORDO
100
AcDbPolyline
 62
7
  6
CONTINUOUS
 90
3
 70
0
 10
42.1776118154
 20
131.8140030989
 10
42.1577608044
 20
131.7053490453
 10
42.1532513214
 20
131.6733794708
  0
LINE
  5
262
100
AcDbEntity
  8
26814000
100
AcDbLine
 62
7
  6
CONTINUOUS
 10
60.1428706214
 20
136.3747220455
 11
58.7450861149
 21
135.6758297923
  0
LWPOLYLINE
  5
263
100
AcDbEntity
  8
RACCORDO
100
AcDbPolyline
 62
7
  6
CONTINUOUS
 90
6
 70
0
 10
57.755024201
 20
134.889395423
 10
57.7463179727
 20
134.8850464896
 10
57.7382162116
 20
134.8803675712
 10
57.7303989374
 20
134.8752100762
 10
57.7228716542
 20
134.8695781148
 10
57.716989659
 20
134.8646689206
  0
LINE
  5
264
100
AcDbEntity
  8
26814000
100
AcDbLine
 62
7
  6
CONTINUOUS
 10
58.3915327243
 20
136.4051646769
 11
58.815796793
 21
136.6127620977
  0
LINE
  5
265
100
AcDbEntity
  8
26814000
100
AcDbLine
 62
7
  6
CONTINUOUS
 10
60.8018663728
 20
137.2347948594
 11
58.7450861149
 21
136.2283879816
  0
LINE
  5
266
100
AcDbEntity
  8
RACCORDO
100
AcDbLine
 62
253
  6
CONTINUOUS
 10
58.0232346971
 20
134.8958471109
 11
58.0800126781
 21
134.9232007781
  0
LINE
  5
267
100
AcDbEntity
  8
RACCORDO
100
AcDbLine
 62
253
  6
CONTINUOUS
 10
58.0152265096
 20
134.8920515681
 11
58.0232346971
 21
134.8958471109
  0
LINE
  5
268
100
AcDbEntity
  8
RACCORDO
100
AcDbLine
 62
253
  6
CONTINUOUS
 10
58.0800126781
 20
134.9232007781
 11
58.0923413626
 21
134.9290375615
  0
LINE
  5
269
100
AcDbEntity
  8
RACCORDO
100
AcDbLine
 62
253
  6
CONTINUOUS
 10
58.0072994335
 20
134.8883434785
 11
58.0152265096
 21
134.8920515681
  0
LINE
  5
26A
100
AcDbEntity
  8
RACCORDO
100
AcDbLine
 62
253
  6
CONTINUOUS
 10
58.0923413626
 20
134.9290375615
 11
58.1018572258
 21
134.9334787181
  0
LINE
  5
26B
100
AcDbEntity
  8
RACCORDO
100
AcDbLine
 62
253
  6
CONTINUOUS
 10
57.9672148077
 20
134.8698271469
 11
58.0072994335
 21
134.8883434785
  0
LINE
  5
26C
100
AcDbEntity
  8
RACCORDO
100
AcDbLine
 62
7
  6
CONTINUOUS
 10
57.8048230762
 20
134.9123601617
 11
57.7550597056
 21
134.8894118203
  0
LINE
  5
26D
100
AcDbEntity
  8
RACCORDO
100
AcDbLine
 62
253
  6
CONTINUOUS
 10
58.1018572258
 20
134.9334787181
 11
58.1116213044
 21
134.9379681468
  0
LWPOLYLINE
  5
26E
100
AcDbEntity
  8
RACCORDO
100
AcDbPolyline
 62
253
  6
CONTINUOUS
 90
17
 70
0
 10
58.9591876468
 20
134.9971326822
 10
58.9650010922
 20
134.9997685497
 10
58.9708005232
 20
135.002104806
 10
58.9765761255
 20
135.0041374976
 10
58.9823181255
 20
135.0058631848
 10
58.9880168063
 20
135.0072789472
 10
58.9936625241
 20
135.0083823889
 10
58.999245725
 20
135.0091716428
 10
59.0047569608
 20
135.0096453732
 10
59.0101869051
 20
135.0098027783
 10
59.0155263691
 20
135.009643592
 10
59.020766317
 20
135.0091680834
 10
59.0258978814
 20
135.0083770574
 10
59.0309123786
 20
135.0072718525
 10
59.0358013226
 20
135.0058543391
 10
59.0405564402
 20
135.0041269158
 10
59.0451282254
 20
135.0021107892
  0
LINE
  5
26F
100
AcDbEntity
  8
RACCORDO
100
AcDbLine
 62
253
  6
CONTINUOUS
 10
58.1116213044
 20
134.9379681468
 11
58.1182758059
 21
134.940985053
  0
LWPOLYLINE
  5
270
100
AcDbEntity
  8
RACCORDO
100
AcDbPolyline
 62
253
  6
CONTINUOUS
 90
22
 70
0
 10
57.788864093
 20
134.9050238066
 10
57.7919924062
 20
134.9064337386
 10
57.8012408687
 20
134.9102076327
 10
57.8107004829
 20
134.9134900882
 10
57.8203611233
 20
134.9162775914
 10
57.8302124489
 20
134.9185671586
 10
57.8402439149
 20
134.920356339
 10
57.8504447834
 20
134.9216432175
 10
57.8608041353
 20
134.9224264165
 10
57.8713108819
 20
134.9227050977
 10
57.8819537765
 20
134.9224789629
 10
57.8927214271
 20
134.921748254
 10
57.9036023077
 20
134.9205137532
 10
57.9145847714
 20
134.9187767819
 10
57.9256570623
 20
134.9165391995
 10
57.9368073287
 20
134.913803401
 10
57.9480236352
 20
134.9105723148
 10
57.9592939756
 20
134.9068493996
 10
57.9706062862
 20
134.9026386404
 10
57.981948458
 20
134.8979445444
 10
57.9933083504
 20
134.8927721363
 10
58.0046738036
 20
134.8871269526
  0
LINE
  5
271
100
AcDbEntity
  8
RACCORDO
100
AcDbLine
 62
253
  6
CONTINUOUS
 10
58.1182758059
 20
134.940985053
 11
58.1250515947
 21
134.9440189125
  0
LINE
  5
272
100
AcDbEntity
  8
RACCORDO
100
AcDbLine
 62
253
  6
CONTINUOUS
 10
58.1250515947
 20
134.9440189125
 11
58.1319534909
 21
134.9470675763
  0
LINE
  5
273
100
AcDbEntity
  8
RACCORDO
100
AcDbLine
 62
253
  6
CONTINUOUS
 10
58.1319534909
 20
134.9470675763
 11
58.1389848302
 21
134.9501296497
  0
LINE
  5
274
100
AcDbEntity
  8
RACCORDO
100
AcDbLine
 62
253
  6
CONTINUOUS
 10
58.1389848302
 20
134.9501296497
 11
58.1461509039
 21
134.9532031453
  0
LINE
  5
275
100
AcDbEntity
  8
RACCORDO
100
AcDbLine
 62
253
  6
CONTINUOUS
 10
58.1461509039
 20
134.9532031453
 11
58.1534562878
 21
134.9562856918
  0
LINE
  5
276
100
AcDbEntity
  8
RACCORDO
100
AcDbLine
 62
253
  6
CONTINUOUS
 10
58.1534562878
 20
134.9562856918
 11
58.1609040156
 21
134.9593756887
  0
LINE
  5
277
100
AcDbEntity
  8
RACCORDO
100
AcDbLine
 62
253
  6
CONTINUOUS
 10
58.1609040156
 20
134.9593756887
 11
58.1684985108
 21
134.9624706619
  0
LINE
  5
278
100
AcDbEntity
  8
RACCORDO
100
AcDbLine
 62
253
  6
CONTINUOUS
 10
58.1684985108
 20
134.9624706619
 11
58.1762441963
 21
134.9655680673
  0
LINE
  5
279
100
AcDbEntity
  8
RACCORDO
100
AcDbLine
 62
253
  6
CONTINUOUS
 10
58.1762441963
 20
134.9655680673
 11
58.1841439257
 21
134.9686661553
  0
LINE
  5
27A
100
AcDbEntity
  8
RACCORDO
100
AcDbLine
 62
253
  6
CONTINUOUS
 10
58.1841439257
 20
134.9686661553
 11
58.1922019207
 21
134.9717622519
  0
LINE
  5
27B
100
AcDbEntity
  8
RACCORDO
100
AcDbLine
 62
253
  6
CONTINUOUS
 10
58.1922019207
 20
134.9717622519
 11
58.2004218702
 21
134.9748534091
  0
LINE
  5
27C
100
AcDbEntity
  8
RACCORDO
100
AcDbLine
 62
253
  6
CONTINUOUS
 10
58.2004218702
 20
134.9748534091
 11
58.2088061778
 21
134.9779376292
  0
LINE
  5
27D
100
AcDbEntity
  8
RACCORDO
100
AcDbLine
 62
253
  6
CONTINUOUS
 10
58.2088061778
 20
134.9779376292
 11
58.2173581693
 21
134.9810117965
  0
LINE
  5
27E
100
AcDbEntity
  8
RACCORDO
100
AcDbLine
 62
253
  6
CONTINUOUS
 10
58.2173581693
 20
134.9810117965
 11
58.2260819559
 21
134.9840729984
  0
LINE
  5
27F
100
AcDbEntity
  8
RACCORDO
100
AcDbLine
 62
253
  6
CONTINUOUS
 10
58.2260819559
 20
134.9840729984
 11
58.2349799448
 21
134.9871191538
  0
LINE
  5
280
100
AcDbEntity
  8
RACCORDO
100
AcDbLine
 62
253
  6
CONTINUOUS
 10
58.2349799448
 20
134.9871191538
 11
58.2440555333
 21
134.9901470293
  0
LINE
  5
281
100
AcDbEntity
  8
RACCORDO
100
AcDbLine
 62
253
  6
CONTINUOUS
 10
58.2440555333
 20
134.9901470293
 11
58.2533110228
 21
134.9931529588
  0
LINE
  5
282
100
AcDbEntity
  8
RACCORDO
100
AcDbLine
 62
253
  6
CONTINUOUS
 10
58.2533110228
 20
134.9931529588
 11
58.2627480143
 21
134.9961345114
  0
LINE
  5
283
100
AcDbEntity
  8
RACCORDO
100
AcDbLine
 62
253
  6
CONTINUOUS
 10
58.2627480143
 20
134.9961345114
 11
58.2723688937
 21
134.9990880197
  0
LINE
  5
284
100
AcDbEntity
  8
RACCORDO
100
AcDbLine
 62
253
  6
CONTINUOUS
 10
58.2723688937
 20
134.9990880197
 11
58.2821756974
 21
135.0020096458
  0
LINE
  5
285
100
AcDbEntity
  8
RACCORDO
100
AcDbLine
 62
253
  6
CONTINUOUS
 10
58.2821756974
 20
135.0020096458
 11
58.2921695946
 21
135.0048967652
  0
LWPOLYLINE
  5
286
100
AcDbEntity
  8
0
100
AcDbPolyline
 62
7
  6
CONTINUOUS
 90
3
 70
0
 10
47.4444289619
 20
97.1992947138
 10
47.4968736197
 20
97.1762363129
 10
47.514688566
 20
97.1703886505
  0
LWPOLYLINE
  5
287
100
AcDbEntity
  8
ASSI
100
AcDbPolyline
 62
7
  6
CONTINUOUS
 90
3
 70
0
 10
47.4444289619
 20
97.1992947138
 10
47.4968736197
 20
97.1762363129
 10
47.514688566
 20
97.1703886505
  0
LINE
  5
288
100
AcDbEntity
  8
ASSI
100
AcDbLine
 62
253
  6
CONTINUOUS
 10
46.74407844
 20
96.8053715659
 11
46.6693466843
 21
96.8387699602
  0
LWPOLYLINE
  5
289
100
AcDbEntity
  8
RACCORDO
100
AcDbPolyline
 62
253
  6
CONTINUOUS
 90
55
 70
0
 10
46.5581261441
 20
97.1473724264
 10
46.5952574833
 20
97.130227024
 10
46.6324913338
 20
97.1158672252
 10
46.669702395
 20
97.1043420101
 10
46.7067471064
 20
97.0956944914
 10
46.7435192599
 20
97.0899479236
 10
46.7799487916
 20
97.0871200067
 10
46.8159482302
 20
97.0872355135
 10
46.8513541066
 20
97.0903125192
 10
46.8859853794
 20
97.0963419723
 10
46.9197196868
 20
97.1053008771
 10
46.9524478114
 20
97.1171583033
 10
46.9840205397
 20
97.1318528902
 10
47.0143066232
 20
97.1493048664
 10
47.0432404155
 20
97.1694570711
 10
47.0707755373
 20
97.1922715832
 10
47.0968349803
 20
97.2176922802
 10
47.1213101424
 20
97.2456213324
 10
47.1441093254
 20
97.2759561579
 10
47.1651551092
 20
97.3085934123
 10
47.1843771297
 20
97.3434236218
 10
47.201706265
 20
97.3803191963
 10
47.2170765674
 20
97.4191289752
 10
47.2304494163
 20
97.459743328
 10
47.241798241
 20
97.5020942914
 10
47.2510844049
 20
97.5460890634
 10
47.2582558114
 20
97.5915438859
 10
47.2632743219
 20
97.6382481692
 10
47.2661218947
 20
97.686024927
 10
47.2667908654
 20
97.7347295364
 10
47.2652790586
 20
97.7841887921
 10
47.2615928807
 20
97.8342286197
 10
47.2557455116
 20
97.8846846507
 10
47.2477557801
 20
97.9353951905
 10
47.2376488103
 20
97.9861948612
 10
47.2254593426
 20
98.0369043759
 10
47.2112314569
 20
98.0873409589
 10
47.1950167017
 20
98.1373263391
 10
47.1768689762
 20
98.1866982677
 10
47.156845973
 20
98.2353000749
 10
47.1350114819
 20
98.2829741344
 10
47.1114422351
 20
98.3295503691
 10
47.0862246462
 20
98.3748585471
 10
47.0594506065
 20
98.4187369908
 10
47.0312068956
 20
98.4610466439
 10
47.0015800008
 20
98.5016579196
 10
46.9706489626
 20
98.5404570869
 10
46.9385374698
 20
98.5772839837
 10
46.9054097503
 20
98.6119570428
 10
46.8714184018
 20
98.6443360085
 10
46.8366481683
 20
98.6743587802
 10
46.8011669444
 20
98.7019734323
 10
46.7650763554
 20
98.7270989156
 10
46.7285150911
 20
98.7496368997
 10
46.6916062343
 20
98.76951179
  0
LINE
  5
28A
100
AcDbEntity
  8
26814000
100
AcDbLine
 62
253
  6
CONTINUOUS
 10
61.5632286724
 20
88.0359800823
 11
59.9574522102
 21
88.8388683134
  0
LINE
  5
28B
100
AcDbEntity
  8
26814000
100
AcDbLine
 62
253
  6
CONTINUOUS
 10
61.6521312484
 20
88.267417142
 11
60.0453263295
 21
89.0708196014
  0
LINE
  5
28C
100
AcDbEntity
  8
26814000
100
AcDbLine
 62
7
  6
CONTINUOUS
 10
59.2540603137
 20
90.4602915095
 11
61.7149345959
 21
89.2298543685
  0
LINE
  5
28D
100
AcDbEntity
  8
26814000
100
AcDbLine
 62
7
  6
CONTINUOUS
 10
62.2744492805
 20
89.0124765595
 11
61.8651842842
 21
89.2171090576
  0
LINE
  5
28E
100
AcDbEntity
  8
26814000
100
AcDbLine
 62
7
  6
CONTINUOUS
 10
59.2799454402
 20
90.7748648848
 11
61.9624219693
 21
89.4336266203
  0
LINE
  5
28F
100
AcDbEntity
  8
26814000
100
AcDbLine
 62
253
  6
CONTINUOUS
 10
63.4291543119
 20
89.5216725632
 11
63.385731986
 21
89.5433837261
  0
LWPOLYLINE
  5
290
100
AcDbEntity
  8
RACCORDO
100
AcDbPolyline
 62
7
  6
CONTINUOUS
 90
46
 70
0
 10
46.5841082325
 20
97.0920429761
 10
46.5435578378
 20
97.1138290222
 10
46.5035523211
 20
97.1383507068
 10
46.4641967447
 20
97.1655308921
 10
46.4255827392
 20
97.1952974115
 10
46.3878218773
 20
97.2275583852
 10
46.3510472247
 20
97.2621918099
 10
46.3153413914
 20
97.299112342
 10
46.2808173202
 20
97.3381987014
 10
46.2476457528
 20
97.3792419307
 10
46.2159288765
 20
97.4220871841
 10
46.1857294179
 20
97.4666235682
 10
46.1571463051
 20
97.5126803482
 10
46.1302642687
 20
97.5600908916
 10
46.1051370916
 20
97.6087320621
 10
46.0818138162
 20
97.6584905385
 10
46.0603523953
 20
97.709233967
 10
46.0408197239
 20
97.7607988692
 10
46.0232750907
 20
97.8130229355
 10
46.0077712787
 20
97.8657436173
 10
45.9943502861
 20
97.9188176548
 10
45.9830493089
 20
97.972111314
 10
45.9739034908
 20
98.0254955209
 10
45.9669528735
 20
98.0787922122
 10
45.9622307458
 20
98.131798158
 10
45.9597566637
 20
98.1843424905
 10
45.9595430286
 20
98.236295971
 10
45.9616010583
 20
98.2875257611
 10
45.9659447342
 20
98.3379392265
 10
45.9725772259
 20
98.3873366622
 10
45.9814707972
 20
98.4354428599
 10
45.9926038442
 20
98.4821317888
 10
46.0059500018
 20
98.5272750272
 10
46.0214320407
 20
98.5706276826
 10
46.0389879575
 20
98.6120631799
 10
46.0585706584
 20
98.6515061156
 10
46.0800940437
 20
98.688816348
 10
46.103488313
 20
98.7239091049
 10
46.1286761163
 20
98.7566992173
 10
46.1555345153
 20
98.7870641361
 10
46.1839469709
 20
98.8149200836
 10
46.2138252839
 20
98.8402260779
 10
46.2450665056
 20
98.8629336863
 10
46.2775533067
 20
98.8829942828
 10
46.3111574543
 20
98.9003660715
 10
46.3457484944
 20
98.915020197
  0
LWPOLYLINE
  5
291
100
AcDbEntity
  8
RACCORDO
100
AcDbPolyline
 62
253
  6
CONTINUOUS
 90
3
 70
0
 10
46.7473337256
 20
96.9589562792
 10
46.6796124855
 20
96.996282952
 10
46.612526549
 20
97.040242139
  0
LWPOLYLINE
  5
292
100
AcDbEntity
  8
ASSI
100
AcDbPolyline
 62
253
  6
CONTINUOUS
 90
3
 70
0
 10
46.7473337256
 20
96.9589562792
 10
46.6796124855
 20
96.996282952
 10
46.612526549
 20
97.040242139
  0
LWPOLYLINE
  5
293
100
AcDbEntity
  8
RACCORDO
100
AcDbPolyline
 62
253
  6
CONTINUOUS
 90
37
 70
0
 10
46.6693466843
 20
96.8387699602
 10
46.5953061717
 20
96.8796937225
 10
46.5228827467
 20
96.9271901057
 10
46.4520771272
 20
96.9812594187
 10
46.3824192857
 20
97.0423481918
 10
46.3143821353
 20
97.1100111349
 10
46.249381328
 20
97.1829110493
 10
46.1875033963
 20
97.2611486891
 10
46.1286669444
 20
97.3446255041
 10
46.0740356471
 20
97.4317053017
 10
46.0237096594
 20
97.5224314235
 10
45.9775950047
 20
97.6167631703
 10
45.9365632762
 20
97.7129379066
 10
45.900701283
 20
97.8110243246
 10
45.8699281191
 20
97.9109562449
 10
45.8448620383
 20
98.0107679658
 10
45.8256226381
 20
98.1104406951
 10
45.8120944721
 20
98.209994978
 10
45.8045407113
 20
98.3075230425
 10
45.8030774954
 20
98.4029951213
 10
45.8075902144
 20
98.4964416108
 10
45.8179929946
 20
98.5860437424
 10
45.8344002957
 20
98.6717205671
 10
45.8566961533
 20
98.7535523739
 10
45.8844461254
 20
98.8299610081
 10
45.9177573949
 20
98.9008415106
 10
45.9565186216
 20
98.9662970643
 10
45.9999650621
 20
99.0250606653
 10
46.0481775982
 20
99.0769932301
 10
46.1010694699
 20
99.1222313508
 10
46.1576226972
 20
99.159920791
 10
46.2178962817
 20
99.1899194147
 10
46.2818250218
 20
99.2123667425
 10
46.3482037462
 20
99.2268306526
 10
46.4171164927
 20
99.2331494018
 10
46.4884740988
 20
99.2314825783
 10
46.5608115052
 20
99.2218800218
  0
LWPOLYLINE
  5
294
100
AcDbEntity
  8
ASSI
100
AcDbPolyline
 62
253
  6
CONTINUOUS
 90
5
 70
0
 10
46.6693466843
 20
96.8387699602
 10
46.5953061717
 20
96.8796937225
 10
46.5228827467
 20
96.9271901057
 10
46.4520771272
 20
96.9812594187
 10
46.3824192857
 20
97.0423481918
  0
LINE
  5
295
100
AcDbEntity
  8
RACCORDO
100
AcDbLine
 62
253
  6
CONTINUOUS
 10
46.612526549
 20
97.040242139
 11
46.5465094364
 21
97.0905785788
  0
LWPOLYLINE
  5
296
100
AcDbEntity
  8
ASSI
100
AcDbPolyline
 62
253
  6
CONTINUOUS
 90
4
 70
0
 10
46.612526549
 20
97.040242139
 10
46.5465094364
 20
97.0905785788
 10
46.4819551221
 20
97.1470127095
 10
46.4601814509
 20
97.1686261763
  0
LWPOLYLINE
  5
297
100
AcDbEntity
  8
RACCORDO
100
AcDbPolyline
 62
253
  6
CONTINUOUS
 90
3
 70
0
 10
46.5465094364
 20
97.0905785788
 10
46.4819551221
 20
97.1470127095
 10
46.4601814509
 20
97.1686261763
  0
LWPOLYLINE
  5
298
100
AcDbEntity
  8
ASSI
100
AcDbPolyline
 62
253
  6
CONTINUOUS
 90
30
 70
0
 10
46.3824192857
 20
97.0423481918
 10
46.3143821353
 20
97.1100111349
 10
46.249381328
 20
97.1829110493
 10
46.1875033963
 20
97.2611486891
 10
46.1286669444
 20
97.3446255041
 10
46.0740356471
 20
97.4317053017
 10
46.0237096594
 20
97.5224314235
 10
45.9775950047
 20
97.6167631703
 10
45.9365632762
 20
97.7129379066
 10
45.900701283
 20
97.8110243246
 10
45.8699281191
 20
97.9109562449
 10
45.8448620383
 20
98.0107679658
 10
45.8256226381
 20
98.1104406951
 10
45.8120944721
 20
98.209994978
 10
45.8045407113
 20
98.3075230425
 10
45.8030774954
 20
98.4029951213
 10
45.8075902144
 20
98.4964416108
 10
45.8179929946
 20
98.5860437424
 10
45.8344002957
 20
98.6717205671
 10
45.8566961533
 20
98.7535523739
 10
45.8844461254
 20
98.8299610081
 10
45.9177573949
 20
98.9008415106
 10
45.9565186216
 20
98.9662970643
 10
45.9999650621
 20
99.0250606653
 10
46.0481775982
 20
99.0769932301
 10
46.1010694699
 20
99.1222313508
 10
46.1576226972
 20
99.159920791
 10
46.2178962817
 20
99.1899194147
 10
46.2818250218
 20
99.2123667425
 10
46.3482037462
 20
99.2268306526
  0
LINE
  5
299
100
AcDbEntity
  8
RACCORDO
100
AcDbLine
 62
7
  6
CONTINUOUS
 10
56.8629087366
 20
134.1171820757
 11
57.7169571202
 21
134.8646401325
  0
LINE
  5
29A
100
AcDbEntity
  8
RACCORDO
100
AcDbLine
 62
253
  6
CONTINUOUS
 10
57.0168112913
 20
134.0402307983
 11
57.9656098829
 21
134.8706136726
  0
LINE
  5
29B
100
AcDbEntity
  8
26814000
100
AcDbLine
 62
7
  6
CONTINUOUS
 10
63.7655442613
 20
135.3697225449
 11
59.0279288274
 21
133.0346720303
  0
LWPOLYLINE
  5
29C
100
AcDbEntity
  8
0
100
AcDbPolyline
 62
253
  6
CONTINUOUS
 90
22
 70
0
 10
73.6732255474
 20
139.7042114807
 10
73.68479349
 20
139.7097636116
 10
73.6963490454
 20
139.7148461163
 10
73.7078798395
 20
139.7194535523
 10
73.719373525
 20
139.7235809859
 10
73.7308177941
 20
139.7272239973
 10
73.7422003919
 20
139.7303786854
 10
73.7535091299
 20
139.7330416723
 10
73.7647318982
 20
139.7352101062
 10
73.7758566792
 20
139.7368816651
 10
73.7868715601
 20
139.7380545591
 10
73.7977647461
 20
139.7387275323
 10
73.8085245723
 20
139.738899864
 10
73.819139517
 20
139.7385713696
 10
73.8295982133
 20
139.7377424009
 10
73.8398894619
 20
139.7364138457
 10
73.8500022426
 20
139.7345871265
 10
73.8599257264
 20
139.7322641995
 10
73.8696492869
 20
139.729447552
 10
73.879162512
 20
139.7261402003
 10
73.8884552146
 20
139.7223456859
 10
73.8968323451
 20
139.7184123743
  0
LINE
  5
29D
100
AcDbEntity
  8
0
100
AcDbLine
 62
7
  6
CONTINUOUS
 10
72.3690174028
 20
139.6047952301
 11
63.6583958315
 21
135.5819415284
  0
LINE
  5
29E
100
AcDbEntity
  8
0
100
AcDbLine
 62
253
  6
CONTINUOUS
 10
72.5858401711
 20
139.5873643952
 11
63.8767339674
 21
135.565212385
  0
LWPOLYLINE
  5
29F
100
AcDbEntity
  8
0
100
AcDbPolyline
 62
253
  6
CONTINUOUS
 90
18
 70
0
 10
73.5837828283
 20
139.7098918382
 10
73.5882677616
 20
139.7119528413
 10
73.5928890605
 20
139.7137196304
 10
73.5976406654
 20
139.715190058
 10
73.6025148693
 20
139.716361739
 10
73.6075037661
 20
139.717232773
 10
73.6125992639
 20
139.7178017472
 10
73.6177930978
 20
139.7180677386
 10
73.6230768433
 20
139.7180303158
 10
73.6284419302
 20
139.7176895396
 10
73.6338796563
 20
139.7170459626
 10
73.6393812016
 20
139.7161006288
 10
73.6449376425
 20
139.7148550714
 10
73.6505399665
 20
139.7133113109
 10
73.6561790866
 20
139.7114718511
 10
73.6618458561
 20
139.7093396757
 10
73.6675310835
 20
139.706918243
 10
73.6732255474
 20
139.7042114807
  0
LWPOLYLINE
  5
2A0
100
AcDbEntity
  8
0
100
AcDbPolyline
 62
253
  6
CONTINUOUS
 90
24
 70
0
 10
72.3690142775
 20
139.6047937867
 10
72.3762379693
 20
139.6079468364
 10
72.3845492723
 20
139.6111395343
 10
72.3930277698
 20
139.613944348
 10
72.4016662814
 20
139.6163588982
 10
72.4104574408
 20
139.6183811173
 10
72.4193938275
 20
139.6200093059
 10
72.4284679135
 20
139.621242098
 10
72.4376719891
 20
139.6220784284
 10
72.4469983164
 20
139.6225176045
 10
72.4564390223
 20
139.6225592625
 10
72.4659860435
 20
139.6222033345
 10
72.4756313377
 20
139.6214501413
 10
72.485366789
 20
139.6203003336
 10
72.4951841019
 20
139.6187548437
 10
72.5050750399
 20
139.6168149961
 10
72.5150312592
 20
139.6144824476
 10
72.5250442141
 20
139.6117591313
 10
72.5351053934
 20
139.6086474064
 10
72.5452064291
 20
139.6051499035
 10
72.5553389341
 20
139.6012694304
 10
72.5654944294
 20
139.5970092046
 10
72.5756643491
 20
139.5923728826
 10
72.58584015
 20
139.5873643855
  0
LWPOLYLINE
  5
2A1
100
AcDbEntity
  8
RACCORDO
100
AcDbPolyline
 62
253
  6
CONTINUOUS
 90
5
 70
0
 10
46.9626273476
 20
96.7526478456
 10
46.8904748831
 20
96.7623191808
 10
46.8177875977
 20
96.7798878688
 10
46.74407844
 20
96.8053715659
 10
46.6693466843
 20
96.8387699602
  0
LWPOLYLINE
  5
2A2
100
AcDbEntity
  8
RACCORDO
100
AcDbPolyline
 62
253
  6
CONTINUOUS
 90
4
 70
0
 10
46.9515729952
 20
96.888300493
 10
46.8838929529
 20
96.9046836205
 10
46.8156649423
 20
96.9282901564
 10
46.7473337256
 20
96.9589562792
  0
LWPOLYLINE
  5
2A3
100
AcDbEntity
  8
RACCORDO
100
AcDbPolyline
 62
7
  6
CONTINUOUS
 90
4
 70
0
 10
46.6744249826
 20
99.1384857935
 10
46.7354589192
 20
99.1178198209
 10
46.7967862245
 20
99.0911724415
 10
46.8080342789
 20
99.0856510134
  0
LINE
  5
2A4
100
AcDbEntity
  8
RACCORDO
100
AcDbLine
 62
253
  6
CONTINUOUS
 10
46.6336393156
 20
99.2043579077
 11
46.7074440151
 21
99.1788988386
  0
LINE
  5
2A5
100
AcDbEntity
  8
ASSI
100
AcDbLine
 62
253
  6
CONTINUOUS
 10
46.6336393156
 20
99.2043579077
 11
46.7074440151
 21
99.1788988386
  0
LINE
  5
2A6
100
AcDbEntity
  8
ASSI
100
AcDbLine
 62
7
  6
CONTINUOUS
 10
46.7223747872
 20
99.1227462556
 11
46.8079359087
 21
99.0857004809
  0
LINE
  5
2A7
100
AcDbEntity
  8
RACCORDO
100
AcDbLine
 62
253
  6
CONTINUOUS
 10
46.7074440151
 20
99.1788988386
 11
46.7822248782
 21
99.1455025103
  0
LINE
  5
2A8
100
AcDbEntity
  8
ASSI
100
AcDbLine
 62
253
  6
CONTINUOUS
 10
46.7074440151
 20
99.1788988386
 11
46.7822248782
 21
99.1455025103
  0
LWPOLYLINE
  5
2A9
100
AcDbEntity
  8
RACCORDO
100
AcDbPolyline
 62
253
  6
CONTINUOUS
 90
55
 70
0
 10
46.6916062343
 20
98.76951179
 10
46.6544749336
 20
98.7866572065
 10
46.6172411021
 20
98.8010170124
 10
46.5800300404
 20
98.8125422274
 10
46.5429852962
 20
98.8211897339
 10
46.5062130905
 20
98.8269362823
 10
46.4697835257
 20
98.8297641869
 10
46.4337840948
 20
98.829648683
 10
46.3983782452
 20
98.8265716873
 10
46.3637469922
 20
98.8205422415
 10
46.3300126856
 20
98.811583337
 10
46.2972845547
 20
98.7997259084
 10
46.2657118219
 20
98.7850313199
 10
46.2354257396
 20
98.7675793441
 10
46.2064919503
 20
98.7474271405
 10
46.1789568311
 20
98.7246126294
 10
46.1528973892
 20
98.6991919328
 10
46.1284222278
 20
98.6712628809
 10
46.1056230456
 20
98.6409280557
 10
46.0845772629
 20
98.6082908017
 10
46.0653552437
 20
98.5734605927
 10
46.0480261094
 20
98.5365650185
 10
46.0326558075
 20
98.4977552398
 10
46.0192829589
 20
98.4571408871
 10
46.0079341346
 20
98.4147899238
 10
45.9986479714
 20
98.3707951521
 10
45.9914765656
 20
98.3253403299
 10
45.9864580558
 20
98.2786360468
 10
45.9836104834
 20
98.2308592892
 10
45.9829415129
 20
98.1821546799
 10
45.9844533197
 20
98.1326954242
 10
45.9881394977
 20
98.0826555966
 10
45.9939868668
 20
98.0321995657
 10
46.0019765983
 20
97.9814890258
 10
46.0120835679
 20
97.930689355
 10
46.0242730353
 20
97.8799798402
 10
46.0385009207
 20
97.8295432571
 10
46.0547156758
 20
97.7795578768
 10
46.0728634012
 20
97.7301859482
 10
46.0928864039
 20
97.6815841408
 10
46.1147208932
 20
97.6339100807
 10
46.1382901377
 20
97.5873338451
 10
46.1635077258
 20
97.5420256668
 10
46.1902817687
 20
97.4981472244
 10
46.2185254843
 20
97.455837573
 10
46.2481523788
 20
97.4152262971
 10
46.2790834038
 20
97.3764271249
 10
46.3111948786
 20
97.3396002215
 10
46.3443225931
 20
97.3049271606
 10
46.3783139645
 20
97.2725482033
 10
46.4130842339
 20
97.242525445
 10
46.4485654797
 20
97.2149108009
 10
46.4846560675
 20
97.1897853173
 10
46.5212173166
 20
97.1672473275
 10
46.5581261441
 20
97.1473724264
  0
LWPOLYLINE
  5
2AA
100
AcDbEntity
  8
RACCORDO
100
AcDbPolyline
 62
253
  6
CONTINUOUS
 90
12
 70
0
 10
46.7679978478
 20
98.877089489
 10
46.7271256981
 20
98.8959619232
 10
46.6861407225
 20
98.9117682575
 10
46.6451808242
 20
98.9244545865
 10
46.6044039875
 20
98.9339735633
 10
46.5639271095
 20
98.9402994925
 10
46.5238273758
 20
98.9434125779
 10
46.4842011447
 20
98.9432853723
 10
46.4452283345
 20
98.9398981541
 10
46.4071081616
 20
98.9332611003
 10
46.3699752663
 20
98.9233996167
 10
46.3457484929
 20
98.9150201964
  0
LINE
  5
2AB
100
AcDbEntity
  8
26814000
100
AcDbLine
 62
7
  6
CONTINUOUS
 10
59.3538790525
 20
91.6733556083
 11
62.7755947677
 21
89.9624977507
  0
LINE
  5
2AC
100
AcDbEntity
  8
26814000
100
AcDbLine
 62
253
  6
CONTINUOUS
 10
63.3412801926
 20
89.7209397087
 11
63.9563990276
 21
89.4133802912
  0
LINE
  5
2AD
100
AcDbEntity
  8
26814000
100
AcDbLine
 62
7
  6
CONTINUOUS
 10
63.3412801926
 20
89.7245598582
 11
63.9796784009
 21
89.4053607541
  0
LINE
  5
2AE
100
AcDbEntity
  8
26814000
100
AcDbLine
 62
7
  6
CONTINUOUS
 10
59.4842790043
 20
93.25806307
 11
62.7755947677
 21
91.6124051883
  0
LWPOLYLINE
  5
2AF
100
AcDbEntity
  8
RACCORDO
100
AcDbPolyline
 62
7
  6
CONTINUOUS
 90
25
 70
0
 10
46.8081093908
 20
99.0856074826
 10
46.8248936069
 20
99.0769917773
 10
46.8958664451
 20
99.0357013519
 10
46.9661869197
 20
98.9868557193
 10
47.0351877169
 20
98.9308617739
 10
47.1023209553
 20
98.868184405
 10
47.1671269424
 20
98.7992283281
 10
47.2290875668
 20
98.7245251638
 10
47.2877192479
 20
98.6446850349
 10
47.3426473235
 20
98.5601861546
 10
47.3934387763
 20
98.4716590663
 10
47.4397148832
 20
98.3797960692
 10
47.4811841346
 20
98.2851365439
 10
47.5175095401
 20
98.1883927618
 10
47.5484241319
 20
98.0903029377
 10
47.5737177957
 20
97.9914491808
 10
47.5931599667
 20
97.8925964239
 10
47.6066006381
 20
97.7945178449
 10
47.6139200851
 20
97.6978556246
 10
47.6150191098
 20
97.603392754
 10
47.6098895472
 20
97.5119276493
 10
47.5985503489
 20
97.4242076702
 10
47.58107924
 20
97.3409791865
 10
47.5576685235
 20
97.2630027568
 10
47.5285901294
 20
97.1910816617
  0
LINE
  5
2B0
100
AcDbEntity
  8
ASSI
100
AcDbLine
 62
7
  6
CONTINUOUS
 10
46.8085248117
 20
99.0854036917
 11
46.8584652309
 21
99.0584468511
  0
LINE
  5
2B1
100
AcDbEntity
  8
RACCORDO
100
AcDbLine
 62
253
  6
CONTINUOUS
 10
46.7822248782
 20
99.1455025103
 11
46.856262182
 21
99.1045539265
  0
LINE
  5
2B2
100
AcDbEntity
  8
ASSI
100
AcDbLine
 62
253
  6
CONTINUOUS
 10
46.7822248782
 20
99.1455025103
 11
46.856262182
 21
99.1045539265
  0
LWPOLYLINE
  5
2B3
100
AcDbEntity
  8
RACCORDO
100
AcDbPolyline
 62
253
  6
CONTINUOUS
 90
3
 70
0
 10
46.856262182
 20
99.1045539265
 10
46.9286297382
 20
99.0570133198
 10
46.9993282645
 20
99.0028809911
  0
LINE
  5
2B4
100
AcDbEntity
  8
ASSI
100
AcDbLine
 62
253
  6
CONTINUOUS
 10
46.856262182
 20
99.1045539265
 11
46.9286297382
 21
99.0570133198
  0
LWPOLYLINE
  5
2B5
100
AcDbEntity
  8
ASSI
100
AcDbPolyline
 62
7
  6
CONTINUOUS
 90
4
 70
0
 10
46.8584652309
 20
99.0584468511
 10
46.9950454184
 20
98.964435095
 10
47.1262928187
 20
98.8436976756
 10
47.2481572917
 20
98.6996084691
  0
LINE
  5
2B6
100
AcDbEntity
  8
ASSI
100
AcDbLine
 62
253
  6
CONTINUOUS
 10
46.9286297382
 20
99.0570133198
 11
46.9993282645
 21
99.0028809911
  0
LINE
  5
2B7
100
AcDbEntity
  8
RACCORDO
100
AcDbLine
 62
253
  6
CONTINUOUS
 10
46.9993282645
 20
99.0028809911
 11
47.0688291267
 21
98.9417097444
  0
LINE
  5
2B8
100
AcDbEntity
  8
ASSI
100
AcDbLine
 62
253
  6
CONTINUOUS
 10
46.9993282645
 20
99.0028809911
 11
47.0688291267
 21
98.9417097444
  0
LWPOLYLINE
  5
2B9
100
AcDbEntity
  8
RACCORDO
100
AcDbPolyline
 62
253
  6
CONTINUOUS
 90
17
 70
0
 10
47.0688291267
 20
98.9417097444
 10
47.1366638436
 20
98.8739479866
 10
47.2014238838
 20
98.8009396421
 10
47.2630256276
 20
98.722586726
 10
47.3215578268
 20
98.6389893814
 10
47.3758704214
 20
98.5517886905
 10
47.4258685537
 20
98.4609445465
 10
47.4716532525
 20
98.3664996594
 10
47.5123674045
 20
98.2702189679
 10
47.5479298612
 20
98.1720367139
 10
47.578427669
 20
98.0720211552
 10
47.6032542439
 20
97.9721375143
 10
47.6222947117
 20
97.8724056222
 10
47.6356681013
 20
97.7728074228
 10
47.643116174
 20
97.6752502494
 10
47.6445245926
 20
97.5797632816
 10
47.6400092352
 20
97.4863180149
  0
LWPOLYLINE
  5
2BA
100
AcDbEntity
  8
ASSI
100
AcDbPolyline
 62
253
  6
CONTINUOUS
 90
4
 70
0
 10
47.0688291267
 20
98.9417097444
 10
47.1366638436
 20
98.8739479866
 10
47.2014238838
 20
98.8009396421
 10
47.2630256276
 20
98.722586726
  0
LWPOLYLINE
  5
2BB
100
AcDbEntity
  8
ASSI
100
AcDbPolyline
 62
253
  6
CONTINUOUS
 90
12
 70
0
 10
47.2630256276
 20
98.722586726
 10
47.3215578268
 20
98.6389893814
 10
47.3758704214
 20
98.5517886905
 10
47.4258685537
 20
98.4609445465
 10
47.4716532525
 20
98.3664996594
 10
47.5123674045
 20
98.2702189679
 10
47.5479298612
 20
98.1720367139
 10
47.578427669
 20
98.0720211552
 10
47.6032542439
 20
97.9721375143
 10
47.6222947117
 20
97.8724056222
 10
47.6356681013
 20
97.7728074228
 10
47.643116174
 20
97.6752502494
  0
LWPOLYLINE
  5
2BC
100
AcDbEntity
  8
ASSI
100
AcDbPolyline
 62
7
  6
CONTINUOUS
 90
12
 70
0
 10
47.2481572917
 20
98.6996084691
 10
47.3573886724
 20
98.5356294672
 10
47.4505631154
 20
98.3563320066
 10
47.5247748707
 20
98.166930278
 10
47.5779954742
 20
97.9720466319
 10
47.6083267876
 20
97.7774844443
 10
47.6146426297
 20
97.5893277175
 10
47.596648083
 20
97.4132606826
 10
47.5549880176
 20
97.2554511302
 10
47.491382594
 20
97.1211953318
 10
47.4080921299
 20
97.0143056616
 10
47.30767023
 20
96.9376175527
  0
LINE
  5
2BD
100
AcDbEntity
  8
0
100
AcDbLine
 62
7
  6
CONTINUOUS
 10
63.6267655132
 20
135.5633974424
 11
63.4823201764
 21
135.4587114255
  0
LWPOLYLINE
  5
2BE
100
AcDbEntity
  8
0
100
AcDbPolyline
 62
253
  6
CONTINUOUS
 90
21
 70
0
 10
74.4510430067
 20
139.0944220835
 10
74.4566227775
 20
139.0973266619
 10
74.461964112
 20
139.1003412221
 10
74.4670583465
 20
139.1034608743
 10
74.471897218
 20
139.1066805586
 10
74.476472878
 20
139.1099950526
 10
74.4807779047
 20
139.1133989801
 10
74.4848053154
 20
139.11688682
 10
74.4885485775
 20
139.120452915
 10
74.4920016195
 20
139.1240914809
 10
74.4951588405
 20
139.1277966159
 10
74.4980151195
 20
139.1315623103
 10
74.5005658236
 20
139.1353824561
 10
74.5028068156
 20
139.1392508569
 10
74.5047344605
 20
139.1431612384
 10
74.5063456318
 20
139.1471072577
 10
74.507637716
 20
139.1510825145
 10
74.5086086174
 20
139.1550805608
 10
74.5092567613
 20
139.1590949118
 10
74.5095810962
 20
139.1631190563
 10
74.5096216504
 20
139.1651327617
  0
LINE
  5
2BF
100
AcDbEntity
  8
26814000
100
AcDbLine
 62
7
  6
CONTINUOUS
 10
60.1321779927
 20
130.6967318982
 11
61.7149345959
 21
131.5087159956
  0
LINE
  5
2C0
100
AcDbEntity
  8
26814000
100
AcDbLine
 62
7
  6
CONTINUOUS
 10
58.4581224165
 20
130.9035588307
 11
58.9572181492
 21
131.1555234113
  0
LINE
  5
2C1
100
AcDbEntity
  8
26814000
100
AcDbLine
 62
7
  6
CONTINUOUS
 10
58.4581224165
 20
132.1177623035
 11
58.9572181492
 21
132.3679589766
  0
LINE
  5
2C2
100
AcDbEntity
  8
0
100
AcDbLine
 62
7
  6
CONTINUOUS
 10
73.0342239877
 20
139.4351124179
 11
73.5837828283
 21
139.7098918382
  0
LINE
  5
2C3
100
AcDbEntity
  8
0
100
AcDbLine
 62
253
  6
CONTINUOUS
 10
73.0846257047
 20
139.4099115594
 11
73.6732255474
 21
139.7042114807
  0
LINE
  5
2C4
100
AcDbEntity
  8
0
100
AcDbLine
 62
253
  6
CONTINUOUS
 10
74.0974896161
 20
139.4920794464
 11
73.5088897734
 21
139.197779525
  0
LINE
  5
2C5
100
AcDbEntity
  8
0
100
AcDbLine
 62
253
  6
CONTINUOUS
 10
74.2389109723
 20
139.2481636875
 11
73.7779356806
 21
139.0176760416
  0
LINE
  5
2C6
100
AcDbEntity
  8
DRAFT
100
AcDbLine
 62
7
  6
CONTINUOUS
 10
76.038385916
 20
139.58764889
 11
75.9323198988
 21
139.5346158814
  0
LINE
  5
2C7
100
AcDbEntity
  8
DRAFT
100
AcDbLine
 62
7
  6
CONTINUOUS
 10
75.7555432035
 20
139.4462275338
 11
75.6494771863
 21
139.3931945252
  0
LINE
  5
2C8
100
AcDbEntity
  8
DRAFT
100
AcDbLine
 62
7
  6
CONTINUOUS
 10
75.472700491
 20
139.3048061775
 11
75.3666344738
 21
139.251773169
  0
LINE
  5
2C9
100
AcDbEntity
  8
DRAFT
100
AcDbLine
 62
7
  6
CONTINUOUS
 10
75.1898577785
 20
139.1633848213
 11
75.0837917614
 21
139.1103518127
  0
LINE
  5
2CA
100
AcDbEntity
  8
DRAFT
100
AcDbLine
 62
7
  6
CONTINUOUS
 10
74.9070150661
 20
139.0219634651
 11
74.8009490489
 21
138.9689304565
  0
LINE
  5
2CB
100
AcDbEntity
  8
DRAFT
100
AcDbLine
 62
7
  6
CONTINUOUS
 10
74.6241723536
 20
138.8805421088
 11
74.5181063364
 21
138.8275091002
  0
LINE
  5
2CC
100
AcDbEntity
  8
DRAFT
100
AcDbLine
 62
7
  6
CONTINUOUS
 10
75.8957303003
 20
139.4309528013
 11
75.8409114844
 21
139.4035433933
  0
LINE
  5
2CD
100
AcDbEntity
  8
DRAFT
100
AcDbLine
 62
7
  6
CONTINUOUS
 10
75.6128875878
 20
139.289531445
 11
75.5580687719
 21
139.2621220371
  0
LINE
  5
2CE
100
AcDbEntity
  8
DRAFT
100
AcDbLine
 62
7
  6
CONTINUOUS
 10
75.3300448753
 20
139.1481100888
 11
75.2752260594
 21
139.1207006809
  0
LINE
  5
2CF
100
AcDbEntity
  8
DRAFT
100
AcDbLine
 62
7
  6
CONTINUOUS
 10
75.0472021628
 20
139.0066887326
 11
74.992383347
 21
138.9792793246
  0
LINE
  5
2D0
100
AcDbEntity
  8
DRAFT
100
AcDbLine
 62
7
  6
CONTINUOUS
 10
74.7643594504
 20
138.8652673763
 11
74.7095406345
 21
138.8378579684
  0
LINE
  5
2D1
100
AcDbEntity
  8
RACCORDO
100
AcDbLine
 62
7
  6
CONTINUOUS
 10
74.4815167379
 20
138.7238460201
 11
69.3107702487
 21
136.1384727755
  0
LINE
  5
2D2
100
AcDbEntity
  8
26814000
100
AcDbLine
 62
7
  6
CONTINUOUS
 10
58.9572181492
 20
132.3679589766
 11
64.3714908444
 21
135.067974587
  0
LINE
  5
2D3
100
AcDbEntity
  8
0
100
AcDbLine
 62
253
  6
CONTINUOUS
 10
73.3891309789
 20
139.1857189913
 11
67.3446825572
 21
136.1876280138
  0
LINE
  5
2D4
100
AcDbEntity
  8
0
100
AcDbLine
 62
253
  6
CONTINUOUS
 10
73.8060223684
 20
138.9214792523
 11
67.8898199604
 21
135.9869992432
  0
LINE
  5
2D5
100
AcDbEntity
  8
26814000
100
AcDbLine
 62
7
  6
CONTINUOUS
 10
58.9572181492
 20
131.1555234113
 11
64.3714908444
 21
133.8361360086
  0
LINE
  5
2D6
100
AcDbEntity
  8
26814000
100
AcDbLine
 62
7
  6
CONTINUOUS
 10
65.0445070599
 20
135.1134745158
 11
64.4581282728
 21
134.8265524482
  0
LINE
  5
2D7
100
AcDbEntity
  8
26814000
100
AcDbLine
 62
7
  6
CONTINUOUS
 10
61.7149345959
 20
131.5087159956
 11
62.2493844746
 21
131.7690634621
  0
LWPOLYLINE
  5
2D8
100
AcDbEntity
  8
26814000
100
AcDbPolyline
 62
7
  6
CONTINUOUS
 90
18
 70
0
 10
65.0445070599
 20
135.1134745158
 10
65.0728815807
 20
135.1266564726
 10
65.1011160327
 20
135.1383908644
 10
65.1292104159
 20
135.148677691
 10
65.1572147289
 20
135.1575298256
 10
65.1850789732
 20
135.1649343952
 10
65.2126531529
 20
135.1708527808
 10
65.2399222815
 20
135.1752762021
 10
65.2669013455
 20
135.1782134394
 10
65.2934853081
 20
135.1796522154
 10
65.319690267
 20
135.1795850788
 10
65.3455001245
 20
135.1780194808
 10
65.3707615507
 20
135.1749654974
 10
65.395451304
 20
135.170419713
 10
65.4195926262
 20
135.1643855432
 10
65.4431019124
 20
135.1568833104
 10
65.4659976926
 20
135.1478978958
 10
65.4855597769
 20
135.1388081627
  0
LINE
  5
2D9
100
AcDbEntity
  8
0
100
AcDbLine
 62
7
  6
CONTINUOUS
 10
69.4583425664
 20
135.2027155997
 11
75.7175521373
 21
138.0934260026
  0
LINE
  5
2DA
100
AcDbEntity
  8
0
100
AcDbLine
 62
253
  6
CONTINUOUS
 10
69.456909228
 20
135.1315146784
 11
75.7161187989
 21
138.0222250813
  0
LINE
  5
2DB
100
AcDbEntity
  8
ASSI
100
AcDbLine
 62
7
  6
CONTINUOUS
 10
46.5288939358
 20
99.1628297895
 11
46.6243158465
 21
99.1509512207
  0
LINE
  5
2DC
100
AcDbEntity
  8
RACCORDO
100
AcDbLine
 62
7
  6
CONTINUOUS
 10
46.614162014
 20
99.152966756
 11
46.6744249826
 21
99.1384857935
  0
LINE
  5
2DD
100
AcDbEntity
  8
RACCORDO
100
AcDbLine
 62
253
  6
CONTINUOUS
 10
46.5608115052
 20
99.2218800218
 11
46.6336393156
 21
99.2043579077
  0
LINE
  5
2DE
100
AcDbEntity
  8
ASSI
100
AcDbLine
 62
7
  6
CONTINUOUS
 10
46.6243158465
 20
99.1509512207
 11
46.7223747872
 21
99.1227462556
  0
LWPOLYLINE
  5
2DF
100
AcDbEntity
  8
RACCORDO
100
AcDbPolyline
 62
253
  6
CONTINUOUS
 90
16
 70
0
 10
45.9602497646
 20
98.1738700575
 10
45.953364898
 20
98.2234835712
 10
45.9461955928
 20
98.313549347
 10
45.9445627271
 20
98.4017418746
 10
45.9484570188
 20
98.4874704145
 10
45.9578934753
 20
98.5701792616
 10
45.9727900526
 20
98.6493194573
 10
45.9930264546
 20
98.7243756701
 10
46.0185061737
 20
98.7948783432
 10
46.0490501996
 20
98.8603692778
 10
46.0844362428
 20
98.9204095691
 10
46.1244532314
 20
98.9746102182
 10
46.1688196713
 20
99.0226128105
 10
46.2172307786
 20
99.0641101732
 10
46.2693998683
 20
99.0988506954
 10
46.3249738827
 20
99.1266040631
  0
LWPOLYLINE
  5
2E0
100
AcDbEntity
  8
ASSI
100
AcDbPolyline
 62
253
  6
CONTINUOUS
 90
12
 70
0
 10
45.9602497646
 20
98.1738700575
 10
45.953364898
 20
98.2234835712
 10
45.9461955928
 20
98.313549347
 10
45.9445627271
 20
98.4017418746
 10
45.9484570188
 20
98.4874704145
 10
45.9578934753
 20
98.5701792616
 10
45.9727900526
 20
98.6493194573
 10
45.9930264546
 20
98.7243756701
 10
46.0185061737
 20
98.7948783432
 10
46.0490501996
 20
98.8603692778
 10
46.0844362428
 20
98.9204095691
 10
46.1244532314
 20
98.9746102182
  0
LINE
  5
2E1
100
AcDbEntity
  8
26814000
100
AcDbLine
 62
7
  6
CONTINUOUS
 10
46.1939407488
 20
135.4473805023
 11
46.1939407488
 21
135.422984997
  0
LINE
  5
2E2
100
AcDbEntity
  8
26814000
100
AcDbLine
 62
7
  6
CONTINUOUS
 10
46.5931340458
 20
136.820631535
 11
46.5931340458
 21
137.0740029287
  0
LINE
  5
2E3
100
AcDbEntity
  8
26814000
100
AcDbLine
 62
7
  6
CONTINUOUS
 10
47.0071135472
 20
135.0163985978
 11
47.0071135472
 21
134.6496630471
  0
LINE
  5
2E4
100
AcDbEntity
  8
26814000
100
AcDbLine
 62
7
  6
CONTINUOUS
 10
47.296127
 20
135.9140722803
 11
47.296127
 21
136.366403256
  0
LINE
  5
2E5
100
AcDbEntity
  8
26814000
100
AcDbLine
 62
7
  6
CONTINUOUS
 10
61.7399994018
 20
129.8928211937
 11
63.3412801926
 21
130.6955431972
  0
LINE
  5
2E6
100
AcDbEntity
  8
DRAFT
100
AcDbLine
 62
7
  6
CONTINUOUS
 10
77.5495874934
 20
138.8320481013
 11
77.4435214762
 21
138.7790150927
  0
LINE
  5
2E7
100
AcDbEntity
  8
DRAFT
100
AcDbLine
 62
7
  6
CONTINUOUS
 10
77.2667447809
 20
138.6906267451
 11
77.1606787637
 21
138.6375937365
  0
LINE
  5
2E8
100
AcDbEntity
  8
DRAFT
100
AcDbLine
 62
7
  6
CONTINUOUS
 10
76.9839020684
 20
138.5492053888
 11
76.8778360513
 21
138.4961723803
  0
LINE
  5
2E9
100
AcDbEntity
  8
DRAFT
100
AcDbLine
 62
7
  6
CONTINUOUS
 10
76.701059356
 20
138.4077840326
 11
76.5949933388
 21
138.354751024
  0
LINE
  5
2EA
100
AcDbEntity
  8
DRAFT
100
AcDbLine
 62
7
  6
CONTINUOUS
 10
76.4182166435
 20
138.2663626764
 11
76.3121506263
 21
138.2133296678
  0
LINE
  5
2EB
100
AcDbEntity
  8
DRAFT
100
AcDbLine
 62
7
  6
CONTINUOUS
 10
76.135373931
 20
138.1249413201
 11
76.0293079138
 21
138.0719083115
  0
LINE
  5
2EC
100
AcDbEntity
  8
DRAFT
100
AcDbLine
 62
7
  6
CONTINUOUS
 10
77.4094003966
 20
138.6741177531
 11
77.3033343794
 21
138.6210847445
  0
LINE
  5
2ED
100
AcDbEntity
  8
DRAFT
100
AcDbLine
 62
7
  6
CONTINUOUS
 10
77.1265576842
 20
138.5326963968
 11
77.020491667
 21
138.4796633883
  0
LINE
  5
2EE
100
AcDbEntity
  8
DRAFT
100
AcDbLine
 62
7
  6
CONTINUOUS
 10
76.8437149717
 20
138.3912750406
 11
76.7376489545
 21
138.338242032
  0
LINE
  5
2EF
100
AcDbEntity
  8
DRAFT
100
AcDbLine
 62
7
  6
CONTINUOUS
 10
76.5608722592
 20
138.2498536844
 11
76.454806242
 21
138.1968206758
  0
LINE
  5
2F0
100
AcDbEntity
  8
DRAFT
100
AcDbLine
 62
7
  6
CONTINUOUS
 10
76.2780295467
 20
138.1084323281
 11
76.1719635296
 21
138.0553993195
  0
LINE
  5
2F1
100
AcDbEntity
  8
RACCORDO
100
AcDbLine
 62
7
  6
CONTINUOUS
 10
75.9951868343
 20
137.9670109719
 11
75.982806857
 21
137.9608209832
  0
LINE
  5
2F2
100
AcDbEntity
  8
DRAFT
100
AcDbLine
 62
7
  6
CONTINUOUS
 10
76.9172922056
 20
136.93483806
 11
77.7309031898
 21
137.3416435521
  0
LINE
  5
2F3
100
AcDbEntity
  8
DRAFT
100
AcDbLine
 62
7
  6
CONTINUOUS
 10
79.1496557532
 20
138.0320139714
 11
79.043589736
 21
137.9789809628
  0
LINE
  5
2F4
100
AcDbEntity
  8
DRAFT
100
AcDbLine
 62
7
  6
CONTINUOUS
 10
78.8668130407
 20
137.8905926152
 11
78.7607470235
 21
137.8375596066
  0
LINE
  5
2F5
100
AcDbEntity
  8
DRAFT
100
AcDbLine
 62
7
  6
CONTINUOUS
 10
78.5839703282
 20
137.7491712589
 11
78.4779043111
 21
137.6961382503
  0
LINE
  5
2F6
100
AcDbEntity
  8
DRAFT
100
AcDbLine
 62
7
  6
CONTINUOUS
 10
78.3011276158
 20
137.6077499027
 11
78.1950615986
 21
137.5547168941
  0
LINE
  5
2F7
100
AcDbEntity
  8
DRAFT
100
AcDbLine
 62
7
  6
CONTINUOUS
 10
78.0182849033
 20
137.4663285465
 11
77.9122188861
 21
137.4132955379
  0
LINE
  5
2F8
100
AcDbEntity
  8
DRAFT
100
AcDbLine
 62
7
  6
CONTINUOUS
 10
77.7354421908
 20
137.3249071902
 11
77.6293761736
 21
137.2718741816
  0
LINE
  5
2F9
100
AcDbEntity
  8
DRAFT
100
AcDbLine
 62
7
  6
CONTINUOUS
 10
77.6009326554
 20
137.191290004
 11
77.4645038873
 21
137.12307562
  0
LINE
  5
2FA
100
AcDbEntity
  8
DRAFT
100
AcDbLine
 62
7
  6
CONTINUOUS
 10
76.9172922056
 20
136.8494697791
 11
77.0048844796
 21
136.8932659161
  0
LINE
  5
2FB
100
AcDbEntity
  8
DRAFT
100
AcDbLine
 62
7
  6
CONTINUOUS
 10
77.1816611749
 20
136.9816542637
 11
77.287727192
 21
137.0346872723
  0
LINE
  5
2FC
100
AcDbEntity
  8
DRAFT
100
AcDbLine
 62
7
  6
CONTINUOUS
 10
79.0070001375
 20
137.8753178827
 11
78.9521813216
 21
137.8479084747
  0
LINE
  5
2FD
100
AcDbEntity
  8
DRAFT
100
AcDbLine
 62
7
  6
CONTINUOUS
 10
78.724157425
 20
137.7338965264
 11
78.6693386091
 21
137.7064871185
  0
LINE
  5
2FE
100
AcDbEntity
  8
DRAFT
100
AcDbLine
 62
7
  6
CONTINUOUS
 10
78.4413147125
 20
137.5924751702
 11
78.3864958967
 21
137.5650657623
  0
LINE
  5
2FF
100
AcDbEntity
  8
DRAFT
100
AcDbLine
 62
7
  6
CONTINUOUS
 10
78.1584720001
 20
137.4510538139
 11
78.1036531842
 21
137.423644406
  0
LINE
  5
300
100
AcDbEntity
  8
DRAFT
100
AcDbLine
 62
7
  6
CONTINUOUS
 10
77.8756292876
 20
137.3096324577
 11
77.8208104717
 21
137.2822230498
  0
LINE
  5
301
100
AcDbEntity
  8
RACCORDO
100
AcDbLine
 62
7
  6
CONTINUOUS
 10
77.5927865751
 20
137.1682111015
 11
72.422040086
 21
134.5828378569
  0
LINE
  5
302
100
AcDbEntity
  8
26814000
100
AcDbLine
 62
7
  6
CONTINUOUS
 10
63.3412801926
 20
130.6955431972
 11
63.8695473644
 21
130.9589820172
  0
LINE
  5
303
100
AcDbEntity
  8
0
100
AcDbLine
 62
253
  6
CONTINUOUS
 10
76.5004008161
 20
137.6300840727
 11
70.4559523944
 21
134.6319930952
  0
LINE
  5
304
100
AcDbEntity
  8
0
100
AcDbLine
 62
253
  6
CONTINUOUS
 10
76.9172922056
 20
137.3658443337
 11
71.0010897977
 21
134.4313643246
  0
LINE
  5
305
100
AcDbEntity
  8
0
100
AcDbLine
 62
7
  6
CONTINUOUS
 10
69.2137342982
 20
132.6184527688
 11
69.4931091889
 21
132.7570247742
  0
LINE
  5
306
100
AcDbEntity
  8
0
100
AcDbLine
 62
253
  6
CONTINUOUS
 10
72.0786177636
 20
133.8206604106
 11
68.9861698752
 21
132.3185041795
  0
LINE
  5
307
100
AcDbEntity
  8
26814000
100
AcDbLine
 62
253
  6
CONTINUOUS
 10
63.2517579827
 20
131.329854079
 11
68.0235969608
 21
133.6239295653
  0
LINE
  5
308
100
AcDbEntity
  8
26814000
100
AcDbLine
 62
253
  6
CONTINUOUS
 10
63.4793734825
 20
131.216046329
 11
68.4654378287
 21
133.613111285
  0
LINE
  5
309
100
AcDbEntity
  8
0
100
AcDbLine
 62
7
  6
CONTINUOUS
 10
68.7983450025
 20
132.1523054546
 11
68.6769867195
 21
132.0962581778
  0
LWPOLYLINE
  5
30A
100
AcDbEntity
  8
0
100
AcDbPolyline
 62
253
  6
CONTINUOUS
 90
19
 70
0
 10
72.0786202907
 20
133.820659147
 10
72.086460343
 20
133.8242338737
 10
72.094284609
 20
133.8274458982
 10
72.1020823877
 20
133.8302908275
 10
72.1098430142
 20
133.8327647706
 10
72.1175558742
 20
133.8348643439
 10
72.1252104191
 20
133.8365866759
 10
72.1327961798
 20
133.8379294109
 10
72.1403027814
 20
133.8388907125
 10
72.1477199572
 20
133.839469266
 10
72.1550375628
 20
133.83966428
 10
72.1622455901
 20
133.8394754879
 10
72.1693341806
 20
133.8389031479
 10
72.1762936396
 20
133.8379480427
 10
72.1831144484
 20
133.8366114787
 10
72.1897872786
 20
133.8348952837
 10
72.1963030036
 20
133.8328018051
 10
72.2026527121
 20
133.8303339061
 10
72.2090811128
 20
133.827368667
  0
LINE
  5
30B
100
AcDbEntity
  8
0
100
AcDbLine
 62
7
  6
CONTINUOUS
 10
72.6902575988
 20
133.3469045521
 11
78.9093556689
 21
136.0342934128
  0
LINE
  5
30C
100
AcDbEntity
  8
ASSI
100
AcDbLine
 62
7
  6
CONTINUOUS
 10
46.4370697236
 20
99.1580982974
 11
46.5288939358
 21
99.1628297895
  0
LWPOLYLINE
  5
30D
100
AcDbEntity
  8
RACCORDO
100
AcDbPolyline
 62
7
  6
CONTINUOUS
 90
3
 70
0
 10
46.4974312731
 20
99.1631107794
 10
46.5550634557
 20
99.1611792378
 10
46.614162014
 20
99.152966756
  0
LWPOLYLINE
  5
30E
100
AcDbEntity
  8
ASSI
100
AcDbPolyline
 62
253
  6
CONTINUOUS
 90
4
 70
0
 10
47.643116174
 20
97.6752502494
 10
47.6445245926
 20
97.5797632816
 10
47.6400092352
 20
97.4863180149
 10
47.6296542688
 20
97.3967340199
  0
LINE
  5
30F
100
AcDbEntity
  8
26814000
100
AcDbLine
 62
7
  6
CONTINUOUS
 10
48.1989105079
 20
136.2711146977
 11
48.1989105079
 21
136.0177433039
  0
LINE
  5
310
100
AcDbEntity
  8
26814000
100
AcDbLine
 62
7
  6
CONTINUOUS
 10
48.910131116
 20
135.1070702223
 11
48.910131116
 21
135.744239781
  0
LWPOLYLINE
  5
311
100
AcDbEntity
  8
RACCORDO
100
AcDbPolyline
 62
253
  6
CONTINUOUS
 90
6
 70
0
 10
47.6400092352
 20
97.4863180149
 10
47.6296542688
 20
97.3967340199
 10
47.6133433137
 20
97.3110906644
 10
47.5911912561
 20
97.2293079671
 10
47.5636262265
 20
97.1529652251
 10
47.5305359642
 20
97.0821656543
  0
LINE
  5
312
100
AcDbEntity
  8
28414000
100
AcDbLine
 62
7
  6
CONTINUOUS
 10
53.0804795997
 20
131.9797155716
 11
53.0372513948
 21
131.8495511624
  0
LINE
  5
313
100
AcDbEntity
  8
26814000
100
AcDbLine
 62
253
  6
CONTINUOUS
 10
63.8553610257
 20
130.2150114264
 11
69.2136878059
 21
133.1059516534
  0
LINE
  5
314
100
AcDbEntity
  8
26814000
100
AcDbLine
 62
253
  6
CONTINUOUS
 10
63.4887408725
 20
129.7687993003
 11
69.1295362383
 21
132.8121378095
  0
LINE
  5
315
100
AcDbEntity
  8
26814000
100
AcDbLine
 62
253
  6
CONTINUOUS
 10
63.4003509177
 20
129.6335061191
 11
69.1295362383
 21
132.5998786554
  0
LINE
  5
316
100
AcDbEntity
  8
26814000
100
AcDbLine
 62
7
  6
CONTINUOUS
 10
63.5201170483
 20
129.5736230537
 11
68.7983450025
 21
132.3065055786
  0
LINE
  5
317
100
AcDbEntity
  8
26814000
100
AcDbLine
 62
253
  6
CONTINUOUS
 10
63.4827015488
 20
128.8927817115
 11
61.7149345959
 21
127.990004012
  0
LINE
  5
318
100
AcDbEntity
  8
26814000
100
AcDbLine
 62
253
  6
CONTINUOUS
 10
63.7301889223
 20
128.4659175916
 11
61.9624219693
 21
127.5631398921
  0
LINE
  5
319
100
AcDbEntity
  8
0
100
AcDbLine
 62
7
  6
CONTINUOUS
 10
69.1771621693
 20
131.8461704529
 11
64.1032659763
 21
129.2820485898
  0
LINE
  5
31A
100
AcDbEntity
  8
26814000
100
AcDbLine
 62
7
  6
CONTINUOUS
 10
63.3412801926
 20
128.9634923896
 11
62.2744492805
 21
128.4249111401
  0
LINE
  5
31B
100
AcDbEntity
  8
DRAFT
100
AcDbLine
 62
7
  6
CONTINUOUS
 10
80.6608573306
 20
137.2764131827
 11
80.5547913134
 21
137.2233801741
  0
LINE
  5
31C
100
AcDbEntity
  8
DRAFT
100
AcDbLine
 62
7
  6
CONTINUOUS
 10
80.3780146181
 20
137.1349918265
 11
80.271948601
 21
137.0819588179
  0
LINE
  5
31D
100
AcDbEntity
  8
DRAFT
100
AcDbLine
 62
7
  6
CONTINUOUS
 10
80.0951719057
 20
136.9935704702
 11
79.9891058885
 21
136.9405374616
  0
LINE
  5
31E
100
AcDbEntity
  8
DRAFT
100
AcDbLine
 62
7
  6
CONTINUOUS
 10
79.8123291932
 20
136.852149114
 11
79.706263176
 21
136.7991161054
  0
LINE
  5
31F
100
AcDbEntity
  8
DRAFT
100
AcDbLine
 62
7
  6
CONTINUOUS
 10
79.5294864807
 20
136.7107277578
 11
79.4234204635
 21
136.6576947492
  0
LINE
  5
320
100
AcDbEntity
  8
DRAFT
100
AcDbLine
 62
7
  6
CONTINUOUS
 10
79.2466437682
 20
136.5693064015
 11
79.1405777511
 21
136.5162733929
  0
LINE
  5
321
100
AcDbEntity
  8
DRAFT
100
AcDbLine
 62
7
  6
CONTINUOUS
 10
80.5206702338
 20
137.1184828345
 11
80.4146042167
 21
137.0654498259
  0
LINE
  5
322
100
AcDbEntity
  8
DRAFT
100
AcDbLine
 62
7
  6
CONTINUOUS
 10
80.2378275214
 20
136.9770614782
 11
80.1317615042
 21
136.9240284696
  0
LINE
  5
323
100
AcDbEntity
  8
DRAFT
100
AcDbLine
 62
7
  6
CONTINUOUS
 10
79.9549848089
 20
136.835640122
 11
79.8489187917
 21
136.7826071134
  0
LINE
  5
324
100
AcDbEntity
  8
DRAFT
100
AcDbLine
 62
7
  6
CONTINUOUS
 10
79.6721420964
 20
136.6942187658
 11
79.5660760792
 21
136.6411857572
  0
LINE
  5
325
100
AcDbEntity
  8
DRAFT
100
AcDbLine
 62
7
  6
CONTINUOUS
 10
79.3892993839
 20
136.5527974095
 11
79.2832333668
 21
136.4997644009
  0
LINE
  5
326
100
AcDbEntity
  8
RACCORDO
100
AcDbLine
 62
7
  6
CONTINUOUS
 10
79.1064566715
 20
136.4113760533
 11
74.8061294658
 21
134.2612124505
  0
LINE
  5
327
100
AcDbEntity
  8
26814000
100
AcDbLine
 62
253
  6
CONTINUOUS
 10
64.18980833
 20
129.2387774129
 11
63.4827015488
 21
128.8927817115
  0
LINE
  5
328
100
AcDbEntity
  8
26814000
100
AcDbLine
 62
253
  6
CONTINUOUS
 10
64.4372957034
 20
128.811913293
 11
63.7301889223
 21
128.4659175916
  0
LINE
  5
329
100
AcDbEntity
  8
0
100
AcDbLine
 62
253
  6
CONTINUOUS
 10
72.5785437727
 20
133.3170835184
 11
69.4860937228
 21
131.8149279202
  0
LINE
  5
32A
100
AcDbEntity
  8
0
100
AcDbLine
 62
253
  6
CONTINUOUS
 10
72.7181562195
 20
133.0762876668
 11
78.9773657904
 21
135.7810094588
  0
LINE
  5
32B
100
AcDbEntity
  8
0
100
AcDbLine
 62
7
  6
CONTINUOUS
 10
79.7890207977
 20
135.9926280773
 11
79.1450220135
 21
135.7143441301
  0
LINE
  5
32C
100
AcDbEntity
  8
0
100
AcDbLine
 62
253
  6
CONTINUOUS
 10
79.232393448
 20
135.5636506966
 11
79.9708011027
 21
135.8827304866
  0
LWPOLYLINE
  5
32D
100
AcDbEntity
  8
RACCORDO
100
AcDbPolyline
 62
253
  6
CONTINUOUS
 90
22
 70
0
 10
57.6622937485
 20
125.9817743915
 10
57.5867215248
 20
125.9493704542
 10
57.5110760977
 20
125.9104160312
 10
57.435733181
 20
125.865108844
 10
57.3610673838
 20
125.8136821754
 10
57.2874488123
 20
125.75639269
 10
57.2152417588
 20
125.6935165699
 10
57.1447964598
 20
125.6253595585
 10
57.0764725912
 20
125.5522710307
 10
57.0106344446
 20
125.4746334795
 10
56.9476208489
 20
125.3928561342
 10
56.8877288913
 20
125.3073361479
 10
56.8312407922
 20
125.2184681033
 10
56.7784285393
 20
125.1266757017
 10
56.7295688351
 20
125.0324369845
 10
56.6849241078
 20
124.9362482624
 10
56.6447215173
 20
124.8386070252
 10
56.6091519374
 20
124.7399889036
 10
56.5783893174
 20
124.6408693703
 10
56.552587558
 20
124.5417386817
 10
56.5318770283
 20
124.4430998077
 10
56.5163620662
 20
124.3454470806
  0
LWPOLYLINE
  5
32E
100
AcDbEntity
  8
ASSI
100
AcDbPolyline
 62
253
  6
CONTINUOUS
 90
22
 70
0
 10
57.6622937485
 20
125.9817743915
 10
57.5867215248
 20
125.9493704542
 10
57.5110760977
 20
125.9104160312
 10
57.435733181
 20
125.865108844
 10
57.3610673838
 20
125.8136821754
 10
57.2874488123
 20
125.75639269
 10
57.2152417588
 20
125.6935165699
 10
57.1447964598
 20
125.6253595585
 10
57.0764725912
 20
125.5522710307
 10
57.0106344446
 20
125.4746334795
 10
56.9476208489
 20
125.3928561342
 10
56.8877288913
 20
125.3073361479
 10
56.8312407922
 20
125.2184681033
 10
56.7784285393
 20
125.1266757017
 10
56.7295688351
 20
125.0324369845
 10
56.6849241078
 20
124.9362482624
 10
56.6447215173
 20
124.8386070252
 10
56.6091519374
 20
124.7399889036
 10
56.5783893174
 20
124.6408693703
 10
56.552587558
 20
124.5417386817
 10
56.5318770283
 20
124.4430998077
 10
56.5163620662
 20
124.3454470806
  0
LWPOLYLINE
  5
32F
100
AcDbEntity
  8
RACCORDO
100
AcDbPolyline
 62
253
  6
CONTINUOUS
 90
22
 70
0
 10
58.1687717945
 20
124.9804941072
 10
58.1330608157
 20
124.965462146
 10
58.0976167695
 20
124.9475531321
 10
58.0624396561
 20
124.9267670653
 10
58.0273413491
 20
124.9029666371
 10
57.9925099748
 20
124.8762891562
 10
57.958509912
 20
124.8471465482
 10
57.9253658777
 20
124.8155042463
 10
57.8930531549
 20
124.7813968174
 10
57.8620619714
 20
124.7453398877
 10
57.8324171627
 20
124.7073103472
 10
57.8040938932
 20
124.6673313059
 10
57.7775078836
 20
124.6259877199
 10
57.7526798584
 20
124.5832494026
 10
57.7295890932
 20
124.5391465406
 10
57.7085891356
 20
124.4943546495
 10
57.6897132736
 20
124.4488526601
 10
57.6729282192
 20
124.4026616417
 10
57.6584876563
 20
124.3565203175
 10
57.6464761463
 20
124.3106749285
 10
57.6368091279
 20
124.2648792336
 10
57.6294866011
 20
124.219133233
  0
LWPOLYLINE
  5
330
100
AcDbEntity
  8
ASSI
100
AcDbPolyline
 62
253
  6
CONTINUOUS
 90
22
 70
0
 10
58.1687717945
 20
124.9804941072
 10
58.1330608157
 20
124.965462146
 10
58.0976167695
 20
124.9475531321
 10
58.0624396561
 20
124.9267670653
 10
58.0273413491
 20
124.9029666371
 10
57.9925099748
 20
124.8762891562
 10
57.958509912
 20
124.8471465482
 10
57.9253658777
 20
124.8155042463
 10
57.8930531549
 20
124.7813968174
 10
57.8620619714
 20
124.7453398877
 10
57.8324171627
 20
124.7073103472
 10
57.8040938932
 20
124.6673313059
 10
57.7775078836
 20
124.6259877199
 10
57.7526798584
 20
124.5832494026
 10
57.7295890932
 20
124.5391465406
 10
57.7085891356
 20
124.4943546495
 10
57.6897132736
 20
124.4488526601
 10
57.6729282192
 20
124.4026616417
 10
57.6584876563
 20
124.3565203175
 10
57.6464761463
 20
124.3106749285
 10
57.6368091279
 20
124.2648792336
 10
57.6294866011
 20
124.219133233
  0
LINE
  5
331
100
AcDbEntity
  8
RACCORDO
100
AcDbLine
 62
253
  6
CONTINUOUS
 10
61.7139772414
 20
127.5111882391
 11
57.6622937485
 21
125.9817743915
  0
LINE
  5
332
100
AcDbEntity
  8
ASSI
100
AcDbLine
 62
253
  6
CONTINUOUS
 10
61.7139772414
 20
127.5111882391
 11
57.6622937485
 21
125.9817743915
  0
LINE
  5
333
100
AcDbEntity
  8
RACCORDO
100
AcDbLine
 62
253
  6
CONTINUOUS
 10
62.2204552874
 20
126.5099079548
 11
58.1687717945
 21
124.9804941072
  0
LINE
  5
334
100
AcDbEntity
  8
ASSI
100
AcDbLine
 62
253
  6
CONTINUOUS
 10
62.2204552874
 20
126.5099079548
 11
58.1687717945
 21
124.9804941072
  0
LINE
  5
335
100
AcDbEntity
  8
26814000
100
AcDbLine
 62
7
  6
CONTINUOUS
 10
61.9624219693
 20
127.5387443868
 11
62.7755947677
 21
127.8230460547
  0
LWPOLYLINE
  5
336
100
AcDbEntity
  8
0
100
AcDbPolyline
 62
7
  6
CONTINUOUS
 90
22
 70
0
 10
69.685496982
 20
102.9207861525
 10
69.6730550572
 20
102.9175563091
 10
69.6606855395
 20
102.9147889382
 10
69.6483997073
 20
102.91247665
 10
69.6362181072
 20
102.9106128509
 10
69.6241416636
 20
102.9091872016
 10
69.6121526302
 20
102.9081890805
 10
69.6002623044
 20
102.9076122713
 10
69.5884812831
 20
102.9074500024
 10
69.5767921665
 20
102.9076961042
 10
69.5652002685
 20
102.908346166
 10
69.5537229165
 20
102.9093947327
 10
69.5423620582
 20
102.9108371308
 10
69.5311365665
 20
102.9126663577
 10
69.5200503261
 20
102.9148769439
 10
69.5090842282
 20
102.917469718
 10
69.4982457132
 20
102.9204416611
 10
69.4875512242
 20
102.9237867708
 10
69.4769967434
 20
102.9275052416
 10
69.4665893199
 20
102.9315945426
 10
69.4563462005
 20
102.9360476065
 10
69.4462790865
 20
102.940858482
  0
LWPOLYLINE
  5
337
100
AcDbEntity
  8
RACCORDO
100
AcDbPolyline
 62
7
  6
CONTINUOUS
 90
3
 70
0
 10
46.3879751286
 20
99.148130826
 10
46.4416758378
 20
99.1587524144
 10
46.4974312731
 20
99.1631107794
  0
LWPOLYLINE
  5
338
100
AcDbEntity
  8
ASSI
100
AcDbPolyline
 62
253
  6
CONTINUOUS
 90
5
 70
0
 10
46.3482037462
 20
99.2268306526
 10
46.4171164927
 20
99.2331494018
 10
46.4884740988
 20
99.2314825783
 10
46.5608115052
 20
99.2218800218
 10
46.6336393156
 20
99.2043579077
  0
LINE
  5
339
100
AcDbEntity
  8
0
100
AcDbLine
 62
7
  6
CONTINUOUS
 10
68.947952628
 20
95.7511611436
 11
68.9861698752
 21
95.73205252
  0
LINE
  5
33A
100
AcDbEntity
  8
26814000
100
AcDbLine
 62
7
  6
CONTINUOUS
 10
49.9769620282
 20
135.6456514718
 11
49.9769620282
 21
137.3777022794
  0
LINE
  5
33B
100
AcDbEntity
  8
26814000
100
AcDbLine
 62
7
  6
CONTINUOUS
 10
50.6799549825
 20
137.5130237772
 11
50.6799549825
 21
137.2520948008
  0
LWPOLYLINE
  5
33C
100
AcDbEntity
  8
ASSI
100
AcDbPolyline
 62
253
  6
CONTINUOUS
 90
5
 70
0
 10
47.6296542688
 20
97.3967340199
 10
47.6133433137
 20
97.3110906644
 10
47.5911912561
 20
97.2293079671
 10
47.5636262265
 20
97.1529652251
 10
47.5305359642
 20
97.0821656543
  0
LINE
  5
33D
100
AcDbEntity
  8
RACCORDO
100
AcDbLine
 62
7
  6
CONTINUOUS
 10
69.2258004217
 20
136.0747073113
 11
68.729131565
 21
135.5673434409
  0
LINE
  5
33E
100
AcDbEntity
  8
0
100
AcDbLine
 62
253
  6
CONTINUOUS
 10
79.6571358855
 20
134.8310783558
 11
80.3702077432
 21
135.1938556509
  0
LINE
  5
33F
100
AcDbEntity
  8
0
100
AcDbLine
 62
253
  6
CONTINUOUS
 10
79.7306678088
 20
134.7042545483
 11
80.411629017
 21
135.0506954611
  0
LINE
  5
340
100
AcDbEntity
  8
0
100
AcDbLine
 62
253
  6
CONTINUOUS
 10
70.6258735177
 20
129.8490985645
 11
79.7309203666
 21
134.4813200682
  0
LINE
  5
341
100
AcDbEntity
  8
0
100
AcDbLine
 62
253
  6
CONTINUOUS
 10
70.4149757428
 20
129.7112578402
 11
64.4372957034
 21
126.6700964583
  0
LINE
  5
342
100
AcDbEntity
  8
DRAFT
100
AcDbLine
 62
7
  6
CONTINUOUS
 10
80.3768040214
 20
135.5533241307
 11
80.842173027
 21
135.7860086335
  0
LINE
  5
343
100
AcDbEntity
  8
DRAFT
100
AcDbLine
 62
7
  6
CONTINUOUS
 10
80.7702280894
 20
135.6646678838
 11
80.5757737246
 21
135.5674407014
  0
LWPOLYLINE
  5
344
100
AcDbEntity
  8
0
100
AcDbPolyline
 62
253
  6
CONTINUOUS
 90
32
 70
0
 10
80.3702076231
 20
135.1938558581
 10
80.3793276084
 20
135.1983290332
 10
80.3884592031
 20
135.2025203738
 10
80.3975906577
 20
135.2064229441
 10
80.4067122421
 20
135.2100356817
 10
80.415809154
 20
135.2133452872
 10
80.4248626727
 20
135.2163270176
 10
80.4338633162
 20
135.2189727933
 10
80.4427969896
 20
135.2212774071
 10
80.4516402883
 20
135.2232220317
 10
80.4603841073
 20
135.2247989362
 10
80.4690163776
 20
135.2260044922
 10
80.4775122881
 20
135.2268281058
 10
80.4858596073
 20
135.2272635631
 10
80.4940532624
 20
135.2273084635
 10
80.5020813139
 20
135.2269593674
 10
80.5099303388
 20
135.2262127788
 10
80.5175980754
 20
135.2250647613
 10
80.5250882339
 20
135.2235105662
 10
80.5323925727
 20
135.2215456043
 10
80.5395006214
 20
135.2191653007
 10
80.5464101091
 20
135.2163633326
 10
80.5531132077
 20
135.2131333488
 10
80.5595974021
 20
135.2094717713
 10
80.5658522812
 20
135.2053758179
 10
80.5718690213
 20
135.2008396171
 10
80.5776369994
 20
135.1958599282
 10
80.5831433657
 20
135.1904381396
 10
80.5883795358
 20
135.1845694251
 10
80.5933363822
 20
135.1782508089
 10
80.5980007573
 20
135.1714868286
 10
80.6015868047
 20
135.1656311662
  0
LWPOLYLINE
  5
345
100
AcDbEntity
  8
0
100
AcDbPolyline
 62
253
  6
CONTINUOUS
 90
52
 70
0
 10
80.411629017
 20
135.0506954611
 10
80.4171158993
 20
135.0533716211
 10
80.4226411297
 20
135.0557939655
 10
80.4282047082
 20
135.0579624944
 10
80.4338146663
 20
135.0598866089
 10
80.4394629724
 20
135.0615569077
 10
80.4451255322
 20
135.0629451877
 10
80.4508030203
 20
135.0640490197
 10
80.456494762
 20
135.0648708328
 10
80.462174639
 20
135.0653897115
 10
80.4678428375
 20
135.0656027068
 10
80.4734991713
 20
135.0655127677
 10
80.4791169636
 20
135.0651078265
 10
80.4846932128
 20
135.0643859778
 10
80.4902309206
 20
135.0633491271
 10
80.4957124146
 20
135.0619909225
 10
80.5011342136
 20
135.0603124408
 10
80.5064997988
 20
135.0583126052
 10
80.5118019418
 20
135.0559818333
 10
80.5170423003
 20
135.0533205297
 10
80.5222192166
 20
135.0503282898
 10
80.5273204886
 20
135.0469943168
 10
80.5323482205
 20
135.0433172121
 10
80.5373003081
 20
135.0392983744
 10
80.542158237
 20
135.0349312026
 10
80.5469225548
 20
135.0302141528
 10
80.551592714
 20
135.025148769
 10
80.556148557
 20
135.0197330825
 10
80.560589989
 20
135.013965869
 10
80.5649171048
 20
135.0078483527
 10
80.5691100322
 20
135.0013822374
 10
80.5731688255
 20
134.99456587
 10
80.5770934304
 20
134.9874009035
 10
80.5808638116
 20
134.9798940015
 10
80.5844801468
 20
134.972042268
 10
80.5879422584
 20
134.9638485989
 10
80.5912295781
 20
134.9553283446
 10
80.5943415918
 20
134.9464789049
 10
80.5972788137
 20
134.9373028801
 10
80.6000222178
 20
134.9278234209
 10
80.6025710609
 20
134.9180371847
 10
80.6049260861
 20
134.9079475142
 10
80.6070704973
 20
134.8975875877
 10
80.6090029762
 20
134.8869549659
 10
80.610724841
 20
134.8760520882
 10
80.6122232506
 20
134.8649194511
 10
80.6134966943
 20
134.8535543279
 10
80.6145466828
 20
134.8419594452
 10
80.6153649067
 20
134.8301834796
 10
80.615948596
 20
134.8182426564
 10
80.6163005208
 20
134.8061207501
 10
80.6164206808
 20
134.7938177609
  0
LINE
  5
346
100
AcDbEntity
  8
ASSI
100
AcDbLine
 62
7
  6
CONTINUOUS
 10
46.3499657957
 20
99.1363804588
 11
46.4370697236
 21
99.1580982974
  0
LINE
  5
347
100
AcDbEntity
  8
0
100
AcDbLine
 62
253
  6
CONTINUOUS
 10
68.0435402875
 20
99.1727597089
 11
68.6058808219
 21
98.8915894417
  0
LINE
  5
348
100
AcDbEntity
  8
0
100
AcDbLine
 62
7
  6
CONTINUOUS
 10
67.9129428574
 20
99.3368882126
 11
68.3064210833
 21
99.1401490997
  0
LINE
  5
349
100
AcDbEntity
  8
0
100
AcDbLine
 62
253
  6
CONTINUOUS
 10
67.9111166355
 20
99.7487285311
 11
68.0442580373
 21
99.6821578302
  0
LINE
  5
34A
100
AcDbEntity
  8
26814000
100
AcDbLine
 62
7
  6
CONTINUOUS
 10
52.1547190312
 20
135.11963834
 11
52.1547190312
 21
133.9049049538
  0
LINE
  5
34B
100
AcDbEntity
  8
26814000
100
AcDbLine
 62
253
  6
CONTINUOUS
 10
52.2425869968
 20
135.0131293832
 11
52.2425869968
 21
133.7981745171
  0
LINE
  5
34C
100
AcDbEntity
  8
26814000
100
AcDbLine
 62
7
  6
CONTINUOUS
 10
52.4164804233
 20
132.3117151598
 11
52.4164804233
 21
132.1599366482
  0
LWPOLYLINE
  5
34D
100
AcDbEntity
  8
RACCORDO
100
AcDbPolyline
 62
253
  6
CONTINUOUS
 90
14
 70
0
 10
53.5373316282
 20
88.1422760189
 10
53.5372374026
 20
88.0502423349
 10
53.542492256
 20
87.961063407
 10
53.5530695065
 20
87.8751849416
 10
53.5689163445
 20
87.7930389418
 10
53.5899527488
 20
87.715032031
 10
53.6160741939
 20
87.6415453718
 10
53.6471573827
 20
87.5729383881
 10
53.6830456877
 20
87.5095651723
 10
53.7235462058
 20
87.4517600149
 10
53.7684465045
 20
87.3998182104
 10
53.8175291989
 20
87.3539832087
 10
53.8705623462
 20
87.3144699483
 10
53.9294628665
 20
87.28037938
  0
LWPOLYLINE
  5
34E
100
AcDbEntity
  8
ASSI
100
AcDbPolyline
 62
253
  6
CONTINUOUS
 90
14
 70
0
 10
53.5373316282
 20
88.1422760189
 10
53.5372374026
 20
88.0502423349
 10
53.542492256
 20
87.961063407
 10
53.5530695065
 20
87.8751849416
 10
53.5689163445
 20
87.7930389418
 10
53.5899527488
 20
87.715032031
 10
53.6160741939
 20
87.6415453718
 10
53.6471573827
 20
87.5729383881
 10
53.6830456877
 20
87.5095651723
 10
53.7235462058
 20
87.4517600149
 10
53.7684465045
 20
87.3998182104
 10
53.8175291989
 20
87.3539832087
 10
53.8705623462
 20
87.3144699483
 10
53.9259358219
 20
87.2821654892
  0
LINE
  5
34F
100
AcDbEntity
  8
28414000
100
AcDbLine
 62
7
  6
CONTINUOUS
 10
57.3231202868
 20
129.8583952281
 11
57.279892082
 21
129.7282308188
  0
LINE
  5
350
100
AcDbEntity
  8
26814000
100
AcDbLine
 62
7
  6
CONTINUOUS
 10
63.9563990276
 20
130.3379844306
 11
63.4291543119
 21
129.6962767025
  0
LINE
  5
351
100
AcDbEntity
  8
0
100
AcDbLine
 62
253
  6
CONTINUOUS
 10
71.0400239933
 20
128.4174649898
 11
80.1450724273
 21
133.0496805566
  0
LINE
  5
352
100
AcDbEntity
  8
0
100
AcDbLine
 62
253
  6
CONTINUOUS
 10
70.8291262184
 20
128.2796242656
 11
64.4372957034
 21
125.0277626748
  0
LINE
  5
353
100
AcDbEntity
  8
0
100
AcDbLine
 62
7
  6
CONTINUOUS
 10
70.7283898954
 20
100.0930766048
 11
70.8291262184
 21
100.0427084433
  0
LWPOLYLINE
  5
354
100
AcDbEntity
  8
RACCORDO
100
AcDbPolyline
 62
253
  6
CONTINUOUS
 90
22
 70
0
 10
54.6584002443
 20
88.1125039607
 10
54.6584064839
 20
88.0694023167
 10
54.660889067
 20
88.0279619894
 10
54.6658479938
 20
87.9881829788
 10
54.6733314069
 20
87.9498642639
 10
54.6832911635
 20
87.9132068657
 10
54.6955828355
 20
87.8788138466
 10
54.7102436816
 20
87.8467351452
 10
54.727236443
 20
87.816920823
 10
54.7463049154
 20
87.7898241272
 10
54.7674769044
 20
87.7654900703
 10
54.7907246044
 20
87.7438736399
 10
54.8157083938
 20
87.7252930461
 10
54.8424605071
 20
87.7097907288
 10
54.8709487098
 20
87.697324248
 10
54.9007366771
 20
87.6880844935
 10
54.9318535049
 20
87.6821273633
 10
54.9642700973
 20
87.6793969593
 10
54.9974628413
 20
87.6799164776
 10
55.0312571992
 20
87.6836936504
 10
55.0658277086
 20
87.6907207455
 10
55.1011743696
 20
87.700997763
  0
LWPOLYLINE
  5
355
100
AcDbEntity
  8
ASSI
100
AcDbPolyline
 62
253
  6
CONTINUOUS
 90
22
 70
0
 10
54.6584002443
 20
88.1125039607
 10
54.6584064839
 20
88.0694023167
 10
54.660889067
 20
88.0279619894
 10
54.6658479938
 20
87.9881829788
 10
54.6733314069
 20
87.9498642639
 10
54.6832911635
 20
87.9132068657
 10
54.6955828355
 20
87.8788138466
 10
54.7102436816
 20
87.8467351452
 10
54.727236443
 20
87.816920823
 10
54.7463049154
 20
87.7898241272
 10
54.7674769044
 20
87.7654900703
 10
54.7907246044
 20
87.7438736399
 10
54.8157083938
 20
87.7252930461
 10
54.8424605071
 20
87.7097907288
 10
54.8709487098
 20
87.697324248
 10
54.9007366771
 20
87.6880844935
 10
54.9318535049
 20
87.6821273633
 10
54.9642700973
 20
87.6793969593
 10
54.9974628413
 20
87.6799164776
 10
55.0312571992
 20
87.6836936504
 10
55.0658277086
 20
87.6907207455
 10
55.1011743696
 20
87.700997763
  0
LWPOLYLINE
  5
356
100
AcDbEntity
  8
RACCORDO
100
AcDbPolyline
 62
253
  6
CONTINUOUS
 90
7
 70
0
 10
54.5419761774
 20
106.0711092323
 10
54.3070154004
 20
103.0567685195
 10
54.0990312298
 20
100.0524070732
 10
53.9180495939
 20
97.0584020176
 10
53.764093271
 20
94.0751291333
 10
53.6371818838
 20
91.1029628093
 10
53.5373316282
 20
88.1422760189
  0
LWPOLYLINE
  5
357
100
AcDbEntity
  8
RACCORDO
100
AcDbPolyline
 62
253
  6
CONTINUOUS
 90
7
 70
0
 10
55.6603428298
 20
105.9935299562
 10
55.4260229098
 20
102.9873449273
 10
55.218577378
 20
99.9907338053
 10
55.0380845172
 20
97.0048307334
 10
54.8845704218
 20
94.0300137591
 10
54.7580089975
 20
91.0659048349
 10
54.6584002443
 20
88.1125039607
  0
LWPOLYLINE
  5
358
100
AcDbEntity
  8
ASSI
100
AcDbPolyline
 62
253
  6
CONTINUOUS
 90
7
 70
0
 10
55.6603428298
 20
105.9935299562
 10
55.4260229098
 20
102.9873449273
 10
55.218577378
 20
99.9907338053
 10
55.0380845172
 20
97.0048307334
 10
54.8845704218
 20
94.0300137591
 10
54.7580089975
 20
91.0659048349
 10
54.6584002443
 20
88.1125039607
  0
LINE
  5
359
100
AcDbEntity
  8
RACCORDO
100
AcDbLine
 62
253
  6
CONTINUOUS
 10
54.8038842108
 20
109.0950507418
 11
54.5419761774
 21
106.0711092323
  0
LWPOLYLINE
  5
35A
100
AcDbEntity
  8
RACCORDO
100
AcDbPolyline
 62
253
  6
CONTINUOUS
 90
3
 70
0
 10
55.4084065582
 20
115.1702169985
 10
55.0927064775
 20
112.1282135183
 10
54.8038842108
 20
109.0950507418
  0
LWPOLYLINE
  5
35B
100
AcDbEntity
  8
RACCORDO
100
AcDbPolyline
 62
253
  6
CONTINUOUS
 90
4
 70
0
 10
56.5163620662
 20
124.3454470806
 10
56.1202787568
 20
121.2792173736
 10
55.7509448879
 20
118.2206793211
 10
55.4084065582
 20
115.1702169985
  0
LWPOLYLINE
  5
35C
100
AcDbEntity
  8
ASSI
100
AcDbPolyline
 62
253
  6
CONTINUOUS
 90
13
 70
0
 10
56.5163620662
 20
124.3454470806
 10
56.1202787568
 20
121.2792173736
 10
55.7509448879
 20
118.2206793211
 10
55.4084065582
 20
115.1702169985
 10
55.0927064775
 20
112.1282135183
 10
54.8038842108
 20
109.0950507418
 10
54.5419761774
 20
106.0711092323
 10
54.3070154004
 20
103.0567685195
 10
54.0990312298
 20
100.0524070732
 10
53.9180495939
 20
97.0584020176
 10
53.764093271
 20
94.0751291333
 10
53.6371818838
 20
91.1029628093
 10
53.5373316282
 20
88.1422760189
  0
LWPOLYLINE
  5
35D
100
AcDbEntity
  8
RACCORDO
100
AcDbPolyline
 62
253
  6
CONTINUOUS
 90
7
 70
0
 10
57.6294866011
 20
124.219133233
 10
57.2343825949
 20
121.160456435
 10
56.8660439397
 20
118.1102101377
 10
56.5244706356
 20
115.0683943412
 10
56.2096263369
 20
112.0346279101
 10
55.9215473893
 20
109.0092919797
 10
55.6603428298
 20
105.9935299562
  0
LWPOLYLINE
  5
35E
100
AcDbEntity
  8
ASSI
100
AcDbPolyline
 62
253
  6
CONTINUOUS
 90
7
 70
0
 10
57.6294866011
 20
124.219133233
 10
57.2343825949
 20
121.160456435
 10
56.8660439397
 20
118.1102101377
 10
56.5244706356
 20
115.0683943412
 10
56.2096263369
 20
112.0346279101
 10
55.9215473893
 20
109.0092919797
 10
55.6603428298
 20
105.9935299562
  0
LINE
  5
35F
100
AcDbEntity
  8
0
100
AcDbLine
 62
7
  6
CONTINUOUS
 10
46.7672368452
 20
99.1033221332
 11
46.7501994782
 21
99.0684030228
  0
LINE
  5
360
100
AcDbEntity
  8
ASSI
100
AcDbLine
 62
7
  6
CONTINUOUS
 10
46.7672368452
 20
99.1033221332
 11
46.7433053248
 21
99.0542730399
  0
LINE
  5
361
100
AcDbEntity
  8
RACCORDO
100
AcDbLine
 62
7
  6
CONTINUOUS
 10
72.337070259
 20
134.5190723926
 11
71.8404014023
 21
134.0117085223
  0
LWPOLYLINE
  5
362
100
AcDbEntity
  8
0
100
AcDbPolyline
 62
253
  6
CONTINUOUS
 90
22
 70
0
 10
81.187218707
 20
130.3765708067
 10
81.1947717572
 20
130.3806289757
 10
81.2020209986
 20
130.3848246714
 10
81.2089563622
 20
130.3891522322
 10
81.2155685786
 20
130.3936060767
 10
81.2218480142
 20
130.3981799286
 10
81.2277848831
 20
130.4028667558
 10
81.2333707355
 20
130.407659853
 10
81.2385983025
 20
130.4125529458
 10
81.243460461
 20
130.4175393707
 10
81.2479505731
 20
130.4226123314
 10
81.2520624688
 20
130.4277648691
 10
81.255790491
 20
130.4329898986
 10
81.2591295322
 20
130.4382802558
 10
81.2620750398
 20
130.4436287209
 10
81.2646229921
 20
130.4490279906
 10
81.2667699047
 20
130.4544706842
 10
81.2685128381
 20
130.459949353
 10
81.2698494073
 20
130.4654565029
 10
81.2707777832
 20
130.4709846008
 10
81.2712966955
 20
130.4765260858
 10
81.2714167668
 20
130.4807677991
  0
LWPOLYLINE
  5
363
100
AcDbEntity
  8
0
100
AcDbPolyline
 62
253
  6
CONTINUOUS
 90
13
 70
0
 10
80.2759754449
 20
130.3805159131
 10
80.2718907843
 20
130.3783778392
 10
80.2677955
 20
130.3763977088
 10
80.263693611
 20
130.3745786121
 10
80.2595867541
 20
130.3729233925
 10
80.2554815147
 20
130.3714351455
 10
80.251389354
 20
130.3701165817
 10
80.2473155599
 20
130.3689691635
 10
80.2432631483
 20
130.367995265
 10
80.2392400333
 20
130.3671976053
 10
80.2352503501
 20
130.3665771642
 10
80.2312980473
 20
130.3661347118
 10
80.2294166886
 20
130.3660078914
  0
LINE
  5
364
100
AcDbEntity
  8
0
100
AcDbLine
 62
7
  6
CONTINUOUS
 10
70.8291262184
 20
126.0234705568
 11
68.6058808219
 21
124.8723515553
  0
LINE
  5
365
100
AcDbEntity
  8
0
100
AcDbLine
 62
253
  6
CONTINUOUS
 10
80.2766525805
 20
130.3808524954
 11
80.9714167669
 21
130.7405771834
  0
LINE
  5
366
100
AcDbEntity
  8
0
100
AcDbLine
 62
253
  6
CONTINUOUS
 10
80.4924545206
 20
130.0168461187
 11
81.187218707
 21
130.3765708067
  0
LINE
  5
367
100
AcDbEntity
  8
0
100
AcDbLine
 62
7
  6
CONTINUOUS
 10
71.0400239933
 20
125.7571094669
 11
68.7450872351
 21
124.5808587165
  0
LWPOLYLINE
  5
368
100
AcDbEntity
  8
0
100
AcDbPolyline
 62
253
  6
CONTINUOUS
 90
52
 70
0
 10
80.4924545206
 20
130.0168461187
 10
80.4818915322
 20
130.0115720881
 10
80.4713266432
 20
130.0067039805
 10
80.4607598533
 20
130.002241796
 10
80.4501763701
 20
129.9981775569
 10
80.4395909861
 20
129.9945192408
 10
80.4290480791
 20
129.9912907808
 10
80.4185485143
 20
129.9884955503
 10
80.4080914264
 20
129.986130176
 10
80.3977185975
 20
129.9842084709
 10
80.3874307528
 20
129.9827335846
 10
80.3772271672
 20
129.9817023677
 10
80.3671474465
 20
129.9811191846
 10
80.3571942138
 20
129.9809866932
 10
80.3473648461
 20
129.9813022358
 10
80.3376910808
 20
129.982062204
 10
80.3281768198
 20
129.9832673541
 10
80.3188181612
 20
129.9849169298
 10
80.3096351366
 20
129.9870050542
 10
80.3006278742
 20
129.9895318526
 10
80.2917962457
 20
129.9924971998
 10
80.2831598981
 20
129.9958948425
 10
80.2747170203
 20
129.9997264794
 10
80.2664694233
 20
130.0039904118
 10
80.2584421869
 20
130.0086752905
 10
80.2506350488
 20
130.0137836225
 10
80.2430482714
 20
130.0193129006
 10
80.2357077212
 20
130.0252442546
 10
80.228615501
 20
130.0315784814
 10
80.221769508
 20
130.0383147841
 10
80.2151893001
 20
130.0454319016
 10
80.2088769954
 20
130.0529287011
 10
80.2028304758
 20
130.0608063154
 10
80.1970629453
 20
130.0690468817
 10
80.1915745079
 20
130.0776505006
 10
80.1863650597
 20
130.0866170715
 10
80.1814474922
 20
130.095928429
 10
80.176820801
 20
130.1055887949
 10
80.1724859906
 20
130.1155939474
 10
80.1684589663
 20
130.1259130557
 10
80.1647407027
 20
130.136549995
 10
80.1613302252
 20
130.14750089
 10
80.1582405157
 20
130.1587232841
 10
80.1554737787
 20
130.1702192941
 10
80.1530278097
 20
130.1819868031
 10
80.1509089771
 20
130.1939770042
 10
80.1491196317
 20
130.2061921712
 10
80.1476574228
 20
130.2186300303
 10
80.1465216663
 20
130.2312349532
 10
80.1457121342
 20
130.2439883972
 10
80.1452290545
 20
130.256908905
 10
80.1450724273
 20
130.2699964766
  0
LINE
  5
369
100
AcDbEntity
  8
0
100
AcDbLine
 62
253
  6
CONTINUOUS
 10
80.2766525805
 20
130.3808524954
 11
80.2759754449
 21
130.3805159131
  0
LINE
  5
36A
100
AcDbEntity
  8
0
100
AcDbLine
 62
7
  6
CONTINUOUS
 10
70.683385189
 20
123.2154221477
 11
69.7561242978
 21
122.7598137777
  0
LWPOLYLINE
  5
36B
100
AcDbEntity
  8
0
100
AcDbPolyline
 62
253
  6
CONTINUOUS
 90
40
 70
0
 10
69.6480079243
 20
106.4300999707
 10
69.6557867066
 20
106.4289173419
 10
69.6635528717
 20
106.427455692
 10
69.6712938228
 20
106.4257173918
 10
69.6789970041
 20
106.423705261
 10
69.686649921
 20
106.4214225631
 10
69.6942401604
 20
106.4188730007
 10
69.701755411
 20
106.4160607092
 10
69.709183483
 20
106.4129902502
 10
69.716512328
 20
106.409666604
 10
69.7237300586
 20
106.4060951614
 10
69.7308249676
 20
106.4022817155
 10
69.7377855471
 20
106.3982324516
 10
69.7446005069
 20
106.3939539377
 10
69.7512587932
 20
106.3894531135
 10
69.7577496063
 20
106.3847372794
 10
69.7640624179
 20
106.3798140844
 10
69.7701869887
 20
106.3746915141
 10
69.7761133846
 20
106.3693778772
 10
69.781831993
 20
106.3638817925
 10
69.7873335383
 20
106.3582121747
 10
69.7926090969
 20
106.3523782198
 10
69.7976501118
 20
106.3463893907
 10
69.8024484066
 20
106.3402554011
 10
69.8069961984
 20
106.3339862005
 10
69.8112861106
 20
106.3275919575
 10
69.815311185
 20
106.3210830435
 10
69.8190648929
 20
106.3144700162
 10
69.8225411458
 20
106.3077636018
 10
69.8257343051
 20
106.3009746782
 10
69.8286391916
 20
106.294114257
 10
69.8312510936
 20
106.2871934658
 10
69.8335657744
 20
106.2802235302
 10
69.8355794797
 20
106.2732157555
 10
69.8372889433
 20
106.2661815083
 10
69.8386913924
 20
106.2591321982
 10
69.8397845522
 20
106.2520792591
 10
69.8405666496
 20
106.245034131
 10
69.841036416
 20
106.2380082411
 10
69.8411930895
 20
106.2310129855
  0
LINE
  5
36C
100
AcDbEntity
  8
0
100
AcDbLine
 62
253
  6
CONTINUOUS
 10
69.7561242978
 20
101.9752040869
 11
69.406721933
 21
102.1499052693
  0
LINE
  5
36D
100
AcDbEntity
  8
0
100
AcDbLine
 62
7
  6
CONTINUOUS
 10
69.4462790865
 20
102.940858482
 11
69.3994854936
 21
102.9642552785
  0
LINE
  5
36E
100
AcDbEntity
  8
0
100
AcDbLine
 62
253
  6
CONTINUOUS
 10
70.683385189
 20
102.4308124569
 11
70.0685883918
 21
102.7382108555
  0
LINE
  5
36F
100
AcDbEntity
  8
26814000
100
AcDbLine
 62
7
  6
CONTINUOUS
 10
60.7131070891
 20
108.1916041281
 11
61.0431831537
 21
108.0265660958
  0
LINE
  5
370
100
AcDbEntity
  8
0
100
AcDbLine
 62
253
  6
CONTINUOUS
 10
71.0400239933
 20
103.0390591472
 11
70.415970485
 21
103.3510859014
  0
LINE
  5
371
100
AcDbEntity
  8
26814000
100
AcDbLine
 62
7
  6
CONTINUOUS
 10
57.3662278916
 20
129.8368414257
 11
57.3662278916
 21
129.685062914
  0
LINE
  5
372
100
AcDbEntity
  8
26814000
100
AcDbLine
 62
253
  6
CONTINUOUS
 10
58.0350960649
 20
130.9019199831
 11
58.0350960649
 21
132.1168748492
  0
LINE
  5
373
100
AcDbEntity
  8
26814000
100
AcDbLine
 62
7
  6
CONTINUOUS
 10
58.3915327243
 20
135.0784625775
 11
58.3915327243
 21
136.4051646769
  0
LINE
  5
374
100
AcDbEntity
  8
26814000
100
AcDbLine
 62
253
  6
CONTINUOUS
 10
58.4581224165
 20
130.9035588307
 11
58.4581224165
 21
132.1177623035
  0
LWPOLYLINE
  5
375
100
AcDbEntity
  8
RACCORDO
100
AcDbPolyline
 62
253
  6
CONTINUOUS
 90
16
 70
0
 10
58.1687717945
 20
124.9804941072
 10
58.1708632093
 20
125.0567771494
 10
58.1668449489
 20
125.1353619637
 10
58.1567609891
 20
125.2153879174
 10
58.140721736
 20
125.2959785901
 10
58.1189028189
 20
125.3762513636
 10
58.0915431701
 20
125.4553270885
 10
58.0589424023
 20
125.5323397304
 10
58.0214575343
 20
125.6064458348
 10
57.9794990888
 20
125.6768337591
 10
57.9335265758
 20
125.7427326
 10
57.8840434751
 20
125.8034206079
 10
57.831591737
 20
125.8582330805
 10
57.7767458174
 20
125.906569683
 10
57.7201063824
 20
125.9479010158
 10
57.6622937504
 20
125.9817743922
  0
LWPOLYLINE
  5
376
100
AcDbEntity
  8
ASSI
100
AcDbPolyline
 62
253
  6
CONTINUOUS
 90
16
 70
0
 10
58.1687717945
 20
124.9804941072
 10
58.1708632093
 20
125.0567771494
 10
58.1668449489
 20
125.1353619637
 10
58.1567609891
 20
125.2153879174
 10
58.140721736
 20
125.2959785901
 10
58.1189028189
 20
125.3762513636
 10
58.0915431701
 20
125.4553270885
 10
58.0589424023
 20
125.5323397304
 10
58.0214575343
 20
125.6064458348
 10
57.9794990888
 20
125.6768337591
 10
57.9335265758
 20
125.7427326
 10
57.8840434751
 20
125.8034206079
 10
57.831591737
 20
125.8582330805
 10
57.7767458174
 20
125.906569683
 10
57.7201063824
 20
125.9479010158
 10
57.6622937504
 20
125.9817743922
  0
LWPOLYLINE
  5
377
100
AcDbEntity
  8
RACCORDO
100
AcDbPolyline
 62
7
  6
CONTINUOUS
 90
6
 70
0
 10
47.5285901294
 20
97.1910816617
 10
47.4942074276
 20
97.1258847608
 10
47.454899953
 20
97.0678210171
 10
47.4109981455
 20
97.017230011
 10
47.3629944787
 20
96.9744841624
 10
47.311183361
 20
96.9396409658
  0
LWPOLYLINE
  5
378
100
AcDbEntity
  8
RACCORDO
100
AcDbPolyline
 62
253
  6
CONTINUOUS
 90
3
 70
0
 10
47.5305359642
 20
97.0821656543
 10
47.4920285761
 20
97.0168042848
 10
47.4488602201
 20
96.958147056
  0
LWPOLYLINE
  5
379
100
AcDbEntity
  8
ASSI
100
AcDbPolyline
 62
253
  6
CONTINUOUS
 90
3
 70
0
 10
47.5305359642
 20
97.0821656543
 10
47.4920285761
 20
97.0168042848
 10
47.4488602201
 20
96.958147056
  0
LWPOLYLINE
  5
37A
100
AcDbEntity
  8
0
100
AcDbPolyline
 62
253
  6
CONTINUOUS
 90
16
 70
0
 10
69.7734135023
 20
121.7405768362
 10
69.7781775123
 20
121.7430419308
 10
69.7827883663
 20
121.7455979034
 10
69.7872384287
 20
121.7482427054
 10
69.7915233086
 20
121.7509762215
 10
69.7956320575
 20
121.7537940813
 10
69.7995486656
 20
121.7566871189
 10
69.8032659115
 20
121.7596510513
 10
69.806779634
 20
121.7626836718
 10
69.8100807652
 20
121.7657780545
 10
69.8131642061
 20
121.7689298567
 10
69.8160264225
 20
121.7721359336
 10
69.8186621424
 20
121.7753907441
 10
69.8210676241
 20
121.7786897246
 10
69.823240274
 20
121.7820293807
 10
69.8251773113
 20
121.7854056098
  0
LINE
  5
37B
100
AcDbEntity
  8
0
100
AcDbLine
 62
7
  6
CONTINUOUS
 10
69.9943388092
 20
122.6648194682
 11
69.4471437646
 21
122.3912219459
  0
LWPOLYLINE
  5
37C
100
AcDbEntity
  8
0
100
AcDbPolyline
 62
253
  6
CONTINUOUS
 90
28
 70
0
 10
69.5991752061
 20
121.3978288617
 10
69.5933660493
 20
121.3950389762
 10
69.5873369289
 20
121.392368309
 10
69.5810976244
 20
121.3898211917
 10
69.5746582558
 20
121.3874017559
 10
69.5680292678
 20
121.3851139259
 10
69.5612214127
 20
121.3829614126
 10
69.5542457328
 20
121.3809477072
 10
69.5471135428
 20
121.3790760762
 10
69.539836411
 20
121.3773495552
 10
69.5324261409
 20
121.3757709447
 10
69.5248947522
 20
121.3743428052
 10
69.5172544606
 20
121.3730674532
 10
69.5095176589
 20
121.3719469572
 10
69.5016968961
 20
121.3709831347
 10
69.4938048574
 20
121.3701775491
 10
69.4858543439
 20
121.369531507
 10
69.4778582514
 20
121.3690460563
 10
69.4698295494
 20
121.3687219844
 10
69.4617812605
 20
121.3685598169
 10
69.4537264392
 20
121.3685598169
 10
69.4456781504
 20
121.3687219844
 10
69.4376494484
 20
121.3690460563
 10
69.4296533558
 20
121.369531507
 10
69.4217028423
 20
121.3701775491
 10
69.4138108037
 20
121.3709831347
 10
69.4059900408
 20
121.3719469572
 10
69.3994854936
 20
121.3728889897
  0
LINE
  5
37D
100
AcDbEntity
  8
0
100
AcDbLine
 62
253
  6
CONTINUOUS
 10
69.3994854936
 20
106.5543611861
 11
69.6480079243
 21
106.4300999707
  0
LWPOLYLINE
  5
37E
100
AcDbEntity
  8
0
100
AcDbPolyline
 62
253
  6
CONTINUOUS
 90
40
 70
0
 10
69.6067296539
 20
106.3806182178
 10
69.6124446057
 20
106.3776430195
 10
69.6181912637
 20
106.3744167144
 10
69.6239603067
 20
106.3709445354
 10
69.6297423774
 20
106.3672321145
 10
69.6355280973
 20
106.3632854733
 10
69.6413080818
 20
106.3591110132
 10
69.6470729559
 20
106.3547155052
 10
69.6528133688
 20
106.3501060788
 10
69.6585200096
 20
106.3452902105
 10
69.6641836221
 20
106.3402757117
 10
69.66979502
 20
106.335070716
 10
69.6753451014
 20
106.3296836658
 10
69.6808248642
 20
106.3241232989
 10
69.6862254201
 20
106.3183986344
 10
69.6915380095
 20
106.3125189576
 10
69.6967540153
 20
106.3064938053
 10
69.701864977
 20
106.3003329505
 10
69.7068626048
 20
106.294046386
 10
69.7117387925
 20
106.2876443087
 10
69.7164856307
 20
106.2811371027
 10
69.7210954203
 20
106.2745353228
 10
69.725560684
 20
106.267849677
 10
69.7298741791
 20
106.2610910096
 10
69.7340289093
 20
106.2542702831
 10
69.7380181355
 20
106.2473985607
 10
69.7418353871
 20
106.2404869884
 10
69.7454744726
 20
106.2335467768
 10
69.7489294893
 20
106.226589183
 10
69.7521948333
 20
106.2196254922
 10
69.755265208
 20
106.2126669995
 10
69.7581356334
 20
106.2057249916
 10
69.7608014536
 20
106.1988107285
 10
69.7632583446
 20
106.1919354251
 10
69.7655023214
 20
106.1851102333
 10
69.7675297441
 20
106.1783462234
 10
69.7693373244
 20
106.1716543668
 10
69.7709221303
 20
106.1650455177
 10
69.7722815913
 20
106.1585303956
 10
69.7734135023
 20
106.1521195681
  0
LWPOLYLINE
  5
37F
100
AcDbEntity
  8
26814000
100
AcDbPolyline
 62
7
  6
CONTINUOUS
 90
13
 70
0
 10
69.2103146632
 20
95.5968292135
 10
69.2074234982
 20
95.6007224044
 10
69.203734734
 20
95.6051047446
 10
69.1992747701
 20
95.6098620375
 10
69.1940819118
 20
95.6150018921
 10
69.1881992546
 20
95.6205492508
 10
69.1816387205
 20
95.6264168494
 10
69.1744318173
 20
95.6326141574
 10
69.1666146716
 20
95.639159282
 10
69.1581907322
 20
95.6459801581
 10
69.1491778408
 20
95.6530621829
 10
69.1396159954
 20
95.6604458262
 10
69.1295362383
 20
95.6681423809
  0
LINE
  5
380
100
AcDbEntity
  8
26814000
100
AcDbLine
 62
7
  6
CONTINUOUS
 10
60.1058068987
 20
100.8112858879
 11
60.7699697513
 21
94.6207705569
  0
LINE
  5
381
100
AcDbEntity
  8
26814000
100
AcDbLine
 62
7
  6
CONTINUOUS
 10
60.4391056932
 20
104.8617558387
 11
60.4698267427
 21
104.5730669822
  0
LINE
  5
382
100
AcDbEntity
  8
26814000
100
AcDbLine
 62
7
  6
CONTINUOUS
 10
61.0431831537
 20
108.0265660958
 11
62.7755947677
 21
91.6124051883
  0
LINE
  5
383
100
AcDbEntity
  8
26814000
100
AcDbLine
 62
7
  6
CONTINUOUS
 10
58.7450861149
 20
135.6758297923
 11
58.7450861149
 21
136.2283879816
  0
LINE
  5
384
100
AcDbEntity
  8
26814000
100
AcDbLine
 62
253
  6
CONTINUOUS
 10
58.815796793
 20
137.8445962791
 11
58.815796793
 21
136.6127620977
  0
LINE
  5
385
100
AcDbEntity
  8
26814000
100
AcDbLine
 62
7
  6
CONTINUOUS
 10
58.9036647587
 20
137.9495934931
 11
58.9036647587
 21
136.7172248882
  0
LINE
  5
386
100
AcDbEntity
  8
26814000
100
AcDbLine
 62
7
  6
CONTINUOUS
 10
58.9572181492
 20
132.3679589766
 11
58.9572181492
 21
131.1555234113
  0
LINE
  5
387
100
AcDbEntity
  8
26814000
100
AcDbLine
 62
7
  6
CONTINUOUS
 10
59.9574522102
 20
88.5854969197
 11
59.9574522102
 21
88.8388683134
  0
LINE
  5
388
100
AcDbEntity
  8
26814000
100
AcDbLine
 62
7
  6
CONTINUOUS
 10
59.9574522102
 20
130.1384724528
 11
59.9574522102
 21
130.3918438465
  0
LINE
  5
389
100
AcDbEntity
  8
26814000
100
AcDbLine
 62
7
  6
CONTINUOUS
 10
60.6604451645
 20
129.2319131981
 11
60.6604451645
 21
129.6842441738
  0
LWPOLYLINE
  5
38A
100
AcDbEntity
  8
RACCORDO
100
AcDbPolyline
 62
253
  6
CONTINUOUS
 90
11
 70
0
 10
55.1011743696
 20
87.700997763
 10
55.0909084622
 20
87.6271073071
 10
55.0746680952
 20
87.5571632322
 10
55.0526311326
 20
87.4919315633
 10
55.0250389224
 20
87.4321267153
 10
54.9921936535
 20
87.378403669
 10
54.9544550461
 20
87.331350797
 10
54.9122364121
 20
87.2914834209
 10
54.8660001286
 20
87.2592381667
 10
54.8162525736
 20
87.2349681834
 10
54.79947184
 20
87.2288623351
  0
LWPOLYLINE
  5
38B
100
AcDbEntity
  8
ASSI
100
AcDbPolyline
 62
253
  6
CONTINUOUS
 90
11
 70
0
 10
55.1011743696
 20
87.700997763
 10
55.0909084622
 20
87.6271073071
 10
55.0746680952
 20
87.5571632322
 10
55.0526311326
 20
87.4919315633
 10
55.0250389224
 20
87.4321267153
 10
54.9921936535
 20
87.378403669
 10
54.9544550461
 20
87.331350797
 10
54.9122364121
 20
87.2914834209
 10
54.8660001286
 20
87.2592381667
 10
54.8162525736
 20
87.2349681834
 10
54.79947184
 20
87.2288623351
  0
LWPOLYLINE
  5
38C
100
AcDbEntity
  8
ASSI
100
AcDbPolyline
 62
253
  6
CONTINUOUS
 90
5
 70
0
 10
46.1244532314
 20
98.9746102182
 10
46.1688196713
 20
99.0226128105
 10
46.2172307786
 20
99.0641101732
 10
46.2693998683
 20
99.0988506954
 10
46.3249738827
 20
99.1266040631
  0
LWPOLYLINE
  5
38D
100
AcDbEntity
  8
0
100
AcDbPolyline
 62
253
  6
CONTINUOUS
 90
24
 70
0
 10
69.6067336841
 20
121.9690783971
 10
69.5960329169
 20
121.9611393534
 10
69.5854028662
 20
121.9528327501
 10
69.5748536395
 20
121.9441665362
 10
69.5643954072
 20
121.9351491265
 10
69.5540379653
 20
121.9257890278
 10
69.5437907406
 20
121.9160947847
 10
69.5336633451
 20
121.9060754804
 10
69.5236655567
 20
121.8957407784
 10
69.5138068929
 20
121.8851005163
 10
69.5040967333
 20
121.8741648168
 10
69.4945443182
 20
121.8629440861
 10
69.4851587444
 20
121.8514490099
 10
69.4759489462
 20
121.8396905317
 10
69.4669236819
 20
121.8276798346
 10
69.4580915337
 20
121.8154283402
 10
69.4494609034
 20
121.8029477029
 10
69.441040005
 20
121.7902498004
 10
69.4328368508
 20
121.7773467149
 10
69.4248592462
 20
121.7642507234
 10
69.4171147817
 20
121.7509742866
 10
69.4096108261
 20
121.737530037
 10
69.4023545199
 20
121.7239307677
 10
69.3994854936
 20
121.7183001355
  0
LWPOLYLINE
  5
38E
100
AcDbEntity
  8
0
100
AcDbPolyline
 62
253
  6
CONTINUOUS
 90
46
 70
0
 10
69.7734135023
 20
121.7405764351
 10
69.7669838835
 20
121.7358055187
 10
69.7606084746
 20
121.730823689
 10
69.7542872756
 20
121.7256309462
 10
69.7480143762
 20
121.7202219353
 10
69.7417956867
 20
121.7146020113
 10
69.7356489378
 20
121.7087872384
 10
69.7295743358
 20
121.7027770761
 10
69.7235716743
 20
121.6965720648
 10
69.7176580651
 20
121.6901898912
 10
69.7118337617
 20
121.6836300485
 10
69.7060985106
 20
121.6768930435
 10
69.7004686629
 20
121.6699980824
 10
69.694944522
 20
121.6629447179
 10
69.6895257844
 20
121.6557333975
 10
69.6842278915
 20
121.64838467
 10
69.6790511867
 20
121.6408981422
 10
69.6739953266
 20
121.6332742074
 10
69.6690747217
 20
121.6255345945
 10
69.6642897578
 20
121.6176789734
 10
69.659640049
 20
121.6097076742
 10
69.6551388484
 20
121.6016434158
 10
69.6507865799
 20
121.5934859338
 10
69.6465828196
 20
121.5852354926
 10
69.6425395487
 20
121.576915605
 10
69.6386572257
 20
121.5685260753
 10
69.6349353921
 20
121.5600670992
 10
69.6313846538
 20
121.5515627766
 10
69.6280054912
 20
121.5430129531
 10
69.6247974238
 20
121.5344177831
 10
69.6217696163
 20
121.5258018292
 10
69.6189226045
 20
121.5171651085
 10
69.6162558525
 20
121.5085076039
 10
69.613776917
 20
121.499853827
 10
69.6114861796
 20
121.4912028188
 10
69.6093832586
 20
121.4825555382
 10
69.6074745662
 20
121.473939374
 10
69.6057617982
 20
121.4653662745
 10
69.6042432588
 20
121.4568242915
 10
69.6029202725
 20
121.4483049685
 10
69.6017901849
 20
121.4397987873
 10
69.6008556504
 20
121.4313152663
 10
69.6001259566
 20
121.4228745034
 10
69.5996041991
 20
121.414483198
 10
69.5992872823
 20
121.4061346508
 10
69.5991752061
 20
121.3978288617
  0
LINE
  5
38F
100
AcDbEntity
  8
0
100
AcDbLine
 62
7
  6
CONTINUOUS
 10
69.3994854936
 20
117.9802299565
 11
70.0685883918
 21
118.3266681236
  0
LWPOLYLINE
  5
390
100
AcDbEntity
  8
0
100
AcDbPolyline
 62
253
  6
CONTINUOUS
 90
28
 70
0
 10
69.5991752061
 20
118.7997526503
 10
69.5933660493
 20
118.7969627649
 10
69.5873369289
 20
118.7942920976
 10
69.5810976244
 20
118.7917449804
 10
69.5746582558
 20
118.7893255446
 10
69.5680292678
 20
118.7870377146
 10
69.5612214127
 20
118.7848852012
 10
69.5542457328
 20
118.7828714959
 10
69.5471135428
 20
118.7809998648
 10
69.539836411
 20
118.7792733439
 10
69.5324261409
 20
118.7776947334
 10
69.5248947522
 20
118.7762665939
 10
69.5172544606
 20
118.7749912418
 10
69.5095176589
 20
118.7738707458
 10
69.5016968961
 20
118.7729069234
 10
69.4938048574
 20
118.7721013378
 10
69.4858543439
 20
118.7714552957
 10
69.4778582514
 20
118.7709698449
 10
69.4698295494
 20
118.770645773
 10
69.4617812605
 20
118.7704836056
 10
69.4537264392
 20
118.7704836056
 10
69.4456781504
 20
118.770645773
 10
69.4376494484
 20
118.7709698449
 10
69.4296533558
 20
118.7714552957
 10
69.4217028423
 20
118.7721013378
 10
69.4138108037
 20
118.7729069234
 10
69.4059900408
 20
118.7738707458
 10
69.3994854936
 20
118.7748127784
  0
LINE
  5
391
100
AcDbEntity
  8
0
100
AcDbLine
 62
253
  6
CONTINUOUS
 10
71.0400239933
 20
107.3691861661
 11
70.6032324468
 21
107.5875819394
  0
LWPOLYLINE
  5
392
100
AcDbEntity
  8
0
100
AcDbPolyline
 62
253
  6
CONTINUOUS
 90
8
 70
0
 10
69.3994854936
 20
102.9739748539
 10
69.4021031048
 20
102.971446582
 10
69.4093622872
 20
102.965079715
 10
69.4168701446
 20
102.9591166036
 10
69.4246195108
 20
102.9535629393
 10
69.4326029889
 20
102.9484240234
 10
69.4408129569
 20
102.9437047618
 10
69.4462790837
 20
102.9408584834
  0
LWPOLYLINE
  5
393
100
AcDbEntity
  8
26814000
100
AcDbPolyline
 62
7
  6
CONTINUOUS
 90
24
 70
0
 10
61.5028025615
 20
136.7192705256
 10
61.5022293771
 20
136.7537429317
 10
61.5005302641
 20
136.7874928527
 10
61.4977052225
 20
136.8205202885
 10
61.493744788
 20
136.8528818459
 10
61.4886584249
 20
136.8845209181
 10
61.4824745265
 20
136.9152676846
 10
61.4751919111
 20
136.945103212
 10
61.4668117604
 20
136.9740464338
 10
61.4573660132
 20
137.0019843297
 10
61.4468421547
 20
137.0289304925
 10
61.4352526996
 20
137.0548713295
 10
61.4226671309
 20
137.0796530424
 10
61.409091945
 20
137.1032503438
 10
61.3945206454
 20
137.1256885211
 10
61.3790032254
 20
137.1468896383
 10
61.362519938
 20
137.1668667282
 10
61.3450905302
 20
137.1856067581
 10
61.3268242355
 20
137.2029926937
 10
61.3077355796
 20
137.21900162
 10
61.2878100369
 20
137.2336564521
 10
61.2671132644
 20
137.2469089004
 10
61.2456207499
 20
137.2587647617
 10
58.0164194837
 20
138.873389272
  0
LINE
  5
394
100
AcDbEntity
  8
26814000
100
AcDbLine
 62
7
  6
CONTINUOUS
 10
61.5028025615
 20
136.7192705256
 11
61.5028025615
 21
136.4484702329
  0
LINE
  5
395
100
AcDbEntity
  8
26814000
100
AcDbLine
 62
7
  6
CONTINUOUS
 10
61.5632286724
 20
129.5889556154
 11
61.5632286724
 21
129.3355842217
  0
LINE
  5
396
100
AcDbEntity
  8
26814000
100
AcDbLine
 62
7
  6
CONTINUOUS
 10
61.5632286724
 20
88.0359800823
 11
61.5632286724
 21
87.7826086886
  0
LINE
  5
397
100
AcDbEntity
  8
26814000
100
AcDbLine
 62
7
  6
CONTINUOUS
 10
61.9624219693
 20
127.5631398921
 11
61.9624219693
 21
127.5387443868
  0
LINE
  5
398
100
AcDbEntity
  8
26814000
100
AcDbLine
 62
7
  6
CONTINUOUS
 10
61.9624219693
 20
89.4336266203
 11
61.9624219693
 21
89.409231115
  0
LINE
  5
399
100
AcDbEntity
  8
26814000
100
AcDbLine
 62
7
  6
CONTINUOUS
 10
62.2744492805
 20
89.0124765595
 11
62.2744492805
 21
89.4170986505
  0
LINE
  5
39A
100
AcDbEntity
  8
26814000
100
AcDbLine
 62
7
  6
CONTINUOUS
 10
62.2744492805
 20
128.4249111401
 11
62.2744492805
 21
129.0620806988
  0
LINE
  5
39B
100
AcDbEntity
  8
26814000
100
AcDbLine
 62
7
  6
CONTINUOUS
 10
62.7755947677
 20
127.8230460547
 11
62.7755947677
 21
126.1731386171
  0
LINE
  5
39C
100
AcDbEntity
  8
26814000
100
AcDbLine
 62
7
  6
CONTINUOUS
 10
62.7755947677
 20
91.6124051883
 11
62.7755947677
 21
89.9624977507
  0
LINE
  5
39D
100
AcDbEntity
  8
RACCORDO
100
AcDbLine
 62
7
  6
CONTINUOUS
 10
59.1382741328
 20
89.0531803692
 11
62.2204552874
 21
126.5099079548
  0
LINE
  5
39E
100
AcDbEntity
  8
ASSI
100
AcDbLine
 62
7
  6
CONTINUOUS
 10
59.1382741328
 20
89.0531803692
 11
62.2204552874
 21
126.5099079548
  0
LINE
  5
39F
100
AcDbEntity
  8
26814000
100
AcDbLine
 62
7
  6
CONTINUOUS
 10
62.7755947677
 20
126.1731386171
 11
61.0431831537
 21
108.0265660958
  0
LWPOLYLINE
  5
3A0
100
AcDbEntity
  8
0
100
AcDbPolyline
 62
253
  6
CONTINUOUS
 90
7
 70
0
 10
69.6067336841
 20
121.9690783971
 10
69.6134227325
 20
121.978064097
 10
69.620199061
 20
121.9867729393
 10
69.6270545402
 20
121.9951908022
 10
69.6339805971
 20
122.0033035499
 10
69.6409682133
 20
122.0110970579
 10
69.6480079243
 20
122.0185572388
  0
LWPOLYLINE
  5
3A1
100
AcDbEntity
  8
RACCORDO
100
AcDbPolyline
 62
253
  6
CONTINUOUS
 90
3
 70
0
 10
47.4488602201
 20
96.958147056
 10
47.4009432644
 20
96.9063312648
 10
47.3483594578
 20
96.86121711
  0
LWPOLYLINE
  5
3A2
100
AcDbEntity
  8
ASSI
100
AcDbPolyline
 62
253
  6
CONTINUOUS
 90
12
 70
0
 10
47.4488602201
 20
96.958147056
 10
47.4009432644
 20
96.9063312648
 10
47.3483594578
 20
96.86121711
 10
47.2921172501
 20
96.8236541199
 10
47.2321509815
 20
96.7937822387
 10
47.1685201045
 20
96.7714588676
 10
47.1024198499
 20
96.7571093373
 10
47.0337608521
 20
96.7508927713
 10
46.9626273476
 20
96.7526478456
 10
46.8904748831
 20
96.7623191808
 10
46.8177875977
 20
96.7798878688
 10
46.74407844
 20
96.8053715659
  0
LINE
  5
3A3
100
AcDbEntity
  8
0
100
AcDbLine
 62
7
  6
CONTINUOUS
 10
80.2292704872
 20
123.3633181642
 11
81.113863913
 21
123.8405766114
  0
LINE
  5
3A4
100
AcDbEntity
  8
0
100
AcDbLine
 62
7
  6
CONTINUOUS
 10
70.683385189
 20
118.019269725
 11
69.7561242978
 21
117.563661355
  0
LWPOLYLINE
  5
3A5
100
AcDbEntity
  8
26814000
100
AcDbPolyline
 62
7
  6
CONTINUOUS
 90
31
 70
0
 10
63.7301889223
 20
128.4659175916
 10
63.7298492547
 20
128.4819506236
 10
63.7288328172
 20
128.4982791929
 10
63.7271420839
 20
128.5148583961
 10
63.7247810794
 20
128.5316424957
 10
63.7217562677
 20
128.5485854897
 10
63.7180765353
 20
128.565641238
 10
63.7137516823
 20
128.5827628567
 10
63.7087932524
 20
128.5999032675
 10
63.7032154018
 20
128.6170157723
 10
63.6970331576
 20
128.6340533421
 10
63.6902631673
 20
128.6509691343
 10
63.682924509
 20
128.6677170419
 10
63.675037067
 20
128.684251049
 10
63.666622183
 20
128.7005257017
 10
63.657703388
 20
128.71649662
 10
63.6483049342
 20
128.7321199341
 10
63.6384523325
 20
128.747352698
 10
63.6281729871
 20
128.7621533523
 10
63.6174949217
 20
128.7764812535
 10
63.6064471879
 20
128.7902970216
 10
63.5950603886
 20
128.8035629417
 10
63.5833656288
 20
128.8162425977
 10
63.5713947857
 20
128.8283011455
 10
63.5591809067
 20
128.8397056443
 10
63.5467574122
 20
128.8504248025
 10
63.5341582199
 20
128.8604291699
 10
63.5214180076
 20
128.8696913913
 10
63.5085717114
 20
128.8781860825
 10
63.495654431
 20
128.8858899001
 10
63.4827015488
 20
128.8927817115
  0
LINE
  5
3A6
100
AcDbEntity
  8
26814000
100
AcDbLine
 62
7
  6
CONTINUOUS
 10
63.3412801926
 20
88.4335034925
 11
63.3412801926
 21
89.9391116187
  0
LINE
  5
3A7
100
AcDbEntity
  8
26814000
100
AcDbLine
 62
7
  6
CONTINUOUS
 10
63.3412801926
 20
128.9634923896
 11
63.3412801926
 21
130.6955431972
  0
LINE
  5
3A8
100
AcDbEntity
  8
26814000
100
AcDbLine
 62
7
  6
CONTINUOUS
 10
64.0442731469
 20
130.830864695
 11
64.0442731469
 21
130.5699357186
  0
LINE
  5
3A9
100
AcDbEntity
  8
26814000
100
AcDbLine
 62
7
  6
CONTINUOUS
 10
64.0442731469
 20
89.2703315792
 11
64.0442731469
 21
89.0094026028
  0
LINE
  5
3AA
100
AcDbEntity
  8
26814000
100
AcDbLine
 62
253
  6
CONTINUOUS
 10
64.3714908444
 20
135.067974587
 11
64.3714908444
 21
133.8361360086
  0
LINE
  5
3AB
100
AcDbEntity
  8
RACCORDO
100
AcDbLine
 62
7
  6
CONTINUOUS
 10
64.4372957034
 20
125.0277626748
 11
64.4372957034
 21
94.4194820664
  0
LINE
  5
3AC
100
AcDbEntity
  8
26814000
100
AcDbLine
 62
7
  6
CONTINUOUS
 10
64.4372957034
 20
90.6353314483
 11
64.4372957034
 21
128.811913293
  0
LINE
  5
3AD
100
AcDbEntity
  8
26814000
100
AcDbLine
 62
7
  6
CONTINUOUS
 10
64.4581282728
 20
135.1723619623
 11
64.4581282728
 21
133.9399934706
  0
LWPOLYLINE
  5
3AE
100
AcDbEntity
  8
26814000
100
AcDbPolyline
 62
7
  6
CONTINUOUS
 90
18
 70
0
 10
63.7301889223
 20
90.2742203685
 10
63.7298502778
 20
90.2585264924
 10
63.7288336343
 20
90.2432144637
 10
63.7271420839
 20
90.2283264023
 10
63.7247808667
 20
90.2139034135
 10
63.7217564552
 20
90.1999850311
 10
63.7180765353
 20
90.186609109
 10
63.7137514715
 20
90.1738124487
 10
63.7087934219
 20
90.1616302776
 10
63.7032154018
 20
90.1500957082
 10
63.697032954
 20
90.1392404844
 10
63.6902633146
 20
90.1290945071
 10
63.682924509
 20
90.1196853315
 10
63.6750368754
 20
90.1110388621
 10
63.6666223044
 20
90.1031789368
 10
63.657703388
 20
90.0961268743
 10
63.6483047595
 20
90.0899021014
 10
63.6402201482
 20
90.085407837
  0
LINE
  5
3AF
100
AcDbEntity
  8
DRAFT
100
AcDbLine
 62
7
  6
CONTINUOUS
 10
74.5181063364
 20
138.8275091002
 11
74.4815167379
 21
138.7238460201
  0
LINE
  5
3B0
100
AcDbEntity
  8
0
100
AcDbLine
 62
253
  6
CONTINUOUS
 10
69.6480079243
 20
122.0185572388
 11
69.9943388092
 21
122.6648194682
  0
LINE
  5
3B1
100
AcDbEntity
  8
0
100
AcDbLine
 62
253
  6
CONTINUOUS
 10
69.8411930895
 20
121.8194702536
 11
70.2771815216
 21
122.6330357437
  0
LWPOLYLINE
  5
3B2
100
AcDbEntity
  8
0
100
AcDbPolyline
 62
253
  6
CONTINUOUS
 90
15
 70
0
 10
69.792286765
 20
118.5823474836
 10
69.7962740966
 20
118.5879323257
 10
69.8001752708
 20
118.5939234215
 10
69.8038136812
 20
118.6000832993
 10
69.8071836433
 20
118.6064023351
 10
69.8102798918
 20
118.6128706562
 10
69.8130975894
 20
118.6194781567
 10
69.8156323339
 20
118.6262145134
 10
69.8178801649
 20
118.6330692014
 10
69.8198375705
 20
118.6400315114
 10
69.8215014928
 20
118.6470905659
 10
69.8228693317
 20
118.6542353356
 10
69.8239389502
 20
118.6614546578
 10
69.8247086776
 20
118.6687372537
 10
69.8251773113
 20
118.6760717456
  0
LWPOLYLINE
  5
3B3
100
AcDbEntity
  8
0
100
AcDbPolyline
 62
7
  6
CONTINUOUS
 90
10
 70
0
 10
69.7922867613
 20
118.5823474864
 10
69.7929783539
 20
118.5832775915
 10
69.7972674575
 20
118.5891967545
 10
69.8015416698
 20
118.5953625484
 10
69.8058067557
 20
118.6017933861
 10
69.8100612711
 20
118.6084977936
 10
69.8142980299
 20
118.615474404
 10
69.8185173424
 20
118.6227330064
 10
69.8227254576
 20
118.6302944364
 10
70.2523563861
 20
119.4319731968
  0
LWPOLYLINE
  5
3B4
100
AcDbEntity
  8
0
100
AcDbPolyline
 62
7
  6
CONTINUOUS
 90
19
 70
0
 10
69.7922763064
 20
118.5823334682
 10
69.7877205766
 20
118.5764600019
 10
69.7829578502
 20
118.5707692148
 10
69.7779970327
 20
118.5652694408
 10
69.7728573579
 20
118.559978328
 10
69.7675389577
 20
118.554892228
 10
69.7620191652
 20
118.5499899232
 10
69.7562943881
 20
118.5452725963
 10
69.7503819316
 20
118.5407585551
 10
69.7442877864
 20
118.5364553445
 10
69.7380210365
 20
118.5323721818
 10
69.7315897825
 20
118.528516887
 10
69.7249988388
 20
118.5248950296
 10
69.7182538677
 20
118.5215127585
 10
69.7113687044
 20
118.5183797904
 10
69.7043612149
 20
118.5155060224
 10
69.6972558067
 20
118.5129016609
 10
69.6900514561
 20
118.5105663034
 10
69.685492735
 20
118.5092422416
  0
LWPOLYLINE
  5
3B5
100
AcDbEntity
  8
0
100
AcDbPolyline
 62
7
  6
CONTINUOUS
 90
31
 70
0
 10
80.523892697
 20
132.7818852172
 10
80.5291599834
 20
132.7884920484
 10
80.5383852163
 20
132.800507677
 10
80.5473333003
 20
132.8127389692
 10
80.5560007687
 20
132.8251736895
 10
80.5643874001
 20
132.8378040252
 10
80.5724938793
 20
132.8506251648
 10
80.5803179575
 20
132.8636285675
 10
80.5878567136
 20
132.8768050993
 10
80.5951082756
 20
132.8901488386
 10
80.6020692675
 20
132.9036513111
 10
80.6087360625
 20
132.9173043977
 10
80.6151058081
 20
132.9311027951
 10
80.6211746692
 20
132.9450394204
 10
80.6269374785
 20
132.9591056073
 10
80.6323893889
 20
132.9732939441
 10
80.6375265621
 20
132.9876003198
 10
80.6423419196
 20
133.00201373
 10
80.6468268552
 20
133.0165170242
 10
80.6509762333
 20
133.0311036997
 10
80.6547837275
 20
133.0457653179
 10
80.6582407672
 20
133.0604829485
 10
80.6613416414
 20
133.0752495742
 10
80.6640800981
 20
133.0900576629
 10
80.6664482327
 20
133.1048891011
 10
80.6684397316
 20
133.1197364621
 10
80.6700480579
 20
133.1345931358
 10
80.671265654
 20
133.1494443252
 10
80.6720852594
 20
133.1642810709
 10
80.6724997789
 20
133.1790972862
 10
80.6725526724
 20
133.1865566254
  0
LINE
  5
3B6
100
AcDbEntity
  8
0
100
AcDbLine
 62
253
  6
CONTINUOUS
 10
80.5122060528
 20
132.8381283692
 11
80.2292704872
 21
132.4880143369
  0
LINE
  5
3B7
100
AcDbEntity
  8
0
100
AcDbLine
 62
7
  6
CONTINUOUS
 10
80.5238934961
 20
132.7818861457
 11
80.2292704872
 21
132.417309676
  0
LWPOLYLINE
  5
3B8
100
AcDbEntity
  8
0
100
AcDbPolyline
 62
7
  6
CONTINUOUS
 90
22
 70
0
 10
69.685496982
 20
118.5092434207
 10
69.6730550572
 20
118.5060135772
 10
69.6606855395
 20
118.5032462063
 10
69.6483997073
 20
118.5009339181
 10
69.6362181072
 20
118.499070119
 10
69.6241416636
 20
118.4976444698
 10
69.6121526302
 20
118.4966463486
 10
69.6002623044
 20
118.4960695394
 10
69.5884812831
 20
118.4959072705
 10
69.5767921665
 20
118.4961533723
 10
69.5652002685
 20
118.4968034341
 10
69.5537229165
 20
118.4978520008
 10
69.5423620582
 20
118.4992943989
 10
69.5311365665
 20
118.5011236258
 10
69.5200503261
 20
118.503334212
 10
69.5090842282
 20
118.5059269861
 10
69.4982457132
 20
118.5088989292
 10
69.4875512242
 20
118.512244039
 10
69.4769967434
 20
118.5159625097
 10
69.4665893199
 20
118.5200518108
 10
69.4563462005
 20
118.5245048746
 10
69.4462790865
 20
118.5293157501
  0
LWPOLYLINE
  5
3B9
100
AcDbEntity
  8
0
100
AcDbPolyline
 62
7
  6
CONTINUOUS
 90
6
 70
0
 10
69.4583615454
 20
135.2027176325
 10
69.4583478094
 20
135.2026062577
 10
69.4583342516
 20
135.2023662179
 10
69.4583169011
 20
135.2020014614
 10
69.4582975793
 20
135.2015130892
 10
69.4582556232
 20
135.2001721448
  0
LINE
  5
3BA
100
AcDbEntity
  8
DRAFT
100
AcDbLine
 62
7
  6
CONTINUOUS
 10
76.0293079138
 20
138.0719083115
 11
75.9951868343
 21
137.9670109719
  0
LINE
  5
3BB
100
AcDbEntity
  8
DRAFT
100
AcDbLine
 62
7
  6
CONTINUOUS
 10
74.8009490489
 20
138.9689304565
 11
74.7643594504
 21
138.8652673763
  0
LINE
  5
3BC
100
AcDbEntity
  8
DRAFT
100
AcDbLine
 62
7
  6
CONTINUOUS
 10
75.0837917614
 20
139.1103518127
 11
75.0472021628
 21
139.0066887326
  0
LINE
  5
3BD
100
AcDbEntity
  8
DRAFT
100
AcDbLine
 62
7
  6
CONTINUOUS
 10
75.3666344738
 20
139.251773169
 11
75.3300448753
 21
139.1481100888
  0
LINE
  5
3BE
100
AcDbEntity
  8
DRAFT
100
AcDbLine
 62
7
  6
CONTINUOUS
 10
75.6494771863
 20
139.3931945252
 11
75.6128875878
 21
139.289531445
  0
LINE
  5
3BF
100
AcDbEntity
  8
DRAFT
100
AcDbLine
 62
7
  6
CONTINUOUS
 10
75.9323198988
 20
139.5346158814
 11
75.8957303003
 21
139.4309528013
  0
LWPOLYLINE
  5
3C0
100
AcDbEntity
  8
0
100
AcDbPolyline
 62
253
  6
CONTINUOUS
 90
7
 70
0
 10
69.8251773113
 20
121.7854032892
 10
69.8277796285
 20
121.7915231497
 10
69.8304087373
 20
121.797466197
 10
69.8330646379
 20
121.803232431
 10
69.8357473301
 20
121.8088218518
 10
69.838456814
 20
121.8142344593
 10
69.8411930895
 20
121.8194702536
  0
LWPOLYLINE
  5
3C1
100
AcDbEntity
  8
0
100
AcDbPolyline
 62
253
  6
CONTINUOUS
 90
12
 70
0
 10
69.8242904076
 20
118.6331912063
 10
69.8257343056
 20
118.635959277
 10
69.8286391921
 20
118.6420413362
 10
69.831251094
 20
118.6482622704
 10
69.8335657747
 20
118.6546119892
 10
69.83557948
 20
118.6610801931
 10
69.8372889435
 20
118.6676563909
 10
69.8386913925
 20
118.6743299158
 10
69.8397845523
 20
118.6810899435
 10
69.8405666496
 20
118.687925509
 10
69.841036416
 20
118.6948255251
 10
69.8411930895
 20
118.7017788
  0
LINE
  5
3C2
100
AcDbEntity
  8
0
100
AcDbLine
 62
253
  6
CONTINUOUS
 10
70.2771815216
 20
119.51534429
 11
69.8411930895
 21
118.7017788
  0
LWPOLYLINE
  5
3C3
100
AcDbEntity
  8
0
100
AcDbPolyline
 62
253
  6
CONTINUOUS
 90
7
 70
0
 10
69.8411930895
 20
118.7017788
 10
69.8384566074
 20
118.6968026128
 10
69.8357469996
 20
118.6921030891
 10
69.8330642661
 20
118.6876802288
 10
69.8304084069
 20
118.6835340321
 10
69.8277794219
 20
118.6796644988
 10
69.8251773113
 20
118.676071629
  0
LWPOLYLINE
  5
3C4
100
AcDbEntity
  8
0
100
AcDbPolyline
 62
253
  6
CONTINUOUS
 90
16
 70
0
 10
69.8251773113
 20
118.6760717456
 10
69.8233386142
 20
118.6728567039
 10
69.8212669454
 20
118.6696463354
 10
69.818958994
 20
118.6664452083
 10
69.8164091041
 20
118.6632548595
 10
69.813616887
 20
118.6600834535
 10
69.8105894364
 20
118.6569452957
 10
69.8073270594
 20
118.6538452616
 10
69.8038300233
 20
118.6507878804
 10
69.8001096673
 20
118.6477860882
 10
69.7961696569
 20
118.6448446646
 10
69.7920126366
 20
118.6419673129
 10
69.787652039
 20
118.6391643243
 10
69.7830965131
 20
118.6364413034
 10
69.7783484202
 20
118.6337997049
 10
69.7734135023
 20
118.631242972
  0
LWPOLYLINE
  5
3C5
100
AcDbEntity
  8
0
100
AcDbPolyline
 62
253
  6
CONTINUOUS
 90
18
 70
0
 10
80.5238934961
 20
132.7818861457
 10
80.5251882074
 20
132.7837276874
 10
80.5262772409
 20
132.7858244806
 10
80.5271129346
 20
132.7881165967
 10
80.5276939479
 20
132.7906003589
 10
80.528019349
 20
132.7932717833
 10
80.5280886158
 20
132.7961265849
 10
80.5279016372
 20
132.7991601843
 10
80.5274587132
 20
132.8023677157
 10
80.5267605543
 20
132.805744034
 10
80.5258082802
 20
132.8092837235
 10
80.5246034185
 20
132.8129811064
 10
80.5231479019
 20
132.816830252
 10
80.5214440649
 20
132.8208249861
 10
80.5194946407
 20
132.824958901
 10
80.5173027562
 20
132.8292253658
 10
80.5148719272
 20
132.833617537
 10
80.5122060528
 20
132.8381283692
  0
LWPOLYLINE
  5
3C6
100
AcDbEntity
  8
RACCORDO
100
AcDbPolyline
 62
253
  6
CONTINUOUS
 90
7
 70
0
 10
47.3483594578
 20
96.86121711
 10
47.2921172501
 20
96.8236541199
 10
47.2321509815
 20
96.7937822387
 10
47.1685201045
 20
96.7714588676
 10
47.1024198499
 20
96.7571093373
 10
47.0337608521
 20
96.7508927713
 10
46.9626273476
 20
96.7526478456
  0
LWPOLYLINE
  5
3C7
100
AcDbEntity
  8
26814000
100
AcDbPolyline
 62
7
  6
CONTINUOUS
 90
4
 70
0
 10
69.2137342765
 20
95.5887494058
 10
69.2134997709
 20
95.5905176198
 10
69.2123589948
 20
95.5934498455
 10
69.2103146632
 20
95.5968292135
  0
LWPOLYLINE
  5
3C8
100
AcDbEntity
  8
0
100
AcDbPolyline
 62
253
  6
CONTINUOUS
 90
43
 70
0
 10
69.8251773113
 20
106.1969483417
 10
69.824718904
 20
106.2031540879
 10
69.8239473157
 20
106.2093708022
 10
69.8228693352
 20
106.2155984681
 10
69.8214984741
 20
106.2218460172
 10
69.8198383874
 20
106.2281057327
 10
69.8178801713
 20
106.2343501651
 10
69.8156300203
 20
106.2405742823
 10
69.8130983615
 20
106.2467786634
 10
69.8102799006
 20
106.2529400344
 10
69.8071818471
 20
106.2590528351
 10
69.8038144349
 20
106.2651152402
 10
69.8001752814
 20
106.2711069509
 10
69.796272671
 20
106.2770222557
 10
69.7921170235
 20
106.2828579071
 10
69.7877082496
 20
106.2885957303
 10
69.7830557681
 20
106.2942302267
 10
69.7781704472
 20
106.2997574523
 10
69.7730539251
 20
106.3051607142
 10
69.7677168199
 20
106.3104350937
 10
69.7621706235
 20
106.3155765118
 10
69.7564181518
 20
106.3205692202
 10
69.7504713059
 20
106.3254092705
 10
69.7443423189
 20
106.3300929086
 10
69.7380346066
 20
106.3346048105
 10
69.7315614791
 20
106.3389424428
 10
69.7249359962
 20
106.3431027799
 10
69.7181615164
 20
106.3470703324
 10
69.7112529637
 20
106.3508445277
 10
69.704224303
 20
106.3544234496
 10
69.6970780314
 20
106.3577906871
 10
69.6898310248
 20
106.3609483457
 10
69.6824982523
 20
106.3638960097
 10
69.6750803036
 20
106.3666152896
 10
69.6675965596
 20
106.3691119701
 10
69.6600631471
 20
106.3713875739
 10
69.6524773272
 20
106.3734201841
 10
69.6448618614
 20
106.3752207173
 10
69.6372342991
 20
106.3767931714
 10
69.629586598
 20
106.3781097845
 10
69.6219321938
 20
106.379170737
 10
69.6143049302
 20
106.3800019874
 10
69.6067296539
 20
106.3806182178
  0
LWPOLYLINE
  5
3C9
100
AcDbEntity
  8
26814000
100
AcDbPolyline
 62
7
  6
CONTINUOUS
 90
7
 70
0
 10
69.2136878059
 20
133.1059516534
 10
69.2135961978
 20
133.1102594547
 10
69.2134570271
 20
133.1145707853
 10
69.2132702936
 20
133.1188856453
 10
69.2130359975
 20
133.1232040346
 10
69.2127541387
 20
133.1275259534
 10
69.2124247172
 20
133.1318514014
  0
LWPOLYLINE
  5
3CA
100
AcDbEntity
  8
0
100
AcDbPolyline
 62
253
  6
CONTINUOUS
 90
46
 70
0
 10
69.5991752061
 20
103.2112953822
 10
69.5992833978
 20
103.2032073235
 10
69.599592707
 20
103.1952705701
 10
69.6001031337
 20
103.187485122
 10
69.6008153645
 20
103.1798537382
 10
69.6017287127
 20
103.1723736597
 10
69.6028411192
 20
103.1650366095
 10
69.6041533988
 20
103.1578323357
 10
69.6056647366
 20
103.1507710902
 10
69.6073706283
 20
103.1438753518
 10
69.6092715682
 20
103.1371463616
 10
69.6113670621
 20
103.1305828785
 10
69.6136511234
 20
103.1242036579
 10
69.6161242951
 20
103.1180092188
 10
69.6187860342
 20
103.1119990421
 10
69.621628725
 20
103.1061903268
 10
69.6246528843
 20
103.1005836539
 10
69.6278579952
 20
103.0951784423
 10
69.6312348914
 20
103.0899901469
 10
69.6347840634
 20
103.0850193897
 10
69.6385050207
 20
103.0802655486
 10
69.6423871253
 20
103.0757422122
 10
69.646430839
 20
103.0714500388
 10
69.6506357001
 20
103.0673883701
 10
69.6549896849
 20
103.0635688187
 10
69.6594932201
 20
103.0599920778
 10
69.6641458791
 20
103.0566574542
 10
69.6689343583
 20
103.0535744816
 10
69.6738590454
 20
103.0507438803
 10
69.6789195528
 20
103.04816493
 10
69.684101414
 20
103.0458450028
 10
69.6894049787
 20
103.043784839
 10
69.6948298972
 20
103.0419836983
 10
69.7003606542
 20
103.0404467314
 10
69.7059975529
 20
103.0391746952
 10
69.7117402902
 20
103.0381668328
 10
69.7175724411
 20
103.0374260245
 10
69.7234942594
 20
103.0369530349
 10
69.7295054914
 20
103.0367470994
 10
69.7355889511
 20
103.0368088041
 10
69.7417447844
 20
103.0371388795
 10
69.7479728454
 20
103.0377365951
 10
69.7542555101
 20
103.0386003446
 10
69.7605869038
 20
103.0397295927
 10
69.7669729012
 20
103.0411248746
 10
69.7734135023
 20
103.0427861904
  0
LWPOLYLINE
  5
3CB
100
AcDbEntity
  8
0
100
AcDbPolyline
 62
253
  6
CONTINUOUS
 90
46
 70
0
 10
69.5991752061
 20
118.7997526503
 10
69.5992833978
 20
118.7916645916
 10
69.599592707
 20
118.7837278382
 10
69.6001031337
 20
118.7759423901
 10
69.6008153645
 20
118.7683110063
 10
69.6017287127
 20
118.7608309278
 10
69.6028411192
 20
118.7534938776
 10
69.6041533988
 20
118.7462896038
 10
69.6056647366
 20
118.7392283583
 10
69.6073706283
 20
118.73233262
 10
69.6092715682
 20
118.7256036298
 10
69.6113670621
 20
118.7190401467
 10
69.6136511234
 20
118.7126609261
 10
69.6161242951
 20
118.7064664869
 10
69.6187860342
 20
118.7004563103
 10
69.621628725
 20
118.6946475949
 10
69.6246528843
 20
118.689040922
 10
69.6278579952
 20
118.6836357104
 10
69.6312348914
 20
118.678447415
 10
69.6347840634
 20
118.6734766578
 10
69.6385050207
 20
118.6687228168
 10
69.6423871253
 20
118.6641994803
 10
69.646430839
 20
118.659907307
 10
69.6506357001
 20
118.6558456382
 10
69.6549896849
 20
118.6520260868
 10
69.6594932201
 20
118.6484493459
 10
69.6641458791
 20
118.6451147223
 10
69.6689343583
 20
118.6420317497
 10
69.6738590454
 20
118.6392011485
 10
69.6789195528
 20
118.6366221982
 10
69.684101414
 20
118.6343022709
 10
69.6894049787
 20
118.6322421071
 10
69.6948298972
 20
118.6304409664
 10
69.7003606542
 20
118.6289039995
 10
69.7059975529
 20
118.6276319633
 10
69.7117402902
 20
118.6266241009
 10
69.7175724411
 20
118.6258832926
 10
69.7234942594
 20
118.625410303
 10
69.7295054914
 20
118.6252043676
 10
69.7355889511
 20
118.6252660722
 10
69.7417447844
 20
118.6255961477
 10
69.7479728454
 20
118.6261938633
 10
69.7542555101
 20
118.6270576128
 10
69.7605869038
 20
118.6281868608
 10
69.7669729012
 20
118.6295821427
 10
69.7734135023
 20
118.6312434585
  0
LINE
  5
3CC
100
AcDbEntity
  8
26814000
100
AcDbLine
 62
7
  6
CONTINUOUS
 10
69.2136878059
 20
133.1059516534
 11
69.2137342765
 21
133.0998143153
  0
LINE
  5
3CD
100
AcDbEntity
  8
0
100
AcDbLine
 62
7
  6
CONTINUOUS
 10
67.9111166355
 20
123.6466014635
 11
67.9111166355
 21
99.3978901575
  0
LINE
  5
3CE
100
AcDbEntity
  8
0
100
AcDbLine
 62
7
  6
CONTINUOUS
 10
68.0442580373
 20
99.6821578302
 11
68.0442580373
 21
123.3706137453
  0
LINE
  5
3CF
100
AcDbEntity
  8
26814000
100
AcDbLine
 62
7
  6
CONTINUOUS
 10
68.6018732357
 20
132.1338149197
 11
68.6018732357
 21
132.2047793434
  0
LINE
  5
3D0
100
AcDbEntity
  8
0
100
AcDbLine
 62
7
  6
CONTINUOUS
 10
68.7983450025
 20
132.3065055786
 11
68.7983450025
 21
132.0355790362
  0
LINE
  5
3D1
100
AcDbEntity
  8
26814000
100
AcDbLine
 62
253
  6
CONTINUOUS
 10
69.1295362383
 20
132.8121378095
 11
69.1295362383
 21
132.5998786554
  0
LINE
  5
3D2
100
AcDbEntity
  8
26814000
100
AcDbLine
 62
253
  6
CONTINUOUS
 10
69.1295362383
 20
95.6784077607
 11
69.1295362383
 21
95.6681423809
  0
LINE
  5
3D3
100
AcDbEntity
  8
26814000
100
AcDbLine
 62
7
  6
CONTINUOUS
 10
69.2137342982
 20
133.0997586878
 11
69.2137342982
 21
132.6184527688
  0
LINE
  5
3D4
100
AcDbEntity
  8
26814000
100
AcDbLine
 62
7
  6
CONTINUOUS
 10
69.2137342982
 20
95.6644285473
 11
69.2137342982
 21
95.5889190138
  0
LINE
  5
3D5
100
AcDbEntity
  8
0
100
AcDbLine
 62
7
  6
CONTINUOUS
 10
69.3994854936
 20
122.1515670874
 11
69.3994854936
 21
117.8214400685
  0
LINE
  5
3D6
100
AcDbEntity
  8
0
100
AcDbLine
 62
7
  6
CONTINUOUS
 10
69.3994854936
 20
106.5631098193
 11
69.3994854936
 21
102.2329828003
  0
LINE
  5
3D7
100
AcDbEntity
  8
0
100
AcDbLine
 62
253
  6
CONTINUOUS
 10
69.5991752061
 20
121.3978288617
 11
69.5991752061
 21
118.7997526503
  0
LINE
  5
3D8
100
AcDbEntity
  8
0
100
AcDbLine
 62
253
  6
CONTINUOUS
 10
69.5991752061
 20
105.8093715936
 11
69.5991752061
 21
103.2112953822
  0
LINE
  5
3D9
100
AcDbEntity
  8
0
100
AcDbLine
 62
253
  6
CONTINUOUS
 10
69.7734135023
 20
121.7405764351
 11
69.7734135023
 21
118.6312434585
  0
LINE
  5
3DA
100
AcDbEntity
  8
0
100
AcDbLine
 62
253
  6
CONTINUOUS
 10
69.7734135023
 20
106.152119167
 11
69.7734135023
 21
103.0427861904
  0
LINE
  5
3DB
100
AcDbEntity
  8
0
100
AcDbLine
 62
253
  6
CONTINUOUS
 10
69.8251773113
 20
121.7854032892
 11
69.8251773113
 21
118.676071629
  0
LINE
  5
3DC
100
AcDbEntity
  8
0
100
AcDbLine
 62
253
  6
CONTINUOUS
 10
69.8251773113
 20
106.1969460211
 11
69.8251773113
 21
103.0876143609
  0
LWPOLYLINE
  5
3DD
100
AcDbEntity
  8
26814000
100
AcDbPolyline
 62
7
  6
CONTINUOUS
 90
16
 70
0
 10
69.2137342765
 20
133.0998143153
 10
69.2134997709
 20
133.086300007
 10
69.2123589948
 20
133.0665348159
 10
69.2103146632
 20
133.0466811653
 10
69.2074234982
 20
133.0267453814
 10
69.203734734
 20
133.006763145
 10
69.1992747701
 20
132.9868013234
 10
69.1940819118
 20
132.9668806058
 10
69.1881992546
 20
132.9470128544
 10
69.1816387205
 20
132.9272526282
 10
69.1744318173
 20
132.9076155616
 10
69.1666146716
 20
132.888113597
 10
69.1581907322
 20
132.8687979981
 10
69.1491778408
 20
132.8496952716
 10
69.1396159954
 20
132.8308047778
 10
69.1295362383
 20
132.8121378095
  0
LINE
  5
3DE
100
AcDbEntity
  8
0
100
AcDbLine
 62
7
  6
CONTINUOUS
 10
69.4572078963
 20
135.1482383416
 11
69.456909228
 21
135.1315146784
  0
LINE
  5
3DF
100
AcDbEntity
  8
0
100
AcDbLine
 62
7
  6
CONTINUOUS
 10
69.4580521475
 20
135.1918603767
 11
69.4572078963
 21
135.1482383416
  0
LINE
  5
3E0
100
AcDbEntity
  8
0
100
AcDbLine
 62
7
  6
CONTINUOUS
 10
69.4582556232
 20
135.2001721448
 11
69.4580521475
 21
135.1918603767
  0
LWPOLYLINE
  5
3E1
100
AcDbEntity
  8
0
100
AcDbPolyline
 62
253
  6
CONTINUOUS
 90
26
 70
0
 10
69.7734135023
 20
118.631242972
 10
69.7722617097
 20
118.6239221192
 10
69.7709044856
 20
118.6167281872
 10
69.7693321769
 20
118.6096730787
 10
69.7675266502
 20
118.6027672951
 10
69.7654894606
 20
118.5960217201
 10
69.7632430695
 20
118.5894487877
 10
69.7607852902
 20
118.5830590149
 10
69.7581097282
 20
118.5768617233
 10
69.7552353737
 20
118.5708683803
 10
69.7521618609
 20
118.5650883638
 10
69.7488864458
 20
118.5595300864
 10
69.7454262727
 20
118.5542040034
 10
69.7417823134
 20
118.5491182604
 10
69.7379544433
 20
118.5442801961
 10
69.7339591245
 20
118.5396992142
 10
69.7297982271
 20
118.5353820992
 10
69.7254734908
 20
118.5313349391
 10
69.7210015547
 20
118.5275660516
 10
69.7163847133
 20
118.5240806835
 10
69.7116259946
 20
118.5208835219
 10
69.706742959
 20
118.5179818616
 10
69.7017377915
 20
118.5153792067
 10
69.696614319
 20
118.5130786854
 10
69.6913917592
 20
118.5110867369
 10
69.6862852471
 20
118.5094724235
  0
LWPOLYLINE
  5
3E2
100
AcDbEntity
  8
0
100
AcDbPolyline
 62
7
  6
CONTINUOUS
 90
36
 70
0
 10
72.7181562195
 20
133.0762876668
 10
72.7196927831
 20
133.0847613301
 10
72.7211479207
 20
133.0931868928
 10
72.722517775
 20
133.1015622509
 10
72.723796234
 20
133.1098886861
 10
72.724981693
 20
133.1181607448
 10
72.7260770069
 20
133.1263662043
 10
72.7270780966
 20
133.1345027735
 10
72.7279812448
 20
133.14256859
 10
72.7287897089
 20
133.1505519971
 10
72.7294993284
 20
133.1584507603
 10
72.7301063097
 20
133.1662629281
 10
72.7306142087
 20
133.1739771199
 10
72.7310187227
 20
133.1815911291
 10
72.7313159491
 20
133.1891028885
 10
72.7315096701
 20
133.1965010031
 10
72.7315953729
 20
133.2037833009
 10
72.7315690011
 20
133.2109475297
 10
72.7314345122
 20
133.2179818699
 10
72.731187113
 20
133.2248841231
 10
72.7308225477
 20
133.2316518537
 10
72.7303449224
 20
133.2382724983
 10
72.7297490814
 20
133.2447438357
 10
72.7290305119
 20
133.2510631745
 10
72.7281934567
 20
133.2572167608
 10
72.7272323059
 20
133.2632023536
 10
72.7261422277
 20
133.2690169319
 10
72.7249276139
 20
133.2746449849
 10
72.7235823089
 20
133.2800842387
 10
72.7221010975
 20
133.2853312906
 10
72.720488555
 20
133.2903682386
 10
72.7187378778
 20
133.2951928014
 10
72.7168434093
 20
133.2998011104
 10
72.7148099982
 20
133.3041720739
 10
72.712630091
 20
133.3083034446
 10
72.7121171775
 20
133.309202324
  0
LINE
  5
3E3
100
AcDbEntity
  8
DRAFT
100
AcDbLine
 62
7
  6
CONTINUOUS
 10
76.3121506263
 20
138.2133296678
 11
76.2780295467
 21
138.1084323281
  0
LINE
  5
3E4
100
AcDbEntity
  8
DRAFT
100
AcDbLine
 62
7
  6
CONTINUOUS
 10
76.5949933388
 20
138.354751024
 11
76.5608722592
 21
138.2498536844
  0
LINE
  5
3E5
100
AcDbEntity
  8
DRAFT
100
AcDbLine
 62
7
  6
CONTINUOUS
 10
76.8778360513
 20
138.4961723803
 11
76.8437149717
 21
138.3912750406
  0
LINE
  5
3E6
100
AcDbEntity
  8
DRAFT
100
AcDbLine
 62
7
  6
CONTINUOUS
 10
77.1606787637
 20
138.6375937365
 11
77.1265576842
 21
138.5326963968
  0
LINE
  5
3E7
100
AcDbEntity
  8
DRAFT
100
AcDbLine
 62
7
  6
CONTINUOUS
 10
77.4435214762
 20
138.7790150927
 11
77.4094003966
 21
138.6741177531
  0
LINE
  5
3E8
100
AcDbEntity
  8
DRAFT
100
AcDbLine
 62
7
  6
CONTINUOUS
 10
77.0048844796
 20
136.8932659161
 11
77.0414740781
 21
136.9969289963
  0
LINE
  5
3E9
100
AcDbEntity
  8
DRAFT
100
AcDbLine
 62
7
  6
CONTINUOUS
 10
77.287727192
 20
137.0346872723
 11
77.3243167906
 21
137.1383503525
  0
LINE
  5
3EA
100
AcDbEntity
  8
DRAFT
100
AcDbLine
 62
7
  6
CONTINUOUS
 10
77.6293761736
 20
137.2718741816
 11
77.5927865751
 21
137.1682111015
  0
LINE
  5
3EB
100
AcDbEntity
  8
DRAFT
100
AcDbLine
 62
7
  6
CONTINUOUS
 10
77.9122188861
 20
137.4132955379
 11
77.8756292876
 21
137.3096324577
  0
LINE
  5
3EC
100
AcDbEntity
  8
DRAFT
100
AcDbLine
 62
7
  6
CONTINUOUS
 10
78.1950615986
 20
137.5547168941
 11
78.1584720001
 21
137.4510538139
  0
LINE
  5
3ED
100
AcDbEntity
  8
DRAFT
100
AcDbLine
 62
7
  6
CONTINUOUS
 10
78.4779043111
 20
137.6961382503
 11
78.4413147125
 21
137.5924751702
  0
LINE
  5
3EE
100
AcDbEntity
  8
DRAFT
100
AcDbLine
 62
7
  6
CONTINUOUS
 10
78.7607470235
 20
137.8375596066
 11
78.724157425
 21
137.7338965264
  0
LINE
  5
3EF
100
AcDbEntity
  8
DRAFT
100
AcDbLine
 62
7
  6
CONTINUOUS
 10
79.043589736
 20
137.9789809628
 11
79.0070001375
 21
137.8753178827
  0
LINE
  5
3F0
100
AcDbEntity
  8
26814000
100
AcDbLine
 62
253
  6
CONTINUOUS
 10
60.4130551611
 20
104.5451723433
 11
60.4698267427
 21
104.5730669822
  0
LINE
  5
3F1
100
AcDbEntity
  8
26814000
100
AcDbLine
 62
7
  6
CONTINUOUS
 10
60.4059688998
 20
104.4590553551
 11
60.4309772458
 21
104.4713431716
  0
LWPOLYLINE
  5
3F2
100
AcDbEntity
  8
RACCORDO
100
AcDbPolyline
 62
7
  6
CONTINUOUS
 90
3
 70
0
 10
47.311183361
 20
96.9396409658
 10
47.2553791357
 20
96.9126396689
 10
47.2445153937
 20
96.9084806316
  0
LINE
  5
3F3
100
AcDbEntity
  8
ASSI
100
AcDbLine
 62
253
  6
CONTINUOUS
 10
46.3249738827
 20
99.1266040631
 11
46.3404344594
 21
99.1328440085
  0
LINE
  5
3F4
100
AcDbEntity
  8
RACCORDO
100
AcDbLine
 62
253
  6
CONTINUOUS
 10
46.3249738827
 20
99.1266040631
 11
46.3456395601
 21
99.134810003
  0
LINE
  5
3F5
100
AcDbEntity
  8
DRAFT
100
AcDbLine
 62
7
  6
CONTINUOUS
 10
46.3457484913
 20
98.9150201958
 11
46.8022744037
 21
99.0881517675
  0
LINE
  5
3F6
100
AcDbEntity
  8
ASSI
100
AcDbLine
 62
253
  6
CONTINUOUS
 10
46.3404344594
 20
99.1328440085
 11
46.3456395601
 21
99.134810003
  0
LINE
  5
3F7
100
AcDbEntity
  8
ASSI
100
AcDbLine
 62
7
  6
CONTINUOUS
 10
46.3403190785
 20
99.1327886665
 11
46.3499657957
 21
99.1363804588
  0
LINE
  5
3F8
100
AcDbEntity
  8
RACCORDO
100
AcDbLine
 62
7
  6
CONTINUOUS
 10
46.3456395601
 20
99.134810003
 11
46.3467670302
 21
99.1352270772
  0
LINE
  5
3F9
100
AcDbEntity
  8
0
100
AcDbLine
 62
253
  6
CONTINUOUS
 10
69.7561242978
 20
117.563661355
 11
69.406721933
 21
117.7383625374
  0
LINE
  5
3FA
100
AcDbEntity
  8
RACCORDO
100
AcDbLine
 62
253
  6
CONTINUOUS
 10
56.5163620662
 20
124.3454470806
 11
42.3890910248
 21
131.4090826013
  0
LINE
  5
3FB
100
AcDbEntity
  8
ASSI
100
AcDbLine
 62
253
  6
CONTINUOUS
 10
56.5163620662
 20
124.3454470806
 11
42.3890910248
 21
131.4090826013
  0
LINE
  5
3FC
100
AcDbEntity
  8
0
100
AcDbLine
 62
7
  6
CONTINUOUS
 10
69.4462790865
 20
118.5293157501
 11
69.3994854936
 21
118.5527125466
  0
LINE
  5
3FD
100
AcDbEntity
  8
0
100
AcDbLine
 62
253
  6
CONTINUOUS
 10
70.683385189
 20
118.019269725
 11
70.0685883918
 21
118.3266681236
  0
LINE
  5
3FE
100
AcDbEntity
  8
0
100
AcDbLine
 62
253
  6
CONTINUOUS
 10
71.0400239933
 20
118.6275164153
 11
70.415970485
 21
118.9395431695
  0
LWPOLYLINE
  5
3FF
100
AcDbEntity
  8
0
100
AcDbPolyline
 62
253
  6
CONTINUOUS
 90
43
 70
0
 10
69.8251773113
 20
121.7854056098
 10
69.824718904
 20
121.7916113561
 10
69.8239473157
 20
121.7978280704
 10
69.8228693352
 20
121.8040557362
 10
69.8214984741
 20
121.8103032853
 10
69.8198383874
 20
121.8165630008
 10
69.8178801713
 20
121.8228074332
 10
69.8156300203
 20
121.8290315504
 10
69.8130983615
 20
121.8352359316
 10
69.8102799006
 20
121.8413973025
 10
69.8071818471
 20
121.8475101032
 10
69.8038144349
 20
121.8535725083
 10
69.8001752814
 20
121.859564219
 10
69.796272671
 20
121.8654795238
 10
69.7921170235
 20
121.8713151752
 10
69.7877082496
 20
121.8770529984
 10
69.7830557681
 20
121.8826874948
 10
69.7781704472
 20
121.8882147204
 10
69.7730539251
 20
121.8936179823
 10
69.7677168199
 20
121.8988923619
 10
69.7621706235
 20
121.9040337799
 10
69.7564181518
 20
121.9090264883
 10
69.7504713059
 20
121.9138665386
 10
69.7443423189
 20
121.9185501768
 10
69.7380346066
 20
121.9230620786
 10
69.7315614791
 20
121.9273997109
 10
69.7249359962
 20
121.931560048
 10
69.7181615164
 20
121.9355276005
 10
69.7112529637
 20
121.9393017958
 10
69.704224303
 20
121.9428807177
 10
69.6970780314
 20
121.9462479552
 10
69.6898310248
 20
121.9494056138
 10
69.6824982523
 20
121.9523532778
 10
69.6750803036
 20
121.9550725578
 10
69.6675965596
 20
121.9575692382
 10
69.6600631471
 20
121.959844842
 10
69.6524773272
 20
121.9618774522
 10
69.6448618614
 20
121.9636779854
 10
69.6372342991
 20
121.9652504396
 10
69.629586598
 20
121.9665670526
 10
69.6219321938
 20
121.9676280051
 10
69.6143049302
 20
121.9684592555
 10
69.6067296539
 20
121.9690754859
  0
LINE
  5
400
100
AcDbEntity
  8
0
100
AcDbLine
 62
7
  6
CONTINUOUS
 10
70.1799244537
 20
130.1166613455
 11
70.1799244537
 21
130.3306933706
  0
LINE
  5
401
100
AcDbEntity
  8
0
100
AcDbLine
 62
7
  6
CONTINUOUS
 10
70.2771815216
 20
103.9268870219
 11
70.2771815216
 21
107.0445784755
  0
LINE
  5
402
100
AcDbEntity
  8
0
100
AcDbLine
 62
7
  6
CONTINUOUS
 10
70.2771815216
 20
119.51534429
 11
70.2771815216
 21
122.6330357437
  0
LINE
  5
403
100
AcDbEntity
  8
0
100
AcDbLine
 62
7
  6
CONTINUOUS
 10
70.415970485
 20
103.3510859014
 11
70.415970485
 21
107.4955710307
  0
LINE
  5
404
100
AcDbEntity
  8
0
100
AcDbLine
 62
7
  6
CONTINUOUS
 10
70.415970485
 20
118.9395431695
 11
70.415970485
 21
123.0840282988
  0
LINE
  5
405
100
AcDbEntity
  8
0
100
AcDbLine
 62
7
  6
CONTINUOUS
 10
70.6721779727
 20
125.9422082237
 11
70.6721779727
 21
125.9410324772
  0
LINE
  5
406
100
AcDbEntity
  8
0
100
AcDbLine
 62
7
  6
CONTINUOUS
 10
70.8291262184
 20
97.7865547345
 11
70.8291262184
 21
100.0427084433
  0
LINE
  5
407
100
AcDbEntity
  8
0
100
AcDbLine
 62
7
  6
CONTINUOUS
 10
70.8291262184
 20
126.0234705568
 11
70.8291262184
 21
128.2796242656
  0
LINE
  5
408
100
AcDbEntity
  8
0
100
AcDbLine
 62
7
  6
CONTINUOUS
 10
71.0400239933
 20
97.5792375916
 11
71.0400239933
 21
128.4174649898
  0
LINE
  5
409
100
AcDbEntity
  8
26814000
100
AcDbLine
 62
7
  6
CONTINUOUS
 10
69.2136878059
 20
95.588007451
 11
69.2137342765
 21
95.5887494058
  0
LWPOLYLINE
  5
40A
100
AcDbEntity
  8
0
100
AcDbPolyline
 62
253
  6
CONTINUOUS
 90
26
 70
0
 10
69.7734135023
 20
103.0427857038
 10
69.7722617097
 20
103.035464851
 10
69.7709044856
 20
103.0282709191
 10
69.7693321769
 20
103.0212158106
 10
69.7675266502
 20
103.014310027
 10
69.7654894606
 20
103.0075644519
 10
69.7632430695
 20
103.0009915196
 10
69.7607852902
 20
102.9946017468
 10
69.7581097282
 20
102.9884044552
 10
69.7552353737
 20
102.9824111122
 10
69.7521618609
 20
102.9766310957
 10
69.7488864458
 20
102.9710728183
 10
69.7454262727
 20
102.9657467353
 10
69.7417823134
 20
102.9606609923
 10
69.7379544433
 20
102.9558229279
 10
69.7339591245
 20
102.9512419461
 10
69.7297982271
 20
102.9469248311
 10
69.7254734908
 20
102.942877671
 10
69.7210015547
 20
102.9391087835
 10
69.7163847133
 20
102.9356234154
 10
69.7116259946
 20
102.9324262538
 10
69.706742959
 20
102.9295245935
 10
69.7017377915
 20
102.9269219386
 10
69.696614319
 20
102.9246214172
 10
69.6913917592
 20
102.9226294688
 10
69.6862852471
 20
102.9210151554
  0
LINE
  5
40B
100
AcDbEntity
  8
DRAFT
100
AcDbLine
 62
7
  6
CONTINUOUS
 10
79.1405777511
 20
136.5162733929
 11
79.1064566715
 21
136.4113760533
  0
LINE
  5
40C
100
AcDbEntity
  8
DRAFT
100
AcDbLine
 62
7
  6
CONTINUOUS
 10
79.4234204635
 20
136.6576947492
 11
79.3892993839
 21
136.5527974095
  0
LINE
  5
40D
100
AcDbEntity
  8
DRAFT
100
AcDbLine
 62
7
  6
CONTINUOUS
 10
79.706263176
 20
136.7991161054
 11
79.6721420964
 21
136.6942187658
  0
LINE
  5
40E
100
AcDbEntity
  8
DRAFT
100
AcDbLine
 62
7
  6
CONTINUOUS
 10
79.9891058885
 20
136.9405374616
 11
79.9549848089
 21
136.835640122
  0
LINE
  5
40F
100
AcDbEntity
  8
DRAFT
100
AcDbLine
 62
7
  6
CONTINUOUS
 10
80.271948601
 20
137.0819588179
 11
80.2378275214
 21
136.9770614782
  0
LINE
  5
410
100
AcDbEntity
  8
DRAFT
100
AcDbLine
 62
7
  6
CONTINUOUS
 10
80.4068942409
 20
135.501426179
 11
80.4355866278
 21
135.5827154339
  0
LWPOLYLINE
  5
411
100
AcDbEntity
  8
0
100
AcDbPolyline
 62
253
  6
CONTINUOUS
 90
7
 70
0
 10
69.8251773113
 20
106.1969460211
 10
69.8277796285
 20
106.2030658816
 10
69.8304087373
 20
106.2090089289
 10
69.8330646379
 20
106.2147751629
 10
69.8357473301
 20
106.2203645837
 10
69.838456814
 20
106.2257771912
 10
69.8411930895
 20
106.2310129855
  0
LINE
  5
412
100
AcDbEntity
  8
0
100
AcDbLine
 62
253
  6
CONTINUOUS
 10
69.6480079243
 20
106.4300999707
 11
69.9943388092
 21
107.0763622001
  0
LINE
  5
413
100
AcDbEntity
  8
0
100
AcDbLine
 62
253
  6
CONTINUOUS
 10
69.8411930895
 20
106.2310129855
 11
70.2771815216
 21
107.0445784755
  0
LWPOLYLINE
  5
414
100
AcDbEntity
  8
0
100
AcDbPolyline
 62
253
  6
CONTINUOUS
 90
7
 70
0
 10
69.6067336841
 20
106.380621129
 10
69.6134227325
 20
106.3896068289
 10
69.620199061
 20
106.3983156712
 10
69.6270545402
 20
106.406733534
 10
69.6339805971
 20
106.4148462817
 10
69.6409682133
 20
106.4226397898
 10
69.6480079243
 20
106.4300999707
  0
LWPOLYLINE
  5
415
100
AcDbEntity
  8
0
100
AcDbPolyline
 62
253
  6
CONTINUOUS
 90
24
 70
0
 10
69.6067336841
 20
106.380621129
 10
69.5960329169
 20
106.3726820853
 10
69.5854028662
 20
106.364375482
 10
69.5748536395
 20
106.3557092681
 10
69.5643954072
 20
106.3466918584
 10
69.5540379653
 20
106.3373317597
 10
69.5437907406
 20
106.3276375166
 10
69.5336633451
 20
106.3176182123
 10
69.5236655567
 20
106.3072835102
 10
69.5138068929
 20
106.2966432482
 10
69.5040967333
 20
106.2857075487
 10
69.4945443182
 20
106.274486818
 10
69.4851587444
 20
106.2629917418
 10
69.4759489462
 20
106.2512332636
 10
69.4669236819
 20
106.2392225665
 10
69.4580915337
 20
106.226971072
 10
69.4494609034
 20
106.2144904348
 10
69.441040005
 20
106.2017925323
 10
69.4328368508
 20
106.1888894468
 10
69.4248592462
 20
106.1757934552
 10
69.4171147817
 20
106.1625170185
 10
69.4096108261
 20
106.1490727689
 10
69.4023545199
 20
106.1354734996
 10
69.3994854936
 20
106.1298428674
  0
LWPOLYLINE
  5
416
100
AcDbEntity
  8
0
100
AcDbPolyline
 62
253
  6
CONTINUOUS
 90
46
 70
0
 10
69.7734135023
 20
106.152119167
 10
69.7669838835
 20
106.1473482506
 10
69.7606084746
 20
106.1423664209
 10
69.7542872756
 20
106.137173678
 10
69.7480143762
 20
106.1317646672
 10
69.7417956867
 20
106.1261447432
 10
69.7356489378
 20
106.1203299703
 10
69.7295743358
 20
106.1143198079
 10
69.7235716743
 20
106.1081147967
 10
69.7176580651
 20
106.1017326231
 10
69.7118337617
 20
106.0951727804
 10
69.7060985106
 20
106.0884357753
 10
69.7004686629
 20
106.0815408143
 10
69.694944522
 20
106.0744874498
 10
69.6895257844
 20
106.0672761294
 10
69.6842278915
 20
106.0599274019
 10
69.6790511867
 20
106.0524408741
 10
69.6739953266
 20
106.0448169393
 10
69.6690747217
 20
106.0370773264
 10
69.6642897578
 20
106.0292217053
 10
69.659640049
 20
106.0212504061
 10
69.6551388484
 20
106.0131861477
 10
69.6507865799
 20
106.0050286657
 10
69.6465828196
 20
105.9967782245
 10
69.6425395487
 20
105.9884583369
 10
69.6386572257
 20
105.9800688072
 10
69.6349353921
 20
105.9716098311
 10
69.6313846538
 20
105.9631055085
 10
69.6280054912
 20
105.954555685
 10
69.6247974238
 20
105.945960515
 10
69.6217696163
 20
105.9373445611
 10
69.6189226045
 20
105.9287078404
 10
69.6162558525
 20
105.9200503358
 10
69.613776917
 20
105.9113965589
 10
69.6114861796
 20
105.9027455507
 10
69.6093832586
 20
105.8940982701
 10
69.6074745662
 20
105.8854821059
 10
69.6057617982
 20
105.8769090064
 10
69.6042432588
 20
105.8683670234
 10
69.6029202725
 20
105.8598477003
 10
69.6017901849
 20
105.8513415192
 10
69.6008556504
 20
105.8428579982
 10
69.6001259566
 20
105.8344172353
 10
69.5996041991
 20
105.8260259299
 10
69.5992872823
 20
105.8176773827
 10
69.5991752061
 20
105.8093715936
  0
LWPOLYLINE
  5
417
100
AcDbEntity
  8
0
100
AcDbPolyline
 62
253
  6
CONTINUOUS
 90
16
 70
0
 10
69.7734135023
 20
106.1521195681
 10
69.7781775123
 20
106.1545846627
 10
69.7827883663
 20
106.1571406352
 10
69.7872384287
 20
106.1597854373
 10
69.7915233086
 20
106.1625189534
 10
69.7956320575
 20
106.1653368132
 10
69.7995486656
 20
106.1682298507
 10
69.8032659115
 20
106.1711937832
 10
69.806779634
 20
106.1742264036
 10
69.8100807652
 20
106.1773207864
 10
69.8131642061
 20
106.1804725886
 10
69.8160264225
 20
106.1836786655
 10
69.8186621424
 20
106.186933476
 10
69.8210676241
 20
106.1902324565
 10
69.823240274
 20
106.1935721126
 10
69.8251773113
 20
106.1969483417
  0
LINE
  5
418
100
AcDbEntity
  8
0
100
AcDbLine
 62
7
  6
CONTINUOUS
 10
69.9943388092
 20
107.0763622001
 11
69.4471437646
 21
106.8027646777
  0
LINE
  5
419
100
AcDbEntity
  8
0
100
AcDbLine
 62
7
  6
CONTINUOUS
 10
70.683385189
 20
107.6269648796
 11
69.7561242978
 21
107.1713565096
  0
LWPOLYLINE
  5
41A
100
AcDbEntity
  8
0
100
AcDbPolyline
 62
253
  6
CONTINUOUS
 90
28
 70
0
 10
69.5991752061
 20
105.8093715936
 10
69.5933660493
 20
105.8065817081
 10
69.5873369289
 20
105.8039110409
 10
69.5810976244
 20
105.8013639236
 10
69.5746582558
 20
105.7989444878
 10
69.5680292678
 20
105.7966566578
 10
69.5612214127
 20
105.7945041445
 10
69.5542457328
 20
105.7924904391
 10
69.5471135428
 20
105.7906188081
 10
69.539836411
 20
105.7888922871
 10
69.5324261409
 20
105.7873136766
 10
69.5248947522
 20
105.7858855371
 10
69.5172544606
 20
105.784610185
 10
69.5095176589
 20
105.7834896891
 10
69.5016968961
 20
105.7825258666
 10
69.4938048574
 20
105.781720281
 10
69.4858543439
 20
105.7810742389
 10
69.4778582514
 20
105.7805887882
 10
69.4698295494
 20
105.7802647163
 10
69.4617812605
 20
105.7801025488
 10
69.4537264392
 20
105.7801025488
 10
69.4456781504
 20
105.7802647163
 10
69.4376494484
 20
105.7805887882
 10
69.4296533558
 20
105.7810742389
 10
69.4217028423
 20
105.781720281
 10
69.4138108037
 20
105.7825258666
 10
69.4059900408
 20
105.7834896891
 10
69.3994854936
 20
105.7844317216
  0
LINE
  5
41B
100
AcDbEntity
  8
ASSI
100
AcDbLine
 62
7
  6
CONTINUOUS
 10
47.30767023
 20
96.9376175527
 11
47.2279800987
 21
96.9027296892
  0
LWPOLYLINE
  5
41C
100
AcDbEntity
  8
RACCORDO
100
AcDbPolyline
 62
253
  6
CONTINUOUS
 90
45
 70
0
 10
47.037661452
 20
97.0514948043
 10
47.0551181523
 20
97.0582682921
 10
47.0898717201
 20
97.0744432637
 10
47.1232089981
 20
97.0936534642
 10
47.1550577385
 20
97.1158359436
 10
47.1853668984
 20
97.1409489422
 10
47.2140517168
 20
97.168930677
 10
47.2409926464
 20
97.1996734698
 10
47.2660887481
 20
97.2330644077
 10
47.2892548004
 20
97.2689897368
 10
47.3104133517
 20
97.3073289518
 10
47.3294883188
 20
97.3479416064
 10
47.3464071115
 20
97.39066131
 10
47.3611272172
 20
97.4353673893
 10
47.3736193861
 20
97.4819850356
 10
47.3838410875
 20
97.5304120983
 10
47.3917349779
 20
97.5804463051
 10
47.397259078
 20
97.6318558496
 10
47.4003935294
 20
97.6844459144
 10
47.4011298948
 20
97.7380573074
 10
47.3994657791
 20
97.7924993739
 10
47.3954082338
 20
97.8475805022
 10
47.3889717668
 20
97.9031197646
 10
47.3801771041
 20
97.9589391764
 10
47.3690519013
 20
98.0148566988
 10
47.3556343983
 20
98.0706749827
 10
47.3399731152
 20
98.1261928385
 10
47.3221247924
 20
98.1812140345
 10
47.3021487608
 20
98.2355599763
 10
47.2801085275
 20
98.2890582117
 10
47.256074313
 20
98.3415352371
 10
47.2301305751
 20
98.3928038399
 10
47.2023724237
 20
98.4426766309
 10
47.1729009966
 20
98.4909756298
 10
47.1418118308
 20
98.5375477797
 10
47.1092001533
 20
98.5822504702
 10
47.0751529934
 20
98.624958564
 10
47.0398064615
 20
98.6654957282
 10
47.0033412707
 20
98.7036619932
 10
46.9659253625
 20
98.7393028595
 10
46.9276520833
 20
98.7723500503
 10
46.8885962383
 20
98.8027465965
 10
46.8488696933
 20
98.8304033635
 10
46.8086250738
 20
98.8552120619
 10
46.7679978478
 20
98.877089489
  0
LINE
  5
41D
100
AcDbEntity
  8
RACCORDO
100
AcDbLine
 62
7
  6
CONTINUOUS
 10
47.2457557014
 20
96.9089248018
 11
47.2444124335
 21
96.9084282867
  0
LINE
  5
41E
100
AcDbEntity
  8
RACCORDO
100
AcDbLine
 62
253
  6
CONTINUOUS
 10
47.0376313211
 20
97.0514838549
 11
47.037661452
 21
97.0514948043
  0
LINE
  5
41F
100
AcDbEntity
  8
DRAFT
100
AcDbLine
 62
7
  6
CONTINUOUS
 10
47.0376313195
 20
97.0514838543
 11
47.5458404517
 21
97.2361428121
  0
LINE
  5
420
100
AcDbEntity
  8
ASSI
100
AcDbLine
 62
253
  6
CONTINUOUS
 10
47.2457557014
 20
96.9089248018
 11
47.2279267555
 21
96.9026926316
  0
LWPOLYLINE
  5
421
100
AcDbEntity
  8
RACCORDO
100
AcDbPolyline
 62
7
  6
CONTINUOUS
 90
13
 70
0
 10
47.0376313225
 20
97.0514838554
 10
47.0033334154
 20
97.0404276777
 10
46.9680678941
 20
97.0318529438
 10
46.9319375073
 20
97.0258203197
 10
46.8950699238
 20
97.0223820912
 10
46.8575531515
 20
97.0215752616
 10
46.8194272318
 20
97.0234371968
 10
46.7807526084
 20
97.0280120167
 10
46.7416785715
 20
97.0353285365
 10
46.7023691867
 20
97.0453917086
 10
46.6629456588
 20
97.0581986737
 10
46.6234910649
 20
97.0737517267
 10
46.5841082325
 20
97.0920429761
  0
LINE
  5
422
100
AcDbEntity
  8
RACCORDO
100
AcDbLine
 62
7
  6
CONTINUOUS
 10
46.3466671356
 20
99.1351758905
 11
46.3879751286
 21
99.148130826
  0
LWPOLYLINE
  5
423
100
AcDbEntity
  8
RACCORDO
100
AcDbPolyline
 62
253
  6
CONTINUOUS
 90
16
 70
0
 10
57.6294866011
 20
124.219133233
 10
57.567884969
 20
124.2046276556
 10
57.5009882817
 20
124.1933467184
 10
57.4295133272
 20
124.1854112948
 10
57.3542259488
 20
124.1809064119
 10
57.2759328396
 20
124.1798803387
 10
57.1954728984
 20
124.1823440694
 10
57.1137082414
 20
124.1882712056
 10
57.0315149648
 20
124.1975982388
 10
56.949773757
 20
124.2102252314
 10
56.869360463
 20
124.2260168869
 10
56.7911366989
 20
124.2448040001
 10
56.7159406209
 20
124.2663852702
 10
56.6445779435
 20
124.290529457
 10
56.5778133071
 20
124.3169778591
 10
56.5163620849
 20
124.345447086
  0
LWPOLYLINE
  5
424
100
AcDbEntity
  8
ASSI
100
AcDbPolyline
 62
253
  6
CONTINUOUS
 90
16
 70
0
 10
57.6294866011
 20
124.219133233
 10
57.567884969
 20
124.2046276556
 10
57.5009882817
 20
124.1933467184
 10
57.4295133272
 20
124.1854112948
 10
57.3542259488
 20
124.1809064119
 10
57.2759328396
 20
124.1798803387
 10
57.1954728984
 20
124.1823440694
 10
57.1137082414
 20
124.1882712056
 10
57.0315149648
 20
124.1975982388
 10
56.949773757
 20
124.2102252314
 10
56.869360463
 20
124.2260168869
 10
56.7911366989
 20
124.2448040001
 10
56.7159406209
 20
124.2663852702
 10
56.6445779435
 20
124.290529457
 10
56.5778133071
 20
124.3169778591
 10
56.5163620849
 20
124.345447086
  0
LWPOLYLINE
  5
425
100
AcDbEntity
  8
0
100
AcDbPolyline
 62
253
  6
CONTINUOUS
 90
40
 70
0
 10
69.6480079243
 20
122.0185572388
 10
69.6557867066
 20
122.01737461
 10
69.6635528717
 20
122.0159129601
 10
69.6712938228
 20
122.0141746599
 10
69.6789970041
 20
122.0121625291
 10
69.686649921
 20
122.0098798312
 10
69.6942401604
 20
122.0073302688
 10
69.701755411
 20
122.0045179774
 10
69.709183483
 20
122.0014475183
 10
69.716512328
 20
121.9981238721
 10
69.7237300586
 20
121.9945524296
 10
69.7308249676
 20
121.9907389836
 10
69.7377855471
 20
121.9866897198
 10
69.7446005069
 20
121.9824112058
 10
69.7512587932
 20
121.9779103816
 10
69.7577496063
 20
121.9731945475
 10
69.7640624179
 20
121.9682713526
 10
69.7701869887
 20
121.9631487822
 10
69.7761133846
 20
121.9578351454
 10
69.781831993
 20
121.9523390607
 10
69.7873335383
 20
121.9466694428
 10
69.7926090969
 20
121.940835488
 10
69.7976501118
 20
121.9348466588
 10
69.8024484066
 20
121.9287126692
 10
69.8069961984
 20
121.9224434686
 10
69.8112861106
 20
121.9160492256
 10
69.815311185
 20
121.9095403117
 10
69.8190648929
 20
121.9029272843
 10
69.8225411458
 20
121.8962208699
 10
69.8257343051
 20
121.8894319463
 10
69.8286391916
 20
121.8825715251
 10
69.8312510936
 20
121.8756507339
 10
69.8335657744
 20
121.8686807984
 10
69.8355794797
 20
121.8616730236
 10
69.8372889433
 20
121.8546387764
 10
69.8386913924
 20
121.8475894663
 10
69.8397845522
 20
121.8405365272
 10
69.8405666496
 20
121.8334913992
 10
69.841036416
 20
121.8264655093
 10
69.8411930895
 20
121.8194702536
  0
LINE
  5
426
100
AcDbEntity
  8
RACCORDO
100
AcDbLine
 62
253
  6
CONTINUOUS
 10
57.6622937485
 20
125.9817743915
 11
43.5180836761
 21
133.0538794278
  0
LINE
  5
427
100
AcDbEntity
  8
ASSI
100
AcDbLine
 62
253
  6
CONTINUOUS
 10
57.6622937485
 20
125.9817743915
 11
43.5180836761
 21
133.0538794278
  0
LWPOLYLINE
  5
428
100
AcDbEntity
  8
0
100
AcDbPolyline
 62
253
  6
CONTINUOUS
 90
8
 70
0
 10
69.3994854936
 20
118.562432122
 10
69.4021031048
 20
118.5599038502
 10
69.4093622872
 20
118.5535369832
 10
69.4168701446
 20
118.5475738717
 10
69.4246195108
 20
118.5420202075
 10
69.4326029889
 20
118.5368812915
 10
69.4408129569
 20
118.5321620299
 10
69.4462790837
 20
118.5293157515
  0
LINE
  5
429
100
AcDbEntity
  8
0
100
AcDbLine
 62
7
  6
CONTINUOUS
 10
73.8060223684
 20
138.9214792523
 11
73.8060223684
 21
138.3860988353
  0
LINE
  5
42A
100
AcDbEntity
  8
0
100
AcDbLine
 62
253
  6
CONTINUOUS
 10
74.4510430067
 20
138.7086091545
 11
74.4510430067
 21
139.0944220835
  0
LWPOLYLINE
  5
42B
100
AcDbEntity
  8
26814000
100
AcDbPolyline
 62
7
  6
CONTINUOUS
 90
7
 70
0
 10
69.2136878059
 20
95.588007451
 10
69.2135961978
 20
95.5875218435
 10
69.2134570271
 20
95.5870096958
 10
69.2132702936
 20
95.5864710077
 10
69.2130359975
 20
95.5859057794
 10
69.2127541387
 20
95.5853140108
 10
69.2124247172
 20
95.5846957019
  0
LINE
  5
42C
100
AcDbEntity
  8
DRAFT
100
AcDbLine
 62
7
  6
CONTINUOUS
 10
80.5547913134
 20
137.2233801741
 11
80.5206702338
 21
137.1184828345
  0
LWPOLYLINE
  5
42D
100
AcDbEntity
  8
0
100
AcDbPolyline
 62
253
  6
CONTINUOUS
 90
12
 70
0
 10
69.8242904076
 20
103.0447339382
 10
69.8257343056
 20
103.0475020088
 10
69.8286391921
 20
103.0535840681
 10
69.831251094
 20
103.0598050023
 10
69.8335657747
 20
103.066154721
 10
69.83557948
 20
103.072622925
 10
69.8372889435
 20
103.0791991228
 10
69.8386913925
 20
103.0858726477
 10
69.8397845523
 20
103.0926326754
 10
69.8405666496
 20
103.0994682409
 10
69.841036416
 20
103.106368257
 10
69.8411930895
 20
103.1133215318
  0
LINE
  5
42E
100
AcDbEntity
  8
0
100
AcDbLine
 62
253
  6
CONTINUOUS
 10
70.2771815216
 20
103.9268870219
 11
69.8411930895
 21
103.1133215318
  0
LWPOLYLINE
  5
42F
100
AcDbEntity
  8
0
100
AcDbPolyline
 62
253
  6
CONTINUOUS
 90
7
 70
0
 10
69.8411930895
 20
103.1133215318
 10
69.8384566074
 20
103.1083453446
 10
69.8357469996
 20
103.1036458209
 10
69.8330642661
 20
103.0992229607
 10
69.8304084069
 20
103.095076764
 10
69.8277794219
 20
103.0912072307
 10
69.8251773113
 20
103.0876143609
  0
LWPOLYLINE
  5
430
100
AcDbEntity
  8
0
100
AcDbPolyline
 62
253
  6
CONTINUOUS
 90
16
 70
0
 10
69.8251773113
 20
103.0876144775
 10
69.8233386142
 20
103.0843994357
 10
69.8212669454
 20
103.0811890673
 10
69.818958994
 20
103.0779879402
 10
69.8164091041
 20
103.0747975913
 10
69.813616887
 20
103.0716261854
 10
69.8105894364
 20
103.0684880275
 10
69.8073270594
 20
103.0653879935
 10
69.8038300233
 20
103.0623306123
 10
69.8001096673
 20
103.0593288201
 10
69.7961696569
 20
103.0563873964
 10
69.7920126366
 20
103.0535100448
 10
69.787652039
 20
103.0507070562
 10
69.7830965131
 20
103.0479840353
 10
69.7783484202
 20
103.0453424367
 10
69.7734135023
 20
103.0427857038
  0
LWPOLYLINE
  5
431
100
AcDbEntity
  8
0
100
AcDbPolyline
 62
253
  6
CONTINUOUS
 90
15
 70
0
 10
69.792286765
 20
102.9938902155
 10
69.7962740966
 20
102.9994750576
 10
69.8001752708
 20
103.0054661534
 10
69.8038136812
 20
103.0116260312
 10
69.8071836433
 20
103.017945067
 10
69.8102798918
 20
103.024413388
 10
69.8130975894
 20
103.0310208885
 10
69.8156323339
 20
103.0377572452
 10
69.8178801649
 20
103.0446119333
 10
69.8198375705
 20
103.0515742433
 10
69.8215014928
 20
103.0586332978
 10
69.8228693317
 20
103.0657780674
 10
69.8239389502
 20
103.0729973897
 10
69.8247086776
 20
103.0802799856
 10
69.8251773113
 20
103.0876144775
  0
LWPOLYLINE
  5
432
100
AcDbEntity
  8
0
100
AcDbPolyline
 62
7
  6
CONTINUOUS
 90
10
 70
0
 10
69.7922867613
 20
102.9938902182
 10
69.7929783539
 20
102.9948203233
 10
69.7972674575
 20
103.0007394864
 10
69.8015416698
 20
103.0069052802
 10
69.8058067557
 20
103.0133361179
 10
69.8100612711
 20
103.0200405255
 10
69.8142980299
 20
103.0270171358
 10
69.8185173424
 20
103.0342757383
 10
69.8227254576
 20
103.0418371683
 10
70.2523563861
 20
103.8435159286
  0
LWPOLYLINE
  5
433
100
AcDbEntity
  8
0
100
AcDbPolyline
 62
7
  6
CONTINUOUS
 90
19
 70
0
 10
69.7922763064
 20
102.9938762001
 10
69.7877205766
 20
102.9880027338
 10
69.7829578502
 20
102.9823119467
 10
69.7779970327
 20
102.9768121727
 10
69.7728573579
 20
102.9715210599
 10
69.7675389577
 20
102.9664349599
 10
69.7620191652
 20
102.9615326551
 10
69.7562943881
 20
102.9568153282
 10
69.7503819316
 20
102.9523012869
 10
69.7442877864
 20
102.9479980763
 10
69.7380210365
 20
102.9439149137
 10
69.7315897825
 20
102.9400596188
 10
69.7249988388
 20
102.9364377615
 10
69.7182538677
 20
102.9330554904
 10
69.7113687044
 20
102.9299225222
 10
69.7043612149
 20
102.9270487543
 10
69.6972558067
 20
102.9244443928
 10
69.6900514561
 20
102.9221090352
 10
69.685492735
 20
102.9207849735
  0
LWPOLYLINE
  5
434
100
AcDbEntity
  8
0
100
AcDbPolyline
 62
253
  6
CONTINUOUS
 90
28
 70
0
 10
69.5991752061
 20
103.2112953822
 10
69.5933660493
 20
103.2085054968
 10
69.5873369289
 20
103.2058348295
 10
69.5810976244
 20
103.2032877123
 10
69.5746582558
 20
103.2008682765
 10
69.5680292678
 20
103.1985804465
 10
69.5612214127
 20
103.1964279331
 10
69.5542457328
 20
103.1944142278
 10
69.5471135428
 20
103.1925425967
 10
69.539836411
 20
103.1908160757
 10
69.5324261409
 20
103.1892374652
 10
69.5248947522
 20
103.1878093257
 10
69.5172544606
 20
103.1865339737
 10
69.5095176589
 20
103.1854134777
 10
69.5016968961
 20
103.1844496552
 10
69.4938048574
 20
103.1836440696
 10
69.4858543439
 20
103.1829980275
 10
69.4778582514
 20
103.1825125768
 10
69.4698295494
 20
103.1821885049
 10
69.4617812605
 20
103.1820263374
 10
69.4537264392
 20
103.1820263374
 10
69.4456781504
 20
103.1821885049
 10
69.4376494484
 20
103.1825125768
 10
69.4296533558
 20
103.1829980275
 10
69.4217028423
 20
103.1836440696
 10
69.4138108037
 20
103.1844496552
 10
69.4059900408
 20
103.1854134777
 10
69.3994854936
 20
103.1863555103
  0
LWPOLYLINE
  5
435
100
AcDbEntity
  8
RACCORDO
100
AcDbPolyline
 62
253
  6
CONTINUOUS
 90
6
 70
0
 10
47.2444124335
 20
96.9084282867
 10
47.2079261949
 20
96.8965956078
 10
47.1469036095
 20
96.8834178872
 10
47.0835346144
 20
96.877617198
 10
47.0182706711
 20
96.8792521938
 10
46.9515729952
 20
96.888300493
  0
LWPOLYLINE
  5
436
100
AcDbEntity
  8
ASSI
100
AcDbPolyline
 62
253
  6
CONTINUOUS
 90
9
 70
0
 10
47.2279267555
 20
96.9026926316
 10
47.2079261949
 20
96.8965956078
 10
47.1469036095
 20
96.8834178872
 10
47.0835346144
 20
96.877617198
 10
47.0182706711
 20
96.8792521938
 10
46.9515729952
 20
96.888300493
 10
46.8838929529
 20
96.9046836205
 10
46.8156649423
 20
96.9282901564
 10
46.7473337256
 20
96.9589562792
  0
LINE
  5
437
100
AcDbEntity
  8
0
100
AcDbLine
 62
253
  6
CONTINUOUS
 10
69.3994854936
 20
122.1428184542
 11
69.6480079243
 21
122.0185572388
  0
LINE
  5
438
100
AcDbEntity
  8
0
100
AcDbLine
 62
253
  6
CONTINUOUS
 10
68.0442580373
 20
123.3706137453
 11
67.9111166355
 21
123.4371844462
  0
LINE
  5
439
100
AcDbEntity
  8
26814000
100
AcDbLine
 62
7
  6
CONTINUOUS
 10
62.2157764645
 20
126.4530477687
 11
62.7755947677
 21
126.1731386171
  0
LINE
  5
43A
100
AcDbEntity
  8
RACCORDO
100
AcDbLine
 62
7
  6
CONTINUOUS
 10
47.4302479482
 20
134.6530528857
 11
61.7139772414
 21
127.5111882391
  0
LINE
  5
43B
100
AcDbEntity
  8
ASSI
100
AcDbLine
 62
7
  6
CONTINUOUS
 10
47.4302479482
 20
134.6530528857
 11
61.7139772414
 21
127.5111882391
  0
LINE
  5
43C
100
AcDbEntity
  8
0
100
AcDbLine
 62
253
  6
CONTINUOUS
 10
71.0400239933
 20
122.9576434342
 11
70.6032324468
 21
123.1760392075
  0
LINE
  5
43D
100
AcDbEntity
  8
26814000
100
AcDbLine
 62
7
  6
CONTINUOUS
 10
46.1939407488
 20
135.422984997
 11
61.9624219693
 21
127.5387443868
  0
LINE
  5
43E
100
AcDbEntity
  8
26814000
100
AcDbLine
 62
7
  6
CONTINUOUS
 10
61.7149345959
 20
127.990004012
 11
46.4414281222
 21
135.6267572488
  0
LINE
  5
43F
100
AcDbEntity
  8
0
100
AcDbLine
 62
253
  6
CONTINUOUS
 10
68.7450872351
 20
124.5808587165
 11
68.4192218442
 21
124.743791412
  0
LWPOLYLINE
  5
440
100
AcDbEntity
  8
0
100
AcDbPolyline
 62
253
  6
CONTINUOUS
 90
40
 70
0
 10
69.6067296539
 20
121.9690754859
 10
69.6124446057
 20
121.9661002876
 10
69.6181912637
 20
121.9628739825
 10
69.6239603067
 20
121.9594018035
 10
69.6297423774
 20
121.9556893827
 10
69.6355280973
 20
121.9517427414
 10
69.6413080818
 20
121.9475682813
 10
69.6470729559
 20
121.9431727733
 10
69.6528133688
 20
121.9385633469
 10
69.6585200096
 20
121.9337474786
 10
69.6641836221
 20
121.9287329798
 10
69.66979502
 20
121.9235279841
 10
69.6753451014
 20
121.9181409339
 10
69.6808248642
 20
121.9125805671
 10
69.6862254201
 20
121.9068559025
 10
69.6915380095
 20
121.9009762257
 10
69.6967540153
 20
121.8949510735
 10
69.701864977
 20
121.8887902186
 10
69.7068626048
 20
121.8825036541
 10
69.7117387925
 20
121.8761015768
 10
69.7164856307
 20
121.8695943708
 10
69.7210954203
 20
121.8629925909
 10
69.725560684
 20
121.8563069451
 10
69.7298741791
 20
121.8495482777
 10
69.7340289093
 20
121.8427275512
 10
69.7380181355
 20
121.8358558288
 10
69.7418353871
 20
121.8289442565
 10
69.7454744726
 20
121.822004045
 10
69.7489294893
 20
121.8150464511
 10
69.7521948333
 20
121.8080827603
 10
69.755265208
 20
121.8011242676
 10
69.7581356334
 20
121.7941822597
 10
69.7608014536
 20
121.7872679966
 10
69.7632583446
 20
121.7803926932
 10
69.7655023214
 20
121.7735675014
 10
69.7675297441
 20
121.7668034915
 10
69.7693373244
 20
121.7601116349
 10
69.7709221303
 20
121.7535027858
 10
69.7722815913
 20
121.7469876637
 10
69.7734135023
 20
121.7405768362
  0
LWPOLYLINE
  5
441
100
AcDbEntity
  8
0
100
AcDbPolyline
 62
7
  6
CONTINUOUS
 90
40
 70
0
 10
73.8059911727
 20
138.9259506631
 10
73.8057327439
 20
138.9330140474
 10
73.8051828458
 20
138.9400047716
 10
73.8043456759
 20
138.9469201631
 10
73.8032210513
 20
138.9537604447
 10
73.8018177012
 20
138.9605209178
 10
73.8001533461
 20
138.9671920108
 10
73.7982325355
 20
138.9737716876
 10
73.7960596847
 20
138.9802593087
 10
73.793652391
 20
138.9866478242
 10
73.7910154396
 20
138.9929359563
 10
73.7881529997
 20
138.999123775
 10
73.7850815882
 20
139.0052064813
 10
73.7818059727
 20
139.0111834593
 10
73.7783300414
 20
139.0170552534
 10
73.7746686695
 20
139.0228188495
 10
73.77082642
 20
139.028474164
 10
73.7668069025
 20
139.0340220371
 10
73.7626231451
 20
139.0394607331
 10
73.7582793939
 20
139.0447905669
 10
73.7537789978
 20
139.0500125505
 10
73.7491331847
 20
139.0551257772
 10
73.7443458276
 20
139.0601308496
 10
73.739420043
 20
139.0650288623
 10
73.7343654769
 20
139.0698193638
 10
73.72918566
 20
139.0745031192
 10
73.7238834654
 20
139.0790812899
 10
73.7184671336
 20
139.0835537008
 10
73.7129398255
 20
139.0879212487
 10
73.7073042335
 20
139.0921850841
 10
73.7015675179
 20
139.0963450822
 10
73.6957325267
 20
139.1004022055
 10
73.689801771
 20
139.1043575978
 10
73.683781578
 20
139.1082110871
 10
73.6776745317
 20
139.1119636663
 10
73.6714829715
 20
139.1156164714
 10
73.6652125779
 20
139.1191692467
 10
73.6588657048
 20
139.1226230005
 10
73.6524445408
 20
139.1259788549
 10
73.6485785461
 20
139.1279351382
  0
LWPOLYLINE
  5
442
100
AcDbEntity
  8
0
100
AcDbPolyline
 62
253
  6
CONTINUOUS
 90
40
 70
0
 10
74.2389109723
 20
139.2481636875
 10
74.2387962793
 20
139.2551952994
 10
74.2384523864
 20
139.262330199
 10
74.2378798514
 20
139.2695568134
 10
74.2370796029
 20
139.2768634211
 10
74.2360529389
 20
139.2842381706
 10
74.2348015247
 20
139.2916691003
 10
74.2333273901
 20
139.2991441569
 10
74.2316329261
 20
139.306651216
 10
74.2297208812
 20
139.3141781011
 10
74.2275943567
 20
139.3217126036
 10
74.2252568018
 20
139.3292425025
 10
74.2227120081
 20
139.3367555841
 10
74.2199641032
 20
139.3442396624
 10
74.2170175443
 20
139.3516825981
 10
74.2138771106
 20
139.3590723187
 10
74.2105478959
 20
139.3663968381
 10
74.2070353003
 20
139.3736442759
 10
74.2033450212
 20
139.3808028766
 10
74.1994830443
 20
139.3878610291
 10
74.1954556337
 20
139.394807285
 10
74.1912693218
 20
139.4016303774
 10
74.1869308988
 20
139.4083192392
 10
74.1824474018
 20
139.4148630211
 10
74.177826103
 20
139.4212511091
 10
74.1730744981
 20
139.4274731416
 10
74.1682002942
 20
139.4335190266
 10
74.1632113973
 20
139.4393789574
 10
74.1581158995
 20
139.4450434294
 10
74.1529220656
 20
139.4505032547
 10
74.1476383201
 20
139.4557495774
 10
74.1422732332
 20
139.4607738881
 10
74.1368355072
 20
139.4655680372
 10
74.1313339619
 20
139.4701242486
 10
74.125777521
 20
139.4744351322
 10
74.120175197
 20
139.4784936956
 10
74.1145360769
 20
139.4822933559
 10
74.1088693074
 20
139.48582795
 10
74.1031840799
 20
139.4890917448
 10
74.0974896161
 20
139.4920794464
  0
LWPOLYLINE
  5
443
100
AcDbEntity
  8
0
100
AcDbPolyline
 62
253
  6
CONTINUOUS
 90
43
 70
0
 10
74.4510430067
 20
139.0944220835
 10
74.4508942595
 20
139.104067359
 10
74.4504507688
 20
139.113529805
 10
74.4497125345
 20
139.1228094216
 10
74.4486776417
 20
139.1319205698
 10
74.4473480054
 20
139.1408488886
 10
74.4457293707
 20
139.1495512946
 10
74.4438206385
 20
139.1580246629
 10
74.4416229079
 20
139.1662721184
 10
74.4391452212
 20
139.1742599519
 10
74.4363863254
 20
139.1819874463
 10
74.4333474735
 20
139.1894553188
 10
74.4300414662
 20
139.1966320114
 10
74.4264672134
 20
139.2035161931
 10
74.4226258053
 20
139.2101091948
 10
74.4185333131
 20
139.2163834516
 10
74.4141886793
 20
139.2223376414
 10
74.4095929614
 20
139.2279730861
 10
74.4047654038
 20
139.2332661866
 10
74.3997050334
 20
139.2382155077
 10
74.3944128233
 20
139.2428224846
 10
74.3889109369
 20
139.2470678228
 10
74.3831984949
 20
139.2509500053
 10
74.3772763767
 20
139.2544705491
 10
74.3711693828
 20
139.2576147113
 10
74.3648767379
 20
139.2603809133
 10
74.3583992175
 20
139.2627707336
 10
74.3517639487
 20
139.2647741648
 10
74.3449702858
 20
139.2663895874
 10
74.3380188746
 20
139.267618621
 10
74.3309387803
 20
139.2684561165
 10
74.3237293589
 20
139.2689004182
 10
74.3163912543
 20
139.268953182
 10
74.3089554639
 20
139.2686142267
 10
74.3014219208
 20
139.2678819829
 10
74.293790692
 20
139.26675802
 10
74.286092975
 20
139.2652468662
 10
74.2783266449
 20
139.2633461162
 10
74.2704938265
 20
139.2610581751
 10
74.2626320928
 20
139.2583947873
 10
74.254753968
 20
139.2553598675
 10
74.2468469278
 20
139.2519495009
 10
74.2389109723
 20
139.2481636875
  0
LWPOLYLINE
  5
444
100
AcDbEntity
  8
0
100
AcDbPolyline
 62
7
  6
CONTINUOUS
 90
34
 70
0
 10
74.5096216504
 20
139.1651327617
 10
74.5094074837
 20
139.1799637442
 10
74.5087686622
 20
139.1945906229
 10
74.5077105062
 20
139.2090078389
 10
74.5062376776
 20
139.2232134678
 10
74.5043552292
 20
139.2371987322
 10
74.5020697487
 20
139.2509477952
 10
74.4993850021
 20
139.2644636334
 10
74.4963077384
 20
139.2777324356
 10
74.4928534116
 20
139.2907134966
 10
74.4890338043
 20
139.3033933334
 10
74.4848557124
 20
139.3157764663
 10
74.4803319083
 20
139.3278492875
 10
74.4754752625
 20
139.3396016815
 10
74.4702944167
 20
139.3510350165
 10
74.4647970527
 20
139.3621513846
 10
74.4589949223
 20
139.3729442704
 10
74.452898414
 20
139.3834106801
 10
74.4465128243
 20
139.3935557144
 10
74.4398490961
 20
139.4033744816
 10
74.4329189753
 20
139.4128617797
 10
74.4257285951
 20
139.422020204
 10
74.4182974872
 20
139.4308358598
 10
74.410630648
 20
139.4393136184
 10
74.4027096157
 20
139.4474802059
 10
74.3945382955
 20
139.4553340414
 10
74.3861325983
 20
139.4628624621
 10
74.377488757
 20
139.4700708952
 10
74.3686152165
 20
139.476953117
 10
74.3595242296
 20
139.4835006879
 10
74.3502168175
 20
139.489713525
 10
74.3407004766
 20
139.4955865033
 10
74.330989783
 20
139.5011107738
 10
74.3210964138
 20
139.50628034
  0
LINE
  5
445
100
AcDbEntity
  8
0
100
AcDbLine
 62
7
  6
CONTINUOUS
 10
74.5096216504
 20
138.803470884
 11
74.5096216504
 21
139.1651327617
  0
LINE
  5
446
100
AcDbEntity
  8
0
100
AcDbLine
 62
7
  6
CONTINUOUS
 10
75.7161187989
 20
138.0222250813
 11
75.7170704773
 21
138.0734354048
  0
LINE
  5
447
100
AcDbEntity
  8
0
100
AcDbLine
 62
7
  6
CONTINUOUS
 10
75.7170704773
 20
138.0734354048
 11
75.7174868601
 21
138.0916125343
  0
LWPOLYLINE
  5
448
100
AcDbEntity
  8
0
100
AcDbPolyline
 62
7
  6
CONTINUOUS
 90
5
 70
0
 10
75.7174868601
 20
138.0916125343
 10
75.7175264719
 20
138.0927118643
 10
75.7175426597
 20
138.0930766383
 10
75.7175589069
 20
138.0933166377
 10
75.7175711162
 20
138.0934280354
  0
LWPOLYLINE
  5
449
100
AcDbEntity
  8
0
100
AcDbPolyline
 62
7
  6
CONTINUOUS
 90
49
 70
0
 10
78.9773657904
 20
135.7810094588
 10
78.9784725584
 20
135.7870413812
 10
78.9795357743
 20
135.7930627174
 10
78.9805556298
 20
135.799071704
 10
78.9815335617
 20
135.8050674366
 10
78.9824686009
 20
135.8110472157
 10
78.9833574016
 20
135.8170065725
 10
78.9842003491
 20
135.8229435566
 10
78.9849977666
 20
135.8288564361
 10
78.9857462998
 20
135.8347410778
 10
78.9864464421
 20
135.8405954911
 10
78.9870986245
 20
135.8464179041
 10
78.9876994658
 20
135.8522045074
 10
78.9882495634
 20
135.8579532752
 10
78.9887494454
 20
135.8636623882
 10
78.9891956767
 20
135.8693283268
 10
78.989588956
 20
135.8749490287
 10
78.9899299002
 20
135.8805226203
 10
78.9902149879
 20
135.8860458223
 10
78.9904450184
 20
135.8915165311
 10
78.9906206916
 20
135.8969328101
 10
78.9907383631
 20
135.9022915638
 10
78.9907989345
 20
135.9075906322
 10
78.9908031856
 20
135.9128280122
 10
78.9907473079
 20
135.9180007485
 10
78.9906323092
 20
135.9231066352
 10
78.9904590488
 20
135.9281435669
 10
78.9902235103
 20
135.9331086149
 10
78.9899268165
 20
135.9379994849
 10
78.9895699088
 20
135.9428139878
 10
78.9891485149
 20
135.9475491947
 10
78.988663884
 20
135.9522027186
 10
78.988117044
 20
135.9567722589
 10
78.9875034109
 20
135.961254819
 10
78.9868243744
 20
135.9656479077
 10
78.9860810578
 20
135.9699490875
 10
78.9852685071
 20
135.974155202
 10
78.9843882703
 20
135.9782636368
 10
78.9834415793
 20
135.9822717975
 10
78.9824230487
 20
135.986176271
 10
78.9813344074
 20
135.9899743003
 10
78.9801770134
 20
135.9936631124
 10
78.9789449865
 20
135.9972389354
 10
78.9776402635
 20
136.0006988503
 10
78.9762643513
 20
136.0040398832
 10
78.9748108111
 20
136.007257794
 10
78.9732818186
 20
136.0103494838
 10
78.9716790588
 20
136.0133117549
 10
78.9713118583
 20
136.0139525043
  0
LINE
  5
44A
100
AcDbEntity
  8
26814000
100
AcDbLine
 62
7
  6
CONTINUOUS
 10
60.0453263295
 20
89.0708196014
 11
60.6241166697
 21
89.7752633316
  0
LINE
  5
44B
100
AcDbEntity
  8
0
100
AcDbLine
 62
7
  6
CONTINUOUS
 10
69.3994854936
 20
102.3917726884
 11
70.0685883918
 21
102.7382108555
  0
LINE
  5
44C
100
AcDbEntity
  8
0
100
AcDbLine
 62
7
  6
CONTINUOUS
 10
68.1423700761
 20
99.2221746032
 11
68.0435402875
 21
99.1727597089
  0
LINE
  5
44D
100
AcDbEntity
  8
0
100
AcDbLine
 62
7
  6
CONTINUOUS
 10
70.683385189
 20
102.4308124569
 11
69.7561242978
 21
101.9752040869
  0
LWPOLYLINE
  5
44E
100
AcDbEntity
  8
0
100
AcDbPolyline
 62
7
  6
CONTINUOUS
 90
7
 70
0
 10
67.9496749839
 20
99.1335152095
 10
67.9512402016
 20
99.1340199145
 10
67.9696317626
 20
99.1405496891
 10
67.9880613289
 20
99.1476898969
 10
68.0065163099
 20
99.1554360678
 10
68.0250092961
 20
99.1637926718
 10
68.0435402875
 20
99.1727597089
  0
LWPOLYLINE
  5
44F
100
AcDbEntity
  8
0
100
AcDbPolyline
 62
253
  6
CONTINUOUS
 90
31
 70
0
 10
80.2292704872
 20
131.1399873802
 10
80.2317044398
 20
131.1403750849
 10
80.2364845592
 20
131.1409653631
 10
80.2413903714
 20
131.14140525
 10
80.2464006643
 20
131.1416938341
 10
80.2515162487
 20
131.1418301622
 10
80.2567340435
 20
131.1418153478
 10
80.2620273269
 20
131.1416535399
 10
80.267397135
 20
131.1413449255
 10
80.272840663
 20
131.1408915538
 10
80.2783258667
 20
131.1403023239
 10
80.2838489807
 20
131.1395794156
 10
80.289412745
 20
131.1387250624
 10
80.2949952593
 20
131.1377495778
 10
80.3005750672
 20
131.1366601844
 10
80.3061732623
 20
131.1354552282
 10
80.3118313283
 20
131.1341299209
 10
80.3175299749
 20
131.1326905303
 10
80.3232870841
 20
131.13113194
 10
80.3291980626
 20
131.1294263671
 10
80.3352593545
 20
131.127571837
 10
80.3414702716
 20
131.1255633925
 10
80.3479278815
 20
131.1233614126
 10
80.3546299745
 20
131.1209587714
 10
80.3615709681
 20
131.1183480748
 10
80.3688400077
 20
131.1154824805
 10
80.3764446548
 20
131.1123457258
 10
80.3843649302
 20
131.1089318248
 10
80.3926462115
 20
131.1052045713
 10
80.4012868984
 20
131.1011480479
 10
80.410307926
 20
131.0967340754
  0
LINE
  5
450
100
AcDbEntity
  8
26814000
100
AcDbLine
 62
7
  6
CONTINUOUS
 10
62.2744492805
 20
129.0620806988
 11
61.6521312484
 21
129.1920212813
  0
LINE
  5
451
100
AcDbEntity
  8
26814000
100
AcDbLine
 62
7
  6
CONTINUOUS
 10
62.2744492805
 20
128.4249111401
 11
60.6604451645
 21
129.2319131981
  0
LINE
  5
452
100
AcDbEntity
  8
26814000
100
AcDbLine
 62
7
  6
CONTINUOUS
 10
48.910131116
 20
135.1070702223
 11
47.296127
 21
135.9140722803
  0
LINE
  5
453
100
AcDbEntity
  8
26814000
100
AcDbLine
 62
7
  6
CONTINUOUS
 10
52.2425869968
 20
133.7981745171
 11
58.0350960649
 21
130.9019199831
  0
LINE
  5
454
100
AcDbEntity
  8
26814000
100
AcDbLine
 62
7
  6
CONTINUOUS
 10
46.6577287917
 20
136.6856023601
 11
48.2642623548
 21
135.8823355786
  0
LINE
  5
455
100
AcDbEntity
  8
26814000
100
AcDbLine
 62
7
  6
CONTINUOUS
 10
60.0220469562
 20
130.0034432779
 11
61.6285805192
 21
129.2001764964
  0
LINE
  5
456
100
AcDbEntity
  8
26814000
100
AcDbLine
 62
253
  6
CONTINUOUS
 10
46.5931340458
 20
136.820631535
 11
48.1989105079
 21
136.0177433039
  0
LINE
  5
457
100
AcDbEntity
  8
26814000
100
AcDbLine
 62
253
  6
CONTINUOUS
 10
59.9574522102
 20
130.1384724528
 11
61.5632286724
 21
129.3355842217
  0
LINE
  5
458
100
AcDbEntity
  8
26814000
100
AcDbLine
 62
253
  6
CONTINUOUS
 10
61.5632286724
 20
129.5889556154
 11
59.9574522102
 21
130.3918438465
  0
LINE
  5
459
100
AcDbEntity
  8
26814000
100
AcDbLine
 62
253
  6
CONTINUOUS
 10
48.1989105079
 20
136.2711146977
 11
46.5931340458
 21
137.0740029287
  0
LINE
  5
45A
100
AcDbEntity
  8
26814000
100
AcDbLine
 62
7
  6
CONTINUOUS
 10
49.9769620282
 20
135.6456514718
 11
52.1547190312
 21
134.5567729703
  0
LINE
  5
45B
100
AcDbEntity
  8
26814000
100
AcDbLine
 62
7
  6
CONTINUOUS
 10
58.9572181492
 20
131.1555234113
 11
60.0383401004
 21
130.6149624357
  0
LINE
  5
45C
100
AcDbEntity
  8
26814000
100
AcDbLine
 62
7
  6
CONTINUOUS
 10
63.3412801926
 20
128.9634923896
 11
63.4827015488
 21
128.8927817115
  0
LINE
  5
45D
100
AcDbEntity
  8
26814000
100
AcDbLine
 62
253
  6
CONTINUOUS
 10
61.7399994018
 20
129.8928211937
 11
60.1321779927
 21
130.6967318982
  0
LINE
  5
45E
100
AcDbEntity
  8
26814000
100
AcDbLine
 62
253
  6
CONTINUOUS
 10
48.3756812374
 20
136.5749802759
 11
46.7678598283
 21
137.3788909804
  0
LINE
  5
45F
100
AcDbEntity
  8
26814000
100
AcDbLine
 62
7
  6
CONTINUOUS
 10
52.2425869968
 20
135.0131293832
 11
58.0350960649
 21
132.1168748492
  0
LINE
  5
460
100
AcDbEntity
  8
0
100
AcDbLine
 62
7
  6
CONTINUOUS
 10
71.0400239933
 20
125.7571094669
 11
70.6721779727
 21
125.9410324772
  0
LINE
  5
461
100
AcDbEntity
  8
26814000
100
AcDbLine
 62
7
  6
CONTINUOUS
 10
64.18980833
 20
129.2387774129
 11
63.3900763062
 21
129.6386434248
  0
LINE
  5
462
100
AcDbEntity
  8
26814000
100
AcDbLine
 62
7
  6
CONTINUOUS
 10
51.5082361452
 20
135.5795635053
 11
50.0257581418
 21
136.320802507
  0
LWPOLYLINE
  5
463
100
AcDbEntity
  8
0
100
AcDbPolyline
 62
7
  6
CONTINUOUS
 90
40
 70
0
 10
76.9172610099
 20
137.3703157445
 10
76.9170025811
 20
137.3773791288
 10
76.916452683
 20
137.384369853
 10
76.9156155131
 20
137.3912852445
 10
76.9144908885
 20
137.3981255261
 10
76.9130875384
 20
137.4048859991
 10
76.9114231834
 20
137.4115570922
 10
76.9095023728
 20
137.418136769
 10
76.9073295219
 20
137.4246243901
 10
76.9049222282
 20
137.4310129056
 10
76.9022852768
 20
137.4373010377
 10
76.8994228369
 20
137.4434888564
 10
76.8963514254
 20
137.4495715627
 10
76.8930758099
 20
137.4555485407
 10
76.8895998786
 20
137.4614203348
 10
76.8859385067
 20
137.4671839309
 10
76.8820962572
 20
137.4728392454
 10
76.8780767397
 20
137.4783871185
 10
76.8738929823
 20
137.4838258145
 10
76.8695492311
 20
137.4891556483
 10
76.865048835
 20
137.4943776319
 10
76.860403022
 20
137.4994908586
 10
76.8556156648
 20
137.504495931
 10
76.8506898802
 20
137.5093939436
 10
76.8456353142
 20
137.5141844452
 10
76.8404554973
 20
137.5188682006
 10
76.8351533026
 20
137.5234463713
 10
76.8297369708
 20
137.5279187822
 10
76.8242096627
 20
137.5322863301
 10
76.8185740707
 20
137.5365501655
 10
76.8128373551
 20
137.5407101636
 10
76.8070023639
 20
137.5447672869
 10
76.8010716083
 20
137.5487226792
 10
76.7950514152
 20
137.5525761685
 10
76.7889443689
 20
137.5563287477
 10
76.7827528087
 20
137.5599815528
 10
76.7764824151
 20
137.5635343281
 10
76.770135542
 20
137.5669880819
 10
76.7637143781
 20
137.5703439363
 10
76.7598483833
 20
137.5723002196
  0
LINE
  5
464
100
AcDbEntity
  8
DRAFT
100
AcDbLine
 62
7
  6
CONTINUOUS
 10
77.7123699364
 20
138.6513067767
 11
77.7309031898
 21
137.3416435521
  0
LINE
  5
465
100
AcDbEntity
  8
0
100
AcDbLine
 62
7
  6
CONTINUOUS
 10
76.9172922056
 20
137.3658443337
 11
76.9172922056
 21
136.8304639167
  0
LINE
  5
466
100
AcDbEntity
  8
26814000
100
AcDbLine
 62
7
  6
CONTINUOUS
 10
61.6521312484
 20
88.267417142
 11
62.2744492805
 21
89.0124765595
  0
LINE
  5
467
100
AcDbEntity
  8
0
100
AcDbLine
 62
7
  6
CONTINUOUS
 10
70.8291262184
 20
100.0427084433
 11
68.6058808219
 21
98.8915894417
  0
LINE
  5
468
100
AcDbEntity
  8
0
100
AcDbLine
 62
7
  6
CONTINUOUS
 10
71.0400239933
 20
100.2395931146
 11
68.7450872351
 21
99.1606157936
  0
LINE
  5
469
100
AcDbEntity
  8
26814000
100
AcDbLine
 62
253
  6
CONTINUOUS
 10
60.7699697513
 20
94.6207705569
 11
59.5500512809
 21
94.0573717805
  0
LINE
  5
46A
100
AcDbEntity
  8
26814000
100
AcDbLine
 62
7
  6
CONTINUOUS
 10
60.5691161654
 20
94.1070015002
 11
59.5140394664
 21
93.6197321166
  0
LWPOLYLINE
  5
46B
100
AcDbEntity
  8
RACCORDO
100
AcDbPolyline
 62
7
  6
CONTINUOUS
 90
21
 70
0
 10
57.9656098829
 20
134.8706136726
 10
57.9537728386
 20
134.8760877038
 10
57.9420019465
 20
134.8811057319
 10
57.9303097563
 20
134.8856620432
 10
57.9187096151
 20
134.8897515581
 10
57.9072132051
 20
134.8933695638
 10
57.8958305462
 20
134.896511569
 10
57.884574296
 20
134.8991739732
 10
57.8734565622
 20
134.9013535625
 10
57.8624864807
 20
134.9030469633
 10
57.8516764061
 20
134.904252122
 10
57.8410383103
 20
134.9049672958
 10
57.8305806611
 20
134.9051901511
 10
57.8203158879
 20
134.9049202379
 10
57.8102552334
 20
134.9041574055
 10
57.8004052786
 20
134.902900288
 10
57.7907772178
 20
134.9011498001
 10
57.7813828051
 20
134.8989073059
 10
57.7722292311
 20
134.8961728854
 10
57.7633293736
 20
134.8929500717
 10
57.755024201
 20
134.889395423
  0
LINE
  5
46C
100
AcDbEntity
  8
26814000
100
AcDbLine
 62
7
  6
CONTINUOUS
 10
52.7346784748
 20
135.4792288138
 11
58.9572181492
 21
132.3679589766
  0
LINE
  5
46D
100
AcDbEntity
  8
26814000
100
AcDbLine
 62
7
  6
CONTINUOUS
 10
48.3506164315
 20
138.1908750778
 11
49.9769620282
 21
137.3777022794
  0
LINE
  5
46E
100
AcDbEntity
  8
26814000
100
AcDbLine
 62
7
  6
CONTINUOUS
 10
61.7149345959
 20
131.5087159956
 11
63.3412801926
 21
130.6955431972
  0
LINE
  5
46F
100
AcDbEntity
  8
26814000
100
AcDbLine
 62
7
  6
CONTINUOUS
 10
54.0781813591
 20
135.5095457645
 11
59.0279288274
 21
133.0346720303
  0
LINE
  5
470
100
AcDbEntity
  8
26814000
100
AcDbLine
 62
253
  6
CONTINUOUS
 10
48.8850663101
 20
138.4512225443
 11
50.5052291999
 21
137.6411410994
  0
LINE
  5
471
100
AcDbEntity
  8
26814000
100
AcDbLine
 62
253
  6
CONTINUOUS
 10
62.2493844746
 20
131.7690634621
 11
63.8695473644
 21
130.9589820172
  0
LINE
  5
472
100
AcDbEntity
  8
26814000
100
AcDbLine
 62
7
  6
CONTINUOUS
 10
48.9964839255
 20
138.4574911075
 11
50.6153615037
 21
137.6480523184
  0
LINE
  5
473
100
AcDbEntity
  8
26814000
100
AcDbLine
 62
7
  6
CONTINUOUS
 10
62.3608020899
 20
131.7753320253
 11
63.9796796681
 21
130.9658932362
  0
LINE
  5
474
100
AcDbEntity
  8
RACCORDO
100
AcDbLine
 62
7
  6
CONTINUOUS
 10
57.9672148077
 20
134.8698271469
 11
60.3420908077
 21
133.6823891469
  0
LINE
  5
475
100
AcDbEntity
  8
0
100
AcDbLine
 62
7
  6
CONTINUOUS
 10
69.1771621693
 20
131.8461704529
 11
70.4149757428
 21
129.7112578402
  0
LINE
  5
476
100
AcDbEntity
  8
0
100
AcDbLine
 62
7
  6
CONTINUOUS
 10
69.4860937228
 20
131.8149279202
 11
70.6258735177
 21
129.8490985645
  0
LWPOLYLINE
  5
477
100
AcDbEntity
  8
0
100
AcDbPolyline
 62
7
  6
CONTINUOUS
 90
21
 70
0
 10
80.2292682332
 20
123.3649668454
 10
80.2292287029
 20
123.3655542074
 10
80.228860472
 20
123.3669852355
 10
80.2280932582
 20
123.3686589398
 10
80.2269155204
 20
123.3705818612
 10
80.2253190442
 20
123.3727644665
 10
80.2232878146
 20
123.3752094715
 10
80.220808184
 20
123.3779204651
 10
80.2178730324
 20
123.3809107354
 10
80.2144626622
 20
123.3841823791
 10
80.2105635056
 20
123.3877368422
 10
80.2061756951
 20
123.3915867786
 10
80.2012660497
 20
123.3957393009
 10
80.1958315775
 20
123.4001857442
 10
80.1899238489
 20
123.4049078505
 10
80.1835272631
 20
123.4098940374
 10
80.1766373655
 20
123.4151341291
 10
80.1693374649
 20
123.4205992691
 10
80.1616583746
 20
123.4262652284
 10
80.1535698856
 20
123.4321184682
 10
80.1450724273
 20
123.4381402907
  0
LINE
  5
478
100
AcDbEntity
  8
DRAFT
100
AcDbLine
 62
7
  6
CONTINUOUS
 10
80.8236397736
 20
137.095671858
 11
80.842173027
 21
135.7860086335
  0
LWPOLYLINE
  5
479
100
AcDbEntity
  8
0
100
AcDbPolyline
 62
7
  6
CONTINUOUS
 90
21
 70
0
 10
80.6725527291
 20
134.8632833967
 10
80.6724348942
 20
134.877370493
 10
80.6718703592
 20
134.896999044
 10
80.6708641925
 20
134.9160306025
 10
80.6694443107
 20
134.9344428088
 10
80.667633582
 20
134.9522708225
 10
80.665444015
 20
134.9696041931
 10
80.662891882
 20
134.9864452688
 10
80.6599923809
 20
135.0028010498
 10
80.6567417386
 20
135.018763139
 10
80.6531470723
 20
135.0343344728
 10
80.6492158629
 20
135.0495161775
 10
80.64493041
 20
135.0643916709
 10
80.6402823981
 20
135.0789823098
 10
80.6352777822
 20
135.0932622032
 10
80.6299114458
 20
135.1072397137
 10
80.6241745166
 20
135.1209246586
 10
80.6180702822
 20
135.1342967444
 10
80.6116132227
 20
135.1473183747
 10
80.6048037675
 20
135.1599841073
 10
80.6016146776
 20
135.1655833905
  0
LWPOLYLINE
  5
47A
100
AcDbEntity
  8
0
100
AcDbPolyline
 62
7
  6
CONTINUOUS
 90
34
 70
0
 10
80.2292704676
 20
133.153881815
 10
80.2289810226
 20
133.188888792
 10
80.2278967702
 20
133.230463305
 10
80.2260140466
 20
133.272249563
 10
80.2233388268
 20
133.3142266161
 10
80.2198774254
 20
133.3563763888
 10
80.2156358592
 20
133.3986811592
 10
80.2106203994
 20
133.4411224272
 10
80.2048375992
 20
133.4836803617
 10
80.198294016
 20
133.5263340595
 10
80.1909964853
 20
133.5690642126
 10
80.1829518852
 20
133.6118514616
 10
80.1741675382
 20
133.6546740647
 10
80.1646508985
 20
133.6975124341
 10
80.1544092538
 20
133.7403472155
 10
80.1434507605
 20
133.7831562408
 10
80.1317837376
 20
133.8259188554
 10
80.1194157189
 20
133.8686167446
 10
80.1063547559
 20
133.9112307385
 10
80.0926095921
 20
133.9537402831
 10
80.0781881359
 20
133.9961270536
 10
80.0630979111
 20
134.0383748822
 10
80.0473475272
 20
134.0804644071
 10
80.0309455864
 20
134.1223762247
 10
80.0138999583
 20
134.1640939387
 10
79.9962195627
 20
134.205598136
 10
79.9779133652
 20
134.2468697142
 10
79.9589894276
 20
134.2878924888
 10
79.9394572193
 20
134.3286466548
 10
79.9193257985
 20
134.3691138915
 10
79.8986021669
 20
134.4092802674
 10
79.8772946621
 20
134.4491286015
 10
79.8554148843
 20
134.4886367618
 10
79.8367749135
 20
134.5212468424
  0
LINE
  5
47B
100
AcDbEntity
  8
0
100
AcDbLine
 62
253
  6
CONTINUOUS
 10
80.1450724273
 20
102.3755756869
 11
80.1450724273
 21
123.4381402907
  0
LINE
  5
47C
100
AcDbEntity
  8
0
100
AcDbLine
 62
253
  6
CONTINUOUS
 10
80.1450724273
 20
130.2699964766
 11
80.1450724273
 21
133.0496805566
  0
LINE
  5
47D
100
AcDbEntity
  8
0
100
AcDbLine
 62
7
  6
CONTINUOUS
 10
80.2292704872
 20
133.1538825152
 11
80.2292704872
 21
130.3741952322
  0
LINE
  5
47E
100
AcDbEntity
  8
0
100
AcDbLine
 62
7
  6
CONTINUOUS
 10
80.2292704872
 20
123.3652367106
 11
80.2292704872
 21
102.4797712394
  0
LINE
  5
47F
100
AcDbEntity
  8
0
100
AcDbLine
 62
253
  6
CONTINUOUS
 10
80.6164206808
 20
134.7938177609
 11
80.6164206808
 21
133.1170870724
  0
LINE
  5
480
100
AcDbEntity
  8
0
100
AcDbLine
 62
7
  6
CONTINUOUS
 10
80.6725527207
 20
134.863283598
 11
80.6725527207
 21
133.1865529094
  0
LWPOLYLINE
  5
481
100
AcDbEntity
  8
0
100
AcDbPolyline
 62
253
  6
CONTINUOUS
 90
24
 70
0
 10
81.187218707
 20
130.3765708067
 10
81.1872039202
 20
123.9908409381
 10
81.1868877961
 20
123.9814368683
 10
81.1862706109
 20
123.9722031323
 10
81.1853529967
 20
123.9631521822
 10
81.1841361001
 20
123.9542973429
 10
81.1826217629
 20
123.9456526688
 10
81.1808122264
 20
123.9372307733
 10
81.1787099341
 20
123.9290428772
 10
81.1763178075
 20
123.9211003743
 10
81.1736391707
 20
123.9134143359
 10
81.1706777745
 20
123.9059955547
 10
81.1674377818
 20
123.8988544682
 10
81.1639237372
 20
123.8920010838
 10
81.1601405437
 20
123.885444956
 10
81.1560934824
 20
123.8791952358
 10
81.151788207
 20
123.873260657
 10
81.1472307398
 20
123.8676495235
 10
81.1424274536
 20
123.8623696829
 10
81.1373850645
 20
123.8574285187
 10
81.1321106214
 20
123.8528329391
 10
81.1266114979
 20
123.8485893697
 10
81.1208953817
 20
123.8447037441
 10
81.1155881378
 20
123.8415487973
  0
LWPOLYLINE
  5
482
100
AcDbEntity
  8
0
100
AcDbPolyline
 62
253
  6
CONTINUOUS
 90
36
 70
0
 10
80.1450724233
 20
102.3755756847
 10
80.1447678214
 20
102.3379791602
 10
80.1437887534
 20
102.3007368561
 10
80.1421356329
 20
102.2638664353
 10
80.1398091455
 20
102.2273855305
 10
80.1368104161
 20
102.1913112953
 10
80.1331409741
 20
102.1556604163
 10
80.1288024881
 20
102.1204496214
 10
80.1237969693
 20
102.0856958418
 10
80.1181269214
 20
102.0514157728
 10
80.1117950247
 20
102.0176257548
 10
80.1048042309
 20
101.9843417784
 10
80.0971579341
 20
101.9515796666
 10
80.0888597564
 20
101.9193549961
 10
80.0799136051
 20
101.8876830753
 10
80.070323769
 20
101.8565789493
 10
80.0600947998
 20
101.8260573959
 10
80.0492315419
 20
101.7961329449
 10
80.0377391848
 20
101.7668198599
 10
80.0256232094
 20
101.7381320946
 10
80.0128893673
 20
101.7100832914
 10
79.9995437099
 20
101.6826868028
 10
79.9855926255
 20
101.6559556954
 10
79.9710427464
 20
101.6299026685
 10
79.9559009273
 20
101.6045400546
 10
79.9401744133
 20
101.5798799449
 10
79.9238707031
 20
101.5559340842
 10
79.9069974519
 20
101.5327137945
 10
79.8895627148
 20
101.5102301264
 10
79.8715748405
 20
101.4884938353
 10
79.8530423351
 20
101.4675152754
 10
79.8339741967
 20
101.447304575
 10
79.8143794451
 20
101.4278712551
 10
79.7942669919
 20
101.4092242404
 10
79.7736462957
 20
101.3913723569
 10
79.7525273825
 20
101.3743242927
  0
LWPOLYLINE
  5
483
100
AcDbEntity
  8
0
100
AcDbPolyline
 62
253
  6
CONTINUOUS
 90
34
 70
0
 10
80.6164206808
 20
133.1170870724
 10
80.6163152012
 20
133.1087809342
 10
80.6160009113
 20
133.1003900409
 10
80.6154778111
 20
133.0919143925
 10
80.6147449556
 20
133.0833448151
 10
80.6138032898
 20
133.0746904827
 10
80.6126556486
 20
133.0659789168
 10
80.6113014087
 20
133.057210397
 10
80.6097411934
 20
133.0483846436
 10
80.6079797083
 20
133.03952834
 10
80.6060163512
 20
133.0306414339
 10
80.6038517243
 20
133.0217239775
 10
80.6014923392
 20
133.0128028101
 10
80.5989376043
 20
133.0038778974
 10
80.5961881113
 20
132.9949492737
 10
80.5932521467
 20
132.9860438814
 10
80.5901291408
 20
132.9771617788
 10
80.5868196634
 20
132.9683029075
 10
80.5833337099
 20
132.9594940349
 10
80.5796707477
 20
132.9507353201
 10
80.5758313095
 20
132.942026604
 10
80.5718269886
 20
132.9333941761
 10
80.5676573007
 20
132.9248382909
 10
80.56332273
 20
132.9163586939
 10
80.5588363226
 20
132.9079809112
 10
80.5541975967
 20
132.8997052127
 10
80.549407034
 20
132.8915313285
 10
80.5444791259
 20
132.883483974
 10
80.5394131607
 20
132.8755631669
 10
80.5342098502
 20
132.8677688895
 10
80.5288858215
 20
132.8601258048
 10
80.5234466168
 20
132.8526421336
 10
80.517886694
 20
132.8453096551
 10
80.5122060528
 20
132.8381283692
  0
LWPOLYLINE
  5
484
100
AcDbEntity
  8
0
100
AcDbPolyline
 62
7
  6
CONTINUOUS
 90
30
 70
0
 10
81.2714167669
 20
124.1046008727
 10
81.2712173689
 20
124.0936647476
 10
81.2706190082
 20
124.0827372351
 10
81.2696221255
 20
124.0718355849
 10
81.2682316348
 20
124.061001169
 10
81.2664480135
 20
124.0502265822
 10
81.2642585305
 20
124.0394571739
 10
81.2616447436
 20
124.0286553559
 10
81.2586146108
 20
124.0178979406
 10
81.2551993221
 20
124.0072999922
 10
81.2514376748
 20
123.9969519475
 10
81.2473165468
 20
123.9867903835
 10
81.2427867383
 20
123.9767011518
 10
81.2378018258
 20
123.9666189887
 10
81.2323991934
 20
123.9566543518
 10
81.2266567692
 20
123.946953985
 10
81.2206417798
 20
123.9376071815
 10
81.2143216772
 20
123.9285406431
 10
81.207626882
 20
123.9196555254
 10
81.2005071133
 20
123.9109062339
 10
81.1930165818
 20
123.902379405
 10
81.1852401524
 20
123.8941737837
 10
81.1772300957
 20
123.8863329785
 10
81.168963997
 20
123.8788242312
 10
81.1604191168
 20
123.8716242393
 10
81.1515889664
 20
123.864730119
 10
81.1424991475
 20
123.8581646355
 10
81.1331717232
 20
123.8519443191
 10
81.1236025292
 20
123.8460675215
 10
81.1138629816
 20
123.8405761089
  0
LWPOLYLINE
  5
485
100
AcDbEntity
  8
0
100
AcDbPolyline
 62
253
  6
CONTINUOUS
 90
22
 70
0
 10
80.2292704872
 20
133.153881815
 10
80.2291507205
 20
133.1496444225
 10
80.2286322345
 20
133.1441031458
 10
80.2277043155
 20
133.1385752443
 10
80.2263682324
 20
133.1330682784
 10
80.2246258127
 20
133.1275897798
 10
80.2224794394
 20
133.1221472414
 10
80.219932048
 20
133.1167481069
 10
80.2169871227
 20
133.1113997607
 10
80.2136486911
 20
133.1061095176
 10
80.2099213192
 20
133.100884613
 10
80.2058101048
 20
133.0957321929
 10
80.2013206709
 20
133.0906593043
 10
80.1964591575
 20
133.0856728852
 10
80.1912322137
 20
133.0807797555
 10
80.1856469883
 20
133.0759866075
 10
80.1797111201
 20
133.0712999967
 10
80.1734327275
 20
133.0667263329
 10
80.1668203975
 20
133.0622718715
 10
80.1598831736
 20
133.0579427047
 10
80.1526305438
 20
133.0537447536
 10
80.1450724273
 20
133.0496837596
  0
LWPOLYLINE
  5
486
100
AcDbEntity
  8
0
100
AcDbPolyline
 62
253
  6
CONTINUOUS
 90
22
 70
0
 10
80.2292704872
 20
130.3741937817
 10
80.2291507231
 20
130.3699571851
 10
80.2286322404
 20
130.3644159076
 10
80.2277043244
 20
130.3588880049
 10
80.2263682443
 20
130.3533810379
 10
80.2246258274
 20
130.3479025381
 10
80.2224794562
 20
130.3424599974
 10
80.2199320657
 20
130.3370608585
 10
80.2169871399
 20
130.3317125069
 10
80.213648708
 20
130.3264222597
 10
80.2099213372
 20
130.3211973538
 10
80.2058101248
 20
130.3160449336
 10
80.201320692
 20
130.310972044
 10
80.1964591778
 20
130.3059856221
 10
80.1912322319
 20
130.3010924889
 10
80.1856470042
 20
130.2962993376
 10
80.179711134
 20
130.2916127242
 10
80.1734327393
 20
130.2870390582
 10
80.1668204069
 20
130.2825845946
 10
80.1598831802
 20
130.2782554257
 10
80.1526305472
 20
130.2740574725
 10
80.1450724273
 20
130.2699964766
  0
LWPOLYLINE
  5
487
100
AcDbEntity
  8
0
100
AcDbPolyline
 62
253
  6
CONTINUOUS
 90
22
 70
0
 10
80.2292704872
 20
102.4797712394
 10
80.2291507206
 20
102.4755331498
 10
80.2286322349
 20
102.4699918731
 10
80.2277043161
 20
102.4644639715
 10
80.2263682332
 20
102.4589570054
 10
80.2246258136
 20
102.4534785067
 10
80.2224794405
 20
102.4480359682
 10
80.2199320492
 20
102.4426368336
 10
80.216987124
 20
102.4372884873
 10
80.2136486925
 20
102.431998244
 10
80.2099213207
 20
102.4267733392
 10
80.2058101063
 20
102.421620919
 10
80.2013206724
 20
102.4165480301
 10
80.1964591589
 20
102.4115616108
 10
80.191232215
 20
102.406668481
 10
80.1856469895
 20
102.4018753328
 10
80.1797111212
 20
102.3971887218
 10
80.1734327285
 20
102.3926150578
 10
80.1668203983
 20
102.3881605963
 10
80.1598831741
 20
102.3838314293
 10
80.1526305441
 20
102.3796334781
 10
80.1450724273
 20
102.3755724839
  0
LWPOLYLINE
  5
488
100
AcDbEntity
  8
0
100
AcDbPolyline
 62
253
  6
CONTINUOUS
 90
22
 70
0
 10
81.2714167669
 20
124.1046008727
 10
81.2712970001
 20
124.1003627801
 10
81.2707785142
 20
124.0948215034
 10
81.2698505951
 20
124.0892936019
 10
81.268514512
 20
124.083786636
 10
81.2667720923
 20
124.0783081374
 10
81.264625719
 20
124.072865599
 10
81.2620783276
 20
124.0674664645
 10
81.2591334023
 20
124.0621181183
 10
81.2557949707
 20
124.0568278752
 10
81.2520675988
 20
124.0516029706
 10
81.2479563845
 20
124.0464505505
 10
81.2434669505
 20
124.0413776619
 10
81.2386054371
 20
124.0363912428
 10
81.2333784933
 20
124.0314981131
 10
81.2277932679
 20
124.0267049651
 10
81.2218573997
 20
124.0220183543
 10
81.2155790072
 20
124.0174446905
 10
81.2089666771
 20
124.0129902291
 10
81.2020294532
 20
124.0086610623
 10
81.1947768234
 20
124.0044631112
 10
80.1450724273
 20
123.4381402907
  0
LWPOLYLINE
  5
489
100
AcDbEntity
  8
0
100
AcDbPolyline
 62
253
  6
CONTINUOUS
 90
19
 70
0
 10
80.6725527207
 20
134.8632833967
 10
80.6724342466
 20
134.8598421005
 10
80.671951309
 20
134.8555343559
 10
80.6710971914
 20
134.8512410365
 10
80.669873484
 20
134.8469701342
 10
80.6682824644
 20
134.8427295994
 10
80.6663270946
 20
134.8385273258
 10
80.6640110143
 20
134.834371136
 10
80.6613385349
 20
134.8302687666
 10
80.6583146313
 20
134.8262278542
 10
80.6549449324
 20
134.822255921
 10
80.651235711
 20
134.8183603607
 10
80.6471938717
 20
134.8145484249
 10
80.6428269384
 20
134.8108272094
 10
80.6381430401
 20
134.8072036414
 10
80.6331508959
 20
134.803684466
 10
80.6278597987
 20
134.8002762343
 10
80.6222795978
 20
134.7969852905
 10
80.6164206808
 20
134.7938177609
  0
LWPOLYLINE
  5
48A
100
AcDbEntity
  8
0
100
AcDbPolyline
 62
253
  6
CONTINUOUS
 90
19
 70
0
 10
80.6725527207
 20
133.1865529094
 10
80.6724342461
 20
133.1831114042
 10
80.6719513078
 20
133.1788036596
 10
80.6710971896
 20
133.1745103402
 10
80.6698734815
 20
133.1702394381
 10
80.6682824614
 20
133.1659989036
 10
80.666327091
 20
133.1617966303
 10
80.6640110103
 20
133.1576404408
 10
80.6613385305
 20
133.1535380718
 10
80.6583146267
 20
133.1494971599
 10
80.6549449277
 20
133.1455252272
 10
80.6512357063
 20
133.1416296674
 10
80.6471938671
 20
133.1378177322
 10
80.6428269341
 20
133.1340965174
 10
80.6381430363
 20
133.1304729501
 10
80.6331508928
 20
133.1269537754
 10
80.6278597964
 20
133.1235455444
 10
80.6222795966
 20
133.1202546013
 10
80.6164206808
 20
133.1170870724
  0
LINE
  5
48B
100
AcDbEntity
  8
0
100
AcDbLine
 62
7
  6
CONTINUOUS
 10
70.4149757428
 20
96.7690716355
 11
69.1771621693
 21
95.8719725964
  0
LINE
  5
48C
100
AcDbEntity
  8
0
100
AcDbLine
 62
7
  6
CONTINUOUS
 10
69.4860937228
 20
95.7357049318
 11
70.6258735177
 21
96.5617544926
  0
LWPOLYLINE
  5
48D
100
AcDbEntity
  8
0
100
AcDbPolyline
 62
7
  6
CONTINUOUS
 90
5
 70
0
 10
78.6761121442
 20
100.5929533802
 10
78.6858879432
 20
100.599205334
 10
78.6955433268
 20
100.6056631063
 10
78.7050750676
 20
100.6123248515
 10
79.7532922299
 20
101.3719980247
  0
LWPOLYLINE
  5
48E
100
AcDbEntity
  8
26814000
100
AcDbPolyline
 62
7
  6
CONTINUOUS
 90
11
 70
0
 10
68.8771157429
 20
95.370209117
 10
68.9098780563
 20
95.3905729937
 10
68.9429628304
 20
95.411261833
 10
68.9763547448
 20
95.4322657862
 10
69.0099065402
 20
95.4535062929
 10
69.0436378552
 20
95.4749965788
 10
69.0775290512
 20
95.4967234183
 10
69.111373953
 20
95.518568574
 10
69.1451038353
 20
95.5404926337
 10
69.1787874234
 20
95.5625350096
 10
69.2124247172
 20
95.5846957019
  0
LWPOLYLINE
  5
48F
100
AcDbEntity
  8
26814000
100
AcDbPolyline
 62
7
  6
CONTINUOUS
 90
3
 70
0
 10
68.7809866956
 20
95.3111620431
 10
68.8126138352
 20
95.3304757195
 10
68.8771157429
 20
95.370209117
  0
LINE
  5
490
100
AcDbEntity
  8
26814000
100
AcDbLine
 62
7
  6
CONTINUOUS
 10
68.7190255603
 20
95.2736555978
 11
68.7809866956
 21
95.3111620431
  0
LINE
  5
491
100
AcDbEntity
  8
26814000
100
AcDbLine
 62
7
  6
CONTINUOUS
 10
68.6589972048
 20
95.2377359125
 11
68.7190255603
 21
95.2736555978
  0
LINE
  5
492
100
AcDbEntity
  8
26814000
100
AcDbLine
 62
7
  6
CONTINUOUS
 10
68.6009336778
 20
95.2033885326
 11
68.6589972048
 21
95.2377359125
  0
LINE
  5
493
100
AcDbEntity
  8
26814000
100
AcDbLine
 62
7
  6
CONTINUOUS
 10
68.5449445388
 20
95.1706555671
 11
68.6009336778
 21
95.2033885326
  0
LWPOLYLINE
  5
494
100
AcDbEntity
  8
26814000
100
AcDbPolyline
 62
7
  6
CONTINUOUS
 90
3
 70
0
 10
68.4654378287
 20
95.1248546368
 10
68.4913542391
 20
95.1396868534
 10
68.5449445388
 20
95.1706555671
  0
LWPOLYLINE
  5
495
100
AcDbEntity
  8
26814000
100
AcDbPolyline
 62
7
  6
CONTINUOUS
 90
3
 70
0
 10
68.4654378287
 20
95.1248546368
 10
68.4308533516
 20
95.1059789392
 10
68.415016446
 20
95.0978780208
  0
LWPOLYLINE
  5
496
100
AcDbEntity
  8
0
100
AcDbPolyline
 62
7
  6
CONTINUOUS
 90
5
 70
0
 10
78.6408221186
 20
100.5726259886
 10
78.6461060808
 20
100.5754562286
 10
78.6562165704
 20
100.5810764844
 10
78.6662200156
 20
100.5869095405
 10
78.6761121442
 20
100.5929533802
  0
LINE
  5
497
100
AcDbEntity
  8
0
100
AcDbLine
 62
253
  6
CONTINUOUS
 10
69.4860937228
 20
95.7357049318
 11
78.6858962743
 21
100.6007123847
  0
LINE
  5
498
100
AcDbEntity
  8
0
100
AcDbLine
 62
7
  6
CONTINUOUS
 10
69.4409160755
 20
95.7075641488
 11
78.6408339115
 21
100.5726322468
  0
LINE
  5
499
100
AcDbEntity
  8
0
100
AcDbLine
 62
7
  6
CONTINUOUS
 10
69.1771621693
 20
95.8719725964
 11
64.4372957034
 21
93.3736902355
  0
LINE
  5
49A
100
AcDbEntity
  8
0
100
AcDbLine
 62
253
  6
CONTINUOUS
 10
64.4372957034
 20
94.4194820664
 11
70.8291262184
 21
97.7865547345
  0
LINE
  5
49B
100
AcDbEntity
  8
0
100
AcDbLine
 62
253
  6
CONTINUOUS
 10
80.1450724273
 20
102.3755756869
 11
71.0400239933
 21
97.5792375916
  0
LINE
  5
49C
100
AcDbEntity
  8
0
100
AcDbLine
 62
253
  6
CONTINUOUS
 10
64.4372957034
 20
93.6201641305
 11
70.4149757428
 21
96.7690716355
  0
LINE
  5
49D
100
AcDbEntity
  8
0
100
AcDbLine
 62
253
  6
CONTINUOUS
 10
79.7309203666
 20
101.3580882361
 11
70.6258735177
 21
96.5617544926
  0
LINE
  5
49E
100
AcDbEntity
  8
26814000
100
AcDbLine
 62
253
  6
CONTINUOUS
 10
64.4372957034
 20
93.1029514532
 11
68.4654378287
 21
95.1248546368
  0
LINE
  5
49F
100
AcDbEntity
  8
26814000
100
AcDbLine
 62
7
  6
CONTINUOUS
 10
64.4372957034
 20
93.1012833724
 11
68.4150587745
 21
95.0978990743
  0
LINE
  5
4A0
100
AcDbEntity
  8
26814000
100
AcDbLine
 62
253
  6
CONTINUOUS
 10
64.4372957034
 20
93.3407564839
 11
69.1295362383
 21
95.6681423809
  0
LINE
  5
4A1
100
AcDbEntity
  8
26814000
100
AcDbLine
 62
253
  6
CONTINUOUS
 10
64.4372957034
 20
93.2188817562
 11
69.2136878059
 21
95.588007451
  0
LWPOLYLINE
  5
4A2
100
AcDbEntity
  8
0
100
AcDbPolyline
 62
253
  6
CONTINUOUS
 90
42
 70
0
 10
80.2292704872
 20
131.2430075189
 10
80.2337580575
 20
131.2428269615
 10
80.2414670768
 20
131.2423342484
 10
80.2491520276
 20
131.2416772878
 10
80.2567844163
 20
131.2408610567
 10
80.2643922046
 20
131.2398801572
 10
80.2720346969
 20
131.2387373675
 10
80.2796901746
 20
131.2374436729
 10
80.2873796568
 20
131.2359875548
 10
80.2952262779
 20
131.2343378412
 10
80.3032323574
 20
131.2325030309
 10
80.3113943228
 20
131.2304737024
 10
80.319825933
 20
131.2281914161
 10
80.3285330461
 20
131.2256625191
 10
80.3375076885
 20
131.2228791349
 10
80.3468421137
 20
131.2197609374
 10
80.3565560369
 20
131.2163061097
 10
80.366626316
 20
131.2125140352
 10
80.3770800453
 20
131.2083055577
 10
80.3879255205
 20
131.2036783675
 10
80.3991495405
 20
131.1986313733
 10
80.410746063
 20
131.1930866168
 10
80.4227065803
 20
131.1870491128
 10
80.4350329919
 20
131.1805094189
 10
80.4477336947
 20
131.1733670976
 10
80.4608280376
 20
131.165609182
 10
80.4742873793
 20
131.1572426764
 10
80.4880469354
 20
131.1481963388
 10
80.5021200916
 20
131.13845216
 10
80.5164818229
 20
131.1280211223
 10
80.5310092737
 20
131.1168752577
 10
80.5457402277
 20
131.1049614526
 10
80.5606235307
 20
131.0923253908
 10
80.5754048354
 20
131.0790886023
 10
80.5900827602
 20
131.0652149705
 10
80.6046482239
 20
131.0507357013
 10
80.618840528
 20
131.0358764856
 10
80.6326005985
 20
131.0206752903
 10
80.6459837261
 20
131.0050935441
 10
80.6589055403
 20
130.9892448774
 10
80.6713444152
 20
130.9731514194
 10
80.6793534369
 20
130.9622114238
  0
LINE
  5
4A3
100
AcDbEntity
  8
26814000
100
AcDbLine
 62
7
  6
CONTINUOUS
 10
48.910131116
 20
135.744239781
 11
48.2878130839
 21
135.8741803636
  0
LWPOLYLINE
  5
4A4
100
AcDbEntity
  8
RACCORDO
100
AcDbPolyline
 62
7
  6
CONTINUOUS
 90
67
 70
0
 10
59.0461652626
 20
135.0016038246
 10
59.036472453
 20
135.0063422384
 10
59.0197565954
 20
135.014028505
 10
59.0026096463
 20
135.021319396
 10
58.9850590577
 20
135.0282093343
 10
58.9671124858
 20
135.0347032552
 10
58.948758361
 20
135.0408129533
 10
58.9300156542
 20
135.0465396928
 10
58.9109049204
 20
135.051885787
 10
58.8914205017
 20
135.0568611595
 10
58.8716019143
 20
135.0614642495
 10
58.8514459994
 20
135.0657043904
 10
58.8308851039
 20
135.069600937
 10
58.8099697961
 20
135.0731477987
 10
58.7886772957
 20
135.0763521034
 10
58.7668293349
 20
135.079237311
 10
58.744392436
 20
135.0817980082
 10
58.7214209719
 20
135.0840181821
 10
58.697869188
 20
135.0858920435
 10
58.6736266795
 20
135.08741349
 10
58.6488268408
 20
135.0885590785
 10
58.6237926846
 20
135.0893090962
 10
58.5985245378
 20
135.0896652656
 10
58.5730472629
 20
135.089628081
 10
58.5477211117
 20
135.0892062917
 10
58.522625936
 20
135.088417697
 10
58.4977007345
 20
135.0872754695
 10
58.4730924947
 20
135.0858016602
 10
58.4488374082
 20
135.084016118
 10
58.4249111394
 20
135.0819336033
 10
58.4013687042
 20
135.0795748715
 10
58.3782220407
 20
135.0769573495
 10
58.3554658504
 20
135.0740958644
 10
58.3331288967
 20
135.071009094
 10
58.3112250724
 20
135.067714103
 10
58.2897429918
 20
135.0642237475
 10
58.268673963
 20
135.0605502919
 10
58.2480190223
 20
135.056707011
 10
58.2277778137
 20
135.0527065669
 10
58.2079408052
 20
135.0485593137
 10
58.188507454
 20
135.0442769376
 10
58.1694779418
 20
135.039871052
 10
58.150845251
 20
135.0353513097
 10
58.1326050003
 20
135.0307275912
 10
58.1147608452
 20
135.0260116393
 10
58.0973190972
 20
135.0212160077
 10
58.0802730362
 20
135.0163496549
 10
58.06362824
 20
135.0114249051
 10
58.0474100251
 20
135.0064604127
 10
58.0316371098
 20
135.00147369
 10
58.0162880158
 20
134.9964696257
 10
58.0013295996
 20
134.9914482407
 10
57.9867729421
 20
134.986423735
 10
57.9726074361
 20
134.9814029167
 10
57.9587723908
 20
134.9763737543
 10
57.9452691693
 20
134.9713454494
 10
57.9321042035
 20
134.9663292591
 10
57.9192309635
 20
134.9613158664
 10
57.9066691138
 20
134.9563210913
 10
57.8944160244
 20
134.9513523605
 10
57.8824008466
 20
134.9463886818
 10
57.8706557106
 20
134.941450806
 10
57.8591842054
 20
134.9365483224
 10
57.8478885468
 20
134.9316468191
 10
57.8368111851
 20
134.9267719284
 10
57.8259834905
 20
134.9219457883
 10
57.8048230762
 20
134.9123601617
  0
LINE
  5
4A5
100
AcDbEntity
  8
RACCORDO
100
AcDbLine
 62
253
  6
CONTINUOUS
 10
59.0451282254
 20
135.0021107892
 11
59.0461622231
 21
135.001605348
  0
LINE
  5
4A6
100
AcDbEntity
  8
RACCORDO
100
AcDbLine
 62
253
  6
CONTINUOUS
 10
60.9698558125
 20
133.9917985994
 11
58.956628358
 21
134.998398707
  0
LINE
  5
4A7
100
AcDbEntity
  8
RACCORDO
100
AcDbLine
 62
7
  6
CONTINUOUS
 10
61.0181599507
 20
134.0156064843
 11
59.0461622231
 21
135.001605348
  0
LINE
  5
4A8
100
AcDbEntity
  8
26814000
100
AcDbLine
 62
7
  6
CONTINUOUS
 10
61.5456045721
 20
134.2755705636
 11
58.7450861149
 21
135.6758297923
  0
LINE
  5
4A9
100
AcDbEntity
  8
0
100
AcDbLine
 62
7
  6
CONTINUOUS
 10
70.0051680371
 20
130.4180715789
 11
70.1799244537
 21
130.3306933706
  0
LINE
  5
4AA
100
AcDbEntity
  8
26814000
100
AcDbLine
 62
7
  6
CONTINUOUS
 10
58.3915327243
 20
136.4051646769
 11
58.7450861149
 21
136.2283879816
  0
LINE
  5
4AB
100
AcDbEntity
  8
0
100
AcDbLine
 62
7
  6
CONTINUOUS
 10
69.1771621693
 20
131.8461704529
 11
68.5321475006
 21
132.1686777872
  0
LINE
  5
4AC
100
AcDbEntity
  8
26814000
100
AcDbLine
 62
7
  6
CONTINUOUS
 10
62.9534202684
 20
134.969447222
 11
60.1428706214
 21
136.3747220455
  0
LINE
  5
4AD
100
AcDbEntity
  8
0
100
AcDbLine
 62
7
  6
CONTINUOUS
 10
68.7011821056
 20
132.1074324089
 11
68.6018732357
 21
132.1570868439
  0
LINE
  5
4AE
100
AcDbEntity
  8
0
100
AcDbLine
 62
7
  6
CONTINUOUS
 10
68.6018732357
 20
132.1581193926
 11
68.7022556273
 21
132.1079281968
  0
LINE
  5
4AF
100
AcDbEntity
  8
0
100
AcDbLine
 62
7
  6
CONTINUOUS
 10
68.9861698752
 20
132.3185041795
 11
68.9024073558
 21
132.3603854392
  0
LWPOLYLINE
  5
4B0
100
AcDbEntity
  8
26814000
100
AcDbPolyline
 62
7
  6
CONTINUOUS
 90
4
 70
0
 10
69.1482709304
 20
132.5859824558
 10
69.1477544733
 20
132.5863746837
 10
69.1418492899
 20
132.5907935658
 10
69.1295362383
 20
132.5998786554
  0
LWPOLYLINE
  5
4B1
100
AcDbEntity
  8
26814000
100
AcDbPolyline
 62
7
  6
CONTINUOUS
 90
17
 70
0
 10
69.2124247172
 20
133.1318514014
 10
69.1787874234
 20
133.1679135519
 10
69.1451038353
 20
133.2025522116
 10
69.111373953
 20
133.2357673804
 10
69.0775290512
 20
133.2675746843
 10
69.0436378552
 20
133.2979584975
 10
69.0099065402
 20
133.3268719416
 10
68.9763547448
 20
133.3542911169
 10
68.9429628304
 20
133.3802399232
 10
68.9098780563
 20
133.4047431817
 10
68.8771157429
 20
133.4277868886
 10
68.8446605698
 20
133.4493850476
 10
68.8126138352
 20
133.4696044917
 10
68.7809866956
 20
133.4884384057
 10
68.7497679946
 20
133.5058936046
 10
68.7190255603
 20
133.5220573661
 10
68.7117529283
 20
133.5257338131
  0
LWPOLYLINE
  5
4B2
100
AcDbEntity
  8
0
100
AcDbPolyline
 62
253
  6
CONTINUOUS
 90
31
 70
0
 10
72.578543774
 20
133.3170835191
 10
72.5648783166
 20
133.340293142
 10
72.5509432154
 20
133.3630765188
 10
72.5367551927
 20
133.3854226667
 10
72.5223270535
 20
133.4073271413
 10
72.5076787383
 20
133.4287746178
 10
72.4928381325
 20
133.4497397401
 10
72.4778598089
 20
133.4701645357
 10
72.4627235225
 20
133.4900954428
 10
72.4473397774
 20
133.5096585125
 10
72.4316873052
 20
133.5288797893
 10
72.4158077985
 20
133.5477073661
 10
72.3997004182
 20
133.5661427744
 10
72.3833707216
 20
133.584179102
 10
72.3668343475
 20
133.6017985197
 10
72.3501054097
 20
133.6189859668
 10
72.3331974911
 20
133.635727777
 10
72.3161194598
 20
133.6520154268
 10
72.2988785311
 20
133.6678419328
 10
72.2814784666
 20
133.6832031737
 10
72.2639382341
 20
133.6980816857
 10
72.2462883484
 20
133.7124521839
 10
72.2286131206
 20
133.7262512069
 10
72.2108532191
 20
133.7395304954
 10
72.1928207705
 20
133.7524224578
 10
72.1744749052
 20
133.7649354426
 10
72.155875551
 20
133.7770079467
 10
72.1369832473
 20
133.7886451443
 10
72.1177925893
 20
133.7998259433
 10
72.0983328865
 20
133.8105082638
 10
72.0786177569
 20
133.8206604073
  0
LWPOLYLINE
  5
4B3
100
AcDbEntity
  8
0
100
AcDbPolyline
 62
7
  6
CONTINUOUS
 90
28
 70
0
 10
72.6843971707
 20
133.3570122929
 10
72.6747392574
 20
133.3734171482
 10
72.6609437271
 20
133.3960174007
 10
72.646738162
 20
133.4183417228
 10
72.6321272066
 20
133.4403776173
 10
72.6171174752
 20
133.4621100134
 10
72.6017170576
 20
133.4835215432
 10
72.5859313435
 20
133.5045986196
 10
72.5697660678
 20
133.5253273972
 10
72.5532291123
 20
133.5456907418
 10
72.5363256113
 20
133.5656753161
 10
72.5190612861
 20
133.5852667433
 10
72.5014442481
 20
133.60444761
 10
72.4834746031
 20
133.623209393
 10
72.4651624245
 20
133.6415321723
 10
72.4465308031
 20
133.6593845588
 10
72.4275806463
 20
133.6767577954
 10
72.4083219992
 20
133.6936337981
 10
72.3887926081
 20
133.7099726951
 10
72.3689986738
 20
133.7257634915
 10
72.3489466521
 20
133.7409946386
 10
72.3286757552
 20
133.7556315655
 10
72.3081933367
 20
133.7696649889
 10
72.2875056797
 20
133.7830862879
 10
72.2666511535
 20
133.7958673217
 10
72.245647815
 20
133.807995259
 10
72.2244945663
 20
133.8194691341
 10
72.2090811011
 20
133.8273686438
  0
LINE
  5
4B4
100
AcDbEntity
  8
0
100
AcDbLine
 62
253
  6
CONTINUOUS
 10
72.7181562195
 20
133.0762876668
 11
72.5785437727
 21
133.3170835184
  0
LINE
  5
4B5
100
AcDbEntity
  8
0
100
AcDbLine
 62
7
  6
CONTINUOUS
 10
72.7121960845
 20
133.3090662614
 11
72.684397113
 21
133.357012395
  0
LINE
  5
4B6
100
AcDbEntity
  8
0
100
AcDbLine
 62
7
  6
CONTINUOUS
 10
81.2714167669
 20
130.4807695622
 11
81.2714167669
 21
124.1046008727
  0
LINE
  5
4B7
100
AcDbEntity
  8
0
100
AcDbLine
 62
253
  6
CONTINUOUS
 10
79.7525273825
 20
101.3743242927
 11
79.7309203631
 21
101.3580882342
  0
LWPOLYLINE
  5
4B8
100
AcDbEntity
  8
0
100
AcDbPolyline
 62
7
  6
CONTINUOUS
 90
37
 70
0
 10
79.7532963884
 20
101.3720010601
 10
79.7726597162
 20
101.3864114331
 10
79.7962025325
 20
101.404986181
 10
79.8193134627
 20
101.4244164627
 10
79.8419721572
 20
101.4446997084
 10
79.8641575121
 20
101.4658312974
 10
79.8858480952
 20
101.4878047015
 10
79.9070249384
 20
101.5106149265
 10
79.9276705603
 20
101.5342575737
 10
79.9477671902
 20
101.5587267186
 10
79.9672978542
 20
101.5840169318
 10
79.986245528
 20
101.6101219955
 10
80.0045939219
 20
101.637035038
 10
80.0223270095
 20
101.6647489469
 10
80.0394300674
 20
101.6932581472
 10
80.05588998
 20
101.7225585823
 10
80.0716956681
 20
101.7526504825
 10
80.0868290349
 20
101.7835209709
 10
80.1012686195
 20
101.8151457352
 10
80.1150075039
 20
101.8475302351
 10
80.1280273577
 20
101.8806540331
 10
80.1402957748
 20
101.9144498525
 10
80.1518024718
 20
101.9488983438
 10
80.162542858
 20
101.9839966612
 10
80.1725001551
 20
102.0196973184
 10
80.1816693618
 20
102.055986693
 10
80.1900459202
 20
102.0928529582
 10
80.1976187095
 20
102.1302477807
 10
80.2043853827
 20
102.1681566349
 10
80.210343763
 20
102.2065654125
 10
80.2154875426
 20
102.2454229344
 10
80.2198167518
 20
102.2847126364
 10
80.2233317481
 20
102.3244193952
 10
80.2260309235
 20
102.3644913563
 10
80.2279162158
 20
102.4048994327
 10
80.2289913479
 20
102.4456366562
 10
80.2292704676
 20
102.479772018
  0
LINE
  5
4B9
100
AcDbEntity
  8
0
100
AcDbLine
 62
253
  6
CONTINUOUS
 10
79.7309203666
 20
101.3580882361
 11
78.6858962743
 21
100.6007123847
  0
LWPOLYLINE
  5
4BA
100
AcDbEntity
  8
0
100
AcDbPolyline
 62
253
  6
CONTINUOUS
 90
4
 70
0
 10
78.6858962682
 20
100.6007123815
 10
78.6726757317
 20
100.5915429044
 10
78.6591195158
 20
100.5829696697
 10
78.6452368741
 20
100.5749984822
  0
LWPOLYLINE
  5
4BB
100
AcDbEntity
  8
0
100
AcDbPolyline
 62
253
  6
CONTINUOUS
 90
4
 70
0
 10
79.7532922299
 20
101.3719980247
 10
79.7459827034
 20
101.3669625424
 10
79.7385626452
 20
101.3623532539
 10
79.7309219517
 20
101.3580893849
  0
LWPOLYLINE
  5
4BC
100
AcDbEntity
  8
0
100
AcDbPolyline
 62
253
  6
CONTINUOUS
 90
4
 70
0
 10
78.7082613976
 20
100.6146172886
 10
78.7009553967
 20
100.6095843613
 10
78.6935353382
 20
100.6049750726
 10
78.6858946443
 20
100.6007112034
  0
LINE
  5
4BD
100
AcDbEntity
  8
26814000
100
AcDbLine
 62
7
  6
CONTINUOUS
 10
62.7755947677
 20
89.9624977507
 11
61.9624219693
 21
89.4336266203
  0
LINE
  5
4BE
100
AcDbEntity
  8
26814000
100
AcDbLine
 62
253
  6
CONTINUOUS
 10
63.7301889223
 20
90.2742203685
 11
64.4372957034
 21
90.6353314483
  0
LINE
  5
4BF
100
AcDbEntity
  8
26814000
100
AcDbLine
 62
7
  6
CONTINUOUS
 10
63.6402249542
 20
90.0854102919
 11
64.3473317363
 21
90.4465213722
  0
LINE
  5
4C0
100
AcDbEntity
  8
26814000
100
AcDbLine
 62
7
  6
CONTINUOUS
 10
63.6402201482
 20
90.085407837
 11
63.6382125513
 21
90.0844041296
  0
LINE
  5
4C1
100
AcDbEntity
  8
26814000
100
AcDbLine
 62
253
  6
CONTINUOUS
 10
61.9624219693
 20
89.409231115
 11
63.7301889223
 21
90.2742203685
  0
LINE
  5
4C2
100
AcDbEntity
  8
26814000
100
AcDbLine
 62
7
  6
CONTINUOUS
 10
61.8704410503
 20
89.2194126507
 11
63.6382080047
 21
90.0844019049
  0
LWPOLYLINE
  5
4C3
100
AcDbEntity
  8
RACCORDO
100
AcDbPolyline
 62
253
  6
CONTINUOUS
 90
16
 70
0
 10
54.6584002443
 20
88.1125039607
 10
54.5959776584
 20
88.088017722
 10
54.5282689585
 20
88.0668630485
 10
54.4559996229
 20
88.0492666062
 10
54.3799439957
 20
88.0354169358
 10
54.30091699
 20
88.0254624322
 10
54.2197653563
 20
88.019509755
 10
54.13735861
 20
88.0176226852
 10
54.0545797143
 20
88.0198214423
 10
53.9723156202
 20
88.0260824673
 10
53.8914477628
 20
88.0363386751
 10
53.8128426165
 20
88.0504801735
 10
53.737342412
 20
88.0683554406
 10
53.6657561111
 20
88.0897729481
 10
53.5988507393
 20
88.1145032139
 10
53.5373431677
 20
88.1422812607
  0
LWPOLYLINE
  5
4C4
100
AcDbEntity
  8
ASSI
100
AcDbPolyline
 62
253
  6
CONTINUOUS
 90
16
 70
0
 10
54.6584002443
 20
88.1125039607
 10
54.5959776584
 20
88.088017722
 10
54.5282689585
 20
88.0668630485
 10
54.4559996229
 20
88.0492666062
 10
54.3799439957
 20
88.0354169358
 10
54.30091699
 20
88.0254624322
 10
54.2197653563
 20
88.019509755
 10
54.13735861
 20
88.0176226852
 10
54.0545797143
 20
88.0198214423
 10
53.9723156202
 20
88.0260824673
 10
53.8914477628
 20
88.0363386751
 10
53.8128426165
 20
88.0504801735
 10
53.737342412
 20
88.0683554406
 10
53.6657561111
 20
88.0897729481
 10
53.5988507393
 20
88.1145032139
 10
53.5373431677
 20
88.1422812607
  0
LINE
  5
4C5
100
AcDbEntity
  8
RACCORDO
100
AcDbLine
 62
253
  6
CONTINUOUS
 10
55.1011743696
 20
87.700997763
 11
59.1382741328
 21
89.0531803692
  0
LINE
  5
4C6
100
AcDbEntity
  8
ASSI
100
AcDbLine
 62
253
  6
CONTINUOUS
 10
55.1011743696
 20
87.700997763
 11
59.1382741328
 21
89.0531803692
  0
LINE
  5
4C7
100
AcDbEntity
  8
RACCORDO
100
AcDbLine
 62
253
  6
CONTINUOUS
 10
58.2921695946
 20
135.0048967652
 11
58.3023521399
 21
135.0077453596
  0
LWPOLYLINE
  5
4C8
100
AcDbEntity
  8
RACCORDO
100
AcDbPolyline
 62
253
  6
CONTINUOUS
 90
3
 70
0
 10
58.3023521399
 20
135.0077453596
 10
58.3127240412
 20
135.0105511339
 10
58.3179811075
 20
135.0119374328
  0
LWPOLYLINE
  5
4C9
100
AcDbEntity
  8
RACCORDO
100
AcDbPolyline
 62
253
  6
CONTINUOUS
 90
4
 70
0
 10
58.3179811075
 20
135.0119374328
 10
58.3286377029
 20
135.014672418
 10
58.3340372319
 20
135.0160211043
 10
58.3394840946
 20
135.0173557131
  0
LWPOLYLINE
  5
4CA
100
AcDbEntity
  8
RACCORDO
100
AcDbPolyline
 62
253
  6
CONTINUOUS
 90
128
 70
0
 10
58.3394840946
 20
135.0173557131
 10
58.3505199726
 20
135.019982734
 10
58.3561085539
 20
135.0212735405
 10
58.3617443107
 20
135.0225487224
 10
58.367427043
 20
135.0238082391
 10
58.3731557919
 20
135.0250503813
 10
58.378930719
 20
135.0262751713
 10
58.3847516629
 20
135.0274825867
 10
58.3906171804
 20
135.0286708511
 10
58.3965270908
 20
135.0298399201
 10
58.4024815748
 20
135.030989838
 10
58.4084797318
 20
135.0321189619
 10
58.4145217935
 20
135.0332273289
 10
58.4206075281
 20
135.0343149018
 10
58.4267353398
 20
135.0353799266
 10
58.4329135466
 20
135.0364235774
 10
58.4391338305
 20
135.03744468
 10
58.4453696409
 20
135.0384379578
 10
58.4516174058
 20
135.0394024633
 10
58.4578806972
 20
135.040339144
 10
58.4641436809
 20
135.0412455659
 10
58.4704038639
 20
135.0421211679
 10
58.4766637392
 20
135.0429665111
 10
58.4829149503
 20
135.0437808446
 10
58.4891563974
 20
135.044563929
 10
58.4953891804
 20
135.0453160037
 10
58.5016082429
 20
135.0460370365
 10
58.5078132092
 20
135.0467269299
 10
58.5140044549
 20
135.0473857814
 10
58.5201780513
 20
135.0480138511
 10
58.5263336041
 20
135.0486110674
 10
58.5324715075
 20
135.0491775019
 10
58.5385890146
 20
135.0497136289
 10
58.5446858496
 20
135.0502194114
 10
58.5507622882
 20
135.0506948865
 10
58.5568164109
 20
135.0511406398
 10
58.5628485945
 20
135.0515566812
 10
58.5688584621
 20
135.0519430009
 10
58.5748429632
 20
135.0523001545
 10
58.5808019062
 20
135.0526281082
 10
58.5867354827
 20
135.0529268958
 10
58.5926412167
 20
135.0531971746
 10
58.5985189397
 20
135.0534389234
 10
58.6043688203
 20
135.0536521634
 10
58.6101888882
 20
135.0538376153
 10
58.6159792222
 20
135.0539952688
 10
58.6217397434
 20
135.0541251342
 10
58.6274682453
 20
135.0542279632
 10
58.6331647506
 20
135.0543037392
 10
58.6388292365
 20
135.0543524788
 10
58.6444594283
 20
135.0543749836
 10
58.6500552006
 20
135.0543712374
 10
58.6556166789
 20
135.0543412563
 10
58.6611419643
 20
135.05428589
 10
58.6666308647
 20
135.054205132
 10
58.6720835724
 20
135.0540989889
 10
58.6774987657
 20
135.0539683296
 10
58.6828763898
 20
135.0538131517
 10
58.6882164995
 20
135.0536334577
 10
58.6935179376
 20
135.0534301236
 10
58.6987809869
 20
135.0532031255
 10
58.7040053645
 20
135.0529524873
 10
58.7091890647
 20
135.0526791573
 10
58.7143318778
 20
135.0523831301
 10
58.7194340135
 20
135.052064411
 10
58.7244940955
 20
135.0517239647
 10
58.7295119111
 20
135.0513617988
 10
58.734487673
 20
135.0509779058
 10
58.7394206428
 20
135.0505732275
 10
58.7443107371
 20
135.0501477703
 10
58.7491580394
 20
135.0497015278
 10
58.7539620616
 20
135.0492354238
 10
58.7587227516
 20
135.0487494644
 10
58.7634401617
 20
135.0482436433
 10
58.7681139605
 20
135.0477188659
 10
58.7727440917
 20
135.0471751408
 10
58.7773306117
 20
135.0466124594
 10
58.7818733589
 20
135.0460317012
 10
58.7863722543
 20
135.0454328809
 10
58.7908273769
 20
135.0448159838
 10
58.7952388031
 20
135.0441818459
 10
58.7996064813
 20
135.0435304811
 10
58.8039304631
 20
135.0428618755
 10
58.8082109791
 20
135.0421768224
 10
58.812447992
 20
135.0414753359
 10
58.816641539
 20
135.040757402
 10
58.8207919631
 20
135.0400237726
 10
58.8248992147
 20
135.0392744659
 10
58.8289633435
 20
135.0385094636
 10
58.8329848408
 20
135.0377294633
 10
58.8369636698
 20
135.0369344832
 10
58.8408998673
 20
135.036124505
 10
58.8447940351
 20
135.0353001712
 10
58.8486461322
 20
135.0344615036
 10
58.8524561995
 20
135.0336084804
 10
58.8562249616
 20
135.032741679
 10
58.8599523765
 20
135.0318611247
 10
58.8636384863
 20
135.0309667921
 10
58.8672841411
 20
135.0300591829
 10
58.8708893246
 20
135.0291383188
 10
58.8744540531
 20
135.0282041782
 10
58.8779792257
 20
135.0272571976
 10
58.8814648419
 20
135.0262973957
 10
58.8849109021
 20
135.0253247538
 10
58.8883183064
 20
135.0243396527
 10
58.8916870449
 20
135.023342115
 10
58.8950171274
 20
135.0223321181
 10
58.8983094838
 20
135.0213099756
 10
58.9015641065
 20
135.0202757109
 10
58.904781003
 20
135.0192293006
 10
58.9079611253
 20
135.0181709872
 10
58.9111044814
 20
135.0171007906
 10
58.9142110632
 20
135.016018691
 10
58.9172817985
 20
135.0149248702
 10
58.9203167104
 20
135.0138193431
 10
58.9233157758
 20
135.012702095
 10
58.9262798527
 20
135.0115732638
 10
58.9292089767
 20
135.0104328586
 10
58.9321031123
 20
135.0092808702
 10
58.934963011
 20
135.0081174092
 10
58.9377886986
 20
135.0069424858
 10
58.9405801494
 20
135.0057560897
 10
58.943338038
 20
135.0045583002
 10
58.9460623769
 20
135.0033491355
 10
58.9487531536
 20
135.0021285774
 10
58.9514110053
 20
135.0008966505
 10
58.9540361442
 20
134.9996533631
 10
58.956628358
 20
134.998398707
  0
LINE
  5
4CB
100
AcDbEntity
  8
26814000
100
AcDbLine
 62
7
  6
CONTINUOUS
 10
60.1428706214
 20
136.3747220455
 11
61.5028025615
 21
136.4484702329
  0
LWPOLYLINE
  5
4CC
100
AcDbEntity
  8
26814000
100
AcDbPolyline
 62
7
  6
CONTINUOUS
 90
13
 70
0
 10
68.4654378287
 20
133.613111285
 10
68.4307870188
 20
133.6195409662
 10
68.3955827957
 20
133.624924119
 10
68.3598629438
 20
133.6292862598
 10
68.323637627
 20
133.6326801829
 10
68.2869698888
 20
133.6351099326
 10
68.2499736789
 20
133.6365211618
 10
68.212686644
 20
133.6369312967
 10
68.1751356621
 20
133.6363674152
 10
68.1374149612
 20
133.634775427
 10
68.0995755865
 20
133.632146336
 10
68.0616264003
 20
133.6285243548
 10
68.0235969608
 20
133.6239295653
  0
LWPOLYLINE
  5
4CD
100
AcDbEntity
  8
26814000
100
AcDbPolyline
 62
7
  6
CONTINUOUS
 90
18
 70
0
 10
61.2429190898
 20
137.2601285063
 10
61.2233570055
 20
137.2692182393
 10
61.2004612253
 20
137.278203654
 10
61.176951939
 20
137.2857058868
 10
61.1528106169
 20
137.2917400566
 10
61.1281208636
 20
137.296285841
 10
61.1028594373
 20
137.2993398244
 10
61.0770495799
 20
137.3009054224
 10
61.050844621
 20
137.300972559
 10
61.0242606584
 20
137.299533783
 10
60.9972815944
 20
137.2965965456
 10
60.9700124657
 20
137.2921731244
 10
60.9424382861
 20
137.2862547387
 10
60.9145740418
 20
137.2788501692
 10
60.8865697288
 20
137.2699980346
 10
60.8584753455
 20
137.2597112079
 10
60.8302408935
 20
137.2479768162
 10
60.8018663728
 20
137.2347948594
  0
LWPOLYLINE
  5
4CE
100
AcDbEntity
  8
26814000
100
AcDbPolyline
 62
7
  6
CONTINUOUS
 90
10
 70
0
 10
68.7117529283
 20
133.5257338131
 10
68.6887732492
 20
133.5369252453
 10
68.6589972048
 20
133.5505016871
 10
68.6297236857
 20
133.5628873038
 10
68.6009336778
 20
133.5740891004
 10
68.5726461951
 20
133.5841000719
 10
68.5449445388
 20
133.5929998163
 10
68.5178564758
 20
133.6008148663
 10
68.4913542391
 20
133.6075186892
 10
68.4654378287
 20
133.613111285
  0
LINE
  5
4CF
100
AcDbEntity
  8
26814000
100
AcDbLine
 62
7
  6
CONTINUOUS
 10
61.5028025615
 20
136.4484702329
 11
63.7125434497
 21
135.3435997888
  0
LINE
  5
4D0
100
AcDbEntity
  8
26814000
100
AcDbLine
 62
7
  6
CONTINUOUS
 10
64.4581282728
 20
134.9708073773
 11
64.6039416829
 21
134.8979006722
  0
LINE
  5
4D1
100
AcDbEntity
  8
26814000
100
AcDbLine
 62
7
  6
CONTINUOUS
 10
58.6353448159
 20
138.1454427855
 11
58.815796793
 21
138.0552167969
  0
LINE
  5
4D2
100
AcDbEntity
  8
26814000
100
AcDbLine
 62
7
  6
CONTINUOUS
 10
64.18980833
 20
135.3682110284
 11
64.3702603072
 21
135.2779850398
  0
LINE
  5
4D3
100
AcDbEntity
  8
0
100
AcDbLine
 62
7
  6
CONTINUOUS
 10
63.8767339674
 20
135.565212385
 11
64.9109306937
 21
135.0481140218
  0
LINE
  5
4D4
100
AcDbEntity
  8
0
100
AcDbLine
 62
7
  6
CONTINUOUS
 10
69.2137342982
 20
132.8967122196
 11
69.4931091889
 21
132.7570247742
  0
LINE
  5
4D5
100
AcDbEntity
  8
26814000
100
AcDbLine
 62
253
  6
CONTINUOUS
 10
57.8227764718
 20
138.7243398098
 11
60.8018663728
 21
137.2347948594
  0
LINE
  5
4D6
100
AcDbEntity
  8
26814000
100
AcDbLine
 62
253
  6
CONTINUOUS
 10
65.0445070599
 20
135.1134745158
 11
68.0235969608
 21
133.6239295653
  0
LINE
  5
4D7
100
AcDbEntity
  8
26814000
100
AcDbLine
 62
7
  6
CONTINUOUS
 10
65.485550063
 20
135.1388239824
 11
68.7120399551
 21
133.5255790363
  0
LWPOLYLINE
  5
4D8
100
AcDbEntity
  8
0
100
AcDbPolyline
 62
253
  6
CONTINUOUS
 90
26
 70
0
 10
72.684397113
 20
133.357012395
 10
72.6843185259
 20
133.3571365872
 10
72.6836417659
 20
133.3577606822
 10
72.6826126409
 20
133.3581788622
 10
72.6812325521
 20
133.3583905577
 10
72.6795033789
 20
133.3583954805
 10
72.6774274759
 20
133.3581936239
 10
72.6750076695
 20
133.3577852627
 10
72.6722472541
 20
133.3571709529
 10
72.6691499887
 20
133.3563515309
 10
72.6657200919
 20
133.3553281128
 10
72.6619622356
 20
133.3541020929
 10
72.657881536
 20
133.3526751403
 10
72.6534835463
 20
133.351049197
 10
72.6487742524
 20
133.3492264758
 10
72.6437600683
 20
133.347209459
 10
72.6384478253
 20
133.3450008946
 10
72.6328447594
 20
133.342603791
 10
72.6269584983
 20
133.3400214116
 10
72.6207970549
 20
133.3372572719
 10
72.6143688179
 20
133.3343151351
 10
72.6076825413
 20
133.3311990078
 10
72.6007473298
 20
133.3279131333
 10
72.5935726272
 20
133.3244619858
 10
72.5861682026
 20
133.3208502647
 10
72.5785441383
 20
133.3170828877
  0
LINE
  5
4D9
100
AcDbEntity
  8
26814000
100
AcDbLine
 62
7
  6
CONTINUOUS
 10
63.3412801926
 20
88.4335034925
 11
63.8695473644
 21
88.7045145512
  0
LINE
  5
4DA
100
AcDbEntity
  8
26814000
100
AcDbLine
 62
7
  6
CONTINUOUS
 10
61.7399994018
 20
87.6534688929
 11
63.3412801926
 21
88.4335034925
  0
LINE
  5
4DB
100
AcDbEntity
  8
RACCORDO
100
AcDbLine
 62
7
  6
CONTINUOUS
 10
58.8404368291
 20
88.5823395566
 11
54.7989981953
 21
87.2287040726
  0
LINE
  5
4DC
100
AcDbEntity
  8
ASSI
100
AcDbLine
 62
7
  6
CONTINUOUS
 10
58.8404368291
 20
88.5823395566
 11
54.7976989475
 21
87.228273837
  0
LWPOLYLINE
  5
4DD
100
AcDbEntity
  8
0
100
AcDbPolyline
 62
7
  6
CONTINUOUS
 90
37
 70
0
 10
70.7127756984
 20
134.5755105559
 10
70.7062184861
 20
134.5786716597
 10
70.6995964284
 20
134.5817345656
 10
70.6929143134
 20
134.5847027552
 10
70.6861741498
 20
134.5875754882
 10
70.6793779221
 20
134.590351815
 10
70.6725302176
 20
134.5930348475
 10
70.6656328893
 20
134.5956239535
 10
70.6586878255
 20
134.5981183167
 10
70.6516995335
 20
134.6005207228
 10
70.6446697396
 20
134.6028306361
 10
70.6376002412
 20
134.6050473661
 10
70.6304955457
 20
134.6071734249
 10
70.6233572859
 20
134.6092083663
 10
70.6161871631
 20
134.6111516227
 10
70.6089897046
 20
134.613005494
 10
70.6017664143
 20
134.6147696351
 10
70.5945189532
 20
134.6164435824
 10
70.5872520177
 20
134.6180294463
 10
70.5799670274
 20
134.6195269772
 10
70.5726655766
 20
134.6209358269
 10
70.5653525724
 20
134.6222579674
 10
70.5580293486
 20
134.6234932539
 10
70.550697446
 20
134.6246414546
 10
70.5433620425
 20
134.6257044477
 10
70.5360243923
 20
134.6266822021
 10
70.5286859827
 20
134.6275746101
 10
70.5213523089
 20
134.6283835013
 10
70.5140245521
 20
134.6291089697
 10
70.5067041403
 20
134.6297510421
 10
70.4993969101
 20
134.6303115461
 10
70.4921039768
 20
134.6307907144
 10
70.4848266971
 20
134.6311887195
 10
70.4775712395
 20
134.6315074339
 10
70.4703404368
 20
134.6317477442
 10
70.4631337813
 20
134.6319094947
 10
70.4559523944
 20
134.6319930952
  0
LWPOLYLINE
  5
4DE
100
AcDbEntity
  8
0
100
AcDbPolyline
 62
7
  6
CONTINUOUS
 90
37
 70
0
 10
67.6015058612
 20
136.1311454745
 10
67.5949486489
 20
136.1343065784
 10
67.5883265912
 20
136.1373694842
 10
67.5816444761
 20
136.1403376738
 10
67.5749043126
 20
136.1432104068
 10
67.5681080849
 20
136.1459867336
 10
67.5612603803
 20
136.1486697662
 10
67.5543630521
 20
136.1512588721
 10
67.5474179883
 20
136.1537532354
 10
67.5404296962
 20
136.1561556414
 10
67.5333999024
 20
136.1584655547
 10
67.5263304039
 20
136.1606822847
 10
67.5192257085
 20
136.1628083435
 10
67.5120874487
 20
136.164843285
 10
67.5049173259
 20
136.1667865413
 10
67.4977198673
 20
136.1686404126
 10
67.4904965771
 20
136.1704045537
 10
67.483249116
 20
136.172078501
 10
67.4759821805
 20
136.1736643649
 10
67.4686971901
 20
136.1751618959
 10
67.4613957393
 20
136.1765707455
 10
67.4540827352
 20
136.177892886
 10
67.4467595114
 20
136.1791281725
 10
67.4394276088
 20
136.1802763732
 10
67.4320922053
 20
136.1813393663
 10
67.4247545551
 20
136.1823171207
 10
67.4174161455
 20
136.1832095287
 10
67.4100824717
 20
136.1840184199
 10
67.4027547149
 20
136.1847438883
 10
67.3954343031
 20
136.1853859607
 10
67.3881270729
 20
136.1859464647
 10
67.3808341396
 20
136.186425633
 10
67.3735568599
 20
136.1868236381
 10
67.3663014023
 20
136.1871423525
 10
67.3590705996
 20
136.1873826628
 10
67.351863944
 20
136.1875444133
 10
67.3446825572
 20
136.1876280138
  0
LWPOLYLINE
  5
4DF
100
AcDbEntity
  8
0
100
AcDbPolyline
 62
253
  6
CONTINUOUS
 90
20
 70
0
 10
81.1055801758
 20
130.7490980544
 10
81.1036716349
 20
130.7500298957
 10
81.0973772692
 20
130.7527974821
 10
81.0909067251
 20
130.7551845784
 10
81.084269056
 20
130.7571878459
 10
81.0774735528
 20
130.7588044823
 10
81.0705297147
 20
130.7600322297
 10
81.0634472365
 20
130.7608693736
 10
81.0562359958
 20
130.7613147423
 10
81.0489061056
 20
130.761367707
 10
81.0414678852
 20
130.7610281967
 10
81.0339317821
 20
130.7602967001
 10
81.0263082987
 20
130.7591742483
 10
81.0186080421
 20
130.7576624073
 10
81.0108412574
 20
130.755763151
 10
81.0030193252
 20
130.7534792248
 10
80.9951547208
 20
130.7508143791
 10
80.9872589771
 20
130.7477727713
 10
80.9793426361
 20
130.7443587107
 10
80.9714167669
 20
130.7405771834
  0
LINE
  5
4E0
100
AcDbEntity
  8
0
100
AcDbLine
 62
7
  6
CONTINUOUS
 10
80.410307926
 20
131.0967340754
 11
80.4106417767
 21
131.0965672531
  0
LINE
  5
4E1
100
AcDbEntity
  8
0
100
AcDbLine
 62
253
  6
CONTINUOUS
 10
72.0786177636
 20
133.8206604106
 11
70.4559523944
 21
134.6319930952
  0
LINE
  5
4E2
100
AcDbEntity
  8
0
100
AcDbLine
 62
253
  6
CONTINUOUS
 10
69.456909228
 20
135.1315146784
 11
67.3446825572
 21
136.1876280138
  0
LINE
  5
4E3
100
AcDbEntity
  8
0
100
AcDbLine
 62
7
  6
CONTINUOUS
 10
72.2090821549
 20
133.8273681459
 11
70.7127756984
 21
134.5755105559
  0
LINE
  5
4E4
100
AcDbEntity
  8
0
100
AcDbLine
 62
7
  6
CONTINUOUS
 10
69.458393556
 20
135.2027124454
 11
67.6015058612
 21
136.1311454745
  0
LINE
  5
4E5
100
AcDbEntity
  8
RACCORDO
100
AcDbLine
 62
253
  6
CONTINUOUS
 10
73.7583341445
 20
133.8084404499
 11
72.337070259
 21
134.5190723926
  0
LINE
  5
4E6
100
AcDbEntity
  8
RACCORDO
100
AcDbLine
 62
253
  6
CONTINUOUS
 10
70.2440512395
 20
135.5655819024
 11
69.2258004217
 21
136.0747073113
  0
LINE
  5
4E7
100
AcDbEntity
  8
RACCORDO
100
AcDbLine
 62
253
  6
CONTINUOUS
 10
73.8723221724
 20
133.8576968136
 11
72.422040086
 21
134.5828378569
  0
LINE
  5
4E8
100
AcDbEntity
  8
RACCORDO
100
AcDbLine
 62
253
  6
CONTINUOUS
 10
70.3545177783
 20
135.6165990107
 11
69.3107702487
 21
136.1384727755
  0
LWPOLYLINE
  5
4E9
100
AcDbEntity
  8
0
100
AcDbPolyline
 62
7
  6
CONTINUOUS
 90
32
 70
0
 10
80.4107385542
 20
131.0965188652
 10
81.1069368661
 20
130.7484154154
 10
81.1166978388
 20
130.7432451042
 10
81.1262630305
 20
130.7377182626
 10
81.1356307469
 20
130.7318348302
 10
81.1447916653
 20
130.725598369
 10
81.1537275957
 20
130.719018931
 10
81.1624232983
 20
130.7121059081
 10
81.1708644178
 20
130.7048691707
 10
81.1790400296
 20
130.6973165104
 10
81.1869403925
 20
130.6894548918
 10
81.1945536692
 20
130.6812936826
 10
81.2018676851
 20
130.6728434395
 10
81.2088722543
 20
130.6641132054
 10
81.2155567093
 20
130.6551131555
 10
81.2219094752
 20
130.6458556098
 10
81.2279195031
 20
130.6363534506
 10
81.2335761962
 20
130.626620286
 10
81.2388707493
 20
130.6166679333
 10
81.2437952904
 20
130.6065071457
 10
81.2483416283
 20
130.5961498947
 10
81.2525006041
 20
130.5856117125
 10
81.2562636038
 20
130.5749092428
 10
81.2596234779
 20
130.5640575668
 10
81.2625738034
 20
130.5530715684
 10
81.2651083098
 20
130.5419682354
 10
81.2672216899
 20
130.5307640372
 10
81.2689095251
 20
130.519474327
 10
81.2701678935
 20
130.5081148418
 10
81.2709935633
 20
130.4966988758
 10
81.2713833631
 20
130.4852462914
 10
81.2714167668
 20
130.4807677991
  0
LWPOLYLINE
  5
4EA
100
AcDbEntity
  8
0
100
AcDbPolyline
 62
253
  6
CONTINUOUS
 90
43
 70
0
 10
80.2292704872
 20
130.404543542
 10
80.2847216675
 20
130.3767747
 10
80.2927794694
 20
130.3723392437
 10
80.3008147165
 20
130.3675523299
 10
80.3088161706
 20
130.3624206536
 10
80.3167726411
 20
130.3569513918
 10
80.3246730008
 20
130.3511521934
 10
80.332506201
 20
130.3450311684
 10
80.3402612855
 20
130.338596878
 10
80.3479274062
 20
130.3318583228
 10
80.3554938395
 20
130.3248249293
 10
80.3629500051
 20
130.3175065328
 10
80.3702854788
 20
130.3099133647
 10
80.3774900035
 20
130.3020560417
 10
80.3845535006
 20
130.2939455553
 10
80.3914660872
 20
130.2855932528
 10
80.3982180941
 20
130.277010818
 10
80.4048000797
 20
130.2682102521
 10
80.4112028401
 20
130.2592038614
 10
80.4174174213
 20
130.250004241
 10
80.4234351307
 20
130.2406242583
 10
80.4292475516
 20
130.2310770327
 10
80.4348465548
 20
130.2213759169
 10
80.4402243096
 20
130.2115344785
 10
80.4453732945
 20
130.2015664822
 10
80.4502863077
 20
130.1914858698
 10
80.4549564786
 20
130.1813067392
 10
80.4593772762
 20
130.1710433245
 10
80.4635425186
 20
130.1607099775
 10
80.467446379
 20
130.1503211528
 10
80.4710833954
 20
130.1398913855
 10
80.4744484802
 20
130.1294352663
 10
80.4775369287
 20
130.1189674155
 10
80.4803444229
 20
130.1085024681
 10
80.4828670367
 20
130.0980550577
 10
80.4851012411
 20
130.0876397985
 10
80.4870439108
 20
130.07727126
 10
80.4886923285
 20
130.0669639444
 10
80.4900441892
 20
130.0567322665
 10
80.4910976021
 20
130.0465905357
 10
80.491851094
 20
130.0365529359
 10
80.4923036112
 20
130.0266335058
 10
80.4924545206
 20
130.0168461187
  0
LWPOLYLINE
  5
4EB
100
AcDbEntity
  8
0
100
AcDbPolyline
 62
253
  6
CONTINUOUS
 90
43
 70
0
 10
80.2292704872
 20
131.1116503232
 10
80.9794858591
 20
130.7364993852
 10
80.987543666
 20
130.7320639258
 10
80.995578918
 20
130.7272770085
 10
81.0035803771
 20
130.7221453283
 10
81.0115368524
 20
130.7166760622
 10
81.0194372161
 20
130.7108768595
 10
81.0272704189
 20
130.704755831
 10
81.0350255054
 20
130.6983215374
 10
81.0426916292
 20
130.6915829777
 10
81.0502580687
 20
130.6845495764
 10
81.0577142415
 20
130.6772311703
 10
81.0650497195
 20
130.6696379949
 10
81.0722542434
 20
130.6617806699
 10
81.0793177369
 20
130.6536701845
 10
81.0862303212
 20
130.6453178819
 10
81.0929823283
 20
130.6367354437
 10
81.099564315
 20
130.627934873
 10
81.1059670757
 20
130.6189284784
 10
81.1121816557
 20
130.609728856
 10
81.1181993633
 20
130.6003488724
 10
81.1240117821
 20
130.5908016463
 10
81.129610783
 20
130.5811005304
 10
81.1349885353
 20
130.5712590926
 10
81.1401375176
 20
130.5612910969
 10
81.1450505287
 20
130.5512104847
 10
81.1497206973
 20
130.5410313544
 10
81.1541414918
 20
130.5307679425
 10
81.1583067292
 20
130.5204346035
 10
81.1622105841
 20
130.5100457892
 10
81.1658475965
 20
130.4996160295
 10
81.1692126799
 20
130.4891599113
 10
81.1723011278
 20
130.4786920585
 10
81.1751086208
 20
130.4682271112
 10
81.1776312323
 20
130.4577797057
 10
81.1798654342
 20
130.4473644536
 10
81.1818081018
 20
130.4369959215
 10
81.1834565181
 20
130.4266886109
 10
81.1848083776
 20
130.4164569373
 10
81.1858617897
 20
130.4063152108
 10
81.186615281
 20
130.3962776154
 10
81.1870677977
 20
130.3863581896
 10
81.187218707
 20
130.3765708067
  0
LWPOLYLINE
  5
4EC
100
AcDbEntity
  8
0
100
AcDbPolyline
 62
7
  6
CONTINUOUS
 90
20
 70
0
 10
80.233997382
 20
130.3342141337
 10
80.2340741066
 20
130.3340430216
 10
80.2341279874
 20
130.3339173501
 10
80.2340619334
 20
130.3340891602
 10
80.2338936544
 20
130.3345617383
 10
80.2336434591
 20
130.3353270658
 10
80.2333266047
 20
130.3363876434
 10
80.232958499
 20
130.3377429328
 10
80.2325571828
 20
130.3393774494
 10
80.2321362432
 20
130.3412864315
 10
80.2317075876
 20
130.3434690842
 10
80.2312839949
 20
130.3459162884
 10
80.2308765235
 20
130.3486228622
 10
80.23049511
 20
130.3515869502
 10
80.2301492811
 20
130.3548073433
 10
80.2298485829
 20
130.3582793057
 10
80.2296018925
 20
130.3620006468
 10
80.2294175072
 20
130.3659772975
 10
80.2293042558
 20
130.3702096344
 10
80.2292704584
 20
130.3741937817
  0
LWPOLYLINE
  5
4ED
100
AcDbEntity
  8
0
100
AcDbPolyline
 62
7
  6
CONTINUOUS
 90
25
 70
0
 10
78.9713118583
 20
136.0139525043
 10
78.969995475
 20
136.0161397815
 10
78.9682335107
 20
136.018830274
 10
78.9663950717
 20
136.0213797846
 10
78.9644724491
 20
136.0237827636
 10
78.9624683744
 20
136.0260357277
 10
78.9603850368
 20
136.0281349584
 10
78.9582141113
 20
136.0300740351
 10
78.9559586566
 20
136.031849264
 10
78.9536211947
 20
136.0334566881
 10
78.9511928364
 20
136.0348889653
 10
78.9486769696
 20
136.0361422109
 10
78.9460765386
 20
136.037212253
 10
78.9433822708
 20
136.0380908165
 10
78.94059788
 20
136.0387738502
 10
78.9377268172
 20
136.0392570538
 10
78.9347597224
 20
136.0395313547
 10
78.9317006085
 20
136.0395925904
 10
78.9285535138
 20
136.03943647
 10
78.9253094224
 20
136.0390534519
 10
78.9219725973
 20
136.0384393584
 10
78.9185477168
 20
136.0375901038
 10
78.9150266546
 20
136.0364962288
 10
78.9114138575
 20
136.0351536932
 10
78.9095458793
 20
136.0343755955
  0
LINE
  5
4EE
100
AcDbEntity
  8
0
100
AcDbLine
 62
253
  6
CONTINUOUS
 10
79.7309203666
 20
134.4813200682
 11
78.9773657904
 21
135.7810094588
  0
LINE
  5
4EF
100
AcDbEntity
  8
0
100
AcDbLine
 62
7
  6
CONTINUOUS
 10
78.9713433461
 20
136.0138955211
 11
79.8367749263
 21
134.5212468415
  0
LWPOLYLINE
  5
4F0
100
AcDbEntity
  8
0
100
AcDbPolyline
 62
253
  6
CONTINUOUS
 90
37
 70
0
 10
79.7309203631
 20
134.4813200664
 10
79.7525273825
 20
134.4435418557
 10
79.7736462957
 20
134.4054365046
 10
79.7942669919
 20
134.3670221162
 10
79.8143794451
 20
134.3283170848
 10
79.8339741967
 20
134.2893396605
 10
79.8530423351
 20
134.2501079281
 10
79.8715748405
 20
134.2106403086
 10
79.8895627148
 20
134.1709557611
 10
79.9069974519
 20
134.1310733412
 10
79.9238707031
 20
134.0910120693
 10
79.9401744133
 20
134.0507909187
 10
79.9559009273
 20
134.0104290064
 10
79.9710427464
 20
133.9699455279
 10
79.9855926255
 20
133.9293597227
 10
79.9995437099
 20
133.8886908624
 10
80.0128893673
 20
133.8479582668
 10
80.0256232094
 20
133.8071813301
 10
80.0377391848
 20
133.7663794839
 10
80.0492315419
 20
133.7255721473
 10
80.0600947998
 20
133.6847787299
 10
80.070323769
 20
133.6440186568
 10
80.0799136051
 20
133.6033113633
 10
80.0888597564
 20
133.5626761903
 10
80.0971579341
 20
133.5221323877
 10
80.1048042309
 20
133.4816992677
 10
80.1117950247
 20
133.4413960772
 10
80.1181269214
 20
133.4012418934
 10
80.1237969693
 20
133.3612557914
 10
80.1288024881
 20
133.3214568752
 10
80.1331409741
 20
133.2818641485
 10
80.1368104161
 20
133.2424967209
 10
80.1398091455
 20
133.2033731091
 10
80.1421356329
 20
133.1645112804
 10
80.1437887534
 20
133.1259295477
 10
80.1447678214
 20
133.0876465488
 10
80.1450724233
 20
133.0496805546
  0
LINE
  5
4F1
100
AcDbEntity
  8
DRAFT
100
AcDbLine
 62
7
  6
CONTINUOUS
 10
76.1719635296
 20
138.0553993195
 11
76.135373931
 21
138.1249413201
  0
LINE
  5
4F2
100
AcDbEntity
  8
DRAFT
100
AcDbLine
 62
7
  6
CONTINUOUS
 10
76.454806242
 20
138.1968206758
 11
76.4182166435
 21
138.2663626764
  0
LINE
  5
4F3
100
AcDbEntity
  8
DRAFT
100
AcDbLine
 62
7
  6
CONTINUOUS
 10
76.7376489545
 20
138.338242032
 11
76.701059356
 21
138.4077840326
  0
LINE
  5
4F4
100
AcDbEntity
  8
DRAFT
100
AcDbLine
 62
7
  6
CONTINUOUS
 10
77.020491667
 20
138.4796633883
 11
76.9839020684
 21
138.5492053888
  0
LINE
  5
4F5
100
AcDbEntity
  8
DRAFT
100
AcDbLine
 62
7
  6
CONTINUOUS
 10
77.3033343794
 20
138.6210847445
 11
77.2667447809
 21
138.6906267451
  0
LINE
  5
4F6
100
AcDbEntity
  8
DRAFT
100
AcDbLine
 62
7
  6
CONTINUOUS
 10
77.5861770919
 20
138.7625061007
 11
77.5495874934
 21
138.8320481013
  0
LINE
  5
4F7
100
AcDbEntity
  8
DRAFT
100
AcDbLine
 62
7
  6
CONTINUOUS
 10
79.2832333668
 20
136.4997644009
 11
79.2466437682
 21
136.5693064015
  0
LINE
  5
4F8
100
AcDbEntity
  8
DRAFT
100
AcDbLine
 62
7
  6
CONTINUOUS
 10
77.1475400953
 20
137.0499620048
 11
77.1816611749
 21
136.9816542637
  0
LINE
  5
4F9
100
AcDbEntity
  8
DRAFT
100
AcDbLine
 62
7
  6
CONTINUOUS
 10
77.4303828077
 20
137.1913833611
 11
77.4645038873
 21
137.12307562
  0
LWPOLYLINE
  5
4FA
100
AcDbEntity
  8
0
100
AcDbPolyline
 62
253
  6
CONTINUOUS
 90
19
 70
0
 10
72.7162890231
 20
139.5940798994
 10
72.7098706748
 20
139.5970401131
 10
72.7035209663
 20
139.5995080121
 10
72.6970052413
 20
139.6016014907
 10
72.6903324111
 20
139.6033176856
 10
72.6835116023
 20
139.6046542497
 10
72.6765521433
 20
139.6056093549
 10
72.6694635528
 20
139.6061816949
 10
72.6622555255
 20
139.606370487
 10
72.6549379199
 20
139.606175473
 10
72.6475207441
 20
139.6055969195
 10
72.6400141425
 20
139.6046356179
 10
72.6324283818
 20
139.6032928828
 10
72.6247738369
 20
139.6015705509
 10
72.6170609769
 20
139.5994709776
 10
72.6093003504
 20
139.5969970345
 10
72.6015025717
 20
139.5941521052
 10
72.5936783057
 20
139.5909400807
 10
72.5858382534
 20
139.587365354
  0
LWPOLYLINE
  5
4FB
100
AcDbEntity
  8
0
100
AcDbPolyline
 62
253
  6
CONTINUOUS
 90
22
 70
0
 10
74.3210964138
 20
139.50628034
 10
74.3127192834
 20
139.5102136516
 10
74.3034265807
 20
139.514008166
 10
74.2939133556
 20
139.5173155177
 10
74.2841897951
 20
139.5201321651
 10
74.2742663113
 20
139.5224550922
 10
74.2641535306
 20
139.5242818113
 10
74.253862282
 20
139.5256103666
 10
74.2434035857
 20
139.5264393352
 10
74.232788641
 20
139.5267678296
 10
74.2220288148
 20
139.5265954979
 10
74.2111356288
 20
139.5259225248
 10
74.2001207479
 20
139.5247496307
 10
74.1889959669
 20
139.5230780718
 10
74.1777731986
 20
139.5209096379
 10
74.1664644606
 20
139.5182466511
 10
74.1550818628
 20
139.5150919629
 10
74.1436375937
 20
139.5114489515
 10
74.1321439082
 20
139.507321518
 10
74.1206131141
 20
139.5027140819
 10
74.1090575587
 20
139.4976315773
 10
74.0974896161
 20
139.4920794464
  0
LWPOLYLINE
  5
4FC
100
AcDbEntity
  8
0
100
AcDbPolyline
 62
7
  6
CONTINUOUS
 90
28
 70
0
 10
73.8968323451
 20
139.7184123743
 10
73.88693928
 20
139.7231437952
 10
73.8768574082
 20
139.7275373823
 10
73.8665970414
 20
139.7315855008
 10
73.8561742048
 20
139.7352792767
 10
73.8455947345
 20
139.7386143526
 10
73.8348534158
 20
139.741589085
 10
73.8239610343
 20
139.7441965133
 10
73.8129289489
 20
139.7464301975
 10
73.8017517538
 20
139.7482868535
 10
73.7904402125
 20
139.7497596271
 10
73.7790059483
 20
139.7508421684
 10
73.7674437145
 20
139.7515295
 10
73.7557671135
 20
139.7518148011
 10
73.7439848999
 20
139.7516920361
 10
73.7320832489
 20
139.751153984
 10
73.7200658548
 20
139.7501922032
 10
73.7079511098
 20
139.7487996867
 10
73.6957457826
 20
139.7469690058
 10
73.6834575064
 20
139.7446927873
 10
73.6711001386
 20
139.7419651249
 10
73.6586879425
 20
139.7387810775
 10
73.6462253787
 20
139.735133569
 10
73.6337280833
 20
139.7310188814
 10
73.6212246786
 20
139.7264393921
 10
73.6087299214
 20
139.7213946857
 10
73.5962463373
 20
139.7158797356
 10
73.5837828283
 20
139.7098918382
  0
LWPOLYLINE
  5
4FD
100
AcDbEntity
  8
0
100
AcDbPolyline
 62
7
  6
CONTINUOUS
 90
37
 70
0
 10
76.7572241202
 20
137.5736015334
 10
76.7506669213
 20
137.5767618901
 10
76.7440448399
 20
137.5798261121
 10
76.7373627351
 20
137.5827937327
 10
76.730622584
 20
137.5856657752
 10
76.7238263342
 20
137.588443331
 10
76.7169786393
 20
137.591125825
 10
76.7100813227
 20
137.5937142894
 10
76.7031362381
 20
137.5962098063
 10
76.6961479552
 20
137.5986117003
 10
76.6891181722
 20
137.6009210139
 10
76.6820486541
 20
137.6031388322
 10
76.6749439675
 20
137.6052644024
 10
76.6678057178
 20
137.6072987799
 10
76.6606355765
 20
137.6092430669
 10
76.6534381263
 20
137.6110964715
 10
76.6462148456
 20
137.6128600804
 10
76.638967367
 20
137.6145350068
 10
76.6317004394
 20
137.6161204238
 10
76.6244154582
 20
137.6176174501
 10
76.6171139906
 20
137.6190272319
 10
76.6098009942
 20
137.6203489449
 10
76.602477779
 20
137.6215837511
 10
76.5951458604
 20
137.6227328398
 10
76.5878104643
 20
137.6237954252
 10
76.5804728223
 20
137.6247727216
 10
76.5731343975
 20
137.6256659744
 10
76.5658007307
 20
137.6264744788
 10
76.5584729818
 20
137.6271995101
 10
76.5511525555
 20
137.6278423833
 10
76.5438453318
 20
137.6284025236
 10
76.5365524061
 20
137.6288812751
 10
76.5292751128
 20
137.6292800347
 10
76.5220196613
 20
137.6295984114
 10
76.5147888847
 20
137.6298372692
 10
76.5075822355
 20
137.6299986675
 10
76.5004008161
 20
137.6300840727
  0
LWPOLYLINE
  5
4FE
100
AcDbEntity
  8
0
100
AcDbPolyline
 62
7
  6
CONTINUOUS
 90
37
 70
0
 10
73.645954283
 20
139.129236452
 10
73.6393970841
 20
139.1323968087
 10
73.6327750027
 20
139.1354610307
 10
73.6260928979
 20
139.1384286513
 10
73.6193527468
 20
139.1413006938
 10
73.6125564969
 20
139.1440782496
 10
73.6057088021
 20
139.1467607436
 10
73.5988114854
 20
139.149349208
 10
73.5918664009
 20
139.1518447249
 10
73.584878118
 20
139.1542466189
 10
73.577848335
 20
139.1565559325
 10
73.5707788169
 20
139.1587737508
 10
73.5636741303
 20
139.160899321
 10
73.5565358806
 20
139.1629336985
 10
73.5493657393
 20
139.1648779855
 10
73.5421682891
 20
139.1667313901
 10
73.5349450084
 20
139.168494999
 10
73.5276975297
 20
139.1701699254
 10
73.5204306022
 20
139.1717553424
 10
73.513145621
 20
139.1732523687
 10
73.5058441534
 20
139.1746621505
 10
73.498531157
 20
139.1759838635
 10
73.4912079418
 20
139.1772186697
 10
73.4838760232
 20
139.1783677585
 10
73.4765406271
 20
139.1794303438
 10
73.4692029851
 20
139.1804076402
 10
73.4618645603
 20
139.181300893
 10
73.4545308935
 20
139.1821093974
 10
73.4472031445
 20
139.1828344287
 10
73.4398827183
 20
139.1834773019
 10
73.4325754946
 20
139.1840374422
 10
73.4252825689
 20
139.1845161937
 10
73.4180052756
 20
139.1849149533
 10
73.4107498241
 20
139.18523333
 10
73.4035190475
 20
139.1854721878
 10
73.3963123983
 20
139.1856335861
 10
73.3891309789
 20
139.1857189913
  0
LWPOLYLINE
  5
4FF
100
AcDbEntity
  8
0
100
AcDbPolyline
 62
7
  6
CONTINUOUS
 90
27
 70
0
 10
72.7162890071
 20
139.5940798673
 10
72.7092211725
 20
139.5975382372
 10
72.6951807263
 20
139.6039691242
 10
72.6810850122
 20
139.6098516759
 10
72.6669541802
 20
139.6151869014
 10
72.652798081
 20
139.6199808165
 10
72.6386191635
 20
139.6242410095
 10
72.6244351081
 20
139.6279700136
 10
72.6102601739
 20
139.6311722444
 10
72.5960943878
 20
139.6338547574
 10
72.5819555113
 20
139.6360205548
 10
72.5678594446
 20
139.6376741125
 10
72.5538055118
 20
139.6388215481
 10
72.5398121298
 20
139.6394666458
 10
72.5258954008
 20
139.6396144744
 10
72.5120528029
 20
139.6392701338
 10
72.4983028079
 20
139.6384383374
 10
72.4846616841
 20
139.6371246205
 10
72.47112483
 20
139.6353324539
 10
72.4577098053
 20
139.6330672253
 10
72.4444335127
 20
139.6303350858
 10
72.4312915619
 20
139.6271375726
 10
72.4183016257
 20
139.6234808542
 10
72.4054801345
 20
139.6193717451
 10
72.3928220759
 20
139.6148097556
 10
72.3803375288
 20
139.609798208
 10
72.368991384
 20
139.604783187
  0
LINE
  5
500
100
AcDbEntity
  8
DRAFT
100
AcDbLine
 62
7
  6
CONTINUOUS
 10
77.096292894
 20
137.0243384042
 11
77.1816611749
 21
136.9816542637
  0
LINE
  5
501
100
AcDbEntity
  8
DRAFT
100
AcDbLine
 62
7
  6
CONTINUOUS
 10
77.3791356064
 20
137.1657597604
 11
77.4645038873
 21
137.12307562
  0
LINE
  5
502
100
AcDbEntity
  8
DRAFT
100
AcDbLine
 62
7
  6
CONTINUOUS
 10
80.4904054436
 20
135.6101248418
 11
80.5757737246
 21
135.5674407014
  0
LINE
  5
503
100
AcDbEntity
  8
0
100
AcDbLine
 62
253
  6
CONTINUOUS
 10
75.7161187989
 20
138.0222250813
 11
76.5004008161
 21
137.6300840727
  0
LINE
  5
504
100
AcDbEntity
  8
0
100
AcDbLine
 62
253
  6
CONTINUOUS
 10
73.3891309789
 20
139.1857189913
 11
72.5858401711
 21
139.5873643952
  0
LINE
  5
505
100
AcDbEntity
  8
0
100
AcDbLine
 62
7
  6
CONTINUOUS
 10
72.7163001176
 20
139.5940743529
 11
73.6485703793
 21
139.1279392221
  0
LINE
  5
506
100
AcDbEntity
  8
0
100
AcDbLine
 62
7
  6
CONTINUOUS
 10
75.7176031269
 20
138.0934228483
 11
76.7598402165
 21
137.5723043035
  0
LINE
  5
507
100
AcDbEntity
  8
DRAFT
100
AcDbLine
 62
7
  6
CONTINUOUS
 10
74.4815167379
 20
138.7238460201
 11
75.9951868343
 21
137.9670109719
  0
LINE
  5
508
100
AcDbEntity
  8
DRAFT
100
AcDbLine
 62
7
  6
CONTINUOUS
 10
77.5927865751
 20
137.1682111015
 11
79.1064566715
 21
136.4113760533
  0
LINE
  5
509
100
AcDbEntity
  8
DRAFT
100
AcDbLine
 62
7
  6
CONTINUOUS
 10
74.5181063364
 20
138.8275091002
 11
76.0293079138
 21
138.0719083115
  0
LINE
  5
50A
100
AcDbEntity
  8
DRAFT
100
AcDbLine
 62
7
  6
CONTINUOUS
 10
77.6293761736
 20
137.2718741816
 11
79.1405777511
 21
136.5162733929
  0
LINE
  5
50B
100
AcDbEntity
  8
DRAFT
100
AcDbLine
 62
7
  6
CONTINUOUS
 10
74.6241723536
 20
138.8805421088
 11
76.135373931
 21
138.1249413201
  0
LINE
  5
50C
100
AcDbEntity
  8
DRAFT
100
AcDbLine
 62
7
  6
CONTINUOUS
 10
77.7354421908
 20
137.3249071902
 11
79.2466437682
 21
136.5693064015
  0
LINE
  5
50D
100
AcDbEntity
  8
DRAFT
100
AcDbLine
 62
7
  6
CONTINUOUS
 10
74.7643594504
 20
138.8652673763
 11
76.2780295467
 21
138.1084323281
  0
LINE
  5
50E
100
AcDbEntity
  8
DRAFT
100
AcDbLine
 62
7
  6
CONTINUOUS
 10
77.8756292876
 20
137.3096324577
 11
79.3892993839
 21
136.5527974095
  0
LINE
  5
50F
100
AcDbEntity
  8
DRAFT
100
AcDbLine
 62
7
  6
CONTINUOUS
 10
74.8009490489
 20
138.9689304565
 11
76.3121506263
 21
138.2133296678
  0
LINE
  5
510
100
AcDbEntity
  8
DRAFT
100
AcDbLine
 62
7
  6
CONTINUOUS
 10
77.9122188861
 20
137.4132955379
 11
79.4234204635
 21
136.6576947492
  0
LINE
  5
511
100
AcDbEntity
  8
DRAFT
100
AcDbLine
 62
7
  6
CONTINUOUS
 10
74.9070150661
 20
139.0219634651
 11
76.4182166435
 21
138.2663626764
  0
LINE
  5
512
100
AcDbEntity
  8
DRAFT
100
AcDbLine
 62
7
  6
CONTINUOUS
 10
78.0182849033
 20
137.4663285465
 11
79.5294864807
 21
136.7107277578
  0
LINE
  5
513
100
AcDbEntity
  8
DRAFT
100
AcDbLine
 62
7
  6
CONTINUOUS
 10
75.0472021628
 20
139.0066887326
 11
76.5608722592
 21
138.2498536844
  0
LINE
  5
514
100
AcDbEntity
  8
DRAFT
100
AcDbLine
 62
7
  6
CONTINUOUS
 10
78.1584720001
 20
137.4510538139
 11
79.6721420964
 21
136.6942187658
  0
LINE
  5
515
100
AcDbEntity
  8
0
100
AcDbLine
 62
253
  6
CONTINUOUS
 10
73.6732255474
 20
139.7042114807
 11
74.0974896161
 21
139.4920794464
  0
LINE
  5
516
100
AcDbEntity
  8
DRAFT
100
AcDbLine
 62
7
  6
CONTINUOUS
 10
75.0837917614
 20
139.1103518127
 11
76.5949933388
 21
138.354751024
  0
LINE
  5
517
100
AcDbEntity
  8
DRAFT
100
AcDbLine
 62
7
  6
CONTINUOUS
 10
78.1950615986
 20
137.5547168941
 11
79.706263176
 21
136.7991161054
  0
LINE
  5
518
100
AcDbEntity
  8
0
100
AcDbLine
 62
7
  6
CONTINUOUS
 10
73.8968323451
 20
139.7184123743
 11
74.3210964138
 21
139.50628034
  0
LINE
  5
519
100
AcDbEntity
  8
DRAFT
100
AcDbLine
 62
7
  6
CONTINUOUS
 10
75.1898577785
 20
139.1633848213
 11
76.701059356
 21
138.4077840326
  0
LINE
  5
51A
100
AcDbEntity
  8
DRAFT
100
AcDbLine
 62
7
  6
CONTINUOUS
 10
78.3011276158
 20
137.6077499027
 11
79.8123291932
 21
136.852149114
  0
LINE
  5
51B
100
AcDbEntity
  8
DRAFT
100
AcDbLine
 62
7
  6
CONTINUOUS
 10
75.3300448753
 20
139.1481100888
 11
76.8437149717
 21
138.3912750406
  0
LINE
  5
51C
100
AcDbEntity
  8
DRAFT
100
AcDbLine
 62
7
  6
CONTINUOUS
 10
78.4413147125
 20
137.5924751702
 11
79.9549848089
 21
136.835640122
  0
LINE
  5
51D
100
AcDbEntity
  8
DRAFT
100
AcDbLine
 62
7
  6
CONTINUOUS
 10
75.3666344738
 20
139.251773169
 11
76.8778360513
 21
138.4961723803
  0
LINE
  5
51E
100
AcDbEntity
  8
DRAFT
100
AcDbLine
 62
7
  6
CONTINUOUS
 10
78.4779043111
 20
137.6961382503
 11
79.9891058885
 21
136.9405374616
  0
LWPOLYLINE
  5
51F
100
AcDbEntity
  8
0
100
AcDbPolyline
 62
7
  6
CONTINUOUS
 90
102
 70
0
 10
80.482379379
 20
132.730515174
 10
80.4982569881
 20
132.7174360792
 10
80.541505422
 20
132.6805698553
 10
80.5844346647
 20
132.6427278281
 10
80.6269888712
 20
132.6039624672
 10
80.6691315
 20
132.5643128136
 10
80.710866842
 20
132.5237804852
 10
80.7522005051
 20
132.482363671
 10
80.793126491
 20
132.4400704011
 10
80.8336175785
 20
132.3969307174
 10
80.8736471882
 20
132.3529757549
 10
80.9131960546
 20
132.3082300701
 10
80.9522519868
 20
132.2627107682
 10
80.9907993919
 20
132.2164390777
 10
81.0288199629
 20
132.1694401066
 10
81.0663016006
 20
132.1217318617
 10
81.103237778
 20
132.0733249749
 10
81.1396190218
 20
132.0242332787
 10
81.1754245222
 20
131.9744861713
 10
81.2106309617
 20
131.924118144
 10
81.2452181592
 20
131.8731610102
 10
81.2791784856
 20
131.8216288781
 10
81.3125076062
 20
131.7695300729
 10
81.3451959065
 20
131.7168803103
 10
81.3772251145
 20
131.6637095976
 10
81.4085779052
 20
131.610047783
 10
81.4392394277
 20
131.5559217214
 10
81.4691988148
 20
131.5013519357
 10
81.4984451887
 20
131.4463591778
 10
81.5269660273
 20
131.3909676855
 10
81.5547493707
 20
131.3352012595
 10
81.5817852907
 20
131.279080062
 10
81.6080623335
 20
131.2226277303
 10
81.6335687367
 20
131.1658692439
 10
81.6582942753
 20
131.1088268175
 10
81.6822289892
 20
131.0515224546
 10
81.7053610499
 20
130.993983303
 10
81.7276780103
 20
130.9362393964
 10
81.7491674733
 20
130.8783223996
 10
81.7698225063
 20
130.8202503835
 10
81.7896389039
 20
130.7620329065
 10
81.8086103527
 20
130.7036842023
 10
81.8267237709
 20
130.6452397742
 10
81.8439653512
 20
130.5867409639
 10
81.8603240289
 20
130.5282238102
 10
81.875795388
 20
130.4697022608
 10
81.8903760725
 20
130.4111843622
 10
81.9040598374
 20
130.3526877077
 10
81.9168371749
 20
130.2942446351
 10
81.9286998036
 20
130.235885045
 10
81.9396412698
 20
130.1776320413
 10
81.9496547278
 20
130.1195122395
 10
81.9587325367
 20
130.0615603268
 10
81.9668676844
 20
130.0038131956
 10
81.9740571397
 20
129.9462829341
 10
81.980298872
 20
129.8889667806
 10
81.9855893814
 20
129.8318618064
 10
81.9899198585
 20
129.7750205369
 10
81.9932822424
 20
129.7185223169
 10
81.9956732392
 20
129.6624242917
 10
81.9970933202
 20
129.6067154971
 10
81.9975408955
 20
129.5513723968
 10
81.9970116561
 20
129.4963884482
 10
81.9955016071
 20
129.4418183526
 10
81.9930099706
 20
129.3877296531
 10
81.9895372041
 20
129.3341580998
 10
81.9850825286
 20
129.2811121214
 10
81.979646223
 20
129.2286162088
 10
81.9732287111
 20
129.176692243
 10
81.9658306039
 20
129.1253613365
 10
81.9574529998
 20
129.0746458932
 10
81.9480923734
 20
129.0245429796
 10
81.9377539708
 20
128.9750979504
 10
81.9264566686
 20
128.9264019308
 10
81.9142162036
 20
128.8785079879
 10
81.9010308778
 20
128.8313964133
 10
81.8868956275
 20
128.7850471617
 10
81.8718014063
 20
128.7394389722
 10
81.8557650701
 20
128.6946310902
 10
81.8388236222
 20
128.6507212175
 10
81.8210003439
 20
128.6077524117
 10
81.8022946216
 20
128.5657071101
 10
81.7827124541
 20
128.5245879009
 10
81.7622599718
 20
128.4843994516
 10
81.7409523749
 20
128.4451639853
 10
81.7188102237
 20
128.4069098424
 10
81.6958399067
 20
128.3696385815
 10
81.6720606099
 20
128.3333723235
 10
81.6475171055
 20
128.298165662
 10
81.6222500571
 20
128.2640568242
 10
81.5962550012
 20
128.2310203927
 10
81.5695094763
 20
128.1990162323
 10
81.5420100473
 20
128.1680351692
 10
81.5137894434
 20
128.1381091153
 10
81.4848781943
 20
128.1092624184
 10
81.4553032886
 20
128.081511976
 10
81.4250739925
 20
128.0548566113
 10
81.3941956357
 20
128.0292931296
 10
81.3626868518
 20
128.004830135
 10
81.3305660805
 20
127.9814751366
 10
81.2978376667
 20
127.9592255591
 10
81.2714167669
 20
127.9424645039
  0
LWPOLYLINE
  5
520
100
AcDbEntity
  8
0
100
AcDbPolyline
 62
253
  6
CONTINUOUS
 90
102
 70
0
 10
80.4446641258
 20
132.6838450448
 10
80.456064352
 20
132.6741032061
 10
80.4981517137
 20
132.6369503097
 10
80.5399517537
 20
132.5988554984
 10
80.581445807
 20
132.5598357826
 10
80.6226153454
 20
132.5199085856
 10
80.6634419857
 20
132.4790917359
 10
80.7039074977
 20
132.4374034594
 10
80.7439938126
 20
132.3948623709
 10
80.7836830306
 20
132.3514874663
 10
80.8229574296
 20
132.3072981134
 10
80.8617994724
 20
132.2623140441
 10
80.9001918151
 20
132.2165553448
 10
80.9381173145
 20
132.1700424481
 10
80.9755590358
 20
132.1227961232
 10
81.0125002604
 20
132.0748374668
 10
81.048924493
 20
132.0261878937
 10
81.0848154692
 20
131.9768691273
 10
81.1201571628
 20
131.9269031896
 10
81.1549337928
 20
131.8763123917
 10
81.1891298304
 20
131.8251193239
 10
81.2227300063
 20
131.773346845
 10
81.2557193172
 20
131.721018073
 10
81.2880830323
 20
131.668156374
 10
81.3198067005
 20
131.6147853521
 10
81.3508761562
 20
131.5609288388
 10
81.3812775263
 20
131.5066108826
 10
81.4109972356
 20
131.4518557379
 10
81.4400220135
 20
131.3966878541
 10
81.4683388998
 20
131.3411318653
 10
81.4959352501
 20
131.2852125787
 10
81.5227987419
 20
131.2289549637
 10
81.5489173801
 20
131.1723841408
 10
81.574279502
 20
131.1155253704
 10
81.5988737826
 20
131.0584040413
 10
81.6226892401
 20
131.0010456598
 10
81.6457152401
 20
130.943475838
 10
81.667941501
 20
130.8857202822
 10
81.6893580982
 20
130.8278047817
 10
81.7099554685
 20
130.7697551976
 10
81.7297244148
 20
130.7115974502
 10
81.7486561096
 20
130.6533575087
 10
81.7667420995
 20
130.5950613787
 10
81.7839743085
 20
130.536735091
 10
81.8003450421
 20
130.4784046898
 10
81.8158469903
 20
130.4200962211
 10
81.8304732311
 20
130.3618357213
 10
81.8442172334
 20
130.303649205
 10
81.8570728603
 20
130.2455626543
 10
81.8690343712
 20
130.1876020061
 10
81.8800964252
 20
130.1297931416
 10
81.8902540827
 20
130.0721618739
 10
81.899502808
 20
130.0147339368
 10
81.9078384713
 20
129.9575349734
 10
81.9152573506
 20
129.9005905245
 10
81.9217561331
 20
129.8439260175
 10
81.927331917
 20
129.7875667544
 10
81.9319822124
 20
129.7315379012
 10
81.935704943
 20
129.6758644762
 10
81.9384984465
 20
129.620571339
 10
81.9403614754
 20
129.5656831796
 10
81.9412931978
 20
129.5112245068
 10
81.9412931978
 20
129.457219638
 10
81.9403614754
 20
129.4036926877
 10
81.9384984465
 20
129.3506675572
 10
81.935704943
 20
129.2981679234
 10
81.9319822124
 20
129.246217229
 10
81.927331917
 20
129.1948386713
 10
81.9217561331
 20
129.1440551921
 10
81.9152573506
 20
129.0938894675
 10
81.9078384713
 20
129.044363898
 10
81.8995028079
 20
128.995500598
 10
81.8902540826
 20
128.9473213861
 10
81.8800964252
 20
128.8998477758
 10
81.8690343712
 20
128.8531009653
 10
81.8570728603
 20
128.8071018281
 10
81.8442172334
 20
128.7618709042
 10
81.8304732311
 20
128.7174283903
 10
81.8158469903
 20
128.6737941312
 10
81.8003450421
 20
128.6309876107
 10
81.7839743085
 20
128.5890279431
 10
81.7667420994
 20
128.5479338645
 10
81.7486561096
 20
128.5077237244
 10
81.7297244147
 20
128.4684154777
 10
81.7099554685
 20
128.4300266766
 10
81.6893580981
 20
128.3925744628
 10
81.667941501
 20
128.3560755595
 10
81.6457152401
 20
128.3205462646
 10
81.6226892401
 20
128.2860024428
 10
81.5988737826
 20
128.2524595187
 10
81.5742795019
 20
128.2199324703
 10
81.5489173801
 20
128.1884358218
 10
81.5227987419
 20
128.157983637
 10
81.49593525
 20
128.1285895139
 10
81.4683388997
 20
128.1002665776
 10
81.4400220135
 20
128.0730274751
 10
81.4109972355
 20
128.0468843693
 10
81.3812775262
 20
128.0218489338
 10
81.3508761562
 20
127.9979323477
 10
81.3198067004
 20
127.9751452902
 10
81.2880830322
 20
127.9534979365
 10
81.2714167669
 20
127.9429421384
  0
LWPOLYLINE
  5
521
100
AcDbEntity
  8
0
100
AcDbPolyline
 62
253
  6
CONTINUOUS
 90
26
 70
0
 10
79.8367749227
 20
134.5212468478
 10
79.836722405
 20
134.5213321493
 10
79.8360625398
 20
134.5219683349
 10
79.8350486898
 20
134.5223977299
 10
79.8336822419
 20
134.5226197471
 10
79.8319650648
 20
134.5226340829
 10
79.8298995071
 20
134.5224407176
 10
79.8274883939
 20
134.5220399157
 10
79.8247350228
 20
134.5214322253
 10
79.8216431595
 20
134.5206184777
 10
79.8182170327
 20
134.5195997857
 10
79.8144613284
 20
134.5183775426
 10
79.8103811831
 20
134.51695342
 10
79.8059821771
 20
134.5153293657
 10
79.8012703271
 20
134.513507601
 10
79.7962520772
 20
134.5114906173
 10
79.7909342909
 20
134.5092811733
 10
79.7853242413
 20
134.5068822909
 10
79.7794296011
 20
134.5042972508
 10
79.7732584324
 20
134.5015295888
 10
79.7668191753
 20
134.49858309
 10
79.7601206369
 20
134.4954617844
 10
79.7531719785
 20
134.4921699409
 10
79.7459827038
 20
134.4887120618
 10
79.7385626454
 20
134.4850928762
 10
79.7309219517
 20
134.4813173342
  0
LWPOLYLINE
  5
522
100
AcDbEntity
  8
0
100
AcDbPolyline
 62
253
  6
CONTINUOUS
 90
32
 70
0
 10
80.2078947954
 20
135.8446494414
 10
80.2043204781
 20
135.8505069796
 10
80.199503173
 20
135.8575573256
 10
80.1943858386
 20
135.8641696163
 10
80.188982997
 20
135.8703369687
 10
80.1833039023
 20
135.8760621718
 10
80.1773569973
 20
135.8813502051
 10
80.1711563354
 20
135.8861979828
 10
80.1647126182
 20
135.8906087119
 10
80.1580347335
 20
135.8945883597
 10
80.1511344545
 20
135.898138314
 10
80.1440244653
 20
135.9012620791
 10
80.1367127629
 20
135.9039662655
 10
80.129203228
 20
135.9062564551
 10
80.121506694
 20
135.9081371907
 10
80.113631658
 20
135.9096134628
 10
80.1055761768
 20
135.9106901312
 10
80.0973435003
 20
135.9113715053
 10
80.0889470183
 20
135.9116613065
 10
80.0803990341
 20
135.9115629513
 10
80.0717054536
 20
135.911079397
 10
80.0628784708
 20
135.9102168187
 10
80.0539417065
 20
135.9089847359
 10
80.0449073259
 20
135.9073870727
 10
80.035784617
 20
135.9054314597
 10
80.0265955183
 20
135.9031347899
 10
80.0173539087
 20
135.9005023398
 10
80.008069342
 20
135.8975420346
 10
79.9987591518
 20
135.8942761064
 10
79.9894374704
 20
135.8907168764
 10
79.9801142546
 20
135.8868660844
 10
79.9708010719
 20
135.8827305395
  0
LWPOLYLINE
  5
523
100
AcDbEntity
  8
0
100
AcDbPolyline
 62
7
  6
CONTINUOUS
 90
42
 70
0
 10
80.2079217248
 20
135.8446032671
 10
80.2050456237
 20
135.8494895932
 10
80.197594471
 20
135.8614999442
 10
80.1898358233
 20
135.8731093025
 10
80.1817780838
 20
135.8843103912
 10
80.1734379696
 20
135.8950878071
 10
80.1648270142
 20
135.9054359041
 10
80.1559578256
 20
135.9153478482
 10
80.1468531319
 20
135.9248086758
 10
80.1375285194
 20
135.9338147973
 10
80.1280019111
 20
135.9423615013
 10
80.1183038008
 20
135.9504352463
 10
80.1084684676
 20
135.9580247319
 10
80.0985041948
 20
135.965141687
 10
80.0884023285
 20
135.9718068488
 10
80.0781971903
 20
135.9780110308
 10
80.067895589
 20
135.9837643265
 10
80.0574397378
 20
135.9891073827
 10
80.0468257178
 20
135.9940443118
 10
80.0360891201
 20
135.9985609956
 10
80.025224481
 20
136.0026626352
 10
80.0142468992
 20
136.0063455614
 10
80.0031731383
 20
136.0096067588
 10
79.9919980585
 20
136.0124496296
 10
79.9807396661
 20
136.0148706873
 10
79.9694125069
 20
136.0168682811
 10
79.9580030197
 20
136.0184448908
 10
79.9465268618
 20
136.0195975419
 10
79.9350003004
 20
136.0203244032
 10
79.9234075118
 20
136.0206246793
 10
79.9117621702
 20
136.0204945173
 10
79.900080425
 20
136.0199312125
 10
79.8883478835
 20
136.018930747
 10
79.876579336
 20
136.0174893615
 10
79.8647905792
 20
136.015603776
 10
79.8529659178
 20
136.013265043
 10
79.8411210624
 20
136.0104697225
 10
79.8292718658
 20
136.007214891
 10
79.8174009212
 20
136.0034866789
 10
79.8055127761
 20
135.9992760247
 10
79.793636426
 20
135.9945844098
 10
79.7890328532
 20
135.9926330732
  0
LINE
  5
524
100
AcDbEntity
  8
0
100
AcDbLine
 62
7
  6
CONTINUOUS
 10
80.2079183582
 20
135.844608812
 11
80.2078947954
 21
135.8446494414
  0
LINE
  5
525
100
AcDbEntity
  8
0
100
AcDbLine
 62
253
  6
CONTINUOUS
 10
79.9708011027
 20
135.8827304866
 11
80.3702077432
 21
135.1938556509
  0
LINE
  5
526
100
AcDbEntity
  8
0
100
AcDbLine
 62
7
  6
CONTINUOUS
 10
80.2079917522
 20
135.8444822262
 11
80.6016908636
 21
135.165451703
  0
LWPOLYLINE
  5
527
100
AcDbEntity
  8
0
100
AcDbPolyline
 62
253
  6
CONTINUOUS
 90
19
 70
0
 10
80.3702139694
 20
135.1938588185
 10
80.3745216441
 20
135.1862887551
 10
80.3786261585
 20
135.1785928553
 10
80.3825197021
 20
135.1707857641
 10
80.3861948657
 20
135.162882338
 10
80.3896446557
 20
135.1548976169
 10
80.3928625074
 20
135.1468467951
 10
80.3958422976
 20
135.1387451931
 10
80.3985783559
 20
135.1306082276
 10
80.4010654758
 20
135.1224513829
 10
80.4032989245
 20
135.114290181
 10
80.405274452
 20
135.1061401521
 10
80.406988299
 20
135.0980168052
 10
80.4084372043
 20
135.0899355986
 10
80.4096184107
 20
135.0819119103
 10
80.4105296705
 20
135.0739610088
 10
80.4111692496
 20
135.0660980242
 10
80.411535931
 20
135.0583379193
 10
80.411629017
 20
135.0506954611
  0
LWPOLYLINE
  5
528
100
AcDbEntity
  8
0
100
AcDbPolyline
 62
253
  6
CONTINUOUS
 90
36
 70
0
 10
79.9708074199
 20
135.8827332164
 10
79.9668352805
 20
135.8899100194
 10
79.9626949934
 20
135.8969487363
 10
79.9583936276
 20
135.9038373488
 10
79.9539385275
 20
135.9105640954
 10
79.9493372997
 20
135.9171174906
 10
79.9445978004
 20
135.923486345
 10
79.9397281221
 20
135.9296597844
 10
79.9347365791
 20
135.9356272681
 10
79.9296316943
 20
135.9413786072
 10
79.9244221837
 20
135.9469039816
 10
79.9191169422
 20
135.9521939573
 10
79.913725028
 20
135.957239502
 10
79.9082556473
 20
135.962032001
 10
79.9027181388
 20
135.9665632714
 10
79.8971219572
 20
135.9708255765
 10
79.8914766576
 20
135.9748116387
 10
79.8857918788
 20
135.9785146521
 10
79.8800773271
 20
135.9819282942
 10
79.8743427596
 20
135.9850467365
 10
79.8685979678
 20
135.9878646544
 10
79.8628527602
 20
135.9903772366
 10
79.8571169464
 20
135.992580193
 10
79.8514003198
 20
135.9944697624
 10
79.8457126411
 20
135.9960427184
 10
79.8400636216
 20
135.9972963753
 10
79.8344629063
 20
135.9982285926
 10
79.8289200582
 20
135.9988377787
 10
79.8234445412
 20
135.9991228934
 10
79.8180457042
 20
135.9990834498
 10
79.8127327654
 20
135.9987195154
 10
79.8075147961
 20
135.9980317115
 10
79.8024007055
 20
135.9970212125
 10
79.7973992257
 20
135.9956897437
 10
79.7925188962
 20
135.9940395785
 10
79.7890327759
 20
135.9926332521
  0
LINE
  5
529
100
AcDbEntity
  8
DRAFT
100
AcDbLine
 62
7
  6
CONTINUOUS
 10
79.5660760792
 20
136.6411857572
 11
79.5294864807
 21
136.7107277578
  0
LINE
  5
52A
100
AcDbEntity
  8
DRAFT
100
AcDbLine
 62
7
  6
CONTINUOUS
 10
79.8489187917
 20
136.7826071134
 11
79.8123291932
 21
136.852149114
  0
LINE
  5
52B
100
AcDbEntity
  8
DRAFT
100
AcDbLine
 62
7
  6
CONTINUOUS
 10
80.1317615042
 20
136.9240284696
 11
80.0951719057
 21
136.9935704702
  0
LINE
  5
52C
100
AcDbEntity
  8
DRAFT
100
AcDbLine
 62
7
  6
CONTINUOUS
 10
80.4146042167
 20
137.0654498259
 11
80.3780146181
 21
137.1349918265
  0
LINE
  5
52D
100
AcDbEntity
  8
DRAFT
100
AcDbLine
 62
7
  6
CONTINUOUS
 10
80.6974469291
 20
137.2068711821
 11
80.6608573306
 21
137.2764131827
  0
LINE
  5
52E
100
AcDbEntity
  8
DRAFT
100
AcDbLine
 62
7
  6
CONTINUOUS
 10
80.541652645
 20
135.6357484425
 11
80.5757737246
 21
135.5674407014
  0
LINE
  5
52F
100
AcDbEntity
  8
DRAFT
100
AcDbLine
 62
7
  6
CONTINUOUS
 10
75.472700491
 20
139.3048061775
 11
76.9839020684
 21
138.5492053888
  0
LINE
  5
530
100
AcDbEntity
  8
DRAFT
100
AcDbLine
 62
7
  6
CONTINUOUS
 10
78.5839703282
 20
137.7491712589
 11
80.0951719057
 21
136.9935704702
  0
LINE
  5
531
100
AcDbEntity
  8
DRAFT
100
AcDbLine
 62
7
  6
CONTINUOUS
 10
75.6128875878
 20
139.289531445
 11
77.1265576842
 21
138.5326963968
  0
LINE
  5
532
100
AcDbEntity
  8
DRAFT
100
AcDbLine
 62
7
  6
CONTINUOUS
 10
78.724157425
 20
137.7338965264
 11
80.2378275214
 21
136.9770614782
  0
LINE
  5
533
100
AcDbEntity
  8
DRAFT
100
AcDbLine
 62
7
  6
CONTINUOUS
 10
75.6494771863
 20
139.3931945252
 11
77.1606787637
 21
138.6375937365
  0
LINE
  5
534
100
AcDbEntity
  8
DRAFT
100
AcDbLine
 62
7
  6
CONTINUOUS
 10
78.7607470235
 20
137.8375596066
 11
80.271948601
 21
137.0819588179
  0
LINE
  5
535
100
AcDbEntity
  8
DRAFT
100
AcDbLine
 62
7
  6
CONTINUOUS
 10
75.7555432035
 20
139.4462275338
 11
77.2667447809
 21
138.6906267451
  0
LINE
  5
536
100
AcDbEntity
  8
DRAFT
100
AcDbLine
 62
7
  6
CONTINUOUS
 10
78.8668130407
 20
137.8905926152
 11
80.3780146181
 21
137.1349918265
  0
LINE
  5
537
100
AcDbEntity
  8
DRAFT
100
AcDbLine
 62
7
  6
CONTINUOUS
 10
75.8957303003
 20
139.4309528013
 11
77.4094003966
 21
138.6741177531
  0
LINE
  5
538
100
AcDbEntity
  8
DRAFT
100
AcDbLine
 62
7
  6
CONTINUOUS
 10
79.0070001375
 20
137.8753178827
 11
80.5206702338
 21
137.1184828345
  0
LINE
  5
539
100
AcDbEntity
  8
DRAFT
100
AcDbLine
 62
7
  6
CONTINUOUS
 10
75.9323198988
 20
139.5346158814
 11
77.4435214762
 21
138.7790150927
  0
LINE
  5
53A
100
AcDbEntity
  8
DRAFT
100
AcDbLine
 62
7
  6
CONTINUOUS
 10
79.043589736
 20
137.9789809628
 11
80.5547913134
 21
137.2233801741
  0
LINE
  5
53B
100
AcDbEntity
  8
RACCORDO
100
AcDbLine
 62
7
  6
CONTINUOUS
 10
80.769776032
 20
137.2047891703
 11
80.6731125965
 21
137.2531208881
  0
LINE
  5
53C
100
AcDbEntity
  8
RACCORDO
100
AcDbLine
 62
7
  6
CONTINUOUS
 10
77.6585061948
 20
138.760424089
 11
77.5618427593
 21
138.8087558067
  0
LINE
  5
53D
100
AcDbEntity
  8
DRAFT
100
AcDbLine
 62
7
  6
CONTINUOUS
 10
76.038385916
 20
139.58764889
 11
77.5495874934
 21
138.8320481013
  0
LINE
  5
53E
100
AcDbEntity
  8
DRAFT
100
AcDbLine
 62
7
  6
CONTINUOUS
 10
79.1496557532
 20
138.0320139714
 11
80.6608573306
 21
137.2764131827
  0
ELLIPSE
  5
53F
100
AcDbEntity
  8
DRAFT
100
AcDbEllipse
 62
7
  6
CONTINUOUS
 10
77.6601925116
 20
137.306288213
 30
0.0
 11
0.0462229684
 21
0.0886861576
 31
0.0
 40
0.6035364256
 41
-1.0589186273
 42
-0.8759289409
  0
ELLIPSE
  5
540
100
AcDbEntity
  8
RACCORDO
100
AcDbEllipse
 62
7
  6
CONTINUOUS
 10
69.3070674703
 20
135.8805165436
 30
0.0
 11
0.1386689053
 21
0.2660584729
 31
0.0
 40
0.6035364256
 41
0.6948673859
 42
1.1054037811
  0
ELLIPSE
  5
541
100
AcDbEntity
  8
DRAFT
100
AcDbEllipse
 62
7
  6
CONTINUOUS
 10
77.5709485801
 20
138.5805960985
 30
0.0
 11
0.086325054
 21
0.1804312186
 31
0.0
 40
0.6209844714
 41
5.3863034069
 42
6.8317719026
  0
ELLIPSE
  5
542
100
AcDbEntity
  8
DRAFT
100
AcDbEllipse
 62
7
  6
CONTINUOUS
 10
80.7714623489
 20
135.7506532944
 30
0.0
 11
0.0462229684
 21
0.0886861576
 31
0.0
 40
0.6035364256
 41
-2.4467252677
 42
-0.8759289409
  0
ELLIPSE
  5
543
100
AcDbEntity
  8
RACCORDO
100
AcDbEllipse
 62
7
  6
CONTINUOUS
 10
72.4183373075
 20
134.324881625
 30
0.0
 11
0.1386689053
 21
0.2660584729
 31
0.0
 40
0.6035364256
 41
0.6948673859
 42
1.1054037811
  0
ELLIPSE
  5
544
100
AcDbEntity
  8
DRAFT
100
AcDbEllipse
 62
7
  6
CONTINUOUS
 10
80.6822184173
 20
137.0249611799
 30
0.0
 11
0.086325054
 21
0.1804312186
 31
0.0
 40
0.6209844714
 41
5.3863034069
 42
6.8317719026
  0
ELLIPSE
  5
545
100
AcDbEntity
  8
0
100
AcDbEllipse
 62
7
  6
CONTINUOUS
 10
68.6058808219
 20
124.0063261515
 30
0.0
 11
0.4349639225
 21
0.9005141702
 31
0.0
 40
0.6016116119
 41
0.6764898932
 42
2.24728622
  0
ELLIPSE
  5
546
100
AcDbEntity
  8
0
100
AcDbEllipse
 62
7
  6
CONTINUOUS
 10
69.4146972317
 20
128.9866202035
 30
0.0
 11
-0.894612936
 21
1.7887945813
 31
0.0
 40
0.6124635976
 41
4.0276245976
 42
4.8128965892
  0
ELLIPSE
  5
547
100
AcDbEntity
  8
0
100
AcDbEllipse
 62
7
  6
CONTINUOUS
 10
69.4146972317
 20
98.4939877834
 30
0.0
 11
-0.894811907
 21
1.788971565
 31
0.0
 40
0.6123121697
 41
-3.0410143285
 42
-2.2557423369
  0
ELLIPSE
  5
548
100
AcDbEntity
  8
0
100
AcDbEllipse
 62
7
  6
CONTINUOUS
 10
69.9943388092
 20
122.4916143874
 30
0.0
 11
0.2697619714
 21
0.1869451725
 31
0.0
 40
0.4547882133
 41
-0.3053140568
 42
1.26548227
  0
ELLIPSE
  5
549
100
AcDbEntity
  8
0
100
AcDbEllipse
 62
7
  6
CONTINUOUS
 10
69.9943388092
 20
119.3739229338
 30
0.0
 11
0.2697619714
 21
0.1869451725
 31
0.0
 40
0.4547882133
 41
-0.7260408203
 42
-0.3053140568
  0
ELLIPSE
  5
54A
100
AcDbEntity
  8
0
100
AcDbEllipse
 62
7
  6
CONTINUOUS
 10
69.9943388092
 20
106.9031571193
 30
0.0
 11
0.2697619714
 21
0.1869451725
 31
0.0
 40
0.4547882133
 41
-0.3053140568
 42
1.26548227
  0
ELLIPSE
  5
54B
100
AcDbEntity
  8
0
100
AcDbEllipse
 62
7
  6
CONTINUOUS
 10
69.9943388092
 20
103.7854656657
 30
0.0
 11
0.2697619714
 21
0.1869451725
 31
0.0
 40
0.4547882133
 41
-0.7260408203
 42
-0.3053140568
  0
ELLIPSE
  5
54C
100
AcDbEntity
  8
RACCORDO
100
AcDbEllipse
 62
7
  6
CONTINUOUS
 10
56.7846172155
 20
133.8904821338
 30
0.0
 11
1.2141619185
 21
0.9541526469
 31
0.0
 40
0.2329077568
 41
0.1095198182
 42
0.114024621
  0
ELLIPSE
  5
54D
100
AcDbEntity
  8
0
100
AcDbEllipse
 62
7
  6
CONTINUOUS
 10
68.6058808219
 20
99.7576148455
 30
0.0
 11
0.4349639225
 21
0.9005141702
 31
0.0
 40
0.6016116119
 41
2.24728622
 42
3.8180825468
  0
ELLIPSE
  5
54E
100
AcDbEntity
  8
RACCORDO
100
AcDbEllipse
 62
7
  6
CONTINUOUS
 10
47.3712810392
 20
133.9342671662
 30
0.0
 11
-0.2786191524
 21
0.7501668109
 31
0.0
 40
0.6610921126
 41
-0.6157157441
 42
0.0213201202
  0
ELLIPSE
  5
54F
100
AcDbEntity
  8
RACCORDO
100
AcDbEllipse
 62
7
  6
CONTINUOUS
 10
61.6546656797
 20
126.792574846
 30
0.0
 11
-0.2783604326
 21
0.7500177284
 31
0.0
 40
0.6614719787
 41
-2.1862531203
 42
-0.61576138
  0
ELLIPSE
  5
550
100
AcDbEntity
  8
RACCORDO
100
AcDbEllipse
 62
7
  6
CONTINUOUS
 10
58.5725205511
 20
89.3362850728
 30
0.0
 11
-0.2786191524
 21
0.7501668109
 31
0.0
 40
0.6610921126
 41
-3.1630638698
 42
-2.1868166574
  0
ELLIPSE
  5
551
100
AcDbEntity
  8
0
100
AcDbEllipse
 62
7
  6
CONTINUOUS
 10
76.7051278576
 20
137.4718473618
 30
0.0
 11
-0.1341484654
 21
0.2683369961
 31
0.0
 40
0.6125552124
 41
-2.255296188
 42
-2.238147482
  0
ELLIPSE
  5
552
100
AcDbEntity
  8
0
100
AcDbEllipse
 62
7
  6
CONTINUOUS
 10
73.5938580204
 20
139.0274822804
 30
0.0
 11
-0.1341484654
 21
0.2683369961
 31
0.0
 40
0.6125552124
 41
-2.255296188
 42
-2.238147482
  0
ELLIPSE
  5
553
100
AcDbEntity
  8
0
100
AcDbEllipse
 62
7
  6
CONTINUOUS
 10
70.0685883918
 20
103.1712235574
 30
0.0
 11
0.2174819613
 21
0.4502570851
 31
0.0
 40
0.6016116119
 41
-2.4651027604
 42
-0.8943064336
  0
ELLIPSE
  5
554
100
AcDbEntity
  8
0
100
AcDbEllipse
 62
7
  6
CONTINUOUS
 10
69.7561242978
 20
106.7383438077
 30
0.0
 11
0.2267599918
 21
0.4456316896
 31
0.0
 40
0.6176975122
 41
0.6890773845
 42
2.2598737113
  0
ELLIPSE
  5
555
100
AcDbEntity
  8
0
100
AcDbEllipse
 62
7
  6
CONTINUOUS
 10
70.0685883918
 20
118.7596808255
 30
0.0
 11
0.2174819613
 21
0.4502570851
 31
0.0
 40
0.6016116119
 41
-2.4651027604
 42
-0.8943064336
  0
ELLIPSE
  5
556
100
AcDbEntity
  8
0
100
AcDbEllipse
 62
7
  6
CONTINUOUS
 10
69.7561242978
 20
122.3268010758
 30
0.0
 11
0.2267599918
 21
0.4456316896
 31
0.0
 40
0.6176975122
 41
0.6890773845
 42
2.2598737113
  0
ELLIPSE
  5
557
100
AcDbEntity
  8
0
100
AcDbEllipse
 62
7
  6
CONTINUOUS
 10
68.9860806503
 20
96.5982544562
 30
0.0
 11
-0.4472005764
 21
0.894616689
 31
0.0
 40
0.6122812743
 41
2.4570447386
 42
3.2423167302
  0
ELLIPSE
  5
558
100
AcDbEntity
  8
0
100
AcDbEllipse
 62
7
  6
CONTINUOUS
 10
69.6255950065
 20
98.2866706405
 30
0.0
 11
-0.894811907
 21
1.788971565
 31
0.0
 40
0.6123121697
 41
-3.0410143285
 42
-2.2557423369
  0
ELLIPSE
  5
559
100
AcDbEntity
  8
0
100
AcDbEllipse
 62
7
  6
CONTINUOUS
 10
70.683385189
 20
107.1939521777
 30
0.0
 11
0.2267599918
 21
0.4456316896
 31
0.0
 40
0.6176975122
 41
-0.8817189423
 42
0.6890773845
  0
ELLIPSE
  5
55A
100
AcDbEntity
  8
0
100
AcDbEllipse
 62
7
  6
CONTINUOUS
 10
70.683385189
 20
122.7824094458
 30
0.0
 11
0.2267599918
 21
0.4456316896
 31
0.0
 40
0.6176975122
 41
-0.8817189423
 42
0.6890773845
  0
ELLIPSE
  5
55B
100
AcDbEntity
  8
0
100
AcDbEllipse
 62
7
  6
CONTINUOUS
 10
68.9860806503
 20
131.4523914683
 30
0.0
 11
-0.447101003
 21
0.8945282396
 31
0.0
 40
0.6124326778
 41
-1.4698904957
 42
-0.6846185041
  0
ELLIPSE
  5
55C
100
AcDbEntity
  8
0
100
AcDbEllipse
 62
7
  6
CONTINUOUS
 10
69.6255950065
 20
129.1244609277
 30
0.0
 11
-0.894612936
 21
1.7887945813
 31
0.0
 40
0.6124635976
 41
-2.2555607096
 42
-1.470288718
  0
ELLIPSE
  5
55D
100
AcDbEntity
  8
0
100
AcDbEllipse
 62
7
  6
CONTINUOUS
 10
69.7561242978
 20
102.4082167888
 30
0.0
 11
0.2267599918
 21
0.4456316896
 31
0.0
 40
0.6176975122
 41
2.2598737113
 42
3.8306700381
  0
ELLIPSE
  5
55E
100
AcDbEntity
  8
0
100
AcDbEllipse
 62
7
  6
CONTINUOUS
 10
70.683385189
 20
102.8638251588
 30
0.0
 11
0.2267599918
 21
0.4456316896
 31
0.0
 40
0.6176975122
 41
-2.4525152691
 42
-0.8817189423
  0
ELLIPSE
  5
55F
100
AcDbEntity
  8
0
100
AcDbEllipse
 62
7
  6
CONTINUOUS
 10
69.7561242978
 20
117.9966740569
 30
0.0
 11
0.2267599918
 21
0.4456316896
 31
0.0
 40
0.6176975122
 41
2.2598737113
 42
3.8306700381
  0
ELLIPSE
  5
560
100
AcDbEntity
  8
0
100
AcDbEllipse
 62
7
  6
CONTINUOUS
 10
70.683385189
 20
118.4522824269
 30
0.0
 11
0.2267599918
 21
0.4456316896
 31
0.0
 40
0.6176975122
 41
-2.4525152691
 42
-0.8817189423
  0
ELLIPSE
  5
561
100
AcDbEntity
  8
0
100
AcDbEllipse
 62
7
  6
CONTINUOUS
 10
68.7575356458
 20
100.0326258071
 30
0.0
 11
0.4535199836
 21
0.8912633791
 31
0.0
 40
0.6176975122
 41
-4.0233115959
 42
-2.4699685616
  0
ELLIPSE
  5
562
100
AcDbEntity
  8
0
100
AcDbEllipse
 62
7
  6
CONTINUOUS
 10
68.7575356458
 20
123.7210817222
 30
0.0
 11
0.4535199836
 21
0.8912633791
 31
0.0
 40
0.6176975122
 41
0.706530677
 42
2.2598737113
  0
ELLIPSE
  5
563
100
AcDbEntity
  8
0
100
AcDbEllipse
 62
7
  6
CONTINUOUS
 10
63.8768416714
 20
135.1320798711
 30
0.0
 11
-0.2237009107
 21
0.4473351135
 31
0.0
 40
0.6121897086
 41
-0.6846338794
 42
0.1006119908
  0
ELLIPSE
  5
564
100
AcDbEntity
  8
ASSI
100
AcDbEllipse
 62
7
  6
CONTINUOUS
 10
47.3712810392
 20
133.9342671662
 30
0.0
 11
-0.2786191524
 21
0.7501668109
 31
0.0
 40
0.6610921126
 41
-0.6157157441
 42
0.0213201202
  0
ELLIPSE
  5
565
100
AcDbEntity
  8
ASSI
100
AcDbEllipse
 62
7
  6
CONTINUOUS
 10
61.6546656797
 20
126.792574846
 30
0.0
 11
-0.2783604326
 21
0.7500177284
 31
0.0
 40
0.6614719787
 41
-2.1862531203
 42
-0.61576138
  0
ELLIPSE
  5
566
100
AcDbEntity
  8
ASSI
100
AcDbEllipse
 62
7
  6
CONTINUOUS
 10
58.5725205511
 20
89.3362850728
 30
0.0
 11
-0.2786191524
 21
0.7501668109
 31
0.0
 40
0.6610921126
 41
-3.1630638698
 42
-2.1868166574
  0
ELLIPSE
  5
567
100
AcDbEntity
  8
26814000
100
AcDbEllipse
 62
7
  6
CONTINUOUS
 10
60.1332004488
 20
88.6743994957
 30
0.0
 11
0.110769438
 21
0.2241226716
 31
0.0
 40
0.6088015717
 41
-4.0304836828
 42
-3.1443955108
  0
ELLIPSE
  5
568
100
AcDbEntity
  8
26814000
100
AcDbEllipse
 62
7
  6
CONTINUOUS
 10
46.7688822843
 20
136.909534111
 30
0.0
 11
0.110769438
 21
0.2241226716
 31
0.0
 40
0.6088015717
 41
-4.0304836828
 42
-3.1443650652
  0
ELLIPSE
  5
569
100
AcDbEntity
  8
26814000
100
AcDbEllipse
 62
7
  6
CONTINUOUS
 10
60.1332004488
 20
130.2273750288
 30
0.0
 11
0.110769438
 21
0.2241226716
 31
0.0
 40
0.6088015717
 41
-4.0304836828
 42
-3.1443650652
  0
ELLIPSE
  5
56A
100
AcDbEntity
  8
26814000
100
AcDbEllipse
 62
7
  6
CONTINUOUS
 10
64.18980833
 20
128.9356569797
 30
0.0
 11
-0.1565168911
 21
0.3130623908
 31
0.0
 40
0.6123677712
 41
-2.2554744912
 42
-0.6846781644
  0
ELLIPSE
  5
56B
100
AcDbEntity
  8
26814000
100
AcDbEllipse
 62
7
  6
CONTINUOUS
 10
64.18980833
 20
90.759075135
 30
0.0
 11
-0.1565168911
 21
0.3130623908
 31
0.0
 40
0.6123677712
 41
-3.1363904945
 42
-2.2554744912
  0
ELLIPSE
  5
56C
100
AcDbEntity
  8
26814000
100
AcDbEllipse
 62
7
  6
CONTINUOUS
 10
58.4232127815
 20
138.0408882848
 30
0.0
 11
0.2999991737
 21
-0.0014183462
 31
0.0
 40
0.4964289597
 41
0.7877451926
 42
2.3527237553
  0
ELLIPSE
  5
56D
100
AcDbEntity
  8
26814000
100
AcDbEllipse
 62
7
  6
CONTINUOUS
 10
63.9776762957
 20
135.2636565278
 30
0.0
 11
0.2999991737
 21
-0.0014183462
 31
0.0
 40
0.4964289597
 41
0.7877451926
 42
2.3585415194
  0
ELLIPSE
  5
56E
100
AcDbEntity
  8
26814000
100
AcDbEllipse
 62
7
  6
CONTINUOUS
 10
63.5170284312
 20
129.5532279906
 30
0.0
 11
0.110769438
 21
0.2241226716
 31
0.0
 40
0.6088015717
 41
1.2055040732
 42
2.2526937431
  0
ELLIPSE
  5
56F
100
AcDbEntity
  8
26814000
100
AcDbEllipse
 62
7
  6
CONTINUOUS
 10
50.1527102667
 20
136.2353870728
 30
0.0
 11
0.110769438
 21
0.2241226716
 31
0.0
 40
0.6088015717
 41
1.2055040732
 42
2.2526937431
  0
ELLIPSE
  5
570
100
AcDbEntity
  8
26814000
100
AcDbEllipse
 62
7
  6
CONTINUOUS
 10
63.8685249083
 20
130.4810331426
 30
0.0
 11
0.110769438
 21
0.2241226716
 31
0.0
 40
0.6088015717
 41
-1.9360885804
 42
-0.8888910292
  0
ELLIPSE
  5
571
100
AcDbEntity
  8
26814000
100
AcDbEllipse
 62
7
  6
CONTINUOUS
 10
62.248350052
 20
131.5520495471
 30
0.0
 11
0.1128509832
 21
0.2230818409
 31
0.0
 40
0.6159267166
 41
0.0028979148
 42
0.6817883054
  0
ELLIPSE
  5
572
100
AcDbEntity
  8
26814000
100
AcDbEllipse
 62
7
  6
CONTINUOUS
 10
60.1332004488
 20
130.4807464225
 30
0.0
 11
0.110769438
 21
0.2241226716
 31
0.0
 40
0.6088015717
 41
0.6877230618
 42
2.2527016244
  0
ELLIPSE
  5
573
100
AcDbEntity
  8
26814000
100
AcDbEllipse
 62
7
  6
CONTINUOUS
 10
50.5042067439
 20
137.1631922248
 30
0.0
 11
0.110769438
 21
0.2241226716
 31
0.0
 40
0.6088015717
 41
-1.9360885804
 42
-0.8888910292
  0
ELLIPSE
  5
574
100
AcDbEntity
  8
26814000
100
AcDbEllipse
 62
7
  6
CONTINUOUS
 10
48.8840318875
 20
138.2342086293
 30
0.0
 11
0.1128509832
 21
0.2230818409
 31
0.0
 40
0.6159267166
 41
0.0028979148
 42
0.6817883054
  0
ELLIPSE
  5
575
100
AcDbEntity
  8
26814000
100
AcDbEllipse
 62
7
  6
CONTINUOUS
 10
46.7688822843
 20
137.1629055048
 30
0.0
 11
0.110769438
 21
0.2241226716
 31
0.0
 40
0.6088015717
 41
0.6877230618
 42
2.2527016244
  0
ELLIPSE
  5
576
100
AcDbEntity
  8
26814000
100
AcDbEllipse
 62
7
  6
CONTINUOUS
 10
63.8685249083
 20
88.9205000268
 30
0.0
 11
0.110769438
 21
0.2241226716
 31
0.0
 40
0.6088015717
 41
-2.4538695918
 42
-0.8888910292
  0
ELLIPSE
  5
577
100
AcDbEntity
  8
26814000
100
AcDbEllipse
 62
7
  6
CONTINUOUS
 10
60.1332004488
 20
88.9277708894
 30
0.0
 11
0.110769438
 21
0.2241226716
 31
0.0
 40
0.6088015717
 41
1.2055040732
 42
2.2527016244
  0
ELLIPSE
  5
578
100
AcDbEntity
  8
26814000
100
AcDbEllipse
 62
7
  6
CONTINUOUS
 10
63.8685249083
 20
89.1814290032
 30
0.0
 11
0.110769438
 21
0.2241226716
 31
0.0
 40
0.6088015717
 41
5.394294278
 42
6.4414918292
  0
ELLIPSE
  5
579
100
AcDbEntity
  8
26814000
100
AcDbEllipse
 62
7
  6
CONTINUOUS
 10
50.5042067439
 20
137.4241212012
 30
0.0
 11
0.110769438
 21
0.2241226716
 31
0.0
 40
0.6088015717
 41
5.394294278
 42
6.9592728406
  0
ELLIPSE
  5
57A
100
AcDbEntity
  8
26814000
100
AcDbEllipse
 62
7
  6
CONTINUOUS
 10
63.8685249083
 20
130.7419621189
 30
0.0
 11
0.110769438
 21
0.2241226716
 31
0.0
 40
0.6088015717
 41
5.394294278
 42
6.9592728406
  0
ELLIPSE
  5
57B
100
AcDbEntity
  8
26814000
100
AcDbEllipse
 62
7
  6
CONTINUOUS
 10
58.6036647587
 20
136.7188281149
 30
0.0
 11
0.2999981629
 21
-0.0021225547
 31
0.0
 40
0.4946372042
 41
-0.7818985079
 42
0.0034997008
  0
ELLIPSE
  5
57C
100
AcDbEntity
  8
26814000
100
AcDbEllipse
 62
7
  6
CONTINUOUS
 10
64.1581282728
 20
133.9415963578
 30
0.0
 11
0.2999981629
 21
-0.0021225547
 31
0.0
 40
0.4946372042
 41
-0.7760807437
 42
0.0035109161
  0
ELLIPSE
  5
57D
100
AcDbEntity
  8
26814000
100
AcDbEllipse
 62
7
  6
CONTINUOUS
 10
52.4547190312
 20
135.1207069169
 30
0.0
 11
0.2999991335
 21
0.0014318851
 31
0.0
 40
0.5035541159
 41
8.6427941204
 42
10.207772683
  0
ELLIPSE
  5
57E
100
AcDbEntity
  8
26814000
100
AcDbEllipse
 62
7
  6
CONTINUOUS
 10
46.4414281222
 20
135.3236368156
 30
0.0
 11
-0.1565168911
 21
0.3130623908
 31
0.0
 40
0.6123677712
 41
-0.6846781644
 42
0.8861181623
  0
ELLIPSE
  5
57F
100
AcDbEntity
  8
26814000
100
AcDbEllipse
 62
7
  6
CONTINUOUS
 10
61.7149345959
 20
127.6868835788
 30
0.0
 11
-0.1565168911
 21
0.3130623908
 31
0.0
 40
0.6123677712
 41
-2.2554744912
 42
-0.6846781644
  0
ELLIPSE
  5
580
100
AcDbEntity
  8
26814000
100
AcDbEllipse
 62
7
  6
CONTINUOUS
 10
60.3284000014
 20
104.6437803529
 30
0.0
 11
-0.1085782352
 21
0.1690527654
 31
0.0
 40
0.5459771812
 41
-3.2040641194
 42
-2.3138348679
  0
ELLIPSE
  5
581
100
AcDbEntity
  8
26814000
100
AcDbEllipse
 62
7
  6
CONTINUOUS
 10
58.2472280992
 20
132.2244523829
 30
0.0
 11
0.2999991335
 21
0.0014318851
 31
0.0
 40
0.5035541159
 41
-2.3585979313
 42
-0.7936193687
  0
ELLIPSE
  5
582
100
AcDbEntity
  8
26814000
100
AcDbEllipse
 62
7
  6
CONTINUOUS
 10
58.2472280992
 20
131.010253307
 30
0.0
 11
0.2999980272
 21
0.0021530184
 31
0.0
 40
0.5053247124
 41
-2.3598210761
 42
-0.7948425135
  0
ELLIPSE
  5
583
100
AcDbEntity
  8
26814000
100
AcDbEllipse
 62
7
  6
CONTINUOUS
 10
52.4547190312
 20
133.9065078411
 30
0.0
 11
0.2999980272
 21
0.0021530184
 31
0.0
 40
0.5053247124
 41
3.1379773283
 42
3.9233642311
  0
ELLIPSE
  5
584
100
AcDbEntity
  8
26814000
100
AcDbEllipse
 62
7
  6
CONTINUOUS
 10
64.1581282728
 20
135.1734305392
 30
0.0
 11
0.2999991737
 21
-0.0014183462
 31
0.0
 40
0.4964289597
 41
-0.77723337
 42
0.7877451926
  0
ELLIPSE
  5
585
100
AcDbEntity
  8
26814000
100
AcDbEllipse
 62
7
  6
CONTINUOUS
 10
58.6036647587
 20
137.9506622963
 30
0.0
 11
0.2999991737
 21
-0.0014183462
 31
0.0
 40
0.4964289597
 41
-0.7830511342
 42
0.7877451926
  0
ELLIPSE
  5
586
100
AcDbEntity
  8
26814000
100
AcDbEllipse
 62
7
  6
CONTINUOUS
 10
61.7149345959
 20
89.5329748017
 30
0.0
 11
-0.1565168911
 21
0.3130623908
 31
0.0
 40
0.6123677712
 41
2.4569144891
 42
4.0277108159
  0
ELLIPSE
  5
587
100
AcDbEntity
  8
26814000
100
AcDbEllipse
 62
7
  6
CONTINUOUS
 10
63.5170284312
 20
89.7536238512
 30
0.0
 11
0.110769438
 21
0.2241226716
 31
0.0
 40
0.6088015717
 41
2.2527095058
 42
3.2998991756
  0
ELLIPSE
  5
588
100
AcDbEntity
  8
26814000
100
AcDbEllipse
 62
7
  6
CONTINUOUS
 10
61.7410338244
 20
129.6768297347
 30
0.0
 11
0.1128509832
 21
0.2230818409
 31
0.0
 40
0.6159267166
 41
0.6934238338
 42
2.2584023964
  0
ELLIPSE
  5
589
100
AcDbEntity
  8
26814000
100
AcDbEllipse
 62
7
  6
CONTINUOUS
 10
61.7410338244
 20
129.423458341
 30
0.0
 11
0.1128509832
 21
0.2230818409
 31
0.0
 40
0.6159267166
 41
-4.0247829108
 42
-2.9775853596
  0
ELLIPSE
  5
58A
100
AcDbEntity
  8
26814000
100
AcDbEllipse
 62
7
  6
CONTINUOUS
 10
48.37671566
 20
136.3589888169
 30
0.0
 11
0.1128509832
 21
0.2230818409
 31
0.0
 40
0.6159267166
 41
0.6934238338
 42
2.2584023964
  0
ELLIPSE
  5
58B
100
AcDbEntity
  8
26814000
100
AcDbEllipse
 62
7
  6
CONTINUOUS
 10
48.37671566
 20
136.1056174232
 30
0.0
 11
0.1128509832
 21
0.2230818409
 31
0.0
 40
0.6159267166
 41
-4.0247829108
 42
-2.9775853596
  0
ELLIPSE
  5
58C
100
AcDbEntity
  8
26814000
100
AcDbEllipse
 62
7
  6
CONTINUOUS
 10
61.7410338244
 20
87.8704828079
 30
0.0
 11
0.1128509832
 21
0.2230818409
 31
0.0
 40
0.6159267166
 41
-4.0247829108
 42
-2.4598043482
  0
ELLIPSE
  5
58D
100
AcDbEntity
  8
26814000
100
AcDbEllipse
 62
7
  6
CONTINUOUS
 10
61.7410338244
 20
88.1238542016
 30
0.0
 11
0.1128509832
 21
0.2230818409
 31
0.0
 40
0.6159267166
 41
1.2112048452
 42
2.2584023964
  0
ELLIPSE
  5
58E
100
AcDbEntity
  8
26814000
100
AcDbEllipse
 62
7
  6
CONTINUOUS
 10
60.0627282897
 20
94.9746291685
 30
0.0
 11
-0.542618321
 21
0.8478124368
 31
0.0
 40
0.5451249042
 41
-3.2164376038
 42
-2.3115524019
  0
ENDSEC
  0
SECTION
  2
OBJECTS
  0
DICTIONARY
  5
C
100
AcDbDictionary
280
0
281
1
  3
ACAD_GROUP
350
D
  3
ACAD_MLINESTYLE
350
17
  3
ACAD_LAYOUT
350
1A
  3
ACAD_PLOTSETTINGS
350
19
  3
ACAD_PLOTSTYLENAME
350
E
  0
DICTIONARY
  5
D
102
{ACAD_REACTORS
330
C
102
}
100
AcDbDictionary
280
0
281
1
  0
ACDBDICTIONARYWDFLT
  5
E
102
{ACAD_REACTORS
330
C
102
}
100
AcDbDictionary
281
1
  3
Normal
350
F
100
AcDbDictionaryWithDefault
340
F
  0
DICTIONARY
  5
17
102
{ACAD_REACTORS
330
C
102
}
100
AcDbDictionary
280
0
281
1
  3
Standard
350
18
  0
DICTIONARY
  5
19
102
{ACAD_REACTORS
330
C
102
}
100
AcDbDictionary
281
1
  0
DICTIONARY
  5
1A
102
{ACAD_REACTORS
330
C
102
}
100
AcDbDictionary
281
1
  3
Model
350
58F
  3
Layout1
350
590
  0
ACDBPLACEHOLDER
  5
F
102
{ACAD_REACTORS
330
E
102
}
  0
MLINESTYLE
  5
18
102
{ACAD_REACTORS
330
17
102
}
100
AcDbMlineStyle
  2
STANDARD
 70
0
  3

 62
256
 51
90.0
 52
90.0
 71
2
 49
0.5
 62
256
  6
BYLAYER
 49
-0.5
 62
256
  6
BYLAYER
  0
LAYOUT
  5
58F
102
{ACAD_REACTORS
330
1A
102
}
100
AcDbPlotSettings
  1

  2
none_device
  4
ISO_A4_(297.00_x_210.00_MM)
  6

 40
0.0
 41
0.0
 42
0.0
 43
0.0
 44
297.0
 45
210.0
 46
0.0
 47
0.0
 48
0.0
 49
0.0
140
0.0
141
0.0
142
1.0
143
1.0
 70
1024
 72
1
 73
0
 74
0
  7

 75
0
147
1.0
148
0.0
149
0.0
100
AcDbLayout
  1
Model
 70
0
 71
0
 10
0.0
 20
0.0
 11
297.0
 21
210.0
 12
0.0
 22
0.0
 32
0.0
 14
0.0
 24
0.0
 34
0.0
 15
0.0
 25
0.0
 35
0.0
146
0.0
 13
0.0
 23
0.0
 33
0.0
 16
1.0
 26
0.0
 36
0.0
 17
0.0
 27
1.0
 37
0.0
 76
0
330
223
345
0
346
0
  0
LAYOUT
  5
590
102
{ACAD_REACTORS
330
1A
102
}
100
AcDbPlotSettings
  1

  2
none_device
  4
ISO_A4_(297.00_x_210.00_MM)
  6

 40
0.0
 41
0.0
 42
0.0
 43
0.0
 44
297.0
 45
210.0
 46
0.0
 47
0.0
 48
0.0
 49
0.0
140
0.0
141
0.0
142
1.0
143
1.0
 70
0
 72
1
 73
0
 74
0
  7

 75
0
147
1.0
148
0.0
149
0.0
100
AcDbLayout
  1
Layout1
 70
0
 71
1
 10
0.0
 20
0.0
 11
297.0
 21
210.0
 12
0.0
 22
0.0
 32
0.0
 14
0.0
 24
0.0
 34
0.0
 15
0.0
 25
0.0
 35
0.0
146
0.0
 13
0.0
 23
0.0
 33
0.0
 16
1.0
 26
0.0
 36
0.0
 17
0.0
 27
1.0
 37
0.0
 76
0
330
224
345
0
346
0
  0
ENDSEC
  0
EOF
