  0
SECTION
  2
HEADER
  9
$ACADVER
  1
AC1024
  9
$DWGCODEPAGE
  3
ANSI_1252
  9
$EXTMAX
 10
297.0
 20
210.0
 30
0.0
  9
$EXTMIN
 10
0.0
 20
0.0
 30
0.0
  9
$LIMMIN
 10
0.0
 20
0.0
  9
$LIMMAX
 10
297.0
 20
210.0
  9
$VIEWCTR
 10
148.5
 20
105.0
  9
$VIEWSIZE
 40
210.0
  9
$CLAYER
  8
0
  9
$LTSCALE
 40
16.335
  9
$CELTYPE
  6
BYLAYER
  9
$DIMSCALE
 40
1.0
  9
$DIMASZ
 40
3.0
  9
$DIMEXO
 40
0.5
  9
$DIMDLI
 40
11.286
  9
$DIMEXE
 40
1.5
  9
$DIMCEN
 40
2.673
  9
$DIMLFAC
 40
1.0
  9
$DIMBLK
  1
_FILLED
  9
$DIMALT
 70
0
  9
$DIMALTF
 40
0.0393700787
  9
$DIMTXT
 40
3.0
  9
$DIMTOL
 70
1
  9
$DIMLIM
 70
0
  9
$DIMTFAC
 40
1.0
  9
$DIMTP
 40
0.01
  9
$DIMTM
 40
0.01
  9
$DIMGAP
 40
0.625
  9
$DIMDSEP
 70
44
  9
$AUNITS
 70
0
  9
$PDMODE
 70
3
  9
$PDSIZE
 40
3.0
  9
$HANDSEED
  5
3C7
  9
$TILEMODE
 70
1
  9
$MEASUREMENT
 70
1
  9
$INSUNITS
 70
4
  0
ENDSEC
  0
SECTION
  2
CLASSES
  0
CLASS
  1
ACDBDICTIONARYWDFLT
  2
AcDbDictionaryWithDefault
  3
AutoCAD 2000
 90
0
 91
1
280
0
281
0
  0
CLASS
  1
ACDBPLACEHOLDER
  2
AcDbPlaceHolder
  3
AutoCAD 2000
 90
0
 91
1
280
0
281
0
  0
CLASS
  1
LAYOUT
  2
AcDbLayout
  3
AutoCAD 2000
 90
0
 91
0
280
0
281
0
  0
ENDSEC
  0
SECTION
  2
TABLES
  0
TABLE
  2
VPORT
  5
8
100
AcDbSymbolTable
 70
2
  0
VPORT
  5
1F4
100
AcDbSymbolTableRecord
100
AcDbViewportTableRecord
  2
*ACTIVE
 70
0
 10
0.0
 20
0.0
 11
1.0
 21
1.0
 12
148.5
 22
105.0
 13
0.0
 23
0.0
 14
1.0
 24
1.0
 15
0.0
 25
0.0
 16
0.0
 26
0.0
 36
1.0
 17
0.0
 27
0.0
 37
0.0
 40
210.0
 41
1.4142857143
 42
50.0
 43
0.0
 44
0.0
 50
0.0
 51
0.0
 71
0
 72
100
 73
1
 74
1
 75
0
 76
0
 77
0
 78
0
  0
ENDTAB
  0
TABLE
  2
LTYPE
  5
5
100
AcDbSymbolTable
 70
6
  0
LTYPE
  5
14
100
AcDbSymbolTableRecord
100
AcDbLinetypeTableRecord
  2
BYBLOCK
 70
0
  3

 72
65
 73
0
 40
0.0
  0
LTYPE
  5
15
100
AcDbSymbolTableRecord
100
AcDbLinetypeTableRecord
  2
BYLAYER
 70
0
  3

 72
65
 73
0
 40
0.0
  0
LTYPE
  5
16
100
AcDbSymbolTableRecord
100
AcDbLinetypeTableRecord
  2
CONTINUOUS
 70
64
  3
Solid line
 72
65
 73
0
 40
0.0
  0
LTYPE
  5
1F5
100
AcDbSymbolTableRecord
100
AcDbLinetypeTableRecord
  2
CENTER
 70
64
  3
____ _ ____ _ ____ _ ____ _ ____ _ ____ _ ____
 72
65
 73
4
 40
0.6
 49
0.375
 74
0
 49
-0.075
 74
0
 49
0.075
 74
0
 49
-0.075
 74
0
  0
LTYPE
  5
1F6
100
AcDbSymbolTableRecord
100
AcDbLinetypeTableRecord
  2
HIDDEN
 70
64
  3
- - - - - - - - - - - - - - - - - - - -
 72
65
 73
2
 40
0.2
 49
0.1
 74
0
 49
-0.1
 74
0
  0
LTYPE
  5
1F7
100
AcDbSymbolTableRecord
100
AcDbLinetypeTableRecord
  2
PHANTOM
 70
64
  3
_____ _ _ _____ _ _ _____ _ _ _____
 72
65
 73
6
 40
0.8
 49
0.45
 74
0
 49
-0.05
 74
0
 49
0.1
 74
0
 49
-0.05
 74
0
 49
0.1
 74
0
 49
-0.05
 74
0
  0
LTYPE
  5
1F8
100
AcDbSymbolTableRecord
100
AcDbLinetypeTableRecord
  2
DOT
 70
64
  3
. . . . . . . . . . . . . . . . . . . .
 72
65
 73
2
 40
0.2
 49
0.1
 74
0
 49
-0.1
 74
0
  0
LTYPE
  5
1F9
100
AcDbSymbolTableRecord
100
AcDbLinetypeTableRecord
  2
DASHED
 70
64
  3
- - - - - - - - - - - - - - - - - - - -
 72
65
 73
2
 40
0.2
 49
0.1
 74
0
 49
-0.1
 74
0
  0
ENDTAB
  0
TABLE
  2
LAYER
  5
2
100
AcDbSymbolTable
 70
36
  0
LAYER
  5
10
100
AcDbSymbolTableRecord
100
AcDbLayerTableRecord
  2
0
 70
0
 62
7
  6
CONTINUOUS
370
-3
390
F
  0
LAYER
  5
1FA
100
AcDbSymbolTableRecord
100
AcDbLayerTableRecord
  2
DEFAULT_1
 70
0
 62
7
  6
CENTER
370
-3
390
F
  0
LAYER
  5
1FB
100
AcDbSymbolTableRecord
100
AcDbLayerTableRecord
  2
DEFAULT_2
 70
0
 62
7
  6
HIDDEN
370
-3
390
F
  0
LAYER
  5
1FC
100
AcDbSymbolTableRecord
100
AcDbLayerTableRecord
  2
DEFAULT_3
 70
0
 62
7
  6
PHANTOM
370
-3
390
F
  0
LAYER
  5
1FD
100
AcDbSymbolTableRecord
100
AcDbLayerTableRecord
  2
21814000
 70
0
 62
7
  6
CONTINUOUS
370
-3
390
F
  0
LAYER
  5
1FE
100
AcDbSymbolTableRecord
100
AcDbLayerTableRecord
  2
218140001
 70
0
 62
7
  6
CONTINUOUS
370
-3
390
F
  0
LAYER
  5
1FF
100
AcDbSymbolTableRecord
100
AcDbLayerTableRecord
  2
260140000
 70
0
 62
7
  6
CONTINUOUS
370
-3
390
F
  0
LAYER
  5
200
100
AcDbSymbolTableRecord
100
AcDbLayerTableRecord
  2
26814000
 70
0
 62
7
  6
CONTINUOUS
370
-3
390
F
  0
LAYER
  5
201
100
AcDbSymbolTableRecord
100
AcDbLayerTableRecord
  2
28414000
 70
0
 62
7
  6
CONTINUOUS
370
-3
390
F
  0
LAYER
  5
202
100
AcDbSymbolTableRecord
100
AcDbLayerTableRecord
  2
290140000
 70
0
 62
7
  6
CONTINUOUS
370
-3
390
F
  0
LAYER
  5
203
100
AcDbSymbolTableRecord
100
AcDbLayerTableRecord
  2
340000230
 70
0
 62
7
  6
CONTINUOUS
370
-3
390
F
  0
LAYER
  5
204
100
AcDbSymbolTableRecord
100
AcDbLayerTableRecord
  2
712140000
 70
0
 62
7
  6
CONTINUOUS
370
-3
390
F
  0
LAYER
  5
205
100
AcDbSymbolTableRecord
100
AcDbLayerTableRecord
  2
715140000
 70
0
 62
7
  6
CONTINUOUS
370
-3
390
F
  0
LAYER
  5
206
100
AcDbSymbolTableRecord
100
AcDbLayerTableRecord
  2
ASSI
 70
0
 62
7
  6
CONTINUOUS
370
-3
390
F
  0
LAYER
  5
207
100
AcDbSymbolTableRecord
100
AcDbLayerTableRecord
  2
COLORE_TOP
 70
0
 62
7
  6
CONTINUOUS
370
-3
390
F
  0
LAYER
  5
208
100
AcDbSymbolTableRecord
100
AcDbLayerTableRecord
  2
COORDINATE
 70
0
 62
7
  6
CONTINUOUS
370
-3
390
F
  0
LAYER
  5
209
100
AcDbSymbolTableRecord
100
AcDbLayerTableRecord
  2
COORD_ORIGINE
 70
0
 62
7
  6
CONTINUOUS
370
-3
390
F
  0
LAYER
  5
20A
100
AcDbSymbolTableRecord
100
AcDbLayerTableRecord
  2
COPY_PUBLISH
 70
0
 62
7
  6
CONTINUOUS
370
-3
390
F
  0
LAYER
  5
20B
100
AcDbSymbolTableRecord
100
AcDbLayerTableRecord
  2
COSMETICHE
 70
0
 62
7
  6
CONTINUOUS
370
-3
390
F
  0
LAYER
  5
20C
100
AcDbSymbolTableRecord
100
AcDbLayerTableRecord
  2
COSMETICI
 70
0
 62
7
  6
CONTINUOUS
370
-3
390
F
  0
LAYER
  5
20D
100
AcDbSymbolTableRecord
100
AcDbLayerTableRecord
  2
CURVE
 70
0
 62
7
  6
CONTINUOUS
370
-3
390
F
  0
LAYER
  5
20E
100
AcDbSymbolTableRecord
100
AcDbLayerTableRecord
  2
DRAFT
 70
0
 62
7
  6
CONTINUOUS
370
-3
390
F
  0
LAYER
  5
20F
100
AcDbSymbolTableRecord
100
AcDbLayerTableRecord
  2
IGES
 70
0
 62
7
  6
CONTINUOUS
370
-3
390
F
  0
LAYER
  5
210
100
AcDbSymbolTableRecord
100
AcDbLayerTableRecord
  2
IMPORT
 70
0
 62
7
  6
CONTINUOUS
370
-3
390
F
  0
LAYER
  5
211
100
AcDbSymbolTableRecord
100
AcDbLayerTableRecord
  2
IMPORTED
 70
0
 62
7
  6
CONTINUOUS
370
-3
390
F
  0
LAYER
  5
212
100
AcDbSymbolTableRecord
100
AcDbLayerTableRecord
  2
IMPORT_IGES
 70
0
 62
7
  6
CONTINUOUS
370
-3
390
F
  0
LAYER
  5
213
100
AcDbSymbolTableRecord
100
AcDbLayerTableRecord
  2
INCISIONI_LASER
 70
0
 62
7
  6
CONTINUOUS
370
-3
390
F
  0
LAYER
  5
214
100
AcDbSymbolTableRecord
100
AcDbLayerTableRecord
  2
INTF_1
 70
0
 62
7
  6
CONTINUOUS
370
-3
390
F
  0
LAYER
  5
215
100
AcDbSymbolTableRecord
100
AcDbLayerTableRecord
  2
INTF_11
 70
0
 62
7
  6
CONTINUOUS
370
-3
390
F
  0
LAYER
  5
216
100
AcDbSymbolTableRecord
100
AcDbLayerTableRecord
  2
INTF_12
 70
0
 62
7
  6
CONTINUOUS
370
-3
390
F
  0
LAYER
  5
217
100
AcDbSymbolTableRecord
100
AcDbLayerTableRecord
  2
INTF_13
 70
0
 62
7
  6
CONTINUOUS
370
-3
390
F
  0
LAYER
  5
218
100
AcDbSymbolTableRecord
100
AcDbLayerTableRecord
  2
INTF_2
 70
0
 62
7
  6
CONTINUOUS
370
-3
390
F
  0
LAYER
  5
219
100
AcDbSymbolTableRecord
100
AcDbLayerTableRecord
  2
INTF_6
 70
0
 62
7
  6
CONTINUOUS
370
-3
390
F
  0
LAYER
  5
21A
100
AcDbSymbolTableRecord
100
AcDbLayerTableRecord
  2
NOTE
 70
0
 62
7
  6
CONTINUOUS
370
-3
390
F
  0
LAYER
  5
21B
100
AcDbSymbolTableRecord
100
AcDbLayerTableRecord
  2
PIANI
 70
0
 62
7
  6
CONTINUOUS
370
-3
390
F
  0
LAYER
  5
21C
100
AcDbSymbolTableRecord
100
AcDbLayerTableRecord
  2
PIANI_DI_RIFERIMENTO
 70
0
 62
7
  6
CONTINUOUS
370
-3
390
F
  0
LAYER
  5
21D
100
AcDbSymbolTableRecord
100
AcDbLayerTableRecord
  2
PIANI_ORIGINE
 70
0
 62
7
  6
CONTINUOUS
370
-3
390
F
  0
LAYER
  5
21E
100
AcDbSymbolTableRecord
100
AcDbLayerTableRecord
  2
PIANI_RIFERIMENTO
 70
0
 62
7
  6
CONTINUOUS
370
-3
390
F
  0
LAYER
  5
21F
100
AcDbSymbolTableRecord
100
AcDbLayerTableRecord
  2
PIANI_SFORMO
 70
0
 62
7
  6
CONTINUOUS
370
-3
390
F
  0
LAYER
  5
220
100
AcDbSymbolTableRecord
100
AcDbLayerTableRecord
  2
PUNTI
 70
0
 62
7
  6
CONTINUOUS
370
-3
390
F
  0
LAYER
  5
221
100
AcDbSymbolTableRecord
100
AcDbLayerTableRecord
  2
RACCORDO
 70
0
 62
7
  6
CONTINUOUS
370
-3
390
F
  0
LAYER
  5
222
100
AcDbSymbolTableRecord
100
AcDbLayerTableRecord
  2
RGB__255__255__255__
 70
0
 62
7
  6
CONTINUOUS
370
-3
390
F
  0
LAYER
  5
223
100
AcDbSymbolTableRecord
100
AcDbLayerTableRecord
  2
RGB____0____0____0__
 70
0
 62
7
  6
CONTINUOUS
370
-3
390
F
  0
LAYER
  5
224
100
AcDbSymbolTableRecord
100
AcDbLayerTableRecord
  2
RINTRACCIABILITA
 70
0
 62
7
  6
CONTINUOUS
370
-3
390
F
  0
LAYER
  5
225
100
AcDbSymbolTableRecord
100
AcDbLayerTableRecord
  2
SIMBOLI
 70
0
 62
7
  6
CONTINUOUS
370
-3
390
F
  0
LAYER
  5
226
100
AcDbSymbolTableRecord
100
AcDbLayerTableRecord
  2
SMUSSO
 70
0
 62
7
  6
CONTINUOUS
370
-3
390
F
  0
LAYER
  5
227
100
AcDbSymbolTableRecord
100
AcDbLayerTableRecord
  2
SNAPLINE
 70
0
 62
7
  6
CONTINUOUS
370
-3
390
F
  0
LAYER
  5
228
100
AcDbSymbolTableRecord
100
AcDbLayerTableRecord
  2
SUPERFICI
 70
0
 62
7
  6
CONTINUOUS
370
-3
390
F
  0
LAYER
  5
229
100
AcDbSymbolTableRecord
100
AcDbLayerTableRecord
  2
TRASH
 70
0
 62
7
  6
CONTINUOUS
370
-3
390
F
  0
LAYER
  5
22A
100
AcDbSymbolTableRecord
100
AcDbLayerTableRecord
  2
WHITE
 70
0
 62
7
  6
CONTINUOUS
370
-3
390
F
  0
LAYER
  5
22B
100
AcDbSymbolTableRecord
100
AcDbLayerTableRecord
  2
XSEC_DATUMS
 70
0
 62
7
  6
CONTINUOUS
370
-3
390
F
  0
ENDTAB
  0
TABLE
  2
STYLE
  5
3
100
AcDbSymbolTable
 70
1
  0
STYLE
  5
11
100
AcDbSymbolTableRecord
100
AcDbTextStyleTableRecord
  2
STANDARD
 70
0
 40
0.0
 41
0.8
 50
0.0
 71
0
 42
0.2
  3
txt
  4

  0
STYLE
  5
22C
100
AcDbSymbolTableRecord
100
AcDbTextStyleTableRecord
  2
TEXTSTYLE_1
 70
0
 40
0.0
 41
0.8
 50
0.0
 71
0
 42
0.2
  3
gdt
  4

  0
ENDTAB
  0
TABLE
  2
VIEW
  5
6
100
AcDbSymbolTable
 70
0
  0
ENDTAB
  0
TABLE
  2
UCS
  5
7
100
AcDbSymbolTable
 70
0
  0
ENDTAB
  0
TABLE
  2
APPID
  5
9
100
AcDbSymbolTable
 70
1
  0
APPID
  5
22D
100
AcDbSymbolTableRecord
100
AcDbRegAppTableRecord
  2
ACAD
 70
0
  0
ENDTAB
  0
TABLE
  2
BLOCK_RECORD
  5
1
100
AcDbSymbolTable
 70
0
  0
BLOCK_RECORD
  5
22E
100
AcDbSymbolTableRecord
100
AcDbBlockTableRecord
  2
*Model_Space
  0
BLOCK_RECORD
  5
22F
100
AcDbSymbolTableRecord
100
AcDbBlockTableRecord
  2
*Paper_Space
  0
BLOCK_RECORD
  5
230
100
AcDbSymbolTableRecord
100
AcDbBlockTableRecord
  2
_FILLED
  0
ENDTAB
  0
TABLE
  2
DIMSTYLE
  5
A
100
AcDbSymbolTable
 70
1
100
AcDbDimStyleTable
 71
0
  0
DIMSTYLE
105
231
100
AcDbSymbolTableRecord
100
AcDbDimStyleTableRecord
  2
STANDARD
 70
0
  3

  4

 40
1.0
 41
3.0
 42
0.5
 43
0.38
 44
1.5
 45
0.0
 46
0.0
 47
0.01
 48
0.01
140
3.0
141
0.09
142
0.0
143
25.4
144
1.0
145
0.0
146
1.0
147
0.625
 71
1
 72
0
 73
0
 74
0
 75
0
 76
0
 77
1
 78
8
 79
2
170
0
171
1
172
0
173
0
174
0
175
0
176
0
177
0
178
0
270
2
179
2
271
2
272
2
273
2
274
2
275
0
280
0
281
0
282
0
283
1
284
8
285
0
286
0
287
3
288
0
340
11
278
44
341
230
342
230
343
230
344
230
  0
ENDTAB
  0
ENDSEC
  0
SECTION
  2
BLOCKS
  0
BLOCK
  5
20
100
AcDbEntity
  8
0
100
AcDbBlockBegin
  2
*Model_Space
 70
0
 10
0.0
 20
0.0
 30
0.0
  3
*Model_Space
  1

  0
ENDBLK
  5
21
100
AcDbEntity
  8
0
100
AcDbBlockEnd
  0
BLOCK
  5
1C
100
AcDbEntity
  8
0
100
AcDbBlockBegin
  2
*Paper_Space
 70
0
 10
0.0
 20
0.0
 30
0.0
  3
*Paper_Space
  1

  0
ENDBLK
  5
1D
100
AcDbEntity
  8
0
100
AcDbBlockEnd
  0
BLOCK
  5
232
100
AcDbEntity
  8
0
100
AcDbBlockBegin
  2
_FILLED
 70
64
 10
0.0
 20
0.0
  3
_FILLED
  1

  0
SOLID
  5
233
100
AcDbEntity
  8
0
  6
BYBLOCK
 62
0
100
AcDbTrace
 10
0.0
 20
0.0
 11
-1.0
 21
0.3166666667
 12
-1.0
 22
-0.3166666667
 13
-1.0
 23
-0.3166666667
  0
ENDBLK
  5
234
100
AcDbEntity
  8
0
  6
BYBLOCK
 62
0
100
AcDbBlockEnd
  0
ENDSEC
  0
SECTION
  2
ENTITIES
  0
LINE
  5
235
100
AcDbEntity
  8
26814000
100
AcDbLine
 62
7
  6
CONTINUOUS
 10
-13.2042956954
 20
24.5068588185
 11
-11.6215390922
 21
25.3188429159
  0
LINE
  5
236
100
AcDbEntity
  8
26814000
100
AcDbLine
 62
7
  6
CONTINUOUS
 10
-13.6882508078
 20
22.7641584165
 11
-12.6760285237
 21
23.2810883792
  0
LINE
  5
237
100
AcDbEntity
  8
26814000
100
AcDbLine
 62
7
  6
CONTINUOUS
 10
-11.6215390922
 20
25.3188429159
 11
-11.0870892136
 21
25.5791903825
  0
LINE
  5
238
100
AcDbEntity
  8
26814000
100
AcDbLine
 62
250
  6
CONTINUOUS
 10
-13.5307274015
 20
22.7547250869
 11
-12.6760285237
 21
23.1912097069
  0
LINE
  5
239
100
AcDbEntity
  8
26814000
100
AcDbLine
 62
7
  6
CONTINUOUS
 10
-9.9951934955
 20
22.77361931
 11
-11.0620244077
 21
22.2350380604
  0
LINE
  5
23A
100
AcDbEntity
  8
26814000
100
AcDbLine
 62
7
  6
CONTINUOUS
 10
-11.5964742863
 20
23.702948114
 11
-9.9951934955
 21
24.5056701175
  0
LINE
  5
23B
100
AcDbEntity
  8
26814000
100
AcDbLine
 62
7
  6
CONTINUOUS
 10
-9.9951934955
 20
24.5056701175
 11
-9.4669263238
 21
24.7691089376
  0
LWPOLYLINE
  5
23C
100
AcDbEntity
  8
RACCORDO
100
AcDbPolyline
 62
7
  6
CONTINUOUS
 90
19
 70
0
 10
-16.9453024581
 20
20.4639471306
 10
-16.9624733762
 20
20.4568268213
 10
-17.0549413045
 20
20.4133713306
 10
-17.1448083844
 20
20.3624662756
 10
-17.2320845528
 20
20.3041660965
 10
-17.3163710437
 20
20.2387968731
 10
-17.3968937667
 20
20.1670687348
 10
-17.4736906901
 20
20.0890702865
 10
-17.5465857052
 20
20.0050115286
 10
-17.6146371456
 20
19.9160247241
 10
-17.6778196295
 20
19.8222917735
 10
-17.7359804565
 20
19.7239928446
 10
-17.7882531806
 20
19.622627786
 10
-17.8345785052
 20
19.518465105
 10
-17.8748143915
 20
19.411678186
 10
-17.9083774047
 20
19.3038084458
 10
-17.9351146823
 20
19.1954765224
 10
-17.9550627859
 20
19.086445476
 10
-17.9596647751
 20
19.0538738672
  0
LINE
  5
23D
100
AcDbEntity
  8
RACCORDO
100
AcDbLine
 62
7
  6
CONTINUOUS
 10
-16.9453070317
 20
20.4639583933
 11
-13.0159516615
 21
22.0588882903
  0
LINE
  5
23E
100
AcDbEntity
  8
RACCORDO
100
AcDbLine
 62
250
  6
CONTINUOUS
 10
-16.5900459846
 20
20.4395011239
 11
-12.7073184614
 21
22.0155046784
  0
LWPOLYLINE
  5
23F
100
AcDbEntity
  8
26814000
100
AcDbPolyline
 62
7
  6
CONTINUOUS
 90
3
 70
0
 10
-2.0126198602
 20
25.9940302057
 10
-2.0251848799
 20
25.9893311549
 10
-2.0310675985
 20
25.986572863
  0
LWPOLYLINE
  5
240
100
AcDbEntity
  8
RACCORDO
100
AcDbPolyline
 62
250
  6
CONTINUOUS
 90
7
 70
0
 10
-16.9451441933
 20
20.4640245355
 10
-16.8873849535
 20
20.4820423803
 10
-16.8307009091
 20
20.4902506088
 10
-16.7719748223
 20
20.4900525053
 10
-16.7118499216
 20
20.4814502396
 10
-16.6509847565
 20
20.4645380325
 10
-16.5900459846
 20
20.4395011239
  0
LWPOLYLINE
  5
241
100
AcDbEntity
  8
26814000
100
AcDbPolyline
 62
7
  6
CONTINUOUS
 90
10
 70
0
 10
-2.0126198602
 20
25.9940302057
 10
-2.0033802393
 20
25.9967760047
 10
-1.9948170855
 20
25.9990417232
 10
-1.9869303986
 20
26.0008273612
 10
-1.9796810403
 20
26.0021537658
 10
-1.9731081489
 20
26.00300009
 10
-1.9673291396
 20
26.0033037927
 10
-1.9623481824
 20
26.003064457
 10
-1.9581611072
 20
26.0022824998
 10
-1.9555714261
 20
26.0012860666
  0
LWPOLYLINE
  5
242
100
AcDbEntity
  8
RACCORDO
100
AcDbPolyline
 62
7
  6
CONTINUOUS
 90
12
 70
0
 10
-6.0169817157
 20
-25.8878909543
 10
-5.9882815403
 20
-25.9017469698
 10
-5.9045202836
 20
-25.9364755631
 10
-5.8176575319
 20
-25.9642127402
 10
-5.7281584897
 20
-25.9847027932
 10
-5.6362093113
 20
-25.9977626749
 10
-5.542374844
 20
-26.0031600062
 10
-5.4472981105
 20
-26.0007224146
 10
-5.3511703131
 20
-25.9902841554
 10
-5.2543973316
 20
-25.9716865402
 10
-5.1577076182
 20
-25.9449024639
 10
-5.1383024938
 20
-25.9385192388
  0
LINE
  5
243
100
AcDbEntity
  8
RACCORDO
100
AcDbLine
 62
7
  6
CONTINUOUS
 10
-6.0159891335
 20
-25.8884004294
 11
-20.3564473369
 21
-18.7181713277
  0
LINE
  5
244
100
AcDbEntity
  8
RACCORDO
100
AcDbLine
 62
250
  6
CONTINUOUS
 10
-6.4109785951
 20
-25.026190002
 11
-20.7397121029
 21
-17.8618232481
  0
LWPOLYLINE
  5
245
100
AcDbEntity
  8
RACCORDO
100
AcDbPolyline
 62
250
  6
CONTINUOUS
 90
14
 70
0
 10
-20.3564180453
 20
-18.7181859734
 10
-20.4107923954
 20
-18.6869987724
 10
-20.4631975988
 20
-18.6483405861
 10
-20.511694439
 20
-18.6032453897
 10
-20.5560624036
 20
-18.5519213619
 10
-20.5960803539
 20
-18.49461341
 10
-20.6315300847
 20
-18.4316203756
 10
-20.6622276886
 20
-18.3632739195
 10
-20.6880145132
 20
-18.2899319855
 10
-20.7087627989
 20
-18.2119595371
 10
-20.7243741387
 20
-18.1297385983
 10
-20.7347693307
 20
-18.0436801785
 10
-20.739891191
 20
-17.9542242243
 10
-20.7397121029
 20
-17.8618232481
  0
LINE
  5
246
100
AcDbEntity
  8
26814000
100
AcDbLine
 62
7
  6
CONTINUOUS
 10
-9.3800746605
 20
24.1481113509
 11
-9.9073193762
 21
23.5064036229
  0
LWPOLYLINE
  5
247
100
AcDbEntity
  8
26814000
100
AcDbPolyline
 62
7
  6
CONTINUOUS
 90
12
 70
0
 10
-2.0310675985
 20
25.986572863
 10
-2.03735439
 20
25.9832164894
 10
-2.0492088165
 20
25.9757122163
 10
-2.0608639965
 20
25.966839705
 10
-2.0723595914
 20
25.9566545945
 10
-2.0836508891
 20
25.9452235221
 10
-2.0947959555
 20
25.9325764959
 10
-2.1058628349
 20
25.9187469597
 10
-2.116808954
 20
25.9037774609
 10
-2.1276562552
 20
25.8876945337
 10
-2.1384946839
 20
25.8705262794
 10
-2.1493790519
 20
25.852307648
  0
LINE
  5
248
100
AcDbEntity
  8
26814000
100
AcDbLine
 62
7
  6
CONTINUOUS
 10
-7.7307990641
 20
22.3541131201
 11
-7.2374770489
 21
22.6071966519
  0
LINE
  5
249
100
AcDbEntity
  8
26814000
100
AcDbLine
 62
7
  6
CONTINUOUS
 10
-8.539412519
 20
22.7452779137
 11
-2.0313758923
 21
25.9864195192
  0
LINE
  5
24A
100
AcDbEntity
  8
26814000
100
AcDbLine
 62
250
  6
CONTINUOUS
 10
-8.4639193785
 20
22.7075313434
 11
-2.1493790519
 21
25.852307648
  0
LINE
  5
24B
100
AcDbEntity
  8
26814000
100
AcDbLine
 62
7
  6
CONTINUOUS
 10
-1.1563587307
 20
24.9725641172
 11
-5.8939741646
 21
22.6375136026
  0
LINE
  5
24C
100
AcDbEntity
  8
26814000
100
AcDbLine
 62
7
  6
CONTINUOUS
 10
-7.2374770489
 20
22.6071966519
 11
-1.7598370594
 21
25.2755286152
  0
LINE
  5
24D
100
AcDbEntity
  8
26814000
100
AcDbLine
 62
7
  6
CONTINUOUS
 10
3.4569987882
 20
-23.3503595987
 11
3.9842435039
 21
-23.4586518707
  0
LWPOLYLINE
  5
24E
100
AcDbEntity
  8
RACCORDO
100
AcDbPolyline
 62
250
  6
CONTINUOUS
 90
9
 70
0
 10
-20.974030294
 20
-17.5800279673
 10
-20.9724301905
 20
-17.6103204323
 10
-20.9628750761
 20
-17.6496837595
 10
-20.9449659851
 20
-17.6885690313
 10
-20.9188926679
 20
-17.7265642506
 10
-20.8849313763
 20
-17.7632668509
 10
-20.8434419369
 20
-17.7982879609
 10
-20.7948639385
 20
-17.8312565251
 10
-20.7397120743
 20
-17.8618232351
  0
LWPOLYLINE
  5
24F
100
AcDbEntity
  8
RACCORDO
100
AcDbPolyline
 62
7
  6
CONTINUOUS
 90
15
 70
0
 10
-20.9740206615
 20
-17.5800282566
 10
-20.9747675758
 20
-17.6304183146
 10
-20.970039927
 20
-17.7488636899
 10
-20.9563486558
 20
-17.8629111928
 10
-20.9340609475
 20
-17.9721831025
 10
-20.9034886421
 20
-18.076538563
 10
-20.8648860495
 20
-18.1757706758
 10
-20.8187201047
 20
-18.2692691669
 10
-20.7653795483
 20
-18.3567230644
 10
-20.7050693978
 20
-18.4380236995
 10
-20.6383769787
 20
-18.5125677335
 10
-20.5659063679
 20
-18.5799186396
 10
-20.487903126
 20
-18.6399708683
 10
-20.4049137576
 20
-18.6923199469
 10
-20.3553837838
 20
-18.7186888285
  0
LINE
  5
250
100
AcDbEntity
  8
RACCORDO
100
AcDbLine
 62
7
  6
CONTINUOUS
 10
-20.9740235984
 20
-17.5798074059
 11
-20.974030294
 21
-17.5800279673
  0
LWPOLYLINE
  5
251
100
AcDbEntity
  8
RACCORDO
100
AcDbPolyline
 62
250
  6
CONTINUOUS
 90
13
 70
0
 10
-20.7397121029
 20
-17.8618232481
 10
-20.6339627789
 20
-14.8684539801
 10
-20.5016625505
 20
-11.8627011053
 10
-20.3428280309
 20
-8.8449515769
 10
-20.1574792045
 20
-5.8155939526
 10
-19.9456398292
 20
-2.7750180246
 10
-19.7073374304
 20
0.276385232
 10
-19.4426028994
 20
3.3382233124
 10
-19.1514700699
 20
6.41010214
 10
-18.8339761143
 20
9.4916264394
 10
-18.4901619684
 20
12.5823998013
 10
-18.1200723292
 20
15.6820247321
 10
-17.7237552252
 20
18.790102615
  0
LWPOLYLINE
  5
252
100
AcDbEntity
  8
RACCORDO
100
AcDbPolyline
 62
250
  6
CONTINUOUS
 90
10
 70
0
 10
-17.9596647751
 20
19.0538738672
 10
-17.9602995394
 20
19.0478235191
 10
-17.9586059203
 20
19.0156079974
 10
-17.9485197399
 20
18.9826933786
 10
-17.9301478622
 20
18.949428396
 10
-17.9036849389
 20
18.9161654954
 10
-17.8694113471
 20
18.8832571003
 10
-17.8276902187
 20
18.8510518784
 10
-17.778963593
 20
18.8198910469
 10
-17.7237477331
 20
18.7901047579
  0
LWPOLYLINE
  5
253
100
AcDbEntity
  8
RACCORDO
100
AcDbPolyline
 62
7
  6
CONTINUOUS
 90
13
 70
0
 10
-17.959658931
 20
19.0539638835
 10
-18.3487940297
 20
16.0038654543
 10
-18.7204863018
 20
12.8941613547
 10
-19.0657309584
 20
9.793284228
 10
-19.3844744112
 20
6.7016821888
 10
-19.6766772077
 20
3.6197488611
 10
-19.9423038002
 20
0.5478566251
 10
-20.1813183115
 20
-2.513607368
 10
-20.3936903082
 20
-5.5642579859
 10
-20.5793915571
 20
-8.6037256852
 10
-20.7383943496
 20
-11.6316217824
 10
-20.8706767879
 20
-14.6475109099
 10
-20.9740235984
 20
-17.5798074059
  0
LWPOLYLINE
  5
254
100
AcDbEntity
  8
RACCORDO
100
AcDbPolyline
 62
250
  6
CONTINUOUS
 90
22
 70
0
 10
-17.7237552252
 20
18.790102615
 10
-17.7082443262
 20
18.8883704955
 10
-17.6875889194
 20
18.9876788901
 10
-17.6618954997
 20
19.0875255135
 10
-17.6312999947
 20
19.1874006654
 10
-17.5959566358
 20
19.2868049931
 10
-17.5560343534
 20
19.3852516017
 10
-17.5117295232
 20
19.4822585384
 10
-17.463272275
 20
19.5773196741
 10
-17.4109168807
 20
19.6699242224
 10
-17.3549466133
 20
19.7595875689
 10
-17.2956378723
 20
19.8458799734
 10
-17.2332619533
 20
19.9283937932
 10
-17.1681230015
 20
20.0067276859
 10
-17.1005650204
 20
20.0804666984
 10
-17.0309387857
 20
20.1492138281
 10
-16.9596109951
 20
20.2126165457
 10
-16.8869378408
 20
20.2703666456
 10
-16.8132685669
 20
20.3221756116
 10
-16.738972505
 20
20.3677822057
 10
-16.6644377078
 20
20.4069564307
 10
-16.5900459846
 20
20.4395011239
  0
LINE
  5
255
100
AcDbEntity
  8
26814000
100
AcDbLine
 62
7
  6
CONTINUOUS
 10
0.1707150977
 20
23.5026898836
 11
-1.2270694088
 21
22.8037976304
  0
LINE
  5
256
100
AcDbEntity
  8
26814000
100
AcDbLine
 62
7
  6
CONTINUOUS
 10
-1.5806227994
 20
23.533132515
 11
-1.1563587307
 21
23.7407299358
  0
LINE
  5
257
100
AcDbEntity
  8
26814000
100
AcDbLine
 62
7
  6
CONTINUOUS
 10
0.8297108491
 20
24.3627626975
 11
-1.2270694088
 21
23.3563558197
  0
LINE
  5
258
100
AcDbEntity
  8
21814000
100
AcDbLine
 62
7
  6
CONTINUOUS
 10
-2.1642766191
 20
22.1767018474
 11
-2.3023914212
 21
22.1114647621
  0
LINE
  5
259
100
AcDbEntity
  8
21814000
100
AcDbLine
 62
250
  6
CONTINUOUS
 10
-2.0807426126
 20
22.1682027607
 11
-2.2170189016
 21
22.1038340779
  0
LWPOLYLINE
  5
25A
100
AcDbEntity
  8
21814000
100
AcDbPolyline
 62
250
  6
CONTINUOUS
 90
11
 70
0
 10
-1.2472764896
 20
22.2220227338
 10
-1.2381840291
 20
22.226113185
 10
-1.2291253549
 20
22.2294699701
 10
-1.2201382333
 20
22.2320769422
 10
-1.2112570456
 20
22.2339215464
 10
-1.2025225812
 20
22.234992692
 10
-1.1939812328
 20
22.2352837061
 10
-1.1856644075
 20
22.234793212
 10
-1.1776111835
 20
22.2335231996
 10
-1.1698752031
 20
22.2314856834
 10
-1.1625015604
 20
22.2287023146
  0
LINE
  5
25B
100
AcDbEntity
  8
21814000
100
AcDbLine
 62
7
  6
CONTINUOUS
 10
-2.1642231036
 20
22.1767271249
 11
-2.1610150635
 21
22.1781427545
  0
LWPOLYLINE
  5
25C
100
AcDbEntity
  8
21814000
100
AcDbPolyline
 62
7
  6
CONTINUOUS
 90
5
 70
0
 10
-2.3025098899
 20
22.1114078598
 10
-2.2976667252
 20
22.1134654841
 10
-2.2902403653
 20
22.1157833465
 10
-2.2820939471
 20
22.1173157112
 10
-2.2731756122
 20
22.1179666248
  0
LINE
  5
25D
100
AcDbEntity
  8
21814000
100
AcDbLine
 62
7
  6
CONTINUOUS
 10
-2.0911744737
 20
22.2042438917
 11
-2.1610154248
 21
22.1781425843
  0
LINE
  5
25E
100
AcDbEntity
  8
21814000
100
AcDbLine
 62
7
  6
CONTINUOUS
 10
-2.0161353635
 20
22.2271714568
 11
-2.0911744737
 21
22.2042438917
  0
LWPOLYLINE
  5
25F
100
AcDbEntity
  8
21814000
100
AcDbPolyline
 62
7
  6
CONTINUOUS
 90
6
 70
0
 10
-2.1610150635
 20
22.1781427545
 10
-2.1477867889
 20
22.1820847794
 10
-2.1320031688
 20
22.1834234149
 10
-2.1153658362
 20
22.1815295897
 10
-2.0981772351
 20
22.1764283808
 10
-2.0807426126
 20
22.1682027607
  0
LINE
  5
260
100
AcDbEntity
  8
26814000
100
AcDbLine
 62
7
  6
CONTINUOUS
 10
0.0498901653
 20
-24.4215637835
 11
1.6564262627
 21
-25.2248318322
  0
LINE
  5
261
100
AcDbEntity
  8
26814000
100
AcDbLine
 62
250
  6
CONTINUOUS
 10
-0.0147033135
 20
-24.2865352422
 11
1.5910731487
 21
-25.0894234733
  0
LINE
  5
262
100
AcDbEntity
  8
26814000
100
AcDbLine
 62
250
  6
CONTINUOUS
 10
1.5910731487
 20
-24.8360520796
 11
-0.0147033135
 21
-24.0331638485
  0
LINE
  5
263
100
AcDbEntity
  8
26814000
100
AcDbLine
 62
250
  6
CONTINUOUS
 10
1.6799757247
 20
-24.6046150199
 11
0.0731708058
 21
-23.8012125605
  0
LINE
  5
264
100
AcDbEntity
  8
26814000
100
AcDbLine
 62
7
  6
CONTINUOUS
 10
-0.5766738537
 20
-22.4824513305
 11
1.7427790722
 21
-23.6421777934
  0
LINE
  5
265
100
AcDbEntity
  8
26814000
100
AcDbLine
 62
7
  6
CONTINUOUS
 10
2.3022937568
 20
-23.8595556024
 11
1.8930287605
 21
-23.6549231043
  0
LINE
  5
266
100
AcDbEntity
  8
26814000
100
AcDbLine
 62
7
  6
CONTINUOUS
 10
-0.5507887273
 20
-22.1678779552
 11
1.9902664456
 21
-23.4384055416
  0
LINE
  5
267
100
AcDbEntity
  8
21814000
100
AcDbLine
 62
7
  6
CONTINUOUS
 10
-2.3171226198
 20
22.1017883309
 11
-3.2280489782
 21
21.3045510094
  0
LINE
  5
268
100
AcDbEntity
  8
21814000
100
AcDbLine
 62
250
  6
CONTINUOUS
 10
-2.2176777761
 20
22.1041635151
 11
-3.1664879563
 21
21.2737704984
  0
LWPOLYLINE
  5
269
100
AcDbEntity
  8
21814000
100
AcDbPolyline
 62
7
  6
CONTINUOUS
 90
5
 70
0
 10
-2.3172198587
 20
22.1017027324
 10
-2.3161390553
 20
22.1026342529
 10
-2.3105906906
 20
22.1068169893
 10
-2.3044362307
 20
22.1104546379
 10
-2.3025098899
 20
22.1114078598
  0
LINE
  5
26A
100
AcDbEntity
  8
21814000
100
AcDbLine
 62
250
  6
CONTINUOUS
 10
-2.665758998
 20
21.0234060192
 11
-2.1919505544
 21
21.3948260757
  0
LINE
  5
26B
100
AcDbEntity
  8
21814000
100
AcDbLine
 62
250
  6
CONTINUOUS
 10
-2.387869335
 20
20.8844611878
 11
-2.0191434244
 21
21.1735066878
  0
LWPOLYLINE
  5
26C
100
AcDbEntity
  8
21814000
100
AcDbPolyline
 62
250
  6
CONTINUOUS
 90
13
 70
0
 10
-2.1919505544
 20
21.3948260757
 10
-2.1507716351
 20
21.4243722056
 10
-2.1075762627
 20
21.4509823418
 10
-2.0623644374
 20
21.4746564842
 10
-2.0145874693
 20
21.4955514522
 10
-1.9647940482
 20
21.5135104264
 10
-1.914630243
 20
21.5280629486
 10
-1.8641244521
 20
21.5390814467
 10
-1.813248277
 20
21.5466934927
 10
-1.7635625916
 20
21.5508113446
 10
-1.7152076373
 20
21.5513495401
 10
-1.6680431727
 20
21.5483935414
 10
-1.6232093477
 20
21.5421119932
  0
LINE
  5
26D
100
AcDbEntity
  8
26814000
100
AcDbLine
 62
7
  6
CONTINUOUS
 10
-1.5140331072
 20
19.2457301416
 11
-1.0149373745
 21
19.4959268147
  0
LINE
  5
26E
100
AcDbEntity
  8
26814000
100
AcDbLine
 62
7
  6
CONTINUOUS
 10
-1.0149373745
 20
19.4959268147
 11
4.3993353207
 21
22.1959424251
  0
LINE
  5
26F
100
AcDbEntity
  8
26814000
100
AcDbLine
 62
7
  6
CONTINUOUS
 10
3.7933887376
 20
22.4976903831
 11
-0.9442266963
 21
20.1626398684
  0
LINE
  5
270
100
AcDbEntity
  8
26814000
100
AcDbLine
 62
7
  6
CONTINUOUS
 10
5.0723515362
 20
22.2414423539
 11
4.4859727491
 21
21.9545202863
  0
LWPOLYLINE
  5
271
100
AcDbEntity
  8
26814000
100
AcDbPolyline
 62
7
  6
CONTINUOUS
 90
18
 70
0
 10
5.0723515362
 20
22.2414423539
 10
5.100726057
 20
22.2546243107
 10
5.128960509
 20
22.2663587025
 10
5.1570548922
 20
22.2766455292
 10
5.1850592052
 20
22.2854976638
 10
5.2129234495
 20
22.2929022333
 10
5.2404976292
 20
22.2988206189
 10
5.2677667578
 20
22.3032440402
 10
5.2947458218
 20
22.3061812776
 10
5.3213297844
 20
22.3076200535
 10
5.3475347433
 20
22.3075529169
 10
5.3733446008
 20
22.305987319
 10
5.398606027
 20
22.3029333355
 10
5.4232957803
 20
22.2983875511
 10
5.4474371025
 20
22.2923533813
 10
5.4709463887
 20
22.2848511485
 10
5.4938421689
 20
22.2758657339
 10
5.5134042532
 20
22.2667760008
  0
LINE
  5
272
100
AcDbEntity
  8
21814000
100
AcDbLine
 62
7
  6
CONTINUOUS
 10
11.3016900071
 20
24.8103387768
 11
5.6482201166
 21
22.1993790319
  0
LINE
  5
273
100
AcDbEntity
  8
21814000
100
AcDbLine
 62
250
  6
CONTINUOUS
 10
11.6901474896
 20
24.7781244412
 11
5.8682342392
 21
22.0893719705
  0
LWPOLYLINE
  5
274
100
AcDbEntity
  8
21814000
100
AcDbPolyline
 62
250
  6
CONTINUOUS
 90
9
 70
0
 10
11.6901474896
 20
24.7781244412
 10
11.7441538912
 20
24.8011559571
 10
11.7978739643
 20
24.8183975937
 10
11.8509098087
 20
24.8296623653
 10
11.902895734
 20
24.8348062818
 10
11.9533969839
 20
24.8337181428
 10
12.0019251201
 20
24.8263627476
 10
12.0481074128
 20
24.8127685981
 10
12.0815185032
 20
24.7982587269
  0
LWPOLYLINE
  5
275
100
AcDbEntity
  8
21814000
100
AcDbPolyline
 62
7
  6
CONTINUOUS
 90
12
 70
0
 10
11.3016900071
 20
24.8103387768
 10
11.3673174832
 20
24.8375584264
 10
11.4360163137
 20
24.8598341958
 10
11.5073237963
 20
24.876733578
 10
11.5808804458
 20
24.8878979025
 10
11.6559084281
 20
24.8929696253
 10
11.7312943855
 20
24.8917487785
 10
11.8064798942
 20
24.8841986435
 10
11.8808373258
 20
24.870352012
 10
11.9533586972
 20
24.8504423952
 10
12.0237107288
 20
24.8246529444
 10
12.0815508577
 20
24.7982425494
  0
LWPOLYLINE
  5
276
100
AcDbEntity
  8
21814000
100
AcDbPolyline
 62
250
  6
CONTINUOUS
 90
9
 70
0
 10
11.3016900071
 20
24.8103387768
 10
11.3296026326
 20
24.8217377564
 10
11.3761170456
 20
24.8347168093
 10
11.4249359982
 20
24.8412944026
 10
11.4756880928
 20
24.8414204962
 10
11.5279872248
 20
24.8350941307
 10
11.5814355205
 20
24.8223634351
 10
11.6356263639
 20
24.8033252599
 10
11.6901474896
 20
24.7781244412
  0
LINE
  5
277
100
AcDbEntity
  8
26814000
100
AcDbLine
 62
250
  6
CONTINUOUS
 10
3.4569987882
 20
-23.3503595987
 11
3.4135764623
 21
-23.3286484357
  0
LINE
  5
278
100
AcDbEntity
  8
26814000
100
AcDbLine
 62
7
  6
CONTINUOUS
 10
-0.476855115
 20
-21.2693872317
 11
2.803439244
 21
-22.9095344111
  0
LINE
  5
279
100
AcDbEntity
  8
26814000
100
AcDbLine
 62
250
  6
CONTINUOUS
 10
3.3691246689
 20
-23.1510924532
 11
3.9842435039
 21
-23.4586518707
  0
LINE
  5
27A
100
AcDbEntity
  8
26814000
100
AcDbLine
 62
7
  6
CONTINUOUS
 10
3.3691246689
 20
-23.1474723036
 11
4.0075228772
 21
-23.4666714078
  0
LINE
  5
27B
100
AcDbEntity
  8
26814000
100
AcDbLine
 62
7
  6
CONTINUOUS
 10
-0.3464551631
 20
-19.68467977
 11
2.803439244
 21
-21.2596269736
  0
LWPOLYLINE
  5
27C
100
AcDbEntity
  8
21814000
100
AcDbPolyline
 62
250
  6
CONTINUOUS
 90
10
 70
0
 10
-1.2472764896
 20
22.2220227338
 10
-1.2420193622
 20
22.2275502393
 10
-1.2367848941
 20
22.232313197
 10
-1.2315956877
 20
22.2362888254
 10
-1.2264722498
 20
22.2394587265
 10
-1.2214390131
 20
22.2418050547
 10
-1.216523818
 20
22.2433139058
 10
-1.2117456965
 20
22.243979368
 10
-1.2071274929
 20
22.2437981882
 10
-1.205088178
 20
22.2434365213
  0
LWPOLYLINE
  5
27D
100
AcDbEntity
  8
21814000
100
AcDbPolyline
 62
250
  6
CONTINUOUS
 90
10
 70
0
 10
-1.5038318606
 20
21.5034826966
 10
-1.5228727491
 20
21.4854231314
 10
-1.5407208046
 20
21.4647126661
 10
-1.557009101
 20
21.4417770732
 10
-1.5714027782
 20
21.4170878698
 10
-1.5836059263
 20
21.3911526249
 10
-1.593367669
 20
21.3645045234
 10
-1.6004873213
 20
21.3376914058
 10
-1.6048185151
 20
21.3112645047
 10
-1.6062722081
 20
21.2857671131
  0
LWPOLYLINE
  5
27E
100
AcDbEntity
  8
21814000
100
AcDbPolyline
 62
250
  6
CONTINUOUS
 90
10
 70
0
 10
-0.7454262619
 20
21.1242798972
 10
-0.7644677144
 20
21.1062197029
 10
-0.7823161063
 20
21.0855086425
 10
-0.798604522
 20
21.0625725825
 10
-0.8129981228
 20
21.037883134
 10
-0.8252010623
 20
21.0119478971
 10
-0.8349625484
 20
20.9853000161
 10
-0.8420819567
 20
20.9584873039
 10
-0.8464129703
 20
20.9320609874
 10
-0.8478666073
 20
20.9065643128
  0
LWPOLYLINE
  5
27F
100
AcDbEntity
  8
21814000
100
AcDbPolyline
 62
250
  6
CONTINUOUS
 90
16
 70
0
 10
-2.0191434244
 20
21.1735066878
 10
-1.9949140889
 20
21.1963696903
 10
-1.9688727608
 20
21.2173890022
 10
-1.9413175233
 20
21.2364879548
 10
-1.9125485961
 20
21.2537187387
 10
-1.8828909137
 20
21.2689248094
 10
-1.8526930771
 20
21.2817455785
 10
-1.822278344
 20
21.2921395883
 10
-1.7919615688
 20
21.3001539989
 10
-1.7620736665
 20
21.3055932153
 10
-1.7329619226
 20
21.3084701083
 10
-1.7048517651
 20
21.3088809726
 10
-1.6778822957
 20
21.3067600323
 10
-1.6522779225
 20
21.3021248446
 10
-1.6283305829
 20
21.2950972292
 10
-1.6062722081
 20
21.2857671131
  0
LINE
  5
280
100
AcDbEntity
  8
21814000
100
AcDbLine
 62
250
  6
CONTINUOUS
 10
-0.7274072398
 20
20.6625544184
 11
-1.1540262786
 21
20.2675396596
  0
LINE
  5
281
100
AcDbEntity
  8
21814000
100
AcDbLine
 62
7
  6
CONTINUOUS
 10
-0.8242076108
 20
20.6623941786
 11
-1.2167713158
 21
20.2989121782
  0
LINE
  5
282
100
AcDbEntity
  8
26814000
100
AcDbLine
 62
7
  6
CONTINUOUS
 10
0.160022469
 20
17.8246997363
 11
1.7427790722
 21
18.6366838337
  0
LINE
  5
283
100
AcDbEntity
  8
26814000
100
AcDbLine
 62
7
  6
CONTINUOUS
 10
-1.5140331072
 20
18.0315266688
 11
-1.0149373745
 21
18.2834912494
  0
LINE
  5
284
100
AcDbEntity
  8
26814000
100
AcDbLine
 62
7
  6
CONTINUOUS
 10
-1.0149373745
 20
18.2834912494
 11
4.3993353207
 21
20.9641038467
  0
LINE
  5
285
100
AcDbEntity
  8
26814000
100
AcDbLine
 62
7
  6
CONTINUOUS
 10
1.7427790722
 20
18.6366838337
 11
2.2772289509
 21
18.8970313002
  0
LINE
  5
286
100
AcDbEntity
  8
21814000
100
AcDbLine
 62
7
  6
CONTINUOUS
 10
12.6613063233
 20
24.2925450243
 11
9.2309024229
 21
22.6552082113
  0
LINE
  5
287
100
AcDbEntity
  8
26814000
100
AcDbLine
 62
7
  6
CONTINUOUS
 10
-13.7782147749
 20
22.5753483404
 11
-13.7782147749
 21
22.5509528351
  0
LINE
  5
288
100
AcDbEntity
  8
26814000
100
AcDbLine
 62
7
  6
CONTINUOUS
 10
-13.3790214779
 20
23.9485993731
 11
-13.3790214779
 21
24.2019707669
  0
LINE
  5
289
100
AcDbEntity
  8
21814000
100
AcDbLine
 62
250
  6
CONTINUOUS
 10
-0.694307315
 20
20.6962808001
 11
-0.7274072398
 21
20.6625544184
  0
LWPOLYLINE
  5
28A
100
AcDbEntity
  8
21814000
100
AcDbPolyline
 62
7
  6
CONTINUOUS
 90
13
 70
0
 10
9.6454799346
 20
21.5796296712
 10
9.5164951165
 20
21.5092759528
 10
9.3975818322
 20
21.4346179041
 10
9.2893129987
 20
21.3560152233
 10
9.1922102487
 20
21.273846613
 10
9.1067414173
 20
21.1885079569
 10
9.0333182883
 20
21.1004104113
 10
8.9722946097
 20
21.0099784248
 10
8.9239643899
 20
20.9176476933
 10
8.888560481
 20
20.8238630606
 10
8.8662534569
 20
20.7290763754
 10
8.8571507915
 20
20.6337443142
 10
8.8569186697
 20
20.6158794327
  0
LINE
  5
28B
100
AcDbEntity
  8
26814000
100
AcDbLine
 62
250
  6
CONTINUOUS
 10
3.883205502
 20
17.3429792645
 11
9.2415322822
 21
20.2339194915
  0
LINE
  5
28C
100
AcDbEntity
  8
26814000
100
AcDbLine
 62
250
  6
CONTINUOUS
 10
3.5165853488
 20
16.8967671384
 11
9.1573807146
 21
19.9401056476
  0
LINE
  5
28D
100
AcDbEntity
  8
0
100
AcDbLine
 62
7
  6
CONTINUOUS
 10
9.3146490744
 20
20.3077275908
 11
9.9654227292
 21
20.6508934069
  0
LINE
  5
28E
100
AcDbEntity
  8
RACCORDO
100
AcDbLine
 62
250
  6
CONTINUOUS
 10
9.9652949472
 20
20.65082602
 11
9.9654227292
 21
20.6508934069
  0
LINE
  5
28F
100
AcDbEntity
  8
26814000
100
AcDbLine
 62
250
  6
CONTINUOUS
 10
3.428195394
 20
16.7614739572
 11
9.1573807146
 21
19.7278464935
  0
LINE
  5
290
100
AcDbEntity
  8
26814000
100
AcDbLine
 62
7
  6
CONTINUOUS
 10
3.5479615246
 20
16.7015908919
 11
9.2395904269
 21
19.6485180234
  0
LINE
  5
291
100
AcDbEntity
  8
21814000
100
AcDbLine
 62
7
  6
CONTINUOUS
 10
13.657635913
 20
23.6210294639
 11
9.6454799346
 21
21.5796296712
  0
LINE
  5
292
100
AcDbEntity
  8
26814000
100
AcDbLine
 62
7
  6
CONTINUOUS
 10
1.7678438781
 20
17.0207890318
 11
3.3691246689
 21
17.8235110353
  0
LINE
  5
293
100
AcDbEntity
  8
0
100
AcDbLine
 62
7
  6
CONTINUOUS
 10
10.093710158
 20
20.4278016756
 11
10.5886849048
 21
20.675289049
  0
LINE
  5
294
100
AcDbEntity
  8
26814000
100
AcDbLine
 62
7
  6
CONTINUOUS
 10
3.3691246689
 20
17.8235110353
 11
3.8973918407
 21
18.0869498553
  0
LINE
  5
295
100
AcDbEntity
  8
21814000
100
AcDbLine
 62
7
  6
CONTINUOUS
 10
13.657635913
 20
23.2131781966
 11
9.6454799346
 21
21.258305389
  0
LINE
  5
296
100
AcDbEntity
  8
26814000
100
AcDbLine
 62
250
  6
CONTINUOUS
 10
3.279602459
 20
18.4578219171
 11
8.0514414371
 21
20.7518974035
  0
LINE
  5
297
100
AcDbEntity
  8
26814000
100
AcDbLine
 62
250
  6
CONTINUOUS
 10
3.5072179588
 20
18.3440141671
 11
8.493282305
 21
20.7410791231
  0
LWPOLYLINE
  5
298
100
AcDbEntity
  8
RACCORDO
100
AcDbPolyline
 62
250
  6
CONTINUOUS
 90
22
 70
0
 10
-2.2356759681
 20
13.2623161157
 10
-2.3119251744
 20
13.230700164
 10
-2.3882884699
 20
13.1924401881
 10
-2.4643840453
 20
13.1477333509
 10
-2.5398324314
 20
13.0968139409
 10
-2.6142557131
 20
13.0399389047
 10
-2.6872788963
 20
12.9773838834
 10
-2.7585454248
 20
12.9094569006
 10
-2.8276889649
 20
12.8365106676
 10
-2.8943340818
 20
12.7589298574
 10
-2.9581350627
 20
12.6771285686
 10
-3.0187894716
 20
12.5915089981
 10
-3.0760064825
 20
12.5024690233
 10
-3.1295086415
 20
12.4104378573
 10
-3.1790137298
 20
12.3159006417
 10
-3.2242511081
 20
12.219359979
 10
-3.264988586
 20
12.1213209682
 10
-3.3010318483
 20
12.0222665922
 10
-3.3322017778
 20
11.9226786526
 10
-3.3583407476
 20
11.8230548042
 10
-3.3793162259
 20
11.7239064453
 10
-3.3950217174
 20
11.6257358611
  0
LINE
  5
299
100
AcDbEntity
  8
RACCORDO
100
AcDbLine
 62
250
  6
CONTINUOUS
 10
1.856848799
 20
14.7334210482
 11
-2.2356759681
 21
13.2623161157
  0
LINE
  5
29A
100
AcDbEntity
  8
26814000
100
AcDbLine
 62
7
  6
CONTINUOUS
 10
1.9902664456
 20
14.6667122249
 11
2.803439244
 21
14.9510138928
  0
LINE
  5
29B
100
AcDbEntity
  8
26814000
100
AcDbLine
 62
7
  6
CONTINUOUS
 10
-12.9650419765
 20
22.144366436
 11
-12.9650419765
 21
22.074890252
  0
LINE
  5
29C
100
AcDbEntity
  8
26814000
100
AcDbLine
 62
7
  6
CONTINUOUS
 10
-12.6760285237
 20
23.0420401184
 11
-12.6760285237
 21
23.4943710941
  0
LINE
  5
29D
100
AcDbEntity
  8
26814000
100
AcDbLine
 62
7
  6
CONTINUOUS
 10
-11.7732450158
 20
23.3990825358
 11
-11.7732450158
 21
23.145711142
  0
LINE
  5
29E
100
AcDbEntity
  8
26814000
100
AcDbLine
 62
7
  6
CONTINUOUS
 10
-11.0620244077
 20
22.2350380604
 11
-11.0620244077
 21
22.8722076192
  0
LWPOLYLINE
  5
29F
100
AcDbEntity
  8
26814000
100
AcDbPolyline
 62
7
  6
CONTINUOUS
 90
5
 70
0
 10
9.2397989207
 20
19.6486163347
 10
9.2400333575
 20
19.6487493364
 10
9.2409605935
 20
19.6495770079
 10
9.2414670109
 20
19.6506280793
 10
9.2415787563
 20
19.6515723235
  0
LINE
  5
2A0
100
AcDbEntity
  8
26814000
100
AcDbLine
 62
250
  6
CONTINUOUS
 10
3.5105460251
 20
16.0207495496
 11
1.7427790722
 21
15.1179718501
  0
LINE
  5
2A1
100
AcDbEntity
  8
26814000
100
AcDbLine
 62
250
  6
CONTINUOUS
 10
3.7580333986
 20
15.5938854297
 11
1.9902664456
 21
14.6911077302
  0
LINE
  5
2A2
100
AcDbEntity
  8
26814000
100
AcDbLine
 62
7
  6
CONTINUOUS
 10
3.3691246689
 20
16.0914602277
 11
2.3022937568
 21
15.5528789782
  0
LINE
  5
2A3
100
AcDbEntity
  8
RACCORDO
100
AcDbLine
 62
7
  6
CONTINUOUS
 10
13.0568628173
 20
20.8557889013
 11
11.7453985063
 21
20.2000567458
  0
LINE
  5
2A4
100
AcDbEntity
  8
RACCORDO
100
AcDbLine
 62
7
  6
CONTINUOUS
 10
13.9053935251
 20
20.4315261177
 11
13.0265008739
 21
19.9920797921
  0
LINE
  5
2A5
100
AcDbEntity
  8
26814000
100
AcDbLine
 62
250
  6
CONTINUOUS
 10
4.2176528063
 20
16.366745251
 11
3.5105460251
 21
16.0207495496
  0
LINE
  5
2A6
100
AcDbEntity
  8
26814000
100
AcDbLine
 62
250
  6
CONTINUOUS
 10
4.4651401797
 20
15.9398811311
 11
3.7580333986
 21
15.5938854297
  0
LINE
  5
2A7
100
AcDbEntity
  8
21814000
100
AcDbLine
 62
7
  6
CONTINUOUS
 10
9.8233823543
 20
19.1490013057
 11
4.1575177854
 21
16.3968127615
  0
LINE
  5
2A8
100
AcDbEntity
  8
21814000
100
AcDbLine
 62
7
  6
CONTINUOUS
 10
18.1686413385
 20
21.5388775167
 11
10.5760764383
 21
17.8507960447
  0
LINE
  5
2A9
100
AcDbEntity
  8
21814000
100
AcDbLine
 62
7
  6
CONTINUOUS
 10
17.3629694024
 20
21.9417134848
 11
13.9418233326
 21
20.2997477565
  0
LWPOLYLINE
  5
2AA
100
AcDbEntity
  8
RACCORDO
100
AcDbPolyline
 62
7
  6
CONTINUOUS
 90
10
 70
0
 10
13.9053646292
 20
20.4315116698
 10
13.9167610934
 20
20.436680325
 10
13.9279814959
 20
20.4407322214
 10
13.9390258366
 20
20.4436673589
 10
13.9499890956
 20
20.4454858903
 10
13.9607762927
 20
20.4461876627
 10
13.9711024882
 20
20.4457722184
 10
13.9808727019
 20
20.4442394045
 10
13.9901819139
 20
20.4415893738
 10
13.9990301242
 20
20.4378221262
  0
LWPOLYLINE
  5
2AB
100
AcDbEntity
  8
21814000
100
AcDbPolyline
 62
7
  6
CONTINUOUS
 90
9
 70
0
 10
18.1686413385
 20
21.5388775167
 10
18.2247872162
 20
21.5641405551
 10
18.2780199271
 20
21.5835930475
 10
18.3278903876
 20
21.5972226585
 10
18.3738611573
 20
21.605130346
 10
18.4156531188
 20
21.6073633239
 10
18.453246029
 20
21.6039063096
 10
18.4862803175
 20
21.5949697054
 10
18.500842268
 20
21.5885966475
  0
LWPOLYLINE
  5
2AC
100
AcDbEntity
  8
RACCORDO
100
AcDbPolyline
 62
250
  6
CONTINUOUS
 90
22
 70
0
 10
-1.7391297335
 20
12.2573626586
 10
-1.7753244423
 20
12.242780944
 10
-1.8112642835
 20
12.2252777614
 10
-1.8469492572
 20
12.2048531109
 10
-1.8825723472
 20
12.1813698043
 10
-1.9179405695
 20
12.1549650298
 10
-1.9524749729
 20
12.1260503515
 10
-1.9861504304
 20
12.0945899167
 10
-2.0189920689
 20
12.0606195781
 10
-2.0504963171
 20
12.0246584577
 10
-2.0806376864
 20
11.9866826473
 10
-2.1094416654
 20
11.946716055
 10
-2.1364811491
 20
11.9053495271
 10
-2.1617349229
 20
11.8625519325
 10
-2.1852242013
 20
11.8183544024
 10
-2.2065855237
 20
11.7734411766
 10
-2.2257845995
 20
11.7277906045
 10
-2.2428557191
 20
11.6814243367
 10
-2.2575382931
 20
11.6350915641
 10
-2.2697454584
 20
11.5890420168
 10
-2.2795640781
 20
11.5430259647
 10
-2.2869941521
 20
11.4970434077
  0
LINE
  5
2AD
100
AcDbEntity
  8
RACCORDO
100
AcDbLine
 62
250
  6
CONTINUOUS
 10
2.4045059274
 20
13.7468399877
 11
-1.7391297335
 21
12.2573626586
  0
LINE
  5
2AE
100
AcDbEntity
  8
26814000
100
AcDbLine
 62
7
  6
CONTINUOUS
 10
-9.9951934955
 20
22.77361931
 11
-9.9951934955
 21
24.5056701175
  0
LINE
  5
2AF
100
AcDbEntity
  8
26814000
100
AcDbLine
 62
7
  6
CONTINUOUS
 10
-9.2922005412
 20
24.6409916153
 11
-9.2922005412
 21
24.3800626389
  0
LINE
  5
2B0
100
AcDbEntity
  8
21814000
100
AcDbLine
 62
250
  6
CONTINUOUS
 10
18.9271480333
 20
19.6435450089
 11
4.4651401797
 21
12.1556212435
  0
LINE
  5
2B1
100
AcDbEntity
  8
21814000
100
AcDbLine
 62
250
  6
CONTINUOUS
 10
18.5881845494
 20
20.8152725153
 11
4.4651401797
 21
13.793416317
  0
LWPOLYLINE
  5
2B2
100
AcDbEntity
  8
RACCORDO
100
AcDbPolyline
 62
250
  6
CONTINUOUS
 90
14
 70
0
 10
-6.4109785951
 20
-25.026190002
 10
-6.4109631561
 20
-25.1186882418
 10
-6.4055212656
 20
-25.2083042111
 10
-6.3946805406
 20
-25.2945853974
 10
-6.3784947231
 20
-25.377093575
 10
-6.3570464567
 20
-25.4554160138
 10
-6.3304444734
 20
-25.5291655271
 10
-6.298814582
 20
-25.5979781269
 10
-6.2623173856
 20
-25.6614948942
 10
-6.221152968
 20
-25.7193760797
 10
-6.1755384244
 20
-25.771323397
 10
-6.1256960035
 20
-25.8170913837
 10
-6.0718657241
 20
-25.856462108
 10
-6.0168947249
 20
-25.887946716
  0
LINE
  5
2B3
100
AcDbEntity
  8
26814000
100
AcDbLine
 62
7
  6
CONTINUOUS
 10
-7.8174364925
 20
22.2476061782
 11
-7.8174364925
 21
21.0328727919
  0
LINE
  5
2B4
100
AcDbEntity
  8
26814000
100
AcDbLine
 62
250
  6
CONTINUOUS
 10
-7.7295685269
 20
22.1410972213
 11
-7.7295685269
 21
20.9261423552
  0
LINE
  5
2B5
100
AcDbEntity
  8
26814000
100
AcDbLine
 62
7
  6
CONTINUOUS
 10
3.9842435039
 20
17.4659522687
 11
3.4569987882
 21
16.8242445407
  0
LWPOLYLINE
  5
2B6
100
AcDbEntity
  8
21814000
100
AcDbPolyline
 62
250
  6
CONTINUOUS
 90
32
 70
0
 10
19.0348073235
 20
14.0972478869
 10
19.0548984285
 20
14.1031945723
 10
19.0742182282
 20
14.1070456786
 10
19.0927438474
 20
14.1088282186
 10
19.1104388473
 20
14.1084443152
 10
19.1272775796
 20
14.1060614627
 10
19.1432547719
 20
14.1021020772
 10
19.1582945161
 20
14.0966408832
 10
19.1724081591
 20
14.0896734564
 10
19.1857306894
 20
14.081493753
 10
19.1982458069
 20
14.0721988635
 10
19.2099015851
 20
14.0617695126
 10
19.2207817304
 20
14.0503247576
 10
19.2308853894
 20
14.0379406758
 10
19.2401341757
 20
14.0246377673
 10
19.2484924102
 20
14.0104575517
 10
19.2559409282
 20
13.9954775238
 10
19.262409058
 20
13.9797377052
 10
19.2677792214
 20
13.9632312069
 10
19.2720267335
 20
13.9460749908
 10
19.275076475
 20
13.9282932307
 10
19.276722769
 20
13.9097581238
 10
19.27695622
 20
13.8906307121
 10
19.2756619714
 20
13.8709389298
 10
19.2724457404
 20
13.8503989128
 10
19.2673042121
 20
13.8292060398
 10
19.260066856
 20
13.8074474295
 10
19.2500420783
 20
13.7847459605
 10
19.2372353345
 20
13.7613790479
 10
19.221408026
 20
13.7374800987
 10
19.2014467023
 20
13.712543517
 10
19.179742213
 20
13.6895037862
  0
LWPOLYLINE
  5
2B7
100
AcDbEntity
  8
RACCORDO
100
AcDbPolyline
 62
250
  6
CONTINUOUS
 90
22
 70
0
 10
-5.2949084781
 20
-25.0571439864
 10
-5.2948331281
 20
-25.10047347
 10
-5.2922350437
 20
-25.1421293766
 10
-5.2871142251
 20
-25.1821117061
 10
-5.279420757
 20
-25.2206245758
 10
-5.2692045546
 20
-25.2574638685
 10
-5.2566153632
 20
-25.2920172329
 10
-5.241614852
 20
-25.324233875
 10
-5.2242413518
 20
-25.3541645888
 10
-5.2047596005
 20
-25.3813494053
 10
-5.183141121
 20
-25.4057423423
 10
-5.1594143904
 20
-25.427389382
 10
-5.1339295773
 20
-25.4459685014
 10
-5.1066536073
 20
-25.4614363571
 10
-5.0776195549
 20
-25.4738362924
 10
-5.0472768124
 20
-25.4829763141
 10
-5.0155957649
 20
-25.4887993102
 10
-4.9826060272
 20
-25.4913623927
 10
-4.9488458368
 20
-25.4906449044
 10
-4.9144946059
 20
-25.4866399597
 10
-4.8793729223
 20
-25.4793544443
 10
-4.8434807859
 20
-25.4687883582
  0
LWPOLYLINE
  5
2B8
100
AcDbEntity
  8
RACCORDO
100
AcDbPolyline
 62
250
  6
CONTINUOUS
 90
13
 70
0
 10
-3.3950217174
 20
11.6257358611
 10
-3.7991759892
 20
8.5215765621
 10
-4.1756780816
 20
5.4251578579
 10
-4.5244799661
 20
2.3368783653
 10
-4.8455372205
 20
-0.7428642847
 10
-5.1388086342
 20
-3.8136738202
 10
-5.40425621
 20
-6.8751553783
 10
-5.6418455641
 20
-9.9269151571
 10
-5.8515463554
 20
-12.9685603771
 10
-6.0333318831
 20
-15.9996996508
 10
-6.1871786641
 20
-19.0199430485
 10
-6.3130664392
 20
-22.02890215
 10
-6.4109785951
 20
-25.026190002
  0
LWPOLYLINE
  5
2B9
100
AcDbEntity
  8
21814000
100
AcDbPolyline
 62
7
  6
CONTINUOUS
 90
9
 70
0
 10
-0.7603461949
 20
20.759275912
 10
-0.761929189
 20
20.7514588343
 10
-0.7653515493
 20
20.7411872271
 10
-0.771115288
 20
20.7286308781
 10
-0.7794340435
 20
20.7143894586
 10
-0.7901126577
 20
20.699330205
 10
-0.802927212
 20
20.6839608319
 10
-0.8177704958
 20
20.6685103288
 10
-0.8242074327
 20
20.6623939854
  0
LWPOLYLINE
  5
2BA
100
AcDbEntity
  8
RACCORDO
100
AcDbPolyline
 62
250
  6
CONTINUOUS
 90
47
 70
0
 10
9.5306414779
 20
20.2146349113
 10
9.5695742521
 20
20.2666769061
 10
9.6188574705
 20
20.3234575835
 10
9.6739911451
 20
20.3790481979
 10
9.7344946235
 20
20.4329907202
 10
9.8003669751
 20
20.4852436197
 10
9.8716091304
 20
20.5358484271
 10
9.9477432281
 20
20.5844717056
 10
10.0287598571
 20
20.6310994482
 10
10.1146684284
 20
20.6757456618
 10
10.2050193141
 20
20.7181189309
 10
10.3000695943
 20
20.7582781289
 10
10.3995621888
 20
20.7961643824
 10
10.5022762292
 20
20.8313096555
 10
10.608617098
 20
20.8636873754
 10
10.7181794126
 20
20.893324115
 10
10.8285261569
 20
20.9198315572
 10
10.9396306739
 20
20.9430309506
 10
11.0515196206
 20
20.9631010467
 10
11.1618359527
 20
20.9801897824
 10
11.2702264426
 20
20.9941636783
 10
11.3770443179
 20
21.0051562139
 10
11.480992217
 20
21.0137157651
 10
11.5818280514
 20
21.0198183346
 10
11.6797939097
 20
21.0234879198
 10
11.774318696
 20
21.0253448886
 10
11.8652404362
 20
21.0254107575
 10
11.9527211043
 20
21.02366401
 10
12.0366755277
 20
21.0206604646
 10
12.1169796011
 20
21.016441664
 10
12.1937574297
 20
21.0109660655
 10
12.2672961561
 20
21.0046648599
 10
12.3375626898
 20
20.9975788261
 10
12.4045901214
 20
20.9896671852
 10
12.4687648655
 20
20.981238791
 10
12.5300726123
 20
20.9723281505
 10
12.5885276718
 20
20.9629007567
 10
12.6445593883
 20
20.9531619429
 10
12.6981639718
 20
20.9431404211
 10
12.7493452125
 20
20.9328074794
 10
12.7985438248
 20
20.9222823147
 10
12.8457629697
 20
20.9115877755
 10
12.8909994862
 20
20.9007010134
 10
12.9346846061
 20
20.8896726797
 10
12.9769620732
 20
20.8785196584
 10
13.0176881436
 20
20.8672250656
 10
13.0568628173
 20
20.8557889013
  0
LWPOLYLINE
  5
2BB
100
AcDbEntity
  8
RACCORDO
100
AcDbPolyline
 62
250
  6
CONTINUOUS
 90
10
 70
0
 10
9.4489876083
 20
20.2482925534
 10
9.4512822964
 20
20.2513525641
 10
9.5041449475
 20
20.3120696621
 10
9.563223818
 20
20.3713288793
 10
9.6283165974
 20
20.4289368125
 10
9.6991924293
 20
20.4847102802
 10
9.7756855671
 20
20.5385382157
 10
9.8576769708
 20
20.5903393994
 10
9.9449255678
 20
20.6399570387
 10
9.9652949472
 20
20.65082602
  0
LINE
  5
2BC
100
AcDbEntity
  8
21814000
100
AcDbLine
 62
250
  6
CONTINUOUS
 10
-2.0191434244
 20
21.1735066878
 11
-2.0191434244
 21
20.7000982325
  0
LINE
  5
2BD
100
AcDbEntity
  8
26814000
100
AcDbLine
 62
250
  6
CONTINUOUS
 10
-1.9370594588
 20
18.0298878212
 11
-1.9370594588
 21
19.2448426873
  0
LWPOLYLINE
  5
2BE
100
AcDbEntity
  8
RACCORDO
100
AcDbPolyline
 62
250
  6
CONTINUOUS
 90
16
 70
0
 10
-1.7391297335
 20
12.2573626586
 10
-1.7364925906
 20
12.3338559585
 10
-1.7399167502
 20
12.4126683222
 10
-1.7493647393
 20
12.4929365418
 10
-1.7647331074
 20
12.5737814588
 10
-1.7858535563
 20
12.654317585
 10
-1.8124947814
 20
12.7336628011
 10
-1.8443650101
 20
12.8109480372
 10
-1.881115191
 20
12.8853267711
 10
-1.9223428091
 20
12.9559842947
 10
-1.9675963146
 20
13.022146677
 10
-2.016380055
 20
13.0830892113
 10
-2.0681596875
 20
13.1381443421
 10
-2.1223680624
 20
13.1867090181
 10
-2.1784114385
 20
13.2282512901
 10
-2.2356759661
 20
13.2623161164
  0
LINE
  5
2BF
100
AcDbEntity
  8
21814000
100
AcDbLine
 62
7
  6
CONTINUOUS
 10
-0.7600036089
 20
20.7641462646
 11
-0.7603461949
 21
20.759275912
  0
LWPOLYLINE
  5
2C0
100
AcDbEntity
  8
RACCORDO
100
AcDbPolyline
 62
250
  6
CONTINUOUS
 90
7
 70
0
 10
-4.2909055749
 20
-6.9545033547
 10
-4.5278461528
 20
-9.9980032631
 10
-4.7370033474
 20
-13.031808927
 10
-4.9182962665
 20
-16.0547435145
 10
-5.0716979459
 20
-19.0664147482
 10
-5.1972353498
 20
-22.0672149055
 10
-5.2949084781
 20
-25.0571439864
  0
LWPOLYLINE
  5
2C1
100
AcDbEntity
  8
RACCORDO
100
AcDbPolyline
 62
250
  6
CONTINUOUS
 90
7
 70
0
 10
-2.2869941521
 20
11.4970434077
 10
-2.6901541501
 20
8.4005161583
 10
-3.0656442438
 20
5.3124966912
 10
-3.4134644331
 20
2.2329850063
 10
-3.7336525444
 20
-0.8384143837
 10
-4.0261707513
 20
-3.9013059915
 10
-4.2909055749
 20
-6.9545033547
  0
LINE
  5
2C2
100
AcDbEntity
  8
26814000
100
AcDbLine
 62
7
  6
CONTINUOUS
 10
0.8823729217
 20
-4.7511387119
 11
1.07102763
 21
-4.8454660661
  0
LWPOLYLINE
  5
2C3
100
AcDbEntity
  8
26814000
100
AcDbPolyline
 62
7
  6
CONTINUOUS
 90
13
 70
0
 10
9.2381591395
 20
-17.2752029484
 10
9.2352679745
 20
-17.2713097575
 10
9.2315792103
 20
-17.2669274173
 10
9.2271192464
 20
-17.2621701244
 10
9.2219263881
 20
-17.2570302698
 10
9.2160437309
 20
-17.251482911
 10
9.2094831968
 20
-17.2456153124
 10
9.2022762936
 20
-17.2394180045
 10
9.1944591479
 20
-17.2328728799
 10
9.1860352085
 20
-17.2260520038
 10
9.1770223171
 20
-17.218969979
 10
9.1674604717
 20
-17.2115863357
 10
9.1573807146
 20
-17.203889781
  0
LINE
  5
2C4
100
AcDbEntity
  8
26814000
100
AcDbLine
 62
7
  6
CONTINUOUS
 10
0.2169802188
 20
-12.8374360314
 11
0.7978142276
 21
-18.251261605
  0
LINE
  5
2C5
100
AcDbEntity
  8
21814000
100
AcDbLine
 62
7
  6
CONTINUOUS
 10
-0.7599986802
 20
20.7642033919
 11
-0.7599986447
 21
20.7641044156
  0
LINE
  5
2C6
100
AcDbEntity
  8
21814000
100
AcDbLine
 62
250
  6
CONTINUOUS
 10
-1.6062722081
 20
21.2857671131
 11
-1.6062722081
 21
20.4936626243
  0
LINE
  5
2C7
100
AcDbEntity
  8
26814000
100
AcDbLine
 62
7
  6
CONTINUOUS
 10
-1.5806227994
 20
22.2828616557
 11
-1.5806227994
 21
23.533132515
  0
LINE
  5
2C8
100
AcDbEntity
  8
26814000
100
AcDbLine
 62
250
  6
CONTINUOUS
 10
-1.5140331072
 20
18.0315266688
 11
-1.5140331072
 21
19.2457301416
  0
LINE
  5
2C9
100
AcDbEntity
  8
26814000
100
AcDbLine
 62
7
  6
CONTINUOUS
 10
-1.2270694088
 20
22.8037976304
 11
-1.2270694088
 21
23.3563558197
  0
LINE
  5
2CA
100
AcDbEntity
  8
26814000
100
AcDbLine
 62
250
  6
CONTINUOUS
 10
-1.1563587307
 20
24.9725641172
 11
-1.1563587307
 21
23.7407299358
  0
LINE
  5
2CB
100
AcDbEntity
  8
26814000
100
AcDbLine
 62
7
  6
CONTINUOUS
 10
-1.068490765
 20
25.0775613312
 11
-1.068490765
 21
23.8451927263
  0
LINE
  5
2CC
100
AcDbEntity
  8
26814000
100
AcDbLine
 62
7
  6
CONTINUOUS
 10
-1.0149373745
 20
19.4959268147
 11
-1.0149373745
 21
18.2834912494
  0
LINE
  5
2CD
100
AcDbEntity
  8
21814000
100
AcDbLine
 62
250
  6
CONTINUOUS
 10
-0.8478666095
 20
20.9065643138
 11
-0.8478666095
 21
20.6404881285
  0
LINE
  5
2CE
100
AcDbEntity
  8
26814000
100
AcDbLine
 62
7
  6
CONTINUOUS
 10
-0.0147033135
 20
-24.2865352422
 11
-0.0147033135
 21
-24.0331638485
  0
LINE
  5
2CF
100
AcDbEntity
  8
26814000
100
AcDbLine
 62
7
  6
CONTINUOUS
 10
-0.0147033135
 20
17.2664402909
 11
-0.0147033135
 21
17.5198116847
  0
LWPOLYLINE
  5
2D0
100
AcDbEntity
  8
RACCORDO
100
AcDbPolyline
 62
250
  6
CONTINUOUS
 90
11
 70
0
 10
-4.8434807859
 20
-25.4687883582
 10
-4.8532029676
 20
-25.5424929508
 10
-4.8688512029
 20
-25.6122334455
 10
-4.8902540961
 20
-25.677245973
 10
-4.9171772209
 20
-25.7368184493
 10
-4.9493256876
 20
-25.7902983755
 10
-4.9863473731
 20
-25.8370999847
 10
-5.027836778
 20
-25.8767106575
 10
-5.0733394679
 20
-25.9086965374
 10
-5.1223570505
 20
-25.9327072821
 10
-5.1378353261
 20
-25.9383702371
  0
LINE
  5
2D1
100
AcDbEntity
  8
21814000
100
AcDbLine
 62
7
  6
CONTINUOUS
 10
19.179742213
 20
13.6745835686
 11
20.250465307
 21
14.3671182258
  0
LINE
  5
2D2
100
AcDbEntity
  8
26814000
100
AcDbLine
 62
7
  6
CONTINUOUS
 10
1.07102763
 20
-4.8454660661
 11
2.803439244
 21
-21.2596269736
  0
LWPOLYLINE
  5
2D3
100
AcDbEntity
  8
26814000
100
AcDbPolyline
 62
7
  6
CONTINUOUS
 90
24
 70
0
 10
1.5306470378
 20
23.8472383637
 10
1.5300738534
 20
23.8817107698
 10
1.5283747404
 20
23.9154606908
 10
1.5255496988
 20
23.9484881266
 10
1.5215892643
 20
23.980849684
 10
1.5165029012
 20
24.0124887562
 10
1.5103190028
 20
24.0432355227
 10
1.5030363874
 20
24.0730710502
 10
1.4946562367
 20
24.1020142719
 10
1.4852104895
 20
24.1299521678
 10
1.474686631
 20
24.1568983306
 10
1.4630971759
 20
24.1828391676
 10
1.4505116072
 20
24.2076208805
 10
1.4369364213
 20
24.2312181819
 10
1.4223651217
 20
24.2536563592
 10
1.4068477017
 20
24.2748574764
 10
1.3903644143
 20
24.2948345664
 10
1.3729350065
 20
24.3135745962
 10
1.3546687118
 20
24.3309605318
 10
1.3355800559
 20
24.3469694581
 10
1.3156545132
 20
24.3616242902
 10
1.2949577407
 20
24.3748767386
 10
1.2734652262
 20
24.3867325998
 10
-1.95573604
 20
26.0013571102
  0
LINE
  5
2D4
100
AcDbEntity
  8
26814000
100
AcDbLine
 62
7
  6
CONTINUOUS
 10
0.6882896408
 20
16.3598810362
 11
0.6882896408
 21
16.8122120119
  0
LINE
  5
2D5
100
AcDbEntity
  8
26814000
100
AcDbLine
 62
7
  6
CONTINUOUS
 10
1.5306470378
 20
23.8472383637
 11
1.5306470378
 21
23.576438071
  0
LINE
  5
2D6
100
AcDbEntity
  8
26814000
100
AcDbLine
 62
7
  6
CONTINUOUS
 10
1.5910731487
 20
16.7169234536
 11
1.5910731487
 21
16.4635520598
  0
LINE
  5
2D7
100
AcDbEntity
  8
26814000
100
AcDbLine
 62
7
  6
CONTINUOUS
 10
1.5910731487
 20
-24.8360520796
 11
1.5910731487
 21
-25.0894234733
  0
LINE
  5
2D8
100
AcDbEntity
  8
26814000
100
AcDbLine
 62
7
  6
CONTINUOUS
 10
1.9902664456
 20
14.6911077302
 11
1.9902664456
 21
14.6667122249
  0
LINE
  5
2D9
100
AcDbEntity
  8
26814000
100
AcDbLine
 62
7
  6
CONTINUOUS
 10
1.9902664456
 20
-23.4384055416
 11
1.9902664456
 21
-23.4628010469
  0
LINE
  5
2DA
100
AcDbEntity
  8
26814000
100
AcDbLine
 62
7
  6
CONTINUOUS
 10
2.3022937568
 20
-23.8595556024
 11
2.3022937568
 21
-23.4549335114
  0
LINE
  5
2DB
100
AcDbEntity
  8
26814000
100
AcDbLine
 62
7
  6
CONTINUOUS
 10
2.3022937568
 20
15.5528789782
 11
2.3022937568
 21
16.190048537
  0
LINE
  5
2DC
100
AcDbEntity
  8
RACCORDO
100
AcDbLine
 62
7
  6
CONTINUOUS
 10
-0.7072448422
 20
-24.0692373437
 11
2.4045059274
 21
13.7468399877
  0
LINE
  5
2DD
100
AcDbEntity
  8
26814000
100
AcDbLine
 62
7
  6
CONTINUOUS
 10
2.803439244
 20
13.3011064553
 11
1.07102763
 21
-4.8454660661
  0
LWPOLYLINE
  5
2DE
100
AcDbEntity
  8
21814000
100
AcDbPolyline
 62
250
  6
CONTINUOUS
 90
28
 70
0
 10
18.9271480333
 20
13.9681900154
 10
18.9434265093
 20
13.9826559043
 10
18.9594791358
 20
13.994810248
 10
18.9752727103
 20
14.0046562367
 10
18.9908038141
 20
14.0122437566
 10
19.0060042334
 20
14.0175282749
 10
19.0207522328
 20
14.0203665613
 10
19.0350457904
 20
14.0205846184
 10
19.0488317897
 20
14.0183503054
 10
19.0619424696
 20
14.0140220163
 10
19.0743256848
 20
14.0075248033
 10
19.086028761
 20
13.9989106772
 10
19.0970539052
 20
13.988722237
 10
19.1073704877
 20
13.9770178436
 10
19.1170047457
 20
13.9637176496
 10
19.1260271594
 20
13.9491607092
 10
19.1344165769
 20
13.9333946056
 10
19.1421553809
 20
13.9163567648
 10
19.149283862
 20
13.8982267822
 10
19.1557689613
 20
13.8790087382
 10
19.1615650469
 20
13.8586854934
 10
19.1666600747
 20
13.8374078439
 10
19.1710000579
 20
13.8151737145
 10
19.1745303553
 20
13.7919675299
 10
19.1772077448
 20
13.7679200207
 10
19.1789589681
 20
13.7430471291
 10
19.1797162412
 20
13.7173058022
 10
19.1797418492
 20
13.7122451797
  0
LWPOLYLINE
  5
2DF
100
AcDbEntity
  8
21814000
100
AcDbPolyline
 62
7
  6
CONTINUOUS
 90
76
 70
0
 10
19.0348073235
 20
14.0972478869
 10
19.0968207518
 20
14.1488660926
 10
19.1571306448
 20
14.1994967331
 10
19.2157370025
 20
14.2491398086
 10
19.2726005915
 20
14.2977643676
 10
19.3277606453
 20
14.3454013615
 10
19.3813348636
 20
14.3921436443
 10
19.4333300874
 20
14.4379941599
 10
19.4837394757
 20
14.4829499644
 10
19.5326602062
 20
14.5270950804
 10
19.5800971428
 20
14.570430039
 10
19.6260454216
 20
14.612954309
 10
19.6705876293
 20
14.6547503198
 10
19.7137295186
 20
14.6958181171
 10
19.7554653368
 20
14.7361576552
 10
19.7958604125
 20
14.7758512254
 10
19.8349222335
 20
14.8148983488
 10
19.872643312
 20
14.8532995044
 10
19.9090665129
 20
14.8911384205
 10
19.9442025378
 20
14.9284140143
 10
19.978040685
 20
14.9651273685
 10
20.0105917154
 20
15.0013654606
 10
20.0418737937
 20
15.0371284908
 10
20.0718687551
 20
15.0724162588
 10
20.1005328651
 20
15.1073151405
 10
20.1278968758
 20
15.1418277214
 10
20.1539300351
 20
15.175951416
 10
20.1784963523
 20
15.2097648437
 10
20.2016648051
 20
15.2433132093
 10
20.2233664158
 20
15.2765513079
 10
20.2432582603
 20
15.3094221443
 10
20.2614164841
 20
15.3420427847
 10
20.2777649417
 20
15.3742961629
 10
20.2917322734
 20
15.4057740845
 10
20.3032717199
 20
15.4364899421
 10
20.3124300403
 20
15.4664303432
 10
20.3187761524
 20
15.4951469158
 10
20.322200808
 20
15.5225992921
 10
20.3228132552
 20
15.54882784
 10
20.3205101556
 20
15.5735052905
 10
20.3151260292
 20
15.5965939087
 10
20.3068263559
 20
15.6181314295
 10
20.2960042372
 20
15.6379037889
 10
20.2825834605
 20
15.655781995
 10
20.2666402384
 20
15.6718950397
 10
20.2487963102
 20
15.6864158343
 10
20.2291318371
 20
15.6992938956
 10
20.2075666578
 20
15.7105797068
 10
20.1844820282
 20
15.7205976292
 10
20.15995225
 20
15.7293760896
 10
20.1339030215
 20
15.7368866613
 10
20.1064926928
 20
15.7433684251
 10
20.0777565877
 20
15.7488529977
 10
20.0476593825
 20
15.7533087625
 10
20.0162534558
 20
15.7568799498
 10
19.9835581889
 20
15.7595869411
 10
19.9495542006
 20
15.761409355
 10
19.914235726
 20
15.7624302771
 10
19.8776149848
 20
15.7626628698
 10
19.8396797573
 20
15.7620939707
 10
19.8003876197
 20
15.7607671784
 10
19.7597441239
 20
15.7586910811
 10
19.7177437179
 20
15.7558570907
 10
19.6743273222
 20
15.7522830416
 10
19.6294990747
 20
15.7479746527
 10
19.5832548374
 20
15.7429262053
 10
19.5355231178
 20
15.7371383775
 10
19.4863145251
 20
15.7306165835
 10
19.43561845
 20
15.7233554092
 10
19.3833315711
 20
15.7153392907
 10
19.3294607821
 20
15.7065732714
 10
19.2739991892
 20
15.6970523079
 10
19.2168227899
 20
15.6867457064
 10
19.1578902498
 20
15.6756432358
 10
19.0972429032
 20
15.6637551272
 10
19.0348807501
 20
15.6510813807
  0
LWPOLYLINE
  5
2E0
100
AcDbEntity
  8
26814000
100
AcDbPolyline
 62
7
  6
CONTINUOUS
 90
31
 70
0
 10
3.7580333986
 20
15.5938854297
 10
3.757693731
 20
15.6099184618
 10
3.7566772935
 20
15.626247031
 10
3.7549865602
 20
15.6428262342
 10
3.7526255557
 20
15.6596103338
 10
3.749600744
 20
15.6765533278
 10
3.7459210116
 20
15.6936090762
 10
3.7415961586
 20
15.7107306948
 10
3.7366377287
 20
15.7278711056
 10
3.7310598781
 20
15.7449836104
 10
3.7248776339
 20
15.7620211803
 10
3.7181076436
 20
15.7789369724
 10
3.7107689853
 20
15.79568488
 10
3.7028815433
 20
15.8122188871
 10
3.6944666593
 20
15.8284935398
 10
3.6855478643
 20
15.8444644581
 10
3.6761494105
 20
15.8600877722
 10
3.6662968088
 20
15.8753205362
 10
3.6560174634
 20
15.8901211904
 10
3.645339398
 20
15.9044490916
 10
3.6342916642
 20
15.9182648597
 10
3.6229048649
 20
15.9315307798
 10
3.6112101051
 20
15.9442104358
 10
3.599239262
 20
15.9562689836
 10
3.587025383
 20
15.9676734824
 10
3.5746018885
 20
15.9783926406
 10
3.5620026962
 20
15.988397008
 10
3.5492624839
 20
15.9976592294
 10
3.5364161877
 20
16.0061539206
 10
3.5234989073
 20
16.0138577382
 10
3.5105460251
 20
16.0207495496
  0
LINE
  5
2E1
100
AcDbEntity
  8
26814000
100
AcDbLine
 62
7
  6
CONTINUOUS
 10
2.803439244
 20
14.9510138928
 11
2.803439244
 21
13.3011064553
  0
LINE
  5
2E2
100
AcDbEntity
  8
26814000
100
AcDbLine
 62
7
  6
CONTINUOUS
 10
2.803439244
 20
-21.2596269736
 11
2.803439244
 21
-22.9095344111
  0
LINE
  5
2E3
100
AcDbEntity
  8
26814000
100
AcDbLine
 62
7
  6
CONTINUOUS
 10
3.3691246689
 20
-22.9329205432
 11
3.3691246689
 21
-24.4385286694
  0
LINE
  5
2E4
100
AcDbEntity
  8
26814000
100
AcDbLine
 62
7
  6
CONTINUOUS
 10
3.3691246689
 20
16.0914602277
 11
3.3691246689
 21
17.8235110353
  0
LINE
  5
2E5
100
AcDbEntity
  8
26814000
100
AcDbLine
 62
7
  6
CONTINUOUS
 10
4.0721176232
 20
17.9588325331
 11
4.0721176232
 21
17.6979035567
  0
LINE
  5
2E6
100
AcDbEntity
  8
26814000
100
AcDbLine
 62
7
  6
CONTINUOUS
 10
4.0721176232
 20
-23.6017005827
 11
4.0721176232
 21
-23.862629559
  0
LINE
  5
2E7
100
AcDbEntity
  8
26814000
100
AcDbLine
 62
250
  6
CONTINUOUS
 10
4.3993353207
 20
22.1959424251
 11
4.3993353207
 21
20.9641038467
  0
LINE
  5
2E8
100
AcDbEntity
  8
21814000
100
AcDbLine
 62
7
  6
CONTINUOUS
 10
4.4651401797
 20
-18.4524408261
 11
4.4651401797
 21
12.1556212435
  0
LINE
  5
2E9
100
AcDbEntity
  8
26814000
100
AcDbLine
 62
7
  6
CONTINUOUS
 10
4.4651401797
 20
-22.2367007136
 11
4.4651401797
 21
15.9398811311
  0
LINE
  5
2EA
100
AcDbEntity
  8
26814000
100
AcDbLine
 62
7
  6
CONTINUOUS
 10
4.4859727491
 20
22.3003298004
 11
4.4859727491
 21
21.0679613087
  0
LWPOLYLINE
  5
2EB
100
AcDbEntity
  8
26814000
100
AcDbPolyline
 62
7
  6
CONTINUOUS
 90
18
 70
0
 10
3.7580333986
 20
-22.5978117934
 10
3.7576947541
 20
-22.6135056695
 10
3.7566781106
 20
-22.6288176982
 10
3.7549865602
 20
-22.6437057596
 10
3.752625343
 20
-22.6581287483
 10
3.7496009315
 20
-22.6720471308
 10
3.7459210116
 20
-22.6854230529
 10
3.7415959478
 20
-22.6982197132
 10
3.7366378982
 20
-22.7104018842
 10
3.7310598781
 20
-22.7219364537
 10
3.7248774303
 20
-22.7327916775
 10
3.7181077909
 20
-22.7429376548
 10
3.7107689853
 20
-22.7523468304
 10
3.7028813517
 20
-22.7609932998
 10
3.6944667807
 20
-22.768853225
 10
3.6855478643
 20
-22.7759052876
 10
3.6761492358
 20
-22.7821300605
 10
3.6680646245
 20
-22.7866243249
  0
LWPOLYLINE
  5
2EC
100
AcDbEntity
  8
26814000
100
AcDbPolyline
 62
7
  6
CONTINUOUS
 90
4
 70
0
 10
9.2415787528
 20
-17.283282756
 10
9.2413442472
 20
-17.281514542
 10
9.2402034711
 20
-17.2785823164
 10
9.2381591395
 20
-17.2752029484
  0
LINE
  5
2ED
100
AcDbEntity
  8
26814000
100
AcDbLine
 62
250
  6
CONTINUOUS
 10
9.1573807146
 20
19.9401056476
 11
9.1573807146
 21
19.7278464935
  0
LINE
  5
2EE
100
AcDbEntity
  8
26814000
100
AcDbLine
 62
250
  6
CONTINUOUS
 10
9.1573807146
 20
-17.0141200769
 11
9.1573807146
 21
-17.203889781
  0
LWPOLYLINE
  5
2EF
100
AcDbEntity
  8
26814000
100
AcDbPolyline
 62
7
  6
CONTINUOUS
 90
16
 70
0
 10
9.2415787528
 20
20.2277821534
 10
9.2413442472
 20
20.2142678452
 10
9.2402034711
 20
20.194502654
 10
9.2381591395
 20
20.1746490034
 10
9.2352679745
 20
20.1547132195
 10
9.2315792103
 20
20.1347309831
 10
9.2271192464
 20
20.1147691615
 10
9.2219263881
 20
20.0948484439
 10
9.2160437309
 20
20.0749806925
 10
9.2094831968
 20
20.0552204663
 10
9.2022762936
 20
20.0355833997
 10
9.1944591479
 20
20.0160814351
 10
9.1860352085
 20
19.9967658362
 10
9.1770223171
 20
19.9776631097
 10
9.1674604717
 20
19.9587726159
 10
9.1573807146
 20
19.9401056476
  0
LWPOLYLINE
  5
2F0
100
AcDbEntity
  8
21814000
100
AcDbPolyline
 62
7
  6
CONTINUOUS
 90
7
 70
0
 10
18.9271480333
 20
13.9681900154
 10
18.9421461488
 20
13.9924741358
 10
18.9583223041
 20
14.015648466
 10
18.9756764993
 20
14.0377130063
 10
18.9942087342
 20
14.0586677565
 10
19.0139190089
 20
14.0785127167
 10
19.0348073235
 20
14.0972478869
  0
LINE
  5
2F1
100
AcDbEntity
  8
RACCORDO
100
AcDbLine
 62
250
  6
CONTINUOUS
 10
-3.3950217174
 20
11.6257358611
 11
-17.7237552252
 21
18.790102615
  0
LINE
  5
2F2
100
AcDbEntity
  8
21814000
100
AcDbLine
 62
7
  6
CONTINUOUS
 10
8.8569186697
 20
20.6158794327
 11
8.8585980981
 21
20.5861272823
  0
LWPOLYLINE
  5
2F3
100
AcDbEntity
  8
26814000
100
AcDbPolyline
 62
7
  6
CONTINUOUS
 90
5
 70
0
 10
9.2415787563
 20
19.6515723235
 10
9.2415661059
 20
19.6519072592
 10
9.2412717028
 20
19.653425048
 10
9.2405963678
 20
19.6551417123
 10
9.2395522748
 20
19.6570614161
  0
LWPOLYLINE
  5
2F4
100
AcDbEntity
  8
26814000
100
AcDbPolyline
 62
7
  6
CONTINUOUS
 90
7
 70
0
 10
9.2415322822
 20
20.2339194915
 10
9.2414406741
 20
20.2382272928
 10
9.2413015034
 20
20.2425386234
 10
9.2411147699
 20
20.2468534834
 10
9.2408804738
 20
20.2511718728
 10
9.240598615
 20
20.2554937915
 10
9.2402691935
 20
20.2598192395
  0
LINE
  5
2F5
100
AcDbEntity
  8
26814000
100
AcDbLine
 62
7
  6
CONTINUOUS
 10
9.2415322822
 20
20.2339194915
 11
9.2415787528
 21
20.2277821534
  0
LINE
  5
2F6
100
AcDbEntity
  8
26814000
100
AcDbLine
 62
7
  6
CONTINUOUS
 10
9.2415787745
 20
20.2277265259
 11
9.2415787745
 21
19.6517633364
  0
LINE
  5
2F7
100
AcDbEntity
  8
26814000
100
AcDbLine
 62
7
  6
CONTINUOUS
 10
9.2415787745
 20
-16.9695947559
 11
9.2415787745
 21
-17.2831131481
  0
LINE
  5
2F8
100
AcDbEntity
  8
21814000
100
AcDbLine
 62
250
  6
CONTINUOUS
 10
9.6454799346
 20
21.5796296712
 11
9.6454799346
 21
21.258305389
  0
LINE
  5
2F9
100
AcDbEntity
  8
21814000
100
AcDbLine
 62
7
  6
CONTINUOUS
 10
10.3281901325
 20
21.1579346902
 11
10.3281901325
 21
21.5909473921
  0
LINE
  5
2FA
100
AcDbEntity
  8
0
100
AcDbLine
 62
7
  6
CONTINUOUS
 10
11.2956538449
 20
20.3218045789
 11
11.2956538449
 21
19.8559298125
  0
LINE
  5
2FB
100
AcDbEntity
  8
26814000
100
AcDbLine
 62
7
  6
CONTINUOUS
 10
9.2415322822
 20
-17.2840247109
 11
9.2415787528
 21
-17.283282756
  0
LINE
  5
2FC
100
AcDbEntity
  8
RACCORDO
100
AcDbLine
 62
250
  6
CONTINUOUS
 10
-2.2356759681
 20
13.2623161157
 11
-16.5900459846
 21
20.4395011239
  0
LINE
  5
2FD
100
AcDbEntity
  8
21814000
100
AcDbLine
 62
250
  6
CONTINUOUS
 10
11.7129870258
 20
21.0509198027
 11
11.7129870258
 21
21.5096513689
  0
LINE
  5
2FE
100
AcDbEntity
  8
0
100
AcDbLine
 62
7
  6
CONTINUOUS
 10
11.7453985063
 20
20.2000567458
 11
11.7453985063
 21
19.846871192
  0
LINE
  5
2FF
100
AcDbEntity
  8
21814000
100
AcDbLine
 62
250
  6
CONTINUOUS
 10
11.8539999472
 20
21.0518500808
 11
11.8539999472
 21
21.520647266
  0
LINE
  5
300
100
AcDbEntity
  8
21814000
100
AcDbLine
 62
7
  6
CONTINUOUS
 10
13.657635913
 20
23.6210294639
 11
13.657635913
 21
23.2131781966
  0
LWPOLYLINE
  5
301
100
AcDbEntity
  8
26814000
100
AcDbPolyline
 62
7
  6
CONTINUOUS
 90
7
 70
0
 10
9.2415322822
 20
-17.2840247109
 10
9.2414406741
 20
-17.2845103183
 10
9.2413015034
 20
-17.2850224661
 10
9.2411147699
 20
-17.2855611541
 10
9.2408804738
 20
-17.2861263825
 10
9.240598615
 20
-17.2867181511
 10
9.2402691935
 20
-17.28733646
  0
LWPOLYLINE
  5
302
100
AcDbEntity
  8
RACCORDO
100
AcDbPolyline
 62
250
  6
CONTINUOUS
 90
16
 70
0
 10
-2.2869941521
 20
11.4970434077
 10
-2.3486952511
 20
11.482940464
 10
-2.4155780755
 20
11.4720406221
 10
-2.4869339888
 20
11.4644593679
 10
-2.5620069609
 20
11.4602770263
 10
-2.6400015791
 20
11.4595379101
 10
-2.720091475
 20
11.4622498502
 10
-2.8014280805
 20
11.4683841132
 10
-2.8831496183
 20
11.4778757053
 10
-2.9643902327
 20
11.4906240613
 10
-3.0442891633
 20
11.5064941098
 10
-3.1219998655
 20
11.5253177046
 10
-3.1966989789
 20
11.5468954061
 10
-3.2675950519
 20
11.5709985943
 10
-3.3339369267
 20
11.5973718912
 10
-3.395021698
 20
11.6257358666
  0
LWPOLYLINE
  5
303
100
AcDbEntity
  8
21814000
100
AcDbPolyline
 62
7
  6
CONTINUOUS
 90
7
 70
0
 10
19.0348807501
 20
15.6510813807
 10
19.013908804
 20
15.6481916486
 10
18.9941434552
 20
15.6476292309
 10
18.9755847038
 20
15.6493941276
 10
18.9582325496
 20
15.6534863388
 10
18.9420869928
 20
15.6599058643
 10
18.9271480333
 20
15.6686527043
  0
LINE
  5
304
100
AcDbEntity
  8
26814000
100
AcDbLine
 62
7
  6
CONTINUOUS
 10
2.3850422971
 20
13.5103049287
 11
2.803439244
 21
13.3011064553
  0
LINE
  5
305
100
AcDbEntity
  8
26814000
100
AcDbLine
 62
7
  6
CONTINUOUS
 10
0.0731708058
 20
-23.8012125605
 11
0.651961146
 21
-23.0967688303
  0
LINE
  5
306
100
AcDbEntity
  8
26814000
100
AcDbLine
 62
7
  6
CONTINUOUS
 10
-13.7782147749
 20
22.5509528351
 11
1.9902664456
 21
14.6667122249
  0
LINE
  5
307
100
AcDbEntity
  8
26814000
100
AcDbLine
 62
7
  6
CONTINUOUS
 10
1.7427790722
 20
15.1179718501
 11
-13.5307274015
 21
22.7547250869
  0
LINE
  5
308
100
AcDbEntity
  8
26814000
100
AcDbLine
 62
7
  6
CONTINUOUS
 10
2.3022937568
 20
15.5528789782
 11
0.6882896408
 21
16.3598810362
  0
LINE
  5
309
100
AcDbEntity
  8
26814000
100
AcDbLine
 62
7
  6
CONTINUOUS
 10
-11.0620244077
 20
22.2350380604
 11
-12.6760285237
 21
23.0420401184
  0
LINE
  5
30A
100
AcDbEntity
  8
26814000
100
AcDbLine
 62
7
  6
CONTINUOUS
 10
-7.7295685269
 20
20.9261423552
 11
-1.9370594588
 21
18.0298878212
  0
LINE
  5
30B
100
AcDbEntity
  8
26814000
100
AcDbLine
 62
7
  6
CONTINUOUS
 10
-13.314426732
 20
23.8135701982
 11
-11.7078931689
 21
23.0103034167
  0
LINE
  5
30C
100
AcDbEntity
  8
26814000
100
AcDbLine
 62
7
  6
CONTINUOUS
 10
0.0498914325
 20
17.131411116
 11
1.6564249955
 21
16.3281443345
  0
LINE
  5
30D
100
AcDbEntity
  8
26814000
100
AcDbLine
 62
250
  6
CONTINUOUS
 10
-13.3790214779
 20
23.9485993731
 11
-11.7732450158
 21
23.145711142
  0
LINE
  5
30E
100
AcDbEntity
  8
26814000
100
AcDbLine
 62
250
  6
CONTINUOUS
 10
-0.0147033135
 20
17.2664402909
 11
1.5910731487
 21
16.4635520598
  0
LINE
  5
30F
100
AcDbEntity
  8
26814000
100
AcDbLine
 62
250
  6
CONTINUOUS
 10
1.5910731487
 20
16.7169234536
 11
-0.0147033135
 21
17.5198116847
  0
LINE
  5
310
100
AcDbEntity
  8
26814000
100
AcDbLine
 62
250
  6
CONTINUOUS
 10
-11.7732450158
 20
23.3990825358
 11
-13.3790214779
 21
24.2019707669
  0
LWPOLYLINE
  5
311
100
AcDbEntity
  8
21814000
100
AcDbPolyline
 62
250
  6
CONTINUOUS
 90
10
 70
0
 10
19.179742213
 20
19.9561412756
 10
19.1770358601
 20
19.9212696863
 10
19.1676856475
 20
19.8827306886
 10
19.1517268953
 20
19.8447380509
 10
19.1292783768
 20
19.8075745344
 10
19.1005071657
 20
19.7715167292
 10
19.0656273923
 20
19.7368329966
 10
19.0248986502
 20
19.7037814709
 10
18.978624064
 20
19.6726081389
 10
18.9271480333
 20
19.6435450089
  0
LINE
  5
312
100
AcDbEntity
  8
26814000
100
AcDbLine
 62
7
  6
CONTINUOUS
 10
1.6799757247
 20
-24.6046150199
 11
2.3022937568
 21
-23.8595556024
  0
LINE
  5
313
100
AcDbEntity
  8
26814000
100
AcDbLine
 62
250
  6
CONTINUOUS
 10
0.7978142276
 20
-18.251261605
 11
-0.2690478121
 21
-18.7439738496
  0
LINE
  5
314
100
AcDbEntity
  8
26814000
100
AcDbLine
 62
7
  6
CONTINUOUS
 10
0.5969606417
 20
-18.7650306617
 11
-0.3050596266
 21
-19.1816135135
  0
LINE
  5
315
100
AcDbEntity
  8
26814000
100
AcDbLine
 62
7
  6
CONTINUOUS
 10
2.3022937568
 20
16.190048537
 11
1.6799757247
 21
16.3199891195
  0
LINE
  5
316
100
AcDbEntity
  8
26814000
100
AcDbLine
 62
7
  6
CONTINUOUS
 10
-9.9951934955
 20
22.77361931
 11
-7.8174364925
 21
21.6847408085
  0
LINE
  5
317
100
AcDbEntity
  8
26814000
100
AcDbLine
 62
7
  6
CONTINUOUS
 10
-1.0149373745
 20
18.2834912494
 11
0.0661845767
 21
17.7429302738
  0
LINE
  5
318
100
AcDbEntity
  8
26814000
100
AcDbLine
 62
7
  6
CONTINUOUS
 10
3.3691246689
 20
16.0914602277
 11
3.5105460251
 21
16.0207495496
  0
LINE
  5
319
100
AcDbEntity
  8
26814000
100
AcDbLine
 62
250
  6
CONTINUOUS
 10
1.7678438781
 20
17.0207890318
 11
0.160022469
 21
17.8246997363
  0
LINE
  5
31A
100
AcDbEntity
  8
26814000
100
AcDbLine
 62
250
  6
CONTINUOUS
 10
-11.5964742863
 20
23.702948114
 11
-13.2042956954
 21
24.5068588185
  0
LINE
  5
31B
100
AcDbEntity
  8
26814000
100
AcDbLine
 62
7
  6
CONTINUOUS
 10
-7.7295685269
 20
22.1410972213
 11
-1.9370594588
 21
19.2448426873
  0
LINE
  5
31C
100
AcDbEntity
  8
26814000
100
AcDbLine
 62
7
  6
CONTINUOUS
 10
4.2176528063
 20
16.366745251
 11
3.4179207825
 21
16.7666112629
  0
LINE
  5
31D
100
AcDbEntity
  8
26814000
100
AcDbLine
 62
7
  6
CONTINUOUS
 10
-8.4639193785
 20
22.7075313434
 11
-9.9463973819
 21
23.4487703451
  0
LINE
  5
31E
100
AcDbEntity
  8
26814000
100
AcDbLine
 62
7
  6
CONTINUOUS
 10
-7.2374770489
 20
22.6071966519
 11
-1.0149373745
 21
19.4959268147
  0
LINE
  5
31F
100
AcDbEntity
  8
26814000
100
AcDbLine
 62
7
  6
CONTINUOUS
 10
-11.6215390922
 20
25.3188429159
 11
-9.9951934955
 21
24.5056701175
  0
LINE
  5
320
100
AcDbEntity
  8
26814000
100
AcDbLine
 62
7
  6
CONTINUOUS
 10
1.7427790722
 20
18.6366838337
 11
3.3691246689
 21
17.8235110353
  0
LINE
  5
321
100
AcDbEntity
  8
26814000
100
AcDbLine
 62
7
  6
CONTINUOUS
 10
-5.8939741646
 20
22.6375136026
 11
-0.9442266963
 21
20.1626398684
  0
LINE
  5
322
100
AcDbEntity
  8
26814000
100
AcDbLine
 62
250
  6
CONTINUOUS
 10
-11.0870892136
 20
25.5791903825
 11
-9.4669263238
 21
24.7691089376
  0
LINE
  5
323
100
AcDbEntity
  8
26814000
100
AcDbLine
 62
250
  6
CONTINUOUS
 10
2.2772289509
 20
18.8970313002
 11
3.8973918407
 21
18.0869498553
  0
LINE
  5
324
100
AcDbEntity
  8
26814000
100
AcDbLine
 62
7
  6
CONTINUOUS
 10
-10.9756715982
 20
25.5854589457
 11
-9.35679402
 21
24.7760201566
  0
LINE
  5
325
100
AcDbEntity
  8
26814000
100
AcDbLine
 62
7
  6
CONTINUOUS
 10
2.3886465662
 20
18.9032998635
 11
4.0075241444
 21
18.0938610744
  0
LWPOLYLINE
  5
326
100
AcDbEntity
  8
21814000
100
AcDbPolyline
 62
250
  6
CONTINUOUS
 90
15
 70
0
 10
-0.7454262619
 20
21.1242798972
 10
-0.7118442855
 20
21.1050367713
 10
-0.6825276975
 20
21.0834133684
 10
-0.6574764978
 20
21.0594096887
 10
-0.6364873057
 20
21.03277734
 10
-0.619763502
 20
21.0037647144
 10
-0.6079152289
 20
20.973116988
 10
-0.6010584352
 20
20.9407570403
 10
-0.5990771722
 20
20.9067619918
 10
-0.602233735
 20
20.8721083796
 10
-0.6106964743
 20
20.836742291
 10
-0.6242970394
 20
20.8007176386
 10
-0.6427926742
 20
20.7651726976
 10
-0.6661024598
 20
20.7304868931
 10
-0.694307315
 20
20.6962808001
  0
LWPOLYLINE
  5
327
100
AcDbEntity
  8
21814000
100
AcDbPolyline
 62
250
  6
CONTINUOUS
 90
9
 70
0
 10
-0.8478666095
 20
20.9065643138
 10
-0.8279854331
 20
20.894950323
 10
-0.8103237013
 20
20.881205841
 10
-0.7950721264
 20
20.8654411556
 10
-0.7824075426
 20
20.8477473932
 10
-0.7724638468
 20
20.8282831081
 10
-0.7653492337
 20
20.8072697561
 10
-0.761172817
 20
20.7848051429
 10
-0.7599986802
 20
20.7642033919
  0
LWPOLYLINE
  5
328
100
AcDbEntity
  8
21814000
100
AcDbPolyline
 62
250
  6
CONTINUOUS
 90
13
 70
0
 10
-2.1919505544
 20
21.3948260757
 10
-2.1742396187
 20
21.3837041997
 10
-2.1561715053
 20
21.3702997117
 10
-2.138049744
 20
21.3548378437
 10
-2.1201787586
 20
21.3375783843
 10
-2.102858739
 20
21.3188113
 10
-2.0863806005
 20
21.2988518593
 10
-2.0710211304
 20
21.2780353752
 10
-2.0570382935
 20
21.2567115164
 10
-2.0446669008
 20
21.2352384147
 10
-2.0341147269
 20
21.2139767388
 10
-2.0255590062
 20
21.1932836394
 10
-2.0191434227
 20
21.1735066891
  0
LINE
  5
329
100
AcDbEntity
  8
21814000
100
AcDbLine
 62
7
  6
CONTINUOUS
 10
10.5760764383
 20
17.8507960447
 11
9.8233823543
 21
19.1490013057
  0
LINE
  5
32A
100
AcDbEntity
  8
21814000
100
AcDbLine
 62
250
  6
CONTINUOUS
 10
9.2309024229
 20
22.6552082113
 11
9.6454799346
 21
21.5796296712
  0
LINE
  5
32B
100
AcDbEntity
  8
0
100
AcDbLine
 62
7
  6
CONTINUOUS
 10
10.7901842628
 20
20.0795646232
 11
10.5886849048
 21
20.675289049
  0
LWPOLYLINE
  5
32C
100
AcDbEntity
  8
21814000
100
AcDbPolyline
 62
7
  6
CONTINUOUS
 90
10
 70
0
 10
19.179742213
 20
19.9561412756
 10
19.1759373169
 20
20.0700789719
 10
19.1647912279
 20
20.1833431689
 10
19.1466529028
 20
20.2957304423
 10
19.1216978016
 20
20.4074672191
 10
19.0901508021
 20
20.5180993866
 10
19.052529536
 20
20.6264057757
 10
19.0092283005
 20
20.7318897467
 10
18.9602755189
 20
20.8348166273
 10
18.9057434734
 20
20.935061037
  0
LINE
  5
32D
100
AcDbEntity
  8
21814000
100
AcDbLine
 62
7
  6
CONTINUOUS
 10
19.1797418492
 20
13.7122451797
 11
19.1797421748
 21
13.7117861121
  0
LINE
  5
32E
100
AcDbEntity
  8
21814000
100
AcDbLine
 62
250
  6
CONTINUOUS
 10
18.9271480333
 20
19.6435450089
 11
18.9271480333
 21
15.6686527043
  0
LINE
  5
32F
100
AcDbEntity
  8
21814000
100
AcDbLine
 62
250
  6
CONTINUOUS
 10
18.9271480333
 20
13.9681900154
 11
18.9271480333
 21
-10.9645170607
  0
LINE
  5
330
100
AcDbEntity
  8
21814000
100
AcDbLine
 62
7
  6
CONTINUOUS
 10
19.179742213
 20
19.9561412756
 11
19.179742213
 21
16.5504558289
  0
LINE
  5
331
100
AcDbEntity
  8
21814000
100
AcDbLine
 62
7
  6
CONTINUOUS
 10
19.179742213
 20
13.7114951595
 11
19.179742213
 21
-10.651920794
  0
LINE
  5
332
100
AcDbEntity
  8
21814000
100
AcDbLine
 62
7
  6
CONTINUOUS
 10
19.1797420629
 20
16.5494373262
 11
19.1797419751
 21
16.5491897461
  0
LWPOLYLINE
  5
333
100
AcDbEntity
  8
21814000
100
AcDbPolyline
 62
250
  6
CONTINUOUS
 90
29
 70
0
 10
19.1797419751
 20
16.5491897461
 10
19.1794136043
 20
16.5057354388
 10
19.1782072883
 20
16.4540094894
 10
19.1761763296
 20
16.4036923788
 10
19.1733699756
 20
16.3547928654
 10
19.1698407718
 20
16.3073273109
 10
19.1656398321
 20
16.261296961
 10
19.160790571
 20
16.2166870923
 10
19.1553345147
 20
16.1735128817
 10
19.1493081217
 20
16.1317713984
 10
19.1427018661
 20
16.0914219126
 10
19.1355388511
 20
16.0524370455
 10
19.1278448979
 20
16.0148553238
 10
19.1195896247
 20
15.9787376653
 10
19.1107810102
 20
15.9440381806
 10
19.1014370541
 20
15.9108154587
 10
19.0915231559
 20
15.8792904326
 10
19.0810419252
 20
15.8494321371
 10
19.0700027878
 20
15.8212866897
 10
19.0583676596
 20
15.7951939312
 10
19.0461243483
 20
15.7711368337
 10
19.0332867031
 20
15.7491511942
 10
19.0198494088
 20
15.7296581453
 10
19.0057999495
 20
15.7127210913
 10
18.9911543956
 20
15.6982965525
 10
18.9759542595
 20
15.6866442743
 10
18.9602204159
 20
15.6778557418
 10
18.9439487629
 20
15.6718558064
 10
18.9271480333
 20
15.6686527043
  0
LWPOLYLINE
  5
334
100
AcDbEntity
  8
21814000
100
AcDbPolyline
 62
250
  6
CONTINUOUS
 90
11
 70
0
 10
19.179742213
 20
-10.651920794
 10
19.1789395733
 20
-10.6709214992
 10
19.1729570201
 20
-10.7070735558
 10
19.1611700308
 20
-10.7428672095
 10
19.1436552019
 20
-10.7780698603
 10
19.1205263509
 20
-10.8124527485
 10
19.0919337776
 20
-10.8457924414
 10
19.058063287
 20
-10.8778722854
 10
19.019134982
 20
-10.9084838138
 10
18.9754018327
 20
-10.9374281018
 10
18.9271480333
 20
-10.9645170589
  0
LINE
  5
335
100
AcDbEntity
  8
21814000
100
AcDbLine
 62
7
  6
CONTINUOUS
 10
10.5760764383
 20
-16.116416262
 11
9.8233823543
 21
-16.6619274391
  0
LWPOLYLINE
  5
336
100
AcDbEntity
  8
21814000
100
AcDbPolyline
 62
250
  6
CONTINUOUS
 90
3
 70
0
 10
18.6552953841
 20
-11.7555551637
 10
18.6370069236
 20
-11.7682597938
 10
18.5881845494
 20
-11.7972810833
  0
LWPOLYLINE
  5
337
100
AcDbEntity
  8
21814000
100
AcDbPolyline
 62
7
  6
CONTINUOUS
 90
3
 70
0
 10
18.1686413385
 20
-12.1013428737
 10
18.2250331839
 20
-12.0671508618
 10
18.2377675254
 20
-12.0581561042
  0
LWPOLYLINE
  5
338
100
AcDbEntity
  8
26814000
100
AcDbPolyline
 62
7
  6
CONTINUOUS
 90
25
 70
0
 10
8.493282305
 20
-17.7471775251
 10
8.5191987154
 20
-17.7323453085
 10
8.5457009521
 20
-17.7170783317
 10
8.5727890151
 20
-17.7013765948
 10
8.6004906714
 20
-17.6852274921
 10
8.6287781541
 20
-17.6686436292
 10
8.657568162
 20
-17.6516628233
 10
8.6868416811
 20
-17.6342962494
 10
8.7166177255
 20
-17.6165327324
 10
8.7468700366
 20
-17.5983765641
 10
8.7776124709
 20
-17.5798196671
 10
8.8088311719
 20
-17.5608701188
 10
8.8404583115
 20
-17.5415564424
 10
8.8725050461
 20
-17.5218718077
 10
8.9049602192
 20
-17.5018230448
 10
8.9377225326
 20
-17.4814591681
 10
8.9708073067
 20
-17.4607703289
 10
9.0041992211
 20
-17.4397663757
 10
9.0377510165
 20
-17.418525869
 10
9.0714823315
 20
-17.3970355831
 10
9.1053735275
 20
-17.3753087436
 10
9.1392184293
 20
-17.3534635879
 10
9.1729483116
 20
-17.3315395282
 10
9.2066318997
 20
-17.3094971522
 10
9.2402691935
 20
-17.28733646
  0
LWPOLYLINE
  5
339
100
AcDbEntity
  8
26814000
100
AcDbPolyline
 62
7
  6
CONTINUOUS
 90
3
 70
0
 10
8.493282305
 20
-17.7471775251
 10
8.4586978279
 20
-17.7660532227
 10
8.4428609223
 20
-17.774154141
  0
LINE
  5
33A
100
AcDbEntity
  8
21814000
100
AcDbLine
 62
7
  6
CONTINUOUS
 10
18.1686413385
 20
-12.1013428737
 11
10.5760764383
 21
-16.116416262
  0
LINE
  5
33B
100
AcDbEntity
  8
21814000
100
AcDbLine
 62
7
  6
CONTINUOUS
 10
9.8233823543
 20
-16.6619274391
 11
4.4651401797
 21
-19.495454165
  0
LINE
  5
33C
100
AcDbEntity
  8
21814000
100
AcDbLine
 62
250
  6
CONTINUOUS
 10
18.5881845494
 20
-11.7972810833
 11
4.4651401797
 21
-19.251456055
  0
LINE
  5
33D
100
AcDbEntity
  8
21814000
100
AcDbLine
 62
250
  6
CONTINUOUS
 10
18.9271480333
 20
-10.9645170607
 11
4.4651401797
 21
-18.4524408261
  0
LINE
  5
33E
100
AcDbEntity
  8
26814000
100
AcDbLine
 62
250
  6
CONTINUOUS
 10
4.4651401797
 20
-19.7690807087
 11
8.493282305
 21
-17.7471775251
  0
LINE
  5
33F
100
AcDbEntity
  8
26814000
100
AcDbLine
 62
7
  6
CONTINUOUS
 10
4.4651401797
 20
-19.7707487895
 11
8.4429032508
 21
-17.7741330876
  0
LINE
  5
340
100
AcDbEntity
  8
26814000
100
AcDbLine
 62
250
  6
CONTINUOUS
 10
4.4651401797
 20
-19.5312756779
 11
9.1573807146
 21
-17.203889781
  0
LINE
  5
341
100
AcDbEntity
  8
26814000
100
AcDbLine
 62
250
  6
CONTINUOUS
 10
4.4651401797
 20
-19.6531504057
 11
9.2415322822
 21
-17.2840247109
  0
LINE
  5
342
100
AcDbEntity
  8
26814000
100
AcDbLine
 62
7
  6
CONTINUOUS
 10
-11.0620244077
 20
22.8722076192
 11
-11.6843424398
 21
23.0021482017
  0
LWPOLYLINE
  5
343
100
AcDbEntity
  8
21814000
100
AcDbPolyline
 62
250
  6
CONTINUOUS
 90
8
 70
0
 10
-0.7274072398
 20
20.6625544184
 10
-0.7462319129
 20
20.669700479
 10
-0.7640855732
 20
20.6742571307
 10
-0.7806683172
 20
20.6761478315
 10
-0.7957015901
 20
20.6753408216
 10
-0.8089328647
 20
20.6718496571
 10
-0.8201398838
 20
20.665732982
 10
-0.8242076108
 20
20.6623941786
  0
LINE
  5
344
100
AcDbEntity
  8
21814000
100
AcDbLine
 62
250
  6
CONTINUOUS
 10
-1.1625015604
 20
22.2287023146
 11
-1.1590607309
 21
22.2270890477
  0
LINE
  5
345
100
AcDbEntity
  8
21814000
100
AcDbLine
 62
250
  6
CONTINUOUS
 10
-1.6062722081
 20
21.2857671131
 11
-0.8478666095
 21
20.9065643138
  0
LINE
  5
346
100
AcDbEntity
  8
21814000
100
AcDbLine
 62
250
  6
CONTINUOUS
 10
-1.5038318606
 20
21.5034826966
 11
-0.7454262619
 21
21.1242798972
  0
LINE
  5
347
100
AcDbEntity
  8
21814000
100
AcDbLine
 62
7
  6
CONTINUOUS
 10
-2.2170189016
 20
22.1038340779
 11
0.369935284
 21
20.810356985
  0
LINE
  5
348
100
AcDbEntity
  8
21814000
100
AcDbLine
 62
250
  6
CONTINUOUS
 10
0.9773230005
 20
21.1097229888
 11
-1.2472764896
 21
22.2220227338
  0
LINE
  5
349
100
AcDbEntity
  8
21814000
100
AcDbLine
 62
7
  6
CONTINUOUS
 10
1.0268500923
 20
21.1341336365
 11
-1.159067889
 21
22.2270926272
  0
LINE
  5
34A
100
AcDbEntity
  8
26814000
100
AcDbLine
 62
7
  6
CONTINUOUS
 10
1.5734490484
 20
21.4035384018
 11
-1.2270694088
 21
22.8037976304
  0
LINE
  5
34B
100
AcDbEntity
  8
26814000
100
AcDbLine
 62
7
  6
CONTINUOUS
 10
-1.5806227994
 20
23.533132515
 11
-1.2270694088
 21
23.3563558197
  0
LWPOLYLINE
  5
34C
100
AcDbEntity
  8
26814000
100
AcDbPolyline
 62
7
  6
CONTINUOUS
 90
20
 70
0
 10
9.2395522748
 20
19.6570614161
 10
9.2381521232
 20
19.6591924808
 10
9.2364056969
 20
19.6615009282
 10
9.234324087
 20
19.6639905673
 10
9.2319191226
 20
19.6666680101
 10
9.2291990307
 20
19.6695032261
 10
9.2261740994
 20
19.6724997524
 10
9.2228555981
 20
19.6756628306
 10
9.2192514412
 20
19.6789648231
 10
9.2153715843
 20
19.6824088058
 10
9.2112269128
 20
19.6859990502
 10
9.2068256801
 20
19.6897095498
 10
9.2021773415
 20
19.6935431417
 10
9.1972928876
 20
19.6975030153
 10
9.1921824992
 20
19.7015634356
 10
9.1868556242
 20
19.7057266508
 10
9.1813234209
 20
19.7099950223
 10
9.1755989496
 20
19.7143425218
 10
9.1696937662
 20
19.718761404
 10
9.1573807146
 20
19.7278464935
  0
LWPOLYLINE
  5
34D
100
AcDbEntity
  8
21814000
100
AcDbPolyline
 62
250
  6
CONTINUOUS
 90
11
 70
0
 10
18.6879985701
 20
-11.7077921538
 10
18.7321104817
 20
-11.6544547812
 10
18.7721015769
 20
-11.5956854209
 10
18.8078007054
 20
-11.5317357829
 10
18.8390551277
 20
-11.462879642
 10
18.8657309999
 20
-11.3894120603
 10
18.8877142137
 20
-11.3116475261
 10
18.9049108112
 20
-11.2299183436
 10
18.9172471056
 20
-11.1445741694
 10
18.9246701353
 20
-11.0559806338
 10
18.9271480333
 20
-10.9645170607
  0
LWPOLYLINE
  5
34E
100
AcDbEntity
  8
21814000
100
AcDbPolyline
 62
250
  6
CONTINUOUS
 90
3
 70
0
 10
18.5881845494
 20
-11.7972810833
 10
18.6399547008
 20
-11.7554690066
 10
18.6879985701
 20
-11.7077921538
  0
LWPOLYLINE
  5
34F
100
AcDbEntity
  8
21814000
100
AcDbPolyline
 62
7
  6
CONTINUOUS
 90
13
 70
0
 10
18.6552953841
 20
-11.7555551637
 10
18.7298501083
 20
-11.6968315852
 10
18.8006429572
 20
-11.6312171895
 10
18.8670183985
 20
-11.5588956217
 10
18.9282790288
 20
-11.4802213251
 10
18.9839073041
 20
-11.3954608729
 10
19.0335504158
 20
-11.3046502216
 10
19.0767515858
 20
-11.2079530672
 10
19.1129309075
 20
-11.1059252924
 10
19.1416602618
 20
-10.9990017843
 10
19.1625960959
 20
-10.8874752729
 10
19.1754009118
 20
-10.7716622039
 10
19.179742213
 20
-10.651920794
  0
LINE
  5
350
100
AcDbEntity
  8
21814000
100
AcDbLine
 62
250
  6
CONTINUOUS
 10
18.5881845494
 20
-11.7972810833
 11
18.1686413385
 21
-12.1013428737
  0
LINE
  5
351
100
AcDbEntity
  8
21814000
100
AcDbLine
 62
7
  6
CONTINUOUS
 10
18.6552953841
 20
-11.7555551637
 11
18.2389145446
 21
-12.0573250417
  0
LINE
  5
352
100
AcDbEntity
  8
26814000
100
AcDbLine
 62
7
  6
CONTINUOUS
 10
2.803439244
 20
-22.9095344111
 11
1.9902664456
 21
-23.4384055416
  0
LINE
  5
353
100
AcDbEntity
  8
26814000
100
AcDbLine
 62
250
  6
CONTINUOUS
 10
3.7580333986
 20
-22.5978117934
 11
4.4651401797
 21
-22.2367007136
  0
LINE
  5
354
100
AcDbEntity
  8
26814000
100
AcDbLine
 62
7
  6
CONTINUOUS
 10
3.6680694305
 20
-22.78662187
 11
4.3751762126
 21
-22.4255107897
  0
LINE
  5
355
100
AcDbEntity
  8
26814000
100
AcDbLine
 62
7
  6
CONTINUOUS
 10
3.6680646245
 20
-22.7866243249
 11
3.6660570276
 21
-22.7876280323
  0
LINE
  5
356
100
AcDbEntity
  8
26814000
100
AcDbLine
 62
250
  6
CONTINUOUS
 10
1.9902664456
 20
-23.4628010469
 11
3.7580333986
 21
-22.5978117934
  0
LINE
  5
357
100
AcDbEntity
  8
26814000
100
AcDbLine
 62
7
  6
CONTINUOUS
 10
1.8982855266
 20
-23.6526195111
 11
3.6660524809
 21
-22.787630257
  0
LWPOLYLINE
  5
358
100
AcDbEntity
  8
RACCORDO
100
AcDbPolyline
 62
250
  6
CONTINUOUS
 90
16
 70
0
 10
-5.2949084781
 20
-25.0571439864
 10
-5.3574362111
 20
-25.0812967837
 10
-5.4251367664
 20
-25.1021400153
 10
-5.4972928537
 20
-25.1194528462
 10
-5.573139976
 20
-25.1330518462
 10
-5.6518745295
 20
-25.1427929333
 10
-5.7326623181
 20
-25.1485729001
 10
-5.8146473915
 20
-25.1503305078
 10
-5.8969611142
 20
-25.1480471343
 10
-5.9787313685
 20
-25.1417469721
 10
-6.0590917949
 20
-25.1314967717
 10
-6.1371909711
 20
-25.1174051346
 10
-6.2122014327
 20
-25.0996213623
 10
-6.2833284404
 20
-25.0783338748
 10
-6.3498184005
 20
-25.053768214
 10
-6.4109668488
 20
-25.0261846541
  0
LWPOLYLINE
  5
359
100
AcDbEntity
  8
21814000
100
AcDbPolyline
 62
7
  6
CONTINUOUS
 90
6
 70
0
 10
-2.2731756122
 20
22.1179666248
 10
-2.2634956018
 20
22.1176292109
 10
-2.2530844054
 20
22.1161743403
 10
-2.2419633657
 20
22.1134971138
 10
-2.2301469247
 20
22.1095199373
 10
-2.2176777761
 20
22.1041635151
  0
LWPOLYLINE
  5
35A
100
AcDbEntity
  8
21814000
100
AcDbPolyline
 62
7
  6
CONTINUOUS
 90
10
 70
0
 10
-1.2845050124
 20
22.258969384
 10
-1.3656274708
 20
22.2706897388
 10
-1.4479010899
 20
22.27859299
 10
-1.5306941514
 20
22.2826819535
 10
-1.6135733222
 20
22.2829802506
 10
-1.6963031522
 20
22.2794882553
 10
-1.7783538985
 20
22.2721926576
 10
-1.8591863301
 20
22.2610883587
 10
-1.9385845333
 20
22.2461083058
 10
-2.0161353635
 20
22.2271714568
  0
LWPOLYLINE
  5
35B
100
AcDbEntity
  8
26814000
100
AcDbPolyline
 62
7
  6
CONTINUOUS
 90
13
 70
0
 10
8.493282305
 20
20.7410791231
 10
8.4586314951
 20
20.7475088043
 10
8.423427272
 20
20.7528919571
 10
8.3877074201
 20
20.7572540979
 10
8.3514821033
 20
20.760648021
 10
8.3148143651
 20
20.7630777708
 10
8.2778181552
 20
20.7644889999
 10
8.2405311203
 20
20.7648991348
 10
8.2029801384
 20
20.7643352533
 10
8.1652594375
 20
20.7627432651
 10
8.1274200628
 20
20.7601141742
 10
8.0894708766
 20
20.7564921929
 10
8.0514414371
 20
20.7518974035
  0
LWPOLYLINE
  5
35C
100
AcDbEntity
  8
21814000
100
AcDbPolyline
 62
250
  6
CONTINUOUS
 90
13
 70
0
 10
-1.2472764896
 20
22.2220227338
 10
-1.3169987196
 20
22.2355974786
 10
-1.3877405185
 20
22.2458609797
 10
-1.4595018863
 20
22.2528132372
 10
-1.5329412626
 20
22.2564636119
 10
-1.6074002079
 20
22.2568027429
 10
-1.6809034037
 20
22.2538025483
 10
-1.7534279139
 20
22.2473579866
 10
-1.8249966746
 20
22.2375740992
 10
-1.8937031758
 20
22.2247379288
 10
-1.9589119142
 20
22.2089451559
 10
-2.0212583932
 20
22.1901000999
 10
-2.0807426126
 20
22.1682027607
  0
LINE
  5
35D
100
AcDbEntity
  8
21814000
100
AcDbLine
 62
7
  6
CONTINUOUS
 10
-1.2050813204
 20
22.2434349968
 11
-1.2845050124
 21
22.258969384
  0
LWPOLYLINE
  5
35E
100
AcDbEntity
  8
21814000
100
AcDbPolyline
 62
250
  6
CONTINUOUS
 90
4
 70
0
 10
-1.6232093477
 20
21.5421119932
 10
-1.5810862123
 20
21.5325611105
 10
-1.5412937166
 20
21.5196846783
 10
-1.5038318606
 20
21.5034826966
  0
LWPOLYLINE
  5
35F
100
AcDbEntity
  8
21814000
100
AcDbPolyline
 62
7
  6
CONTINUOUS
 90
7
 70
0
 10
-1.205088178
 20
22.2434365213
 10
-1.1972274952
 20
22.2415205158
 10
-1.1881314423
 20
22.2388753728
 10
-1.1791680586
 20
22.2358014607
 10
-1.1703477756
 20
22.2323011096
 10
-1.1616903142
 20
22.2283799841
 10
-1.159049756
 20
22.2270835576
  0
LINE
  5
360
100
AcDbEntity
  8
0
100
AcDbLine
 62
7
  6
CONTINUOUS
 10
11.7453985063
 20
20.2000567458
 11
11.2956538449
 21
20.3218045789
  0
LWPOLYLINE
  5
361
100
AcDbEntity
  8
26814000
100
AcDbPolyline
 62
7
  6
CONTINUOUS
 90
10
 70
0
 10
8.7395974046
 20
20.6537016512
 10
8.7166177255
 20
20.6648930834
 10
8.6868416811
 20
20.6784695252
 10
8.657568162
 20
20.6908551419
 10
8.6287781541
 20
20.7020569385
 10
8.6004906714
 20
20.71206791
 10
8.5727890151
 20
20.7209676544
 10
8.5457009521
 20
20.7287827044
 10
8.5191987154
 20
20.7354865273
 10
8.493282305
 20
20.7410791231
  0
LINE
  5
362
100
AcDbEntity
  8
26814000
100
AcDbLine
 62
7
  6
CONTINUOUS
 10
2.9812647447
 20
22.0974150601
 11
0.1707150977
 21
23.5026898836
  0
LINE
  5
363
100
AcDbEntity
  8
21814000
100
AcDbLine
 62
7
  6
CONTINUOUS
 10
9.8233823543
 20
19.1490013057
 11
9.0355937066
 21
19.5428956295
  0
LINE
  5
364
100
AcDbEntity
  8
26814000
100
AcDbLine
 62
7
  6
CONTINUOUS
 10
1.5306470378
 20
23.576438071
 11
3.740387926
 21
22.471567627
  0
LINE
  5
365
100
AcDbEntity
  8
26814000
100
AcDbLine
 62
7
  6
CONTINUOUS
 10
4.4859727491
 20
22.0987752154
 11
4.6317861592
 21
22.0258685104
  0
LINE
  5
366
100
AcDbEntity
  8
26814000
100
AcDbLine
 62
7
  6
CONTINUOUS
 10
-1.3368107078
 20
25.2734106236
 11
-1.1563587307
 21
25.183184635
  0
LINE
  5
367
100
AcDbEntity
  8
26814000
100
AcDbLine
 62
7
  6
CONTINUOUS
 10
4.2176528063
 20
22.4961788665
 11
4.3981047835
 21
22.405952878
  0
LINE
  5
368
100
AcDbEntity
  8
26814000
100
AcDbLine
 62
250
  6
CONTINUOUS
 10
-2.1493790519
 20
25.852307648
 11
0.8297108491
 21
24.3627626975
  0
LINE
  5
369
100
AcDbEntity
  8
26814000
100
AcDbLine
 62
250
  6
CONTINUOUS
 10
5.0723515362
 20
22.2414423539
 11
8.0514414371
 21
20.7518974035
  0
LINE
  5
36A
100
AcDbEntity
  8
26814000
100
AcDbLine
 62
7
  6
CONTINUOUS
 10
5.5133945393
 20
22.2667918205
 11
8.7398844314
 21
20.6535468744
  0
LINE
  5
36B
100
AcDbEntity
  8
0
100
AcDbLine
 62
7
  6
CONTINUOUS
 10
10.8006790981
 20
20.0743172055
 11
11.0145715521
 21
19.8767839378
  0
LWPOLYLINE
  5
36C
100
AcDbEntity
  8
26814000
100
AcDbPolyline
 62
7
  6
CONTINUOUS
 90
17
 70
0
 10
9.2402691935
 20
20.2598192395
 10
9.2066318997
 20
20.29588139
 10
9.1729483116
 20
20.3305200497
 10
9.1392184293
 20
20.3637352185
 10
9.1053735275
 20
20.3955425225
 10
9.0714823315
 20
20.4259263356
 10
9.0377510165
 20
20.4548397797
 10
9.0041992211
 20
20.482258955
 10
8.9708073067
 20
20.5082077613
 10
8.9377225326
 20
20.5327110198
 10
8.9049602192
 20
20.5557547267
 10
8.8725050461
 20
20.5773528858
 10
8.8404583115
 20
20.5975723298
 10
8.8088311719
 20
20.6164062438
 10
8.7776124709
 20
20.6338614427
 10
8.7468700366
 20
20.6500252043
 10
8.7395974046
 20
20.6537016512
  0
LINE
  5
36D
100
AcDbEntity
  8
21814000
100
AcDbLine
 62
7
  6
CONTINUOUS
 10
13.6485204543
 20
23.6449232649
 11
13.657635913
 21
23.6210294639
  0
LINE
  5
36E
100
AcDbEntity
  8
26814000
100
AcDbLine
 62
7
  6
CONTINUOUS
 10
3.3691246689
 20
-24.4385286694
 11
3.8973918407
 21
-24.1675176107
  0
LINE
  5
36F
100
AcDbEntity
  8
26814000
100
AcDbLine
 62
7
  6
CONTINUOUS
 10
1.7678438781
 20
-25.218563269
 11
3.3691246689
 21
-24.4385286694
  0
LINE
  5
370
100
AcDbEntity
  8
RACCORDO
100
AcDbLine
 62
250
  6
CONTINUOUS
 10
-4.8434807859
 20
-25.4687883582
 11
-0.7072448422
 21
-24.0692373437
  0
LINE
  5
371
100
AcDbEntity
  8
RACCORDO
100
AcDbLine
 62
7
  6
CONTINUOUS
 10
-1.0040629229
 20
-24.5396527947
 11
-5.1382998575
 21
-25.9385270408
  0
LINE
  5
372
100
AcDbEntity
  8
26814000
100
AcDbLine
 62
7
  6
CONTINUOUS
 10
0.1707150977
 20
23.5026898836
 11
1.5306470378
 21
23.576438071
  0
LWPOLYLINE
  5
373
100
AcDbEntity
  8
RACCORDO
100
AcDbPolyline
 62
7
  6
CONTINUOUS
 90
9
 70
0
 10
13.138461305
 20
20.8669039755
 10
13.1323445645
 20
20.8685034732
 10
13.1225743507
 20
20.8700362871
 10
13.1122481553
 20
20.8704517315
 10
13.1014609581
 20
20.869749959
 10
13.0904976992
 20
20.8679314276
 10
13.0794533585
 20
20.8649962901
 10
13.068232956
 20
20.8609443937
 10
13.0568364917
 20
20.8557757385
  0
LWPOLYLINE
  5
374
100
AcDbEntity
  8
RACCORDO
100
AcDbPolyline
 62
7
  6
CONTINUOUS
 90
28
 70
0
 10
13.1384511688
 20
20.8668800231
 10
13.0297358222
 20
20.8981658688
 10
12.9148807793
 20
20.9275195459
 10
12.7976193553
 20
20.953846616
 10
12.6782461905
 20
20.9771087078
 10
12.5570258188
 20
20.9972792606
 10
12.4341964494
 20
21.0143385359
 10
12.310047652
 20
21.0282623774
 10
12.1848641889
 20
21.0390330464
 10
12.0588836714
 20
21.0466404461
 10
11.9323972853
 20
21.0510738248
 10
11.8056945623
 20
21.0523283795
 10
11.6790128169
 20
21.0504036064
 10
11.5526415471
 20
21.0453022714
 10
11.4268719565
 20
21.0370330593
 10
11.3019423572
 20
21.0256051838
 10
11.1781434826
 20
21.0110353516
 10
11.0557587302
 20
20.99334533
 10
10.935010294
 20
20.9725511546
 10
10.8161753729
 20
20.9486795546
 10
10.6995395495
 20
20.9217645029
 10
10.5853279764
 20
20.8918297355
 10
10.4738127982
 20
20.8589126317
 10
10.3652666018
 20
20.8230559968
 10
10.2598997103
 20
20.7842843793
 10
10.1579529278
 20
20.7426315709
 10
10.0597067904
 20
20.6981507964
 10
9.9654227292
 20
20.6508934069
  0
LWPOLYLINE
  5
375
100
AcDbEntity
  8
RACCORDO
100
AcDbPolyline
 62
7
  6
CONTINUOUS
 90
3
 70
0
 10
13.1505019868
 20
20.8620861949
 10
13.1416537765
 20
20.8658534425
 10
13.138461305
 20
20.8669039755
  0
LWPOLYLINE
  5
376
100
AcDbEntity
  8
26814000
100
AcDbPolyline
 62
7
  6
CONTINUOUS
 90
18
 70
0
 10
1.2707635661
 20
24.3880963444
 10
1.2512014818
 20
24.3971860774
 10
1.2283057016
 20
24.4061714921
 10
1.2047964153
 20
24.4136737249
 10
1.1806550932
 20
24.4197078947
 10
1.1559653399
 20
24.4242536791
 10
1.1307039136
 20
24.4273076625
 10
1.1048940562
 20
24.4288732605
 10
1.0786890973
 20
24.4289403971
 10
1.0521051347
 20
24.4275016211
 10
1.0251260707
 20
24.4245643838
 10
0.997856942
 20
24.4201409625
 10
0.9702827624
 20
24.4142225769
 10
0.9424185181
 20
24.4068180073
 10
0.9144142051
 20
24.3979658727
 10
0.8863198218
 20
24.387679046
 10
0.8580853698
 20
24.3759446543
 10
0.8297108491
 20
24.3627626975
  0
LINE
  5
377
100
AcDbEntity
  8
0
100
AcDbLine
 62
7
  6
CONTINUOUS
 10
10.8006790981
 20
20.0743172055
 11
10.093710158
 21
20.4278016756
  0
LINE
  5
378
100
AcDbEntity
  8
0
100
AcDbLine
 62
7
  6
CONTINUOUS
 10
11.2956538449
 20
20.3218045789
 11
10.5886849048
 21
20.675289049
  0
LINE
  5
379
100
AcDbEntity
  8
21814000
100
AcDbLine
 62
7
  6
CONTINUOUS
 10
10.3281901325
 20
21.1579346902
 11
9.88957966
 21
21.3772399264
  0
LINE
  5
37A
100
AcDbEntity
  8
RACCORDO
100
AcDbLine
 62
7
  6
CONTINUOUS
 10
13.9990301242
 20
20.4378221262
 11
14.1118050094
 21
20.3813298
  0
LWPOLYLINE
  5
37B
100
AcDbEntity
  8
RACCORDO
100
AcDbPolyline
 62
7
  6
CONTINUOUS
 90
10
 70
0
 10
13.9610860569
 20
20.4504897812
 10
13.8636090032
 20
20.5005452128
 10
13.7679958014
 20
20.5495210885
 10
13.6742464515
 20
20.5974174081
 10
13.5823753702
 20
20.6442355958
 10
13.4923681408
 20
20.6899742276
 10
13.4041815128
 20
20.7346290306
 10
13.3178010694
 20
20.7781985807
 10
13.2332412274
 20
20.8206843022
 10
13.1505019868
 20
20.8620861949
  0
LINE
  5
37C
100
AcDbEntity
  8
RACCORDO
100
AcDbLine
 62
7
  6
CONTINUOUS
 10
13.9688444856
 20
20.4459033091
 11
13.9610860569
 21
20.4504897812
  0
LWPOLYLINE
  5
37D
100
AcDbEntity
  8
RACCORDO
100
AcDbPolyline
 62
250
  6
CONTINUOUS
 90
5
 70
0
 10
13.9990301242
 20
20.4378221262
 10
14.0235531146
 20
20.4173177478
 10
14.0479188762
 20
20.3960394834
 10
14.0720556264
 20
20.3739772061
 10
14.0802044538
 20
20.3661632365
  0
LWPOLYLINE
  5
37E
100
AcDbEntity
  8
RACCORDO
100
AcDbPolyline
 62
250
  6
CONTINUOUS
 90
4
 70
0
 10
13.9053935251
 20
20.4315261177
 10
13.9282539545
 20
20.4119473843
 10
13.9508314928
 20
20.3915943377
 10
13.97312614
 20
20.3704669781
  0
LINE
  5
37F
100
AcDbEntity
  8
RACCORDO
100
AcDbLine
 62
250
  6
CONTINUOUS
 10
13.97312614
 20
20.3704669781
 11
13.9951716383
 21
20.3486370912
  0
LINE
  5
380
100
AcDbEntity
  8
RACCORDO
100
AcDbLine
 62
250
  6
CONTINUOUS
 10
13.9951716383
 20
20.3486370912
 11
14.0105046774
 21
20.3327111003
  0
LWPOLYLINE
  5
381
100
AcDbEntity
  8
21814000
100
AcDbPolyline
 62
250
  6
CONTINUOUS
 90
35
 70
0
 10
19.179742213
 20
17.2414608306
 10
19.1913397394
 20
17.2045859101
 10
19.2112772468
 20
17.1316720385
 10
19.2275912439
 20
17.0607002882
 10
19.2411870042
 20
16.9916339532
 10
19.252244761
 20
16.9246550839
 10
19.260772136
 20
16.8597315824
 10
19.2673718174
 20
16.7964800193
 10
19.2721842314
 20
16.7349213309
 10
19.2752037708
 20
16.6751265252
 10
19.2767759089
 20
16.6167678203
 10
19.2769920878
 20
16.559797091
 10
19.2758611408
 20
16.5043206976
 10
19.2735833127
 20
16.4502325958
 10
19.2702221672
 20
16.3975180822
 10
19.2657995911
 20
16.3462319579
 10
19.260444674
 20
16.2963680214
 10
19.2542159345
 20
16.2479517777
 10
19.2471321664
 20
16.2009858229
 10
19.2392580827
 20
16.1554267778
 10
19.2306513985
 20
16.1112901518
 10
19.2213223629
 20
16.0685790416
 10
19.2112604444
 20
16.0272290134
 10
19.2005108527
 20
15.9872014566
 10
19.189087298
 20
15.9485464206
 10
19.1769313287
 20
15.9113307444
 10
19.1640788851
 20
15.8755036941
 10
19.1505489974
 20
15.8411230083
 10
19.1362618049
 20
15.8084174454
 10
19.121250347
 20
15.7773498006
 10
19.1055342487
 20
15.7479621559
 10
19.0890191644
 20
15.7206022857
 10
19.0716908864
 20
15.6953880224
 10
19.0536100514
 20
15.6722070465
 10
19.0347942225
 20
15.6510625134
  0
LINE
  5
382
100
AcDbEntity
  8
21814000
100
AcDbLine
 62
7
  6
CONTINUOUS
 10
14.5581031125
 20
20.9181983156
 11
13.8316057237
 21
21.28144701
  0
LINE
  5
383
100
AcDbEntity
  8
21814000
100
AcDbLine
 62
7
  6
CONTINUOUS
 10
14.3752734521
 20
21.0252729984
 11
14.0711540681
 21
21.1773326903
  0
LINE
  5
384
100
AcDbEntity
  8
21814000
100
AcDbLine
 62
7
  6
CONTINUOUS
 10
16.7698734859
 20
21.6570594102
 11
13.657635913
 21
23.2131781966
  0
LWPOLYLINE
  5
385
100
AcDbEntity
  8
21814000
100
AcDbPolyline
 62
7
  6
CONTINUOUS
 90
10
 70
0
 10
14.3752734521
 20
21.0252729984
 10
14.3438579977
 20
21.0433258106
 10
14.3118410204
 20
21.061093113
 10
14.2792225202
 20
21.0785749056
 10
14.2459923295
 20
21.0957762722
 10
14.2121606159
 20
21.112692129
 10
14.1777578826
 20
21.1293072244
 10
14.1427942975
 20
21.1456164745
 10
14.1072596926
 20
21.1616249631
 10
14.0711540681
 20
21.1773326903
  0
LWPOLYLINE
  5
386
100
AcDbEntity
  8
21814000
100
AcDbPolyline
 62
7
  6
CONTINUOUS
 90
35
 70
0
 10
19.179742213
 20
19.3235489023
 10
19.2965157417
 20
19.2464467961
 10
19.4363124152
 20
19.1419331498
 10
19.573050271
 20
19.0274045528
 10
19.7059157145
 20
18.9036880483
 10
19.8343011678
 20
18.7715412732
 10
19.9578827679
 20
18.6314738672
 10
20.0762629293
 20
18.4840683635
 10
20.1890173123
 20
18.329957474
 10
20.2956928784
 20
18.1698506899
 10
20.3958498905
 20
18.0044949328
 10
20.4890658342
 20
17.8346771711
 10
20.5750189569
 20
17.6610591405
 10
20.6534343385
 20
17.4842211818
 10
20.7240010135
 20
17.304830618
 10
20.7863755959
 20
17.1236960579
 10
20.8402603319
 20
16.9416007629
 10
20.885397055
 20
16.7592961799
 10
20.9215559577
 20
16.5775193429
 10
20.9485317017
 20
16.396995883
 10
20.966151507
 20
16.2182934308
 10
20.9742244082
 20
16.042296915
 10
20.9726243464
 20
15.8701166742
 10
20.9612769743
 20
15.7022006988
 10
20.940142372
 20
15.5394237625
 10
20.909413018
 20
15.3833301222
 10
20.8693085256
 20
15.2345881574
 10
20.8199821774
 20
15.093495227
 10
20.7617870577
 20
14.9608291371
 10
20.6949786741
 20
14.8369317863
 10
20.6199099604
 20
14.7222726881
 10
20.537320255
 20
14.61767505
 10
20.447881084
 20
14.5235477106
 10
20.3520567756
 20
14.4399671507
 10
20.2504653061
 20
14.3671182252
  0
LWPOLYLINE
  5
387
100
AcDbEntity
  8
21814000
100
AcDbPolyline
 62
250
  6
CONTINUOUS
 90
34
 70
0
 10
19.179742213
 20
19.2449383814
 10
19.2578373038
 20
19.1894265779
 10
19.3949781737
 20
19.0799709686
 10
19.5295206653
 20
18.9604454952
 10
19.6608372442
 20
18.8314076464
 10
19.7883154027
 20
18.693459298
 10
19.9113605395
 20
18.5472438875
 10
20.029398735
 20
18.3934434087
 10
20.1418794295
 20
18.2327752266
 10
20.2482779841
 20
18.0659887393
 10
20.3480981271
 20
17.8938618837
 10
20.4408742685
 20
17.717197509
 10
20.5261736737
 20
17.536819628
 10
20.6035984826
 20
17.3535695742
 10
20.6727875643
 20
17.1683020763
 10
20.733418202
 20
16.9818812732
 10
20.7852075975
 20
16.7951766834
 10
20.8279141905
 20
16.6090591493
 10
20.8613387856
 20
16.4243967749
 10
20.8853254811
 20
16.2420508772
 10
20.8997623964
 20
16.0628719681
 10
20.9045821937
 20
15.8876957881
 10
20.8997623921
 20
15.7173394077
 10
20.8853254725
 20
15.5525974165
 10
20.8613387727
 20
15.3942382171
 10
20.8279141734
 20
15.243000441
 10
20.7852075761
 20
15.0995895032
 10
20.7334181765
 20
14.9646743126
 10
20.6727875347
 20
14.8388841513
 10
20.603598449
 20
14.7228057395
 10
20.5261736363
 20
14.616980499
 10
20.4408742272
 20
14.5219020281
 10
20.3480980821
 20
14.4380137997
 10
20.2504653061
 20
14.3671182252
  0
LINE
  5
388
100
AcDbEntity
  8
21814000
100
AcDbLine
 62
250
  6
CONTINUOUS
 10
18.1686413385
 20
21.5388775167
 11
18.5881845494
 21
20.8152725153
  0
LINE
  5
389
100
AcDbEntity
  8
21814000
100
AcDbLine
 62
7
  6
CONTINUOUS
 10
18.5589057028
 20
21.5332677029
 11
18.9057434734
 21
20.935061037
  0
LWPOLYLINE
  5
38A
100
AcDbEntity
  8
21814000
100
AcDbPolyline
 62
250
  6
CONTINUOUS
 90
13
 70
0
 10
18.5881845494
 20
20.8152725153
 10
18.6399537989
 20
20.7216919978
 10
18.6879971493
 20
20.6259725433
 10
18.7321088717
 20
20.5285240369
 10
18.772100073
 20
20.4297637677
 10
18.8077995042
 20
20.3301146427
 10
18.8390542945
 20
20.2300033759
 10
18.8657306062
 20
20.1298586592
 10
18.887714207
 20
20.0301093277
 10
18.9049109599
 20
19.9311825242
 10
18.9172472256
 20
19.833501869
 10
18.9246701788
 20
19.7374856452
 10
18.9271480333
 20
19.6435450089
  0
LINE
  5
38B
100
AcDbEntity
  8
21814000
100
AcDbLine
 62
250
  6
CONTINUOUS
 10
18.1686413385
 20
21.5388775167
 11
17.3629694024
 21
21.9417134848
  0
LINE
  5
38C
100
AcDbEntity
  8
21814000
100
AcDbLine
 62
250
  6
CONTINUOUS
 10
12.6613063233
 20
24.2925450243
 11
11.6901474896
 21
24.7781244412
  0
LINE
  5
38D
100
AcDbEntity
  8
21814000
100
AcDbLine
 62
7
  6
CONTINUOUS
 10
18.498916716
 20
21.5895596209
 11
17.6731578159
 21
22.0024390709
  0
LINE
  5
38E
100
AcDbEntity
  8
21814000
100
AcDbLine
 62
7
  6
CONTINUOUS
 10
13.1338890949
 20
24.2720734314
 11
12.0815330822
 21
24.7982514378
  0
LWPOLYLINE
  5
38F
100
AcDbEntity
  8
21814000
100
AcDbPolyline
 62
7
  6
CONTINUOUS
 90
4
 70
0
 10
18.500842268
 20
21.5885966475
 10
18.514485744
 20
21.5807819057
 10
18.5380214405
 20
21.5614096272
 10
18.5581995833
 20
21.5345317957
  0
LWPOLYLINE
  5
390
100
AcDbEntity
  8
21814000
100
AcDbPolyline
 62
250
  6
CONTINUOUS
 90
12
 70
0
 10
18.9057434734
 20
20.935061037
 10
18.9043843367
 20
20.936658151
 10
18.8964654186
 20
20.9391797542
 10
18.8828208261
 20
20.938310945
 10
18.8635521094
 20
20.9340581896
 10
18.8388026765
 20
20.9264531394
 10
18.8087567255
 20
20.9155523948
 10
18.773637874
 20
20.9014370851
 10
18.733707495
 20
20.884212264
 10
18.689262771
 20
20.8640061277
 10
18.6406344831
 20
20.8409690608
 10
18.5881845484
 20
20.8152725171
  0
ELLIPSE
  5
391
100
AcDbEntity
  8
RACCORDO
100
AcDbEllipse
 62
7
  6
CONTINUOUS
 10
-12.7273987851
 20
21.3126214334
 30
0.0
 11
-0.2788365272
 21
0.7500446945
 31
0.0
 40
0.6612065299
 41
-0.3094034508
 42
0.0194907506
  0
ELLIPSE
  5
392
100
AcDbEntity
  8
RACCORDO
100
AcDbEllipse
 62
7
  6
CONTINUOUS
 10
1.8386130819
 20
14.0296154999
 30
0.0
 11
-0.2786426855
 21
0.7499328199
 31
0.0
 40
0.6614915248
 41
-2.1866907741
 42
-0.8229222114
  0
ELLIPSE
  5
393
100
AcDbEntity
  8
RACCORDO
100
AcDbEllipse
 62
7
  6
CONTINUOUS
 10
-1.273110672
 20
-23.7861335181
 30
0.0
 11
-0.2788365272
 21
0.7500446945
 31
0.0
 40
0.6612065299
 41
-3.1612482642
 42
-2.1871130547
  0
ELLIPSE
  5
394
100
AcDbEntity
  8
21814000
100
AcDbEllipse
 62
7
  6
CONTINUOUS
 10
11.5831798507
 20
21.4759545171
 30
0.0
 11
3.3311333813
 21
-0.0467042088
 31
0.0
 40
0.4892378494
 41
3.8528301344
 42
5.5059722822
  0
ELLIPSE
  5
395
100
AcDbEntity
  8
21814000
100
AcDbEllipse
 62
7
  6
CONTINUOUS
 10
12.2786701119
 20
20.1826947005
 30
0.0
 11
2.7583300471
 21
-0.038763314
 31
0.0
 40
0.4892375088
 41
0.4291477653
 42
0.6564870977
  0
ELLIPSE
  5
396
100
AcDbEntity
  8
21814000
100
AcDbEllipse
 62
7
  6
CONTINUOUS
 10
11.6069186697
 20
20.2941923845
 30
0.0
 11
2.7499350056
 21
-0.0386453369
 31
0.0
 40
0.4892375088
 41
8.654981679
 42
9.2557277435
  0
ELLIPSE
  5
397
100
AcDbEntity
  8
21814000
100
AcDbEllipse
 62
7
  6
CONTINUOUS
 10
12.2786701119
 20
20.1826947005
 30
0.0
 11
2.7583300471
 21
-0.038763314
 31
0.0
 40
0.4892375088
 41
0.9280596999
 42
2.3630697256
  0
ELLIPSE
  5
398
100
AcDbEntity
  8
21814000
100
AcDbEllipse
 62
7
  6
CONTINUOUS
 10
16.984384343
 20
21.3405952175
 30
0.0
 11
0.716172246
 21
0.6416715914
 31
0.0
 40
0.2882345029
 41
0.1142323894
 42
0.7807533904
  0
ELLIPSE
  5
399
100
AcDbEntity
  8
21814000
100
AcDbEllipse
 62
7
  6
CONTINUOUS
 10
12.2786701119
 20
22.1274054117
 30
0.0
 11
2.7583515655
 21
-1.4175703156
 31
0.0
 40
0.0109499087
 41
-0.9155571536
 42
-0.85781018
  0
ELLIPSE
  5
39A
100
AcDbEntity
  8
21814000
100
AcDbEllipse
 62
7
  6
CONTINUOUS
 10
12.2786701119
 20
22.1274054117
 30
0.0
 11
2.7583515655
 21
-1.4175703156
 31
0.0
 40
0.0109499087
 41
-0.7017315251
 42
-0.6439845515
  0
ELLIPSE
  5
39B
100
AcDbEntity
  8
21814000
100
AcDbEllipse
 62
7
  6
CONTINUOUS
 10
12.2786701119
 20
20.6157074024
 30
0.0
 11
2.7583300471
 21
-0.038763314
 31
0.0
 40
0.4892375088
 41
0.1708839954
 42
2.3630697256
  0
ELLIPSE
  5
39C
100
AcDbEntity
  8
21814000
100
AcDbEllipse
 62
7
  6
CONTINUOUS
 10
13.0176780959
 20
23.3239483411
 30
0.0
 11
-0.2796057293
 21
0.9974617846
 31
0.0
 40
0.6760995073
 41
4.8467711056
 42
6.4001141399
  0
ELLIPSE
  5
39D
100
AcDbEntity
  8
21814000
100
AcDbEllipse
 62
7
  6
CONTINUOUS
 10
11.5831798507
 20
21.4759545171
 30
0.0
 11
3.3311333813
 21
-0.0467042088
 31
0.0
 40
0.4892378494
 41
2.3616770883
 42
3.7058786528
  0
ELLIPSE
  5
39E
100
AcDbEntity
  8
26814000
100
AcDbEllipse
 62
7
  6
CONTINUOUS
 10
0.1610449251
 20
-24.1976326662
 30
0.0
 11
0.110769438
 21
0.2241226716
 31
0.0
 40
0.6088015717
 41
-4.0304836828
 42
-3.1443955108
  0
ELLIPSE
  5
39F
100
AcDbEntity
  8
26814000
100
AcDbEllipse
 62
7
  6
CONTINUOUS
 10
-13.2032732394
 20
24.0375019491
 30
0.0
 11
0.110769438
 21
0.2241226716
 31
0.0
 40
0.6088015717
 41
-4.0304836828
 42
-3.1443650652
  0
ELLIPSE
  5
3A0
100
AcDbEntity
  8
26814000
100
AcDbEllipse
 62
7
  6
CONTINUOUS
 10
0.1610449251
 20
17.3553428669
 30
0.0
 11
0.110769438
 21
0.2241226716
 31
0.0
 40
0.6088015717
 41
-4.0304836828
 42
-3.1443650652
  0
ELLIPSE
  5
3A1
100
AcDbEntity
  8
26814000
100
AcDbEllipse
 62
7
  6
CONTINUOUS
 10
4.2176528063
 20
16.0636248178
 30
0.0
 11
-0.1565168911
 21
0.3130623908
 31
0.0
 40
0.6123677712
 41
-2.2554744912
 42
-0.6846781644
  0
ELLIPSE
  5
3A2
100
AcDbEntity
  8
26814000
100
AcDbEllipse
 62
7
  6
CONTINUOUS
 10
4.2176528063
 20
-22.1129570269
 30
0.0
 11
-0.1565168911
 21
0.3130623908
 31
0.0
 40
0.6123677712
 41
-3.1363904945
 42
-2.2554744912
  0
ELLIPSE
  5
3A3
100
AcDbEntity
  8
26814000
100
AcDbEllipse
 62
7
  6
CONTINUOUS
 10
-1.5489427422
 20
25.168856123
 30
0.0
 11
0.2999991737
 21
-0.0014183462
 31
0.0
 40
0.4964289597
 41
0.7877451926
 42
2.3527237553
  0
ELLIPSE
  5
3A4
100
AcDbEntity
  8
26814000
100
AcDbEllipse
 62
7
  6
CONTINUOUS
 10
4.005520772
 20
22.3916243659
 30
0.0
 11
0.2999991737
 21
-0.0014183462
 31
0.0
 40
0.4964289597
 41
0.7877451926
 42
2.3585415194
  0
ELLIPSE
  5
3A5
100
AcDbEntity
  8
26814000
100
AcDbEllipse
 62
7
  6
CONTINUOUS
 10
3.5448729075
 20
16.6811958287
 30
0.0
 11
0.110769438
 21
0.2241226716
 31
0.0
 40
0.6088015717
 41
1.2055040732
 42
2.2526937431
  0
ELLIPSE
  5
3A6
100
AcDbEntity
  8
26814000
100
AcDbEllipse
 62
7
  6
CONTINUOUS
 10
-9.819445257
 20
23.3633549109
 30
0.0
 11
0.110769438
 21
0.2241226716
 31
0.0
 40
0.6088015717
 41
1.2055040732
 42
2.2526937431
  0
ELLIPSE
  5
3A7
100
AcDbEntity
  8
26814000
100
AcDbEllipse
 62
7
  6
CONTINUOUS
 10
3.8963693846
 20
17.6090009807
 30
0.0
 11
0.110769438
 21
0.2241226716
 31
0.0
 40
0.6088015717
 41
-1.9360885804
 42
-0.8888910292
  0
ELLIPSE
  5
3A8
100
AcDbEntity
  8
26814000
100
AcDbEllipse
 62
7
  6
CONTINUOUS
 10
2.2761945282
 20
18.6800173852
 30
0.0
 11
0.1128509832
 21
0.2230818409
 31
0.0
 40
0.6159267166
 41
0.0028979148
 42
0.6817883054
  0
ELLIPSE
  5
3A9
100
AcDbEntity
  8
26814000
100
AcDbEllipse
 62
7
  6
CONTINUOUS
 10
0.1610449251
 20
17.6087142607
 30
0.0
 11
0.110769438
 21
0.2241226716
 31
0.0
 40
0.6088015717
 41
0.6877230618
 42
2.2527016244
  0
ELLIPSE
  5
3AA
100
AcDbEntity
  8
26814000
100
AcDbEllipse
 62
7
  6
CONTINUOUS
 10
-9.4679487798
 20
24.2911600629
 30
0.0
 11
0.110769438
 21
0.2241226716
 31
0.0
 40
0.6088015717
 41
-1.9360885804
 42
-0.8888910292
  0
ELLIPSE
  5
3AB
100
AcDbEntity
  8
26814000
100
AcDbEllipse
 62
7
  6
CONTINUOUS
 10
-11.0881236362
 20
25.3621764675
 30
0.0
 11
0.1128509832
 21
0.2230818409
 31
0.0
 40
0.6159267166
 41
0.0028979148
 42
0.6817883054
  0
ELLIPSE
  5
3AC
100
AcDbEntity
  8
26814000
100
AcDbEllipse
 62
7
  6
CONTINUOUS
 10
-13.2032732394
 20
24.2908733429
 30
0.0
 11
0.110769438
 21
0.2241226716
 31
0.0
 40
0.6088015717
 41
0.6877230618
 42
2.2527016244
  0
ELLIPSE
  5
3AD
100
AcDbEntity
  8
26814000
100
AcDbEllipse
 62
7
  6
CONTINUOUS
 10
3.8963693846
 20
-23.9515321351
 30
0.0
 11
0.110769438
 21
0.2241226716
 31
0.0
 40
0.6088015717
 41
-2.4538695918
 42
-0.8888910292
  0
ELLIPSE
  5
3AE
100
AcDbEntity
  8
26814000
100
AcDbEllipse
 62
7
  6
CONTINUOUS
 10
0.1610449251
 20
-23.9442612725
 30
0.0
 11
0.110769438
 21
0.2241226716
 31
0.0
 40
0.6088015717
 41
1.2055040732
 42
2.2527016244
  0
ELLIPSE
  5
3AF
100
AcDbEntity
  8
26814000
100
AcDbEllipse
 62
7
  6
CONTINUOUS
 10
3.8963693846
 20
-23.6906031587
 30
0.0
 11
0.110769438
 21
0.2241226716
 31
0.0
 40
0.6088015717
 41
5.394294278
 42
6.4414918292
  0
ELLIPSE
  5
3B0
100
AcDbEntity
  8
26814000
100
AcDbEllipse
 62
7
  6
CONTINUOUS
 10
-9.4679487798
 20
24.5520890393
 30
0.0
 11
0.110769438
 21
0.2241226716
 31
0.0
 40
0.6088015717
 41
5.394294278
 42
6.9592728406
  0
ELLIPSE
  5
3B1
100
AcDbEntity
  8
26814000
100
AcDbEllipse
 62
7
  6
CONTINUOUS
 10
3.8963693846
 20
17.8699299571
 30
0.0
 11
0.110769438
 21
0.2241226716
 31
0.0
 40
0.6088015717
 41
5.394294278
 42
6.9592728406
  0
ELLIPSE
  5
3B2
100
AcDbEntity
  8
26814000
100
AcDbEllipse
 62
7
  6
CONTINUOUS
 10
-1.368490765
 20
23.846795953
 30
0.0
 11
0.2999981629
 21
-0.0021225547
 31
0.0
 40
0.4946372042
 41
-0.7818985079
 42
0.0034997008
  0
ELLIPSE
  5
3B3
100
AcDbEntity
  8
26814000
100
AcDbEllipse
 62
7
  6
CONTINUOUS
 10
4.1859727491
 20
21.0695641959
 30
0.0
 11
0.2999981629
 21
-0.0021225547
 31
0.0
 40
0.4946372042
 41
-0.7760807437
 42
0.0035109161
  0
ELLIPSE
  5
3B4
100
AcDbEntity
  8
26814000
100
AcDbEllipse
 62
7
  6
CONTINUOUS
 10
-7.5174364925
 20
22.248674755
 30
0.0
 11
0.2999991335
 21
0.0014318851
 31
0.0
 40
0.5035541159
 41
8.6427941204
 42
10.207772683
  0
ELLIPSE
  5
3B5
100
AcDbEntity
  8
26814000
100
AcDbEllipse
 62
7
  6
CONTINUOUS
 10
-13.5307274015
 20
22.4516046537
 30
0.0
 11
-0.1565168911
 21
0.3130623908
 31
0.0
 40
0.6123677712
 41
-0.6846781644
 42
0.8861181623
  0
ELLIPSE
  5
3B6
100
AcDbEntity
  8
26814000
100
AcDbEllipse
 62
7
  6
CONTINUOUS
 10
1.7427790722
 20
14.8148514169
 30
0.0
 11
-0.1565168911
 21
0.3130623908
 31
0.0
 40
0.6123677712
 41
-2.2554744912
 42
-0.6846781644
  0
ELLIPSE
  5
3B7
100
AcDbEntity
  8
26814000
100
AcDbEllipse
 62
7
  6
CONTINUOUS
 10
-1.7249274245
 20
19.352420221
 30
0.0
 11
0.2999991335
 21
0.0014318851
 31
0.0
 40
0.5035541159
 41
-2.3585979313
 42
-0.7936193687
  0
ELLIPSE
  5
3B8
100
AcDbEntity
  8
26814000
100
AcDbEllipse
 62
7
  6
CONTINUOUS
 10
-1.7249274245
 20
18.1382211452
 30
0.0
 11
0.2999980272
 21
0.0021530184
 31
0.0
 40
0.5053247124
 41
-2.3598210761
 42
-0.7948425135
  0
ELLIPSE
  5
3B9
100
AcDbEntity
  8
26814000
100
AcDbEllipse
 62
7
  6
CONTINUOUS
 10
-7.5174364925
 20
21.0344756792
 30
0.0
 11
0.2999980272
 21
0.0021530184
 31
0.0
 40
0.5053247124
 41
3.1379773283
 42
3.9233642311
  0
ELLIPSE
  5
3BA
100
AcDbEntity
  8
26814000
100
AcDbEllipse
 62
7
  6
CONTINUOUS
 10
4.1859727491
 20
22.3013983773
 30
0.0
 11
0.2999991737
 21
-0.0014183462
 31
0.0
 40
0.4964289597
 41
-0.77723337
 42
0.7877451926
  0
ELLIPSE
  5
3BB
100
AcDbEntity
  8
26814000
100
AcDbEllipse
 62
7
  6
CONTINUOUS
 10
-1.368490765
 20
25.0786301344
 30
0.0
 11
0.2999991737
 21
-0.0014183462
 31
0.0
 40
0.4964289597
 41
-0.7830511342
 42
0.7877451926
  0
ELLIPSE
  5
3BC
100
AcDbEntity
  8
26814000
100
AcDbEllipse
 62
7
  6
CONTINUOUS
 10
1.7427790722
 20
-23.3390573602
 30
0.0
 11
-0.1565168911
 21
0.3130623908
 31
0.0
 40
0.6123677712
 41
2.4569144891
 42
4.0277108159
  0
ELLIPSE
  5
3BD
100
AcDbEntity
  8
26814000
100
AcDbEllipse
 62
7
  6
CONTINUOUS
 10
3.5448729075
 20
-23.1184083107
 30
0.0
 11
0.110769438
 21
0.2241226716
 31
0.0
 40
0.6088015717
 41
2.2527095058
 42
3.2998991756
  0
ELLIPSE
  5
3BE
100
AcDbEntity
  8
26814000
100
AcDbEllipse
 62
7
  6
CONTINUOUS
 10
1.7688783007
 20
16.8047975728
 30
0.0
 11
0.1128509832
 21
0.2230818409
 31
0.0
 40
0.6159267166
 41
0.6934238338
 42
2.2584023964
  0
ELLIPSE
  5
3BF
100
AcDbEntity
  8
26814000
100
AcDbEllipse
 62
7
  6
CONTINUOUS
 10
1.7688783007
 20
16.5514261791
 30
0.0
 11
0.1128509832
 21
0.2230818409
 31
0.0
 40
0.6159267166
 41
-4.0247829108
 42
-2.9775853596
  0
ELLIPSE
  5
3C0
100
AcDbEntity
  8
26814000
100
AcDbEllipse
 62
7
  6
CONTINUOUS
 10
-11.5954398637
 20
23.4869566551
 30
0.0
 11
0.1128509832
 21
0.2230818409
 31
0.0
 40
0.6159267166
 41
0.6934238338
 42
2.2584023964
  0
ELLIPSE
  5
3C1
100
AcDbEntity
  8
26814000
100
AcDbEllipse
 62
7
  6
CONTINUOUS
 10
-11.5954398637
 20
23.2335852613
 30
0.0
 11
0.1128509832
 21
0.2230818409
 31
0.0
 40
0.6159267166
 41
-4.0247829108
 42
-2.9775853596
  0
ELLIPSE
  5
3C2
100
AcDbEntity
  8
26814000
100
AcDbEllipse
 62
7
  6
CONTINUOUS
 10
1.7688783007
 20
-25.001549354
 30
0.0
 11
0.1128509832
 21
0.2230818409
 31
0.0
 40
0.6159267166
 41
-4.0247829108
 42
-2.4598043482
  0
ELLIPSE
  5
3C3
100
AcDbEntity
  8
26814000
100
AcDbEllipse
 62
7
  6
CONTINUOUS
 10
1.7688783007
 20
-24.7481779603
 30
0.0
 11
0.1128509832
 21
0.2230818409
 31
0.0
 40
0.6159267166
 41
1.2112048452
 42
2.2584023964
  0
ELLIPSE
  5
3C4
100
AcDbEntity
  8
26814000
100
AcDbEllipse
 62
7
  6
CONTINUOUS
 10
0.090572766
 20
-17.8974029933
 30
0.0
 11
-0.542618321
 21
0.8478124368
 31
0.0
 40
0.5451249042
 41
-3.2164376038
 42
-2.3115524019
  0
ENDSEC
  0
SECTION
  2
OBJECTS
  0
DICTIONARY
  5
C
100
AcDbDictionary
280
0
281
1
  3
ACAD_GROUP
350
D
  3
ACAD_MLINESTYLE
350
17
  3
ACAD_LAYOUT
350
1A
  3
ACAD_PLOTSETTINGS
350
19
  3
ACAD_PLOTSTYLENAME
350
E
  0
DICTIONARY
  5
D
102
{ACAD_REACTORS
330
C
102
}
100
AcDbDictionary
280
0
281
1
  0
ACDBDICTIONARYWDFLT
  5
E
102
{ACAD_REACTORS
330
C
102
}
100
AcDbDictionary
281
1
  3
Normal
350
F
100
AcDbDictionaryWithDefault
340
F
  0
DICTIONARY
  5
17
102
{ACAD_REACTORS
330
C
102
}
100
AcDbDictionary
280
0
281
1
  3
Standard
350
18
  0
DICTIONARY
  5
19
102
{ACAD_REACTORS
330
C
102
}
100
AcDbDictionary
281
1
  0
DICTIONARY
  5
1A
102
{ACAD_REACTORS
330
C
102
}
100
AcDbDictionary
281
1
  3
Model
350
3C5
  3
Layout1
350
3C6
  0
ACDBPLACEHOLDER
  5
F
102
{ACAD_REACTORS
330
E
102
}
  0
MLINESTYLE
  5
18
102
{ACAD_REACTORS
330
17
102
}
100
AcDbMlineStyle
  2
STANDARD
 70
0
  3

 62
256
 51
90.0
 52
90.0
 71
2
 49
0.5
 62
256
  6
BYLAYER
 49
-0.5
 62
256
  6
BYLAYER
  0
LAYOUT
  5
3C5
102
{ACAD_REACTORS
330
1A
102
}
100
AcDbPlotSettings
  1

  2
none_device
  4
ISO_A4_(297.00_x_210.00_MM)
  6

 40
0.0
 41
0.0
 42
0.0
 43
0.0
 44
297.0
 45
210.0
 46
0.0
 47
0.0
 48
0.0
 49
0.0
140
0.0
141
0.0
142
1.0
143
1.0
 70
1024
 72
1
 73
0
 74
0
  7

 75
0
147
1.0
148
0.0
149
0.0
100
AcDbLayout
  1
Model
 70
0
 71
0
 10
0.0
 20
0.0
 11
297.0
 21
210.0
 12
0.0
 22
0.0
 32
0.0
 14
0.0
 24
0.0
 34
0.0
 15
0.0
 25
0.0
 35
0.0
146
0.0
 13
0.0
 23
0.0
 33
0.0
 16
1.0
 26
0.0
 36
0.0
 17
0.0
 27
1.0
 37
0.0
 76
0
330
22E
345
0
346
0
  0
LAYOUT
  5
3C6
102
{ACAD_REACTORS
330
1A
102
}
100
AcDbPlotSettings
  1

  2
none_device
  4
ISO_A4_(297.00_x_210.00_MM)
  6

 40
0.0
 41
0.0
 42
0.0
 43
0.0
 44
297.0
 45
210.0
 46
0.0
 47
0.0
 48
0.0
 49
0.0
140
0.0
141
0.0
142
1.0
143
1.0
 70
0
 72
1
 73
0
 74
0
  7

 75
0
147
1.0
148
0.0
149
0.0
100
AcDbLayout
  1
Layout1
 70
0
 71
1
 10
0.0
 20
0.0
 11
297.0
 21
210.0
 12
0.0
 22
0.0
 32
0.0
 14
0.0
 24
0.0
 34
0.0
 15
0.0
 25
0.0
 35
0.0
146
0.0
 13
0.0
 23
0.0
 33
0.0
 16
1.0
 26
0.0
 36
0.0
 17
0.0
 27
1.0
 37
0.0
 76
0
330
22F
345
0
346
0
  0
ENDSEC
  0
EOF
