  0
SECTION
  2
HEADER
  9
$ACADVER
  1
AC1024
  9
$DWGCODEPAGE
  3
ANSI_1252
  9
$EXTMAX
 10
297.0
 20
210.0
 30
0.0
  9
$EXTMIN
 10
0.0
 20
0.0
 30
0.0
  9
$LIMMIN
 10
0.0
 20
0.0
  9
$LIMMAX
 10
297.0
 20
210.0
  9
$VIEWCTR
 10
148.5
 20
105.0
  9
$VIEWSIZE
 40
210.0
  9
$CLAYER
  8
0
  9
$LTSCALE
 40
16.335
  9
$CELTYPE
  6
BYLAYER
  9
$DIMSCALE
 40
1.0
  9
$DIMASZ
 40
3.0
  9
$DIMEXO
 40
0.5
  9
$DIMDLI
 40
11.286
  9
$DIMEXE
 40
1.5
  9
$DIMCEN
 40
2.673
  9
$DIMLFAC
 40
1.0
  9
$DIMBLK
  1
_FILLED
  9
$DIMALT
 70
0
  9
$DIMALTF
 40
0.0393700787
  9
$DIMTXT
 40
3.0
  9
$DIMTOL
 70
1
  9
$DIMLIM
 70
0
  9
$DIMTFAC
 40
1.0
  9
$DIMTP
 40
0.01
  9
$DIMTM
 40
0.01
  9
$DIMGAP
 40
0.625
  9
$DIMDSEP
 70
44
  9
$AUNITS
 70
0
  9
$PDMODE
 70
3
  9
$PDSIZE
 40
3.0
  9
$HANDSEED
  5
2F4
  9
$TILEMODE
 70
1
  9
$MEASUREMENT
 70
1
  9
$INSUNITS
 70
4
  0
ENDSEC
  0
SECTION
  2
CLASSES
  0
CLASS
  1
ACDBDICTIONARYWDFLT
  2
AcDbDictionaryWithDefault
  3
AutoCAD 2000
 90
0
 91
1
280
0
281
0
  0
CLASS
  1
ACDBPLACEHOLDER
  2
AcDbPlaceHolder
  3
AutoCAD 2000
 90
0
 91
1
280
0
281
0
  0
CLASS
  1
LAYOUT
  2
AcDbLayout
  3
AutoCAD 2000
 90
0
 91
0
280
0
281
0
  0
ENDSEC
  0
SECTION
  2
TABLES
  0
TABLE
  2
VPORT
  5
8
100
AcDbSymbolTable
 70
2
  0
VPORT
  5
1F4
100
AcDbSymbolTableRecord
100
AcDbViewportTableRecord
  2
*ACTIVE
 70
0
 10
0.0
 20
0.0
 11
1.0
 21
1.0
 12
148.5
 22
105.0
 13
0.0
 23
0.0
 14
1.0
 24
1.0
 15
0.0
 25
0.0
 16
0.0
 26
0.0
 36
1.0
 17
0.0
 27
0.0
 37
0.0
 40
210.0
 41
1.4142857143
 42
50.0
 43
0.0
 44
0.0
 50
0.0
 51
0.0
 71
0
 72
100
 73
1
 74
1
 75
0
 76
0
 77
0
 78
0
  0
ENDTAB
  0
TABLE
  2
LTYPE
  5
5
100
AcDbSymbolTable
 70
6
  0
LTYPE
  5
14
100
AcDbSymbolTableRecord
100
AcDbLinetypeTableRecord
  2
BYBLOCK
 70
0
  3

 72
65
 73
0
 40
0.0
  0
LTYPE
  5
15
100
AcDbSymbolTableRecord
100
AcDbLinetypeTableRecord
  2
BYLAYER
 70
0
  3

 72
65
 73
0
 40
0.0
  0
LTYPE
  5
16
100
AcDbSymbolTableRecord
100
AcDbLinetypeTableRecord
  2
CONTINUOUS
 70
64
  3
Solid line
 72
65
 73
0
 40
0.0
  0
LTYPE
  5
1F5
100
AcDbSymbolTableRecord
100
AcDbLinetypeTableRecord
  2
CENTER
 70
64
  3
____ _ ____ _ ____ _ ____ _ ____ _ ____ _ ____
 72
65
 73
4
 40
0.6
 49
0.375
 74
0
 49
-0.075
 74
0
 49
0.075
 74
0
 49
-0.075
 74
0
  0
LTYPE
  5
1F6
100
AcDbSymbolTableRecord
100
AcDbLinetypeTableRecord
  2
HIDDEN
 70
64
  3
- - - - - - - - - - - - - - - - - - - -
 72
65
 73
2
 40
0.2
 49
0.1
 74
0
 49
-0.1
 74
0
  0
LTYPE
  5
1F7
100
AcDbSymbolTableRecord
100
AcDbLinetypeTableRecord
  2
PHANTOM
 70
64
  3
_____ _ _ _____ _ _ _____ _ _ _____
 72
65
 73
6
 40
0.8
 49
0.45
 74
0
 49
-0.05
 74
0
 49
0.1
 74
0
 49
-0.05
 74
0
 49
0.1
 74
0
 49
-0.05
 74
0
  0
LTYPE
  5
1F8
100
AcDbSymbolTableRecord
100
AcDbLinetypeTableRecord
  2
DOT
 70
64
  3
. . . . . . . . . . . . . . . . . . . .
 72
65
 73
2
 40
0.2
 49
0.1
 74
0
 49
-0.1
 74
0
  0
LTYPE
  5
1F9
100
AcDbSymbolTableRecord
100
AcDbLinetypeTableRecord
  2
DASHED
 70
64
  3
- - - - - - - - - - - - - - - - - - - -
 72
65
 73
2
 40
0.2
 49
0.1
 74
0
 49
-0.1
 74
0
  0
ENDTAB
  0
TABLE
  2
LAYER
  5
2
100
AcDbSymbolTable
 70
36
  0
LAYER
  5
10
100
AcDbSymbolTableRecord
100
AcDbLayerTableRecord
  2
0
 70
0
 62
7
  6
CONTINUOUS
370
-3
390
F
  0
LAYER
  5
1FA
100
AcDbSymbolTableRecord
100
AcDbLayerTableRecord
  2
DEFAULT_1
 70
0
 62
7
  6
CENTER
370
-3
390
F
  0
LAYER
  5
1FB
100
AcDbSymbolTableRecord
100
AcDbLayerTableRecord
  2
DEFAULT_2
 70
0
 62
7
  6
HIDDEN
370
-3
390
F
  0
LAYER
  5
1FC
100
AcDbSymbolTableRecord
100
AcDbLayerTableRecord
  2
DEFAULT_3
 70
0
 62
7
  6
PHANTOM
370
-3
390
F
  0
LAYER
  5
1FD
100
AcDbSymbolTableRecord
100
AcDbLayerTableRecord
  2
102A_65000
 70
0
 62
7
  6
CONTINUOUS
370
-3
390
F
  0
LAYER
  5
1FE
100
AcDbSymbolTableRecord
100
AcDbLayerTableRecord
  2
102A_65000_1
 70
0
 62
7
  6
CONTINUOUS
370
-3
390
F
  0
LAYER
  5
1FF
100
AcDbSymbolTableRecord
100
AcDbLayerTableRecord
  2
133A_110000
 70
0
 62
7
  6
CONTINUOUS
370
-3
390
F
  0
LAYER
  5
200
100
AcDbSymbolTableRecord
100
AcDbLayerTableRecord
  2
133A_110000_1
 70
0
 62
7
  6
CONTINUOUS
370
-3
390
F
  0
LAYER
  5
201
100
AcDbSymbolTableRecord
100
AcDbLayerTableRecord
  2
133A_110000_2
 70
0
 62
7
  6
CONTINUOUS
370
-3
390
F
  0
LAYER
  5
202
100
AcDbSymbolTableRecord
100
AcDbLayerTableRecord
  2
133A_110000_3
 70
0
 62
7
  6
CONTINUOUS
370
-3
390
F
  0
LAYER
  5
203
100
AcDbSymbolTableRecord
100
AcDbLayerTableRecord
  2
1608-CC-RF-VIMAR_80000
 70
0
 62
7
  6
CONTINUOUS
370
-3
390
F
  0
LAYER
  5
204
100
AcDbSymbolTableRecord
100
AcDbLayerTableRecord
  2
1608-CC-RF-VIMAR_80000_1
 70
0
 62
7
  6
CONTINUOUS
370
-3
390
F
  0
LAYER
  5
205
100
AcDbSymbolTableRecord
100
AcDbLayerTableRecord
  2
1608-CC-RF-VIMAR_80000_2
 70
0
 62
7
  6
CONTINUOUS
370
-3
390
F
  0
LAYER
  5
206
100
AcDbSymbolTableRecord
100
AcDbLayerTableRecord
  2
1608-CC-RF-VIMAR_80000_3
 70
0
 62
7
  6
CONTINUOUS
370
-3
390
F
  0
LAYER
  5
207
100
AcDbSymbolTableRecord
100
AcDbLayerTableRecord
  2
1608-R-RF-VIMAR_45000
 70
0
 62
7
  6
CONTINUOUS
370
-3
390
F
  0
LAYER
  5
208
100
AcDbSymbolTableRecord
100
AcDbLayerTableRecord
  2
43900634A0
 70
0
 62
7
  6
CONTINUOUS
370
-3
390
F
  0
LAYER
  5
209
100
AcDbSymbolTableRecord
100
AcDbLayerTableRecord
  2
ASSI
 70
0
 62
7
  6
CONTINUOUS
370
-3
390
F
  0
LAYER
  5
20A
100
AcDbSymbolTableRecord
100
AcDbLayerTableRecord
  2
CC-0603-VIMAR_1000
 70
0
 62
7
  6
CONTINUOUS
370
-3
390
F
  0
LAYER
  5
20B
100
AcDbSymbolTableRecord
100
AcDbLayerTableRecord
  2
COLOR5
 70
0
 62
7
  6
CONTINUOUS
370
-3
390
F
  0
LAYER
  5
20C
100
AcDbSymbolTableRecord
100
AcDbLayerTableRecord
  2
COLOR6
 70
0
 62
7
  6
CONTINUOUS
370
-3
390
F
  0
LAYER
  5
20D
100
AcDbSymbolTableRecord
100
AcDbLayerTableRecord
  2
COORDINATE
 70
0
 62
7
  6
CONTINUOUS
370
-3
390
F
  0
LAYER
  5
20E
100
AcDbSymbolTableRecord
100
AcDbLayerTableRecord
  2
COORD_ORIGINE
 70
0
 62
7
  6
CONTINUOUS
370
-3
390
F
  0
LAYER
  5
20F
100
AcDbSymbolTableRecord
100
AcDbLayerTableRecord
  2
COPY_PUBLISH
 70
0
 62
7
  6
CONTINUOUS
370
-3
390
F
  0
LAYER
  5
210
100
AcDbSymbolTableRecord
100
AcDbLayerTableRecord
  2
COSMETIC
 70
0
 62
7
  6
CONTINUOUS
370
-3
390
F
  0
LAYER
  5
211
100
AcDbSymbolTableRecord
100
AcDbLayerTableRecord
  2
COSMETICI
 70
0
 62
7
  6
CONTINUOUS
370
-3
390
F
  0
LAYER
  5
212
100
AcDbSymbolTableRecord
100
AcDbLayerTableRecord
  2
CURVE
 70
0
 62
7
  6
CONTINUOUS
370
-3
390
F
  0
LAYER
  5
213
100
AcDbSymbolTableRecord
100
AcDbLayerTableRecord
  2
CURVE_GUARNIZIONI
 70
0
 62
7
  6
CONTINUOUS
370
-3
390
F
  0
LAYER
  5
214
100
AcDbSymbolTableRecord
100
AcDbLayerTableRecord
  2
CURVE_INIEZIONE
 70
0
 62
7
  6
CONTINUOUS
370
-3
390
F
  0
LAYER
  5
215
100
AcDbSymbolTableRecord
100
AcDbLayerTableRecord
  2
CURVE_PUNZONI
 70
0
 62
7
  6
CONTINUOUS
370
-3
390
F
  0
LAYER
  5
216
100
AcDbSymbolTableRecord
100
AcDbLayerTableRecord
  2
DRAFT
 70
0
 62
7
  6
CONTINUOUS
370
-3
390
F
  0
LAYER
  5
217
100
AcDbSymbolTableRecord
100
AcDbLayerTableRecord
  2
E4_MARK_10000
 70
0
 62
7
  6
CONTINUOUS
370
-3
390
F
  0
LAYER
  5
218
100
AcDbSymbolTableRecord
100
AcDbLayerTableRecord
  2
GUARNIZIONI
 70
0
 62
7
  6
CONTINUOUS
370
-3
390
F
  0
LAYER
  5
219
100
AcDbSymbolTableRecord
100
AcDbLayerTableRecord
  2
IMPORT_IGES
 70
0
 62
7
  6
CONTINUOUS
370
-3
390
F
  0
LAYER
  5
21A
100
AcDbSymbolTableRecord
100
AcDbLayerTableRecord
  2
INTF_1
 70
0
 62
7
  6
CONTINUOUS
370
-3
390
F
  0
LAYER
  5
21B
100
AcDbSymbolTableRecord
100
AcDbLayerTableRecord
  2
INTF_11
 70
0
 62
7
  6
CONTINUOUS
370
-3
390
F
  0
LAYER
  5
21C
100
AcDbSymbolTableRecord
100
AcDbLayerTableRecord
  2
INTF_13
 70
0
 62
7
  6
CONTINUOUS
370
-3
390
F
  0
LAYER
  5
21D
100
AcDbSymbolTableRecord
100
AcDbLayerTableRecord
  2
INTF_14
 70
0
 62
7
  6
CONTINUOUS
370
-3
390
F
  0
LAYER
  5
21E
100
AcDbSymbolTableRecord
100
AcDbLayerTableRecord
  2
INTF_7
 70
0
 62
7
  6
CONTINUOUS
370
-3
390
F
  0
LAYER
  5
21F
100
AcDbSymbolTableRecord
100
AcDbLayerTableRecord
  2
INTF_BLANK
 70
0
 62
7
  6
CONTINUOUS
370
-3
390
F
  0
LAYER
  5
220
100
AcDbSymbolTableRecord
100
AcDbLayerTableRecord
  2
INTF_RED
 70
0
 62
7
  6
CONTINUOUS
370
-3
390
F
  0
LAYER
  5
221
100
AcDbSymbolTableRecord
100
AcDbLayerTableRecord
  2
LINEA_CHIUSURA
 70
0
 62
7
  6
CONTINUOUS
370
-3
390
F
  0
LAYER
  5
222
100
AcDbSymbolTableRecord
100
AcDbLayerTableRecord
  2
LOGO_RESIST-RESTYLING_10000
 70
0
 62
7
  6
CONTINUOUS
370
-3
390
F
  0
LAYER
  5
223
100
AcDbSymbolTableRecord
100
AcDbLayerTableRecord
  2
NO-PB_MARK_10000
 70
0
 62
7
  6
CONTINUOUS
370
-3
390
F
  0
LAYER
  5
224
100
AcDbSymbolTableRecord
100
AcDbLayerTableRecord
  2
NOTE
 70
0
 62
7
  6
CONTINUOUS
370
-3
390
F
  0
LAYER
  5
225
100
AcDbSymbolTableRecord
100
AcDbLayerTableRecord
  2
PIANI
 70
0
 62
7
  6
CONTINUOUS
370
-3
390
F
  0
LAYER
  5
226
100
AcDbSymbolTableRecord
100
AcDbLayerTableRecord
  2
PIANI_ORIGINE
 70
0
 62
7
  6
CONTINUOUS
370
-3
390
F
  0
LAYER
  5
227
100
AcDbSymbolTableRecord
100
AcDbLayerTableRecord
  2
PIANI_RIFERIMENTO
 70
0
 62
7
  6
CONTINUOUS
370
-3
390
F
  0
LAYER
  5
228
100
AcDbSymbolTableRecord
100
AcDbLayerTableRecord
  2
PUNTI
 70
0
 62
7
  6
CONTINUOUS
370
-3
390
F
  0
LAYER
  5
229
100
AcDbSymbolTableRecord
100
AcDbLayerTableRecord
  2
RACCORDO
 70
0
 62
7
  6
CONTINUOUS
370
-3
390
F
  0
LAYER
  5
22A
100
AcDbSymbolTableRecord
100
AcDbLayerTableRecord
  2
RGB__255__255__255__
 70
0
 62
7
  6
CONTINUOUS
370
-3
390
F
  0
LAYER
  5
22B
100
AcDbSymbolTableRecord
100
AcDbLayerTableRecord
  2
RGB____0____0____0__
 70
0
 62
7
  6
CONTINUOUS
370
-3
390
F
  0
LAYER
  5
22C
100
AcDbSymbolTableRecord
100
AcDbLayerTableRecord
  2
SIMBOLI
 70
0
 62
7
  6
CONTINUOUS
370
-3
390
F
  0
LAYER
  5
22D
100
AcDbSymbolTableRecord
100
AcDbLayerTableRecord
  2
SMUSSO
 70
0
 62
7
  6
CONTINUOUS
370
-3
390
F
  0
LAYER
  5
22E
100
AcDbSymbolTableRecord
100
AcDbLayerTableRecord
  2
SUPERFICI
 70
0
 62
7
  6
CONTINUOUS
370
-3
390
F
  0
LAYER
  5
22F
100
AcDbSymbolTableRecord
100
AcDbLayerTableRecord
  2
TASSELLI
 70
0
 62
7
  6
CONTINUOUS
370
-3
390
F
  0
LAYER
  5
230
100
AcDbSymbolTableRecord
100
AcDbLayerTableRecord
  2
TP15_SMD_0
 70
0
 62
7
  6
CONTINUOUS
370
-3
390
F
  0
LAYER
  5
231
100
AcDbSymbolTableRecord
100
AcDbLayerTableRecord
  2
TP20_SMD_0
 70
0
 62
7
  6
CONTINUOUS
370
-3
390
F
  0
LAYER
  5
232
100
AcDbSymbolTableRecord
100
AcDbLayerTableRecord
  2
TP20_SMD_0_1
 70
0
 62
7
  6
CONTINUOUS
370
-3
390
F
  0
LAYER
  5
233
100
AcDbSymbolTableRecord
100
AcDbLayerTableRecord
  2
TP20_SMD_0_2
 70
0
 62
7
  6
CONTINUOUS
370
-3
390
F
  0
LAYER
  5
234
100
AcDbSymbolTableRecord
100
AcDbLayerTableRecord
  2
TP20_SMD_0_3
 70
0
 62
7
  6
CONTINUOUS
370
-3
390
F
  0
LAYER
  5
235
100
AcDbSymbolTableRecord
100
AcDbLayerTableRecord
  2
TP20_SMD_0_4
 70
0
 62
7
  6
CONTINUOUS
370
-3
390
F
  0
LAYER
  5
236
100
AcDbSymbolTableRecord
100
AcDbLayerTableRecord
  2
TP20_SMD_0_5
 70
0
 62
7
  6
CONTINUOUS
370
-3
390
F
  0
LAYER
  5
237
100
AcDbSymbolTableRecord
100
AcDbLayerTableRecord
  2
TRASH
 70
0
 62
7
  6
CONTINUOUS
370
-3
390
F
  0
LAYER
  5
238
100
AcDbSymbolTableRecord
100
AcDbLayerTableRecord
  2
WHITE
 70
0
 62
7
  6
CONTINUOUS
370
-3
390
F
  0
LAYER
  5
239
100
AcDbSymbolTableRecord
100
AcDbLayerTableRecord
  2
XSEC_DATUMS
 70
0
 62
7
  6
CONTINUOUS
370
-3
390
F
  0
LAYER
  5
23A
100
AcDbSymbolTableRecord
100
AcDbLayerTableRecord
  2
___SHELL
 70
0
 62
7
  6
CONTINUOUS
370
-3
390
F
  0
ENDTAB
  0
TABLE
  2
STYLE
  5
3
100
AcDbSymbolTable
 70
1
  0
STYLE
  5
11
100
AcDbSymbolTableRecord
100
AcDbTextStyleTableRecord
  2
STANDARD
 70
0
 40
0.0
 41
0.8
 50
0.0
 71
0
 42
0.2
  3
txt
  4

  0
STYLE
  5
23B
100
AcDbSymbolTableRecord
100
AcDbTextStyleTableRecord
  2
TEXTSTYLE_1
 70
0
 40
0.0
 41
0.8
 50
0.0
 71
0
 42
0.2
  3
gdt
  4

  0
ENDTAB
  0
TABLE
  2
VIEW
  5
6
100
AcDbSymbolTable
 70
0
  0
ENDTAB
  0
TABLE
  2
UCS
  5
7
100
AcDbSymbolTable
 70
0
  0
ENDTAB
  0
TABLE
  2
APPID
  5
9
100
AcDbSymbolTable
 70
1
  0
APPID
  5
23C
100
AcDbSymbolTableRecord
100
AcDbRegAppTableRecord
  2
ACAD
 70
0
  0
ENDTAB
  0
TABLE
  2
BLOCK_RECORD
  5
1
100
AcDbSymbolTable
 70
0
  0
BLOCK_RECORD
  5
23D
100
AcDbSymbolTableRecord
100
AcDbBlockTableRecord
  2
*Model_Space
  0
BLOCK_RECORD
  5
23E
100
AcDbSymbolTableRecord
100
AcDbBlockTableRecord
  2
*Paper_Space
  0
BLOCK_RECORD
  5
23F
100
AcDbSymbolTableRecord
100
AcDbBlockTableRecord
  2
_FILLED
  0
ENDTAB
  0
TABLE
  2
DIMSTYLE
  5
A
100
AcDbSymbolTable
 70
1
100
AcDbDimStyleTable
 71
0
  0
DIMSTYLE
105
240
100
AcDbSymbolTableRecord
100
AcDbDimStyleTableRecord
  2
STANDARD
 70
0
  3

  4

 40
1.0
 41
3.0
 42
0.5
 43
0.38
 44
1.5
 45
0.0
 46
0.0
 47
0.01
 48
0.01
140
3.0
141
0.09
142
0.0
143
25.4
144
1.0
145
0.0
146
1.0
147
0.625
 71
1
 72
0
 73
0
 74
0
 75
0
 76
0
 77
1
 78
8
 79
2
170
0
171
1
172
0
173
0
174
0
175
0
176
0
177
0
178
0
270
2
179
2
271
2
272
2
273
2
274
2
275
0
280
0
281
0
282
0
283
1
284
8
285
0
286
0
287
3
288
0
340
11
278
44
341
23F
342
23F
343
23F
344
23F
  0
ENDTAB
  0
ENDSEC
  0
SECTION
  2
BLOCKS
  0
BLOCK
  5
20
100
AcDbEntity
  8
0
100
AcDbBlockBegin
  2
*Model_Space
 70
0
 10
0.0
 20
0.0
 30
0.0
  3
*Model_Space
  1

  0
ENDBLK
  5
21
100
AcDbEntity
  8
0
100
AcDbBlockEnd
  0
BLOCK
  5
1C
100
AcDbEntity
  8
0
100
AcDbBlockBegin
  2
*Paper_Space
 70
0
 10
0.0
 20
0.0
 30
0.0
  3
*Paper_Space
  1

  0
ENDBLK
  5
1D
100
AcDbEntity
  8
0
100
AcDbBlockEnd
  0
BLOCK
  5
241
100
AcDbEntity
  8
0
100
AcDbBlockBegin
  2
_FILLED
 70
64
 10
0.0
 20
0.0
  3
_FILLED
  1

  0
SOLID
  5
242
100
AcDbEntity
  8
0
  6
BYBLOCK
 62
0
100
AcDbTrace
 10
0.0
 20
0.0
 11
-1.0
 21
0.3166666667
 12
-1.0
 22
-0.3166666667
 13
-1.0
 23
-0.3166666667
  0
ENDBLK
  5
243
100
AcDbEntity
  8
0
  6
BYBLOCK
 62
0
100
AcDbBlockEnd
  0
ENDSEC
  0
SECTION
  2
ENTITIES
  0
LINE
  5
244
100
AcDbEntity
  8
0
100
AcDbLine
 62
7
  6
CONTINUOUS
 10
1.0435762621
 20
-33.4640763796
 11
0.8782879307
 21
-31.3276808247
  0
LINE
  5
245
100
AcDbEntity
  8
0
100
AcDbLine
 62
7
  6
CONTINUOUS
 10
0.606827516
 20
-31.8847502877
 11
0.6826321914
 21
-33.2556717969
  0
LWPOLYLINE
  5
246
100
AcDbEntity
  8
0
100
AcDbPolyline
 62
7
  6
CONTINUOUS
 90
71
 70
0
 10
3.6121362688
 20
-33.9823683364
 10
3.6169070164
 20
-33.9841699938
 10
3.621829881
 20
-33.9855373481
 10
3.6268599234
 20
-33.9864283159
 10
3.6314442658
 20
-33.9867980019
 10
3.6360420465
 20
-33.9867751402
 10
3.6406162134
 20
-33.986387786
 10
3.6471334385
 20
-33.9852535542
 10
3.6535465723
 20
-33.9835786721
 10
3.6598782747
 20
-33.9815254199
 10
3.6661512052
 20
-33.9792560776
 10
3.6782491399
 20
-33.9746170048
 10
3.690185679
 20
-33.9696912056
 10
3.7019363112
 20
-33.9643959224
 10
3.7134765256
 20
-33.9586483979
 10
3.7244637492
 20
-33.9525554127
 10
3.7351531356
 20
-33.9459280074
 10
3.745468965
 20
-33.9387375862
 10
3.7553355179
 20
-33.9309555533
 10
3.764179411
 20
-33.9230546258
 10
3.7725625416
 20
-33.9146521285
 10
3.7804918297
 20
-33.9057989906
 10
3.7879741949
 20
-33.8965461417
 10
3.795016557
 20
-33.8869445112
 10
3.8016258359
 20
-33.8770450286
 10
3.8096722518
 20
-33.8636478681
 10
3.8170130632
 20
-33.8498715355
 10
3.8236796313
 20
-33.835763863
 10
3.8297033176
 20
-33.8213726826
 10
3.8351154833
 20
-33.8067458263
 10
3.8402700519
 20
-33.790863221
 10
3.844791732
 20
-33.7747954034
 10
3.8487135548
 20
-33.7585727729
 10
3.852233694
 20
-33.741343387
 10
3.8551653925
 20
-33.7240019933
 10
3.857549547
 20
-33.7065747189
 10
3.8597998257
 20
-33.6848954722
 10
3.8613160349
 20
-33.6631468468
 10
3.8621420346
 20
-33.6413512128
 10
3.8623216849
 20
-33.6195309402
 10
3.8618988458
 20
-33.597708399
 10
3.8609173774
 20
-33.5759059594
 10
3.8593081292
 20
-33.5528486089
 10
3.8571217909
 20
-33.529850016
 10
3.8543592171
 20
-33.5069212543
 10
3.8510212623
 20
-33.4840733974
 10
3.8471087808
 20
-33.461317519
 10
3.8416799164
 20
-33.4342383072
 10
3.8354540247
 20
-33.4073270072
 10
3.8284546515
 20
-33.3806041262
 10
3.8207053422
 20
-33.3540901716
 10
3.8130134071
 20
-33.3301345749
 10
3.8047382672
 20
-33.3063763137
 10
3.7958995209
 20
-33.2828223257
 10
3.7865167665
 20
-33.2594795481
 10
3.7763688075
 20
-33.2358156407
 10
3.7656793244
 20
-33.212391407
 10
3.7544561001
 20
-33.189218016
 10
3.7427069175
 20
-33.1663066366
 10
3.7291248046
 20
-33.1413124277
 10
3.7149211253
 20
-33.1166627348
 10
3.7001067453
 20
-33.0923686574
 10
3.6846925305
 20
-33.0684412952
 10
3.6686893465
 20
-33.0448917478
 10
3.652108059
 20
-33.0217311148
 10
3.6400211335
 20
-33.0055855014
 10
3.6276148949
 20
-32.9896881849
 10
3.6148542387
 20
-32.9740870394
 10
3.6017040608
 20
-32.9588299386
 10
3.5881292568
 20
-32.9439647564
 10
3.5740947225
 20
-32.9295393667
  0
LWPOLYLINE
  5
247
100
AcDbEntity
  8
0
100
AcDbPolyline
 62
7
  6
CONTINUOUS
 90
22
 70
0
 10
3.0187941862
 20
-32.9112801982
 10
3.0318455753
 20
-32.9162994122
 10
3.0448568653
 20
-32.921423399
 10
3.0578216344
 20
-32.9266648747
 10
3.0707334606
 20
-32.9320365552
 10
3.0835859219
 20
-32.9375511562
 10
3.0963725964
 20
-32.9432213938
 10
3.1111948175
 20
-32.9500434249
 10
3.125917844
 20
-32.9570883008
 10
3.140540694
 20
-32.964349887
 10
3.1550623854
 20
-32.971822049
 10
3.1694819362
 20
-32.9794986523
 10
3.1837983643
 20
-32.9873735623
 10
3.1980106878
 20
-32.9954406447
 10
3.2121179245
 20
-33.0036937648
 10
3.2261190926
 20
-33.0121267882
 10
3.2400132098
 20
-33.0207335804
 10
3.2537992942
 20
-33.0295080069
 10
3.2674763639
 20
-33.0384439331
 10
3.2810434366
 20
-33.0475352246
 10
3.2944995304
 20
-33.0567757469
 10
3.3078436633
 20
-33.0661593655
  0
LINE
  5
248
100
AcDbEntity
  8
0
100
AcDbLine
 62
7
  6
CONTINUOUS
 10
-2.3468862024
 20
-31.506465845
 11
-2.0217372912
 21
-31.6942027513
  0
LINE
  5
249
100
AcDbEntity
  8
0
100
AcDbLine
 62
7
  6
CONTINUOUS
 10
-1.3166429359
 20
-32.1013153951
 11
-0.9476795673
 21
-32.31435022
  0
LINE
  5
24A
100
AcDbEntity
  8
0
100
AcDbLine
 62
7
  6
CONTINUOUS
 10
-0.7490553937
 20
-32.4290333284
 11
-0.3960775881
 21
-32.6328382896
  0
LINE
  5
24B
100
AcDbEntity
  8
0
100
AcDbLine
 62
7
  6
CONTINUOUS
 10
0.6826321914
 20
-33.2556717969
 11
1.0435762621
 21
-33.4640763796
  0
LINE
  5
24C
100
AcDbEntity
  8
0
100
AcDbLine
 62
7
  6
CONTINUOUS
 10
1.1015137633
 20
-33.4975287666
 11
1.4664734934
 21
-33.7082519408
  0
LINE
  5
24D
100
AcDbEntity
  8
0
100
AcDbLine
 62
7
  6
CONTINUOUS
 10
2.1663324301
 20
-34.1123417195
 11
2.5552043902
 21
-34.3368715156
  0
LINE
  5
24E
100
AcDbEntity
  8
0
100
AcDbLine
 62
7
  6
CONTINUOUS
 10
2.6635497675
 20
-34.3994285995
 11
3.0310284535
 21
-34.6116061872
  0
LINE
  5
24F
100
AcDbEntity
  8
0
100
AcDbLine
 62
7
  6
CONTINUOUS
 10
3.5960448272
 20
-34.9378395601
 11
3.9509446186
 21
-35.1427542517
  0
LINE
  5
250
100
AcDbEntity
  8
0
100
AcDbLine
 62
7
  6
CONTINUOUS
 10
1.5682848491
 20
-33.3595884805
 11
2.0707513922
 21
-33.6497063651
  0
LINE
  5
251
100
AcDbEntity
  8
0
100
AcDbLine
 62
7
  6
CONTINUOUS
 10
1.9970142971
 20
-33.2918498602
 11
1.6437578914
 21
-33.0878840389
  0
LINE
  5
252
100
AcDbEntity
  8
0
100
AcDbLine
 62
7
  6
CONTINUOUS
 10
3.0310284535
 20
-33.8128872648
 11
3.228857749
 21
-33.9271114206
  0
LINE
  5
253
100
AcDbEntity
  8
0
100
AcDbLine
 62
7
  6
CONTINUOUS
 10
3.2296530426
 20
-33.5933107158
 11
3.0187941862
 21
-33.4715634548
  0
LINE
  5
254
100
AcDbEntity
  8
0
100
AcDbLine
 62
7
  6
CONTINUOUS
 10
2.012866924
 20
-31.9827725159
 11
1.6559392199
 21
-31.7766869329
  0
LINE
  5
255
100
AcDbEntity
  8
0
100
AcDbLine
 62
7
  6
CONTINUOUS
 10
0.8782879307
 20
-31.3276808247
 11
0.5132348625
 21
-31.1169037583
  0
LINE
  5
256
100
AcDbEntity
  8
0
100
AcDbLine
 62
7
  6
CONTINUOUS
 10
-0.2207950094
 20
-30.6930841099
 11
-0.5894529079
 21
-30.4802256596
  0
LINE
  5
257
100
AcDbEntity
  8
0
100
AcDbLine
 62
7
  6
CONTINUOUS
 10
-1.4535663859
 20
-29.9812973673
 11
-1.8222773175
 21
-29.7684082965
  0
LINE
  5
258
100
AcDbEntity
  8
0
100
AcDbLine
 62
7
  6
CONTINUOUS
 10
-2.5064356552
 20
-29.3733838468
 11
-2.9072435778
 21
-29.1419623756
  0
LINE
  5
259
100
AcDbEntity
  8
0
100
AcDbLine
 62
7
  6
CONTINUOUS
 10
-0.9476795673
 20
-30.2732676056
 11
-1.3166429359
 21
-30.0602327808
  0
LINE
  5
25A
100
AcDbEntity
  8
0
100
AcDbLine
 62
7
  6
CONTINUOUS
 10
4.4212033243
 20
-5.0577680034
 11
8.6638440114
 21
-7.5074155633
  0
LINE
  5
25B
100
AcDbEntity
  8
0
100
AcDbLine
 62
7
  6
CONTINUOUS
 10
8.3810012989
 20
-7.0175176153
 11
4.7040460368
 21
-4.89448973
  0
LINE
  5
25C
100
AcDbEntity
  8
0
100
AcDbLine
 62
7
  6
CONTINUOUS
 10
5.1283101055
 20
0.4125433962
 11
6.3303916335
 21
-0.2815234124
  0
LINE
  5
25D
100
AcDbEntity
  8
0
100
AcDbLine
 62
7
  6
CONTINUOUS
 10
6.7546557022
 20
-0.5264881684
 11
7.9567372302
 21
-1.2205549771
  0
LINE
  5
25E
100
AcDbEntity
  8
0
100
AcDbLine
 62
7
  6
CONTINUOUS
 10
7.2738945177
 20
-0.4997020422
 11
6.7546557022
 21
-0.1999000577
  0
LINE
  5
25F
100
AcDbEntity
  8
0
100
AcDbLine
 62
7
  6
CONTINUOUS
 10
6.3303916335
 20
0.0450646983
 11
5.8111528179
 21
0.3448666828
  0
LINE
  5
260
100
AcDbEntity
  8
0
100
AcDbLine
 62
7
  6
CONTINUOUS
 10
4.7040460368
 20
2.6170368165
 11
8.3810012989
 21
0.4940089312
  0
LINE
  5
261
100
AcDbEntity
  8
0
100
AcDbLine
 62
7
  6
CONTINUOUS
 10
8.6638440114
 20
0.6572872046
 11
4.4212033243
 21
3.1069347646
  0
LWPOLYLINE
  5
262
100
AcDbEntity
  8
0
100
AcDbPolyline
 62
7
  6
CONTINUOUS
 90
37
 70
0
 10
3.228857749
 20
-33.9271114206
 10
3.2360966148
 20
-33.9314242796
 10
3.2432201348
 20
-33.9359317194
 10
3.250227054
 20
-33.9406250997
 10
3.2571161175
 20
-33.9454957804
 10
3.2638860707
 20
-33.9505351215
 10
3.2705356586
 20
-33.9557344826
 10
3.2770636265
 20
-33.9610852237
 10
3.2840588987
 20
-33.9670983897
 10
3.2909052499
 20
-33.9732772968
 10
3.2976005883
 20
-33.9796171189
 10
3.3041428221
 20
-33.9861130304
 10
3.3105298594
 20
-33.9927602051
 10
3.3167596087
 20
-33.9995538174
 10
3.322829978
 20
-34.0064890413
 10
3.3294141619
 20
-34.0143881894
 10
3.3358024403
 20
-34.0224468013
 10
3.3419999553
 20
-34.0306540298
 10
3.3480118491
 20
-34.0389990276
 10
3.3538432637
 20
-34.0474709473
 10
3.3594993412
 20
-34.0560589416
 10
3.3651243809
 20
-34.0649789449
 10
3.3705746295
 20
-34.0740048273
 10
3.3758543886
 20
-34.0831317394
 10
3.3809679597
 20
-34.092354832
 10
3.3859196445
 20
-34.1016692555
 10
3.3907137443
 20
-34.1110701607
 10
3.3961068825
 20
-34.1221309581
 10
3.4012883271
 20
-34.1332973894
 10
3.4062546394
 20
-34.1445641811
 10
3.4110023804
 20
-34.1559260593
 10
3.4155281114
 20
-34.1673777504
 10
3.4198283934
 20
-34.1789139805
 10
3.4238997877
 20
-34.190529476
 10
3.4277388554
 20
-34.2022189632
 10
3.4313421576
 20
-34.2139771683
 10
3.4347062554
 20
-34.2257988176
  0
LWPOLYLINE
  5
263
100
AcDbEntity
  8
0
100
AcDbPolyline
 62
7
  6
CONTINUOUS
 90
38
 70
0
 10
3.3078436633
 20
-33.0661593655
 10
3.3174525193
 20
-33.0732001873
 10
3.3268687129
 20
-33.0805052507
 10
3.3360921755
 20
-33.0880624846
 10
3.3451228383
 20
-33.0958598179
 10
3.3539606329
 20
-33.1038851795
 10
3.3626054905
 20
-33.1121264983
 10
3.3710573425
 20
-33.1205717031
 10
3.3793161203
 20
-33.1292087229
 10
3.3873817553
 20
-33.1380254866
 10
3.3959161019
 20
-33.1477862059
 10
3.404216105
 20
-33.1577410102
 10
3.4122750249
 20
-33.1678864655
 10
3.420086122
 20
-33.1782191374
 10
3.4276426567
 20
-33.1887355919
 10
3.4349378896
 20
-33.1994323947
 10
3.4419650809
 20
-33.2103061116
 10
3.4487174911
 20
-33.2213533084
 10
3.4551883806
 20
-33.2325705511
 10
3.4613262196
 20
-33.2438675834
 10
3.467176244
 20
-33.2553199975
 10
3.4727345951
 20
-33.2669190515
 10
3.4779974143
 20
-33.2786560036
 10
3.4829608428
 20
-33.2905221117
 10
3.4876210221
 20
-33.3025086341
 10
3.4919740933
 20
-33.3146068288
 10
3.4960161979
 20
-33.326807954
 10
3.499743477
 20
-33.3391032677
 10
3.5026446874
 20
-33.3495659389
 10
3.5053064777
 20
-33.3600881998
 10
3.5077172166
 20
-33.3706685648
 10
3.5098652731
 20
-33.381305548
 10
3.5117390157
 20
-33.3919976638
 10
3.5132071614
 20
-33.4018689244
 10
3.514413773
 20
-33.4117767262
 10
3.5153387722
 20
-33.4217123106
 10
3.5159620804
 20
-33.4316669187
 10
3.5162636192
 20
-33.4416317917
  0
LWPOLYLINE
  5
264
100
AcDbEntity
  8
0
100
AcDbPolyline
 62
7
  6
CONTINUOUS
 90
27
 70
0
 10
3.5740947225
 20
-32.9295393667
 10
3.548979627
 20
-32.905146509
 10
3.5233006056
 20
-32.8813340257
 10
3.4970930607
 20
-32.8580935605
 10
3.470392395
 20
-32.8354167575
 10
3.4432340111
 20
-32.8132952607
 10
3.4168909061
 20
-32.7926672187
 10
3.3901916857
 20
-32.7725095873
 10
3.3631657418
 20
-32.7527934979
 10
3.3358424663
 20
-32.7334900823
 10
3.3082512513
 20
-32.7145704722
 10
3.2764859327
 20
-32.6934289798
 10
3.2444215482
 20
-32.6727452287
 10
3.2120693721
 20
-32.6525152026
 10
3.1794406787
 20
-32.632734885
 10
3.1465467423
 20
-32.6134002594
 10
3.1066420065
 20
-32.5907248295
 10
3.0663909529
 20
-32.5686703849
 10
3.0258147741
 20
-32.5472187757
 10
2.9849346629
 20
-32.5263518518
 10
2.9397925119
 20
-32.50412083
 10
2.8943417118
 20
-32.4825221785
 10
2.8486134566
 20
-32.4615073117
 10
2.8026389404
 20
-32.4410276444
 10
2.7564493575
 20
-32.4210345912
 10
2.7100759018
 20
-32.4014795666
 10
2.6635497675
 20
-32.3823139852
  0
LWPOLYLINE
  5
265
100
AcDbEntity
  8
0
100
AcDbPolyline
 62
7
  6
CONTINUOUS
 90
121
 70
0
 10
4.2321160278
 20
3.406014369
 10
4.0675100864
 20
3.6830237405
 10
3.8959469552
 20
3.9558389946
 10
3.7175151036
 20
4.2242298579
 10
3.5344306258
 20
4.4849949971
 10
3.3447267195
 20
4.7409662397
 10
3.1484111181
 20
4.991899257
 10
2.9501383355
 20
5.2320480223
 10
2.7455254612
 20
5.4668205901
 10
2.5345415983
 20
5.6958875302
 10
2.3245592776
 20
5.9115057297
 10
2.1085360863
 20
6.1210666381
 10
1.8864100218
 20
6.324149243
 10
1.6683637127
 20
6.5117631061
 10
1.4446184931
 20
6.6925375662
 10
1.2151060995
 20
6.8659346633
 10
0.9927136548
 20
7.0225913714
 10
0.7650635526
 20
7.1714958879
 10
0.5321160278
 20
7.3119736922
 10
0.3090782246
 20
7.4352765126
 10
0.0814004498
 20
7.5497708985
 10
-0.150874044
 20
7.6546344784
 10
-0.3709759876
 20
7.7427553825
 10
-0.5948122722
 20
7.8208796887
 10
-0.8221779662
 20
7.8880540007
 10
-0.9822863415
 20
7.9278006994
 10
-1.1438079647
 20
7.9613633002
 10
-1.3065474828
 20
7.9883173477
 10
-1.4703095428
 20
8.0082383865
 10
-1.6235381199
 20
8.0200884154
 10
-1.7771491876
 20
8.0251005648
 10
-1.9308078129
 20
8.0229048404
 10
-2.0841790626
 20
8.0131312476
 10
-2.2284217008
 20
7.9966304433
 10
-2.3716556909
 20
7.9728465424
 10
-2.5134273631
 20
7.9415843986
 10
-2.6532830481
 20
7.9026488658
 10
-2.7864143101
 20
7.8575057901
 10
-2.9168648343
 20
7.8050735023
 10
-3.0441746964
 20
7.7454370861
 10
-3.1678839722
 20
7.6786816253
 10
-3.2875572877
 20
7.6049382601
 10
-3.4028664033
 20
7.5245167312
 10
-3.5135075279
 20
7.4377726599
 10
-3.6191768705
 20
7.3450616676
 10
-3.7228309796
 20
7.2434251892
 10
-3.8207981952
 20
7.1362920205
 10
-3.9130205299
 20
7.024152589
 10
-3.9994399964
 20
6.9074973227
 10
-4.0845971392
 20
6.7795745635
 10
-4.1633354366
 20
6.6476132631
 10
-4.2358077503
 20
6.5120885213
 10
-4.3021669423
 20
6.3734754378
 10
-4.3668031229
 20
6.221705756
 10
-4.4248370994
 20
6.06730452
 10
-4.4765387534
 20
5.9106532024
 10
-4.5221779662
 20
5.7521332756
 10
-4.5776952976
 20
5.521657279
 10
-4.621964439
 20
5.288762142
 10
-4.6557086187
 20
5.0541021726
 10
-4.681039679
 20
4.8005287074
 10
-4.695731311
 20
4.546120286
 10
-4.700474153
 20
4.2913256345
 10
-4.6952978692
 20
4.0193603103
 10
-4.6801746425
 20
3.7477691215
 10
-4.6557086187
 20
3.4768549795
 10
-4.6203047307
 20
3.1914030511
 10
-4.575627838
 20
2.9072568192
 10
-4.5221779662
 20
2.6246260262
 10
-4.4573709534
 20
2.3307254853
 10
-4.3839019373
 20
2.0388712293
 10
-4.3021669423
 20
1.7492206482
 10
-4.2092855182
 20
1.4519771135
 10
-4.1082766979
 20
1.1573974258
 10
-3.9994399964
 20
0.8656172744
 10
-3.8802820835
 20
0.570133909
 10
-3.7534567673
 20
0.2778605029
 10
-3.6191768705
 20
-0.0110653966
 10
-3.475973478
 20
-0.2997632085
 10
-3.3254971129
 20
-0.5847366777
 10
-3.1678839722
 20
-0.8658270812
 10
-3.0032584136
 20
-1.1428704309
 10
-2.8317016335
 20
-1.4156746848
 10
-2.6532830481
 20
-1.68404257
 10
-2.4702037311
 20
-1.9447987694
 10
-2.280498149
 20
-2.200772914
 10
-2.0841790626
 20
-2.4517119692
 10
-1.8859049469
 20
-2.6918630475
 10
-1.6812925079
 20
-2.926634863
 10
-1.4703095428
 20
-3.1557002424
 10
-1.2603275554
 20
-3.3713178506
 10
-1.0443042506
 20
-3.5808789493
 10
-0.8221779662
 20
-3.7839619552
 10
-0.6041315933
 20
-3.9715759773
 10
-0.3803864113
 20
-4.152350395
 10
-0.150874044
 20
-4.3257473754
 10
0.0715184519
 20
-4.4824040058
 10
0.2991685947
 20
-4.6313085147
 10
0.5321160278
 20
-4.7717864044
 10
0.7551535915
 20
-4.8950893747
 10
0.9828312507
 20
-5.0095838235
 10
1.2151060995
 20
-5.1144471905
 10
1.4352088625
 20
-5.2025676188
 10
1.6590455287
 20
-5.2806917057
 10
1.8864100218
 20
-5.3478667129
 10
2.046516354
 20
-5.3876145916
 10
2.2080362235
 20
-5.4211782048
 10
2.3707758863
 20
-5.4481321685
 10
2.5345415983
 20
-5.4680510987
 10
2.6877770273
 20
-5.4798971717
 10
2.8413939812
 20
-5.484905923
 10
2.9950521236
 20
-5.4827104774
 10
3.1484111181
 20
-5.4729439598
 10
3.2926303567
 20
-5.4564566644
 10
3.43584418
 20
-5.4326844059
 10
3.5776174688
 20
-5.401421329
 10
3.7175151036
 20
-5.362461578
 10
3.8507290476
 20
-5.3172707689
 10
3.981251255
 20
-5.2647970976
 10
4.1085556177
 20
-5.2051638563
 10
4.2321160278
 20
-5.1384943374
  0
LWPOLYLINE
  5
266
100
AcDbEntity
  8
0
100
AcDbPolyline
 62
7
  6
CONTINUOUS
 90
119
 70
0
 10
5.2321160278
 20
3.9832902407
 10
5.0342048649
 20
4.3168474758
 10
4.8283561945
 20
4.6456303964
 10
4.6146673856
 20
4.9693914956
 10
4.3955186588
 20
5.2846602487
 10
4.1687970815
 20
5.594507913
 10
3.9345154881
 20
5.8986758247
 10
3.6976602937
 20
6.1908998183
 10
3.4535332655
 20
6.4770794981
 10
3.2021066799
 20
6.7568704982
 10
2.9512754685
 20
7.0217568025
 10
2.6934907182
 20
7.279876373
 10
2.4286899112
 20
7.530794641
 10
2.1677986885
 20
7.7644881425
 10
1.90030824
 20
7.9905936988
 10
1.6261439665
 20
8.2085616757
 10
1.3592039809
 20
8.4077281683
 10
1.086106474
 20
8.598356366
 10
0.8067950213
 20
8.7797618863
 10
0.5378303032
 20
8.9416268882
 10
0.2633048607
 20
9.0938583744
 10
-0.0167726748
 20
9.2356223
 10
-0.2838213047
 20
9.3579948976
 10
-0.5555810245
 20
9.4694944214
 10
-0.8319100769
 20
9.5691414294
 10
-1.0932819076
 20
9.6503993181
 10
-1.3581323906
 20
9.7194435177
 10
-1.6260976196
 20
9.7751968073
 10
-1.8782877603
 20
9.8142191459
 10
-2.1321927498
 20
9.8397106802
 10
-2.387137503
 20
9.8506236621
 10
-2.6268998299
 20
9.8466739534
 10
-2.8659717484
 20
9.8281491037
 10
-3.103341037
 20
9.7942635247
 10
-3.2718023565
 20
9.7601282305
 10
-3.4383582361
 20
9.7176024833
 10
-3.6024972984
 20
9.6665868809
 10
-3.7637081657
 20
9.6069820214
 10
-3.9691554173
 20
9.516080667
 10
-4.1676453939
 20
9.4108131517
 10
-4.3580964156
 20
9.2916555791
 10
-4.4964052837
 20
9.1924638348
 10
-4.6292246451
 20
9.0860162768
 10
-4.756299956
 20
8.9727562867
 10
-4.8773766726
 20
8.8531272463
 10
-4.9965480811
 20
8.7226232873
 10
-5.1089726475
 20
8.586264756
 10
-5.2146484067
 20
8.4445887357
 10
-5.3135733938
 20
8.2981323097
 10
-5.4419067402
 20
8.0840496139
 10
-5.5572236663
 20
7.8626770172
 10
-5.6599871034
 20
7.635194848
 10
-5.7566783331
 20
7.3860287719
 10
-5.8402112603
 20
7.1321490959
 10
-5.9112972885
 20
6.8744968119
 10
-5.9745730619
 20
6.5945868503
 10
-6.0250949442
 20
6.3120991099
 10
-6.063644116
 20
6.0277216414
 10
-6.0924984647
 20
5.7218429089
 10
-6.1092650243
 20
5.4150670733
 10
-6.1146877154
 20
5.1078748212
 10
-6.1087967907
 20
4.7810968162
 10
-6.0915637444
 20
4.4547228288
 10
-6.063644116
 20
4.1290841319
 10
-6.0232932543
 20
3.78668565
 10
-5.9723278531
 20
3.4457074168
 10
-5.9112972885
 20
3.1063826636
 10
-5.8373291973
 20
2.7537864209
 10
-5.7534116627
 20
2.4034262786
 10
-5.6599871034
 20
2.0554779251
 10
-5.5537635642
 20
1.698186819
 10
-5.4381782755
 20
1.343814701
 10
-5.3135733938
 20
0.9925105947
 10
-5.1769419772
 20
0.6360396472
 10
-5.0314593294
 20
0.2830895673
 10
-4.8773766726
 20
-0.0661933819
 10
-4.7126367131
 20
-0.4163898765
 10
-4.5394865989
 20
-0.7625042612
 10
-4.3580964156
 20
-1.1043735392
 10
-4.1679609953
 20
-1.4429781872
 10
-3.9697987287
 20
-1.7769475298
 10
-3.7637081657
 20
-2.1060846337
 10
-3.5512604387
 20
-2.4279944741
 10
-3.3311258489
 20
-2.7446959293
 10
-3.103341037
 20
-3.0559415444
 10
-2.871984053
 20
-3.3563449602
 10
-2.6332544504
 20
-3.6509213808
 10
-2.387137503
 20
-3.9393555706
 10
-2.1405370038
 20
-4.2138066378
 10
-1.8868747273
 20
-4.4817415574
 10
-1.6260976196
 20
-4.7427584971
 10
-1.3681172005
 20
-4.9872466357
 10
-1.1034124576
 20
-5.2244337973
 10
-0.8319100769
 20
-5.4538109864
 10
-0.5665379691
 20
-5.6648231982
 10
-0.294847772
 20
-5.8676293533
 10
-0.0167726748
 20
-6.0615920968
 10
0.251961211
 20
-6.2361632487
 10
0.5264773202
 20
-6.4014826424
 10
0.8067950213
 20
-6.5567670151
 10
1.0749107601
 20
-6.6925114158
 10
1.3480564136
 20
-6.8178104446
 10
1.6261439665
 20
-6.9317304288
 10
1.8898120446
 20
-7.0268399845
 10
2.1574208189
 20
-7.1101887282
 10
2.4286899112
 20
-7.1807233345
 10
2.6843099465
 20
-7.2339239697
 10
2.9423020038
 20
-7.2740168512
 10
3.2021066799
 20
-7.2999214899
 10
3.446369892
 20
-7.3103533857
 10
3.6908124182
 20
-7.3065098573
 10
3.9345154881
 20
-7.2874941495
 10
4.1070016613
 20
-7.2642422412
 10
4.2781724974
 20
-7.2326483563
 10
4.4475528032
 20
-7.1925118764
 10
4.6146673856
 20
-7.143632183
 10
4.826865555
 20
-7.0671503161
 10
5.0331283461
 20
-6.9760090975
 10
5.2321160278
 20
-6.8705451432
  0
LINE
  5
267
100
AcDbEntity
  8
0
100
AcDbLine
 62
7
  6
CONTINUOUS
 10
5.2321160278
 20
-6.8705451432
 11
5.0321160278
 21
-6.5241349821
  0
LINE
  5
268
100
AcDbEntity
  8
0
100
AcDbLine
 62
7
  6
CONTINUOUS
 10
4.2321160278
 20
-5.1384943374
 11
4.0321160278
 21
-4.7920841763
  0
LINE
  5
269
100
AcDbEntity
  8
0
100
AcDbLine
 62
7
  6
CONTINUOUS
 10
6.5425236678
 20
0.7670694277
 11
7.2738945177
 21
-0.4997020422
  0
LINE
  5
26A
100
AcDbEntity
  8
0
100
AcDbLine
 62
7
  6
CONTINUOUS
 10
7.9567372302
 20
-1.2205549771
 11
6.5425236678
 21
1.2289347632
  0
LINE
  5
26B
100
AcDbEntity
  8
0
100
AcDbLine
 62
7
  6
CONTINUOUS
 10
-0.3164552432
 20
-31.3461031302
 11
0.1163832024
 21
-32.9287267273
  0
LINE
  5
26C
100
AcDbEntity
  8
0
100
AcDbLine
 62
7
  6
CONTINUOUS
 10
0.1442714938
 20
-32.0370161883
 11
-0.2207950094
 21
-30.6930841099
  0
LWPOLYLINE
  5
26D
100
AcDbEntity
  8
0
100
AcDbPolyline
 62
7
  6
CONTINUOUS
 90
9
 70
0
 10
3.4347062554
 20
-34.2257988176
 10
3.4453252289
 20
-34.2655319594
 10
3.4554899647
 20
-34.3053855732
 10
3.4652572807
 20
-34.3453412691
 10
3.4746839953
 20
-34.3853806574
 10
3.4838269265
 20
-34.4254853484
 10
3.4948150884
 20
-34.4750830472
 10
3.5055810097
 20
-34.5247264697
 10
3.5269420934
 20
-34.6240471212
  0
LINE
  5
26E
100
AcDbEntity
  8
0
100
AcDbLine
 62
7
  6
CONTINUOUS
 10
-2.9072435778
 20
-29.1419623756
 11
-2.3468862024
 21
-31.506465845
  0
LINE
  5
26F
100
AcDbEntity
  8
0
100
AcDbLine
 62
7
  6
CONTINUOUS
 10
2.5552043902
 20
-34.3368715156
 11
2.012866924
 21
-31.9827725159
  0
LINE
  5
270
100
AcDbEntity
  8
0
100
AcDbLine
 62
7
  6
CONTINUOUS
 10
3.5788228435
 20
-34.8593792306
 11
3.5960448272
 21
-34.9378395601
  0
LWPOLYLINE
  5
271
100
AcDbEntity
  8
0
100
AcDbPolyline
 62
7
  6
CONTINUOUS
 90
3
 70
0
 10
3.5269420934
 20
-34.6240471212
 10
3.5440956657
 20
-34.7025205826
 10
3.5788228435
 20
-34.8593792306
  0
LINE
  5
272
100
AcDbEntity
  8
0
100
AcDbLine
 62
7
  6
CONTINUOUS
 10
-2.1695028095
 20
-30.972780965
 11
-2.5064356552
 21
-29.3733838468
  0
LINE
  5
273
100
AcDbEntity
  8
0
100
AcDbLine
 62
7
  6
CONTINUOUS
 10
2.0707513922
 20
-33.6497063651
 11
2.1663324301
 21
-34.1123417195
  0
LWPOLYLINE
  5
274
100
AcDbEntity
  8
0
100
AcDbPolyline
 62
7
  6
CONTINUOUS
 90
32
 70
0
 10
3.8248110457
 20
-34.5175250952
 10
3.8183288905
 20
-34.4861050499
 10
3.8117865251
 20
-34.4546973572
 10
3.8071970863
 20
-34.4333631901
 10
3.8024341878
 20
-34.4120670892
 10
3.7974502518
 20
-34.3908212611
 10
3.7922009654
 20
-34.3696278521
 10
3.7866691786
 20
-34.3485052227
 10
3.7808412446
 20
-34.3274616178
 10
3.7747035169
 20
-34.3065052818
 10
3.7682423491
 20
-34.2856444596
 10
3.7623694014
 20
-34.2676492276
 10
3.7562286722
 20
-34.2497429825
 10
3.749805582
 20
-34.2319367736
 10
3.7430855511
 20
-34.2142416499
 10
3.7360539998
 20
-34.1966686606
 10
3.7286963485
 20
-34.1792288549
 10
3.7221946719
 20
-34.1645646794
 10
3.7154332226
 20
-34.1500175809
 10
3.7083968411
 20
-34.1356010753
 10
3.701070368
 20
-34.1213286781
 10
3.6934386437
 20
-34.1072139053
 10
3.6854865088
 20
-34.0932702724
 10
3.6771988039
 20
-34.0795112954
 10
3.6700099864
 20
-34.0681750159
 10
3.6625682125
 20
-34.0569976217
 10
3.6548651035
 20
-34.0459998053
 10
3.6468922803
 20
-34.0352022593
 10
3.6386413641
 20
-34.0246256762
 10
3.630103976
 20
-34.0142907485
 10
3.6212717372
 20
-34.0042181687
 10
3.6121362688
 20
-33.9944286294
  0
LINE
  5
275
100
AcDbEntity
  8
0
100
AcDbLine
 62
7
  6
CONTINUOUS
 10
3.9509446186
 20
-35.1427542517
 11
3.8248110457
 21
-34.5175250952
  0
LINE
  5
276
100
AcDbEntity
  8
0
100
AcDbLine
 62
7
  6
CONTINUOUS
 10
1.8274705971
 20
-32.4365310405
 11
1.9970142971
 21
-33.2918498602
  0
LWPOLYLINE
  5
277
100
AcDbEntity
  8
0
100
AcDbPolyline
 62
7
  6
CONTINUOUS
 90
66
 70
0
 10
3.5162636192
 20
-33.4416317917
 10
3.5162812895
 20
-33.4509316718
 10
3.5160836367
 20
-33.4602330584
 10
3.5156645372
 20
-33.4695299875
 10
3.5150178679
 20
-33.478816495
 10
3.5141375051
 20
-33.4880866165
 10
3.5130173255
 20
-33.4973343881
 10
3.5116512056
 20
-33.5065538456
 10
3.5103646112
 20
-33.5139666701
 10
3.5089050868
 20
-33.5213484366
 10
3.5072637863
 20
-33.5286904008
 10
3.5054318636
 20
-33.5359838185
 10
3.5034004726
 20
-33.5432199455
 10
3.5011607674
 20
-33.5503900376
 10
3.4987039017
 20
-33.5574853507
 10
3.4960210296
 20
-33.5644971404
 10
3.4939068915
 20
-33.5695743445
 10
3.4916603789
 20
-33.5745942758
 10
3.4892751209
 20
-33.579549165
 10
3.4867447467
 20
-33.5844312429
 10
3.4840628855
 20
-33.5892327402
 10
3.4814127836
 20
-33.5936414971
 10
3.4786198947
 20
-33.5979618519
 10
3.475679431
 20
-33.6021826378
 10
3.4725866043
 20
-33.6062926877
 10
3.4693366265
 20
-33.6102808348
 10
3.466127693
 20
-33.6139153174
 10
3.4627741995
 20
-33.6174177902
 10
3.4592752795
 20
-33.62077432
 10
3.4556300667
 20
-33.6239709739
 10
3.4518376947
 20
-33.6269938189
 10
3.4480269805
 20
-33.6297414305
 10
3.4440857772
 20
-33.6323006836
 10
3.4400223148
 20
-33.6346591578
 10
3.435844823
 20
-33.6368044326
 10
3.4315615318
 20
-33.6387240874
 10
3.4273779072
 20
-33.6403393438
 10
3.4231157781
 20
-33.6417453475
 10
3.4187857291
 20
-33.6429501968
 10
3.4143983447
 20
-33.6439619901
 10
3.4099642098
 20
-33.6447888254
 10
3.405493909
 20
-33.645438801
 10
3.4009980269
 20
-33.6459200152
 10
3.3964871481
 20
-33.6462405662
 10
3.3919718575
 20
-33.6464085521
 10
3.3874627396
 20
-33.6464320713
 10
3.3812663443
 20
-33.6462422606
 10
3.3750997086
 20
-33.6458136539
 10
3.3689606944
 20
-33.6451670329
 10
3.3628471633
 20
-33.6443231792
 10
3.3563469201
 20
-33.6432262922
 10
3.3498766
 20
-33.6419431658
 10
3.3434395172
 20
-33.6404886828
 10
3.3370389857
 20
-33.6388777257
 10
3.32920302
 20
-33.6366963753
 10
3.3214265612
 20
-33.6343142116
 10
3.3137085381
 20
-33.6317455781
 10
3.3060478797
 20
-33.6290048185
 10
3.298443515
 20
-33.6261062762
 10
3.290894373
 20
-33.6230642949
 10
3.2833993826
 20
-33.619893218
 10
3.2724383443
 20
-33.6150048241
 10
3.2615880145
 20
-33.6098845228
 10
3.2508435697
 20
-33.6045501682
 10
3.2402001869
 20
-33.5990196145
 10
3.2296530426
 20
-33.5933107158
  0
LINE
  5
278
100
AcDbEntity
  8
0
100
AcDbLine
 62
7
  6
CONTINUOUS
 10
-1.3166429359
 20
-30.0602327808
 11
-1.3166429359
 21
-32.1013153951
  0
LINE
  5
279
100
AcDbEntity
  8
0
100
AcDbLine
 62
7
  6
CONTINUOUS
 10
-0.9476795673
 20
-32.31435022
 11
-0.9476795673
 21
-30.2732676056
  0
LINE
  5
27A
100
AcDbEntity
  8
0
100
AcDbLine
 62
7
  6
CONTINUOUS
 10
2.6635497675
 20
-32.3823139852
 11
2.6635497675
 21
-34.3994285995
  0
LINE
  5
27B
100
AcDbEntity
  8
0
100
AcDbLine
 62
7
  6
CONTINUOUS
 10
3.0187941862
 20
-33.4715634548
 11
3.0187941862
 21
-32.9112801982
  0
LINE
  5
27C
100
AcDbEntity
  8
0
100
AcDbLine
 62
7
  6
CONTINUOUS
 10
3.0310284535
 20
-34.6116061872
 11
3.0310284535
 21
-33.8128872648
  0
LINE
  5
27D
100
AcDbEntity
  8
0
100
AcDbLine
 62
7
  6
CONTINUOUS
 10
3.6121362688
 20
-33.9944286294
 11
3.6121362688
 21
-33.9823683364
  0
LINE
  5
27E
100
AcDbEntity
  8
0
100
AcDbLine
 62
7
  6
CONTINUOUS
 10
4.4212033243
 20
3.1069347646
 11
4.4212033243
 21
-5.0577680034
  0
LINE
  5
27F
100
AcDbEntity
  8
0
100
AcDbLine
 62
7
  6
CONTINUOUS
 10
4.7040460368
 20
-4.89448973
 11
4.7040460368
 21
2.6170368165
  0
LINE
  5
280
100
AcDbEntity
  8
0
100
AcDbLine
 62
7
  6
CONTINUOUS
 10
6.3303916335
 20
-0.2815234124
 11
6.3303916335
 21
0.0450646983
  0
LINE
  5
281
100
AcDbEntity
  8
0
100
AcDbLine
 62
7
  6
CONTINUOUS
 10
6.7546557022
 20
-0.1999000577
 11
6.7546557022
 21
-0.5264881684
  0
LINE
  5
282
100
AcDbEntity
  8
0
100
AcDbLine
 62
7
  6
CONTINUOUS
 10
8.3810012989
 20
0.4940089312
 11
8.3810012989
 21
-7.0175176153
  0
LINE
  5
283
100
AcDbEntity
  8
0
100
AcDbLine
 62
7
  6
CONTINUOUS
 10
8.6638440114
 20
-7.5074155633
 11
8.6638440114
 21
0.6572872046
  0
LINE
  5
284
100
AcDbEntity
  8
0
100
AcDbLine
 62
7
  6
CONTINUOUS
 10
-0.3960775881
 20
-32.6328382896
 11
-0.3164552432
 21
-31.3461031302
  0
LINE
  5
285
100
AcDbEntity
  8
0
100
AcDbLine
 62
7
  6
CONTINUOUS
 10
-0.5894529079
 20
-30.4802256596
 11
-0.7490553937
 21
-32.4290333284
  0
LINE
  5
286
100
AcDbEntity
  8
0
100
AcDbLine
 62
7
  6
CONTINUOUS
 10
1.6437578914
 20
-33.0878840389
 11
1.8274705971
 21
-32.4365310405
  0
LINE
  5
287
100
AcDbEntity
  8
0
100
AcDbLine
 62
7
  6
CONTINUOUS
 10
-1.8222773175
 20
-29.7684082965
 11
-2.1695028095
 21
-30.972780965
  0
LINE
  5
288
100
AcDbEntity
  8
0
100
AcDbLine
 62
7
  6
CONTINUOUS
 10
1.4664734934
 20
-33.7082519408
 11
1.5682848491
 21
-33.3595884805
  0
LINE
  5
289
100
AcDbEntity
  8
0
100
AcDbLine
 62
7
  6
CONTINUOUS
 10
1.6559392199
 20
-31.7766869329
 11
1.1015137633
 21
-33.4975287666
  0
LINE
  5
28A
100
AcDbEntity
  8
0
100
AcDbLine
 62
7
  6
CONTINUOUS
 10
-2.0217372912
 20
-31.6942027513
 11
-1.4535663859
 21
-29.9812973673
  0
LINE
  5
28B
100
AcDbEntity
  8
0
100
AcDbLine
 62
7
  6
CONTINUOUS
 10
0.5132348625
 20
-31.1169037583
 11
0.1442714938
 21
-32.0370161883
  0
LINE
  5
28C
100
AcDbEntity
  8
0
100
AcDbLine
 62
7
  6
CONTINUOUS
 10
0.1681306908
 20
-32.9586050786
 11
0.606827516
 21
-31.8847502877
  0
LINE
  5
28D
100
AcDbEntity
  8
0
100
AcDbLine
 62
7
  6
CONTINUOUS
 10
4.0321160278
 20
3.2905591947
 11
4.2321160278
 21
3.406014369
  0
LINE
  5
28E
100
AcDbEntity
  8
0
100
AcDbLine
 62
7
  6
CONTINUOUS
 10
5.0321160278
 20
3.8678350664
 11
5.2321160278
 21
3.9832902407
  0
LINE
  5
28F
100
AcDbEntity
  8
0
100
AcDbLine
 62
7
  6
CONTINUOUS
 10
6.5425236678
 20
1.2289347632
 11
5.1283101055
 21
0.4125433962
  0
LINE
  5
290
100
AcDbEntity
  8
0
100
AcDbLine
 62
7
  6
CONTINUOUS
 10
5.8111528179
 20
0.3448666828
 11
6.5425236678
 21
0.7670694277
  0
LWPOLYLINE
  5
291
100
AcDbEntity
  8
0
100
AcDbPolyline
 62
7
  6
CONTINUOUS
 90
121
 70
0
 10
4.0321160278
 20
-4.7920841763
 10
3.9152345587
 20
-4.8551499374
 10
3.7948115129
 20
-4.9115597602
 10
3.6713445601
 20
-4.9611970169
 10
3.5453313698
 20
-5.0039450795
 10
3.4129957693
 20
-5.040798898
 10
3.2788859015
 20
-5.0703720789
 10
3.1434133659
 20
-5.0928593504
 10
3.0069897619
 20
-5.1084554407
 10
2.8619204428
 20
-5.1176940384
 10
2.7165681459
 20
-5.1197708113
 10
2.5712548111
 20
-5.1150328033
 10
2.4263023783
 20
-5.1038270586
 10
2.2713888669
 20
-5.0849848273
 10
2.1174459427
 20
-5.0594878346
 10
1.9646568769
 20
-5.0277384708
 10
1.813204941
 20
-4.990139126
 10
1.5981304205
 20
-4.9265952003
 10
1.3863930336
 20
-4.852694037
 10
1.1781877172
 20
-4.7693368752
 10
0.9584682657
 20
-4.6701417983
 10
0.7430975069
 20
-4.5618362386
 10
0.5321160278
 20
-4.4451982936
 10
0.3117603478
 20
-4.3123138035
 10
0.0964156182
 20
-4.1714581869
 10
-0.1139556617
 20
-4.0232694825
 10
-0.3310619551
 20
-3.8592453118
 10
-0.542712803
 20
-3.6882424843
 10
-0.7489728855
 20
-3.5107697607
 10
-0.9590923436
 20
-3.3186642145
 10
-1.1634387131
 20
-3.1204307428
 10
-1.3620703228
 20
-2.9164681405
 10
-1.5616488033
 20
-2.6997846735
 10
-1.7552011104
 20
-2.4777032263
 10
-1.9427577064
 20
-2.2505332874
 10
-2.1284649503
 20
-2.0131585054
 10
-2.3079161766
 20
-1.7710208011
 10
-2.4810993143
 20
-1.5243595314
 10
-2.6498736518
 20
-1.2704980184
 10
-2.8121570925
 20
-1.0124399404
 10
-2.9678839722
 20
-0.7503719069
 10
-3.1169774837
 20
-0.4844755793
 10
-3.2593199912
 20
-0.2149060814
 10
-3.3947826598
 20
0.0581864434
 10
-3.5218041838
 20
0.3314947267
 10
-3.6417740775
 20
0.6079695704
 10
-3.7544910221
 20
0.8874808619
 10
-3.8574446587
 20
1.1634891132
 10
-3.9529935427
 20
1.4421455746
 10
-4.0408543493
 20
1.7233218912
 10
-4.1181712365
 20
1.9973156842
 10
-4.1876689545
 20
2.2733940345
 10
-4.2489728855
 20
2.5514080595
 10
-4.299533575
 20
2.8187615124
 10
-4.3417955005
 20
3.0875484885
 10
-4.3752856648
 20
3.357570583
 10
-4.3984292009
 20
3.6138407173
 10
-4.4127349558
 20
3.8707513013
 10
-4.4176314405
 20
4.1280157972
 10
-4.4131449683
 20
4.3690377648
 10
-4.3992474786
 20
4.6096943796
 10
-4.3752856648
 20
4.849561171
 10
-4.3433654949
 20
5.0715368177
 10
-4.30148928
 20
5.2918430285
 10
-4.2489728855
 20
5.5098608631
 10
-4.2058006571
 20
5.6598121452
 10
-4.1568936872
 20
5.807995824
 10
-4.1019966823
 20
5.9540510472
 10
-4.0408543493
 20
6.0976169625
 10
-3.9780821407
 20
6.2287374469
 10
-3.9095272493
 20
6.356936527
 10
-3.8350450762
 20
6.4817647841
 10
-3.7544910221
 20
6.6027727995
 10
-3.6727428781
 20
6.7131223758
 10
-3.5855055345
 20
6.8192002163
 10
-3.4928338441
 20
6.920542403
 10
-3.3947826598
 20
7.0166850176
 10
-3.2948251735
 20
7.104384605
 10
-3.1901646502
 20
7.1864398076
 10
-3.0810884598
 20
7.2625142268
 10
-2.9678839722
 20
7.3322714641
 10
-2.8508616843
 20
7.3954185217
 10
-2.7304334363
 20
7.4518313478
 10
-2.6070342919
 20
7.5014294579
 10
-2.4810993143
 20
7.5441323673
 10
-2.3488033961
 20
7.5809632768
 10
-2.2146950574
 20
7.6105355749
 10
-2.0792034452
 20
7.6330338595
 10
-1.9427577064
 20
7.6486427285
 10
-1.7976767945
 20
7.6578880189
 10
-1.6523240408
 20
7.6599650556
 10
-1.507016274
 20
7.6552238332
 10
-1.3620703228
 20
7.6440143464
 10
-1.207160266
 20
7.6251701204
 10
-1.0532174786
 20
7.5996730485
 10
-0.900426754
 20
7.5679246423
 10
-0.7489728855
 20
7.5303264139
 10
-0.5338972289
 20
7.4667831458
 10
-0.322160203
 20
7.392881775
 10
-0.1139556617
 20
7.309524163
 10
0.105763454
 20
7.2103288847
 10
0.321134322
 20
7.1020233845
 10
0.5321160278
 20
6.9853855815
 10
0.7524717945
 20
6.852501172
 10
0.9678164858
 20
6.7116455483
 10
1.1781877172
 20
6.5634567703
 10
1.3952940355
 20
6.3994324893
 10
1.6069449189
 20
6.2284296216
 10
1.813204941
 20
6.0509570485
 10
2.0233241912
 20
5.8588518817
 10
2.2276704533
 20
5.6606185899
 10
2.4263023783
 20
5.4566554283
 10
2.6258817081
 20
5.2399704849
 10
2.819434427
 20
5.0178883262
 10
3.0069897619
 20
4.7907205752
 10
3.1926937091
 20
4.5533515047
 10
3.3721433502
 20
4.3112165455
 10
3.5453313698
 20
4.0645468193
 10
3.7141182564
 20
3.8106635702
 10
3.8764077048
 20
3.5525950866
 10
4.0321160278
 20
3.2905591947
  0
LWPOLYLINE
  5
292
100
AcDbEntity
  8
0
100
AcDbPolyline
 62
7
  6
CONTINUOUS
 90
119
 70
0
 10
5.0321160278
 20
-6.5241349821
 10
4.841595907
 20
-6.6251111085
 10
4.644110256
 20
-6.7123739774
 10
4.4409417959
 20
-6.7856012967
 10
4.2809384723
 20
-6.8324010032
 10
4.1187658391
 20
-6.8708295478
 10
3.9548788684
 20
-6.901079012
 10
3.7897325324
 20
-6.9233414775
 10
3.5563998058
 20
-6.9415480062
 10
3.3223590892
 20
-6.9452279801
 10
3.0884900565
 20
-6.9352399948
 10
2.8397408985
 20
-6.9104376812
 10
2.5927272266
 20
-6.8720508797
 10
2.3479846395
 20
-6.8211141013
 10
2.0882589129
 20
-6.7535809677
 10
1.832037746
 20
-6.673778979
 10
1.5795895862
 20
-6.5827166384
 10
1.3133355461
 20
-6.4736443132
 10
1.0518131119
 20
-6.3536771579
 10
0.7951065535
 20
-6.2237091148
 10
0.5267172652
 20
-6.0750325877
 10
0.2638826925
 20
-5.9167480618
 10
0.0065842912
 20
-5.7496054696
 10
-0.2596578231
 20
-5.5638964598
 10
-0.5197867352
 20
-5.3697203538
 10
-0.7738664129
 20
-5.1676873851
 10
-1.0338155008
 20
-4.9480709275
 10
-1.287256212
 20
-4.7209768366
 10
-1.5342587409
 20
-4.4868924485
 10
-1.7839389505
 20
-4.2369826127
 10
-2.0268070876
 20
-3.980449179
 10
-2.2629139485
 20
-3.7176768806
 10
-2.4985578344
 20
-3.4415164862
 10
-2.7271287304
 20
-3.1594752323
 10
-2.9486407363
 20
-2.8718549407
 10
-3.1667325776
 20
-2.5738538198
 10
-3.377499738
 20
-2.2706290223
 10
-3.5809071361
 20
-1.962417473
 10
-3.778227888
 20
-1.6472862032
 10
-3.9679577177
 20
-1.327528322
 10
-4.1500022691
 20
-1.0033323825
 10
-4.3236737212
 20
-0.6760107333
 10
-4.4894557455
 20
-0.3446246203
 10
-4.6471854938
 20
-0.0093301042
 10
-4.7947114418
 20
0.3250897407
 10
-4.9340033387
 20
0.6630206683
 10
-5.0648206524
 20
1.0043226394
 10
-5.1841231987
 20
1.3406776347
 10
-5.2947899645
 20
1.6799700882
 10
-5.3964933531
 20
2.0220573174
 10
-5.4859423993
 20
2.3551993579
 10
-5.566288975
 20
2.690650558
 10
-5.6371094878
 20
3.0282427053
 10
-5.6955430071
 20
3.3531281073
 10
-5.7443396679
 20
3.6795966284
 10
-5.7829734716
 20
4.0074249622
 10
-5.8097050307
 20
4.3192066933
 10
-5.8262047559
 20
4.6316924259
 10
-5.8318450029
 20
4.9445649839
 10
-5.8266530646
 20
5.2386852252
 10
-5.8105999757
 20
5.53240677
 10
-5.7829734716
 20
5.8252693862
 10
-5.7460646901
 20
6.0975456858
 10
-5.6976926751
 20
6.3680126713
 10
-5.6371094878
 20
6.6360115708
 10
-5.569048397
 20
6.8826999277
 10
-5.4890700624
 20
7.1257762132
 10
-5.3964933531
 20
7.3643394776
 10
-5.2981028283
 20
7.5821415545
 10
-5.1876930054
 20
7.7940940407
 10
-5.0648206524
 20
7.9990668345
 10
-4.9701052393
 20
8.1392910722
 10
-4.8689263209
 20
8.2749383257
 10
-4.7612857786
 20
8.4054943663
 10
-4.6471854938
 20
8.5304449654
 10
-4.531260978
 20
8.6449834083
 10
-4.4095931271
 20
8.7534238243
 10
-4.2824256534
 20
8.855341699
 10
-4.1500022691
 20
8.9503125181
 10
-3.9676555462
 20
9.0643995557
 10
-3.7776119515
 20
9.1651876021
 10
-3.5809071361
 20
9.2522208139
 10
-3.4265563058
 20
9.3092892964
 10
-3.2694018845
 20
9.358134022
 10
-3.1099334891
 20
9.398850163
 10
-2.9486407363
 20
9.4315328914
 10
-2.7213722686
 20
9.463976531
 10
-2.4924736232
 20
9.4817130892
 10
-2.2629139485
 20
9.4854947251
 10
-2.0188179082
 20
9.4750461255
 10
-1.7757173863
 20
9.4506393373
 10
-1.5342587409
 20
9.4132775237
 10
-1.2776962877
 20
9.3598967146
 10
-1.024116038
 20
9.293790566
 10
-0.7738664129
 20
9.2159904598
 10
-0.5092960435
 20
9.12058375
 10
-0.2491005671
 20
9.0138288868
 10
0.0065842912
 20
8.8966636338
 10
0.2747436337
 20
8.7609322157
 10
0.5375871425
 20
8.615178665
 10
0.7951065535
 20
8.4602015356
 10
1.0625324125
 20
8.2865153991
 10
1.3240087488
 20
8.1039990396
 10
1.5795895862
 20
7.9133077169
 10
1.8420872948
 20
7.7046149731
 10
2.098195171
 20
7.4881309298
 10
2.3479846395
 20
7.2643818327
 10
2.6015173271
 20
7.0241409377
 10
2.8483325135
 20
6.7770051787
 10
3.0884900565
 20
6.5233906321
 10
3.3292176384
 20
6.255505632
 10
3.5629562824
 20
5.9815038109
 10
3.7897325324
 20
5.7017148808
 10
4.0140446963
 20
5.4104902846
 10
4.2311185468
 20
5.1138276272
 10
4.4409417959
 20
4.8119745657
 10
4.645537464
 20
4.5019905346
 10
4.8426266165
 20
4.1871983766
 10
5.0321160278
 20
3.8678350664
  0
LWPOLYLINE
  5
293
100
AcDbEntity
  8
0
100
AcDbPolyline
 62
7
  6
CONTINUOUS
 90
19
 70
0
 10
-44.9793811865
 20
69.4537332709
 10
-44.9972956938
 20
69.4416049032
 10
-45.045169886
 20
69.4060741937
 10
-45.0913557813
 20
69.3670010082
 10
-45.1356623008
 20
69.3243627603
 10
-45.1778186643
 20
69.278234225
 10
-45.2175137519
 20
69.2288038477
 10
-45.2545745961
 20
69.1761495915
 10
-45.2888321832
 20
69.1203613991
 10
-45.320067245
 20
69.0616754139
 10
-45.3481717454
 20
69.0002065262
 10
-45.3730541352
 20
68.9360436324
 10
-45.3945941476
 20
68.8693803672
 10
-45.4127291346
 20
68.8003262842
 10
-45.4274118197
 20
68.728934868
 10
-45.4385794254
 20
68.6552962324
 10
-45.4461803697
 20
68.5794965604
 10
-45.4501654073
 20
68.5016247419
 10
-45.4507959084
 20
68.455288548
  0
LINE
  5
294
100
AcDbEntity
  8
0
100
AcDbLine
 62
7
  6
CONTINUOUS
 10
-44.979777724
 20
69.4534735267
 11
-37.5928858373
 21
74.3358618903
  0
LINE
  5
295
100
AcDbEntity
  8
0
100
AcDbLine
 62
250
  6
CONTINUOUS
 10
-44.074523953
 20
69.3664381637
 11
-36.6624760133
 21
74.2656393838
  0
LWPOLYLINE
  5
296
100
AcDbEntity
  8
SMUSSO
100
AcDbPolyline
 62
7
  6
CONTINUOUS
 90
15
 70
0
 10
-43.0307109473
 20
67.088489676
 10
-43.0450176731
 20
67.0797422695
 10
-43.0723621008
 20
67.0600516288
 10
-43.0978735093
 20
67.037526998
 10
-43.1214656504
 20
67.0122445503
 10
-43.1430589496
 20
66.9842896872
 10
-43.1625809138
 20
66.9537566688
 10
-43.1799649173
 20
66.920749138
 10
-43.1951506795
 20
66.8853796241
 10
-43.2080851447
 20
66.8477687713
 10
-43.2187262056
 20
66.8080428851
 10
-43.2270413903
 20
66.7663343454
 10
-43.2330037378
 20
66.7227836022
 10
-43.2365918936
 20
66.6775386986
 10
-43.2377937277
 20
66.6307527228
  0
LINE
  5
297
100
AcDbEntity
  8
RACCORDO
100
AcDbLine
 62
7
  6
CONTINUOUS
 10
-43.0307111066
 20
67.088489584
 11
-42.7286674849
 21
67.2628857857
  0
LINE
  5
298
100
AcDbEntity
  8
SMUSSO
100
AcDbLine
 62
250
  6
CONTINUOUS
 10
-42.5306869465
 20
67.0389484063
 11
-42.4357542505
 21
67.0937613552
  0
LINE
  5
299
100
AcDbEntity
  8
0
100
AcDbLine
 62
250
  6
CONTINUOUS
 10
-44.18899771
 20
68.1060621554
 11
-44.2632856224
 21
68.0661125202
  0
LINE
  5
29A
100
AcDbEntity
  8
SMUSSO
100
AcDbLine
 62
250
  6
CONTINUOUS
 10
-43.2377937277
 20
65.8142035362
 11
-42.5306869465
 21
67.0389484063
  0
LINE
  5
29B
100
AcDbEntity
  8
SMUSSO
100
AcDbLine
 62
250
  6
CONTINUOUS
 10
38.7865928899
 20
-66.4585580763
 11
40.2008064523
 21
-66.4585580763
  0
LWPOLYLINE
  5
29C
100
AcDbEntity
  8
0
100
AcDbPolyline
 62
250
  6
CONTINUOUS
 90
5
 70
0
 10
40.2958100729
 20
-68.5008255265
 10
40.2934194558
 20
-68.5005014704
 10
40.2798930715
 20
-68.4974273323
 10
40.2661126616
 20
-68.4930739195
 10
40.2521868415
 20
-68.4874745019
  0
LWPOLYLINE
  5
29D
100
AcDbEntity
  8
0
100
AcDbPolyline
 62
250
  6
CONTINUOUS
 90
11
 70
0
 10
-44.3856704596
 20
-20.8221155135
 10
-44.3843841765
 20
-20.8561641406
 10
-44.3805346866
 20
-20.8884796518
 10
-44.37415
 20
-20.9188269089
 10
-44.3652765736
 20
-20.946985096
 10
-44.3539789735
 20
-20.9727493249
 10
-44.3403394043
 20
-20.9959321272
 10
-44.3244571121
 20
-21.0163648174
 10
-44.3064476613
 20
-21.0338987207
 10
-44.2864420944
 20
-21.048406255
 10
-44.2821291491
 20
-21.050983944
  0
LWPOLYLINE
  5
29E
100
AcDbEntity
  8
0
100
AcDbPolyline
 62
250
  6
CONTINUOUS
 90
31
 70
0
 10
-45.3043492997
 20
-19.2309170882
 10
-45.3029544732
 20
-19.2881178881
 10
-45.2991497031
 20
-19.3459085693
 10
-45.2929349893
 20
-19.404289132
 10
-45.2842875974
 20
-19.4632806898
 10
-45.2732302618
 20
-19.5228621289
 10
-45.259831186
 20
-19.5829701081
 10
-45.2440605384
 20
-19.6437688045
 10
-45.2259481505
 20
-19.7050940408
 10
-45.2056517211
 20
-19.7663899445
 10
-45.1831601054
 20
-19.8276278871
 10
-45.1584844482
 20
-19.8888364971
 10
-45.1318158818
 20
-19.9495457871
 10
-45.1031366811
 20
-20.0097583404
 10
-45.0724645713
 20
-20.0694715738
 10
-45.0400438599
 20
-20.12820775
 10
-45.0058542021
 20
-20.1859663544
 10
-44.9699159426
 20
-20.2427479016
 10
-44.9325344235
 20
-20.298076199
 10
-44.8938085286
 20
-20.3518273292
 10
-44.8536393742
 20
-20.4041252097
 10
-44.8120356499
 20
-20.4548654006
 10
-44.7689031949
 20
-20.5041807659
 10
-44.7243361701
 20
-20.5519384418
 10
-44.6786257484
 20
-20.5976353961
 10
-44.6316935715
 20
-20.641304707
 10
-44.5836179978
 20
-20.6829132964
 10
-44.534925275
 20
-20.7218588984
 10
-44.485790819
 20
-20.7579407575
 10
-44.4360392138
 20
-20.7913596292
 10
-44.3856704596
 20
-20.8221155135
  0
LWPOLYLINE
  5
29F
100
AcDbEntity
  8
0
100
AcDbPolyline
 62
7
  6
CONTINUOUS
 90
28
 70
0
 10
-45.4507958446
 20
-19.0266331006
 10
-45.4507028241
 20
-19.0446924472
 10
-45.4473983218
 20
-19.1363597163
 10
-45.4394960203
 20
-19.2285914754
 10
-45.4271573768
 20
-19.321161305
 10
-45.4105360921
 20
-19.4138864617
 10
-45.3897836791
 20
-19.5065655528
 10
-45.3650370861
 20
-19.5990100667
 10
-45.3364335902
 20
-19.6910315836
 10
-45.3041196228
 20
-19.7823726514
 10
-45.2682455897
 20
-19.8727950615
 10
-45.228931025
 20
-19.9621374933
 10
-45.1862871823
 20
-20.050223866
 10
-45.1404482208
 20
-20.1368417292
 10
-45.0915299867
 20
-20.2217936984
 10
-45.0396286401
 20
-20.3049167391
 10
-44.9848577434
 20
-20.3860106104
 10
-44.9273349026
 20
-20.4648550557
 10
-44.8671567767
 20
-20.5412690857
 10
-44.8044055994
 20
-20.6150654552
 10
-44.7392113151
 20
-20.6860019109
 10
-44.6717125119
 20
-20.7538330803
 10
-44.6020034439
 20
-20.8183451485
 10
-44.5301784831
 20
-20.8793267987
 10
-44.4563230392
 20
-20.9365542034
 10
-44.3805140181
 20
-20.989802993
 10
-44.3028704005
 20
-21.0388149286
 10
-44.2820081073
 20
-21.0510537644
  0
LINE
  5
2A0
100
AcDbEntity
  8
0
100
AcDbLine
 62
7
  6
CONTINUOUS
 10
-45.4507959091
 20
68.4553043266
 11
-45.4507959091
 21
-19.0267797964
  0
LINE
  5
2A1
100
AcDbEntity
  8
0
100
AcDbLine
 62
250
  6
CONTINUOUS
 10
-45.3043492997
 20
68.25116703
 11
-45.3043492997
 21
-19.2309170882
  0
LINE
  5
2A2
100
AcDbEntity
  8
0
100
AcDbLine
 62
250
  6
CONTINUOUS
 10
-44.9641681982
 20
-19.4422267835
 11
-44.9641681982
 21
68.0696441162
  0
LINE
  5
2A3
100
AcDbEntity
  8
0
100
AcDbLine
 62
250
  6
CONTINUOUS
 10
-44.2632856224
 20
-19.4457583795
 11
-44.2632395078
 21
68.0814332829
  0
LWPOLYLINE
  5
2A4
100
AcDbEntity
  8
0
100
AcDbPolyline
 62
250
  6
CONTINUOUS
 90
25
 70
0
 10
-44.9641681982
 20
68.0696441162
 10
-44.9629402041
 20
68.1113196428
 10
-44.9594286237
 20
68.1511172533
 10
-44.9536334569
 20
68.1890369478
 10
-44.945513715
 20
68.2252031309
 10
-44.9351103867
 20
68.2594913979
 10
-44.9225464384
 20
68.2915285352
 10
-44.9077954397
 20
68.3213045359
 10
-44.8908838208
 20
68.3488294069
 10
-44.8720138398
 20
68.3737599559
 10
-44.8511429844
 20
68.3960691735
 10
-44.8283137667
 20
68.4157840691
 10
-44.8038559814
 20
68.4326424783
 10
-44.7778791281
 20
68.44659801
 10
-44.7502737072
 20
68.4576970554
 10
-44.721041014
 20
68.4658166242
 10
-44.6900985339
 20
68.4710178657
 10
-44.6575287816
 20
68.4732396305
 10
-44.6235805963
 20
68.4721754804
 10
-44.5880729666
 20
68.4677241051
 10
-44.5511869039
 20
68.4599868148
 10
-44.5137142815
 20
68.4489611026
 10
-44.4759190573
 20
68.4346461327
 10
-44.4375372734
 20
68.4170427407
 10
-44.3985689299
 20
68.3961509268
  0
LWPOLYLINE
  5
2A5
100
AcDbEntity
  8
0
100
AcDbPolyline
 62
250
  6
CONTINUOUS
 90
18
 70
0
 10
-44.3856704596
 20
68.7814981582
 10
-44.3843841968
 20
68.8170318792
 10
-44.3805347606
 20
68.8537924326
 10
-44.3741501524
 20
68.8915123437
 10
-44.3652768204
 20
68.929917157
 10
-44.3539793217
 20
68.9687274302
 10
-44.3403398535
 20
69.0076607678
 10
-44.3244576537
 20
69.0464338806
 10
-44.3064482796
 20
69.0847646425
 10
-44.2864427699
 20
69.1223741406
 10
-44.2645866859
 20
69.1589887147
 10
-44.2410390556
 20
69.1943419416
 10
-44.2159712204
 20
69.2281765695
 10
-44.1895655796
 20
69.260246403
 10
-44.1620142681
 20
69.2903180864
 10
-44.1335177641
 20
69.3181727967
 10
-44.1042834199
 20
69.3436078478
 10
-44.074523953
 20
69.3664381637
  0
LWPOLYLINE
  5
2A6
100
AcDbEntity
  8
0
100
AcDbPolyline
 62
250
  6
CONTINUOUS
 90
6
 70
0
 10
-44.2632395078
 20
68.0814332829
 10
-44.2622829004
 20
68.0961822612
 10
-44.2604242897
 20
68.1102990816
 10
-44.2576791174
 20
68.1237197884
 10
-44.254060984
 20
68.1363970481
 10
-44.251823377
 20
68.1423369082
  0
LWPOLYLINE
  5
2A7
100
AcDbEntity
  8
0
100
AcDbPolyline
 62
250
  6
CONTINUOUS
 90
3
 70
0
 10
40.2521868415
 20
-68.4874745019
 10
40.2381403709
 20
-68.4806364668
 10
40.2240410322
 20
-68.4725849927
  0
LWPOLYLINE
  5
2A8
100
AcDbEntity
  8
0
100
AcDbPolyline
 62
250
  6
CONTINUOUS
 90
10
 70
0
 10
-44.3985689299
 20
68.3961509268
 10
-44.3972532652
 20
68.3617248848
 10
-44.3933160631
 20
68.3290743559
 10
-44.3867866262
 20
68.2984423425
 10
-44.3777135501
 20
68.2700568242
 10
-44.3661643612
 20
68.2441290607
 10
-44.3522250148
 20
68.22085202
 10
-44.3359992548
 20
68.2003989422
 10
-44.3176078416
 20
68.1829220496
 10
-44.2950420286
 20
68.1672908169
  0
LINE
  5
2A9
100
AcDbEntity
  8
SMUSSO
100
AcDbLine
 62
7
  6
CONTINUOUS
 10
-43.2377937277
 20
-19.0987052503
 11
-43.2377937277
 21
66.6307527228
  0
LWPOLYLINE
  5
2AA
100
AcDbEntity
  8
0
100
AcDbPolyline
 62
250
  6
CONTINUOUS
 90
19
 70
0
 10
-44.3985689299
 20
-20.421873452
 10
-44.397253265
 20
-20.3859281091
 10
-44.393316062
 20
-20.3487309939
 10
-44.3867866239
 20
-20.3105589469
 10
-44.3777135463
 20
-20.2716960646
 10
-44.3661643558
 20
-20.2324315848
 10
-44.3522250076
 20
-20.1930577344
 10
-44.3359992459
 20
-20.1538675544
 10
-44.3176078313
 20
-20.1151527185
 10
-44.2971876425
 20
-20.0772013628
 10
-44.2748906572
 20
-20.0402959411
 10
-44.2508828214
 20
-20.0047111227
 10
-44.225342814
 20
-19.9707117485
 10
-44.198460717
 20
-19.9385508595
 10
-44.1704366013
 20
-19.9084678136
 10
-44.1414790369
 20
-19.8806865047
 10
-44.111803541
 20
-19.8554136954
 10
-44.0816309743
 20
-19.8328374793
 10
-44.0511858968
 20
-19.8131258802
  0
LWPOLYLINE
  5
2AB
100
AcDbEntity
  8
0
100
AcDbPolyline
 62
250
  6
CONTINUOUS
 90
19
 70
0
 10
-44.9641681982
 20
-19.4422267835
 10
-44.9323798501
 20
-19.4590616807
 10
-44.8981967583
 20
-19.4742519872
 10
-44.861873331
 20
-19.4876846488
 10
-44.8236799064
 20
-19.4992596926
 10
-44.7839007398
 20
-19.5088909711
 10
-44.7428318886
 20
-19.5165068032
 10
-44.7007790088
 20
-19.522050508
 10
-44.6580550797
 20
-19.5254808263
 10
-44.6149780754
 20
-19.5267722278
 10
-44.5718685973
 20
-19.5259151013
 10
-44.5290474888
 20
-19.522915826
 10
-44.4868334469
 20
-19.5177967241
 10
-44.4455406507
 20
-19.5105958945
 10
-44.4054764228
 20
-19.5013669297
 10
-44.3669389421
 20
-19.4901785163
 10
-44.3302150246
 20
-19.4771139245
 10
-44.2955779891
 20
-19.4622703878
 10
-44.2632856224
 20
-19.4457583795
  0
LWPOLYLINE
  5
2AC
100
AcDbEntity
  8
0
100
AcDbPolyline
 62
250
  6
CONTINUOUS
 90
19
 70
0
 10
40.7824377838
 20
-68.9363490294
 10
40.8138551967
 20
-68.9530036824
 10
40.8476165728
 20
-68.9680517834
 10
40.8834762537
 20
-68.9813838376
 10
40.9211733128
 20
-68.9929028368
 10
40.9604334547
 20
-69.0025249652
 10
41.00097101
 20
-69.010180209
 10
41.0424910147
 20
-69.0158128664
 10
41.0846913561
 20
-69.0193819522
 10
41.1272649712
 20
-69.0208614968
 10
41.1699020809
 20
-69.0202407345
 10
41.2122924442
 20
-69.0175241822
 10
41.2541276153
 20
-69.0127316063
 10
41.2951031883
 20
-69.0058978791
 10
41.334921012
 20
-68.997072725
 10
41.3732913593
 20
-68.9863203586
 10
41.4099350355
 20
-68.9737190176
 10
41.4445854096
 20
-68.9593603932
 10
49.3931946077
 20
-64.989510935
  0
LWPOLYLINE
  5
2AD
100
AcDbEntity
  8
SMUSSO
100
AcDbPolyline
 62
7
  6
CONTINUOUS
 90
15
 70
0
 10
39.4936996711
 20
-66.8667537598
 10
39.5348202686
 20
-66.8891080166
 10
39.5757993531
 20
-66.9086253273
 10
39.6164982766
 20
-66.9252396444
 10
39.6567780649
 20
-66.938895479
 10
39.6965036817
 20
-66.9495458978
 10
39.7355444898
 20
-66.9571526797
 10
39.7737702342
 20
-66.9616890197
 10
39.811049712
 20
-66.9631406414
 10
39.8472550086
 20
-66.9615036567
 10
39.882262864
 20
-66.956784039
 10
39.9159555774
 20
-66.9489973224
 10
39.9482196305
 20
-66.9381695733
 10
39.9789460233
 20
-66.9243373305
 10
39.9937239906
 20
-66.9162948454
  0
LWPOLYLINE
  5
2AE
100
AcDbEntity
  8
0
100
AcDbPolyline
 62
250
  6
CONTINUOUS
 90
31
 70
0
 10
39.8637589438
 20
-69.4666801576
 10
39.9126004048
 20
-69.4932700501
 10
39.9607476464
 20
-69.5166764354
 10
40.0082006683
 20
-69.5368993134
 10
40.0549663881
 20
-69.5539164274
 10
40.1010378882
 20
-69.5677500341
 10
40.1463944169
 20
-69.5784669038
 10
40.1911632428
 20
-69.5861060741
 10
40.2352170972
 20
-69.5906285073
 10
40.2781534216
 20
-69.5919838599
 10
40.3199418495
 20
-69.5901417304
 10
40.3606127473
 20
-69.5851325203
 10
40.3998546566
 20
-69.576997091
 10
40.4376609512
 20
-69.5657111501
 10
40.4740382572
 20
-69.5512989899
 10
40.5086949943
 20
-69.5338743487
 10
40.5416205433
 20
-69.5134076036
 10
40.5728255235
 20
-69.4899283774
 10
40.6020502124
 20
-69.4636392768
 10
40.6292367375
 20
-69.4346210646
 10
40.6544429713
 20
-69.4027929781
 10
40.6775828087
 20
-69.3681153351
 10
40.698724232
 20
-69.3305186634
 10
40.717799259
 20
-69.2900724352
 10
40.7345178375
 20
-69.2469453848
 10
40.7488694322
 20
-69.2010409517
 10
40.7608645785
 20
-69.1524556964
 10
40.7702448313
 20
-69.1016480349
 10
40.7769240423
 20
-69.0487707725
 10
40.7809883598
 20
-68.9936711041
 10
40.7824377838
 20
-68.9363490294
  0
LWPOLYLINE
  5
2AF
100
AcDbEntity
  8
0
100
AcDbPolyline
 62
7
  6
CONTINUOUS
 90
19
 70
0
 10
39.967285407
 20
-69.6955400145
 10
40.0053064002
 20
-69.7168494589
 10
40.0749048551
 20
-69.752564955
 10
40.1445170115
 20
-69.7840909309
 10
40.2140403871
 20
-69.811426109
 10
40.2833753201
 20
-69.8345741994
 10
40.3524118791
 20
-69.8535440841
 10
40.4210799293
 20
-69.8683495009
 10
40.4892529055
 20
-69.8789921894
 10
40.5567013672
 20
-69.8854792942
 10
40.6233010958
 20
-69.8878441655
 10
40.6888981634
 20
-69.8861231224
 10
40.7531788966
 20
-69.8803914157
 10
40.8159794874
 20
-69.8707498554
 10
40.8771441202
 20
-69.8573085489
 10
40.9363527016
 20
-69.840244289
 10
40.9934048463
 20
-69.8197574567
 10
41.0482235118
 20
-69.7960249191
 10
41.0677913662
 20
-69.7865232917
  0
LINE
  5
2B0
100
AcDbEntity
  8
0
100
AcDbLine
 62
7
  6
CONTINUOUS
 10
-44.2821291491
 20
-21.050983944
 11
39.9673002584
 21
-69.6955485906
  0
LINE
  5
2B1
100
AcDbEntity
  8
0
100
AcDbLine
 62
250
  6
CONTINUOUS
 10
-44.3856704596
 20
-20.8221155135
 11
39.8637589438
 21
-69.4666801576
  0
LINE
  5
2B2
100
AcDbEntity
  8
0
100
AcDbLine
 62
250
  6
CONTINUOUS
 10
39.876657414
 20
-69.0813329263
 11
-44.3985689299
 21
-20.421873452
  0
LINE
  5
2B3
100
AcDbEntity
  8
SMUSSO
100
AcDbLine
 62
7
  6
CONTINUOUS
 10
38.7865928899
 20
-66.4585580763
 11
39.4936996711
 21
-66.8667537598
  0
LINE
  5
2B4
100
AcDbEntity
  8
SMUSSO
100
AcDbLine
 62
7
  6
CONTINUOUS
 10
-43.2377937277
 20
-19.0987052503
 11
38.7865928899
 21
-66.4585580763
  0
LWPOLYLINE
  5
2B5
100
AcDbEntity
  8
0
100
AcDbPolyline
 62
250
  6
CONTINUOUS
 90
25
 70
0
 10
40.2240404472
 20
-68.4725853545
 10
-44.0652539167
 20
-19.8049499783
 10
-44.0792191338
 20
-19.7957821172
 10
-44.0930257292
 20
-19.7856643287
 10
-44.1066150954
 20
-19.7746482823
 10
-44.119937793
 20
-19.7627782276
 10
-44.1329527984
 20
-19.7500873579
 10
-44.1456124555
 20
-19.7366225896
 10
-44.1578607192
 20
-19.7224449296
 10
-44.1696448478
 20
-19.7076101879
 10
-44.180922463
 20
-19.6921694839
 10
-44.1916407143
 20
-19.6761961363
 10
-44.201736623
 20
-19.659785242
 10
-44.2111332879
 20
-19.6430772897
 10
-44.2198377825
 20
-19.6260740507
 10
-44.2278993654
 20
-19.6086581406
 10
-44.2352855556
 20
-19.5908465297
 10
-44.2419196554
 20
-19.5727602394
 10
-44.2477604641
 20
-19.5544364651
 10
-44.2527694447
 20
-19.535885039
 10
-44.2568709495
 20
-19.5172657727
 10
-44.2599915626
 20
-19.498842173
 10
-44.2621057844
 20
-19.4807560517
 10
-44.2632076318
 20
-19.4630336705
 10
-44.2632850165
 20
-19.4457580297
  0
LWPOLYLINE
  5
2B6
100
AcDbEntity
  8
0
100
AcDbPolyline
 62
250
  6
CONTINUOUS
 90
25
 70
0
 10
-44.3985689299
 20
-20.421873452
 10
-44.4352762138
 20
-20.3992612065
 10
-44.4714990258
 20
-20.3742919156
 10
-44.507237366
 20
-20.3469655793
 10
-44.5426194717
 20
-20.3171608266
 10
-44.5775171055
 20
-20.2849990285
 10
-44.6115455554
 20
-20.2508442975
 10
-44.6447093714
 20
-20.2146634883
 10
-44.6770040036
 20
-20.1764897462
 10
-44.7080310903
 20
-20.1367866199
 10
-44.7377884981
 20
-20.0955062539
 10
-44.7662783606
 20
-20.0526965037
 10
-44.7931087162
 20
-20.0089644846
 10
-44.8181846325
 20
-19.9644914447
 10
-44.8416010419
 20
-19.9190961358
 10
-44.8632507806
 20
-19.8728419289
 10
-44.8832280682
 20
-19.8255791461
 10
-44.901438685
 20
-19.7774574652
 10
-44.9174928075
 20
-19.7289892911
 10
-44.9313932099
 20
-19.6799640147
 10
-44.9431371179
 20
-19.6305922451
 10
-44.9523263854
 20
-19.582018214
 10
-44.9588282969
 20
-19.534623332
 10
-44.9627755678
 20
-19.4880261885
 10
-44.9641681982
 20
-19.4422267835
  0
LWPOLYLINE
  5
2B7
100
AcDbEntity
  8
0
100
AcDbPolyline
 62
250
  6
CONTINUOUS
 90
11
 70
0
 10
-45.3043492997
 20
-19.2309170882
 10
-45.3331939382
 20
-19.2127772115
 10
-45.359256195
 20
-19.1932839585
 10
-45.3823464266
 20
-19.1725791628
 10
-45.402296614
 20
-19.1508134731
 10
-45.4189615844
 20
-19.1281452597
 10
-45.432220068
 20
-19.1047394616
 10
-45.4419755827
 20
-19.0807663833
 10
-45.4481571341
 20
-19.0564004593
 10
-45.4507197328
 20
-19.0318189858
 10
-45.4507959091
 20
-19.0267797964
  0
LWPOLYLINE
  5
2B8
100
AcDbEntity
  8
0
100
AcDbPolyline
 62
250
  6
CONTINUOUS
 90
11
 70
0
 10
40.4422566823
 20
-68.7548261157
 10
40.4130996604
 20
-68.7364719197
 10
40.3867909706
 20
-68.7167350287
 10
40.3635264159
 20
-68.695762335
 10
40.3434791432
 20
-68.6737099283
 10
40.3267983547
 20
-68.6507419343
 10
40.3136081973
 20
-68.627029293
 10
40.3040068391
 20
-68.6027484861
 10
40.2980657382
 20
-68.5780802243
 10
40.2958291112
 20
-68.5532081017
 10
40.295810074
 20
-68.5507078963
  0
LINE
  5
2B9
100
AcDbEntity
  8
0
100
AcDbLine
 62
7
  6
CONTINUOUS
 10
50.3477887623
 20
-4.0987172583
 11
49.7821033374
 21
-4.1189935847
  0
LINE
  5
2BA
100
AcDbEntity
  8
0
100
AcDbLine
 62
250
  6
CONTINUOUS
 10
-43.2377937277
 20
-18.8536541752
 11
-44.2632856224
 21
-19.4457583795
  0
LINE
  5
2BB
100
AcDbEntity
  8
0
100
AcDbLine
 62
250
  6
CONTINUOUS
 10
-43.0258215576
 20
-19.2210953246
 11
-44.0511858968
 21
-19.8131258802
  0
LINE
  5
2BC
100
AcDbEntity
  8
0
100
AcDbLine
 62
250
  6
CONTINUOUS
 10
40.204973499
 20
20.7419329743
 11
48.1211777522
 21
25.3126202883
  0
LINE
  5
2BD
100
AcDbEntity
  8
SMUSSO
100
AcDbLine
 62
250
  6
CONTINUOUS
 10
39.4936996711
 20
19.6790955803
 11
39.5886323672
 21
19.7339085292
  0
LINE
  5
2BE
100
AcDbEntity
  8
SMUSSO
100
AcDbLine
 62
250
  6
CONTINUOUS
 10
40.2008064523
 20
18.4543507102
 11
40.2958100729
 21
18.50920461
  0
LINE
  5
2BF
100
AcDbEntity
  8
0
100
AcDbLine
 62
250
  6
CONTINUOUS
 10
41.4769903545
 20
18.5387351548
 11
49.3931946077
 21
23.1094224688
  0
LINE
  5
2C0
100
AcDbEntity
  8
SUPERFICI
100
AcDbLine
 62
250
  6
CONTINUOUS
 10
49.7821033374
 20
10.718766324
 11
49.3931946077
 21
10.4942152976
  0
LINE
  5
2C1
100
AcDbEntity
  8
SMUSSO
100
AcDbLine
 62
250
  6
CONTINUOUS
 10
38.7865928899
 20
18.4543507102
 11
40.2008064523
 21
18.4543507102
  0
LINE
  5
2C2
100
AcDbEntity
  8
SMUSSO
100
AcDbLine
 62
250
  6
CONTINUOUS
 10
38.7865928899
 20
18.4543507102
 11
39.4936996711
 21
19.6790955803
  0
LWPOLYLINE
  5
2C3
100
AcDbEntity
  8
0
100
AcDbPolyline
 62
250
  6
CONTINUOUS
 90
11
 70
0
 10
39.8637589438
 20
-69.4666801576
 10
39.8650452082
 20
-69.5007285337
 10
39.868894646
 20
-69.5330438537
 10
39.8752792555
 20
-69.5633909786
 10
39.8841525887
 20
-69.5915490897
 10
39.8954500883
 20
-69.6173132941
 10
39.9090895572
 20
-69.6404961153
 10
39.9249717576
 20
-69.6609288616
 10
39.942981132
 20
-69.6784628496
 10
39.9629866417
 20
-69.6929704865
 10
39.9672854069
 20
-69.6955400145
  0
LWPOLYLINE
  5
2C4
100
AcDbEntity
  8
0
100
AcDbPolyline
 62
250
  6
CONTINUOUS
 90
19
 70
0
 10
-44.9641681982
 20
68.0696441162
 10
-44.9323798464
 20
68.0528092172
 10
-44.8981967506
 20
68.0376189095
 10
-44.8618733197
 20
68.0241862472
 10
-44.8236798916
 20
68.0126112032
 10
-44.783900722
 20
68.002979925
 10
-44.7428318683
 20
67.9953640934
 10
-44.7007789867
 20
67.9898203896
 10
-44.6580550565
 20
67.9863900724
 10
-44.6149780519
 20
67.985098672
 10
-44.5718685743
 20
67.9859557996
 10
-44.529047467
 20
67.9889550759
 10
-44.4868334271
 20
67.9940741787
 10
-44.4455406334
 20
68.0012750088
 10
-44.4054764086
 20
68.0105039739
 10
-44.3669389312
 20
68.021692387
 10
-44.3302150174
 20
68.0347569781
 10
-44.2955779855
 20
68.0496005136
 10
-44.2632856224
 20
68.0661125202
  0
LWPOLYLINE
  5
2C5
100
AcDbEntity
  8
0
100
AcDbPolyline
 62
250
  6
CONTINUOUS
 90
19
 70
0
 10
40.7824377838
 20
18.5457350888
 10
40.8138549496
 20
18.529080557
 10
40.8476160804
 20
18.5140325374
 10
40.8834755296
 20
18.5007005279
 10
40.9211723823
 20
18.4891815403
 10
40.9604323511
 20
18.4795593958
 10
41.0009697717
 20
18.471904114
 10
41.0424896867
 20
18.4662714024
 10
41.0846899864
 20
18.4627022523
 10
41.1272636046
 20
18.4612226399
 10
41.1699007634
 20
18.4618433367
 10
41.2122912195
 20
18.4645598313
 10
41.2541265171
 20
18.4693523619
 10
41.2951022468
 20
18.4761860603
 10
41.3349202519
 20
18.485011206
 10
41.3732907907
 20
18.495763585
 10
41.4099346602
 20
18.5083649604
 10
41.444585226
 20
18.5227236427
 10
41.4769903545
 20
18.5387351548
  0
LWPOLYLINE
  5
2C6
100
AcDbEntity
  8
SMUSSO
100
AcDbPolyline
 62
7
  6
CONTINUOUS
 90
15
 70
0
 10
-42.5306869465
 20
67.0389484063
 10
-42.5717955551
 20
67.0613095854
 10
-42.6127674388
 20
67.0808310537
 10
-42.6534639496
 20
67.0974467639
 10
-42.6937486453
 20
67.111099765
 10
-42.7334839576
 20
67.1217445857
 10
-42.7725316531
 20
67.129347391
 10
-42.8107577603
 20
67.1338835215
 10
-42.8480347929
 20
67.135336555
 10
-42.8842383901
 20
67.1337005514
 10
-42.9192468029
 20
67.1289806119
 10
-42.9529408194
 20
67.1211931429
 10
-42.9852059424
 20
67.1103647761
 10
-43.0159328257
 20
67.0965322501
 10
-43.0307109473
 20
67.088489676
  0
LINE
  5
2C7
100
AcDbEntity
  8
SMUSSO
100
AcDbLine
 62
7
  6
CONTINUOUS
 10
38.7865928899
 20
18.4543507102
 11
-43.2377937277
 21
65.8142035362
  0
LINE
  5
2C8
100
AcDbEntity
  8
SMUSSO
100
AcDbLine
 62
7
  6
CONTINUOUS
 10
39.4936996711
 20
19.6790955803
 11
-42.5306869465
 21
67.0389484063
  0
LINE
  5
2C9
100
AcDbEntity
  8
0
100
AcDbLine
 62
7
  6
CONTINUOUS
 10
-44.2950276194
 20
68.1672824962
 11
39.9801987247
 21
19.5078230218
  0
LINE
  5
2CA
100
AcDbEntity
  8
0
100
AcDbLine
 62
250
  6
CONTINUOUS
 10
-44.3985689299
 20
68.3961509268
 11
39.876657414
 21
19.7366914525
  0
LINE
  5
2CB
100
AcDbEntity
  8
0
100
AcDbLine
 62
250
  6
CONTINUOUS
 10
39.8637589438
 20
20.136933514
 11
-44.3856704596
 21
68.7814981582
  0
LINE
  5
2CC
100
AcDbEntity
  8
0
100
AcDbLine
 62
250
  6
CONTINUOUS
 10
40.204973499
 20
20.7419329743
 11
-44.0444559044
 21
69.3864976185
  0
LWPOLYLINE
  5
2CD
100
AcDbEntity
  8
0
100
AcDbPolyline
 62
7
  6
CONTINUOUS
 90
31
 70
0
 10
39.980187643
 20
19.5078294208
 10
39.9825981794
 20
19.5064203831
 10
39.9931142991
 20
19.4998898833
 10
40.0049615735
 20
19.4918426232
 10
40.0180005548
 20
19.4822069359
 10
40.0320982462
 20
19.4709234681
 10
40.0470875835
 20
19.4579746889
 10
40.0628285574
 20
19.4433331843
 10
40.0791606957
 20
19.4270061112
 10
40.0958914636
 20
19.4090552367
 10
40.1128850663
 20
19.3894967908
 10
40.1299511008
 20
19.3684264007
 10
40.1468256196
 20
19.3460750053
 10
40.1633588672
 20
19.3225654767
 10
40.1794013618
 20
19.2980383503
 10
40.1947244619
 20
19.2728039904
 10
40.2092135559
 20
19.2470447493
 10
40.2227678766
 20
19.2209386285
 10
40.2352318746
 20
19.1948221159
 10
40.2465515169
 20
19.1688906105
 10
40.2566832366
 20
19.1433400471
 10
40.2655483511
 20
19.1185164614
 10
40.2731564336
 20
19.0946149023
 10
40.2795424381
 20
19.0717940881
 10
40.2847244448
 20
19.0503271303
 10
40.2887719932
 20
19.0303879463
 10
40.2917881528
 20
19.0120533912
 10
40.2938745116
 20
18.9954359468
 10
40.2951453065
 20
18.9806290525
 10
40.2957298526
 20
18.9677098043
 10
40.2958100734
 20
18.9611695751
  0
LWPOLYLINE
  5
2CE
100
AcDbEntity
  8
0
100
AcDbPolyline
 62
250
  6
CONTINUOUS
 90
25
 70
0
 10
39.876657414
 20
19.7366914525
 10
39.9133646979
 20
19.714079207
 10
39.94958751
 20
19.6891099161
 10
39.9853258502
 20
19.6617835798
 10
40.0207079558
 20
19.6319788271
 10
40.0556055896
 20
19.599817029
 10
40.0896340396
 20
19.565662298
 10
40.1227978555
 20
19.5294814888
 10
40.1550924877
 20
19.4913077467
 10
40.1861195744
 20
19.4516046204
 10
40.2158769823
 20
19.4103242545
 10
40.2443668447
 20
19.3675145043
 10
40.2711972003
 20
19.3237824852
 10
40.2962731166
 20
19.2793094452
 10
40.3196895261
 20
19.2339141363
 10
40.3413392647
 20
19.1876599295
 10
40.3613165523
 20
19.1403971466
 10
40.3795271691
 20
19.0922754657
 10
40.3955812916
 20
19.0438072916
 10
40.409481694
 20
18.9947820153
 10
40.421225602
 20
18.9454102456
 10
40.4304148695
 20
18.8968362145
 10
40.436916781
 20
18.8494413325
 10
40.440864052
 20
18.802844189
 10
40.4422566823
 20
18.7570447841
  0
LWPOLYLINE
  5
2CF
100
AcDbEntity
  8
0
100
AcDbPolyline
 62
250
  6
CONTINUOUS
 90
11
 70
0
 10
-45.3043492997
 20
68.25116703
 10
-45.3331941464
 20
68.2693070504
 10
-45.3592565426
 20
68.2888004458
 10
-45.3823468502
 20
68.3095053761
 10
-45.4022970568
 20
68.3312711856
 10
-45.4189619983
 20
68.3539394995
 10
-45.4322204153
 20
68.3773453759
 10
-45.4419758355
 20
68.4013185062
 10
-45.4481572754
 20
68.4256844545
 10
-45.4507197567
 20
68.4502659263
 10
-45.4507959084
 20
68.4552885481
  0
LWPOLYLINE
  5
2D0
100
AcDbEntity
  8
0
100
AcDbPolyline
 62
250
  6
CONTINUOUS
 90
11
 70
0
 10
40.4422566823
 20
18.7570447841
 10
40.4130996636
 20
18.7753989778
 10
40.386790976
 20
18.7951358667
 10
40.3635264225
 20
18.8161085583
 10
40.3434791502
 20
18.838160963
 10
40.3267983612
 20
18.8611289553
 10
40.3136082029
 20
18.8848415952
 10
40.3040068432
 20
18.909122401
 10
40.2980657404
 20
18.9337906622
 10
40.2958291114
 20
18.9586627846
 10
40.2958100734
 20
18.9611695751
  0
LWPOLYLINE
  5
2D1
100
AcDbEntity
  8
0
100
AcDbPolyline
 62
250
  6
CONTINUOUS
 90
11
 70
0
 10
39.876657414
 20
19.7366914525
 10
39.877973079
 20
19.7022654066
 10
39.881910282
 20
19.6696148747
 10
39.8884397202
 20
19.6389828592
 10
39.8975127979
 20
19.6105973395
 10
39.9090619884
 20
19.5846695754
 10
39.9230013366
 20
19.5613925349
 10
39.9392270983
 20
19.5409394579
 10
39.9576185129
 20
19.5234625665
 10
39.9780387018
 20
19.509091933
 10
39.980187643
 20
19.5078294208
  0
LWPOLYLINE
  5
2D2
100
AcDbEntity
  8
0
100
AcDbPolyline
 62
250
  6
CONTINUOUS
 90
31
 70
0
 10
41.4769903545
 20
18.5387351548
 10
41.4745556291
 20
18.6171440436
 10
41.4686442899
 20
18.6968908274
 10
41.4593414458
 20
18.7777237787
 10
41.446777554
 20
18.8591953228
 10
41.431030595
 20
18.9412570559
 10
41.4120480439
 20
19.0242867516
 10
41.3898081767
 20
19.1083077993
 10
41.3644143024
 20
19.192864062
 10
41.3359546424
 20
19.2776315971
 10
41.3045239534
 20
19.3623439395
 10
41.2701982625
 20
19.4468169608
 10
41.2330566749
 20
19.5308487687
 10
41.1931937147
 20
19.6142240385
 10
41.1507209234
 20
19.6967121199
 10
41.1057510496
 20
19.7780902207
 10
41.0583958845
 20
19.8581519968
 10
41.0087890528
 20
19.9366720087
 10
40.9570880934
 20
20.0134060079
 10
40.9035693487
 20
20.0879669263
 10
40.848248472
 20
20.1603521938
 10
40.7908671675
 20
20.2308587647
 10
40.7314180601
 20
20.2993956264
 10
40.6701585238
 20
20.3655649604
 10
40.6072061321
 20
20.4291525343
 10
40.5426355762
 20
20.4899824418
 10
40.4766842081
 20
20.5477367776
 10
40.4097335914
 20
20.6020188536
 10
40.3420387812
 20
20.6525787991
 10
40.2737204267
 20
20.6992786536
 10
40.204973499
 20
20.7419329743
  0
LWPOLYLINE
  5
2D3
100
AcDbEntity
  8
SMUSSO
100
AcDbPolyline
 62
7
  6
CONTINUOUS
 90
28
 70
0
 10
40.2008064523
 20
18.4543507102
 10
40.199616134
 20
18.502518432
 10
40.196034844
 20
18.5519032709
 10
40.1900747126
 20
18.6023381312
 10
40.181754645
 20
18.6536516285
 10
40.1711040513
 20
18.7056708606
 10
40.1581627516
 20
18.7582219943
 10
40.1429763816
 20
18.8111282796
 10
40.1255944683
 20
18.8642096249
 10
40.1060740538
 20
18.9172853963
 10
40.0844804365
 20
18.9701755676
 10
40.0608874368
 20
19.0227016107
 10
40.0353753733
 20
19.0746860757
 10
40.008030742
 20
19.1259531623
 10
39.9789458947
 20
19.1763292986
 10
39.9482192149
 20
19.2256440102
 10
39.915954747
 20
19.273730475
 10
39.882261589
 20
19.3204259406
 10
39.8472534943
 20
19.3655722577
 10
39.8110483474
 20
19.4090163354
 10
39.7737692246
 20
19.4506115016
 10
39.7355437252
 20
19.4902178536
 10
39.6965028639
 20
19.5277023417
 10
39.6567770838
 20
19.5629371721
 10
39.6164972707
 20
19.5958010805
 10
39.5757985439
 20
19.6261821873
 10
39.5348197947
 20
19.6539783738
 10
39.4936996711
 20
19.6790955803
  0
LWPOLYLINE
  5
2D4
100
AcDbEntity
  8
0
100
AcDbPolyline
 62
250
  6
CONTINUOUS
 90
31
 70
0
 10
40.7824377838
 20
18.5457350888
 10
40.7810429574
 20
18.6029358886
 10
40.7772381872
 20
18.6607265699
 10
40.7710234735
 20
18.7191071325
 10
40.7623760815
 20
18.7780986903
 10
40.7513187459
 20
18.8376801295
 10
40.7379196702
 20
18.8977881087
 10
40.7221490225
 20
18.958586805
 10
40.7040366347
 20
19.0199120414
 10
40.6837402052
 20
19.0812079451
 10
40.6612485896
 20
19.1424458877
 10
40.6365729323
 20
19.2036544976
 10
40.6099043659
 20
19.2643637876
 10
40.5812251653
 20
19.3245763409
 10
40.5505530555
 20
19.3842895743
 10
40.5181323441
 20
19.4430257506
 10
40.4839426862
 20
19.5007843549
 10
40.4480044267
 20
19.5575659021
 10
40.4106229076
 20
19.6128941996
 10
40.3718970128
 20
19.6666453297
 10
40.3317278583
 20
19.7189432102
 10
40.290124134
 20
19.7696834011
 10
40.246991679
 20
19.8189987665
 10
40.2024246542
 20
19.8667564423
 10
40.1567142325
 20
19.9124533967
 10
40.1097820557
 20
19.9561227075
 10
40.0617064819
 20
19.997731297
 10
40.0130137591
 20
20.0366768989
 10
39.9638793031
 20
20.0727587581
 10
39.914127698
 20
20.1061776298
 10
39.8637589438
 20
20.136933514
  0
LINE
  5
2D5
100
AcDbEntity
  8
SMUSSO
100
AcDbLine
 62
7
  6
CONTINUOUS
 10
38.7865928899
 20
-66.4585580763
 11
38.7865928899
 21
18.4543507102
  0
LINE
  5
2D6
100
AcDbEntity
  8
SMUSSO
100
AcDbLine
 62
7
  6
CONTINUOUS
 10
40.2008064523
 20
-66.4585580763
 11
40.2008064523
 21
18.4543507102
  0
LINE
  5
2D7
100
AcDbEntity
  8
0
100
AcDbLine
 62
7
  6
CONTINUOUS
 10
40.2958100729
 20
18.9611820807
 11
40.2958100729
 21
-68.5506888192
  0
LINE
  5
2D8
100
AcDbEntity
  8
0
100
AcDbLine
 62
250
  6
CONTINUOUS
 10
40.4422566823
 20
18.7570447841
 11
40.4422566823
 21
-68.7548261157
  0
LINE
  5
2D9
100
AcDbEntity
  8
0
100
AcDbLine
 62
250
  6
CONTINUOUS
 10
40.7824377838
 20
-68.9363490294
 11
40.7824377838
 21
18.5457350888
  0
LINE
  5
2DA
100
AcDbEntity
  8
0
100
AcDbLine
 62
250
  6
CONTINUOUS
 10
41.4769903545
 20
-68.9433489634
 11
41.4769903545
 21
18.5387351548
  0
LWPOLYLINE
  5
2DB
100
AcDbEntity
  8
0
100
AcDbPolyline
 62
7
  6
CONTINUOUS
 90
7
 70
0
 10
40.295810074
 20
-68.5507078963
 10
40.2956934531
 20
-68.5581878567
 10
40.295263979
 20
-68.5663194577
 10
40.2946630565
 20
-68.5725054094
 10
40.2940553009
 20
-68.5767376438
 10
40.293631411
 20
-68.5789472934
 10
40.2935986969
 20
-68.5790919923
  0
LWPOLYLINE
  5
2DC
100
AcDbEntity
  8
0
100
AcDbPolyline
 62
250
  6
CONTINUOUS
 90
25
 70
0
 10
40.4422566823
 20
-68.7548261157
 10
40.4410286882
 20
-68.7965016422
 10
40.4375171078
 20
-68.8362992528
 10
40.431721941
 20
-68.8742189473
 10
40.4236021991
 20
-68.9103851303
 10
40.4131988709
 20
-68.9446733973
 10
40.4006349226
 20
-68.9767105347
 10
40.3858839238
 20
-69.0064865354
 10
40.368972305
 20
-69.0340114064
 10
40.350102324
 20
-69.0589419554
 10
40.3292314685
 20
-69.081251173
 10
40.3064022509
 20
-69.1009660685
 10
40.2819444656
 20
-69.1178244778
 10
40.2559676123
 20
-69.1317800095
 10
40.2283621913
 20
-69.1428790549
 10
40.1991294981
 20
-69.1509986237
 10
40.168187018
 20
-69.1561998652
 10
40.1356172657
 20
-69.15842163
 10
40.1016690804
 20
-69.1573574799
 10
40.0661614507
 20
-69.1529061045
 10
40.029275388
 20
-69.1451688143
 10
39.9918027657
 20
-69.1341431021
 10
39.9540075414
 20
-69.1198281321
 10
39.9156257576
 20
-69.1022247402
 10
39.876657414
 20
-69.0813329263
  0
LWPOLYLINE
  5
2DD
100
AcDbEntity
  8
0
100
AcDbPolyline
 62
250
  6
CONTINUOUS
 90
19
 70
0
 10
39.8637589438
 20
20.136933514
 10
39.8650452269
 20
20.1724675087
 10
39.8688947168
 20
20.2092283142
 10
39.8752794034
 20
20.2469484475
 10
39.8841528297
 20
20.2853534448
 10
39.8954504299
 20
20.3241638593
 10
39.909089999
 20
20.3630972941
 10
39.9249722913
 20
20.4018704572
 10
39.9429817421
 20
20.4402012229
 10
39.9629873089
 20
20.4778106844
 10
39.9848434251
 20
20.5144251834
 10
40.0083910585
 20
20.5497783011
 10
40.0334588692
 20
20.5836127972
 10
40.0598644557
 20
20.6156824812
 10
40.0874156828
 20
20.6457540038
 10
40.115912079
 20
20.6736085552
 10
40.1451462955
 20
20.6990434569
 10
40.1749056149
 20
20.7218736365
 10
40.204973499
 20
20.7419329743
  0
LWPOLYLINE
  5
2DE
100
AcDbEntity
  8
0
100
AcDbPolyline
 62
250
  6
CONTINUOUS
 90
19
 70
0
 10
39.876657414
 20
-69.0813329263
 10
39.8779730787
 20
-69.0453875876
 10
39.8819102808
 20
-69.0081904764
 10
39.8884397177
 20
-68.970018433
 10
39.8975127939
 20
-68.9311555538
 10
39.9090619827
 20
-68.8918910765
 10
39.9230013291
 20
-68.852517228
 10
39.9392270892
 20
-68.8133270492
 10
39.9576185023
 20
-68.7746122137
 10
39.97803869
 20
-68.7366608576
 10
40.0003356745
 20
-68.6997554349
 10
40.02434351
 20
-68.664170615
 10
40.0498835177
 20
-68.6301712386
 10
40.0767656153
 20
-68.5980103471
 10
40.1047897324
 20
-68.5679272985
 10
40.1337472987
 20
-68.5401459867
 10
40.1634227969
 20
-68.5148731746
 10
40.1935953664
 20
-68.4922969559
 10
40.2240404472
 20
-68.4725853545
  0
LWPOLYLINE
  5
2DF
100
AcDbEntity
  8
0
100
AcDbPolyline
 62
250
  6
CONTINUOUS
 90
17
 70
0
 10
-44.0444559044
 20
69.3864976185
 10
-44.1124066207
 20
69.4229201519
 10
-44.1797061111
 20
69.4549523611
 10
-44.246172141
 20
69.4825872986
 10
-44.3114691354
 20
69.5057818427
 10
-44.3755985781
 20
69.5246268909
 10
-44.4388763499
 20
69.5392441793
 10
-44.5013035415
 20
69.5496092544
 10
-44.5625261233
 20
69.5556369917
 10
-44.6223149831
 20
69.55729697
 10
-44.6804832212
 20
69.5545906884
 10
-44.7369028333
 20
69.5475320247
 10
-44.7914433221
 20
69.5361369711
 10
-44.8439639359
 20
69.5204334028
 10
-44.8943164395
 20
69.5004645238
 10
-44.9423660284
 20
69.4762826863
 10
-44.9794083922
 20
69.4537174419
  0
LWPOLYLINE
  5
2E0
100
AcDbEntity
  8
0
100
AcDbPolyline
 62
250
  6
CONTINUOUS
 90
31
 70
0
 10
-44.3856704596
 20
68.7814981582
 10
-44.4345119207
 20
68.8080880507
 10
-44.4826591622
 20
68.8314944359
 10
-44.5301121842
 20
68.8517173139
 10
-44.5768779039
 20
68.8687344279
 10
-44.6229494041
 20
68.8825680347
 10
-44.6683059327
 20
68.8932849043
 10
-44.7130747586
 20
68.9009240746
 10
-44.7571286131
 20
68.9054465078
 10
-44.8000649375
 20
68.9068018604
 10
-44.8418533653
 20
68.9049597309
 10
-44.8825242632
 20
68.8999505208
 10
-44.9217661724
 20
68.8918150915
 10
-44.959572467
 20
68.8805291506
 10
-44.995949773
 20
68.8661169905
 10
-45.0306065102
 20
68.8486923493
 10
-45.0635320592
 20
68.8282256041
 10
-45.0947370394
 20
68.8047463779
 10
-45.1239617282
 20
68.7784572773
 10
-45.1511482534
 20
68.7494390652
 10
-45.1763544872
 20
68.7176109786
 10
-45.1994943246
 20
68.6829333356
 10
-45.2206357479
 20
68.6453366639
 10
-45.2397107748
 20
68.6048904357
 10
-45.2564293534
 20
68.5617633854
 10
-45.270780948
 20
68.5158589522
 10
-45.2827760943
 20
68.4672736969
 10
-45.2921563472
 20
68.4164660354
 10
-45.2988355581
 20
68.3635887731
 10
-45.3028998757
 20
68.3084891046
 10
-45.3043492997
 20
68.25116703
  0
LINE
  5
2E1
100
AcDbEntity
  8
0
100
AcDbLine
 62
7
  6
CONTINUOUS
 10
49.3931946077
 20
-64.989510935
 11
49.3931946077
 21
23.1094224688
  0
LINE
  5
2E2
100
AcDbEntity
  8
SUPERFICI
100
AcDbLine
 62
7
  6
CONTINUOUS
 10
49.7821033374
 20
10.718766324
 11
49.7821033374
 21
-48.9652109096
  0
LINE
  5
2E3
100
AcDbEntity
  8
0
100
AcDbLine
 62
7
  6
CONTINUOUS
 10
50.3477887623
 20
-4.0987172583
 11
49.7821033374
 21
-5.0022608793
  0
LINE
  5
2E4
100
AcDbEntity
  8
0
100
AcDbLine
 62
7
  6
CONTINUOUS
 10
48.1211777522
 20
25.3126202883
 11
-36.6624760133
 21
74.2656393838
  0
LWPOLYLINE
  5
2E5
100
AcDbEntity
  8
SUPERFICI
100
AcDbPolyline
 62
7
  6
CONTINUOUS
 90
10
 70
0
 10
49.7821033374
 20
-48.9652109096
 10
49.7767708211
 20
-49.2407962757
 10
49.7610423901
 20
-49.5087988431
 10
49.7349180444
 20
-49.7692186119
 10
49.6983085897
 20
-50.0225218449
 10
49.6513032202
 20
-50.2682422792
 10
49.5941695189
 20
-50.5049811258
 10
49.5268497196
 20
-50.732687159
 10
49.4494015886
 20
-50.9514116045
 10
49.3931946077
 20
-51.0859034922
  0
LWPOLYLINE
  5
2E6
100
AcDbEntity
  8
SUPERFICI
100
AcDbPolyline
 62
7
  6
CONTINUOUS
 90
10
 70
0
 10
49.3931946077
 20
13.2885609593
 10
49.4494015886
 20
13.089162659
 10
49.5268497196
 20
12.781003053
 10
49.5941695189
 20
12.4755578031
 10
49.6513032202
 20
12.1728423903
 10
49.6983085897
 20
11.8728413335
 10
49.7349180444
 20
11.5772624198
 10
49.7610423901
 20
11.2866749115
 10
49.7767708211
 20
11.0005095462
 10
49.7821033374
 20
10.718766324
  0
LWPOLYLINE
  5
2E7
100
AcDbEntity
  8
0
100
AcDbPolyline
 62
7
  6
CONTINUOUS
 90
9
 70
0
 10
-44.3159276117
 20
68.1786423205
 10
-44.318657264
 20
68.1791189051
 10
-44.3206993657
 20
68.1795707672
 10
-44.3206191365
 20
68.1795374626
 10
-44.3185148956
 20
68.1788084309
 10
-44.3145718844
 20
68.1772318517
 10
-44.3089447277
 20
68.1746774668
 10
-44.3017223512
 20
68.1710073413
 10
-44.2950420286
 20
68.1672908169
  0
LINE
  5
2E8
100
AcDbEntity
  8
SUPERFICI
100
AcDbLine
 62
250
  6
CONTINUOUS
 10
49.7821033374
 20
-48.9652109096
 11
49.3931946077
 21
-49.1897619359
  0
LINE
  5
2E9
100
AcDbEntity
  8
0
100
AcDbLine
 62
250
  6
CONTINUOUS
 10
40.2958100729
 20
-68.4282019413
 11
40.2240404472
 21
-68.4725853545
  0
LWPOLYLINE
  5
2EA
100
AcDbEntity
  8
SMUSSO
100
AcDbPolyline
 62
7
  6
CONTINUOUS
 90
15
 70
0
 10
39.9937239906
 20
-66.9162948454
 10
40.0080306134
 20
-66.9075474984
 10
40.0353749577
 20
-66.8878569059
 10
40.0608866063
 20
-66.8653321364
 10
40.0844791613
 20
-66.8400494498
 10
40.1060725394
 20
-66.8120945411
 10
40.1255931035
 20
-66.7815623311
 10
40.1429753718
 20
-66.7485558023
 10
40.1581619869
 20
-66.7131857958
 10
40.1711032341
 20
-66.6755710272
 10
40.1817536652
 20
-66.6358397308
 10
40.1900737084
 20
-66.5941283858
 10
40.1960340363
 20
-66.5505788087
 10
40.199615661
 20
-66.5053376762
 10
40.2008064523
 20
-66.4585580763
  0
LINE
  5
2EB
100
AcDbEntity
  8
SMUSSO
100
AcDbLine
 62
250
  6
CONTINUOUS
 10
40.2008064523
 20
-66.4585580763
 11
40.2958100729
 21
-66.4037041764
  0
LINE
  5
2EC
100
AcDbEntity
  8
RACCORDO
100
AcDbLine
 62
7
  6
CONTINUOUS
 10
39.9937238313
 20
-66.9162949374
 11
40.2958100729
 21
-66.7418741275
  0
LWPOLYLINE
  5
2ED
100
AcDbEntity
  8
0
100
AcDbPolyline
 62
250
  6
CONTINUOUS
 90
17
 70
0
 10
41.0677639366
 20
-69.7865380228
 10
41.09268395
 20
-69.7733278336
 10
41.1383418432
 20
-69.7449733025
 10
41.1815385398
 20
-69.7124899599
 10
41.2221412846
 20
-69.6759812464
 10
41.2599530408
 20
-69.6356557874
 10
41.2949794098
 20
-69.5915403005
 10
41.3273484096
 20
-69.5434058979
 10
41.3569775303
 20
-69.4911909341
 10
41.3836509392
 20
-69.4350692686
 10
41.4072418921
 20
-69.3751025095
 10
41.4276353942
 20
-69.3113146477
 10
41.4446748099
 20
-69.2438886653
 10
41.4582073864
 20
-69.1731736926
 10
41.4681442623
 20
-69.0994196388
 10
41.4744262877
 20
-69.0227446888
 10
41.4769903545
 20
-68.9433489634
  0
LINE
  5
2EE
100
AcDbEntity
  8
0
100
AcDbLine
 62
7
  6
CONTINUOUS
 10
41.0673790762
 20
-69.786730418
 11
48.9888509111
 21
-65.8302614362
  0
ELLIPSE
  5
2EF
100
AcDbEntity
  8
0
100
AcDbEllipse
 62
7
  6
CONTINUOUS
 10
48.1196265784
 20
23.8429736038
 30
0.0
 11
-0.9000436475
 21
1.5588205261
 31
0.0
 40
0.5780352736
 41
-2.355633942
 42
-0.7860555904
  0
ELLIPSE
  5
2F0
100
AcDbEntity
  8
0
100
AcDbEllipse
 62
7
  6
CONTINUOUS
 10
48.1196265784
 20
-64.2523776328
 30
0.0
 11
-0.9011402283
 21
1.5607204717
 31
0.0
 40
0.5766289216
 41
-3.1764551052
 42
-2.3568516818
  0
ELLIPSE
  5
2F1
100
AcDbEntity
  8
0
100
AcDbEllipse
 62
7
  6
CONTINUOUS
 10
-36.6609248394
 20
72.7942014426
 30
0.0
 11
-0.9011402283
 21
1.5607204717
 31
0.0
 40
0.5766289216
 41
-0.7848373798
 42
0.0348624516
  0
ENDSEC
  0
SECTION
  2
OBJECTS
  0
DICTIONARY
  5
C
100
AcDbDictionary
280
0
281
1
  3
ACAD_GROUP
350
D
  3
ACAD_MLINESTYLE
350
17
  3
ACAD_LAYOUT
350
1A
  3
ACAD_PLOTSETTINGS
350
19
  3
ACAD_PLOTSTYLENAME
350
E
  0
DICTIONARY
  5
D
102
{ACAD_REACTORS
330
C
102
}
100
AcDbDictionary
280
0
281
1
  0
ACDBDICTIONARYWDFLT
  5
E
102
{ACAD_REACTORS
330
C
102
}
100
AcDbDictionary
281
1
  3
Normal
350
F
100
AcDbDictionaryWithDefault
340
F
  0
DICTIONARY
  5
17
102
{ACAD_REACTORS
330
C
102
}
100
AcDbDictionary
280
0
281
1
  3
Standard
350
18
  0
DICTIONARY
  5
19
102
{ACAD_REACTORS
330
C
102
}
100
AcDbDictionary
281
1
  0
DICTIONARY
  5
1A
102
{ACAD_REACTORS
330
C
102
}
100
AcDbDictionary
281
1
  3
Model
350
2F2
  3
Layout1
350
2F3
  0
ACDBPLACEHOLDER
  5
F
102
{ACAD_REACTORS
330
E
102
}
  0
MLINESTYLE
  5
18
102
{ACAD_REACTORS
330
17
102
}
100
AcDbMlineStyle
  2
STANDARD
 70
0
  3

 62
256
 51
90.0
 52
90.0
 71
2
 49
0.5
 62
256
  6
BYLAYER
 49
-0.5
 62
256
  6
BYLAYER
  0
LAYOUT
  5
2F2
102
{ACAD_REACTORS
330
1A
102
}
100
AcDbPlotSettings
  1

  2
none_device
  4
ISO_A4_(297.00_x_210.00_MM)
  6

 40
0.0
 41
0.0
 42
0.0
 43
0.0
 44
297.0
 45
210.0
 46
0.0
 47
0.0
 48
0.0
 49
0.0
140
0.0
141
0.0
142
1.0
143
1.0
 70
1024
 72
1
 73
0
 74
0
  7

 75
0
147
1.0
148
0.0
149
0.0
100
AcDbLayout
  1
Model
 70
0
 71
0
 10
0.0
 20
0.0
 11
297.0
 21
210.0
 12
0.0
 22
0.0
 32
0.0
 14
0.0
 24
0.0
 34
0.0
 15
0.0
 25
0.0
 35
0.0
146
0.0
 13
0.0
 23
0.0
 33
0.0
 16
1.0
 26
0.0
 36
0.0
 17
0.0
 27
1.0
 37
0.0
 76
0
330
23D
345
0
346
0
  0
LAYOUT
  5
2F3
102
{ACAD_REACTORS
330
1A
102
}
100
AcDbPlotSettings
  1

  2
none_device
  4
ISO_A4_(297.00_x_210.00_MM)
  6

 40
0.0
 41
0.0
 42
0.0
 43
0.0
 44
297.0
 45
210.0
 46
0.0
 47
0.0
 48
0.0
 49
0.0
140
0.0
141
0.0
142
1.0
143
1.0
 70
0
 72
1
 73
0
 74
0
  7

 75
0
147
1.0
148
0.0
149
0.0
100
AcDbLayout
  1
Layout1
 70
0
 71
1
 10
0.0
 20
0.0
 11
297.0
 21
210.0
 12
0.0
 22
0.0
 32
0.0
 14
0.0
 24
0.0
 34
0.0
 15
0.0
 25
0.0
 35
0.0
146
0.0
 13
0.0
 23
0.0
 33
0.0
 16
1.0
 26
0.0
 36
0.0
 17
0.0
 27
1.0
 37
0.0
 76
0
330
23E
345
0
346
0
  0
ENDSEC
  0
EOF
