  0
SECTION
  2
HEADER
  9
$ACADVER
  1
AC1024
  9
$DWGCODEPAGE
  3
ANSI_1252
  9
$EXTMAX
 10
297.0
 20
210.0
 30
0.0
  9
$EXTMIN
 10
0.0
 20
0.0
 30
0.0
  9
$LIMMIN
 10
0.0
 20
0.0
  9
$LIMMAX
 10
297.0
 20
210.0
  9
$VIEWCTR
 10
148.5
 20
105.0
  9
$VIEWSIZE
 40
210.0
  9
$CLAYER
  8
0
  9
$LTSCALE
 40
16.335
  9
$CELTYPE
  6
BYLAYER
  9
$DIMSCALE
 40
1.0
  9
$DIMASZ
 40
3.0
  9
$DIMEXO
 40
0.5
  9
$DIMDLI
 40
11.286
  9
$DIMEXE
 40
1.5
  9
$DIMCEN
 40
2.673
  9
$DIMLFAC
 40
1.0
  9
$DIMBLK
  1
_FILLED
  9
$DIMALT
 70
0
  9
$DIMALTF
 40
0.0393700787
  9
$DIMTXT
 40
3.0
  9
$DIMTOL
 70
1
  9
$DIMLIM
 70
0
  9
$DIMTFAC
 40
1.0
  9
$DIMTP
 40
0.01
  9
$DIMTM
 40
0.01
  9
$DIMGAP
 40
0.625
  9
$DIMDSEP
 70
44
  9
$AUNITS
 70
0
  9
$PDMODE
 70
3
  9
$PDSIZE
 40
3.0
  9
$HANDSEED
  5
5E9
  9
$TILEMODE
 70
1
  9
$MEASUREMENT
 70
1
  9
$INSUNITS
 70
4
  0
ENDSEC
  0
SECTION
  2
CLASSES
  0
CLASS
  1
ACDBDICTIONARYWDFLT
  2
AcDbDictionaryWithDefault
  3
AutoCAD 2000
 90
0
 91
1
280
0
281
0
  0
CLASS
  1
ACDBPLACEHOLDER
  2
AcDbPlaceHolder
  3
AutoCAD 2000
 90
0
 91
1
280
0
281
0
  0
CLASS
  1
LAYOUT
  2
AcDbLayout
  3
AutoCAD 2000
 90
0
 91
0
280
0
281
0
  0
ENDSEC
  0
SECTION
  2
TABLES
  0
TABLE
  2
VPORT
  5
8
100
AcDbSymbolTable
 70
2
  0
VPORT
  5
1F4
100
AcDbSymbolTableRecord
100
AcDbViewportTableRecord
  2
*ACTIVE
 70
0
 10
0.0
 20
0.0
 11
1.0
 21
1.0
 12
148.5
 22
105.0
 13
0.0
 23
0.0
 14
1.0
 24
1.0
 15
0.0
 25
0.0
 16
0.0
 26
0.0
 36
1.0
 17
0.0
 27
0.0
 37
0.0
 40
210.0
 41
1.4142857143
 42
50.0
 43
0.0
 44
0.0
 50
0.0
 51
0.0
 71
0
 72
100
 73
1
 74
1
 75
0
 76
0
 77
0
 78
0
  0
ENDTAB
  0
TABLE
  2
LTYPE
  5
5
100
AcDbSymbolTable
 70
6
  0
LTYPE
  5
14
100
AcDbSymbolTableRecord
100
AcDbLinetypeTableRecord
  2
BYBLOCK
 70
0
  3

 72
65
 73
0
 40
0.0
  0
LTYPE
  5
15
100
AcDbSymbolTableRecord
100
AcDbLinetypeTableRecord
  2
BYLAYER
 70
0
  3

 72
65
 73
0
 40
0.0
  0
LTYPE
  5
16
100
AcDbSymbolTableRecord
100
AcDbLinetypeTableRecord
  2
CONTINUOUS
 70
64
  3
Solid line
 72
65
 73
0
 40
0.0
  0
LTYPE
  5
1F5
100
AcDbSymbolTableRecord
100
AcDbLinetypeTableRecord
  2
CENTER
 70
64
  3
____ _ ____ _ ____ _ ____ _ ____ _ ____ _ ____
 72
65
 73
4
 40
0.6
 49
0.375
 74
0
 49
-0.075
 74
0
 49
0.075
 74
0
 49
-0.075
 74
0
  0
LTYPE
  5
1F6
100
AcDbSymbolTableRecord
100
AcDbLinetypeTableRecord
  2
HIDDEN
 70
64
  3
- - - - - - - - - - - - - - - - - - - -
 72
65
 73
2
 40
0.2
 49
0.1
 74
0
 49
-0.1
 74
0
  0
LTYPE
  5
1F7
100
AcDbSymbolTableRecord
100
AcDbLinetypeTableRecord
  2
PHANTOM
 70
64
  3
_____ _ _ _____ _ _ _____ _ _ _____
 72
65
 73
6
 40
0.8
 49
0.45
 74
0
 49
-0.05
 74
0
 49
0.1
 74
0
 49
-0.05
 74
0
 49
0.1
 74
0
 49
-0.05
 74
0
  0
LTYPE
  5
1F8
100
AcDbSymbolTableRecord
100
AcDbLinetypeTableRecord
  2
DOT
 70
64
  3
. . . . . . . . . . . . . . . . . . . .
 72
65
 73
2
 40
0.2
 49
0.1
 74
0
 49
-0.1
 74
0
  0
LTYPE
  5
1F9
100
AcDbSymbolTableRecord
100
AcDbLinetypeTableRecord
  2
DASHED
 70
64
  3
- - - - - - - - - - - - - - - - - - - -
 72
65
 73
2
 40
0.2
 49
0.1
 74
0
 49
-0.1
 74
0
  0
ENDTAB
  0
TABLE
  2
LAYER
  5
2
100
AcDbSymbolTable
 70
36
  0
LAYER
  5
10
100
AcDbSymbolTableRecord
100
AcDbLayerTableRecord
  2
0
 70
0
 62
7
  6
CONTINUOUS
370
-3
390
F
  0
LAYER
  5
1FA
100
AcDbSymbolTableRecord
100
AcDbLayerTableRecord
  2
DEFAULT_1
 70
0
 62
7
  6
CENTER
370
-3
390
F
  0
LAYER
  5
1FB
100
AcDbSymbolTableRecord
100
AcDbLayerTableRecord
  2
DEFAULT_2
 70
0
 62
7
  6
HIDDEN
370
-3
390
F
  0
LAYER
  5
1FC
100
AcDbSymbolTableRecord
100
AcDbLayerTableRecord
  2
DEFAULT_3
 70
0
 62
7
  6
PHANTOM
370
-3
390
F
  0
LAYER
  5
1FD
100
AcDbSymbolTableRecord
100
AcDbLayerTableRecord
  2
ASSI
 70
0
 62
7
  6
CONTINUOUS
370
-3
390
F
  0
LAYER
  5
1FE
100
AcDbSymbolTableRecord
100
AcDbLayerTableRecord
  2
COLOR5
 70
0
 62
7
  6
CONTINUOUS
370
-3
390
F
  0
LAYER
  5
1FF
100
AcDbSymbolTableRecord
100
AcDbLayerTableRecord
  2
COORDINATE
 70
0
 62
7
  6
CONTINUOUS
370
-3
390
F
  0
LAYER
  5
200
100
AcDbSymbolTableRecord
100
AcDbLayerTableRecord
  2
COORD_ORIGINE
 70
0
 62
7
  6
CONTINUOUS
370
-3
390
F
  0
LAYER
  5
201
100
AcDbSymbolTableRecord
100
AcDbLayerTableRecord
  2
COPY_PUBLISH
 70
0
 62
7
  6
CONTINUOUS
370
-3
390
F
  0
LAYER
  5
202
100
AcDbSymbolTableRecord
100
AcDbLayerTableRecord
  2
COSMETICI
 70
0
 62
7
  6
CONTINUOUS
370
-3
390
F
  0
LAYER
  5
203
100
AcDbSymbolTableRecord
100
AcDbLayerTableRecord
  2
CURVE
 70
0
 62
7
  6
CONTINUOUS
370
-3
390
F
  0
LAYER
  5
204
100
AcDbSymbolTableRecord
100
AcDbLayerTableRecord
  2
DRAFT
 70
0
 62
7
  6
CONTINUOUS
370
-3
390
F
  0
LAYER
  5
205
100
AcDbSymbolTableRecord
100
AcDbLayerTableRecord
  2
IMPORT_IGES
 70
0
 62
7
  6
CONTINUOUS
370
-3
390
F
  0
LAYER
  5
206
100
AcDbSymbolTableRecord
100
AcDbLayerTableRecord
  2
INTF_1
 70
0
 62
7
  6
CONTINUOUS
370
-3
390
F
  0
LAYER
  5
207
100
AcDbSymbolTableRecord
100
AcDbLayerTableRecord
  2
INTF_11
 70
0
 62
7
  6
CONTINUOUS
370
-3
390
F
  0
LAYER
  5
208
100
AcDbSymbolTableRecord
100
AcDbLayerTableRecord
  2
INTF_2
 70
0
 62
7
  6
CONTINUOUS
370
-3
390
F
  0
LAYER
  5
209
100
AcDbSymbolTableRecord
100
AcDbLayerTableRecord
  2
INTF_8
 70
0
 62
7
  6
CONTINUOUS
370
-3
390
F
  0
LAYER
  5
20A
100
AcDbSymbolTableRecord
100
AcDbLayerTableRecord
  2
NOTE
 70
0
 62
7
  6
CONTINUOUS
370
-3
390
F
  0
LAYER
  5
20B
100
AcDbSymbolTableRecord
100
AcDbLayerTableRecord
  2
PIANI
 70
0
 62
7
  6
CONTINUOUS
370
-3
390
F
  0
LAYER
  5
20C
100
AcDbSymbolTableRecord
100
AcDbLayerTableRecord
  2
PIANI_ORIGINE
 70
0
 62
7
  6
CONTINUOUS
370
-3
390
F
  0
LAYER
  5
20D
100
AcDbSymbolTableRecord
100
AcDbLayerTableRecord
  2
PUNTI
 70
0
 62
7
  6
CONTINUOUS
370
-3
390
F
  0
LAYER
  5
20E
100
AcDbSymbolTableRecord
100
AcDbLayerTableRecord
  2
RACCORDO
 70
0
 62
7
  6
CONTINUOUS
370
-3
390
F
  0
LAYER
  5
20F
100
AcDbSymbolTableRecord
100
AcDbLayerTableRecord
  2
SIMBOLI
 70
0
 62
7
  6
CONTINUOUS
370
-3
390
F
  0
LAYER
  5
210
100
AcDbSymbolTableRecord
100
AcDbLayerTableRecord
  2
SMUSSO
 70
0
 62
7
  6
CONTINUOUS
370
-3
390
F
  0
LAYER
  5
211
100
AcDbSymbolTableRecord
100
AcDbLayerTableRecord
  2
SNAPLINE
 70
0
 62
7
  6
CONTINUOUS
370
-3
390
F
  0
LAYER
  5
212
100
AcDbSymbolTableRecord
100
AcDbLayerTableRecord
  2
SUPERFICI
 70
0
 62
7
  6
CONTINUOUS
370
-3
390
F
  0
LAYER
  5
213
100
AcDbSymbolTableRecord
100
AcDbLayerTableRecord
  2
SVILUPPO
 70
0
 62
7
  6
CONTINUOUS
370
-3
390
F
  0
LAYER
  5
214
100
AcDbSymbolTableRecord
100
AcDbLayerTableRecord
  2
TESTO
 70
0
 62
7
  6
CONTINUOUS
370
-3
390
F
  0
LAYER
  5
215
100
AcDbSymbolTableRecord
100
AcDbLayerTableRecord
  2
TRASH
 70
0
 62
7
  6
CONTINUOUS
370
-3
390
F
  0
ENDTAB
  0
TABLE
  2
STYLE
  5
3
100
AcDbSymbolTable
 70
1
  0
STYLE
  5
11
100
AcDbSymbolTableRecord
100
AcDbTextStyleTableRecord
  2
STANDARD
 70
0
 40
0.0
 41
0.8
 50
0.0
 71
0
 42
0.2
  3
txt
  4

  0
STYLE
  5
216
100
AcDbSymbolTableRecord
100
AcDbTextStyleTableRecord
  2
TEXTSTYLE_1
 70
0
 40
0.0
 41
0.8
 50
0.0
 71
0
 42
0.2
  3
gdt
  4

  0
ENDTAB
  0
TABLE
  2
VIEW
  5
6
100
AcDbSymbolTable
 70
0
  0
ENDTAB
  0
TABLE
  2
UCS
  5
7
100
AcDbSymbolTable
 70
0
  0
ENDTAB
  0
TABLE
  2
APPID
  5
9
100
AcDbSymbolTable
 70
1
  0
APPID
  5
217
100
AcDbSymbolTableRecord
100
AcDbRegAppTableRecord
  2
ACAD
 70
0
  0
ENDTAB
  0
TABLE
  2
BLOCK_RECORD
  5
1
100
AcDbSymbolTable
 70
0
  0
BLOCK_RECORD
  5
218
100
AcDbSymbolTableRecord
100
AcDbBlockTableRecord
  2
*Model_Space
  0
BLOCK_RECORD
  5
219
100
AcDbSymbolTableRecord
100
AcDbBlockTableRecord
  2
*Paper_Space
  0
BLOCK_RECORD
  5
21A
100
AcDbSymbolTableRecord
100
AcDbBlockTableRecord
  2
_FILLED
  0
ENDTAB
  0
TABLE
  2
DIMSTYLE
  5
A
100
AcDbSymbolTable
 70
1
100
AcDbDimStyleTable
 71
0
  0
DIMSTYLE
105
21B
100
AcDbSymbolTableRecord
100
AcDbDimStyleTableRecord
  2
STANDARD
 70
0
  3

  4

 40
1.0
 41
3.0
 42
0.5
 43
0.38
 44
1.5
 45
0.0
 46
0.0
 47
0.01
 48
0.01
140
3.0
141
0.09
142
0.0
143
25.4
144
1.0
145
0.0
146
1.0
147
0.625
 71
1
 72
0
 73
0
 74
0
 75
0
 76
0
 77
1
 78
8
 79
2
170
0
171
1
172
0
173
0
174
0
175
0
176
0
177
0
178
0
270
2
179
2
271
2
272
2
273
2
274
2
275
0
280
0
281
0
282
0
283
1
284
8
285
0
286
0
287
3
288
0
340
11
278
44
341
21A
342
21A
343
21A
344
21A
  0
ENDTAB
  0
ENDSEC
  0
SECTION
  2
BLOCKS
  0
BLOCK
  5
20
100
AcDbEntity
  8
0
100
AcDbBlockBegin
  2
*Model_Space
 70
0
 10
0.0
 20
0.0
 30
0.0
  3
*Model_Space
  1

  0
ENDBLK
  5
21
100
AcDbEntity
  8
0
100
AcDbBlockEnd
  0
BLOCK
  5
1C
100
AcDbEntity
  8
0
100
AcDbBlockBegin
  2
*Paper_Space
 70
0
 10
0.0
 20
0.0
 30
0.0
  3
*Paper_Space
  1

  0
ENDBLK
  5
1D
100
AcDbEntity
  8
0
100
AcDbBlockEnd
  0
BLOCK
  5
21C
100
AcDbEntity
  8
0
100
AcDbBlockBegin
  2
_FILLED
 70
64
 10
0.0
 20
0.0
  3
_FILLED
  1

  0
SOLID
  5
21D
100
AcDbEntity
  8
0
  6
BYBLOCK
 62
0
100
AcDbTrace
 10
0.0
 20
0.0
 11
-1.0
 21
0.3166666667
 12
-1.0
 22
-0.3166666667
 13
-1.0
 23
-0.3166666667
  0
ENDBLK
  5
21E
100
AcDbEntity
  8
0
  6
BYBLOCK
 62
0
100
AcDbBlockEnd
  0
ENDSEC
  0
SECTION
  2
ENTITIES
  0
LWPOLYLINE
  5
21F
100
AcDbEntity
  8
RACCORDO
100
AcDbPolyline
 62
7
  6
CONTINUOUS
 90
21
 70
0
 10
-46.5267776191
 20
54.5203999794
 10
-46.6095703698
 20
54.4662091276
 10
-46.7204141111
 20
54.3837071551
 10
-46.8272849813
 20
54.2921071813
 10
-46.929948832
 20
54.1913703214
 10
-47.027668495
 20
54.0820677087
 10
-47.1202654769
 20
53.9643800101
 10
-47.2076729036
 20
53.8383565152
 10
-47.2895261089
 20
53.7045371883
 10
-47.3657854842
 20
53.5631203622
 10
-47.436469364
 20
53.414197468
 10
-47.5014180299
 20
53.2582606731
 10
-47.5606592349
 20
53.095513685
 10
-47.6142412715
 20
52.9261102504
 10
-47.6620970201
 20
52.7505863195
 10
-47.7042836254
 20
52.5691808868
 10
-47.7408683761
 20
52.382100146
 10
-47.7718453189
 20
52.1899522481
 10
-47.7972782936
 20
51.9931921179
 10
-47.8172717318
 20
51.7920505754
 10
-47.8276109314
 20
51.6557550708
  0
LINE
  5
220
100
AcDbEntity
  8
RACCORDO
100
AcDbLine
 62
7
  6
CONTINUOUS
 10
-46.5267832958
 20
54.5203964742
 11
-36.424301753
 21
60.7679226238
  0
LINE
  5
221
100
AcDbEntity
  8
RACCORDO
100
AcDbLine
 62
250
  6
CONTINUOUS
 10
-43.8582599216
 20
54.0171396283
 11
-33.3726559606
 21
60.5015944051
  0
LWPOLYLINE
  5
222
100
AcDbEntity
  8
RACCORDO
100
AcDbPolyline
 62
250
  6
CONTINUOUS
 90
19
 70
0
 10
-46.5265706347
 20
54.5205280101
 10
-46.4097337321
 20
54.5860814037
 10
-46.2896049539
 20
54.640545132
 10
-46.164628586
 20
54.6847525694
 10
-46.034959816
 20
54.7184910788
 10
-45.9008571878
 20
54.7415318322
 10
-45.762257994
 20
54.7537663225
 10
-45.6192856525
 20
54.7549818633
 10
-45.4722956663
 20
54.7449665996
 10
-45.3215939806
 20
54.7236321375
 10
-45.1674507003
 20
54.6908516354
 10
-45.0102062737
 20
54.6465183649
 10
-44.8503191022
 20
54.5906781581
 10
-44.6881213723
 20
54.5233151389
 10
-44.5240006118
 20
54.4444342751
 10
-44.3585368777
 20
54.3542391201
 10
-44.1921917674
 20
54.2528959039
 10
-44.0252978186
 20
54.1404793528
 10
-43.8582599216
 20
54.0171396283
  0
LWPOLYLINE
  5
223
100
AcDbEntity
  8
RACCORDO
100
AcDbPolyline
 62
250
  6
CONTINUOUS
 90
19
 70
0
 10
-43.8582599216
 20
54.0171396283
 10
-43.8897773785
 20
54.0020539455
 10
-43.9210645136
 20
53.9845876736
 10
-43.9519301148
 20
53.9648475565
 10
-43.9821855462
 20
53.9429542344
 10
-44.0116459004
 20
53.9190415075
 10
-44.0401311285
 20
53.8932555182
 10
-44.0674671416
 20
53.865753857
 10
-44.0934868738
 20
53.8367046001
 10
-44.1180313031
 20
53.8062852832
 10
-44.1409504245
 20
53.7746818141
 10
-44.1621041658
 20
53.7420873382
 10
-44.1813632433
 20
53.7087010587
 10
-44.1986099536
 20
53.6747270171
 10
-44.2137388917
 20
53.6403728469
 10
-44.2266575948
 20
53.6058485069
 10
-44.2372871088
 20
53.5713649949
 10
-44.2455624706
 20
53.5371330578
 10
-44.2514331042
 20
53.503361906
  0
LINE
  5
224
100
AcDbEntity
  8
RACCORDO
100
AcDbLine
 62
7
  6
CONTINUOUS
 10
-33.0974239354
 20
47.038438101
 11
-29.5621524577
 21
49.224703013
  0
LWPOLYLINE
  5
225
100
AcDbEntity
  8
RACCORDO
100
AcDbPolyline
 62
250
  6
CONTINUOUS
 90
19
 70
0
 10
-33.847231092
 20
47.4780892304
 10
-33.874857007
 20
47.4611262397
 10
-33.9021787677
 20
47.4419499116
 10
-33.9290430822
 20
47.4206945961
 10
-33.9554561983
 20
47.3973626782
 10
-33.9811125537
 20
47.3722282989
 10
-34.0054378756
 20
47.3459414534
 10
-34.0282800403
 20
47.318835292
 10
-34.0496583923
 20
47.2910657176
 10
-34.0693504526
 20
47.2631245794
 10
-34.0871201374
 20
47.2356324105
 10
-34.1032667095
 20
47.2084138422
 10
-34.1183236988
 20
47.1807036956
 10
-34.1321955096
 20
47.1527157594
 10
-34.1448845852
 20
47.1244658769
 10
-34.1568236306
 20
47.0948004479
 10
-34.1679413429
 20
47.0634070283
 10
-34.177835035
 20
47.0308538869
 10
-34.1862680414
 20
46.9973249082
  0
LWPOLYLINE
  5
226
100
AcDbEntity
  8
RACCORDO
100
AcDbPolyline
 62
250
  6
CONTINUOUS
 90
19
 70
0
 10
-33.6428142926
 20
47.1104484044
 10
-33.6542711389
 20
47.1037463141
 10
-33.6654732943
 20
47.0962644989
 10
-33.6764207615
 20
47.0880029407
 10
-33.6872205484
 20
47.0788252148
 10
-33.6977656577
 20
47.0688676775
 10
-33.7077350845
 20
47.0585394806
 10
-33.717058418
 20
47.0478517038
 10
-33.7258060826
 20
47.036793179
 10
-33.7338683222
 20
47.0257397152
 10
-33.741140663
 20
47.014872992
 10
-33.7477275866
 20
47.0040112788
 10
-33.7538327674
 20
46.9929852861
 10
-33.7595053794
 20
46.9818581424
 10
-33.7646962598
 20
46.9705666462
 10
-33.7694615844
 20
46.9587519701
 10
-33.7738200898
 20
46.9462944324
 10
-33.7777530674
 20
46.9333135349
 10
-33.7812605322
 20
46.9198091814
  0
LINE
  5
227
100
AcDbEntity
  8
RACCORDO
100
AcDbLine
 62
250
  6
CONTINUOUS
 10
-33.8472310919
 20
47.4780892304
 11
-28.8347520129
 21
50.1814404304
  0
LINE
  5
228
100
AcDbEntity
  8
RACCORDO
100
AcDbLine
 62
250
  6
CONTINUOUS
 10
-28.8418469717
 20
49.6997451739
 11
-33.6428142926
 21
47.1104484044
  0
LINE
  5
229
100
AcDbEntity
  8
RACCORDO
100
AcDbLine
 62
250
  6
CONTINUOUS
 10
-42.7009267553
 20
43.4043890151
 11
-42.6786610089
 21
43.416362813
  0
LWPOLYLINE
  5
22A
100
AcDbEntity
  8
RACCORDO
100
AcDbPolyline
 62
250
  6
CONTINUOUS
 90
37
 70
0
 10
-47.7630414474
 20
51.5131219491
 10
-47.7460432212
 20
51.7147500771
 10
-47.7240540277
 20
51.9086732985
 10
-47.6970462561
 20
52.0949017075
 10
-47.6649935538
 20
52.2731223256
 10
-47.6278552109
 20
52.4436726486
 10
-47.5855726162
 20
52.6075419428
 10
-47.5380115992
 20
52.7653818312
 10
-47.4852046032
 20
52.9165778812
 10
-47.4273400007
 20
53.0602213502
 10
-47.3643339851
 20
53.1962859111
 10
-47.2961634369
 20
53.324836982
 10
-47.2231172475
 20
53.4450999686
 10
-47.1451213952
 20
53.5570404
 10
-47.0621462022
 20
53.6607306584
 10
-46.9745614093
 20
53.7555511896
 10
-46.8823305547
 20
53.8414624537
 10
-46.7853973507
 20
53.9185378986
 10
-46.684118398
 20
53.986321384
 10
-46.5784874881
 20
54.0448124796
 10
-46.4684297218
 20
54.0940412677
 10
-46.3542131405
 20
54.1335920831
 10
-46.2357574607
 20
54.1635049166
 10
-46.1130690807
 20
54.183766789
 10
-45.9865633102
 20
54.1938762758
 10
-45.8560890605
 20
54.1937986926
 10
-45.7217419382
 20
54.1835890075
 10
-45.5843369258
 20
54.1628694431
 10
-45.4438113404
 20
54.1315301065
 10
-45.3002132127
 20
54.0896862473
 10
-45.1545651328
 20
54.0372826165
 10
-45.0068534218
 20
53.9741835181
 10
-44.8571311834
 20
53.9005102348
 10
-44.7065671327
 20
53.8165761862
 10
-44.5555897812
 20
53.7224716096
 10
-44.4038635486
 20
53.6180722931
 10
-44.2514331043
 20
53.503361906
  0
LWPOLYLINE
  5
22B
100
AcDbEntity
  8
RACCORDO
100
AcDbPolyline
 62
250
  6
CONTINUOUS
 90
3
 70
0
 10
-42.6951188382
 20
43.4294682406
 10
-42.6980256828
 20
43.4182455375
 10
-42.7009291487
 20
43.404387728
  0
LINE
  5
22C
100
AcDbEntity
  8
RACCORDO
100
AcDbLine
 62
250
  6
CONTINUOUS
 10
-26.3188712
 20
47.8220041283
 11
-26.1501703351
 21
47.912725994
  0
LWPOLYLINE
  5
22D
100
AcDbEntity
  8
RACCORDO
100
AcDbPolyline
 62
250
  6
CONTINUOUS
 90
3
 70
0
 10
-42.7009267553
 20
43.4043890151
 10
-42.7224630907
 20
43.3959296805
 10
-42.7457207613
 20
43.3886960791
  0
LWPOLYLINE
  5
22E
100
AcDbEntity
  8
RACCORDO
100
AcDbPolyline
 62
250
  6
CONTINUOUS
 90
7
 70
0
 10
-47.8274091887
 20
-5.8242383482
 10
-47.82597496
 20
-5.8376025207
 10
-47.820405489
 20
-5.8637934986
 10
-47.8112477896
 20
-5.8894319586
 10
-47.7985686928
 20
-5.9143307969
 10
-47.7824607279
 20
-5.9383083072
 10
-47.7630414474
 20
-5.9611895067
  0
LWPOLYLINE
  5
22F
100
AcDbEntity
  8
RACCORDO
100
AcDbPolyline
 62
7
  6
CONTINUOUS
 90
37
 70
0
 10
-47.8274109066
 20
-5.8242146197
 10
-47.8154140154
 20
-5.9701270208
 10
-47.7935561001
 20
-6.1786891181
 10
-47.7658515363
 20
-6.3915956008
 10
-47.7323484302
 20
-6.608363057
 10
-47.6930901113
 20
-6.8286256633
 10
-47.6481012046
 20
-7.0521119635
 10
-47.5974225667
 20
-7.2784114173
 10
-47.5411144714
 20
-7.5070780738
 10
-47.4792185018
 20
-7.7377581505
 10
-47.4117968637
 20
-7.9699931344
 10
-47.3389307963
 20
-8.2033208405
 10
-47.2606853073
 20
-8.4373648624
 10
-47.1771500987
 20
-8.671658759
 10
-47.0884300301
 20
-8.9057478755
 10
-46.9946091317
 20
-9.1392619285
 10
-46.8958026593
 20
-9.371740261
 10
-46.7921426912
 20
-9.6027355315
 10
-46.6837333117
 20
-9.8318888343
 10
-46.570715532
 20
-10.0587530072
 10
-46.4532475127
 20
-10.2828949654
 10
-46.3314518183
 20
-10.5039673165
 10
-46.2054943811
 20
-10.7215369228
 10
-46.075560692
 20
-10.9351879482
 10
-45.9417934216
 20
-11.144587561
 10
-45.8043879617
 20
-11.349316663
 10
-45.6635563557
 20
-11.5489822021
 10
-45.5194537024
 20
-11.743277358
 10
-45.3723065263
 20
-11.9317987583
 10
-45.2223592195
 20
-12.1141735175
 10
-45.0697760196
 20
-12.2901253768
 10
-44.9148166123
 20
-12.4592671833
 10
-44.7577376238
 20
-12.6212593726
 10
-44.5986720886
 20
-12.775879207
 10
-44.4378509524
 20
-12.9228037513
 10
-44.2756511143
 20
-13.0616143877
 10
-44.1612049427
 20
-13.1539596529
  0
LINE
  5
230
100
AcDbEntity
  8
RACCORDO
100
AcDbLine
 62
250
  6
CONTINUOUS
 10
-47.7630414474
 20
-5.9611895067
 11
-47.8091651742
 21
-5.325842935
  0
LINE
  5
231
100
AcDbEntity
  8
RACCORDO
100
AcDbLine
 62
250
  6
CONTINUOUS
 10
-47.8091651742
 20
-5.325842935
 11
-47.8527006931
 21
-4.7021908048
  0
LINE
  5
232
100
AcDbEntity
  8
RACCORDO
100
AcDbLine
 62
250
  6
CONTINUOUS
 10
-47.8527006931
 20
-4.7021908048
 11
-47.8940161783
 21
-4.0857066545
  0
LWPOLYLINE
  5
233
100
AcDbEntity
  8
RACCORDO
100
AcDbPolyline
 62
250
  6
CONTINUOUS
 90
7
 70
0
 10
-48.552082732
 20
22.4851277415
 10
-48.5506591682
 20
22.4634474765
 10
-48.5457106323
 20
22.4392782467
 10
-48.5372526855
 20
22.415434611
 10
-48.5253454586
 20
22.3920860812
 10
-48.5100736043
 20
22.3693986269
 10
-48.4915456964
 20
22.3475335243
  0
LINE
  5
234
100
AcDbEntity
  8
RACCORDO
100
AcDbLine
 62
250
  6
CONTINUOUS
 10
-47.8940161783
 20
-4.0857066545
 11
-47.9343336767
 21
-3.4571758218
  0
LINE
  5
235
100
AcDbEntity
  8
RACCORDO
100
AcDbLine
 62
250
  6
CONTINUOUS
 10
-47.9343336767
 20
-3.4571758218
 11
-47.9729844994
 21
-2.82494144
  0
LINE
  5
236
100
AcDbEntity
  8
RACCORDO
100
AcDbLine
 62
250
  6
CONTINUOUS
 10
-47.9729844994
 20
-2.82494144
 11
-48.0097876581
 21
-2.1908600356
  0
LINE
  5
237
100
AcDbEntity
  8
RACCORDO
100
AcDbLine
 62
250
  6
CONTINUOUS
 10
-48.0097876581
 20
-2.1908600356
 11
-48.0445946346
 21
-1.5564934491
  0
LINE
  5
238
100
AcDbEntity
  8
RACCORDO
100
AcDbLine
 62
250
  6
CONTINUOUS
 10
-48.0445946346
 20
-1.5564934491
 11
-48.0774907879
 21
-0.9214236248
  0
LINE
  5
239
100
AcDbEntity
  8
RACCORDO
100
AcDbLine
 62
250
  6
CONTINUOUS
 10
-48.0774907879
 20
-0.9214236248
 11
-48.1085468654
 21
-0.2855571225
  0
LINE
  5
23A
100
AcDbEntity
  8
RACCORDO
100
AcDbLine
 62
250
  6
CONTINUOUS
 10
-48.1085468654
 20
-0.2855571225
 11
-48.1378571721
 21
0.3514104878
  0
LINE
  5
23B
100
AcDbEntity
  8
RACCORDO
100
AcDbLine
 62
250
  6
CONTINUOUS
 10
-48.1378571721
 20
0.3514104878
 11
-48.1654972413
 21
0.9894754304
  0
LINE
  5
23C
100
AcDbEntity
  8
RACCORDO
100
AcDbLine
 62
250
  6
CONTINUOUS
 10
-48.1654972413
 20
0.9894754304
 11
-48.1915317284
 21
1.6286420775
  0
LINE
  5
23D
100
AcDbEntity
  8
RACCORDO
100
AcDbLine
 62
250
  6
CONTINUOUS
 10
-48.1915317284
 20
1.6286420775
 11
-48.2160346958
 21
2.2688881086
  0
LINE
  5
23E
100
AcDbEntity
  8
RACCORDO
100
AcDbLine
 62
250
  6
CONTINUOUS
 10
-48.2160346958
 20
2.2688881086
 11
-48.2390646496
 21
2.9103356312
  0
LINE
  5
23F
100
AcDbEntity
  8
RACCORDO
100
AcDbLine
 62
250
  6
CONTINUOUS
 10
-48.2390646496
 20
2.9103356312
 11
-48.2606578542
 21
3.5530286706
  0
LINE
  5
240
100
AcDbEntity
  8
RACCORDO
100
AcDbLine
 62
250
  6
CONTINUOUS
 10
-48.2606578542
 20
3.5530286706
 11
-48.2808394787
 21
4.197055579
  0
LINE
  5
241
100
AcDbEntity
  8
RACCORDO
100
AcDbLine
 62
250
  6
CONTINUOUS
 10
-48.2808394787
 20
4.197055579
 11
-48.2995657178
 21
4.842235865
  0
LINE
  5
242
100
AcDbEntity
  8
RACCORDO
100
AcDbLine
 62
250
  6
CONTINUOUS
 10
-48.2995657178
 20
4.842235865
 11
-48.3167956959
 21
5.4885921609
  0
LINE
  5
243
100
AcDbEntity
  8
RACCORDO
100
AcDbLine
 62
250
  6
CONTINUOUS
 10
-48.3167956959
 20
5.4885921609
 11
-48.3324286313
 21
6.1359934099
  0
LINE
  5
244
100
AcDbEntity
  8
RACCORDO
100
AcDbLine
 62
250
  6
CONTINUOUS
 10
-48.3324286313
 20
6.1359934099
 11
-48.3464272227
 21
6.7861398564
  0
LINE
  5
245
100
AcDbEntity
  8
RACCORDO
100
AcDbLine
 62
250
  6
CONTINUOUS
 10
-48.3464272227
 20
6.7861398564
 11
-48.3648799223
 21
7.7719306648
  0
LINE
  5
246
100
AcDbEntity
  8
RACCORDO
100
AcDbLine
 62
250
  6
CONTINUOUS
 10
-48.3648799223
 20
7.7719306648
 11
-48.3815419669
 21
8.7875273346
  0
LINE
  5
247
100
AcDbEntity
  8
RACCORDO
100
AcDbLine
 62
250
  6
CONTINUOUS
 10
-48.3815419669
 20
8.7875273346
 11
-48.4030588445
 21
10.2402692405
  0
LINE
  5
248
100
AcDbEntity
  8
RACCORDO
100
AcDbLine
 62
250
  6
CONTINUOUS
 10
-48.4030588445
 20
10.2402692405
 11
-48.4255718729
 21
11.8891712091
  0
LINE
  5
249
100
AcDbEntity
  8
RACCORDO
100
AcDbLine
 62
250
  6
CONTINUOUS
 10
-48.4255718729
 20
11.8891712091
 11
-48.4432363961
 21
13.2878062366
  0
LINE
  5
24A
100
AcDbEntity
  8
RACCORDO
100
AcDbLine
 62
250
  6
CONTINUOUS
 10
-48.4432363961
 20
13.2878062366
 11
-48.4604343923
 21
14.8187340421
  0
LINE
  5
24B
100
AcDbEntity
  8
RACCORDO
100
AcDbLine
 62
250
  6
CONTINUOUS
 10
-48.4604343923
 20
14.8187340421
 11
-48.4707396102
 21
15.9063761598
  0
LINE
  5
24C
100
AcDbEntity
  8
RACCORDO
100
AcDbLine
 62
250
  6
CONTINUOUS
 10
-48.4707396102
 20
15.9063761598
 11
-48.4794175752
 21
17.0519437604
  0
LINE
  5
24D
100
AcDbEntity
  8
RACCORDO
100
AcDbLine
 62
250
  6
CONTINUOUS
 10
-48.4794175752
 20
17.0519437604
 11
-48.4859011868
 21
18.2591088831
  0
LINE
  5
24E
100
AcDbEntity
  8
RACCORDO
100
AcDbLine
 62
250
  6
CONTINUOUS
 10
-48.4859011868
 20
18.2591088831
 11
-48.4897443545
 21
19.5324535101
  0
LWPOLYLINE
  5
24F
100
AcDbEntity
  8
RACCORDO
100
AcDbPolyline
 62
7
  6
CONTINUOUS
 90
10
 70
0
 10
-48.5520828094
 20
22.4851278577
 10
-48.5470374999
 20
18.9393408912
 10
-48.5238239852
 20
15.4437434418
 10
-48.4843682545
 20
12.0585082601
 10
-48.4360117543
 20
8.7789896964
 10
-48.3723123909
 20
5.6080801315
 10
-48.2788865591
 20
2.5555096471
 10
-48.1558293267
 20
-0.3780624613
 10
-48.0029854346
 20
-3.1920196997
 10
-47.8274091887
 20
-5.8242383482
  0
LINE
  5
250
100
AcDbEntity
  8
RACCORDO
100
AcDbLine
 62
250
  6
CONTINUOUS
 10
-48.4897443545
 20
19.5324535101
 11
-48.4913116713
 21
20.8934818784
  0
LINE
  5
251
100
AcDbEntity
  8
RACCORDO
100
AcDbLine
 62
250
  6
CONTINUOUS
 10
-48.4913116713
 20
20.8934818784
 11
-48.4900937247
 21
24.9917042868
  0
LINE
  5
252
100
AcDbEntity
  8
RACCORDO
100
AcDbLine
 62
250
  6
CONTINUOUS
 10
-48.4900937247
 20
24.9917042868
 11
-48.4866079697
 21
26.2717330037
  0
LINE
  5
253
100
AcDbEntity
  8
RACCORDO
100
AcDbLine
 62
250
  6
CONTINUOUS
 10
-48.4866079697
 20
26.2717330037
 11
-48.4804694696
 21
27.4970443788
  0
LINE
  5
254
100
AcDbEntity
  8
RACCORDO
100
AcDbLine
 62
250
  6
CONTINUOUS
 10
-48.4804694696
 20
27.4970443788
 11
-48.472200223
 21
28.6445066206
  0
LINE
  5
255
100
AcDbEntity
  8
RACCORDO
100
AcDbLine
 62
250
  6
CONTINUOUS
 10
-48.472200223
 20
28.6445066206
 11
-48.4625619506
 21
29.7067415066
  0
LINE
  5
256
100
AcDbEntity
  8
RACCORDO
100
AcDbLine
 62
250
  6
CONTINUOUS
 10
-48.4625619506
 20
29.7067415066
 11
-48.4487137272
 21
31.0015087845
  0
LINE
  5
257
100
AcDbEntity
  8
RACCORDO
100
AcDbLine
 62
250
  6
CONTINUOUS
 10
-48.4487137272
 20
31.0015087845
 11
-48.4272350199
 21
32.7619108504
  0
LINE
  5
258
100
AcDbEntity
  8
RACCORDO
100
AcDbLine
 62
250
  6
CONTINUOUS
 10
-48.4272350199
 20
32.7619108504
 11
-48.4010231844
 21
34.7152420962
  0
LINE
  5
259
100
AcDbEntity
  8
RACCORDO
100
AcDbLine
 62
250
  6
CONTINUOUS
 10
-48.4010231844
 20
34.7152420962
 11
-48.3806831661
 21
36.1065466479
  0
LINE
  5
25A
100
AcDbEntity
  8
RACCORDO
100
AcDbLine
 62
250
  6
CONTINUOUS
 10
-48.3806831661
 20
36.1065466479
 11
-48.3626049162
 21
37.2211291395
  0
LINE
  5
25B
100
AcDbEntity
  8
RACCORDO
100
AcDbLine
 62
250
  6
CONTINUOUS
 10
-48.3626049162
 20
37.2211291395
 11
-48.3472040873
 21
38.058380059
  0
LINE
  5
25C
100
AcDbEntity
  8
RACCORDO
100
AcDbLine
 62
250
  6
CONTINUOUS
 10
-48.3472040873
 20
38.058380059
 11
-48.3294620455
 21
38.8965287167
  0
LINE
  5
25D
100
AcDbEntity
  8
RACCORDO
100
AcDbLine
 62
250
  6
CONTINUOUS
 10
-48.3294620455
 20
38.8965287167
 11
-48.3090636663
 21
39.7364151125
  0
LINE
  5
25E
100
AcDbEntity
  8
RACCORDO
100
AcDbLine
 62
250
  6
CONTINUOUS
 10
-48.3090636663
 20
39.7364151125
 11
-48.285986709
 21
40.5844971367
  0
LWPOLYLINE
  5
25F
100
AcDbEntity
  8
RACCORDO
100
AcDbPolyline
 62
250
  6
CONTINUOUS
 90
8
 70
0
 10
-47.8276109314
 20
51.6557550708
 10
-47.8279155568
 20
51.6457714901
 10
-47.8259749289
 20
51.623127868
 10
-47.8204054345
 20
51.6004796675
 10
-47.8112477228
 20
51.5779921705
 10
-47.7985686287
 20
51.5558294854
 10
-47.782460685
 20
51.5341533494
 10
-47.7630414474
 20
51.5131219491
  0
LINE
  5
260
100
AcDbEntity
  8
RACCORDO
100
AcDbLine
 62
250
  6
CONTINUOUS
 10
-48.285986709
 20
40.5844971367
 11
-48.2597727916
 21
41.4580470814
  0
LINE
  5
261
100
AcDbEntity
  8
RACCORDO
100
AcDbLine
 62
250
  6
CONTINUOUS
 10
-48.2597727916
 20
41.4580470814
 11
-48.2291890061
 21
42.3889718826
  0
LINE
  5
262
100
AcDbEntity
  8
RACCORDO
100
AcDbLine
 62
250
  6
CONTINUOUS
 10
-48.2291890061
 20
42.3889718826
 11
-48.205281171
 21
43.0641753323
  0
LINE
  5
263
100
AcDbEntity
  8
RACCORDO
100
AcDbLine
 62
250
  6
CONTINUOUS
 10
-48.205281171
 20
43.0641753323
 11
-48.1776999073
 21
43.7952272575
  0
LINE
  5
264
100
AcDbEntity
  8
RACCORDO
100
AcDbLine
 62
250
  6
CONTINUOUS
 10
-48.1776999073
 20
43.7952272575
 11
-48.1454232218
 21
44.5951057762
  0
LINE
  5
265
100
AcDbEntity
  8
RACCORDO
100
AcDbLine
 62
250
  6
CONTINUOUS
 10
-48.1454232218
 20
44.5951057762
 11
-48.1076729398
 21
45.465439566
  0
LWPOLYLINE
  5
266
100
AcDbEntity
  8
RACCORDO
100
AcDbPolyline
 62
250
  6
CONTINUOUS
 90
11
 70
0
 10
-48.1076729398
 20
45.465439566
 10
-48.063591171
 20
46.4069450819
 10
-48.038900028
 20
46.903655949
 10
-48.0122822674
 20
47.4177844773
 10
-47.983628856
 20
47.9491029569
 10
-47.9528461445
 20
48.4970567817
 10
-47.919826302
 20
49.0622742167
 10
-47.8844480085
 20
49.6462985735
 10
-47.8465938152
 20
50.249672443
 10
-47.8061606312
 20
50.8719338611
 10
-47.7630414474
 20
51.5131219491
  0
LWPOLYLINE
  5
267
100
AcDbEntity
  8
RACCORDO
100
AcDbPolyline
 62
7
  6
CONTINUOUS
 90
10
 70
0
 10
-47.8276088689
 20
51.6557860562
 10
-48.0034293555
 20
48.8092497048
 10
-48.156150525
 20
45.8136296618
 10
-48.2791094975
 20
42.7337805573
 10
-48.3724589775
 20
39.5701548668
 10
-48.4361051708
 20
36.3235571091
 10
-48.4844366162
 20
32.9865741124
 10
-48.5238699206
 20
29.5544921464
 10
-48.5470572831
 20
26.0314358562
 10
-48.5520827299
 20
22.4853007617
  0
LINE
  5
268
100
AcDbEntity
  8
RACCORDO
100
AcDbLine
 62
7
  6
CONTINUOUS
 10
-47.8276088689
 20
51.6557860562
 11
-47.8276109314
 21
51.6557550708
  0
LWPOLYLINE
  5
269
100
AcDbEntity
  8
RACCORDO
100
AcDbPolyline
 62
250
  6
CONTINUOUS
 90
21
 70
0
 10
-42.7009267553
 20
43.4043890151
 10
-42.755886123
 20
42.7552345608
 10
-42.8071690439
 20
42.1163507382
 10
-42.8547755179
 20
41.4877375474
 10
-42.8983955351
 20
40.8725154731
 10
-42.9383391056
 20
40.2675640307
 10
-42.975536259
 20
39.6635217655
 10
-43.0102305676
 20
39.0572167868
 10
-43.0421784592
 20
38.4518209854
 10
-43.071579247
 20
37.8474885794
 10
-43.0984003872
 20
37.2443088447
 10
-43.1226744236
 20
36.6421925053
 10
-43.1446983008
 20
36.0410259521
 10
-43.1644416836
 20
35.4406394303
 10
-43.1819349071
 20
34.8412026946
 10
-43.1975659217
 20
34.2431113992
 10
-43.2113043644
 20
33.6464197435
 10
-43.223180598
 20
33.0510735281
 10
-43.2336736619
 20
32.4573058091
 10
-43.2428045942
 20
31.8655304435
 10
-43.2573328739
 20
30.6857066868
  0
LWPOLYLINE
  5
26A
100
AcDbEntity
  8
RACCORDO
100
AcDbPolyline
 62
250
  6
CONTINUOUS
 90
23
 70
0
 10
-43.1539848333
 20
43.4554711983
 10
-43.2100137575
 20
42.8051801385
 10
-43.2619419861
 20
42.1652903366
 10
-43.3099519894
 20
41.5357350835
 10
-43.354015096
 20
40.9195317567
 10
-43.3945439296
 20
40.3135226099
 10
-43.4322421449
 20
39.7084297086
 10
-43.4673320845
 20
39.1010831251
 10
-43.4996805357
 20
38.494620202
 10
-43.5293408736
 20
37.8892666642
 10
-43.5563983942
 20
37.2850662197
 10
-43.5809498629
 20
36.6819086009
 10
-43.603093881
 20
36.0797783246
 10
-43.6229518954
 20
35.4784472832
 10
-43.6406407484
 20
34.8780564685
 10
-43.6562831694
 20
34.2791326999
 10
-43.67003977
 20
33.6816711945
 10
-43.6820781531
 20
33.0855567435
 10
-43.6925448992
 20
32.4911456427
 10
-43.7016152703
 20
31.8988025473
 10
-43.7094645785
 20
31.3080346361
 10
-43.7162120712
 20
30.7179220097
 10
-43.7268894542
 20
29.539334263
  0
LINE
  5
26B
100
AcDbEntity
  8
RACCORDO
100
AcDbLine
 62
250
  6
CONTINUOUS
 10
-34.9852391306
 20
38.6226417262
 11
-35.2991299811
 21
38.4655170144
  0
LINE
  5
26C
100
AcDbEntity
  8
RACCORDO
100
AcDbLine
 62
7
  6
CONTINUOUS
 10
-35.3434234422
 20
38.3710544496
 11
-34.9963806005
 21
38.5447755197
  0
LINE
  5
26D
100
AcDbEntity
  8
RACCORDO
100
AcDbLine
 62
250
  6
CONTINUOUS
 10
-35.3722586352
 20
38.3589015698
 11
-35.3804753404
 21
38.3556400036
  0
LWPOLYLINE
  5
26E
100
AcDbEntity
  8
RACCORDO
100
AcDbPolyline
 62
250
  6
CONTINUOUS
 90
7
 70
0
 10
-35.3102384792
 20
38.4608779939
 10
-35.3083606319
 20
38.4615344738
 10
-35.3064933571
 20
38.4622376297
 10
-35.3046366546
 20
38.4629874616
 10
-35.3027905245
 20
38.4637839697
 10
-35.3009549666
 20
38.464627154
 10
-35.2991299811
 20
38.4655170144
  0
LWPOLYLINE
  5
26F
100
AcDbEntity
  8
RACCORDO
100
AcDbPolyline
 62
7
  6
CONTINUOUS
 90
6
 70
0
 10
-35.3804753404
 20
38.3556400036
 10
-35.3791234749
 20
38.3560962216
 10
-35.3684302426
 20
38.3599819596
 10
-35.3577773519
 20
38.3643514272
 10
-35.3471938002
 20
38.3692007955
 10
-35.3434381476
 20
38.3710470319
  0
LWPOLYLINE
  5
270
100
AcDbEntity
  8
RACCORDO
100
AcDbPolyline
 62
250
  6
CONTINUOUS
 90
40
 70
0
 10
-35.3101151551
 20
38.4609245028
 10
-35.3172118743
 20
38.4586887726
 10
-35.3242742751
 20
38.4567286938
 10
-35.3312777066
 20
38.4550276904
 10
-35.338138065
 20
38.4535811612
 10
-35.3448949546
 20
38.4523566798
 10
-35.3517218364
 20
38.4513107028
 10
-35.3586057543
 20
38.4504411634
 10
-35.3655434112
 20
38.4497442192
 10
-35.3727415033
 20
38.4492032283
 10
-35.3802489903
 20
38.448828614
 10
-35.3880169501
 20
38.4486367927
 10
-35.3961150695
 20
38.4486410064
 10
-35.4045583595
 20
38.4488597313
 10
-35.413329014
 20
38.4493108323
 10
-35.4224484459
 20
38.4500143975
 10
-35.4319136013
 20
38.4509905735
 10
-35.4417161539
 20
38.4522587257
 10
-35.4518677127
 20
38.4538416621
 10
-35.4623569393
 20
38.4557601138
 10
-35.4731723768
 20
38.4580342984
 10
-35.4843221725
 20
38.4606897062
 10
-35.4957838651
 20
38.4637461035
 10
-35.5075428547
 20
38.4672244329
 10
-35.5196141664
 20
38.4711564254
 10
-35.5319675367
 20
38.4755618184
 10
-35.5445781994
 20
38.4804617021
 10
-35.5574618342
 20
38.4858958488
 10
-35.5705790673
 20
38.4918850467
 10
-35.583890054
 20
38.4984479059
 10
-35.597398482
 20
38.5056270356
 10
-35.6110457619
 20
38.5134369816
 10
-35.6247812084
 20
38.5218977352
 10
-35.6386037554
 20
38.5310660556
 10
-35.6524332286
 20
38.5409579978
 10
-35.6661967648
 20
38.5515783908
 10
-35.6798788533
 20
38.5629725237
 10
-35.6933881445
 20
38.5751583804
 10
-35.7065426839
 20
38.5881273656
 10
-35.7191588244
 20
38.6018836885
  0
LWPOLYLINE
  5
271
100
AcDbEntity
  8
RACCORDO
100
AcDbPolyline
 62
7
  6
CONTINUOUS
 90
27
 70
0
 10
13.5682687386
 20
-48.5665411973
 10
14.0481806087
 20
-48.4956988689
 10
14.1411053874
 20
-48.4826508541
 10
14.2330983528
 20
-48.4702913379
 10
14.3241888945
 20
-48.4587497768
 10
14.4144026439
 20
-48.4481540915
 10
14.5037180281
 20
-48.4386294896
 10
14.5921174094
 20
-48.4302953744
 10
14.6795861458
 20
-48.4232805141
 10
14.7660972516
 20
-48.4177123499
 10
14.8515961842
 20
-48.4137121653
 10
14.9360027386
 20
-48.411394931
 10
15.0191665557
 20
-48.4108741332
 10
15.1009073213
 20
-48.4122541922
 10
15.1810552061
 20
-48.4156272782
 10
15.2593769203
 20
-48.4210550207
 10
15.3354813401
 20
-48.4285495622
 10
15.4092075734
 20
-48.4381242255
 10
15.4805360952
 20
-48.4498021648
 10
15.5490964216
 20
-48.4635026023
 10
15.6146360813
 20
-48.4791332867
 10
15.6772063805
 20
-48.496667695
 10
15.7364876822
 20
-48.5159318257
 10
15.7923024544
 20
-48.5367508785
 10
15.8448715856
 20
-48.5590975164
 10
15.8941592442
 20
-48.5828157871
 10
15.9412957657
 20
-48.6084045097
  0
LWPOLYLINE
  5
272
100
AcDbEntity
  8
RACCORDO
100
AcDbPolyline
 62
250
  6
CONTINUOUS
 90
31
 70
0
 10
13.915194394
 20
-48.3458981553
 10
13.536174167
 20
-48.3933624099
 10
13.4471434326
 20
-48.4040669412
 10
13.3600832632
 20
-48.4141311827
 10
13.2749865774
 20
-48.4234381219
 10
13.1919956973
 20
-48.4318544765
 10
13.1109559716
 20
-48.4393641026
 10
13.0319523039
 20
-48.4458800467
 10
12.9549857725
 20
-48.4513246256
 10
12.8797783851
 20
-48.4556952265
 10
12.8063827744
 20
-48.4589269691
 10
12.7348106121
 20
-48.4609609665
 10
12.6647384993
 20
-48.4617814717
 10
12.5961239124
 20
-48.4613276375
 10
12.5290762995
 20
-48.4595368521
 10
12.463514256
 20
-48.4563702052
 10
12.3992829448
 20
-48.4517704061
 10
12.3365970631
 20
-48.445683173
 10
12.2759037404
 20
-48.4381139048
 10
12.2170120824
 20
-48.4290569885
 10
12.1600976975
 20
-48.4185230228
 10
12.106062313
 20
-48.4066902033
 10
12.0549265487
 20
-48.3937268031
 10
12.0064922888
 20
-48.379725993
 10
11.9612269238
 20
-48.3649219255
 10
11.9191680651
 20
-48.349575774
 10
11.8800155082
 20
-48.3338288459
 10
11.8436906879
 20
-48.3178006507
 10
11.8100858358
 20
-48.3016586367
 10
11.7790677909
 20
-48.285610881
 10
11.7505240104
 20
-48.2698334651
  0
LWPOLYLINE
  5
273
100
AcDbEntity
  8
RACCORDO
100
AcDbPolyline
 62
250
  6
CONTINUOUS
 90
8
 70
0
 10
-43.0465099909
 20
17.2969155813
 10
-43.0457727356
 20
17.2812583759
 10
-43.0412141806
 20
17.2550266628
 10
-43.0325292092
 20
17.2291442061
 10
-43.019790265
 20
17.2038215232
 10
-43.003103606
 20
17.1792680062
 10
-42.9826084185
 20
17.1556901599
 10
-42.9584756564
 20
17.1332845102
  0
LWPOLYLINE
  5
274
100
AcDbEntity
  8
RACCORDO
100
AcDbPolyline
 62
250
  6
CONTINUOUS
 90
21
 70
0
 10
-43.1308529687
 20
-0.7006122647
 10
-43.1151257651
 20
-1.0951782958
 10
-43.097318415
 20
-1.5055079171
 10
-43.0774652219
 20
-1.9329824441
 10
-43.0555318824
 20
-2.3762205612
 10
-43.0306903639
 20
-2.8375348167
 10
-43.0028641287
 20
-3.3189165272
 10
-42.9721297146
 20
-3.8183743762
 10
-42.9378887015
 20
-4.3322469623
 10
-42.9001885856
 20
-4.8597045554
 10
-42.8589818707
 20
-5.4015768857
 10
-42.8135276487
 20
-5.9566917423
 10
-42.7639739634
 20
-6.5237750473
 10
-42.710172771
 20
-7.1041008787
 10
-42.6509390315
 20
-7.7003192597
 10
-42.5863744218
 20
-8.3122754446
 10
-42.5163772651
 20
-8.9401241791
 10
-42.4394574909
 20
-9.5869797237
 10
-42.3551184092
 20
-10.253880165
 10
-42.26385671
 20
-10.9397874164
 10
-42.1656723935
 20
-11.6447014779
  0
LWPOLYLINE
  5
275
100
AcDbEntity
  8
RACCORDO
100
AcDbPolyline
 62
250
  6
CONTINUOUS
 90
22
 70
0
 10
-43.6036245512
 20
-0.2958877757
 10
-43.5891379629
 20
-0.6819137773
 10
-43.573176142
 20
-1.0772388059
 10
-43.555324549
 20
-1.4885361841
 10
-43.5353172332
 20
-1.9170085508
 10
-43.5130030099
 20
-2.361203915
 10
-43.4880264757
 20
-2.8237460974
 10
-43.4599926705
 20
-3.3064439612
 10
-43.4287156964
 20
-3.8071414223
 10
-43.3941358304
 20
-4.3225041725
 10
-43.3560428924
 20
-4.8515470274
 10
-43.3141123735
 20
-5.394935549
 10
-43.2681504834
 20
-5.9518339211
 10
-43.2179881388
 20
-6.5207764244
 10
-43.1632261969
 20
-7.1028891081
 10
-43.1032839106
 20
-7.701198782
 10
-43.0378526098
 20
-8.3153013984
 10
-42.9665786095
 20
-8.9452050672
 10
-42.8886918565
 20
-9.5944820354
 10
-42.8036200135
 20
-10.2641343633
 10
-42.7110921037
 20
-10.9526558805
 10
-42.6107046096
 20
-11.6598053753
  0
LINE
  5
276
100
AcDbEntity
  8
RACCORDO
100
AcDbLine
 62
250
  6
CONTINUOUS
 10
-43.158329429
 20
0.0605695228
 11
-43.1308529687
 21
-0.7006122647
  0
LINE
  5
277
100
AcDbEntity
  8
RACCORDO
100
AcDbLine
 62
250
  6
CONTINUOUS
 10
-43.6286333998
 20
0.448043932
 11
-43.6036245512
 21
-0.2958877757
  0
LINE
  5
278
100
AcDbEntity
  8
RACCORDO
100
AcDbLine
 62
250
  6
CONTINUOUS
 10
-43.180936665
 20
0.7910373948
 11
-43.158329429
 21
0.0605695228
  0
LINE
  5
279
100
AcDbEntity
  8
RACCORDO
100
AcDbLine
 62
250
  6
CONTINUOUS
 10
-43.649632671
 20
1.1751533119
 11
-43.6286333998
 21
0.448043932
  0
LINE
  5
27A
100
AcDbEntity
  8
RACCORDO
100
AcDbLine
 62
250
  6
CONTINUOUS
 10
-43.2001319567
 20
1.5123051258
 11
-43.180936665
 21
0.7910373948
  0
LINE
  5
27B
100
AcDbEntity
  8
RACCORDO
100
AcDbLine
 62
250
  6
CONTINUOUS
 10
-43.667397873
 20
1.8957284368
 11
-43.649632671
 21
1.1751533119
  0
LINE
  5
27C
100
AcDbEntity
  8
RACCORDO
100
AcDbLine
 62
250
  6
CONTINUOUS
 10
-43.2165039978
 20
2.2350087157
 11
-43.2001319567
 21
1.5123051258
  0
LINE
  5
27D
100
AcDbEntity
  8
RACCORDO
100
AcDbLine
 62
250
  6
CONTINUOUS
 10
-43.6825745141
 20
2.6225980708
 11
-43.667397873
 21
1.8957284368
  0
LINE
  5
27E
100
AcDbEntity
  8
RACCORDO
100
AcDbLine
 62
250
  6
CONTINUOUS
 10
-43.2304011927
 20
2.963056937
 11
-43.2165039978
 21
2.2350087157
  0
LINE
  5
27F
100
AcDbEntity
  8
RACCORDO
100
AcDbLine
 62
250
  6
CONTINUOUS
 10
-43.6954084126
 20
3.3542547389
 11
-43.6825745141
 21
2.6225980708
  0
LINE
  5
280
100
AcDbEntity
  8
RACCORDO
100
AcDbLine
 62
250
  6
CONTINUOUS
 10
-43.2421452336
 20
3.6966061609
 11
-43.2304011927
 21
2.963056937
  0
LINE
  5
281
100
AcDbEntity
  8
RACCORDO
100
AcDbLine
 62
250
  6
CONTINUOUS
 10
-43.710857486
 20
4.4567572652
 11
-43.6954084126
 21
3.3542547389
  0
LINE
  5
282
100
AcDbEntity
  8
RACCORDO
100
AcDbLine
 62
250
  6
CONTINUOUS
 10
-43.2562092596
 20
4.7975193037
 11
-43.2421452336
 21
3.6966061609
  0
LINE
  5
283
100
AcDbEntity
  8
RACCORDO
100
AcDbLine
 62
250
  6
CONTINUOUS
 10
-43.7224049512
 20
5.555917964
 11
-43.710857486
 21
4.4567572652
  0
LINE
  5
284
100
AcDbEntity
  8
RACCORDO
100
AcDbLine
 62
250
  6
CONTINUOUS
 10
-42.9306134973
 20
3.8765400162
 11
-42.9413030866
 21
4.9890688089
  0
LINE
  5
285
100
AcDbEntity
  8
RACCORDO
100
AcDbLine
 62
250
  6
CONTINUOUS
 10
-43.266708271
 20
5.893924686
 11
-43.2562092596
 21
4.7975193037
  0
LINE
  5
286
100
AcDbEntity
  8
RACCORDO
100
AcDbLine
 62
250
  6
CONTINUOUS
 10
-43.7331628533
 20
7.0222968106
 11
-43.7224049512
 21
5.555917964
  0
LINE
  5
287
100
AcDbEntity
  8
RACCORDO
100
AcDbLine
 62
250
  6
CONTINUOUS
 10
-42.9413030866
 20
4.9890688089
 11
-42.948799908
 21
6.102732746
  0
LINE
  5
288
100
AcDbEntity
  8
RACCORDO
100
AcDbLine
 62
250
  6
CONTINUOUS
 10
-43.2765452774
 20
7.3679148497
 11
-43.266708271
 21
5.893924686
  0
LINE
  5
289
100
AcDbEntity
  8
RACCORDO
100
AcDbLine
 62
250
  6
CONTINUOUS
 10
-42.948799908
 20
6.102732746
 11
-42.9537993669
 21
7.2183468019
  0
LINE
  5
28A
100
AcDbEntity
  8
RACCORDO
100
AcDbLine
 62
250
  6
CONTINUOUS
 10
-43.7414455299
 20
8.9521693602
 11
-43.7331628533
 21
7.0222968106
  0
LINE
  5
28B
100
AcDbEntity
  8
RACCORDO
100
AcDbLine
 62
250
  6
CONTINUOUS
 10
-43.2841801467
 20
9.3358804411
 11
-43.2765452774
 21
7.3679148497
  0
LINE
  5
28C
100
AcDbEntity
  8
RACCORDO
100
AcDbLine
 62
250
  6
CONTINUOUS
 10
-42.9537993669
 20
7.2183468019
 11
-42.9569202515
 21
8.3363767944
  0
LWPOLYLINE
  5
28D
100
AcDbEntity
  8
RACCORDO
100
AcDbPolyline
 62
7
  6
CONTINUOUS
 90
10
 70
0
 10
-42.4803023257
 20
42.6744849349
 10
-42.4802831874
 20
42.6638573796
 10
-42.4776747736
 20
42.6497020573
 10
-42.4722300777
 20
42.6347842764
 10
-42.4638456697
 20
42.619028808
 10
-42.4526240039
 20
42.6025121627
 10
-42.4389132772
 20
42.585668394
 10
-42.4228295042
 20
42.5686422604
 10
-42.4042562237
 20
42.5512896072
 10
-42.3831931755
 20
42.5336107869
  0
LWPOLYLINE
  5
28E
100
AcDbEntity
  8
RACCORDO
100
AcDbPolyline
 62
7
  6
CONTINUOUS
 90
13
 70
0
 10
-43.0473150102
 20
10.8591048889
 10
-43.0450272184
 20
8.767236902
 10
-43.0383431408
 20
6.7142256041
 10
-43.0244359732
 20
4.7016705093
 10
-42.9997864263
 20
2.7316833479
 10
-42.9601473587
 20
0.8068858874
 10
-42.9008011298
 20
-1.0696624558
 10
-42.8179093587
 20
-2.8950822837
 10
-42.7094319136
 20
-4.6673794034
 10
-42.5748629125
 20
-6.3854332584
 10
-42.414911008
 20
-8.0490139172
 10
-42.231066852
 20
-9.6585134251
 10
-42.0339211223
 20
-11.1546682188
  0
LINE
  5
28F
100
AcDbEntity
  8
RACCORDO
100
AcDbLine
 62
250
  6
CONTINUOUS
 10
-43.7460241059
 20
11.6218812673
 11
-43.7414455299
 21
8.9521693602
  0
LINE
  5
290
100
AcDbEntity
  8
RACCORDO
100
AcDbLine
 62
250
  6
CONTINUOUS
 10
-42.9569202515
 20
8.3363767944
 11
-42.9591276888
 21
10.0201093112
  0
LINE
  5
291
100
AcDbEntity
  8
RACCORDO
100
AcDbLine
 62
250
  6
CONTINUOUS
 10
-43.2882817557
 20
12.0866709205
 11
-43.2841801467
 21
9.3358804411
  0
LINE
  5
292
100
AcDbEntity
  8
RACCORDO
100
AcDbLine
 62
7
  6
CONTINUOUS
 10
-43.0474319537
 20
21.9213443988
 11
-43.0465099909
 21
17.2969428905
  0
LINE
  5
293
100
AcDbEntity
  8
RACCORDO
100
AcDbLine
 62
250
  6
CONTINUOUS
 10
-43.746352048
 20
14.7800487521
 11
-43.7460241059
 21
11.6218812673
  0
LINE
  5
294
100
AcDbEntity
  8
RACCORDO
100
AcDbLine
 62
250
  6
CONTINUOUS
 10
-43.2881127381
 20
15.9142494502
 11
-43.2882817557
 21
12.0866709205
  0
LINE
  5
295
100
AcDbEntity
  8
RACCORDO
100
AcDbLine
 62
7
  6
CONTINUOUS
 10
-43.0465099913
 20
17.2969155913
 11
-43.0473150102
 21
10.8591048889
  0
LINE
  5
296
100
AcDbEntity
  8
RACCORDO
100
AcDbLine
 62
250
  6
CONTINUOUS
 10
-42.9591276888
 20
10.0201093112
 11
-42.9593283923
 21
12.8143828433
  0
LINE
  5
297
100
AcDbEntity
  8
RACCORDO
100
AcDbLine
 62
250
  6
CONTINUOUS
 10
-42.9593283923
 20
12.8143828433
 11
-42.9590970733
 21
24.2907319897
  0
LINE
  5
298
100
AcDbEntity
  8
RACCORDO
100
AcDbLine
 62
250
  6
CONTINUOUS
 10
-43.7443014041
 20
25.4269403342
 11
-43.746352048
 21
14.7800487521
  0
LINE
  5
299
100
AcDbEntity
  8
RACCORDO
100
AcDbLine
 62
250
  6
CONTINUOUS
 10
-43.2860294204
 20
25.3976828848
 11
-43.2881127381
 21
15.9142494502
  0
LINE
  5
29A
100
AcDbEntity
  8
RACCORDO
100
AcDbLine
 62
250
  6
CONTINUOUS
 10
-42.9590970733
 20
24.2907319897
 11
-42.9568465681
 21
25.9680671621
  0
LINE
  5
29B
100
AcDbEntity
  8
RACCORDO
100
AcDbLine
 62
250
  6
CONTINUOUS
 10
-42.9568465681
 20
25.9680671621
 11
-42.9536953644
 21
27.0857187532
  0
LINE
  5
29C
100
AcDbEntity
  8
RACCORDO
100
AcDbLine
 62
250
  6
CONTINUOUS
 10
-43.7397479895
 20
27.1811301999
 11
-43.7443014041
 21
25.4269403342
  0
LINE
  5
29D
100
AcDbEntity
  8
RACCORDO
100
AcDbLine
 62
250
  6
CONTINUOUS
 10
-43.2812210317
 20
27.1511365614
 11
-43.2860294204
 21
25.3976828848
  0
LINE
  5
29E
100
AcDbEntity
  8
RACCORDO
100
AcDbLine
 62
250
  6
CONTINUOUS
 10
-43.7345110352
 20
28.3600746743
 11
-43.7397479895
 21
27.1811301999
  0
LINE
  5
29F
100
AcDbEntity
  8
RACCORDO
100
AcDbLine
 62
250
  6
CONTINUOUS
 10
-43.2758636489
 20
28.3294488212
 11
-43.2812210317
 21
27.1511365614
  0
LINE
  5
2A0
100
AcDbEntity
  8
RACCORDO
100
AcDbLine
 62
250
  6
CONTINUOUS
 10
-42.9536953644
 20
27.0857187532
 11
-42.9486683094
 21
28.2017381156
  0
LINE
  5
2A1
100
AcDbEntity
  8
RACCORDO
100
AcDbLine
 62
250
  6
CONTINUOUS
 10
-43.7268894542
 20
29.539334263
 11
-43.7345110352
 21
28.3600746743
  0
LINE
  5
2A2
100
AcDbEntity
  8
RACCORDO
100
AcDbLine
 62
250
  6
CONTINUOUS
 10
-43.2680705386
 20
29.5079913566
 11
-43.2758636489
 21
28.3294488212
  0
LINE
  5
2A3
100
AcDbEntity
  8
RACCORDO
100
AcDbLine
 62
250
  6
CONTINUOUS
 10
-42.9486683094
 20
28.2017381156
 11
-42.9411448857
 21
29.3203079166
  0
LINE
  5
2A4
100
AcDbEntity
  8
RACCORDO
100
AcDbLine
 62
250
  6
CONTINUOUS
 10
-43.2573328739
 20
30.6857066868
 11
-43.2680705386
 21
29.5079913566
  0
LWPOLYLINE
  5
2A5
100
AcDbEntity
  8
RACCORDO
100
AcDbPolyline
 62
250
  6
CONTINUOUS
 90
22
 70
0
 10
-42.9411448857
 20
29.3203079166
 10
-42.9304377268
 20
30.4426976873
 10
-42.9236195399
 20
31.0055962636
 10
-42.9157020593
 20
31.5691832418
 10
-42.9065630268
 20
32.1331311169
 10
-42.8960532921
 20
32.6978666177
 10
-42.8840385442
 20
33.2641496414
 10
-42.8703772703
 20
33.8315551981
 10
-42.8548984594
 20
34.4006225328
 10
-42.8373923037
 20
34.9735693195
 10
-42.81768023
 20
35.5502664621
 10
-42.795593739
 20
36.1309699426
 10
-42.7708745637
 20
36.7184982917
 10
-42.7433648559
 20
37.3121903972
 10
-42.7128599095
 20
37.9128399172
 10
-42.67892453
 20
38.5254865245
 10
-42.6413463235
 20
39.149494035
 10
-42.5998399176
 20
39.7856806107
 10
-42.5536923523
 20
40.4413289703
 10
-42.5023783123
 20
41.118971853
 10
-42.4456725013
 20
41.8163509349
 10
-42.3831897264
 20
42.5336070384
  0
LWPOLYLINE
  5
2A6
100
AcDbEntity
  8
RACCORDO
100
AcDbPolyline
 62
7
  6
CONTINUOUS
 90
11
 70
0
 10
-42.4802999065
 20
42.6744840644
 10
-42.6276186
 20
40.8497160423
 10
-42.7564029202
 20
38.8975512071
 10
-42.8577855856
 20
36.9101336437
 10
-42.9325727261
 20
34.8880070958
 10
-42.9836572635
 20
32.8303536906
 10
-43.0159377579
 20
30.7346697678
 10
-43.0344957702
 20
28.5982222844
 10
-43.0436810152
 20
26.4186240003
 10
-43.0470704921
 20
24.1935614094
 10
-43.0474319537
 20
21.9213443988
  0
LWPOLYLINE
  5
2A7
100
AcDbEntity
  8
RACCORDO
100
AcDbPolyline
 62
250
  6
CONTINUOUS
 90
9
 70
0
 10
-35.3101134996
 20
38.4609250572
 10
-35.3133110921
 20
38.4430550239
 10
-35.3179542567
 20
38.4263165564
 10
-35.3239916102
 20
38.4108948962
 10
-35.3313563397
 20
38.3969607127
 10
-35.3399669432
 20
38.3846682139
 10
-35.3497281319
 20
38.3741534394
 10
-35.3605318832
 20
38.3655327561
 10
-35.3722586352
 20
38.3589015698
  0
LWPOLYLINE
  5
2A8
100
AcDbEntity
  8
RACCORDO
100
AcDbPolyline
 62
7
  6
CONTINUOUS
 90
9
 70
0
 10
-33.7752704477
 20
45.0978373725
 10
-33.8963199499
 20
44.5135115798
 10
-34.0129664563
 20
43.9349974384
 10
-34.125209967
 20
43.3622949481
 10
-34.2330188822
 20
42.7953762337
 10
-34.3364248017
 20
42.2342691704
 10
-34.4355225248
 20
41.6790573845
 10
-34.5303436513
 20
41.1297687512
 10
-34.6208565814
 20
40.5863753952
  0
LWPOLYLINE
  5
2A9
100
AcDbEntity
  8
RACCORDO
100
AcDbPolyline
 62
7
  6
CONTINUOUS
 90
9
 70
0
 10
-33.7752704477
 20
45.0978373725
 10
-33.7731156097
 20
45.1076704654
 10
-33.7708073636
 20
45.1174010846
 10
-33.7683460682
 20
45.1270255795
 10
-33.7657310843
 20
45.1365415653
 10
-33.7629639586
 20
45.145944277
 10
-33.7600485402
 20
45.1552266476
 10
-33.7569866781
 20
45.1643841426
 10
-33.7537781047
 20
45.1734146829
  0
LINE
  5
2AA
100
AcDbEntity
  8
RACCORDO
100
AcDbLine
 62
7
  6
CONTINUOUS
 10
-33.526033788
 20
46.0926104066
 11
-33.6501258547
 21
45.5207703817
  0
LWPOLYLINE
  5
2AB
100
AcDbEntity
  8
RACCORDO
100
AcDbPolyline
 62
250
  6
CONTINUOUS
 90
16
 70
0
 10
-33.7812605322
 20
46.9198091814
 10
-33.9364562703
 20
46.2123889827
 10
-34.0830829977
 20
45.5263811248
 10
-34.2211247525
 20
44.8619459072
 10
-34.3501385943
 20
44.2198963852
 10
-34.4705344715
 20
43.5997131979
 10
-34.5835767771
 20
42.9995364204
 10
-34.6893162096
 20
42.4192419136
 10
-34.7876714277
 20
41.8591801942
 10
-34.8797109028
 20
41.318181345
 10
-34.9654281099
 20
40.7964396779
 10
-35.0448005557
 20
40.2939496897
 10
-35.1188746755
 20
39.8092273045
 10
-35.187991032
 20
39.3418289064
 10
-35.2517832245
 20
38.8923560405
 10
-35.3102384792
 20
38.4608779939
  0
LWPOLYLINE
  5
2AC
100
AcDbEntity
  8
RACCORDO
100
AcDbPolyline
 62
250
  6
CONTINUOUS
 90
16
 70
0
 10
-34.1861411812
 20
46.9973346986
 10
-34.341568261
 20
46.297361197
 10
-34.4877760532
 20
45.6187943157
 10
-34.6251419901
 20
44.9614960696
 10
-34.7539954509
 20
44.3257060841
 10
-34.8747528013
 20
43.7109120978
 10
-34.9878955281
 20
43.1158579559
 10
-35.0937918929
 20
42.540237669
 10
-35.192752219
 20
41.9841091434
 10
-35.2851330547
 20
41.4467759711
 10
-35.3712396624
 20
40.9282202133
 10
-35.4514091149
 20
40.4282249784
 10
-35.5260078408
 20
39.945809261
 10
-35.5953395766
 20
39.4805796709
 10
-35.6596640265
 20
39.0327236106
 10
-35.7192569029
 20
38.6021402829
  0
LINE
  5
2AD
100
AcDbEntity
  8
RACCORDO
100
AcDbLine
 62
7
  6
CONTINUOUS
 10
-33.4237688552
 20
46.553784324
 11
-33.526033788
 21
46.0926104066
  0
LWPOLYLINE
  5
2AE
100
AcDbEntity
  8
RACCORDO
100
AcDbPolyline
 62
7
  6
CONTINUOUS
 90
10
 70
0
 10
-33.6501258547
 20
45.5207703817
 10
-33.6589338611
 20
45.4813199887
 10
-33.6683355844
 20
45.4422879436
 10
-33.6783298047
 20
45.4036889889
 10
-33.6889219142
 20
45.365524938
 10
-33.700103574
 20
45.3278230568
 10
-33.7118509661
 20
45.2906348925
 10
-33.7241527485
 20
45.2539855594
 10
-33.7370118094
 20
45.2178749
 10
-33.7537781047
 20
45.1734146829
  0
LWPOLYLINE
  5
2AF
100
AcDbEntity
  8
RACCORDO
100
AcDbPolyline
 62
7
  6
CONTINUOUS
 90
19
 70
0
 10
-33.4237688552
 20
46.553784324
 10
-33.4159012871
 20
46.5855134881
 10
-33.406508032
 20
46.6172781466
 10
-33.3955890901
 20
46.6490782994
 10
-33.3830483138
 20
46.6811365437
 10
-33.3689818506
 20
46.7132302823
 10
-33.3536781429
 20
46.744691724
 10
-33.3371554163
 20
46.7754163162
 10
-33.3193954452
 20
46.8055086116
 10
-33.3006319954
 20
46.8346144768
 10
-33.2808708581
 20
46.862719218
 10
-33.2601062421
 20
46.8898375291
 10
-33.23855454
 20
46.9156593587
 10
-33.216129526
 20
46.9402408389
 10
-33.1929174259
 20
46.9635258376
 10
-33.1693933098
 20
46.9850359079
 10
-33.1457155343
 20
47.0046115674
 10
-33.1217257429
 20
47.0224122984
 10
-33.0974239354
 20
47.038438101
  0
LWPOLYLINE
  5
2B0
100
AcDbEntity
  8
RACCORDO
100
AcDbPolyline
 62
7
  6
CONTINUOUS
 90
13
 70
0
 10
-34.727462951
 20
39.9648470208
 10
-34.7251401914
 20
39.9718862226
 10
-34.7229697023
 20
39.9788392204
 10
-34.720944102
 20
39.9856983959
 10
-34.7190715556
 20
39.9923979719
 10
-34.7173279301
 20
39.9989885448
 10
-34.7156646832
 20
40.0056425608
 10
-34.7140825806
 20
40.0123586003
 10
-34.7125810599
 20
40.0191350812
 10
-34.7111237028
 20
40.0261536622
 10
-34.7097064526
 20
40.0334787588
 10
-34.7083497673
 20
40.0410524815
 10
-34.6208565814
 20
40.5863753952
  0
LINE
  5
2B1
100
AcDbEntity
  8
RACCORDO
100
AcDbLine
 62
7
  6
CONTINUOUS
 10
-34.727462951
 20
39.9648470208
 11
-34.8401509492
 21
39.6300182112
  0
LWPOLYLINE
  5
2B2
100
AcDbEntity
  8
RACCORDO
100
AcDbPolyline
 62
250
  6
CONTINUOUS
 90
3
 70
0
 10
-33.0838751203
 20
27.530625736
 10
-33.0631677766
 20
27.5657742725
 10
-33.0274366868
 20
27.6175925764
  0
LWPOLYLINE
  5
2B3
100
AcDbEntity
  8
RACCORDO
100
AcDbPolyline
 62
7
  6
CONTINUOUS
 90
3
 70
0
 10
-32.9089000458
 20
27.6525860462
 10
-32.8907316295
 20
27.6804965444
 10
-32.8462816139
 20
27.7371111301
  0
LWPOLYLINE
  5
2B4
100
AcDbEntity
  8
RACCORDO
100
AcDbPolyline
 62
250
  6
CONTINUOUS
 90
3
 70
0
 10
-33.0274366868
 20
27.6175925764
 10
-32.9882654203
 20
27.6661121585
 10
-32.9456949071
 20
27.7110196151
  0
LWPOLYLINE
  5
2B5
100
AcDbEntity
  8
RACCORDO
100
AcDbPolyline
 62
7
  6
CONTINUOUS
 90
3
 70
0
 10
-32.8462816139
 20
27.7371111301
 10
-32.797700986
 20
27.7883521683
 10
-32.7452588564
 20
27.8338948582
  0
LWPOLYLINE
  5
2B6
100
AcDbEntity
  8
RACCORDO
100
AcDbPolyline
 62
250
  6
CONTINUOUS
 90
5
 70
0
 10
-32.9456949071
 20
27.7110196151
 10
-32.9001744811
 20
27.7517079032
 10
-32.851809567
 20
27.788043684
 10
-32.8006980518
 20
27.8199204007
 10
-32.7737951284
 20
27.8343322811
  0
LINE
  5
2B7
100
AcDbEntity
  8
RACCORDO
100
AcDbLine
 62
7
  6
CONTINUOUS
 10
-32.7452588564
 20
27.8338948582
 11
-32.7027147769
 21
27.8637631154
  0
LWPOLYLINE
  5
2B8
100
AcDbEntity
  8
RACCORDO
100
AcDbPolyline
 62
7
  6
CONTINUOUS
 90
19
 70
0
 10
-32.9334679524
 20
27.6376917433
 10
-32.9968360384
 20
27.5967262372
 10
-33.0581109278
 20
27.551883232
 10
-33.1170455275
 20
27.5032575274
 10
-33.1732993668
 20
27.451065624
 10
-33.2267587807
 20
27.395355971
 10
-33.277487276
 20
27.3359407738
 10
-33.3252894174
 20
27.272859781
 10
-33.3698623202
 20
27.2063224734
 10
-33.4110691195
 20
27.1363294872
 10
-33.4486668079
 20
27.0630626504
 10
-33.4824701459
 20
26.9866422435
 10
-33.5124038393
 20
26.9069020467
 10
-33.5382940198
 20
26.8238081425
 10
-33.5598701827
 20
26.7376563801
 10
-33.5769246585
 20
26.6486847619
 10
-33.5892959657
 20
26.557024364
 10
-33.5968329076
 20
26.4627581898
 10
-33.5993795402
 20
26.3660113279
  0
LWPOLYLINE
  5
2B9
100
AcDbEntity
  8
RACCORDO
100
AcDbPolyline
 62
250
  6
CONTINUOUS
 90
8
 70
0
 10
29.3725965004
 20
-55.997200799
 10
29.3512915011
 20
-55.9895915164
 10
29.3322778285
 20
-55.9801524974
 10
29.3157607244
 20
-55.9689858266
 10
29.3019185242
 20
-55.9562123304
 10
29.2909004449
 20
-55.9419700158
 10
29.2828251717
 20
-55.9264124826
 10
29.2816408966
 20
-55.9233477367
  0
LWPOLYLINE
  5
2BA
100
AcDbEntity
  8
RACCORDO
100
AcDbPolyline
 62
250
  6
CONTINUOUS
 90
16
 70
0
 10
-41.2328356644
 20
-14.9954456644
 10
-41.1063672145
 20
-15.1805928365
 10
-41.0990909413
 20
-15.1919491877
 10
-41.0922324446
 20
-15.2033099888
 10
-41.0857953994
 20
-15.2146635745
 10
-41.0797764918
 20
-15.226021826
 10
-41.0741653968
 20
-15.237420158
 10
-41.0689305021
 20
-15.2488845389
 10
-41.0641036973
 20
-15.2603891662
 10
-41.0597699353
 20
-15.2718918134
 10
-41.0558987569
 20
-15.2834651551
 10
-41.052520959
 20
-15.2950367186
 10
-41.0498135751
 20
-15.3063466744
 10
-41.0478358835
 20
-15.3173085724
 10
-41.0465292331
 20
-15.3280092376
 10
-41.0458938884
 20
-15.3384488282
  0
LWPOLYLINE
  5
2BB
100
AcDbEntity
  8
RACCORDO
100
AcDbPolyline
 62
250
  6
CONTINUOUS
 90
16
 70
0
 10
-40.7507778509
 20
-14.9149952486
 10
-40.7335666359
 20
-14.9439063346
 10
-40.7174621717
 20
-14.9731865378
 10
-40.702509929
 20
-15.0026926574
 10
-40.6888149241
 20
-15.0321171248
 10
-40.6763272495
 20
-15.061489037
 10
-40.6649122046
 20
-15.0911811984
 10
-40.6546436672
 20
-15.1210962327
 10
-40.6456155316
 20
-15.1510561499
 10
-40.6378371738
 20
-15.1812952206
 10
-40.631414285
 20
-15.2117668957
 10
-40.6265183691
 20
-15.2421331491
 10
-40.6233036453
 20
-15.2721549961
 10
-40.6218928693
 20
-15.3015941411
 10
-40.6223820729
 20
-15.3302108361
 10
-40.6248668011
 20
-15.3577442402
  0
LWPOLYLINE
  5
2BC
100
AcDbEntity
  8
RACCORDO
100
AcDbPolyline
 62
250
  6
CONTINUOUS
 90
8
 70
0
 10
-42.0331208378
 20
-11.1599087799
 10
-42.0273259792
 20
-11.1853849958
 10
-42.0184731191
 20
-11.2102342067
 10
-42.0066176699
 20
-11.2343008752
 10
-41.9918338378
 20
-11.2574343623
 10
-41.9742141588
 20
-11.2794898699
 10
-41.9538689188
 20
-11.3003293471
 10
-41.9309254639
 20
-11.3198223545
  0
LWPOLYLINE
  5
2BD
100
AcDbEntity
  8
RACCORDO
100
AcDbPolyline
 62
250
  6
CONTINUOUS
 90
22
 70
0
 10
-42.1656723935
 20
-11.6447014779
 10
-42.1415236022
 20
-11.7877907906
 10
-42.1128863026
 20
-11.9325866921
 10
-42.0799258102
 20
-12.0787656067
 10
-42.0429681878
 20
-12.2254609932
 10
-42.0020707765
 20
-12.3729128641
 10
-41.9568369718
 20
-12.52253517
 10
-41.9070442743
 20
-12.6747799593
 10
-41.852920727
 20
-12.8287401542
 10
-41.7946212271
 20
-12.9838383323
 10
-41.7324321916
 20
-13.1392988091
 10
-41.6662511004
 20
-13.295397753
 10
-41.5955813965
 20
-13.4531362273
 10
-41.5202961997
 20
-13.61246166
 10
-41.4404950423
 20
-13.7729155163
 10
-41.3558745203
 20
-13.9348756868
 10
-41.2661237408
 20
-14.0985321063
 10
-41.1714755211
 20
-14.2630809124
 10
-41.0724756425
 20
-14.4273989704
 10
-40.969388499
 20
-14.5909074065
 10
-40.8621233719
 20
-14.7535494898
 10
-40.7507778355
 20
-14.914995233
  0
LWPOLYLINE
  5
2BE
100
AcDbEntity
  8
RACCORDO
100
AcDbPolyline
 62
250
  6
CONTINUOUS
 90
21
 70
0
 10
-42.6107046096
 20
-11.6598053753
 10
-42.5856898539
 20
-11.8139650823
 10
-42.5562328825
 20
-11.9692942104
 10
-42.5223140418
 20
-12.1257810111
 10
-42.4839506493
 20
-12.2830834452
 10
-42.4410821196
 20
-12.4415176876
 10
-42.3935643391
 20
-12.6020547649
 10
-42.3412031883
 20
-12.7653633584
 10
-42.2841249162
 20
-12.9307342156
 10
-42.2226654135
 20
-13.0970711339
 10
-42.1570347944
 20
-13.263800055
 10
-42.0869658795
 20
-13.4314609251
 10
-42.0120787558
 20
-13.6006286304
 10
-41.932295536
 20
-13.7715179958
 10
-41.8476146657
 20
-13.9438667084
 10
-41.7577626978
 20
-14.1175291445
 10
-41.6623705132
 20
-14.2930417047
 10
-41.5617156497
 20
-14.4698132436
 10
-41.4565088965
 20
-14.6460153374
 10
-41.3469753053
 20
-14.8210314111
 10
-41.2328356644
 20
-14.9954456644
  0
LWPOLYLINE
  5
2BF
100
AcDbEntity
  8
RACCORDO
100
AcDbPolyline
 62
250
  6
CONTINUOUS
 90
10
 70
0
 10
-41.0458929133
 20
-15.3384479991
 10
-41.0426145175
 20
-15.3591993246
 10
-41.0383820951
 20
-15.3784909635
 10
-41.0332311205
 20
-15.3962500625
 10
-41.0272227358
 20
-15.4123693936
 10
-41.0203871638
 20
-15.4268339019
 10
-41.0126930147
 20
-15.439689153
 10
-41.0041571939
 20
-15.450871768
 10
-40.9948186011
 20
-15.4602818053
 10
-40.9867594225
 20
-15.4665098278
  0
LWPOLYLINE
  5
2C0
100
AcDbEntity
  8
RACCORDO
100
AcDbPolyline
 62
7
  6
CONTINUOUS
 90
37
 70
0
 10
-42.0339271373
 20
-11.1546252992
 10
-42.0133220422
 20
-11.2897426681
 10
-41.9780001303
 20
-11.4846186439
 10
-41.9356931428
 20
-11.6825107718
 10
-41.8865277376
 20
-11.8829659463
 10
-41.8306190051
 20
-12.0856498645
 10
-41.768057186
 20
-12.2903126784
 10
-41.6989547822
 20
-12.4965890204
 10
-41.6234495064
 20
-12.7040816049
 10
-41.5416581026
 20
-12.9124625205
 10
-41.4537178344
 20
-13.1213360025
 10
-41.3597898681
 20
-13.3303021137
 10
-41.2600223954
 20
-13.5390091346
 10
-41.1545843864
 20
-13.7470590024
 10
-41.0436644403
 20
-13.9540672848
 10
-40.9274356579
 20
-14.1596921506
 10
-40.8060967288
 20
-14.3635472925
 10
-40.6798687712
 20
-14.5652618637
 10
-40.5489516024
 20
-14.764510742
 10
-40.4135738909
 20
-14.9609287166
 10
-40.2739889879
 20
-15.1541662657
 10
-40.13042514
 20
-15.3439176815
 10
-39.9831418852
 20
-15.5298421992
 10
-39.8324226452
 20
-15.7116172999
 10
-39.6785211293
 20
-15.8889624323
 10
-39.5217251762
 20
-16.0615651651
 10
-39.3623436991
 20
-16.2291329901
 10
-39.2006490003
 20
-16.391414973
 10
-39.0369557101
 20
-16.5481259502
 10
-38.8715931804
 20
-16.699004733
 10
-38.7048380799
 20
-16.843837233
 10
-38.5370220472
 20
-16.9823673905
 10
-38.3684709138
 20
-17.1143743406
 10
-38.1994269862
 20
-17.2396972863
 10
-38.0302001613
 20
-17.3581308023
 10
-37.8612050198
 20
-17.4694245866
 10
-37.7488163817
 20
-17.5395670498
  0
LINE
  5
2C1
100
AcDbEntity
  8
RACCORDO
100
AcDbLine
 62
7
  6
CONTINUOUS
 10
-42.0339271373
 20
-11.1546252992
 11
-42.0339211223
 21
-11.1546682188
  0
LWPOLYLINE
  5
2C2
100
AcDbEntity
  8
RACCORDO
100
AcDbPolyline
 62
250
  6
CONTINUOUS
 90
29
 70
0
 10
-41.9309254639
 20
-11.3198223545
 10
-42.0065959011
 20
-10.7789705046
 10
-42.0783024411
 20
-10.2423005262
 10
-42.1461284356
 20
-9.7098622448
 10
-42.2098803441
 20
-9.1841893545
 10
-42.2699796277
 20
-8.6628844059
 10
-42.3273118466
 20
-8.1385286004
 10
-42.3821450477
 20
-7.6080974782
 10
-42.4341187421
 20
-7.0745602398
 10
-42.4830945941
 20
-6.539440103
 10
-42.5290740157
 20
-6.0032121044
 10
-42.5721347133
 20
-5.4654485021
 10
-42.6122945872
 20
-4.9263433306
 10
-42.6495875429
 20
-4.3860603605
 10
-42.6840872537
 20
-3.8445001286
 10
-42.7158750519
 20
-3.3014640783
 10
-42.7450286394
 20
-2.7570307954
 10
-42.7716419518
 20
-2.2112242943
 10
-42.7958129121
 20
-1.6637595215
 10
-42.817652684
 20
-1.11457043
 10
-42.8372731506
 20
-0.5638563983
 10
-42.8547832249
 20
-0.0117364363
 10
-42.87034155
 20
0.5418631338
 10
-42.8840976181
 20
1.0966844394
 10
-42.8961713528
 20
1.6520963571
 10
-42.9067179197
 20
2.2078933551
 10
-42.9158927496
 20
2.7640952993
 10
-42.9238158019
 20
3.3204093807
 10
-42.9306134973
 20
3.8765400162
  0
LWPOLYLINE
  5
2C3
100
AcDbEntity
  8
RACCORDO
100
AcDbPolyline
 62
250
  6
CONTINUOUS
 90
9
 70
0
 10
-35.2991272926
 20
38.4655183602
 10
-35.3000165211
 20
38.4486139763
 10
-35.3023767758
 20
38.4328304129
 10
-35.306181938
 20
38.4183423312
 10
-35.3113898997
 20
38.4053100565
 10
-35.3179430296
 20
38.3938778046
 10
-35.32576881
 20
38.3841720856
 10
-35.3347806405
 20
38.3763003028
 10
-35.3434234422
 20
38.3710544496
  0
LWPOLYLINE
  5
2C4
100
AcDbEntity
  8
RACCORDO
100
AcDbPolyline
 62
7
  6
CONTINUOUS
 90
6
 70
0
 10
-34.8401509492
 20
39.6300182112
 10
-34.8425270272
 20
39.6051457743
 10
-34.8451411434
 20
39.5804147438
 10
-34.8479933298
 20
39.5558291064
 10
-34.8510835726
 20
39.5313928191
 10
-34.8544118131
 20
39.5071098078
  0
LINE
  5
2C5
100
AcDbEntity
  8
RACCORDO
100
AcDbLine
 62
7
  6
CONTINUOUS
 10
-35.089943186
 20
37.8649273076
 11
-35.1489157331
 21
37.4130062152
  0
LINE
  5
2C6
100
AcDbEntity
  8
RACCORDO
100
AcDbLine
 62
7
  6
CONTINUOUS
 10
-35.0277660861
 20
38.3213753488
 11
-35.089943186
 21
37.8649273076
  0
LINE
  5
2C7
100
AcDbEntity
  8
RACCORDO
100
AcDbLine
 62
7
  6
CONTINUOUS
 10
-34.9623400833
 20
38.7824150795
 11
-35.0277660861
 21
38.3213753488
  0
LINE
  5
2C8
100
AcDbEntity
  8
RACCORDO
100
AcDbLine
 62
7
  6
CONTINUOUS
 10
-34.8544118131
 20
39.5071098078
 11
-34.9623400833
 21
38.7824150795
  0
LWPOLYLINE
  5
2C9
100
AcDbEntity
  8
RACCORDO
100
AcDbPolyline
 62
250
  6
CONTINUOUS
 90
10
 70
0
 10
-40.6248668011
 20
-15.3577442402
 10
-40.6285497157
 20
-15.3814647596
 10
-40.6331979673
 20
-15.403096019
 10
-40.6387594117
 20
-15.42252507
 10
-40.6451318513
 20
-15.4395906218
 10
-40.652280493
 20
-15.4542729692
 10
-40.6602832572
 20
-15.4666326289
 10
-40.6691222527
 20
-15.4765692214
 10
-40.67872478
 20
-15.4839201393
 10
-40.6818933633
 20
-15.4856801007
  0
LINE
  5
2CA
100
AcDbEntity
  8
DRAFT
100
AcDbLine
 62
7
  6
CONTINUOUS
 10
-32.5058065638
 20
27.8969616256
 11
-32.9334679524
 21
27.6376917433
  0
LINE
  5
2CB
100
AcDbEntity
  8
RACCORDO
100
AcDbLine
 62
250
  6
CONTINUOUS
 10
-31.8012373413
 20
27.6463842516
 11
-31.9630892695
 21
27.5496708958
  0
LINE
  5
2CC
100
AcDbEntity
  8
RACCORDO
100
AcDbLine
 62
7
  6
CONTINUOUS
 10
-32.7737951284
 20
27.8343322811
 11
-32.7732442928
 21
27.8346115068
  0
LWPOLYLINE
  5
2CD
100
AcDbEntity
  8
RACCORDO
100
AcDbPolyline
 62
7
  6
CONTINUOUS
 90
16
 70
0
 10
-32.7737724114
 20
27.8343428348
 10
-32.7374445917
 20
27.851154615
 10
-32.68592438
 20
27.8698587922
 10
-32.6322252282
 20
27.8837241899
 10
-32.5765008228
 20
27.8927744861
 10
-32.518857024
 20
27.8970588977
 10
-32.4593536964
 20
27.8966153872
 10
-32.398143071
 20
27.8914604572
 10
-32.3355331032
 20
27.8816535607
 10
-32.2718456532
 20
27.8672915701
 10
-32.2073191331
 20
27.8484860325
 10
-32.1422281817
 20
27.8253835451
 10
-32.0769262248
 20
27.7981877846
 10
-32.0116998297
 20
27.7671266491
 10
-31.9467751059
 20
27.7324233511
 10
-31.9070464638
 20
27.7093420824
  0
LWPOLYLINE
  5
2CE
100
AcDbEntity
  8
RACCORDO
100
AcDbPolyline
 62
7
  6
CONTINUOUS
 90
20
 70
0
 10
33.5185343821
 20
-58.0068452978
 10
33.6727560722
 20
-58.0699975148
 10
33.8870194049
 20
-58.1500344982
 10
34.1003820587
 20
-58.2207264933
 10
34.3125390142
 20
-58.2819283454
 10
34.5231480593
 20
-58.3335161659
 10
34.7318276526
 20
-58.3753927332
 10
34.938306659
 20
-58.4074900943
 10
35.1422899012
 20
-58.4297566868
 10
35.3433611499
 20
-58.4421603894
 10
35.5412362301
 20
-58.4446872335
 10
35.7355890294
 20
-58.4373388249
 10
35.9259444273
 20
-58.420170926
 10
36.1120012923
 20
-58.3932475555
 10
36.2934394768
 20
-58.3566477074
 10
36.4697595302
 20
-58.3105408364
 10
36.6406662658
 20
-58.2550796963
 10
36.8058334958
 20
-58.1904391092
 10
36.9647379115
 20
-58.1169407732
 10
37.0404696375
 20
-58.077645863
  0
LWPOLYLINE
  5
2CF
100
AcDbEntity
  8
RACCORDO
100
AcDbPolyline
 62
250
  6
CONTINUOUS
 90
11
 70
0
 10
33.4219631151
 20
-57.8365707278
 10
33.031010501
 20
-57.670990579
 10
32.6507043936
 20
-57.5075007212
 10
32.2808963646
 20
-57.3462245385
 10
31.9217046833
 20
-57.1874188386
 10
31.572725108
 20
-57.0310645337
 10
31.2330434814
 20
-56.8768561705
 10
30.9026057861
 20
-56.7249274613
 10
30.5812005701
 20
-56.5753653703
 10
30.2677104195
 20
-56.4277669774
 10
29.9616905989
 20
-56.2820580469
  0
LINE
  5
2D0
100
AcDbEntity
  8
RACCORDO
100
AcDbLine
 62
250
  6
CONTINUOUS
 10
29.9616905989
 20
-56.2820580469
 11
29.5605444714
 21
-56.0885417803
  0
LINE
  5
2D1
100
AcDbEntity
  8
RACCORDO
100
AcDbLine
 62
250
  6
CONTINUOUS
 10
29.5605444714
 20
-56.0885417803
 11
29.372591822
 21
-55.9971998967
  0
LWPOLYLINE
  5
2D2
100
AcDbEntity
  8
RACCORDO
100
AcDbPolyline
 62
7
  6
CONTINUOUS
 90
10
 70
0
 10
29.5185912489
 20
-56.1748682167
 10
29.8836492539
 20
-56.3533533955
 10
30.3525005164
 20
-56.5793065074
 10
30.8196853461
 20
-56.8007332691
 10
31.2851758824
 20
-57.0176059746
 10
31.7488970957
 20
-57.2299295096
 10
32.2107368967
 20
-57.4377368057
 10
32.6705779409
 20
-57.6410651973
 10
33.1282899595
 20
-57.8399650471
 10
33.5185427412
 20
-58.0068488465
  0
LINE
  5
2D3
100
AcDbEntity
  8
RACCORDO
100
AcDbLine
 62
250
  6
CONTINUOUS
 10
25.9846856063
 20
-54.2463277298
 11
25.8178192925
 21
-54.15935774
  0
LWPOLYLINE
  5
2D4
100
AcDbEntity
  8
RACCORDO
100
AcDbPolyline
 62
7
  6
CONTINUOUS
 90
19
 70
0
 10
25.9114661636
 20
-54.2962258557
 10
26.0492703911
 20
-54.369365719
 10
26.2402395061
 20
-54.4635029568
 10
26.4297980751
 20
-54.5483632893
 10
26.6178137134
 20
-54.6237122033
 10
26.8039459881
 20
-54.6892610039
 10
26.9876577954
 20
-54.7446939906
 10
27.1688155108
 20
-54.7898522584
 10
27.3472092494
 20
-54.8245761163
 10
27.5222490905
 20
-54.8486570533
 10
27.6938186821
 20
-54.8620029044
 10
27.8616546676
 20
-54.8645286925
 10
28.0249626925
 20
-54.8561970552
 10
28.1835868299
 20
-54.8370365792
 10
28.3371735352
 20
-54.8071243675
 10
28.4846350736
 20
-54.7667934896
 10
28.6257718345
 20
-54.7163150033
 10
28.760227865
 20
-54.6560627391
 10
28.8281474677
 20
-54.6205918138
  0
LWPOLYLINE
  5
2D5
100
AcDbEntity
  8
RACCORDO
100
AcDbPolyline
 62
7
  6
CONTINUOUS
 90
20
 70
0
 10
11.8543328898
 20
-48.4794645116
 10
11.9075611619
 20
-48.5081539717
 10
11.9767404399
 20
-48.5404452864
 10
12.0508558551
 20
-48.5693278015
 10
12.129491281
 20
-48.5941587252
 10
12.2120040515
 20
-48.6145515851
 10
12.2979751031
 20
-48.6304451831
 10
12.3870644103
 20
-48.6420177882
 10
12.4788597959
 20
-48.6495467464
 10
12.5729753458
 20
-48.6533971674
 10
12.6691278685
 20
-48.6539297265
 10
12.7666944986
 20
-48.6515361248
 10
12.8657516139
 20
-48.6465477421
 10
12.9660534779
 20
-48.6393058638
 10
13.0665745801
 20
-48.6301777634
 10
13.1673723844
 20
-48.6194756197
 10
13.268501769
 20
-48.6074436363
 10
13.3689845862
 20
-48.5944601531
 10
13.4688495346
 20
-48.5807634451
 10
13.5682687386
 20
-48.5665411973
  0
LWPOLYLINE
  5
2D6
100
AcDbEntity
  8
RACCORDO
100
AcDbPolyline
 62
7
  6
CONTINUOUS
 90
5
 70
0
 10
-1.061178911
 20
-41.1040051069
 10
5.6189859562
 20
-44.9110082355
 10
7.7603819264
 20
-46.1335944563
 10
9.85735202
 20
-47.3339705152
 10
11.8537350424
 20
-48.4791237281
  0
LINE
  5
2D7
100
AcDbEntity
  8
RACCORDO
100
AcDbLine
 62
250
  6
CONTINUOUS
 10
5.9220267903
 20
-44.9334680519
 11
-0.3665193675
 21
-41.3496695595
  0
LINE
  5
2D8
100
AcDbEntity
  8
RACCORDO
100
AcDbLine
 62
250
  6
CONTINUOUS
 10
-0.3665193675
 20
-41.3496695595
 11
-2.2749109899
 21
-40.2610108145
  0
LINE
  5
2D9
100
AcDbEntity
  8
RACCORDO
100
AcDbLine
 62
250
  6
CONTINUOUS
 10
-2.2749109899
 20
-40.2610108145
 11
-4.3368929035
 21
-39.0823199341
  0
LINE
  5
2DA
100
AcDbEntity
  8
RACCORDO
100
AcDbLine
 62
250
  6
CONTINUOUS
 10
-4.3368929035
 20
-39.0823199341
 11
-5.802602672
 21
-38.2421630826
  0
LWPOLYLINE
  5
2DB
100
AcDbEntity
  8
RACCORDO
100
AcDbPolyline
 62
250
  6
CONTINUOUS
 90
3
 70
0
 10
11.7505239943
 20
-48.2698334536
 10
10.7826523096
 20
-47.7147587154
 10
5.9220267903
 20
-44.9334680519
  0
LWPOLYLINE
  5
2DC
100
AcDbEntity
  8
RACCORDO
100
AcDbPolyline
 62
7
  6
CONTINUOUS
 90
4
 70
0
 10
-8.0434411415
 20
-37.1021428436
 10
-5.7145879962
 20
-38.4427331041
 10
-3.368947533
 20
-39.7863081582
 10
-1.061178911
 20
-41.1040051069
  0
LINE
  5
2DD
100
AcDbEntity
  8
RACCORDO
100
AcDbLine
 62
250
  6
CONTINUOUS
 10
-5.802602672
 20
-38.2421630826
 11
-7.3462402763
 21
-37.3545035274
  0
LINE
  5
2DE
100
AcDbEntity
  8
RACCORDO
100
AcDbLine
 62
250
  6
CONTINUOUS
 10
-7.3462402763
 20
-37.3545035274
 11
-8.9259776511
 21
-36.4424075146
  0
LINE
  5
2DF
100
AcDbEntity
  8
RACCORDO
100
AcDbLine
 62
250
  6
CONTINUOUS
 10
-8.9259776511
 20
-36.4424075146
 11
-10.4235157194
 21
-35.5743054005
  0
LWPOLYLINE
  5
2E0
100
AcDbEntity
  8
RACCORDO
100
AcDbPolyline
 62
7
  6
CONTINUOUS
 90
4
 70
0
 10
-27.7442607836
 20
-25.6157372402
 10
-25.6320434614
 20
-26.843380683
 10
-23.4604083532
 20
-28.108420969
 10
-21.2815730094
 20
-29.3809969201
  0
LINE
  5
2E1
100
AcDbEntity
  8
RACCORDO
100
AcDbLine
 62
250
  6
CONTINUOUS
 10
-10.4235157194
 20
-35.5743054005
 11
-11.8384716448
 21
-34.7514937375
  0
LWPOLYLINE
  5
2E2
100
AcDbEntity
  8
RACCORDO
100
AcDbPolyline
 62
7
  6
CONTINUOUS
 90
4
 70
0
 10
-14.6895678677
 20
-33.2371432998
 10
-12.4696234555
 20
-34.5329429129
 10
-10.2358942608
 20
-35.8326112238
 10
-8.0434337889
 20
-37.1021470885
  0
LINE
  5
2E3
100
AcDbEntity
  8
RACCORDO
100
AcDbLine
 62
250
  6
CONTINUOUS
 10
-11.8384716448
 20
-34.7514937375
 11
-13.826731397
 21
-33.592123971
  0
LINE
  5
2E4
100
AcDbEntity
  8
RACCORDO
100
AcDbLine
 62
250
  6
CONTINUOUS
 10
-22.9606291534
 20
-28.2510393199
 11
-27.8472941283
 21
-25.4065495469
  0
LINE
  5
2E5
100
AcDbEntity
  8
RACCORDO
100
AcDbLine
 62
250
  6
CONTINUOUS
 10
-13.826731397
 20
-33.592123971
 11
-16.2476119513
 21
-32.1772614468
  0
LINE
  5
2E6
100
AcDbEntity
  8
RACCORDO
100
AcDbLine
 62
7
  6
CONTINUOUS
 10
-21.2815730094
 20
-29.3809969201
 11
-14.6895678677
 21
-33.2371432998
  0
LINE
  5
2E7
100
AcDbEntity
  8
RACCORDO
100
AcDbLine
 62
250
  6
CONTINUOUS
 10
-16.2476119513
 20
-32.1772614468
 11
-22.9606291534
 21
-28.2510393199
  0
LWPOLYLINE
  5
2E8
100
AcDbEntity
  8
RACCORDO
100
AcDbPolyline
 62
250
  6
CONTINUOUS
 90
17
 70
0
 10
-27.847294112
 20
-25.406549559
 10
-27.8751503225
 20
-25.3897356315
 10
-27.9035416912
 20
-25.3714065872
 10
-27.9321726524
 20
-25.3514566907
 10
-27.960784896
 20
-25.3296995908
 10
-27.9889943474
 20
-25.306092866
 10
-28.0163309576
 20
-25.2807516689
 10
-28.042588012
 20
-25.253458146
 10
-28.0673323606
 20
-25.2242039835
 10
-28.0899159313
 20
-25.1934758205
 10
-28.110179779
 20
-25.1612090808
 10
-28.1279430484
 20
-25.1273518279
 10
-28.1428244231
 20
-25.0925157529
 10
-28.1547957243
 20
-25.0568629928
 10
-28.163938061
 20
-25.0202567579
 10
-28.1702523397
 20
-24.9829374867
 10
-28.1738649439
 20
-24.9442575198
  0
LWPOLYLINE
  5
2E9
100
AcDbEntity
  8
RACCORDO
100
AcDbPolyline
 62
250
  6
CONTINUOUS
 90
10
 70
0
 10
-27.7442919863
 20
-25.6157190626
 10
-27.7602100124
 20
-25.6051983044
 10
-27.7787606526
 20
-25.5892043911
 10
-27.7953141545
 20
-25.5703777826
 10
-27.8097549046
 20
-25.5488499412
 10
-27.8219820359
 20
-25.5247711992
 10
-27.8319101513
 20
-25.4983097028
 10
-27.8394699067
 20
-25.4696502402
 10
-27.8446084934
 20
-25.4389929497
 10
-27.8472900139
 20
-25.4065519229
  0
LWPOLYLINE
  5
2EA
100
AcDbEntity
  8
RACCORDO
100
AcDbPolyline
 62
250
  6
CONTINUOUS
 90
12
 70
0
 10
-41.0458938884
 20
-15.3384488282
 10
-41.2762576513
 20
-15.1806568974
 10
-41.5142340017
 20
-15.0161346472
 10
-41.7596399857
 20
-14.8447727127
 10
-42.0124963013
 20
-14.6662764454
 10
-42.272373473
 20
-14.4806961379
 10
-42.5384069811
 20
-14.2884360678
 10
-42.8101461065
 20
-14.0895364395
 10
-43.0876237657
 20
-13.8837072976
 10
-43.3706993214
 20
-13.6708567411
 10
-43.6591829186
 20
-13.450868669
 10
-43.9528361206
 20
-13.2236031614
  0
LWPOLYLINE
  5
2EB
100
AcDbEntity
  8
RACCORDO
100
AcDbPolyline
 62
250
  6
CONTINUOUS
 90
7
 70
0
 10
-37.7488557155
 20
-17.5395430511
 10
-37.7708497667
 20
-17.5236850441
 10
-37.7897132094
 20
-17.5052945379
 10
-37.8062792512
 20
-17.4839110897
 10
-37.8204215884
 20
-17.4596977375
 10
-37.8320323974
 20
-17.4328390947
 10
-37.8410231557
 20
-17.4035399431
  0
LWPOLYLINE
  5
2EC
100
AcDbEntity
  8
RACCORDO
100
AcDbPolyline
 62
7
  6
CONTINUOUS
 90
10
 70
0
 10
-44.1612441492
 20
-13.1539288162
 10
-43.8716445946
 20
-13.3800569871
 10
-43.530011086
 20
-13.6425256319
 10
-43.1800240009
 20
-13.9067555121
 10
-42.8215668932
 20
-14.1726665168
 10
-42.4545581687
 20
-14.4401794842
 10
-42.0789323116
 20
-14.7092139989
 10
-41.6946585422
 20
-14.9797136342
 10
-41.3017610351
 20
-15.2516567265
 10
-40.9867399334
 20
-15.46652304
  0
LINE
  5
2ED
100
AcDbEntity
  8
RACCORDO
100
AcDbLine
 62
250
  6
CONTINUOUS
 10
-43.9528361206
 20
-13.2236031614
 11
-44.2514331043
 21
-12.9889252271
  0
LWPOLYLINE
  5
2EE
100
AcDbEntity
  8
RACCORDO
100
AcDbPolyline
 62
250
  6
CONTINUOUS
 90
37
 70
0
 10
-44.2514331043
 20
-12.9889252271
 10
-44.4013652514
 20
-12.8655460085
 10
-44.5494018826
 20
-12.7358353884
 10
-44.6955217652
 20
-12.5997806744
 10
-44.839549041
 20
-12.4574120298
 10
-44.9816210001
 20
-12.3086762365
 10
-45.1221815717
 20
-12.153432803
 10
-45.2616115105
 20
-11.9912944558
 10
-45.399479766
 20
-11.822618403
 10
-45.5350236678
 20
-11.6483875171
 10
-45.6682226743
 20
-11.4685884473
 10
-45.799090162
 20
-11.2832302612
 10
-45.9269442578
 20
-11.0933473436
 10
-46.0517640667
 20
-10.8989717618
 10
-46.173594477
 20
-10.7000857911
 10
-46.2918782826
 20
-10.4976646648
 10
-46.4065969355
 20
-10.2917960008
 10
-46.5178169084
 20
-10.0824208293
 10
-46.6251285575
 20
-9.8703064771
 10
-46.7285662994
 20
-9.6554857254
 10
-46.8281568889
 20
-9.4379623595
 10
-46.923494719
 20
-9.2184694951
 10
-47.0146737718
 20
-8.9968908936
 10
-47.1016719842
 20
-8.7733857848
 10
-47.1839276169
 20
-8.5491112082
 10
-47.2615141995
 20
-8.3239355843
 10
-47.3344488261
 20
-8.0980446649
 10
-47.4021074924
 20
-7.8730848699
 10
-47.4645046894
 20
-7.6490540717
 10
-47.5217338665
 20
-7.4260189216
 10
-47.5733094919
 20
-7.2057409837
 10
-47.6192207182
 20
-6.9883159597
 10
-47.6595903162
 20
-6.7737150527
 10
-47.6941437158
 20
-6.5635193761
 10
-47.7228219423
 20
-6.3582754244
 10
-47.7457756349
 20
-6.1574914978
 10
-47.7630414474
 20
-5.9611895067
  0
LWPOLYLINE
  5
2EF
100
AcDbEntity
  8
RACCORDO
100
AcDbPolyline
 62
250
  6
CONTINUOUS
 90
8
 70
0
 10
-44.1612441492
 20
-13.1539288162
 10
-44.1813635154
 20
-13.1359883278
 10
-44.1986101733
 20
-13.1164361917
 10
-44.2137390572
 20
-13.0947115671
 10
-44.226657708
 20
-13.0709472272
 10
-44.2372871748
 20
-13.0452884101
 10
-44.2455624978
 20
-13.0178919316
 10
-44.2514331043
 20
-12.9889252271
  0
LWPOLYLINE
  5
2F0
100
AcDbEntity
  8
RACCORDO
100
AcDbPolyline
 62
250
  6
CONTINUOUS
 90
12
 70
0
 10
-30.1637300704
 20
-12.8686638862
 10
-30.105406629
 20
-13.4859621162
 10
-30.0024569721
 20
-14.3917817269
 10
-29.8829488828
 20
-15.288601907
 10
-29.7473209883
 20
-16.1738747016
 10
-29.5952676773
 20
-17.0502275788
 10
-29.4251721877
 20
-17.9251245441
 10
-29.2362209415
 20
-18.7990944799
 10
-29.0281746055
 20
-19.6709791024
 10
-28.7996817362
 20
-20.5453553665
 10
-28.5498329326
 20
-21.4234745944
 10
-28.3687146171
 20
-22.0107563586
  0
LWPOLYLINE
  5
2F1
100
AcDbEntity
  8
RACCORDO
100
AcDbPolyline
 62
7
  6
CONTINUOUS
 90
22
 70
0
 10
-33.5993795402
 20
-9.5586808509
 10
-33.5960015829
 20
-9.6717846619
 10
-33.5860362172
 20
-9.7849978375
 10
-33.5697036064
 20
-9.8981803632
 10
-33.5470445946
 20
-10.0118047921
 10
-33.5182379342
 20
-10.1252397866
 10
-33.4839251722
 20
-10.2366705172
 10
-33.4445784551
 20
-10.3455349079
 10
-33.40027638
 20
-10.452272524
 10
-33.3513478323
 20
-10.5564898669
 10
-33.2980497549
 20
-10.6579580465
 10
-33.2404589977
 20
-10.7567178564
 10
-33.1786413914
 20
-10.8527076054
 10
-33.1125354548
 20
-10.9459523453
 10
-33.0422802456
 20
-11.0361096652
 10
-32.9682154707
 20
-11.1226080495
 10
-32.8902045292
 20
-11.2054344119
 10
-32.8083576738
 20
-11.284231131
 10
-32.7234138289
 20
-11.3581104067
 10
-32.6356282728
 20
-11.4267479452
 10
-32.5447459604
 20
-11.4901797678
 10
-32.4507727147
 20
-11.5481541268
  0
LWPOLYLINE
  5
2F2
100
AcDbEntity
  8
RACCORDO
100
AcDbPolyline
 62
250
  6
CONTINUOUS
 90
12
 70
0
 10
-32.6578553357
 20
-11.0904172656
 10
-32.656374811
 20
-11.1423696435
 10
-32.6519394367
 20
-11.192394795
 10
-32.6445677861
 20
-11.2402832371
 10
-32.6342907284
 20
-11.2858344342
 10
-32.6211512994
 20
-11.328857638
 10
-32.6052045212
 20
-11.3691726866
 10
-32.5865171718
 20
-11.4066107583
 10
-32.5651675056
 20
-11.4410150792
 10
-32.5412449255
 20
-11.4722415791
 10
-32.5148496086
 20
-11.5001594955
 10
-32.4860920868
 20
-11.5246519204
  0
LWPOLYLINE
  5
2F3
100
AcDbEntity
  8
RACCORDO
100
AcDbPolyline
 62
250
  6
CONTINUOUS
 90
25
 70
0
 10
-33.3064863214
 20
-9.9669554443
 10
-33.3050811813
 20
-10.0168747206
 10
-33.3009522552
 20
-10.0678148089
 10
-33.2940995429
 20
-10.1197757091
 10
-33.2844690495
 20
-10.1730156245
 10
-33.27211477
 20
-10.2272763519
 10
-33.2571986897
 20
-10.2817832813
 10
-33.2396904193
 20
-10.3365082361
 10
-33.2196203481
 20
-10.391479393
 10
-33.1972416287
 20
-10.4460066721
 10
-33.1725232066
 20
-10.5000896306
 10
-33.1454961364
 20
-10.5537287113
 10
-33.1165067345
 20
-10.6062351622
 10
-33.0855292422
 20
-10.6575943136
 10
-33.0525894182
 20
-10.7078208351
 10
-33.0181108553
 20
-10.7562699835
 10
-32.9820778865
 20
-10.8029147822
 10
-32.9445061788
 20
-10.8477822078
 10
-32.9058663254
 20
-10.8903084466
 10
-32.8661182276
 20
-10.9304817113
 10
-32.8253019841
 20
-10.9683137892
 10
-32.7840084842
 20
-11.0032762288
 10
-32.7424346911
 20
-11.0351928794
 10
-32.7003836416
 20
-11.0642398917
 10
-32.6578553357
 20
-11.0904172656
  0
LWPOLYLINE
  5
2F4
100
AcDbEntity
  8
RACCORDO
100
AcDbPolyline
 62
250
  6
CONTINUOUS
 90
9
 70
0
 10
-31.948170779
 20
27.8069880391
 10
-31.947929881
 20
27.7897522038
 10
-31.9460640077
 20
27.7735477867
 10
-31.9425942672
 20
27.7585581038
 10
-31.9375599117
 20
27.7449527292
 10
-31.9310178937
 20
27.7328855771
 10
-31.9230422216
 20
27.7224931598
 10
-31.913723122
 20
27.713893044
 10
-31.9070464638
 20
27.7093420824
  0
LINE
  5
2F5
100
AcDbEntity
  8
RACCORDO
100
AcDbLine
 62
250
  6
CONTINUOUS
 10
-33.5993795402
 20
-1.3895193776
 11
-33.6196892197
 21
0.0992068809
  0
LINE
  5
2F6
100
AcDbEntity
  8
RACCORDO
100
AcDbLine
 62
250
  6
CONTINUOUS
 10
-33.6196892197
 20
0.0992068809
 11
-33.6352444636
 21
1.3745044171
  0
LINE
  5
2F7
100
AcDbEntity
  8
RACCORDO
100
AcDbLine
 62
250
  6
CONTINUOUS
 10
-33.6352444636
 20
1.3745044171
 11
-33.6503771545
 21
2.7692633093
  0
LINE
  5
2F8
100
AcDbEntity
  8
RACCORDO
100
AcDbLine
 62
250
  6
CONTINUOUS
 10
-33.6503771545
 20
2.7692633093
 11
-33.6645305772
 21
4.2883093022
  0
LINE
  5
2F9
100
AcDbEntity
  8
RACCORDO
100
AcDbLine
 62
250
  6
CONTINUOUS
 10
-33.6645305772
 20
4.2883093022
 11
-33.673015213
 21
5.3713511905
  0
LINE
  5
2FA
100
AcDbEntity
  8
RACCORDO
100
AcDbLine
 62
250
  6
CONTINUOUS
 10
-33.673015213
 20
5.3713511905
 11
-33.6804002732
 21
6.5162785901
  0
LINE
  5
2FB
100
AcDbEntity
  8
RACCORDO
100
AcDbLine
 62
250
  6
CONTINUOUS
 10
-33.6804002732
 20
6.5162785901
 11
-33.686356295
 21
7.7368658946
  0
LINE
  5
2FC
100
AcDbEntity
  8
RACCORDO
100
AcDbLine
 62
250
  6
CONTINUOUS
 10
-33.686356295
 20
7.7368658946
 11
-33.69048922
 21
9.0519071646
  0
LINE
  5
2FD
100
AcDbEntity
  8
RACCORDO
100
AcDbLine
 62
250
  6
CONTINUOUS
 10
-33.69048922
 20
9.0519071646
 11
-33.6922542469
 21
10.4670927511
  0
LINE
  5
2FE
100
AcDbEntity
  8
RACCORDO
100
AcDbLine
 62
7
  6
CONTINUOUS
 10
-33.5993795402
 20
26.3660113279
 11
-33.5993795402
 21
-9.5586808509
  0
LINE
  5
2FF
100
AcDbEntity
  8
RACCORDO
100
AcDbLine
 62
250
  6
CONTINUOUS
 10
-33.3064863214
 20
25.9577367346
 11
-33.3064863214
 21
-9.9669554443
  0
LINE
  5
300
100
AcDbEntity
  8
RACCORDO
100
AcDbLine
 62
250
  6
CONTINUOUS
 10
-33.6922542884
 20
10.4670927249
 11
-33.6905227303
 21
11.8652720847
  0
LINE
  5
301
100
AcDbEntity
  8
RACCORDO
100
AcDbLine
 62
250
  6
CONTINUOUS
 10
-33.6905227303
 20
11.8652720847
 11
-33.6869104328
 21
13.0644757728
  0
LINE
  5
302
100
AcDbEntity
  8
RACCORDO
100
AcDbLine
 62
250
  6
CONTINUOUS
 10
-33.6869104328
 20
13.0644757728
 11
-33.6804735487
 21
14.4191023396
  0
LINE
  5
303
100
AcDbEntity
  8
RACCORDO
100
AcDbLine
 62
250
  6
CONTINUOUS
 10
-33.6804735487
 20
14.4191023396
 11
-33.6703168292
 21
15.953245947
  0
LINE
  5
304
100
AcDbEntity
  8
RACCORDO
100
AcDbLine
 62
250
  6
CONTINUOUS
 10
-33.6703168292
 20
15.953245947
 11
-33.6612099167
 21
17.0645929076
  0
LINE
  5
305
100
AcDbEntity
  8
RACCORDO
100
AcDbLine
 62
250
  6
CONTINUOUS
 10
-33.6612099167
 20
17.0645929076
 11
-33.6450805139
 21
18.7297495155
  0
LINE
  5
306
100
AcDbEntity
  8
RACCORDO
100
AcDbLine
 62
250
  6
CONTINUOUS
 10
-33.6450805139
 20
18.7297495155
 11
-33.6279088868
 21
20.2535098015
  0
LINE
  5
307
100
AcDbEntity
  8
RACCORDO
100
AcDbLine
 62
250
  6
CONTINUOUS
 10
-33.6279088868
 20
20.2535098015
 11
-33.61090156
 21
21.5967140247
  0
LINE
  5
308
100
AcDbEntity
  8
RACCORDO
100
AcDbLine
 62
250
  6
CONTINUOUS
 10
-33.61090156
 20
21.5967140247
 11
-33.5993795402
 21
22.4314719857
  0
LINE
  5
309
100
AcDbEntity
  8
RACCORDO
100
AcDbLine
 62
250
  6
CONTINUOUS
 10
-33.5216919476
 20
26.877092089
 11
-33.521228934
 21
26.89879724
  0
LWPOLYLINE
  5
30A
100
AcDbEntity
  8
RACCORDO
100
AcDbPolyline
 62
250
  6
CONTINUOUS
 90
25
 70
0
 10
-32.6578553357
 20
26.3321757522
 10
-32.656374811
 20
26.3858378029
 10
-32.6519394367
 20
26.4409848136
 10
-32.6445677861
 20
26.497385853
 10
-32.6342907284
 20
26.5548047387
 10
-32.6211512994
 20
26.6130010258
 10
-32.6052045212
 20
26.6717310141
 10
-32.5865171718
 20
26.7307487684
 10
-32.5651675056
 20
26.7898071487
 10
-32.5412449255
 20
26.8486588446
 10
-32.5148496086
 20
26.9070574112
 10
-32.4860920868
 20
26.9647583015
 10
-32.4550927838
 20
27.0215198895
 10
-32.4219815111
 20
27.077104483
 10
-32.3868969238
 20
27.1312793184
 10
-32.3499859406
 20
27.1838175355
 10
-32.3114031285
 20
27.2344991275
 10
-32.271310055
 20
27.2831118625
 10
-32.2298746122
 20
27.3294521718
 10
-32.1872703134
 20
27.3733260028
 10
-32.1436755664
 20
27.4145496315
 10
-32.0992729267
 20
27.4529504314
 10
-32.0542483328
 20
27.4883675972
 10
-32.0087903277
 20
27.5206528174
 10
-31.9630892695
 20
27.5496708958
  0
LWPOLYLINE
  5
30B
100
AcDbEntity
  8
RACCORDO
100
AcDbPolyline
 62
250
  6
CONTINUOUS
 90
34
 70
0
 10
-33.521228934
 20
26.89879724
 10
-33.5187182357
 20
26.9700765667
 10
-33.5134366159
 20
27.0408046869
 10
-33.5053818668
 20
27.110982408
 10
-33.4947859429
 20
27.1806327611
 10
-33.4814114278
 20
27.2497347119
 10
-33.4645510819
 20
27.3182233256
 10
-33.4440490203
 20
27.3866655819
 10
-33.4200522529
 20
27.4544977459
 10
-33.3923087194
 20
27.5199585047
 10
-33.3607138034
 20
27.5828964341
 10
-33.3253655264
 20
27.6434653695
 10
-33.2863192238
 20
27.7003606307
 10
-33.2433950726
 20
27.7535065362
 10
-33.1967690491
 20
27.8029801739
 10
-33.1470345316
 20
27.8477044299
 10
-33.0940782864
 20
27.8874699949
 10
-33.0380148629
 20
27.9224856972
 10
-32.9797841978
 20
27.9522998441
 10
-32.9192958376
 20
27.9767026244
 10
-32.8566461795
 20
27.9959016763
 10
-32.7930595708
 20
28.01006997
 10
-32.7286932905
 20
28.0190433169
 10
-32.6633995526
 20
28.022982435
 10
-32.5979471385
 20
28.0225469104
 10
-32.5331086572
 20
28.0179898543
 10
-32.4681206175
 20
28.0090548222
 10
-32.4014457725
 20
27.9956377544
 10
-32.3331188964
 20
27.9782150664
 10
-32.2631084597
 20
27.9563091563
 10
-32.1897741164
 20
27.92838627
 10
-32.1125674312
 20
27.8939357603
 10
-32.0320336796
 20
27.8534694296
 10
-31.948170779
 20
27.8069880391
  0
LWPOLYLINE
  5
30C
100
AcDbEntity
  8
RACCORDO
100
AcDbPolyline
 62
250
  6
CONTINUOUS
 90
19
 70
0
 10
-43.2877623856
 20
17.7753624161
 10
-43.3096972173
 20
17.7642683328
 10
-43.3333935978
 20
17.7544562326
 10
-43.3586276629
 20
17.7460188086
 10
-43.3851610214
 20
17.7390357653
 10
-43.4127430075
 20
17.7335730725
 10
-43.4411130491
 20
17.7296823417
 10
-43.4700031287
 20
17.7274003291
 10
-43.4991403163
 20
17.7267485905
 10
-43.5282493472
 20
17.7277332845
 10
-43.5570552229
 20
17.7303451099
 10
-43.5852858086
 20
17.7345593909
 10
-43.6126744047
 20
17.7403363128
 10
-43.6389622658
 20
17.7476213027
 10
-43.6639010454
 20
17.7563455382
 10
-43.6872551422
 20
17.7664265954
 10
-43.7088039254
 20
17.7777692369
 10
-43.7283438195
 20
17.7902663121
 10
-43.7456902275
 20
17.8037997623
  0
LWPOLYLINE
  5
30D
100
AcDbEntity
  8
RACCORDO
100
AcDbPolyline
 62
250
  6
CONTINUOUS
 90
10
 70
0
 10
30.2446744484
 20
-53.725588151
 10
30.223078064
 20
-53.7154071991
 10
30.2032480573
 20
-53.7037919005
 10
30.1853590925
 20
-53.6908445719
 10
30.169568736
 20
-53.6766792633
 10
30.1560160666
 20
-53.6614207511
 10
30.1448204515
 20
-53.6452034386
 10
30.1360804983
 20
-53.6281701761
 10
30.1298731831
 20
-53.6104709995
 10
30.1264928027
 20
-53.5940664701
  0
LWPOLYLINE
  5
30E
100
AcDbEntity
  8
RACCORDO
100
AcDbPolyline
 62
250
  6
CONTINUOUS
 90
10
 70
0
 10
33.5184000035
 20
-58.0067881433
 10
33.5017481581
 20
-57.9980324546
 10
33.4863929369
 20
-57.9865177956
 10
33.4724281851
 20
-57.9723145379
 10
33.4599392497
 20
-57.9555094841
 10
33.4490024579
 20
-57.9362053377
 10
33.4396846516
 20
-57.9145200771
 10
33.4320427777
 20
-57.8905862326
 10
33.4261235401
 20
-57.8645500759
 10
33.4219631151
 20
-57.8365707278
  0
LWPOLYLINE
  5
30F
100
AcDbEntity
  8
RACCORDO
100
AcDbPolyline
 62
250
  6
CONTINUOUS
 90
3
 70
0
 10
25.8178192925
 20
-54.15935774
 10
25.4542399076
 20
-53.9614152102
 10
25.1036960634
 20
-53.7690438761
  0
LWPOLYLINE
  5
310
100
AcDbEntity
  8
RACCORDO
100
AcDbPolyline
 62
250
  6
CONTINUOUS
 90
25
 70
0
 10
15.8557897194
 20
-48.4979244158
 10
15.8101446912
 20
-48.4729486174
 10
15.7626102585
 20
-48.4494159154
 10
15.7131957634
 20
-48.4273402315
 10
15.662262276
 20
-48.406871038
 10
15.609499444
 20
-48.3878269763
 10
15.5538337822
 20
-48.3698575473
 10
15.4952592357
 20
-48.3531098463
 10
15.4336819825
 20
-48.3376667418
 10
15.3677328748
 20
-48.3233737585
 10
15.2970591741
 20
-48.3104402625
 10
15.2217681853
 20
-48.2991546615
 10
15.1410603264
 20
-48.2897008025
 10
15.0541205514
 20
-48.2822697457
 10
14.9615075617
 20
-48.2772053104
 10
14.8645465276
 20
-48.2748021613
 10
14.7627932292
 20
-48.2750243071
 10
14.6567611387
 20
-48.2778596553
 10
14.5494513587
 20
-48.2831831045
 10
14.4413945704
 20
-48.2905905167
 10
14.3324967249
 20
-48.2997435782
 10
14.2249942213
 20
-48.3102672209
 10
14.1197185982
 20
-48.3216727878
 10
14.016302026
 20
-48.3336175176
 10
13.915194394
 20
-48.3458981553
  0
LINE
  5
311
100
AcDbEntity
  8
RACCORDO
100
AcDbLine
 62
250
  6
CONTINUOUS
 10
25.1036960634
 20
-53.7690438761
 11
24.4408102711
 21
-53.4016874614
  0
LINE
  5
312
100
AcDbEntity
  8
RACCORDO
100
AcDbLine
 62
250
  6
CONTINUOUS
 10
24.4408102711
 20
-53.4016874614
 11
23.8279323562
 21
-53.0585488037
  0
LINE
  5
313
100
AcDbEntity
  8
RACCORDO
100
AcDbLine
 62
250
  6
CONTINUOUS
 10
23.8279323562
 20
-53.0585488037
 11
23.2659869053
 21
-52.7415152981
  0
LINE
  5
314
100
AcDbEntity
  8
RACCORDO
100
AcDbLine
 62
250
  6
CONTINUOUS
 10
23.2659869053
 20
-52.7415152981
 11
22.5040453339
 21
-52.3089823651
  0
LINE
  5
315
100
AcDbEntity
  8
RACCORDO
100
AcDbLine
 62
250
  6
CONTINUOUS
 10
22.5040453339
 20
-52.3089823651
 11
21.1808490358
 21
-51.5541372786
  0
LWPOLYLINE
  5
316
100
AcDbEntity
  8
RACCORDO
100
AcDbPolyline
 62
7
  6
CONTINUOUS
 90
5
 70
0
 10
21.8127810946
 20
-51.9846382476
 10
22.8959369715
 20
-52.6046296074
 10
23.9481704407
 20
-53.2029580219
 10
24.9722528844
 20
-53.7779658828
 10
25.9115047035
 20
-54.296246917
  0
LINE
  5
317
100
AcDbEntity
  8
RACCORDO
100
AcDbLine
 62
250
  6
CONTINUOUS
 10
21.1808490358
 20
-51.5541372786
 11
19.752468003
 21
-50.7367224398
  0
LINE
  5
318
100
AcDbEntity
  8
RACCORDO
100
AcDbLine
 62
250
  6
CONTINUOUS
 10
19.752468003
 20
-50.7367224398
 11
19.3466454187
 21
-50.5041159039
  0
LINE
  5
319
100
AcDbEntity
  8
RACCORDO
100
AcDbLine
 62
250
  6
CONTINUOUS
 10
19.3466454187
 20
-50.5041159039
 11
18.5327596426
 21
-50.037193083
  0
LINE
  5
31A
100
AcDbEntity
  8
RACCORDO
100
AcDbLine
 62
7
  6
CONTINUOUS
 10
19.5455665268
 20
-50.6831639798
 11
21.8127810946
 21
-51.9846382476
  0
LINE
  5
31B
100
AcDbEntity
  8
RACCORDO
100
AcDbLine
 62
250
  6
CONTINUOUS
 10
18.5327596426
 20
-50.037193083
 11
17.9154263288
 21
-49.6826742466
  0
LINE
  5
31C
100
AcDbEntity
  8
RACCORDO
100
AcDbLine
 62
250
  6
CONTINUOUS
 10
17.9154263288
 20
-49.6826742466
 11
17.2760267459
 21
-49.3151796018
  0
LINE
  5
31D
100
AcDbEntity
  8
RACCORDO
100
AcDbLine
 62
250
  6
CONTINUOUS
 10
17.2760267459
 20
-49.3151796018
 11
16.5947308749
 21
-48.9232934454
  0
LINE
  5
31E
100
AcDbEntity
  8
RACCORDO
100
AcDbLine
 62
250
  6
CONTINUOUS
 10
16.5947308749
 20
-48.9232934454
 11
16.1085072018
 21
-48.6434357518
  0
LINE
  5
31F
100
AcDbEntity
  8
RACCORDO
100
AcDbLine
 62
250
  6
CONTINUOUS
 10
16.1085072018
 20
-48.6434357518
 11
15.8557892732
 21
-48.4979253023
  0
LWPOLYLINE
  5
320
100
AcDbEntity
  8
RACCORDO
100
AcDbPolyline
 62
7
  6
CONTINUOUS
 90
3
 70
0
 10
15.941286744
 20
-48.6083993103
 10
17.1419856544
 20
-49.3002153896
 10
19.5455665268
 20
-50.6831639798
  0
LINE
  5
321
100
AcDbEntity
  8
RACCORDO
100
AcDbLine
 62
7
  6
CONTINUOUS
 10
-30.3081110302
 20
-21.9010302349
 11
-28.2896302694
 21
-23.0695496209
  0
LINE
  5
322
100
AcDbEntity
  8
RACCORDO
100
AcDbLine
 62
250
  6
CONTINUOUS
 10
-28.2940049599
 20
-23.0058833775
 11
-30.5588389136
 21
-21.6926446629
  0
LINE
  5
323
100
AcDbEntity
  8
RACCORDO
100
AcDbLine
 62
250
  6
CONTINUOUS
 10
-30.5588389136
 20
-21.6926446629
 11
-32.4618150175
 21
-20.5860851357
  0
LWPOLYLINE
  5
324
100
AcDbEntity
  8
RACCORDO
100
AcDbPolyline
 62
250
  6
CONTINUOUS
 90
8
 70
0
 10
25.9114661636
 20
-54.2962258557
 10
25.9038621586
 20
-54.2917880633
 10
25.8840183249
 20
-54.2772081298
 10
25.8662117373
 20
-54.2594278593
 10
25.85057816
 20
-54.2385828152
 10
25.837236789
 20
-54.2148319278
 10
25.8262893441
 20
-54.1883562827
 10
25.8178192925
 20
-54.15935774
  0
LINE
  5
325
100
AcDbEntity
  8
RACCORDO
100
AcDbLine
 62
250
  6
CONTINUOUS
 10
-32.4618150175
 20
-20.5860851357
 11
-33.8430229973
 21
-19.7805656977
  0
LINE
  5
326
100
AcDbEntity
  8
RACCORDO
100
AcDbLine
 62
250
  6
CONTINUOUS
 10
-33.8430229973
 20
-19.7805656977
 11
-34.739647966
 21
-19.2560899505
  0
LINE
  5
327
100
AcDbEntity
  8
RACCORDO
100
AcDbLine
 62
250
  6
CONTINUOUS
 10
-34.739647966
 20
-19.2560899505
 11
-35.495500421
 21
-18.8117963812
  0
LINE
  5
328
100
AcDbEntity
  8
RACCORDO
100
AcDbLine
 62
250
  6
CONTINUOUS
 10
-35.495500421
 20
-18.8117963812
 11
-36.0393381249
 21
-18.490018067
  0
LINE
  5
329
100
AcDbEntity
  8
RACCORDO
100
AcDbLine
 62
250
  6
CONTINUOUS
 10
-36.0393381249
 20
-18.490018067
 11
-36.6129309252
 21
-18.1480108374
  0
LINE
  5
32A
100
AcDbEntity
  8
RACCORDO
100
AcDbLine
 62
250
  6
CONTINUOUS
 10
-36.6129309252
 20
-18.1480108374
 11
-37.2140307896
 21
-17.7860183822
  0
LWPOLYLINE
  5
32B
100
AcDbEntity
  8
RACCORDO
100
AcDbPolyline
 62
7
  6
CONTINUOUS
 90
7
 70
0
 10
-37.7488557155
 20
-17.5395430511
 10
-36.8471469724
 20
-18.0843134245
 10
-35.8516225431
 20
-18.6753621478
 10
-34.8155530975
 20
-19.2827668807
 10
-33.7418946106
 20
-19.908080357
 10
-32.6326397888
 20
-20.5527346384
 10
-30.3081110302
 20
-21.9010302349
  0
LINE
  5
32C
100
AcDbEntity
  8
RACCORDO
100
AcDbLine
 62
7
  6
CONTINUOUS
 10
-37.7488163817
 20
-17.5395670498
 11
-37.7488557155
 21
-17.5395430511
  0
LINE
  5
32D
100
AcDbEntity
  8
RACCORDO
100
AcDbLine
 62
250
  6
CONTINUOUS
 10
-37.2140307896
 20
-17.7860183822
 11
-37.7134193944
 21
-17.4816609581
  0
LINE
  5
32E
100
AcDbEntity
  8
RACCORDO
100
AcDbLine
 62
250
  6
CONTINUOUS
 10
-37.7134193944
 20
-17.4816609581
 11
-37.8410231557
 21
-17.4035399431
  0
LWPOLYLINE
  5
32F
100
AcDbEntity
  8
RACCORDO
100
AcDbPolyline
 62
250
  6
CONTINUOUS
 90
37
 70
0
 10
-37.8410231557
 20
-17.4035399431
 10
-37.9968561643
 20
-17.3044152435
 10
-38.152503463
 20
-17.199273657
 10
-38.3079112631
 20
-17.0880830304
 10
-38.4629724745
 20
-16.9708266297
 10
-38.6176859195
 20
-16.8474564693
 10
-38.7721579642
 20
-16.7178942873
 10
-38.9267505198
 20
-16.5817809334
 10
-39.0809955641
 20
-16.4394121275
 10
-39.2337670557
 20
-16.2916993814
 10
-39.3849739731
 20
-16.1386182534
 10
-39.5346297732
 20
-15.9801468192
 10
-39.681791139
 20
-15.817215912
 10
-39.8264058435
 20
-15.6498047704
 10
-39.9684788744
 20
-15.4779059174
 10
-40.1071797595
 20
-15.302486266
 10
-40.2424828702
 20
-15.1235294692
 10
-40.3743988493
 20
-14.9410429159
 10
-40.5021789271
 20
-14.7560454394
 10
-40.6258111441
 20
-14.568536307
 10
-40.7453240409
 20
-14.3785261631
 10
-40.8600559742
 20
-14.1870666738
 10
-40.9700350032
 20
-13.9941075683
 10
-41.0752765225
 20
-13.799725093
 10
-41.1751258336
 20
-13.6051761977
 10
-41.2694384115
 20
-13.4108809664
 10
-41.3584296159
 20
-13.2164616582
 10
-41.4419978917
 20
-13.0219864464
 10
-41.5203572219
 20
-12.8271027091
 10
-41.593355412
 20
-12.6322000037
 10
-41.6603520399
 20
-12.4384659888
 10
-41.7213964349
 20
-12.2457392348
 10
-41.7765142379
 20
-12.0542259864
 10
-41.8250510213
 20
-11.8656782822
 10
-41.8668231134
 20
-11.6807007408
 10
-41.9021022395
 20
-11.4987413795
 10
-41.9309254639
 20
-11.3198223545
  0
LWPOLYLINE
  5
330
100
AcDbEntity
  8
RACCORDO
100
AcDbPolyline
 62
250
  6
CONTINUOUS
 90
7
 70
0
 10
15.9412868288
 20
-48.6083993587
 10
15.9281800511
 20
-48.6000054619
 10
15.9096956001
 20
-48.5848547828
 10
15.8931084237
 20
-48.5669412094
 10
15.8785303949
 20
-48.5463855588
 10
15.8660598427
 20
-48.523326477
 10
15.8557808776
 20
-48.4979194914
  0
LWPOLYLINE
  5
331
100
AcDbEntity
  8
RACCORDO
100
AcDbPolyline
 62
250
  6
CONTINUOUS
 90
10
 70
0
 10
11.8537350424
 20
-48.4791237281
 10
11.8369130163
 20
-48.4680805992
 10
11.8185097532
 20
-48.4521715131
 10
11.8020881725
 20
-48.4334208557
 10
11.7877629519
 20
-48.411959571
 10
11.7756341311
 20
-48.3879375335
 10
11.765786414
 20
-48.3615225022
 10
11.7582885717
 20
-48.3328989457
 10
11.7531929616
 20
-48.3022667541
 10
11.7505351664
 20
-48.2698398455
  0
LWPOLYLINE
  5
332
100
AcDbEntity
  8
RACCORDO
100
AcDbPolyline
 62
250
  6
CONTINUOUS
 90
10
 70
0
 10
-8.0434411409
 20
-37.1021428435
 10
-8.0598283862
 20
-37.0913495824
 10
-8.0783056432
 20
-37.075397691
 10
-8.0947934612
 20
-37.0566086495
 10
-8.1091766973
 20
-37.035113672
 10
-8.1213549055
 20
-37.0110628696
 10
-8.1312430374
 20
-36.9846242031
 10
-8.1387720388
 20
-36.9559823084
 10
-8.1438893319
 20
-36.9253372068
 10
-8.1465591808
 20
-36.8929029096
  0
LWPOLYLINE
  5
333
100
AcDbEntity
  8
RACCORDO
100
AcDbPolyline
 62
7
  6
CONTINUOUS
 90
14
 70
0
 10
-40.9867666065
 20
-15.4665085469
 10
-40.9808096022
 20
-15.4704442166
 10
-40.9583586686
 20
-15.4835605866
 10
-40.9348801611
 20
-15.4946793498
 10
-40.9105103904
 20
-15.5037359045
 10
-40.8854077136
 20
-15.5106624107
 10
-40.8597793386
 20
-15.5153929921
 10
-40.8338416975
 20
-15.517885432
 10
-40.8078023685
 20
-15.5181224945
 10
-40.7818445318
 20
-15.5161053113
 10
-40.7561510292
 20
-15.511847805
 10
-40.730909436
 20
-15.5053785189
 10
-40.7063159939
 20
-15.496745359
 10
-40.681941454
 20
-15.4857007469
  0
LINE
  5
334
100
AcDbEntity
  8
SUPERFICI
100
AcDbLine
 62
7
  6
CONTINUOUS
 10
-28.5329520941
 20
-20.4543774901
 11
-28.5322260416
 21
-20.4589186087
  0
LINE
  5
335
100
AcDbEntity
  8
SUPERFICI
100
AcDbLine
 62
7
  6
CONTINUOUS
 10
-28.5322260416
 20
-20.4589186087
 11
-28.5303277906
 21
-20.4711368219
  0
LINE
  5
336
100
AcDbEntity
  8
SUPERFICI
100
AcDbLine
 62
7
  6
CONTINUOUS
 10
-28.5303277906
 20
-20.4711368219
 11
-28.5271851928
 21
-20.492021703
  0
LINE
  5
337
100
AcDbEntity
  8
SUPERFICI
100
AcDbLine
 62
7
  6
CONTINUOUS
 10
-28.5271851928
 20
-20.492021703
 11
-28.5230125417
 21
-20.5206847917
  0
LINE
  5
338
100
AcDbEntity
  8
SUPERFICI
100
AcDbLine
 62
7
  6
CONTINUOUS
 10
-28.5230125417
 20
-20.5206847917
 11
-28.5179928761
 21
-20.5563221258
  0
LINE
  5
339
100
AcDbEntity
  8
SUPERFICI
100
AcDbLine
 62
7
  6
CONTINUOUS
 10
-28.5179928761
 20
-20.5563221258
 11
-28.5095442402
 21
-20.6187546094
  0
LINE
  5
33A
100
AcDbEntity
  8
SUPERFICI
100
AcDbLine
 62
7
  6
CONTINUOUS
 10
-28.5095442402
 20
-20.6187546094
 11
-28.5005279718
 21
-20.6884196212
  0
LINE
  5
33B
100
AcDbEntity
  8
SUPERFICI
100
AcDbLine
 62
7
  6
CONTINUOUS
 10
-28.5005279718
 20
-20.6884196212
 11
-28.491187064
 21
-20.7636520579
  0
LINE
  5
33C
100
AcDbEntity
  8
SUPERFICI
100
AcDbLine
 62
7
  6
CONTINUOUS
 10
-28.491187064
 20
-20.7636520579
 11
-28.4816567529
 21
-20.8434652382
  0
LWPOLYLINE
  5
33D
100
AcDbEntity
  8
RACCORDO
100
AcDbPolyline
 62
250
  6
CONTINUOUS
 90
19
 70
0
 10
-35.7191588244
 20
38.6018836885
 10
-35.7168843224
 20
38.5822723977
 10
-35.7136034262
 20
38.5635468618
 10
-35.7096210798
 20
38.5459793542
 10
-35.7050467702
 20
38.5294896493
 10
-35.6999428898
 20
38.5140037529
 10
-35.694360888
 20
38.4994608257
 10
-35.6883849555
 20
38.4858676035
 10
-35.6820854953
 20
38.47321657
 10
-35.675483024
 20
38.4614356277
 10
-35.6686306664
 20
38.4505011836
 10
-35.6615881745
 20
38.4404003849
 10
-35.654374051
 20
38.4310776841
 10
-35.647035048
 20
38.4225118146
 10
-35.6396156748
 20
38.4146812622
 10
-35.6321219181
 20
38.4075315357
 10
-35.6245867545
 20
38.4010362745
 10
-35.6170474461
 20
38.395174469
 10
-35.6095086829
 20
38.3899022068
  0
LWPOLYLINE
  5
33E
100
AcDbEntity
  8
SUPERFICI
100
AcDbPolyline
 62
7
  6
CONTINUOUS
 90
4
 70
0
 10
-28.4816567529
 20
-20.8434652382
 10
-28.4689286598
 20
-20.9547141085
 10
-28.4657781319
 20
-20.9830590531
 10
-28.4626383429
 20
-21.0116236028
  0
LINE
  5
33F
100
AcDbEntity
  8
SUPERFICI
100
AcDbLine
 62
7
  6
CONTINUOUS
 10
-28.4626383429
 20
-21.0116236028
 11
-28.4501773466
 21
-21.1280844101
  0
LINE
  5
340
100
AcDbEntity
  8
SUPERFICI
100
AcDbLine
 62
7
  6
CONTINUOUS
 10
-28.4501773466
 20
-21.1280844101
 11
-28.4348066933
 21
-21.2785164467
  0
LINE
  5
341
100
AcDbEntity
  8
SUPERFICI
100
AcDbLine
 62
7
  6
CONTINUOUS
 10
-28.4348066933
 20
-21.2785164467
 11
-28.4196472127
 21
-21.4341994137
  0
LINE
  5
342
100
AcDbEntity
  8
SUPERFICI
100
AcDbLine
 62
7
  6
CONTINUOUS
 10
-28.4196472127
 20
-21.4341994137
 11
-28.4016717361
 21
-21.6282388564
  0
LINE
  5
343
100
AcDbEntity
  8
SUPERFICI
100
AcDbLine
 62
7
  6
CONTINUOUS
 10
-28.4016717361
 20
-21.6282388564
 11
-28.3809414756
 21
-21.8647842159
  0
LINE
  5
344
100
AcDbEntity
  8
SUPERFICI
100
AcDbLine
 62
7
  6
CONTINUOUS
 10
-28.3809414756
 20
-21.8647842159
 11
-28.3604720424
 21
-22.1118289959
  0
LINE
  5
345
100
AcDbEntity
  8
SUPERFICI
100
AcDbLine
 62
7
  6
CONTINUOUS
 10
-28.3604720424
 20
-22.1118289959
 11
-28.3375069343
 21
-22.4049409571
  0
LWPOLYLINE
  5
346
100
AcDbEntity
  8
RACCORDO
100
AcDbPolyline
 62
7
  6
CONTINUOUS
 90
16
 70
0
 10
-28.1738998834
 20
-24.943864125
 10
-28.1718732356
 20
-24.9717513055
 10
-28.1654355443
 20
-25.0252385021
 10
-28.1553464287
 20
-25.0792918308
 10
-28.1413007405
 20
-25.1336029587
 10
-28.1230499665
 20
-25.1878007584
 10
-28.1005011296
 20
-25.2412970386
 10
-28.0736061878
 20
-25.2936625425
 10
-28.0423918651
 20
-25.3444274386
 10
-28.0070086409
 20
-25.3930808211
 10
-27.9676261999
 20
-25.4393738853
 10
-27.9245895984
 20
-25.4829351437
 10
-27.8784155715
 20
-25.5234080787
 10
-27.8295240733
 20
-25.560787149
 10
-27.7781737219
 20
-25.595219597
 10
-27.7442919863
 20
-25.6157190626
  0
LINE
  5
347
100
AcDbEntity
  8
SUPERFICI
100
AcDbLine
 62
7
  6
CONTINUOUS
 10
-28.3375069343
 20
-22.4049409571
 11
-28.3095318447
 21
-22.7846034707
  0
LWPOLYLINE
  5
348
100
AcDbEntity
  8
RACCORDO
100
AcDbPolyline
 62
250
  6
CONTINUOUS
 90
16
 70
0
 10
-33.6428142926
 20
47.1104484044
 10
-33.6446176325
 20
47.1364444097
 10
-33.6485545396
 20
47.1635010786
 10
-33.6545828032
 20
47.191328203
 10
-33.66263778
 20
47.2196273071
 10
-33.6726330859
 20
47.248094847
 10
-33.6844615216
 20
47.2764254668
 10
-33.6979962252
 20
47.3043152795
 10
-33.7130920289
 20
47.3314651174
 10
-33.7295870125
 20
47.3575837404
 10
-33.7473042511
 20
47.3823909777
 10
-33.7660537045
 20
47.405620718
 10
-33.7856342479
 20
47.4270237593
 10
-33.8058358456
 20
47.4463705026
 10
-33.8264418056
 20
47.4634534121
 10
-33.8472310929
 20
47.4780892299
  0
LINE
  5
349
100
AcDbEntity
  8
SUPERFICI
100
AcDbLine
 62
7
  6
CONTINUOUS
 10
-28.3095318447
 20
-22.7846034707
 11
-28.2795346058
 21
-23.2186586429
  0
LINE
  5
34A
100
AcDbEntity
  8
SUPERFICI
100
AcDbLine
 62
7
  6
CONTINUOUS
 10
-28.2795346058
 20
-23.2186586429
 11
-28.2475062524
 21
-23.7114087162
  0
LINE
  5
34B
100
AcDbEntity
  8
SUPERFICI
100
AcDbLine
 62
7
  6
CONTINUOUS
 10
-28.2475062524
 20
-23.7114087162
 11
-28.2107633281
 21
-24.3107601927
  0
LINE
  5
34C
100
AcDbEntity
  8
SUPERFICI
100
AcDbLine
 62
7
  6
CONTINUOUS
 10
-28.2107633281
 20
-24.3107601927
 11
-28.1821527613
 21
-24.7995243767
  0
LINE
  5
34D
100
AcDbEntity
  8
SUPERFICI
100
AcDbLine
 62
7
  6
CONTINUOUS
 10
-28.1821527613
 20
-24.7995243767
 11
-28.1738650013
 21
-24.9442565132
  0
LINE
  5
34E
100
AcDbEntity
  8
RACCORDO
100
AcDbLine
 62
7
  6
CONTINUOUS
 10
-28.1738649439
 20
-24.9442575198
 11
-28.173878657
 21
-24.9440160312
  0
LWPOLYLINE
  5
34F
100
AcDbEntity
  8
RACCORDO
100
AcDbPolyline
 62
250
  6
CONTINUOUS
 90
8
 70
0
 10
-27.8472941283
 20
-25.4065495469
 10
-27.8993294571
 20
-24.1316013045
 10
-27.945357379
 20
-22.8528231072
 10
-27.9853760947
 20
-21.5702510197
 10
-28.0194001303
 20
-20.283895185
 10
-28.0474117129
 20
-18.9938178336
 10
-28.0693615578
 20
-17.7001337632
 10
-28.085233336
 20
-16.4029060896
  0
LWPOLYLINE
  5
350
100
AcDbEntity
  8
RACCORDO
100
AcDbPolyline
 62
250
  6
CONTINUOUS
 90
3
 70
0
 10
-28.085233336
 20
-16.4029060896
 10
-28.0950428877
 20
-15.102145764
 10
-28.0980331391
 20
-14.0613714051
  0
LINE
  5
351
100
AcDbEntity
  8
RACCORDO
100
AcDbLine
 62
7
  6
CONTINUOUS
 10
-28.8418469717
 20
49.6997451739
 11
-28.8423334721
 21
49.7539377341
  0
LINE
  5
352
100
AcDbEntity
  8
RACCORDO
100
AcDbLine
 62
7
  6
CONTINUOUS
 10
-28.8423334721
 20
49.7539377341
 11
-28.8424358578
 21
49.7748971268
  0
LINE
  5
353
100
AcDbEntity
  8
RACCORDO
100
AcDbLine
 62
250
  6
CONTINUOUS
 10
-25.4099467701
 20
47.0396034253
 11
-25.4099467701
 21
47.4853301848
  0
LINE
  5
354
100
AcDbEntity
  8
RACCORDO
100
AcDbLine
 62
7
  6
CONTINUOUS
 10
-28.8424358578
 20
49.7748971268
 11
-28.8422588145
 21
49.8450585302
  0
LINE
  5
355
100
AcDbEntity
  8
RACCORDO
100
AcDbLine
 62
7
  6
CONTINUOUS
 10
-28.8422588145
 20
49.8450585302
 11
-28.8417937522
 21
49.8963020059
  0
LINE
  5
356
100
AcDbEntity
  8
RACCORDO
100
AcDbLine
 62
7
  6
CONTINUOUS
 10
-28.8417937522
 20
49.8963020059
 11
-28.8411428503
 21
49.9489616892
  0
LINE
  5
357
100
AcDbEntity
  8
RACCORDO
100
AcDbLine
 62
7
  6
CONTINUOUS
 10
-28.8411428503
 20
49.9489616892
 11
-28.8396697019
 21
50.0270530369
  0
LINE
  5
358
100
AcDbEntity
  8
RACCORDO
100
AcDbLine
 62
7
  6
CONTINUOUS
 10
-28.8396697019
 20
50.0270530369
 11
-28.8377668051
 21
50.0994363106
  0
LWPOLYLINE
  5
359
100
AcDbEntity
  8
RACCORDO
100
AcDbPolyline
 62
7
  6
CONTINUOUS
 90
3
 70
0
 10
-28.8377668051
 20
50.0994363106
 10
-28.8370356721
 20
50.1216644382
 10
-28.8353963337
 20
50.1627047899
  0
LINE
  5
35A
100
AcDbEntity
  8
RACCORDO
100
AcDbLine
 62
7
  6
CONTINUOUS
 10
-28.8353963337
 20
50.1627047899
 11
-28.8347520129
 21
50.1814404304
  0
LWPOLYLINE
  5
35B
100
AcDbEntity
  8
RACCORDO
100
AcDbPolyline
 62
250
  6
CONTINUOUS
 90
16
 70
0
 10
-5.7379580769
 20
31.2254526381
 10
-5.7667869857
 20
31.20686392
 10
-5.7953823867
 20
31.1856998375
 10
-5.8235535034
 20
31.162101592
 10
-5.8511123899
 20
31.1362266244
 10
-5.8778751863
 20
31.1082475643
 10
-5.9036633454
 20
31.0783510776
 10
-5.9283048213
 20
31.0467366232
 10
-5.9516352184
 20
31.0136151203
 10
-5.9734988902
 20
30.9792075402
 10
-5.9937499737
 20
30.9437434362
 10
-6.012253365
 20
30.9074594092
 10
-6.0288856212
 20
30.8705975268
 10
-6.0435357815
 20
30.8334037134
 10
-6.0561061086
 20
30.7961261101
 10
-6.0665127411
 20
30.7590134156
  0
LINE
  5
35C
100
AcDbEntity
  8
DRAFT
100
AcDbLine
 62
7
  6
CONTINUOUS
 10
1.6637196451
 20
31.8533345093
 11
1.2843550112
 21
31.6266481349
  0
LINE
  5
35D
100
AcDbEntity
  8
0
100
AcDbLine
 62
7
  6
CONTINUOUS
 10
-12.2487718563
 20
25.640620057
 11
-12.2993008113
 21
25.6114452716
  0
LINE
  5
35E
100
AcDbEntity
  8
0
100
AcDbLine
 62
7
  6
CONTINUOUS
 10
-11.7209681207
 20
25.3344235845
 11
-11.7714991081
 21
25.3052476256
  0
LINE
  5
35F
100
AcDbEntity
  8
0
100
AcDbLine
 62
7
  6
CONTINUOUS
 10
-10.8197572181
 20
24.8119222034
 11
-10.8702910927
 21
24.7827445776
  0
LINE
  5
360
100
AcDbEntity
  8
0
100
AcDbLine
 62
7
  6
CONTINUOUS
 10
-10.3339136728
 20
24.530422804
 11
-10.3844488656
 21
24.501244417
  0
LINE
  5
361
100
AcDbEntity
  8
0
100
AcDbLine
 62
7
  6
CONTINUOUS
 10
-10.1534343002
 20
24.4260818373
 11
-10.20396998
 21
24.3969031691
  0
LINE
  5
362
100
AcDbEntity
  8
0
100
AcDbLine
 62
7
  6
CONTINUOUS
 10
-9.6670953587
 20
24.1444846953
 11
-9.7176322013
 21
24.1153053557
  0
LWPOLYLINE
  5
363
100
AcDbEntity
  8
RACCORDO
100
AcDbPolyline
 62
250
  6
CONTINUOUS
 90
25
 70
0
 10
14.3647456132
 20
-38.2406777219
 10
14.4072757295
 20
-38.2636116143
 10
14.4493278986
 20
-38.2831244901
 10
14.4909021207
 20
-38.2992163492
 10
14.5321950133
 20
-38.3119383702
 10
14.5730099587
 20
-38.3212393746
 10
14.6127571041
 20
-38.3269658271
 10
14.6513968508
 20
-38.3290597747
 10
14.6889687974
 20
-38.3275791703
 10
14.7250018865
 20
-38.3225443375
 10
14.759480206
 20
-38.3139102312
 10
14.7924196679
 20
-38.3017218966
 10
14.8233969513
 20
-38.2861347922
 10
14.852386471
 20
-38.2671044028
 10
14.8794138122
 20
-38.2446752438
 10
14.9041324096
 20
-38.2191363196
 10
14.9265110661
 20
-38.1904515273
 10
14.9465809788
 20
-38.1586569699
 10
14.9640891745
 20
-38.1241499606
 10
14.9790053935
 20
-38.0868667272
 10
14.9913598954
 20
-38.0468710418
 10
15.0009904864
 20
-38.0047515338
 10
15.0078431016
 20
-37.9607044132
 10
15.0119718057
 20
-37.91453347
 10
15.0133765988
 20
-37.8662387043
  0
LWPOLYLINE
  5
364
100
AcDbEntity
  8
RACCORDO
100
AcDbPolyline
 62
250
  6
CONTINUOUS
 90
25
 70
0
 10
15.0133765988
 20
-37.8662387043
 10
15.060590986
 20
-37.8917900269
 10
15.1105687096
 20
-37.915524679
 10
15.1631004853
 20
-37.9373432705
 10
15.2179663332
 20
-37.9571544349
 10
15.2749364995
 20
-37.9748752117
 10
15.3337724184
 20
-37.9904313941
 10
15.3942277112
 20
-38.0037578399
 10
15.456049218
 20
-38.0147987437
 10
15.5189780577
 20
-38.0235078712
 10
15.5827507123
 20
-38.0298487523
 10
15.6471001301
 20
-38.0337948344
 10
15.7117568445
 20
-38.0353295929
 10
15.7764501017
 20
-38.0344466009
 10
15.8409089952
 20
-38.0311495562
 10
15.9048635995
 20
-38.0254522651
 10
15.9680461014
 20
-38.0173785854
 10
16.0301919204
 20
-38.0069623262
 10
16.0910408175
 20
-37.9942471061
 10
16.1503379845
 20
-37.9792861707
 10
16.2078351111
 20
-37.9621421699
 10
16.263291425
 20
-37.9428868951
 10
16.3164746996
 20
-37.9216009789
 10
16.3671622271
 20
-37.8983735572
 10
16.4151417505
 20
-37.8733018962
  0
LWPOLYLINE
  5
365
100
AcDbEntity
  8
RACCORDO
100
AcDbPolyline
 62
7
  6
CONTINUOUS
 90
19
 70
0
 10
14.5718282342
 20
-38.6984145831
 10
14.657465058
 20
-38.7448798303
 10
14.7431656298
 20
-38.7855813466
 10
14.8287163676
 20
-38.8206394831
 10
14.9138512867
 20
-38.8501655207
 10
14.9984581256
 20
-38.8743324279
 10
15.0825205006
 20
-38.8933186152
 10
15.1656989006
 20
-38.907224426
 10
15.2478937348
 20
-38.9162127325
 10
15.3293799749
 20
-38.9204433824
 10
15.409982801
 20
-38.9199951208
 10
15.4894149886
 20
-38.9149640684
 10
15.5677316249
 20
-38.9054279792
 10
15.6445883276
 20
-38.8915019079
 10
15.7198548464
 20
-38.8732911472
 10
15.7938563902
 20
-38.8507455538
 10
15.8665145622
 20
-38.8238548369
 10
15.9373883115
 20
-38.7927556568
 10
16.0062300383
 20
-38.7575564492
  0
LINE
  5
366
100
AcDbEntity
  8
RACCORDO
100
AcDbLine
 62
7
  6
CONTINUOUS
 10
-32.4507727147
 20
-11.5481541268
 11
14.5718282342
 21
-38.6984145831
  0
LINE
  5
367
100
AcDbEntity
  8
RACCORDO
100
AcDbLine
 62
250
  6
CONTINUOUS
 10
-32.6578553357
 20
-11.0904172656
 11
14.3647456132
 21
-38.2406777219
  0
LWPOLYLINE
  5
368
100
AcDbEntity
  8
RACCORDO
100
AcDbPolyline
 62
250
  6
CONTINUOUS
 90
14
 70
0
 10
-33.3064863214
 20
-9.9669554443
 10
-33.3507396591
 20
-9.9396944489
 10
-33.3918466341
 20
-9.9108379376
 10
-33.4296351085
 20
-9.8805067487
 10
-33.463946841
 20
-9.8488278958
 10
-33.4946381493
 20
-9.8159340358
 10
-33.5215805119
 20
-9.7819629136
 10
-33.544661106
 20
-9.7470567852
 10
-33.5637832803
 20
-9.711361822
 10
-33.5788669598
 20
-9.6750274986
 10
-33.5898489805
 20
-9.6382059671
 10
-33.5966833548
 20
-9.6010514197
 10
-33.5993414633
 20
-9.5637194432
 10
-33.5993795402
 20
-9.5586808509
  0
LWPOLYLINE
  5
369
100
AcDbEntity
  8
RACCORDO
100
AcDbPolyline
 62
250
  6
CONTINUOUS
 90
3
 70
0
 10
-32.4860920868
 20
-11.5246519204
 10
-32.4550927838
 20
-11.5456162904
 10
-32.4507727147
 20
-11.5481541268
  0
LINE
  5
36A
100
AcDbEntity
  8
RACCORDO
100
AcDbLine
 62
250
  6
CONTINUOUS
 10
-24.9894172246
 20
46.7967949362
 11
-24.9894172246
 21
47.2425216957
  0
LINE
  5
36B
100
AcDbEntity
  8
DRAFT
100
AcDbLine
 62
7
  6
CONTINUOUS
 10
4.5406729519
 20
30.1922177267
 11
4.161308318
 21
29.9655313523
  0
LINE
  5
36C
100
AcDbEntity
  8
DRAFT
100
AcDbLine
 62
7
  6
CONTINUOUS
 10
4.717320939
 20
29.6444966334
 11
4.83256094
 21
29.7133573961
  0
LINE
  5
36D
100
AcDbEntity
  8
0
100
AcDbLine
 62
7
  6
CONTINUOUS
 10
-9.1948151033
 20
23.8709730452
 11
-9.245352976
 21
23.8417931109
  0
LINE
  5
36E
100
AcDbEntity
  8
0
100
AcDbLine
 62
7
  6
CONTINUOUS
 10
-11.5046363442
 20
22.0264869125
 11
-11.5547350792
 21
21.9975605308
  0
LINE
  5
36F
100
AcDbEntity
  8
0
100
AcDbLine
 62
7
  6
CONTINUOUS
 10
-8.7086219416
 20
23.5897563483
 11
-8.7591608699
 21
23.5605758044
  0
LINE
  5
370
100
AcDbEntity
  8
0
100
AcDbLine
 62
7
  6
CONTINUOUS
 10
-7.7401486907
 20
23.0300731245
 11
-7.7906897556
 21
23.000891347
  0
LINE
  5
371
100
AcDbEntity
  8
0
100
AcDbLine
 62
7
  6
CONTINUOUS
 10
-10.0903119079
 20
21.2059353281
 11
-10.1404149799
 21
21.1770064423
  0
LINE
  5
372
100
AcDbEntity
  8
0
100
AcDbLine
 62
7
  6
CONTINUOUS
 10
-7.2581939213
 20
22.751904609
 11
-7.30873418
 21
22.722723297
  0
LINE
  5
373
100
AcDbEntity
  8
0
100
AcDbLine
 62
7
  6
CONTINUOUS
 10
-9.3633832073
 20
20.784857418
 11
-9.4134875266
 21
20.7559278119
  0
LINE
  5
374
100
AcDbEntity
  8
0
100
AcDbLine
 62
7
  6
CONTINUOUS
 10
-6.2310117295
 20
22.1596275916
 11
-6.2815497588
 21
22.1304475669
  0
LINE
  5
375
100
AcDbEntity
  8
0
100
AcDbLine
 62
7
  6
CONTINUOUS
 10
-8.6194142381
 20
20.354404943
 11
-8.6695189661
 21
20.325475101
  0
LINE
  5
376
100
AcDbEntity
  8
0
100
AcDbLine
 62
7
  6
CONTINUOUS
 10
-5.7593511944
 20
21.8879007323
 11
-5.8098881747
 21
21.8587213133
  0
LINE
  5
377
100
AcDbEntity
  8
0
100
AcDbLine
 62
7
  6
CONTINUOUS
 10
-4.9048098283
 20
21.3580037974
 11
-4.9553388477
 21
21.3288289748
  0
LINE
  5
378
100
AcDbEntity
  8
0
100
AcDbLine
 62
7
  6
CONTINUOUS
 10
-6.5336972511
 20
20.2633905007
 11
-6.5839403888
 21
20.2343807427
  0
LINE
  5
379
100
AcDbEntity
  8
0
100
AcDbLine
 62
7
  6
CONTINUOUS
 10
-7.4637471637
 20
19.6872467167
 11
-7.5138518907
 21
19.6583168753
  0
LINE
  5
37A
100
AcDbEntity
  8
0
100
AcDbLine
 62
7
  6
CONTINUOUS
 10
-6.9049382939
 20
19.3652818144
 11
-6.9550426872
 21
19.3363521656
  0
LWPOLYLINE
  5
37B
100
AcDbEntity
  8
RACCORDO
100
AcDbPolyline
 62
250
  6
CONTINUOUS
 90
9
 70
0
 10
16.7465769396
 20
-37.9384098721
 10
16.7323289897
 20
-37.9297793222
 10
16.7196891379
 20
-37.9202442518
 10
16.7087917418
 20
-37.9099060353
 10
16.6997526344
 20
-37.8988745849
 10
16.6926678893
 20
-37.887267178
 10
16.6876128025
 20
-37.8752072098
 10
16.6846410965
 20
-37.8628228898
 10
16.6838888254
 20
-37.8556039621
  0
LINE
  5
37C
100
AcDbEntity
  8
0
100
AcDbLine
 62
7
  6
CONTINUOUS
 10
-11.6301393002
 20
23.0189041588
 11
-11.4653637708
 21
23.4097429256
  0
LINE
  5
37D
100
AcDbEntity
  8
0
100
AcDbLine
 62
7
  6
CONTINUOUS
 10
-11.4653637708
 20
23.4097429256
 11
-11.2982508342
 21
23.8012369015
  0
LINE
  5
37E
100
AcDbEntity
  8
0
100
AcDbLine
 62
7
  6
CONTINUOUS
 10
-11.2982508342
 20
23.8012369015
 11
-11.1288046845
 21
24.1933780174
  0
LWPOLYLINE
  5
37F
100
AcDbEntity
  8
0
100
AcDbPolyline
 62
7
  6
CONTINUOUS
 90
3
 70
0
 10
-11.1288046845
 20
24.1933780174
 10
-10.9570420982
 20
24.5861339968
 10
-10.8702910927
 20
24.7827445776
  0
LINE
  5
380
100
AcDbEntity
  8
0
100
AcDbLine
 62
7
  6
CONTINUOUS
 10
-11.3037653937
 20
22.5501720119
 11
-11.5547350792
 21
21.9975605308
  0
LINE
  5
381
100
AcDbEntity
  8
0
100
AcDbLine
 62
7
  6
CONTINUOUS
 10
-11.5046363442
 20
22.0264869125
 11
-11.253544067
 21
22.5792268247
  0
LINE
  5
382
100
AcDbEntity
  8
0
100
AcDbLine
 62
7
  6
CONTINUOUS
 10
-6.9360210385
 20
20.7281150137
 11
-6.6779226506
 21
21.2877695566
  0
LINE
  5
383
100
AcDbEntity
  8
0
100
AcDbLine
 62
7
  6
CONTINUOUS
 10
-11.0475828891
 20
23.1049664975
 11
-11.3037653937
 21
22.5501720119
  0
LINE
  5
384
100
AcDbEntity
  8
0
100
AcDbLine
 62
7
  6
CONTINUOUS
 10
-11.253544067
 20
22.5792268247
 11
-10.9972529757
 21
23.1341089633
  0
LWPOLYLINE
  5
385
100
AcDbEntity
  8
0
100
AcDbPolyline
 62
7
  6
CONTINUOUS
 90
3
 70
0
 10
-6.6779226506
 20
21.2877695566
 10
-6.4149056592
 20
21.8491257821
 10
-6.2815497588
 20
22.1304475669
  0
LINE
  5
386
100
AcDbEntity
  8
0
100
AcDbLine
 62
7
  6
CONTINUOUS
 10
-10.7861986039
 20
23.6619217131
 11
-11.0475828891
 21
23.1049664975
  0
LINE
  5
387
100
AcDbEntity
  8
0
100
AcDbLine
 62
7
  6
CONTINUOUS
 10
-10.9972529757
 20
23.1341089633
 11
-10.7357745314
 21
23.6911106405
  0
LWPOLYLINE
  5
388
100
AcDbEntity
  8
0
100
AcDbPolyline
 62
7
  6
CONTINUOUS
 90
3
 70
0
 10
-10.7357745314
 20
23.6911106405
 10
-10.4691545794
 20
24.2501411047
 10
-10.3339136728
 20
24.530422804
  0
LWPOLYLINE
  5
389
100
AcDbEntity
  8
0
100
AcDbPolyline
 62
7
  6
CONTINUOUS
 90
3
 70
0
 10
-10.3844488656
 20
24.501244417
 10
-10.5196566915
 20
24.2209485618
 10
-10.7861986039
 20
23.6619217131
  0
LINE
  5
38A
100
AcDbEntity
  8
0
100
AcDbLine
 62
7
  6
CONTINUOUS
 10
-8.4232189613
 20
20.7913999249
 11
-8.6695189661
 21
20.325475101
  0
LINE
  5
38B
100
AcDbEntity
  8
0
100
AcDbLine
 62
7
  6
CONTINUOUS
 10
-8.6194142381
 20
20.354404943
 11
-8.3730305458
 21
20.8203896595
  0
LINE
  5
38C
100
AcDbEntity
  8
0
100
AcDbLine
 62
7
  6
CONTINUOUS
 10
-8.1733271833
 20
21.2584643112
 11
-8.4232189613
 21
20.7913999249
  0
LINE
  5
38D
100
AcDbEntity
  8
0
100
AcDbLine
 62
7
  6
CONTINUOUS
 10
-8.3730305458
 20
20.8203896595
 11
-8.1230597013
 21
21.2874993498
  0
LINE
  5
38E
100
AcDbEntity
  8
0
100
AcDbLine
 62
7
  6
CONTINUOUS
 10
-8.5267897388
 20
21.6425476868
 11
-8.2843815921
 21
22.0949524441
  0
LINE
  5
38F
100
AcDbEntity
  8
0
100
AcDbLine
 62
7
  6
CONTINUOUS
 10
-8.1230597013
 20
21.2874993498
 11
-7.8695323442
 21
21.7556911772
  0
LINE
  5
390
100
AcDbEntity
  8
0
100
AcDbLine
 62
7
  6
CONTINUOUS
 10
-8.2843815921
 20
22.0949524441
 11
-8.0390059574
 21
22.5477461604
  0
LINE
  5
391
100
AcDbEntity
  8
0
100
AcDbLine
 62
7
  6
CONTINUOUS
 10
-7.9046618495
 20
21.7545434996
 11
-8.1733271833
 21
21.2584643112
  0
LINE
  5
392
100
AcDbEntity
  8
0
100
AcDbLine
 62
7
  6
CONTINUOUS
 10
-7.8695323442
 20
21.7556911772
 11
-7.8390807207
 21
21.8115449456
  0
LINE
  5
393
100
AcDbEntity
  8
0
100
AcDbLine
 62
7
  6
CONTINUOUS
 10
-7.8283764342
 20
21.8942581748
 11
-7.9046618495
 21
21.7545434996
  0
LINE
  5
394
100
AcDbEntity
  8
0
100
AcDbLine
 62
7
  6
CONTINUOUS
 10
-8.0390059574
 20
22.5477461604
 11
-7.7906897556
 21
23.000891347
  0
LWPOLYLINE
  5
395
100
AcDbEntity
  8
0
100
AcDbPolyline
 62
7
  6
CONTINUOUS
 90
17
 70
0
 10
-4.0966470705
 20
19.5786020653
 10
-4.0828503494
 20
19.5873767695
 10
-4.068505218
 20
19.5983504106
 10
-4.0549332934
 20
19.6107091059
 10
-4.0422124584
 20
19.624350179
 10
-4.0303772568
 20
19.6391958431
 10
-4.0194544737
 20
19.6551755716
 10
-4.0095028564
 20
19.6721976234
 10
-4.0004952961
 20
19.6901608471
 10
-3.9923618659
 20
19.7089760325
 10
-3.9850594247
 20
19.728562369
 10
-3.9785349207
 20
19.7488182299
 10
-3.9727284418
 20
19.7696612758
 10
-3.9675982011
 20
19.7910498117
 10
-3.9630999771
 20
19.8129140879
 10
-3.9591798534
 20
19.8351507918
 10
-3.9557872784
 20
19.857671559
  0
LWPOLYLINE
  5
396
100
AcDbEntity
  8
0
100
AcDbPolyline
 62
7
  6
CONTINUOUS
 90
44
 70
0
 10
-3.7146391246
 20
19.163845738
 10
-3.7049339773
 20
19.1696645748
 10
-3.6916656406
 20
19.1781385138
 10
-3.6782096157
 20
19.1873620592
 10
-3.6646711516
 20
19.197621789
 10
-3.651051674
 20
19.2089518063
 10
-3.6373485417
 20
19.2213186801
 10
-3.6236606566
 20
19.2349078233
 10
-3.6099828493
 20
19.2497213961
 10
-3.5963186834
 20
19.2657581264
 10
-3.5827799303
 20
19.2831984044
 10
-3.5693509346
 20
19.3020219948
 10
-3.5560452872
 20
19.3222502747
 10
-3.5430183335
 20
19.3441262174
 10
-3.5302414698
 20
19.3676449779
 10
-3.5177405924
 20
19.3928128984
 10
-3.5057524396
 20
19.4198899303
 10
-3.494260963
 20
19.448883308
 10
-3.4832787993
 20
19.4797876838
 10
-3.473085373
 20
19.5128443247
 10
-3.4636652987
 20
19.5480439955
 10
-3.4550298518
 20
19.5853982041
 10
-3.4474980942
 20
19.6251795287
 10
-3.4409763133
 20
19.667384881
 10
-3.4355532401
 20
19.7120201037
 10
-3.431821385
 20
19.7593712915
 10
-3.4296549538
 20
19.8097240105
 10
-3.4291739286
 20
19.8627959083
 10
-3.4313411541
 20
19.9180202781
 10
-3.4364552187
 20
19.9760882419
 10
-3.4442146385
 20
20.0363102788
 10
-3.4546883888
 20
20.0960452689
 10
-3.4682700636
 20
20.1551820699
 10
-3.4845727156
 20
20.2138281487
 10
-3.5025014162
 20
20.2696664791
 10
-3.5220075291
 20
20.3219906208
 10
-3.5431500771
 20
20.3715012708
 10
-3.5649972538
 20
20.4179912051
 10
-3.5873743178
 20
20.4613475865
 10
-3.6104627677
 20
20.5016795158
 10
-3.63386402
 20
20.5391133042
 10
-3.6574465199
 20
20.5736903333
 10
-3.6813460519
 20
20.6053668828
 10
-3.7055643337
 20
20.6341420028
  0
LINE
  5
397
100
AcDbEntity
  8
0
100
AcDbLine
 62
250
  6
CONTINUOUS
 10
-3.7055648924
 20
20.6341427
 11
-3.7560849825
 21
20.6049730332
  0
LINE
  5
398
100
AcDbEntity
  8
0
100
AcDbLine
 62
7
  6
CONTINUOUS
 10
-4.6314889497
 20
19.8072813155
 11
-4.6818130233
 21
19.7782248261
  0
LINE
  5
399
100
AcDbEntity
  8
0
100
AcDbLine
 62
250
  6
CONTINUOUS
 10
-4.3525146112
 20
19.646949502
 11
-4.4028377866
 21
19.6178935312
  0
LINE
  5
39A
100
AcDbEntity
  8
0
100
AcDbLine
 62
7
  6
CONTINUOUS
 10
-5.4652037833
 20
18.5370355896
 11
-5.5153051629
 21
18.508107681
  0
LINE
  5
39B
100
AcDbEntity
  8
0
100
AcDbLine
 62
7
  6
CONTINUOUS
 10
-3.9118428593
 20
19.0804139808
 11
-3.9339774889
 21
19.0676337231
  0
LINE
  5
39C
100
AcDbEntity
  8
0
100
AcDbLine
 62
7
  6
CONTINUOUS
 10
-4.8355018453
 20
18.1753280507
 11
-4.8856011259
 21
18.146401354
  0
LINE
  5
39D
100
AcDbEntity
  8
0
100
AcDbLine
 62
250
  6
CONTINUOUS
 10
-3.6817833476
 20
18.3606087708
 11
-3.7319834484
 21
18.3316238618
  0
LINE
  5
39E
100
AcDbEntity
  8
0
100
AcDbLine
 62
7
  6
CONTINUOUS
 10
-3.6173351708
 20
17.4764717004
 11
-3.6674294647
 21
17.447547883
  0
LWPOLYLINE
  5
39F
100
AcDbEntity
  8
0
100
AcDbPolyline
 62
7
  6
CONTINUOUS
 90
17
 70
0
 10
-3.764962202
 20
19.1348460045
 10
-3.7685298493
 20
19.1328064768
 10
-3.780683555
 20
19.1261480349
 10
-3.7926073254
 20
19.1200093985
 10
-3.8042901596
 20
19.1143244261
 10
-3.8156897501
 20
19.1090506423
 10
-3.8267973674
 20
19.1041377067
 10
-3.8376575227
 20
19.0995191019
 10
-3.848220886
 20
19.0951734624
 10
-3.8585012375
 20
19.0910724814
 10
-3.8686737554
 20
19.0872913646
 10
-3.8787796148
 20
19.0840697914
 10
-3.8888493781
 20
19.0816345481
 10
-3.8990863143
 20
19.0802149488
 10
-3.9096009641
 20
19.0801050316
 10
-3.9203908002
 20
19.0815919483
 10
-3.931511
 20
19.0849771984
  0
LWPOLYLINE
  5
3A0
100
AcDbEntity
  8
0
100
AcDbPolyline
 62
7
  6
CONTINUOUS
 90
5
 70
0
 10
-4.0721261439
 20
19.5955804994
 10
-4.0747664325
 20
19.5944692598
 10
-4.0932523997
 20
19.5888878797
 10
-4.1122057539
 20
19.5850904157
 10
-4.1316396632
 20
19.5831727091
  0
LWPOLYLINE
  5
3A1
100
AcDbEntity
  8
RACCORDO
100
AcDbPolyline
 62
250
  6
CONTINUOUS
 90
10
 70
0
 10
-48.4915459258
 20
22.3474180664
 10
-48.0047235214
 20
21.8355302301
 10
-47.5079820863
 20
21.3252866255
 10
-47.001211812
 20
20.8167528931
 10
-46.4843148097
 20
20.3099953699
 10
-45.9572110607
 20
19.8050540671
 10
-45.4198486993
 20
19.3019365233
 10
-44.8721779717
 20
18.8006646581
 10
-44.3141447257
 20
18.3012786641
 10
-43.7456902035
 20
17.803813665
  0
LINE
  5
3A2
100
AcDbEntity
  8
0
100
AcDbLine
 62
7
  6
CONTINUOUS
 10
-11.666454702
 20
23.5275259183
 11
-11.6301393002
 21
23.0189041588
  0
LINE
  5
3A3
100
AcDbEntity
  8
0
100
AcDbLine
 62
7
  6
CONTINUOUS
 10
-11.5855244224
 20
23.1250603417
 11
-11.6161638486
 21
23.5564519742
  0
LINE
  5
3A4
100
AcDbEntity
  8
0
100
AcDbLine
 62
7
  6
CONTINUOUS
 10
-11.6999653558
 20
24.0358517039
 11
-11.666454702
 21
23.5275259183
  0
LINE
  5
3A5
100
AcDbEntity
  8
0
100
AcDbLine
 62
7
  6
CONTINUOUS
 10
-11.6161638486
 20
23.5564519742
 11
-11.6496050353
 21
24.064770576
  0
LINE
  5
3A6
100
AcDbEntity
  8
0
100
AcDbLine
 62
7
  6
CONTINUOUS
 10
-11.7306736608
 20
24.5438708784
 11
-11.6999653558
 21
24.0358517039
  0
LINE
  5
3A7
100
AcDbEntity
  8
0
100
AcDbLine
 62
7
  6
CONTINUOUS
 10
-11.6496050353
 20
24.064770576
 11
-11.6802451974
 21
24.5728454998
  0
LWPOLYLINE
  5
3A8
100
AcDbEntity
  8
0
100
AcDbPolyline
 62
7
  6
CONTINUOUS
 90
3
 70
0
 10
-11.6802451974
 20
24.5728454998
 10
-11.7080923908
 20
25.0806340395
 10
-11.7209681207
 20
25.3344235845
  0
LWPOLYLINE
  5
3A9
100
AcDbEntity
  8
0
100
AcDbPolyline
 62
7
  6
CONTINUOUS
 90
3
 70
0
 10
-11.7714991081
 20
25.3052476256
 10
-11.7585892136
 20
25.0515408935
 10
-11.7306736608
 20
24.5438708784
  0
LWPOLYLINE
  5
3AA
100
AcDbEntity
  8
RACCORDO
100
AcDbPolyline
 62
250
  6
CONTINUOUS
 90
10
 70
0
 10
-8.3898375703
 20
17.4270559083
 10
-8.4232379684
 20
17.0566167878
 10
-8.4547634282
 20
16.6869530308
 10
-8.4844118867
 20
16.3180657782
 10
-8.5121813246
 20
15.949955934
 10
-8.5380701217
 20
15.5826246066
 10
-8.5620770161
 20
15.2160731307
 10
-8.5842001223
 20
14.8503027613
 10
-8.6044363447
 20
14.4853149977
 10
-8.6227825932
 20
14.1211115486
  0
LINE
  5
3AB
100
AcDbEntity
  8
0
100
AcDbLine
 62
7
  6
CONTINUOUS
 10
-7.8684948151
 20
21.457344621
 11
-7.8283764342
 21
21.8942581748
  0
LWPOLYLINE
  5
3AC
100
AcDbEntity
  8
0
100
AcDbPolyline
 62
7
  6
CONTINUOUS
 90
10
 70
0
 10
-10.6264286836
 20
21.4587913725
 10
-10.5848039831
 20
21.7843514841
 10
-10.5418484974
 20
22.1101430112
 10
-10.4975622264
 20
22.4361659538
 10
-10.4519425083
 20
22.7624299478
 10
-10.4049920049
 20
23.0889253574
 10
-10.3567187019
 20
23.4156232751
 10
-10.307125261
 20
23.742514065
 10
-10.2562090204
 20
24.069607363
 10
-10.20396998
 20
24.3969031691
  0
LWPOLYLINE
  5
3AD
100
AcDbEntity
  8
0
100
AcDbPolyline
 62
7
  6
CONTINUOUS
 90
10
 70
0
 10
-10.0903119079
 20
21.2059353281
 10
-10.0485904052
 20
21.5316350996
 10
-10.0055411758
 20
21.8575436332
 10
-9.9611642198
 20
22.1836609288
 10
-9.9154567541
 20
22.5099967645
 10
-9.8684215618
 20
22.8365413623
 10
-9.8200669912
 20
23.1632653877
 10
-9.7703958253
 20
23.4901590626
 10
-9.7194052811
 20
23.8172321651
 10
-9.6670953587
 20
24.1444846953
  0
LWPOLYLINE
  5
3AE
100
AcDbEntity
  8
0
100
AcDbPolyline
 62
250
  6
CONTINUOUS
 90
7
 70
0
 10
-7.869532118
 20
21.7556915901
 10
-7.9735022656
 20
21.0270856247
 10
-8.0705730094
 20
20.3013454348
 10
-8.1607434677
 20
19.5784715078
 10
-8.24401221
 20
18.8584646348
 10
-8.3203782996
 20
18.1413253337
 10
-8.3898375703
 20
17.4270559083
  0
LINE
  5
3AF
100
AcDbEntity
  8
0
100
AcDbLine
 62
250
  6
CONTINUOUS
 10
-7.8582962958
 20
22.1384980819
 11
-7.9198747322
 21
21.7266243311
  0
LINE
  5
3B0
100
AcDbEntity
  8
0
100
AcDbLine
 62
250
  6
CONTINUOUS
 10
-7.7945165697
 20
22.5512863297
 11
-7.8582962958
 21
22.1384980819
  0
LWPOLYLINE
  5
3B1
100
AcDbEntity
  8
0
100
AcDbPolyline
 62
7
  6
CONTINUOUS
 90
10
 70
0
 10
-9.7176322013
 20
24.1153053557
 10
-9.7698958194
 20
23.7880303364
 10
-9.8208395046
 20
23.4609474401
 10
-9.870463257
 20
23.134056667
 10
-9.9187697506
 20
22.8073483938
 10
-9.9657563114
 20
22.4808322437
 10
-10.0114149169
 20
22.1545370865
 10
-10.0557428931
 20
21.8284725455
 10
-10.0987429141
 20
21.5026289974
 10
-10.1404149799
 20
21.1770064423
  0
LINE
  5
3B2
100
AcDbEntity
  8
0
100
AcDbLine
 62
250
  6
CONTINUOUS
 10
-7.7285295956
 20
22.9649918248
 11
-7.7945165697
 21
22.5512863297
  0
LINE
  5
3B3
100
AcDbEntity
  8
0
100
AcDbLine
 62
250
  6
CONTINUOUS
 10
-7.6103567166
 20
23.4050424091
 11
-7.6779883144
 21
22.9941736434
  0
LINE
  5
3B4
100
AcDbEntity
  8
0
100
AcDbLine
 62
250
  6
CONTINUOUS
 10
-7.5405460461
 20
23.8168195957
 11
-7.6103567166
 21
23.4050424091
  0
LINE
  5
3B5
100
AcDbEntity
  8
0
100
AcDbLine
 62
7
  6
CONTINUOUS
 10
-9.3356506489
 20
21.165623603
 11
-9.4134875266
 21
20.7559278119
  0
LINE
  5
3B6
100
AcDbEntity
  8
0
100
AcDbLine
 62
7
  6
CONTINUOUS
 10
-9.3633832073
 20
20.784857418
 11
-9.2854783434
 21
21.1946499126
  0
LINE
  5
3B7
100
AcDbEntity
  8
0
100
AcDbLine
 62
7
  6
CONTINUOUS
 10
-9.2555173602
 20
21.5761966021
 11
-9.3356506489
 21
21.165623603
  0
LINE
  5
3B8
100
AcDbEntity
  8
0
100
AcDbLine
 62
7
  6
CONTINUOUS
 10
-9.2854783434
 20
21.1946499126
 11
-9.2052815325
 21
21.6052843412
  0
LINE
  5
3B9
100
AcDbEntity
  8
0
100
AcDbLine
 62
7
  6
CONTINUOUS
 10
-9.1730904219
 20
21.9876387861
 11
-9.2555173602
 21
21.5761966021
  0
LINE
  5
3BA
100
AcDbEntity
  8
0
100
AcDbLine
 62
7
  6
CONTINUOUS
 10
-9.2052815325
 20
21.6052843412
 11
-9.1227957358
 21
22.0167524761
  0
LWPOLYLINE
  5
3BB
100
AcDbEntity
  8
0
100
AcDbPolyline
 62
250
  6
CONTINUOUS
 90
7
 70
0
 10
-6.9642649391
 20
26.8513164764
 10
-7.0682636611
 20
26.3430622137
 10
-7.1690916889
 20
25.8358043045
 10
-7.2667412764
 20
25.3295470322
 10
-7.3612045464
 20
24.8242947524
 10
-7.4524739855
 20
24.3200516196
 10
-7.5405460461
 20
23.8168195957
  0
LWPOLYLINE
  5
3BC
100
AcDbEntity
  8
0
100
AcDbPolyline
 62
7
  6
CONTINUOUS
 90
3
 70
0
 10
-9.1227957358
 20
22.0167524761
 10
-9.0380327977
 20
22.4290214071
 10
-9.028468178
 20
22.4746889848
  0
LWPOLYLINE
  5
3BD
100
AcDbEntity
  8
0
100
AcDbPolyline
 62
7
  6
CONTINUOUS
 90
10
 70
0
 10
-9.8787046474
 20
21.0253546008
 10
-9.8134825853
 20
21.3372926225
 10
-9.7469705145
 20
21.6494874407
 10
-9.679168435
 20
21.9619390553
 10
-9.6100731175
 20
22.2746566649
 10
-9.5396877913
 20
22.587631071
 10
-9.4680221451
 20
22.9008346782
 10
-9.3950794087
 20
23.214258288
 10
-9.3208563523
 20
23.5279110989
 10
-9.245352976
 20
23.8417931109
  0
LWPOLYLINE
  5
3BE
100
AcDbEntity
  8
0
100
AcDbPolyline
 62
7
  6
CONTINUOUS
 90
3
 70
0
 10
-9.0451694415
 20
22.6063736154
 10
-9.0883808795
 20
22.3999180621
 10
-9.1730904219
 20
21.9876387861
  0
LWPOLYLINE
  5
3BF
100
AcDbEntity
  8
0
100
AcDbPolyline
 62
250
  6
CONTINUOUS
 90
6
 70
0
 10
-6.4354121149
 20
29.2426447632
 10
-6.5468212072
 20
28.7624356784
 10
-6.6554018544
 20
28.2832033842
 10
-6.7611629584
 20
27.8049429582
 10
-6.8641141312
 20
27.3276490856
 10
-6.9642649391
 20
26.8513164764
  0
LINE
  5
3C0
100
AcDbEntity
  8
0
100
AcDbLine
 62
250
  6
CONTINUOUS
 10
-6.3027193567
 20
29.8005268641
 11
-6.4354121149
 21
29.2426447632
  0
LINE
  5
3C1
100
AcDbEntity
  8
RACCORDO
100
AcDbLine
 62
250
  6
CONTINUOUS
 10
-6.199132727
 20
30.2260987676
 11
-6.3027193567
 21
29.8005268641
  0
LWPOLYLINE
  5
3C2
100
AcDbEntity
  8
RACCORDO
100
AcDbPolyline
 62
250
  6
CONTINUOUS
 90
3
 70
0
 10
-6.0665144683
 20
30.7590144138
 10
-6.0933141654
 20
30.6523449845
 10
-6.199132727
 20
30.2260987676
  0
LINE
  5
3C3
100
AcDbEntity
  8
0
100
AcDbLine
 62
7
  6
CONTINUOUS
 10
-6.7921848055
 20
19.7279261054
 11
-6.9550426872
 21
19.3363521656
  0
LINE
  5
3C4
100
AcDbEntity
  8
0
100
AcDbLine
 62
7
  6
CONTINUOUS
 10
-6.9049382939
 20
19.3652818144
 11
-6.7420011029
 21
19.7569382131
  0
LINE
  5
3C5
100
AcDbEntity
  8
0
100
AcDbLine
 62
7
  6
CONTINUOUS
 10
-6.7420011029
 20
19.7569382131
 11
-6.714491571
 21
19.8225702207
  0
LINE
  5
3C6
100
AcDbEntity
  8
0
100
AcDbLine
 62
7
  6
CONTINUOUS
 10
-6.7451083155
 20
19.8402008694
 11
-6.7921848055
 21
19.7279261054
  0
LINE
  5
3C7
100
AcDbEntity
  8
0
100
AcDbLine
 62
7
  6
CONTINUOUS
 10
-6.4070502513
 20
20.6571625727
 11
-6.5839403888
 21
20.2343807427
  0
LINE
  5
3C8
100
AcDbEntity
  8
0
100
AcDbLine
 62
7
  6
CONTINUOUS
 10
-6.5336972511
 20
20.2633905007
 11
-6.3567649372
 21
20.6861472172
  0
LINE
  5
3C9
100
AcDbEntity
  8
0
100
AcDbLine
 62
7
  6
CONTINUOUS
 10
-6.3567649372
 20
20.6861472172
 11
-6.1773629942
 21
21.1092015443
  0
LWPOLYLINE
  5
3CA
100
AcDbEntity
  8
0
100
AcDbPolyline
 62
7
  6
CONTINUOUS
 90
3
 70
0
 10
-6.1825327193
 20
21.1859061217
 10
-6.2277378443
 20
21.0801354733
 10
-6.4070502513
 20
20.6571625727
  0
LINE
  5
3CB
100
AcDbEntity
  8
0
100
AcDbLine
 62
7
  6
CONTINUOUS
 10
-7.4373097285
 20
19.6141991163
 11
-7.189153969
 21
20.170250812
  0
LINE
  5
3CC
100
AcDbEntity
  8
0
100
AcDbLine
 62
7
  6
CONTINUOUS
 10
-7.189153969
 20
20.170250812
 11
-6.9360210385
 21
20.7281150137
  0
LINE
  5
3CD
100
AcDbEntity
  8
RACCORDO
100
AcDbLine
 62
250
  6
CONTINUOUS
 10
-40.8856928386
 20
-15.0092531441
 11
-41.1140610784
 21
-15.1692408242
  0
LINE
  5
3CE
100
AcDbEntity
  8
RACCORDO
100
AcDbLine
 62
250
  6
CONTINUOUS
 10
-40.75077783
 20
-14.914995235
 11
-40.8856928386
 21
-15.0092531441
  0
LWPOLYLINE
  5
3CF
100
AcDbEntity
  8
RACCORDO
100
AcDbPolyline
 62
250
  6
CONTINUOUS
 90
19
 70
0
 10
-42.1656723935
 20
-11.6447014779
 10
-42.1865935967
 20
-11.6587421142
 10
-42.2091661364
 20
-11.6715615625
 10
-42.2331911891
 20
-11.6830469056
 10
-42.2584571354
 20
-11.6930969768
 10
-42.2847414292
 20
-11.701623253
 10
-42.3118125583
 20
-11.7085506335
 10
-42.3394320747
 20
-11.7138180985
 10
-42.3673566991
 20
-11.7173792492
 10
-42.3953404697
 20
-11.7192027165
 10
-42.4231368984
 20
-11.7192724361
 10
-42.4505011461
 20
-11.7175877911
 10
-42.4771921835
 20
-11.7141636169
 10
-42.5029749071
 20
-11.7090300712
 10
-42.5276222125
 20
-11.7022323685
 10
-42.5509169979
 20
-11.693830381
 10
-42.5726540727
 20
-11.6838981124
 10
-42.5926419648
 20
-11.6725230464
 10
-42.6107046096
 20
-11.6598053753
  0
LINE
  5
3D0
100
AcDbEntity
  8
RACCORDO
100
AcDbLine
 62
250
  6
CONTINUOUS
 10
-42.1656723935
 20
-11.6447014779
 11
-41.9674098605
 21
-11.5341549297
  0
LWPOLYLINE
  5
3D1
100
AcDbEntity
  8
RACCORDO
100
AcDbPolyline
 62
250
  6
CONTINUOUS
 90
10
 70
0
 10
37.041358568
 20
-27.0389171265
 10
36.154753264
 20
-26.757627974
 10
35.2710763162
 20
-26.4706583538
 10
34.3904194374
 20
-26.1779320275
 10
33.5128643341
 20
-25.8793732508
 10
32.6384777301
 20
-25.5749343827
 10
31.7673028346
 20
-25.2646029779
 10
30.8993811185
 20
-24.9483523875
 10
30.0347577536
 20
-24.6261372372
 10
29.1734817949
 20
-24.297916749
  0
LINE
  5
3D2
100
AcDbEntity
  8
RACCORDO
100
AcDbLine
 62
250
  6
CONTINUOUS
 10
28.0116161153
 20
-23.8440297668
 11
27.5753525956
 21
-23.6697210115
  0
LINE
  5
3D3
100
AcDbEntity
  8
RACCORDO
100
AcDbLine
 62
250
  6
CONTINUOUS
 10
27.5753525956
 20
-23.6697210115
 11
27.3574410295
 21
-23.5818693403
  0
LWPOLYLINE
  5
3D4
100
AcDbEntity
  8
RACCORDO
100
AcDbPolyline
 62
250
  6
CONTINUOUS
 90
10
 70
0
 10
27.3574410295
 20
-23.5818693403
 10
26.1059576638
 20
-23.0681000874
 10
24.8644467639
 20
-22.5417145215
 10
23.6330482788
 20
-22.0025963075
 10
22.4118979117
 20
-21.450605109
 10
21.2011297838
 20
-20.8856569657
 10
20.0008779138
 20
-20.3077230625
 10
18.8113096289
 20
-19.7166918357
 10
17.6329134015
 20
-19.1121297031
 10
16.4661817
 20
-18.493627291
  0
LWPOLYLINE
  5
3D5
100
AcDbEntity
  8
RACCORDO
100
AcDbPolyline
 62
250
  6
CONTINUOUS
 90
12
 70
0
 10
29.1734818152
 20
-24.2979306234
 10
29.1500436106
 20
-24.2879155518
 10
29.1284001393
 20
-24.2766338695
 10
29.1087558711
 20
-24.2641921603
 10
29.0912963894
 20
-24.2507079688
 10
29.0761866372
 20
-24.2363086833
 10
29.0635693591
 20
-24.221130332
 10
29.053563753
 20
-24.2053163079
 10
29.046264344
 20
-24.1890160119
 10
29.0417400909
 20
-24.1723834345
 10
29.0400337355
 20
-24.1555757054
 10
29.0400189302
 20
-24.1538593607
  0
LWPOLYLINE
  5
3D6
100
AcDbEntity
  8
RACCORDO
100
AcDbPolyline
 62
250
  6
CONTINUOUS
 90
10
 70
0
 10
-42.5047089517
 20
16.7556604805
 10
-41.614896872
 20
16.0330578814
 10
-40.7031830056
 20
15.3161837521
 10
-39.7693995957
 20
14.605138373
 10
-38.8133839738
 20
13.9000465132
 10
-37.8349753683
 20
13.2009767472
 10
-36.8340131299
 20
12.5079425157
 10
-35.8102966829
 20
11.8210361869
 10
-34.7632404948
 20
11.1406353066
 10
-33.6922542469
 20
10.4670927511
  0
LINE
  5
3D7
100
AcDbEntity
  8
RACCORDO
100
AcDbLine
 62
250
  6
CONTINUOUS
 10
-42.8079723851
 20
17.0073115592
 11
-42.5047089517
 21
16.7556604805
  0
LINE
  5
3D8
100
AcDbEntity
  8
RACCORDO
100
AcDbLine
 62
250
  6
CONTINUOUS
 10
-42.9584756443
 20
17.1333087911
 11
-42.8079723851
 21
17.0073115592
  0
LWPOLYLINE
  5
3D9
100
AcDbEntity
  8
RACCORDO
100
AcDbPolyline
 62
250
  6
CONTINUOUS
 90
23
 70
0
 10
-26.7502018796
 20
47.8134499282
 10
-26.7613551869
 20
47.8469192771
 10
-26.774423653
 20
47.8912092504
 10
-26.7846727629
 20
47.9322950378
 10
-26.792089318
 20
47.9701599487
 10
-26.7966830228
 20
48.0047306382
 10
-26.7984137609
 20
48.0361622677
 10
-26.7972561745
 20
48.0643464076
 10
-26.7932027822
 20
48.0888603075
 10
-26.7860939083
 20
48.1096735359
 10
-26.7759606577
 20
48.1269448472
 10
-26.7630316192
 20
48.1405964165
 10
-26.7471333907
 20
48.1506338399
 10
-26.7282914272
 20
48.1572167965
 10
-26.7070044584
 20
48.1605360932
 10
-26.6832421994
 20
48.1606357411
 10
-26.6568911976
 20
48.1576449475
 10
-26.6283212764
 20
48.151890178
 10
-26.5977318348
 20
48.1435667331
 10
-26.5648194428
 20
48.1326108838
 10
-26.5292112801
 20
48.1189471552
 10
-26.4906166512
 20
48.1025386298
 10
-26.449262107
 20
48.0835061178
  0
LWPOLYLINE
  5
3DA
100
AcDbEntity
  8
RACCORDO
100
AcDbPolyline
 62
250
  6
CONTINUOUS
 90
3
 70
0
 10
-26.2159346504
 20
47.504970726
 10
-26.2589886382
 20
47.6513083262
 10
-26.3188712
 20
47.8220041283
  0
LWPOLYLINE
  5
3DB
100
AcDbEntity
  8
0
100
AcDbPolyline
 62
7
  6
CONTINUOUS
 90
3
 70
0
 10
-6.0414720901
 20
18.9488367517
 10
-6.0753843488
 20
19.3849816337
 10
-6.0808432711
 20
19.4578389072
  0
LINE
  5
3DC
100
AcDbEntity
  8
0
100
AcDbLine
 62
7
  6
CONTINUOUS
 10
-6.1169719854
 20
19.9655413334
 11
-6.1406491035
 21
20.3724617812
  0
LINE
  5
3DD
100
AcDbEntity
  8
0
100
AcDbLine
 62
7
  6
CONTINUOUS
 10
-6.1406491035
 20
20.3724617812
 11
-6.1625019846
 21
20.779255299
  0
LINE
  5
3DE
100
AcDbEntity
  8
0
100
AcDbLine
 62
7
  6
CONTINUOUS
 10
-6.1625019846
 20
20.779255299
 11
-6.1825327193
 21
21.1859061217
  0
LWPOLYLINE
  5
3DF
100
AcDbEntity
  8
RACCORDO
100
AcDbPolyline
 62
250
  6
CONTINUOUS
 90
10
 70
0
 10
-8.1465632535
 20
-36.8929005583
 10
-8.1985986062
 20
-35.6183352275
 10
-8.2446088451
 20
-34.3399894287
 10
-8.2845926622
 20
-33.0578995038
 10
-8.3185489207
 20
-31.7721019009
 10
-8.3464766553
 20
-30.4826331737
 10
-8.3683750721
 20
-29.18952998
 10
-8.3842435485
 20
-27.8928290812
 10
-8.3940816334
 20
-26.5925673408
 10
-8.397458439
 20
-25.4362363307
  0
LWPOLYLINE
  5
3E0
100
AcDbEntity
  8
RACCORDO
100
AcDbPolyline
 62
250
  6
CONTINUOUS
 90
9
 70
0
 10
-8.6227603105
 20
14.1210986799
 10
-8.6228029627
 20
14.1034978003
 10
-8.6212099682
 20
14.0869381569
 10
-8.6179997679
 20
14.0716115653
 10
-8.6132095318
 20
14.0576955554
 10
-8.606894747
 20
14.0453513256
 10
-8.5991285747
 20
14.0347218755
 10
-8.5900009783
 20
14.0259303348
 10
-8.5815873419
 20
14.0201724736
  0
LWPOLYLINE
  5
3E1
100
AcDbEntity
  8
0
100
AcDbPolyline
 62
7
  6
CONTINUOUS
 90
10
 70
0
 10
-7.4637471637
 20
19.6872467167
 10
-7.4464240229
 20
20.0269019492
 10
-7.4277204569
 20
20.3667803005
 10
-7.4076364659
 20
20.7068817707
 10
-7.3861701858
 20
21.0472164144
 10
-7.3633234807
 20
21.387774177
 10
-7.3391019424
 20
21.7285248942
 10
-7.3135074351
 20
22.0694585112
 10
-7.2865380947
 20
22.4105850828
 10
-7.2581939213
 20
22.751904609
  0
LINE
  5
3E2
100
AcDbEntity
  8
0
100
AcDbLine
 62
7
  6
CONTINUOUS
 10
-7.9905972777
 20
19.9332302907
 11
-7.9586230469
 21
20.3678593955
  0
LINE
  5
3E3
100
AcDbEntity
  8
0
100
AcDbLine
 62
7
  6
CONTINUOUS
 10
-7.9586230469
 20
20.3678593955
 11
-7.9243176065
 21
20.80316087
  0
LWPOLYLINE
  5
3E4
100
AcDbEntity
  8
0
100
AcDbPolyline
 62
7
  6
CONTINUOUS
 90
10
 70
0
 10
-7.30873418
 20
22.722723297
 10
-7.337026165
 20
22.3814025684
 10
-7.363944226
 20
22.0402821863
 10
-7.3894883629
 20
21.6993621509
 10
-7.4136603865
 20
21.3586325486
 10
-7.436458486
 20
21.0181032929
 10
-7.4578772294
 20
20.6778041237
 10
-7.477914806
 20
20.3377449544
 10
-7.4965730264
 20
19.9979158716
 10
-7.5138518907
 20
19.6583168753
  0
LWPOLYLINE
  5
3E5
100
AcDbEntity
  8
0
100
AcDbPolyline
 62
7
  6
CONTINUOUS
 90
3
 70
0
 10
-7.9243176065
 20
20.80316087
 10
-7.8876828033
 20
21.239126284
 10
-7.8684948151
 20
21.457344621
  0
LWPOLYLINE
  5
3E6
100
AcDbEntity
  8
0
100
AcDbPolyline
 62
7
  6
CONTINUOUS
 90
19
 70
0
 10
-3.9557872677
 20
19.857671553
 10
-3.9527293765
 20
19.8863008078
 10
-3.9514435049
 20
19.916285082
 10
-3.9519487627
 20
19.9474446222
 10
-3.9542162088
 20
19.9795602687
 10
-3.9583005408
 20
20.0124445905
 10
-3.9643651555
 20
20.04594591
 10
-3.9724736413
 20
20.0799563547
 10
-3.9826340688
 20
20.114066755
 10
-3.9949040538
 20
20.1476522349
 10
-4.0092931911
 20
20.1804228487
 10
-4.0256429907
 20
20.2121762808
 10
-4.0436610437
 20
20.2424584558
 10
-4.0630880769
 20
20.2710439416
 10
-4.0837570004
 20
20.297910061
 10
-4.1054782339
 20
20.3229380182
 10
-4.1280537694
 20
20.3460027682
 10
-4.1512759311
 20
20.3669753206
 10
-4.1749436563
 20
20.3857301283
  0
LWPOLYLINE
  5
3E7
100
AcDbEntity
  8
0
100
AcDbPolyline
 62
7
  6
CONTINUOUS
 90
10
 70
0
 10
-5.3719455156
 20
18.4257328932
 10
-5.3308616393
 20
18.7473473941
 10
-5.2884744254
 20
19.0692068066
 10
-5.244783874
 20
19.3913111307
 10
-5.1997874528
 20
19.7136696718
 10
-5.153487694
 20
20.0362731245
 10
-5.1058921944
 20
20.3590935728
 10
-5.0570034863
 20
20.6821217112
 10
-5.0068190374
 20
21.0053668453
 10
-4.9553388477
 20
21.3288289748
  0
LINE
  5
3E8
100
AcDbEntity
  8
0
100
AcDbLine
 62
7
  6
CONTINUOUS
 10
-4.8370704349
 20
18.5257922351
 11
-4.8856011259
 21
18.146401354
  0
LINE
  5
3E9
100
AcDbEntity
  8
0
100
AcDbLine
 62
7
  6
CONTINUOUS
 10
-4.8355018453
 20
18.1753280507
 11
-4.7869217798
 21
18.5547464166
  0
LINE
  5
3EA
100
AcDbEntity
  8
0
100
AcDbLine
 62
7
  6
CONTINUOUS
 10
-4.7865963543
 20
18.9063717575
 11
-4.8370704349
 21
18.5257922351
  0
LINE
  5
3EB
100
AcDbEntity
  8
0
100
AcDbLine
 62
7
  6
CONTINUOUS
 10
-4.7869217798
 20
18.5547464166
 11
-4.7363961669
 21
18.9353558177
  0
LINE
  5
3EC
100
AcDbEntity
  8
0
100
AcDbLine
 62
7
  6
CONTINUOUS
 10
-4.734177276
 20
19.2881252493
 11
-4.7865963543
 21
18.9063717575
  0
LINE
  5
3ED
100
AcDbEntity
  8
0
100
AcDbLine
 62
7
  6
CONTINUOUS
 10
-4.7363961669
 20
18.9353558177
 11
-4.6913751527
 21
19.2635307771
  0
LINE
  5
3EE
100
AcDbEntity
  8
0
100
AcDbLine
 62
7
  6
CONTINUOUS
 10
-3.931511
 20
19.0849771984
 11
-3.9339774889
 21
19.0676337231
  0
LINE
  5
3EF
100
AcDbEntity
  8
0
100
AcDbLine
 62
7
  6
CONTINUOUS
 10
-4.6314889497
 20
19.8072813155
 11
-4.5782462815
 21
20.1674428584
  0
LINE
  5
3F0
100
AcDbEntity
  8
0
100
AcDbLine
 62
7
  6
CONTINUOUS
 10
-4.6150884059
 20
20.2283456233
 11
-4.6818130233
 21
19.7782248261
  0
LINE
  5
3F1
100
AcDbEntity
  8
0
100
AcDbLine
 62
7
  6
CONTINUOUS
 10
-4.5599881021
 20
20.5881281641
 11
-4.6150884059
 21
20.2283456233
  0
LINE
  5
3F2
100
AcDbEntity
  8
0
100
AcDbLine
 62
7
  6
CONTINUOUS
 10
-4.5782462815
 20
20.1674428584
 11
-4.5164722889
 21
20.5725009164
  0
LWPOLYLINE
  5
3F3
100
AcDbEntity
  8
RACCORDO
100
AcDbPolyline
 62
250
  6
CONTINUOUS
 90
16
 70
0
 10
-40.6248684134
 20
-15.3577453502
 10
-40.6494173132
 20
-15.3729581357
 10
-40.6758284609
 20
-15.3860943866
 10
-40.7038166375
 20
-15.3970121804
 10
-40.7330796553
 20
-15.4055935725
 10
-40.763301398
 20
-15.41174579
 10
-40.7941552131
 20
-15.4154022969
 10
-40.8253077612
 20
-15.4165235959
 10
-40.8564226345
 20
-15.4150975924
 10
-40.8871637524
 20
-15.4111396884
 10
-40.9171988613
 20
-15.4046926832
 10
-40.9462037716
 20
-15.3958261933
 10
-40.9738657754
 20
-15.3846357305
 10
-40.9998861637
 20
-15.3712419181
 10
-41.0239835428
 20
-15.3557893612
 10
-41.0458974659
 20
-15.3384448525
  0
LINE
  5
3F4
100
AcDbEntity
  8
RACCORDO
100
AcDbLine
 62
250
  6
CONTINUOUS
 10
-40.5251967301
 20
-14.7989764148
 11
-40.7507778355
 21
-14.914995233
  0
LINE
  5
3F5
100
AcDbEntity
  8
RACCORDO
100
AcDbLine
 62
7
  6
CONTINUOUS
 10
-40.6819028454
 20
-15.4856849175
 11
-40.205973181
 21
-15.2440642159
  0
LWPOLYLINE
  5
3F6
100
AcDbEntity
  8
RACCORDO
100
AcDbPolyline
 62
250
  6
CONTINUOUS
 90
7
 70
0
 10
-33.6922542789
 20
10.4671082591
 10
-33.6773709517
 20
10.4588058596
 10
-33.6610798497
 20
10.4514360519
 10
-33.6435555241
 20
10.4450778683
 10
-33.6249857398
 20
10.4397995801
 10
-33.6055694627
 20
10.4356577403
 10
-33.5993795402
 20
10.4347437731
  0
LWPOLYLINE
  5
3F7
100
AcDbEntity
  8
RACCORDO
100
AcDbPolyline
 62
250
  6
CONTINUOUS
 90
9
 70
0
 10
16.4661817229
 20
-18.4936701158
 10
16.4517918899
 20
-18.4850810781
 10
16.4390176702
 20
-18.4756788633
 10
16.4279959332
 20
-18.4655642609
 10
16.4188447715
 20
-18.4548457475
 10
16.4116622356
 20
-18.4436381664
 10
16.4065252827
 20
-18.4320614969
 10
16.4034889528
 20
-18.4202398297
 10
16.4025791598
 20
-18.4092610666
  0
LINE
  5
3F8
100
AcDbEntity
  8
RACCORDO
100
AcDbLine
 62
250
  6
CONTINUOUS
 10
29.394504442
 20
-55.8800028168
 11
29.3776016164
 21
-55.8564657123
  0
LINE
  5
3F9
100
AcDbEntity
  8
0
100
AcDbLine
 62
7
  6
CONTINUOUS
 10
-8.7377716321
 20
20.3649438854
 11
-8.8102939871
 21
20.8607813658
  0
LINE
  5
3FA
100
AcDbEntity
  8
0
100
AcDbLine
 62
7
  6
CONTINUOUS
 10
-8.8102939871
 20
20.8607813658
 11
-8.8804102356
 21
21.357921354
  0
LINE
  5
3FB
100
AcDbEntity
  8
0
100
AcDbLine
 62
7
  6
CONTINUOUS
 10
-8.8804102356
 20
21.357921354
 11
-8.9481199733
 21
21.8563555764
  0
LWPOLYLINE
  5
3FC
100
AcDbEntity
  8
0
100
AcDbPolyline
 62
7
  6
CONTINUOUS
 90
3
 70
0
 10
-8.9481199733
 20
21.8563555764
 10
-9.0134215833
 20
22.3560509386
 10
-9.0451694415
 20
22.6063736154
  0
LINE
  5
3FD
100
AcDbEntity
  8
0
100
AcDbLine
 62
7
  6
CONTINUOUS
 10
-8.4833126065
 20
21.7239978869
 11
-8.5313733367
 21
22.0978106862
  0
LINE
  5
3FE
100
AcDbEntity
  8
0
100
AcDbLine
 62
7
  6
CONTINUOUS
 10
-8.6084593836
 20
22.2818041271
 11
-8.5267897388
 21
21.6425476868
  0
LINE
  5
3FF
100
AcDbEntity
  8
0
100
AcDbLine
 62
7
  6
CONTINUOUS
 10
-8.5313733367
 20
22.0978106862
 11
-8.58436198
 21
22.524066965
  0
LINE
  5
400
100
AcDbEntity
  8
0
100
AcDbLine
 62
7
  6
CONTINUOUS
 10
-8.6859162552
 20
22.921162875
 11
-8.6084593836
 21
22.2818041271
  0
LINE
  5
401
100
AcDbEntity
  8
0
100
AcDbLine
 62
7
  6
CONTINUOUS
 10
-8.58436198
 20
22.524066965
 11
-8.6354734506
 21
22.9503434476
  0
LWPOLYLINE
  5
402
100
AcDbEntity
  8
0
100
AcDbPolyline
 62
7
  6
CONTINUOUS
 90
3
 70
0
 10
-8.6354734506
 20
22.9503434476
 10
-8.6847082913
 20
23.3766182276
 10
-8.7086219416
 20
23.5897563483
  0
LINE
  5
403
100
AcDbEntity
  8
0
100
AcDbLine
 62
7
  6
CONTINUOUS
 10
-8.7591608699
 20
23.5605758044
 11
-8.6859162552
 21
22.921162875
  0
LWPOLYLINE
  5
404
100
AcDbEntity
  8
0
100
AcDbPolyline
 62
7
  6
CONTINUOUS
 90
10
 70
0
 10
-11.982615894
 20
22.2461259211
 10
-12.0236522738
 20
22.619181069
 10
-12.0632268992
 20
22.9924606423
 10
-12.1013397702
 20
23.3659646409
 10
-12.1379916031
 20
23.7397025573
 10
-12.1731816816
 20
24.1136648991
 10
-12.2069078566
 20
24.4878231891
 10
-12.2391694117
 20
24.862167935
 10
-12.2699670633
 20
25.2367086292
 10
-12.2993008113
 20
25.6114452716
  0
LWPOLYLINE
  5
405
100
AcDbEntity
  8
0
100
AcDbPolyline
 62
7
  6
CONTINUOUS
 90
10
 70
0
 10
-5.4652037833
 20
18.5370355896
 10
-5.5037900094
 20
18.9081329968
 10
-5.5409005392
 20
19.2795432438
 10
-5.5765353727
 20
19.6512663306
 10
-5.6106946416
 20
20.0233123964
 10
-5.6433782141
 20
20.3956713019
 10
-5.6745856952
 20
20.76831263
 10
-5.7043169531
 20
21.1412262416
 10
-5.7325721195
 20
21.5144222757
 10
-5.7593511944
 20
21.8879007323
  0
LWPOLYLINE
  5
406
100
AcDbEntity
  8
0
100
AcDbPolyline
 62
7
  6
CONTINUOUS
 90
6
 70
0
 10
-4.2081117715
 20
18.4884053128
 10
-4.2128309937
 20
18.5351480646
 10
-4.2178799346
 20
18.5820150014
 10
-4.2233196271
 20
18.6290493491
 10
-4.2291968102
 20
18.6762265526
 10
-4.2355658007
 20
18.7235560195
  0
LINE
  5
407
100
AcDbEntity
  8
0
100
AcDbLine
 62
7
  6
CONTINUOUS
 10
-4.1375094472
 20
17.71709652
 11
-4.1705289459
 21
18.0642283077
  0
LINE
  5
408
100
AcDbEntity
  8
0
100
AcDbLine
 62
7
  6
CONTINUOUS
 10
-4.1993926142
 20
18.3949562431
 11
-4.2081117715
 21
18.4884053128
  0
LWPOLYLINE
  5
409
100
AcDbEntity
  8
0
100
AcDbPolyline
 62
7
  6
CONTINUOUS
 90
21
 70
0
 10
-3.6911087692
 20
18.4847786097
 10
-3.6933529418
 20
18.5097622513
 10
-3.6958542237
 20
18.5349548783
 10
-3.6986016224
 20
18.5603461024
 10
-3.701725516
 20
18.5861075028
 10
-3.7052258458
 20
18.6122814323
 10
-3.7091024027
 20
18.6388256861
 10
-3.7134852793
 20
18.66578504
 10
-3.7183629187
 20
18.6932032179
 10
-3.7237466369
 20
18.7210366291
 10
-3.7298009867
 20
18.7491989928
 10
-3.7364966371
 20
18.7776917533
 10
-3.7438629585
 20
18.8065134446
 10
-3.75215286
 20
18.8355732523
 10
-3.7613134458
 20
18.864892777
 10
-3.771397968
 20
18.8944502211
 10
-3.7828189984
 20
18.9240894292
 10
-3.7955876435
 20
18.9540042185
 10
-3.8096935888
 20
18.9840003339
 10
-3.8255181652
 20
19.013339019
 10
-3.8431893842
 20
19.0417735236
  0
LINE
  5
40A
100
AcDbEntity
  8
0
100
AcDbLine
 62
7
  6
CONTINUOUS
 10
-4.1705289459
 20
18.0642283077
 11
-4.1791584567
 21
18.1598542579
  0
LINE
  5
40B
100
AcDbEntity
  8
0
100
AcDbLine
 62
7
  6
CONTINUOUS
 10
-4.1791584567
 20
18.1598542579
 11
-4.1993926142
 21
18.3949562431
  0
LINE
  5
40C
100
AcDbEntity
  8
0
100
AcDbLine
 62
7
  6
CONTINUOUS
 10
-6.0297272955
 20
18.8038369909
 11
-6.0414720901
 21
18.9488367517
  0
LINE
  5
40D
100
AcDbEntity
  8
0
100
AcDbLine
 62
7
  6
CONTINUOUS
 10
-3.6749532603
 20
17.5414586866
 11
-3.6674294647
 21
17.447547883
  0
LINE
  5
40E
100
AcDbEntity
  8
0
100
AcDbLine
 62
7
  6
CONTINUOUS
 10
-3.6871956755
 20
18.4352042319
 11
-3.6911087692
 21
18.4847786097
  0
LINE
  5
40F
100
AcDbEntity
  8
0
100
AcDbLine
 62
7
  6
CONTINUOUS
 10
-3.7402141127
 20
18.4423191075
 11
-3.7368040429
 21
18.3980970419
  0
LINE
  5
410
100
AcDbEntity
  8
0
100
AcDbLine
 62
7
  6
CONTINUOUS
 10
-3.6173351708
 20
17.4764717004
 11
-3.6390888485
 21
17.7621632822
  0
LWPOLYLINE
  5
411
100
AcDbEntity
  8
0
100
AcDbPolyline
 62
7
  6
CONTINUOUS
 90
10
 70
0
 10
-5.8098881747
 20
21.8587213133
 10
-5.7830490685
 20
21.4852084889
 10
-5.7547367054
 20
21.1119937882
 10
-5.7249510852
 20
20.7390772113
 10
-5.6936919787
 20
20.3664487829
 10
-5.6609596151
 20
19.9941184782
 10
-5.626754683
 20
19.6221162231
 10
-5.5910774116
 20
19.2504519928
 10
-5.5539275716
 20
18.8791158121
 10
-5.5153051629
 20
18.508107681
  0
LINE
  5
412
100
AcDbEntity
  8
0
100
AcDbLine
 62
7
  6
CONTINUOUS
 10
-3.6961245099
 20
17.8294379268
 11
-3.6749532603
 21
17.5414586866
  0
LINE
  5
413
100
AcDbEntity
  8
0
100
AcDbLine
 62
7
  6
CONTINUOUS
 10
-3.7368040429
 20
18.3980970419
 11
-3.6961245099
 21
17.8294379268
  0
LWPOLYLINE
  5
414
100
AcDbEntity
  8
0
100
AcDbPolyline
 62
7
  6
CONTINUOUS
 90
3
 70
0
 10
-3.6390888485
 20
17.7621632822
 10
-3.683504757
 20
18.3854780844
 10
-3.6871956755
 20
18.4352042319
  0
LWPOLYLINE
  5
415
100
AcDbEntity
  8
RACCORDO
100
AcDbPolyline
 62
250
  6
CONTINUOUS
 90
4
 70
0
 10
6.1073380294
 20
29.2876449459
 10
6.1048870433
 20
29.2797541927
 10
6.1008575111
 20
29.260700745
 10
6.0981183827
 20
29.2397773688
  0
LWPOLYLINE
  5
416
100
AcDbEntity
  8
RACCORDO
100
AcDbPolyline
 62
7
  6
CONTINUOUS
 90
14
 70
0
 10
22.2432968796
 20
15.0062169334
 10
22.2279295845
 20
14.9956253031
 10
22.1985501848
 20
14.9729234148
 10
22.1707853111
 20
14.9482409806
 10
22.1444873832
 20
14.9215769
 10
22.1196941797
 20
14.89306318
 10
22.0966496086
 20
14.8630847725
 10
22.0752983597
 20
14.8316672139
 10
22.0556438044
 20
14.7988513885
 10
22.0379851428
 20
14.7651555118
 10
22.0223174464
 20
14.7306224585
 10
22.0086668172
 20
14.6952331803
 10
21.9972387879
 20
14.659459836
 10
21.9883186729
 20
14.6244958697
  0
LINE
  5
417
100
AcDbEntity
  8
RACCORDO
100
AcDbLine
 62
7
  6
CONTINUOUS
 10
26.6193939101
 20
17.9039122553
 11
22.2431829312
 21
15.0061415856
  0
LINE
  5
418
100
AcDbEntity
  8
RACCORDO
100
AcDbLine
 62
250
  6
CONTINUOUS
 10
26.9207846751
 20
17.9888923277
 11
22.4051104461
 21
14.9987742009
  0
LWPOLYLINE
  5
419
100
AcDbEntity
  8
RACCORDO
100
AcDbPolyline
 62
7
  6
CONTINUOUS
 90
19
 70
0
 10
21.6484529798
 20
15.4288548972
 10
21.6232870001
 20
15.4133272245
 10
21.5984442993
 20
15.3960183275
 10
21.5739248774
 20
15.3769282062
 10
21.5495648099
 20
15.3559006605
 10
21.5255280212
 20
15.3330918904
 10
21.502306285
 20
15.3089704965
 10
21.4799888311
 20
15.2835908055
 10
21.4584864296
 20
15.2568984906
 10
21.4380231649
 20
15.2291991717
 10
21.4185930439
 20
15.2004782796
 10
21.4002020596
 20
15.1707503835
 10
21.3830922748
 20
15.1403648104
 10
21.3672448108
 20
15.109217576
 10
21.3526785462
 20
15.0774126647
 10
21.3396921803
 20
15.0456113564
 10
21.3283852793
 20
15.0140340778
 10
21.3186582768
 20
14.9824604022
 10
21.310511173
 20
14.9508903296
  0
LINE
  5
41A
100
AcDbEntity
  8
RACCORDO
100
AcDbLine
 62
7
  6
CONTINUOUS
 10
21.6484529798
 20
15.4288548972
 11
25.3093337624
 21
17.5425945707
  0
LINE
  5
41B
100
AcDbEntity
  8
RACCORDO
100
AcDbLine
 62
250
  6
CONTINUOUS
 10
21.0761133878
 20
13.9225257239
 11
21.9400586615
 21
14.4042413884
  0
LINE
  5
41C
100
AcDbEntity
  8
RACCORDO
100
AcDbLine
 62
250
  6
CONTINUOUS
 10
21.8558676136
 20
14.0200033917
 11
21.024066798
 21
13.5562107247
  0
LINE
  5
41D
100
AcDbEntity
  8
RACCORDO
100
AcDbLine
 62
250
  6
CONTINUOUS
 10
21.8348198517
 20
13.9239438926
 11
21.0112909563
 21
13.4647634547
  0
LWPOLYLINE
  5
41E
100
AcDbEntity
  8
RACCORDO
100
AcDbPolyline
 62
250
  6
CONTINUOUS
 90
9
 70
0
 10
22.2432968796
 20
15.0062169334
 10
22.2581877975
 20
15.0144327668
 10
22.275992115
 20
15.0207472201
 10
22.295221138
 20
15.0242219369
 10
22.3156686054
 20
15.0248196454
 10
22.3371151867
 20
15.0225339344
 10
22.359330834
 20
15.0173893216
 10
22.3820772504
 20
15.0094409909
 10
22.4051104454
 20
14.9987742004
  0
LINE
  5
41F
100
AcDbEntity
  8
RACCORDO
100
AcDbLine
 62
7
  6
CONTINUOUS
 10
29.2187369662
 20
1.4217197205
 11
29.6017314272
 21
1.4331880872
  0
LINE
  5
420
100
AcDbEntity
  8
RACCORDO
100
AcDbLine
 62
250
  6
CONTINUOUS
 10
29.3776016164
 20
-55.8564657123
 11
29.3626589801
 21
-55.8314779129
  0
LWPOLYLINE
  5
421
100
AcDbEntity
  8
RACCORDO
100
AcDbPolyline
 62
250
  6
CONTINUOUS
 90
10
 70
0
 10
-26.3188712
 20
47.8220041283
 10
-26.339367495
 20
47.8601271348
 10
-26.3576866563
 20
47.8959283648
 10
-26.3738939405
 20
47.9292577334
 10
-26.3881542906
 20
47.9598388928
 10
-26.4004710542
 20
47.9877002822
 10
-26.4106243041
 20
48.013117889
 10
-26.4187112046
 20
48.0360223188
 10
-26.4247104621
 20
48.0561625431
 10
-26.4256810561
 20
48.0609671162
  0
LWPOLYLINE
  5
422
100
AcDbEntity
  8
0
100
AcDbPolyline
 62
7
  6
CONTINUOUS
 90
22
 70
0
 10
-4.2355657751
 20
18.7235560159
 10
-4.2392959866
 20
18.747504771
 10
-4.2438530577
 20
18.7715360647
 10
-4.2492019008
 20
18.7955437896
 10
-4.2552817622
 20
18.8193817041
 10
-4.2620827967
 20
18.8429970979
 10
-4.2696614725
 20
18.8664292411
 10
-4.2780031005
 20
18.8896004212
 10
-4.2870865492
 20
18.9124012344
 10
-4.2969817149
 20
18.9348179008
 10
-4.3076920242
 20
18.9567807427
 10
-4.3191963116
 20
18.9781556867
 10
-4.3315371878
 20
18.9988230639
 10
-4.344731074
 20
19.0186957405
 10
-4.3587425334
 20
19.0376394211
 10
-4.3735001515
 20
19.0554970721
 10
-4.3889089437
 20
19.0722089723
 10
-4.4048814399
 20
19.0877647048
 10
-4.4213116623
 20
19.1021281049
 10
-4.4381018165
 20
19.1152650007
 10
-4.455162679
 20
19.1271418674
 10
-4.4724003523
 20
19.1377245733
  0
LINE
  5
423
100
AcDbEntity
  8
DRAFT
100
AcDbLine
 62
7
  6
CONTINUOUS
 10
4.83256094
 20
29.7133573961
 11
4.8277863599
 21
30.0264420433
  0
LINE
  5
424
100
AcDbEntity
  8
RACCORDO
100
AcDbLine
 62
250
  6
CONTINUOUS
 10
20.0135220563
 20
7.8008675672
 11
20.7639815883
 21
8.2495689912
  0
LINE
  5
425
100
AcDbEntity
  8
RACCORDO
100
AcDbLine
 62
250
  6
CONTINUOUS
 10
20.046393267
 20
8.4349188627
 11
20.867586088
 21
8.8927967602
  0
LINE
  5
426
100
AcDbEntity
  8
RACCORDO
100
AcDbLine
 62
250
  6
CONTINUOUS
 10
20.0391741232
 20
8.3432771613
 11
20.8511794252
 21
8.7960323133
  0
LINE
  5
427
100
AcDbEntity
  8
RACCORDO
100
AcDbLine
 62
7
  6
CONTINUOUS
 10
20.5359076929
 20
5.7717239958
 11
19.7225843215
 21
5.730889785
  0
LWPOLYLINE
  5
428
100
AcDbEntity
  8
RACCORDO
100
AcDbPolyline
 62
7
  6
CONTINUOUS
 90
6
 70
0
 10
20.535907757
 20
5.7717242119
 10
20.5579062269
 20
5.7716846715
 10
20.5790968925
 20
5.7693231272
 10
20.599367962
 20
5.7646289698
 10
20.6186522031
 20
5.7575853021
 10
20.6284694572
 20
5.7528805566
  0
LWPOLYLINE
  5
429
100
AcDbEntity
  8
RACCORDO
100
AcDbPolyline
 62
250
  6
CONTINUOUS
 90
25
 70
0
 10
15.0133765988
 20
-1.9415465254
 10
15.060590986
 20
-1.967097848
 10
15.1105687096
 20
-1.9908325001
 10
15.1631004853
 20
-2.0126510917
 10
15.2179663332
 20
-2.032462256
 10
15.2749364994
 20
-2.0501830328
 10
15.3337724184
 20
-2.0657392152
 10
15.3942277112
 20
-2.079065661
 10
15.456049218
 20
-2.0901065648
 10
15.5189780577
 20
-2.0988156923
 10
15.5827507122
 20
-2.1051565734
 10
15.6471001301
 20
-2.1091026555
 10
15.7117568445
 20
-2.110637414
 10
15.7764501017
 20
-2.1097544221
 10
15.8409089951
 20
-2.1064573773
 10
15.9048635995
 20
-2.1007600862
 10
15.9680461014
 20
-2.0926864066
 10
16.0301919204
 20
-2.0822701473
 10
16.0910408175
 20
-2.0695549272
 10
16.1503379845
 20
-2.0545939918
 10
16.2078351111
 20
-2.037449991
 10
16.263291425
 20
-2.0181947163
 10
16.3164746996
 20
-1.9969088
 10
16.3671622271
 20
-1.9736813784
 10
16.4151417505
 20
-1.9486097173
  0
LWPOLYLINE
  5
42A
100
AcDbEntity
  8
RACCORDO
100
AcDbPolyline
 62
250
  6
CONTINUOUS
 90
14
 70
0
 10
-33.3064863214
 20
25.9577367346
 10
-33.3507396591
 20
25.98499773
 10
-33.3918466341
 20
26.0138542413
 10
-33.4296351085
 20
26.0441854302
 10
-33.463946841
 20
26.0758642831
 10
-33.4946381493
 20
26.1087581431
 10
-33.5215805119
 20
26.1427292653
 10
-33.544661106
 20
26.1776353937
 10
-33.5637832803
 20
26.2133303569
 10
-33.5788669598
 20
26.2496646803
 10
-33.5898489805
 20
26.2864862118
 10
-33.5966833548
 20
26.3236407592
 10
-33.5993414633
 20
26.3609727357
 10
-33.5993795402
 20
26.3660113279
  0
LWPOLYLINE
  5
42B
100
AcDbEntity
  8
RACCORDO
100
AcDbPolyline
 62
250
  6
CONTINUOUS
 90
10
 70
0
 10
-42.7674861438
 20
43.4870946873
 10
-42.7763174523
 20
43.4948901392
 10
-42.7887914478
 20
43.5086921898
 10
-42.7994762958
 20
43.5243017083
 10
-42.808280838
 20
43.5415855252
 10
-42.8151299576
 20
43.5603961859
 10
-42.8199652205
 20
43.5805732102
 10
-42.8227453734
 20
43.6019444606
 10
-42.8234466958
 20
43.6243276105
 10
-42.8220632028
 20
43.6475317002
  0
LWPOLYLINE
  5
42C
100
AcDbEntity
  8
RACCORDO
100
AcDbPolyline
 62
250
  6
CONTINUOUS
 90
12
 70
0
 10
29.3626589801
 20
-55.8314779129
 10
29.3498179474
 20
-55.8052758936
 10
29.3392000439
 20
-55.7781076206
 10
29.3309057565
 20
-55.7502302052
 10
29.3250135828
 20
-55.7219074708
 10
29.3215792871
 20
-55.6934074547
 10
29.3206353729
 20
-55.6649998729
 10
29.3221907757
 20
-55.6369535685
 10
29.3262307778
 20
-55.609533964
 10
29.3327171477
 20
-55.5830005518
 10
29.3415885015
 20
-55.5576044398
 10
29.3527608846
 20
-55.5335859707
  0
LWPOLYLINE
  5
42D
100
AcDbEntity
  8
RACCORDO
100
AcDbPolyline
 62
250
  6
CONTINUOUS
 90
31
 70
0
 10
13.674026685
 20
-38.1800352206
 10
13.6791698424
 20
-38.2389179429
 10
13.7023096478
 20
-38.4877428318
 10
13.7274558788
 20
-38.7422412048
 10
13.7546709832
 20
-39.0019311663
 10
13.7840673459
 20
-39.2671492788
 10
13.8158339303
 20
-39.5390284177
 10
13.8500283033
 20
-39.817474009
 10
13.8868122745
 20
-40.1023982657
 10
13.9265705114
 20
-40.394911541
 10
13.9695507389
 20
-40.6950251742
 10
14.0157775083
 20
-41.0025014914
 10
14.0653393911
 20
-41.3180451844
 10
14.1183021785
 20
-41.6415089104
 10
14.1749338187
 20
-41.9727625851
 10
14.2356639301
 20
-42.3125053575
 10
14.3006739401
 20
-42.6605435932
 10
14.3701819356
 20
-43.0167388227
 10
14.4447136214
 20
-43.3818387791
 10
14.524494318
 20
-43.755536086
 10
14.6097662471
 20
-44.1377494665
 10
14.7011161095
 20
-44.5295361741
 10
14.7987980325
 20
-44.9306860358
 10
14.9030484663
 20
-45.3410014227
 10
15.0144817455
 20
-45.7615133921
 10
15.1333722454
 20
-46.1919778995
 10
15.2600326793
 20
-46.6321509607
 10
15.3952065609
 20
-47.0830041454
 10
15.5393854643
 20
-47.5446586998
 10
15.6927881692
 20
-48.0164028825
 10
15.8557892732
 20
-48.4979253023
  0
LWPOLYLINE
  5
42E
100
AcDbEntity
  8
RACCORDO
100
AcDbPolyline
 62
250
  6
CONTINUOUS
 90
10
 70
0
 10
11.7505239943
 20
-48.2698334536
 10
11.698440679
 20
-46.9948575036
 10
11.6524054161
 20
-45.716075067
 10
11.6124200188
 20
-44.4335222167
 10
11.5785015973
 20
-43.1472273619
 10
11.5506363074
 20
-41.8572344778
 10
11.5287785565
 20
-40.5636035816
 10
11.5129130452
 20
-39.2663795272
 10
11.5030555605
 20
-37.9655915268
 10
11.4999838107
 20
-36.9247701122
  0
LINE
  5
42F
100
AcDbEntity
  8
RACCORDO
100
AcDbLine
 62
250
  6
CONTINUOUS
 10
7.435163216
 20
28.0752485652
 11
7.435163216
 21
28.5209753247
  0
LINE
  5
430
100
AcDbEntity
  8
RACCORDO
100
AcDbLine
 62
250
  6
CONTINUOUS
 10
7.8556927615
 20
27.8324400761
 11
7.8556927615
 21
28.2781668356
  0
LINE
  5
431
100
AcDbEntity
  8
RACCORDO
100
AcDbLine
 62
250
  6
CONTINUOUS
 10
15.0595116794
 20
0.3994104395
 11
15.2214567231
 21
0.4961794357
  0
LINE
  5
432
100
AcDbEntity
  8
RACCORDO
100
AcDbLine
 62
250
  6
CONTINUOUS
 10
23.1051045944
 20
4.4953973761
 11
23.2681254892
 21
4.5910845166
  0
LINE
  5
433
100
AcDbEntity
  8
RACCORDO
100
AcDbLine
 62
250
  6
CONTINUOUS
 10
23.8842400319
 20
4.1147334002
 11
23.9095755114
 21
4.1295610327
  0
LINE
  5
434
100
AcDbEntity
  8
RACCORDO
100
AcDbLine
 62
250
  6
CONTINUOUS
 10
33.7077382535
 20
9.2315044123
 11
44.5658990135
 21
15.5008495626
  0
LINE
  5
435
100
AcDbEntity
  8
RACCORDO
100
AcDbLine
 62
250
  6
CONTINUOUS
 10
16.4151417505
 20
-1.9486097173
 11
16.5710207069
 21
-1.8616952595
  0
LWPOLYLINE
  5
436
100
AcDbEntity
  8
RACCORDO
100
AcDbPolyline
 62
250
  6
CONTINUOUS
 90
12
 70
0
 10
20.5661798414
 20
6.103789362
 10
20.5446579895
 20
6.1068976022
 10
20.5254532503
 20
6.1107706189
 10
20.508594689
 20
6.1153071051
 10
20.4940999853
 20
6.1204165894
 10
20.4819911043
 20
6.1260248952
 10
20.472281479
 20
6.1320629292
 10
20.4649811461
 20
6.1384465052
 10
20.4600028395
 20
6.1451263736
 10
20.4572649847
 20
6.1521050129
 10
20.456764205
 20
6.159352713
 10
20.4569006456
 20
6.1606040823
  0
LWPOLYLINE
  5
437
100
AcDbEntity
  8
RACCORDO
100
AcDbPolyline
 62
7
  6
CONTINUOUS
 90
18
 70
0
 10
29.1475955489
 20
1.9206318329
 10
29.0830367094
 20
1.930360498
 10
29.0080888592
 20
1.9429258715
 10
28.9314162469
 20
1.9570478629
 10
28.8533499158
 20
1.9726956725
 10
28.7742117344
 20
1.9898290752
 10
28.6946424721
 20
2.0083228092
 10
28.6150047308
 20
2.0281030642
 10
28.5356664986
 20
2.0490796535
 10
28.4572881339
 20
2.071067566
 10
28.3802469453
 20
2.0939484851
 10
28.3048798454
 20
2.1175967687
 10
28.2317672525
 20
2.1417932642
 10
28.1611934081
 20
2.1664042024
 10
28.0934284374
 20
2.1912822916
 10
28.0289868063
 20
2.21617556
 10
27.968173218
 20
2.2408935637
 10
27.9237167478
 20
2.2597953262
  0
LWPOLYLINE
  5
438
100
AcDbEntity
  8
RACCORDO
100
AcDbPolyline
 62
250
  6
CONTINUOUS
 90
25
 70
0
 10
-32.6578553357
 20
26.3321757522
 10
-32.700385452
 20
26.3551096446
 10
-32.7424376212
 20
26.3746225204
 10
-32.7840118432
 20
26.3907143796
 10
-32.8253047358
 20
26.4034364006
 10
-32.8661196813
 20
26.4127374049
 10
-32.9058668267
 20
26.4184638574
 10
-32.9445065734
 20
26.420557805
 10
-32.98207852
 20
26.4190772006
 10
-33.0181116091
 20
26.4140423678
 10
-33.0525899285
 20
26.4054082616
 10
-33.0855293905
 20
26.3932199269
 10
-33.1165066739
 20
26.3776328225
 10
-33.1454961936
 20
26.3586024332
 10
-33.1725235348
 20
26.3361732741
 10
-33.1972421322
 20
26.3106343499
 10
-33.2196207887
 20
26.2819495576
 10
-33.2396907014
 20
26.2501550003
 10
-33.2571988971
 20
26.2156479909
 10
-33.2721151161
 20
26.1783647575
 10
-33.284469618
 20
26.1383690721
 10
-33.2941002089
 20
26.0962495641
 10
-33.3009528241
 20
26.0522024435
 10
-33.3050815283
 20
26.0060315003
 10
-33.3064863214
 20
25.9577367346
  0
LWPOLYLINE
  5
439
100
AcDbEntity
  8
RACCORDO
100
AcDbPolyline
 62
250
  6
CONTINUOUS
 90
15
 70
0
 10
-31.9630892695
 20
27.5496708958
 10
-32.0419121369
 20
27.5925339987
 10
-32.1204682954
 20
27.6299556017
 10
-32.1984919358
 20
27.6618090815
 10
-32.2757190508
 20
27.6879866555
 10
-32.3518883281
 20
27.7083997464
 10
-32.4267420351
 20
27.7229792823
 10
-32.5000268918
 20
27.7316759302
 10
-32.5714949237
 20
27.7344602622
 10
-32.6409043005
 20
27.7313228571
 10
-32.70802016
 20
27.7222743319
 10
-32.772615407
 20
27.7073453046
 10
-32.8344714755
 20
27.6865862895
 10
-32.8933790662
 20
27.660067527
 10
-32.9334679524
 20
27.6376917433
  0
LINE
  5
43A
100
AcDbEntity
  8
RACCORDO
100
AcDbLine
 62
250
  6
CONTINUOUS
 10
-33.521228934
 20
26.89879724
 11
-33.5158473502
 21
26.8958501822
  0
LWPOLYLINE
  5
43B
100
AcDbEntity
  8
RACCORDO
100
AcDbPolyline
 62
250
  6
CONTINUOUS
 90
4
 70
0
 10
12.7712538618
 20
1.9475996565
 10
13.5169414018
 20
1.5280158247
 10
14.2898763537
 20
1.0945776063
 10
15.0904292719
 20
0.6474899001
  0
LINE
  5
43C
100
AcDbEntity
  8
RACCORDO
100
AcDbLine
 62
7
  6
CONTINUOUS
 10
10.4455819717
 20
3.1865765884
 11
12.8517712299
 21
1.8271916454
  0
LINE
  5
43D
100
AcDbEntity
  8
RACCORDO
100
AcDbLine
 62
250
  6
CONTINUOUS
 10
11.3672958724
 20
2.7407197633
 11
12.7712538618
 21
1.9475996565
  0
LWPOLYLINE
  5
43E
100
AcDbEntity
  8
RACCORDO
100
AcDbPolyline
 62
7
  6
CONTINUOUS
 90
31
 70
0
 10
12.8517712299
 20
1.8271916454
 10
15.1540369297
 20
0.5371131262
 10
15.2323410982
 20
0.4895710257
 10
15.3108548582
 20
0.4368417318
 10
15.3892808838
 20
0.3790338928
 10
15.4673084399
 20
0.3163017569
 10
15.5446057538
 20
0.2488430793
 10
15.6208931024
 20
0.1768485518
 10
15.6958890875
 20
0.1005329546
 10
15.76928024
 20
0.0201674246
 10
15.8408051333
 20
-0.0639899453
 10
15.9102097656
 20
-0.151674088
 10
15.9772225701
 20
-0.2425671953
 10
16.0416115935
 20
-0.3363658321
 10
16.1031506792
 20
-0.4327604767
 10
16.1616095186
 20
-0.5313949276
 10
16.2167927267
 20
-0.631934428
 10
16.2685124798
 20
-0.734039642
 10
16.3165853607
 20
-0.8373277393
 10
16.3608600027
 20
-0.9414481468
 10
16.4011937922
 20
-1.0460409387
 10
16.4374521706
 20
-1.1506983034
 10
16.4695354736
 20
-1.2550704758
 10
16.4973581479
 20
-1.3587904372
 10
16.520839664
 20
-1.4614172959
 10
16.5399400985
 20
-1.5625969935
 10
16.5546468718
 20
-1.662011431
 10
16.564951442
 20
-1.7592671396
 10
16.5708848211
 20
-1.8539988872
 10
16.5725070954
 20
-1.9458821287
 10
16.5720873938
 20
-1.9764516207
  0
LINE
  5
43F
100
AcDbEntity
  8
RACCORDO
100
AcDbLine
 62
250
  6
CONTINUOUS
 10
1.863156154
 20
8.1277143737
 11
11.3672958724
 21
2.7407197633
  0
LINE
  5
440
100
AcDbEntity
  8
RACCORDO
100
AcDbLine
 62
250
  6
CONTINUOUS
 10
-1.8738199797
 20
10.2544128404
 11
1.863156154
 21
8.1277143737
  0
LINE
  5
441
100
AcDbEntity
  8
RACCORDO
100
AcDbLine
 62
250
  6
CONTINUOUS
 10
-4.4428374485
 20
11.7211621338
 11
-1.8738199797
 21
10.2544128404
  0
LINE
  5
442
100
AcDbEntity
  8
RACCORDO
100
AcDbLine
 62
250
  6
CONTINUOUS
 10
-6.4644078724
 20
12.8791475331
 11
-4.4428374485
 21
11.7211621338
  0
LWPOLYLINE
  5
443
100
AcDbEntity
  8
RACCORDO
100
AcDbPolyline
 62
7
  6
CONTINUOUS
 90
7
 70
0
 10
-8.5815586263
 20
14.0201558936
 10
-5.6795603217
 20
12.3516410895
 10
-2.7946755936
 20
10.7019048483
 10
0.0126620907
 20
9.101857213
 10
2.741437421
 20
7.550894818
 10
5.3909347639
 20
6.0486291907
 10
10.4455819717
 20
3.1865765884
  0
LWPOLYLINE
  5
444
100
AcDbEntity
  8
RACCORDO
100
AcDbPolyline
 62
250
  6
CONTINUOUS
 90
3
 70
0
 10
15.0904292719
 20
0.6474899001
 10
15.1540971757
 20
0.6108233749
 10
15.2185572781
 20
0.5702872841
  0
LWPOLYLINE
  5
445
100
AcDbEntity
  8
RACCORDO
100
AcDbPolyline
 62
250
  6
CONTINUOUS
 90
3
 70
0
 10
-8.6227825932
 20
14.1211115486
 10
-7.8882652527
 20
13.6977144113
 10
-6.4644078724
 20
12.8791475331
  0
LINE
  5
446
100
AcDbEntity
  8
RACCORDO
100
AcDbLine
 62
250
  6
CONTINUOUS
 10
14.3647456132
 20
-0.8180847041
 11
-32.6578553357
 21
26.3321757522
  0
LINE
  5
447
100
AcDbEntity
  8
RACCORDO
100
AcDbLine
 62
250
  6
CONTINUOUS
 10
15.0595116794
 20
0.3994104395
 11
-1.9487933859
 21
10.2197926202
  0
LINE
  5
448
100
AcDbEntity
  8
RACCORDO
100
AcDbLine
 62
250
  6
CONTINUOUS
 10
-15.1637949301
 20
17.8499688889
 11
-31.9630892695
 21
27.5496708958
  0
LINE
  5
449
100
AcDbEntity
  8
RACCORDO
100
AcDbLine
 62
250
  6
CONTINUOUS
 10
-10.2512165115
 20
15.0639919182
 11
-8.6227826085
 21
14.1211115411
  0
LINE
  5
44A
100
AcDbEntity
  8
RACCORDO
100
AcDbLine
 62
250
  6
CONTINUOUS
 10
-11.7749988281
 20
15.9494859183
 11
-10.2512165115
 21
15.0639919182
  0
LINE
  5
44B
100
AcDbEntity
  8
RACCORDO
100
AcDbLine
 62
250
  6
CONTINUOUS
 10
-14.5526526375
 20
17.5695631269
 11
-11.7749988281
 21
15.9494859183
  0
LINE
  5
44C
100
AcDbEntity
  8
RACCORDO
100
AcDbLine
 62
250
  6
CONTINUOUS
 10
-17.725269716
 20
19.4262063068
 11
-14.5526526375
 21
17.5695631269
  0
LINE
  5
44D
100
AcDbEntity
  8
RACCORDO
100
AcDbLine
 62
250
  6
CONTINUOUS
 10
-22.0143888759
 20
21.9450332054
 11
-17.725269716
 21
19.4262063068
  0
LWPOLYLINE
  5
44E
100
AcDbEntity
  8
RACCORDO
100
AcDbPolyline
 62
7
  6
CONTINUOUS
 90
7
 70
0
 10
-27.3461654243
 20
25.0071222384
 10
-22.390454087
 20
22.089309744
 10
-19.7892045423
 20
20.5598553076
 10
-17.1035557608
 20
18.984586284
 10
-14.3328172046
 20
17.3639080471
 10
-11.4759057732
 20
15.698397791
 10
-8.5815873642
 20
14.0201724721
  0
LINE
  5
44F
100
AcDbEntity
  8
RACCORDO
100
AcDbLine
 62
250
  6
CONTINUOUS
 10
-29.4121410014
 20
26.2998092896
 11
-22.0143888759
 21
21.9450332054
  0
LWPOLYLINE
  5
450
100
AcDbEntity
  8
RACCORDO
100
AcDbPolyline
 62
7
  6
CONTINUOUS
 90
3
 70
0
 10
-31.9070194746
 20
27.7093259147
 10
-29.6999085091
 20
26.3960678954
 10
-27.3461654243
 20
25.0071222384
  0
LWPOLYLINE
  5
451
100
AcDbEntity
  8
RACCORDO
100
AcDbPolyline
 62
250
  6
CONTINUOUS
 90
4
 70
0
 10
-31.948170779
 20
27.8069880391
 10
-31.3028799693
 20
27.4215868295
 10
-30.6644897811
 20
27.0416891311
 10
-29.4121410014
 20
26.2998092896
  0
LWPOLYLINE
  5
452
100
AcDbEntity
  8
RACCORDO
100
AcDbPolyline
 62
250
  6
CONTINUOUS
 90
9
 70
0
 10
16.6341445094
 20
-2.0602869396
 10
16.620005058
 20
-2.0516786187
 10
16.6074723978
 20
-2.0423219214
 10
16.5966789824
 20
-2.0323157355
 10
16.5877388836
 20
-2.0217658125
 10
16.5807465869
 20
-2.0107836512
 10
16.5757759922
 20
-1.9994853197
 10
16.5728796315
 20
-1.9879902262
 10
16.5720867046
 20
-1.9764826552
  0
LWPOLYLINE
  5
453
100
AcDbEntity
  8
RACCORDO
100
AcDbPolyline
 62
250
  6
CONTINUOUS
 90
32
 70
0
 10
15.2185572781
 20
0.5702872841
 10
15.2838104768
 20
0.525882124
 10
15.3497663699
 20
0.4779399685
 10
15.4165176763
 20
0.4261300248
 10
15.4843407395
 20
0.3694589128
 10
15.5538089587
 20
0.307432321
 10
15.6243557026
 20
0.2405483032
 10
15.6945478085
 20
0.1693023234
 10
15.7642974445
 20
0.0936136237
 10
15.8337000566
 20
0.0135671723
 10
15.9015961373
 20
-0.0700936741
 10
15.9679976237
 20
-0.157588055
 10
16.0328999851
 20
-0.2486927356
 10
16.0951164878
 20
-0.3420021932
 10
16.1545156651
 20
-0.4375759839
 10
16.2112330032
 20
-0.5353523291
 10
16.2644784811
 20
-0.6337457595
 10
16.3141137131
 20
-0.7327812359
 10
16.3602771499
 20
-0.8324337616
 10
16.4025900097
 20
-0.9310451516
 10
16.4408498682
 20
-1.0283411647
 10
16.4752551977
 20
-1.1245982275
 10
16.5060256483
 20
-1.2189857668
 10
16.5330022718
 20
-1.3104844858
 10
16.5563383612
 20
-1.4001168083
 10
16.5767231974
 20
-1.490114041
 10
16.5945468281
 20
-1.5805501496
 10
16.6094186227
 20
-1.6713514908
 10
16.6208607549
 20
-1.764525795
 10
16.6287155939
 20
-1.8607413961
 10
16.6331433533
 20
-1.9593285321
 10
16.6341445094
 20
-2.0602869396
  0
LINE
  5
454
100
AcDbEntity
  8
RACCORDO
100
AcDbLine
 62
250
  6
CONTINUOUS
 10
-39.6756071472
 20
41.26874409
 11
-40.2736510011
 21
41.6997184882
  0
LWPOLYLINE
  5
455
100
AcDbEntity
  8
RACCORDO
100
AcDbPolyline
 62
7
  6
CONTINUOUS
 90
7
 70
0
 10
-40.6968624394
 20
41.8848335876
 10
-39.9244384623
 20
41.3185246909
 10
-39.117347376
 20
40.7424818142
 10
-38.2753410554
 20
40.1569707661
 10
-37.3983273509
 20
39.5621906659
 10
-36.4864118917
 20
38.9582421009
 10
-35.6073576368
 20
38.3884998886
  0
LWPOLYLINE
  5
456
100
AcDbEntity
  8
RACCORDO
100
AcDbPolyline
 62
250
  6
CONTINUOUS
 90
4
 70
0
 10
-40.2736510011
 20
41.6997184882
 10
-40.8878187134
 20
42.1519733775
 10
-41.5195360629
 20
42.6280815446
 10
-42.1647629429
 20
43.1264259719
  0
LWPOLYLINE
  5
457
100
AcDbEntity
  8
RACCORDO
100
AcDbPolyline
 62
250
  6
CONTINUOUS
 90
22
 70
0
 10
-42.8220632028
 20
43.6475317002
 10
-42.8445554336
 20
43.6641659887
 10
-42.8667340346
 20
43.6781543169
 10
-42.8885985405
 20
43.6894968547
 10
-42.910204395
 20
43.6981845895
 10
-42.9314948721
 20
43.7042270028
 10
-42.9523015358
 20
43.7076519027
 10
-42.9726908036
 20
43.7084515862
 10
-42.9925953054
 20
43.7066341046
 10
-43.0116471627
 20
43.7022504447
 10
-43.0297829955
 20
43.6952952117
 10
-43.0470668929
 20
43.6857735411
 10
-43.0633234737
 20
43.6737517426
 10
-43.0785613236
 20
43.6592785034
 10
-43.0927729514
 20
43.6423047361
 10
-43.1057595873
 20
43.6227498223
 10
-43.1175896453
 20
43.6004224618
 10
-43.1281957903
 20
43.5755135603
 10
-43.1371770484
 20
43.548515289
 10
-43.1444012004
 20
43.5195911792
 10
-43.1500034442
 20
43.4885766107
 10
-43.1539848333
 20
43.4554711983
  0
LWPOLYLINE
  5
458
100
AcDbEntity
  8
RACCORDO
100
AcDbPolyline
 62
250
  6
CONTINUOUS
 90
11
 70
0
 10
-39.760534886
 20
41.2015422472
 10
-39.4163917407
 20
40.943345361
 10
-38.9692435731
 20
40.6131099692
 10
-38.5331242912
 20
40.2963151361
 10
-38.1081966239
 20
39.9924728097
 10
-37.6945994366
 20
39.7005601074
 10
-37.294093542
 20
39.4214359377
 10
-36.9051657425
 20
39.1538789851
 10
-36.5229918296
 20
38.8938248712
 10
-36.1482334077
 20
38.6414578258
 10
-35.7803620779
 20
38.3963878018
  0
LINE
  5
459
100
AcDbEntity
  8
RACCORDO
100
AcDbLine
 62
250
  6
CONTINUOUS
 10
-42.1647629429
 20
43.1264259719
 11
-42.8220632028
 21
43.6475317002
  0
LWPOLYLINE
  5
45A
100
AcDbEntity
  8
RACCORDO
100
AcDbPolyline
 62
7
  6
CONTINUOUS
 90
4
 70
0
 10
-42.7674763065
 20
43.4870867483
 10
-42.139312121
 20
42.9868773871
 10
-41.4349850221
 20
42.4410885334
 10
-40.6968624394
 20
41.8848335876
  0
LWPOLYLINE
  5
45B
100
AcDbEntity
  8
0
100
AcDbPolyline
 62
7
  6
CONTINUOUS
 90
46
 70
0
 10
-3.7560849825
 20
20.6049730332
 10
-3.7327776486
 20
20.5773698144
 10
-3.7095822031
 20
20.5467884256
 10
-3.6865858534
 20
20.5133363888
 10
-3.6639351453
 20
20.4772883883
 10
-3.641671402
 20
20.4387388838
 10
-3.6197930473
 20
20.3973953403
 10
-3.5984336162
 20
20.3531068115
 10
-3.5779047653
 20
20.3059776005
 10
-3.5585337283
 20
20.2560574931
 10
-3.54050152
 20
20.2030221827
 10
-3.5242110232
 20
20.1474107883
 10
-3.5102127602
 20
20.0906669902
 10
-3.4986683851
 20
20.0327624321
 10
-3.4898065474
 20
19.9742551551
 10
-3.4838060505
 20
19.9174443145
 10
-3.4804709219
 20
19.8628932613
 10
-3.4795385692
 20
19.8102715021
 10
-3.4806390826
 20
19.7603617226
 10
-3.4834074382
 20
19.713513422
 10
-3.4875734183
 20
19.6693126711
 10
-3.4929310774
 20
19.627376572
 10
-3.4993632944
 20
19.587674226
 10
-3.5067574709
 20
19.5502554941
 10
-3.5150317644
 20
19.5148986356
 10
-3.5240952241
 20
19.4815549821
 10
-3.5338482856
 20
19.4502252597
 10
-3.5442268021
 20
19.4207653733
 10
-3.5551403845
 20
19.3931302451
 10
-3.5665033107
 20
19.3672619478
 10
-3.5782785996
 20
19.3430076819
 10
-3.590374482
 20
19.3203448541
 10
-3.6027009626
 20
19.2992355517
 10
-3.61524629
 20
19.279525704
 10
-3.6279376354
 20
19.261189496
 10
-3.6407070026
 20
19.2441961891
 10
-3.6535798677
 20
19.2284028235
 10
-3.6665203368
 20
19.21376531
 10
-3.6794652534
 20
19.2002722263
 10
-3.6924185052
 20
19.1878448568
 10
-3.7053466118
 20
19.1764464189
 10
-3.7182051815
 20
19.1660521694
 10
-3.7309878224
 20
19.1565827667
 10
-3.7436590024
 20
19.147942573
 10
-3.7561777508
 20
19.1400473914
 10
-3.764962202
 20
19.1348460045
  0
LINE
  5
45C
100
AcDbEntity
  8
0
100
AcDbLine
 62
7
  6
CONTINUOUS
 10
-3.9339774889
 20
19.0676337231
 11
-3.9149910311
 21
19.0440489099
  0
LINE
  5
45D
100
AcDbEntity
  8
0
100
AcDbLine
 62
7
  6
CONTINUOUS
 10
-3.8625812274
 20
19.0695494959
 11
-3.8748596643
 21
19.0853194038
  0
LWPOLYLINE
  5
45E
100
AcDbEntity
  8
0
100
AcDbPolyline
 62
7
  6
CONTINUOUS
 90
25
 70
0
 10
-3.9149910311
 20
19.0440489099
 10
-3.8974441585
 20
19.0193635116
 10
-3.8812740267
 20
18.9937414931
 10
-3.8663952727
 20
18.9672162762
 10
-3.8527811443
 20
18.9400452439
 10
-3.8404331271
 20
18.9127431978
 10
-3.8293318989
 20
18.8856226234
 10
-3.8193371604
 20
18.8586579208
 10
-3.8102585124
 20
18.8318548678
 10
-3.8020433368
 20
18.805355833
 10
-3.7946343531
 20
18.7792027396
 10
-3.7878641426
 20
18.753219402
 10
-3.7816799914
 20
18.7274093143
 10
-3.7760722767
 20
18.7018902758
 10
-3.7709601995
 20
18.6766414534
 10
-3.7663172966
 20
18.6517185639
 10
-3.7621211555
 20
18.627160312
 10
-3.7583076273
 20
18.6029152491
 10
-3.7548595834
 20
18.5790434588
 10
-3.7517586986
 20
18.5555635016
 10
-3.7489508861
 20
18.53236354
 10
-3.7464173223
 20
18.5094665937
 10
-3.7441494222
 20
18.4869093731
 10
-3.7420983282
 20
18.4645555138
 10
-3.7402141127
 20
18.4423191075
  0
LINE
  5
45F
100
AcDbEntity
  8
0
100
AcDbLine
 62
7
  6
CONTINUOUS
 10
-3.8431893842
 20
19.0417735236
 11
-3.8625812274
 21
19.0695494959
  0
LWPOLYLINE
  5
460
100
AcDbEntity
  8
RACCORDO
100
AcDbPolyline
 62
7
  6
CONTINUOUS
 90
12
 70
0
 10
29.2816408966
 20
-55.9233477367
 10
29.2868124686
 20
-55.9367269453
 10
29.3008536362
 20
-55.9674807254
 10
29.317059115
 20
-55.9965004298
 10
29.3352365357
 20
-56.0238219206
 10
29.3555155122
 20
-56.049791185
 10
29.3777129431
 20
-56.0742231019
 10
29.401662701
 20
-56.0970371661
 10
29.4277069777
 20
-56.1185809521
 10
29.455773613
 20
-56.1387364613
 10
29.4857155315
 20
-56.1573389007
 10
29.5185819032
 20
-56.1748631138
  0
LINE
  5
461
100
AcDbEntity
  8
RACCORDO
100
AcDbLine
 62
7
  6
CONTINUOUS
 10
29.2816408966
 20
-55.9233477367
 11
29.2816277212
 21
-55.9233117567
  0
LINE
  5
462
100
AcDbEntity
  8
RACCORDO
100
AcDbLine
 62
7
  6
CONTINUOUS
 10
16.6838888254
 20
-37.8556039621
 11
16.6838848646
 21
-37.8555318206
  0
LWPOLYLINE
  5
463
100
AcDbEntity
  8
RACCORDO
100
AcDbPolyline
 62
7
  6
CONTINUOUS
 90
15
 70
0
 10
16.6838888254
 20
-37.8556039621
 10
16.6845571484
 20
-37.8688591727
 10
16.6864295975
 20
-37.9430340018
 10
16.6849780208
 20
-38.0157832556
 10
16.6800784308
 20
-38.0867730897
 10
16.6716258561
 20
-38.1555442471
 10
16.6595877085
 20
-38.2215323191
 10
16.6439574693
 20
-38.2843586399
 10
16.6247402846
 20
-38.34369276
 10
16.6020416991
 20
-38.3990709915
 10
16.5760114834
 20
-38.4501268828
 10
16.5467149221
 20
-38.4967331207
 10
16.5141506364
 20
-38.5388703821
 10
16.4783161254
 20
-38.5764715006
 10
16.4392332282
 20
-38.6094207064
  0
LINE
  5
464
100
AcDbEntity
  8
RACCORDO
100
AcDbLine
 62
250
  6
CONTINUOUS
 10
16.7257932453
 20
-37.532957243
 11
16.7465769408
 21
-37.9384098713
  0
LINE
  5
465
100
AcDbEntity
  8
RACCORDO
100
AcDbLine
 62
250
  6
CONTINUOUS
 10
16.7085416629
 20
-37.1548497955
 11
16.7257932453
 21
-37.532957243
  0
LINE
  5
466
100
AcDbEntity
  8
RACCORDO
100
AcDbLine
 62
250
  6
CONTINUOUS
 10
16.6877963781
 20
-36.6325942549
 11
16.7085416629
 21
-37.1548497955
  0
LINE
  5
467
100
AcDbEntity
  8
RACCORDO
100
AcDbLine
 62
250
  6
CONTINUOUS
 10
16.6711933638
 20
-36.1429810225
 11
16.6877963781
 21
-36.6325942549
  0
LWPOLYLINE
  5
468
100
AcDbEntity
  8
RACCORDO
100
AcDbPolyline
 62
250
  6
CONTINUOUS
 90
14
 70
0
 10
14.3647456132
 20
-38.2406777219
 10
14.3662261379
 20
-38.2926300998
 10
14.3706615122
 20
-38.3426552513
 10
14.3780331628
 20
-38.3905436934
 10
14.3883102205
 20
-38.4360948905
 10
14.4014496495
 20
-38.4791180943
 10
14.4173964277
 20
-38.5194331429
 10
14.4360837771
 20
-38.5568712146
 10
14.4574334433
 20
-38.5912755355
 10
14.4813560234
 20
-38.6225020354
 10
14.5077513403
 20
-38.6504199518
 10
14.5365088621
 20
-38.6749123767
 10
14.5675081651
 20
-38.6958767467
 10
14.5718282342
 20
-38.6984145831
  0
LWPOLYLINE
  5
469
100
AcDbEntity
  8
RACCORDO
100
AcDbPolyline
 62
250
  6
CONTINUOUS
 90
25
 70
0
 10
15.0133765988
 20
-1.9415465254
 10
15.0119714587
 20
-1.8916272491
 10
15.0078425326
 20
-1.8406871608
 10
15.0009898203
 20
-1.7887262606
 10
14.9913593269
 20
-1.7354863452
 10
14.9790050474
 20
-1.6812256178
 10
14.9640889671
 20
-1.6267186884
 10
14.9465806967
 20
-1.5719937336
 10
14.9265106255
 20
-1.5170225767
 10
14.9041319061
 20
-1.4624952976
 10
14.879413484
 20
-1.4084123391
 10
14.8523864138
 20
-1.3547732584
 10
14.8233970119
 20
-1.3022668075
 10
14.7924195196
 20
-1.2509076561
 10
14.7594796956
 20
-1.2006811346
 10
14.7250011327
 20
-1.1522319862
 10
14.6889681639
 20
-1.1055871875
 10
14.6513964562
 20
-1.0607197619
 10
14.6127566028
 20
-1.0181935231
 10
14.573008505
 20
-0.9780202584
 10
14.5321922615
 20
-0.9401881804
 10
14.4908987617
 20
-0.9052257409
 10
14.4493249685
 20
-0.8733090902
 10
14.407273919
 20
-0.844262078
 10
14.3647456132
 20
-0.8180847041
  0
LWPOLYLINE
  5
46A
100
AcDbEntity
  8
RACCORDO
100
AcDbPolyline
 62
250
  6
CONTINUOUS
 90
28
 70
0
 10
16.7465769408
 20
-37.9384098713
 10
16.7492625739
 20
-38.0351133799
 10
16.7472783377
 20
-38.1277258868
 10
16.7406194316
 20
-38.2162513828
 10
16.7292412769
 20
-38.300713065
 10
16.713180957
 20
-38.3810939668
 10
16.6925566035
 20
-38.4573374676
 10
16.6673342641
 20
-38.5296544965
 10
16.6375435807
 20
-38.5978377075
 10
16.6033950411
 20
-38.6612055895
 10
16.5647414153
 20
-38.7197678519
 10
16.5217219596
 20
-38.7735214135
 10
16.4749696665
 20
-38.8217715833
 10
16.4243025721
 20
-38.8643791584
 10
16.3698880821
 20
-38.9014954433
 10
16.3128749708
 20
-38.9328683845
 10
16.2531850921
 20
-38.9582810334
 10
16.1908765243
 20
-38.9779670204
 10
16.1272963371
 20
-38.9923551822
 10
16.0624887229
 20
-39.0012969453
 10
15.9963891008
 20
-39.0049578317
 10
15.9301789695
 20
-39.0042398263
 10
15.8647668183
 20
-38.9994038783
 10
15.7992264701
 20
-38.9902037419
 10
15.7319912669
 20
-38.9767774149
 10
15.6633812302
 20
-38.9597341811
 10
15.5930711722
 20
-38.9384690513
 10
15.5187928185
 20
-38.9113869279
  0
LINE
  5
46B
100
AcDbEntity
  8
RACCORDO
100
AcDbLine
 62
250
  6
CONTINUOUS
 10
16.6527986951
 20
-35.4995032577
 11
16.6711933638
 21
-36.1429810225
  0
LINE
  5
46C
100
AcDbEntity
  8
RACCORDO
100
AcDbLine
 62
250
  6
CONTINUOUS
 10
16.6252964947
 20
-34.3195073269
 11
16.6527986951
 21
-35.4995032577
  0
LINE
  5
46D
100
AcDbEntity
  8
RACCORDO
100
AcDbLine
 62
250
  6
CONTINUOUS
 10
16.5867654911
 20
-32.2634506135
 11
16.6252964947
 21
-34.3195073269
  0
LWPOLYLINE
  5
46E
100
AcDbEntity
  8
RACCORDO
100
AcDbPolyline
 62
250
  6
CONTINUOUS
 90
9
 70
0
 10
15.0904292719
 20
0.6474899001
 10
15.090654863
 20
0.630262842
 10
15.092447128
 20
0.6141008893
 10
15.0957857881
 20
0.5991868767
 10
15.1006330706
 20
0.585689521
 10
15.1069341363
 20
0.5737615113
 10
15.1146177008
 20
0.5635377819
 10
15.1235968394
 20
0.5551339885
 10
15.1318361315
 20
0.5496791509
  0
LINE
  5
46F
100
AcDbEntity
  8
RACCORDO
100
AcDbLine
 62
250
  6
CONTINUOUS
 10
16.5339684875
 20
-28.5425471709
 11
16.5867654911
 21
-32.2634506135
  0
LINE
  5
470
100
AcDbEntity
  8
RACCORDO
100
AcDbLine
 62
250
  6
CONTINUOUS
 10
16.496522714
 20
-24.9777942224
 11
16.5339684875
 21
-28.5425471709
  0
LINE
  5
471
100
AcDbEntity
  8
RACCORDO
100
AcDbLine
 62
250
  6
CONTINUOUS
 10
16.4800218213
 20
-22.7748660394
 11
16.496522714
 21
-24.9777942224
  0
LINE
  5
472
100
AcDbEntity
  8
RACCORDO
100
AcDbLine
 62
250
  6
CONTINUOUS
 10
15.0133765988
 20
-37.8662387043
 11
15.0133765988
 21
-1.9415465254
  0
LWPOLYLINE
  5
473
100
AcDbEntity
  8
RACCORDO
100
AcDbPolyline
 62
250
  6
CONTINUOUS
 90
25
 70
0
 10
14.3647456132
 20
-0.8180847041
 10
14.3662261379
 20
-0.7644226534
 10
14.3706615122
 20
-0.7092756427
 10
14.3780331628
 20
-0.6528746032
 10
14.3883102205
 20
-0.5954557176
 10
14.4014496495
 20
-0.5372594305
 10
14.4173964277
 20
-0.4785294422
 10
14.4360837771
 20
-0.4195116878
 10
14.4574334433
 20
-0.3604533076
 10
14.4813560234
 20
-0.3016016117
 10
14.5077513403
 20
-0.243203045
 10
14.5365088621
 20
-0.1855021548
 10
14.5675081651
 20
-0.1287405668
 10
14.6006194379
 20
-0.0731559733
 10
14.6357040252
 20
-0.0189811379
 10
14.6726150083
 20
0.0335570792
 10
14.7111978204
 20
0.0842386712
 10
14.7512908939
 20
0.1328514062
 10
14.7927263367
 20
0.1791917155
 10
14.8353306355
 20
0.2230655465
 10
14.8789253825
 20
0.2642891752
 10
14.9233280223
 20
0.3026899751
 10
14.9683526161
 20
0.3381071409
 10
15.0138106212
 20
0.3703923611
 10
15.0595116794
 20
0.3994104395
  0
LWPOLYLINE
  5
474
100
AcDbEntity
  8
RACCORDO
100
AcDbPolyline
 62
250
  6
CONTINUOUS
 90
19
 70
0
 10
33.7077382535
 20
9.2315044123
 10
33.6847233424
 20
9.2115093617
 10
33.6618868005
 20
9.1891637176
 10
33.6393681942
 20
9.1646040469
 10
33.6173051467
 20
9.1379804471
 10
33.5958324976
 20
9.1094556308
 10
33.5750814793
 20
9.0792039312
 10
33.5551789123
 20
9.0474102338
 10
33.5362464315
 20
9.0142688477
 10
33.5183997441
 20
8.9799823205
 10
33.5017479202
 20
8.9447601965
 10
33.4863927273
 20
8.9088177373
 10
33.4724280088
 20
8.8723746087
 10
33.4599391095
 20
8.8356535344
 10
33.4490023545
 20
8.7988789363
 10
33.439684583
 20
8.7622755644
 10
33.4320427395
 20
8.7260671211
 10
33.4261235256
 20
8.6904748942
 10
33.4219631151
 20
8.6557164053
  0
LINE
  5
475
100
AcDbEntity
  8
RACCORDO
100
AcDbLine
 62
250
  6
CONTINUOUS
 10
26.7671055518
 20
2.77080033
 11
26.9395467484
 21
2.8731136905
  0
LWPOLYLINE
  5
476
100
AcDbEntity
  8
RACCORDO
100
AcDbPolyline
 62
250
  6
CONTINUOUS
 90
16
 70
0
 10
38.3762329431
 20
2.1304094395
 10
38.3443700152
 20
2.1169451004
 10
38.3102048827
 20
2.1050945443
 10
38.2739868757
 20
2.0949442539
 10
38.2359803055
 20
2.0865683038
 10
38.196462536
 20
2.0800278197
 10
38.1557219593
 20
2.0753705325
 10
38.1140558916
 20
2.07263043
 10
38.0717684027
 20
2.0718275088
 10
38.0291680977
 20
2.0729676283
 10
37.9865658642
 20
2.0760424681
 10
37.9442726041
 20
2.0810295885
 10
37.9025969644
 20
2.0878925945
 10
37.8618430846
 20
2.0965814015
 10
37.8223083779
 20
2.1070326002
 10
37.7842813597
 20
2.1191699201
  0
LWPOLYLINE
  5
477
100
AcDbEntity
  8
RACCORDO
100
AcDbPolyline
 62
250
  6
CONTINUOUS
 90
17
 70
0
 10
27.9956253093
 20
2.2100559901
 10
28.0691108147
 20
2.182096053
 10
28.1440576562
 20
2.1550072744
 10
28.2205057769
 20
2.1287689925
 10
28.2985753911
 20
2.1033240764
 10
28.3785682142
 20
2.0785593564
 10
28.4601822474
 20
2.0545842529
 10
28.5426321102
 20
2.0316748793
 10
28.625943671
 20
2.0098363574
 10
28.7100907329
 20
1.9890581914
 10
28.7942097539
 20
1.9695915914
 10
28.8781222913
 20
1.9514700284
 10
28.9620064665
 20
1.9346539147
 10
29.0455335551
 20
1.9192840477
 10
29.1287307069
 20
1.9053248374
 10
29.2115705127
 20
1.8928063448
 10
29.2150219224
 20
1.8923505289
  0
LWPOLYLINE
  5
478
100
AcDbEntity
  8
RACCORDO
100
AcDbPolyline
 62
250
  6
CONTINUOUS
 90
5
 70
0
 10
27.9236940152
 20
2.259805645
 10
27.9154377498
 20
2.2630240409
 10
27.8957962527
 20
2.2680495622
 10
27.8749895546
 20
2.2698935723
 10
27.8531594061
 20
2.2685434874
  0
LINE
  5
479
100
AcDbEntity
  8
RACCORDO
100
AcDbLine
 62
250
  6
CONTINUOUS
 10
27.9236414572
 20
2.2388710755
 11
27.9956253093
 21
2.2100559901
  0
LWPOLYLINE
  5
47A
100
AcDbEntity
  8
RACCORDO
100
AcDbPolyline
 62
7
  6
CONTINUOUS
 90
19
 70
0
 10
28.591187181
 20
1.5538984099
 10
28.622675592
 20
1.5412347825
 10
28.6554362087
 20
1.5289480209
 10
28.6894690143
 20
1.517037634
 10
28.7250814729
 20
1.5054030192
 10
28.7619660924
 20
1.4941439384
 10
28.7992004145
 20
1.4835599714
 10
28.8366601422
 20
1.4737055408
 10
28.8744695317
 20
1.4645244017
 10
28.9120789446
 20
1.4561495199
 10
28.94946904
 20
1.4485847806
 10
28.9866591258
 20
1.4418245152
 10
29.0231575351
 20
1.4359871468
 10
29.0590927103
 20
1.4310680064
 10
29.0943361852
 20
1.42707026
 10
29.1280109297
 20
1.4241240031
 10
29.1598245952
 20
1.4222722366
 10
29.1900695166
 20
1.4214709825
 10
29.2187456902
 20
1.4217199819
  0
LINE
  5
47B
100
AcDbEntity
  8
RACCORDO
100
AcDbLine
 62
250
  6
CONTINUOUS
 10
27.8531594602
 20
2.2685436842
 11
27.9236414572
 21
2.2388710755
  0
LWPOLYLINE
  5
47C
100
AcDbEntity
  8
RACCORDO
100
AcDbPolyline
 62
7
  6
CONTINUOUS
 90
10
 70
0
 10
28.5911544442
 20
1.5539080354
 10
27.649900394
 20
1.9510015014
 10
26.6990404041
 20
2.3635916027
 10
25.7388759497
 20
2.7918450406
 10
24.7723309353
 20
3.2346481483
 10
23.7968641008
 20
3.6933261766
 10
22.804729409
 20
4.1717872761
 10
21.7935765149
 20
4.6714622646
 10
20.7661746142
 20
5.1911519286
 10
19.7225843215
 20
5.730889785
  0
LWPOLYLINE
  5
47D
100
AcDbEntity
  8
RACCORDO
100
AcDbPolyline
 62
7
  6
CONTINUOUS
 90
10
 70
0
 10
27.9236940152
 20
2.259805645
 10
27.2013475878
 20
2.5763428628
 10
26.4083970739
 20
2.9314331943
 10
25.6044816997
 20
3.2995533527
 10
24.789916113
 20
3.6808275629
 10
23.9649566633
 20
4.075322993
 10
23.1298578931
 20
4.4830652639
 10
22.2848093148
 20
4.9040691066
 10
21.4299316605
 20
5.3383388342
 10
20.6284705528
 20
5.7528799851
  0
LWPOLYLINE
  5
47E
100
AcDbEntity
  8
RACCORDO
100
AcDbPolyline
 62
7
  6
CONTINUOUS
 90
23
 70
0
 10
29.4160009674
 20
1.8080517957
 10
29.4244921321
 20
1.8042943242
 10
29.4368674782
 20
1.79797718
 10
29.4499721522
 20
1.7902370212
 10
29.463625773
 20
1.7810344486
 10
29.4775661704
 20
1.770416394
 10
29.4915839918
 20
1.7584318171
 10
29.505476275
 20
1.7451605838
 10
29.5190065051
 20
1.730753735
 10
29.5319900808
 20
1.7153543217
 10
29.5442690641
 20
1.6991205412
 10
29.5556767002
 20
1.6822660734
 10
29.5660768889
 20
1.6650122121
 10
29.5753980439
 20
1.6475329175
 10
29.5835930195
 20
1.6299875789
 10
29.5906034154
 20
1.6125905234
 10
29.5964055144
 20
1.5955497484
 10
29.6010123326
 20
1.5790334999
 10
29.6044495121
 20
1.5632030094
 10
29.6067493268
 20
1.5483213881
 10
29.6079863622
 20
1.5347124868
 10
29.6082964426
 20
1.5225400475
 10
29.6077797091
 20
1.5111183302
  0
LWPOLYLINE
  5
47F
100
AcDbEntity
  8
RACCORDO
100
AcDbPolyline
 62
250
  6
CONTINUOUS
 90
22
 70
0
 10
29.3579011342
 20
1.9717249194
 10
29.3889875775
 20
1.9575029704
 10
29.4193811218
 20
1.9411369126
 10
29.4490824568
 20
1.9226271275
 10
29.4782635192
 20
1.9018348693
 10
29.5067541779
 20
1.8788998822
 10
29.5340413994
 20
1.8542399386
 10
29.5600881321
 20
1.8278342192
 10
29.584932009
 20
1.7997038648
 10
29.6081706479
 20
1.7703288274
 10
29.6297608645
 20
1.7397353983
 10
29.6497453324
 20
1.7078970038
 10
29.6678492905
 20
1.6752136534
 10
29.68408373
 20
1.6415952075
 10
29.6984365815
 20
1.6071312096
 10
29.7105973063
 20
1.5724905368
 10
29.7204977606
 20
1.5376159077
 10
29.7282040233
 20
1.502563462
 10
29.7336055695
 20
1.468171479
 10
29.736664348
 20
1.4347187162
 10
29.7374155981
 20
1.4019248612
 10
29.7358582533
 20
1.3697893244
  0
LWPOLYLINE
  5
480
100
AcDbEntity
  8
RACCORDO
100
AcDbPolyline
 62
250
  6
CONTINUOUS
 90
12
 70
0
 10
29.7358582533
 20
1.3697893244
 10
29.7130965368
 20
1.3802362734
 10
29.6921184455
 20
1.3916567584
 10
29.6731172263
 20
1.4039455758
 10
29.6562679153
 20
1.4169895226
 10
29.6417257259
 20
1.4306684401
 10
29.6296246185
 20
1.4448563199
 10
29.6200760664
 20
1.4594224653
 10
29.6131680293
 20
1.4742326953
 10
29.6089641425
 20
1.4891505801
 10
29.6075031312
 20
1.5040386983
 10
29.6077797091
 20
1.5111183302
  0
LWPOLYLINE
  5
481
100
AcDbEntity
  8
RACCORDO
100
AcDbPolyline
 62
7
  6
CONTINUOUS
 90
10
 70
0
 10
20.5630898888
 20
5.9562172225
 10
21.5515785037
 20
5.4476270136
 10
22.5978462832
 20
4.92075685
 10
23.6289314602
 20
4.4136245189
 10
24.6446125852
 20
3.9263284016
 10
25.6445476422
 20
3.4588318326
 10
26.6283146547
 20
3.0109852725
 10
27.5953638179
 20
2.5825956536
 10
28.5449410306
 20
2.1734091177
 10
29.4160245181
 20
1.8080420423
  0
LWPOLYLINE
  5
482
100
AcDbEntity
  8
RACCORDO
100
AcDbPolyline
 62
250
  6
CONTINUOUS
 90
13
 70
0
 10
20.5660397153
 20
6.1037267203
 10
21.1826105032
 20
5.7847253999
 10
21.8139126308
 20
5.4623126211
 10
22.4603178118
 20
5.1366939239
 10
23.119595473
 20
4.8093019775
 10
23.7947542353
 20
4.4791343357
 10
24.4942183151
 20
4.1428509778
 10
25.2177268744
 20
3.8011797178
 10
25.9668627381
 20
3.454123737
 10
26.7532630321
 20
3.0975034656
 10
27.58162414
 20
2.7303776643
 10
28.4494365779
 20
2.3548968228
 10
29.3579011342
 20
1.9717249194
  0
LWPOLYLINE
  5
483
100
AcDbEntity
  8
RACCORDO
100
AcDbPolyline
 62
250
  6
CONTINUOUS
 90
16
 70
0
 10
20.5359076918
 20
5.7717239954
 10
20.9222831557
 20
5.5708578189
 10
21.3206093328
 20
5.365660419
 10
21.7308989792
 20
5.1562304296
 10
22.1517563178
 20
4.9432772277
 10
22.5846014271
 20
4.7263028548
 10
23.0336758716
 20
4.5036349423
 10
23.5000356916
 20
4.2748858628
 10
23.9826578029
 20
4.0407834737
 10
24.482669935
 20
3.8013790872
 10
25.000356755
 20
3.5567274949
 10
25.5354529715
 20
3.3072012199
 10
26.0882571049
 20
3.053345526
 10
26.6588644481
 20
2.7955018304
 10
27.2471697839
 20
2.5338161775
 10
27.8531594602
 20
2.2685436842
  0
LWPOLYLINE
  5
484
100
AcDbEntity
  8
0
100
AcDbPolyline
 62
7
  6
CONTINUOUS
 90
18
 70
0
 10
-4.4028377866
 20
19.6178935312
 10
-4.3845200871
 20
19.6082330779
 10
-4.3660671006
 20
19.5991661099
 10
-4.3475419223
 20
19.5907558103
 10
-4.32905257
 20
19.5830765601
 10
-4.3106100275
 20
19.5761690496
 10
-4.2921295572
 20
19.5700563597
 10
-4.2736661023
 20
19.5648046236
 10
-4.2552792125
 20
19.5604870042
 10
-4.2368965055
 20
19.5571681584
 10
-4.2185400069
 20
19.5549316437
 10
-4.2003195051
 20
19.5538798765
 10
-4.1823001939
 20
19.5541219503
 10
-4.1645242227
 20
19.5557557166
 10
-4.1470911761
 20
19.558875282
 10
-4.1301437248
 20
19.5635603953
 10
-4.1137431749
 20
19.569886872
 10
-4.0966470705
 20
19.5786020653
  0
LINE
  5
485
100
AcDbEntity
  8
0
100
AcDbLine
 62
7
  6
CONTINUOUS
 10
-3.6674294647
 20
17.447547883
 11
-4.1375094472
 21
17.71709652
  0
LINE
  5
486
100
AcDbEntity
  8
0
100
AcDbLine
 62
7
  6
CONTINUOUS
 10
-4.8856011259
 20
18.146401354
 11
-5.3719455156
 21
18.4257328932
  0
LINE
  5
487
100
AcDbEntity
  8
0
100
AcDbLine
 62
7
  6
CONTINUOUS
 10
-4.4724003523
 20
19.1377245733
 11
-4.734177276
 21
19.2881252493
  0
LINE
  5
488
100
AcDbEntity
  8
0
100
AcDbLine
 62
7
  6
CONTINUOUS
 10
-4.6818130233
 20
19.7782248261
 11
-4.4028377866
 21
19.6178935312
  0
LINE
  5
489
100
AcDbEntity
  8
0
100
AcDbLine
 62
7
  6
CONTINUOUS
 10
-4.3525146112
 20
19.646949502
 11
-4.6314889497
 21
19.8072813155
  0
LINE
  5
48A
100
AcDbEntity
  8
0
100
AcDbLine
 62
7
  6
CONTINUOUS
 10
-5.5153051629
 20
18.508107681
 11
-6.0297272955
 21
18.8038369909
  0
LINE
  5
48B
100
AcDbEntity
  8
0
100
AcDbLine
 62
7
  6
CONTINUOUS
 10
-6.5839403888
 20
20.2343807427
 11
-6.1169719854
 21
19.9655413334
  0
LINE
  5
48C
100
AcDbEntity
  8
0
100
AcDbLine
 62
7
  6
CONTINUOUS
 10
-6.1205516781
 20
20.0255285596
 11
-6.5336972511
 21
20.2633905007
  0
LINE
  5
48D
100
AcDbEntity
  8
0
100
AcDbLine
 62
7
  6
CONTINUOUS
 10
-6.0808432711
 20
19.4578389072
 11
-6.7451083155
 21
19.8402008694
  0
LINE
  5
48E
100
AcDbEntity
  8
0
100
AcDbLine
 62
7
  6
CONTINUOUS
 10
-6.9550426872
 20
19.3363521656
 11
-7.4373097285
 21
19.6141991163
  0
LINE
  5
48F
100
AcDbEntity
  8
0
100
AcDbLine
 62
7
  6
CONTINUOUS
 10
-6.2815497588
 20
22.1304475669
 11
-5.8098881747
 21
21.8587213133
  0
LINE
  5
490
100
AcDbEntity
  8
0
100
AcDbLine
 62
7
  6
CONTINUOUS
 10
-5.7593511944
 20
21.8879007323
 11
-6.2310117295
 21
22.1596275916
  0
LINE
  5
491
100
AcDbEntity
  8
0
100
AcDbLine
 62
7
  6
CONTINUOUS
 10
-7.5138518907
 20
19.6583168753
 11
-7.9905972777
 21
19.9332302907
  0
LINE
  5
492
100
AcDbEntity
  8
0
100
AcDbLine
 62
7
  6
CONTINUOUS
 10
-7.7906897556
 20
23.000891347
 11
-7.30873418
 21
22.722723297
  0
LINE
  5
493
100
AcDbEntity
  8
0
100
AcDbLine
 62
7
  6
CONTINUOUS
 10
-7.2581939213
 20
22.751904609
 11
-7.7401486907
 21
23.0300731245
  0
LINE
  5
494
100
AcDbEntity
  8
0
100
AcDbLine
 62
7
  6
CONTINUOUS
 10
-8.6695189661
 20
20.325475101
 11
-8.7377716321
 21
20.3649438854
  0
LINE
  5
495
100
AcDbEntity
  8
0
100
AcDbLine
 62
7
  6
CONTINUOUS
 10
-9.245352976
 20
23.8417931109
 11
-8.7591608699
 21
23.5605758044
  0
LINE
  5
496
100
AcDbEntity
  8
0
100
AcDbLine
 62
7
  6
CONTINUOUS
 10
-8.7086219416
 20
23.5897563483
 11
-9.1948151033
 21
23.8709730452
  0
LINE
  5
497
100
AcDbEntity
  8
0
100
AcDbLine
 62
7
  6
CONTINUOUS
 10
-10.20396998
 20
24.3969031691
 11
-9.7176322013
 21
24.1153053557
  0
LINE
  5
498
100
AcDbEntity
  8
0
100
AcDbLine
 62
7
  6
CONTINUOUS
 10
-9.6670953587
 20
24.1444846953
 11
-10.1534343002
 21
24.4260818373
  0
LINE
  5
499
100
AcDbEntity
  8
0
100
AcDbLine
 62
7
  6
CONTINUOUS
 10
-9.4134875266
 20
20.7559278119
 11
-9.8787046474
 21
21.0253546008
  0
LINE
  5
49A
100
AcDbEntity
  8
0
100
AcDbLine
 62
7
  6
CONTINUOUS
 10
-10.8702910927
 20
24.7827445776
 11
-10.3844488656
 21
24.501244417
  0
LINE
  5
49B
100
AcDbEntity
  8
0
100
AcDbLine
 62
7
  6
CONTINUOUS
 10
-10.3339136728
 20
24.530422804
 11
-10.8197572181
 21
24.8119222034
  0
LINE
  5
49C
100
AcDbEntity
  8
0
100
AcDbLine
 62
7
  6
CONTINUOUS
 10
-10.1404149799
 20
21.1770064423
 11
-10.6264286836
 21
21.4587913725
  0
LINE
  5
49D
100
AcDbEntity
  8
0
100
AcDbLine
 62
7
  6
CONTINUOUS
 10
-12.2993008113
 20
25.6114452716
 11
-11.7714991081
 21
25.3052476256
  0
LINE
  5
49E
100
AcDbEntity
  8
0
100
AcDbLine
 62
7
  6
CONTINUOUS
 10
-11.7209681207
 20
25.3344235845
 11
-12.2487718563
 21
25.640620057
  0
LINE
  5
49F
100
AcDbEntity
  8
0
100
AcDbLine
 62
7
  6
CONTINUOUS
 10
-11.5547350792
 20
21.9975605308
 11
-11.982615894
 21
22.2461259211
  0
LWPOLYLINE
  5
4A0
100
AcDbEntity
  8
RACCORDO
100
AcDbPolyline
 62
7
  6
CONTINUOUS
 90
11
 70
0
 10
-35.6074991187
 20
38.388590794
 10
-35.6021178565
 20
38.3852091851
 10
-35.5787368131
 20
38.3722040358
 10
-35.5550060865
 20
38.3616350058
 10
-35.5310753777
 20
38.3534761684
 10
-35.5065309976
 20
38.347579833
 10
-35.4816294179
 20
38.3440694648
 10
-35.4566541408
 20
38.3430153686
 10
-35.4312743478
 20
38.3444977559
 10
-35.4056572422
 20
38.3486962093
 10
-35.3807095067
 20
38.3555620648
  0
LWPOLYLINE
  5
4A1
100
AcDbEntity
  8
RACCORDO
100
AcDbPolyline
 62
7
  6
CONTINUOUS
 90
10
 70
0
 10
-35.1489157331
 20
37.4130062152
 10
-36.0837655293
 20
38.015594854
 10
-36.9838313832
 20
38.608800893
 10
-37.8491859529
 20
39.1925977688
 10
-38.677829462
 20
39.7654310593
 10
-39.4722637609
 20
40.3286716341
 10
-40.2391613026
 20
40.8867366742
 10
-40.980795082
 20
41.4410807164
 10
-41.6953507664
 20
41.9900815422
 10
-42.3831897264
 20
42.5336070384
  0
LWPOLYLINE
  5
4A2
100
AcDbEntity
  8
RACCORDO
100
AcDbPolyline
 62
250
  6
CONTINUOUS
 90
8
 70
0
 10
-35.7192569029
 20
38.6021402829
 10
-36.262568991
 20
38.9523689326
 10
-36.8137174239
 20
39.3122751635
 10
-37.3722187635
 20
39.6820357149
 10
-37.9359256315
 20
40.0606521026
 10
-38.5059469318
 20
40.4495024655
 10
-39.0864914006
 20
40.8523987626
 10
-39.6756071472
 20
41.26874409
  0
LINE
  5
4A3
100
AcDbEntity
  8
RACCORDO
100
AcDbLine
 62
7
  6
CONTINUOUS
 10
-35.0749137514
 20
37.9764317468
 11
-35.6604887128
 21
38.3608892037
  0
LWPOLYLINE
  5
4A4
100
AcDbEntity
  8
RACCORDO
100
AcDbPolyline
 62
250
  6
CONTINUOUS
 90
3
 70
0
 10
-35.7803620779
 20
38.3963878018
 10
-35.4127062476
 20
38.1538041754
 10
-35.080301475
 20
37.9364598441
  0
LWPOLYLINE
  5
4A5
100
AcDbEntity
  8
RACCORDO
100
AcDbPolyline
 62
7
  6
CONTINUOUS
 90
5
 70
0
 10
-35.6604887128
 20
38.3608892037
 10
-36.3852011234
 20
38.8460928477
 10
-37.0870090843
 20
39.3255923892
 10
-37.7659539289
 20
39.7992986468
 10
-38.1173998401
 20
40.0498569417
  0
LWPOLYLINE
  5
4A6
100
AcDbEntity
  8
0
100
AcDbPolyline
 62
7
  6
CONTINUOUS
 90
10
 70
0
 10
-4.1749436563
 20
20.3857301281
 10
-4.2148546016
 20
20.4142657554
 10
-4.2556114237
 20
20.4414529591
 10
-4.2971551669
 20
20.4672116074
 10
-4.3394017802
 20
20.4914503666
 10
-4.3823060235
 20
20.5140939694
 10
-4.4258610862
 20
20.5350757844
 10
-4.4700136083
 20
20.5543077328
 10
-4.5147102326
 20
20.5718681328
 10
-4.5599881021
 20
20.5881281641
  0
LWPOLYLINE
  5
4A7
100
AcDbEntity
  8
RACCORDO
100
AcDbPolyline
 62
250
  6
CONTINUOUS
 90
27
 70
0
 10
-44.2514331043
 20
53.503361906
 10
-43.9606972591
 20
53.2764372768
 10
-43.6713942007
 20
53.0540683192
 10
-43.3836470349
 20
52.8362100271
 10
-43.0994109924
 20
52.624187137
 10
-42.8169992018
 20
52.4165768033
 10
-42.5309297389
 20
52.2092645151
 10
-42.2403936221
 20
52.0016697985
 10
-41.9461957518
 20
51.7943746194
 10
-41.6450622271
 20
51.585085924
 10
-41.3369446341
 20
51.3738054394
 10
-41.0218057414
 20
51.1605627495
 10
-40.6962437246
 20
50.9431594849
 10
-40.3598926821
 20
50.7214501832
 10
-40.01291444
 20
50.4956549147
 10
-39.6525795186
 20
50.2641672047
 10
-39.2781966398
 20
50.0266927197
 10
-38.8901910884
 20
49.7836230375
 10
-38.487448846
 20
49.5344022606
 10
-38.0696165204
 20
49.2789400981
 10
-37.6369457336
 20
49.0173640471
 10
-37.1892467608
 20
48.7494387607
 10
-36.7268904149
 20
48.475337901
 10
-36.2497471837
 20
48.1947995891
 10
-35.7569334844
 20
47.9069144638
 10
-35.2483321101
 20
47.6113145782
 10
-34.1861411812
 20
46.9973346986
  0
LWPOLYLINE
  5
4A8
100
AcDbEntity
  8
RACCORDO
100
AcDbPolyline
 62
250
  6
CONTINUOUS
 90
28
 70
0
 10
-43.8582599216
 20
54.0171396283
 10
-43.5696518258
 20
53.7899687913
 10
-43.2826900185
 20
53.5672263315
 10
-42.9973744997
 20
53.3489122489
 10
-42.7154784749
 20
53.1364155479
 10
-42.4352287386
 20
52.9283472241
 10
-42.1513056741
 20
52.7205402646
 10
-41.8630487018
 20
52.5123765564
 10
-41.5711184014
 20
52.3044742125
 10
-41.2721768952
 20
52.0945205584
 10
-40.9662811154
 20
51.8824598259
 10
-40.6533741298
 20
51.6683477833
 10
-40.3299472636
 20
51.4500390612
 10
-39.9958195147
 20
51.2273287148
 10
-39.6511718853
 20
51.0004216889
 10
-39.2930387077
 20
50.767787449
 10
-38.9208893258
 20
50.529099442
 10
-38.5352543958
 20
50.284684221
 10
-38.1347602181
 20
50.03399091
 10
-37.7190301963
 20
49.7769213353
 10
-37.2884409267
 20
49.5135736707
 10
-36.8427484991
 20
49.2436915619
 10
-36.3820089697
 20
48.9675070998
 10
-35.9061662823
 20
48.6847881935
 10
-35.4148083587
 20
48.3945822162
 10
-34.9077978393
 20
48.0965716254
 10
-34.3852720837
 20
47.7910739635
 10
-33.8472310919
 20
47.4780892304
  0
LWPOLYLINE
  5
4A9
100
AcDbEntity
  8
0
100
AcDbPolyline
 62
7
  6
CONTINUOUS
 90
25
 70
0
 10
-3.7055643337
 20
20.6341420028
 10
-3.7507594231
 20
20.6819246402
 10
-3.7969270693
 20
20.727591135
 10
-3.8440688529
 20
20.7711406131
 10
-3.8923858911
 20
20.8124291786
 10
-3.9416796377
 20
20.8515993058
 10
-3.9913516089
 20
20.8890799909
 10
-4.0412757581
 20
20.9248985875
 10
-4.0915791365
 20
20.9590271864
 10
-4.1420424155
 20
20.9918121612
 10
-4.1926462405
 20
21.0233200655
 10
-4.2434103105
 20
21.0534841553
 10
-4.2941736969
 20
21.0824509571
 10
-4.3448806321
 20
21.1101914483
 10
-4.3955869072
 20
21.1367346385
 10
-4.446298867
 20
21.1623141386
 10
-4.4970045451
 20
21.1869322652
 10
-4.5477157311
 20
21.2105867996
 10
-4.5984743926
 20
21.2335045552
 10
-4.6492681489
 20
21.2556868322
 10
-4.7001091121
 20
21.277132479
 10
-4.7510760153
 20
21.2980646166
 10
-4.802195019
 20
21.3185576651
 10
-4.8534396773
 20
21.3385373622
 10
-4.9048098283
 20
21.3580037974
  0
LWPOLYLINE
  5
4AA
100
AcDbEntity
  8
RACCORDO
100
AcDbPolyline
 62
250
  6
CONTINUOUS
 90
7
 70
0
 10
5.0661391839
 20
29.8954017505
 10
5.0674941391
 20
29.8921840387
 10
5.0684543678
 20
29.8898345085
 10
5.0689725115
 20
29.8883016307
 10
5.0688821097
 20
29.8876115439
 10
5.0682633926
 20
29.8876316291
 10
5.0678827575
 20
29.8878133956
  0
LWPOLYLINE
  5
4AB
100
AcDbEntity
  8
RACCORDO
100
AcDbPolyline
 62
250
  6
CONTINUOUS
 90
12
 70
0
 10
29.3725927945
 20
-55.9971991634
 10
29.379201242
 20
-56.0191614521
 10
29.3875111193
 20
-56.0403788999
 10
29.3975224338
 20
-56.0607586744
 10
29.4092287451
 20
-56.0802075162
 10
29.4226217213
 20
-56.0986391368
 10
29.4376921655
 20
-56.1159731755
 10
29.4544564395
 20
-56.1321487824
 10
29.472856327
 20
-56.1470591214
 10
29.492756965
 20
-56.1605701986
 10
29.5140645365
 20
-56.1725954496
 10
29.5185841764
 20
-56.1748647373
  0
LWPOLYLINE
  5
4AC
100
AcDbEntity
  8
RACCORDO
100
AcDbPolyline
 62
250
  6
CONTINUOUS
 90
28
 70
0
 10
16.4151417505
 20
-1.9486097173
 10
16.4128482396
 20
-1.8562715976
 10
16.4059754672
 20
-1.7615974287
 10
16.394546688
 20
-1.6649075578
 10
16.3786005731
 20
-1.5665291524
 10
16.3581910785
 20
-1.4667950939
 10
16.333387263
 20
-1.3660428506
 10
16.3042730538
 20
-1.2646133337
 10
16.2709469643
 20
-1.162849751
 10
16.2335217617
 20
-1.0610964454
 10
16.1921240835
 20
-0.9596977223
 10
16.1468940051
 20
-0.8589966784
 10
16.0979845681
 20
-0.7593340479
 10
16.0455612642
 20
-0.6610470539
 10
15.9898014788
 20
-0.5644682725
 10
15.9308938882
 20
-0.4699245006
 10
15.8690378196
 20
-0.3777356477
 10
15.8044425726
 20
-0.2882136479
 10
15.737326713
 20
-0.2016614102
 10
15.6679173367
 20
-0.1183717969
 10
15.5964493055
 20
-0.0386266377
 10
15.5231644489
 20
0.0373042303
 10
15.4483107408
 20
0.1091638803
 10
15.3721414616
 20
0.1767091633
 10
15.2949143453
 20
0.2397115271
 10
15.2168907045
 20
0.2979577917
 10
15.1383345462
 20
0.3512508713
 10
15.0595116794
 20
0.3994104395
  0
LINE
  5
4AD
100
AcDbEntity
  8
RACCORDO
100
AcDbLine
 62
250
  6
CONTINUOUS
 10
16.4698143983
 20
-20.6007032229
 11
16.4800218213
 21
-22.7748660394
  0
LWPOLYLINE
  5
4AE
100
AcDbEntity
  8
RACCORDO
100
AcDbPolyline
 62
7
  6
CONTINUOUS
 90
3
 70
0
 10
20.040520232
 20
7.9426064876
 10
20.0392253437
 20
8.2986523815
 10
20.0391741232
 20
8.3432771613
  0
LWPOLYLINE
  5
4AF
100
AcDbEntity
  8
RACCORDO
100
AcDbPolyline
 62
7
  6
CONTINUOUS
 90
13
 70
0
 10
16.4025791598
 20
-18.4092610666
 10
16.4052759576
 20
-20.1980688733
 10
16.4125354758
 20
-22.0116261508
 10
16.4238817183
 20
-23.7843422052
 10
16.4386152086
 20
-25.516614952
 10
16.4560757139
 20
-27.208827957
 10
16.4758231111
 20
-28.8612389998
 10
16.4977612036
 20
-30.4739121556
 10
16.5222009721
 20
-32.0466709741
 10
16.549847803
 20
-33.5790994363
 10
16.5820197332
 20
-35.0704346336
 10
16.6242345701
 20
-36.5176784026
 10
16.683884868
 20
-37.8555318203
  0
LINE
  5
4B0
100
AcDbEntity
  8
RACCORDO
100
AcDbLine
 62
250
  6
CONTINUOUS
 10
16.4664470576
 20
-18.9385544735
 11
16.4698143983
 21
-20.6007032229
  0
LINE
  5
4B1
100
AcDbEntity
  8
RACCORDO
100
AcDbLine
 62
250
  6
CONTINUOUS
 10
16.4151417505
 20
-37.8733018962
 11
16.4151417505
 21
-22.418825711
  0
LINE
  5
4B2
100
AcDbEntity
  8
RACCORDO
100
AcDbLine
 62
250
  6
CONTINUOUS
 10
16.4151417505
 20
-14.3378557717
 11
16.4151417505
 21
-1.9486097173
  0
LINE
  5
4B3
100
AcDbEntity
  8
RACCORDO
100
AcDbLine
 62
250
  6
CONTINUOUS
 10
16.4666319804
 20
-17.8705044873
 11
16.4664470576
 21
-18.9385544735
  0
LINE
  5
4B4
100
AcDbEntity
  8
RACCORDO
100
AcDbLine
 62
250
  6
CONTINUOUS
 10
16.4706872604
 20
-16.1236796755
 11
16.4666319804
 21
-17.8705044873
  0
LINE
  5
4B5
100
AcDbEntity
  8
RACCORDO
100
AcDbLine
 62
250
  6
CONTINUOUS
 10
16.4779327871
 20
-14.5519013613
 11
16.4706872604
 21
-16.1236796755
  0
LINE
  5
4B6
100
AcDbEntity
  8
RACCORDO
100
AcDbLine
 62
250
  6
CONTINUOUS
 10
16.4942704941
 20
-12.2387573121
 11
16.4779327871
 21
-14.5519013613
  0
LINE
  5
4B7
100
AcDbEntity
  8
RACCORDO
100
AcDbLine
 62
250
  6
CONTINUOUS
 10
16.5221002025
 20
-9.3953298999
 11
16.4942704941
 21
-12.2387573121
  0
LINE
  5
4B8
100
AcDbEntity
  8
RACCORDO
100
AcDbLine
 62
250
  6
CONTINUOUS
 10
16.5663636248
 20
-5.9081897473
 11
16.5221002025
 21
-9.3953298999
  0
LINE
  5
4B9
100
AcDbEntity
  8
RACCORDO
100
AcDbLine
 62
250
  6
CONTINUOUS
 10
16.6103409989
 20
-3.2300001624
 11
16.5663636248
 21
-5.9081897473
  0
LWPOLYLINE
  5
4BA
100
AcDbEntity
  8
RACCORDO
100
AcDbPolyline
 62
7
  6
CONTINUOUS
 90
10
 70
0
 10
16.5720867046
 20
-1.9764826552
 10
16.5411326423
 20
-3.5293948646
 10
16.5130832286
 20
-5.2035610931
 10
16.4880968985
 20
-6.932937226
 10
16.4655609872
 20
-8.7178627576
 10
16.445434753
 20
-10.5584305167
 10
16.4281913013
 20
-12.4544048224
 10
16.4146744421
 20
-14.4053027134
 10
16.4058732655
 20
-16.4105267064
 10
16.4025791417
 20
-18.4092182427
  0
LINE
  5
4BB
100
AcDbEntity
  8
RACCORDO
100
AcDbLine
 62
250
  6
CONTINUOUS
 10
16.6341445094
 20
-2.0602869396
 11
16.6103409989
 21
-3.2300001624
  0
LWPOLYLINE
  5
4BC
100
AcDbEntity
  8
RACCORDO
100
AcDbPolyline
 62
7
  6
CONTINUOUS
 90
10
 70
0
 10
21.0235829251
 20
13.5494094533
 10
21.027148394
 20
13.5977367102
 10
21.0309010556
 20
13.639106416
 10
21.0353290598
 20
13.6803026609
 10
21.0404419914
 20
13.7213216689
 10
21.0462383906
 20
13.7621326812
 10
21.0527040692
 20
13.8026787807
 10
21.0598346804
 20
13.8429304603
 10
21.0676373973
 20
13.8828848149
 10
21.0761133878
 20
13.9225257239
  0
LWPOLYLINE
  5
4BD
100
AcDbEntity
  8
RACCORDO
100
AcDbPolyline
 62
7
  6
CONTINUOUS
 90
14
 70
0
 10
21.0235829251
 20
13.5494094533
 10
21.0230458633
 20
13.5428085018
 10
21.0224604346
 20
13.536406956
 10
21.0218334034
 20
13.5302266703
 10
21.0211677409
 20
13.5242434502
 10
21.0204606158
 20
13.5183879518
 10
21.0197219252
 20
13.5127113437
 10
21.0189478967
 20
13.5071609965
 10
21.0181077846
 20
13.5015152745
 10
21.0171903719
 20
13.4957249286
 10
21.016199857
 20
13.4898441557
 10
21.0151211995
 20
13.483810296
 10
21.0139451444
 20
13.4776053712
 10
21.0126701954
 20
13.471255054
  0
LWPOLYLINE
  5
4BE
100
AcDbEntity
  8
RACCORDO
100
AcDbPolyline
 62
7
  6
CONTINUOUS
 90
15
 70
0
 10
20.4569017866
 20
6.1606125322
 10
20.4553644346
 20
6.1437814862
 10
20.4553217072
 20
6.125090913
 10
20.4570154229
 20
6.1065134785
 10
20.4604238838
 20
6.0881979998
 10
20.4655239273
 20
6.0702635571
 10
20.4722839833
 20
6.0528480961
 10
20.4806443917
 20
6.0361252313
 10
20.490523904
 20
6.0202601887
 10
20.501826409
 20
6.0054003228
 10
20.5144586067
 20
5.9916620689
 10
20.5283242257
 20
5.9791511123
 10
20.5433132007
 20
5.9679730167
 10
20.5592906432
 20
5.9582341673
 10
20.5630577238
 20
5.9562245675
  0
LWPOLYLINE
  5
4BF
100
AcDbEntity
  8
RACCORDO
100
AcDbPolyline
 62
250
  6
CONTINUOUS
 90
10
 70
0
 10
21.9883186729
 20
14.6244958696
 10
21.9872332278
 20
14.6145033585
 10
21.9887284068
 20
14.602151054
 10
21.9932232604
 20
14.5893577527
 10
22.000671623
 20
14.5762547124
 10
22.0109970324
 20
14.5629763599
 10
22.0240935494
 20
14.5496588855
 10
22.0398268073
 20
14.5364389005
 10
22.0580353671
 20
14.5234520364
 10
22.0785324089
 20
14.51083152
  0
LINE
  5
4C0
100
AcDbEntity
  8
RACCORDO
100
AcDbLine
 62
7
  6
CONTINUOUS
 10
19.7225843215
 20
5.730889785
 11
19.7815558188
 21
6.1828114964
  0
LWPOLYLINE
  5
4C1
100
AcDbEntity
  8
RACCORDO
100
AcDbPolyline
 62
250
  6
CONTINUOUS
 90
16
 70
0
 10
20.5660397153
 20
6.1037267203
 10
20.6271496659
 20
6.5514709409
 10
20.692927292
 20
7.0147388016
 10
20.7635794587
 20
7.4936446887
 10
20.8392982092
 20
7.9883356298
 10
20.9203135659
 20
8.4988979794
 10
21.0068933479
 20
9.0253573179
 10
21.0992347199
 20
9.5677026452
 10
21.1975829027
 20
10.1261895794
 10
21.3022883868
 20
10.7012494818
 10
21.4135745054
 20
11.2929856071
 10
21.5316754922
 20
11.9015477131
 10
21.6569713217
 20
12.5274441781
 10
21.7897487072
 20
13.1709329643
 10
21.9301963313
 20
13.8320189806
 10
22.0785541834
 20
14.5108349296
  0
LINE
  5
4C2
100
AcDbEntity
  8
RACCORDO
100
AcDbLine
 62
7
  6
CONTINUOUS
 10
19.7815558188
 20
6.1828114964
 11
19.8437342255
 21
6.639258799
  0
LINE
  5
4C3
100
AcDbEntity
  8
RACCORDO
100
AcDbLine
 62
7
  6
CONTINUOUS
 10
19.8437342255
 20
6.639258799
 11
19.9091599867
 21
7.1002986813
  0
LWPOLYLINE
  5
4C4
100
AcDbEntity
  8
RACCORDO
100
AcDbPolyline
 62
7
  6
CONTINUOUS
 90
3
 70
0
 10
19.9091599867
 20
7.1002986813
 10
19.9779003124
 20
7.566146805
 10
20.0135220563
 20
7.8008675672
  0
LWPOLYLINE
  5
4C5
100
AcDbEntity
  8
RACCORDO
100
AcDbPolyline
 62
7
  6
CONTINUOUS
 90
13
 70
0
 10
20.046393267
 20
8.4349188627
 10
20.0451684463
 20
8.4270572993
 10
20.044081394
 20
8.4193279016
 10
20.0431247054
 20
8.4117368865
 10
20.0422978243
 20
8.4043542745
 10
20.0415854684
 20
8.3971221339
 10
20.040965207
 20
8.389850736
 10
20.040436186
 20
8.3825418357
 10
20.0399990627
 20
8.3751969108
 10
20.0396473051
 20
8.3676192525
 10
20.0393864155
 20
8.3597411512
 10
20.039226312
 20
8.351627374
 10
20.0391741232
 20
8.3432771613
  0
LWPOLYLINE
  5
4C6
100
AcDbEntity
  8
RACCORDO
100
AcDbPolyline
 62
7
  6
CONTINUOUS
 90
7
 70
0
 10
20.0135220563
 20
7.8008675672
 10
20.0173427049
 20
7.824846348
 10
20.0214348739
 20
7.848688213
 10
20.0257986723
 20
7.8723891443
 10
20.0304341624
 20
7.8959451456
 10
20.0353413596
 20
7.9193522433
 10
20.040520232
 20
7.9426064876
  0
LWPOLYLINE
  5
4C7
100
AcDbEntity
  8
RACCORDO
100
AcDbPolyline
 62
7
  6
CONTINUOUS
 90
10
 70
0
 10
20.046393267
 20
8.4349188627
 10
20.1357065313
 20
8.9709046422
 10
20.2294698373
 20
9.5126298934
 10
20.3276831852
 20
10.0600946162
 10
20.4303141005
 20
10.6133228255
 10
20.5373950575
 20
11.1722905064
 10
20.6490234794
 20
11.7369256142
 10
20.7652318403
 20
12.3072041341
 10
20.8859876659
 20
12.8831500809
 10
21.0126701954
 20
13.471255054
  0
LWPOLYLINE
  5
4C8
100
AcDbEntity
  8
RACCORDO
100
AcDbPolyline
 62
7
  6
CONTINUOUS
 90
10
 70
0
 10
21.9883414036
 20
14.6245981195
 10
21.7791262409
 20
13.6697648324
 10
21.5680452962
 20
12.6640464297
 10
21.3698784533
 20
11.6740436103
 10
21.1845253474
 20
10.6999083137
 10
21.0118725282
 20
9.7417749287
 10
20.8517748207
 20
8.7997636188
 10
20.7040511393
 20
7.8739886623
 10
20.5685212686
 20
6.9645608816
 10
20.4568948725
 20
6.1606066895
  0
LINE
  5
4C9
100
AcDbEntity
  8
RACCORDO
100
AcDbLine
 62
7
  6
CONTINUOUS
 10
21.0761133878
 20
13.9225257239
 11
21.1785717642
 21
14.3775593026
  0
LWPOLYLINE
  5
4CA
100
AcDbEntity
  8
RACCORDO
100
AcDbPolyline
 62
7
  6
CONTINUOUS
 90
3
 70
0
 10
21.1785717642
 20
14.3775593026
 10
21.2837781511
 20
14.8358183801
 10
21.310511173
 20
14.9508903296
  0
LWPOLYLINE
  5
4CB
100
AcDbEntity
  8
RACCORDO
100
AcDbPolyline
 62
250
  6
CONTINUOUS
 90
16
 70
0
 10
22.0785128275
 20
14.510826855
 10
22.0881248185
 20
14.5490005733
 10
22.100016393
 20
14.5874946176
 10
22.1141009716
 20
14.6260355688
 10
22.1302724568
 20
14.6643456258
 10
22.1484165422
 20
14.7021584539
 10
22.1684143129
 20
14.7392201956
 10
22.1901236094
 20
14.7752718786
 10
22.2133887496
 20
14.8100544605
 10
22.2380550068
 20
14.8433230647
 10
22.2639470882
 20
14.8748433973
 10
22.2908779074
 20
14.9043882441
 10
22.3186619057
 20
14.9317409496
 10
22.3471012372
 20
14.956704389
 10
22.3759872713
 20
14.9791022103
 10
22.4051104461
 20
14.9987742009
  0
LINE
  5
4CC
100
AcDbEntity
  8
RACCORDO
100
AcDbLine
 62
250
  6
CONTINUOUS
 10
38.3762329431
 20
2.1304094395
 11
48.8078935259
 21
8.1534995493
  0
LWPOLYLINE
  5
4CD
100
AcDbEntity
  8
RACCORDO
100
AcDbPolyline
 62
7
  6
CONTINUOUS
 90
12
 70
0
 10
26.9207846751
 20
17.9888923277
 10
26.8900475115
 20
17.9875319176
 10
26.8595581185
 20
17.9847378558
 10
26.8294045502
 20
17.9805595182
 10
26.7996145953
 20
17.9751095901
 10
26.7703376878
 20
17.9684003745
 10
26.741847922
 20
17.9603345341
 10
26.7141755371
 20
17.9509590491
 10
26.687478166
 20
17.9403797655
 10
26.6622141763
 20
17.9286042237
 10
26.6384817436
 20
17.9157217717
 10
26.6193965107
 20
17.9039058829
  0
LWPOLYLINE
  5
4CE
100
AcDbEntity
  8
0
100
AcDbPolyline
 62
7
  6
CONTINUOUS
 90
12
 70
0
 10
-4.1316396632
 20
19.5831727091
 10
-4.1515421972
 20
19.5830382343
 10
-4.1715620463
 20
19.58431214
 10
-4.1916201288
 20
19.5869810788
 10
-4.2117962569
 20
19.5910579941
 10
-4.2319772726
 20
19.596207576
 10
-4.2521415661
 20
19.6023923315
 10
-4.2723110891
 20
19.6096495644
 10
-4.2924378975
 20
19.617756231
 10
-4.3125060446
 20
19.6266379642
 10
-4.3325316051
 20
19.6363690602
 10
-4.3525146106
 20
19.6469495017
  0
LWPOLYLINE
  5
4CF
100
AcDbEntity
  8
0
100
AcDbPolyline
 62
7
  6
CONTINUOUS
 90
25
 70
0
 10
-4.9553388477
 20
21.3288289748
 10
-4.9038579107
 20
21.3092319007
 10
-4.8525027959
 20
21.2892238029
 10
-4.8012809023
 20
21.2687546893
 10
-4.7502330921
 20
21.2477991723
 10
-4.6993330938
 20
21.2262860586
 10
-4.6484869785
 20
21.2040933164
 10
-4.5976870343
 20
21.1811633544
 10
-4.5469541494
 20
21.157449371
 10
-4.4962366022
 20
21.1328370342
 10
-4.4455311584
 20
21.1072660209
 10
-4.3948540218
 20
21.0806826582
 10
-4.3441824297
 20
21.0529743535
 10
-4.2934688278
 20
21.0240478283
 10
-4.2427741613
 20
20.9938687802
 10
-4.1922385279
 20
20.9624145129
 10
-4.141897404
 20
20.9296594024
 10
-4.091729243
 20
20.8955141021
 10
-4.0418090914
 20
20.8598448066
 10
-3.9921739254
 20
20.8224702188
 10
-3.9430091633
 20
20.7832448316
 10
-3.894676765
 20
20.7420347252
 10
-3.8473744587
 20
20.6986961196
 10
-3.8011384923
 20
20.6530608413
 10
-3.7560849825
 20
20.6049730332
  0
LWPOLYLINE
  5
4D0
100
AcDbEntity
  8
RACCORDO
100
AcDbPolyline
 62
250
  6
CONTINUOUS
 90
12
 70
0
 10
20.5631336437
 20
5.9561851321
 10
20.5553040894
 20
5.9613931631
 10
20.5487393933
 20
5.9683935163
 10
20.5437672973
 20
5.976970412
 10
20.5402328677
 20
5.9872698426
 10
20.5384260783
 20
5.9991827876
 10
20.5383880079
 20
6.0127492095
 10
20.5400764925
 20
6.0280089901
 10
20.5436683608
 20
6.0447516832
 10
20.5492264212
 20
6.062906996
 10
20.5567586026
 20
6.0826047351
 10
20.5661798414
 20
6.103789362
  0
LWPOLYLINE
  5
4D1
100
AcDbEntity
  8
RACCORDO
100
AcDbPolyline
 62
250
  6
CONTINUOUS
 90
3
 70
0
 10
-26.2605767137
 20
47.9830548938
 10
-26.2469588369
 20
47.9699574988
 10
-26.2343538812
 20
47.9613325238
  0
LWPOLYLINE
  5
4D2
100
AcDbEntity
  8
RACCORDO
100
AcDbPolyline
 62
7
  6
CONTINUOUS
 90
6
 70
0
 10
5.0543477029
 20
29.9205181011
 10
5.1533032224
 20
29.7819170254
 10
5.2441786936
 20
29.6338156232
 10
5.3269596145
 20
29.4765675896
 10
5.4017421446
 20
29.310237416
 10
5.4314908585
 20
29.2321438725
  0
LWPOLYLINE
  5
4D3
100
AcDbEntity
  8
RACCORDO
100
AcDbPolyline
 62
250
  6
CONTINUOUS
 90
5
 70
0
 10
6.1932161835
 20
29.238059976
 10
6.2574787413
 20
29.0984017962
 10
6.3199575182
 20
28.943531238
 10
6.3762473067
 20
28.7830218899
 10
6.4114201397
 20
28.666344987
  0
LWPOLYLINE
  5
4D4
100
AcDbEntity
  8
RACCORDO
100
AcDbPolyline
 62
250
  6
CONTINUOUS
 90
6
 70
0
 10
5.4899294265
 20
29.1984021758
 10
5.4423578674
 20
29.3120526923
 10
5.3694135271
 20
29.4631018975
 10
5.2899441862
 20
29.6066078386
 10
5.2034377901
 20
29.7432991402
 10
5.1096704159
 20
29.8730889841
  0
LWPOLYLINE
  5
4D5
100
AcDbEntity
  8
RACCORDO
100
AcDbPolyline
 62
250
  6
CONTINUOUS
 90
20
 70
0
 10
29.685836761
 20
-52.2165324584
 10
29.706460521
 20
-52.4041903684
 10
29.7185865221
 20
-52.5862426147
 10
29.7223740847
 20
-52.762395879
 10
29.7180122352
 20
-52.9319856458
 10
29.7057039241
 20
-53.0951865514
 10
29.6854908736
 20
-53.2528722778
 10
29.6573435165
 20
-53.405111286
 10
29.6213718432
 20
-53.5511289669
 10
29.5777158485
 20
-53.6904471643
 10
29.5265099177
 20
-53.8227453111
 10
29.4678760328
 20
-53.9477947928
 10
29.4019851768
 20
-54.0653062356
 10
29.3290123215
 20
-54.1750339783
 10
29.2491226653
 20
-54.2767745103
 10
29.16249579
 20
-54.370331321
 10
29.0693384591
 20
-54.4555144918
 10
28.969851261
 20
-54.5321609093
 10
28.8642200463
 20
-54.6001381886
 10
28.828443358
 20
-54.6204300419
  0
LINE
  5
4D6
100
AcDbEntity
  8
RACCORDO
100
AcDbLine
 62
7
  6
CONTINUOUS
 10
25.3093337624
 20
17.5425945707
 11
25.3093337624
 21
17.0364371976
  0
LWPOLYLINE
  5
4D7
100
AcDbEntity
  8
RACCORDO
100
AcDbPolyline
 62
7
  6
CONTINUOUS
 90
6
 70
0
 10
-42.7667806658
 20
43.4883140946
 10
-42.770823132
 20
43.4900022091
 10
-42.7727292428
 20
43.4909563494
 10
-42.772576669
 20
43.4908529571
 10
-42.770542901
 20
43.4894490639
 10
-42.7674861439
 20
43.4870946873
  0
LWPOLYLINE
  5
4D8
100
AcDbEntity
  8
RACCORDO
100
AcDbPolyline
 62
250
  6
CONTINUOUS
 90
37
 70
0
 10
33.4219631151
 20
8.6557164053
 10
33.6264204305
 20
8.5636349512
 10
33.8275217927
 20
8.464270471
 10
34.0252857758
 20
8.3576332353
 10
34.2195078864
 20
8.2437094709
 10
34.4104267114
 20
8.122531803
 10
34.5987285109
 20
7.9941817952
 10
34.7849841192
 20
7.8584036935
 10
34.9686647618
 20
7.7154765089
 10
35.1487970681
 20
7.5662783032
 10
35.3253489581
 20
7.4107922027
 10
35.4983582992
 20
7.2490382813
 10
35.6669314346
 20
7.0819360839
 10
35.831017465
 20
6.9094800584
 10
35.9906470245
 20
6.7316645512
 10
36.1450264772
 20
6.549396636
 10
36.2940921859
 20
6.3626920469
 10
36.437866682
 20
6.1715123201
 10
36.5756670592
 20
5.9766729907
 10
36.7074397436
 20
5.7782010767
 10
36.833183367
 20
5.5760391797
 10
36.9522789528
 20
5.3708682585
 10
37.0647215074
 20
5.1626465338
 10
37.1704518746
 20
4.951380313
 10
37.2687568211
 20
4.7378154905
 10
37.3596465337
 20
4.5217705736
 10
37.4430360767
 20
4.3033857224
 10
37.5180542637
 20
4.0838808665
 10
37.5846167596
 20
3.8630720887
 10
37.6427213542
 20
3.6410954508
 10
37.6916040462
 20
3.4196420039
 10
37.7310874248
 20
3.1986928723
 10
37.7612570221
 20
2.9782161272
 10
37.7817333389
 20
2.7598777575
 10
37.7923625495
 20
2.5442179829
 10
37.7932220602
 20
2.3306543276
 10
37.7842813597
 20
2.1191699201
  0
LWPOLYLINE
  5
4D9
100
AcDbEntity
  8
RACCORDO
100
AcDbPolyline
 62
250
  6
CONTINUOUS
 90
37
 70
0
 10
33.7077382535
 20
9.2315044123
 10
33.9258407436
 20
9.1321062165
 10
34.1410598327
 20
9.0238139441
 10
34.3530384728
 20
8.9071382999
 10
34.5608626779
 20
8.7829608699
 10
34.7648050632
 20
8.6514684594
 10
34.966284614
 20
8.5119230472
 10
35.1655705524
 20
8.3642202089
 10
35.3617445182
 20
8.2090620699
 10
35.5544162225
 20
8.0467323134
 10
35.7432832133
 20
7.8775959832
 10
35.9280454869
 20
7.7019968922
 10
36.1083251347
 20
7.5201977091
 10
36.2838301554
 20
7.3325978927
 10
36.4542938686
 20
7.139554908
 10
36.6193807672
 20
6.9412698463
 10
36.7788050888
 20
6.7381775041
 10
36.932334574
 20
6.5306311491
 10
37.0797050758
 20
6.3187006373
 10
37.2206397845
 20
6.1028434613
 10
37.3549193902
 20
5.8834088832
 10
37.4823323727
 20
5.6602898809
 10
37.6026382795
 20
5.4338919583
 10
37.7155666635
 20
5.2046394032
 10
37.8208108635
 20
4.9724484728
 10
37.9181662566
 20
4.7376146656
 10
38.0073032082
 20
4.5007267313
 10
38.0877125007
 20
4.2621528579
 10
38.1591837916
 20
4.022214132
 10
38.2214567118
 20
3.7815417877
 10
38.2740127392
 20
3.5409742902
 10
38.3166629209
 20
3.3009855198
 10
38.3493014463
 20
3.0620668071
 10
38.3716458027
 20
2.8250592521
 10
38.3835835958
 20
2.5905406523
 10
38.385123415
 20
2.3588424319
 10
38.3762329431
 20
2.1304094395
  0
LWPOLYLINE
  5
4DA
100
AcDbEntity
  8
RACCORDO
100
AcDbPolyline
 62
250
  6
CONTINUOUS
 90
20
 70
0
 10
24.3109428176
 20
13.9133617452
 10
24.695168559
 20
13.6972189138
 10
25.0822322624
 20
13.4807463069
 10
25.4725275925
 20
13.2637812237
 10
25.8702517297
 20
13.0447368847
 10
26.2749362012
 20
12.8237591754
 10
26.6870494798
 20
12.6007022102
 10
27.1121941652
 20
12.3735415533
 10
27.55036694
 20
12.1421369011
 10
28.0015711214
 20
11.9066285572
 10
28.4714192608
 20
11.6654129963
 10
28.9603700392
 20
11.4180237386
 10
29.4679647755
 20
11.1649272639
 10
29.9984399769
 20
10.9059194864
 10
30.5518195055
 20
10.6407776693
 10
31.1280794992
 20
10.3697245493
 10
31.7313848788
 20
10.0932242512
 10
32.3631239512
 20
9.811431483
 10
33.0219084094
 20
9.5241915367
 10
33.7077382535
 20
9.2315044123
  0
LWPOLYLINE
  5
4DB
100
AcDbEntity
  8
RACCORDO
100
AcDbPolyline
 62
250
  6
CONTINUOUS
 90
19
 70
0
 10
24.368933973
 20
13.1961223672
 10
24.7564591763
 20
12.9769198642
 10
25.1475279214
 20
12.7571476758
 10
25.5459704763
 20
12.5350053647
 10
25.951621943
 20
12.3108069214
 10
26.3650921872
 20
12.0844844013
 10
26.7914873466
 20
11.8537273489
 10
27.2311956485
 20
11.6186209066
 10
27.6843939468
 20
11.3793923948
 10
28.1560136136
 20
11.1340233069
 10
28.6471020697
 20
10.8823731264
 10
29.1574700583
 20
10.6250568932
 10
29.6903745684
 20
10.3612893162
 10
30.2466232927
 20
10.0912470935
 10
30.8266325244
 20
9.8154303322
 10
31.4332495602
 20
9.5336369529
 10
32.0679243322
 20
9.2460765323
 10
32.730601752
 20
8.9533107752
 10
33.4219631151
 20
8.6557164053
  0
LINE
  5
4DC
100
AcDbEntity
  8
RACCORDO
100
AcDbLine
 62
250
  6
CONTINUOUS
 10
23.549170027
 20
14.3452686556
 11
24.3109428176
 21
13.9133617452
  0
LINE
  5
4DD
100
AcDbEntity
  8
RACCORDO
100
AcDbLine
 62
250
  6
CONTINUOUS
 10
23.6032100891
 20
13.6328172637
 11
24.368933973
 21
13.1961223672
  0
LWPOLYLINE
  5
4DE
100
AcDbEntity
  8
RACCORDO
100
AcDbPolyline
 62
250
  6
CONTINUOUS
 90
3
 70
0
 10
22.4051104461
 20
14.9987742009
 10
22.7862482008
 20
14.7803328187
 10
23.549170027
 20
14.3452686556
  0
LINE
  5
4DF
100
AcDbEntity
  8
RACCORDO
100
AcDbLine
 62
250
  6
CONTINUOUS
 10
16.7456226543
 20
18.2476374628
 11
21.6484529798
 21
15.4288548972
  0
LINE
  5
4E0
100
AcDbEntity
  8
RACCORDO
100
AcDbLine
 62
250
  6
CONTINUOUS
 10
12.2272262966
 20
20.8539236033
 11
16.7456226543
 21
18.2476374628
  0
LINE
  5
4E1
100
AcDbEntity
  8
RACCORDO
100
AcDbLine
 62
250
  6
CONTINUOUS
 10
-33.4237760032
 20
46.5537614027
 11
21.3105037512
 21
14.9508648463
  0
LWPOLYLINE
  5
4E2
100
AcDbEntity
  8
RACCORDO
100
AcDbPolyline
 62
250
  6
CONTINUOUS
 90
3
 70
0
 10
22.0785541834
 20
14.5108349296
 10
22.459772502
 20
14.2906602094
 10
23.6032100891
 20
13.6328172637
  0
LINE
  5
4E3
100
AcDbEntity
  8
RACCORDO
100
AcDbLine
 62
250
  6
CONTINUOUS
 10
-28.9510942357
 20
44.6333740723
 11
12.2272262966
 21
20.8539236033
  0
LINE
  5
4E4
100
AcDbEntity
  8
RACCORDO
100
AcDbLine
 62
250
  6
CONTINUOUS
 10
-33.0974239354
 20
47.038438101
 11
-28.9510942357
 21
44.6333740723
  0
LWPOLYLINE
  5
4E5
100
AcDbEntity
  8
RACCORDO
100
AcDbPolyline
 62
7
  6
CONTINUOUS
 90
23
 70
0
 10
-28.7173207501
 20
49.5256067927
 10
-28.6618035068
 20
49.4902557384
 10
-28.6073642496
 20
49.4532182963
 10
-28.554019637
 20
49.4145058699
 10
-28.5017885557
 20
49.3741319407
 10
-28.4506921287
 20
49.3321120417
 10
-28.4007472987
 20
49.2884601414
 10
-28.3519704396
 20
49.2431906641
 10
-28.3043812782
 20
49.1963206525
 10
-28.2579956195
 20
49.1478658002
 10
-28.2128286589
 20
49.0978422091
 10
-28.1688986626
 20
49.0462683128
 10
-28.1262202358
 20
48.9931614428
 10
-28.0848073865
 20
48.9385393444
 10
-28.0446769353
 20
48.8824218035
 10
-28.0058422448
 20
48.8248277146
 10
-27.9683161083
 20
48.7657764244
 10
-27.9321139328
 20
48.7052890968
 10
-27.8972478075
 20
48.6433861373
 10
-27.8637292655
 20
48.5800884398
 10
-27.8315722988
 20
48.5154185815
 10
-27.8007885921
 20
48.4493988238
 10
-27.7836556104
 20
48.4101531601
  0
LWPOLYLINE
  5
4E6
100
AcDbEntity
  8
RACCORDO
100
AcDbPolyline
 62
7
  6
CONTINUOUS
 90
10
 70
0
 10
-28.7738976615
 20
49.5592599205
 10
-28.787289185
 20
49.5682672056
 10
-28.7994154874
 20
49.5791805848
 10
-28.8101803289
 20
49.5919347581
 10
-28.8195260814
 20
49.606497033
 10
-28.8273364436
 20
49.6227330659
 10
-28.8334823339
 20
49.6403597698
 10
-28.8379346363
 20
49.6591548883
 10
-28.8407186373
 20
49.6790062081
 10
-28.8418469717
 20
49.6997451739
  0
LINE
  5
4E7
100
AcDbEntity
  8
RACCORDO
100
AcDbLine
 62
250
  6
CONTINUOUS
 10
5.365989891
 20
29.8248607479
 11
5.3763972055
 21
29.8166011008
  0
LINE
  5
4E8
100
AcDbEntity
  8
RACCORDO
100
AcDbLine
 62
250
  6
CONTINUOUS
 10
5.3763972055
 20
29.8166011008
 11
5.387330539
 21
29.8078172158
  0
LINE
  5
4E9
100
AcDbEntity
  8
RACCORDO
100
AcDbLine
 62
250
  6
CONTINUOUS
 10
5.387330539
 20
29.8078172158
 11
5.3987962588
 21
29.7984897254
  0
LINE
  5
4EA
100
AcDbEntity
  8
RACCORDO
100
AcDbLine
 62
250
  6
CONTINUOUS
 10
5.3987962588
 20
29.7984897254
 11
5.4107944735
 21
29.7886009404
  0
LINE
  5
4EB
100
AcDbEntity
  8
RACCORDO
100
AcDbLine
 62
250
  6
CONTINUOUS
 10
5.4107944735
 20
29.7886009404
 11
5.4232886718
 21
29.7781633869
  0
LINE
  5
4EC
100
AcDbEntity
  8
RACCORDO
100
AcDbLine
 62
250
  6
CONTINUOUS
 10
5.4232886718
 20
29.7781633869
 11
5.4362511293
 21
29.7671830756
  0
LINE
  5
4ED
100
AcDbEntity
  8
RACCORDO
100
AcDbLine
 62
250
  6
CONTINUOUS
 10
5.4362511293
 20
29.7671830756
 11
5.4496341112
 21
29.7556820389
  0
LINE
  5
4EE
100
AcDbEntity
  8
RACCORDO
100
AcDbLine
 62
250
  6
CONTINUOUS
 10
5.4496341112
 20
29.7556820389
 11
5.4634017605
 21
29.7436740764
  0
LINE
  5
4EF
100
AcDbEntity
  8
RACCORDO
100
AcDbLine
 62
250
  6
CONTINUOUS
 10
5.4634017605
 20
29.7436740764
 11
5.4775396983
 21
29.7311538197
  0
LINE
  5
4F0
100
AcDbEntity
  8
RACCORDO
100
AcDbLine
 62
250
  6
CONTINUOUS
 10
5.4775396983
 20
29.7311538197
 11
5.4920408884
 21
29.7181093945
  0
LINE
  5
4F1
100
AcDbEntity
  8
RACCORDO
100
AcDbLine
 62
250
  6
CONTINUOUS
 10
5.4920408884
 20
29.7181093945
 11
5.5069539838
 21
29.7044758694
  0
LWPOLYLINE
  5
4F2
100
AcDbEntity
  8
RACCORDO
100
AcDbPolyline
 62
250
  6
CONTINUOUS
 90
26
 70
0
 10
5.5069539838
 20
29.7044758694
 10
5.5223122545
 20
29.690199262
 10
5.5301849389
 20
29.6827864252
 10
5.5381849743
 20
29.675187455
 10
5.5463381427
 20
29.6673720664
 10
5.5546430402
 20
29.6593379131
 10
5.5630973473
 20
29.6510827148
 10
5.5717249275
 20
29.6425756338
 10
5.5805238047
 20
29.6338139212
 10
5.5894913575
 20
29.6247946848
 10
5.5986498468
 20
29.6154861008
 10
5.6079967985
 20
29.6058847663
 10
5.6175290347
 20
29.5959872214
 10
5.6272670274
 20
29.5857606577
 10
5.6372076746
 20
29.5752009483
 10
5.6473471727
 20
29.5643039193
 10
5.6577041039
 20
29.5530356628
 10
5.6682737884
 20
29.5413921693
 10
5.6790525327
 20
29.5293674913
 10
5.6900594111
 20
29.5169236137
 10
5.7012857425
 20
29.5040592781
 10
5.7127300714
 20
29.4907638386
 10
5.7244209711
 20
29.4769835992
 10
5.7363634428
 20
29.4626954011
 10
5.7485396421
 20
29.4479075313
 10
5.7609429074
 20
29.4326123734
  0
LWPOLYLINE
  5
4F3
100
AcDbEntity
  8
RACCORDO
100
AcDbPolyline
 62
250
  6
CONTINUOUS
 90
10
 70
0
 10
4.9010638403
 20
30.1094254137
 10
4.8993781008
 20
30.1110435374
 10
4.8976628127
 20
30.1126186184
 10
4.8959182764
 20
30.1141503812
 10
4.8941447974
 20
30.1156385573
 10
4.892342686
 20
30.1170828864
 10
4.890512258
 20
30.1184831155
 10
4.8886538336
 20
30.1198389994
 10
4.8867677384
 20
30.1211503008
 10
4.8848543025
 20
30.1224167901
  0
LWPOLYLINE
  5
4F4
100
AcDbEntity
  8
RACCORDO
100
AcDbPolyline
 62
250
  6
CONTINUOUS
 90
10
 70
0
 10
5.256359498
 20
29.9042814369
 10
5.2546736168
 20
29.9058997717
 10
5.252958231
 20
29.9074750093
 10
5.2512136435
 20
29.9090068777
 10
5.2494401806
 20
29.9104950979
 10
5.2476381378
 20
29.9119394287
 10
5.2458077772
 20
29.9133396629
 10
5.2439494005
 20
29.9146955688
 10
5.2420633513
 20
29.9160068946
 10
5.2401499598
 20
29.9172734109
  0
LINE
  5
4F5
100
AcDbEntity
  8
RACCORDO
100
AcDbLine
 62
250
  6
CONTINUOUS
 10
4.8637676714
 20
30.1242768534
 11
4.8829033475
 21
30.1057169607
  0
LINE
  5
4F6
100
AcDbEntity
  8
RACCORDO
100
AcDbLine
 62
250
  6
CONTINUOUS
 10
4.8829033475
 20
30.1057169607
 11
4.8926278639
 21
30.0961794765
  0
LWPOLYLINE
  5
4F7
100
AcDbEntity
  8
RACCORDO
100
AcDbPolyline
 62
250
  6
CONTINUOUS
 90
9
 70
0
 10
4.8926278639
 20
30.0961794765
 10
4.903514663
 20
30.0853390556
 10
4.9093982617
 20
30.0794006789
 10
4.9155716974
 20
30.0731047592
 10
4.9220317091
 20
30.0664427023
 10
4.9287916539
 20
30.0593898584
 10
4.9358441068
 20
30.0519392893
 10
4.9431846845
 20
30.0440812887
 10
4.9508301794
 20
30.0357855099
  0
LWPOLYLINE
  5
4F8
100
AcDbEntity
  8
RACCORDO
100
AcDbPolyline
 62
250
  6
CONTINUOUS
 90
31
 70
0
 10
5.8952012219
 20
29.4167117203
 10
5.8767466153
 20
29.4354785759
 10
5.8585177155
 20
29.4536474641
 10
5.8405255067
 20
29.4712319926
 10
5.8227902669
 20
29.4882351542
 10
5.805312783
 20
29.5046805728
 10
5.7880735421
 20
29.5206113588
 10
5.771080675
 20
29.5360398768
 10
5.7543435233
 20
29.5509764674
 10
5.7378426206
 20
29.5654589521
 10
5.7215846469
 20
29.579498078
 10
5.7055775862
 20
29.5931026699
 10
5.6898024771
 20
29.6063057724
 10
5.6742648999
 20
29.6191166698
 10
5.6589716202
 20
29.6315429714
 10
5.6439042719
 20
29.6436136296
 10
5.6290675843
 20
29.655336649
 10
5.6144672565
 20
29.666718631
 10
5.6000854171
 20
29.6777851131
 10
5.58592606
 20
29.6885430341
 10
5.5719940307
 20
29.6989981085
 10
5.558271959
 20
29.709172958
 10
5.544763256
 20
29.7190736121
 10
5.5314720316
 20
29.7287050297
 10
5.5183813436
 20
29.7380873515
 10
5.5054941072
 20
29.747225863
 10
5.4928138363
 20
29.7561248542
 10
5.4803240044
 20
29.7648022835
 10
5.4680269347
 20
29.7732629408
 10
5.4559258352
 20
29.781510425
 10
5.4322667182
 20
29.7974172934
  0
LWPOLYLINE
  5
4F9
100
AcDbEntity
  8
RACCORDO
100
AcDbPolyline
 62
250
  6
CONTINUOUS
 90
9
 70
0
 10
5.2563594975
 20
29.9042814372
 10
5.3606865667
 20
29.7960970759
 10
5.4594598432
 20
29.6801677409
 10
5.5525117803
 20
29.5566290569
 10
5.6397202923
 20
29.4255704298
 10
5.7208891268
 20
29.2872051489
 10
5.7957742254
 20
29.1419003882
 10
5.8642476163
 20
28.989901803
 10
5.8680990935
 20
28.9800517496
  0
LWPOLYLINE
  5
4FA
100
AcDbEntity
  8
RACCORDO
100
AcDbPolyline
 62
250
  6
CONTINUOUS
 90
3
 70
0
 10
5.1067373231
 20
29.8635959888
 10
5.1185292125
 20
29.8512068684
 10
5.1293654161
 20
29.838007432
  0
LINE
  5
4FB
100
AcDbEntity
  8
RACCORDO
100
AcDbLine
 62
250
  6
CONTINUOUS
 10
5.008865679
 20
29.9952575578
 11
4.9010638401
 21
30.1094254139
  0
LINE
  5
4FC
100
AcDbEntity
  8
RACCORDO
100
AcDbLine
 62
7
  6
CONTINUOUS
 10
4.9182057394
 20
30.081064109
 11
4.9180922823
 21
30.0811854571
  0
LINE
  5
4FD
100
AcDbEntity
  8
RACCORDO
100
AcDbLine
 62
250
  6
CONTINUOUS
 10
4.9180922823
 20
30.0811854571
 11
4.9103500536
 21
30.0894988255
  0
LINE
  5
4FE
100
AcDbEntity
  8
RACCORDO
100
AcDbLine
 62
250
  6
CONTINUOUS
 10
4.9103500536
 20
30.0894988255
 11
4.907135619
 21
30.0929852752
  0
LWPOLYLINE
  5
4FF
100
AcDbEntity
  8
RACCORDO
100
AcDbPolyline
 62
7
  6
CONTINUOUS
 90
3
 70
0
 10
4.9182062299
 20
30.0810635839
 10
4.9475057427
 20
30.04907418
 10
5.0543477029
 20
29.9205181011
  0
LINE
  5
500
100
AcDbEntity
  8
RACCORDO
100
AcDbLine
 62
250
  6
CONTINUOUS
 10
4.907135619
 20
30.0929852752
 11
4.9042420956
 21
30.0961572552
  0
LWPOLYLINE
  5
501
100
AcDbEntity
  8
RACCORDO
100
AcDbPolyline
 62
250
  6
CONTINUOUS
 90
6
 70
0
 10
4.9508301794
 20
30.0357855099
 10
4.9587720556
 20
30.0270437164
 10
4.9670047576
 20
30.017844759
 10
4.9755481423
 20
30.0081520362
 10
4.9843923123
 20
29.9979557858
 10
4.9935302856
 20
29.9872431472
  0
LWPOLYLINE
  5
502
100
AcDbEntity
  8
RACCORDO
100
AcDbPolyline
 62
250
  6
CONTINUOUS
 90
36
 70
0
 10
4.9042420956
 20
30.0961572552
 10
4.9016691683
 20
30.0990195451
 10
4.9005014009
 20
30.1003372422
 10
4.8994131305
 20
30.1015793823
 10
4.8984036407
 20
30.1027471508
 10
4.8974688562
 20
30.1038450442
 10
4.8966091416
 20
30.1048729057
 10
4.8958242337
 20
30.105831362
 10
4.8951090962
 20
30.1067260379
 10
4.8944633766
 20
30.1075575427
 10
4.893887511
 20
30.1083256586
 10
4.8933776561
 20
30.1090347568
 10
4.8929334307
 20
30.1096855401
 10
4.8925552923
 20
30.1102776453
 10
4.8922406507
 20
30.1108138244
 10
4.8919895391
 20
30.1112942312
 10
4.891801953
 20
30.1117189658
 10
4.8916752171
 20
30.1120906567
 10
4.8916093791
 20
30.1124092556
 10
4.8916043618
 20
30.1126749674
 10
4.8916572811
 20
30.1128907651
 10
4.8917675717
 20
30.1130569186
 10
4.8919357346
 20
30.1131732441
 10
4.8921605214
 20
30.1132420699
 10
4.8924385357
 20
30.113265456
 10
4.8927731454
 20
30.1132414489
 10
4.8931735109
 20
30.1131666837
 10
4.8936327345
 20
30.1130472222
 10
4.8941581161
 20
30.1128776576
 10
4.8947807368
 20
30.1126382399
 10
4.8954967856
 20
30.1123355775
 10
4.896311388
 20
30.1119649781
 10
4.8972697561
 20
30.111490739
 10
4.8983877699
 20
30.1109021522
 10
4.8996516415
 20
30.1102130473
 10
4.9010624245
 20
30.1094250448
  0
LWPOLYLINE
  5
503
100
AcDbEntity
  8
RACCORDO
100
AcDbPolyline
 62
250
  6
CONTINUOUS
 90
8
 70
0
 10
4.9935302856
 20
29.9872431472
 10
5.0029845467
 20
29.9759705839
 10
5.0127434162
 20
29.9641266254
 10
5.0227982847
 20
29.9516963031
 10
5.0331740759
 20
29.9386280703
 10
5.0438705238
 20
29.924893845
 10
5.0548631706
 20
29.9104904264
 10
5.0661390947
 20
29.8954018019
  0
LINE
  5
504
100
AcDbEntity
  8
RACCORDO
100
AcDbLine
 62
250
  6
CONTINUOUS
 10
5.1096704159
 20
29.8730889841
 11
5.008865679
 21
29.9952575578
  0
LWPOLYLINE
  5
505
100
AcDbEntity
  8
RACCORDO
100
AcDbPolyline
 62
7
  6
CONTINUOUS
 90
3
 70
0
 10
24.1640143255
 20
4.156906346
 10
24.2422497472
 20
4.052607971
 10
24.3604669548
 20
3.8861900573
  0
LINE
  5
506
100
AcDbEntity
  8
RACCORDO
100
AcDbLine
 62
250
  6
CONTINUOUS
 10
5.1293654161
 20
29.838007432
 11
5.1320034446
 21
29.8344730379
  0
LINE
  5
507
100
AcDbEntity
  8
RACCORDO
100
AcDbLine
 62
7
  6
CONTINUOUS
 10
5.1320034446
 20
29.8344730379
 11
5.132047756
 21
29.8344124594
  0
LINE
  5
508
100
AcDbEntity
  8
RACCORDO
100
AcDbLine
 62
7
  6
CONTINUOUS
 10
23.9095755114
 20
4.1295610327
 11
23.9401379036
 21
4.0874409098
  0
LWPOLYLINE
  5
509
100
AcDbEntity
  8
RACCORDO
100
AcDbPolyline
 62
7
  6
CONTINUOUS
 90
7
 70
0
 10
23.7808403491
 20
4.3407427749
 10
23.7941731186
 20
4.3141258473
 10
23.8151326552
 20
4.2753819004
 10
23.8371809521
 20
4.2375029827
 10
23.8602237115
 20
4.2006573036
 10
23.8843552313
 20
4.1646766535
 10
23.9095755114
 20
4.1295610327
  0
LWPOLYLINE
  5
50A
100
AcDbEntity
  8
RACCORDO
100
AcDbPolyline
 62
250
  6
CONTINUOUS
 90
3
 70
0
 10
24.9646506256
 20
3.5990394732
 10
24.9613240801
 20
3.6067046737
 10
24.8599683346
 20
3.8256437889
  0
LINE
  5
50B
100
AcDbEntity
  8
RACCORDO
100
AcDbLine
 62
7
  6
CONTINUOUS
 10
30.1264928027
 20
-53.5940664701
 11
30.1264849122
 21
-53.5940099807
  0
LINE
  5
50C
100
AcDbEntity
  8
RACCORDO
100
AcDbLine
 62
250
  6
CONTINUOUS
 10
30.1507909143
 20
-53.0221242915
 11
30.2446744484
 21
-53.725588151
  0
LWPOLYLINE
  5
50D
100
AcDbEntity
  8
RACCORDO
100
AcDbPolyline
 62
7
  6
CONTINUOUS
 90
19
 70
0
 10
30.1264928027
 20
-53.5940664701
 10
30.1378112189
 20
-53.6832355869
 10
30.1512408825
 20
-53.8278131978
 10
30.1580943133
 20
-53.9690020819
 10
30.1583042067
 20
-54.1063844835
 10
30.1518420038
 20
-54.2394903263
 10
30.1387269585
 20
-54.3677564353
 10
30.1190110187
 20
-54.4907629595
 10
30.0927805018
 20
-54.6081313758
 10
30.0601810361
 20
-54.7193618216
 10
30.0213963059
 20
-54.8240715454
 10
29.976593343
 20
-54.9220385093
 10
29.9259332449
 20
-55.0130712491
 10
29.8696871563
 20
-55.0968808346
 10
29.8079541575
 20
-55.1734718517
 10
29.7405077007
 20
-55.2431250946
 10
29.6672158037
 20
-55.3058292799
 10
29.5881655742
 20
-55.3613421031
 10
29.5691262955
 20
-55.3731073911
  0
LWPOLYLINE
  5
50E
100
AcDbEntity
  8
RACCORDO
100
AcDbPolyline
 62
250
  6
CONTINUOUS
 90
36
 70
0
 10
29.0373791405
 20
-52.2960319913
 10
29.0575191473
 20
-52.4665630487
 10
29.0700602768
 20
-52.6315707713
 10
29.0750279667
 20
-52.7910340137
 10
29.0723924759
 20
-52.9448198589
 10
29.062241771
 20
-53.0930128228
 10
29.0447823566
 20
-53.235914164
 10
29.0200416129
 20
-53.3739052786
 10
28.9880687028
 20
-53.5065411426
 10
28.9490980426
 20
-53.6328873431
 10
28.9031116847
 20
-53.752831864
 10
28.8501954865
 20
-53.8664302701
 10
28.7907235612
 20
-53.9730128295
 10
28.7246867147
 20
-54.072506658
 10
28.6521500649
 20
-54.164938152
 10
28.5735810861
 20
-54.2498015511
 10
28.4889645936
 20
-54.3270421444
 10
28.3983541212
 20
-54.3966827642
 10
28.302299855
 20
-54.4583508961
 10
28.2007809543
 20
-54.5120006915
 10
28.0938338225
 20
-54.5576650621
 10
27.9820724744
 20
-54.5951079511
 10
27.8654157415
 20
-54.6242900781
 10
27.7439347268
 20
-54.6452590908
 10
27.6184474942
 20
-54.6579295735
 10
27.4892388561
 20
-54.6623342671
 10
27.3559807358
 20
-54.6584763948
 10
27.2185580541
 20
-54.6462377436
 10
27.0767037814
 20
-54.6256565079
 10
26.9306409738
 20
-54.5967310471
 10
26.7809778364
 20
-54.559293241
 10
26.6274653091
 20
-54.5132387808
 10
26.4702823814
 20
-54.4587302229
 10
26.3106539885
 20
-54.3960208137
 10
26.1489466075
 20
-54.3252297445
 10
25.9846856063
 20
-54.2463277298
  0
LWPOLYLINE
  5
50F
100
AcDbEntity
  8
RACCORDO
100
AcDbPolyline
 62
250
  6
CONTINUOUS
 90
22
 70
0
 10
30.2446744484
 20
-53.725588151
 10
30.2619406896
 20
-53.874850285
 10
30.2732014147
 20
-54.0194465267
 10
30.2784739808
 20
-54.1593624476
 10
30.2777232115
 20
-54.294302661
 10
30.2710226553
 20
-54.4245306559
 10
30.2585583795
 20
-54.5508656445
 10
30.2403635288
 20
-54.6738307974
 10
30.2164621619
 20
-54.7928553923
 10
30.187026285
 20
-54.9071181611
 10
30.1522124728
 20
-55.0162778135
 10
30.1119125335
 20
-55.1206354205
 10
30.0659003578
 20
-55.2203340576
 10
30.0142253449
 20
-55.315578652
 10
29.9569035778
 20
-55.4061098432
 10
29.8936634537
 20
-55.4913705502
 10
29.8243099188
 20
-55.5715171297
 10
29.7491097907
 20
-55.6463335699
 10
29.6684711746
 20
-55.714715126
 10
29.5825388426
 20
-55.7762862866
 10
29.4912092634
 20
-55.8313882809
 10
29.394504442
 20
-55.8800028168
  0
LWPOLYLINE
  5
510
100
AcDbEntity
  8
RACCORDO
100
AcDbPolyline
 62
250
  6
CONTINUOUS
 90
20
 70
0
 10
29.326133726
 20
-42.784718918
 10
29.3412886803
 20
-43.1793194823
 10
29.3582320765
 20
-43.5897966813
 10
29.3771820394
 20
-44.0173136263
 10
29.3982673501
 20
-44.460418834
 10
29.4218650355
 20
-44.9217908545
 10
29.448311893
 20
-45.4031985766
 10
29.4777552155
 20
-45.9024707024
 10
29.5103038118
 20
-46.4163621695
 10
29.5461281185
 20
-46.9438848883
 10
29.585505275
 20
-47.4856548923
 10
29.6286737487
 20
-48.0408585715
 10
29.6757611447
 20
-48.6080156711
 10
29.7271157095
 20
-49.1882108852
 10
29.7833413625
 20
-49.7844493564
 10
29.8446874425
 20
-50.396292412
 10
29.9114581001
 20
-51.0237186263
 10
29.9844399653
 20
-51.6702754761
 10
30.06415825
 20
-52.3369268286
 10
30.1507909143
 20
-53.0221242915
  0
LINE
  5
511
100
AcDbEntity
  8
RACCORDO
100
AcDbLine
 62
250
  6
CONTINUOUS
 10
29.299834414
 20
-42.023152511
 11
29.326133726
 21
-42.784718918
  0
LINE
  5
512
100
AcDbEntity
  8
RACCORDO
100
AcDbLine
 62
250
  6
CONTINUOUS
 10
29.2780541626
 20
-41.2922476333
 11
29.299834414
 21
-42.023152511
  0
LINE
  5
513
100
AcDbEntity
  8
RACCORDO
100
AcDbLine
 62
250
  6
CONTINUOUS
 10
29.2595887075
 20
-40.5704051138
 11
29.2780541626
 21
-41.2922476333
  0
LINE
  5
514
100
AcDbEntity
  8
RACCORDO
100
AcDbLine
 62
250
  6
CONTINUOUS
 10
29.2438390165
 20
-39.8471161302
 11
29.2595887075
 21
-40.5704051138
  0
LINE
  5
515
100
AcDbEntity
  8
RACCORDO
100
AcDbLine
 62
250
  6
CONTINUOUS
 10
29.230439068
 20
-39.1185422383
 11
29.2438390165
 21
-39.8471161302
  0
LINE
  5
516
100
AcDbEntity
  8
RACCORDO
100
AcDbLine
 62
250
  6
CONTINUOUS
 10
29.2141264008
 20
-38.0171097288
 11
29.230439068
 21
-39.1185422383
  0
LWPOLYLINE
  5
517
100
AcDbEntity
  8
RACCORDO
100
AcDbPolyline
 62
250
  6
CONTINUOUS
 90
28
 70
0
 10
28.041690358
 20
-36.9817332215
 10
28.0486402208
 20
-37.5437799844
 10
28.0566965605
 20
-38.1059097829
 10
28.0659984226
 20
-38.6674761079
 10
28.0766699751
 20
-39.2283082578
 10
28.0888430702
 20
-39.7883641127
 10
28.1026807612
 20
-40.3471796612
 10
28.1183131518
 20
-40.9044706914
 10
28.1358722896
 20
-41.4603034968
 10
28.1555202228
 20
-42.0147430846
 10
28.1773621315
 20
-42.567544409
 10
28.2015034023
 20
-43.118777478
 10
28.2280887857
 20
-43.6689945161
 10
28.2572339286
 20
-44.2186283262
 10
28.2889979728
 20
-44.7671008089
 10
28.3234128025
 20
-45.3134712001
 10
28.36037513
 20
-45.8554765225
 10
28.4000687463
 20
-46.3953128337
 10
28.4430039002
 20
-46.9386882322
 10
28.4891771123
 20
-47.4844227894
 10
28.5387929656
 20
-48.0335292627
 10
28.5928889141
 20
-48.5948259639
 10
28.6517166639
 20
-49.1683845111
 10
28.7154889559
 20
-49.7537472058
 10
28.7854575453
 20
-50.3587116571
 10
28.862345218
 20
-50.9856230871
 10
28.9461976738
 20
-51.6314974556
 10
29.0373791405
 20
-52.2960319913
  0
LWPOLYLINE
  5
518
100
AcDbEntity
  8
RACCORDO
100
AcDbPolyline
 62
250
  6
CONTINUOUS
 90
29
 70
0
 10
28.6648848349
 20
-36.385178695
 10
28.6708052089
 20
-36.9458334558
 10
28.6777306995
 20
-37.5069909038
 10
28.6856825702
 20
-38.0682341581
 10
28.6950352524
 20
-38.628708284
 10
28.7057704157
 20
-39.188354524
 10
28.7179063904
 20
-39.7472316356
 10
28.7318725984
 20
-40.3046609564
 10
28.7476726101
 20
-40.8604490435
 10
28.7653028551
 20
-41.4147893397
 10
28.7851820445
 20
-41.9675835115
 10
28.8073318808
 20
-42.5186564119
 10
28.8317306615
 20
-43.0681831879
 10
28.8587319904
 20
-43.616590947
 10
28.8883947516
 20
-44.1643622065
 10
28.9206600611
 20
-44.711014449
 10
28.9557048695
 20
-45.2555272298
 10
28.9933597944
 20
-45.7956993872
 10
29.0337942184
 20
-46.3337320829
 10
29.0776932396
 20
-46.8752083573
 10
29.1248156496
 20
-47.4191435741
 10
29.1754026568
 20
-47.9665223696
 10
29.2308629857
 20
-48.5258816925
 10
29.2910345589
 20
-49.0976290498
 10
29.3560794538
 20
-49.6813569345
 10
29.4278926259
 20
-50.2843797749
 10
29.507105727
 20
-50.9091357137
 10
29.5930871054
 20
-51.5531866082
 10
29.685836761
 20
-52.2165324584
  0
LINE
  5
519
100
AcDbEntity
  8
RACCORDO
100
AcDbLine
 62
250
  6
CONTINUOUS
 10
29.2017054153
 20
-36.9166127709
 11
29.2141264008
 21
-38.0171097288
  0
LINE
  5
51A
100
AcDbEntity
  8
RACCORDO
100
AcDbLine
 62
250
  6
CONTINUOUS
 10
28.0307041398
 20
-35.8590213496
 11
28.041690358
 21
-36.9817332215
  0
LINE
  5
51B
100
AcDbEntity
  8
RACCORDO
100
AcDbLine
 62
250
  6
CONTINUOUS
 10
28.6558125866
 20
-35.2637308839
 11
28.6648848349
 21
-36.385178695
  0
LINE
  5
51C
100
AcDbEntity
  8
RACCORDO
100
AcDbLine
 62
250
  6
CONTINUOUS
 10
29.1898539264
 20
-35.4531346789
 11
29.2017054153
 21
-36.9166127709
  0
LINE
  5
51D
100
AcDbEntity
  8
RACCORDO
100
AcDbLine
 62
250
  6
CONTINUOUS
 10
28.0228741779
 20
-34.7358092508
 11
28.0307041398
 21
-35.8590213496
  0
LINE
  5
51E
100
AcDbEntity
  8
RACCORDO
100
AcDbLine
 62
250
  6
CONTINUOUS
 10
28.6495554804
 20
-34.1412803443
 11
28.6558125866
 21
-35.2637308839
  0
LINE
  5
51F
100
AcDbEntity
  8
RACCORDO
100
AcDbLine
 62
250
  6
CONTINUOUS
 10
28.0175270298
 20
-33.6110408628
 11
28.0228741779
 21
-34.7358092508
  0
LINE
  5
520
100
AcDbEntity
  8
RACCORDO
100
AcDbLine
 62
250
  6
CONTINUOUS
 10
29.1802861796
 20
-33.5570212385
 11
29.1898539264
 21
-35.4531346789
  0
LINE
  5
521
100
AcDbEntity
  8
RACCORDO
100
AcDbLine
 62
250
  6
CONTINUOUS
 10
28.6440635389
 20
-32.4491167076
 11
28.6495554804
 21
-34.1412803443
  0
LINE
  5
522
100
AcDbEntity
  8
RACCORDO
100
AcDbLine
 62
250
  6
CONTINUOUS
 10
29.174093561
 20
-30.9624970548
 11
29.1802861796
 21
-33.5570212385
  0
LWPOLYLINE
  5
523
100
AcDbEntity
  8
RACCORDO
100
AcDbPolyline
 62
7
  6
CONTINUOUS
 90
14
 70
0
 10
29.0391566246
 20
-28.6135075803
 10
29.0403089415
 20
-30.8187509383
 10
29.0445593871
 20
-32.9844546164
 10
29.0538985127
 20
-35.1094689273
 10
29.0711122046
 20
-37.1922008407
 10
29.0999779167
 20
-39.2303670084
 10
29.1454111517
 20
-41.2208546189
 10
29.2122204586
 20
-43.1603533492
 10
29.3033784745
 20
-45.0465012537
 10
29.4202978842
 20
-46.8777808279
 10
29.5631084923
 20
-48.653417497
 10
29.7309108366
 20
-50.3733742937
 10
29.9220132513
 20
-52.0382699786
 10
30.1264849122
 20
-53.5940099807
  0
LINE
  5
524
100
AcDbEntity
  8
RACCORDO
100
AcDbLine
 62
250
  6
CONTINUOUS
 10
28.0107592594
 20
-29.6712953755
 11
28.0175270298
 21
-33.6110408628
  0
LINE
  5
525
100
AcDbEntity
  8
RACCORDO
100
AcDbLine
 62
250
  6
CONTINUOUS
 10
28.6412671167
 20
-29.6409914069
 11
28.6440635389
 21
-32.4491167076
  0
LINE
  5
526
100
AcDbEntity
  8
RACCORDO
100
AcDbLine
 62
7
  6
CONTINUOUS
 10
29.0400189302
 20
-24.1538593607
 11
29.0391566246
 21
-28.6135075803
  0
LWPOLYLINE
  5
527
100
AcDbEntity
  8
RACCORDO
100
AcDbPolyline
 62
250
  6
CONTINUOUS
 90
3
 70
0
 10
29.173411857
 20
-24.9338903741
 10
29.1730745579
 20
-26.1598126009
 10
29.174093561
 20
-30.9624970548
  0
LINE
  5
528
100
AcDbEntity
  8
RACCORDO
100
AcDbLine
 62
250
  6
CONTINUOUS
 10
29.1746439748
 20
-17.2493459531
 11
29.173411857
 21
-24.9338903741
  0
LINE
  5
529
100
AcDbEntity
  8
RACCORDO
100
AcDbLine
 62
250
  6
CONTINUOUS
 10
28.0130324803
 20
-15.6909182301
 11
28.0107592594
 21
-29.6712953755
  0
LINE
  5
52A
100
AcDbEntity
  8
RACCORDO
100
AcDbLine
 62
250
  6
CONTINUOUS
 10
28.6440199034
 20
-15.1800108411
 11
28.6412671167
 21
-29.6409914069
  0
LINE
  5
52B
100
AcDbEntity
  8
RACCORDO
100
AcDbLine
 62
250
  6
CONTINUOUS
 10
29.1786808471
 20
-15.5024809963
 11
29.1746439748
 21
-17.2493459531
  0
LINE
  5
52C
100
AcDbEntity
  8
RACCORDO
100
AcDbLine
 62
250
  6
CONTINUOUS
 10
28.0172980894
 20
-14.1327189553
 11
28.0130324803
 21
-15.6909182301
  0
LINE
  5
52D
100
AcDbEntity
  8
RACCORDO
100
AcDbLine
 62
250
  6
CONTINUOUS
 10
28.6488843745
 20
-13.6220459075
 11
28.6440199034
 21
-15.1800108411
  0
LINE
  5
52E
100
AcDbEntity
  8
RACCORDO
100
AcDbLine
 62
250
  6
CONTINUOUS
 10
28.0220847336
 20
-13.0832947866
 11
28.0172980894
 21
-14.1327189553
  0
LINE
  5
52F
100
AcDbEntity
  8
RACCORDO
100
AcDbLine
 62
250
  6
CONTINUOUS
 10
29.18618663
 20
-13.7371210458
 11
29.1786808471
 21
-15.5024809963
  0
LINE
  5
530
100
AcDbEntity
  8
RACCORDO
100
AcDbLine
 62
250
  6
CONTINUOUS
 10
28.6543552647
 20
-12.5766776053
 11
28.6488843745
 21
-13.6220459075
  0
LINE
  5
531
100
AcDbEntity
  8
RACCORDO
100
AcDbLine
 62
250
  6
CONTINUOUS
 10
28.0289436356
 20
-12.0315706601
 11
28.0220847336
 21
-13.0832947866
  0
LINE
  5
532
100
AcDbEntity
  8
RACCORDO
100
AcDbLine
 62
250
  6
CONTINUOUS
 10
29.1938800566
 20
-12.5576276676
 11
29.18618663
 21
-13.7371210458
  0
LINE
  5
533
100
AcDbEntity
  8
RACCORDO
100
AcDbLine
 62
250
  6
CONTINUOUS
 10
28.6620908984
 20
-11.5292749345
 11
28.6543552647
 21
-12.5766776053
  0
LINE
  5
534
100
AcDbEntity
  8
RACCORDO
100
AcDbLine
 62
250
  6
CONTINUOUS
 10
28.0384034405
 20
-10.97874944
 11
28.0289436356
 21
-12.0315706601
  0
LINE
  5
535
100
AcDbEntity
  8
RACCORDO
100
AcDbLine
 62
250
  6
CONTINUOUS
 10
28.6726907011
 20
-10.4819473086
 11
28.6620908984
 21
-11.5292749345
  0
LWPOLYLINE
  5
536
100
AcDbEntity
  8
RACCORDO
100
AcDbPolyline
 62
250
  6
CONTINUOUS
 90
12
 70
0
 10
29.3579011338
 20
1.9717249196
 10
29.3568178959
 20
1.9483473347
 10
29.3572186879
 20
1.9261376155
 10
29.359100086
 20
1.9052852408
 10
29.3624460345
 20
1.8859681084
 10
29.3672279831
 20
1.8683510169
 10
29.3734051308
 20
1.8525842602
 10
29.3809247732
 20
1.8388023461
 10
29.3897227534
 20
1.8271228477
 10
29.3997240095
 20
1.8176454005
 10
29.4108432137
 20
1.8104508545
 10
29.4160009674
 20
1.8080517957
  0
LWPOLYLINE
  5
537
100
AcDbEntity
  8
RACCORDO
100
AcDbPolyline
 62
7
  6
CONTINUOUS
 90
12
 70
0
 10
29.6077816974
 20
1.5111419529
 10
29.4631969253
 20
-0.3517404391
 10
29.337575533
 20
-2.3211966529
 10
29.2375485358
 20
-4.3271624245
 10
29.1625568137
 20
-6.36930504
 10
29.1104609145
 20
-8.4482319653
 10
29.0769688516
 20
-10.5659156166
 10
29.0568369789
 20
-12.7251891964
 10
29.0458074161
 20
-14.9285252317
 10
29.0406870432
 20
-17.1778370107
 10
29.0391772472
 20
-19.4745210837
 10
29.0400189294
 20
-24.1538502189
  0
LWPOLYLINE
  5
538
100
AcDbEntity
  8
RACCORDO
100
AcDbPolyline
 62
250
  6
CONTINUOUS
 90
23
 70
0
 10
29.7358582533
 20
1.3697893244
 10
29.6835067119
 20
0.7197305436
 10
29.6348919015
 20
0.0798994075
 10
29.5898668427
 20
-0.5497853565
 10
29.5484920257
 20
-1.1663522035
 10
29.5103966866
 20
-1.7729442448
 10
29.4749027716
 20
-2.3787507025
 10
29.4417986722
 20
-2.986968576
 10
29.4112283185
 20
-3.5944382889
 10
29.3831415626
 20
-4.2007618915
 10
29.3574690851
 20
-4.8058698448
 10
29.3341299726
 20
-5.4099147594
 10
29.3130306727
 20
-6.0128462935
 10
29.2940711894
 20
-6.6148930222
 10
29.2771530147
 20
-7.2159361338
 10
29.2621574895
 20
-7.8154193234
 10
29.2489656374
 20
-8.4133549343
 10
29.2374223373
 20
-9.0098821862
 10
29.2273431478
 20
-9.6046414835
 10
29.2185797397
 20
-10.1972875386
 10
29.2109874802
 20
-10.788327633
 10
29.2044108376
 20
-11.3786681056
 10
29.1938800566
 20
-12.5576276676
  0
LWPOLYLINE
  5
539
100
AcDbEntity
  8
RACCORDO
100
AcDbPolyline
 62
250
  6
CONTINUOUS
 90
23
 70
0
 10
28.5911544442
 20
1.5539080354
 10
28.5403711421
 20
0.9673623355
 10
28.4928137108
 20
0.3875235607
 10
28.4483893117
 20
-0.1856596241
 10
28.4070671407
 20
-0.7515048782
 10
28.3686913762
 20
-1.3107977374
 10
28.3330105095
 20
-1.8657753964
 10
28.2999390326
 20
-2.4166294634
 10
28.2694050048
 20
-2.9632553916
 10
28.2412170382
 20
-3.5074241522
 10
28.2152913298
 20
-4.0493744544
 10
28.1915623232
 20
-4.5889501775
 10
28.1698873737
 20
-5.1273182303
 10
28.1501711919
 20
-5.6649205827
 10
28.1323459666
 20
-6.2014054515
 10
28.1163002001
 20
-6.7367546851
 10
28.1019261068
 20
-7.2711372423
 10
28.0891129487
 20
-7.8045049973
 10
28.0777299417
 20
-8.3365223865
 10
28.0676752702
 20
-8.8670265933
 10
28.0588366801
 20
-9.3962988047
 10
28.0510705813
 20
-9.9246678856
 10
28.0384034405
 20
-10.97874944
  0
LWPOLYLINE
  5
53A
100
AcDbEntity
  8
RACCORDO
100
AcDbPolyline
 62
250
  6
CONTINUOUS
 90
22
 70
0
 10
29.2187369662
 20
1.4217197205
 10
29.1678543019
 20
0.8423373762
 10
29.1200492471
 20
0.2692474618
 10
29.0753218016
 20
-0.2975500227
 10
29.0338129204
 20
-0.8573032285
 10
28.9953816487
 20
-1.4107640043
 10
28.9596051214
 20
-1.9601878969
 10
28.926458976
 20
-2.5057128831
 10
28.8959675752
 20
-3.0472009861
 10
28.8677811414
 20
-3.5864938221
 10
28.8418869339
 20
-4.1238122678
 10
28.8182976935
 20
-4.6589354463
 10
28.7967018657
 20
-5.1930423441
 10
28.7771014387
 20
-5.7265083748
 10
28.7594944243
 20
-6.2589581247
 10
28.7435633026
 20
-6.7904443381
 10
28.7293204467
 20
-7.3210496587
 10
28.7167534836
 20
-7.8506914428
 10
28.7055077735
 20
-8.3791745046
 10
28.6955754608
 20
-8.9062883894
 10
28.6869644013
 20
-9.4322435519
 10
28.6726907011
 20
-10.4819473086
  0
LWPOLYLINE
  5
53B
100
AcDbEntity
  8
RACCORDO
100
AcDbPolyline
 62
250
  6
CONTINUOUS
 90
7
 70
0
 10
6.0981139856
 20
29.2397781766
 10
6.1137277133
 20
29.2401806787
 10
6.1292010434
 20
29.2409560156
 10
6.1444912177
 20
29.2420983995
 10
6.1595537994
 20
29.2435996609
 10
6.174342786
 20
29.2454491305
 10
6.1791591749
 20
29.2461763166
  0
LWPOLYLINE
  5
53C
100
AcDbEntity
  8
RACCORDO
100
AcDbPolyline
 62
250
  6
CONTINUOUS
 90
14
 70
0
 10
6.0981197183
 20
29.2397754073
 10
6.0859491043
 20
29.2400309259
 10
6.0737660666
 20
29.2408928285
 10
6.0616138619
 20
29.2423581155
 10
6.0495729728
 20
29.2444532833
 10
6.0376519113
 20
29.2471286131
 10
6.0257707587
 20
29.2502743902
 10
6.0139388234
 20
29.2538659027
 10
6.0021900303
 20
29.2579071206
 10
5.9904607211
 20
29.2623501597
 10
5.9787567716
 20
29.2671903262
 10
5.9671095825
 20
29.2724222211
 10
5.9554819877
 20
29.2780102253
 10
5.9438617307
 20
29.2839654822
  0
LWPOLYLINE
  5
53D
100
AcDbEntity
  8
RACCORDO
100
AcDbPolyline
 62
250
  6
CONTINUOUS
 90
10
 70
0
 10
5.8952012251
 20
29.4167117295
 10
5.8824605652
 20
29.4226904126
 10
5.8690364521
 20
29.4276490492
 10
5.8549849957
 20
29.4315669141
 10
5.8403649283
 20
29.4344276319
 10
5.8252373579
 20
29.4362192462
 10
5.8096655125
 20
29.4369342692
 10
5.7937144778
 20
29.4365697122
 10
5.7774509257
 20
29.4351270993
 10
5.7609428339
 20
29.4326124602
  0
LWPOLYLINE
  5
53E
100
AcDbEntity
  8
RACCORDO
100
AcDbPolyline
 62
250
  6
CONTINUOUS
 90
4
 70
0
 10
-26.449262107
 20
48.0835061178
 10
-26.4055570814
 20
48.0620031122
 10
-26.3596235368
 20
48.0381002565
 10
-26.3113000175
 20
48.0117797785
  0
LWPOLYLINE
  5
53F
100
AcDbEntity
  8
RACCORDO
100
AcDbPolyline
 62
250
  6
CONTINUOUS
 90
18
 70
0
 10
5.9438617307
 20
29.2839654822
 10
5.9322930837
 20
29.2902757983
 10
5.9208153194
 20
29.2968752639
 10
5.9094395286
 20
29.3037655142
 10
5.898187494
 20
29.3109420497
 10
5.8871063763
 20
29.3183276287
 10
5.8762626777
 20
29.3258935879
 10
5.8656264782
 20
29.3336621638
 10
5.8550974932
 20
29.3416437184
 10
5.8447973993
 20
29.349808948
 10
5.8346754163
 20
29.3582010837
 10
5.8243957402
 20
29.3669909502
 10
5.8141538939
 20
29.3762521537
 10
5.8039711109
 20
29.3859888983
 10
5.7933085849
 20
29.3963930941
 10
5.7821891748
 20
29.4076298545
 10
5.7712410642
 20
29.4196992704
 10
5.7609428272
 20
29.4326124622
  0
LINE
  5
540
100
AcDbEntity
  8
RACCORDO
100
AcDbLine
 62
250
  6
CONTINUOUS
 10
-26.3113000175
 20
48.0117797785
 11
-26.2605767137
 21
47.9830548938
  0
LWPOLYLINE
  5
541
100
AcDbEntity
  8
RACCORDO
100
AcDbPolyline
 62
250
  6
CONTINUOUS
 90
21
 70
0
 10
4.8848543025
 20
30.1224167901
 10
4.8786901556
 20
30.1259553124
 10
4.8731245053
 20
30.1291070981
 10
4.8681567381
 20
30.131871125
 10
4.8637773576
 20
30.1342478569
 10
4.8599933291
 20
30.1362326197
 10
4.8568284691
 20
30.1378162521
 10
4.8543235531
 20
30.1389714476
 10
4.852433972
 20
30.1397191787
 10
4.8510559106
 20
30.1401234569
 10
4.8501820157
 20
30.1401856385
 10
4.849815545
 20
30.1398976767
 10
4.8498691823
 20
30.1393104625
 10
4.8503297021
 20
30.1384281191
 10
4.8512060076
 20
30.1372395621
 10
4.8524442884
 20
30.135773413
 10
4.854034082
 20
30.1340314061
 10
4.8559811233
 20
30.1320043127
 10
4.8582559405
 20
30.1297044157
 10
4.8608505826
 20
30.1271311895
 10
4.8637676714
 20
30.1242768534
  0
LINE
  5
542
100
AcDbEntity
  8
DRAFT
100
AcDbLine
 62
7
  6
CONTINUOUS
 10
-29.5621524577
 20
49.224703013
 11
25.3093337624
 21
17.5425945707
  0
LINE
  5
543
100
AcDbEntity
  8
ASSI
100
AcDbLine
 62
7
  6
CONTINUOUS
 10
-28.7713711593
 20
48.9804477391
 11
25.8889701523
 21
17.4202517207
  0
LINE
  5
544
100
AcDbEntity
  8
RACCORDO
100
AcDbLine
 62
7
  6
CONTINUOUS
 10
-26.2443425983
 20
47.9670771452
 11
5.0678869525
 21
29.8878109703
  0
LINE
  5
545
100
AcDbEntity
  8
RACCORDO
100
AcDbLine
 62
7
  6
CONTINUOUS
 10
25.0859294021
 20
18.3296441449
 11
5.9459532124
 21
29.3808265166
  0
LINE
  5
546
100
AcDbEntity
  8
RACCORDO
100
AcDbLine
 62
250
  6
CONTINUOUS
 10
-26.2605767137
 20
47.9830548938
 11
5.0661391839
 21
29.8954017505
  0
LINE
  5
547
100
AcDbEntity
  8
RACCORDO
100
AcDbLine
 62
250
  6
CONTINUOUS
 10
5.8952012027
 20
29.4167117314
 11
25.0596802405
 21
18.3513817223
  0
LINE
  5
548
100
AcDbEntity
  8
RACCORDO
100
AcDbLine
 62
250
  6
CONTINUOUS
 10
4.9010638401
 20
30.1094254139
 11
5.2563594975
 21
29.9042814372
  0
LINE
  5
549
100
AcDbEntity
  8
RACCORDO
100
AcDbLine
 62
7
  6
CONTINUOUS
 10
26.3547461103
 20
17.7286719309
 11
-28.7738976615
 21
49.5592599205
  0
LINE
  5
54A
100
AcDbEntity
  8
RACCORDO
100
AcDbLine
 62
250
  6
CONTINUOUS
 10
26.9207846751
 20
17.9888923277
 11
-28.8347520129
 21
50.1814404304
  0
LWPOLYLINE
  5
54B
100
AcDbEntity
  8
RACCORDO
100
AcDbPolyline
 62
7
  6
CONTINUOUS
 90
20
 70
0
 10
25.0859466517
 20
18.3296341875
 10
25.116096405
 20
18.312026172
 10
25.1617157988
 20
18.2846548349
 10
25.2102472843
 20
18.2546350732
 10
25.261428427
 20
18.2220470884
 10
25.3147831904
 20
18.1870977031
 10
25.3700091925
 20
18.1498804099
 10
25.4268255291
 20
18.1104909061
 10
25.4847414424
 20
18.0691634928
 10
25.5434412151
 20
18.026006339
 10
25.6025507944
 20
17.981175353
 10
25.6615015067
 20
17.9349910517
 10
25.7199925383
 20
17.8875734997
 10
25.7777011932
 20
17.8390575124
 10
25.8340638838
 20
17.7898179039
 10
25.8888275645
 20
17.7399801292
 10
25.9417412529
 20
17.6896633139
 10
25.9922954429
 20
17.6392850988
 10
26.0403097688
 20
17.5889745437
 10
26.0790463264
 20
17.5461133771
  0
LINE
  5
54C
100
AcDbEntity
  8
RACCORDO
100
AcDbLine
 62
250
  6
CONTINUOUS
 10
5.2533772427
 20
29.9095633674
 11
5.2401499598
 21
29.9172734109
  0
LINE
  5
54D
100
AcDbEntity
  8
RACCORDO
100
AcDbLine
 62
250
  6
CONTINUOUS
 10
25.1077304412
 20
18.3232377379
 11
25.0596802405
 21
18.3513817223
  0
LWPOLYLINE
  5
54E
100
AcDbEntity
  8
RACCORDO
100
AcDbPolyline
 62
250
  6
CONTINUOUS
 90
7
 70
0
 10
5.9459247958
 20
29.3808429262
 10
5.9401676479
 20
29.3842229616
 10
5.9305422712
 20
29.3901437039
 10
5.921187675
 20
29.3963018888
 10
5.9121573592
 20
29.4027498111
 10
5.9034801836
 20
29.4095367491
 10
5.8952012027
 20
29.4167117314
  0
LWPOLYLINE
  5
54F
100
AcDbEntity
  8
RACCORDO
100
AcDbPolyline
 62
250
  6
CONTINUOUS
 90
10
 70
0
 10
5.2563587731
 20
29.9042814967
 10
5.257997877
 20
29.903312236
 10
5.2597258444
 20
29.902267667
 10
5.2615421401
 20
29.9011471614
 10
5.2634374193
 20
29.8999548639
 10
5.2654198664
 20
29.8986851849
 10
5.2675156361
 20
29.897323469
 10
5.2697338181
 20
29.8958648102
 10
5.2720650893
 20
29.8943140196
 10
5.274508353
 20
29.8926715706
  0
LINE
  5
550
100
AcDbEntity
  8
RACCORDO
100
AcDbLine
 62
250
  6
CONTINUOUS
 10
5.2688284846
 20
29.9004148428
 11
5.2533772427
 21
29.9095633674
  0
LWPOLYLINE
  5
551
100
AcDbEntity
  8
RACCORDO
100
AcDbPolyline
 62
7
  6
CONTINUOUS
 90
4
 70
0
 10
5.0678916046
 20
29.8878070374
 10
5.0740108913
 20
29.884163196
 10
5.0827038887
 20
29.8785879678
 10
5.085851886
 20
29.8763920768
  0
LINE
  5
552
100
AcDbEntity
  8
RACCORDO
100
AcDbLine
 62
250
  6
CONTINUOUS
 10
5.2862724773
 20
29.8899505752
 11
5.2688284846
 21
29.9004148428
  0
LINE
  5
553
100
AcDbEntity
  8
RACCORDO
100
AcDbLine
 62
250
  6
CONTINUOUS
 10
25.1576403789
 20
18.293054653
 11
25.1077304412
 21
18.3232377379
  0
LINE
  5
554
100
AcDbEntity
  8
RACCORDO
100
AcDbLine
 62
250
  6
CONTINUOUS
 10
5.3048730175
 20
29.8786510884
 11
5.2862724773
 21
29.8899505752
  0
LINE
  5
555
100
AcDbEntity
  8
RACCORDO
100
AcDbLine
 62
250
  6
CONTINUOUS
 10
5.3243652845
 20
29.8666640532
 11
5.3048730175
 21
29.8786510884
  0
LINE
  5
556
100
AcDbEntity
  8
RACCORDO
100
AcDbLine
 62
250
  6
CONTINUOUS
 10
5.3446070513
 20
29.8540540571
 11
5.3243652845
 21
29.8666640532
  0
LINE
  5
557
100
AcDbEntity
  8
RACCORDO
100
AcDbLine
 62
250
  6
CONTINUOUS
 10
5.3655114391
 20
29.8408556743
 11
5.3446070513
 21
29.8540540571
  0
LINE
  5
558
100
AcDbEntity
  8
RACCORDO
100
AcDbLine
 62
250
  6
CONTINUOUS
 10
5.3870865139
 20
29.8270387144
 11
5.3655114391
 21
29.8408556743
  0
LINE
  5
559
100
AcDbEntity
  8
RACCORDO
100
AcDbLine
 62
250
  6
CONTINUOUS
 10
5.4093314361
 20
29.8125739555
 11
5.3870865139
 21
29.8270387144
  0
LINE
  5
55A
100
AcDbEntity
  8
RACCORDO
100
AcDbLine
 62
250
  6
CONTINUOUS
 10
5.4322667182
 20
29.7974172934
 11
5.4093314361
 21
29.8125739555
  0
LINE
  5
55B
100
AcDbEntity
  8
RACCORDO
100
AcDbLine
 62
250
  6
CONTINUOUS
 10
5.0661391024
 20
29.8954018271
 11
5.0779656039
 21
29.8874379203
  0
LWPOLYLINE
  5
55C
100
AcDbEntity
  8
RACCORDO
100
AcDbPolyline
 62
250
  6
CONTINUOUS
 90
3
 70
0
 10
25.0859294021
 20
18.3296441449
 10
25.0732981174
 20
18.3382843273
 10
25.0596802405
 20
18.3513817223
  0
LINE
  5
55D
100
AcDbEntity
  8
RACCORDO
100
AcDbLine
 62
250
  6
CONTINUOUS
 10
5.274508353
 20
29.8926715706
 11
5.2797238578
 21
29.8891153879
  0
LINE
  5
55E
100
AcDbEntity
  8
RACCORDO
100
AcDbLine
 62
250
  6
CONTINUOUS
 10
5.2797238578
 20
29.8891153879
 11
5.2854122846
 21
29.8851701082
  0
LINE
  5
55F
100
AcDbEntity
  8
RACCORDO
100
AcDbLine
 62
250
  6
CONTINUOUS
 10
5.2854122846
 20
29.8851701082
 11
5.291580669
 21
29.8808271711
  0
LINE
  5
560
100
AcDbEntity
  8
RACCORDO
100
AcDbLine
 62
250
  6
CONTINUOUS
 10
5.291580669
 20
29.8808271711
 11
5.2982331312
 21
29.8760776916
  0
LINE
  5
561
100
AcDbEntity
  8
RACCORDO
100
AcDbLine
 62
250
  6
CONTINUOUS
 10
5.2982331312
 20
29.8760776916
 11
5.3053269757
 21
29.8709472765
  0
LINE
  5
562
100
AcDbEntity
  8
RACCORDO
100
AcDbLine
 62
250
  6
CONTINUOUS
 10
5.3053269757
 20
29.8709472765
 11
5.3128371716
 21
29.8654484194
  0
LINE
  5
563
100
AcDbEntity
  8
RACCORDO
100
AcDbLine
 62
250
  6
CONTINUOUS
 10
5.3128371716
 20
29.8654484194
 11
5.3207202625
 21
29.8596077414
  0
LINE
  5
564
100
AcDbEntity
  8
RACCORDO
100
AcDbLine
 62
250
  6
CONTINUOUS
 10
5.3207202625
 20
29.8596077414
 11
5.3289741581
 21
29.8534218704
  0
LINE
  5
565
100
AcDbEntity
  8
RACCORDO
100
AcDbLine
 62
250
  6
CONTINUOUS
 10
5.3289741581
 20
29.8534218704
 11
5.3376024424
 21
29.8468813425
  0
LINE
  5
566
100
AcDbEntity
  8
RACCORDO
100
AcDbLine
 62
250
  6
CONTINUOUS
 10
5.3376024424
 20
29.8468813425
 11
5.3466255473
 21
29.8399643406
  0
LINE
  5
567
100
AcDbEntity
  8
RACCORDO
100
AcDbLine
 62
250
  6
CONTINUOUS
 10
5.3466255473
 20
29.8399643406
 11
5.3560802666
 21
29.8326334107
  0
LINE
  5
568
100
AcDbEntity
  8
RACCORDO
100
AcDbLine
 62
250
  6
CONTINUOUS
 10
5.3560802666
 20
29.8326334107
 11
5.365989891
 21
29.8248607479
  0
LWPOLYLINE
  5
569
100
AcDbEntity
  8
RACCORDO
100
AcDbPolyline
 62
250
  6
CONTINUOUS
 90
18
 70
0
 10
26.0893546135
 20
17.5529391567
 10
26.0810853426
 20
17.5620867338
 10
26.0270611846
 20
17.6184672919
 10
25.9705285942
 20
17.6744371705
 10
25.9126118136
 20
17.7291129522
 10
25.8534000111
 20
17.7825393526
 10
25.7929631209
 20
17.8348504364
 10
25.7324247496
 20
17.8853346512
 10
25.6721151578
 20
17.9338699107
 10
25.6118518504
 20
17.9807569589
 10
25.5519903907
 20
18.0259226067
 10
25.4925028416
 20
18.0694993495
 10
25.4335209533
 20
18.111486294
 10
25.3756306739
 20
18.1516000134
 10
25.3188405133
 20
18.1898928531
 10
25.2632119919
 20
18.2264044278
 10
25.209402002
 20
18.2608216154
 10
25.1576403789
 20
18.293054653
  0
LINE
  5
56A
100
AcDbEntity
  8
RACCORDO
100
AcDbLine
 62
250
  6
CONTINUOUS
 10
38.3198883271
 20
-54.5102273155
 11
38.3762329431
 21
-55.2801731258
  0
LINE
  5
56B
100
AcDbEntity
  8
RACCORDO
100
AcDbLine
 62
250
  6
CONTINUOUS
 10
37.7299401861
 20
-54.5845292293
 11
37.7842813597
 21
-55.3551415357
  0
LINE
  5
56C
100
AcDbEntity
  8
RACCORDO
100
AcDbLine
 62
250
  6
CONTINUOUS
 10
38.2687617624
 20
-53.7791716242
 11
38.3198883271
 21
-54.5102273155
  0
LINE
  5
56D
100
AcDbEntity
  8
RACCORDO
100
AcDbLine
 62
250
  6
CONTINUOUS
 10
37.6808109388
 20
-53.8527129146
 11
37.7299401861
 21
-54.5845292293
  0
LINE
  5
56E
100
AcDbEntity
  8
RACCORDO
100
AcDbLine
 62
250
  6
CONTINUOUS
 10
38.2226693701
 20
-53.0861139292
 11
38.2687617624
 21
-53.7791716242
  0
LINE
  5
56F
100
AcDbEntity
  8
RACCORDO
100
AcDbLine
 62
250
  6
CONTINUOUS
 10
37.6364978856
 20
-53.1589530994
 11
37.6808109388
 21
-53.8527129146
  0
LINE
  5
570
100
AcDbEntity
  8
RACCORDO
100
AcDbLine
 62
250
  6
CONTINUOUS
 10
38.1810108917
 20
-52.4285565864
 11
38.2226693701
 21
-53.0861139292
  0
LINE
  5
571
100
AcDbEntity
  8
RACCORDO
100
AcDbLine
 62
250
  6
CONTINUOUS
 10
37.5777373681
 20
-52.1830213912
 11
37.6364978856
 21
-53.1589530994
  0
LINE
  5
572
100
AcDbEntity
  8
RACCORDO
100
AcDbLine
 62
250
  6
CONTINUOUS
 10
38.1256171539
 20
-51.4989851778
 11
38.1810108917
 21
-52.4285565864
  0
LINE
  5
573
100
AcDbEntity
  8
RACCORDO
100
AcDbLine
 62
250
  6
CONTINUOUS
 10
37.5264665387
 20
-51.2713304185
 11
37.5777373681
 21
-52.1830213912
  0
LINE
  5
574
100
AcDbEntity
  8
RACCORDO
100
AcDbLine
 62
250
  6
CONTINUOUS
 10
38.0769294079
 20
-50.6180722805
 11
38.1256171539
 21
-51.4989851778
  0
LINE
  5
575
100
AcDbEntity
  8
RACCORDO
100
AcDbLine
 62
250
  6
CONTINUOUS
 10
37.480612298
 20
-50.3995848928
 11
37.5264665387
 21
-51.2713304185
  0
LINE
  5
576
100
AcDbEntity
  8
RACCORDO
100
AcDbLine
 62
250
  6
CONTINUOUS
 10
38.0329168014
 20
-49.7589353813
 11
38.0769294079
 21
-50.6180722805
  0
LINE
  5
577
100
AcDbEntity
  8
RACCORDO
100
AcDbLine
 62
250
  6
CONTINUOUS
 10
37.4384867974
 20
-49.5412168342
 11
37.480612298
 21
-50.3995848928
  0
LINE
  5
578
100
AcDbEntity
  8
RACCORDO
100
AcDbLine
 62
250
  6
CONTINUOUS
 10
37.9921815455
 20
-48.8995692306
 11
38.0329168014
 21
-49.7589353813
  0
LWPOLYLINE
  5
579
100
AcDbEntity
  8
RACCORDO
100
AcDbPolyline
 62
250
  6
CONTINUOUS
 90
37
 70
0
 10
37.7842813597
 20
-55.3551415357
 10
37.7927787785
 20
-55.5421665004
 10
37.792377566
 20
-55.723759086
 10
37.7831009551
 20
-55.8998999797
 10
37.76492565
 20
-56.0702902987
 10
37.73793141
 20
-56.2351819896
 10
37.7023038752
 20
-56.395375479
 10
37.6580680177
 20
-56.551415566
 10
37.6052841074
 20
-56.7026865926
 10
37.5441930377
 20
-56.8482463833
 10
37.4747821553
 20
-56.9880266367
 10
37.3971536991
 20
-57.1220211844
 10
37.3117129256
 20
-57.24938768
 10
37.2184599282
 20
-57.3700488963
 10
37.117481471
 20
-57.4840098583
 10
37.0093008654
 20
-57.5905615331
 10
36.8939423544
 20
-57.6896277386
 10
36.7714596553
 20
-57.7812198508
 10
36.6424059181
 20
-57.8647721211
 10
36.50682672
 20
-57.9402306747
 10
36.3647436258
 20
-58.0075935733
 10
36.2166595376
 20
-58.0663848019
 10
36.0625932295
 20
-58.1165864987
 10
35.9025830193
 20
-58.1581690666
 10
35.7371455225
 20
-58.1906518575
 10
35.5662005496
 20
-58.2140159628
 10
35.3898704133
 20
-58.2282452752
 10
35.2089539658
 20
-58.2328812344
 10
35.0233192546
 20
-58.2278553119
 10
34.8331128769
 20
-58.2132238625
 10
34.6395204005
 20
-58.1887415114
 10
34.4424020413
 20
-58.1543019581
 10
34.2418684795
 20
-58.1100356961
 10
34.0394421235
 20
-58.0560848408
 10
33.8355977336
 20
-57.9925239539
 10
33.6297836741
 20
-57.9193423777
 10
33.4219631151
 20
-57.8365707278
  0
LINE
  5
57A
100
AcDbEntity
  8
RACCORDO
100
AcDbLine
 62
250
  6
CONTINUOUS
 10
37.39913959
 20
-48.6775654421
 11
37.4384867974
 21
-49.5412168342
  0
LWPOLYLINE
  5
57B
100
AcDbEntity
  8
RACCORDO
100
AcDbPolyline
 62
250
  6
CONTINUOUS
 90
20
 70
0
 10
38.3762329431
 20
-55.2801731258
 10
38.3849638907
 20
-55.484448548
 10
38.3838690537
 20
-55.6831362809
 10
38.3731555059
 20
-55.8759717563
 10
38.3530776134
 20
-56.0621526482
 10
38.3238745791
 20
-56.2420699763
 10
38.2855360629
 20
-56.4171132942
 10
38.2379564517
 20
-56.587469738
 10
38.1812891056
 20
-56.7522123103
 10
38.1157288477
 20
-56.9109031665
 10
38.0413530756
 20
-57.0632259149
 10
37.9582750171
 20
-57.2088681933
 10
37.8667742599
 20
-57.3474262224
 10
37.7669863708
 20
-57.4786138402
 10
37.6590569734
 20
-57.6021742795
 10
37.5433043863
 20
-57.7177724995
 10
37.419924476
 20
-57.8251513967
 10
37.2890800884
 20
-57.9241118966
 10
37.151047794
 20
-58.0144107123
 10
37.0404398728
 20
-58.0776646529
  0
LINE
  5
57C
100
AcDbEntity
  8
RACCORDO
100
AcDbLine
 62
250
  6
CONTINUOUS
 10
37.9541499979
 20
-48.0294564346
 11
37.9921815455
 21
-48.8995692306
  0
LINE
  5
57D
100
AcDbEntity
  8
RACCORDO
100
AcDbLine
 62
250
  6
CONTINUOUS
 10
37.362373718
 20
-47.8021060441
 11
37.39913959
 21
-48.6775654421
  0
LINE
  5
57E
100
AcDbEntity
  8
RACCORDO
100
AcDbLine
 62
250
  6
CONTINUOUS
 10
37.9188055103
 20
-47.1486201709
 11
37.9541499979
 21
-48.0294564346
  0
LINE
  5
57F
100
AcDbEntity
  8
RACCORDO
100
AcDbLine
 62
250
  6
CONTINUOUS
 10
37.3284142289
 20
-46.917292979
 11
37.362373718
 21
-47.8021060441
  0
LINE
  5
580
100
AcDbEntity
  8
RACCORDO
100
AcDbLine
 62
250
  6
CONTINUOUS
 10
37.8862977739
 20
-46.2616530536
 11
37.9188055103
 21
-47.1486201709
  0
LINE
  5
581
100
AcDbEntity
  8
RACCORDO
100
AcDbLine
 62
250
  6
CONTINUOUS
 10
37.2974927244
 20
-46.0279824571
 11
37.3284142289
 21
-46.917292979
  0
LINE
  5
582
100
AcDbEntity
  8
RACCORDO
100
AcDbLine
 62
250
  6
CONTINUOUS
 10
37.8567038056
 20
-45.3722659177
 11
37.8862977739
 21
-46.2616530536
  0
LINE
  5
583
100
AcDbEntity
  8
RACCORDO
100
AcDbLine
 62
250
  6
CONTINUOUS
 10
37.2696537527
 20
-45.13702862
 11
37.2974927244
 21
-46.0279824571
  0
LINE
  5
584
100
AcDbEntity
  8
RACCORDO
100
AcDbLine
 62
250
  6
CONTINUOUS
 10
37.8300281027
 20
-44.4816730777
 11
37.8567038056
 21
-45.3722659177
  0
LINE
  5
585
100
AcDbEntity
  8
RACCORDO
100
AcDbLine
 62
250
  6
CONTINUOUS
 10
37.2370522036
 20
-43.9471723095
 11
37.2696537527
 21
-45.13702862
  0
LINE
  5
586
100
AcDbEntity
  8
RACCORDO
100
AcDbLine
 62
250
  6
CONTINUOUS
 10
37.8062661981
 20
-43.5896918481
 11
37.8300281027
 21
-44.4816730777
  0
LINE
  5
587
100
AcDbEntity
  8
RACCORDO
100
AcDbLine
 62
250
  6
CONTINUOUS
 10
37.2023955811
 20
-42.4554592357
 11
37.2370522036
 21
-43.9471723095
  0
LINE
  5
588
100
AcDbEntity
  8
RACCORDO
100
AcDbLine
 62
250
  6
CONTINUOUS
 10
37.7790860805
 20
-42.3976806196
 11
37.8062661981
 21
-43.5896918481
  0
LINE
  5
589
100
AcDbEntity
  8
RACCORDO
100
AcDbLine
 62
250
  6
CONTINUOUS
 10
37.1617625235
 20
-40.3599177648
 11
37.2023955811
 21
-42.4554592357
  0
LINE
  5
58A
100
AcDbEntity
  8
RACCORDO
100
AcDbLine
 62
250
  6
CONTINUOUS
 10
37.745791951
 20
-40.6041522358
 11
37.7790860805
 21
-42.3976806196
  0
LINE
  5
58B
100
AcDbEntity
  8
RACCORDO
100
AcDbLine
 62
250
  6
CONTINUOUS
 10
37.1182797889
 20
-37.6559863679
 11
37.1617625235
 21
-40.3599177648
  0
LINE
  5
58C
100
AcDbEntity
  8
RACCORDO
100
AcDbLine
 62
250
  6
CONTINUOUS
 10
37.6957045136
 20
-37.3019521226
 11
37.745791951
 21
-40.6041522358
  0
LINE
  5
58D
100
AcDbEntity
  8
RACCORDO
100
AcDbLine
 62
250
  6
CONTINUOUS
 10
37.0830381909
 20
-34.9096987162
 11
37.1182797889
 21
-37.6559863679
  0
LINE
  5
58E
100
AcDbEntity
  8
RACCORDO
100
AcDbLine
 62
250
  6
CONTINUOUS
 10
37.0638736615
 20
-32.9151006393
 11
37.0830381909
 21
-34.9096987162
  0
LINE
  5
58F
100
AcDbEntity
  8
RACCORDO
100
AcDbLine
 62
250
  6
CONTINUOUS
 10
37.0513939322
 20
-31.0388459365
 11
37.0638736615
 21
-32.9151006393
  0
LINE
  5
590
100
AcDbEntity
  8
RACCORDO
100
AcDbLine
 62
250
  6
CONTINUOUS
 10
37.0447592746
 20
-29.3667787648
 11
37.0513939322
 21
-31.0388459365
  0
LINE
  5
591
100
AcDbEntity
  8
RACCORDO
100
AcDbLine
 62
250
  6
CONTINUOUS
 10
37.041358568
 20
-27.0389171265
 11
37.0447592746
 21
-29.3667787648
  0
LINE
  5
592
100
AcDbEntity
  8
RACCORDO
100
AcDbLine
 62
250
  6
CONTINUOUS
 10
37.0441837514
 20
-24.9169765346
 11
37.0413583895
 21
-27.0389173159
  0
LWPOLYLINE
  5
593
100
AcDbEntity
  8
RACCORDO
100
AcDbPolyline
 62
250
  6
CONTINUOUS
 90
3
 70
0
 10
37.0539091866
 20
-22.5769225552
 10
37.0514367894
 20
-23.0225499803
 10
37.0441837514
 20
-24.9169765346
  0
LWPOLYLINE
  5
594
100
AcDbEntity
  8
RACCORDO
100
AcDbPolyline
 62
250
  6
CONTINUOUS
 90
16
 70
0
 10
28.6422901061
 20
-23.8138348687
 10
28.608027137
 20
-23.8312684318
 10
28.5711528265
 20
-23.8468242632
 10
28.5319747498
 20
-23.8603726152
 10
28.4908196982
 20
-23.8718004868
 10
28.4480309534
 20
-23.8810125571
 10
28.4039654239
 20
-23.8879319803
 10
28.3589906682
 20
-23.892501039
 10
28.3134818287
 20
-23.8946816262
 10
28.267818503
 20
-23.8944555531
 10
28.2223815769
 20
-23.8918247012
 10
28.1775500481
 20
-23.8868110159
 10
28.1336978644
 20
-23.8794563236
 10
28.0911908049
 20
-23.86982197
 10
28.0503834285
 20
-23.8579883085
 10
28.0116161169
 20
-23.8440540397
  0
LINE
  5
595
100
AcDbEntity
  8
RACCORDO
100
AcDbLine
 62
7
  6
CONTINUOUS
 10
-33.3726559606
 20
60.5015944051
 11
44.5658990135
 21
15.5008495626
  0
LINE
  5
596
100
AcDbEntity
  8
RACCORDO
100
AcDbLine
 62
250
  6
CONTINUOUS
 10
37.6616515893
 20
-34.5403243951
 11
37.6957045136
 21
-37.3019521226
  0
LINE
  5
597
100
AcDbEntity
  8
RACCORDO
100
AcDbLine
 62
250
  6
CONTINUOUS
 10
37.6432549609
 20
-32.5078451557
 11
37.6616515893
 21
-34.5403243951
  0
LINE
  5
598
100
AcDbEntity
  8
RACCORDO
100
AcDbLine
 62
250
  6
CONTINUOUS
 10
37.6342586934
 20
-30.9898610671
 11
37.6432549609
 21
-32.5078451557
  0
LINE
  5
599
100
AcDbEntity
  8
RACCORDO
100
AcDbLine
 62
250
  6
CONTINUOUS
 10
37.6290542799
 20
-29.3194128135
 11
37.6342586934
 21
-30.9898610671
  0
LINE
  5
59A
100
AcDbEntity
  8
RACCORDO
100
AcDbLine
 62
250
  6
CONTINUOUS
 10
37.6272387877
 20
-26.4395913816
 11
37.6290542799
 21
-29.3194128135
  0
LINE
  5
59B
100
AcDbEntity
  8
RACCORDO
100
AcDbLine
 62
250
  6
CONTINUOUS
 10
37.6308608966
 20
-23.8994429142
 11
37.6272387877
 21
-26.4395913816
  0
LINE
  5
59C
100
AcDbEntity
  8
RACCORDO
100
AcDbLine
 62
250
  6
CONTINUOUS
 10
37.6365045455
 20
-22.5322197728
 11
37.6308608966
 21
-23.8994429142
  0
LINE
  5
59D
100
AcDbEntity
  8
RACCORDO
100
AcDbLine
 62
250
  6
CONTINUOUS
 10
37.6481454048
 20
-20.8321619339
 11
37.6365045455
 21
-22.5322197728
  0
LINE
  5
59E
100
AcDbEntity
  8
RACCORDO
100
AcDbLine
 62
250
  6
CONTINUOUS
 10
37.0660835631
 20
-20.8756853239
 11
37.0539091866
 21
-22.5769225552
  0
LINE
  5
59F
100
AcDbEntity
  8
RACCORDO
100
AcDbLine
 62
250
  6
CONTINUOUS
 10
37.6640652441
 20
-19.181474181
 11
37.6481454048
 21
-20.8321619339
  0
LINE
  5
5A0
100
AcDbEntity
  8
RACCORDO
100
AcDbLine
 62
250
  6
CONTINUOUS
 10
37.0865569387
 20
-18.8112763288
 11
37.0660835631
 21
-20.8756853239
  0
LINE
  5
5A1
100
AcDbEntity
  8
RACCORDO
100
AcDbLine
 62
250
  6
CONTINUOUS
 10
37.6941840575
 20
-16.7197956471
 11
37.6640652441
 21
-19.181474181
  0
LINE
  5
5A2
100
AcDbEntity
  8
RACCORDO
100
AcDbLine
 62
250
  6
CONTINUOUS
 10
37.117976753
 20
-16.3639453391
 11
37.0865569387
 21
-18.8112763288
  0
LINE
  5
5A3
100
AcDbEntity
  8
RACCORDO
100
AcDbLine
 62
250
  6
CONTINUOUS
 10
37.7469794457
 20
-13.1773226699
 11
37.6941840575
 21
-16.7197956471
  0
LINE
  5
5A4
100
AcDbEntity
  8
RACCORDO
100
AcDbLine
 62
250
  6
CONTINUOUS
 10
37.1629301894
 20
-13.5278652012
 11
37.117976753
 21
-16.3639453391
  0
LINE
  5
5A5
100
AcDbEntity
  8
RACCORDO
100
AcDbLine
 62
250
  6
CONTINUOUS
 10
37.7785285262
 20
-11.445545481
 11
37.7469794457
 21
-13.1773226699
  0
LINE
  5
5A6
100
AcDbEntity
  8
RACCORDO
100
AcDbLine
 62
250
  6
CONTINUOUS
 10
37.2076977273
 20
-11.2065972212
 11
37.1629301894
 21
-13.5278652012
  0
LINE
  5
5A7
100
AcDbEntity
  8
RACCORDO
100
AcDbLine
 62
250
  6
CONTINUOUS
 10
37.8028564367
 20
-10.3373380868
 11
37.7785285262
 21
-11.445545481
  0
LINE
  5
5A8
100
AcDbEntity
  8
RACCORDO
100
AcDbLine
 62
250
  6
CONTINUOUS
 10
37.2396655163
 20
-9.8219166804
 11
37.2076977273
 21
-11.2065972212
  0
LINE
  5
5A9
100
AcDbEntity
  8
RACCORDO
100
AcDbLine
 62
250
  6
CONTINUOUS
 10
37.8312939732
 20
-9.2311923779
 11
37.8028564367
 21
-10.3373380868
  0
LINE
  5
5AA
100
AcDbEntity
  8
RACCORDO
100
AcDbLine
 62
250
  6
CONTINUOUS
 10
37.2692797756
 20
-8.7122573398
 11
37.2396655163
 21
-9.8219166804
  0
LINE
  5
5AB
100
AcDbEntity
  8
RACCORDO
100
AcDbLine
 62
250
  6
CONTINUOUS
 10
37.8639591142
 20
-8.1222800873
 11
37.8312939732
 21
-9.2311923779
  0
LINE
  5
5AC
100
AcDbEntity
  8
RACCORDO
100
AcDbLine
 62
250
  6
CONTINUOUS
 10
37.3031265226
 20
-7.6001250437
 11
37.2692797756
 21
-8.7122573398
  0
LINE
  5
5AD
100
AcDbEntity
  8
RACCORDO
100
AcDbLine
 62
250
  6
CONTINUOUS
 10
37.900845242
 20
-7.0110095877
 11
37.8639591142
 21
-8.1222800873
  0
LINE
  5
5AE
100
AcDbEntity
  8
RACCORDO
100
AcDbLine
 62
250
  6
CONTINUOUS
 10
37.3414700554
 20
-6.4855765586
 11
37.3031265226
 21
-7.6001250437
  0
LINE
  5
5AF
100
AcDbEntity
  8
RACCORDO
100
AcDbLine
 62
250
  6
CONTINUOUS
 10
37.942055742
 20
-5.8971995969
 11
37.900845242
 21
-7.0110095877
  0
LINE
  5
5B0
100
AcDbEntity
  8
RACCORDO
100
AcDbLine
 62
250
  6
CONTINUOUS
 10
37.3844205722
 20
-5.368164709
 11
37.3414700554
 21
-6.4855765586
  0
LINE
  5
5B1
100
AcDbEntity
  8
RACCORDO
100
AcDbLine
 62
250
  6
CONTINUOUS
 10
37.9878354307
 20
-4.7792065295
 11
37.942055742
 21
-5.8971995969
  0
LINE
  5
5B2
100
AcDbEntity
  8
RACCORDO
100
AcDbLine
 62
250
  6
CONTINUOUS
 10
37.4321525654
 20
-4.2433384214
 11
37.3844205722
 21
-5.368164709
  0
LINE
  5
5B3
100
AcDbEntity
  8
RACCORDO
100
AcDbLine
 62
250
  6
CONTINUOUS
 10
38.0388920418
 20
-3.6465114185
 11
37.9878354307
 21
-4.7792065295
  0
LINE
  5
5B4
100
AcDbEntity
  8
RACCORDO
100
AcDbLine
 62
250
  6
CONTINUOUS
 10
37.4856002684
 20
-3.0913204218
 11
37.4321525654
 21
-4.2433384214
  0
LINE
  5
5B5
100
AcDbEntity
  8
RACCORDO
100
AcDbLine
 62
250
  6
CONTINUOUS
 10
38.0816912233
 20
-2.7710631533
 11
38.0388920418
 21
-3.6465114185
  0
LINE
  5
5B6
100
AcDbEntity
  8
RACCORDO
100
AcDbLine
 62
250
  6
CONTINUOUS
 10
37.5468314358
 20
-1.8766238066
 11
37.4856002684
 21
-3.0913204218
  0
LINE
  5
5B7
100
AcDbEntity
  8
RACCORDO
100
AcDbLine
 62
250
  6
CONTINUOUS
 10
38.1296965549
 20
-1.8548379052
 11
38.0816912233
 21
-2.7710631533
  0
LINE
  5
5B8
100
AcDbEntity
  8
RACCORDO
100
AcDbLine
 62
250
  6
CONTINUOUS
 10
37.5997177066
 20
-0.8989934013
 11
37.5468314358
 21
-1.8766238066
  0
LINE
  5
5B9
100
AcDbEntity
  8
RACCORDO
100
AcDbLine
 62
250
  6
CONTINUOUS
 10
38.1844403824
 20
-0.8797106936
 11
38.1296965549
 21
-1.8548379052
  0
LINE
  5
5BA
100
AcDbEntity
  8
RACCORDO
100
AcDbLine
 62
250
  6
CONTINUOUS
 10
37.660436537
 20
0.1548664611
 11
37.5997177066
 21
-0.8989934013
  0
LINE
  5
5BB
100
AcDbEntity
  8
RACCORDO
100
AcDbLine
 62
250
  6
CONTINUOUS
 10
38.2254736454
 20
-0.1886349333
 11
38.1844403824
 21
-0.8797106936
  0
LINE
  5
5BC
100
AcDbEntity
  8
RACCORDO
100
AcDbLine
 62
250
  6
CONTINUOUS
 10
37.7061987971
 20
0.9069734403
 11
37.660436537
 21
0.1548664611
  0
LINE
  5
5BD
100
AcDbEntity
  8
RACCORDO
100
AcDbLine
 62
250
  6
CONTINUOUS
 10
38.2707476751
 20
0.5408956804
 11
38.2254736454
 21
-0.1886349333
  0
LINE
  5
5BE
100
AcDbEntity
  8
RACCORDO
100
AcDbLine
 62
250
  6
CONTINUOUS
 10
38.3209341682
 20
1.3134348546
 11
38.2707476751
 21
0.5408956804
  0
LWPOLYLINE
  5
5BF
100
AcDbEntity
  8
RACCORDO
100
AcDbPolyline
 62
250
  6
CONTINUOUS
 90
3
 70
0
 10
37.7842813597
 20
2.1191699201
 10
37.756963436
 20
1.704055457
 10
37.7061987971
 20
0.9069734403
  0
LINE
  5
5C0
100
AcDbEntity
  8
RACCORDO
100
AcDbLine
 62
250
  6
CONTINUOUS
 10
38.3762329431
 20
2.1304094395
 11
38.3209341682
 21
1.3134348546
  0
LINE
  5
5C1
100
AcDbEntity
  8
RACCORDO
100
AcDbLine
 62
7
  6
CONTINUOUS
 10
16.4392332282
 20
-38.6094207064
 11
16.4179243747
 21
-38.6245021016
  0
LINE
  5
5C2
100
AcDbEntity
  8
RACCORDO
100
AcDbLine
 62
7
  6
CONTINUOUS
 10
16.4188479292
 20
-38.6238902778
 11
16.4179337386
 21
-38.6245005099
  0
LWPOLYLINE
  5
5C3
100
AcDbEntity
  8
RACCORDO
100
AcDbPolyline
 62
250
  6
CONTINUOUS
 90
8
 70
0
 10
16.4179337386
 20
-38.6245005099
 10
16.3983074139
 20
-38.637014973
 10
16.3468277926
 20
-38.6649800465
 10
16.2929774457
 20
-38.6877045952
 10
16.2370101909
 20
-38.7052997377
 10
16.1795588061
 20
-38.717845196
 10
16.1209860648
 20
-38.7255743532
 10
16.061527244
 20
-38.728742903
  0
LWPOLYLINE
  5
5C4
100
AcDbEntity
  8
RACCORDO
100
AcDbPolyline
 62
250
  6
CONTINUOUS
 90
15
 70
0
 10
16.0062300383
 20
-38.7575564492
 10
16.0455612617
 20
-38.7340822797
 10
16.0979845658
 20
-38.6963324032
 10
16.1468940031
 20
-38.6531491647
 10
16.1921240818
 20
-38.6046786816
 10
16.2335217602
 20
-38.5510849598
 10
16.2709469627
 20
-38.4925493406
 10
16.3042730522
 20
-38.4292698914
 10
16.3333872616
 20
-38.3614607338
 10
16.3581910776
 20
-38.2893513138
 10
16.3786005729
 20
-38.2131856264
 10
16.3945466881
 20
-38.1332213935
 10
16.4059754673
 20
-38.0497291898
 10
16.4128482396
 20
-37.9629915263
 10
16.4151417505
 20
-37.8733018962
  0
LINE
  5
5C5
100
AcDbEntity
  8
RACCORDO
100
AcDbLine
 62
250
  6
CONTINUOUS
 10
16.4151417505
 20
-37.8733018962
 11
16.6781389515
 21
-37.7266608122
  0
LINE
  5
5C6
100
AcDbEntity
  8
DRAFT
100
AcDbLine
 62
7
  6
CONTINUOUS
 10
16.5799136795
 20
-38.4424730814
 11
16.0062300383
 21
-38.7575564492
  0
LWPOLYLINE
  5
5C7
100
AcDbEntity
  8
RACCORDO
100
AcDbPolyline
 62
250
  6
CONTINUOUS
 90
16
 70
0
 10
37.6271668972
 20
-26.9928334726
 10
37.5956327815
 20
-27.0090016393
 10
37.5618535456
 20
-27.0235780587
 10
37.5260693403
 20
-27.0364591191
 10
37.4885345707
 20
-27.0475532687
 10
37.4495160874
 20
-27.0567816376
 10
37.4092912893
 20
-27.0640785986
 10
37.3681461516
 20
-27.0693922716
 10
37.3263731923
 20
-27.0726848921
 10
37.284269393
 20
-27.0739330516
 10
37.2421340874
 20
-27.0731278638
 10
37.2002668331
 20
-27.0702750563
 10
37.158965282
 20
-27.0653949296
 10
37.1185230641
 20
-27.0585221757
 10
37.0792277
 20
-27.0497056311
 10
37.0413585571
 20
-27.0390079579
  0
LWPOLYLINE
  5
5C8
100
AcDbEntity
  8
RACCORDO
100
AcDbPolyline
 62
7
  6
CONTINUOUS
 90
3
 70
0
 10
16.4670026684
 20
-38.5860094174
 10
16.4564596329
 20
-38.5914065925
 10
16.3956910989
 20
-38.6167290095
  0
LWPOLYLINE
  5
5C9
100
AcDbEntity
  8
RACCORDO
100
AcDbPolyline
 62
7
  6
CONTINUOUS
 90
5
 70
0
 10
16.3956910989
 20
-38.6167290095
 10
16.3316282174
 20
-38.6357845357
 10
16.2647014788
 20
-38.6483884652
 10
16.1958647645
 20
-38.6543614889
 10
16.1941440303
 20
-38.6543487417
  0
LWPOLYLINE
  5
5CA
100
AcDbEntity
  8
RACCORDO
100
AcDbPolyline
 62
7
  6
CONTINUOUS
 90
11
 70
0
 10
-42.3495032524
 20
42.7443299347
 10
-42.3748835502
 20
42.7421749775
 10
-42.397607045
 20
42.7386311831
 10
-42.4176735965
 20
42.7336987316
 10
-42.4351661058
 20
42.727300874
 10
-42.450001143
 20
42.719515039
 10
-42.4619290095
 20
42.7105727528
 10
-42.470854875
 20
42.7004900874
 10
-42.4768727582
 20
42.6892520187
 10
-42.4800162784
 20
42.6770433736
 10
-42.4803023257
 20
42.6744849349
  0
LINE
  5
5CB
100
AcDbEntity
  8
RACCORDO
100
AcDbLine
 62
7
  6
CONTINUOUS
 10
-42.3496823838
 20
42.744320708
 11
-41.8589282822
 21
42.7696056476
  0
LWPOLYLINE
  5
5CC
100
AcDbEntity
  8
RACCORDO
100
AcDbPolyline
 62
7
  6
CONTINUOUS
 90
16
 70
0
 10
-26.5106801619
 20
48.0923567517
 10
-26.5133402345
 20
48.0926198481
 10
-26.5125193702
 20
48.092471717
 10
-26.5082745519
 20
48.0915479043
 10
-26.5010294531
 20
48.0896468085
 10
-26.4907183072
 20
48.0865189209
 10
-26.4773095401
 20
48.0819444138
 10
-26.4612812441
 20
48.0759251677
 10
-26.4426557851
 20
48.0683522254
 10
-26.4213610967
 20
48.0590876534
 10
-26.3976824296
 20
48.0481678526
 10
-26.3716372276
 20
48.0355367377
 10
-26.3431666753
 20
48.0211095975
 10
-26.3124207376
 20
48.0049031966
 10
-26.2794736817
 20
47.9869031609
 10
-26.2443425983
 20
47.9670771452
  0
LINE
  5
5CD
100
AcDbEntity
  8
RACCORDO
100
AcDbLine
 62
7
  6
CONTINUOUS
 10
48.8078935259
 20
8.1534995493
 11
48.8078935259
 21
-49.6703636462
  0
LWPOLYLINE
  5
5CE
100
AcDbEntity
  8
RACCORDO
100
AcDbPolyline
 62
250
  6
CONTINUOUS
 90
17
 70
0
 10
-42.7457207613
 20
43.3886960791
 10
-42.7704855216
 20
43.3827548456
 10
-42.7965292429
 20
43.3781607099
 10
-42.8236120149
 20
43.3749559927
 10
-42.8514843554
 20
43.3731702154
 10
-42.8798895089
 20
43.3728198286
 10
-42.9085658119
 20
43.3739080602
 10
-42.9372491026
 20
43.3764248857
 10
-42.965675155
 20
43.3803471206
 10
-42.9935821128
 20
43.3856386341
 10
-43.0207129011
 20
43.3922506816
 10
-43.0468175954
 20
43.4001223541
 10
-43.0716557232
 20
43.409181139
 10
-43.0949984792
 20
43.4193435882
 10
-43.1166308335
 20
43.4305160866
 10
-43.1363535123
 20
43.4425957152
 10
-43.1539848333
 20
43.4554711983
  0
LWPOLYLINE
  5
5CF
100
AcDbEntity
  8
RACCORDO
100
AcDbPolyline
 62
250
  6
CONTINUOUS
 90
16
 70
0
 10
-33.7812605322
 20
46.9198091814
 10
-33.8040039418
 20
46.9162920842
 10
-33.828573519
 20
46.9140921833
 10
-33.8547173509
 20
46.9132321417
 10
-33.8821673755
 20
46.913720881
 10
-33.9106420373
 20
46.9155534866
 10
-33.9398491633
 20
46.9187112406
 10
-33.9694891444
 20
46.9231618294
 10
-33.9992578603
 20
46.9288596658
 10
-34.0288497018
 20
46.9357463218
 10
-34.057961624
 20
46.9437513701
 10
-34.0862942145
 20
46.9527925774
 10
-34.1135548179
 20
46.9627764777
 10
-34.1394633213
 20
46.9736002188
 10
-34.1637548021
 20
46.9851528487
 10
-34.1861803496
 20
46.9973157466
  0
LWPOLYLINE
  5
5D0
100
AcDbEntity
  8
RACCORDO
100
AcDbPolyline
 62
250
  6
CONTINUOUS
 90
11
 70
0
 10
-26.5792128943
 20
47.7147230311
 10
-26.5662508246
 20
47.7149350957
 10
-26.5362121249
 20
47.7179051569
 10
-26.5060775165
 20
47.723328802
 10
-26.4761702704
 20
47.7311478413
 10
-26.4468112428
 20
47.7412783848
 10
-26.4183154072
 20
47.7536117452
 10
-26.390988452
 20
47.7680156161
 10
-26.365123545
 20
47.7843354747
 10
-26.3409981849
 20
47.8023962326
 10
-26.3188712
 20
47.8220041282
  0
LWPOLYLINE
  5
5D1
100
AcDbEntity
  8
RACCORDO
100
AcDbPolyline
 62
250
  6
CONTINUOUS
 90
5
 70
0
 10
29.3527608846
 20
-55.5335859707
 10
29.3661285659
 20
-55.5111724501
 10
29.3815650367
 20
-55.4905759968
 10
29.3989242104
 20
-55.4719915314
 10
29.4180418053
 20
-55.4555949327
  0
LWPOLYLINE
  5
5D2
100
AcDbEntity
  8
RACCORDO
100
AcDbPolyline
 62
250
  6
CONTINUOUS
 90
19
 70
0
 10
29.685836761
 20
-52.2165324583
 10
29.656639961
 20
-52.2364096525
 10
29.6254518884
 20
-52.2548625725
 10
29.5924677584
 20
-52.2717757172
 10
29.5578940272
 20
-52.2870432235
 10
29.5219471021
 20
-52.3005695282
 10
29.484851987
 20
-52.3122699666
 10
29.4468408705
 20
-52.3220713036
 10
29.4081516743
 20
-52.3299121909
 10
29.3690265662
 20
-52.3357435512
 10
29.3297104406
 20
-52.339528886
 10
29.290449387
 20
-52.341244503
 10
29.2514891512
 20
-52.3408796653
 10
29.213073595
 20
-52.3384366581
 10
29.1754431698
 20
-52.3339307743
 10
29.1388334136
 20
-52.327390219
 10
29.1034734749
 20
-52.3188559328
 10
29.0695846784
 20
-52.3083813354
 10
29.0373791405
 20
-52.2960319913
  0
LWPOLYLINE
  5
5D3
100
AcDbEntity
  8
RACCORDO
100
AcDbPolyline
 62
7
  6
CONTINUOUS
 90
17
 70
0
 10
29.4227372972
 20
-55.4501042737
 10
29.3940820839
 20
-55.4695704022
 10
29.369463366
 20
-55.4899527044
 10
29.3465866396
 20
-55.5127290963
 10
29.3257037512
 20
-55.5377737299
 10
29.3070223493
 20
-55.564969382
 10
29.2907743277
 20
-55.5941250612
 10
29.2771731885
 20
-55.6250029854
 10
29.2663699099
 20
-55.6574190438
 10
29.2584920263
 20
-55.6911889672
 10
29.2536639036
 20
-55.7259938195
 10
29.251948477
 20
-55.7615309788
 10
29.2533595562
 20
-55.7976675534
 10
29.2578958447
 20
-55.8342102208
 10
29.2655256872
 20
-55.8709430671
 10
29.2762175258
 20
-55.9077938147
 10
29.2816270903
 20
-55.9233119876
  0
LINE
  5
5D4
100
AcDbEntity
  8
RACCORDO
100
AcDbLine
 62
250
  6
CONTINUOUS
 10
29.4180418053
 20
-55.4555949327
 11
29.4387368977
 21
-55.4415413747
  0
LINE
  5
5D5
100
AcDbEntity
  8
RACCORDO
100
AcDbLine
 62
7
  6
CONTINUOUS
 10
29.6886255849
 20
-55.2875123452
 11
29.4223971428
 21
-55.45030802
  0
LINE
  5
5D6
100
AcDbEntity
  8
RACCORDO
100
AcDbLine
 62
250
  6
CONTINUOUS
 10
29.4387368438
 20
-55.4415412638
 11
29.6830176616
 21
-55.2923101506
  0
LINE
  5
5D7
100
AcDbEntity
  8
RACCORDO
100
AcDbLine
 62
7
  6
CONTINUOUS
 10
29.5712570085
 20
-55.3718265529
 11
29.5691145333
 21
-55.373122425
  0
LWPOLYLINE
  5
5D8
100
AcDbEntity
  8
RACCORDO
100
AcDbPolyline
 62
250
  6
CONTINUOUS
 90
3
 70
0
 10
29.5691145333
 20
-55.373122425
 10
29.5282204804
 20
-55.3967368632
 10
29.4387368438
 20
-55.4415412638
  0
LINE
  5
5D9
100
AcDbEntity
  8
RACCORDO
100
AcDbLine
 62
250
  6
CONTINUOUS
 10
29.9277167873
 20
-52.0816658167
 11
29.685836761
 21
-52.2165324584
  0
LINE
  5
5DA
100
AcDbEntity
  8
DRAFT
100
AcDbLine
 62
7
  6
CONTINUOUS
 10
30.1543660598
 20
-53.892195593
 11
28.8284476895
 21
-54.620427663
  0
LINE
  5
5DB
100
AcDbEntity
  8
RACCORDO
100
AcDbLine
 62
7
  6
CONTINUOUS
 10
28.828443358
 20
-54.6204300419
 11
28.8281077947
 21
-54.6206142873
  0
LINE
  5
5DC
100
AcDbEntity
  8
RACCORDO
100
AcDbLine
 62
250
  6
CONTINUOUS
 10
29.4387369578
 20
-55.441541482
 11
29.4227199999
 21
-55.4501111927
  0
LWPOLYLINE
  5
5DD
100
AcDbEntity
  8
RACCORDO
100
AcDbPolyline
 62
250
  6
CONTINUOUS
 90
16
 70
0
 10
29.394504442
 20
-55.8800028168
 10
29.3882658063
 20
-55.8833357613
 10
29.3826634415
 20
-55.8873240158
 10
29.3776972179
 20
-55.891967688
 10
29.3733554385
 20
-55.8972664568
 10
29.3696495555
 20
-55.9032208467
 10
29.3666141403
 20
-55.909832253
 10
29.3642307688
 20
-55.9171074671
 10
29.3625175928
 20
-55.9250399237
 10
29.3615639504
 20
-55.9336110634
 10
29.3613760058
 20
-55.94286015
 10
29.3619472053
 20
-55.9527482435
 10
29.3633476354
 20
-55.9631396229
 10
29.3656004324
 20
-55.973989236
 10
29.3686819057
 20
-55.985342596
 10
29.372591822
 20
-55.9971998967
  0
LWPOLYLINE
  5
5DE
100
AcDbEntity
  8
RACCORDO
100
AcDbPolyline
 62
250
  6
CONTINUOUS
 90
16
 70
0
 10
38.3762329431
 20
-55.2801731258
 10
38.3443699536
 20
-55.2993120331
 10
38.3102047589
 20
-55.3167957355
 10
38.2739866917
 20
-55.3324966414
 10
38.235980065
 20
-55.3463001703
 10
38.1964622455
 20
-55.3581055877
 10
38.1557216302
 20
-55.3678267409
 10
38.1140555371
 20
-55.3753926888
 10
38.071768037
 20
-55.3807482188
 10
38.0291677376
 20
-55.3838542492
 10
37.9865655271
 20
-55.3846881153
 10
37.9442723063
 20
-55.3832437342
 10
37.9025967221
 20
-55.3795316493
 10
37.8618429125
 20
-55.3735789529
 10
37.8223082876
 20
-55.365429089
 10
37.7842813597
 20
-55.3551415357
  0
LINE
  5
5DF
100
AcDbEntity
  8
RACCORDO
100
AcDbLine
 62
250
  6
CONTINUOUS
 10
38.3762329431
 20
-55.2801731258
 11
48.8078935259
 21
-49.6703636462
  0
LINE
  5
5E0
100
AcDbEntity
  8
RACCORDO
100
AcDbLine
 62
7
  6
CONTINUOUS
 10
37.0397561139
 20
-58.0780324931
 11
47.5128723612
 21
-52.4459294987
  0
ELLIPSE
  5
5E1
100
AcDbEntity
  8
RACCORDO
100
AcDbEllipse
 62
7
  6
CONTINUOUS
 10
-31.4168821537
 20
44.5033931149
 30
0.0
 11
2.6693068322
 21
4.4630700403
 31
0.0
 40
0.5873179545
 41
0.0090366249
 42
0.2757660771
  0
ELLIPSE
  5
5E2
100
AcDbEntity
  8
RACCORDO
100
AcDbEllipse
 62
7
  6
CONTINUOUS
 10
23.5182421146
 20
12.7845408611
 30
0.0
 11
2.5331223372
 21
4.5417332085
 31
0.0
 40
0.5671693725
 41
0.0662818146
 42
0.2583021568
  0
ELLIPSE
  5
5E3
100
AcDbEntity
  8
RACCORDO
100
AcDbEllipse
 62
7
  6
CONTINUOUS
 10
60.4526158329
 20
30.311608535
 30
0.0
 11
41.9733507302
 21
23.8103593035
 31
0.0
 40
0.034575876
 41
2.7872369402
 42
2.8476939989
  0
ELLIPSE
  5
5E4
100
AcDbEntity
  8
RACCORDO
100
AcDbEllipse
 62
7
  6
CONTINUOUS
 10
44.5646065656
 20
-47.218850594
 30
0.0
 11
-3.0010587713
 21
5.1976516967
 31
0.0
 40
0.5771558487
 41
-3.1590397888
 42
-2.3563950755
  0
ELLIPSE
  5
5E5
100
AcDbEntity
  8
RACCORDO
100
AcDbEllipse
 62
7
  6
CONTINUOUS
 10
44.5646065656
 20
10.6020279171
 30
0.0
 11
-3.0001450934
 21
5.1960686503
 31
0.0
 40
0.5775075436
 41
-2.3560905478
 42
-0.7855988075
  0
ELLIPSE
  5
5E6
100
AcDbEntity
  8
RACCORDO
100
AcDbEllipse
 62
7
  6
CONTINUOUS
 10
-33.3713635127
 20
55.6012802732
 30
0.0
 11
-3.0010587713
 21
5.1976516967
 31
0.0
 40
0.5771558487
 41
-0.7852941622
 42
0.0174471352
  0
ENDSEC
  0
SECTION
  2
OBJECTS
  0
DICTIONARY
  5
C
100
AcDbDictionary
280
0
281
1
  3
ACAD_GROUP
350
D
  3
ACAD_MLINESTYLE
350
17
  3
ACAD_LAYOUT
350
1A
  3
ACAD_PLOTSETTINGS
350
19
  3
ACAD_PLOTSTYLENAME
350
E
  0
DICTIONARY
  5
D
102
{ACAD_REACTORS
330
C
102
}
100
AcDbDictionary
280
0
281
1
  0
ACDBDICTIONARYWDFLT
  5
E
102
{ACAD_REACTORS
330
C
102
}
100
AcDbDictionary
281
1
  3
Normal
350
F
100
AcDbDictionaryWithDefault
340
F
  0
DICTIONARY
  5
17
102
{ACAD_REACTORS
330
C
102
}
100
AcDbDictionary
280
0
281
1
  3
Standard
350
18
  0
DICTIONARY
  5
19
102
{ACAD_REACTORS
330
C
102
}
100
AcDbDictionary
281
1
  0
DICTIONARY
  5
1A
102
{ACAD_REACTORS
330
C
102
}
100
AcDbDictionary
281
1
  3
Model
350
5E7
  3
Layout1
350
5E8
  0
ACDBPLACEHOLDER
  5
F
102
{ACAD_REACTORS
330
E
102
}
  0
MLINESTYLE
  5
18
102
{ACAD_REACTORS
330
17
102
}
100
AcDbMlineStyle
  2
STANDARD
 70
0
  3

 62
256
 51
90.0
 52
90.0
 71
2
 49
0.5
 62
256
  6
BYLAYER
 49
-0.5
 62
256
  6
BYLAYER
  0
LAYOUT
  5
5E7
102
{ACAD_REACTORS
330
1A
102
}
100
AcDbPlotSettings
  1

  2
none_device
  4
ISO_A4_(297.00_x_210.00_MM)
  6

 40
0.0
 41
0.0
 42
0.0
 43
0.0
 44
297.0
 45
210.0
 46
0.0
 47
0.0
 48
0.0
 49
0.0
140
0.0
141
0.0
142
1.0
143
1.0
 70
1024
 72
1
 73
0
 74
0
  7

 75
0
147
1.0
148
0.0
149
0.0
100
AcDbLayout
  1
Model
 70
0
 71
0
 10
0.0
 20
0.0
 11
297.0
 21
210.0
 12
0.0
 22
0.0
 32
0.0
 14
0.0
 24
0.0
 34
0.0
 15
0.0
 25
0.0
 35
0.0
146
0.0
 13
0.0
 23
0.0
 33
0.0
 16
1.0
 26
0.0
 36
0.0
 17
0.0
 27
1.0
 37
0.0
 76
0
330
218
345
0
346
0
  0
LAYOUT
  5
5E8
102
{ACAD_REACTORS
330
1A
102
}
100
AcDbPlotSettings
  1

  2
none_device
  4
ISO_A4_(297.00_x_210.00_MM)
  6

 40
0.0
 41
0.0
 42
0.0
 43
0.0
 44
297.0
 45
210.0
 46
0.0
 47
0.0
 48
0.0
 49
0.0
140
0.0
141
0.0
142
1.0
143
1.0
 70
0
 72
1
 73
0
 74
0
  7

 75
0
147
1.0
148
0.0
149
0.0
100
AcDbLayout
  1
Layout1
 70
0
 71
1
 10
0.0
 20
0.0
 11
297.0
 21
210.0
 12
0.0
 22
0.0
 32
0.0
 14
0.0
 24
0.0
 34
0.0
 15
0.0
 25
0.0
 35
0.0
146
0.0
 13
0.0
 23
0.0
 33
0.0
 16
1.0
 26
0.0
 36
0.0
 17
0.0
 27
1.0
 37
0.0
 76
0
330
219
345
0
346
0
  0
ENDSEC
  0
EOF
