  0
SECTION
  2
HEADER
  9
$ACADVER
  1
AC1024
  9
$DWGCODEPAGE
  3
ANSI_1252
  9
$EXTMAX
 10
297.0
 20
210.0
 30
0.0
  9
$EXTMIN
 10
0.0
 20
0.0
 30
0.0
  9
$LIMMIN
 10
0.0
 20
0.0
  9
$LIMMAX
 10
297.0
 20
210.0
  9
$VIEWCTR
 10
148.5
 20
105.0
  9
$VIEWSIZE
 40
210.0
  9
$CLAYER
  8
0
  9
$LTSCALE
 40
16.335
  9
$CELTYPE
  6
BYLAYER
  9
$DIMSCALE
 40
1.0
  9
$DIMASZ
 40
3.0
  9
$DIMEXO
 40
0.5
  9
$DIMDLI
 40
11.286
  9
$DIMEXE
 40
1.5
  9
$DIMCEN
 40
2.673
  9
$DIMLFAC
 40
1.0
  9
$DIMBLK
  1
_FILLED
  9
$DIMALT
 70
0
  9
$DIMALTF
 40
0.0393700787
  9
$DIMTXT
 40
3.0
  9
$DIMTOL
 70
1
  9
$DIMLIM
 70
0
  9
$DIMTFAC
 40
1.0
  9
$DIMTP
 40
0.01
  9
$DIMTM
 40
0.01
  9
$DIMGAP
 40
0.625
  9
$DIMDSEP
 70
44
  9
$AUNITS
 70
0
  9
$PDMODE
 70
3
  9
$PDSIZE
 40
3.0
  9
$HANDSEED
  5
2C0
  9
$TILEMODE
 70
1
  9
$MEASUREMENT
 70
1
  9
$INSUNITS
 70
4
  0
ENDSEC
  0
SECTION
  2
CLASSES
  0
CLASS
  1
ACDBDICTIONARYWDFLT
  2
AcDbDictionaryWithDefault
  3
AutoCAD 2000
 90
0
 91
1
280
0
281
0
  0
CLASS
  1
ACDBPLACEHOLDER
  2
AcDbPlaceHolder
  3
AutoCAD 2000
 90
0
 91
1
280
0
281
0
  0
CLASS
  1
LAYOUT
  2
AcDbLayout
  3
AutoCAD 2000
 90
0
 91
0
280
0
281
0
  0
ENDSEC
  0
SECTION
  2
TABLES
  0
TABLE
  2
VPORT
  5
8
100
AcDbSymbolTable
 70
2
  0
VPORT
  5
1F4
100
AcDbSymbolTableRecord
100
AcDbViewportTableRecord
  2
*ACTIVE
 70
0
 10
0.0
 20
0.0
 11
1.0
 21
1.0
 12
148.5
 22
105.0
 13
0.0
 23
0.0
 14
1.0
 24
1.0
 15
0.0
 25
0.0
 16
0.0
 26
0.0
 36
1.0
 17
0.0
 27
0.0
 37
0.0
 40
210.0
 41
1.4142857143
 42
50.0
 43
0.0
 44
0.0
 50
0.0
 51
0.0
 71
0
 72
100
 73
1
 74
1
 75
0
 76
0
 77
0
 78
0
  0
ENDTAB
  0
TABLE
  2
LTYPE
  5
5
100
AcDbSymbolTable
 70
6
  0
LTYPE
  5
14
100
AcDbSymbolTableRecord
100
AcDbLinetypeTableRecord
  2
BYBLOCK
 70
0
  3

 72
65
 73
0
 40
0.0
  0
LTYPE
  5
15
100
AcDbSymbolTableRecord
100
AcDbLinetypeTableRecord
  2
BYLAYER
 70
0
  3

 72
65
 73
0
 40
0.0
  0
LTYPE
  5
16
100
AcDbSymbolTableRecord
100
AcDbLinetypeTableRecord
  2
CONTINUOUS
 70
64
  3
Solid line
 72
65
 73
0
 40
0.0
  0
LTYPE
  5
1F5
100
AcDbSymbolTableRecord
100
AcDbLinetypeTableRecord
  2
CENTER
 70
64
  3
____ _ ____ _ ____ _ ____ _ ____ _ ____ _ ____
 72
65
 73
4
 40
0.6
 49
0.375
 74
0
 49
-0.075
 74
0
 49
0.075
 74
0
 49
-0.075
 74
0
  0
LTYPE
  5
1F6
100
AcDbSymbolTableRecord
100
AcDbLinetypeTableRecord
  2
HIDDEN
 70
64
  3
- - - - - - - - - - - - - - - - - - - -
 72
65
 73
2
 40
0.2
 49
0.1
 74
0
 49
-0.1
 74
0
  0
LTYPE
  5
1F7
100
AcDbSymbolTableRecord
100
AcDbLinetypeTableRecord
  2
PHANTOM
 70
64
  3
_____ _ _ _____ _ _ _____ _ _ _____
 72
65
 73
6
 40
0.8
 49
0.45
 74
0
 49
-0.05
 74
0
 49
0.1
 74
0
 49
-0.05
 74
0
 49
0.1
 74
0
 49
-0.05
 74
0
  0
LTYPE
  5
1F8
100
AcDbSymbolTableRecord
100
AcDbLinetypeTableRecord
  2
DOT
 70
64
  3
. . . . . . . . . . . . . . . . . . . .
 72
65
 73
2
 40
0.2
 49
0.1
 74
0
 49
-0.1
 74
0
  0
LTYPE
  5
1F9
100
AcDbSymbolTableRecord
100
AcDbLinetypeTableRecord
  2
DASHED
 70
64
  3
- - - - - - - - - - - - - - - - - - - -
 72
65
 73
2
 40
0.2
 49
0.1
 74
0
 49
-0.1
 74
0
  0
ENDTAB
  0
TABLE
  2
LAYER
  5
2
100
AcDbSymbolTable
 70
36
  0
LAYER
  5
10
100
AcDbSymbolTableRecord
100
AcDbLayerTableRecord
  2
0
 70
0
 62
7
  6
CONTINUOUS
370
-3
390
F
  0
LAYER
  5
1FA
100
AcDbSymbolTableRecord
100
AcDbLayerTableRecord
  2
DEFAULT_1
 70
0
 62
7
  6
CENTER
370
-3
390
F
  0
LAYER
  5
1FB
100
AcDbSymbolTableRecord
100
AcDbLayerTableRecord
  2
DEFAULT_2
 70
0
 62
7
  6
HIDDEN
370
-3
390
F
  0
LAYER
  5
1FC
100
AcDbSymbolTableRecord
100
AcDbLayerTableRecord
  2
DEFAULT_3
 70
0
 62
7
  6
PHANTOM
370
-3
390
F
  0
LAYER
  5
1FD
100
AcDbSymbolTableRecord
100
AcDbLayerTableRecord
  2
ASSI
 70
0
 62
7
  6
CONTINUOUS
370
-3
390
F
  0
LAYER
  5
1FE
100
AcDbSymbolTableRecord
100
AcDbLayerTableRecord
  2
COORDINATE
 70
0
 62
7
  6
CONTINUOUS
370
-3
390
F
  0
LAYER
  5
1FF
100
AcDbSymbolTableRecord
100
AcDbLayerTableRecord
  2
COORD_ORIGINE
 70
0
 62
7
  6
CONTINUOUS
370
-3
390
F
  0
LAYER
  5
200
100
AcDbSymbolTableRecord
100
AcDbLayerTableRecord
  2
COPY_PUBLISH
 70
0
 62
7
  6
CONTINUOUS
370
-3
390
F
  0
LAYER
  5
201
100
AcDbSymbolTableRecord
100
AcDbLayerTableRecord
  2
COSMETICI
 70
0
 62
7
  6
CONTINUOUS
370
-3
390
F
  0
LAYER
  5
202
100
AcDbSymbolTableRecord
100
AcDbLayerTableRecord
  2
CURVE
 70
0
 62
7
  6
CONTINUOUS
370
-3
390
F
  0
LAYER
  5
203
100
AcDbSymbolTableRecord
100
AcDbLayerTableRecord
  2
DRAFT
 70
0
 62
7
  6
CONTINUOUS
370
-3
390
F
  0
LAYER
  5
204
100
AcDbSymbolTableRecord
100
AcDbLayerTableRecord
  2
IGES
 70
0
 62
7
  6
CONTINUOUS
370
-3
390
F
  0
LAYER
  5
205
100
AcDbSymbolTableRecord
100
AcDbLayerTableRecord
  2
IMPORT_IGES
 70
0
 62
7
  6
CONTINUOUS
370
-3
390
F
  0
LAYER
  5
206
100
AcDbSymbolTableRecord
100
AcDbLayerTableRecord
  2
INTFCLR_2
 70
0
 62
7
  6
CONTINUOUS
370
-3
390
F
  0
LAYER
  5
207
100
AcDbSymbolTableRecord
100
AcDbLayerTableRecord
  2
INTFCLR_3
 70
0
 62
7
  6
CONTINUOUS
370
-3
390
F
  0
LAYER
  5
208
100
AcDbSymbolTableRecord
100
AcDbLayerTableRecord
  2
INTFCLR_4
 70
0
 62
7
  6
CONTINUOUS
370
-3
390
F
  0
LAYER
  5
209
100
AcDbSymbolTableRecord
100
AcDbLayerTableRecord
  2
NOTE
 70
0
 62
7
  6
CONTINUOUS
370
-3
390
F
  0
LAYER
  5
20A
100
AcDbSymbolTableRecord
100
AcDbLayerTableRecord
  2
PIANI
 70
0
 62
7
  6
CONTINUOUS
370
-3
390
F
  0
LAYER
  5
20B
100
AcDbSymbolTableRecord
100
AcDbLayerTableRecord
  2
PIANI_ORIGINE
 70
0
 62
7
  6
CONTINUOUS
370
-3
390
F
  0
LAYER
  5
20C
100
AcDbSymbolTableRecord
100
AcDbLayerTableRecord
  2
PIANI_RIFERIMENTO
 70
0
 62
7
  6
CONTINUOUS
370
-3
390
F
  0
LAYER
  5
20D
100
AcDbSymbolTableRecord
100
AcDbLayerTableRecord
  2
PUNTI
 70
0
 62
7
  6
CONTINUOUS
370
-3
390
F
  0
LAYER
  5
20E
100
AcDbSymbolTableRecord
100
AcDbLayerTableRecord
  2
RACCORDO
 70
0
 62
7
  6
CONTINUOUS
370
-3
390
F
  0
LAYER
  5
20F
100
AcDbSymbolTableRecord
100
AcDbLayerTableRecord
  2
SIMBOLI
 70
0
 62
7
  6
CONTINUOUS
370
-3
390
F
  0
LAYER
  5
210
100
AcDbSymbolTableRecord
100
AcDbLayerTableRecord
  2
SMUSSO
 70
0
 62
7
  6
CONTINUOUS
370
-3
390
F
  0
LAYER
  5
211
100
AcDbSymbolTableRecord
100
AcDbLayerTableRecord
  2
SNAPLINE
 70
0
 62
7
  6
CONTINUOUS
370
-3
390
F
  0
LAYER
  5
212
100
AcDbSymbolTableRecord
100
AcDbLayerTableRecord
  2
SUPERFICI
 70
0
 62
7
  6
CONTINUOUS
370
-3
390
F
  0
LAYER
  5
213
100
AcDbSymbolTableRecord
100
AcDbLayerTableRecord
  2
TRASH
 70
0
 62
7
  6
CONTINUOUS
370
-3
390
F
  0
LAYER
  5
214
100
AcDbSymbolTableRecord
100
AcDbLayerTableRecord
  2
XSEC_DATUMS
 70
0
 62
7
  6
CONTINUOUS
370
-3
390
F
  0
ENDTAB
  0
TABLE
  2
STYLE
  5
3
100
AcDbSymbolTable
 70
1
  0
STYLE
  5
11
100
AcDbSymbolTableRecord
100
AcDbTextStyleTableRecord
  2
STANDARD
 70
0
 40
0.0
 41
0.8
 50
0.0
 71
0
 42
0.2
  3
txt
  4

  0
STYLE
  5
215
100
AcDbSymbolTableRecord
100
AcDbTextStyleTableRecord
  2
TEXTSTYLE_1
 70
0
 40
0.0
 41
0.8
 50
0.0
 71
0
 42
0.2
  3
gdt
  4

  0
ENDTAB
  0
TABLE
  2
VIEW
  5
6
100
AcDbSymbolTable
 70
0
  0
ENDTAB
  0
TABLE
  2
UCS
  5
7
100
AcDbSymbolTable
 70
0
  0
ENDTAB
  0
TABLE
  2
APPID
  5
9
100
AcDbSymbolTable
 70
1
  0
APPID
  5
216
100
AcDbSymbolTableRecord
100
AcDbRegAppTableRecord
  2
ACAD
 70
0
  0
ENDTAB
  0
TABLE
  2
BLOCK_RECORD
  5
1
100
AcDbSymbolTable
 70
0
  0
BLOCK_RECORD
  5
217
100
AcDbSymbolTableRecord
100
AcDbBlockTableRecord
  2
*Model_Space
  0
BLOCK_RECORD
  5
218
100
AcDbSymbolTableRecord
100
AcDbBlockTableRecord
  2
*Paper_Space
  0
BLOCK_RECORD
  5
219
100
AcDbSymbolTableRecord
100
AcDbBlockTableRecord
  2
_FILLED
  0
ENDTAB
  0
TABLE
  2
DIMSTYLE
  5
A
100
AcDbSymbolTable
 70
1
100
AcDbDimStyleTable
 71
0
  0
DIMSTYLE
105
21A
100
AcDbSymbolTableRecord
100
AcDbDimStyleTableRecord
  2
STANDARD
 70
0
  3

  4

 40
1.0
 41
3.0
 42
0.5
 43
0.38
 44
1.5
 45
0.0
 46
0.0
 47
0.01
 48
0.01
140
3.0
141
0.09
142
0.0
143
25.4
144
1.0
145
0.0
146
1.0
147
0.625
 71
1
 72
0
 73
0
 74
0
 75
0
 76
0
 77
1
 78
8
 79
2
170
0
171
1
172
0
173
0
174
0
175
0
176
0
177
0
178
0
270
2
179
2
271
2
272
2
273
2
274
2
275
0
280
0
281
0
282
0
283
1
284
8
285
0
286
0
287
3
288
0
340
11
278
44
341
219
342
219
343
219
344
219
  0
ENDTAB
  0
ENDSEC
  0
SECTION
  2
BLOCKS
  0
BLOCK
  5
20
100
AcDbEntity
  8
0
100
AcDbBlockBegin
  2
*Model_Space
 70
0
 10
0.0
 20
0.0
 30
0.0
  3
*Model_Space
  1

  0
ENDBLK
  5
21
100
AcDbEntity
  8
0
100
AcDbBlockEnd
  0
BLOCK
  5
1C
100
AcDbEntity
  8
0
100
AcDbBlockBegin
  2
*Paper_Space
 70
0
 10
0.0
 20
0.0
 30
0.0
  3
*Paper_Space
  1

  0
ENDBLK
  5
1D
100
AcDbEntity
  8
0
100
AcDbBlockEnd
  0
BLOCK
  5
21B
100
AcDbEntity
  8
0
100
AcDbBlockBegin
  2
_FILLED
 70
64
 10
0.0
 20
0.0
  3
_FILLED
  1

  0
SOLID
  5
21C
100
AcDbEntity
  8
0
  6
BYBLOCK
 62
0
100
AcDbTrace
 10
0.0
 20
0.0
 11
-1.0
 21
0.3166666667
 12
-1.0
 22
-0.3166666667
 13
-1.0
 23
-0.3166666667
  0
ENDBLK
  5
21D
100
AcDbEntity
  8
0
  6
BYBLOCK
 62
0
100
AcDbBlockEnd
  0
ENDSEC
  0
SECTION
  2
ENTITIES
  0
LWPOLYLINE
  5
21E
100
AcDbEntity
  8
ASSI
100
AcDbPolyline
 62
7
  6
CONTINUOUS
 90
16
 70
0
 10
145.6785534213
 20
124.5702393914
 10
145.627629472
 20
124.5351809429
 10
145.5244366154
 20
124.4546492542
 10
145.4264884067
 20
124.3655098452
 10
145.3339645757
 20
124.2685464973
 10
145.2471383228
 20
124.1645004606
 10
145.166505327
 20
124.0543098815
 10
145.0924617321
 20
123.9387630455
 10
145.025420842
 20
123.8186091204
 10
144.9659775333
 20
123.6949149608
 10
144.9145517798
 20
123.5684263442
 10
144.8716056615
 20
123.4398947527
 10
144.8376765281
 20
123.310235541
 10
144.8132507515
 20
123.180071349
 10
144.7988995288
 20
123.0499671685
 10
144.7959961802
 20
122.99433043
  0
LINE
  5
21F
100
AcDbEntity
  8
ASSI
100
AcDbLine
 62
7
  6
CONTINUOUS
 10
145.6782565289
 20
124.5700442736
 11
147.8154000792
 21
125.9794703459
  0
LINE
  5
220
100
AcDbEntity
  8
ASSI
100
AcDbLine
 62
250
  6
CONTINUOUS
 10
145.9350379836
 20
124.5496417251
 11
148.0639166237
 21
125.9536171669
  0
LWPOLYLINE
  5
221
100
AcDbEntity
  8
ASSI
100
AcDbPolyline
 62
250
  6
CONTINUOUS
 90
15
 70
0
 10
145.6785533334
 20
124.5702395248
 10
145.6933710297
 20
124.5788315888
 10
145.7082814077
 20
124.5854704846
 10
145.7240206631
 20
124.5906465275
 10
145.7405356012
 20
124.5943422238
 10
145.7577704055
 20
124.596545083
 10
145.7756668268
 20
124.5972476599
 10
145.7941643795
 20
124.5964475801
 10
145.8132005467
 20
124.5941475475
 10
145.8327109908
 20
124.5903553358
 10
145.8526297712
 20
124.5850837616
 10
145.8728895677
 20
124.5783506416
 10
145.893421907
 20
124.570178732
 10
145.914157395
 20
124.5605956519
 10
145.9350259509
 20
124.5496337897
  0
LWPOLYLINE
  5
222
100
AcDbEntity
  8
ASSI
100
AcDbPolyline
 62
7
  6
CONTINUOUS
 90
12
 70
0
 10
160.1976169359
 20
79.9470360243
 10
160.2151311871
 20
79.9371518584
 10
160.2996390407
 20
79.8966872453
 10
160.3886821373
 20
79.865558214
 10
160.4815704482
 20
79.8440909574
 10
160.5781141408
 20
79.832508838
 10
160.6775915908
 20
79.8311533318
 10
160.7792322721
 20
79.8402641161
 10
160.8831207035
 20
79.860162381
 10
160.9890203607
 20
79.891288824
 10
161.096143654
 20
79.9339323749
 10
161.1429584398
 20
79.9561385555
  0
LINE
  5
223
100
AcDbEntity
  8
ASSI
100
AcDbLine
 62
7
  6
CONTINUOUS
 10
160.1991257175
 20
79.9461614296
 11
145.2485824033
 21
88.5784177649
  0
LINE
  5
224
100
AcDbEntity
  8
ASSI
100
AcDbLine
 62
250
  6
CONTINUOUS
 10
159.8857943147
 20
80.5850162793
 11
144.9424593618
 21
89.2131105967
  0
LINE
  5
225
100
AcDbEntity
  8
ASSI
100
AcDbLine
 62
250
  6
CONTINUOUS
 10
145.2444548032
 20
88.5808279945
 11
145.214841937
 21
88.5997812131
  0
LWPOLYLINE
  5
226
100
AcDbEntity
  8
ASSI
100
AcDbPolyline
 62
250
  6
CONTINUOUS
 90
18
 70
0
 10
145.214841937
 20
88.5997812131
 10
145.1865348721
 20
88.6208939483
 10
145.1595804199
 20
88.6441310182
 10
145.1340245346
 20
88.6694527651
 10
145.1099105843
 20
88.6968162824
 10
145.0872779308
 20
88.726176279
 10
145.0661650379
 20
88.7574830726
 10
145.0466079307
 20
88.7906836579
 10
145.0286385373
 20
88.8257230066
 10
145.0122871791
 20
88.8625425988
 10
144.9975821416
 20
88.9010797177
 10
144.98454806
 20
88.9412684729
 10
144.9732070825
 20
88.9830402873
 10
144.963578274
 20
89.0263251787
 10
144.9556772312
 20
89.0710510947
 10
144.9495171487
 20
89.1171429641
 10
144.9451087053
 20
89.1645227468
 10
144.9424593618
 20
89.2131105967
  0
LINE
  5
227
100
AcDbEntity
  8
ASSI
100
AcDbLine
 62
7
  6
CONTINUOUS
 10
150.0637001229
 20
124.7989672376
 11
149.8821696386
 21
124.3818073772
  0
LWPOLYLINE
  5
228
100
AcDbEntity
  8
ASSI
100
AcDbPolyline
 62
7
  6
CONTINUOUS
 90
12
 70
0
 10
144.7960351714
 20
89.4159432118
 10
144.8046166462
 20
89.3046194918
 10
144.8226236688
 20
89.195769205
 10
144.8493146974
 20
89.0939374036
 10
144.8839615984
 20
88.9996102203
 10
144.9260294714
 20
88.9126125861
 10
144.9753357529
 20
88.8324539845
 10
145.0312747432
 20
88.7596107135
 10
145.0932137023
 20
88.6944165528
 10
145.1610979419
 20
88.6366810591
 10
145.2344682541
 20
88.5867567984
 10
145.2499101875
 20
88.5776540109
  0
LWPOLYLINE
  5
229
100
AcDbEntity
  8
ASSI
100
AcDbPolyline
 62
250
  6
CONTINUOUS
 90
15
 70
0
 10
144.7960348965
 20
89.415943202
 10
144.7962777107
 20
89.4110419556
 10
144.7981936056
 20
89.3938295721
 10
144.8017557922
 20
89.3767496074
 10
144.8069524832
 20
89.3598585791
 10
144.8137664828
 20
89.3432123794
 10
144.8221752434
 20
89.3268660904
 10
144.8321509407
 20
89.3108738019
 10
144.8436605651
 20
89.2952884322
 10
144.8566660313
 20
89.2801615532
 10
144.8711243044
 20
89.2655432196
 10
144.8869875421
 20
89.2514818033
 10
144.904203253
 20
89.2380238336
 10
144.9227144704
 20
89.2252138425
 10
144.9424599411
 20
89.2130942184
  0
LWPOLYLINE
  5
22A
100
AcDbEntity
  8
ASSI
100
AcDbPolyline
 62
7
  6
CONTINUOUS
 90
10
 70
0
 10
144.7960081945
 20
122.9947014643
 10
144.7367614041
 20
121.1724553632
 10
144.6825156422
 20
119.2925529445
 10
144.6353889049
 20
117.4166266343
 10
144.5953822526
 20
115.5447161794
 10
144.5624965371
 20
113.676858619
 10
144.5367324871
 20
111.813090273
 10
144.5180907194
 20
109.9534480296
 10
144.5065717499
 20
108.0979710011
 10
144.5022108824
 20
106.3139026122
  0
LWPOLYLINE
  5
22B
100
AcDbEntity
  8
ASSI
100
AcDbPolyline
 62
250
  6
CONTINUOUS
 90
37
 70
0
 10
144.9424593618
 20
122.7903655403
 10
144.9451087052
 20
122.8420853096
 10
144.9495171486
 20
122.8946756653
 10
144.9556772311
 20
122.9480481462
 10
144.9635782739
 20
123.0021128148
 10
144.9732070823
 20
123.0567789285
 10
144.9845480598
 20
123.1119551207
 10
144.9975821414
 20
123.1675496354
 10
145.0122871788
 20
123.2234680771
 10
145.028638537
 20
123.2796140779
 10
145.0466079303
 20
123.3358924719
 10
145.0661650375
 20
123.3922095103
 10
145.0872779303
 20
123.4484706214
 10
145.1099105839
 20
123.5045814075
 10
145.1340245342
 20
123.5604475608
 10
145.1595804194
 20
123.6159750377
 10
145.1865348715
 20
123.6710710476
 10
145.2148419364
 20
123.7256426699
 10
145.2444548026
 20
123.7795967793
 10
145.2753229558
 20
123.8328428986
 10
145.3073938916
 20
123.8852916673
 10
145.3406145269
 20
123.9368534862
 10
145.3749279339
 20
123.9874416256
 10
145.410275919
 20
124.0369716362
 10
145.4466007073
 20
124.0853598123
 10
145.4838403565
 20
124.1325250958
 10
145.5219314942
 20
124.1783884706
 10
145.5608119213
 20
124.2228723159
 10
145.6004159851
 20
124.2659027802
 10
145.6406757011
 20
124.3074070791
 10
145.6815234831
 20
124.3473129827
 10
145.7228888994
 20
124.3855531732
 10
145.764702228
 20
124.4220645876
 10
145.8068955974
 20
124.4567856457
 10
145.8493982599
 20
124.4896581182
 10
145.8921366825
 20
124.5206273518
 10
145.9350380556
 20
124.5496416834
  0
LWPOLYLINE
  5
22C
100
AcDbEntity
  8
ASSI
100
AcDbPolyline
 62
250
  6
CONTINUOUS
 90
3
 70
0
 10
144.7023298338
 20
105.9258465484
 10
144.7041965075
 20
105.9348300827
 10
144.706863827
 20
105.9437484858
  0
LWPOLYLINE
  5
22D
100
AcDbEntity
  8
ASSI
100
AcDbPolyline
 62
250
  6
CONTINUOUS
 90
7
 70
0
 10
144.706863827
 20
105.9437484858
 10
144.7103254667
 20
105.9526023888
 10
144.7145537602
 20
105.9613210972
 10
144.7195551093
 20
105.9699037738
 10
144.7253231122
 20
105.9783512557
 10
144.7318108967
 20
105.9865953605
 10
144.7365240874
 20
105.9918479065
  0
LWPOLYLINE
  5
22E
100
AcDbEntity
  8
ASSI
100
AcDbPolyline
 62
7
  6
CONTINUOUS
 90
9
 70
0
 10
144.5022110995
 20
106.3135280511
 10
144.5032982056
 20
106.2882808541
 10
144.5104653292
 20
106.2439198543
 10
144.5245395864
 20
106.1999531094
 10
144.5458434659
 20
106.1568827972
 10
144.5741648633
 20
106.1160531421
 10
144.6091518307
 20
106.0783306717
 10
144.6506107815
 20
106.0441710972
 10
144.6898636687
 20
106.0187900832
  0
LWPOLYLINE
  5
22F
100
AcDbEntity
  8
ASSI
100
AcDbPolyline
 62
250
  6
CONTINUOUS
 90
13
 70
0
 10
144.9424593536
 20
89.2131106014
 10
144.8962829145
 20
90.5602659679
 10
144.8540502557
 20
91.9099243067
 10
144.8157616026
 20
93.2620701211
 10
144.7814173697
 20
94.6166782086
 10
144.7510173989
 20
95.9737426654
 10
144.7245612454
 20
97.3332770601
 10
144.702048794
 20
98.695265407
 10
144.683480711
 20
100.0596927715
 10
144.6688581913
 20
101.4265745815
 10
144.6581820373
 20
102.7959058017
 10
144.6514523484
 20
104.1676607489
 10
144.6486694763
 20
105.5418240022
  0
LWPOLYLINE
  5
230
100
AcDbEntity
  8
ASSI
100
AcDbPolyline
 62
250
  6
CONTINUOUS
 90
12
 70
0
 10
144.6486578283
 20
106.1103285134
 10
144.6490419188
 20
106.0984092602
 10
144.6502067066
 20
106.0870073478
 10
144.652145744
 20
106.0761858904
 10
144.6548482978
 20
106.066004789
 10
144.6582994082
 20
106.0565204
 10
144.6624799719
 20
106.0477852235
 10
144.6673668479
 20
106.0398476119
 10
144.6729329854
 20
106.0327515032
 10
144.6791475736
 20
106.0265361771
 10
144.6859762122
 20
106.021236038
 10
144.6898634426
 20
106.0187896927
  0
LWPOLYLINE
  5
231
100
AcDbEntity
  8
ASSI
100
AcDbPolyline
 62
250
  6
CONTINUOUS
 90
15
 70
0
 10
144.7959959175
 20
122.9943304388
 10
144.7962779866
 20
122.9789707026
 10
144.7981938918
 20
122.9630560301
 10
144.8017560871
 20
122.9471893467
 10
144.8069527851
 20
122.9314231553
 10
144.8137667901
 20
122.9158096258
 10
144.8221755547
 20
122.9004004235
 10
144.8321512543
 20
122.885246537
 10
144.8436608794
 20
122.8703981105
 10
144.8566663448
 20
122.8559042772
 10
144.8711246155
 20
122.8418129971
 10
144.8869878494
 20
122.8281708981
 10
144.9042035551
 20
122.8150231216
 10
144.9227147661
 20
122.8024131737
 10
144.9424602289
 20
122.7903827804
  0
LWPOLYLINE
  5
232
100
AcDbEntity
  8
ASSI
100
AcDbPolyline
 62
250
  6
CONTINUOUS
 90
17
 70
0
 10
144.5022110804
 20
106.3135317571
 10
144.5022299134
 20
106.3112983039
 10
144.503126047
 20
106.2964393332
 10
144.5053601141
 20
106.2816228542
 10
144.5089260912
 20
106.2668883466
 10
144.5138143251
 20
106.2522755961
 10
144.5200117123
 20
106.2378237943
 10
144.5275018164
 20
106.2235710342
 10
144.5362649824
 20
106.2095550978
 10
144.5462775227
 20
106.1958142737
 10
144.5575116133
 20
106.1823863826
 10
144.5699359172
 20
106.1693083555
 10
144.5835176778
 20
106.1566142684
 10
144.5982223115
 20
106.1443363057
 10
144.6140113537
 20
106.1325069222
 10
144.630842051
 20
106.1211585722
 10
144.6486694782
 20
106.110321795
  0
LWPOLYLINE
  5
233
100
AcDbEntity
  8
ASSI
100
AcDbPolyline
 62
7
  6
CONTINUOUS
 90
10
 70
0
 10
144.5022108831
 20
105.7465295595
 10
144.5065953119
 20
103.962219183
 10
144.5181356471
 20
102.1204781525
 10
144.5367992453
 20
100.2830659013
 10
144.5625857632
 20
98.4500210208
 10
144.5954947576
 20
96.6213797609
 10
144.6355256728
 20
94.797177656
 10
144.6826778312
 20
92.9774508223
 10
144.7369503448
 20
91.162237858
 10
144.7960338583
 20
89.4159721585
  0
LWPOLYLINE
  5
234
100
AcDbEntity
  8
ASSI
100
AcDbPolyline
 62
250
  6
CONTINUOUS
 90
13
 70
0
 10
144.6486694762
 20
106.1103217881
 10
144.6514523484
 20
107.4878248915
 10
144.6581820373
 20
108.8676360711
 10
144.6688581913
 20
110.2497394999
 10
144.683480711
 20
111.6341083915
 10
144.702048794
 20
113.0207377725
 10
144.7245612454
 20
114.4096446552
 10
144.7510173989
 20
115.8008143238
 10
144.7814173697
 20
117.1942299373
 10
144.8157616026
 20
118.5899055788
 10
144.8540502557
 20
119.9878355276
 10
144.8962829145
 20
121.387994102
 10
144.9424593535
 20
122.790365545
  0
LWPOLYLINE
  5
235
100
AcDbEntity
  8
ASSI
100
AcDbPolyline
 62
250
  6
CONTINUOUS
 90
22
 70
0
 10
144.6486578283
 20
105.5418307276
 10
144.6490419198
 20
105.5541935363
 10
144.6502067105
 20
105.5669405338
 10
144.6521457527
 20
105.5800011601
 10
144.6548483129
 20
105.5933031193
 10
144.6582994311
 20
105.6067727794
 10
144.6624800036
 20
105.6203355796
 10
144.6673668887
 20
105.6339164441
 10
144.6729330355
 20
105.6474401975
 10
144.6791476325
 20
105.6608319796
 10
144.6859762791
 20
105.6740176618
 10
144.6933811756
 20
105.6869242561
 10
144.7013213326
 20
105.6994803191
 10
144.7097527976
 20
105.7116163482
 10
144.7186288991
 20
105.723265166
 10
144.7279005038
 20
105.7343622918
 10
144.7375162894
 20
105.744846299
 10
144.7474230288
 20
105.754659155
 10
144.757565884
 20
105.7637465422
 10
144.7678887103
 20
105.772058159
 10
144.7783343667
 20
105.7795479979
 10
144.7888450326
 20
105.7861746003
  0
LWPOLYLINE
  5
236
100
AcDbEntity
  8
ASSI
100
AcDbPolyline
 62
7
  6
CONTINUOUS
 90
8
 70
0
 10
144.615844376
 20
105.9898946664
 10
144.5853268543
 20
105.958963351
 10
144.5593205004
 20
105.9256829092
 10
144.5380333827
 20
105.8904315843
 10
144.5217494988
 20
105.8539692283
 10
144.510480267
 20
105.8169880714
 10
144.5040448835
 20
105.7799217159
 10
144.5022110651
 20
105.7463743018
  0
LINE
  5
237
100
AcDbEntity
  8
ASSI
100
AcDbLine
 62
7
  6
CONTINUOUS
 10
144.6507998511
 20
106.0182901645
 11
144.615844376
 21
105.9898946664
  0
LINE
  5
238
100
AcDbEntity
  8
CURVE
100
AcDbLine
 62
250
  6
CONTINUOUS
 10
150.2266667342
 20
110.9901791816
 11
151.1462400978
 21
111.5210288674
  0
LINE
  5
239
100
AcDbEntity
  8
CURVE
100
AcDbLine
 62
250
  6
CONTINUOUS
 10
153.3061356019
 20
112.7662028077
 11
154.2599987132
 21
113.3168480825
  0
LINE
  5
23A
100
AcDbEntity
  8
ASSI
100
AcDbLine
 62
7
  6
CONTINUOUS
 10
144.6704251468
 20
106.0313590796
 11
144.6507998511
 21
106.0182901645
  0
LWPOLYLINE
  5
23B
100
AcDbEntity
  8
ASSI
100
AcDbPolyline
 62
250
  6
CONTINUOUS
 90
37
 70
0
 10
160.9017457102
 20
115.9080522612
 10
160.8578312579
 20
115.879622869
 10
160.8140870175
 20
115.8492343823
 10
160.7705857984
 20
115.8169384641
 10
160.7273994947
 20
115.7827907138
 10
160.684600493
 20
115.7468484147
 10
160.6422615816
 20
115.7091703082
 10
160.6004525092
 20
115.6698194416
 10
160.5592436806
 20
115.6288631483
 10
160.5187075185
 20
115.586370866
 10
160.4789121181
 20
115.5424153149
 10
160.4399230212
 20
115.4970704104
 10
160.4018069303
 20
115.4504111734
 10
160.3646273211
 20
115.4025165602
 10
160.3284460324
 20
115.3534676886
 10
160.2933250327
 20
115.3033458431
 10
160.2593226408
 20
115.2522354006
 10
160.2264956592
 20
115.2002231632
 10
160.1949009872
 20
115.1473965268
 10
160.1645912795
 20
115.093844765
 10
160.1356169001
 20
115.0396584417
 10
160.1080280262
 20
114.984928739
 10
160.0818707819
 20
114.9297484792
 10
160.0571883653
 20
114.8742105512
 10
160.0340229946
 20
114.8184073493
 10
160.012413314
 20
114.7624330772
 10
159.992395168
 20
114.7063822368
 10
159.9740028003
 20
114.6503480629
 10
159.9572667178
 20
114.5944241971
 10
159.9422150204
 20
114.5387059125
 10
159.9288741008
 20
114.4832885621
 10
159.917266317
 20
114.4282664206
 10
159.9074105243
 20
114.3737313647
 10
159.8993234483
 20
114.3197741092
 10
159.8930186599
 20
114.2664851796
 10
159.8885064618
 20
114.2139547303
 10
159.8857943147
 20
114.1622712229
  0
LWPOLYLINE
  5
23C
100
AcDbEntity
  8
ASSI
100
AcDbPolyline
 62
250
  6
CONTINUOUS
 90
37
 70
0
 10
161.2675660616
 20
115.3033836924
 10
161.238049984
 20
115.2844738764
 10
161.2087425607
 20
115.264327994
 10
161.1796437916
 20
115.2429460451
 10
161.1507047791
 20
115.2202875751
 10
161.1219744208
 20
115.1963930387
 10
161.0935994098
 20
115.1713837998
 10
161.0655818687
 20
115.1452542773
 10
161.0379196749
 20
115.1180100524
 10
161.0107531543
 20
115.0897892333
 10
160.9840852389
 20
115.0605872665
 10
160.9579129966
 20
115.0304087055
 10
160.9323679578
 20
114.9994053192
 10
160.9074532416
 20
114.9675729544
 10
160.8831657289
 20
114.9349157642
 10
160.8596275925
 20
114.9015979761
 10
160.8368424629
 20
114.8676160244
 10
160.8148067097
 20
114.8329734749
 10
160.7936316144
 20
114.7978452527
 10
160.7733215697
 20
114.7622289053
 10
160.753872183
 20
114.7261268853
 10
160.7353815582
 20
114.6897214754
 10
160.7178546636
 20
114.6530114054
 10
160.7012865308
 20
114.6159979456
 10
160.6857603599
 20
114.5788671896
 10
160.6712813665
 20
114.5416185788
 10
160.6578443349
 20
114.5042526718
 10
160.6455168172
 20
114.4669572392
 10
160.6343043001
 20
114.4297320814
 10
160.6242012969
 20
114.3925773979
 10
160.6152588994
 20
114.3556815572
 10
160.6074830643
 20
114.3190452596
 10
160.6008678348
 20
114.2826678049
 10
160.5954464318
 20
114.24673546
 10
160.5912299288
 20
114.2113103142
 10
160.5882072523
 20
114.1763302782
 10
160.5863784022
 20
114.1417953521
  0
LINE
  5
23D
100
AcDbEntity
  8
ASSI
100
AcDbLine
 62
250
  6
CONTINUOUS
 10
163.106264148
 20
117.2683542312
 11
160.9017457822
 21
115.9080522196
  0
LINE
  5
23E
100
AcDbEntity
  8
ASSI
100
AcDbLine
 62
250
  6
CONTINUOUS
 10
163.4908909427
 20
116.6752902981
 11
161.2675660616
 21
115.3033836924
  0
LWPOLYLINE
  5
23F
100
AcDbEntity
  8
ASSI
100
AcDbPolyline
 62
250
  6
CONTINUOUS
 90
28
 70
0
 10
160.5863784022
 20
114.1417953521
 10
160.5651402158
 20
114.1315829322
 10
160.5428229969
 20
114.1220914798
 10
160.519500593
 20
114.113352402
 10
160.4952501779
 20
114.1053946163
 10
160.4701519959
 20
114.098244455
 10
160.4442890967
 20
114.0919255779
 10
160.4177470605
 20
114.0864588942
 10
160.3906137146
 20
114.081862493
 10
160.3629788429
 20
114.0781515837
 10
160.3349338892
 20
114.0753384459
 10
160.3065716539
 20
114.073432388
 10
160.2779859874
 20
114.0724397173
 10
160.2492714795
 20
114.0723637184
 10
160.2205231462
 20
114.0732046429
 10
160.1918361155
 20
114.0749597082
 10
160.1633053125
 20
114.0776231067
 10
160.1350251455
 20
114.0811860253
 10
160.1070891933
 20
114.0856366743
 10
160.0795898958
 20
114.0909603265
 10
160.0526182478
 20
114.0971393661
 10
160.0262634983
 20
114.1041533466
 10
160.0006128551
 20
114.1119790589
 10
159.9757511958
 20
114.1205906077
 10
159.9517607875
 20
114.1299594974
 10
159.9287210142
 20
114.1400547266
 10
159.9067081144
 20
114.1508428901
 10
159.8857949285
 20
114.16228829
  0
LINE
  5
240
100
AcDbEntity
  8
ASSI
100
AcDbLine
 62
7
  6
CONTINUOUS
 10
150.0637001229
 20
124.7989672376
 11
150.0850345019
 21
124.1787418896
  0
LWPOLYLINE
  5
241
100
AcDbEntity
  8
ASSI
100
AcDbPolyline
 62
250
  6
CONTINUOUS
 90
12
 70
0
 10
150.9700133384
 20
102.4604570664
 10
150.9703974258
 20
102.448537858
 10
150.9715622052
 20
102.4371359817
 10
150.97350123
 20
102.4263145517
 10
150.9762037679
 20
102.4161334694
 10
150.9796548602
 20
102.4066490915
 10
150.9838354048
 20
102.3979139184
 10
150.9887222617
 20
102.3899763036
 10
150.9942883811
 20
102.3828801857
 10
151.0005029531
 20
102.3766648458
 10
151.0073315785
 20
102.3713646892
 10
151.0114298277
 20
102.3687959752
  0
LINE
  5
242
100
AcDbEntity
  8
ASSI
100
AcDbLine
 62
250
  6
CONTINUOUS
 10
149.8821696386
 20
124.3818073772
 11
149.8821696386
 21
124.3192035939
  0
LWPOLYLINE
  5
243
100
AcDbEntity
  8
ASSI
100
AcDbPolyline
 62
250
  6
CONTINUOUS
 90
22
 70
0
 10
150.9700133384
 20
101.891959282
 10
150.9703974289
 20
101.9043220732
 10
150.9715622167
 20
101.9170690533
 10
150.9735012541
 20
101.9301296624
 10
150.9762038079
 20
101.9434316051
 10
150.9796549183
 20
101.9569012498
 10
150.983835482
 20
101.9704640365
 10
150.988722358
 20
101.9840448899
 10
150.9942884955
 20
101.9975686345
 10
151.0005030836
 20
102.0109604111
 10
151.0073317222
 20
102.0241460908
 10
151.0147366119
 20
102.0370526857
 10
151.0226767639
 20
102.0496087525
 10
151.0311082262
 20
102.0617447884
 10
151.0399843272
 20
102.0733936158
 10
151.0492559343
 20
102.0844907536
 10
151.0588717255
 20
102.0949747748
 10
151.0687784734
 20
102.1047876462
 10
151.0789213402
 20
102.1138750496
 10
151.0892441813
 20
102.1221866826
 10
151.0996898555
 20
102.129676537
 10
151.1102005418
 20
102.1363031535
  0
LINE
  5
244
100
AcDbEntity
  8
ASSI
100
AcDbLine
 62
7
  6
CONTINUOUS
 10
157.9832960722
 20
120.2262917923
 11
157.8017655879
 21
119.8091319319
  0
LWPOLYLINE
  5
245
100
AcDbEntity
  8
ASSI
100
AcDbPolyline
 62
250
  6
CONTINUOUS
 90
19
 70
0
 10
159.7065521141
 20
97.4355202592
 10
159.7298752345
 20
97.4289952497
 10
159.7537502514
 20
97.423169823
 10
159.7781110958
 20
97.4180603708
 10
159.8028914854
 20
97.4136805522
 10
159.8280258871
 20
97.4100417718
 10
159.8534475639
 20
97.4071539596
 10
159.8790886592
 20
97.4050246697
 10
159.9048801619
 20
97.4036595359
 10
159.9307527413
 20
97.4030625872
 10
159.9566370419
 20
97.40323521
 10
159.9824636701
 20
97.4041767788
 10
160.0081631898
 20
97.4058851643
 10
160.0336664236
 20
97.4083555002
 10
160.0589053019
 20
97.4115809651
 10
160.0838128204
 20
97.4155534676
 10
160.1083231238
 20
97.4202623367
 10
160.132369508
 20
97.4256946291
 10
160.1558853934
 20
97.4318357437
  0
LWPOLYLINE
  5
246
100
AcDbEntity
  8
ASSI
100
AcDbPolyline
 62
250
  6
CONTINUOUS
 90
25
 70
0
 10
151.3146848949
 20
101.8386600708
 10
151.3112688218
 20
101.8532622955
 10
151.3072659637
 20
101.8679793114
 10
151.3026880381
 20
101.8827679593
 10
151.2975484844
 20
101.8975849011
 10
151.2918623169
 20
101.9123866082
 10
151.2856460897
 20
101.9271294895
 10
151.2789178242
 20
101.9417706214
 10
151.2716974106
 20
101.9562666183
 10
151.2640065806
 20
101.970573666
 10
151.2558682842
 20
101.9846492272
 10
151.2473062192
 20
101.9984525451
 10
151.2383452732
 20
102.0119435104
 10
151.2290117694
 20
102.0250824599
 10
151.2193331127
 20
102.0378308443
 10
151.2093373663
 20
102.0501516942
 10
151.199053394
 20
102.0620092197
 10
151.1885117706
 20
102.073368024
 10
151.1777444126
 20
102.0841938357
 10
151.1667834869
 20
102.0944543924
 10
151.1556606397
 20
102.1041201895
 10
151.1444078703
 20
102.1131635843
 10
151.1330579494
 20
102.1215581581
 10
151.1216443552
 20
102.1292789345
 10
151.1102005418
 20
102.1363031535
  0
LWPOLYLINE
  5
247
100
AcDbEntity
  8
ASSI
100
AcDbPolyline
 62
250
  6
CONTINUOUS
 90
25
 70
0
 10
151.0382018352
 20
101.7927353523
 10
151.03707136
 20
101.797633229
 10
151.0357524474
 20
101.8025408442
 10
151.0342450947
 20
101.8074581964
 10
151.0325437612
 20
101.8124000462
 10
151.0306539827
 20
101.8173516303
 10
151.0285923712
 20
101.8222686605
 10
151.0263573763
 20
101.8271507182
 10
151.023950542
 20
101.8319982185
 10
151.0213931203
 20
101.8367681231
 10
151.0186837377
 20
101.8414596873
 10
151.0158237608
 20
101.8460736519
 10
151.0128385511
 20
101.8505692057
 10
151.0097271227
 20
101.8549451156
 10
151.0064904549
 20
101.859202611
 10
151.003156856
 20
101.8633045735
 10
150.9997253842
 20
101.8672497162
 10
150.9961969758
 20
101.8710393227
 10
150.9926027559
 20
101.8746401309
 10
150.9889421431
 20
101.8780504727
 10
150.9852157146
 20
101.8812720136
 10
150.9814563345
 20
101.8842764918
 10
150.9776749565
 20
101.887054486
 10
150.9738606246
 20
101.8896154162
 10
150.9700133384
 20
101.891959282
  0
LINE
  5
248
100
AcDbEntity
  8
CURVE
100
AcDbLine
 62
250
  6
CONTINUOUS
 10
152.2695834878
 20
89.513797479
 11
152.295744151
 21
88.5491971167
  0
LINE
  5
249
100
AcDbEntity
  8
CURVE
100
AcDbLine
 62
250
  6
CONTINUOUS
 10
152.1882030579
 20
93.2213614681
 11
152.2049465694
 21
92.3328955834
  0
LWPOLYLINE
  5
24A
100
AcDbEntity
  8
CURVE
100
AcDbPolyline
 62
250
  6
CONTINUOUS
 90
81
 70
0
 10
151.7754852259
 20
91.1872353493
 10
151.7753653616
 20
91.2078142014
 10
151.7759581621
 20
91.2276805799
 10
151.7772505212
 20
91.2469068218
 10
151.7792293326
 20
91.2655652639
 10
151.7818846873
 20
91.2837132545
 10
151.7852194641
 20
91.3013481874
 10
151.7892397388
 20
91.3184524676
 10
151.7939515873
 20
91.3350085001
 10
151.7993577672
 20
91.350994641
 10
151.8054477625
 20
91.3663730509
 10
151.812207739
 20
91.3811018416
 10
151.8196238625
 20
91.3951391246
 10
151.8276832868
 20
91.408446882
 10
151.8363771183
 20
91.4210025774
 10
151.8456974513
 20
91.4327875446
 10
151.8556363802
 20
91.4437831174
 10
151.8661831558
 20
91.4539716055
 10
151.8773156535
 20
91.463339222
 10
151.8890089053
 20
91.4718731558
 10
151.9012379431
 20
91.4795605957
 10
151.9139777987
 20
91.4863887307
 10
151.9272035039
 20
91.4923447495
 10
151.9408900908
 20
91.4974158412
 10
151.955012591
 20
91.5015891945
 10
151.9695470802
 20
91.5048543052
 10
151.9844738081
 20
91.5072098956
 10
151.9997740684
 20
91.508656995
 10
152.0154291545
 20
91.5091966326
 10
152.03142036
 20
91.5088298377
 10
152.0477289784
 20
91.5075576395
 10
152.0643363031
 20
91.5053810672
 10
152.0812236277
 20
91.50230115
 10
152.0983703366
 20
91.4983202061
 10
152.1157481779
 20
91.4934457097
 10
152.1333269903
 20
91.4876864239
 10
152.1510766128
 20
91.4810511117
 10
152.1689668843
 20
91.4735485363
 10
152.1869676437
 20
91.4651874608
 10
152.2050487299
 20
91.4559766483
 10
152.2231799818
 20
91.445924862
 10
152.2413310934
 20
91.4350438305
 10
152.2594711798
 20
91.4233571453
 10
152.2775692112
 20
91.4108913634
 10
152.2955941578
 20
91.397673042
 10
152.3135149897
 20
91.383728738
 10
152.3313006771
 20
91.3690850086
 10
152.3489201903
 20
91.3537684108
 10
152.3663424994
 20
91.3378055016
 10
152.3835386819
 20
91.3212216237
 10
152.4004882448
 20
91.3040372613
 10
152.4171728024
 20
91.2862716843
 10
152.4335739687
 20
91.2679441626
 10
152.4496733582
 20
91.249073966
 10
152.465452585
 20
91.2296803644
 10
152.4808932633
 20
91.2097826276
 10
152.4959770074
 20
91.1894000254
 10
152.5106838036
 20
91.1685563051
 10
152.5249871258
 20
91.1472931229
 10
152.5388588201
 20
91.1256566125
 10
152.5522707326
 20
91.1036929076
 10
152.5651947092
 20
91.0814481419
 10
152.5776025961
 20
91.0589684489
 10
152.5894662392
 20
91.0362999624
 10
152.6007574846
 20
91.0134888159
 10
152.611451978
 20
90.9905774556
 10
152.6215405642
 20
90.9675935772
 10
152.6310178876
 20
90.9445611885
 10
152.6398785927
 20
90.9215042977
 10
152.6481155761
 20
90.8984522873
 10
152.6557147425
 20
90.8754560372
 10
152.6626602492
 20
90.8525718018
 10
152.668936253
 20
90.8298558354
 10
152.6745303096
 20
90.8073571883
 10
152.6794435686
 20
90.7850960943
 10
152.6836805783
 20
90.7630855828
 10
152.6872458868
 20
90.7413386835
 10
152.6901415888
 20
90.7198564038
 10
152.6923599642
 20
90.6985916621
 10
152.6938908397
 20
90.6774853547
 10
152.6947240415
 20
90.656478378
  0
LWPOLYLINE
  5
24B
100
AcDbEntity
  8
CURVE
100
AcDbPolyline
 62
250
  6
CONTINUOUS
 90
81
 70
0
 10
152.6947240415
 20
90.656478378
 10
152.6948448321
 20
90.635899829
 10
152.69425477
 20
90.616034828
 10
152.692966917
 20
90.5968110093
 10
152.6909943348
 20
90.5781560074
 10
152.688346889
 20
90.5600124453
 10
152.6850216599
 20
90.542382901
 10
152.6810125314
 20
90.525284941
 10
152.6763133875
 20
90.5087361321
 10
152.6709214193
 20
90.4927580865
 10
152.6648470455
 20
90.4773885992
 10
152.658103992
 20
90.4626695105
 10
152.6507059844
 20
90.448642661
 10
152.6426657593
 20
90.4353460173
 10
152.6339920954
 20
90.4228020499
 10
152.6246927823
 20
90.4110293554
 10
152.6147756094
 20
90.4000465302
 10
152.6042512043
 20
90.3898711911
 10
152.5931415478
 20
90.3805170348
 10
152.5814714587
 20
90.3719967782
 10
152.5692657559
 20
90.3643231381
 10
152.5565492583
 20
90.3575088314
 10
152.5433467847
 20
90.3515665751
 10
152.529683154
 20
90.3465090859
 10
152.5155831852
 20
90.3423490806
 10
152.5010706598
 20
90.3390969733
 10
152.4861652105
 20
90.3367539659
 10
152.4708854328
 20
90.3353189574
 10
152.455249922
 20
90.334790847
 10
152.4392772737
 20
90.3351685335
 10
152.4229860833
 20
90.3364509162
 10
152.4063949462
 20
90.3386368939
 10
152.3895224577
 20
90.3417253658
 10
152.3723891313
 20
90.3457139487
 10
152.3550231511
 20
90.3505951302
 10
152.3374546191
 20
90.3563601158
 10
152.3197136375
 20
90.363000111
 10
152.3018303082
 20
90.3705063211
 10
152.2838347335
 20
90.3788699517
 10
152.2657570152
 20
90.3880822081
 10
152.2476272554
 20
90.3981342959
 10
152.2294757185
 20
90.4090144664
 10
152.2113333176
 20
90.4206991551
 10
152.1932311282
 20
90.4331618435
 10
152.1752002255
 20
90.4463760131
 10
152.157271685
 20
90.4603151452
 10
152.1394765821
 20
90.4749527213
 10
152.1218459921
 20
90.4902622229
 10
152.1044109906
 20
90.5062171315
 10
152.0872005563
 20
90.5227921484
 10
152.0702352818
 20
90.5399668554
 10
152.0535336633
 20
90.5577220539
 10
152.0371141967
 20
90.5760385455
 10
152.0209953781
 20
90.5948971319
 10
152.0051957036
 20
90.6142786146
 10
151.9897336692
 20
90.6341637952
 10
151.974627771
 20
90.6545334753
 10
151.9598981425
 20
90.6753639819
 10
151.9455714666
 20
90.6966137442
 10
151.9316760636
 20
90.7182367168
 10
151.9182402539
 20
90.7401868542
 10
151.9052923579
 20
90.762418111
 10
151.8928606958
 20
90.7848844418
 10
151.8809735881
 20
90.8075398012
 10
151.869659355
 20
90.8303381438
 10
151.8589425094
 20
90.8532371074
 10
151.8488323331
 20
90.8762090622
 10
151.8393343006
 20
90.899230062
 10
151.8304538864
 20
90.9222761602
 10
151.8221983122
 20
90.9453180329
 10
151.8145817899
 20
90.9683048453
 10
151.8076202786
 20
90.9911803853
 10
151.8013297376
 20
91.0138884404
 10
151.7957227132
 20
91.0363800017
 10
151.7907980996
 20
91.0586348732
 10
151.7865513783
 20
91.0806400624
 10
151.7829780305
 20
91.1023825765
 10
151.7800759941
 20
91.1238614437
 10
151.7778530339
 20
91.1451237741
 10
151.7763193707
 20
91.166228699
 10
151.7754852259
 20
91.1872353493
  0
LINE
  5
24C
100
AcDbEntity
  8
CURVE
100
AcDbLine
 62
250
  6
CONTINUOUS
 10
152.200498495
 20
110.4319483267
 11
152.1744662447
 21
108.9048862516
  0
LINE
  5
24D
100
AcDbEntity
  8
CURVE
100
AcDbLine
 62
250
  6
CONTINUOUS
 10
152.3193878845
 20
115.406151402
 11
152.2787041282
 21
113.9129627254
  0
LWPOLYLINE
  5
24E
100
AcDbEntity
  8
CURVE
100
AcDbPolyline
 62
250
  6
CONTINUOUS
 90
87
 70
0
 10
151.5284043228
 20
112.5581162243
 10
151.529518134
 20
112.5876570923
 10
151.5315235267
 20
112.6163131771
 10
151.5344097792
 20
112.6441699472
 10
151.5381661698
 20
112.6713128716
 10
151.5427846641
 20
112.6978097575
 10
151.5482679761
 20
112.7236577668
 10
151.554621507
 20
112.7488364
 10
151.5618506581
 20
112.7733251576
 10
151.5699570403
 20
112.7970984619
 10
151.5789271046
 20
112.8201104223
 10
151.5887435115
 20
112.8423100698
 10
151.5993889216
 20
112.8636464354
 10
151.6108473762
 20
112.8840733644
 10
151.6231084385
 20
112.9035639583
 10
151.6361630522
 20
112.9220961324
 10
151.6500021611
 20
112.9396478025
 10
151.6667623514
 20
112.95847832
 10
151.6844923033
 20
112.9759688474
 10
151.7031489598
 20
112.9920888981
 10
151.7226892644
 20
113.0068079852
 10
151.7430701601
 20
113.0200956222
 10
151.7642485904
 20
113.0319213223
 10
151.7861814985
 20
113.0422545989
 10
151.8059591386
 20
113.0500519162
 10
151.8262603334
 20
113.0566863541
 10
151.8470639559
 20
113.0621610117
 10
151.8683488792
 20
113.0664789878
 10
151.8900959105
 20
113.0696415507
 10
151.9122935948
 20
113.0716426464
 10
151.9349324112
 20
113.0724743903
 10
151.9580028388
 20
113.0721288977
 10
151.9814892017
 20
113.0705995709
 10
152.0053512021
 20
113.0678849586
 10
152.0295423874
 20
113.0639848963
 10
152.0540163046
 20
113.0588992197
 10
152.0787253236
 20
113.0526317852
 10
152.1036171051
 20
113.0452025331
 10
152.1286381324
 20
113.0366354246
 10
152.1537348888
 20
113.026954421
 10
152.178860852
 20
113.0161816016
 10
152.2039974765
 20
113.0043315175
 10
152.2291332111
 20
112.9914168379
 10
152.2542565045
 20
112.9774502319
 10
152.2793559448
 20
112.9624422107
 10
152.3044206765
 20
112.946394653
 10
152.3294399836
 20
112.9293072795
 10
152.35440315
 20
112.9111798111
 10
152.3792921664
 20
112.8920183673
 10
152.4040598516
 20
112.8718546625
 10
152.4286517313
 20
112.8507268101
 10
152.4530133309
 20
112.8286729235
 10
152.4770913862
 20
112.8057340728
 10
152.5008374723
 20
112.7819631555
 10
152.5242043745
 20
112.757416026
 10
152.5471448779
 20
112.7321485384
 10
152.5696185878
 20
112.7062099971
 10
152.5916123893
 20
112.6796235055
 10
152.6131199875
 20
112.6524056171
 10
152.6341350877
 20
112.6245728851
 10
152.654649266
 20
112.5961418758
 10
152.6746455824
 20
112.5671292064
 10
152.6941049682
 20
112.537551507
 10
152.7130083543
 20
112.5074254077
 10
152.7339044762
 20
112.4723554067
 10
152.7540062013
 20
112.4366756962
 10
152.7732702426
 20
112.400471123
 10
152.7916533132
 20
112.3638265341
 10
152.809112126
 20
112.3268267764
 10
152.8256033943
 20
112.2895566969
 10
152.8410838311
 20
112.2521011426
 10
152.8537700295
 20
112.2192371223
 10
152.8656444292
 20
112.1863231169
 10
152.8767022912
 20
112.1533861844
 10
152.8869388762
 20
112.120453383
 10
152.8963477876
 20
112.0875583538
 10
152.9049159996
 20
112.0547610706
 10
152.9126288289
 20
112.0221280904
 10
152.9194715923
 20
111.98972597
 10
152.9254329246
 20
111.9576128488
 10
152.9305147341
 20
111.9258131967
 10
152.9347222469
 20
111.8943430658
 10
152.9380606895
 20
111.8632185082
 10
152.9405320007
 20
111.8324410449
 10
152.9421249693
 20
111.80195407
 10
152.942825097
 20
111.7716864467
 10
152.9426178851
 20
111.7415670377
  0
LWPOLYLINE
  5
24F
100
AcDbEntity
  8
CURVE
100
AcDbPolyline
 62
250
  6
CONTINUOUS
 90
87
 70
0
 10
152.9426178851
 20
111.7415670377
 10
152.9415059149
 20
111.7120276349
 10
152.9395059754
 20
111.6833750695
 10
152.9366287115
 20
111.6555238324
 10
152.9328847683
 20
111.6283884144
 10
152.9282821089
 20
111.6019009716
 10
152.9228179699
 20
111.5760643214
 10
152.9164869061
 20
111.5508989463
 10
152.9092834721
 20
111.526425329
 10
152.9012059879
 20
111.5026690095
 10
152.8922678336
 20
111.4796757576
 10
152.8824861543
 20
111.4574964004
 10
152.8718780953
 20
111.4361817648
 10
152.8604594198
 20
111.4157778681
 10
152.8482403634
 20
111.3963114878
 10
152.8352297795
 20
111.3778045916
 10
152.821436522
 20
111.3602791473
 10
152.8047306821
 20
111.3414796033
 10
152.7870567651
 20
111.3240209041
 10
152.7684573979
 20
111.3079333056
 10
152.7489752072
 20
111.2932470639
 10
152.7286528198
 20
111.2799924351
 10
152.7075328627
 20
111.268199675
 10
152.6856579627
 20
111.2578990398
 10
152.6659303716
 20
111.2501298646
 10
152.6456783219
 20
111.2435230522
 10
152.624922722
 20
111.2380753923
 10
152.6036844802
 20
111.2337836746
 10
152.5819825717
 20
111.2306465216
 10
152.559828239
 20
111.2286698846
 10
152.5372307914
 20
111.2278615477
 10
152.5141995382
 20
111.228229295
 10
152.490749947
 20
111.2297796215
 10
152.4669221185
 20
111.2325138671
 10
152.4427623115
 20
111.2364320829
 10
152.418316785
 20
111.2415343201
 10
152.3936329895
 20
111.2478166184
 10
152.3687631423
 20
111.2552589728
 10
152.3437606521
 20
111.263837367
 10
152.3186789277
 20
111.2735277846
 10
152.2935644036
 20
111.2843080992
 10
152.2684356162
 20
111.2961637434
 10
152.2433041275
 20
111.3090820394
 10
152.2181814995
 20
111.3230503098
 10
152.1930791568
 20
111.3380580344
 10
152.1680079748
 20
111.354103323
 10
152.1429786914
 20
111.3711864428
 10
152.1180020445
 20
111.3893076613
 10
152.0930960789
 20
111.4084608582
 10
152.0683080667
 20
111.4286143639
 10
152.0436925869
 20
111.4497301211
 10
152.0193042182
 20
111.4717700726
 10
151.995196352
 20
111.4946932105
 10
151.9714176293
 20
111.5184467234
 10
151.9480155032
 20
111.5429748489
 10
151.9250374272
 20
111.5682218249
 10
151.9025240236
 20
111.594138444
 10
151.8804885913
 20
111.6207017182
 10
151.8589375983
 20
111.6478952146
 10
151.8378775123
 20
111.6757025002
 10
151.8173169384
 20
111.7041071259
 10
151.7972730291
 20
111.7330925787
 10
151.7777650739
 20
111.7626423296
 10
151.7588123626
 20
111.7927398495
 10
151.7378592374
 20
111.8277765646
 10
151.717700206
 20
111.8634225621
 10
151.6983789514
 20
111.8995932602
 10
151.6799391564
 20
111.9362040766
 10
151.662424504
 20
111.9731704294
 10
151.6458786773
 20
112.0104077366
 10
151.6303453591
 20
112.0478314161
 10
151.6176145634
 20
112.0806684795
 10
151.6056973414
 20
112.1135565311
 10
151.5945986199
 20
112.1464686262
 10
151.584323326
 20
112.1793778196
 10
151.5748780424
 20
112.2122505892
 10
151.5662759759
 20
112.2450271028
 10
151.5585319889
 20
112.2776409509
 10
151.551660944
 20
112.310025724
 10
151.5456743674
 20
112.3421234066
 10
151.5405704408
 20
112.3739095595
 10
151.5363440098
 20
112.4053681376
 10
151.5329899197
 20
112.4364830957
 10
151.5305063043
 20
112.4672529262
 10
151.5289044499
 20
112.4977342713
 10
151.5281989312
 20
112.5279983107
 10
151.5284043228
 20
112.5581162243
  0
LWPOLYLINE
  5
250
100
AcDbEntity
  8
ASSI
100
AcDbPolyline
 62
250
  6
CONTINUOUS
 90
62
 70
0
 10
151.0382018352
 20
102.4810308403
 10
151.0512000407
 20
102.5238203715
 10
151.0660037265
 20
102.5649499023
 10
151.0826126961
 20
102.6044193187
 10
151.101057222
 20
102.6423305383
 10
151.1213066697
 20
102.6785814337
 10
151.1432693759
 20
102.7128657618
 10
151.1669672522
 20
102.7451601993
 10
151.1923778053
 20
102.7754877336
 10
151.2193425716
 20
102.8036114768
 10
151.2478765236
 20
102.8295021623
 10
151.2779639697
 20
102.8531886422
 10
151.3094003034
 20
102.8745211221
 10
151.3421745465
 20
102.8934691868
 10
151.3762968972
 20
102.9100628026
 10
151.4115944311
 20
102.9242427005
 10
151.4480613235
 20
102.9360001154
 10
151.4857026558
 20
102.9453433849
 10
151.5243618302
 20
102.9522388762
 10
151.5640535682
 20
102.9566810685
 10
151.6047624818
 20
102.9586750994
 10
151.6462867971
 20
102.9582033158
 10
151.6886386593
 20
102.9552508828
 10
151.731805354
 20
102.9498323083
 10
151.7755478199
 20
102.9419739542
 10
151.8198645189
 20
102.9316615189
 10
151.8647565523
 20
102.9189090532
 10
151.909988841
 20
102.903785461
 10
151.9555598282
 20
102.8862795882
 10
152.0014707977
 20
102.8664024324
 10
152.0474909692
 20
102.8442561466
 10
152.0936201612
 20
102.8198304194
 10
152.1398584625
 20
102.7931355091
 10
152.1859755434
 20
102.7643044491
 10
152.2319714186
 20
102.7333269491
 10
152.2778461659
 20
102.7002133526
 10
152.3233695949
 20
102.6651276698
 10
152.3685430961
 20
102.6280574453
 10
152.4133655517
 20
102.589015291
 10
152.4576030468
 20
102.5482028397
 10
152.5012572059
 20
102.5056044396
 10
152.5443268411
 20
102.4612359932
 10
152.5865738417
 20
102.4153464778
 10
152.6279863175
 20
102.3679352826
 10
152.6685767281
 20
102.3190033452
 10
152.7081434898
 20
102.2688019672
 10
152.7466715917
 20
102.2173435605
 10
152.7841767113
 20
102.164616096
 10
152.8205032837
 20
102.1108342064
 10
152.855656439
 20
102.0559844323
 10
152.88963179
 20
102.0000806603
 10
152.9222594637
 20
101.9433785232
 10
152.9535504789
 20
101.8858362284
 10
152.9834945969
 20
101.8274960177
 10
153.011889978
 20
101.7687395295
 10
153.0387222724
 20
101.7095545645
 10
153.0640065511
 20
101.6499537377
 10
153.0875849598
 20
101.5903558251
 10
153.1094357631
 20
101.5307626627
 10
153.1295812808
 20
101.4711727519
 10
153.1479295473
 20
101.4119997553
 10
153.1644499879
 20
101.3533816074
  0
LWPOLYLINE
  5
251
100
AcDbEntity
  8
ASSI
100
AcDbPolyline
 62
250
  6
CONTINUOUS
 90
14
 70
0
 10
151.3146849614
 20
102.4395998906
 10
151.3260382144
 20
102.4768411924
 10
151.3389777939
 20
102.5127841454
 10
151.3535012537
 20
102.5473508859
 10
151.3696136815
 20
102.5804842967
 10
151.3872977722
 20
102.6120869384
 10
151.4065047935
 20
102.6420314715
 10
151.4272126081
 20
102.6702556234
 10
151.449395028
 20
102.6966980165
 10
151.4729769384
 20
102.7212558513
 10
151.4979164
 20
102.7438820914
 10
151.5241747712
 20
102.7645385521
 10
151.5516646062
 20
102.7831600347
 10
151.5687856859
 20
102.7933780811
  0
LWPOLYLINE
  5
252
100
AcDbEntity
  8
ASSI
100
AcDbPolyline
 62
7
  6
CONTINUOUS
 90
11
 70
0
 10
151.7430206472
 20
102.6797733405
 10
151.7396838215
 20
102.6689933168
 10
151.735769991
 20
102.6588193976
 10
151.7312791559
 20
102.6492515829
 10
151.7261877253
 20
102.640253883
 10
151.7205192901
 20
102.6318622876
 10
151.7143446221
 20
102.6241847652
 10
151.7076764688
 20
102.6172468053
 10
151.7005020828
 20
102.6110229185
 10
151.6928539942
 20
102.6055446052
 10
151.6872799141
 20
102.6021904804
  0
LWPOLYLINE
  5
253
100
AcDbEntity
  8
ASSI
100
AcDbPolyline
 62
7
  6
CONTINUOUS
 90
6
 70
0
 10
151.806211448
 20
102.8366312934
 10
151.798165974
 20
102.822224882
 10
151.7820569324
 20
102.7890088113
 10
151.7675104545
 20
102.7542203353
 10
151.7544983595
 20
102.7178085117
 10
151.7430206472
 20
102.6797733405
  0
LWPOLYLINE
  5
254
100
AcDbEntity
  8
ASSI
100
AcDbPolyline
 62
7
  6
CONTINUOUS
 90
3
 70
0
 10
153.0531114104
 20
100.5895594501
 10
153.0898877135
 20
100.5869709134
 10
153.1052481999
 20
100.586785599
  0
LWPOLYLINE
  5
255
100
AcDbEntity
  8
ASSI
100
AcDbPolyline
 62
250
  6
CONTINUOUS
 90
22
 70
0
 10
151.0382018354
 20
101.7927353524
 10
151.0487214247
 20
101.7903470261
 10
151.0599651667
 20
101.7884243927
 10
151.0718708604
 20
101.7869780881
 10
151.084372643
 20
101.7860161134
 10
151.097401354
 20
101.7855437903
 10
151.110884918
 20
101.7855637318
 10
151.1247487434
 20
101.7860758275
 10
151.1389161348
 20
101.7870772444
 10
151.1533087177
 20
101.7885624427
 10
151.1678468715
 20
101.7905232062
 10
151.1824501705
 20
101.7929486878
 10
151.1970378287
 20
101.7958254698
 10
151.2115291465
 20
101.7991376375
 10
151.2258439572
 20
101.802866868
 10
151.2399030706
 20
101.806992531
 10
151.2536287111
 20
101.8114918031
 10
151.2669449479
 20
101.8163397941
 10
151.2797781149
 20
101.8215096848
 10
151.2920572185
 20
101.8269728751
 10
151.30371433
 20
101.8326991423
 10
151.3146849619
 20
101.8386568085
  0
LWPOLYLINE
  5
256
100
AcDbEntity
  8
ASSI
100
AcDbPolyline
 62
250
  6
CONTINUOUS
 90
11
 70
0
 10
153.192100404
 20
101.2373968015
 10
153.1823584832
 20
101.2402341439
 10
153.1734528058
 20
101.2435067465
 10
153.1654326384
 20
101.2471965053
 10
153.1583423489
 20
101.2512830082
 10
153.1522211612
 20
101.2557436487
 10
153.1471029379
 20
101.2605537501
 10
153.1430159932
 20
101.2656867029
 10
153.1399829364
 20
101.2711141112
 10
153.1380205465
 20
101.2768059505
 10
153.1377744083
 20
101.2778882242
  0
LWPOLYLINE
  5
257
100
AcDbEntity
  8
ASSI
100
AcDbPolyline
 62
7
  6
CONTINUOUS
 90
10
 70
0
 10
151.0114632527
 20
102.368777665
 10
151.0402321295
 20
102.3542518092
 10
151.071099022
 20
102.3429731718
 10
151.1024225986
 20
102.3357329809
 10
151.1336455761
 20
102.3325440297
 10
151.1644301314
 20
102.3333066105
 10
151.1945546837
 20
102.3379288119
 10
151.2234583855
 20
102.3462470319
 10
151.2507040648
 20
102.3580136346
 10
151.2586472363
 20
102.3622552372
  0
LWPOLYLINE
  5
258
100
AcDbEntity
  8
ASSI
100
AcDbPolyline
 62
7
  6
CONTINUOUS
 90
13
 70
0
 10
159.6229425035
 20
97.3966170211
 10
159.6662313814
 20
97.3743432864
 10
159.7162181425
 20
97.3543841403
 10
159.768254667
 20
97.3389323543
 10
159.822010544
 20
97.3278154843
 10
159.8770260819
 20
97.320985715
 10
159.9325251849
 20
97.3184486385
 10
159.9880508611
 20
97.3201829811
 10
160.04314749
 20
97.3262156102
 10
160.0970406868
 20
97.336551366
 10
160.1492724642
 20
97.3512439059
 10
160.1995169406
 20
97.3704702408
 10
160.2396552124
 20
97.3902007677
  0
LWPOLYLINE
  5
259
100
AcDbEntity
  8
ASSI
100
AcDbPolyline
 62
250
  6
CONTINUOUS
 90
16
 70
0
 10
153.4003962521
 20
100.8139728533
 10
153.3888546575
 20
100.8202201208
 10
153.377350864
 20
100.8257315568
 10
153.3659187241
 20
100.8304910593
 10
153.3545921774
 20
100.8344846787
 10
153.343404225
 20
100.8377008577
 10
153.332386868
 20
100.840130286
 10
153.3215719762
 20
100.8417657948
 10
153.310991971
 20
100.8426023541
 10
153.3006787593
 20
100.8426373846
 10
153.2906630131
 20
100.8418709196
 10
153.2809737349
 20
100.8403053382
 10
153.2716389796
 20
100.8379452076
 10
153.2626861358
 20
100.83479744
 10
153.2541415433
 20
100.8308712917
 10
153.2494950555
 20
100.8283079712
  0
LWPOLYLINE
  5
25A
100
AcDbEntity
  8
ASSI
100
AcDbPolyline
 62
250
  6
CONTINUOUS
 90
25
 70
0
 10
153.2602090486
 20
100.5696289818
 10
153.2563619102
 20
100.5717277804
 10
153.2525480116
 20
100.5735712949
 10
153.2487673533
 20
100.5751595256
 10
153.2450089848
 20
100.5764957013
 10
153.2412838588
 20
100.5775765945
 10
153.237624831
 20
100.5783925215
 10
153.2340324849
 20
100.5789411465
 10
153.2305062411
 20
100.5792248076
 10
153.2270772108
 20
100.5792408328
 10
153.2237463377
 20
100.578986853
 10
153.2205126837
 20
100.5784652404
 10
153.217404537
 20
100.5776804351
 10
153.2144228854
 20
100.5766300723
 10
153.2115667476
 20
100.5753165207
 10
153.2088614578
 20
100.5737513205
 10
153.2063083912
 20
100.5719321478
 10
153.2039061793
 20
100.5698613305
 10
153.2016760394
 20
100.5675573856
 10
153.1996195234
 20
100.5650181106
 10
153.1977350858
 20
100.5622457117
 10
153.1960392959
 20
100.5592653183
 10
153.1945376784
 20
100.5560853078
 10
153.1932247135
 20
100.5526973057
 10
153.1921004039
 20
100.5491013135
  0
LWPOLYLINE
  5
25B
100
AcDbEntity
  8
ASSI
100
AcDbPolyline
 62
250
  6
CONTINUOUS
 90
25
 70
0
 10
150.9700133384
 20
102.4604570664
 10
150.9738606246
 20
102.4583583532
 10
150.9776749565
 20
102.4565150888
 10
150.9814563345
 20
102.4549272736
 10
150.9852157146
 20
102.453591682
 10
150.9889421431
 20
102.4525115408
 10
150.9926027559
 20
102.451696529
 10
150.9961969758
 20
102.451148986
 10
150.9997253842
 20
102.4508665747
 10
151.003156856
 20
102.4508519591
 10
151.0064904549
 20
102.4511075128
 10
151.0097271227
 20
102.4516308655
 10
151.0128385511
 20
102.4524175655
 10
151.0158237608
 20
102.4534699828
 10
151.0186837377
 20
102.454785751
 10
151.0213931203
 20
102.4563533144
 10
151.023950542
 20
102.4581750016
 10
151.0263573762
 20
102.4602484879
 10
151.0285923712
 20
102.462555236
 10
151.0306539827
 20
102.4650974531
 10
151.0325437612
 20
102.4678729358
 10
151.0342450947
 20
102.47085653
 10
151.0357524474
 20
102.4740398519
 10
151.03707136
 20
102.4774312882
 10
151.0382018352
 20
102.4810308403
  0
LWPOLYLINE
  5
25C
100
AcDbEntity
  8
ASSI
100
AcDbPolyline
 62
250
  6
CONTINUOUS
 90
7
 70
0
 10
159.5815529126
 20
97.4882620529
 10
159.6003270569
 20
97.4779655415
 10
159.6199975395
 20
97.4682385675
 10
159.6405114615
 20
97.4591070745
 10
159.6618127082
 20
97.450595693
 10
159.6838449505
 20
97.4427267011
 10
159.7065521141
 20
97.4355202592
  0
LINE
  5
25D
100
AcDbEntity
  8
ASSI
100
AcDbLine
 62
250
  6
CONTINUOUS
 10
159.5815529108
 20
96.9197642601
 11
153.2602090486
 21
100.5696289818
  0
LINE
  5
25E
100
AcDbEntity
  8
ASSI
100
AcDbLine
 62
250
  6
CONTINUOUS
 10
150.9700133384
 20
101.891959282
 11
144.6486694763
 21
105.5418240022
  0
LINE
  5
25F
100
AcDbEntity
  8
ASSI
100
AcDbLine
 62
250
  6
CONTINUOUS
 10
159.721751763
 20
97.1641014075
 11
153.4003962521
 21
100.8139728533
  0
LINE
  5
260
100
AcDbEntity
  8
ASSI
100
AcDbLine
 62
250
  6
CONTINUOUS
 10
151.1102005418
 20
102.1363031535
 11
144.7888450326
 21
105.7861746003
  0
LINE
  5
261
100
AcDbEntity
  8
ASSI
100
AcDbLine
 62
7
  6
CONTINUOUS
 10
144.6900743182
 20
106.0186674211
 11
151.0114298277
 21
102.3687959752
  0
LINE
  5
262
100
AcDbEntity
  8
ASSI
100
AcDbLine
 62
7
  6
CONTINUOUS
 10
153.3016255386
 20
101.0464656746
 11
159.6229810494
 21
97.3965942278
  0
LINE
  5
263
100
AcDbEntity
  8
ASSI
100
AcDbLine
 62
250
  6
CONTINUOUS
 10
144.6486694762
 20
106.1103217881
 11
150.9700133384
 21
102.4604570664
  0
LINE
  5
264
100
AcDbEntity
  8
ASSI
100
AcDbLine
 62
250
  6
CONTINUOUS
 10
153.2602090486
 20
101.1381267662
 11
159.5815529107
 21
97.488262046
  0
LINE
  5
265
100
AcDbEntity
  8
ASSI
100
AcDbLine
 62
7
  6
CONTINUOUS
 10
151.5384414699
 20
102.3845846298
 11
151.4203510489
 21
102.4527685588
  0
LWPOLYLINE
  5
266
100
AcDbEntity
  8
ASSI
100
AcDbPolyline
 62
250
  6
CONTINUOUS
 90
17
 70
0
 10
144.6486694783
 20
105.5418239975
 10
144.6308420516
 20
105.5526671318
 10
144.6140113545
 20
105.5640337623
 10
144.5982223125
 20
105.5758933418
 10
144.5835176787
 20
105.5882135249
 10
144.5699359179
 20
105.6009617189
 10
144.5575116139
 20
105.6141053551
 10
144.5462775232
 20
105.6276104188
 10
144.5362649829
 20
105.6414398659
 10
144.5275018169
 20
105.6555552221
 10
144.5200117127
 20
105.6699182347
 10
144.5138143254
 20
105.6844910099
 10
144.5089260914
 20
105.6992345746
 10
144.5053601143
 20
105.7141097611
 10
144.5031260471
 20
105.7290766629
 10
144.5022299134
 20
105.7440946984
 10
144.5022110413
 20
105.7463776914
  0
LWPOLYLINE
  5
267
100
AcDbEntity
  8
ASSI
100
AcDbPolyline
 62
7
  6
CONTINUOUS
 90
24
 70
0
 10
151.5384414699
 20
102.3845846298
 10
151.5499369925
 20
102.3775904612
 10
151.5613580428
 20
102.3699240417
 10
151.5727046206
 20
102.3615853711
 10
151.5840252661
 20
102.3525329644
 10
151.5952714391
 20
102.3428083068
 10
151.6062975194
 20
102.3325358531
 10
151.6170712919
 20
102.3217401281
 10
151.6276249717
 20
102.310396607
 10
151.6379095842
 20
102.2985561704
 10
151.6479463936
 20
102.2861893286
 10
151.6577141358
 20
102.2733255714
 10
151.6671000436
 20
102.2601042482
 10
151.6760971509
 20
102.246518805
 10
151.6847124238
 20
102.2325757959
 10
151.6928539942
 20
102.2184342331
 10
151.7005020828
 20
102.2041240988
 10
151.7076764688
 20
102.1896154109
 10
151.7143446221
 20
102.1749772347
 10
151.7205192901
 20
102.1601693605
 10
151.7261877253
 20
102.1452319981
 10
151.7312791559
 20
102.1303548419
 10
151.735769991
 20
102.1156011233
 10
151.7396838215
 20
102.1009076108
  0
LWPOLYLINE
  5
268
100
AcDbEntity
  8
ASSI
100
AcDbPolyline
 62
250
  6
CONTINUOUS
 90
18
 70
0
 10
144.7888450326
 20
105.7861746003
 10
144.7781151764
 20
105.7927072739
 10
144.7680318955
 20
105.7995198164
 10
144.7585951899
 20
105.806612228
 10
144.749782764
 20
105.8140051661
 10
144.7416169134
 20
105.8216779732
 10
144.7341645255
 20
105.8295686767
 10
144.727431594
 20
105.8376790237
 10
144.7214121253
 20
105.8460072669
 10
144.7161550261
 20
105.8544861922
 10
144.711666668
 20
105.8631167674
 10
144.7079406795
 20
105.8718980246
 10
144.7050068528
 20
105.8807598451
 10
144.7028715028
 20
105.8897030144
 10
144.7015283148
 20
105.8987267471
 10
144.7009881364
 20
105.9077585679
 10
144.7012574802
 20
105.9167985142
 10
144.7023298338
 20
105.9258465484
  0
LWPOLYLINE
  5
269
100
AcDbEntity
  8
ASSI
100
AcDbPolyline
 62
250
  6
CONTINUOUS
 90
22
 70
0
 10
151.0382018947
 20
102.4810308746
 10
151.0487214951
 20
102.472169399
 10
151.0599652552
 20
102.4638079035
 10
151.0718709736
 20
102.4559926445
 10
151.084372787
 20
102.4487668567
 10
151.0974015343
 20
102.4421705137
 10
151.1108851396
 20
102.436240107
 10
151.1247490106
 20
102.431008444
 10
151.1389164512
 20
102.4265044667
 10
151.153309086
 20
102.4227530913
 10
151.167847294
 20
102.4197750709
 10
151.1824506487
 20
102.4175868801
 10
151.1970383631
 20
102.416200624
 10
151.211529737
 20
102.4156239717
 10
151.2258446029
 20
102.415860113
 10
151.2399037699
 20
102.4169077418
 10
151.2536294617
 20
102.4187610624
 10
151.2669457466
 20
102.4214098221
 10
151.279778958
 20
102.4248393678
 10
151.2920581015
 20
102.429030727
 10
151.303715248
 20
102.4339607127
 10
151.3146859093
 20
102.4396020519
  0
LWPOLYLINE
  5
26A
100
AcDbEntity
  8
ASSI
100
AcDbPolyline
 62
250
  6
CONTINUOUS
 90
14
 70
0
 10
153.1921004634
 20
100.5491013479
 10
153.1823584417
 20
100.5584117877
 10
153.1734526649
 20
100.5681232055
 10
153.1654324005
 20
100.5781818769
 10
153.1583420173
 20
100.5885321566
 10
153.1522207397
 20
100.599116786
 10
153.1471024312
 20
100.6098772103
 10
153.1430154066
 20
100.6207539019
 10
153.1399822756
 20
100.63168669
 10
153.1380198178
 20
100.6426150938
 10
153.1371388896
 20
100.6534786564
 10
153.1373443645
 20
100.6642172798
 10
153.1386351056
 20
100.6747715571
 10
153.1407887812
 20
100.6843180443
  0
LWPOLYLINE
  5
26B
100
AcDbEntity
  8
ASSI
100
AcDbPolyline
 62
7
  6
CONTINUOUS
 90
17
 70
0
 10
153.0960526636
 20
101.4407841723
 10
153.0865877501
 20
101.4519663379
 10
153.0409606941
 20
101.5085078669
 10
152.9964396122
 20
101.5663672245
 10
152.9530294307
 20
101.6255502797
 10
152.9107252235
 20
101.6860511635
 10
152.8697151256
 20
101.7476008057
 10
152.8300049013
 20
101.8102038766
 10
152.7915887864
 20
101.8738557058
 10
152.7546376237
 20
101.9382732117
 10
152.719157938
 20
102.0034598037
 10
152.6851432045
 20
102.0694120724
 10
152.6527446908
 20
102.135836707
 10
152.6219695955
 20
102.2027358109
 10
152.59281072
 20
102.2701072807
 10
152.5653977359
 20
102.3376514959
 10
152.5401583496
 20
102.4042609838
  0
LWPOLYLINE
  5
26C
100
AcDbEntity
  8
ASSI
100
AcDbPolyline
 62
7
  6
CONTINUOUS
 90
14
 70
0
 10
152.5761162896
 20
102.3658686183
 10
152.5891717897
 20
102.3343030566
 10
152.6234724025
 20
102.2563214056
 10
152.6596705013
 20
102.1787276137
 10
152.6977417703
 20
102.101555176
 10
152.7374980972
 20
102.0251843452
 10
152.7789247905
 20
101.9496583843
 10
152.8220365417
 20
101.8749340303
 10
152.8666893132
 20
101.8012617468
 10
152.912916757
 20
101.7286028203
 10
152.9606852211
 20
101.6569959643
 10
153.0097497115
 20
101.5868077822
 10
153.0600832189
 20
101.5180890637
 10
153.0792888508
 20
101.49305417
  0
LWPOLYLINE
  5
26D
100
AcDbEntity
  8
ASSI
100
AcDbPolyline
 62
7
  6
CONTINUOUS
 90
10
 70
0
 10
153.13776169
 20
101.2779535116
 10
153.1455439132
 20
101.2477846936
 10
153.1574786953
 20
101.2147898597
 10
153.1730823868
 20
101.182070156
 10
153.1922893409
 20
101.1502957496
 10
153.2140236028
 20
101.1212848489
 10
153.2381260486
 20
101.0950578618
 10
153.2648312871
 20
101.0714876372
 10
153.2929478441
 20
101.051676758
 10
153.3015943498
 20
101.0464846696
  0
LINE
  5
26E
100
AcDbEntity
  8
ASSI
100
AcDbLine
 62
250
  6
CONTINUOUS
 10
153.1644499879
 20
101.3533816074
 11
153.1791735409
 21
101.2951805846
  0
LWPOLYLINE
  5
26F
100
AcDbEntity
  8
ASSI
100
AcDbPolyline
 62
7
  6
CONTINUOUS
 90
42
 70
0
 10
151.7396838215
 20
102.1009076108
 10
151.7544983595
 20
102.0349849587
 10
151.7675104545
 20
101.9835470939
 10
151.7820569324
 20
101.93196071
 10
151.798165974
 20
101.8801423217
 10
151.8158093985
 20
101.8281754143
 10
151.8349026624
 20
101.7763104435
 10
151.8554588332
 20
101.7245345755
 10
151.8774648435
 20
101.6728606441
 10
151.9007969481
 20
101.6215776061
 10
151.9254520399
 20
101.5707071652
 10
151.951433226
 20
101.5202276177
 10
151.9786260836
 20
101.4703628101
 10
152.0070521408
 20
101.4210897883
 10
152.0366898695
 20
101.3724315063
 10
152.067360262
 20
101.324680673
 10
152.0990472205
 20
101.2778733577
 10
152.1317668429
 20
101.231973491
 10
152.165388415
 20
101.1871655743
 10
152.1999442357
 20
101.1434200962
 10
152.235402006
 20
101.100766568
 10
152.2715341151
 20
101.0594780248
 10
152.3083104182
 20
101.0195982085
 10
152.34576106
 20
100.9810833773
 10
152.3837488636
 20
100.9440753399
 10
152.4223152426
 20
100.9085456615
 10
152.4614187834
 20
100.874522777
 10
152.500798068
 20
100.8422337998
 10
152.5404122049
 20
100.811720966
 10
152.5803020857
 20
100.7829420394
 10
152.6203289662
 20
100.7559974255
 10
152.6605379317
 20
100.7308678581
 10
152.7008838969
 20
100.7075726034
 10
152.7410928624
 20
100.6862698653
 10
152.7811197429
 20
100.6669924409
 10
152.8210096237
 20
100.6497075331
 10
152.8606237606
 20
100.6344749546
 10
152.9000030452
 20
100.621289721
 10
152.939106586
 20
100.6101568167
 10
152.977672965
 20
100.6011510073
 10
153.0156607686
 20
100.5942916813
 10
153.0531114104
 20
100.5895594501
  0
LWPOLYLINE
  5
270
100
AcDbEntity
  8
ASSI
100
AcDbPolyline
 62
250
  6
CONTINUOUS
 90
12
 70
0
 10
153.2602090486
 20
101.1381267662
 10
153.2605931392
 20
101.1262075131
 10
153.261757927
 20
101.1148056008
 10
153.2636969644
 20
101.1039841434
 10
153.2663995182
 20
101.0938030421
 10
153.2698506286
 20
101.0843186533
 10
153.2740311923
 20
101.0755834768
 10
153.2789180683
 20
101.0676458652
 10
153.2844842058
 20
101.0605497566
 10
153.2906987939
 20
101.0543344306
 10
153.2975274325
 20
101.0490342915
 10
153.3015939275
 20
101.046483938
  0
LWPOLYLINE
  5
271
100
AcDbEntity
  8
ASSI
100
AcDbPolyline
 62
250
  6
CONTINUOUS
 90
22
 70
0
 10
153.2602090486
 20
100.5696289818
 10
153.2605931363
 20
100.5819917249
 10
153.2617579159
 20
100.5947386594
 10
153.2636969409
 20
100.6077992266
 10
153.2663994789
 20
100.6211011321
 10
153.2698505714
 20
100.6345707449
 10
153.2740311161
 20
100.6481335062
 10
153.2789179731
 20
100.661714341
 10
153.2844840926
 20
100.675238074
 10
153.2906986647
 20
100.6886298459
 10
153.29752729
 20
100.701815528
 10
153.3049321702
 20
100.7147221317
 10
153.3128723166
 20
100.7272782132
 10
153.3213037779
 20
100.739414269
 10
153.3301798829
 20
100.7510631207
 10
153.3394514989
 20
100.7621602859
 10
153.3490673038
 20
100.7726443366
 10
153.3589740705
 20
100.7824572386
 10
153.3691169603
 20
100.7915446722
 10
153.379439828
 20
100.7998563336
 10
153.3898855324
 20
100.8073462141
 10
153.4003962522
 20
100.8139728533
  0
LWPOLYLINE
  5
272
100
AcDbEntity
  8
ASSI
100
AcDbPolyline
 62
7
  6
CONTINUOUS
 90
8
 70
0
 10
153.1407887812
 20
100.6843180443
 10
153.1333179132
 20
100.6591371833
 10
153.1081104878
 20
100.5922926231
 10
153.0776450435
 20
100.5336772964
 10
153.0427952538
 20
100.4840451401
 10
153.0039065605
 20
100.4430124488
 10
152.9600683941
 20
100.4095149519
 10
152.9495539129
 20
100.4030685188
  0
LWPOLYLINE
  5
273
100
AcDbEntity
  8
ASSI
100
AcDbPolyline
 62
250
  6
CONTINUOUS
 90
64
 70
0
 10
153.1921004039
 20
100.5491013135
 10
153.1791809283
 20
100.5063572399
 10
153.1644655109
 20
100.4652786742
 10
153.1479539549
 20
100.4258655032
 10
153.1296158733
 20
100.3880157432
 10
153.1094812913
 20
100.3518311698
 10
153.0876405244
 20
100.317617248
 10
153.0640710456
 20
100.2853969455
 10
153.0387948003
 20
100.2551469589
 10
153.0119686199
 20
100.2271032335
 10
152.9835767359
 20
100.2012945762
 10
152.9536341977
 20
100.1776917644
 10
152.9223439169
 20
100.1564436135
 10
152.8897159383
 20
100.1375800001
 10
152.8557394371
 20
100.1210705961
 10
152.8205859384
 20
100.1069738622
 10
152.7842604547
 20
100.0952980949
 10
152.7467572299
 20
100.0860345669
 10
152.7082316046
 20
100.0792161853
 10
152.6686681847
 20
100.0748480822
 10
152.6280816976
 20
100.0729247388
 10
152.5866726532
 20
100.0734630784
 10
152.5444282745
 20
100.076477571
 10
152.5013607691
 20
100.0819534162
 10
152.4577081262
 20
100.089863633
 10
152.4134713413
 20
100.1002222097
 10
152.3686489821
 20
100.1130149044
 10
152.3234754191
 20
100.1281724041
 10
152.2779518423
 20
100.145705651
 10
152.2320767889
 20
100.1656035443
 10
152.1860806877
 20
100.187763728
 10
152.1399635405
 20
100.2121964097
 10
152.0937252529
 20
100.238891328
 10
152.0475961548
 20
100.2677154493
 10
152.0015762369
 20
100.2986790674
 10
151.9556656011
 20
100.3317719423
 10
151.910094789
 20
100.3668302667
 10
151.8648625896
 20
100.4038665996
 10
151.8199704866
 20
100.4428685404
 10
151.7756531023
 20
100.4836348647
 10
151.7319091427
 20
100.5261814151
 10
151.6887403386
 20
100.5704926026
 10
151.6463858716
 20
100.6163200683
 10
151.6048581376
 20
100.6636647149
 10
151.5641453102
 20
100.7125259702
 10
151.5244502406
 20
100.7626532648
 10
151.4857885998
 20
100.814034568
 10
151.4481453833
 20
100.866682297
 10
151.4116774159
 20
100.9203825469
 10
151.3763802446
 20
100.975149168
 10
151.342259065
 20
101.0309687404
 10
151.3094851426
 20
101.0875864353
 10
151.2780480871
 20
101.1450444083
 10
151.2479590689
 20
101.2033009554
 10
151.2194216133
 20
101.2619754116
 10
151.1924507119
 20
101.3210803467
 10
151.1670320942
 20
101.3806036077
 10
151.1433252466
 20
101.4401273614
 10
151.1213524527
 20
101.499650088
 10
151.1010920132
 20
101.5591736444
 10
151.0826372468
 20
101.6182851492
 10
151.0660193404
 20
101.6768470215
 10
151.0512074706
 20
101.7349970514
 10
151.0382018352
 20
101.7927353523
  0
LINE
  5
274
100
AcDbEntity
  8
ASSI
100
AcDbLine
 62
7
  6
CONTINUOUS
 10
151.7637638073
 20
102.7437360699
 11
151.8899897685
 21
102.8233235823
  0
LWPOLYLINE
  5
275
100
AcDbEntity
  8
ASSI
100
AcDbPolyline
 62
250
  6
CONTINUOUS
 90
11
 70
0
 10
151.2587525646
 20
102.3623137347
 10
151.2640065806
 20
102.3654691574
 10
151.2716974105
 20
102.3709366482
 10
151.2789178241
 20
102.3771468427
 10
151.2856460897
 20
102.3840810045
 10
151.2918623129
 20
102.3917184218
 10
151.2975484771
 20
102.4000367243
 10
151.3026880381
 20
102.4090114116
 10
151.3072659809
 20
102.4186160204
 10
151.3112688593
 20
102.4288222075
 10
151.3146849517
 20
102.4395998851
  0
LINE
  5
276
100
AcDbEntity
  8
ASSI
100
AcDbLine
 62
250
  6
CONTINUOUS
 10
151.5384414699
 20
102.3845846298
 11
151.1102005418
 21
102.1363031535
  0
LINE
  5
277
100
AcDbEntity
  8
ASSI
100
AcDbLine
 62
250
  6
CONTINUOUS
 10
151.7430206472
 20
102.0862743044
 11
151.3146849054
 21
101.8386600769
  0
LINE
  5
278
100
AcDbEntity
  8
ASSI
100
AcDbLine
 62
7
  6
CONTINUOUS
 10
151.5687856859
 20
102.7933780811
 11
151.5702243788
 21
102.7941917767
  0
LINE
  5
279
100
AcDbEntity
  8
ASSI
100
AcDbLine
 62
250
  6
CONTINUOUS
 10
151.3146849614
 20
102.4395998906
 11
151.7430206472
 21
102.6797733405
  0
LINE
  5
27A
100
AcDbEntity
  8
ASSI
100
AcDbLine
 62
7
  6
CONTINUOUS
 10
151.2587525656
 20
102.3623137352
 11
151.6872835358
 21
102.6021841382
  0
LWPOLYLINE
  5
27B
100
AcDbEntity
  8
ASSI
100
AcDbPolyline
 62
7
  6
CONTINUOUS
 90
26
 70
0
 10
151.568774527
 20
102.7933711519
 10
151.5855570072
 20
102.8023025336
 10
151.6405485236
 20
102.8238146949
 10
151.7005758979
 20
102.8363588936
 10
151.7667072972
 20
102.8399235691
 10
151.8391189008
 20
102.8338887865
 10
151.9163038425
 20
102.8178584984
 10
151.9962991763
 20
102.7921095159
 10
152.0772359617
 20
102.7574623583
 10
152.1586944201
 20
102.7143889621
 10
152.241123176
 20
102.6626956502
 10
152.324006655
 20
102.6025421968
 10
152.4062255823
 20
102.5346148842
 10
152.487625559
 20
102.4589012311
 10
152.5677275034
 20
102.375585839
 10
152.645484074
 20
102.2855158657
 10
152.7199931811
 20
102.1895972764
 10
152.7905907835
 20
102.0885997428
 10
152.8566606219
 20
101.9833414127
 10
152.9175125144
 20
101.8749180121
 10
152.9726607033
 20
101.7642562748
 10
153.0216919345
 20
101.652283591
 10
153.0641794774
 20
101.5401655836
 10
153.0998552768
 20
101.428927527
 10
153.1285813367
 20
101.3194246538
 10
153.1377744083
 20
101.2778882242
  0
LWPOLYLINE
  5
27C
100
AcDbEntity
  8
ASSI
100
AcDbPolyline
 62
250
  6
CONTINUOUS
 90
25
 70
0
 10
153.1921004039
 20
101.2373968015
 10
153.1932247135
 20
101.2324953648
 10
153.1945376784
 20
101.2275843155
 10
153.1960392959
 20
101.2226636519
 10
153.1977350858
 20
101.2177186012
 10
153.1996195234
 20
101.2127639334
 10
153.2016760394
 20
101.2078439611
 10
153.2039061793
 20
101.2029591001
 10
153.2063083912
 20
101.1981089309
 10
153.2088614578
 20
101.1933365118
 10
153.2115667476
 20
101.1886425844
 10
153.2144228854
 20
101.1840264032
 10
153.2174045369
 20
101.179528795
 10
153.2205126837
 20
101.1751509903
 10
153.2237463377
 20
101.1708917548
 10
153.2270772108
 20
101.1667882185
 10
153.2305062411
 20
101.1628416661
 10
153.2340324849
 20
101.1590508097
 10
153.2376248309
 20
101.1554489196
 10
153.2412838588
 20
101.1520376627
 10
153.2450089848
 20
101.1488153697
 10
153.2487673533
 20
101.1458103074
 10
153.2525480116
 20
101.1430318977
 10
153.2563619102
 20
101.1404707173
 10
153.2602090486
 20
101.1381267662
  0
LINE
  5
27D
100
AcDbEntity
  8
ASSI
100
AcDbLine
 62
250
  6
CONTINUOUS
 10
153.1791735409
 20
101.2951805846
 11
153.1921004039
 21
101.2373968015
  0
LINE
  5
27E
100
AcDbEntity
  8
ASSI
100
AcDbLine
 62
7
  6
CONTINUOUS
 10
153.1377744083
 20
101.2778882242
 11
153.1377608879
 21
101.2779533438
  0
LWPOLYLINE
  5
27F
100
AcDbEntity
  8
ASSI
100
AcDbPolyline
 62
7
  6
CONTINUOUS
 90
8
 70
0
 10
153.249489258
 20
100.8283043301
 10
153.2435216447
 20
100.8246517552
 10
153.2187405266
 20
100.8065832199
 10
153.1962844563
 20
100.7851665744
 10
153.1766436656
 20
100.7607374147
 10
153.1601961278
 20
100.7336669776
 10
153.1472337026
 20
100.7043456207
 10
153.1409882778
 20
100.6850242306
  0
LINE
  5
280
100
AcDbEntity
  8
ASSI
100
AcDbLine
 62
7
  6
CONTINUOUS
 10
153.4611996405
 20
100.9543295881
 11
153.2489646311
 21
100.8279944534
  0
LINE
  5
281
100
AcDbEntity
  8
ASSI
100
AcDbLine
 62
250
  6
CONTINUOUS
 10
153.4003962521
 20
100.8139728533
 11
153.5500274892
 21
100.9030415015
  0
LINE
  5
282
100
AcDbEntity
  8
ASSI
100
AcDbLine
 62
7
  6
CONTINUOUS
 10
152.95048349
 20
100.4036166379
 11
152.9495419752
 21
100.4030610347
  0
LWPOLYLINE
  5
283
100
AcDbEntity
  8
ASSI
100
AcDbPolyline
 62
250
  6
CONTINUOUS
 90
52
 70
0
 10
152.9495419752
 20
100.4030610347
 10
152.9319479068
 20
100.3932218067
 10
152.9023170859
 20
100.3788338086
 10
152.8716020699
 20
100.3665375688
 10
152.8398646813
 20
100.3563515013
 10
152.8071550436
 20
100.3482855937
 10
152.7734947123
 20
100.3423431559
 10
152.7389294529
 20
100.3385353733
 10
152.70352798
 20
100.3368728925
 10
152.6673454773
 20
100.3373599043
 10
152.6304362585
 20
100.3399987422
 10
152.5928692862
 20
100.3447875865
 10
152.554724316
 20
100.3517166168
 10
152.516071106
 20
100.360772432
 10
152.4769717716
 20
100.3719399232
 10
152.4374968148
 20
100.3851977246
 10
152.3977165369
 20
100.4005209956
 10
152.3576965939
 20
100.4178834365
 10
152.3175012801
 20
100.4372561404
 10
152.2771996911
 20
100.4586052702
 10
152.2368603431
 20
100.481894246
 10
152.1965468238
 20
100.507086345
 10
152.1563274663
 20
100.5341391091
 10
152.1162715444
 20
100.5630064686
 10
152.0764438939
 20
100.5936427928
 10
152.0369100092
 20
100.6259986467
 10
151.9977403485
 20
100.6600176198
 10
151.9590064487
 20
100.6956392157
 10
151.9207700815
 20
100.7328071335
 10
151.8831013873
 20
100.7714540159
 10
151.8460822619
 20
100.8114963857
 10
151.8097812395
 20
100.8528569107
 10
151.7742531307
 20
100.8954701429
 10
151.739556585
 20
100.9392655381
 10
151.7057603868
 20
100.9841528433
 10
151.67291014
 20
101.0300681435
 10
151.641030407
 20
101.0769810452
 10
151.610171719
 20
101.1248227152
 10
151.5803952396
 20
101.1735041514
 10
151.5517435409
 20
101.2229659752
 10
151.5242528204
 20
101.2731572432
 10
151.4979928174
 20
101.3239626937
 10
151.4730496913
 20
101.375222713
 10
151.4494619545
 20
101.426855615
 10
151.4272723076
 20
101.4787649711
 10
151.40655616
 20
101.5307647104
 10
151.3873398732
 20
101.5827638791
 10
151.3696461185
 20
101.6346738867
 10
151.353524372
 20
101.6863124015
 10
151.3389922993
 20
101.7375623387
 10
151.3260449141
 20
101.788371849
 10
151.3146849054
 20
101.8386600769
  0
LINE
  5
284
100
AcDbEntity
  8
ASSI
100
AcDbLine
 62
7
  6
CONTINUOUS
 10
163.8007240927
 20
99.3405009584
 11
163.8883533953
 21
99.2899048974
  0
LINE
  5
285
100
AcDbEntity
  8
ASSI
100
AcDbLine
 62
250
  6
CONTINUOUS
 10
157.8017655879
 20
119.8091319319
 11
157.8017655879
 21
119.7465281486
  0
LWPOLYLINE
  5
286
100
AcDbEntity
  8
ASSI
100
AcDbPolyline
 62
250
  6
CONTINUOUS
 90
37
 70
0
 10
160.5863784022
 20
80.5980842311
 10
160.5882072523
 20
80.5655887532
 10
160.5912299287
 20
80.5339794647
 10
160.5954464317
 20
80.5032563657
 10
160.6008678347
 20
80.4733697158
 10
160.6074830642
 20
80.4443692552
 10
160.6152588992
 20
80.416404205
 10
160.6242012968
 20
80.3894805075
 10
160.6343042999
 20
80.3635922202
 10
160.6455168169
 20
80.3388707365
 10
160.6578443347
 20
80.3153223746
 10
160.6712813663
 20
80.2929408163
 10
160.6857603596
 20
80.2718385011
 10
160.7012865305
 20
80.2520218043
 10
160.7178546632
 20
80.2334843505
 10
160.7353815579
 20
80.216319453
 10
160.7538721826
 20
80.2005339223
 10
160.7733215693
 20
80.1861209479
 10
160.793631614
 20
80.1731534116
 10
160.8148067092
 20
80.1616386645
 10
160.8368424624
 20
80.1515693554
 10
160.859627592
 20
80.1429963137
 10
160.8831657284
 20
80.1359271535
 10
160.9074532411
 20
80.1303542606
 10
160.9323679573
 20
80.1263056211
 10
160.9579129961
 20
80.1237888662
 10
160.9840852383
 20
80.1227963647
 10
161.0107531537
 20
80.1233332089
 10
161.0379196743
 20
80.1254072219
 10
161.065581868
 20
80.1290105807
 10
161.0935994092
 20
80.1341249085
 10
161.1219744201
 20
80.1407581536
 10
161.1507047784
 20
80.1489023679
 10
161.179643791
 20
80.15851533
 10
161.2087425602
 20
80.1695829664
 10
161.2380499837
 20
80.1821193507
 10
161.2675660616
 20
80.1961244829
  0
LWPOLYLINE
  5
287
100
AcDbEntity
  8
ASSI
100
AcDbPolyline
 62
250
  6
CONTINUOUS
 90
19
 70
0
 10
159.8857943147
 20
80.5850162793
 10
159.8885064618
 20
80.5363921675
 10
159.8930186599
 20
80.4889524783
 10
159.8993234482
 20
80.4427770576
 10
159.9074105241
 20
80.3979437284
 10
159.9172663168
 20
80.3545277791
 10
159.9288741006
 20
80.312601914
 10
159.9422150201
 20
80.2722359945
 10
159.9572667175
 20
80.2334987185
 10
159.9740027999
 20
80.1964569913
 10
159.9923951677
 20
80.1611734224
 10
160.0124133136
 20
80.1277066391
 10
160.0340229942
 20
80.0961130065
 10
160.0571883649
 20
80.0664454256
 10
160.0818707814
 20
80.0387536829
 10
160.1080280257
 20
80.0130847189
 10
160.1356168995
 20
79.9894813418
 10
160.1645912789
 20
79.9679833075
 10
160.1976218428
 20
79.9470331573
  0
LINE
  5
288
100
AcDbEntity
  8
ASSI
100
AcDbLine
 62
7
  6
CONTINUOUS
 10
157.9832960722
 20
120.2262917923
 11
158.0046304512
 21
119.6060664443
  0
LWPOLYLINE
  5
289
100
AcDbEntity
  8
ASSI
100
AcDbPolyline
 62
250
  6
CONTINUOUS
 90
12
 70
0
 10
159.5815645587
 20
97.4882553206
 10
159.5819486504
 20
97.4763360511
 10
159.5831134414
 20
97.4649341249
 10
159.5850524838
 20
97.4541126562
 10
159.5877550443
 20
97.4439315459
 10
159.5912061627
 20
97.4344471507
 10
159.5953867352
 20
97.4257119708
 10
159.6002736206
 20
97.4177743589
 10
159.6058397674
 20
97.4106782524
 10
159.6120543645
 20
97.4044629311
 10
159.6188830111
 20
97.3991627988
 10
159.6229422782
 20
97.3966166312
  0
LWPOLYLINE
  5
28A
100
AcDbEntity
  8
ASSI
100
AcDbPolyline
 62
250
  6
CONTINUOUS
 90
13
 70
0
 10
159.8857943228
 20
114.1622712182
 10
159.8379788784
 20
112.7608461161
 10
159.7942472089
 20
111.3615530516
 10
159.7545995398
 20
109.9644077815
 10
159.719036286
 20
108.5694359873
 10
159.687557289
 20
107.1766433901
 10
159.6601621032
 20
105.7860159069
 10
159.6368514693
 20
104.3975698849
 10
159.6176251977
 20
103.0113205337
 10
159.6024819164
 20
101.6272523233
 10
159.5914215719
 20
100.2453707213
 10
159.5844451195
 20
98.8657020198
 10
159.5815529107
 20
97.488262046
  0
LWPOLYLINE
  5
28B
100
AcDbEntity
  8
ASSI
100
AcDbPolyline
 62
250
  6
CONTINUOUS
 90
22
 70
0
 10
160.2824458706
 20
96.9184391832
 10
160.2819636653
 20
96.9308204668
 10
160.2807073422
 20
96.9435969801
 10
160.2786839261
 20
96.9566972852
 10
160.2759047307
 20
96.970048134
 10
160.2723852956
 20
96.9835748772
 10
160.2681452997
 20
96.9972018815
 10
160.2632084505
 20
97.0108529536
 10
160.2576023518
 20
97.024451766
 10
160.2513583498
 20
97.0379222827
 10
160.2445113572
 20
97.0511891857
 10
160.2370996579
 20
97.0641782954
 10
160.2291646938
 20
97.0768169854
 10
160.2207508322
 20
97.089034589
 10
160.2119051179
 20
97.1007627939
 10
160.2026770106
 20
97.1119360241
 10
160.1931181079
 20
97.122491807
 10
160.1832818567
 20
97.1323711224
 10
160.1732232549
 20
97.1415187325
 10
160.1629985433
 20
97.1498834908
 10
160.1526648915
 20
97.1574186279
 10
160.142280078
 20
97.1640820133
  0
LWPOLYLINE
  5
28C
100
AcDbEntity
  8
ASSI
100
AcDbPolyline
 62
250
  6
CONTINUOUS
 90
6
 70
0
 10
160.3883181236
 20
87.3566966396
 10
160.4197678435
 20
86.000196119
 10
160.4552987237
 20
84.6460830531
 10
160.4949107896
 20
83.2943626577
 10
160.5386040158
 20
81.945029717
 10
160.5863784022
 20
80.5980842311
  0
LWPOLYLINE
  5
28D
100
AcDbEntity
  8
ASSI
100
AcDbPolyline
 62
250
  6
CONTINUOUS
 90
12
 70
0
 10
159.5844451195
 20
95.5455378773
 10
159.5914215719
 20
94.1736404518
 10
159.6024819164
 20
92.8040874049
 10
159.6176251977
 20
91.4369049136
 10
159.6368514693
 20
90.0720975194
 10
159.6601621032
 20
88.7096483119
 10
159.687557289
 20
87.3495717316
 10
159.719036286
 20
85.9918842587
 10
159.7545995398
 20
84.6365723238
 10
159.7942472089
 20
83.2836418306
 10
159.8379788783
 20
81.933117982
 10
159.8857943228
 20
80.5850162745
  0
LINE
  5
28E
100
AcDbEntity
  8
ASSI
100
AcDbLine
 62
250
  6
CONTINUOUS
 10
159.5815529108
 20
96.9197642601
 11
159.5844451195
 21
95.5455378773
  0
LWPOLYLINE
  5
28F
100
AcDbEntity
  8
ASSI
100
AcDbPolyline
 62
250
  6
CONTINUOUS
 90
8
 70
0
 10
160.2824578269
 20
96.9184459681
 10
160.2853321878
 20
95.5454074013
 10
160.2922895817
 20
94.1747257945
 10
160.3033300086
 20
92.8064011477
 10
160.3184541183
 20
91.4404285118
 10
160.337661261
 20
90.076812836
 10
160.3609494877
 20
88.7155689675
 10
160.3883181236
 20
87.3566966396
  0
LWPOLYLINE
  5
290
100
AcDbEntity
  8
ASSI
100
AcDbPolyline
 62
250
  6
CONTINUOUS
 90
8
 70
0
 10
160.3883181236
 20
107.1623153918
 10
160.3609494877
 20
105.7729228423
 10
160.337661261
 20
104.3857090333
 10
160.3184541183
 20
103.000674451
 10
160.3033300086
 20
101.617836116
 10
160.2922895817
 20
100.2371997019
 10
160.2853321878
 20
98.858759535
 10
160.2824578269
 20
97.4825156155
  0
LWPOLYLINE
  5
291
100
AcDbEntity
  8
ASSI
100
AcDbPolyline
 62
250
  6
CONTINUOUS
 90
22
 70
0
 10
159.5815645587
 20
96.9197575347
 10
159.5819486492
 20
96.932120326
 10
159.583113437
 20
96.9448673061
 10
159.5850524744
 20
96.9579279154
 10
159.5877550282
 20
96.9712298582
 10
159.5912061386
 20
96.9846995029
 10
159.5953867023
 20
96.9982622897
 10
159.6002735783
 20
97.0118431432
 10
159.6058397158
 20
97.0253668879
 10
159.612054304
 20
97.0387586646
 10
159.6188829426
 20
97.0519443444
 10
159.6262878324
 20
97.0648509393
 10
159.6342279844
 20
97.0774070062
 10
159.6426594468
 20
97.0895430422
 10
159.6515355479
 20
97.1011918696
 10
159.6608071551
 20
97.1122890075
 10
159.6704229463
 20
97.1227730288
 10
159.6803296943
 20
97.1325859002
 10
159.6904725612
 20
97.1416733036
 10
159.7007954024
 20
97.1499849366
 10
159.7112410766
 20
97.157474791
 10
159.721751763
 20
97.1641014075
  0
LWPOLYLINE
  5
292
100
AcDbEntity
  8
ASSI
100
AcDbPolyline
 62
250
  6
CONTINUOUS
 90
6
 70
0
 10
160.5863784022
 20
114.1417953521
 10
160.5386040158
 20
112.7415741066
 10
160.4949107896
 20
111.3435165253
 10
160.4552987237
 20
109.9476226082
 10
160.4197678435
 20
108.5538871679
 10
160.3883181236
 20
107.1623153918
  0
LWPOLYLINE
  5
293
100
AcDbEntity
  8
ASSI
100
AcDbPolyline
 62
250
  6
CONTINUOUS
 90
12
 70
0
 10
160.2824458706
 20
97.4825090674
 10
160.2819636668
 20
97.4704876619
 10
160.2807073475
 20
97.4589979295
 10
160.2786839371
 20
97.4481041128
 10
160.2759047493
 20
97.4378671227
 10
160.2723853232
 20
97.4283441976
 10
160.2681453372
 20
97.4195885831
 10
160.2632084984
 20
97.4116492347
 10
160.2576024102
 20
97.4045705439
 10
160.2513584182
 20
97.3983920898
 10
160.2445114344
 20
97.3931484183
 10
160.2396554533
 20
97.3902003283
  0
LWPOLYLINE
  5
294
100
AcDbEntity
  8
ASSI
100
AcDbPolyline
 62
250
  6
CONTINUOUS
 90
28
 70
0
 10
161.2675660616
 20
115.3033836924
 10
161.2658854221
 20
115.3268152731
 10
161.2630365774
 20
115.3508695302
 10
161.2590291558
 20
115.3754651665
 10
161.2538767012
 20
115.4005190548
 10
161.2475966276
 20
115.4259465194
 10
161.24021016
 20
115.4516616219
 10
161.2317422625
 20
115.4775774517
 10
161.2222215546
 20
115.5036064197
 10
161.2116802138
 20
115.5296605547
 10
161.2001538671
 20
115.5556518001
 10
161.1876814705
 20
115.581492312
 10
161.1743051776
 20
115.6070947559
 10
161.1600701969
 20
115.6323726019
 10
161.145024639
 20
115.6572404171
 10
161.129219354
 20
115.6816141544
 10
161.11270776
 20
115.7054114367
 10
161.0955456619
 20
115.7285518349
 10
161.0777910633
 20
115.7509571401
 10
161.0595039704
 20
115.772551628
 10
161.040746189
 20
115.7932623145
 10
161.0215811159
 20
115.8130192024
 10
161.002073524
 20
115.8317555184
 10
160.9822893444
 20
115.8494079383
 10
160.9622954427
 20
115.8659168011
 10
160.9421593934
 20
115.8812263109
 10
160.9219492512
 20
115.8952847255
 10
160.9017333216
 20
115.9080445308
  0
LWPOLYLINE
  5
295
100
AcDbEntity
  8
ASSI
100
AcDbPolyline
 62
250
  6
CONTINUOUS
 90
16
 70
0
 10
161.2675660616
 20
80.1961244829
 10
161.2658854215
 20
80.1721751238
 10
161.2630365755
 20
80.1490085766
 10
161.259029152
 20
80.1267031385
 10
161.2538766951
 20
80.1053341964
 10
161.2475966188
 20
80.0849739717
 10
161.2402101482
 20
80.0656912772
 10
161.2317422478
 20
80.0475512835
 10
161.2222215369
 20
80.0306152991
 10
161.2116801931
 20
80.0149405637
 10
161.2001538437
 20
80.0005800537
 10
161.1876814446
 20
79.9875823042
 10
161.1743051497
 20
79.9759912443
 10
161.1600701673
 20
79.965846049
 10
161.1450246083
 20
79.9571810064
 10
161.1431636357
 20
79.9562404067
  0
LINE
  5
296
100
AcDbEntity
  8
ASSI
100
AcDbLine
 62
250
  6
CONTINUOUS
 10
163.8883533953
 20
99.2899048974
 11
160.142280078
 21
97.1640820133
  0
LINE
  5
297
100
AcDbEntity
  8
ASSI
100
AcDbLine
 62
250
  6
CONTINUOUS
 10
164.0297747523
 20
99.0449745754
 11
160.2824578269
 21
96.9184459681
  0
LINE
  5
298
100
AcDbEntity
  8
ASSI
100
AcDbLine
 62
250
  6
CONTINUOUS
 10
160.2824578269
 20
97.4825156155
 11
164.0297747523
 21
99.5348194365
  0
LINE
  5
299
100
AcDbEntity
  8
ASSI
100
AcDbLine
 62
7
  6
CONTINUOUS
 10
160.2395843844
 20
97.3901613486
 11
163.9870537298
 21
99.4425486458
  0
LWPOLYLINE
  5
29A
100
AcDbEntity
  8
ASSI
100
AcDbPolyline
 62
250
  6
CONTINUOUS
 90
31
 70
0
 10
160.142280078
 20
97.1640820133
 10
160.1307855811
 20
97.1578907493
 10
160.1188274756
 20
97.1520784894
 10
160.1064057618
 20
97.1466452337
 10
160.0934843754
 20
97.1415781738
 10
160.0800993806
 20
97.1368901181
 10
160.0663589693
 20
97.132619491
 10
160.0522603187
 20
97.1287698049
 10
160.0378062517
 20
97.1253375475
 10
160.0231134294
 20
97.1223506061
 10
160.0081803588
 20
97.1198127018
 10
159.993008533
 20
97.1177201134
 10
159.9777190921
 20
97.116089565
 10
159.9623108977
 20
97.1149247351
 10
159.9467850882
 20
97.1142219451
 10
159.931266219
 20
97.1139868836
 10
159.9157542983
 20
97.1142233437
 10
159.9002493178
 20
97.1149275324
 10
159.8848758085
 20
97.1160937588
 10
159.8696350645
 20
97.1177257077
 10
159.8545257916
 20
97.1198196944
 10
159.8396686382
 20
97.122358975
 10
159.8250652113
 20
97.1253472686
 10
159.810713904
 20
97.1287808561
 10
159.7967305434
 20
97.1326318365
 10
159.7831180776
 20
97.1369037155
 10
159.7698735585
 20
97.1415929874
 10
159.7571039693
 20
97.1466612343
 10
159.7448449708
 20
97.1520956504
 10
159.733060902
 20
97.1579090414
 10
159.721751763
 20
97.1641014075
  0
LWPOLYLINE
  5
29B
100
AcDbEntity
  8
ASSI
100
AcDbPolyline
 62
250
  6
CONTINUOUS
 90
31
 70
0
 10
160.2824578267
 20
96.9184459243
 10
160.2633751985
 20
96.9082263578
 10
160.2434137531
 20
96.8985922187
 10
160.22262717
 20
96.889568948
 10
160.2010723106
 20
96.8811804451
 10
160.1788061663
 20
96.8734486405
 10
160.1558853945
 20
96.8663937374
 10
160.1323695091
 20
96.8600340882
 10
160.108323125
 20
96.8543871788
 10
160.0838128216
 20
96.8494692124
 10
160.0589053032
 20
96.8452932576
 10
160.0336664248
 20
96.8418700031
 10
160.0081631911
 20
96.8392089802
 10
159.9824636714
 20
96.8373171233
 10
159.9566370432
 20
96.8361993167
 10
159.9307527426
 20
96.8358589824
 10
159.9048801632
 20
96.8362968663
 10
159.8790886605
 20
96.8375115773
 10
159.8534475652
 20
96.8395001883
 10
159.8280258884
 20
96.8422571862
 10
159.8028914867
 20
96.8457749932
 10
159.7781110971
 20
96.8500445592
 10
159.7537502527
 20
96.8550545914
 10
159.7298752357
 20
96.8607913952
 10
159.7065521152
 20
96.867239232
 10
159.6838449517
 20
96.8743800649
 10
159.6618127096
 20
96.8821949498
 10
159.6405114628
 20
96.8906641108
 10
159.6199975406
 20
96.8997654078
 10
159.6003270575
 20
96.9094741011
 10
159.5815529127
 20
96.9197642554
  0
LWPOLYLINE
  5
29C
100
AcDbEntity
  8
ASSI
100
AcDbPolyline
 62
250
  6
CONTINUOUS
 90
7
 70
0
 10
160.1558853934
 20
97.4318357437
 10
160.1788061651
 20
97.4386682661
 10
160.2010723093
 20
97.4461739241
 10
160.2226271687
 20
97.4543341327
 10
160.2434137521
 20
97.4631275526
 10
160.263375198
 20
97.472529849
 10
160.2824578267
 20
97.4825156596
  0
LINE
  5
29D
100
AcDbEntity
  8
CURVE
100
AcDbLine
 62
250
  6
CONTINUOUS
 10
153.7078609246
 20
111.2997252974
 11
155.0173606699
 21
110.5436365564
  0
LINE
  5
29E
100
AcDbEntity
  8
CURVE
100
AcDbLine
 62
250
  6
CONTINUOUS
 10
149.458437073
 20
113.7544436388
 11
150.731274236
 21
113.0195234133
  0
LINE
  5
29F
100
AcDbEntity
  8
ASSI
100
AcDbLine
 62
7
  6
CONTINUOUS
 10
164.0297747523
 20
99.0449745754
 11
164.0297747523
 21
88.59413638
  0
LINE
  5
2A0
100
AcDbEntity
  8
ASSI
100
AcDbLine
 62
7
  6
CONTINUOUS
 10
164.0297747523
 20
99.5348194365
 11
164.0297747523
 21
109.9856576319
  0
LINE
  5
2A1
100
AcDbEntity
  8
ASSI
100
AcDbLine
 62
7
  6
CONTINUOUS
 10
164.0297747523
 20
109.9856576319
 11
163.4908909427
 21
116.6752902981
  0
LINE
  5
2A2
100
AcDbEntity
  8
ASSI
100
AcDbLine
 62
7
  6
CONTINUOUS
 10
164.0297747523
 20
88.59413638
 11
163.4908909427
 21
81.3035657137
  0
LINE
  5
2A3
100
AcDbEntity
  8
ASSI
100
AcDbLine
 62
250
  6
CONTINUOUS
 10
144.9424593618
 20
122.7903655403
 11
159.8857943147
 21
114.1622712229
  0
LINE
  5
2A4
100
AcDbEntity
  8
ASSI
100
AcDbLine
 62
7
  6
CONTINUOUS
 10
161.1064806487
 20
118.4230041605
 11
160.4289996583
 21
118.2921999067
  0
LINE
  5
2A5
100
AcDbEntity
  8
ASSI
100
AcDbLine
 62
250
  6
CONTINUOUS
 10
145.9350379836
 20
124.5496417251
 11
160.9017457822
 21
115.9080522196
  0
LINE
  5
2A6
100
AcDbEntity
  8
ASSI
100
AcDbLine
 62
7
  6
CONTINUOUS
 10
160.235814493
 20
118.3178087419
 11
157.8535293969
 21
119.6933102993
  0
LINE
  5
2A7
100
AcDbEntity
  8
ASSI
100
AcDbLine
 62
7
  6
CONTINUOUS
 10
152.3162185437
 20
122.8904841871
 11
149.9339334476
 21
124.2659857446
  0
LINE
  5
2A8
100
AcDbEntity
  8
ASSI
100
AcDbLine
 62
7
  6
CONTINUOUS
 10
163.106264148
 20
117.2683542312
 11
161.1064806487
 21
118.4230041605
  0
LINE
  5
2A9
100
AcDbEntity
  8
ASSI
100
AcDbLine
 62
7
  6
CONTINUOUS
 10
157.9832960722
 20
120.2262917923
 11
153.1868846995
 21
122.9956796058
  0
LINE
  5
2AA
100
AcDbEntity
  8
ASSI
100
AcDbLine
 62
7
  6
CONTINUOUS
 10
150.0637001229
 20
124.7989672376
 11
148.0639166237
 21
125.9536171669
  0
LINE
  5
2AB
100
AcDbEntity
  8
ASSI
100
AcDbLine
 62
7
  6
CONTINUOUS
 10
153.1868846995
 20
122.9956796058
 11
152.509403709
 21
122.864875352
  0
LWPOLYLINE
  5
2AC
100
AcDbEntity
  8
ASSI
100
AcDbPolyline
 62
250
  6
CONTINUOUS
 90
28
 70
0
 10
160.5863784022
 20
80.5980842311
 10
160.5651402148
 20
80.5859408372
 10
160.5428229966
 20
80.5745248003
 10
160.5195005952
 20
80.5638738958
 10
160.4952501841
 20
80.5540233675
 10
160.4701520076
 20
80.5450058107
 10
160.4442891154
 20
80.5368510643
 10
160.4177470874
 20
80.5295861124
 10
160.3906137509
 20
80.5232349945
 10
160.3629788899
 20
80.5178187265
 10
160.3349339478
 20
80.5133552307
 10
160.3065717249
 20
80.5098592768
 10
160.2779860717
 20
80.5073424328
 10
160.2492715776
 20
80.505813027
 10
160.2205232587
 20
80.5052761202
 10
160.1918362427
 20
80.5057334889
 10
160.1633054548
 20
80.5071836198
 10
160.135025303
 20
80.5096217143
 10
160.1070893659
 20
80.5130397049
 10
160.0795900833
 20
80.5174262814
 10
160.0526184501
 20
80.5227669288
 10
160.026263715
 20
80.5290439748
 10
160.0006130855
 20
80.5362366489
 10
159.9757514394
 20
80.5443211504
 10
159.9517610435
 20
80.553270728
 10
159.9287212818
 20
80.5630557675
 10
159.9067083927
 20
80.5736438903
 10
159.8857952164
 20
80.5850000606
  0
LINE
  5
2AD
100
AcDbEntity
  8
ASSI
100
AcDbLine
 62
250
  6
CONTINUOUS
 10
161.2675660616
 20
80.1961244829
 11
163.4908909427
 21
81.3035657137
  0
LINE
  5
2AE
100
AcDbEntity
  8
ASSI
100
AcDbLine
 62
7
  6
CONTINUOUS
 10
161.1431636357
 20
79.9562404067
 11
163.3553132696
 21
81.0581152312
  0
ELLIPSE
  5
2AF
100
AcDbEntity
  8
ASSI
100
AcDbEllipse
 62
7
  6
CONTINUOUS
 10
163.1373123501
 20
81.5081217678
 30
0.0
 11
-0.2148150744
 21
0.4515576038
 31
0.0
 40
0.6258090719
 41
-3.1302698991
 42
-2.3092664522
  0
ELLIPSE
  5
2B0
100
AcDbEntity
  8
ASSI
100
AcDbEllipse
 62
7
  6
CONTINUOUS
 10
163.8883318537
 20
99.1266170619
 30
0.0
 11
-0.1000238792
 21
0.1731956925
 31
0.0
 40
0.5774195892
 41
-2.3562809449
 42
-0.7856369171
  0
ELLIPSE
  5
2B1
100
AcDbEntity
  8
CURVE
100
AcDbEllipse
 62
250
  6
CONTINUOUS
 10
489.6138979312
 20
314.9219677737
 30
0.0
 11
-637.5382900747
 21
743.8512262672
 31
0.0
 40
0.4108236887
 41
1.5174049066
 42
1.5185055845
  0
ELLIPSE
  5
2B2
100
AcDbEntity
  8
CURVE
100
AcDbEllipse
 62
250
  6
CONTINUOUS
 10
521.7298845971
 20
296.3785995807
 30
0.0
 11
706.5819703036
 21
155.7881600713
 31
0.0
 40
0.2020255955
 41
-2.1632901262
 42
-2.1620901997
  0
ELLIPSE
  5
2B3
100
AcDbEntity
  8
CURVE
100
AcDbEllipse
 62
250
  6
CONTINUOUS
 10
489.6051592898
 20
314.9270133557
 30
0.0
 11
-637.879010485
 21
744.0347918791
 31
0.0
 40
0.4106623389
 41
1.5219749118
 42
1.523174983
  0
ELLIPSE
  5
2B4
100
AcDbEntity
  8
CURVE
100
AcDbEllipse
 62
250
  6
CONTINUOUS
 10
521.7211849896
 20
296.383622625
 30
0.0
 11
706.2927611762
 21
155.990410841
 31
0.0
 40
0.2018995412
 41
-2.1681735653
 42
-2.1670727516
  0
ELLIPSE
  5
2B5
100
AcDbEntity
  8
ASSI
100
AcDbEllipse
 62
7
  6
CONTINUOUS
 10
163.1373123501
 20
116.8791029827
 30
0.0
 11
-0.2807400337
 21
0.4141474974
 31
0.0
 40
0.5245128892
 41
-2.3945640771
 42
-0.8246811388
  0
ELLIPSE
  5
2B6
100
AcDbEntity
  8
ASSI
100
AcDbEllipse
 62
7
  6
CONTINUOUS
 10
163.8883318537
 20
99.616511664
 30
0.0
 11
-0.1000390991
 21
0.1732220807
 31
0.0
 40
0.5772437351
 41
-3.1546807054
 42
-2.3564331449
  0
ELLIPSE
  5
2B7
100
AcDbEntity
  8
ASSI
100
AcDbEllipse
 62
7
  6
CONTINUOUS
 10
148.0945344036
 20
125.5646144387
 30
0.0
 11
-0.2805986523
 21
0.4138767202
 31
0.0
 40
0.5251497255
 41
-0.8253745819
 42
-0.0067082778
  0
ELLIPSE
  5
2B8
100
AcDbEntity
  8
ASSI
100
AcDbEllipse
 62
7
  6
CONTINUOUS
 10
160.3772358493
 20
118.4080215393
 30
0.0
 11
0.1999154856
 21
0.0095814127
 31
0.0
 40
0.6067642562
 41
-2.385266879
 42
-1.3380693278
  0
ELLIPSE
  5
2B9
100
AcDbEntity
  8
ASSI
100
AcDbEllipse
 62
7
  6
CONTINUOUS
 10
152.4576399
 20
122.9806969846
 30
0.0
 11
0.1999154856
 21
0.0095814127
 31
0.0
 40
0.6067642562
 41
-2.385266879
 42
-1.3380693278
  0
ELLIPSE
  5
2BA
100
AcDbEntity
  8
ASSI
100
AcDbEllipse
 62
7
  6
CONTINUOUS
 10
157.9949507532
 20
119.7835230968
 30
0.0
 11
0.1999154856
 21
0.0095814127
 31
0.0
 40
0.6067642562
 41
2.850720877
 42
3.8979184282
  0
ELLIPSE
  5
2BB
100
AcDbEntity
  8
ASSI
100
AcDbEllipse
 62
7
  6
CONTINUOUS
 10
150.0753548039
 20
124.356198542
 30
0.0
 11
0.1999154856
 21
0.0095814127
 31
0.0
 40
0.6067642562
 41
2.850720877
 42
3.8979184282
  0
ELLIPSE
  5
2BC
100
AcDbEntity
  8
CURVE
100
AcDbEllipse
 62
250
  6
CONTINUOUS
 10
514.8231414772
 20
300.3664664963
 30
0.0
 11
-353.5448483845
 21
612.3773669863
 31
0.0
 40
0.5773595689
 41
1.5478741762
 42
1.5504937534
  0
ELLIPSE
  5
2BD
100
AcDbEntity
  8
CURVE
100
AcDbEllipse
 62
250
  6
CONTINUOUS
 10
514.8259859091
 20
300.364824157
 30
0.0
 11
-353.6046579676
 21
612.3980882638
 31
0.0
 40
0.5773205013
 41
1.5393363962
 42
1.5418831391
  0
ENDSEC
  0
SECTION
  2
OBJECTS
  0
DICTIONARY
  5
C
100
AcDbDictionary
280
0
281
1
  3
ACAD_GROUP
350
D
  3
ACAD_MLINESTYLE
350
17
  3
ACAD_LAYOUT
350
1A
  3
ACAD_PLOTSETTINGS
350
19
  3
ACAD_PLOTSTYLENAME
350
E
  0
DICTIONARY
  5
D
102
{ACAD_REACTORS
330
C
102
}
100
AcDbDictionary
280
0
281
1
  0
ACDBDICTIONARYWDFLT
  5
E
102
{ACAD_REACTORS
330
C
102
}
100
AcDbDictionary
281
1
  3
Normal
350
F
100
AcDbDictionaryWithDefault
340
F
  0
DICTIONARY
  5
17
102
{ACAD_REACTORS
330
C
102
}
100
AcDbDictionary
280
0
281
1
  3
Standard
350
18
  0
DICTIONARY
  5
19
102
{ACAD_REACTORS
330
C
102
}
100
AcDbDictionary
281
1
  0
DICTIONARY
  5
1A
102
{ACAD_REACTORS
330
C
102
}
100
AcDbDictionary
281
1
  3
Model
350
2BE
  3
Layout1
350
2BF
  0
ACDBPLACEHOLDER
  5
F
102
{ACAD_REACTORS
330
E
102
}
  0
MLINESTYLE
  5
18
102
{ACAD_REACTORS
330
17
102
}
100
AcDbMlineStyle
  2
STANDARD
 70
0
  3

 62
256
 51
90.0
 52
90.0
 71
2
 49
0.5
 62
256
  6
BYLAYER
 49
-0.5
 62
256
  6
BYLAYER
  0
LAYOUT
  5
2BE
102
{ACAD_REACTORS
330
1A
102
}
100
AcDbPlotSettings
  1

  2
none_device
  4
ISO_A4_(297.00_x_210.00_MM)
  6

 40
0.0
 41
0.0
 42
0.0
 43
0.0
 44
297.0
 45
210.0
 46
0.0
 47
0.0
 48
0.0
 49
0.0
140
0.0
141
0.0
142
1.0
143
1.0
 70
1024
 72
1
 73
0
 74
0
  7

 75
0
147
1.0
148
0.0
149
0.0
100
AcDbLayout
  1
Model
 70
0
 71
0
 10
0.0
 20
0.0
 11
297.0
 21
210.0
 12
0.0
 22
0.0
 32
0.0
 14
0.0
 24
0.0
 34
0.0
 15
0.0
 25
0.0
 35
0.0
146
0.0
 13
0.0
 23
0.0
 33
0.0
 16
1.0
 26
0.0
 36
0.0
 17
0.0
 27
1.0
 37
0.0
 76
0
330
217
345
0
346
0
  0
LAYOUT
  5
2BF
102
{ACAD_REACTORS
330
1A
102
}
100
AcDbPlotSettings
  1

  2
none_device
  4
ISO_A4_(297.00_x_210.00_MM)
  6

 40
0.0
 41
0.0
 42
0.0
 43
0.0
 44
297.0
 45
210.0
 46
0.0
 47
0.0
 48
0.0
 49
0.0
140
0.0
141
0.0
142
1.0
143
1.0
 70
0
 72
1
 73
0
 74
0
  7

 75
0
147
1.0
148
0.0
149
0.0
100
AcDbLayout
  1
Layout1
 70
0
 71
1
 10
0.0
 20
0.0
 11
297.0
 21
210.0
 12
0.0
 22
0.0
 32
0.0
 14
0.0
 24
0.0
 34
0.0
 15
0.0
 25
0.0
 35
0.0
146
0.0
 13
0.0
 23
0.0
 33
0.0
 16
1.0
 26
0.0
 36
0.0
 17
0.0
 27
1.0
 37
0.0
 76
0
330
218
345
0
346
0
  0
ENDSEC
  0
EOF
