  0
SECTION
  2
HEADER
  9
$ACADVER
  1
AC1024
  9
$DWGCODEPAGE
  3
ANSI_1252
  9
$EXTMAX
 10
297.0
 20
210.0
 30
0.0
  9
$EXTMIN
 10
0.0
 20
0.0
 30
0.0
  9
$LIMMIN
 10
0.0
 20
0.0
  9
$LIMMAX
 10
297.0
 20
210.0
  9
$VIEWCTR
 10
148.5
 20
105.0
  9
$VIEWSIZE
 40
210.0
  9
$CLAYER
  8
0
  9
$LTSCALE
 40
16.335
  9
$CELTYPE
  6
BYLAYER
  9
$DIMSCALE
 40
1.0
  9
$DIMASZ
 40
3.0
  9
$DIMEXO
 40
0.5
  9
$DIMDLI
 40
11.286
  9
$DIMEXE
 40
1.5
  9
$DIMCEN
 40
2.673
  9
$DIMLFAC
 40
1.0
  9
$DIMBLK
  1
_FILLED
  9
$DIMALT
 70
0
  9
$DIMALTF
 40
0.0393700787
  9
$DIMTXT
 40
3.0
  9
$DIMTOL
 70
1
  9
$DIMLIM
 70
0
  9
$DIMTFAC
 40
1.0
  9
$DIMTP
 40
0.01
  9
$DIMTM
 40
0.01
  9
$DIMGAP
 40
0.625
  9
$DIMDSEP
 70
44
  9
$AUNITS
 70
0
  9
$PDMODE
 70
3
  9
$PDSIZE
 40
3.0
  9
$HANDSEED
  5
36B
  9
$TILEMODE
 70
1
  9
$MEASUREMENT
 70
1
  9
$INSUNITS
 70
4
  0
ENDSEC
  0
SECTION
  2
CLASSES
  0
CLASS
  1
ACDBDICTIONARYWDFLT
  2
AcDbDictionaryWithDefault
  3
AutoCAD 2000
 90
0
 91
1
280
0
281
0
  0
CLASS
  1
ACDBPLACEHOLDER
  2
AcDbPlaceHolder
  3
AutoCAD 2000
 90
0
 91
1
280
0
281
0
  0
CLASS
  1
LAYOUT
  2
AcDbLayout
  3
AutoCAD 2000
 90
0
 91
0
280
0
281
0
  0
ENDSEC
  0
SECTION
  2
TABLES
  0
TABLE
  2
VPORT
  5
8
100
AcDbSymbolTable
 70
2
  0
VPORT
  5
1F4
100
AcDbSymbolTableRecord
100
AcDbViewportTableRecord
  2
*ACTIVE
 70
0
 10
0.0
 20
0.0
 11
1.0
 21
1.0
 12
148.5
 22
105.0
 13
0.0
 23
0.0
 14
1.0
 24
1.0
 15
0.0
 25
0.0
 16
0.0
 26
0.0
 36
1.0
 17
0.0
 27
0.0
 37
0.0
 40
210.0
 41
1.4142857143
 42
50.0
 43
0.0
 44
0.0
 50
0.0
 51
0.0
 71
0
 72
100
 73
1
 74
1
 75
0
 76
0
 77
0
 78
0
  0
ENDTAB
  0
TABLE
  2
LTYPE
  5
5
100
AcDbSymbolTable
 70
6
  0
LTYPE
  5
14
100
AcDbSymbolTableRecord
100
AcDbLinetypeTableRecord
  2
BYBLOCK
 70
0
  3

 72
65
 73
0
 40
0.0
  0
LTYPE
  5
15
100
AcDbSymbolTableRecord
100
AcDbLinetypeTableRecord
  2
BYLAYER
 70
0
  3

 72
65
 73
0
 40
0.0
  0
LTYPE
  5
16
100
AcDbSymbolTableRecord
100
AcDbLinetypeTableRecord
  2
CONTINUOUS
 70
64
  3
Solid line
 72
65
 73
0
 40
0.0
  0
LTYPE
  5
1F5
100
AcDbSymbolTableRecord
100
AcDbLinetypeTableRecord
  2
CENTER
 70
64
  3
____ _ ____ _ ____ _ ____ _ ____ _ ____ _ ____
 72
65
 73
4
 40
0.6
 49
0.375
 74
0
 49
-0.075
 74
0
 49
0.075
 74
0
 49
-0.075
 74
0
  0
LTYPE
  5
1F6
100
AcDbSymbolTableRecord
100
AcDbLinetypeTableRecord
  2
HIDDEN
 70
64
  3
- - - - - - - - - - - - - - - - - - - -
 72
65
 73
2
 40
0.2
 49
0.1
 74
0
 49
-0.1
 74
0
  0
LTYPE
  5
1F7
100
AcDbSymbolTableRecord
100
AcDbLinetypeTableRecord
  2
PHANTOM
 70
64
  3
_____ _ _ _____ _ _ _____ _ _ _____
 72
65
 73
6
 40
0.8
 49
0.45
 74
0
 49
-0.05
 74
0
 49
0.1
 74
0
 49
-0.05
 74
0
 49
0.1
 74
0
 49
-0.05
 74
0
  0
LTYPE
  5
1F8
100
AcDbSymbolTableRecord
100
AcDbLinetypeTableRecord
  2
DOT
 70
64
  3
. . . . . . . . . . . . . . . . . . . .
 72
65
 73
2
 40
0.2
 49
0.1
 74
0
 49
-0.1
 74
0
  0
LTYPE
  5
1F9
100
AcDbSymbolTableRecord
100
AcDbLinetypeTableRecord
  2
DASHED
 70
64
  3
- - - - - - - - - - - - - - - - - - - -
 72
65
 73
2
 40
0.2
 49
0.1
 74
0
 49
-0.1
 74
0
  0
ENDTAB
  0
TABLE
  2
LAYER
  5
2
100
AcDbSymbolTable
 70
36
  0
LAYER
  5
10
100
AcDbSymbolTableRecord
100
AcDbLayerTableRecord
  2
0
 70
0
 62
7
  6
CONTINUOUS
370
-3
390
F
  0
LAYER
  5
1FA
100
AcDbSymbolTableRecord
100
AcDbLayerTableRecord
  2
DEFAULT_1
 70
0
 62
7
  6
CENTER
370
-3
390
F
  0
LAYER
  5
1FB
100
AcDbSymbolTableRecord
100
AcDbLayerTableRecord
  2
DEFAULT_2
 70
0
 62
7
  6
HIDDEN
370
-3
390
F
  0
LAYER
  5
1FC
100
AcDbSymbolTableRecord
100
AcDbLayerTableRecord
  2
DEFAULT_3
 70
0
 62
7
  6
PHANTOM
370
-3
390
F
  0
LAYER
  5
1FD
100
AcDbSymbolTableRecord
100
AcDbLayerTableRecord
  2
ASSI
 70
0
 62
7
  6
CONTINUOUS
370
-3
390
F
  0
LAYER
  5
1FE
100
AcDbSymbolTableRecord
100
AcDbLayerTableRecord
  2
COORDINATE
 70
0
 62
7
  6
CONTINUOUS
370
-3
390
F
  0
LAYER
  5
1FF
100
AcDbSymbolTableRecord
100
AcDbLayerTableRecord
  2
COORD_ORIGINE
 70
0
 62
7
  6
CONTINUOUS
370
-3
390
F
  0
LAYER
  5
200
100
AcDbSymbolTableRecord
100
AcDbLayerTableRecord
  2
COPY_PUBLISH
 70
0
 62
7
  6
CONTINUOUS
370
-3
390
F
  0
LAYER
  5
201
100
AcDbSymbolTableRecord
100
AcDbLayerTableRecord
  2
COSMETICI
 70
0
 62
7
  6
CONTINUOUS
370
-3
390
F
  0
LAYER
  5
202
100
AcDbSymbolTableRecord
100
AcDbLayerTableRecord
  2
CURVE
 70
0
 62
7
  6
CONTINUOUS
370
-3
390
F
  0
LAYER
  5
203
100
AcDbSymbolTableRecord
100
AcDbLayerTableRecord
  2
DRAFT
 70
0
 62
7
  6
CONTINUOUS
370
-3
390
F
  0
LAYER
  5
204
100
AcDbSymbolTableRecord
100
AcDbLayerTableRecord
  2
IGES
 70
0
 62
7
  6
CONTINUOUS
370
-3
390
F
  0
LAYER
  5
205
100
AcDbSymbolTableRecord
100
AcDbLayerTableRecord
  2
IMPORT_IGES
 70
0
 62
7
  6
CONTINUOUS
370
-3
390
F
  0
LAYER
  5
206
100
AcDbSymbolTableRecord
100
AcDbLayerTableRecord
  2
NOTE
 70
0
 62
7
  6
CONTINUOUS
370
-3
390
F
  0
LAYER
  5
207
100
AcDbSymbolTableRecord
100
AcDbLayerTableRecord
  2
PIANI
 70
0
 62
7
  6
CONTINUOUS
370
-3
390
F
  0
LAYER
  5
208
100
AcDbSymbolTableRecord
100
AcDbLayerTableRecord
  2
PIANI_ORIGINE
 70
0
 62
7
  6
CONTINUOUS
370
-3
390
F
  0
LAYER
  5
209
100
AcDbSymbolTableRecord
100
AcDbLayerTableRecord
  2
PIANI_RIFERIMENTO
 70
0
 62
7
  6
CONTINUOUS
370
-3
390
F
  0
LAYER
  5
20A
100
AcDbSymbolTableRecord
100
AcDbLayerTableRecord
  2
PUNTI
 70
0
 62
7
  6
CONTINUOUS
370
-3
390
F
  0
LAYER
  5
20B
100
AcDbSymbolTableRecord
100
AcDbLayerTableRecord
  2
RACCORDO
 70
0
 62
7
  6
CONTINUOUS
370
-3
390
F
  0
LAYER
  5
20C
100
AcDbSymbolTableRecord
100
AcDbLayerTableRecord
  2
SIMBOLI
 70
0
 62
7
  6
CONTINUOUS
370
-3
390
F
  0
LAYER
  5
20D
100
AcDbSymbolTableRecord
100
AcDbLayerTableRecord
  2
SMUSSO
 70
0
 62
7
  6
CONTINUOUS
370
-3
390
F
  0
LAYER
  5
20E
100
AcDbSymbolTableRecord
100
AcDbLayerTableRecord
  2
SNAPLINE
 70
0
 62
7
  6
CONTINUOUS
370
-3
390
F
  0
LAYER
  5
20F
100
AcDbSymbolTableRecord
100
AcDbLayerTableRecord
  2
SUPERFICI
 70
0
 62
7
  6
CONTINUOUS
370
-3
390
F
  0
LAYER
  5
210
100
AcDbSymbolTableRecord
100
AcDbLayerTableRecord
  2
TRASH
 70
0
 62
7
  6
CONTINUOUS
370
-3
390
F
  0
LAYER
  5
211
100
AcDbSymbolTableRecord
100
AcDbLayerTableRecord
  2
XSEC_DATUMS
 70
0
 62
7
  6
CONTINUOUS
370
-3
390
F
  0
ENDTAB
  0
TABLE
  2
STYLE
  5
3
100
AcDbSymbolTable
 70
1
  0
STYLE
  5
11
100
AcDbSymbolTableRecord
100
AcDbTextStyleTableRecord
  2
STANDARD
 70
0
 40
0.0
 41
0.8
 50
0.0
 71
0
 42
0.2
  3
txt
  4

  0
STYLE
  5
212
100
AcDbSymbolTableRecord
100
AcDbTextStyleTableRecord
  2
TEXTSTYLE_1
 70
0
 40
0.0
 41
0.8
 50
0.0
 71
0
 42
0.2
  3
gdt
  4

  0
ENDTAB
  0
TABLE
  2
VIEW
  5
6
100
AcDbSymbolTable
 70
0
  0
ENDTAB
  0
TABLE
  2
UCS
  5
7
100
AcDbSymbolTable
 70
0
  0
ENDTAB
  0
TABLE
  2
APPID
  5
9
100
AcDbSymbolTable
 70
1
  0
APPID
  5
213
100
AcDbSymbolTableRecord
100
AcDbRegAppTableRecord
  2
ACAD
 70
0
  0
ENDTAB
  0
TABLE
  2
BLOCK_RECORD
  5
1
100
AcDbSymbolTable
 70
0
  0
BLOCK_RECORD
  5
214
100
AcDbSymbolTableRecord
100
AcDbBlockTableRecord
  2
*Model_Space
  0
BLOCK_RECORD
  5
215
100
AcDbSymbolTableRecord
100
AcDbBlockTableRecord
  2
*Paper_Space
  0
BLOCK_RECORD
  5
216
100
AcDbSymbolTableRecord
100
AcDbBlockTableRecord
  2
_FILLED
  0
ENDTAB
  0
TABLE
  2
DIMSTYLE
  5
A
100
AcDbSymbolTable
 70
1
100
AcDbDimStyleTable
 71
0
  0
DIMSTYLE
105
217
100
AcDbSymbolTableRecord
100
AcDbDimStyleTableRecord
  2
STANDARD
 70
0
  3

  4

 40
1.0
 41
3.0
 42
0.5
 43
0.38
 44
1.5
 45
0.0
 46
0.0
 47
0.01
 48
0.01
140
3.0
141
0.09
142
0.0
143
25.4
144
1.0
145
0.0
146
1.0
147
0.625
 71
1
 72
0
 73
0
 74
0
 75
0
 76
0
 77
1
 78
8
 79
2
170
0
171
1
172
0
173
0
174
0
175
0
176
0
177
0
178
0
270
2
179
2
271
2
272
2
273
2
274
2
275
0
280
0
281
0
282
0
283
1
284
8
285
0
286
0
287
3
288
0
340
11
278
44
341
216
342
216
343
216
344
216
  0
ENDTAB
  0
ENDSEC
  0
SECTION
  2
BLOCKS
  0
BLOCK
  5
20
100
AcDbEntity
  8
0
100
AcDbBlockBegin
  2
*Model_Space
 70
0
 10
0.0
 20
0.0
 30
0.0
  3
*Model_Space
  1

  0
ENDBLK
  5
21
100
AcDbEntity
  8
0
100
AcDbBlockEnd
  0
BLOCK
  5
1C
100
AcDbEntity
  8
0
100
AcDbBlockBegin
  2
*Paper_Space
 70
0
 10
0.0
 20
0.0
 30
0.0
  3
*Paper_Space
  1

  0
ENDBLK
  5
1D
100
AcDbEntity
  8
0
100
AcDbBlockEnd
  0
BLOCK
  5
218
100
AcDbEntity
  8
0
100
AcDbBlockBegin
  2
_FILLED
 70
64
 10
0.0
 20
0.0
  3
_FILLED
  1

  0
SOLID
  5
219
100
AcDbEntity
  8
0
  6
BYBLOCK
 62
0
100
AcDbTrace
 10
0.0
 20
0.0
 11
-1.0
 21
0.3166666667
 12
-1.0
 22
-0.3166666667
 13
-1.0
 23
-0.3166666667
  0
ENDBLK
  5
21A
100
AcDbEntity
  8
0
  6
BYBLOCK
 62
0
100
AcDbBlockEnd
  0
ENDSEC
  0
SECTION
  2
ENTITIES
  0
LWPOLYLINE
  5
21B
100
AcDbEntity
  8
RACCORDO
100
AcDbPolyline
 62
250
  6
CONTINUOUS
 90
14
 70
0
 10
142.5662935607
 20
123.92797731
 10
142.5728906421
 20
123.9316378338
 10
142.5886298975
 20
123.9389844585
 10
142.6051448356
 20
123.9448340251
 10
142.6223796399
 20
123.9491667635
 10
142.6402760612
 20
123.9519680302
 10
142.658773614
 20
123.9532283575
 10
142.6778097812
 20
123.9529434859
 10
142.6973202252
 20
123.9511143782
 10
142.7172390057
 20
123.9477472163
 10
142.7374988021
 20
123.9428533803
 10
142.7580311414
 20
123.9364494102
 10
142.7787666294
 20
123.9285569499
 10
142.7996351854
 20
123.9192026738
  0
LWPOLYLINE
  5
21C
100
AcDbEntity
  8
ASSI
100
AcDbPolyline
 62
250
  6
CONTINUOUS
 90
14
 70
0
 10
142.5665730309
 20
123.9281398957
 10
142.5728906421
 20
123.9316378338
 10
142.5886298975
 20
123.9389844585
 10
142.6051448356
 20
123.9448340251
 10
142.6223796399
 20
123.9491667635
 10
142.6402760612
 20
123.9519680302
 10
142.658773614
 20
123.9532283575
 10
142.6778097812
 20
123.9529434859
 10
142.6973202252
 20
123.9511143782
 10
142.7172390057
 20
123.9477472163
 10
142.7374988021
 20
123.9428533803
 10
142.7580311414
 20
123.9364494102
 10
142.7787666294
 20
123.9285569499
 10
142.7996351854
 20
123.9192026738
  0
LWPOLYLINE
  5
21D
100
AcDbEntity
  8
RACCORDO
100
AcDbPolyline
 62
7
  6
CONTINUOUS
 90
31
 70
0
 10
142.5306791508
 20
123.9064815611
 10
142.4840081182
 20
123.8760656796
 10
142.4383129085
 20
123.8437329252
 10
142.3936182205
 20
123.8095614132
 10
142.3499361167
 20
123.7736208546
 10
142.3072843656
 20
123.7359784343
 10
142.2656810334
 20
123.6966976691
 10
142.225146038
 20
123.655842074
 10
142.1857141199
 20
123.6134832975
 10
142.1474087727
 20
123.5696816814
 10
142.1102554335
 20
123.5244980061
 10
142.0743009068
 20
123.4780140946
 10
142.039573155
 20
123.4302923502
 10
142.006100849
 20
123.3813920458
 10
141.9739350736
 20
123.3314022272
 10
141.9431055526
 20
123.2803861949
 10
141.9136444616
 20
123.2284047431
 10
141.8856033455
 20
123.1755536103
 10
141.8590127033
 20
123.1218962796
 10
141.8339068264
 20
123.067495259
 10
141.8103349231
 20
123.0124508764
 10
141.7883281541
 20
122.9568264942
 10
141.7679212547
 20
122.9006849199
 10
141.7491587922
 20
122.844125107
 10
141.7320729968
 20
122.7872087131
 10
141.7166985638
 20
122.7299974065
 10
141.7030756572
 20
122.6725837557
 10
141.6912388764
 20
122.6150284517
 10
141.6812238798
 20
122.5573893844
 10
141.6730693855
 20
122.49974163
 10
141.6668150205
 20
122.4421431871
  0
LWPOLYLINE
  5
21E
100
AcDbEntity
  8
ASSI
100
AcDbPolyline
 62
7
  6
CONTINUOUS
 90
15
 70
0
 10
142.5665731199
 20
123.9281397429
 10
142.5161317585
 20
123.8972769939
 10
142.4099390049
 20
123.8223379309
 10
142.3089907579
 20
123.737534536
 10
142.2134475888
 20
123.6435526236
 10
142.123675068
 20
123.5411390855
 10
142.0403478102
 20
123.4313891303
 10
141.9638506437
 20
123.3150677167
 10
141.894620201
 20
123.1929380978
 10
141.8334263899
 20
123.0664142692
 10
141.780670007
 20
122.9363304077
 10
141.7367819518
 20
122.8035048116
 10
141.7023630091
 20
122.6693536845
 10
141.6778050684
 20
122.5347988661
 10
141.6634861586
 20
122.4003743808
  0
LINE
  5
21F
100
AcDbEntity
  8
RACCORDO
100
AcDbLine
 62
7
  6
CONTINUOUS
 10
142.5662936496
 20
123.9279771574
 11
142.5306791508
 21
123.9064815611
  0
LINE
  5
220
100
AcDbEntity
  8
RACCORDO
100
AcDbLine
 62
7
  6
CONTINUOUS
 10
142.5662811378
 20
123.927970067
 11
144.7022039243
 21
125.1734086871
  0
LINE
  5
221
100
AcDbEntity
  8
ASSI
100
AcDbLine
 62
7
  6
CONTINUOUS
 10
142.5662811378
 20
123.927970067
 11
144.7022039243
 21
125.1734086871
  0
LINE
  5
222
100
AcDbEntity
  8
RACCORDO
100
AcDbLine
 62
250
  6
CONTINUOUS
 10
142.799647218
 20
123.91920969
 11
144.9285258581
 21
125.1605409275
  0
LINE
  5
223
100
AcDbEntity
  8
ASSI
100
AcDbLine
 62
250
  6
CONTINUOUS
 10
142.799647218
 20
123.91920969
 11
144.9285258581
 21
125.1605409275
  0
LWPOLYLINE
  5
224
100
AcDbEntity
  8
RACCORDO
100
AcDbPolyline
 62
7
  6
CONTINUOUS
 90
19
 70
0
 10
157.1758202681
 20
78.3047052433
 10
157.213123748
 20
78.2888872409
 10
157.2512942315
 20
78.2747150149
 10
157.2902873544
 20
78.2622266678
 10
157.3300933861
 20
78.2514512184
 10
157.3706555306
 20
78.2424326988
 10
157.4119057782
 20
78.2352110857
 10
157.4538234003
 20
78.2298160716
 10
157.4963479655
 20
78.2262843274
 10
157.5394141852
 20
78.2246496285
 10
157.583001519
 20
78.2249404243
 10
157.6270460728
 20
78.2271853483
 10
157.6714905017
 20
78.2314111926
 10
157.7163344377
 20
78.2376519582
 10
157.7615274135
 20
78.2459364568
 10
157.8070108462
 20
78.2562902428
 10
157.8527835452
 20
78.2687544972
 10
157.8988111672
 20
78.2833654495
 10
157.9450172976
 20
78.3001427731
  0
LWPOLYLINE
  5
225
100
AcDbEntity
  8
ASSI
100
AcDbPolyline
 62
7
  6
CONTINUOUS
 90
10
 70
0
 10
157.1428717491
 20
78.3203936043
 10
157.1998066313
 20
78.2943051443
 10
157.2747698913
 20
78.2669621645
 10
157.3527354746
 20
78.2461781612
 10
157.4332983536
 20
78.2322169652
 10
157.5162364715
 20
78.2252893297
 10
157.6010960341
 20
78.2256271096
 10
157.6874064534
 20
78.2333996593
 10
157.775054182
 20
78.2488044152
 10
157.8637848349
 20
78.2720570203
  0
LINE
  5
226
100
AcDbEntity
  8
RACCORDO
100
AcDbLine
 62
7
  6
CONTINUOUS
 10
157.1437658637
 20
78.3199452923
 11
157.1758202681
 21
78.3047052433
  0
LINE
  5
227
100
AcDbEntity
  8
RACCORDO
100
AcDbLine
 62
7
  6
CONTINUOUS
 10
157.1438727139
 20
78.3198916237
 11
142.1914855697
 21
85.7960851958
  0
LINE
  5
228
100
AcDbEntity
  8
ASSI
100
AcDbLine
 62
7
  6
CONTINUOUS
 10
157.1438727139
 20
78.3198916237
 11
142.1914855697
 21
85.7960851958
  0
LINE
  5
229
100
AcDbEntity
  8
RACCORDO
100
AcDbLine
 62
7
  6
CONTINUOUS
 10
157.1437546131
 20
78.3199506911
 11
157.1438729078
 21
78.3198915267
  0
LINE
  5
22A
100
AcDbEntity
  8
RACCORDO
100
AcDbLine
 62
250
  6
CONTINUOUS
 10
156.7504035492
 20
79.0805086158
 11
141.8070685963
 21
86.5521760918
  0
LINE
  5
22B
100
AcDbEntity
  8
ASSI
100
AcDbLine
 62
250
  6
CONTINUOUS
 10
156.7504035492
 20
79.0805086158
 11
141.8070685963
 21
86.5521760918
  0
LINE
  5
22C
100
AcDbEntity
  8
ASSI
100
AcDbLine
 62
7
  6
CONTINUOUS
 10
142.1603126392
 20
85.8124784059
 11
142.1938473969
 21
85.7949114578
  0
LINE
  5
22D
100
AcDbEntity
  8
RACCORDO
100
AcDbLine
 62
250
  6
CONTINUOUS
 10
157.1239318746
 20
78.3303544893
 11
157.1437546131
 21
78.3199506911
  0
LINE
  5
22E
100
AcDbEntity
  8
RACCORDO
100
AcDbLine
 62
250
  6
CONTINUOUS
 10
142.191485373
 20
85.7960852941
 11
142.1720031267
 21
85.8063188632
  0
LINE
  5
22F
100
AcDbEntity
  8
RACCORDO
100
AcDbLine
 62
7
  6
CONTINUOUS
 10
142.1523401167
 20
85.816934027
 11
142.1916882639
 21
85.7959841131
  0
LINE
  5
230
100
AcDbEntity
  8
RACCORDO
100
AcDbLine
 62
250
  6
CONTINUOUS
 10
142.1720031267
 20
85.8063188632
 11
142.1399321909
 21
85.8254332032
  0
LWPOLYLINE
  5
231
100
AcDbEntity
  8
ASSI
100
AcDbPolyline
 62
250
  6
CONTINUOUS
 90
21
 70
0
 10
142.1720031267
 20
85.8063188632
 10
142.1399321909
 20
85.8254332032
 10
142.1090640376
 20
85.8467641485
 10
142.0794511714
 20
85.8702754898
 10
142.0511441065
 20
85.895927285
 10
142.0241896544
 20
85.9236765754
 10
141.9986337691
 20
85.9534761104
 10
141.9745198188
 20
85.9852755226
 10
141.9518871652
 20
86.019022025
 10
141.9307742723
 20
86.0546585753
 10
141.9112171651
 20
86.0921249209
 10
141.8932477717
 20
86.1313588435
 10
141.8768964135
 20
86.1722948416
 10
141.8621913761
 20
86.2148632323
 10
141.8491572944
 20
86.2589911587
 10
141.8378163169
 20
86.3046033679
 10
141.8281875085
 20
86.35162351
 10
141.8202864657
 20
86.3999732792
 10
141.8141263831
 20
86.449571522
 10
141.8097179397
 20
86.5003343031
 10
141.8070685963
 20
86.5521760918
  0
LWPOLYLINE
  5
232
100
AcDbEntity
  8
RACCORDO
100
AcDbPolyline
 62
250
  6
CONTINUOUS
 90
20
 70
0
 10
142.1399321909
 20
85.8254332032
 10
142.1090640376
 20
85.8467641485
 10
142.0794511714
 20
85.8702754898
 10
142.0511441065
 20
85.895927285
 10
142.0241896544
 20
85.9236765754
 10
141.9986337691
 20
85.9534761104
 10
141.9745198188
 20
85.9852755226
 10
141.9518871652
 20
86.019022025
 10
141.9307742723
 20
86.0546585753
 10
141.9112171651
 20
86.0921249209
 10
141.8932477717
 20
86.1313588435
 10
141.8768964135
 20
86.1722948416
 10
141.8621913761
 20
86.2148632323
 10
141.8491572944
 20
86.2589911587
 10
141.8378163169
 20
86.3046033679
 10
141.8281875085
 20
86.35162351
 10
141.8202864657
 20
86.3999732792
 10
141.8141263831
 20
86.449571522
 10
141.8097179397
 20
86.5003343031
 10
141.8070685963
 20
86.5521760918
  0
LINE
  5
233
100
AcDbEntity
  8
RACCORDO
100
AcDbLine
 62
7
  6
CONTINUOUS
 10
146.9283093574
 20
124.1606491779
 11
146.7467788731
 21
123.7943403592
  0
LINE
  5
234
100
AcDbEntity
  8
ASSI
100
AcDbLine
 62
7
  6
CONTINUOUS
 10
146.9283093574
 20
124.1606491779
 11
146.7467788731
 21
123.7943403592
  0
LWPOLYLINE
  5
235
100
AcDbEntity
  8
ASSI
100
AcDbPolyline
 62
7
  6
CONTINUOUS
 90
11
 70
0
 10
141.6606084541
 20
86.7297228268
 10
141.6642248237
 20
86.6645224309
 10
141.6800577081
 20
86.5366317551
 10
141.7068720145
 20
86.4158721242
 10
141.7441875405
 20
86.3028061221
 10
141.7915950491
 20
86.1977651248
 10
141.848726822
 20
86.1011076535
 10
141.914979319
 20
86.0135736749
 10
141.9896121835
 20
85.9358682891
 10
142.0717623032
 20
85.8686245586
 10
142.1603126392
 20
85.8124784059
  0
LINE
  5
236
100
AcDbEntity
  8
RACCORDO
100
AcDbLine
 62
250
  6
CONTINUOUS
 10
141.6606055018
 20
86.7298018079
 11
141.6609080761
 21
86.7243208705
  0
LWPOLYLINE
  5
237
100
AcDbEntity
  8
RACCORDO
100
AcDbPolyline
 62
7
  6
CONTINUOUS
 90
23
 70
0
 10
141.6606057755
 20
86.7298018171
 10
141.6627934157
 20
86.6847778522
 10
141.6676015578
 20
86.627283566
 10
141.6745770244
 20
86.5711970823
 10
141.6836686057
 20
86.5165693051
 10
141.6948278292
 20
86.4634153822
 10
141.7080166336
 20
86.4117351776
 10
141.7231928321
 20
86.3615583777
 10
141.7403102917
 20
86.3129232277
 10
141.7593290187
 20
86.2658581067
 10
141.780202696
 20
86.220405612
 10
141.8028803297
 20
86.1766072267
 10
141.8273093146
 20
86.1345067173
 10
141.8534281306
 20
86.0941582815
 10
141.8811745444
 20
86.0556036929
 10
141.9104839917
 20
86.0188836068
 10
141.9412813946
 20
85.9840480593
 10
141.9734856482
 20
85.951143627
 10
142.007008833
 20
85.9202119606
 10
142.0417592295
 20
85.891291164
 10
142.0776385532
 20
85.8644175233
 10
142.1145356026
 20
85.8396249216
 10
142.1523401167
 20
85.816934027
  0
LINE
  5
238
100
AcDbEntity
  8
ASSI
100
AcDbLine
 62
7
  6
CONTINUOUS
 10
141.660605374
 20
86.7298056091
 11
141.6606081803
 21
86.7297228175
  0
LWPOLYLINE
  5
239
100
AcDbEntity
  8
RACCORDO
100
AcDbPolyline
 62
7
  6
CONTINUOUS
 90
10
 70
0
 10
141.6147341386
 20
120.8711434699
 10
141.5724135629
 20
119.3886840698
 10
141.5340482767
 20
117.9080975488
 10
141.4996388289
 20
116.4294027725
 10
141.4691856008
 20
114.9526163607
 10
141.4426889259
 20
113.477753993
 10
141.4201491393
 20
112.0048319836
 10
141.4015665059
 20
110.5338667075
 10
141.3869412638
 20
109.0648739396
 10
141.3762736402
 20
107.597870136
  0
LWPOLYLINE
  5
23A
100
AcDbEntity
  8
ASSI
100
AcDbPolyline
 62
7
  6
CONTINUOUS
 90
10
 70
0
 10
141.6605867525
 20
122.3424420695
 10
141.601345915
 20
120.4166874537
 10
141.5471056824
 20
118.4292041466
 10
141.4999838205
 20
116.4451123053
 10
141.4599813682
 20
114.4644539643
 10
141.4270991561
 20
112.4872683392
 10
141.4013378917
 20
110.5135939269
 10
141.3826981695
 20
108.5434698106
 10
141.3711804823
 20
106.5769374149
 10
141.3668201072
 20
104.6853092181
  0
LINE
  5
23B
100
AcDbEntity
  8
RACCORDO
100
AcDbLine
 62
7
  6
CONTINUOUS
 10
141.6605867525
 20
122.3424420674
 11
141.6147341386
 21
120.8711434699
  0
LWPOLYLINE
  5
23C
100
AcDbEntity
  8
RACCORDO
100
AcDbPolyline
 62
250
  6
CONTINUOUS
 90
37
 70
0
 10
141.8070685963
 20
122.1673804624
 10
141.8097179397
 20
122.221934398
 10
141.814126383
 20
122.2772093771
 10
141.8202864656
 20
122.333112408
 10
141.8281875083
 20
122.3895492531
 10
141.8378163168
 20
122.446425188
 10
141.8491572942
 20
122.503645181
 10
141.8621913758
 20
122.561114027
 10
141.8768964132
 20
122.6187341151
 10
141.8932477714
 20
122.6764061956
 10
141.9112171648
 20
122.734032486
 10
141.9307742719
 20
122.7915169775
 10
141.9518871648
 20
122.8487632084
 10
141.9745198183
 20
122.9056750816
 10
141.9986337686
 20
122.9621569103
 10
142.0241896539
 20
123.0181136896
 10
142.051144106
 20
123.0734518539
 10
142.0794511709
 20
123.1280780285
 10
142.109064037
 20
123.1818990776
 10
142.1399321903
 20
123.2348246949
 10
142.172003126
 20
123.2867660165
 10
142.2052237614
 20
123.3376344021
 10
142.2395371683
 20
123.3873442445
 10
142.2748851535
 20
123.4358125257
 10
142.3112099418
 20
123.4829574267
 10
142.3484495909
 20
123.5286999222
 10
142.3865407286
 20
123.5729633371
 10
142.4254211558
 20
123.6156728388
 10
142.4650252195
 20
123.6567574624
 10
142.5052849356
 20
123.6961476621
 10
142.5461327176
 20
123.7337749666
 10
142.5874981338
 20
123.7695758879
 10
142.6293114625
 20
123.8034913775
 10
142.6715048319
 20
123.8354643014
 10
142.7140074943
 20
123.8654410345
 10
142.7567459169
 20
123.8933716895
 10
142.7996472901
 20
123.9192096539
  0
LWPOLYLINE
  5
23D
100
AcDbEntity
  8
ASSI
100
AcDbPolyline
 62
250
  6
CONTINUOUS
 90
37
 70
0
 10
141.8070685963
 20
122.1673804624
 10
141.8097179397
 20
122.221934398
 10
141.814126383
 20
122.2772093771
 10
141.8202864656
 20
122.333112408
 10
141.8281875083
 20
122.3895492531
 10
141.8378163168
 20
122.446425188
 10
141.8491572942
 20
122.503645181
 10
141.8621913758
 20
122.561114027
 10
141.8768964132
 20
122.6187341151
 10
141.8932477714
 20
122.6764061956
 10
141.9112171648
 20
122.734032486
 10
141.9307742719
 20
122.7915169775
 10
141.9518871648
 20
122.8487632084
 10
141.9745198183
 20
122.9056750816
 10
141.9986337686
 20
122.9621569103
 10
142.0241896539
 20
123.0181136896
 10
142.051144106
 20
123.0734518539
 10
142.0794511709
 20
123.1280780285
 10
142.109064037
 20
123.1818990776
 10
142.1399321903
 20
123.2348246949
 10
142.172003126
 20
123.2867660165
 10
142.2052237614
 20
123.3376344021
 10
142.2395371683
 20
123.3873442445
 10
142.2748851535
 20
123.4358125257
 10
142.3112099418
 20
123.4829574267
 10
142.3484495909
 20
123.5286999222
 10
142.3865407286
 20
123.5729633371
 10
142.4254211558
 20
123.6156728388
 10
142.4650252195
 20
123.6567574624
 10
142.5052849356
 20
123.6961476621
 10
142.5461327176
 20
123.7337749666
 10
142.5874981338
 20
123.7695758879
 10
142.6293114625
 20
123.8034913775
 10
142.6715048319
 20
123.8354643014
 10
142.7140074943
 20
123.8654410345
 10
142.7567459169
 20
123.8933716895
 10
142.7996472901
 20
123.9192096539
  0
LINE
  5
23E
100
AcDbEntity
  8
ASSI
100
AcDbLine
 62
7
  6
CONTINUOUS
 10
141.6634861586
 20
122.4003743808
 11
141.6605801432
 21
122.3422238151
  0
LWPOLYLINE
  5
23F
100
AcDbEntity
  8
RACCORDO
100
AcDbPolyline
 62
7
  6
CONTINUOUS
 90
3
 70
0
 10
141.6668150205
 20
122.4421431871
 10
141.6624997839
 20
122.3846536802
 10
141.6605866935
 20
122.3424321136
  0
LWPOLYLINE
  5
240
100
AcDbEntity
  8
RACCORDO
100
AcDbPolyline
 62
7
  6
CONTINUOUS
 90
4
 70
0
 10
141.3717676255
 20
104.1358589554
 10
141.3688665901
 20
104.1173181413
 10
141.3672278775
 20
104.0987323037
 10
141.3668201606
 20
104.0835288982
  0
LINE
  5
241
100
AcDbEntity
  8
SIMBOLI
100
AcDbLine
 62
250
  6
CONTINUOUS
 10
152.2471855149
 20
89.3999093032
 11
145.8832244842
 21
92.5818898186
  0
LWPOLYLINE
  5
242
100
AcDbEntity
  8
RACCORDO
100
AcDbPolyline
 62
250
  6
CONTINUOUS
 90
14
 70
0
 10
141.6609080761
 20
86.7243208705
 10
141.6628028401
 20
86.7094549111
 10
141.6663650267
 20
86.6945460537
 10
141.6715617176
 20
86.6798094205
 10
141.6783757172
 20
86.6652937749
 10
141.6867844779
 20
86.6510471493
 10
141.6967601752
 20
86.6371166854
 10
141.7082697996
 20
86.6235484791
 10
141.7212752658
 20
86.6103874275
 10
141.7357335389
 20
86.5976770804
 10
141.7515967765
 20
86.5854594962
 10
141.7688124874
 20
86.5737751028
 10
141.7873237049
 20
86.5626625638
 10
141.8070691755
 20
86.5521586504
  0
LWPOLYLINE
  5
243
100
AcDbEntity
  8
ASSI
100
AcDbPolyline
 62
250
  6
CONTINUOUS
 90
14
 70
0
 10
141.6608869451
 20
86.7244866596
 10
141.6628028401
 20
86.7094549111
 10
141.6663650267
 20
86.6945460537
 10
141.6715617176
 20
86.6798094205
 10
141.6783757172
 20
86.6652937749
 10
141.6867844779
 20
86.6510471493
 10
141.6967601752
 20
86.6371166854
 10
141.7082697996
 20
86.6235484791
 10
141.7212752658
 20
86.6103874275
 10
141.7357335389
 20
86.5976770804
 10
141.7515967765
 20
86.5854594962
 10
141.7688124874
 20
86.5737751028
 10
141.7873237049
 20
86.5626625638
 10
141.8070691755
 20
86.5521586504
  0
LINE
  5
244
100
AcDbEntity
  8
RACCORDO
100
AcDbLine
 62
250
  6
CONTINUOUS
 10
141.3668504133
 20
104.6829107549
 11
141.3677352814
 21
104.6702203886
  0
LWPOLYLINE
  5
245
100
AcDbEntity
  8
ASSI
100
AcDbPolyline
 62
7
  6
CONTINUOUS
 90
9
 70
0
 10
141.3668201442
 20
104.6851466811
 10
141.3694141258
 20
104.6475687248
 10
141.3789708018
 20
104.6043491218
 10
141.3954797966
 20
104.5625308693
 10
141.4187292966
 20
104.5229106174
 10
141.4483542588
 20
104.4862167385
 10
141.4839619288
 20
104.4529332344
 10
141.5254397683
 20
104.4232050307
 10
141.565108318
 20
104.4009385039
  0
LWPOLYLINE
  5
246
100
AcDbEntity
  8
RACCORDO
100
AcDbPolyline
 62
250
  6
CONTINUOUS
 90
13
 70
0
 10
141.807068588
 20
86.5521760958
 10
141.7608921489
 20
87.98647214
 10
141.7186594902
 20
89.4229639274
 10
141.680370837
 20
90.8616349952
 10
141.6460266042
 20
92.3024585648
 10
141.6156266334
 20
93.7454283917
 10
141.5891704798
 20
95.1905589185
 10
141.5666580285
 20
96.6378331055
 10
141.5480899454
 20
98.0872351332
 10
141.5334674258
 20
99.5387815203
 10
141.5227912717
 20
100.9924669316
 10
141.5160615829
 20
102.4482640179
 10
141.5132787108
 20
103.9061563826
  0
LWPOLYLINE
  5
247
100
AcDbEntity
  8
ASSI
100
AcDbPolyline
 62
250
  6
CONTINUOUS
 90
13
 70
0
 10
141.807068588
 20
86.5521760958
 10
141.7608921489
 20
87.98647214
 10
141.7186594902
 20
89.4229639274
 10
141.680370837
 20
90.8616349952
 10
141.6460266042
 20
92.3024585648
 10
141.6156266334
 20
93.7454283917
 10
141.5891704798
 20
95.1905589185
 10
141.5666580285
 20
96.6378331055
 10
141.5480899454
 20
98.0872351332
 10
141.5334674258
 20
99.5387815203
 10
141.5227912717
 20
100.9924669316
 10
141.5160615829
 20
102.4482640179
 10
141.5132787108
 20
103.9061563826
  0
LWPOLYLINE
  5
248
100
AcDbEntity
  8
RACCORDO
100
AcDbPolyline
 62
250
  6
CONTINUOUS
 90
13
 70
0
 10
141.5132670627
 20
104.509164592
 10
141.5136511533
 20
104.4964787237
 10
141.514815941
 20
104.4842538207
 10
141.5167549785
 20
104.4725575529
 10
141.5194575322
 20
104.4614546637
 10
141.5229086426
 20
104.4510066121
 10
141.5270892064
 20
104.4412712322
 10
141.5319760824
 20
104.4323024131
 10
141.5375422199
 20
104.4241498009
 10
141.543756808
 20
104.4168585235
 10
141.5505854466
 20
104.410468941
 10
141.5579903364
 20
104.4050164224
 10
141.5652287513
 20
104.4008776734
  0
LWPOLYLINE
  5
249
100
AcDbEntity
  8
ASSI
100
AcDbPolyline
 62
250
  6
CONTINUOUS
 90
13
 70
0
 10
141.5132670627
 20
104.509164592
 10
141.5136511533
 20
104.4964787237
 10
141.514815941
 20
104.4842538207
 10
141.5167549785
 20
104.4725575529
 10
141.5194575322
 20
104.4614546637
 10
141.5229086426
 20
104.4510066121
 10
141.5270892064
 20
104.4412712322
 10
141.5319760824
 20
104.4323024131
 10
141.5375422199
 20
104.4241498009
 10
141.543756808
 20
104.4168585235
 10
141.5505854466
 20
104.410468941
 10
141.5579903364
 20
104.4050164224
 10
141.5651081417
 20
104.4009381519
  0
LWPOLYLINE
  5
24A
100
AcDbEntity
  8
RACCORDO
100
AcDbPolyline
 62
7
  6
CONTINUOUS
 90
3
 70
0
 10
141.5724566273
 20
89.5913597755
 10
141.614783751
 20
88.1526108581
 10
141.6606053739
 20
86.7298056119
  0
LWPOLYLINE
  5
24B
100
AcDbEntity
  8
ASSI
100
AcDbPolyline
 62
250
  6
CONTINUOUS
 90
15
 70
0
 10
141.6605801432
 20
122.3422238151
 10
141.6608872211
 20
122.3297987737
 10
141.6628031263
 20
122.3161434982
 10
141.6663653215
 20
122.3025215596
 10
141.6715620196
 20
122.2889780328
 10
141.6783760246
 20
122.2755577332
 10
141.6867847891
 20
122.2623050683
 10
141.6967604887
 20
122.249263891
 10
141.7082701138
 20
122.2364773546
 10
141.7212755792
 20
122.2239877695
 10
141.73573385
 20
122.2118364635
 10
141.7515970838
 20
122.2000636453
 10
141.7688127896
 20
122.188708271
 10
141.7873240005
 20
122.1778079153
 10
141.8070694634
 20
122.1673986474
  0
LWPOLYLINE
  5
24C
100
AcDbEntity
  8
RACCORDO
100
AcDbPolyline
 62
250
  6
CONTINUOUS
 90
15
 70
0
 10
141.6605866935
 20
122.3424321136
 10
141.6608872211
 20
122.3297987737
 10
141.6628031263
 20
122.3161434982
 10
141.6663653215
 20
122.3025215596
 10
141.6715620196
 20
122.2889780328
 10
141.6783760246
 20
122.2755577332
 10
141.6867847891
 20
122.2623050683
 10
141.6967604887
 20
122.249263891
 10
141.7082701138
 20
122.2364773546
 10
141.7212755792
 20
122.2239877695
 10
141.73573385
 20
122.2118364635
 10
141.7515970838
 20
122.2000636453
 10
141.7688127896
 20
122.188708271
 10
141.7873240005
 20
122.1778079153
 10
141.8070694634
 20
122.1673986474
  0
LWPOLYLINE
  5
24D
100
AcDbEntity
  8
RACCORDO
100
AcDbPolyline
 62
7
  6
CONTINUOUS
 90
21
 70
0
 10
141.3668202241
 20
104.6853981166
 10
141.3669066477
 20
104.6782774753
 10
141.367879213
 20
104.6611132629
 10
141.3699356181
 20
104.6439768168
 10
141.3730796314
 20
104.626913516
 10
141.3773249004
 20
104.6099316853
 10
141.3826763187
 20
104.5930917433
 10
141.3891316538
 20
104.5764589542
 10
141.3967069966
 20
104.5600450257
 10
141.4054060441
 20
104.5438987817
 10
141.4152200525
 20
104.5280851641
 10
141.4261621089
 20
104.5126292529
 10
141.4382331168
 20
104.497573403
 10
141.4514270305
 20
104.4829635661
 10
141.4657669788
 20
104.4688148074
 10
141.4812631335
 20
104.4551609879
 10
141.4979259419
 20
104.4420332524
 10
141.5158116943
 20
104.4294333473
 10
141.5349680282
 20
104.417383028
 10
141.5554046263
 20
104.4059291058
 10
141.5652289271
 20
104.4008780249
  0
LINE
  5
24E
100
AcDbEntity
  8
ASSI
100
AcDbLine
 62
250
  6
CONTINUOUS
 10
141.3668201211
 20
104.6851502646
 11
141.3668391479
 21
104.6830723187
  0
LWPOLYLINE
  5
24F
100
AcDbEntity
  8
RACCORDO
100
AcDbPolyline
 62
7
  6
CONTINUOUS
 90
10
 70
0
 10
141.369567542
 20
102.6376805772
 10
141.3762806765
 20
101.1796102747
 10
141.3869517126
 20
99.7236206383
 10
141.4015805722
 20
98.2697300207
 10
141.4201670812
 20
96.8179546692
 10
141.4427110551
 20
95.3683101371
 10
141.4692122823
 20
93.9208125537
 10
141.4996704814
 20
92.4754779128
 10
141.5340853722
 20
91.0323215697
 10
141.5724566273
 20
89.5913597755
  0
LWPOLYLINE
  5
250
100
AcDbEntity
  8
ASSI
100
AcDbPolyline
 62
7
  6
CONTINUOUS
 90
10
 70
0
 10
141.3668201077
 20
104.0835695516
 10
141.3712040108
 20
102.1906755482
 10
141.3827429444
 20
100.2360425454
 10
141.401404247
 20
98.2851745465
 10
141.4271875542
 20
96.3381125228
 10
141.4600924002
 20
94.3948950063
 10
141.500118206
 20
92.4555598162
 10
141.5472642704
 20
90.5201453703
 10
141.6015296823
 20
88.5886927097
 10
141.660605374
 20
86.7298056091
  0
LINE
  5
251
100
AcDbEntity
  8
RACCORDO
100
AcDbLine
 62
7
  6
CONTINUOUS
 10
141.3668201077
 20
104.0835695492
 11
141.369567542
 21
102.6376805772
  0
LWPOLYLINE
  5
252
100
AcDbEntity
  8
RACCORDO
100
AcDbPolyline
 62
250
  6
CONTINUOUS
 90
13
 70
0
 10
141.5132787107
 20
104.5091587681
 10
141.5160615828
 20
105.9699433416
 10
141.5227912717
 20
107.4327168803
 10
141.5334674258
 20
108.8974626361
 10
141.5480899454
 20
110.3641523044
 10
141.5666580285
 20
111.8327806037
 10
141.5891704798
 20
113.3033654247
 10
141.6156266334
 20
114.7758911372
 10
141.6460266042
 20
116.2503399611
 10
141.680370837
 20
117.7267267845
 10
141.7186594902
 20
119.2050455214
 10
141.7608921489
 20
120.685268978
 10
141.807068588
 20
122.1673804665
  0
LWPOLYLINE
  5
253
100
AcDbEntity
  8
ASSI
100
AcDbPolyline
 62
250
  6
CONTINUOUS
 90
13
 70
0
 10
141.5132787107
 20
104.5091587681
 10
141.5160615828
 20
105.9699433416
 10
141.5227912717
 20
107.4327168803
 10
141.5334674258
 20
108.8974626361
 10
141.5480899454
 20
110.3641523044
 10
141.5666580285
 20
111.8327806037
 10
141.5891704798
 20
113.3033654247
 10
141.6156266334
 20
114.7758911372
 10
141.6460266042
 20
116.2503399611
 10
141.680370837
 20
117.7267267845
 10
141.7186594902
 20
119.2050455214
 10
141.7608921489
 20
120.685268978
 10
141.807068588
 20
122.1673804665
  0
LWPOLYLINE
  5
254
100
AcDbEntity
  8
RACCORDO
100
AcDbPolyline
 62
7
  6
CONTINUOUS
 90
3
 70
0
 10
141.3762736402
 20
107.597870136
 10
141.3695637668
 20
106.1328737586
 10
141.3668201072
 20
104.6853092205
  0
LWPOLYLINE
  5
255
100
AcDbEntity
  8
RACCORDO
100
AcDbPolyline
 62
250
  6
CONTINUOUS
 90
22
 70
0
 10
141.5132670627
 20
103.9061622066
 10
141.5136511542
 20
103.9192321839
 10
141.5148159449
 20
103.9326218926
 10
141.5167549872
 20
103.9462572153
 10
141.5194575474
 20
103.960062675
 10
141.5229086656
 20
103.9739618524
 10
141.527089238
 20
103.9878778093
 10
141.5319761232
 20
104.0017335151
 10
141.53754227
 20
104.0154522728
 10
141.543756867
 20
104.0289581432
 10
141.5505855135
 20
104.0421763659
 10
141.5579904101
 20
104.0550337729
 10
141.565930567
 20
104.0674591932
 10
141.5743620321
 20
104.0793838474
 10
141.5832381335
 20
104.0907417281
 10
141.5925097382
 20
104.1014699651
 10
141.6021255239
 20
104.1115091739
 10
141.6120322633
 20
104.120803784
 10
141.6221751185
 20
104.1293023466
 10
141.6324979447
 20
104.1369578194
 10
141.6429436012
 20
104.1437278271
 10
141.6534542671
 20
104.1495748957
  0
LWPOLYLINE
  5
256
100
AcDbEntity
  8
ASSI
100
AcDbPolyline
 62
250
  6
CONTINUOUS
 90
22
 70
0
 10
141.5132670627
 20
103.9061622066
 10
141.5136511542
 20
103.9192321839
 10
141.5148159449
 20
103.9326218926
 10
141.5167549872
 20
103.9462572153
 10
141.5194575474
 20
103.960062675
 10
141.5229086656
 20
103.9739618524
 10
141.527089238
 20
103.9878778093
 10
141.5319761232
 20
104.0017335151
 10
141.53754227
 20
104.0154522728
 10
141.543756867
 20
104.0289581432
 10
141.5505855135
 20
104.0421763659
 10
141.5579904101
 20
104.0550337729
 10
141.565930567
 20
104.0674591932
 10
141.5743620321
 20
104.0793838474
 10
141.5832381335
 20
104.0907417281
 10
141.5925097382
 20
104.1014699651
 10
141.6021255239
 20
104.1115091739
 10
141.6120322633
 20
104.120803784
 10
141.6221751185
 20
104.1293023466
 10
141.6324979447
 20
104.1369578194
 10
141.6429436012
 20
104.1437278271
 10
141.6534542671
 20
104.1495748957
  0
LINE
  5
257
100
AcDbEntity
  8
ASSI
100
AcDbLine
 62
7
  6
CONTINUOUS
 10
141.3696450083
 20
104.1231398945
 11
141.3668203319
 21
104.0834008139
  0
LWPOLYLINE
  5
258
100
AcDbEntity
  8
ASSI
100
AcDbPolyline
 62
250
  6
CONTINUOUS
 90
5
 70
0
 10
141.5669390682
 20
104.2706776878
 10
141.5688057419
 20
104.2784741035
 10
141.5714730614
 20
104.2862147865
 10
141.5749347012
 20
104.2939002784
 10
141.5791629946
 20
104.3014692138
  0
LWPOLYLINE
  5
259
100
AcDbEntity
  8
ASSI
100
AcDbPolyline
 62
250
  6
CONTINUOUS
 90
6
 70
0
 10
141.5791629946
 20
104.3014692138
 10
141.5841643438
 20
104.3089208725
 10
141.5899323467
 20
104.3162559746
 10
141.5964201311
 20
104.3234153158
 10
141.6036337523
 20
104.3303975017
 10
141.611567155
 20
104.3372039266
  0
LWPOLYLINE
  5
25A
100
AcDbEntity
  8
RACCORDO
100
AcDbPolyline
 62
250
  6
CONTINUOUS
 90
9
 70
0
 10
141.5841643438
 20
104.3089208725
 10
141.5899323467
 20
104.3162559746
 10
141.5964201311
 20
104.3234153158
 10
141.6036337523
 20
104.3303975017
 10
141.611567155
 20
104.3372039266
 10
141.6201553019
 20
104.3437795688
 10
141.6293765141
 20
104.3501060876
 10
141.6392524706
 20
104.3562018237
 10
141.6465035896
 20
104.3602402515
  0
LWPOLYLINE
  5
25B
100
AcDbEntity
  8
RACCORDO
100
AcDbPolyline
 62
250
  6
CONTINUOUS
 90
37
 70
0
 10
157.7663549446
 20
116.4358558271
 10
157.7224404924
 20
116.4105244025
 10
157.678696252
 20
116.3830966567
 10
157.6351950329
 20
116.3536192021
 10
157.5920087292
 20
116.3221427455
 10
157.5492097274
 20
116.2887200924
 10
157.5068708161
 20
116.2534059187
 10
157.4650617436
 20
116.2162592594
 10
157.4238529151
 20
116.177343616
 10
157.383316753
 20
116.1367250415
 10
157.3435213525
 20
116.0944730265
 10
157.3045322557
 20
116.0506585912
 10
157.2664161647
 20
116.0053543166
 10
157.2292365555
 20
115.9586368261
 10
157.1930552668
 20
115.9105851966
 10
157.1579342671
 20
115.8612791506
 10
157.1239318753
 20
115.8108016433
 10
157.0911048937
 20
115.7592383446
 10
157.0595102216
 20
115.7066759866
 10
157.0292005139
 20
115.6532033584
 10
157.0002261345
 20
115.598910841
 10
156.9726372606
 20
115.5438898876
 10
156.9464800163
 20
115.4882337878
 10
156.9217975998
 20
115.4320361922
 10
156.8986322291
 20
115.3753906776
 10
156.8770225484
 20
115.3183928406
 10
156.8570044025
 20
115.2611388684
 10
156.8386120347
 20
115.2037240652
 10
156.8218759522
 20
115.1462443468
 10
156.8068242548
 20
115.0887975887
 10
156.7934833352
 20
115.0314821616
 10
156.7818755515
 20
114.9743955717
 10
156.7720197587
 20
114.917633129
 10
156.7639326828
 20
114.8612893004
 10
156.7576278944
 20
114.8054586223
 10
156.7531156963
 20
114.7502355203
 10
156.7504035492
 20
114.6957129864
  0
LWPOLYLINE
  5
25C
100
AcDbEntity
  8
ASSI
100
AcDbPolyline
 62
250
  6
CONTINUOUS
 90
37
 70
0
 10
157.7663549446
 20
116.4358558271
 10
157.7224404924
 20
116.4105244025
 10
157.678696252
 20
116.3830966567
 10
157.6351950329
 20
116.3536192021
 10
157.5920087292
 20
116.3221427455
 10
157.5492097274
 20
116.2887200924
 10
157.5068708161
 20
116.2534059187
 10
157.4650617436
 20
116.2162592594
 10
157.4238529151
 20
116.177343616
 10
157.383316753
 20
116.1367250415
 10
157.3435213525
 20
116.0944730265
 10
157.3045322557
 20
116.0506585912
 10
157.2664161647
 20
116.0053543166
 10
157.2292365555
 20
115.9586368261
 10
157.1930552668
 20
115.9105851966
 10
157.1579342671
 20
115.8612791506
 10
157.1239318753
 20
115.8108016433
 10
157.0911048937
 20
115.7592383446
 10
157.0595102216
 20
115.7066759866
 10
157.0292005139
 20
115.6532033584
 10
157.0002261345
 20
115.598910841
 10
156.9726372606
 20
115.5438898876
 10
156.9464800163
 20
115.4882337878
 10
156.9217975998
 20
115.4320361922
 10
156.8986322291
 20
115.3753906776
 10
156.8770225484
 20
115.3183928406
 10
156.8570044025
 20
115.2611388684
 10
156.8386120347
 20
115.2037240652
 10
156.8218759522
 20
115.1462443468
 10
156.8068242548
 20
115.0887975887
 10
156.7934833352
 20
115.0314821616
 10
156.7818755515
 20
114.9743955717
 10
156.7720197587
 20
114.917633129
 10
156.7639326828
 20
114.8612893004
 10
156.7576278944
 20
114.8054586223
 10
156.7531156963
 20
114.7502355203
 10
156.7504035492
 20
114.6957129864
  0
LWPOLYLINE
  5
25D
100
AcDbEntity
  8
RACCORDO
100
AcDbPolyline
 62
250
  6
CONTINUOUS
 90
37
 70
0
 10
158.132175296
 20
115.8328465428
 10
158.1026592185
 20
115.8159936852
 10
158.0733517952
 20
115.7978070845
 10
158.0442530261
 20
115.7782867407
 10
158.0153140135
 20
115.7573950527
 10
157.9865836552
 20
115.7351696216
 10
157.9582086443
 20
115.7117232506
 10
157.9301911031
 20
115.687049789
 10
157.9025289093
 20
115.6611553875
 10
157.8753623888
 20
115.6341713009
 10
157.8486944733
 20
115.606092381
 10
157.8225222311
 20
115.5769237759
 10
157.7969771923
 20
115.5468121852
 10
157.7720624761
 20
115.5157528652
 10
157.7477749633
 20
115.4837505596
 10
157.7242368269
 20
115.4509661988
 10
157.7014516973
 20
115.4173956065
 10
157.6794159441
 20
115.383042959
 10
157.6582408489
 20
115.3480817163
 10
157.6379308042
 20
115.3125087999
 10
157.6184814174
 20
115.2763272883
 10
157.5999907927
 20
115.2397198762
 10
157.582463898
 20
115.2026846768
 10
157.5658957653
 20
115.165223577
 10
157.5503695943
 20
115.1275249321
 10
157.535890601
 20
115.0895875828
 10
157.5224535693
 20
115.0514126883
 10
157.5101260516
 20
115.0131920812
 10
157.4989135346
 20
114.9749249542
 10
157.4888105314
 20
114.9366121146
 10
157.4798681338
 20
114.8984478165
 10
157.4720922987
 20
114.8604321562
 10
157.4654770692
 20
114.8225650373
 10
157.4600556662
 20
114.7850404256
 10
157.4558391632
 20
114.7479229761
 10
157.4528164867
 20
114.7111480338
 10
157.4509876367
 20
114.6747155985
  0
LWPOLYLINE
  5
25E
100
AcDbEntity
  8
ASSI
100
AcDbPolyline
 62
250
  6
CONTINUOUS
 90
37
 70
0
 10
158.132175296
 20
115.8328465428
 10
158.1026592185
 20
115.8159936852
 10
158.0733517952
 20
115.7978070845
 10
158.0442530261
 20
115.7782867407
 10
158.0153140135
 20
115.7573950527
 10
157.9865836552
 20
115.7351696216
 10
157.9582086443
 20
115.7117232506
 10
157.9301911031
 20
115.687049789
 10
157.9025289093
 20
115.6611553875
 10
157.8753623888
 20
115.6341713009
 10
157.8486944733
 20
115.606092381
 10
157.8225222311
 20
115.5769237759
 10
157.7969771923
 20
115.5468121852
 10
157.7720624761
 20
115.5157528652
 10
157.7477749633
 20
115.4837505596
 10
157.7242368269
 20
115.4509661988
 10
157.7014516973
 20
115.4173956065
 10
157.6794159441
 20
115.383042959
 10
157.6582408489
 20
115.3480817163
 10
157.6379308042
 20
115.3125087999
 10
157.6184814174
 20
115.2763272883
 10
157.5999907927
 20
115.2397198762
 10
157.582463898
 20
115.2026846768
 10
157.5658957653
 20
115.165223577
 10
157.5503695943
 20
115.1275249321
 10
157.535890601
 20
115.0895875828
 10
157.5224535693
 20
115.0514126883
 10
157.5101260516
 20
115.0131920812
 10
157.4989135346
 20
114.9749249542
 10
157.4888105314
 20
114.9366121146
 10
157.4798681338
 20
114.8984478165
 10
157.4720922987
 20
114.8604321562
 10
157.4654770692
 20
114.8225650373
 10
157.4600556662
 20
114.7850404256
 10
157.4558391632
 20
114.7479229761
 10
157.4528164867
 20
114.7111480338
 10
157.4509876367
 20
114.6747155985
  0
LINE
  5
25F
100
AcDbEntity
  8
RACCORDO
100
AcDbLine
 62
250
  6
CONTINUOUS
 10
159.9708733824
 20
117.6393671654
 11
157.7663550167
 21
116.4358557912
  0
LINE
  5
260
100
AcDbEntity
  8
ASSI
100
AcDbLine
 62
250
  6
CONTINUOUS
 10
159.9708733824
 20
117.6393671654
 11
157.7663550167
 21
116.4358557912
  0
LINE
  5
261
100
AcDbEntity
  8
RACCORDO
100
AcDbLine
 62
250
  6
CONTINUOUS
 10
160.3555001771
 20
117.0466249465
 11
158.132175296
 21
115.8328465428
  0
LINE
  5
262
100
AcDbEntity
  8
ASSI
100
AcDbLine
 62
250
  6
CONTINUOUS
 10
160.3555001771
 20
117.0466249465
 11
158.132175296
 21
115.8328465428
  0
LWPOLYLINE
  5
263
100
AcDbEntity
  8
RACCORDO
100
AcDbPolyline
 62
250
  6
CONTINUOUS
 90
28
 70
0
 10
157.4509876367
 20
114.6747155985
 10
157.4297494502
 20
114.6660599589
 10
157.4074322313
 20
114.6580280331
 10
157.3841098275
 20
114.6506463987
 10
157.3598594123
 20
114.6439394814
 10
157.3347612304
 20
114.6379294744
 10
157.3088983312
 20
114.6326362648
 10
157.2823562949
 20
114.6280773677
 10
157.255222949
 20
114.6242678684
 10
157.2275880774
 20
114.6212203727
 10
157.1995431237
 20
114.6189449646
 10
157.1711808884
 20
114.6174491734
 10
157.1425952219
 20
114.6167379488
 10
157.1138807139
 20
114.616813644
 10
157.0851323806
 20
114.6176760087
 10
157.0564453499
 20
114.6193221893
 10
157.027914547
 20
114.6217467386
 10
156.99963438
 20
114.6249416338
 10
156.9716984278
 20
114.628896303
 10
156.9441991302
 20
114.6335976603
 10
156.9172274822
 20
114.6390301488
 10
156.8908727328
 20
114.6451757925
 10
156.8652220895
 20
114.6520142556
 10
156.8403604302
 20
114.6595229096
 10
156.8163700219
 20
114.6676769085
 10
156.7933302486
 20
114.6764492707
 10
156.7713173488
 20
114.6858109685
 10
156.750404163
 20
114.6957310243
  0
LWPOLYLINE
  5
264
100
AcDbEntity
  8
ASSI
100
AcDbPolyline
 62
250
  6
CONTINUOUS
 90
28
 70
0
 10
157.4509876367
 20
114.6747155985
 10
157.4297494502
 20
114.6660599589
 10
157.4074322313
 20
114.6580280331
 10
157.3841098275
 20
114.6506463987
 10
157.3598594123
 20
114.6439394814
 10
157.3347612304
 20
114.6379294744
 10
157.3088983312
 20
114.6326362648
 10
157.2823562949
 20
114.6280773677
 10
157.255222949
 20
114.6242678684
 10
157.2275880774
 20
114.6212203727
 10
157.1995431237
 20
114.6189449646
 10
157.1711808884
 20
114.6174491734
 10
157.1425952219
 20
114.6167379488
 10
157.1138807139
 20
114.616813644
 10
157.0851323806
 20
114.6176760087
 10
157.0564453499
 20
114.6193221893
 10
157.027914547
 20
114.6217467386
 10
156.99963438
 20
114.6249416338
 10
156.9716984278
 20
114.628896303
 10
156.9441991302
 20
114.6335976603
 10
156.9172274822
 20
114.6390301488
 10
156.8908727328
 20
114.6451757925
 10
156.8652220895
 20
114.6520142556
 10
156.8403604302
 20
114.6595229096
 10
156.8163700219
 20
114.6676769085
 10
156.7933302486
 20
114.6764492707
 10
156.7713173488
 20
114.6858109685
 10
156.750404163
 20
114.6957310243
  0
LWPOLYLINE
  5
265
100
AcDbEntity
  8
RACCORDO
100
AcDbPolyline
 62
250
  6
CONTINUOUS
 90
15
 70
0
 10
141.3677352814
 20
104.6702203886
 10
141.3699693486
 20
104.6574044135
 10
141.3735353256
 20
104.6446584745
 10
141.3784235596
 20
104.6320170131
 10
141.3846209468
 20
104.6195139701
 10
141.3921110509
 20
104.6071822474
 10
141.4008742169
 20
104.5950545523
 10
141.4108867571
 20
104.5831640447
 10
141.4221208478
 20
104.5715434128
 10
141.4345451516
 20
104.5602246266
 10
141.4481269122
 20
104.5492372009
 10
141.4628315459
 20
104.538608969
 10
141.4786205881
 20
104.5283680223
 10
141.4954512854
 20
104.5185424759
 10
141.5132787126
 20
104.5091587752
  0
LWPOLYLINE
  5
266
100
AcDbEntity
  8
ASSI
100
AcDbPolyline
 62
250
  6
CONTINUOUS
 90
15
 70
0
 10
141.3677352814
 20
104.6702203886
 10
141.3699693486
 20
104.6574044135
 10
141.3735353256
 20
104.6446584745
 10
141.3784235596
 20
104.6320170131
 10
141.3846209468
 20
104.6195139701
 10
141.3921110509
 20
104.6071822474
 10
141.4008742169
 20
104.5950545523
 10
141.4108867571
 20
104.5831640447
 10
141.4221208478
 20
104.5715434128
 10
141.4345451516
 20
104.5602246266
 10
141.4481269122
 20
104.5492372009
 10
141.4628315459
 20
104.538608969
 10
141.4786205881
 20
104.5283680223
 10
141.4954512854
 20
104.5185424759
 10
141.5132787126
 20
104.5091587752
  0
LINE
  5
267
100
AcDbEntity
  8
ASSI
100
AcDbLine
 62
250
  6
CONTINUOUS
 10
141.611567155
 20
104.3372039266
 11
141.6201553019
 21
104.3437795688
  0
LWPOLYLINE
  5
268
100
AcDbEntity
  8
ASSI
100
AcDbPolyline
 62
7
  6
CONTINUOUS
 90
7
 70
0
 10
141.5223788752
 20
104.3457109125
 10
141.4822352558
 20
104.3161862866
 10
141.4473101661
 20
104.2828843541
 10
141.4180351055
 20
104.2460046509
 10
141.3951836147
 20
104.2064957275
 10
141.3790716411
 20
104.1653374914
 10
141.3696450083
 20
104.1231398945
  0
LWPOLYLINE
  5
269
100
AcDbEntity
  8
ASSI
100
AcDbPolyline
 62
250
  6
CONTINUOUS
 90
4
 70
0
 10
141.6201553019
 20
104.3437795688
 10
141.6293765141
 20
104.3501060876
 10
141.6392524706
 20
104.3562018237
 10
141.6497831713
 20
104.362066777
  0
LINE
  5
26A
100
AcDbEntity
  8
ASSI
100
AcDbLine
 62
7
  6
CONTINUOUS
 10
141.5574777614
 20
104.3662625134
 11
141.5223788752
 21
104.3457109125
  0
LWPOLYLINE
  5
26B
100
AcDbEntity
  8
RACCORDO
100
AcDbPolyline
 62
7
  6
CONTINUOUS
 90
16
 70
0
 10
141.5575223737
 20
104.3662861366
 10
141.5467742153
 20
104.3604272546
 10
141.5255800296
 20
104.3477636971
 10
141.5058238131
 20
104.3344372149
 10
141.487500497
 20
104.3205101068
 10
141.4705528106
 20
104.3060072116
 10
141.4549084812
 20
104.2909207872
 10
141.4405582392
 20
104.2752882261
 10
141.4275001825
 20
104.2591581087
 10
141.4157131584
 20
104.2425512551
 10
141.4052116246
 20
104.2255347767
 10
141.3959913595
 20
104.2081595539
 10
141.3880308731
 20
104.1904379721
 10
141.3813423939
 20
104.1724473836
 10
141.3759268571
 20
104.1542532094
 10
141.3717676255
 20
104.1358589554
  0
LINE
  5
26C
100
AcDbEntity
  8
RACCORDO
100
AcDbLine
 62
7
  6
CONTINUOUS
 10
141.557545903
 20
104.366299094
 11
141.5948960746
 21
104.386044009
  0
LINE
  5
26D
100
AcDbEntity
  8
ASSI
100
AcDbLine
 62
7
  6
CONTINUOUS
 10
141.557477549
 20
104.3662629149
 11
141.5948960746
 21
104.386044009
  0
LWPOLYLINE
  5
26E
100
AcDbEntity
  8
RACCORDO
100
AcDbPolyline
 62
250
  6
CONTINUOUS
 90
9
 70
0
 10
141.557545903
 20
104.366299094
 10
141.560359619
 20
104.3677132762
 10
141.568960867
 20
104.3711978218
 10
141.5780209188
 20
104.3736663546
 10
141.5874891169
 20
104.3751050721
 10
141.5973125214
 20
104.37550593
 10
141.6074362065
 20
104.374866687
 10
141.6178035675
 20
104.3731909173
 10
141.6235415771
 20
104.3717212578
  0
LWPOLYLINE
  5
26F
100
AcDbEntity
  8
ASSI
100
AcDbPolyline
 62
250
  6
CONTINUOUS
 90
7
 70
0
 10
141.557545903
 20
104.366299094
 10
141.560359619
 20
104.3677132762
 10
141.568960867
 20
104.3711978218
 10
141.5780209188
 20
104.3736663546
 10
141.5874891169
 20
104.3751050721
 10
141.5973125214
 20
104.37550593
 10
141.6074362065
 20
104.374866687
  0
LINE
  5
270
100
AcDbEntity
  8
RACCORDO
100
AcDbLine
 62
7
  6
CONTINUOUS
 10
154.8479053066
 20
120.2008512033
 11
154.6663748224
 21
119.8345423845
  0
LINE
  5
271
100
AcDbEntity
  8
ASSI
100
AcDbLine
 62
7
  6
CONTINUOUS
 10
154.8479053066
 20
120.2008512033
 11
154.6663748224
 21
119.8345423845
  0
LWPOLYLINE
  5
272
100
AcDbEntity
  8
ASSI
100
AcDbPolyline
 62
250
  6
CONTINUOUS
 90
8
 70
0
 10
156.9969787424
 20
96.9882593283
 10
157.0204946279
 20
96.99355607
 10
157.0434153996
 20
96.9994511751
 10
157.0656815438
 20
97.0059288288
 10
157.0872364032
 20
97.0129730942
 10
157.1080229866
 20
97.0205655497
 10
157.1279844324
 20
97.0286850799
 10
157.1470670612
 20
97.0373097294
  0
LINE
  5
273
100
AcDbEntity
  8
DRAFT
100
AcDbLine
 62
7
  6
CONTINUOUS
 10
146.9283093574
 20
124.1606491779
 11
146.9456174658
 21
123.6196717378
  0
LINE
  5
274
100
AcDbEntity
  8
ASSI
100
AcDbLine
 62
7
  6
CONTINUOUS
 10
146.9283093574
 20
124.1606491779
 11
146.9456174658
 21
123.6196717378
  0
LWPOLYLINE
  5
275
100
AcDbEntity
  8
RACCORDO
100
AcDbPolyline
 62
250
  6
CONTINUOUS
 90
13
 70
0
 10
147.8346225728
 20
101.3484868362
 10
147.8350066603
 20
101.3358010157
 10
147.8361714397
 20
101.3235761519
 10
147.8381104645
 20
101.3118799147
 10
147.8408130023
 20
101.3007770475
 10
147.8442640946
 20
101.2903290096
 10
147.8484446392
 20
101.2805936355
 10
147.8533314962
 20
101.2716248151
 10
147.8588976156
 20
101.2634721953
 10
147.8651121876
 20
101.256180905
 10
147.8719408129
 20
101.2497913054
 10
147.8793456931
 20
101.2443387667
 10
147.886601175
 20
101.2401914588
  0
LWPOLYLINE
  5
276
100
AcDbEntity
  8
ASSI
100
AcDbPolyline
 62
250
  6
CONTINUOUS
 90
13
 70
0
 10
147.8346225728
 20
101.3484868362
 10
147.8350066603
 20
101.3358010157
 10
147.8361714397
 20
101.3235761519
 10
147.8381104645
 20
101.3118799147
 10
147.8408130023
 20
101.3007770475
 10
147.8442640946
 20
101.2903290096
 10
147.8484446392
 20
101.2805936355
 10
147.8533314962
 20
101.2716248151
 10
147.8588976156
 20
101.2634721953
 10
147.8651121876
 20
101.256180905
 10
147.8719408129
 20
101.2497913054
 10
147.8793456931
 20
101.2443387667
 10
147.886601175
 20
101.2401914588
  0
LINE
  5
277
100
AcDbEntity
  8
RACCORDO
100
AcDbLine
 62
250
  6
CONTINUOUS
 10
146.7467788731
 20
123.7943403592
 11
146.7467788731
 21
123.7395203785
  0
LINE
  5
278
100
AcDbEntity
  8
ASSI
100
AcDbLine
 62
250
  6
CONTINUOUS
 10
146.7467788731
 20
123.7943403592
 11
146.7467788731
 21
123.7395203785
  0
LWPOLYLINE
  5
279
100
AcDbEntity
  8
RACCORDO
100
AcDbPolyline
 62
250
  6
CONTINUOUS
 90
22
 70
0
 10
147.8346225728
 20
100.7454844523
 10
147.8350066634
 20
100.7585544112
 10
147.8361714511
 20
100.7719441018
 10
147.8381104886
 20
100.7855794069
 10
147.8408130424
 20
100.7993848498
 10
147.8442641528
 20
100.8132840117
 10
147.8484447165
 20
100.8271999553
 10
147.8533315925
 20
100.8410556503
 10
147.8588977299
 20
100.8547743999
 10
147.865112318
 20
100.8682802654
 10
147.8719409566
 20
100.8814984863
 10
147.8793458464
 20
100.8943558947
 10
147.8872859983
 20
100.9067813196
 10
147.8957174606
 20
100.9187059813
 10
147.9045935617
 20
100.9300638722
 10
147.9138651688
 20
100.9407921217
 10
147.9234809599
 20
100.9508313447
 10
147.9333877078
 20
100.9601259701
 10
147.9435305747
 20
100.9686245486
 10
147.9538534157
 20
100.9762800369
 10
147.9642990899
 20
100.9830500591
 10
147.9748097763
 20
100.9888971402
  0
LWPOLYLINE
  5
27A
100
AcDbEntity
  8
ASSI
100
AcDbPolyline
 62
250
  6
CONTINUOUS
 90
22
 70
0
 10
147.8346225728
 20
100.7454844523
 10
147.8350066634
 20
100.7585544112
 10
147.8361714511
 20
100.7719441018
 10
147.8381104886
 20
100.7855794069
 10
147.8408130424
 20
100.7993848498
 10
147.8442641528
 20
100.8132840117
 10
147.8484447165
 20
100.8271999553
 10
147.8533315925
 20
100.8410556503
 10
147.8588977299
 20
100.8547743999
 10
147.865112318
 20
100.8682802654
 10
147.8719409566
 20
100.8814984863
 10
147.8793458464
 20
100.8943558947
 10
147.8872859983
 20
100.9067813196
 10
147.8957174606
 20
100.9187059813
 10
147.9045935617
 20
100.9300638722
 10
147.9138651688
 20
100.9407921217
 10
147.9234809599
 20
100.9508313447
 10
147.9333877078
 20
100.9601259701
 10
147.9435305747
 20
100.9686245486
 10
147.9538534157
 20
100.9762800369
 10
147.9642990899
 20
100.9830500591
 10
147.9748097763
 20
100.9888971402
  0
LWPOLYLINE
  5
27B
100
AcDbEntity
  8
RACCORDO
100
AcDbPolyline
 62
250
  6
CONTINUOUS
 90
25
 70
0
 10
147.9028110697
 20
100.6478957567
 10
147.9016805945
 20
100.6529644989
 10
147.9003616819
 20
100.6580223598
 10
147.8988543292
 20
100.6630693381
 10
147.8971529956
 20
100.6681204699
 10
147.8952632172
 20
100.6731607167
 10
147.8932016056
 20
100.6781449654
 10
147.8909666107
 20
100.6830725982
 10
147.8885597764
 20
100.6879442298
 10
147.8860023547
 20
100.6927165951
 10
147.8832929721
 20
100.6973887507
 10
147.8804329953
 20
100.7019616366
 10
147.8774477855
 20
100.7063948131
 10
147.8743363571
 20
100.7106868621
 10
147.8710996893
 20
100.7148391984
 10
147.8677660904
 20
100.7188156313
 10
147.8643346187
 20
100.7226146904
 10
147.8608062103
 20
100.7262378434
 10
147.8572119904
 20
100.7296533069
 10
147.8535513775
 20
100.7328592467
 10
147.8498249491
 20
100.735857495
 10
147.8460655689
 20
100.7386217686
 10
147.8422841909
 20
100.7411433058
 10
147.8384698591
 20
100.7434308672
 10
147.8346225728
 20
100.7454844523
  0
LWPOLYLINE
  5
27C
100
AcDbEntity
  8
ASSI
100
AcDbPolyline
 62
250
  6
CONTINUOUS
 90
25
 70
0
 10
147.9028110697
 20
100.6478957567
 10
147.9016805945
 20
100.6529644989
 10
147.9003616819
 20
100.6580223598
 10
147.8988543292
 20
100.6630693381
 10
147.8971529956
 20
100.6681204699
 10
147.8952632172
 20
100.6731607167
 10
147.8932016056
 20
100.6781449654
 10
147.8909666107
 20
100.6830725982
 10
147.8885597764
 20
100.6879442298
 10
147.8860023547
 20
100.6927165951
 10
147.8832929721
 20
100.6973887507
 10
147.8804329953
 20
100.7019616366
 10
147.8774477855
 20
100.7063948131
 10
147.8743363571
 20
100.7106868621
 10
147.8710996893
 20
100.7148391984
 10
147.8677660904
 20
100.7188156313
 10
147.8643346187
 20
100.7226146904
 10
147.8608062103
 20
100.7262378434
 10
147.8572119904
 20
100.7296533069
 10
147.8535513775
 20
100.7328592467
 10
147.8498249491
 20
100.735857495
 10
147.8460655689
 20
100.7386217686
 10
147.8422841909
 20
100.7411433058
 10
147.8384698591
 20
100.7434308672
 10
147.8346225728
 20
100.7454844523
  0
LWPOLYLINE
  5
27D
100
AcDbEntity
  8
RACCORDO
100
AcDbPolyline
 62
250
  6
CONTINUOUS
 90
63
 70
0
 10
147.9028110697
 20
101.3779668871
 10
147.9158092751
 20
101.4248060583
 10
147.930612961
 20
101.4700863972
 10
147.9472219305
 20
101.5138078049
 10
147.9656664565
 20
101.5560818013
 10
147.9859159042
 20
101.5967966846
 10
148.0078786104
 20
101.6356174703
 10
148.0315764866
 20
101.6725219521
 10
148.0569870397
 20
101.7075320454
 10
148.0839518061
 20
101.7403788517
 10
148.1124857581
 20
101.7710331008
 10
148.1425732042
 20
101.7995237041
 10
148.1740095379
 20
101.8256689619
 10
148.206783781
 20
101.8494354834
 10
148.2409061317
 20
101.8708562708
 10
148.2762036656
 20
101.8898491731
 10
148.312670558
 20
101.9064043296
 10
148.3503118902
 20
101.9205312311
 10
148.3889710647
 20
101.932176738
 10
148.4286628026
 20
101.9413367257
 10
148.4693717162
 20
101.9480149876
 10
148.5108960315
 20
101.9521702553
 10
148.5532478938
 20
101.9537882303
 10
148.5964145885
 20
101.9528829283
 10
148.6401570543
 20
101.9494555539
 10
148.6844737534
 20
101.9434908255
 10
148.7293657868
 20
101.9350038077
 10
148.7745980755
 20
101.9240412359
 10
148.8201690626
 20
101.9105911452
 10
148.8660800321
 20
101.8946653651
 10
148.9121002037
 20
101.8763463412
 10
148.9582293957
 20
101.8556231361
 10
149.004467697
 20
101.8325066413
 10
149.0505847778
 20
101.8071120683
 10
149.096580653
 20
101.7794285032
 10
149.1424554004
 20
101.7494669059
 10
149.1879788294
 20
101.7173753208
 10
149.2331523306
 20
101.6831406729
 10
149.2779747862
 20
101.6467761725
 10
149.3222122812
 20
101.6084693116
 10
149.3658664403
 20
101.5682036339
 10
149.4089360755
 20
101.5259958124
 10
149.4511830762
 20
101.4820830443
 10
149.492595552
 20
101.4364632881
 10
149.5331859625
 20
101.3891388682
 10
149.5727527242
 20
101.3403535315
 10
149.6112808262
 20
101.2901186814
 10
149.6487859457
 20
101.238423246
 10
149.6851125181
 20
101.1854772525
 10
149.7202656735
 20
101.1312669256
 10
149.7542410244
 20
101.0758064104
 10
149.7868686982
 20
101.0193475996
 10
149.8181597133
 20
100.961847332
 10
149.8481038313
 20
100.9033491576
 10
149.8764992124
 20
100.8442349953
 10
149.9033315069
 20
100.7844902199
 10
149.9286157855
 20
100.7241298165
 10
149.9521941942
 20
100.663580047
 10
149.9740449976
 20
100.6028403535
 10
149.9941905153
 20
100.5419115863
 10
150.0125387817
 20
100.4812220229
 10
150.0290592224
 20
100.4209144632
 10
150.0437827754
 20
100.36084629
  0
LWPOLYLINE
  5
27E
100
AcDbEntity
  8
ASSI
100
AcDbPolyline
 62
250
  6
CONTINUOUS
 90
30
 70
0
 10
147.9028110697
 20
101.3779668871
 10
147.9158092751
 20
101.4248060583
 10
147.930612961
 20
101.4700863972
 10
147.9472219305
 20
101.5138078049
 10
147.9656664565
 20
101.5560818013
 10
147.9859159042
 20
101.5967966846
 10
148.0078786104
 20
101.6356174703
 10
148.0315764866
 20
101.6725219521
 10
148.0569870397
 20
101.7075320454
 10
148.0839518061
 20
101.7403788517
 10
148.1124857581
 20
101.7710331008
 10
148.1425732042
 20
101.7995237041
 10
148.1740095379
 20
101.8256689619
 10
148.206783781
 20
101.8494354834
 10
148.2409061317
 20
101.8708562708
 10
148.2762036656
 20
101.8898491731
 10
148.312670558
 20
101.9064043296
 10
148.3503118902
 20
101.9205312311
 10
148.3889710647
 20
101.932176738
 10
148.4286628026
 20
101.9413367257
 10
148.4693717162
 20
101.9480149876
 10
148.5108960315
 20
101.9521702553
 10
148.5532478938
 20
101.9537882303
 10
148.5964145885
 20
101.9528829283
 10
148.6401570543
 20
101.9494555539
 10
148.6844737534
 20
101.9434908255
 10
148.7293657868
 20
101.9350038077
 10
148.7745980755
 20
101.9240412359
 10
148.8201690626
 20
101.9105911452
 10
148.8660800321
 20
101.8946653651
  0
LWPOLYLINE
  5
27F
100
AcDbEntity
  8
RACCORDO
100
AcDbPolyline
 62
250
  6
CONTINUOUS
 90
15
 70
0
 10
148.1792941958
 20
101.3335838143
 10
148.1906474489
 20
101.3743529933
 10
148.2035870284
 20
101.4139223905
 10
148.2181104882
 20
101.4522091412
 10
148.234222916
 20
101.4891531469
 10
148.2519070066
 20
101.5246491953
 10
148.2711140279
 20
101.5585569983
 10
148.2918218425
 20
101.5908079917
 10
148.3140042624
 20
101.6213341512
 10
148.3375861728
 20
101.6500183212
 10
148.3625256344
 20
101.6768058853
 10
148.3887840056
 20
101.7016520065
 10
148.4162738406
 20
101.7244780543
 10
148.4449253501
 20
101.7452390766
 10
148.4747024621
 20
101.7639213793
  0
LWPOLYLINE
  5
280
100
AcDbEntity
  8
ASSI
100
AcDbPolyline
 62
250
  6
CONTINUOUS
 90
17
 70
0
 10
148.1792941958
 20
101.3335838143
 10
148.1906474489
 20
101.3743529933
 10
148.2035870284
 20
101.4139223905
 10
148.2181104882
 20
101.4522091412
 10
148.234222916
 20
101.4891531469
 10
148.2519070066
 20
101.5246491953
 10
148.2711140279
 20
101.5585569983
 10
148.2918218425
 20
101.5908079917
 10
148.3140042624
 20
101.6213341512
 10
148.3375861728
 20
101.6500183212
 10
148.3625256344
 20
101.6768058853
 10
148.3887840056
 20
101.7016520065
 10
148.4162738406
 20
101.7244780543
 10
148.4449253501
 20
101.7452390766
 10
148.4747024621
 20
101.7639213793
 10
148.5055612051
 20
101.7805052931
 10
148.5087566192
 20
101.7820726943
  0
LWPOLYLINE
  5
281
100
AcDbEntity
  8
0
100
AcDbPolyline
 62
7
  6
CONTINUOUS
 90
13
 70
0
 10
148.6076298816
 20
101.5408422457
 10
148.6042930559
 20
101.5290327709
 10
148.6003792255
 20
101.5178013141
 10
148.5958883903
 20
101.5071478752
 10
148.5907969598
 20
101.4970316281
 10
148.5851285245
 20
101.4874933989
 10
148.5789538566
 20
101.4786556664
 10
148.5722857032
 20
101.4705469003
 10
148.5651113172
 20
101.463138631
 10
148.5574632287
 20
101.456467928
 10
148.5493216582
 20
101.4505249927
 10
148.5407063853
 20
101.4453196239
 10
148.5358074962
 20
101.4427990791
  0
LWPOLYLINE
  5
282
100
AcDbEntity
  8
ASSI
100
AcDbPolyline
 62
7
  6
CONTINUOUS
 90
13
 70
0
 10
148.6076298816
 20
101.5408422457
 10
148.6042930559
 20
101.5290327709
 10
148.6003792255
 20
101.5178013141
 10
148.5958883903
 20
101.5071478752
 10
148.5907969598
 20
101.4970316281
 10
148.5851285245
 20
101.4874933989
 10
148.5789538566
 20
101.4786556664
 10
148.5722857032
 20
101.4705469003
 10
148.5651113172
 20
101.463138631
 10
148.5574632287
 20
101.456467928
 10
148.5493216582
 20
101.4505249927
 10
148.5407063853
 20
101.4453196239
 10
148.5358073413
 20
101.4427990041
  0
LWPOLYLINE
  5
283
100
AcDbEntity
  8
0
100
AcDbPolyline
 62
7
  6
CONTINUOUS
 90
9
 70
0
 10
148.7362714286
 20
101.8217902258
 10
148.7200680676
 20
101.7994577364
 10
148.6995118969
 20
101.7674067004
 10
148.6804186329
 20
101.7336337698
 10
148.6627752085
 20
101.6981398684
 10
148.6466661668
 20
101.6610966044
 10
148.632119689
 20
101.6225611807
 10
148.6191075939
 20
101.5824763945
 10
148.6076298816
 20
101.5408422457
  0
LWPOLYLINE
  5
284
100
AcDbEntity
  8
ASSI
100
AcDbPolyline
 62
7
  6
CONTINUOUS
 90
9
 70
0
 10
148.7362714286
 20
101.8217902258
 10
148.7200680676
 20
101.7994577364
 10
148.6995118969
 20
101.7674067004
 10
148.6804186329
 20
101.7336337698
 10
148.6627752085
 20
101.6981398684
 10
148.6466661668
 20
101.6610966044
 10
148.632119689
 20
101.6225611807
 10
148.6191075939
 20
101.5824763945
 10
148.6076298816
 20
101.5408422457
  0
LWPOLYLINE
  5
285
100
AcDbEntity
  8
RACCORDO
100
AcDbPolyline
 62
250
  6
CONTINUOUS
 90
22
 70
0
 10
147.9028110698
 20
100.6478957568
 10
147.9133306592
 20
100.6464577726
 10
147.9245744012
 20
100.6454197258
 10
147.9364800948
 20
100.6447873592
 10
147.9489818774
 20
100.6445641708
 10
147.9620105884
 20
100.6447513955
 10
147.9754941525
 20
100.6453479974
 10
147.9893579779
 20
100.6463506762
 10
148.0035253693
 20
100.6477538849
 10
148.0179179521
 20
100.649549861
 10
148.0324561059
 20
100.6517286691
 10
148.047059405
 20
100.6542782558
 10
148.0616470632
 20
100.6571845168
 10
148.0761383809
 20
100.6604313745
 10
148.0904531916
 20
100.6640008671
 10
148.104512305
 20
100.6678732481
 10
148.1182379456
 20
100.6720270951
 10
148.1315541824
 20
100.6764394291
 10
148.1443873494
 20
100.6810858407
 10
148.1566664529
 20
100.6859406258
 10
148.1683235644
 20
100.6909769275
 10
148.1792941963
 20
100.6961668848
  0
LWPOLYLINE
  5
286
100
AcDbEntity
  8
ASSI
100
AcDbPolyline
 62
250
  6
CONTINUOUS
 90
22
 70
0
 10
147.9028110698
 20
100.6478957568
 10
147.9133306592
 20
100.6464577726
 10
147.9245744012
 20
100.6454197258
 10
147.9364800948
 20
100.6447873592
 10
147.9489818774
 20
100.6445641708
 10
147.9620105884
 20
100.6447513955
 10
147.9754941525
 20
100.6453479974
 10
147.9893579779
 20
100.6463506762
 10
148.0035253693
 20
100.6477538849
 10
148.0179179521
 20
100.649549861
 10
148.0324561059
 20
100.6517286691
 10
148.047059405
 20
100.6542782558
 10
148.0616470632
 20
100.6571845168
 10
148.0761383809
 20
100.6604313745
 10
148.0904531916
 20
100.6640008671
 10
148.104512305
 20
100.6678732481
 10
148.1182379456
 20
100.6720270951
 10
148.1315541824
 20
100.6764394291
 10
148.1443873494
 20
100.6810858407
 10
148.1566664529
 20
100.6859406258
 10
148.1683235644
 20
100.6909769275
 10
148.1792941963
 20
100.6961668848
  0
LWPOLYLINE
  5
287
100
AcDbEntity
  8
RACCORDO
100
AcDbPolyline
 62
250
  6
CONTINUOUS
 90
10
 70
0
 10
150.0567096385
 20
100.3010176028
 10
150.0469677177
 20
100.3028444213
 10
150.0380620402
 20
100.3050515003
 10
150.0300418728
 20
100.3076266301
 10
150.0229515833
 20
100.310555565
 10
150.0168303956
 20
100.313822102
 10
150.0117121723
 20
100.3174081705
 10
150.0076252277
 20
100.3212939321
 10
150.0045921709
 20
100.3254578907
 10
150.0026297809
 20
100.329877011
  0
LWPOLYLINE
  5
288
100
AcDbEntity
  8
ASSI
100
AcDbPolyline
 62
250
  6
CONTINUOUS
 90
10
 70
0
 10
150.0567096385
 20
100.3010176028
 10
150.0469677177
 20
100.3028444213
 10
150.0380620402
 20
100.3050515003
 10
150.0300418728
 20
100.3076266301
 10
150.0229515833
 20
100.310555565
 10
150.0168303956
 20
100.313822102
 10
150.0117121723
 20
100.3174081705
 10
150.0076252277
 20
100.3212939321
 10
150.0045921709
 20
100.3254578907
 10
150.0026297809
 20
100.329877011
  0
LWPOLYLINE
  5
289
100
AcDbEntity
  8
RACCORDO
100
AcDbPolyline
 62
7
  6
CONTINUOUS
 90
21
 70
0
 10
156.5088508017
 20
96.9292241596
 10
156.5329968876
 20
96.9185778033
 10
156.5576543782
 20
96.9090834838
 10
156.5827444517
 20
96.9006911114
 10
156.6082354388
 20
96.8933432535
 10
156.6341046476
 20
96.8869956192
 10
156.6602918332
 20
96.8816209777
 10
156.6867495589
 20
96.8771977835
 10
156.7134339001
 20
96.8737077654
 10
156.7402860299
 20
96.8711399309
 10
156.7672567612
 20
96.8694862347
 10
156.7942981121
 20
96.8687409996
 10
156.8213550981
 20
96.8689045086
 10
156.8483727405
 20
96.8699773711
 10
156.8753026004
 20
96.8719656206
 10
156.9020949819
 20
96.8748781522
 10
156.9286911261
 20
96.8787263404
 10
156.9550459889
 20
96.883528836
 10
156.9811121612
 20
96.8893072028
 10
157.0068289327
 20
96.8960886993
 10
157.0321713999
 20
96.9039161419
  0
LWPOLYLINE
  5
28A
100
AcDbEntity
  8
ASSI
100
AcDbPolyline
 62
7
  6
CONTINUOUS
 90
9
 70
0
 10
147.887041469
 20
101.2399741997
 10
147.9090542021
 20
101.2301846724
 10
147.9409376303
 20
101.2199144353
 10
147.9733290565
 20
101.2138968387
 10
148.0058241421
 20
101.2121597768
 10
148.0379927254
 20
101.2146948449
 10
148.0691845914
 20
101.2213987823
 10
148.0988712137
 20
101.232052663
 10
148.1071059236
 20
101.2358294502
  0
LWPOLYLINE
  5
28B
100
AcDbEntity
  8
RACCORDO
100
AcDbPolyline
 62
250
  6
CONTINUOUS
 90
14
 70
0
 10
150.2650054866
 20
99.8437992851
 10
150.2534638919
 20
99.8491390799
 10
150.2419600985
 20
99.85370178
 10
150.2305279586
 20
99.8574740674
 10
150.2192014119
 20
99.8604449098
 10
150.2080134595
 20
99.8626057329
 10
150.1969961024
 20
99.8639502591
 10
150.1861812106
 20
99.8644744426
 10
150.1756012054
 20
99.8641765645
 10
150.1652879938
 20
99.8630574775
 10
150.1552722476
 20
99.8611206545
 10
150.1455829694
 20
99.858371864
 10
150.136248214
 20
99.8548191059
 10
150.1292301307
 20
99.8514960731
  0
LWPOLYLINE
  5
28C
100
AcDbEntity
  8
ASSI
100
AcDbPolyline
 62
250
  6
CONTINUOUS
 90
14
 70
0
 10
150.2650054866
 20
99.8437992851
 10
150.2534638919
 20
99.8491390799
 10
150.2419600985
 20
99.85370178
 10
150.2305279586
 20
99.8574740674
 10
150.2192014119
 20
99.8604449098
 10
150.2080134595
 20
99.8626057329
 10
150.1969961024
 20
99.8639502591
 10
150.1861812106
 20
99.8644744426
 10
150.1756012054
 20
99.8641765645
 10
150.1652879938
 20
99.8630574775
 10
150.1552722476
 20
99.8611206545
 10
150.1455829694
 20
99.858371864
 10
150.136248214
 20
99.8548191059
 10
150.1295323166
 20
99.8516515721
  0
LWPOLYLINE
  5
28D
100
AcDbEntity
  8
RACCORDO
100
AcDbPolyline
 62
250
  6
CONTINUOUS
 90
25
 70
0
 10
150.1248182831
 20
99.6003865972
 10
150.1209711447
 20
99.6021802244
 10
150.117157246
 20
99.6037067783
 10
150.1133765877
 20
99.6049662592
 10
150.1096182192
 20
99.60596086
 10
150.1058930932
 20
99.6066883889
 10
150.1022340654
 20
99.6071422694
 10
150.0986417194
 20
99.6073200888
 10
150.0951154756
 20
99.6072242619
 10
150.0916864453
 20
99.6068554539
 10
150.0883555722
 20
99.6062112569
 10
150.0851219181
 20
99.6052940816
 10
150.0820137714
 20
99.6041118202
 10
150.0790321198
 20
99.6026620744
 10
150.076175982
 20
99.6009472457
 10
150.0734706922
 20
99.5989824264
 10
150.0709176256
 20
99.5967653052
 10
150.0685154137
 20
99.5942981967
 10
150.0662852738
 20
99.5916031313
 10
150.0642287579
 20
99.5886779464
 10
150.0623443202
 20
99.5855248076
 10
150.0606485304
 20
99.5821722376
 10
150.0591469128
 20
99.5786297443
 10
150.0578339479
 20
99.5748878221
 10
150.0567096384
 20
99.5709464724
  0
LWPOLYLINE
  5
28E
100
AcDbEntity
  8
ASSI
100
AcDbPolyline
 62
250
  6
CONTINUOUS
 90
25
 70
0
 10
150.1248182831
 20
99.6003865972
 10
150.1209711447
 20
99.6021802244
 10
150.117157246
 20
99.6037067783
 10
150.1133765877
 20
99.6049662592
 10
150.1096182192
 20
99.60596086
 10
150.1058930932
 20
99.6066883889
 10
150.1022340654
 20
99.6071422694
 10
150.0986417194
 20
99.6073200888
 10
150.0951154756
 20
99.6072242619
 10
150.0916864453
 20
99.6068554539
 10
150.0883555722
 20
99.6062112569
 10
150.0851219181
 20
99.6052940816
 10
150.0820137714
 20
99.6041118202
 10
150.0790321198
 20
99.6026620744
 10
150.076175982
 20
99.6009472457
 10
150.0734706922
 20
99.5989824264
 10
150.0709176256
 20
99.5967653052
 10
150.0685154137
 20
99.5942981967
 10
150.0662852738
 20
99.5916031313
 10
150.0642287579
 20
99.5886779464
 10
150.0623443202
 20
99.5855248076
 10
150.0606485304
 20
99.5821722376
 10
150.0591469128
 20
99.5786297443
 10
150.0578339479
 20
99.5748878221
 10
150.0567096384
 20
99.5709464724
  0
LWPOLYLINE
  5
28F
100
AcDbEntity
  8
RACCORDO
100
AcDbPolyline
 62
250
  6
CONTINUOUS
 90
25
 70
0
 10
147.8346225728
 20
101.3484868362
 10
147.8384698591
 20
101.346693283
 10
147.8422841909
 20
101.3451669457
 10
147.8460655689
 20
101.3439078246
 10
147.8498249491
 20
101.3429137297
 10
147.8535513775
 20
101.342186852
 10
147.8572119904
 20
101.341733764
 10
147.8608062103
 20
101.3415568815
 10
147.8643346187
 20
101.3416537907
 10
147.8677660904
 20
101.3420238194
 10
147.8710996893
 20
101.3426693793
 10
147.8743363571
 20
101.3435880615
 10
147.8774477855
 20
101.3447719637
 10
147.8804329953
 20
101.3462234887
 10
147.8832929721
 20
101.3479402368
 10
147.8860023547
 20
101.3499071025
 10
147.8885597764
 20
101.3521264013
 10
147.8909666107
 20
101.354595821
 10
147.8932016056
 20
101.3572933139
 10
147.8952632172
 20
101.3602210466
 10
147.8971529956
 20
101.3633768558
 10
147.8988543292
 20
101.3667321977
 10
147.9003616819
 20
101.3702775585
 10
147.9016805945
 20
101.3740224546
 10
147.9028110697
 20
101.3779668871
  0
LWPOLYLINE
  5
290
100
AcDbEntity
  8
ASSI
100
AcDbPolyline
 62
250
  6
CONTINUOUS
 90
25
 70
0
 10
147.8346225728
 20
101.3484868362
 10
147.8384698591
 20
101.346693283
 10
147.8422841909
 20
101.3451669457
 10
147.8460655689
 20
101.3439078246
 10
147.8498249491
 20
101.3429137297
 10
147.8535513775
 20
101.342186852
 10
147.8572119904
 20
101.341733764
 10
147.8608062103
 20
101.3415568815
 10
147.8643346187
 20
101.3416537907
 10
147.8677660904
 20
101.3420238194
 10
147.8710996893
 20
101.3426693793
 10
147.8743363571
 20
101.3435880615
 10
147.8774477855
 20
101.3447719637
 10
147.8804329953
 20
101.3462234887
 10
147.8832929721
 20
101.3479402368
 10
147.8860023547
 20
101.3499071025
 10
147.8885597764
 20
101.3521264013
 10
147.8909666107
 20
101.354595821
 10
147.8932016056
 20
101.3572933139
 10
147.8952632172
 20
101.3602210466
 10
147.8971529956
 20
101.3633768558
 10
147.8988543292
 20
101.3667321977
 10
147.9003616819
 20
101.3702775585
 10
147.9016805945
 20
101.3740224546
 10
147.9028110697
 20
101.3779668871
  0
LWPOLYLINE
  5
291
100
AcDbEntity
  8
RACCORDO
100
AcDbPolyline
 62
7
  6
CONTINUOUS
 90
17
 70
0
 10
147.8866565074
 20
101.2401649071
 10
147.8995113952
 20
101.2341450556
 10
147.9142067308
 20
101.2282193595
 10
147.9290200544
 20
101.2232332969
 10
147.9439168104
 20
101.2191790917
 10
147.9588748126
 20
101.2160473184
 10
147.973832609
 20
101.2138372256
 10
147.9887438504
 20
101.2125397313
 10
148.0035967264
 20
101.2121421438
 10
148.0183297068
 20
101.2126349183
 10
148.0328912076
 20
101.2140039306
 10
148.0472777169
 20
101.216239204
 10
148.061433712
 20
101.2193239368
 10
148.0753050227
 20
101.2232365514
 10
148.0888860323
 20
101.2279688788
 10
148.1021383724
 20
101.2335056756
 10
148.1073137668
 20
101.2359296988
  0
LWPOLYLINE
  5
292
100
AcDbEntity
  8
ASSI
100
AcDbPolyline
 62
7
  6
CONTINUOUS
 90
11
 70
0
 10
156.4976601268
 20
96.934664693
 10
156.5180473795
 20
96.9250035177
 10
156.5732812259
 20
96.9037164567
 10
156.6310910646
 20
96.8876805266
 10
156.6911191435
 20
96.8765610924
 10
156.7527489319
 20
96.8702620201
 10
156.8146834322
 20
96.8687797666
 10
156.8762188056
 20
96.872049746
 10
156.93670268
 20
96.8800799299
 10
156.9949911076
 20
96.8928280249
 10
157.0506109685
 20
96.9103953793
  0
LWPOLYLINE
  5
293
100
AcDbEntity
  8
RACCORDO
100
AcDbPolyline
 62
250
  6
CONTINUOUS
 90
31
 70
0
 10
156.446162147
 20
97.042717058
 10
156.4649362913
 20
97.033799973
 10
156.484606774
 20
97.0253749293
 10
156.5051206959
 20
97.0174643938
 10
156.5264219426
 20
97.0100896855
 10
156.5484541849
 20
97.0032701097
 10
156.5711613485
 20
96.9970231621
 10
156.5944844689
 20
96.9913651884
 10
156.6183594859
 20
96.9863119174
 10
156.6427203303
 20
96.9818776073
 10
156.6675007199
 20
96.9780740831
 10
156.6926351216
 20
96.9749112316
 10
156.7180567983
 20
96.9723977376
 10
156.7436978937
 20
96.9705401404
 10
156.7694893963
 20
96.9693433305
 10
156.7953619757
 20
96.9688109041
 10
156.8212462764
 20
96.9689440615
 10
156.8470729045
 20
96.9697422725
 10
156.8727724242
 20
96.9712038193
 10
156.898275658
 20
96.9733244893
 10
156.9235145364
 20
96.9760983866
 10
156.9484220548
 20
96.9795186444
 10
156.9729323582
 20
96.9835760238
 10
156.9969787424
 20
96.9882593283
 10
157.0204946279
 20
96.99355607
 10
157.0434153996
 20
96.9994511751
 10
157.0656815438
 20
97.0059288288
 10
157.0872364032
 20
97.0129730942
 10
157.1080229866
 20
97.0205655497
 10
157.1279844324
 20
97.0286850799
 10
157.1470670612
 20
97.0373097294
  0
LWPOLYLINE
  5
294
100
AcDbEntity
  8
ASSI
100
AcDbPolyline
 62
250
  6
CONTINUOUS
 90
24
 70
0
 10
156.446162147
 20
97.042717058
 10
156.4649362913
 20
97.033799973
 10
156.484606774
 20
97.0253749293
 10
156.5051206959
 20
97.0174643938
 10
156.5264219426
 20
97.0100896855
 10
156.5484541849
 20
97.0032701097
 10
156.5711613485
 20
96.9970231621
 10
156.5944844689
 20
96.9913651884
 10
156.6183594859
 20
96.9863119174
 10
156.6427203303
 20
96.9818776073
 10
156.6675007199
 20
96.9780740831
 10
156.6926351216
 20
96.9749112316
 10
156.7180567983
 20
96.9723977376
 10
156.7436978937
 20
96.9705401404
 10
156.7694893963
 20
96.9693433305
 10
156.7953619757
 20
96.9688109041
 10
156.8212462764
 20
96.9689440615
 10
156.8470729045
 20
96.9697422725
 10
156.8727724242
 20
96.9712038193
 10
156.898275658
 20
96.9733244893
 10
156.9235145364
 20
96.9760983866
 10
156.9484220548
 20
96.9795186444
 10
156.9729323582
 20
96.9835760238
 10
156.9969787424
 20
96.9882593283
  0
LINE
  5
295
100
AcDbEntity
  8
RACCORDO
100
AcDbLine
 62
7
  6
CONTINUOUS
 10
156.4980944892
 20
96.934445273
 11
156.5088508017
 21
96.9292241596
  0
LINE
  5
296
100
AcDbEntity
  8
RACCORDO
100
AcDbLine
 62
250
  6
CONTINUOUS
 10
156.4461621452
 20
96.4397146654
 11
150.1248182831
 21
99.6003865972
  0
LINE
  5
297
100
AcDbEntity
  8
ASSI
100
AcDbLine
 62
250
  6
CONTINUOUS
 10
156.4461621452
 20
96.4397146654
 11
150.1248182831
 21
99.6003865972
  0
LINE
  5
298
100
AcDbEntity
  8
RACCORDO
100
AcDbLine
 62
250
  6
CONTINUOUS
 10
147.8346225728
 20
100.7454844523
 11
141.5132787108
 21
103.9061563826
  0
LINE
  5
299
100
AcDbEntity
  8
ASSI
100
AcDbLine
 62
250
  6
CONTINUOUS
 10
147.8346225728
 20
100.7454844523
 11
141.5132787108
 21
103.9061563826
  0
LINE
  5
29A
100
AcDbEntity
  8
RACCORDO
100
AcDbLine
 62
250
  6
CONTINUOUS
 10
156.5863609975
 20
96.6831215305
 11
150.2650054866
 21
99.8437992851
  0
LINE
  5
29B
100
AcDbEntity
  8
ASSI
100
AcDbLine
 62
250
  6
CONTINUOUS
 10
156.5863609975
 20
96.6831215305
 11
150.2650054866
 21
99.8437992851
  0
LINE
  5
29C
100
AcDbEntity
  8
RACCORDO
100
AcDbLine
 62
250
  6
CONTINUOUS
 10
147.9748097763
 20
100.9888971402
 11
141.6534542671
 21
104.1495748957
  0
LINE
  5
29D
100
AcDbEntity
  8
ASSI
100
AcDbLine
 62
250
  6
CONTINUOUS
 10
147.9748097763
 20
100.9888971402
 11
141.6534542671
 21
104.1495748957
  0
LINE
  5
29E
100
AcDbEntity
  8
RACCORDO
100
AcDbLine
 62
7
  6
CONTINUOUS
 10
141.5652456656
 20
104.4008692136
 11
147.886601175
 21
101.2401914588
  0
LINE
  5
29F
100
AcDbEntity
  8
ASSI
100
AcDbLine
 62
7
  6
CONTINUOUS
 10
141.5652456656
 20
104.4008692136
 11
147.886601175
 21
101.2401914588
  0
LINE
  5
2A0
100
AcDbEntity
  8
RACCORDO
100
AcDbLine
 62
7
  6
CONTINUOUS
 10
150.176796886
 20
100.0950936034
 11
156.4981523968
 21
96.934415848
  0
LINE
  5
2A1
100
AcDbEntity
  8
ASSI
100
AcDbLine
 62
7
  6
CONTINUOUS
 10
150.176796886
 20
100.0950936034
 11
156.4981523968
 21
96.934415848
  0
LINE
  5
2A2
100
AcDbEntity
  8
RACCORDO
100
AcDbLine
 62
250
  6
CONTINUOUS
 10
141.5132787107
 20
104.5091587681
 11
147.8346225728
 21
101.3484868362
  0
LINE
  5
2A3
100
AcDbEntity
  8
ASSI
100
AcDbLine
 62
250
  6
CONTINUOUS
 10
141.5132787107
 20
104.5091587681
 11
147.8346225728
 21
101.3484868362
  0
LINE
  5
2A4
100
AcDbEntity
  8
RACCORDO
100
AcDbLine
 62
250
  6
CONTINUOUS
 10
150.1248182831
 20
100.2033889811
 11
156.4461621451
 21
97.0427170508
  0
LINE
  5
2A5
100
AcDbEntity
  8
ASSI
100
AcDbLine
 62
250
  6
CONTINUOUS
 10
150.1248182831
 20
100.2033889811
 11
156.4461621451
 21
97.0427170508
  0
LINE
  5
2A6
100
AcDbEntity
  8
0
100
AcDbLine
 62
7
  6
CONTINUOUS
 10
148.4030507043
 20
101.2047360819
 11
148.226033652
 21
101.293244608
  0
LINE
  5
2A7
100
AcDbEntity
  8
ASSI
100
AcDbLine
 62
7
  6
CONTINUOUS
 10
148.4030507043
 20
101.2047360819
 11
148.2233435773
 21
101.2945896453
  0
LWPOLYLINE
  5
2A8
100
AcDbEntity
  8
RACCORDO
100
AcDbPolyline
 62
250
  6
CONTINUOUS
 90
17
 70
0
 10
141.5132787127
 20
103.9061563774
 10
141.495451286
 20
103.9155468212
 10
141.478620589
 20
103.9253917577
 10
141.4628315469
 20
103.935664733
 10
141.4481269131
 20
103.9463377479
 10
141.4345451524
 20
103.9573825645
 10
141.4221208484
 20
103.9687709418
 10
141.4108867577
 20
103.9804734303
 10
141.4008742173
 20
103.9924579397
 10
141.3921110513
 20
104.004691089
 10
141.3846209472
 20
104.0171397559
 10
141.3784235599
 20
104.0297711146
 10
141.3735353258
 20
104.04255133
 10
141.3699693487
 20
104.0554464863
 10
141.3677352815
 20
104.0684220139
 10
141.3668391479
 20
104.0814426632
 10
141.366820134
 20
104.0835322031
  0
LWPOLYLINE
  5
2A9
100
AcDbEntity
  8
ASSI
100
AcDbPolyline
 62
250
  6
CONTINUOUS
 90
17
 70
0
 10
141.5132787127
 20
103.9061563774
 10
141.495451286
 20
103.9155468212
 10
141.478620589
 20
103.9253917577
 10
141.4628315469
 20
103.935664733
 10
141.4481269131
 20
103.9463377479
 10
141.4345451524
 20
103.9573825645
 10
141.4221208484
 20
103.9687709418
 10
141.4108867577
 20
103.9804734303
 10
141.4008742173
 20
103.9924579397
 10
141.3921110513
 20
104.004691089
 10
141.3846209472
 20
104.0171397559
 10
141.3784235599
 20
104.0297711146
 10
141.3735353258
 20
104.04255133
 10
141.3699693487
 20
104.0554464863
 10
141.3677352815
 20
104.0684220139
 10
141.3668391479
 20
104.0814426632
 10
141.366820309
 20
104.0834035762
  0
LWPOLYLINE
  5
2AA
100
AcDbEntity
  8
RACCORDO
100
AcDbPolyline
 62
250
  6
CONTINUOUS
 90
23
 70
0
 10
141.6534542671
 20
104.1495748957
 10
141.6427244108
 20
104.1552325608
 10
141.6326411299
 20
104.1611336842
 10
141.6232044244
 20
104.1672782659
 10
141.6143919984
 20
104.173684208
 10
141.6062261478
 20
104.1803336084
 10
141.59877376
 20
104.1871727613
 10
141.5920408285
 20
104.1942031886
 10
141.5860213597
 20
104.2014233684
 10
141.5807642606
 20
104.2087750295
 10
141.5762759025
 20
104.216259018
 10
141.5725499139
 20
104.2238744877
 10
141.5696160872
 20
104.2315606291
 10
141.5674807373
 20
104.2393181297
 10
141.5661375492
 20
104.2471463019
 10
141.5655973709
 20
104.2549822726
 10
141.5658667147
 20
104.2628260809
 10
141.5669390682
 20
104.2706776878
 10
141.5688057419
 20
104.2784741035
 10
141.5714730614
 20
104.2862147865
 10
141.5749347012
 20
104.2939002784
 10
141.5791629946
 20
104.3014692138
 10
141.5841643438
 20
104.3089208725
  0
LWPOLYLINE
  5
2AB
100
AcDbEntity
  8
ASSI
100
AcDbPolyline
 62
250
  6
CONTINUOUS
 90
18
 70
0
 10
141.6534542671
 20
104.1495748957
 10
141.6427244108
 20
104.1552325608
 10
141.6326411299
 20
104.1611336842
 10
141.6232044244
 20
104.1672782659
 10
141.6143919984
 20
104.173684208
 10
141.6062261478
 20
104.1803336084
 10
141.59877376
 20
104.1871727613
 10
141.5920408285
 20
104.1942031886
 10
141.5860213597
 20
104.2014233684
 10
141.5807642606
 20
104.2087750295
 10
141.5762759025
 20
104.216259018
 10
141.5725499139
 20
104.2238744877
 10
141.5696160872
 20
104.2315606291
 10
141.5674807373
 20
104.2393181297
 10
141.5661375492
 20
104.2471463019
 10
141.5655973709
 20
104.2549822726
 10
141.5658667147
 20
104.2628260809
 10
141.5669390682
 20
104.2706776878
  0
LWPOLYLINE
  5
2AC
100
AcDbEntity
  8
0
100
AcDbPolyline
 62
7
  6
CONTINUOUS
 90
24
 70
0
 10
148.4030507043
 20
101.2047360819
 10
148.414546227
 20
101.1986098671
 10
148.4259672772
 20
101.1917622264
 10
148.4373138551
 20
101.1841931598
 10
148.4486345005
 20
101.1758641218
 10
148.4598806735
 20
101.1668136579
 10
148.4709067539
 20
101.1571574044
 10
148.4816805263
 20
101.1469177527
 10
148.4922342061
 20
101.1360723113
 10
148.5025188186
 20
101.1246695429
 10
148.5125556281
 20
101.1126805585
 10
148.5223233702
 20
101.100134247
 10
148.5317092781
 20
101.0871657372
 10
148.5407063853
 20
101.0737672938
 10
148.5493216582
 20
101.059946652
 10
148.5574632287
 20
101.0458621463
 10
148.5651113172
 20
101.0315433548
 10
148.5722857032
 20
101.0169606994
 10
148.5789538566
 20
101.00218378
 10
148.5851285245
 20
100.9871713796
 10
148.5907969598
 20
100.9719647152
 10
148.5958883903
 20
100.9567570375
 10
148.6003792255
 20
100.9416127634
 10
148.6042930559
 20
100.9264674762
  0
LWPOLYLINE
  5
2AD
100
AcDbEntity
  8
ASSI
100
AcDbPolyline
 62
7
  6
CONTINUOUS
 90
24
 70
0
 10
148.4030507043
 20
101.2047360819
 10
148.414546227
 20
101.1986098671
 10
148.4259672772
 20
101.1917622264
 10
148.4373138551
 20
101.1841931598
 10
148.4486345005
 20
101.1758641218
 10
148.4598806735
 20
101.1668136579
 10
148.4709067539
 20
101.1571574044
 10
148.4816805263
 20
101.1469177527
 10
148.4922342061
 20
101.1360723113
 10
148.5025188186
 20
101.1246695429
 10
148.5125556281
 20
101.1126805585
 10
148.5223233702
 20
101.100134247
 10
148.5317092781
 20
101.0871657372
 10
148.5407063853
 20
101.0737672938
 10
148.5493216582
 20
101.059946652
 10
148.5574632287
 20
101.0458621463
 10
148.5651113172
 20
101.0315433548
 10
148.5722857032
 20
101.0169606994
 10
148.5789538566
 20
101.00218378
 10
148.5851285245
 20
100.9871713796
 10
148.5907969598
 20
100.9719647152
 10
148.5958883903
 20
100.9567570375
 10
148.6003792255
 20
100.9416127634
 10
148.6042930559
 20
100.9264674762
  0
LINE
  5
2AE
100
AcDbEntity
  8
RACCORDO
100
AcDbLine
 62
7
  6
CONTINUOUS
 10
150.1607100427
 20
100.1037977206
 11
150.1767565369
 21
100.0951148786
  0
LWPOLYLINE
  5
2AF
100
AcDbEntity
  8
ASSI
100
AcDbPolyline
 62
7
  6
CONTINUOUS
 90
3
 70
0
 10
150.1411764763
 20
100.1162493003
 10
150.1718953306
 20
100.0976057912
 10
150.1767447388
 20
100.0951207878
  0
LWPOLYLINE
  5
2B0
100
AcDbEntity
  8
RACCORDO
100
AcDbPolyline
 62
250
  6
CONTINUOUS
 90
22
 70
0
 10
147.9028111292
 20
101.3779669168
 10
147.9133307296
 20
101.369662911
 10
147.9245744897
 20
101.3617952109
 10
147.936480208
 20
101.3544073413
 10
147.9489820214
 20
101.3475401723
 10
147.9620107687
 20
101.3412316938
 10
147.9754943741
 20
101.3355168046
 10
147.989358245
 20
101.3304271201
 10
148.0035256856
 20
101.3259907966
 10
148.0179183205
 20
101.3222323764
 10
148.0324565285
 20
101.3191726511
 10
148.0470598831
 20
101.3168285476
 10
148.0616475976
 20
101.3152130336
 10
148.0761389714
 20
101.3143350461
 10
148.0904538373
 20
101.3141994423
 10
148.1045130044
 20
101.3148069724
 10
148.1182386961
 20
101.3161542754
 10
148.1315549811
 20
101.318233898
 10
148.1443881924
 20
101.3210343356
 10
148.156667336
 20
101.3245400958
 10
148.1683244825
 20
101.3287317847
 10
148.1792951438
 20
101.3335862133
  0
LWPOLYLINE
  5
2B1
100
AcDbEntity
  8
ASSI
100
AcDbPolyline
 62
250
  6
CONTINUOUS
 90
22
 70
0
 10
147.9028111292
 20
101.3779669168
 10
147.9133307296
 20
101.369662911
 10
147.9245744897
 20
101.3617952109
 10
147.936480208
 20
101.3544073413
 10
147.9489820214
 20
101.3475401723
 10
147.9620107687
 20
101.3412316938
 10
147.9754943741
 20
101.3355168046
 10
147.989358245
 20
101.3304271201
 10
148.0035256856
 20
101.3259907966
 10
148.0179183205
 20
101.3222323764
 10
148.0324565285
 20
101.3191726511
 10
148.0470598831
 20
101.3168285476
 10
148.0616475976
 20
101.3152130336
 10
148.0761389714
 20
101.3143350461
 10
148.0904538373
 20
101.3141994423
 10
148.1045130044
 20
101.3148069724
 10
148.1182386961
 20
101.3161542754
 10
148.1315549811
 20
101.318233898
 10
148.1443881924
 20
101.3210343356
 10
148.156667336
 20
101.3245400958
 10
148.1683244825
 20
101.3287317847
 10
148.1792951438
 20
101.3335862133
  0
LINE
  5
2B2
100
AcDbEntity
  8
DRAFT
100
AcDbLine
 62
7
  6
CONTINUOUS
 10
150.2066819273
 20
99.8915737635
 11
150.1922523757
 21
99.9040458009
  0
LINE
  5
2B3
100
AcDbEntity
  8
ASSI
100
AcDbLine
 62
7
  6
CONTINUOUS
 10
150.2066819273
 20
99.8915737635
 11
150.1922523757
 21
99.9040458009
  0
LWPOLYLINE
  5
2B4
100
AcDbEntity
  8
RACCORDO
100
AcDbPolyline
 62
250
  6
CONTINUOUS
 90
14
 70
0
 10
150.0567096979
 20
99.5709465022
 10
150.0469676761
 20
99.5796392973
 10
150.0380618993
 20
99.588675989
 10
150.030041635
 20
99.5980065857
 10
150.0229512517
 20
99.6075794697
 10
150.0168299742
 20
99.6173416831
 10
150.0117116656
 20
99.6272392207
 10
150.007624641
 20
99.6372173284
 10
150.0045915101
 20
99.6472208067
 10
150.0026290523
 20
99.6571943155
 10
150.0017481241
 20
99.6670826806
 10
150.0019535989
 20
99.6768311989
 10
150.00324434
 20
99.6863859407
 10
150.0042817469
 20
99.6910231615
  0
LWPOLYLINE
  5
2B5
100
AcDbEntity
  8
ASSI
100
AcDbPolyline
 62
250
  6
CONTINUOUS
 90
14
 70
0
 10
150.0567096979
 20
99.5709465022
 10
150.0469676761
 20
99.5796392973
 10
150.0380618993
 20
99.588675989
 10
150.030041635
 20
99.5980065857
 10
150.0229512517
 20
99.6075794697
 10
150.0168299742
 20
99.6173416831
 10
150.0117116656
 20
99.6272392207
 10
150.007624641
 20
99.6372173284
 10
150.0045915101
 20
99.6472208067
 10
150.0026290523
 20
99.6571943155
 10
150.0017481241
 20
99.6670826806
 10
150.0019535989
 20
99.6768311989
 10
150.00324434
 20
99.6863859407
 10
150.0042581866
 20
99.6909301158
  0
LWPOLYLINE
  5
2B6
100
AcDbEntity
  8
DRAFT
100
AcDbPolyline
 62
7
  6
CONTINUOUS
 90
28
 70
0
 10
150.1922523757
 20
99.9040458009
 10
150.1425328954
 20
99.9496014537
 10
150.0935045583
 20
99.997152341
 10
150.0451642995
 20
100.046689616
 10
149.9977271007
 20
100.0979929629
 10
149.9511969846
 20
100.1510702471
 10
149.9055699285
 20
100.2059136032
 10
149.8610488466
 20
100.2622791191
 10
149.8176386652
 20
100.3201735739
 10
149.7753344579
 20
100.3795901886
 10
149.7343243601
 20
100.4402647141
 10
149.6946141358
 20
100.5022027524
 10
149.6561980209
 20
100.5653987016
 10
149.6192468581
 20
100.6295715065
 10
149.5837671725
 20
100.6947255174
 10
149.549752439
 20
100.7608563841
 10
149.5173539252
 20
100.8276700009
 10
149.4865788299
 20
100.8951694081
 10
149.4574199544
 20
100.9633515653
 10
149.4300069703
 20
101.0319132462
 10
149.4043476538
 20
101.1008561404
 10
149.3804342286
 20
101.1701785581
 10
149.3583730379
 20
101.2395722037
 10
149.3381723316
 20
101.3090373938
 10
149.3198238598
 20
101.3785738116
 10
149.3034092165
 20
101.4478722115
 10
149.2889367471
 20
101.5169365334
 10
149.2787555667
 20
101.5728224161
  0
LINE
  5
2B7
100
AcDbEntity
  8
ASSI
100
AcDbLine
 62
7
  6
CONTINUOUS
 10
150.1922523757
 20
99.9040458009
 11
150.1425328954
 21
99.9496014537
  0
LINE
  5
2B8
100
AcDbEntity
  8
ASSI
100
AcDbLine
 62
7
  6
CONTINUOUS
 10
150.1425328954
 20
99.9496014537
 11
150.0935045583
 21
99.997152341
  0
LWPOLYLINE
  5
2B9
100
AcDbEntity
  8
ASSI
100
AcDbPolyline
 62
7
  6
CONTINUOUS
 90
26
 70
0
 10
150.0935045583
 20
99.997152341
 10
150.0451642995
 20
100.046689616
 10
149.9977271007
 20
100.0979929629
 10
149.9511969846
 20
100.1510702471
 10
149.9055699285
 20
100.2059136032
 10
149.8610488466
 20
100.2622791191
 10
149.8176386652
 20
100.3201735739
 10
149.7753344579
 20
100.3795901886
 10
149.7343243601
 20
100.4402647141
 10
149.6946141358
 20
100.5022027524
 10
149.6561980209
 20
100.5653987016
 10
149.6192468581
 20
100.6295715065
 10
149.5837671725
 20
100.6947255174
 10
149.549752439
 20
100.7608563841
 10
149.5173539252
 20
100.8276700009
 10
149.4865788299
 20
100.8951694081
 10
149.4574199544
 20
100.9633515653
 10
149.4300069703
 20
101.0319132462
 10
149.4043476538
 20
101.1008561404
 10
149.3804342286
 20
101.1701785581
 10
149.3583730379
 20
101.2395722037
 10
149.3381723316
 20
101.3090373938
 10
149.3198238598
 20
101.3785738116
 10
149.3034092165
 20
101.4478722115
 10
149.2889367471
 20
101.5169365334
 10
149.2787555667
 20
101.5728224161
  0
LWPOLYLINE
  5
2BA
100
AcDbEntity
  8
DRAFT
100
AcDbPolyline
 62
7
  6
CONTINUOUS
 90
13
 70
0
 10
149.3738367439
 20
101.1909309972
 10
149.3909144742
 20
101.142739074
 10
149.4213535815
 20
101.0628495886
 10
149.4537810241
 20
100.9833338344
 10
149.488081637
 20
100.9044756117
 10
149.5242797358
 20
100.8262421265
 10
149.5623510048
 20
100.7486661729
 10
149.6021073317
 20
100.6721299329
 10
149.643534025
 20
100.5966776437
 10
149.6866457762
 20
100.5222650682
 10
149.7312985476
 20
100.4491416772
 10
149.7775259915
 20
100.3772701913
 10
149.7878980843
 20
100.3619444698
  0
LWPOLYLINE
  5
2BB
100
AcDbEntity
  8
ASSI
100
AcDbPolyline
 62
7
  6
CONTINUOUS
 90
13
 70
0
 10
149.3738367439
 20
101.1909309972
 10
149.3909144742
 20
101.142739074
 10
149.4213535815
 20
101.0628495886
 10
149.4537810241
 20
100.9833338344
 10
149.488081637
 20
100.9044756117
 10
149.5242797358
 20
100.8262421265
 10
149.5623510048
 20
100.7486661729
 10
149.6021073317
 20
100.6721299329
 10
149.643534025
 20
100.5966776437
 10
149.6866457762
 20
100.5222650682
 10
149.7312985476
 20
100.4491416772
 10
149.7775259915
 20
100.3772701913
 10
149.7878980843
 20
100.3619444698
  0
LWPOLYLINE
  5
2BC
100
AcDbEntity
  8
RACCORDO
100
AcDbPolyline
 62
7
  6
CONTINUOUS
 90
15
 70
0
 10
150.007092791
 20
100.3107451807
 10
150.0124552857
 20
100.2927529941
 10
150.0188463326
 20
100.2748536677
 10
150.0262559135
 20
100.2571363318
 10
150.0345816151
 20
100.2398596913
 10
150.0438259317
 20
100.2230165387
 10
150.0540019857
 20
100.2066142877
 10
150.0649625206
 20
100.1909015704
 10
150.0767007111
 20
100.1758843777
 10
150.089234265
 20
100.1615584742
 10
150.1024022571
 20
100.1481188003
 10
150.1161814783
 20
100.1355805333
 10
150.1305855537
 20
100.1239425879
 10
150.1454556764
 20
100.1133341195
 10
150.1607100427
 20
100.1037977206
  0
LWPOLYLINE
  5
2BD
100
AcDbEntity
  8
RACCORDO
100
AcDbPolyline
 62
250
  6
CONTINUOUS
 90
25
 70
0
 10
148.1792941294
 20
100.696170342
 10
148.1758780563
 20
100.7112864629
 10
148.1718751981
 20
100.726457527
 10
148.1672972726
 20
100.741639028
 10
148.1621577188
 20
100.7567864574
 10
148.1564715514
 20
100.7718553054
 10
148.1502553242
 20
100.786801192
 10
148.1435270586
 20
100.8015805889
 10
148.136306645
 20
100.8161496855
 10
148.1286158151
 20
100.8304644499
 10
148.1204775187
 20
100.8444823324
 10
148.1119154537
 20
100.8581627512
 10
148.1029545077
 20
100.871465959
 10
148.0936210038
 20
100.8843528468
 10
148.0839423472
 20
100.8967856047
 10
148.0739466007
 20
100.908728174
 10
148.0636626284
 20
100.920145853
 10
148.053121005
 20
100.9310045454
 10
148.0423536471
 20
100.9412714868
 10
148.0313927213
 20
100.950916102
 10
148.0202698741
 20
100.9599106786
 10
148.0090171047
 20
100.9682294943
 10
147.9976671838
 20
100.9758482373
 10
147.9862535896
 20
100.982744231
 10
147.9748097763
 20
100.9888971402
  0
LWPOLYLINE
  5
2BE
100
AcDbEntity
  8
ASSI
100
AcDbPolyline
 62
250
  6
CONTINUOUS
 90
25
 70
0
 10
148.1792941294
 20
100.696170342
 10
148.1758780563
 20
100.7112864629
 10
148.1718751981
 20
100.726457527
 10
148.1672972726
 20
100.741639028
 10
148.1621577188
 20
100.7567864574
 10
148.1564715514
 20
100.7718553054
 10
148.1502553242
 20
100.786801192
 10
148.1435270586
 20
100.8015805889
 10
148.136306645
 20
100.8161496855
 10
148.1286158151
 20
100.8304644499
 10
148.1204775187
 20
100.8444823324
 10
148.1119154537
 20
100.8581627512
 10
148.1029545077
 20
100.871465959
 10
148.0936210038
 20
100.8843528468
 10
148.0839423472
 20
100.8967856047
 10
148.0739466007
 20
100.908728174
 10
148.0636626284
 20
100.920145853
 10
148.053121005
 20
100.9310045454
 10
148.0423536471
 20
100.9412714868
 10
148.0313927213
 20
100.950916102
 10
148.0202698741
 20
100.9599106786
 10
148.0090171047
 20
100.9682294943
 10
147.9976671838
 20
100.9758482373
 10
147.9862535896
 20
100.982744231
 10
147.9748097763
 20
100.9888971402
  0
LWPOLYLINE
  5
2BF
100
AcDbEntity
  8
0
100
AcDbPolyline
 62
7
  6
CONTINUOUS
 90
42
 70
0
 10
148.6042930559
 20
100.9264674762
 10
148.6191075939
 20
100.8582093146
 10
148.632119689
 20
100.8051124333
 10
148.6466661668
 20
100.7520305317
 10
148.6627752085
 20
100.6988782261
 10
148.6804186329
 20
100.6457409002
 10
148.6995118969
 20
100.5928747057
 10
148.7200680676
 20
100.540267499
 10
148.7420740779
 20
100.4879314236
 10
148.7654061826
 20
100.4361590617
 10
148.7900612743
 20
100.3849730846
 10
148.8160424605
 20
100.3343508211
 10
148.8432353181
 20
100.2845168388
 10
148.8716613753
 20
100.2354492109
 10
148.9012991039
 20
100.1871698643
 10
148.9319694964
 20
100.1399691475
 10
148.963656455
 20
100.093883509
 10
148.9963760774
 20
100.0488765002
 10
149.0299976494
 20
100.0051291243
 10
149.0645534701
 20
99.96261371
 10
149.1000112404
 20
99.9213579285
 10
149.1361433495
 20
99.8816257958
 10
149.1729196526
 20
99.8434603197
 10
149.2103702944
 20
99.8068184923
 10
149.248358098
 20
99.7718353067
 10
149.2869244771
 20
99.7384852584
 10
149.3260280179
 20
99.7067938517
 10
149.3654073024
 20
99.676972593
 10
149.4050214394
 20
99.6490616843
 10
149.4449113201
 20
99.6230209236
 10
149.4849382006
 20
99.5989412111
 10
149.5251471661
 20
99.5768071803
 10
149.5654931314
 20
99.5566341976
 10
149.6057020969
 20
99.538559263
 10
149.6457289774
 20
99.522612095
 10
149.6856188581
 20
99.508762975
 10
149.7252329951
 20
99.4970597467
 10
149.7646122796
 20
99.4875017208
 10
149.8037158204
 20
99.4800895867
 10
149.8422821995
 20
99.474873256
 10
149.8802700031
 20
99.471868638
 10
149.9112455047
 20
99.4711996659
  0
LWPOLYLINE
  5
2C0
100
AcDbEntity
  8
ASSI
100
AcDbPolyline
 62
7
  6
CONTINUOUS
 90
42
 70
0
 10
148.6042930559
 20
100.9264674762
 10
148.6191075939
 20
100.8582093146
 10
148.632119689
 20
100.8051124333
 10
148.6466661668
 20
100.7520305317
 10
148.6627752085
 20
100.6988782261
 10
148.6804186329
 20
100.6457409002
 10
148.6995118969
 20
100.5928747057
 10
148.7200680676
 20
100.540267499
 10
148.7420740779
 20
100.4879314236
 10
148.7654061826
 20
100.4361590617
 10
148.7900612743
 20
100.3849730846
 10
148.8160424605
 20
100.3343508211
 10
148.8432353181
 20
100.2845168388
 10
148.8716613753
 20
100.2354492109
 10
148.9012991039
 20
100.1871698643
 10
148.9319694964
 20
100.1399691475
 10
148.963656455
 20
100.093883509
 10
148.9963760774
 20
100.0488765002
 10
149.0299976494
 20
100.0051291243
 10
149.0645534701
 20
99.96261371
 10
149.1000112404
 20
99.9213579285
 10
149.1361433495
 20
99.8816257958
 10
149.1729196526
 20
99.8434603197
 10
149.2103702944
 20
99.8068184923
 10
149.248358098
 20
99.7718353067
 10
149.2869244771
 20
99.7384852584
 10
149.3260280179
 20
99.7067938517
 10
149.3654073024
 20
99.676972593
 10
149.4050214394
 20
99.6490616843
 10
149.4449113201
 20
99.6230209236
 10
149.4849382006
 20
99.5989412111
 10
149.5251471661
 20
99.5768071803
 10
149.5654931314
 20
99.5566341976
 10
149.6057020969
 20
99.538559263
 10
149.6457289774
 20
99.522612095
 10
149.6856188581
 20
99.508762975
 10
149.7252329951
 20
99.4970597467
 10
149.7646122796
 20
99.4875017208
 10
149.8037158204
 20
99.4800895867
 10
149.8422821995
 20
99.474873256
 10
149.8802700031
 20
99.471868638
 10
149.9112455047
 20
99.4711996659
  0
LWPOLYLINE
  5
2C1
100
AcDbEntity
  8
RACCORDO
100
AcDbPolyline
 62
250
  6
CONTINUOUS
 90
13
 70
0
 10
150.1248182831
 20
100.2033889811
 10
150.1252023736
 20
100.1907031128
 10
150.1263671614
 20
100.17847821
 10
150.1283061989
 20
100.1667819423
 10
150.1310087527
 20
100.1556790532
 10
150.1344598631
 20
100.1452310017
 10
150.1386404268
 20
100.1354956218
 10
150.1435273028
 20
100.1265268028
 10
150.1490934402
 20
100.1183741907
 10
150.1553080283
 20
100.1110829133
 10
150.1621366669
 20
100.1046933309
 10
150.1695415567
 20
100.0992408123
 10
150.1767561027
 20
100.0951140105
  0
LWPOLYLINE
  5
2C2
100
AcDbEntity
  8
ASSI
100
AcDbPolyline
 62
250
  6
CONTINUOUS
 90
13
 70
0
 10
150.1248182831
 20
100.2033889811
 10
150.1252023736
 20
100.1907031128
 10
150.1263671614
 20
100.17847821
 10
150.1283061989
 20
100.1667819423
 10
150.1310087527
 20
100.1556790532
 10
150.1344598631
 20
100.1452310017
 10
150.1386404268
 20
100.1354956218
 10
150.1435273028
 20
100.1265268028
 10
150.1490934402
 20
100.1183741907
 10
150.1553080283
 20
100.1110829133
 10
150.1621366669
 20
100.1046933309
 10
150.1695415567
 20
100.0992408123
 10
150.1767443045
 20
100.0951199199
  0
LWPOLYLINE
  5
2C3
100
AcDbEntity
  8
RACCORDO
100
AcDbPolyline
 62
250
  6
CONTINUOUS
 90
22
 70
0
 10
150.1248182831
 20
99.6003865972
 10
150.1252023708
 20
99.6134565053
 10
150.1263671504
 20
99.6268461486
 10
150.1283061753
 20
99.6404814107
 10
150.1310087134
 20
99.6542868158
 10
150.1344598058
 20
99.6681859461
 10
150.1386403505
 20
99.6821018648
 10
150.1435272075
 20
99.6959575422
 10
150.149093327
 20
99.7096762815
 10
150.1553078991
 20
99.7231821438
 10
150.1621365245
 20
99.7364003688
 10
150.1695414046
 20
99.7492577877
 10
150.177481551
 20
99.7616832287
 10
150.1859130123
 20
99.7736079117
 10
150.1947891174
 20
99.7849658279
 10
150.2040607333
 20
99.7956941054
 10
150.2136765382
 20
99.8057333581
 10
150.2235833049
 20
99.815028014
 10
150.2337261948
 20
99.8235266217
 10
150.2440490625
 20
99.8311821373
 10
150.2544947669
 20
99.8379521837
 10
150.2650054866
 20
99.843799285
  0
LWPOLYLINE
  5
2C4
100
AcDbEntity
  8
ASSI
100
AcDbPolyline
 62
250
  6
CONTINUOUS
 90
22
 70
0
 10
150.1248182831
 20
99.6003865972
 10
150.1252023708
 20
99.6134565053
 10
150.1263671504
 20
99.6268461486
 10
150.1283061753
 20
99.6404814107
 10
150.1310087134
 20
99.6542868158
 10
150.1344598058
 20
99.6681859461
 10
150.1386403505
 20
99.6821018648
 10
150.1435272075
 20
99.6959575422
 10
150.149093327
 20
99.7096762815
 10
150.1553078991
 20
99.7231821438
 10
150.1621365245
 20
99.7364003688
 10
150.1695414046
 20
99.7492577877
 10
150.177481551
 20
99.7616832287
 10
150.1859130123
 20
99.7736079117
 10
150.1947891174
 20
99.7849658279
 10
150.2040607333
 20
99.7956941054
 10
150.2136765382
 20
99.8057333581
 10
150.2235833049
 20
99.815028014
 10
150.2337261948
 20
99.8235266217
 10
150.2440490625
 20
99.8311821373
 10
150.2544947669
 20
99.8379521837
 10
150.2650054866
 20
99.843799285
  0
LINE
  5
2C5
100
AcDbEntity
  8
RACCORDO
100
AcDbLine
 62
7
  6
CONTINUOUS
 10
150.0042817469
 20
99.6910231615
 11
150.0043004618
 21
99.6910967527
  0
LINE
  5
2C6
100
AcDbEntity
  8
ASSI
100
AcDbLine
 62
7
  6
CONTINUOUS
 10
150.0042581866
 20
99.6909301158
 11
150.0043881373
 21
99.6914378442
  0
LINE
  5
2C7
100
AcDbEntity
  8
ASSI
100
AcDbLine
 62
7
  6
CONTINUOUS
 10
150.0042581866
 20
99.6909301158
 11
149.9994917774
 21
99.6729221529
  0
LWPOLYLINE
  5
2C8
100
AcDbEntity
  8
RACCORDO
100
AcDbPolyline
 62
7
  6
CONTINUOUS
 90
13
 70
0
 10
150.0042817469
 20
99.6910231615
 10
149.9967391327
 20
99.6631410553
 10
149.9850858483
 20
99.6257569758
 10
149.9720522196
 20
99.5898834503
 10
149.9576971785
 20
99.5556808269
 10
149.9420407834
 20
99.5231763431
 10
149.9250443877
 20
99.4923095504
 10
149.9067459524
 20
99.4631909145
 10
149.8871776359
 20
99.4358983502
 10
149.8662574266
 20
99.4103753492
 10
149.8440286298
 20
99.3867492267
 10
149.8204793283
 20
99.3650698199
 10
149.7953744438
 20
99.345237327
  0
LWPOLYLINE
  5
2C9
100
AcDbEntity
  8
RACCORDO
100
AcDbPolyline
 62
250
  6
CONTINUOUS
 90
64
 70
0
 10
150.0567096384
 20
99.5709464724
 10
150.0437901628
 20
99.5241466661
 10
150.0290747453
 20
99.4789104614
 10
150.0125631893
 20
99.4352377605
 10
149.9942251078
 20
99.3930169863
 10
149.9740905257
 20
99.3523595358
 10
149.9522497589
 20
99.3135997198
 10
149.9286802801
 20
99.2767594367
 10
149.9034040348
 20
99.2418164973
 10
149.8765778544
 20
99.209038984
 10
149.8481859704
 20
99.1784557689
 10
149.8182434321
 20
99.1500376195
 10
149.7869531513
 20
99.1239653882
 10
149.7543251727
 20
99.1002719989
 10
149.7203486716
 20
99.0789241363
 10
149.6851951729
 20
99.0600032516
 10
149.6488696891
 20
99.0435187994
 10
149.6113664643
 20
99.0294609517
 10
149.5728408391
 20
99.0178822193
 10
149.5332774191
 20
99.0087863906
 10
149.492690932
 20
99.002169342
 10
149.4512818876
 20
98.9980717098
 10
149.4090375089
 20
98.9965074766
 10
149.3659700035
 20
98.9974623731
 10
149.3223173607
 20
99.0009346591
 10
149.2780805758
 20
99.0069393446
 10
149.2332582166
 20
99.0154611994
 10
149.1880846536
 20
99.026453134
 10
149.1425610768
 20
99.03992693
 10
149.0966860233
 20
99.0558706682
 10
149.0506899222
 20
99.0742017272
 10
149.0045727749
 20
99.0949309547
 10
148.9583344873
 20
99.1180474563
 10
148.9122053892
 20
99.1434360207
 10
148.8661854713
 20
99.1711075644
 10
148.8202748355
 20
99.2010512175
 10
148.7747040234
 20
99.233119111
 10
148.729471824
 20
99.2673244099
 10
148.684579721
 20
99.3036540866
 10
148.6402623367
 20
99.3419210029
 10
148.5965183772
 20
99.3821417804
 10
148.553349573
 20
99.4243000174
 10
148.5109951061
 20
99.4681590523
 10
148.4694673721
 20
99.5137211794
 10
148.4287545446
 20
99.5609843909
 10
148.389059475
 20
99.6097055736
 10
148.3503978343
 20
99.6598736543
 10
148.3127546178
 20
99.7115000413
 10
148.2762866503
 20
99.7643753372
 10
148.240989479
 20
99.8185136561
 10
148.2068682994
 20
99.873901257
 10
148.1740943771
 20
99.9302869435
 10
148.1426573216
 20
99.9877141909
 10
148.1125683034
 20
100.0461399152
 10
148.0840308477
 20
100.1051830403
 10
148.0570599464
 20
100.1648585122
 10
148.0316413287
 20
100.2251517461
 10
148.0079344811
 20
100.2856372961
 10
147.9859616872
 20
100.3463159943
 10
147.9657012476
 20
100.4071873006
 10
147.9472464812
 20
100.4678236141
 10
147.9306285748
 20
100.5280824409
 10
147.9158167051
 20
100.5881064557
 10
147.9028110697
 20
100.6478957567
  0
LWPOLYLINE
  5
2CA
100
AcDbEntity
  8
ASSI
100
AcDbPolyline
 62
250
  6
CONTINUOUS
 90
64
 70
0
 10
150.0567096384
 20
99.5709464724
 10
150.0437901628
 20
99.5241466661
 10
150.0290747453
 20
99.4789104614
 10
150.0125631893
 20
99.4352377605
 10
149.9942251078
 20
99.3930169863
 10
149.9740905257
 20
99.3523595358
 10
149.9522497589
 20
99.3135997198
 10
149.9286802801
 20
99.2767594367
 10
149.9034040348
 20
99.2418164973
 10
149.8765778544
 20
99.209038984
 10
149.8481859704
 20
99.1784557689
 10
149.8182434321
 20
99.1500376195
 10
149.7869531513
 20
99.1239653882
 10
149.7543251727
 20
99.1002719989
 10
149.7203486716
 20
99.0789241363
 10
149.6851951729
 20
99.0600032516
 10
149.6488696891
 20
99.0435187994
 10
149.6113664643
 20
99.0294609517
 10
149.5728408391
 20
99.0178822193
 10
149.5332774191
 20
99.0087863906
 10
149.492690932
 20
99.002169342
 10
149.4512818876
 20
98.9980717098
 10
149.4090375089
 20
98.9965074766
 10
149.3659700035
 20
98.9974623731
 10
149.3223173607
 20
99.0009346591
 10
149.2780805758
 20
99.0069393446
 10
149.2332582166
 20
99.0154611994
 10
149.1880846536
 20
99.026453134
 10
149.1425610768
 20
99.03992693
 10
149.0966860233
 20
99.0558706682
 10
149.0506899222
 20
99.0742017272
 10
149.0045727749
 20
99.0949309547
 10
148.9583344873
 20
99.1180474563
 10
148.9122053892
 20
99.1434360207
 10
148.8661854713
 20
99.1711075644
 10
148.8202748355
 20
99.2010512175
 10
148.7747040234
 20
99.233119111
 10
148.729471824
 20
99.2673244099
 10
148.684579721
 20
99.3036540866
 10
148.6402623367
 20
99.3419210029
 10
148.5965183772
 20
99.3821417804
 10
148.553349573
 20
99.4243000174
 10
148.5109951061
 20
99.4681590523
 10
148.4694673721
 20
99.5137211794
 10
148.4287545446
 20
99.5609843909
 10
148.389059475
 20
99.6097055736
 10
148.3503978343
 20
99.6598736543
 10
148.3127546178
 20
99.7115000413
 10
148.2762866503
 20
99.7643753372
 10
148.240989479
 20
99.8185136561
 10
148.2068682994
 20
99.873901257
 10
148.1740943771
 20
99.9302869435
 10
148.1426573216
 20
99.9877141909
 10
148.1125683034
 20
100.0461399152
 10
148.0840308477
 20
100.1051830403
 10
148.0570599464
 20
100.1648585122
 10
148.0316413287
 20
100.2251517461
 10
148.0079344811
 20
100.2856372961
 10
147.9859616872
 20
100.3463159943
 10
147.9657012476
 20
100.4071873006
 10
147.9472464812
 20
100.4678236141
 10
147.9306285748
 20
100.5280824409
 10
147.9158167051
 20
100.5881064557
 10
147.9028110697
 20
100.6478957567
  0
LINE
  5
2CB
100
AcDbEntity
  8
RACCORDO
100
AcDbLine
 62
7
  6
CONTINUOUS
 10
150.008723884
 20
99.7065533154
 11
150.004301444
 21
99.691096503
  0
LWPOLYLINE
  5
2CC
100
AcDbEntity
  8
ASSI
100
AcDbPolyline
 62
7
  6
CONTINUOUS
 90
7
 70
0
 10
149.9994917774
 20
99.6729221529
 10
149.9775072138
 20
99.6042559241
 10
149.9510522892
 20
99.5413451569
 10
149.9204858792
 20
99.4846904482
 10
149.8861538426
 20
99.434566286
 10
149.8483038843
 20
99.3910397799
 10
149.8074448055
 20
99.3543793354
  0
LINE
  5
2CD
100
AcDbEntity
  8
DRAFT
100
AcDbLine
 62
7
  6
CONTINUOUS
 10
148.5898708853
 20
101.4954733303
 11
149.0296259935
 21
101.7364723334
  0
LINE
  5
2CE
100
AcDbEntity
  8
ASSI
100
AcDbLine
 62
7
  6
CONTINUOUS
 10
148.5898708853
 20
101.4954733303
 11
149.0296259935
 21
101.7364723334
  0
LINE
  5
2CF
100
AcDbEntity
  8
RACCORDO
100
AcDbLine
 62
250
  6
CONTINUOUS
 10
148.4747024621
 20
101.7639213793
 11
148.5082062147
 21
101.7818046445
  0
LINE
  5
2D0
100
AcDbEntity
  8
DRAFT
100
AcDbLine
 62
7
  6
CONTINUOUS
 10
148.754040747
 20
101.8209522264
 11
148.7243257632
 21
101.8053259598
  0
LINE
  5
2D1
100
AcDbEntity
  8
ASSI
100
AcDbLine
 62
7
  6
CONTINUOUS
 10
148.754040747
 20
101.8209522264
 11
148.7243257632
 21
101.8053259598
  0
LWPOLYLINE
  5
2D2
100
AcDbEntity
  8
RACCORDO
100
AcDbPolyline
 62
250
  6
CONTINUOUS
 90
13
 70
0
 10
148.1073210801
 20
101.2359328502
 10
148.1119154536
 20
101.2382856245
 10
148.1204775186
 20
101.2434214508
 10
148.1286158151
 20
101.2493278637
 10
148.136306645
 20
101.2559878403
 10
148.1435270586
 20
101.2633816839
 10
148.1502553242
 20
101.271487079
 10
148.1564715473
 20
101.2802798481
 10
148.1621577115
 20
101.2897342631
 10
148.1672972725
 20
101.2998224808
 10
148.1718752154
 20
101.3105147712
 10
148.1758780937
 20
101.3217796097
 10
148.1792941861
 20
101.3335838096
  0
LWPOLYLINE
  5
2D3
100
AcDbEntity
  8
ASSI
100
AcDbPolyline
 62
250
  6
CONTINUOUS
 90
13
 70
0
 10
148.1072617865
 20
101.2359042029
 10
148.1119154536
 20
101.2382856245
 10
148.1204775186
 20
101.2434214508
 10
148.1286158151
 20
101.2493278637
 10
148.136306645
 20
101.2559878403
 10
148.1435270586
 20
101.2633816839
 10
148.1502553242
 20
101.271487079
 10
148.1564715473
 20
101.2802798481
 10
148.1621577115
 20
101.2897342631
 10
148.1672972725
 20
101.2998224808
 10
148.1718752154
 20
101.3105147712
 10
148.1758780937
 20
101.3217796097
 10
148.1792941861
 20
101.3335838096
  0
LINE
  5
2D4
100
AcDbEntity
  8
RACCORDO
100
AcDbLine
 62
250
  6
CONTINUOUS
 10
148.4030507043
 20
101.2047360819
 11
147.9748097763
 21
100.9888971402
  0
LINE
  5
2D5
100
AcDbEntity
  8
ASSI
100
AcDbLine
 62
250
  6
CONTINUOUS
 10
148.4030507043
 20
101.2047360819
 11
147.9748097763
 21
100.9888971402
  0
LINE
  5
2D6
100
AcDbEntity
  8
RACCORDO
100
AcDbLine
 62
250
  6
CONTINUOUS
 10
148.6076298816
 20
100.9113211756
 11
148.1792941399
 21
100.6961703472
  0
LINE
  5
2D7
100
AcDbEntity
  8
ASSI
100
AcDbLine
 62
250
  6
CONTINUOUS
 10
148.6076298816
 20
100.9113211756
 11
148.1792941399
 21
100.6961703472
  0
LINE
  5
2D8
100
AcDbEntity
  8
RACCORDO
100
AcDbLine
 62
7
  6
CONTINUOUS
 10
148.5082062147
 20
101.7818046445
 11
148.5087566192
 21
101.7820726943
  0
LINE
  5
2D9
100
AcDbEntity
  8
ASSI
100
AcDbLine
 62
7
  6
CONTINUOUS
 10
148.5087566192
 20
101.7820726943
 11
148.5091532967
 21
101.7822653815
  0
LINE
  5
2DA
100
AcDbEntity
  8
RACCORDO
100
AcDbLine
 62
250
  6
CONTINUOUS
 10
148.1792941958
 20
101.3335838143
 11
148.6076298816
 21
101.5408422457
  0
LINE
  5
2DB
100
AcDbEntity
  8
ASSI
100
AcDbLine
 62
250
  6
CONTINUOUS
 10
148.1792941958
 20
101.3335838143
 11
148.6076298816
 21
101.5408422457
  0
LINE
  5
2DC
100
AcDbEntity
  8
RACCORDO
100
AcDbLine
 62
7
  6
CONTINUOUS
 10
148.1072619539
 20
101.2359042837
 11
148.1073210801
 21
101.2359328502
  0
LINE
  5
2DD
100
AcDbEntity
  8
0
100
AcDbLine
 62
7
  6
CONTINUOUS
 10
148.1072619524
 20
101.235904283
 11
148.5358085231
 21
101.4427970002
  0
LINE
  5
2DE
100
AcDbEntity
  8
ASSI
100
AcDbLine
 62
7
  6
CONTINUOUS
 10
148.1072617851
 20
101.2359042022
 11
148.535808368
 21
101.4427969253
  0
LINE
  5
2DF
100
AcDbEntity
  8
RACCORDO
100
AcDbLine
 62
7
  6
CONTINUOUS
 10
148.5081990943
 20
101.7818011093
 11
148.537278479
 21
101.7945792078
  0
LWPOLYLINE
  5
2E0
100
AcDbEntity
  8
ASSI
100
AcDbPolyline
 62
7
  6
CONTINUOUS
 90
24
 70
0
 10
148.5091450884
 20
101.7822612983
 10
148.562036477
 20
101.8033768337
 10
148.6241092133
 20
101.8180909882
 10
148.6908234239
 20
101.8239335494
 10
148.7623007102
 20
101.8205626873
 10
148.8374395863
 20
101.8077176186
 10
148.9149202411
 20
101.7855456281
 10
148.9934183431
 20
101.7545496372
 10
149.0723620154
 20
101.7151356257
 10
149.1516171674
 20
101.6674380223
 10
149.2303276137
 20
101.6119884956
 10
149.3078643857
 20
101.5492806753
 10
149.3846372681
 20
101.478882038
 10
149.460384361
 20
101.4007028236
 10
149.5339648477
 20
101.3155997894
 10
149.6045361092
 20
101.2243575571
 10
149.6715001418
 20
101.1276071911
 10
149.7342565812
 20
101.0260881644
 10
149.7921019247
 20
100.9208881163
 10
149.8445876649
 20
100.8128509884
 10
149.8913288594
 20
100.7028271981
 10
149.9318941784
 20
100.5919980586
 10
149.9660387962
 20
100.4813450314
 10
149.9935595246
 20
100.3720052812
  0
LINE
  5
2E1
100
AcDbEntity
  8
RACCORDO
100
AcDbLine
 62
7
  6
CONTINUOUS
 10
148.537278479
 20
101.7945792078
 11
148.5688710486
 21
101.8054914181
  0
LWPOLYLINE
  5
2E2
100
AcDbEntity
  8
ASSI
100
AcDbPolyline
 62
250
  6
CONTINUOUS
 90
33
 70
0
 10
148.8660800321
 20
101.8946653651
 10
148.9121002037
 20
101.8763463412
 10
148.9582293957
 20
101.8556231361
 10
149.004467697
 20
101.8325066413
 10
149.0505847778
 20
101.8071120683
 10
149.096580653
 20
101.7794285032
 10
149.1424554004
 20
101.7494669059
 10
149.1879788294
 20
101.7173753208
 10
149.2331523306
 20
101.6831406729
 10
149.2779747862
 20
101.6467761725
 10
149.3222122812
 20
101.6084693116
 10
149.3658664403
 20
101.5682036339
 10
149.4089360755
 20
101.5259958124
 10
149.4511830762
 20
101.4820830443
 10
149.492595552
 20
101.4364632881
 10
149.5331859625
 20
101.3891388682
 10
149.5727527242
 20
101.3403535315
 10
149.6112808262
 20
101.2901186814
 10
149.6487859457
 20
101.238423246
 10
149.6851125181
 20
101.1854772525
 10
149.7202656735
 20
101.1312669256
 10
149.7542410244
 20
101.0758064104
 10
149.7868686982
 20
101.0193475996
 10
149.8181597133
 20
100.961847332
 10
149.8481038313
 20
100.9033491576
 10
149.8764992124
 20
100.8442349953
 10
149.9033315069
 20
100.7844902199
 10
149.9286157855
 20
100.7241298165
 10
149.9521941942
 20
100.663580047
 10
149.9740449976
 20
100.6028403535
 10
149.9941905153
 20
100.5419115863
 10
150.0125387817
 20
100.4812220229
 10
150.0290592224
 20
100.4209144632
  0
LINE
  5
2E3
100
AcDbEntity
  8
RACCORDO
100
AcDbLine
 62
250
  6
CONTINUOUS
 10
150.0026297809
 20
100.329877011
 11
150.0021015322
 21
100.3319304569
  0
LWPOLYLINE
  5
2E4
100
AcDbEntity
  8
ASSI
100
AcDbPolyline
 62
7
  6
CONTINUOUS
 90
8
 70
0
 10
150.0020948185
 20
100.3319638035
 10
150.0107562756
 20
100.2980862556
 10
150.0235323875
 20
100.2633462329
 10
150.0404391667
 20
100.2289443915
 10
150.0614515001
 20
100.1957403679
 10
150.0853361324
 20
100.1658423139
 10
150.111834447
 20
100.1393799142
 10
150.1411764763
 20
100.1162493003
  0
LINE
  5
2E5
100
AcDbEntity
  8
ASSI
100
AcDbLine
 62
250
  6
CONTINUOUS
 10
150.0290592224
 20
100.4209144632
 11
150.0437827754
 21
100.36084629
  0
LWPOLYLINE
  5
2E6
100
AcDbEntity
  8
RACCORDO
100
AcDbPolyline
 62
250
  6
CONTINUOUS
 90
25
 70
0
 10
150.0567096384
 20
100.3010176028
 10
150.0578339479
 20
100.2959457778
 10
150.0591469128
 20
100.290884943
 10
150.0606485304
 20
100.2858350971
 10
150.0623443202
 20
100.2807811935
 10
150.0642287579
 20
100.2757382763
 10
150.0662852738
 20
100.2707514798
 10
150.0685154137
 20
100.2658214195
 10
150.0709176256
 20
100.2609474767
 10
150.0734706922
 20
100.2561729338
 10
150.076175982
 20
100.2514987319
 10
150.0790321198
 20
100.2469239264
 10
150.0820137714
 20
100.2424889708
 10
150.0851219181
 20
100.238195281
 10
150.0883555722
 20
100.2340414379
 10
150.0916864453
 20
100.230063642
 10
150.0951154756
 20
100.2262633622
 10
150.0986417194
 20
100.2226391269
 10
150.1022340654
 20
100.2192227265
 10
150.1058930932
 20
100.2160159941
 10
150.1096182192
 20
100.2130170946
 10
150.1133765877
 20
100.2102523152
 10
150.117157246
 20
100.2077304182
 10
150.1209711447
 20
100.2054426402
 10
150.1248182831
 20
100.2033889811
  0
LWPOLYLINE
  5
2E7
100
AcDbEntity
  8
ASSI
100
AcDbPolyline
 62
250
  6
CONTINUOUS
 90
25
 70
0
 10
150.0567096384
 20
100.3010176028
 10
150.0578339479
 20
100.2959457778
 10
150.0591469128
 20
100.290884943
 10
150.0606485304
 20
100.2858350971
 10
150.0623443202
 20
100.2807811935
 10
150.0642287579
 20
100.2757382763
 10
150.0662852738
 20
100.2707514798
 10
150.0685154137
 20
100.2658214195
 10
150.0709176256
 20
100.2609474767
 10
150.0734706922
 20
100.2561729338
 10
150.076175982
 20
100.2514987319
 10
150.0790321198
 20
100.2469239264
 10
150.0820137714
 20
100.2424889708
 10
150.0851219181
 20
100.238195281
 10
150.0883555722
 20
100.2340414379
 10
150.0916864453
 20
100.230063642
 10
150.0951154756
 20
100.2262633622
 10
150.0986417194
 20
100.2226391269
 10
150.1022340654
 20
100.2192227265
 10
150.1058930932
 20
100.2160159941
 10
150.1096182192
 20
100.2130170946
 10
150.1133765877
 20
100.2102523152
 10
150.117157246
 20
100.2077304182
 10
150.1209711447
 20
100.2054426402
 10
150.1248182831
 20
100.2033889811
  0
LINE
  5
2E8
100
AcDbEntity
  8
RACCORDO
100
AcDbLine
 62
250
  6
CONTINUOUS
 10
150.0437827754
 20
100.36084629
 11
150.0567096384
 21
100.3010176028
  0
LINE
  5
2E9
100
AcDbEntity
  8
ASSI
100
AcDbLine
 62
250
  6
CONTINUOUS
 10
150.0437827754
 20
100.36084629
 11
150.0567096384
 21
100.3010176028
  0
LINE
  5
2EA
100
AcDbEntity
  8
ASSI
100
AcDbLine
 62
7
  6
CONTINUOUS
 10
149.9935595246
 20
100.3720052812
 11
150.0020980627
 21
100.3319433638
  0
LINE
  5
2EB
100
AcDbEntity
  8
RACCORDO
100
AcDbLine
 62
7
  6
CONTINUOUS
 10
149.9933458775
 20
100.373007708
 11
150.0021007023
 21
100.331930289
  0
LWPOLYLINE
  5
2EC
100
AcDbEntity
  8
RACCORDO
100
AcDbPolyline
 62
7
  6
CONTINUOUS
 90
3
 70
0
 10
150.002101003
 20
100.3319330748
 10
150.0027253615
 20
100.3289174551
 10
150.007092791
 20
100.3107451807
  0
LWPOLYLINE
  5
2ED
100
AcDbEntity
  8
ASSI
100
AcDbPolyline
 62
7
  6
CONTINUOUS
 90
3
 70
0
 10
149.8074448055
 20
99.3543793354
 10
149.7635799804
 20
99.3243084166
 10
149.7441738567
 20
99.3135596245
  0
LINE
  5
2EE
100
AcDbEntity
  8
RACCORDO
100
AcDbLine
 62
7
  6
CONTINUOUS
 10
149.7953744438
 20
99.345237327
 11
149.7685849092
 21
99.3273195109
  0
LWPOLYLINE
  5
2EF
100
AcDbEntity
  8
RACCORDO
100
AcDbPolyline
 62
7
  6
CONTINUOUS
 90
13
 70
0
 10
150.1262992029
 20
99.8499540984
 10
150.1131531909
 20
99.8423738842
 10
150.1004116097
 20
99.8338956834
 10
150.0881482436
 20
99.8245418161
 10
150.0764279406
 20
99.8143368204
 10
150.0653050324
 20
99.803304821
 10
150.0548393011
 20
99.7914810818
 10
150.0450927113
 20
99.7789124976
 10
150.0361147246
 20
99.7656409628
 10
150.0279482765
 20
99.7517108796
 10
150.0206383864
 20
99.737182031
 10
150.0142216238
 20
99.7221124703
 10
150.008723884
 20
99.7065533154
  0
LINE
  5
2F0
100
AcDbEntity
  8
RACCORDO
100
AcDbLine
 62
7
  6
CONTINUOUS
 10
149.7685849092
 20
99.3273195109
 11
149.7426886955
 21
99.3127955718
  0
LWPOLYLINE
  5
2F1
100
AcDbEntity
  8
ASSI
100
AcDbPolyline
 62
7
  6
CONTINUOUS
 90
9
 70
0
 10
150.1295384525
 20
99.8516541635
 10
150.1174508159
 20
99.8449748182
 10
150.0939062461
 20
99.8290894479
 10
150.0721165102
 20
99.8102294828
 10
150.0524917637
 20
99.7886046493
 10
150.0354030758
 20
99.7645052898
 10
150.0211286598
 20
99.7382328082
 10
150.0098738621
 20
99.710075095
 10
150.004389122
 20
99.6914375921
  0
LINE
  5
2F2
100
AcDbEntity
  8
RACCORDO
100
AcDbLine
 62
7
  6
CONTINUOUS
 10
150.1292362954
 20
99.8514986561
 11
150.1262992029
 21
99.8499540984
  0
LINE
  5
2F3
100
AcDbEntity
  8
ASSI
100
AcDbLine
 62
7
  6
CONTINUOUS
 10
150.3920244873
 20
99.9874798027
 11
150.1291554754
 21
99.8514574787
  0
LINE
  5
2F4
100
AcDbEntity
  8
0
100
AcDbLine
 62
7
  6
CONTINUOUS
 10
150.3920252996
 20
99.9874793966
 11
150.129155312
 21
99.8514573941
  0
LINE
  5
2F5
100
AcDbEntity
  8
RACCORDO
100
AcDbLine
 62
250
  6
CONTINUOUS
 10
150.2650054866
 20
99.8437992851
 11
150.4686423384
 21
99.9491708771
  0
LINE
  5
2F6
100
AcDbEntity
  8
ASSI
100
AcDbLine
 62
250
  6
CONTINUOUS
 10
150.2650054866
 20
99.8437992851
 11
150.4686423384
 21
99.9491708771
  0
LINE
  5
2F7
100
AcDbEntity
  8
RACCORDO
100
AcDbLine
 62
7
  6
CONTINUOUS
 10
150.1292301307
 20
99.8514960731
 11
150.1291553126
 21
99.8514573944
  0
LINE
  5
2F8
100
AcDbEntity
  8
ASSI
100
AcDbLine
 62
7
  6
CONTINUOUS
 10
149.74417838
 20
99.3135619268
 11
149.7432278506
 21
99.3130722259
  0
LINE
  5
2F9
100
AcDbEntity
  8
RACCORDO
100
AcDbLine
 62
7
  6
CONTINUOUS
 10
149.7432278506
 20
99.3130722259
 11
149.7426914921
 21
99.312797001
  0
LWPOLYLINE
  5
2FA
100
AcDbEntity
  8
ASSI
100
AcDbPolyline
 62
250
  6
CONTINUOUS
 90
50
 70
0
 10
149.7432278506
 20
99.3130722259
 10
149.7362113043
 20
99.309533967
 10
149.7044739157
 20
99.2951455149
 10
149.6717642781
 20
99.2828968813
 10
149.6381039468
 20
99.2727942995
 10
149.6035386874
 20
99.2648547857
 10
149.5681372145
 20
99.2590973519
 10
149.5319547117
 20
99.2555329286
 10
149.495045493
 20
99.2541701131
 10
149.4574785206
 20
99.255014713
 10
149.4193335505
 20
99.2580655119
 10
149.3806803405
 20
99.263316163
 10
149.341581006
 20
99.2707575997
 10
149.3021060493
 20
99.2803752448
 10
149.2623257714
 20
99.2921506804
 10
149.2223058284
 20
99.3060633662
 10
149.1821105145
 20
99.3220899498
 10
149.1418089255
 20
99.3402023358
 10
149.1014695776
 20
99.3603694007
 10
149.0611560582
 20
99.3825593421
 10
149.0209367008
 20
99.4067348345
 10
148.9808807789
 20
99.4328547738
 10
148.9410531284
 20
99.4608779692
 10
148.9015192436
 20
99.4907593748
 10
148.862349583
 20
99.522447052
 10
148.8236156831
 20
99.5558847169
 10
148.7853793159
 20
99.5910196211
 10
148.7477106217
 20
99.6277881805
 10
148.7106914964
 20
99.666110826
 10
148.674390474
 20
99.7059132532
 10
148.6388623652
 20
99.7471321884
 10
148.6041658195
 20
99.7896991186
 10
148.5703696212
 20
99.8335260528
 10
148.5375193745
 20
99.8785503178
 10
148.5056396415
 20
99.9247421377
 10
148.4747809534
 20
99.9720341915
 10
148.4450044741
 20
100.0203389431
 10
148.4163527754
 20
100.0695978699
 10
148.3888620549
 20
100.1197610165
 10
148.3626020519
 20
100.1707139563
 10
148.3376589257
 20
100.2222967183
 10
148.3140711889
 20
100.2744269791
 10
148.2918815421
 20
100.3270072679
 10
148.2711653945
 20
100.3798483699
 10
148.2519491077
 20
100.4328567521
 10
148.234255353
 20
100.4859410185
 10
148.2181336064
 20
100.5389130735
 10
148.2036015338
 20
100.5916506251
 10
148.1906541485
 20
100.6440982032
 10
148.1792941399
 20
100.6961703472
  0
LWPOLYLINE
  5
2FB
100
AcDbEntity
  8
RACCORDO
100
AcDbPolyline
 62
250
  6
CONTINUOUS
 90
3
 70
0
 10
149.7426914921
 20
99.312797001
 10
149.7362113043
 20
99.309533967
 10
149.7044739157
 20
99.2951455149
  0
LWPOLYLINE
  5
2FC
100
AcDbEntity
  8
RACCORDO
100
AcDbPolyline
 62
250
  6
CONTINUOUS
 90
48
 70
0
 10
149.7044739157
 20
99.2951455149
 10
149.6717642781
 20
99.2828968813
 10
149.6381039468
 20
99.2727942995
 10
149.6035386874
 20
99.2648547857
 10
149.5681372145
 20
99.2590973519
 10
149.5319547117
 20
99.2555329286
 10
149.495045493
 20
99.2541701131
 10
149.4574785206
 20
99.255014713
 10
149.4193335505
 20
99.2580655119
 10
149.3806803405
 20
99.263316163
 10
149.341581006
 20
99.2707575997
 10
149.3021060493
 20
99.2803752448
 10
149.2623257714
 20
99.2921506804
 10
149.2223058284
 20
99.3060633662
 10
149.1821105145
 20
99.3220899498
 10
149.1418089255
 20
99.3402023358
 10
149.1014695776
 20
99.3603694007
 10
149.0611560582
 20
99.3825593421
 10
149.0209367008
 20
99.4067348345
 10
148.9808807789
 20
99.4328547738
 10
148.9410531284
 20
99.4608779692
 10
148.9015192436
 20
99.4907593748
 10
148.862349583
 20
99.522447052
 10
148.8236156831
 20
99.5558847169
 10
148.7853793159
 20
99.5910196211
 10
148.7477106217
 20
99.6277881805
 10
148.7106914964
 20
99.666110826
 10
148.674390474
 20
99.7059132532
 10
148.6388623652
 20
99.7471321884
 10
148.6041658195
 20
99.7896991186
 10
148.5703696212
 20
99.8335260528
 10
148.5375193745
 20
99.8785503178
 10
148.5056396415
 20
99.9247421377
 10
148.4747809534
 20
99.9720341915
 10
148.4450044741
 20
100.0203389431
 10
148.4163527754
 20
100.0695978699
 10
148.3888620549
 20
100.1197610165
 10
148.3626020519
 20
100.1707139563
 10
148.3376589257
 20
100.2222967183
 10
148.3140711889
 20
100.2744269791
 10
148.2918815421
 20
100.3270072679
 10
148.2711653945
 20
100.3798483699
 10
148.2519491077
 20
100.4328567521
 10
148.234255353
 20
100.4859410185
 10
148.2181336064
 20
100.5389130735
 10
148.2036015338
 20
100.5916506251
 10
148.1906541485
 20
100.6440982032
 10
148.1792941399
 20
100.6961703472
  0
LWPOLYLINE
  5
2FD
100
AcDbEntity
  8
RACCORDO
100
AcDbPolyline
 62
7
  6
CONTINUOUS
 90
45
 70
0
 10
148.5688710486
 20
101.8054914181
 10
148.6009919381
 20
101.8137511007
 10
148.6336543605
 20
101.8195167637
 10
148.6670762494
 20
101.8229252316
 10
148.7012135239
 20
101.8240258378
 10
148.7359247612
 20
101.8228724252
 10
148.7713002828
 20
101.8195030956
 10
148.8072407937
 20
101.8139521523
 10
148.8436291056
 20
101.8062682662
 10
148.8805539146
 20
101.7964469684
 10
148.9179156224
 20
101.7845169966
 10
148.9556065839
 20
101.7705200987
 10
148.9937331666
 20
101.7544086289
 10
149.032235068
 20
101.7361854727
 10
149.0709822389
 20
101.7158940822
 10
149.1099966567
 20
101.6934985991
 10
149.1492132443
 20
101.6690042276
 10
149.1885126324
 20
101.642457446
 10
149.2278455793
 20
101.6138616646
 10
149.2671366076
 20
101.5832394145
 10
149.3062799269
 20
101.5506447238
 10
149.3451873069
 20
101.5161228788
 10
149.3837762517
 20
101.4797194973
 10
149.4219541032
 20
101.441498373
 10
149.4596232989
 20
101.4015341295
 10
149.4966998608
 20
101.3598945247
 10
149.5331031945
 20
101.316652865
 10
149.5687463237
 20
101.2718949939
 10
149.6035525956
 20
101.2257005132
 10
149.6374474344
 20
101.1781560874
 10
149.6703517817
 20
101.1293603068
 10
149.7021971192
 20
101.0794029812
 10
149.7329169206
 20
101.028381462
 10
149.7624398167
 20
100.9764079397
 10
149.7907058546
 20
100.9235823296
 10
149.8176594876
 20
100.8700082476
 10
149.8432408203
 20
100.8158057989
 10
149.8674004209
 20
100.7610817279
 10
149.8900943003
 20
100.705944792
 10
149.9112756935
 20
100.650520354
 10
149.9309067138
 20
100.5949206463
 10
149.9489570375
 20
100.5392525023
 10
149.9653960465
 20
100.483635169
 10
149.980198502
 20
100.4281822302
 10
149.9933458775
 20
100.373007708
  0
LINE
  5
2FE
100
AcDbEntity
  8
RACCORDO
100
AcDbLine
 62
7
  6
CONTINUOUS
 10
160.6241500393
 20
98.5960423193
 11
160.7529626297
 21
98.5316360241
  0
LINE
  5
2FF
100
AcDbEntity
  8
ASSI
100
AcDbLine
 62
7
  6
CONTINUOUS
 10
160.6241500393
 20
98.5960423193
 11
160.7529626297
 21
98.5316360241
  0
LINE
  5
300
100
AcDbEntity
  8
RACCORDO
100
AcDbLine
 62
250
  6
CONTINUOUS
 10
154.6663748224
 20
119.8345423845
 11
154.6663748224
 21
119.7797224039
  0
LINE
  5
301
100
AcDbEntity
  8
ASSI
100
AcDbLine
 62
250
  6
CONTINUOUS
 10
154.6663748224
 20
119.8345423845
 11
154.6663748224
 21
119.7797224039
  0
LWPOLYLINE
  5
302
100
AcDbEntity
  8
RACCORDO
100
AcDbPolyline
 62
250
  6
CONTINUOUS
 90
37
 70
0
 10
157.4509876367
 20
79.0950909708
 10
157.4528164867
 20
79.0604246357
 10
157.4558391632
 20
79.0265686583
 10
157.4600556661
 20
78.9935230386
 10
157.4654770691
 20
78.9612338149
 10
157.4720922986
 20
78.9297549489
 10
157.4798681337
 20
78.8992483252
 10
157.4888105312
 20
78.8697196
 10
157.4989135344
 20
78.8411631172
 10
157.5101260514
 20
78.813723792
 10
157.5224535691
 20
78.7874077304
 10
157.5358906007
 20
78.7622088265
 10
157.550369594
 20
78.7382536786
 10
157.565895765
 20
78.7155484826
 10
157.5824638977
 20
78.6940870426
 10
157.5999907923
 20
78.6739773687
 10
157.6184814171
 20
78.6552261453
 10
157.6379308038
 20
78.6378266881
 10
157.6582408485
 20
78.6218669539
 10
157.6794159437
 20
78.6073542629
 10
157.7014516969
 20
78.594281295
 10
157.7242368264
 20
78.5827140465
 10
157.7477749628
 20
78.5726601998
 10
157.7720624756
 20
78.5641120725
 10
157.7969771918
 20
78.5571126143
 10
157.8225222305
 20
78.5516695807
 10
157.8486944727
 20
78.5477752162
 10
157.8753623882
 20
78.5454492028
 10
157.9025289087
 20
78.5446995201
 10
157.9301911025
 20
78.5455181886
 10
157.9582086436
 20
78.547900952
 10
157.9865836545
 20
78.5518560105
 10
158.0153140128
 20
78.5573751639
 10
158.0442530254
 20
78.5644295555
 10
158.0733517946
 20
78.5730095663
 10
158.1026592182
 20
78.5831248154
 10
158.132175296
 20
78.5947753027
  0
LWPOLYLINE
  5
303
100
AcDbEntity
  8
ASSI
100
AcDbPolyline
 62
250
  6
CONTINUOUS
 90
37
 70
0
 10
157.4509876367
 20
79.0950909708
 10
157.4528164867
 20
79.0604246357
 10
157.4558391632
 20
79.0265686583
 10
157.4600556661
 20
78.9935230386
 10
157.4654770691
 20
78.9612338149
 10
157.4720922986
 20
78.9297549489
 10
157.4798681337
 20
78.8992483252
 10
157.4888105312
 20
78.8697196
 10
157.4989135344
 20
78.8411631172
 10
157.5101260514
 20
78.813723792
 10
157.5224535691
 20
78.7874077304
 10
157.5358906007
 20
78.7622088265
 10
157.550369594
 20
78.7382536786
 10
157.565895765
 20
78.7155484826
 10
157.5824638977
 20
78.6940870426
 10
157.5999907923
 20
78.6739773687
 10
157.6184814171
 20
78.6552261453
 10
157.6379308038
 20
78.6378266881
 10
157.6582408485
 20
78.6218669539
 10
157.6794159437
 20
78.6073542629
 10
157.7014516969
 20
78.594281295
 10
157.7242368264
 20
78.5827140465
 10
157.7477749628
 20
78.5726601998
 10
157.7720624756
 20
78.5641120725
 10
157.7969771918
 20
78.5571126143
 10
157.8225222305
 20
78.5516695807
 10
157.8486944727
 20
78.5477752162
 10
157.8753623882
 20
78.5454492028
 10
157.9025289087
 20
78.5446995201
 10
157.9301911025
 20
78.5455181886
 10
157.9582086436
 20
78.547900952
 10
157.9865836545
 20
78.5518560105
 10
158.0153140128
 20
78.5573751639
 10
158.0442530254
 20
78.5644295555
 10
158.0733517946
 20
78.5730095663
 10
158.1026592182
 20
78.5831248154
 10
158.132175296
 20
78.5947753027
  0
LWPOLYLINE
  5
304
100
AcDbEntity
  8
RACCORDO
100
AcDbPolyline
 62
250
  6
CONTINUOUS
 90
21
 70
0
 10
156.7504035492
 20
79.0805086158
 10
156.7531156962
 20
79.0286354255
 10
156.7576278943
 20
78.9778207671
 10
156.7639326826
 20
78.9281501716
 10
156.7720197586
 20
78.8797073858
 10
156.7818755513
 20
78.8325737515
 10
156.793483335
 20
78.7868281391
 10
156.8068242546
 20
78.7425467937
 10
156.8218759519
 20
78.699805073
 10
156.8386120344
 20
78.6586767128
 10
156.8570044021
 20
78.6192313029
 10
156.877022548
 20
78.5815344379
 10
156.8986322286
 20
78.5456494938
 10
156.9217975993
 20
78.5116366327
 10
156.9464800158
 20
78.4795529874
 10
156.9726372601
 20
78.4494527728
 10
157.0002261339
 20
78.4213862716
 10
157.0292005133
 20
78.395400819
 10
157.059510221
 20
78.3715410569
 10
157.091104893
 20
78.3498468522
 10
157.1239318746
 20
78.3303544893
  0
LWPOLYLINE
  5
305
100
AcDbEntity
  8
ASSI
100
AcDbPolyline
 62
250
  6
CONTINUOUS
 90
22
 70
0
 10
156.7504035492
 20
79.0805086158
 10
156.7531156962
 20
79.0286354255
 10
156.7576278943
 20
78.9778207671
 10
156.7639326826
 20
78.9281501716
 10
156.7720197586
 20
78.8797073858
 10
156.7818755513
 20
78.8325737515
 10
156.793483335
 20
78.7868281391
 10
156.8068242546
 20
78.7425467937
 10
156.8218759519
 20
78.699805073
 10
156.8386120344
 20
78.6586767128
 10
156.8570044021
 20
78.6192313029
 10
156.877022548
 20
78.5815344379
 10
156.8986322286
 20
78.5456494938
 10
156.9217975993
 20
78.5116366327
 10
156.9464800158
 20
78.4795529874
 10
156.9726372601
 20
78.4494527728
 10
157.0002261339
 20
78.4213862716
 10
157.0292005133
 20
78.395400819
 10
157.059510221
 20
78.3715410569
 10
157.091104893
 20
78.3498468522
 10
157.1239318746
 20
78.3303544893
 10
157.142860159
 20
78.3203991474
  0
LINE
  5
306
100
AcDbEntity
  8
DRAFT
100
AcDbLine
 62
7
  6
CONTINUOUS
 10
154.8479053066
 20
120.2008512033
 11
154.8652134151
 21
119.6598737632
  0
LINE
  5
307
100
AcDbEntity
  8
ASSI
100
AcDbLine
 62
7
  6
CONTINUOUS
 10
154.8479053066
 20
120.2008512033
 11
154.8652134151
 21
119.6598737632
  0
LWPOLYLINE
  5
308
100
AcDbEntity
  8
RACCORDO
100
AcDbPolyline
 62
250
  6
CONTINUOUS
 90
13
 70
0
 10
156.4461737932
 20
97.0427112268
 10
156.4465578849
 20
97.0300253411
 10
156.4477226758
 20
97.0178004232
 10
156.4496617183
 20
97.0061041429
 10
156.4523642787
 20
96.9950012436
 10
156.4558153971
 20
96.9845531844
 10
156.4599959697
 20
96.9748178
 10
156.464882855
 20
96.9658489795
 10
156.4704490019
 20
96.9576963686
 10
156.4766635989
 20
96.9504050952
 10
156.4834922455
 20
96.9440155191
 10
156.4908971421
 20
96.9385630086
 10
156.4980943132
 20
96.9344449212
  0
LWPOLYLINE
  5
309
100
AcDbEntity
  8
ASSI
100
AcDbPolyline
 62
250
  6
CONTINUOUS
 90
13
 70
0
 10
156.4461737932
 20
97.0427112268
 10
156.4465578849
 20
97.0300253411
 10
156.4477226758
 20
97.0178004232
 10
156.4496617183
 20
97.0061041429
 10
156.4523642787
 20
96.9950012436
 10
156.4558153971
 20
96.9845531844
 10
156.4599959697
 20
96.9748178
 10
156.464882855
 20
96.9658489795
 10
156.4704490019
 20
96.9576963686
 10
156.4766635989
 20
96.9504050952
 10
156.4834922455
 20
96.9440155191
 10
156.4908971421
 20
96.9385630086
 10
156.4976599489
 20
96.9346643397
  0
LWPOLYLINE
  5
30A
100
AcDbEntity
  8
ASSI
100
AcDbPolyline
 62
250
  6
CONTINUOUS
 90
12
 70
0
 10
156.449054354
 20
94.9817676323
 10
156.4560308064
 20
93.5258471642
 10
156.4670911509
 20
92.0719696577
 10
156.4822344321
 20
90.6201628898
 10
156.5014607037
 20
89.1704317678
 10
156.5247713377
 20
87.7227584895
 10
156.5521665234
 20
86.2771584467
 10
156.5836455205
 20
84.8336491067
 10
156.6192087743
 20
83.3922160266
 10
156.6588564434
 20
81.9528654509
 10
156.7025881128
 20
80.5156241583
 10
156.7504035572
 20
79.0805086116
  0
LWPOLYLINE
  5
30B
100
AcDbEntity
  8
RACCORDO
100
AcDbPolyline
 62
250
  6
CONTINUOUS
 90
13
 70
0
 10
156.4461621452
 20
96.4397146654
 10
156.449054354
 20
94.9817676323
 10
156.4560308064
 20
93.5258471642
 10
156.4670911509
 20
92.0719696577
 10
156.4822344321
 20
90.6201628898
 10
156.5014607037
 20
89.1704317678
 10
156.5247713377
 20
87.7227584895
 10
156.5521665234
 20
86.2771584467
 10
156.5836455205
 20
84.8336491067
 10
156.6192087743
 20
83.3922160266
 10
156.6588564434
 20
81.9528654509
 10
156.7025881128
 20
80.5156241583
 10
156.7504035572
 20
79.0805086116
  0
LINE
  5
30C
100
AcDbEntity
  8
ASSI
100
AcDbLine
 62
250
  6
CONTINUOUS
 10
156.4461621452
 20
96.4397146654
 11
156.449054354
 21
94.9817676323
  0
LWPOLYLINE
  5
30D
100
AcDbEntity
  8
RACCORDO
100
AcDbPolyline
 62
250
  6
CONTINUOUS
 90
13
 70
0
 10
156.7504035572
 20
114.6957129823
 10
156.7025881128
 20
113.2144209963
 10
156.6588564434
 20
111.7349470449
 10
156.6192087743
 20
110.2573078159
 10
156.5836455205
 20
108.781530503
 10
156.5521665234
 20
107.3076211922
 10
156.5247713377
 20
105.8355649958
 10
156.5014607037
 20
104.3653792661
 10
156.4822344321
 20
102.897080061
 10
156.4670911509
 20
101.4306507735
 10
156.4560308064
 20
99.966097113
 10
156.4490543539
 20
98.503446956
 10
156.4461621451
 20
97.0427170508
  0
LWPOLYLINE
  5
30E
100
AcDbEntity
  8
ASSI
100
AcDbPolyline
 62
250
  6
CONTINUOUS
 90
13
 70
0
 10
156.7504035572
 20
114.6957129823
 10
156.7025881128
 20
113.2144209963
 10
156.6588564434
 20
111.7349470449
 10
156.6192087743
 20
110.2573078159
 10
156.5836455205
 20
108.781530503
 10
156.5521665234
 20
107.3076211922
 10
156.5247713377
 20
105.8355649958
 10
156.5014607037
 20
104.3653792661
 10
156.4822344321
 20
102.897080061
 10
156.4670911509
 20
101.4306507735
 10
156.4560308064
 20
99.966097113
 10
156.4490543539
 20
98.503446956
 10
156.4461621451
 20
97.0427170508
  0
LWPOLYLINE
  5
30F
100
AcDbEntity
  8
RACCORDO
100
AcDbPolyline
 62
250
  6
CONTINUOUS
 90
22
 70
0
 10
157.147055105
 20
96.4389983
 10
157.1465728998
 20
96.4520960207
 10
157.1453165767
 20
96.4655227136
 10
157.1432931605
 20
96.4792033054
 10
157.1405139651
 20
96.4930613035
 10
157.13699453
 20
96.507019223
 10
157.1327545341
 20
96.5209990196
 10
157.1278176849
 20
96.5349225277
 10
157.1222115863
 20
96.5487118964
 10
157.1159675843
 20
96.5622900242
 10
157.1091205916
 20
96.5755809915
 10
157.1017088923
 20
96.5885104844
 10
157.0937739282
 20
96.6010062097
 10
157.0853600666
 20
96.6129983001
 10
157.0765143523
 20
96.6244197043
 10
157.0672862451
 20
96.6352065619
 10
157.0577273424
 20
96.6452985605
 10
157.0478910912
 20
96.6546392733
 10
157.0378324894
 20
96.6631764739
 10
157.0276077778
 20
96.6708624289
 10
157.0172741259
 20
96.6776541644
 10
157.0068893125
 20
96.6835137064
  0
LWPOLYLINE
  5
310
100
AcDbEntity
  8
ASSI
100
AcDbPolyline
 62
250
  6
CONTINUOUS
 90
22
 70
0
 10
157.147055105
 20
96.4389983
 10
157.1465728998
 20
96.4520960207
 10
157.1453165767
 20
96.4655227136
 10
157.1432931605
 20
96.4792033054
 10
157.1405139651
 20
96.4930613035
 10
157.13699453
 20
96.507019223
 10
157.1327545341
 20
96.5209990196
 10
157.1278176849
 20
96.5349225277
 10
157.1222115863
 20
96.5487118964
 10
157.1159675843
 20
96.5622900242
 10
157.1091205916
 20
96.5755809915
 10
157.1017088923
 20
96.5885104844
 10
157.0937739282
 20
96.6010062097
 10
157.0853600666
 20
96.6129983001
 10
157.0765143523
 20
96.6244197043
 10
157.0672862451
 20
96.6352065619
 10
157.0577273424
 20
96.6452985605
 10
157.0478910912
 20
96.6546392733
 10
157.0378324894
 20
96.6631764739
 10
157.0276077778
 20
96.6708624289
 10
157.0172741259
 20
96.6776541644
 10
157.0068893125
 20
96.6835137064
  0
LWPOLYLINE
  5
311
100
AcDbEntity
  8
RACCORDO
100
AcDbPolyline
 62
250
  6
CONTINUOUS
 90
6
 70
0
 10
157.252927358
 20
86.2854171061
 10
157.2843770779
 20
84.8431700573
 10
157.3199079581
 20
83.4030122605
 10
157.359520024
 20
81.9649492452
 10
157.4032132502
 20
80.528975482
 10
157.4509876367
 20
79.0950909708
  0
LWPOLYLINE
  5
312
100
AcDbEntity
  8
ASSI
100
AcDbPolyline
 62
250
  6
CONTINUOUS
 90
6
 70
0
 10
157.252927358
 20
86.2854171061
 10
157.2843770779
 20
84.8431700573
 10
157.3199079581
 20
83.4030122605
 10
157.359520024
 20
81.9649492452
 10
157.4032132502
 20
80.528975482
 10
157.4509876367
 20
79.0950909708
  0
LWPOLYLINE
  5
313
100
AcDbEntity
  8
RACCORDO
100
AcDbPolyline
 62
250
  6
CONTINUOUS
 90
8
 70
0
 10
157.1470670613
 20
96.4390041986
 10
157.1499414222
 20
94.9823178774
 10
157.1568988161
 20
93.5276882593
 10
157.1679392431
 20
92.0751153443
 10
157.1830633527
 20
90.6245938125
 10
157.2022704954
 20
89.1761289837
 10
157.2255587222
 20
87.7297368181
 10
157.252927358
 20
86.2854171061
  0
LWPOLYLINE
  5
314
100
AcDbEntity
  8
ASSI
100
AcDbPolyline
 62
250
  6
CONTINUOUS
 90
8
 70
0
 10
157.1470670613
 20
96.4390041986
 10
157.1499414222
 20
94.9823178774
 10
157.1568988161
 20
93.5276882593
 10
157.1679392431
 20
92.0751153443
 10
157.1830633527
 20
90.6245938125
 10
157.2022704954
 20
89.1761289837
 10
157.2255587222
 20
87.7297368181
 10
157.252927358
 20
86.2854171061
  0
LWPOLYLINE
  5
315
100
AcDbEntity
  8
RACCORDO
100
AcDbPolyline
 62
250
  6
CONTINUOUS
 90
8
 70
0
 10
157.252927358
 20
107.2931248753
 10
157.2255587222
 20
105.8223755789
 10
157.2022704954
 20
104.3534942341
 10
157.1830633527
 20
102.8864812833
 10
157.1679392431
 20
101.4213545685
 10
157.1568988161
 20
99.9581200372
 10
157.1499414222
 20
98.4967717419
 10
157.1470670613
 20
97.0373096826
  0
LWPOLYLINE
  5
316
100
AcDbEntity
  8
ASSI
100
AcDbPolyline
 62
250
  6
CONTINUOUS
 90
8
 70
0
 10
157.252927358
 20
107.2931248753
 10
157.2255587222
 20
105.8223755789
 10
157.2022704954
 20
104.3534942341
 10
157.1830633527
 20
102.8864812833
 10
157.1679392431
 20
101.4213545685
 10
157.1568988161
 20
99.9581200372
 10
157.1499414222
 20
98.4967717419
 10
157.1470670613
 20
97.0373096826
  0
LWPOLYLINE
  5
317
100
AcDbEntity
  8
RACCORDO
100
AcDbPolyline
 62
250
  6
CONTINUOUS
 90
22
 70
0
 10
156.4461737932
 20
96.4397088414
 10
156.4465578837
 20
96.4527788003
 10
156.4477226714
 20
96.466168491
 10
156.4496617088
 20
96.4798037962
 10
156.4523642626
 20
96.4936092392
 10
156.455815373
 20
96.5075084012
 10
156.4599959367
 20
96.5214243449
 10
156.4648828128
 20
96.53528004
 10
156.4704489502
 20
96.5489987897
 10
156.4766635384
 20
96.5625046552
 10
156.483492177
 20
96.5757228763
 10
156.4908970668
 20
96.5885802847
 10
156.4988372189
 20
96.6010057097
 10
156.5072686812
 20
96.6129303715
 10
156.5161447824
 20
96.6242882624
 10
156.5254163896
 20
96.6350165119
 10
156.5350321808
 20
96.645055735
 10
156.5449389287
 20
96.6543503604
 10
156.5550817957
 20
96.6628489389
 10
156.5654046368
 20
96.6705044272
 10
156.5758503111
 20
96.6772744493
 10
156.5863609975
 20
96.6831215305
  0
LWPOLYLINE
  5
318
100
AcDbEntity
  8
ASSI
100
AcDbPolyline
 62
250
  6
CONTINUOUS
 90
22
 70
0
 10
156.4461737932
 20
96.4397088414
 10
156.4465578837
 20
96.4527788003
 10
156.4477226714
 20
96.466168491
 10
156.4496617088
 20
96.4798037962
 10
156.4523642626
 20
96.4936092392
 10
156.455815373
 20
96.5075084012
 10
156.4599959367
 20
96.5214243449
 10
156.4648828128
 20
96.53528004
 10
156.4704489502
 20
96.5489987897
 10
156.4766635384
 20
96.5625046552
 10
156.483492177
 20
96.5757228763
 10
156.4908970668
 20
96.5885802847
 10
156.4988372189
 20
96.6010057097
 10
156.5072686812
 20
96.6129303715
 10
156.5161447824
 20
96.6242882624
 10
156.5254163896
 20
96.6350165119
 10
156.5350321808
 20
96.645055735
 10
156.5449389287
 20
96.6543503604
 10
156.5550817957
 20
96.6628489389
 10
156.5654046368
 20
96.6705044272
 10
156.5758503111
 20
96.6772744493
 10
156.5863609975
 20
96.6831215305
  0
LWPOLYLINE
  5
319
100
AcDbEntity
  8
RACCORDO
100
AcDbPolyline
 62
250
  6
CONTINUOUS
 90
6
 70
0
 10
157.4509876367
 20
114.6747155985
 10
157.4032132502
 20
113.1946958986
 10
157.359520024
 20
111.7165280773
 10
157.3199079581
 20
110.2402121347
 10
157.2843770779
 20
108.7657425656
 10
157.252927358
 20
107.2931248753
  0
LWPOLYLINE
  5
31A
100
AcDbEntity
  8
ASSI
100
AcDbPolyline
 62
250
  6
CONTINUOUS
 90
6
 70
0
 10
157.4509876367
 20
114.6747155985
 10
157.4032132502
 20
113.1946958986
 10
157.359520024
 20
111.7165280773
 10
157.3199079581
 20
110.2402121347
 10
157.2843770779
 20
108.7657425656
 10
157.252927358
 20
107.2931248753
  0
LWPOLYLINE
  5
31B
100
AcDbEntity
  8
RACCORDO
100
AcDbPolyline
 62
250
  6
CONTINUOUS
 90
13
 70
0
 10
157.147055105
 20
97.0373040352
 10
157.1465729013
 20
97.0245179618
 10
157.145316582
 20
97.0122055855
 10
157.1432931716
 20
97.0004357487
 10
157.1405139837
 20
96.9892742604
 10
157.1369945576
 20
96.978783528
 10
157.1327545717
 20
96.9690222087
 10
157.1278177328
 20
96.960044881
 10
157.1222116447
 20
96.9519017402
 10
157.1159676526
 20
96.9446383171
 10
157.1091206688
 20
96.9382952238
 10
157.101708977
 20
96.9329079267
 10
157.0935948401
 20
96.9284214443
  0
LWPOLYLINE
  5
31C
100
AcDbEntity
  8
ASSI
100
AcDbPolyline
 62
250
  6
CONTINUOUS
 90
13
 70
0
 10
157.147055105
 20
97.0373040352
 10
157.1465729013
 20
97.0245179618
 10
157.145316582
 20
97.0122055855
 10
157.1432931716
 20
97.0004357487
 10
157.1405139837
 20
96.9892742604
 10
157.1369945576
 20
96.978783528
 10
157.1327545717
 20
96.9690222087
 10
157.1278177328
 20
96.960044881
 10
157.1222116447
 20
96.9519017402
 10
157.1159676526
 20
96.9446383171
 10
157.1091206688
 20
96.9382952238
 10
157.101708977
 20
96.9329079267
 10
157.0942008904
 20
96.9287116971
  0
LINE
  5
31D
100
AcDbEntity
  8
ASSI
100
AcDbLine
 62
250
  6
CONTINUOUS
 10
157.0942008904
 20
96.9287116971
 11
157.0935420426
 21
96.9283964802
  0
LINE
  5
31E
100
AcDbEntity
  8
RACCORDO
100
AcDbLine
 62
250
  6
CONTINUOUS
 10
157.1470670613
 20
97.0373096826
 11
160.8943839868
 21
98.8073157224
  0
LINE
  5
31F
100
AcDbEntity
  8
ASSI
100
AcDbLine
 62
250
  6
CONTINUOUS
 10
157.1470670613
 20
97.0373096826
 11
160.8943839868
 21
98.8073157224
  0
LINE
  5
320
100
AcDbEntity
  8
RACCORDO
100
AcDbLine
 62
7
  6
CONTINUOUS
 10
157.0935420426
 20
96.9283964802
 11
160.8409044342
 21
98.6984239955
  0
LINE
  5
321
100
AcDbEntity
  8
ASSI
100
AcDbLine
 62
7
  6
CONTINUOUS
 10
157.0935420426
 20
96.9283964802
 11
160.8409044342
 21
98.6984239955
  0
LINE
  5
322
100
AcDbEntity
  8
ASSI
100
AcDbLine
 62
7
  6
CONTINUOUS
 10
157.0506109685
 20
96.9103953793
 11
157.0942007011
 21
96.9287120942
  0
LWPOLYLINE
  5
323
100
AcDbEntity
  8
RACCORDO
100
AcDbPolyline
 62
7
  6
CONTINUOUS
 90
4
 70
0
 10
157.0321713999
 20
96.9039161419
 10
157.0571083137
 20
96.9128453002
 10
157.0815632426
 20
96.9229269674
 10
157.0935946537
 20
96.9284218387
  0
LINE
  5
324
100
AcDbEntity
  8
SIMBOLI
100
AcDbLine
 62
250
  6
CONTINUOUS
 10
145.8832244842
 20
111.6344487018
 11
152.2471855149
 21
108.4524681865
  0
LWPOLYLINE
  5
325
100
AcDbEntity
  8
RACCORDO
100
AcDbPolyline
 62
250
  6
CONTINUOUS
 90
28
 70
0
 10
158.132175296
 20
115.8328465428
 10
158.1304946566
 20
115.8577506993
 10
158.1276458119
 20
115.8831784836
 10
158.1236383903
 20
115.9090439562
 10
158.1184859357
 20
115.9352596983
 10
158.1122058621
 20
115.9617371074
 10
158.1048193944
 20
115.9883866965
 10
158.096351497
 20
116.0151183966
 10
158.0868307891
 20
116.0418418614
 10
158.0762894483
 20
116.0684667722
 10
158.0647631015
 20
116.0949031434
 10
158.0522907049
 20
116.1210616267
 10
158.0389144121
 20
116.1468538128
 10
158.0246794313
 20
116.1721925307
 10
158.0096338734
 20
116.1969921416
 10
157.9938285885
 20
116.2211688291
 10
157.9773169944
 20
116.2446408818
 10
157.9601548963
 20
116.26732897
 10
157.9424002978
 20
116.2891564134
 10
157.9241132049
 20
116.3100494408
 10
157.9053554235
 20
116.3299374387
 10
157.8861903503
 20
116.3487531906
 10
157.8666827585
 20
116.3664331037
 10
157.8468985788
 20
116.3829174245
 10
157.8269046771
 20
116.3981504397
 10
157.8067686278
 20
116.4120806655
 10
157.7865584857
 20
116.4246610213
 10
157.766342556
 20
116.4358489885
  0
LWPOLYLINE
  5
326
100
AcDbEntity
  8
ASSI
100
AcDbPolyline
 62
250
  6
CONTINUOUS
 90
28
 70
0
 10
158.132175296
 20
115.8328465428
 10
158.1304946566
 20
115.8577506993
 10
158.1276458119
 20
115.8831784836
 10
158.1236383903
 20
115.9090439562
 10
158.1184859357
 20
115.9352596983
 10
158.1122058621
 20
115.9617371074
 10
158.1048193944
 20
115.9883866965
 10
158.096351497
 20
116.0151183966
 10
158.0868307891
 20
116.0418418614
 10
158.0762894483
 20
116.0684667722
 10
158.0647631015
 20
116.0949031434
 10
158.0522907049
 20
116.1210616267
 10
158.0389144121
 20
116.1468538128
 10
158.0246794313
 20
116.1721925307
 10
158.0096338734
 20
116.1969921416
 10
157.9938285885
 20
116.2211688291
 10
157.9773169944
 20
116.2446408818
 10
157.9601548963
 20
116.26732897
 10
157.9424002978
 20
116.2891564134
 10
157.9241132049
 20
116.3100494408
 10
157.9053554235
 20
116.3299374387
 10
157.8861903503
 20
116.3487531906
 10
157.8666827585
 20
116.3664331037
 10
157.8468985788
 20
116.3829174245
 10
157.8269046771
 20
116.3981504397
 10
157.8067686278
 20
116.4120806655
 10
157.7865584857
 20
116.4246610213
 10
157.766342556
 20
116.4358489885
  0
LWPOLYLINE
  5
327
100
AcDbEntity
  8
RACCORDO
100
AcDbPolyline
 62
250
  6
CONTINUOUS
 90
17
 70
0
 10
158.132175296
 20
78.5947753027
 10
158.1304946559
 20
78.5694227643
 10
158.1276458099
 20
78.5447637085
 10
158.1236383864
 20
78.5208814767
 10
158.1184859295
 20
78.4978567849
 10
158.1122058532
 20
78.4757674508
 10
158.1048193827
 20
78.4546881309
 10
158.0963514822
 20
78.4346900679
 10
158.0868307713
 20
78.4158408504
 10
158.0762894276
 20
78.398204184
 10
158.0647630781
 20
78.3818396762
 10
158.0522906791
 20
78.366802635
 10
158.0389143841
 20
78.3531438819
 10
158.0246794018
 20
78.34090958
 10
158.0096338427
 20
78.3301410782
 10
157.9938285572
 20
78.3208747714
 10
157.9783680506
 20
78.3135796043
  0
LWPOLYLINE
  5
328
100
AcDbEntity
  8
ASSI
100
AcDbPolyline
 62
250
  6
CONTINUOUS
 90
17
 70
0
 10
158.132175296
 20
78.5947753027
 10
158.1304946559
 20
78.5694227643
 10
158.1276458099
 20
78.5447637085
 10
158.1236383864
 20
78.5208814767
 10
158.1184859295
 20
78.4978567849
 10
158.1122058532
 20
78.4757674508
 10
158.1048193827
 20
78.4546881309
 10
158.0963514822
 20
78.4346900679
 10
158.0868307713
 20
78.4158408504
 10
158.0762894276
 20
78.398204184
 10
158.0647630781
 20
78.3818396762
 10
158.0522906791
 20
78.366802635
 10
158.0389143841
 20
78.3531438819
 10
158.0246794018
 20
78.34090958
 10
158.0096338427
 20
78.3301410782
 10
157.9938285572
 20
78.3208747714
 10
157.9783680506
 20
78.3135796043
  0
LINE
  5
329
100
AcDbEntity
  8
RACCORDO
100
AcDbLine
 62
250
  6
CONTINUOUS
 10
160.7529626297
 20
98.5316360241
 11
157.0068893125
 21
96.6835137064
  0
LINE
  5
32A
100
AcDbEntity
  8
ASSI
100
AcDbLine
 62
250
  6
CONTINUOUS
 10
160.7529626297
 20
98.5316360241
 11
157.0068893125
 21
96.6835137064
  0
LINE
  5
32B
100
AcDbEntity
  8
RACCORDO
100
AcDbLine
 62
250
  6
CONTINUOUS
 10
160.8943839868
 20
98.2877400494
 11
157.1470670613
 21
96.4390041986
  0
LINE
  5
32C
100
AcDbEntity
  8
ASSI
100
AcDbLine
 62
250
  6
CONTINUOUS
 10
160.8943839868
 20
98.2877400494
 11
157.1470670613
 21
96.4390041986
  0
LWPOLYLINE
  5
32D
100
AcDbEntity
  8
RACCORDO
100
AcDbPolyline
 62
250
  6
CONTINUOUS
 90
31
 70
0
 10
157.0068893125
 20
96.6835137064
 10
156.9953948155
 20
96.6781306515
 10
156.9834367101
 20
96.67307599
 10
156.9710149962
 20
96.6683497222
 10
156.9580936098
 20
96.6639406997
 10
156.944708615
 20
96.6598600709
 10
156.9309682038
 20
96.65614128
 10
156.9168695531
 20
96.6527873719
 10
156.9024154861
 20
96.6497953018
 10
156.8877226638
 20
96.6471893797
 10
156.8727895933
 20
96.6449728329
 10
156.8576177674
 20
96.643142434
 10
156.8423283266
 20
96.6417128116
 10
156.8269201322
 20
96.6406871562
 10
156.8113943227
 20
96.6400622773
 10
156.7958754535
 20
96.6398432317
 10
156.7803635327
 20
96.6400333105
 10
156.7648585523
 20
96.6406292225
 10
156.749485043
 20
96.6416261515
 10
156.7342442989
 20
96.6430272955
 10
156.7191350261
 20
96.6448294565
 10
156.7042778727
 20
96.6470182237
 10
156.6896744458
 20
96.6495968256
 10
156.6753231384
 20
96.6525620338
 10
156.6613397778
 20
96.6558897526
 10
156.647727312
 20
96.6595830264
 10
156.634482793
 20
96.6636388108
 10
156.6217132037
 20
96.6680238764
 10
156.6094542052
 20
96.6727271466
 10
156.5976701365
 20
96.677759698
 10
156.5863609975
 20
96.6831215305
  0
LWPOLYLINE
  5
32E
100
AcDbEntity
  8
ASSI
100
AcDbPolyline
 62
250
  6
CONTINUOUS
 90
31
 70
0
 10
157.0068893125
 20
96.6835137064
 10
156.9953948155
 20
96.6781306515
 10
156.9834367101
 20
96.67307599
 10
156.9710149962
 20
96.6683497222
 10
156.9580936098
 20
96.6639406997
 10
156.944708615
 20
96.6598600709
 10
156.9309682038
 20
96.65614128
 10
156.9168695531
 20
96.6527873719
 10
156.9024154861
 20
96.6497953018
 10
156.8877226638
 20
96.6471893797
 10
156.8727895933
 20
96.6449728329
 10
156.8576177674
 20
96.643142434
 10
156.8423283266
 20
96.6417128116
 10
156.8269201322
 20
96.6406871562
 10
156.8113943227
 20
96.6400622773
 10
156.7958754535
 20
96.6398432317
 10
156.7803635327
 20
96.6400333105
 10
156.7648585523
 20
96.6406292225
 10
156.749485043
 20
96.6416261515
 10
156.7342442989
 20
96.6430272955
 10
156.7191350261
 20
96.6448294565
 10
156.7042778727
 20
96.6470182237
 10
156.6896744458
 20
96.6495968256
 10
156.6753231384
 20
96.6525620338
 10
156.6613397778
 20
96.6558897526
 10
156.647727312
 20
96.6595830264
 10
156.634482793
 20
96.6636388108
 10
156.6217132037
 20
96.6680238764
 10
156.6094542052
 20
96.6727271466
 10
156.5976701365
 20
96.677759698
 10
156.5863609975
 20
96.6831215305
  0
LWPOLYLINE
  5
32F
100
AcDbEntity
  8
RACCORDO
100
AcDbPolyline
 62
250
  6
CONTINUOUS
 90
31
 70
0
 10
157.1470670612
 20
96.4390041521
 10
157.127984433
 20
96.430131559
 10
157.1080229875
 20
96.4217661145
 10
157.0872364044
 20
96.4139298575
 10
157.065681545
 20
96.4066434417
 10
157.0434154008
 20
96.3999259157
 10
157.020494629
 20
96.3937949325
 10
156.9969787435
 20
96.3882663926
 10
156.9729323594
 20
96.383355445
 10
156.948422056
 20
96.3790762774
 10
156.9235145376
 20
96.3754402187
 10
156.8982756593
 20
96.3724565272
 10
156.8727724255
 20
96.3701335964
 10
156.8470729058
 20
96.3684774426
 10
156.8212462777
 20
96.3674922971
 10
156.795361977
 20
96.3671812492
 10
156.7694893976
 20
96.3675449565
 10
156.743697895
 20
96.3685822137
 10
156.7180567997
 20
96.3702905936
 10
156.6926351229
 20
96.3726653337
 10
156.6675007212
 20
96.3756998694
 10
156.6427203316
 20
96.3793864493
 10
156.6183594871
 20
96.3837153052
 10
156.5944844701
 20
96.3886745744
 10
156.5711613497
 20
96.3942506914
 10
156.5484541862
 20
96.4004280478
 10
156.526421944
 20
96.4071902327
 10
156.5051206973
 20
96.4145201581
 10
156.484606775
 20
96.4223986648
 10
156.464936292
 20
96.4308043182
 10
156.4461621472
 20
96.4397146602
  0
LWPOLYLINE
  5
330
100
AcDbEntity
  8
ASSI
100
AcDbPolyline
 62
250
  6
CONTINUOUS
 90
31
 70
0
 10
157.1470670612
 20
96.4390041521
 10
157.127984433
 20
96.430131559
 10
157.1080229875
 20
96.4217661145
 10
157.0872364044
 20
96.4139298575
 10
157.065681545
 20
96.4066434417
 10
157.0434154008
 20
96.3999259157
 10
157.020494629
 20
96.3937949325
 10
156.9969787435
 20
96.3882663926
 10
156.9729323594
 20
96.383355445
 10
156.948422056
 20
96.3790762774
 10
156.9235145376
 20
96.3754402187
 10
156.8982756593
 20
96.3724565272
 10
156.8727724255
 20
96.3701335964
 10
156.8470729058
 20
96.3684774426
 10
156.8212462777
 20
96.3674922971
 10
156.795361977
 20
96.3671812492
 10
156.7694893976
 20
96.3675449565
 10
156.743697895
 20
96.3685822137
 10
156.7180567997
 20
96.3702905936
 10
156.6926351229
 20
96.3726653337
 10
156.6675007212
 20
96.3756998694
 10
156.6427203316
 20
96.3793864493
 10
156.6183594871
 20
96.3837153052
 10
156.5944844701
 20
96.3886745744
 10
156.5711613497
 20
96.3942506914
 10
156.5484541862
 20
96.4004280478
 10
156.526421944
 20
96.4071902327
 10
156.5051206973
 20
96.4145201581
 10
156.484606775
 20
96.4223986648
 10
156.464936292
 20
96.4308043182
 10
156.4461621472
 20
96.4397146602
  0
LINE
  5
331
100
AcDbEntity
  8
RACCORDO
100
AcDbLine
 62
7
  6
CONTINUOUS
 10
160.8943839868
 20
109.8924606755
 11
160.3555001771
 21
117.0466249465
  0
LINE
  5
332
100
AcDbEntity
  8
ASSI
100
AcDbLine
 62
7
  6
CONTINUOUS
 10
160.8943839868
 20
109.8924606755
 11
160.3555001771
 21
117.0466249465
  0
LINE
  5
333
100
AcDbEntity
  8
RACCORDO
100
AcDbLine
 62
7
  6
CONTINUOUS
 10
160.8943839868
 20
98.2877400494
 11
160.8943839868
 21
87.2025950963
  0
LINE
  5
334
100
AcDbEntity
  8
ASSI
100
AcDbLine
 62
7
  6
CONTINUOUS
 10
160.8943839868
 20
98.2877400494
 11
160.8943839868
 21
87.2025950963
  0
LINE
  5
335
100
AcDbEntity
  8
RACCORDO
100
AcDbLine
 62
7
  6
CONTINUOUS
 10
160.8943839868
 20
98.8073157224
 11
160.8943839868
 21
109.8924606755
  0
LINE
  5
336
100
AcDbEntity
  8
ASSI
100
AcDbLine
 62
7
  6
CONTINUOUS
 10
160.8943839868
 20
98.8073157224
 11
160.8943839868
 21
109.8924606755
  0
LINE
  5
337
100
AcDbEntity
  8
RACCORDO
100
AcDbLine
 62
7
  6
CONTINUOUS
 10
160.8943839868
 20
87.2025950963
 11
160.3555001771
 21
79.5280367794
  0
LINE
  5
338
100
AcDbEntity
  8
ASSI
100
AcDbLine
 62
7
  6
CONTINUOUS
 10
160.8943839868
 20
87.2025950963
 11
160.3555001771
 21
79.5280367794
  0
LINE
  5
339
100
AcDbEntity
  8
RACCORDO
100
AcDbLine
 62
250
  6
CONTINUOUS
 10
141.8070685963
 20
122.1673804624
 11
156.7504035492
 21
114.6957129864
  0
LINE
  5
33A
100
AcDbEntity
  8
ASSI
100
AcDbLine
 62
250
  6
CONTINUOUS
 10
141.8070685963
 20
122.1673804624
 11
156.7504035492
 21
114.6957129864
  0
LINE
  5
33B
100
AcDbEntity
  8
RACCORDO
100
AcDbLine
 62
7
  6
CONTINUOUS
 10
157.9710898832
 20
118.639258915
 11
157.2936088927
 21
118.5209253493
  0
LINE
  5
33C
100
AcDbEntity
  8
ASSI
100
AcDbLine
 62
7
  6
CONTINUOUS
 10
157.9710898832
 20
118.639258915
 11
157.2936088927
 21
118.5209253493
  0
LINE
  5
33D
100
AcDbEntity
  8
RACCORDO
100
AcDbLine
 62
250
  6
CONTINUOUS
 10
142.799647218
 20
123.91920969
 11
157.7663550167
 21
116.4358557912
  0
LINE
  5
33E
100
AcDbEntity
  8
ASSI
100
AcDbLine
 62
250
  6
CONTINUOUS
 10
142.799647218
 20
123.91920969
 11
157.7663550167
 21
116.4358557912
  0
LINE
  5
33F
100
AcDbEntity
  8
RACCORDO
100
AcDbLine
 62
7
  6
CONTINUOUS
 10
157.1004237275
 20
118.542268607
 11
154.7181386314
 21
119.7334111551
  0
LINE
  5
340
100
AcDbEntity
  8
ASSI
100
AcDbLine
 62
7
  6
CONTINUOUS
 10
157.1004237275
 20
118.542268607
 11
154.7181386314
 21
119.7334111551
  0
LINE
  5
341
100
AcDbEntity
  8
RACCORDO
100
AcDbLine
 62
7
  6
CONTINUOUS
 10
149.1808277782
 20
122.5020665817
 11
146.7985426821
 21
123.6932091297
  0
LINE
  5
342
100
AcDbEntity
  8
ASSI
100
AcDbLine
 62
7
  6
CONTINUOUS
 10
149.1808277782
 20
122.5020665817
 11
146.7985426821
 21
123.6932091297
  0
LINE
  5
343
100
AcDbEntity
  8
RACCORDO
100
AcDbLine
 62
7
  6
CONTINUOUS
 10
159.9708733824
 20
117.6393671654
 11
157.9710898832
 21
118.639258915
  0
LINE
  5
344
100
AcDbEntity
  8
ASSI
100
AcDbLine
 62
7
  6
CONTINUOUS
 10
159.9708733824
 20
117.6393671654
 11
157.9710898832
 21
118.639258915
  0
LINE
  5
345
100
AcDbEntity
  8
DRAFT
100
AcDbLine
 62
7
  6
CONTINUOUS
 10
154.8479053066
 20
120.2008512033
 11
150.0514939339
 21
122.5990568896
  0
LINE
  5
346
100
AcDbEntity
  8
ASSI
100
AcDbLine
 62
7
  6
CONTINUOUS
 10
154.8479053066
 20
120.2008512033
 11
150.0514939339
 21
122.5990568896
  0
LINE
  5
347
100
AcDbEntity
  8
RACCORDO
100
AcDbLine
 62
7
  6
CONTINUOUS
 10
146.9283093574
 20
124.1606491779
 11
144.9285258581
 21
125.1605409275
  0
LINE
  5
348
100
AcDbEntity
  8
ASSI
100
AcDbLine
 62
7
  6
CONTINUOUS
 10
146.9283093574
 20
124.1606491779
 11
144.9285258581
 21
125.1605409275
  0
LINE
  5
349
100
AcDbEntity
  8
RACCORDO
100
AcDbLine
 62
7
  6
CONTINUOUS
 10
150.0514939339
 20
122.5990568896
 11
149.3740129434
 21
122.480723324
  0
LINE
  5
34A
100
AcDbEntity
  8
ASSI
100
AcDbLine
 62
7
  6
CONTINUOUS
 10
150.0514939339
 20
122.5990568896
 11
149.3740129434
 21
122.480723324
  0
LWPOLYLINE
  5
34B
100
AcDbEntity
  8
RACCORDO
100
AcDbPolyline
 62
250
  6
CONTINUOUS
 90
28
 70
0
 10
157.4509876367
 20
79.0950909708
 10
157.4297494492
 20
79.0843871552
 10
157.4074322311
 20
79.0743138307
 10
157.3841098296
 20
79.0649043298
 10
157.3598594185
 20
79.0561897885
 10
157.334761242
 20
79.048199043
 10
157.3088983498
 20
79.0409585347
 10
157.2823563218
 20
79.0344922224
 10
157.2552229854
 20
79.0288215029
 10
157.2275881243
 20
79.0239651406
 10
157.1995431822
 20
79.0199392052
 10
157.1711809594
 20
79.0167570185
 10
157.1425953061
 20
79.0144291102
 10
157.1138808121
 20
79.0129631834
 10
157.0851324931
 20
79.0123640889
 10
157.0564454772
 20
79.012633809
 10
157.0279146893
 20
79.0137714512
 10
156.9996345374
 20
79.0157732511
 10
156.9716986003
 20
79.0186325848
 10
156.9441993178
 20
79.0223399907
 10
156.9172276845
 20
79.0268832011
 10
156.8908729494
 20
79.0322471825
 10
156.86522232
 20
79.0384141856
 10
156.8403606739
 20
79.0453638039
 10
156.816370278
 20
79.0530730411
 10
156.7933305163
 20
79.0615163874
 10
156.7713176271
 20
79.070665904
 10
156.7504044509
 20
79.0804913152
  0
LWPOLYLINE
  5
34C
100
AcDbEntity
  8
ASSI
100
AcDbPolyline
 62
250
  6
CONTINUOUS
 90
28
 70
0
 10
157.4509876367
 20
79.0950909708
 10
157.4297494492
 20
79.0843871552
 10
157.4074322311
 20
79.0743138307
 10
157.3841098296
 20
79.0649043298
 10
157.3598594185
 20
79.0561897885
 10
157.334761242
 20
79.048199043
 10
157.3088983498
 20
79.0409585347
 10
157.2823563218
 20
79.0344922224
 10
157.2552229854
 20
79.0288215029
 10
157.2275881243
 20
79.0239651406
 10
157.1995431822
 20
79.0199392052
 10
157.1711809594
 20
79.0167570185
 10
157.1425953061
 20
79.0144291102
 10
157.1138808121
 20
79.0129631834
 10
157.0851324931
 20
79.0123640889
 10
157.0564454772
 20
79.012633809
 10
157.0279146893
 20
79.0137714512
 10
156.9996345374
 20
79.0157732511
 10
156.9716986003
 20
79.0186325848
 10
156.9441993178
 20
79.0223399907
 10
156.9172276845
 20
79.0268832011
 10
156.8908729494
 20
79.0322471825
 10
156.86522232
 20
79.0384141856
 10
156.8403606739
 20
79.0453638039
 10
156.816370278
 20
79.0530730411
 10
156.7933305163
 20
79.0615163874
 10
156.7713176271
 20
79.070665904
 10
156.7504044509
 20
79.0804913152
  0
LINE
  5
34D
100
AcDbEntity
  8
RACCORDO
100
AcDbLine
 62
250
  6
CONTINUOUS
 10
158.132175296
 20
78.5947753027
 11
160.3555001771
 21
79.5280367794
  0
LINE
  5
34E
100
AcDbEntity
  8
ASSI
100
AcDbLine
 62
250
  6
CONTINUOUS
 10
158.132175296
 20
78.5947753027
 11
160.3555001771
 21
79.5280367794
  0
LINE
  5
34F
100
AcDbEntity
  8
RACCORDO
100
AcDbLine
 62
7
  6
CONTINUOUS
 10
157.9783680506
 20
78.3135796043
 11
160.1891607295
 21
79.2415805715
  0
LINE
  5
350
100
AcDbEntity
  8
ASSI
100
AcDbLine
 62
7
  6
CONTINUOUS
 10
157.9783680506
 20
78.3135796043
 11
160.1891607295
 21
79.2415805715
  0
LINE
  5
351
100
AcDbEntity
  8
RACCORDO
100
AcDbLine
 62
7
  6
CONTINUOUS
 10
157.9450172976
 20
78.3001427731
 11
157.9783541718
 21
78.3135739849
  0
LWPOLYLINE
  5
352
100
AcDbEntity
  8
ASSI
100
AcDbPolyline
 62
7
  6
CONTINUOUS
 90
3
 70
0
 10
157.8637848349
 20
78.2720570203
 10
157.9530864706
 20
78.3032913198
 10
157.9781860022
 20
78.3135035011
  0
ELLIPSE
  5
353
100
AcDbEntity
  8
RACCORDO
100
AcDbEllipse
 62
7
  6
CONTINUOUS
 10
160.0019215845
 20
79.7052484821
 30
0.0
 11
-0.1825210626
 21
0.4655826378
 31
0.0
 40
0.6539056002
 41
-3.1260221366
 42
-2.199353272
  0
ELLIPSE
  5
354
100
AcDbEntity
  8
RACCORDO
100
AcDbEllipse
 62
7
  6
CONTINUOUS
 10
160.7529410881
 20
98.3584351187
 30
0.0
 11
-0.0894578232
 21
0.1788799337
 31
0.0
 40
0.6124778111
 41
-2.255529033
 42
-0.6848850053
  0
ELLIPSE
  5
355
100
AcDbEntity
  8
ASSI
100
AcDbEllipse
 62
7
  6
CONTINUOUS
 10
160.0019215845
 20
79.7052484821
 30
0.0
 11
-0.1825210626
 21
0.4655826378
 31
0.0
 40
0.6539056002
 41
-3.1260221366
 42
-2.199353272
  0
ELLIPSE
  5
356
100
AcDbEntity
  8
ASSI
100
AcDbEllipse
 62
7
  6
CONTINUOUS
 10
160.7529410881
 20
98.3584351187
 30
0.0
 11
-0.0894578232
 21
0.1788799337
 31
0.0
 40
0.6124778111
 41
-2.255529033
 42
-0.6848850053
  0
ELLIPSE
  5
357
100
AcDbEntity
  8
SIMBOLI
100
AcDbEllipse
 62
250
  6
CONTINUOUS
 10
491.5728702087
 20
282.7311667155
 30
0.0
 11
-370.8956999625
 21
600.1218488205
 31
0.0
 40
0.5587454355
 41
1.5424586217
 42
1.5514618139
  0
ELLIPSE
  5
358
100
AcDbEntity
  8
SIMBOLI
100
AcDbEllipse
 62
250
  6
CONTINUOUS
 10
513.4931804255
 20
271.7710116071
 30
0.0
 11
499.3666179528
 21
308.6255427419
 31
0.0
 40
0.0815198604
 41
2.327856785
 42
2.3368599773
  0
ELLIPSE
  5
359
100
AcDbEntity
  8
RACCORDO
100
AcDbEllipse
 62
7
  6
CONTINUOUS
 10
160.0019215845
 20
117.2230481614
 30
0.0
 11
-0.2595358667
 21
0.4277791377
 31
0.0
 40
0.5660944267
 41
-2.3023149208
 42
-0.7324319825
  0
ELLIPSE
  5
35A
100
AcDbEntity
  8
RACCORDO
100
AcDbEllipse
 62
7
  6
CONTINUOUS
 10
160.7529410881
 20
98.8780635517
 30
0.0
 11
-0.0894818401
 21
0.1789012953
 31
0.0
 40
0.6122950388
 41
-3.1553778957
 42
-2.2557482655
  0
ELLIPSE
  5
35B
100
AcDbEntity
  8
RACCORDO
100
AcDbEllipse
 62
7
  6
CONTINUOUS
 10
144.959143638
 20
124.7444371347
 30
0.0
 11
-0.2593331496
 21
0.4275480222
 31
0.0
 40
0.5667800829
 41
-0.7329160135
 42
-0.009825437
  0
ELLIPSE
  5
35C
100
AcDbEntity
  8
RACCORDO
100
AcDbEllipse
 62
7
  6
CONTINUOUS
 10
157.2418450837
 20
118.6220565788
 30
0.0
 11
0.199943508
 21
0.008945986
 31
0.0
 40
0.5313301283
 41
-2.3799630874
 42
-1.3327655362
  0
ELLIPSE
  5
35D
100
AcDbEntity
  8
RACCORDO
100
AcDbEllipse
 62
7
  6
CONTINUOUS
 10
149.3222491344
 20
122.5818545534
 30
0.0
 11
0.199943508
 21
0.008945986
 31
0.0
 40
0.5313301283
 41
-2.3799630874
 42
-1.3327655362
  0
ELLIPSE
  5
35E
100
AcDbEntity
  8
RACCORDO
100
AcDbEllipse
 62
7
  6
CONTINUOUS
 10
154.8595599876
 20
119.8131991268
 30
0.0
 11
0.199943508
 21
0.008945986
 31
0.0
 40
0.5313301283
 41
2.8560246685
 42
3.9032222197
  0
ELLIPSE
  5
35F
100
AcDbEntity
  8
RACCORDO
100
AcDbEllipse
 62
7
  6
CONTINUOUS
 10
146.9399640383
 20
123.7729971015
 30
0.0
 11
0.199943508
 21
0.008945986
 31
0.0
 40
0.5313301283
 41
2.8560246685
 42
3.9032222197
  0
ELLIPSE
  5
360
100
AcDbEntity
  8
ASSI
100
AcDbEllipse
 62
7
  6
CONTINUOUS
 10
160.0019215845
 20
117.2230481614
 30
0.0
 11
-0.2595358667
 21
0.4277791377
 31
0.0
 40
0.5660944267
 41
-2.3023149208
 42
-0.7324319825
  0
ELLIPSE
  5
361
100
AcDbEntity
  8
ASSI
100
AcDbEllipse
 62
7
  6
CONTINUOUS
 10
160.7529410881
 20
98.8780635517
 30
0.0
 11
-0.0894818401
 21
0.1789012953
 31
0.0
 40
0.6122950388
 41
-3.1553778957
 42
-2.2557482655
  0
ELLIPSE
  5
362
100
AcDbEntity
  8
ASSI
100
AcDbEllipse
 62
7
  6
CONTINUOUS
 10
144.959143638
 20
124.7444371347
 30
0.0
 11
-0.2593331496
 21
0.4275480222
 31
0.0
 40
0.5667800829
 41
-0.7329160135
 42
-0.009825437
  0
ELLIPSE
  5
363
100
AcDbEntity
  8
ASSI
100
AcDbEllipse
 62
7
  6
CONTINUOUS
 10
157.2418450837
 20
118.6220565788
 30
0.0
 11
0.199943508
 21
0.008945986
 31
0.0
 40
0.5313301283
 41
-2.3799630874
 42
-1.3327655362
  0
ELLIPSE
  5
364
100
AcDbEntity
  8
ASSI
100
AcDbEllipse
 62
7
  6
CONTINUOUS
 10
149.3222491344
 20
122.5818545534
 30
0.0
 11
0.199943508
 21
0.008945986
 31
0.0
 40
0.5313301283
 41
-2.3799630874
 42
-1.3327655362
  0
ELLIPSE
  5
365
100
AcDbEntity
  8
ASSI
100
AcDbEllipse
 62
7
  6
CONTINUOUS
 10
154.8595599876
 20
119.8131991268
 30
0.0
 11
0.199943508
 21
0.008945986
 31
0.0
 40
0.5313301283
 41
2.8560246685
 42
3.9032222197
  0
ELLIPSE
  5
366
100
AcDbEntity
  8
ASSI
100
AcDbEllipse
 62
7
  6
CONTINUOUS
 10
146.9399640383
 20
123.7729971015
 30
0.0
 11
0.199943508
 21
0.008945986
 31
0.0
 40
0.5313301283
 41
2.8560246685
 42
3.9032222197
  0
ELLIPSE
  5
367
100
AcDbEntity
  8
SIMBOLI
100
AcDbEllipse
 62
250
  6
CONTINUOUS
 10
513.4931804255
 20
271.7710116071
 30
0.0
 11
-370.8956999625
 21
600.1218488205
 31
0.0
 40
0.5587454355
 41
1.4894518793
 42
1.4984550715
  0
ELLIPSE
  5
368
100
AcDbEntity
  8
SIMBOLI
100
AcDbEllipse
 62
250
  6
CONTINUOUS
 10
491.5728702087
 20
282.7311667155
 30
0.0
 11
499.3666179528
 21
308.6255427419
 31
0.0
 40
0.0815198604
 41
2.2748500427
 42
2.2838532349
  0
ENDSEC
  0
SECTION
  2
OBJECTS
  0
DICTIONARY
  5
C
100
AcDbDictionary
280
0
281
1
  3
ACAD_GROUP
350
D
  3
ACAD_MLINESTYLE
350
17
  3
ACAD_LAYOUT
350
1A
  3
ACAD_PLOTSETTINGS
350
19
  3
ACAD_PLOTSTYLENAME
350
E
  0
DICTIONARY
  5
D
102
{ACAD_REACTORS
330
C
102
}
100
AcDbDictionary
280
0
281
1
  0
ACDBDICTIONARYWDFLT
  5
E
102
{ACAD_REACTORS
330
C
102
}
100
AcDbDictionary
281
1
  3
Normal
350
F
100
AcDbDictionaryWithDefault
340
F
  0
DICTIONARY
  5
17
102
{ACAD_REACTORS
330
C
102
}
100
AcDbDictionary
280
0
281
1
  3
Standard
350
18
  0
DICTIONARY
  5
19
102
{ACAD_REACTORS
330
C
102
}
100
AcDbDictionary
281
1
  0
DICTIONARY
  5
1A
102
{ACAD_REACTORS
330
C
102
}
100
AcDbDictionary
281
1
  3
Model
350
369
  3
Layout1
350
36A
  0
ACDBPLACEHOLDER
  5
F
102
{ACAD_REACTORS
330
E
102
}
  0
MLINESTYLE
  5
18
102
{ACAD_REACTORS
330
17
102
}
100
AcDbMlineStyle
  2
STANDARD
 70
0
  3

 62
256
 51
90.0
 52
90.0
 71
2
 49
0.5
 62
256
  6
BYLAYER
 49
-0.5
 62
256
  6
BYLAYER
  0
LAYOUT
  5
369
102
{ACAD_REACTORS
330
1A
102
}
100
AcDbPlotSettings
  1

  2
none_device
  4
ISO_A4_(297.00_x_210.00_MM)
  6

 40
0.0
 41
0.0
 42
0.0
 43
0.0
 44
297.0
 45
210.0
 46
0.0
 47
0.0
 48
0.0
 49
0.0
140
0.0
141
0.0
142
1.0
143
1.0
 70
1024
 72
1
 73
0
 74
0
  7

 75
0
147
1.0
148
0.0
149
0.0
100
AcDbLayout
  1
Model
 70
0
 71
0
 10
0.0
 20
0.0
 11
297.0
 21
210.0
 12
0.0
 22
0.0
 32
0.0
 14
0.0
 24
0.0
 34
0.0
 15
0.0
 25
0.0
 35
0.0
146
0.0
 13
0.0
 23
0.0
 33
0.0
 16
1.0
 26
0.0
 36
0.0
 17
0.0
 27
1.0
 37
0.0
 76
0
330
214
345
0
346
0
  0
LAYOUT
  5
36A
102
{ACAD_REACTORS
330
1A
102
}
100
AcDbPlotSettings
  1

  2
none_device
  4
ISO_A4_(297.00_x_210.00_MM)
  6

 40
0.0
 41
0.0
 42
0.0
 43
0.0
 44
297.0
 45
210.0
 46
0.0
 47
0.0
 48
0.0
 49
0.0
140
0.0
141
0.0
142
1.0
143
1.0
 70
0
 72
1
 73
0
 74
0
  7

 75
0
147
1.0
148
0.0
149
0.0
100
AcDbLayout
  1
Layout1
 70
0
 71
1
 10
0.0
 20
0.0
 11
297.0
 21
210.0
 12
0.0
 22
0.0
 32
0.0
 14
0.0
 24
0.0
 34
0.0
 15
0.0
 25
0.0
 35
0.0
146
0.0
 13
0.0
 23
0.0
 33
0.0
 16
1.0
 26
0.0
 36
0.0
 17
0.0
 27
1.0
 37
0.0
 76
0
330
215
345
0
346
0
  0
ENDSEC
  0
EOF
