  0
SECTION
  2
HEADER
  9
$ACADVER
  1
AC1024
  9
$DWGCODEPAGE
  3
ANSI_1252
  9
$EXTMAX
 10
297.0
 20
210.0
 30
0.0
  9
$EXTMIN
 10
0.0
 20
0.0
 30
0.0
  9
$LIMMIN
 10
0.0
 20
0.0
  9
$LIMMAX
 10
297.0
 20
210.0
  9
$VIEWCTR
 10
148.5
 20
105.0
  9
$VIEWSIZE
 40
210.0
  9
$CLAYER
  8
0
  9
$LTSCALE
 40
16.335
  9
$CELTYPE
  6
BYLAYER
  9
$DIMSCALE
 40
1.0
  9
$DIMASZ
 40
3.0
  9
$DIMEXO
 40
0.5
  9
$DIMDLI
 40
11.286
  9
$DIMEXE
 40
1.5
  9
$DIMCEN
 40
2.673
  9
$DIMLFAC
 40
1.0
  9
$DIMBLK
  1
_FILLED
  9
$DIMALT
 70
0
  9
$DIMALTF
 40
0.0393700787
  9
$DIMTXT
 40
3.0
  9
$DIMTOL
 70
1
  9
$DIMLIM
 70
0
  9
$DIMTFAC
 40
1.0
  9
$DIMTP
 40
0.01
  9
$DIMTM
 40
0.01
  9
$DIMGAP
 40
0.625
  9
$DIMDSEP
 70
44
  9
$AUNITS
 70
0
  9
$PDMODE
 70
3
  9
$PDSIZE
 40
3.0
  9
$HANDSEED
  5
2A1
  9
$TILEMODE
 70
1
  9
$MEASUREMENT
 70
1
  9
$INSUNITS
 70
4
  0
ENDSEC
  0
SECTION
  2
CLASSES
  0
CLASS
  1
ACDBDICTIONARYWDFLT
  2
AcDbDictionaryWithDefault
  3
AutoCAD 2000
 90
0
 91
1
280
0
281
0
  0
CLASS
  1
ACDBPLACEHOLDER
  2
AcDbPlaceHolder
  3
AutoCAD 2000
 90
0
 91
1
280
0
281
0
  0
CLASS
  1
LAYOUT
  2
AcDbLayout
  3
AutoCAD 2000
 90
0
 91
0
280
0
281
0
  0
ENDSEC
  0
SECTION
  2
TABLES
  0
TABLE
  2
VPORT
  5
8
100
AcDbSymbolTable
 70
2
  0
VPORT
  5
1F4
100
AcDbSymbolTableRecord
100
AcDbViewportTableRecord
  2
*ACTIVE
 70
0
 10
0.0
 20
0.0
 11
1.0
 21
1.0
 12
148.5
 22
105.0
 13
0.0
 23
0.0
 14
1.0
 24
1.0
 15
0.0
 25
0.0
 16
0.0
 26
0.0
 36
1.0
 17
0.0
 27
0.0
 37
0.0
 40
210.0
 41
1.4142857143
 42
50.0
 43
0.0
 44
0.0
 50
0.0
 51
0.0
 71
0
 72
100
 73
1
 74
1
 75
0
 76
0
 77
0
 78
0
  0
ENDTAB
  0
TABLE
  2
LTYPE
  5
5
100
AcDbSymbolTable
 70
6
  0
LTYPE
  5
14
100
AcDbSymbolTableRecord
100
AcDbLinetypeTableRecord
  2
BYBLOCK
 70
0
  3

 72
65
 73
0
 40
0.0
  0
LTYPE
  5
15
100
AcDbSymbolTableRecord
100
AcDbLinetypeTableRecord
  2
BYLAYER
 70
0
  3

 72
65
 73
0
 40
0.0
  0
LTYPE
  5
16
100
AcDbSymbolTableRecord
100
AcDbLinetypeTableRecord
  2
CONTINUOUS
 70
64
  3
Solid line
 72
65
 73
0
 40
0.0
  0
LTYPE
  5
1F5
100
AcDbSymbolTableRecord
100
AcDbLinetypeTableRecord
  2
CENTER
 70
64
  3
____ _ ____ _ ____ _ ____ _ ____ _ ____ _ ____
 72
65
 73
4
 40
0.6
 49
0.375
 74
0
 49
-0.075
 74
0
 49
0.075
 74
0
 49
-0.075
 74
0
  0
LTYPE
  5
1F6
100
AcDbSymbolTableRecord
100
AcDbLinetypeTableRecord
  2
HIDDEN
 70
64
  3
- - - - - - - - - - - - - - - - - - - -
 72
65
 73
2
 40
0.2
 49
0.1
 74
0
 49
-0.1
 74
0
  0
LTYPE
  5
1F7
100
AcDbSymbolTableRecord
100
AcDbLinetypeTableRecord
  2
PHANTOM
 70
64
  3
_____ _ _ _____ _ _ _____ _ _ _____
 72
65
 73
6
 40
0.8
 49
0.45
 74
0
 49
-0.05
 74
0
 49
0.1
 74
0
 49
-0.05
 74
0
 49
0.1
 74
0
 49
-0.05
 74
0
  0
LTYPE
  5
1F8
100
AcDbSymbolTableRecord
100
AcDbLinetypeTableRecord
  2
DOT
 70
64
  3
. . . . . . . . . . . . . . . . . . . .
 72
65
 73
2
 40
0.2
 49
0.1
 74
0
 49
-0.1
 74
0
  0
LTYPE
  5
1F9
100
AcDbSymbolTableRecord
100
AcDbLinetypeTableRecord
  2
DASHED
 70
64
  3
- - - - - - - - - - - - - - - - - - - -
 72
65
 73
2
 40
0.2
 49
0.1
 74
0
 49
-0.1
 74
0
  0
ENDTAB
  0
TABLE
  2
LAYER
  5
2
100
AcDbSymbolTable
 70
36
  0
LAYER
  5
10
100
AcDbSymbolTableRecord
100
AcDbLayerTableRecord
  2
0
 70
0
 62
7
  6
CONTINUOUS
370
-3
390
F
  0
LAYER
  5
1FA
100
AcDbSymbolTableRecord
100
AcDbLayerTableRecord
  2
DEFAULT_1
 70
0
 62
7
  6
CENTER
370
-3
390
F
  0
LAYER
  5
1FB
100
AcDbSymbolTableRecord
100
AcDbLayerTableRecord
  2
DEFAULT_2
 70
0
 62
7
  6
HIDDEN
370
-3
390
F
  0
LAYER
  5
1FC
100
AcDbSymbolTableRecord
100
AcDbLayerTableRecord
  2
DEFAULT_3
 70
0
 62
7
  6
PHANTOM
370
-3
390
F
  0
LAYER
  5
1FD
100
AcDbSymbolTableRecord
100
AcDbLayerTableRecord
  2
ASSI
 70
0
 62
7
  6
CONTINUOUS
370
-3
390
F
  0
LAYER
  5
1FE
100
AcDbSymbolTableRecord
100
AcDbLayerTableRecord
  2
COORDINATE
 70
0
 62
7
  6
CONTINUOUS
370
-3
390
F
  0
LAYER
  5
1FF
100
AcDbSymbolTableRecord
100
AcDbLayerTableRecord
  2
COORD_ORIGINE
 70
0
 62
7
  6
CONTINUOUS
370
-3
390
F
  0
LAYER
  5
200
100
AcDbSymbolTableRecord
100
AcDbLayerTableRecord
  2
COSMETICI
 70
0
 62
7
  6
CONTINUOUS
370
-3
390
F
  0
LAYER
  5
201
100
AcDbSymbolTableRecord
100
AcDbLayerTableRecord
  2
CURVE
 70
0
 62
7
  6
CONTINUOUS
370
-3
390
F
  0
LAYER
  5
202
100
AcDbSymbolTableRecord
100
AcDbLayerTableRecord
  2
DRAFT
 70
0
 62
7
  6
CONTINUOUS
370
-3
390
F
  0
LAYER
  5
203
100
AcDbSymbolTableRecord
100
AcDbLayerTableRecord
  2
IGES
 70
0
 62
7
  6
CONTINUOUS
370
-3
390
F
  0
LAYER
  5
204
100
AcDbSymbolTableRecord
100
AcDbLayerTableRecord
  2
NOTE
 70
0
 62
7
  6
CONTINUOUS
370
-3
390
F
  0
LAYER
  5
205
100
AcDbSymbolTableRecord
100
AcDbLayerTableRecord
  2
PIANI
 70
0
 62
7
  6
CONTINUOUS
370
-3
390
F
  0
LAYER
  5
206
100
AcDbSymbolTableRecord
100
AcDbLayerTableRecord
  2
PIANI_ORIGINE
 70
0
 62
7
  6
CONTINUOUS
370
-3
390
F
  0
LAYER
  5
207
100
AcDbSymbolTableRecord
100
AcDbLayerTableRecord
  2
PIANI_RIFERIMENTO
 70
0
 62
7
  6
CONTINUOUS
370
-3
390
F
  0
LAYER
  5
208
100
AcDbSymbolTableRecord
100
AcDbLayerTableRecord
  2
PUNTI
 70
0
 62
7
  6
CONTINUOUS
370
-3
390
F
  0
LAYER
  5
209
100
AcDbSymbolTableRecord
100
AcDbLayerTableRecord
  2
RACCORDO
 70
0
 62
7
  6
CONTINUOUS
370
-3
390
F
  0
LAYER
  5
20A
100
AcDbSymbolTableRecord
100
AcDbLayerTableRecord
  2
SIMBOLI
 70
0
 62
7
  6
CONTINUOUS
370
-3
390
F
  0
LAYER
  5
20B
100
AcDbSymbolTableRecord
100
AcDbLayerTableRecord
  2
SMUSSO
 70
0
 62
7
  6
CONTINUOUS
370
-3
390
F
  0
LAYER
  5
20C
100
AcDbSymbolTableRecord
100
AcDbLayerTableRecord
  2
SNAPLINE
 70
0
 62
7
  6
CONTINUOUS
370
-3
390
F
  0
LAYER
  5
20D
100
AcDbSymbolTableRecord
100
AcDbLayerTableRecord
  2
SUPERFICI
 70
0
 62
7
  6
CONTINUOUS
370
-3
390
F
  0
LAYER
  5
20E
100
AcDbSymbolTableRecord
100
AcDbLayerTableRecord
  2
TRASH
 70
0
 62
7
  6
CONTINUOUS
370
-3
390
F
  0
LAYER
  5
20F
100
AcDbSymbolTableRecord
100
AcDbLayerTableRecord
  2
XSEC_DATUMS
 70
0
 62
7
  6
CONTINUOUS
370
-3
390
F
  0
ENDTAB
  0
TABLE
  2
STYLE
  5
3
100
AcDbSymbolTable
 70
1
  0
STYLE
  5
11
100
AcDbSymbolTableRecord
100
AcDbTextStyleTableRecord
  2
STANDARD
 70
0
 40
0.0
 41
0.8
 50
0.0
 71
0
 42
0.2
  3
txt
  4

  0
STYLE
  5
210
100
AcDbSymbolTableRecord
100
AcDbTextStyleTableRecord
  2
TEXTSTYLE_1
 70
0
 40
0.0
 41
0.8
 50
0.0
 71
0
 42
0.2
  3
gdt
  4

  0
ENDTAB
  0
TABLE
  2
VIEW
  5
6
100
AcDbSymbolTable
 70
0
  0
ENDTAB
  0
TABLE
  2
UCS
  5
7
100
AcDbSymbolTable
 70
0
  0
ENDTAB
  0
TABLE
  2
APPID
  5
9
100
AcDbSymbolTable
 70
1
  0
APPID
  5
211
100
AcDbSymbolTableRecord
100
AcDbRegAppTableRecord
  2
ACAD
 70
0
  0
ENDTAB
  0
TABLE
  2
BLOCK_RECORD
  5
1
100
AcDbSymbolTable
 70
0
  0
BLOCK_RECORD
  5
212
100
AcDbSymbolTableRecord
100
AcDbBlockTableRecord
  2
*Model_Space
  0
BLOCK_RECORD
  5
213
100
AcDbSymbolTableRecord
100
AcDbBlockTableRecord
  2
*Paper_Space
  0
BLOCK_RECORD
  5
214
100
AcDbSymbolTableRecord
100
AcDbBlockTableRecord
  2
_FILLED
  0
ENDTAB
  0
TABLE
  2
DIMSTYLE
  5
A
100
AcDbSymbolTable
 70
1
100
AcDbDimStyleTable
 71
0
  0
DIMSTYLE
105
215
100
AcDbSymbolTableRecord
100
AcDbDimStyleTableRecord
  2
STANDARD
 70
0
  3

  4

 40
1.0
 41
3.0
 42
0.5
 43
0.38
 44
1.5
 45
0.0
 46
0.0
 47
0.01
 48
0.01
140
3.0
141
0.09
142
0.0
143
25.4
144
1.0
145
0.0
146
1.0
147
0.625
 71
1
 72
0
 73
0
 74
0
 75
0
 76
0
 77
1
 78
8
 79
2
170
0
171
1
172
0
173
0
174
0
175
0
176
0
177
0
178
0
270
2
179
2
271
2
272
2
273
2
274
2
275
0
280
0
281
0
282
0
283
1
284
8
285
0
286
0
287
3
288
0
340
11
278
44
341
214
342
214
343
214
344
214
  0
ENDTAB
  0
ENDSEC
  0
SECTION
  2
BLOCKS
  0
BLOCK
  5
20
100
AcDbEntity
  8
0
100
AcDbBlockBegin
  2
*Model_Space
 70
0
 10
0.0
 20
0.0
 30
0.0
  3
*Model_Space
  1

  0
ENDBLK
  5
21
100
AcDbEntity
  8
0
100
AcDbBlockEnd
  0
BLOCK
  5
1C
100
AcDbEntity
  8
0
100
AcDbBlockBegin
  2
*Paper_Space
 70
0
 10
0.0
 20
0.0
 30
0.0
  3
*Paper_Space
  1

  0
ENDBLK
  5
1D
100
AcDbEntity
  8
0
100
AcDbBlockEnd
  0
BLOCK
  5
216
100
AcDbEntity
  8
0
100
AcDbBlockBegin
  2
_FILLED
 70
64
 10
0.0
 20
0.0
  3
_FILLED
  1

  0
SOLID
  5
217
100
AcDbEntity
  8
0
  6
BYBLOCK
 62
0
100
AcDbTrace
 10
0.0
 20
0.0
 11
-1.0
 21
0.3166666667
 12
-1.0
 22
-0.3166666667
 13
-1.0
 23
-0.3166666667
  0
ENDBLK
  5
218
100
AcDbEntity
  8
0
  6
BYBLOCK
 62
0
100
AcDbBlockEnd
  0
ENDSEC
  0
SECTION
  2
ENTITIES
  0
LWPOLYLINE
  5
219
100
AcDbEntity
  8
RACCORDO
100
AcDbPolyline
 62
7
  6
CONTINUOUS
 90
34
 70
0
 10
144.8456589246
 20
126.7052106471
 10
144.8106949994
 20
126.6814517009
 10
144.7653543313
 20
126.648519276
 10
144.7209998439
 20
126.6139093544
 10
144.6776552429
 20
126.5777077642
 10
144.6353216142
 20
126.5399815974
 10
144.5939990912
 20
126.5007869097
 10
144.5537042081
 20
126.4601897952
 10
144.5144561758
 20
126.4182563163
 10
144.4762772882
 20
126.3750482806
 10
144.4391918231
 20
126.3306298295
 10
144.4032235859
 20
126.2850616487
 10
144.3684041666
 20
126.2384086382
 10
144.3347617361
 20
126.1907337296
 10
144.3023249251
 20
126.1420955698
 10
144.2711297647
 20
126.0925608145
 10
144.2412065366
 20
126.0421902795
 10
144.2125880511
 20
125.9910423715
 10
144.1853122939
 20
125.9391848574
 10
144.1594116249
 20
125.8866764348
 10
144.1349218717
 20
125.8335748497
 10
144.1118811357
 20
125.7799458348
 10
144.0903240998
 20
125.72584473
 10
144.0702896472
 20
125.6713286426
 10
144.0518165673
 20
125.6164587814
 10
144.0349437145
 20
125.5612873197
 10
144.0197131873
 20
125.5058688384
 10
144.0061658704
 20
125.4502554859
 10
143.9943475737
 20
125.3944984938
 10
143.9843059914
 20
125.3386471861
 10
143.9760883838
 20
125.2827319942
 10
143.9697508559
 20
125.2267890729
 10
143.9653538272
 20
125.1708826807
 10
143.9633958057
 20
125.1298409409
  0
LINE
  5
21A
100
AcDbEntity
  8
RACCORDO
100
AcDbLine
 62
7
  6
CONTINUOUS
 10
144.8456444789
 20
126.7052013125
 11
146.9827880292
 21
128.1146273848
  0
LINE
  5
21B
100
AcDbEntity
  8
RACCORDO
100
AcDbLine
 62
250
  6
CONTINUOUS
 10
145.1024259336
 20
126.684798764
 11
147.2313045737
 21
128.0887742058
  0
LWPOLYLINE
  5
21C
100
AcDbEntity
  8
RACCORDO
100
AcDbPolyline
 62
250
  6
CONTINUOUS
 90
15
 70
0
 10
144.8456588368
 20
126.7052107802
 10
144.8607589797
 20
126.7139886277
 10
144.8756693577
 20
126.7206275235
 10
144.8914086131
 20
126.7258035664
 10
144.9079235512
 20
126.7294992627
 10
144.9251583555
 20
126.7317021219
 10
144.9430547768
 20
126.7324046988
 10
144.9615523296
 20
126.731604619
 10
144.9805884967
 20
126.7293045864
 10
145.0000989408
 20
126.7255123747
 10
145.0200177213
 20
126.7202408005
 10
145.0402775177
 20
126.7135076805
 10
145.060809857
 20
126.705335771
 10
145.081545345
 20
126.6957526908
 10
145.1024139009
 20
126.6847908286
  0
LWPOLYLINE
  5
21D
100
AcDbEntity
  8
RACCORDO
100
AcDbPolyline
 62
7
  6
CONTINUOUS
 90
21
 70
0
 10
159.3663269188
 20
82.0814264
 10
159.4069637834
 20
82.0594091655
 10
159.4474219863
 20
82.0402235707
 10
159.4890708833
 20
82.023103503
 10
159.5318441555
 20
82.0081079533
 10
159.5757211709
 20
81.9952799118
 10
159.6206149382
 20
81.9846812821
 10
159.666432689
 20
81.9763686846
 10
159.7131572936
 20
81.9703845058
 10
159.7607078777
 20
81.9667808924
 10
159.808992678
 20
81.9656030181
 10
159.8579978508
 20
81.9668944129
 10
159.9076485415
 20
81.9707016324
 10
159.9578666257
 20
81.9770632891
 10
160.0086568775
 20
81.9860307999
 10
160.0599543056
 20
81.9976522307
 10
160.1116944299
 20
82.0119715133
 10
160.1639039749
 20
82.0290629039
 10
160.2165572428
 20
82.0489992863
 10
160.2695551263
 20
82.0718234638
 10
160.3105388908
 20
82.0913913152
  0
LINE
  5
21E
100
AcDbEntity
  8
RACCORDO
100
AcDbLine
 62
7
  6
CONTINUOUS
 10
159.3665136675
 20
82.0813184685
 11
144.4159703533
 21
90.7135748038
  0
LINE
  5
21F
100
AcDbEntity
  8
RACCORDO
100
AcDbLine
 62
250
  6
CONTINUOUS
 10
159.0531822647
 20
82.7201733182
 11
144.1098473118
 21
91.3482676356
  0
LINE
  5
220
100
AcDbEntity
  8
RACCORDO
100
AcDbLine
 62
250
  6
CONTINUOUS
 10
144.4159704272
 20
90.7135747611
 11
144.4118427532
 21
90.7159850334
  0
LWPOLYLINE
  5
221
100
AcDbEntity
  8
RACCORDO
100
AcDbPolyline
 62
250
  6
CONTINUOUS
 90
19
 70
0
 10
144.4118427532
 20
90.7159850334
 10
144.382229887
 20
90.734938252
 10
144.3539228221
 20
90.7560509872
 10
144.3269683699
 20
90.7792880571
 10
144.3014124846
 20
90.804609804
 10
144.2772985343
 20
90.8319733214
 10
144.2546658808
 20
90.861333318
 10
144.2335529879
 20
90.8926401115
 10
144.2139958807
 20
90.9258406969
 10
144.1960264873
 20
90.9608800456
 10
144.1796751291
 20
90.9976996378
 10
144.1649700917
 20
91.0362367567
 10
144.15193601
 20
91.0764255118
 10
144.1405950325
 20
91.1181973263
 10
144.130966224
 20
91.1614822176
 10
144.1230651813
 20
91.2062081337
 10
144.1169050987
 20
91.2523000031
 10
144.1124966553
 20
91.2996797857
 10
144.1098473118
 20
91.3482676356
  0
LINE
  5
222
100
AcDbEntity
  8
RACCORDO
100
AcDbLine
 62
7
  6
CONTINUOUS
 10
149.2310880729
 20
126.9341242765
 11
149.0495575886
 21
126.5169644161
  0
LWPOLYLINE
  5
223
100
AcDbEntity
  8
RACCORDO
100
AcDbPolyline
 62
7
  6
CONTINUOUS
 90
24
 70
0
 10
143.9634223197
 20
91.5511225993
 10
143.9660496774
 20
91.502110181
 10
143.9706973778
 20
91.4511007599
 10
143.9771870267
 20
91.4015140205
 10
143.9854542145
 20
91.3533916209
 10
143.9954415783
 20
91.3067120573
 10
144.0071101574
 20
91.2614134075
 10
144.0204104333
 20
91.2175100212
 10
144.0352895389
 20
91.1750183599
 10
144.0517167603
 20
91.1339024271
 10
144.0696427963
 20
91.0941900507
 10
144.0890174233
 20
91.0559045304
 10
144.1098133855
 20
91.0190232615
 10
144.1319771045
 20
90.9835793866
 10
144.1554537782
 20
90.9496038974
 10
144.1802151799
 20
90.9170885567
 10
144.2061972777
 20
90.886072114
 10
144.2333398974
 20
90.8565829205
 10
144.2616206449
 20
90.8286104227
 10
144.2909745202
 20
90.8021900758
 10
144.3213322531
 20
90.777352227
 10
144.3526681791
 20
90.7540905876
 10
144.3849278205
 20
90.7324250206
 10
144.4160826271
 20
90.7135100622
  0
LWPOLYLINE
  5
224
100
AcDbEntity
  8
RACCORDO
100
AcDbPolyline
 62
7
  6
CONTINUOUS
 90
13
 70
0
 10
143.9633961444
 20
125.1298584999
 10
143.9175389312
 20
123.7375768869
 10
143.8752140636
 20
122.3351581298
 10
143.8368448433
 20
120.9349377765
 10
143.8024318282
 20
119.5369336749
 10
143.771975408
 20
118.1411615258
 10
143.7454759249
 20
116.7476361272
 10
143.7229337232
 20
115.3563728926
 10
143.7043490766
 20
113.9673872846
 10
143.6897222326
 20
112.5806941804
 10
143.6790534276
 20
111.1963091091
 10
143.6723428028
 20
109.8142494927
 10
143.6695988324
 20
108.4490596551
  0
LWPOLYLINE
  5
225
100
AcDbEntity
  8
RACCORDO
100
AcDbPolyline
 62
250
  6
CONTINUOUS
 90
37
 70
0
 10
144.1098473118
 20
124.9255225793
 10
144.1124966552
 20
124.9772423485
 10
144.1169050986
 20
125.0298327043
 10
144.1230651811
 20
125.0832051851
 10
144.1309662239
 20
125.1372698537
 10
144.1405950323
 20
125.1919359675
 10
144.1519360098
 20
125.2471121597
 10
144.1649700914
 20
125.3027066743
 10
144.1796751288
 20
125.3586251161
 10
144.196026487
 20
125.4147711168
 10
144.2139958803
 20
125.4710495108
 10
144.2335529875
 20
125.5273665492
 10
144.2546658804
 20
125.5836276604
 10
144.2772985339
 20
125.6397384464
 10
144.3014124842
 20
125.6956045997
 10
144.3269683694
 20
125.7511320766
 10
144.3539228216
 20
125.8062280865
 10
144.3822298864
 20
125.8607997089
 10
144.4118427526
 20
125.9147538182
 10
144.4427109058
 20
125.9679999375
 10
144.4747818416
 20
126.0204487062
 10
144.508002477
 20
126.0720105251
 10
144.5423158839
 20
126.1225986645
 10
144.5776638691
 20
126.1721286752
 10
144.6139886573
 20
126.2205168513
 10
144.6512283065
 20
126.2676821347
 10
144.6893194442
 20
126.3135455096
 10
144.7281998713
 20
126.3580293548
 10
144.7678039351
 20
126.4010598191
 10
144.8080636511
 20
126.442564118
 10
144.8489114332
 20
126.4824700216
 10
144.8902768494
 20
126.5207102121
 10
144.932090178
 20
126.5572216265
 10
144.9742835474
 20
126.5919426847
 10
145.0167862099
 20
126.6248151572
 10
145.0595246325
 20
126.6557843907
 10
145.1024260057
 20
126.6847987223
  0
LWPOLYLINE
  5
226
100
AcDbEntity
  8
RACCORDO
100
AcDbPolyline
 62
250
  6
CONTINUOUS
 90
14
 70
0
 10
143.9636656607
 20
91.5461989945
 10
143.9655815557
 20
91.528986611
 10
143.9691437422
 20
91.5119066463
 10
143.9743404332
 20
91.495015618
 10
143.9811544328
 20
91.4783694183
 10
143.9895631935
 20
91.4620231293
 10
143.9995388907
 20
91.4460308408
 10
144.0110485151
 20
91.4304454711
 10
144.0240539813
 20
91.4153185921
 10
144.0385122544
 20
91.4007002585
 10
144.0543754921
 20
91.3866388423
 10
144.071591203
 20
91.3731808725
 10
144.0901024205
 20
91.3603708815
 10
144.1098478911
 20
91.3482512574
  0
LWPOLYLINE
  5
227
100
AcDbEntity
  8
RACCORDO
100
AcDbPolyline
 62
250
  6
CONTINUOUS
 90
16
 70
0
 10
143.6696178634
 20
108.4464553428
 10
143.670513997
 20
108.4315963722
 10
143.6727480641
 20
108.4167798931
 10
143.6763140412
 20
108.4020453855
 10
143.6812022752
 20
108.387432635
 10
143.6873996624
 20
108.3729808332
 10
143.6948897664
 20
108.3587280731
 10
143.7036529324
 20
108.3447121368
 10
143.7136654727
 20
108.3309713126
 10
143.7248995633
 20
108.3175434216
 10
143.7373238672
 20
108.3044653944
 10
143.7509056278
 20
108.2917713074
 10
143.7656102615
 20
108.2794933447
 10
143.7813993037
 20
108.2676639611
 10
143.798230001
 20
108.2563156111
 10
143.8160574282
 20
108.2454788339
  0
LWPOLYLINE
  5
228
100
AcDbEntity
  8
RACCORDO
100
AcDbPolyline
 62
250
  6
CONTINUOUS
 90
13
 70
0
 10
144.1098473036
 20
91.3482676403
 10
144.0636708645
 20
92.6954230068
 10
144.0214382057
 20
94.0450813456
 10
143.9831495526
 20
95.3972271601
 10
143.9488053197
 20
96.7518352476
 10
143.918405349
 20
98.1088997043
 10
143.8919491954
 20
99.4684340991
 10
143.869436744
 20
100.8304224459
 10
143.850868661
 20
102.1948498104
 10
143.8362461413
 20
103.5617316205
 10
143.8255699873
 20
104.9310628406
 10
143.8188402985
 20
106.3028177879
 10
143.8160574264
 20
107.6769810411
  0
LWPOLYLINE
  5
229
100
AcDbEntity
  8
RACCORDO
100
AcDbPolyline
 62
250
  6
CONTINUOUS
 90
12
 70
0
 10
143.8160457783
 20
108.2454855524
 10
143.8164298688
 20
108.2335662992
 10
143.8175946566
 20
108.2221643868
 10
143.819533694
 20
108.2113429293
 10
143.8222362478
 20
108.2011618279
 10
143.8256873582
 20
108.191677439
 10
143.8298679219
 20
108.1829422624
 10
143.8347547979
 20
108.1750046508
 10
143.8403209354
 20
108.1679085421
 10
143.8465355236
 20
108.1616932161
 10
143.8533641622
 20
108.156393077
 10
143.8574519218
 20
108.1538304352
  0
LWPOLYLINE
  5
22A
100
AcDbEntity
  8
RACCORDO
100
AcDbPolyline
 62
250
  6
CONTINUOUS
 90
15
 70
0
 10
143.9633955434
 20
125.1298409499
 10
143.9636659366
 20
125.1141277415
 10
143.9655818418
 20
125.098213069
 10
143.9691440371
 20
125.0823463856
 10
143.9743407351
 20
125.0665801942
 10
143.9811547402
 20
125.0509666648
 10
143.9895635047
 20
125.0355574624
 10
143.9995392043
 20
125.0204035759
 10
144.0110488294
 20
125.0055551494
 10
144.0240542948
 20
124.9910613161
 10
144.0385125655
 20
124.976970036
 10
144.0543757994
 20
124.963327937
 10
144.0715915051
 20
124.9501801606
 10
144.0901027161
 20
124.9375702126
 10
144.109848179
 20
124.9255398193
  0
LWPOLYLINE
  5
22B
100
AcDbEntity
  8
RACCORDO
100
AcDbPolyline
 62
7
  6
CONTINUOUS
 90
21
 70
0
 10
143.6695989422
 20
108.4491470054
 10
143.6696179299
 20
108.4455044122
 10
143.6703410416
 20
108.4278550073
 10
143.6721231121
 20
108.4101438305
 10
143.6749790075
 20
108.3924241334
 10
143.6789239705
 20
108.3747367291
 10
143.6839677326
 20
108.3571415201
 10
143.6901140776
 20
108.3396993508
 10
143.6973700828
 20
108.3224484027
 10
143.7057374214
 20
108.3054390579
 10
143.7152092146
 20
108.2887322072
 10
143.7257832106
 20
108.272371675
 10
143.737453002
 20
108.2564001866
 10
143.7502062664
 20
108.2408647821
 10
143.7640373585
 20
108.22580208
 10
143.7789363691
 20
108.2112503475
 10
143.7948994941
 20
108.1972381377
 10
143.8119459429
 20
108.183778978
 10
143.8300881027
 20
108.1708984989
 10
143.8493134774
 20
108.1586378006
 10
143.857452147
 20
108.1538308249
  0
LWPOLYLINE
  5
22C
100
AcDbEntity
  8
RACCORDO
100
AcDbPolyline
 62
7
  6
CONTINUOUS
 90
13
 70
0
 10
143.6695988331
 20
107.8816865947
 10
143.6723465958
 20
106.5186736535
 10
143.6790605417
 20
105.1446086468
 10
143.68973288
 20
103.7729382665
 10
143.7043635414
 20
102.4036798086
 10
143.722952361
 20
101.0368485606
 10
143.7454991636
 20
99.6724591424
 10
143.7720037469
 20
98.3105267327
 10
143.802465839
 20
96.9510663748
 10
143.8368851696
 20
95.594092491
 10
143.8752614213
 20
94.2396203557
 10
143.917594108
 20
92.8876671958
 10
143.9634218082
 20
91.5511292018
  0
LWPOLYLINE
  5
22D
100
AcDbEntity
  8
RACCORDO
100
AcDbPolyline
 62
250
  6
CONTINUOUS
 90
13
 70
0
 10
143.8160574262
 20
108.245478827
 10
143.8188402984
 20
109.6229819304
 10
143.8255699873
 20
111.00279311
 10
143.8362461413
 20
112.3848965388
 10
143.850868661
 20
113.7692654305
 10
143.869436744
 20
115.1558948114
 10
143.8919491954
 20
116.5448016941
 10
143.918405349
 20
117.9359713627
 10
143.9488053197
 20
119.3293869762
 10
143.9831495526
 20
120.7250626178
 10
144.0214382057
 20
122.1229925666
 10
144.0636708645
 20
123.5231511409
 10
144.1098473036
 20
124.9255225839
  0
LWPOLYLINE
  5
22E
100
AcDbEntity
  8
RACCORDO
100
AcDbPolyline
 62
250
  6
CONTINUOUS
 90
22
 70
0
 10
143.8160457783
 20
107.6769877665
 10
143.8164298698
 20
107.6893505753
 10
143.8175946605
 20
107.7020975728
 10
143.8195337027
 20
107.715158199
 10
143.822236263
 20
107.7284601582
 10
143.8256873812
 20
107.7419298183
 10
143.8298679536
 20
107.7554926185
 10
143.8347548388
 20
107.769073483
 10
143.8403209855
 20
107.7825972364
 10
143.8465355825
 20
107.7959890186
 10
143.8533642291
 20
107.8091747008
 10
143.8607691256
 20
107.8220812951
 10
143.8687092826
 20
107.8346373581
 10
143.8771407476
 20
107.8467733872
 10
143.8860168491
 20
107.858422205
 10
143.8952884538
 20
107.8695193308
 10
143.9049042395
 20
107.880003338
 10
143.9148109788
 20
107.8898161939
 10
143.9249538341
 20
107.8989035812
 10
143.9352766603
 20
107.9072151979
 10
143.9457223167
 20
107.9147050368
 10
143.9562329826
 20
107.9213316393
  0
LWPOLYLINE
  5
22F
100
AcDbEntity
  8
RACCORDO
100
AcDbPolyline
 62
250
  6
CONTINUOUS
 90
37
 70
0
 10
160.0691336602
 20
118.0432093001
 10
160.025219208
 20
118.0147799079
 10
159.9814749675
 20
117.9843914213
 10
159.9379737484
 20
117.952095503
 10
159.8947874447
 20
117.9179477528
 10
159.851988443
 20
117.8820054536
 10
159.8096495316
 20
117.8443273471
 10
159.7678404592
 20
117.8049764805
 10
159.7266316306
 20
117.7640201873
 10
159.6860954685
 20
117.7215279049
 10
159.6463000681
 20
117.6775723538
 10
159.6073109712
 20
117.6322274493
 10
159.5691948803
 20
117.5855682124
 10
159.5320152711
 20
117.5376735991
 10
159.4958339824
 20
117.4886247275
 10
159.4607129827
 20
117.4385028821
 10
159.4267105908
 20
117.3873924396
 10
159.3938836093
 20
117.3353802022
 10
159.3622889372
 20
117.2825535657
 10
159.3319792295
 20
117.2290018039
 10
159.3030048501
 20
117.1748154807
 10
159.2754159762
 20
117.1200857779
 10
159.2492587319
 20
117.0649055181
 10
159.2245763153
 20
117.0093675901
 10
159.2014109446
 20
116.9535643883
 10
159.179801264
 20
116.8975901162
 10
159.1597831181
 20
116.8415392757
 10
159.1413907503
 20
116.7855051018
 10
159.1246546678
 20
116.729581236
 10
159.1096029704
 20
116.6738629514
 10
159.0962620508
 20
116.6184456011
 10
159.084654267
 20
116.5634234595
 10
159.0747984743
 20
116.5088884036
 10
159.0667113983
 20
116.4549311482
 10
159.06040661
 20
116.4016422185
 10
159.0558944118
 20
116.3491117692
 10
159.0531822647
 20
116.2974282619
  0
LWPOLYLINE
  5
230
100
AcDbEntity
  8
RACCORDO
100
AcDbPolyline
 62
250
  6
CONTINUOUS
 90
37
 70
0
 10
160.4349540116
 20
117.4385407313
 10
160.405437934
 20
117.4196309154
 10
160.3761305107
 20
117.3994850329
 10
160.3470317416
 20
117.3781030841
 10
160.3180927291
 20
117.3554446141
 10
160.2893623708
 20
117.3315500776
 10
160.2609873598
 20
117.3065408388
 10
160.2329698187
 20
117.2804113162
 10
160.2053076249
 20
117.2531670913
 10
160.1781411043
 20
117.2249462722
 10
160.1514731889
 20
117.1957443054
 10
160.1253009466
 20
117.1655657445
 10
160.0997559079
 20
117.1345623581
 10
160.0748411916
 20
117.1027299933
 10
160.0505536789
 20
117.0700728031
 10
160.0270155425
 20
117.0367550151
 10
160.0042304129
 20
117.0027730634
 10
159.9821946597
 20
116.9681305139
 10
159.9610195645
 20
116.9330022917
 10
159.9407095197
 20
116.8973859443
 10
159.921260133
 20
116.8612839242
 10
159.9027695083
 20
116.8248785143
 10
159.8852426136
 20
116.7881684443
 10
159.8686744809
 20
116.7511549845
 10
159.8531483099
 20
116.7140242286
 10
159.8386693165
 20
116.6767756177
 10
159.8252322849
 20
116.6394097108
 10
159.8129047672
 20
116.6021142781
 10
159.8016922501
 20
116.5648891203
 10
159.791589247
 20
116.5277344368
 10
159.7826468494
 20
116.4908385961
 10
159.7748710143
 20
116.4542022986
 10
159.7682557848
 20
116.4178248438
 10
159.7628343818
 20
116.381892499
 10
159.7586178788
 20
116.3464673531
 10
159.7555952023
 20
116.3114873171
 10
159.7537663523
 20
116.276952391
  0
LWPOLYLINE
  5
231
100
AcDbEntity
  8
RACCORDO
100
AcDbPolyline
 62
7
  6
CONTINUOUS
 90
19
 70
0
 10
143.8370693429
 20
108.1664463162
 10
143.835934285
 20
108.1657284448
 10
143.8169993608
 20
108.1525790946
 10
143.7991164609
 20
108.1387299868
 10
143.7822970858
 20
108.1242012257
 10
143.7665602156
 20
108.1090218921
 10
143.7519427144
 20
108.0932400913
 10
143.7384598919
 20
108.0768860958
 10
143.7261328335
 20
108.0600027005
 10
143.7150079805
 20
108.042678744
 10
143.7051009844
 20
108.0249743927
 10
143.6964165107
 20
108.0069425411
 10
143.6889729303
 20
107.9886849953
 10
143.6827653971
 20
107.9702758404
 10
143.6777807685
 20
107.951780268
 10
143.6740068363
 20
107.9333011388
 10
143.6714141275
 20
107.9149214849
 10
143.6699639269
 20
107.8966982024
 10
143.6695988851
 20
107.8816465833
  0
LINE
  5
232
100
AcDbEntity
  8
RACCORDO
100
AcDbLine
 62
250
  6
CONTINUOUS
 10
162.273652098
 20
119.4035112702
 11
160.0691337323
 21
118.0432092586
  0
LINE
  5
233
100
AcDbEntity
  8
RACCORDO
100
AcDbLine
 62
250
  6
CONTINUOUS
 10
162.6582788927
 20
118.810447337
 11
160.4349540116
 21
117.4385407313
  0
LWPOLYLINE
  5
234
100
AcDbEntity
  8
RACCORDO
100
AcDbPolyline
 62
250
  6
CONTINUOUS
 90
28
 70
0
 10
159.7537663523
 20
116.276952391
 10
159.7325281658
 20
116.2667399711
 10
159.7102109469
 20
116.2572485187
 10
159.686888543
 20
116.2485094409
 10
159.6626381279
 20
116.2405516552
 10
159.6375399459
 20
116.2334014939
 10
159.6116770468
 20
116.2270826169
 10
159.5851350105
 20
116.2216159331
 10
159.5580016646
 20
116.2170195319
 10
159.530366793
 20
116.2133086227
 10
159.5023218392
 20
116.2104954848
 10
159.4739596039
 20
116.2085894269
 10
159.4453739374
 20
116.2075967562
 10
159.4166594295
 20
116.2075207574
 10
159.3879110962
 20
116.2083616819
 10
159.3592240655
 20
116.2101167471
 10
159.3306932625
 20
116.2127801456
 10
159.3024130955
 20
116.2163430642
 10
159.2744771433
 20
116.2207937132
 10
159.2469778458
 20
116.2261173654
 10
159.2200061978
 20
116.232296405
 10
159.1936514484
 20
116.2393103855
 10
159.1680008051
 20
116.2471360978
 10
159.1431391458
 20
116.2557476466
 10
159.1191487375
 20
116.2651165363
 10
159.0961089642
 20
116.2752117655
 10
159.0740960644
 20
116.285999929
 10
159.0531828785
 20
116.297445329
  0
LINE
  5
235
100
AcDbEntity
  8
DRAFT
100
AcDbLine
 62
7
  6
CONTINUOUS
 10
149.2310880729
 20
126.9341242765
 11
149.2524224519
 21
126.3138989285
  0
LWPOLYLINE
  5
236
100
AcDbEntity
  8
RACCORDO
100
AcDbPolyline
 62
250
  6
CONTINUOUS
 90
12
 70
0
 10
150.1374012884
 20
104.5956141053
 10
150.1377853759
 20
104.5836948969
 10
150.1389501553
 20
104.5722930206
 10
150.14088918
 20
104.5614715906
 10
150.1435917179
 20
104.5512905083
 10
150.1470428102
 20
104.5418061304
 10
150.1512233548
 20
104.5330709573
 10
150.1561102117
 20
104.5251333425
 10
150.1616763311
 20
104.5180372247
 10
150.1678909032
 20
104.5118218848
 10
150.1747195285
 20
104.5065217281
 10
150.1788177777
 20
104.5039530141
  0
LINE
  5
237
100
AcDbEntity
  8
RACCORDO
100
AcDbLine
 62
250
  6
CONTINUOUS
 10
149.0495575886
 20
126.5169644161
 11
149.0495575886
 21
126.4543606328
  0
LWPOLYLINE
  5
238
100
AcDbEntity
  8
RACCORDO
100
AcDbPolyline
 62
250
  6
CONTINUOUS
 90
22
 70
0
 10
150.1374012884
 20
104.0271163209
 10
150.1377853789
 20
104.0394791122
 10
150.1389501667
 20
104.0522260922
 10
150.1408892042
 20
104.0652867014
 10
150.1435917579
 20
104.0785886441
 10
150.1470428683
 20
104.0920582887
 10
150.1512234321
 20
104.1056210754
 10
150.1561103081
 20
104.1192019288
 10
150.1616764455
 20
104.1327256735
 10
150.1678910336
 20
104.14611745
 10
150.1747196722
 20
104.1593031297
 10
150.1821245619
 20
104.1722097246
 10
150.1900647139
 20
104.1847657914
 10
150.1984961762
 20
104.1969018274
 10
150.2073722773
 20
104.2085506547
 10
150.2166438844
 20
104.2196477925
 10
150.2262596755
 20
104.2301318138
 10
150.2361664234
 20
104.2399446851
 10
150.2463092902
 20
104.2490320885
 10
150.2566321313
 20
104.2573437215
 10
150.2670778055
 20
104.2648335759
 10
150.2775884918
 20
104.2714601924
  0
LINE
  5
239
100
AcDbEntity
  8
RACCORDO
100
AcDbLine
 62
7
  6
CONTINUOUS
 10
157.1506840222
 20
122.3614488313
 11
156.9691535379
 21
121.9442889709
  0
LWPOLYLINE
  5
23A
100
AcDbEntity
  8
RACCORDO
100
AcDbPolyline
 62
250
  6
CONTINUOUS
 90
25
 70
0
 10
150.482072845
 20
103.9738171098
 10
150.4786567718
 20
103.9884193344
 10
150.4746539137
 20
104.0031363504
 10
150.4700759882
 20
104.0179249982
 10
150.4649364344
 20
104.03274194
 10
150.4592502669
 20
104.0475436471
 10
150.4530340398
 20
104.0622865284
 10
150.4463057742
 20
104.0769276603
 10
150.4390853606
 20
104.0914236573
 10
150.4313945307
 20
104.105730705
 10
150.4232562342
 20
104.1198062662
 10
150.4146941692
 20
104.1336095841
 10
150.4057332232
 20
104.1471005494
 10
150.3963997194
 20
104.1602394989
 10
150.3867210627
 20
104.1729878832
 10
150.3767253163
 20
104.1853087332
 10
150.366441344
 20
104.1971662586
 10
150.3558997206
 20
104.2085250629
 10
150.3451323626
 20
104.2193508746
 10
150.3341714369
 20
104.2296114314
 10
150.3230485897
 20
104.2392772284
 10
150.3117958203
 20
104.2483206232
 10
150.3004458994
 20
104.256715197
 10
150.2890323052
 20
104.2644359735
 10
150.2775884918
 20
104.2714601924
  0
LWPOLYLINE
  5
23B
100
AcDbEntity
  8
RACCORDO
100
AcDbPolyline
 62
250
  6
CONTINUOUS
 90
25
 70
0
 10
150.2055897853
 20
103.9278923913
 10
150.2044593101
 20
103.9327902679
 10
150.2031403974
 20
103.9376978831
 10
150.2016330448
 20
103.9426152353
 10
150.1999317112
 20
103.9475570852
 10
150.1980419327
 20
103.9525086692
 10
150.1959803212
 20
103.9574256994
 10
150.1937453263
 20
103.9623077572
 10
150.191338492
 20
103.9671552575
 10
150.1887810703
 20
103.971925162
 10
150.1860716877
 20
103.9766167263
 10
150.1832117108
 20
103.9812306909
 10
150.1802265011
 20
103.9857262446
 10
150.1771150727
 20
103.9901021546
 10
150.1738784049
 20
103.9943596499
 10
150.170544806
 20
103.9984616124
 10
150.1671133343
 20
104.0024067551
 10
150.1635849258
 20
104.0061963617
 10
150.159990706
 20
104.0097971698
 10
150.1563300931
 20
104.0132075116
 10
150.1526036647
 20
104.0164290526
 10
150.1488442845
 20
104.0194335307
 10
150.1450629065
 20
104.022211525
 10
150.1412485747
 20
104.0247724551
 10
150.1374012884
 20
104.0271163209
  0
LWPOLYLINE
  5
23C
100
AcDbEntity
  8
RACCORDO
100
AcDbPolyline
 62
250
  6
CONTINUOUS
 90
64
 70
0
 10
150.2055897853
 20
104.6161878793
 10
150.2185879907
 20
104.6589774104
 10
150.2333916766
 20
104.7001069412
 10
150.2500006461
 20
104.7395763576
 10
150.268445172
 20
104.7774875773
 10
150.2886946197
 20
104.8137384726
 10
150.3106573259
 20
104.8480228007
 10
150.3343552022
 20
104.8803172382
 10
150.3597657553
 20
104.9106447725
 10
150.3867305216
 20
104.9387685157
 10
150.4152644737
 20
104.9646592013
 10
150.4453519197
 20
104.9883456811
 10
150.4767882534
 20
105.009678161
 10
150.5095624966
 20
105.0286262258
 10
150.5436848472
 20
105.0452198415
 10
150.5789823811
 20
105.0593997394
 10
150.6154492736
 20
105.0711571544
 10
150.6530906058
 20
105.0805004239
 10
150.6917497803
 20
105.0873959151
 10
150.7314415182
 20
105.0918381074
 10
150.7721504318
 20
105.0938321384
 10
150.8136747471
 20
105.0933603547
 10
150.8560266094
 20
105.0904079218
 10
150.899193304
 20
105.0849893473
 10
150.9429357699
 20
105.0771309931
 10
150.9872524689
 20
105.0668185578
 10
151.0321445024
 20
105.0540660921
 10
151.077376791
 20
105.0389424999
 10
151.1229477782
 20
105.0214366272
 10
151.1688587477
 20
105.0015594713
 10
151.2148789193
 20
104.9794131856
 10
151.2610081112
 20
104.9549874584
 10
151.3072464125
 20
104.928292548
 10
151.3533634934
 20
104.899461488
 10
151.3993593686
 20
104.8684839881
 10
151.4452341159
 20
104.8353703916
 10
151.4907575449
 20
104.8002847087
 10
151.5359310461
 20
104.7632144842
 10
151.5807535018
 20
104.7241723299
 10
151.6249909968
 20
104.6833598786
 10
151.6686451559
 20
104.6407614785
 10
151.7117147911
 20
104.5963930322
 10
151.7539617917
 20
104.5505035167
 10
151.7953742675
 20
104.5030923215
 10
151.8359646781
 20
104.4541603842
 10
151.8755314398
 20
104.4039590062
 10
151.9140595418
 20
104.3525005994
 10
151.9515646613
 20
104.2997731349
 10
151.9878912337
 20
104.2459912453
 10
152.0230443891
 20
104.1911414713
 10
152.05701974
 20
104.1352376992
 10
152.0896474137
 20
104.0785355622
 10
152.1209384289
 20
104.0209932673
 10
152.1508825469
 20
103.9626530566
 10
152.179277928
 20
103.9038965684
 10
152.2061102225
 20
103.8447116034
 10
152.2313945011
 20
103.7851107767
 10
152.2549729098
 20
103.725512864
 10
152.2768237132
 20
103.6659197016
 10
152.2969692308
 20
103.6063297908
 10
152.3153174973
 20
103.5471567942
 10
152.3318379379
 20
103.4885386464
 10
152.3465614909
 20
103.4303376235
 10
152.3594883539
 20
103.3725538404
  0
LWPOLYLINE
  5
23D
100
AcDbEntity
  8
RACCORDO
100
AcDbPolyline
 62
250
  6
CONTINUOUS
 90
14
 70
0
 10
150.4820729114
 20
104.5747569295
 10
150.4934261644
 20
104.6119982313
 10
150.5063657439
 20
104.6479411844
 10
150.5208892037
 20
104.6825079249
 10
150.5370016315
 20
104.7156413356
 10
150.5546857222
 20
104.7472439773
 10
150.5738927435
 20
104.7771885104
 10
150.5946005581
 20
104.8054126624
 10
150.616782978
 20
104.8318550554
 10
150.6403648884
 20
104.8564128902
 10
150.66530435
 20
104.8790391303
 10
150.6915627212
 20
104.8996955911
 10
150.7190525562
 20
104.9183170736
 10
150.7370714992
 20
104.9290437293
  0
LWPOLYLINE
  5
23E
100
AcDbEntity
  8
0
100
AcDbPolyline
 62
7
  6
CONTINUOUS
 90
11
 70
0
 10
150.9104085972
 20
104.8149303794
 10
150.9070717715
 20
104.8041503558
 10
150.903157941
 20
104.7939764366
 10
150.8986671059
 20
104.7844086218
 10
150.8935756753
 20
104.7754109219
 10
150.8879072401
 20
104.7670193265
 10
150.8817325721
 20
104.7593418041
 10
150.8750644188
 20
104.7524038442
 10
150.8678900328
 20
104.7461799574
 10
150.8602419442
 20
104.7407016441
 10
150.8546680058
 20
104.7373475985
  0
LWPOLYLINE
  5
23F
100
AcDbEntity
  8
0
100
AcDbPolyline
 62
7
  6
CONTINUOUS
 90
6
 70
0
 10
150.9741704234
 20
104.9728108236
 10
150.9655539241
 20
104.9573819209
 10
150.9494448824
 20
104.9241658502
 10
150.9348984046
 20
104.8893773743
 10
150.9218863095
 20
104.8529655507
 10
150.9104085972
 20
104.8149303794
  0
LWPOLYLINE
  5
240
100
AcDbEntity
  8
RACCORDO
100
AcDbPolyline
 62
250
  6
CONTINUOUS
 90
22
 70
0
 10
150.2055897854
 20
103.9278923913
 10
150.2161093748
 20
103.9255040651
 10
150.2273531167
 20
103.9235814316
 10
150.2392588104
 20
103.922135127
 10
150.251760593
 20
103.9211731523
 10
150.264789304
 20
103.9207008293
 10
150.278272868
 20
103.9207207707
 10
150.2921366934
 20
103.9212328664
 10
150.3063040849
 20
103.9222342833
 10
150.3206966677
 20
103.9237194816
 10
150.3352348215
 20
103.9256802451
 10
150.3498381205
 20
103.9281057268
 10
150.3644257787
 20
103.9309825087
 10
150.3789170965
 20
103.9342946765
 10
150.3932319072
 20
103.938023907
 10
150.4072910206
 20
103.9421495699
 10
150.4210166612
 20
103.946648842
 10
150.4343328979
 20
103.9514968331
 10
150.4471660649
 20
103.9566667238
 10
150.4594451685
 20
103.962129914
 10
150.47110228
 20
103.9678561812
 10
150.4820729119
 20
103.9738138475
  0
LWPOLYLINE
  5
241
100
AcDbEntity
  8
RACCORDO
100
AcDbPolyline
 62
250
  6
CONTINUOUS
 90
11
 70
0
 10
152.3594883541
 20
103.3725538405
 10
152.3497464332
 20
103.3753911828
 10
152.3408407558
 20
103.3786637855
 10
152.3328205884
 20
103.3823535442
 10
152.3257302989
 20
103.3864400472
 10
152.3196091112
 20
103.3909006876
 10
152.3144908879
 20
103.395710789
 10
152.3104039433
 20
103.4008437418
 10
152.3073708865
 20
103.4062711502
 10
152.3054084965
 20
103.4119629894
 10
152.3051687147
 20
103.4130148785
  0
LWPOLYLINE
  5
242
100
AcDbEntity
  8
RACCORDO
100
AcDbPolyline
 62
7
  6
CONTINUOUS
 90
18
 70
0
 10
150.1788265665
 20
104.5039489164
 10
150.1931606271
 20
104.4961993233
 10
150.2086194827
 20
104.4889743392
 10
150.2242194279
 20
104.4828137049
 10
150.2398990178
 20
104.4777134652
 10
150.2556219295
 20
104.4736597257
 10
150.2713622029
 20
104.4706375312
 10
150.2870420744
 20
104.4686386619
 10
150.3026141246
 20
104.4676451801
 10
150.3180795698
 20
104.4676395101
 10
150.3333704851
 20
104.4686064069
 10
150.3484266768
 20
104.4705234445
 10
150.3632515381
 20
104.4733774482
 10
150.3777791959
 20
104.4771464663
 10
150.3919515078
 20
104.481803341
 10
150.4057766545
 20
104.4873423217
 10
150.4192155253
 20
104.4937468643
 10
150.4262135289
 20
104.497512027
  0
LWPOLYLINE
  5
243
100
AcDbEntity
  8
RACCORDO
100
AcDbPolyline
 62
250
  6
CONTINUOUS
 90
16
 70
0
 10
152.5677842021
 20
102.9491298922
 10
152.5562426075
 20
102.9553771597
 10
152.544738814
 20
102.9608885957
 10
152.5333066741
 20
102.9656480983
 10
152.5219801274
 20
102.9696417176
 10
152.510792175
 20
102.9728578966
 10
152.499774818
 20
102.9752873249
 10
152.4889599262
 20
102.9769228337
 10
152.478379921
 20
102.977759393
 10
152.4680667093
 20
102.9777944235
 10
152.4580509632
 20
102.9770279586
 10
152.4483616849
 20
102.9754623771
 10
152.4390269296
 20
102.9731022465
 10
152.4300740858
 20
102.9699544789
 10
152.4215294933
 20
102.9660283307
 10
152.4164141038
 20
102.9631880837
  0
LWPOLYLINE
  5
244
100
AcDbEntity
  8
RACCORDO
100
AcDbPolyline
 62
250
  6
CONTINUOUS
 90
25
 70
0
 10
152.4275969987
 20
102.7047860207
 10
152.4237498603
 20
102.7068848193
 10
152.4199359616
 20
102.7087283338
 10
152.4161553033
 20
102.7103165646
 10
152.4123969348
 20
102.7116527402
 10
152.4086718088
 20
102.7127336334
 10
152.405012781
 20
102.7135495604
 10
152.4014204349
 20
102.7140981854
 10
152.3978941912
 20
102.7143818466
 10
152.3944651608
 20
102.7143978718
 10
152.3911342878
 20
102.7141438919
 10
152.3879006337
 20
102.7136222793
 10
152.384792487
 20
102.7128374741
 10
152.3818108354
 20
102.7117871113
 10
152.3789546976
 20
102.7104735596
 10
152.3762494078
 20
102.7089083594
 10
152.3736963412
 20
102.7070891867
 10
152.3712941293
 20
102.7050183694
 10
152.3690639894
 20
102.7027144245
 10
152.3670074734
 20
102.7001751495
 10
152.3651230358
 20
102.6974027506
 10
152.3634272459
 20
102.6944223572
 10
152.3619256284
 20
102.6912423467
 10
152.3606126635
 20
102.6878543446
 10
152.3594883539
 20
102.6842583524
  0
LWPOLYLINE
  5
245
100
AcDbEntity
  8
RACCORDO
100
AcDbPolyline
 62
250
  6
CONTINUOUS
 90
25
 70
0
 10
150.1374012884
 20
104.5956141053
 10
150.1412485747
 20
104.5935153921
 10
150.1450629065
 20
104.5916721277
 10
150.1488442845
 20
104.5900843125
 10
150.1526036647
 20
104.588748721
 10
150.1563300931
 20
104.5876685798
 10
150.159990706
 20
104.5868535679
 10
150.1635849258
 20
104.5863060249
 10
150.1671133342
 20
104.5860236136
 10
150.170544806
 20
104.586008998
 10
150.1738784049
 20
104.5862645517
 10
150.1771150727
 20
104.5867879045
 10
150.1802265011
 20
104.5875746045
 10
150.1832117108
 20
104.5886270217
 10
150.1860716877
 20
104.58994279
 10
150.1887810703
 20
104.5915103533
 10
150.191338492
 20
104.5933320406
 10
150.1937453263
 20
104.5954055268
 10
150.1959803212
 20
104.5977122749
 10
150.1980419327
 20
104.600254492
 10
150.1999317112
 20
104.6030299747
 10
150.2016330447
 20
104.6060135689
 10
150.2031403974
 20
104.6091968908
 10
150.2044593101
 20
104.6125883271
 10
150.2055897853
 20
104.6161878793
  0
LWPOLYLINE
  5
246
100
AcDbEntity
  8
RACCORDO
100
AcDbPolyline
 62
7
  6
CONTINUOUS
 90
25
 70
0
 10
158.7903624184
 20
99.5317555869
 10
158.8103083491
 20
99.5208445761
 10
158.8342554829
 20
99.5092097088
 10
158.858847668
 20
99.4987367823
 10
158.8840290969
 20
99.4893946835
 10
158.9097497231
 20
99.4811583839
 10
158.9359379615
 20
99.4740154707
 10
158.9625381157
 20
99.4679508054
 10
158.9895003744
 20
99.4629556789
 10
159.0167330018
 20
99.4590280934
 10
159.0441805076
 20
99.4561625002
 10
159.0717910572
 20
99.4543560671
 10
159.0994649122
 20
99.4536090543
 10
159.127147071
 20
99.4539216917
 10
159.1547825046
 20
99.4552944036
 10
159.1822714318
 20
99.4577285691
 10
159.2095621154
 20
99.4612274146
 10
159.2365990977
 20
99.4657974716
 10
159.2632907786
 20
99.4714418182
 10
159.2895873105
 20
99.478169767
 10
159.315433429
 20
99.485997355
 10
159.3407584947
 20
99.4949379302
 10
159.3655127345
 20
99.5050173955
 10
159.3896403996
 20
99.5162669369
 10
159.4069864526
 20
99.525326693
  0
LWPOLYLINE
  5
247
100
AcDbEntity
  8
RACCORDO
100
AcDbPolyline
 62
250
  6
CONTINUOUS
 90
31
 70
0
 10
158.7489408626
 20
99.6234190919
 10
158.7677150069
 20
99.6131225804
 10
158.7873854895
 20
99.6033956065
 10
158.8078994115
 20
99.5942641134
 10
158.8292006582
 20
99.5857527319
 10
158.8512329005
 20
99.5778837401
 10
158.8739400641
 20
99.5706772982
 10
158.8972631845
 20
99.5641522886
 10
158.9211382014
 20
99.5583268619
 10
158.9454990459
 20
99.5532174097
 10
158.9702794354
 20
99.5488375911
 10
158.9954138371
 20
99.5451988107
 10
159.0208355139
 20
99.5423109985
 10
159.0464766092
 20
99.5401817086
 10
159.0722681119
 20
99.5388165748
 10
159.0981406913
 20
99.5382196261
 10
159.1240249919
 20
99.538392249
 10
159.1498516201
 20
99.5393338177
 10
159.1755511398
 20
99.5410422033
 10
159.2010543736
 20
99.5435125391
 10
159.226293252
 20
99.546738004
 10
159.2512007704
 20
99.5507105065
 10
159.2757110738
 20
99.5554193756
 10
159.299757458
 20
99.560851668
 10
159.3232733434
 20
99.5669927827
 10
159.3461941152
 20
99.573825305
 10
159.3684602593
 20
99.5813309631
 10
159.3900151187
 20
99.5894911716
 10
159.4108017021
 20
99.5982845915
 10
159.430763148
 20
99.6076868879
 10
159.4498457767
 20
99.6176726985
  0
LINE
  5
248
100
AcDbEntity
  8
RACCORDO
100
AcDbLine
 62
250
  6
CONTINUOUS
 10
158.7489408608
 20
99.054921299
 11
152.4275969987
 21
102.7047860207
  0
LINE
  5
249
100
AcDbEntity
  8
RACCORDO
100
AcDbLine
 62
250
  6
CONTINUOUS
 10
150.1374012884
 20
104.0271163209
 11
143.8160574264
 21
107.6769810411
  0
LINE
  5
24A
100
AcDbEntity
  8
RACCORDO
100
AcDbLine
 62
250
  6
CONTINUOUS
 10
158.8891397131
 20
99.2992584464
 11
152.5677842021
 21
102.9491298922
  0
LINE
  5
24B
100
AcDbEntity
  8
RACCORDO
100
AcDbLine
 62
250
  6
CONTINUOUS
 10
150.2775884918
 20
104.2714601924
 11
143.9562329826
 21
107.9213316393
  0
LINE
  5
24C
100
AcDbEntity
  8
RACCORDO
100
AcDbLine
 62
7
  6
CONTINUOUS
 10
143.8574622682
 20
108.1538244601
 11
150.1788177777
 21
104.5039530141
  0
LINE
  5
24D
100
AcDbEntity
  8
RACCORDO
100
AcDbLine
 62
7
  6
CONTINUOUS
 10
152.4690134886
 20
103.1816227135
 11
158.7903689995
 21
99.5317512667
  0
LINE
  5
24E
100
AcDbEntity
  8
RACCORDO
100
AcDbLine
 62
250
  6
CONTINUOUS
 10
143.8160574262
 20
108.245478827
 11
150.1374012884
 21
104.5956141053
  0
LINE
  5
24F
100
AcDbEntity
  8
RACCORDO
100
AcDbLine
 62
250
  6
CONTINUOUS
 10
152.4275969987
 20
103.2732838051
 11
158.7489408607
 21
99.6234190849
  0
LINE
  5
250
100
AcDbEntity
  8
0
100
AcDbLine
 62
7
  6
CONTINUOUS
 10
150.7058294199
 20
104.5197416687
 11
150.5877381884
 21
104.5879260658
  0
LWPOLYLINE
  5
251
100
AcDbEntity
  8
RACCORDO
100
AcDbPolyline
 62
250
  6
CONTINUOUS
 90
17
 70
0
 10
143.8160574283
 20
107.6769810364
 10
143.7982300016
 20
107.6878241707
 10
143.7813993046
 20
107.6991908013
 10
143.7656102625
 20
107.7110503808
 10
143.7509056287
 20
107.7233705639
 10
143.7373238679
 20
107.7361187579
 10
143.7248995639
 20
107.749262394
 10
143.7136654732
 20
107.7627674578
 10
143.7036529329
 20
107.7765969048
 10
143.6948897669
 20
107.790712261
 10
143.6873996627
 20
107.8050752737
 10
143.6812022755
 20
107.8196480489
 10
143.6763140414
 20
107.8343916135
 10
143.6727480643
 20
107.8492668001
 10
143.6705139971
 20
107.8642337018
 10
143.6696178634
 20
107.8792517373
 10
143.6695988584
 20
107.8816503924
  0
LWPOLYLINE
  5
252
100
AcDbEntity
  8
0
100
AcDbPolyline
 62
7
  6
CONTINUOUS
 90
24
 70
0
 10
150.7058294199
 20
104.5197416687
 10
150.7173249426
 20
104.5127475002
 10
150.7287459928
 20
104.5050810806
 10
150.7400925706
 20
104.49674241
 10
150.7514132161
 20
104.4876900034
 10
150.7626593891
 20
104.4779653457
 10
150.7736854695
 20
104.467692892
 10
150.7844592419
 20
104.456897167
 10
150.7950129217
 20
104.4455536459
 10
150.8052975342
 20
104.4337132093
 10
150.8153343436
 20
104.4213463676
 10
150.8251020858
 20
104.4084826103
 10
150.8344879936
 20
104.3952612871
 10
150.8434851009
 20
104.3816758439
 10
150.8521003738
 20
104.3677328348
 10
150.8602419442
 20
104.353591272
 10
150.8678900328
 20
104.3392811378
 10
150.8750644188
 20
104.3247724498
 10
150.8817325721
 20
104.3101342736
 10
150.8879072401
 20
104.2953263995
 10
150.8935756753
 20
104.2803890371
 10
150.8986671059
 20
104.2655118808
 10
150.903157941
 20
104.2507581622
 10
150.9070717715
 20
104.2360646497
  0
LWPOLYLINE
  5
253
100
AcDbEntity
  8
RACCORDO
100
AcDbPolyline
 62
250
  6
CONTINUOUS
 90
26
 70
0
 10
143.9562329826
 20
107.9213316393
 10
143.9455031264
 20
107.9278643128
 10
143.9354198455
 20
107.9346768553
 10
143.9259831399
 20
107.9417692669
 10
143.917170714
 20
107.949162205
 10
143.9090048634
 20
107.9568350122
 10
143.9015524755
 20
107.9647257156
 10
143.894819544
 20
107.9728360626
 10
143.8888000753
 20
107.9811643059
 10
143.8835429761
 20
107.9896432311
 10
143.879054618
 20
107.9982738063
 10
143.8753286295
 20
108.0070550635
 10
143.8723948028
 20
108.015916884
 10
143.8702594529
 20
108.0248600534
 10
143.8689162648
 20
108.0338837861
 10
143.8683760864
 20
108.0429156068
 10
143.8686454302
 20
108.0519555531
 10
143.8697177838
 20
108.0610035874
 10
143.8715844575
 20
108.0699871216
 10
143.874251777
 20
108.0789055247
 10
143.8777134167
 20
108.0877594277
 10
143.8819417102
 20
108.0964781361
 10
143.8869430593
 20
108.1050608127
 10
143.8927110622
 20
108.1135082946
 10
143.8991988467
 20
108.1217523994
 10
143.9039120375
 20
108.1270049455
  0
LWPOLYLINE
  5
254
100
AcDbEntity
  8
RACCORDO
100
AcDbPolyline
 62
250
  6
CONTINUOUS
 90
22
 70
0
 10
150.2055898447
 20
104.6161879135
 10
150.2161094452
 20
104.6073264379
 10
150.2273532052
 20
104.5989649424
 10
150.2392589236
 20
104.5911496834
 10
150.251760737
 20
104.5839238957
 10
150.2647894843
 20
104.5773275527
 10
150.2782730896
 20
104.5713971459
 10
150.2921369606
 20
104.5661654829
 10
150.3063044012
 20
104.5616615056
 10
150.3206970361
 20
104.5579101303
 10
150.3352352441
 20
104.5549321099
 10
150.3498385987
 20
104.552743919
 10
150.3644263131
 20
104.551357663
 10
150.378917687
 20
104.5507810106
 10
150.3932325529
 20
104.5510171519
 10
150.4072917199
 20
104.5520647807
 10
150.4210174117
 20
104.5539181013
 10
150.4343336966
 20
104.556566861
 10
150.447166908
 20
104.5599964067
 10
150.4594460515
 20
104.5641877659
 10
150.471103198
 20
104.5691177516
 10
150.4820738593
 20
104.5747590908
  0
LWPOLYLINE
  5
255
100
AcDbEntity
  8
RACCORDO
100
AcDbPolyline
 62
250
  6
CONTINUOUS
 90
14
 70
0
 10
152.3594884134
 20
102.6842583868
 10
152.3497463917
 20
102.6935688266
 10
152.3408406149
 20
102.7032802444
 10
152.3328203505
 20
102.7133389158
 10
152.3257299673
 20
102.7236891955
 10
152.3196086897
 20
102.734273825
 10
152.3144903812
 20
102.7450342492
 10
152.3104033566
 20
102.7559109408
 10
152.3073702256
 20
102.766843729
 10
152.3054077678
 20
102.7777721327
 10
152.3045268397
 20
102.7886356953
 10
152.3047323145
 20
102.7993743187
 10
152.3060230556
 20
102.809928596
 10
152.3081800614
 20
102.8194871011
  0
LWPOLYLINE
  5
256
100
AcDbEntity
  8
DRAFT
100
AcDbPolyline
 62
7
  6
CONTINUOUS
 90
18
 70
0
 10
152.2636539578
 20
103.5756891593
 10
152.2539757002
 20
103.5871233769
 10
152.2083486441
 20
103.6436649058
 10
152.1638275622
 20
103.7015242635
 10
152.1204173808
 20
103.7607073186
 10
152.0781131735
 20
103.8212082025
 10
152.0371030756
 20
103.8827578446
 10
151.9973928513
 20
103.9453609155
 10
151.9589767364
 20
104.0090127448
 10
151.9220255737
 20
104.0734302506
 10
151.886545888
 20
104.1386168427
 10
151.8525311545
 20
104.2045691113
 10
151.8201326408
 20
104.270993746
 10
151.7893575455
 20
104.3378928498
 10
151.76019867
 20
104.4052643196
 10
151.7327856859
 20
104.4728085349
 10
151.7071263693
 20
104.5405262645
 10
151.7070501091
 20
104.5407427681
  0
LWPOLYLINE
  5
257
100
AcDbEntity
  8
DRAFT
100
AcDbPolyline
 62
7
  6
CONTINUOUS
 90
14
 70
0
 10
151.7433263397
 20
104.5014557834
 10
151.7565597397
 20
104.4694600956
 10
151.7908603526
 20
104.3914784445
 10
151.8270584513
 20
104.3138846527
 10
151.8651297203
 20
104.2367122149
 10
151.9048860473
 20
104.1603413841
 10
151.9463127405
 20
104.0848154232
 10
151.9894244917
 20
104.0100910693
 10
152.0340772632
 20
103.9364187857
 10
152.080304707
 20
103.8637598592
 10
152.1280731712
 20
103.7921530032
 10
152.1771376615
 20
103.7219648211
 10
152.2274711689
 20
103.6532461026
 10
152.2477689196
 20
103.6267876121
  0
LWPOLYLINE
  5
258
100
AcDbEntity
  8
0
100
AcDbPolyline
 62
7
  6
CONTINUOUS
 90
44
 70
0
 10
150.9070717715
 20
104.2360646497
 10
150.9218863095
 20
104.1701419977
 10
150.9348984046
 20
104.1187041328
 10
150.9494448824
 20
104.0671177489
 10
150.9655539241
 20
104.0152993606
 10
150.9831973485
 20
103.9633324533
 10
151.0022906125
 20
103.9114674825
 10
151.0228467832
 20
103.8596916145
 10
151.0448527935
 20
103.808017683
 10
151.0681848982
 20
103.7567346451
 10
151.0928399899
 20
103.7058642041
 10
151.1188211761
 20
103.6553846567
 10
151.1460140336
 20
103.6055198491
 10
151.1744400909
 20
103.5562468272
 10
151.2040778195
 20
103.5075885452
 10
151.234748212
 20
103.459837712
 10
151.2664351705
 20
103.4130303966
 10
151.2991547929
 20
103.36713053
 10
151.332776365
 20
103.3223226133
 10
151.3673321857
 20
103.2785771352
 10
151.402789956
 20
103.235923607
 10
151.4389220651
 20
103.1946350637
 10
151.4756983682
 20
103.1547552475
 10
151.51314901
 20
103.1162404162
 10
151.5511368136
 20
103.0792323788
 10
151.5897031926
 20
103.0437027004
 10
151.6288067334
 20
103.0096798159
 10
151.668186018
 20
102.9773908388
 10
151.707800155
 20
102.9468780049
 10
151.7476900357
 20
102.9180990783
 10
151.7877169162
 20
102.8911544644
 10
151.8279258817
 20
102.866024897
 10
151.868271847
 20
102.8427296423
 10
151.9084808125
 20
102.8214269042
 10
151.948507693
 20
102.8021494798
 10
151.9883975737
 20
102.784864572
 10
152.0280117106
 20
102.7696319935
 10
152.0673909952
 20
102.7564467599
 10
152.106494536
 20
102.7453138557
 10
152.1450609151
 20
102.7363080462
 10
152.1830487186
 20
102.7294487202
 10
152.2204993605
 20
102.7247164891
 10
152.2572756636
 20
102.7221279523
 10
152.272986543
 20
102.7219384107
  0
LWPOLYLINE
  5
259
100
AcDbEntity
  8
RACCORDO
100
AcDbPolyline
 62
250
  6
CONTINUOUS
 90
12
 70
0
 10
152.4275969987
 20
103.2732838051
 10
152.4279810892
 20
103.261364552
 10
152.429145877
 20
103.2499626397
 10
152.4310849145
 20
103.2391411824
 10
152.4337874682
 20
103.2289600811
 10
152.4372385786
 20
103.2194756922
 10
152.4414191424
 20
103.2107405157
 10
152.4463060184
 20
103.2028029042
 10
152.4518721558
 20
103.1957067955
 10
152.4580867439
 20
103.1894914695
 10
152.4649153825
 20
103.1841913305
 10
152.4690090682
 20
103.181625266
  0
LWPOLYLINE
  5
25A
100
AcDbEntity
  8
RACCORDO
100
AcDbPolyline
 62
250
  6
CONTINUOUS
 90
22
 70
0
 10
152.4275969987
 20
102.7047860207
 10
152.4279810864
 20
102.7171487639
 10
152.429145866
 20
102.7298956983
 10
152.4310848909
 20
102.7429562656
 10
152.4337874289
 20
102.756258171
 10
152.4372385214
 20
102.7697277839
 10
152.4414190661
 20
102.7832905451
 10
152.4463059231
 20
102.7968713799
 10
152.4518720426
 20
102.8103951129
 10
152.4580866147
 20
102.8237868849
 10
152.46491524
 20
102.8369725669
 10
152.4723201202
 20
102.8498791706
 10
152.4802602666
 20
102.8624352521
 10
152.4886917279
 20
102.874571308
 10
152.4975678329
 20
102.8862201596
 10
152.5068394489
 20
102.8973173248
 10
152.5164552538
 20
102.9078013755
 10
152.5263620205
 20
102.9176142776
 10
152.5365049103
 20
102.9267017111
 10
152.546827778
 20
102.9350133726
 10
152.5572734825
 20
102.9425032531
 10
152.5677842022
 20
102.9491298922
  0
LINE
  5
25B
100
AcDbEntity
  8
RACCORDO
100
AcDbLine
 62
7
  6
CONTINUOUS
 10
152.3081800614
 20
102.8194871011
 11
152.3082052924
 21
102.8195779674
  0
LWPOLYLINE
  5
25C
100
AcDbEntity
  8
RACCORDO
100
AcDbPolyline
 62
7
  6
CONTINUOUS
 90
15
 70
0
 10
152.3081800614
 20
102.8194871011
 10
152.3028976152
 20
102.8013443246
 10
152.2940572511
 20
102.7743491909
 10
152.2842407862
 20
102.7481652019
 10
152.27343998
 20
102.7228737477
 10
152.261660908
 20
102.6985762149
 10
152.2489310229
 20
102.675390145
 10
152.2352721869
 20
102.6534007515
 10
152.2206884906
 20
102.6326549806
 10
152.2051881874
 20
102.6131987877
 10
152.1888059276
 20
102.595103915
 10
152.1715210597
 20
102.5783768941
 10
152.1532319021
 20
102.5629652786
 10
152.1338727735
 20
102.5488826412
 10
152.1174649537
 20
102.5385338468
  0
LWPOLYLINE
  5
25D
100
AcDbEntity
  8
RACCORDO
100
AcDbPolyline
 62
250
  6
CONTINUOUS
 90
64
 70
0
 10
152.3594883539
 20
102.6842583524
 10
152.3465688783
 20
102.6415142788
 10
152.3318534609
 20
102.6004357131
 10
152.3153419049
 20
102.5610225421
 10
152.2970038233
 20
102.5231727821
 10
152.2768692413
 20
102.4869882088
 10
152.2550284745
 20
102.4527742869
 10
152.2314589956
 20
102.4205539845
 10
152.2061827503
 20
102.3903039978
 10
152.17935657
 20
102.3622602724
 10
152.1509646859
 20
102.3364516152
 10
152.1210221477
 20
102.3128488033
 10
152.0897318669
 20
102.2916006524
 10
152.0571038883
 20
102.272737039
 10
152.0231273872
 20
102.256227635
 10
151.9879738885
 20
102.2421309012
 10
151.9516484047
 20
102.2304551338
 10
151.9141451799
 20
102.2211916058
 10
151.8756195546
 20
102.2143732243
 10
151.8360561347
 20
102.2100051211
 10
151.7954696476
 20
102.2080817777
 10
151.7540606032
 20
102.2086201173
 10
151.7118162245
 20
102.2116346099
 10
151.6687487191
 20
102.2171104551
 10
151.6250960763
 20
102.2250206719
 10
151.5808592914
 20
102.2353792487
 10
151.5360369321
 20
102.2481719434
 10
151.4908633691
 20
102.263329443
 10
151.4453397924
 20
102.2808626899
 10
151.3994647389
 20
102.3007605832
 10
151.3534686377
 20
102.322920767
 10
151.3073514905
 20
102.3473534487
 10
151.2611132029
 20
102.3740483669
 10
151.2149841048
 20
102.4028724882
 10
151.1689641869
 20
102.4338361063
 10
151.1230535511
 20
102.4669289812
 10
151.077482739
 20
102.5019873057
 10
151.0322505396
 20
102.5390236385
 10
150.9873584366
 20
102.5780255794
 10
150.9430410523
 20
102.6187919036
 10
150.8992970928
 20
102.661338454
 10
150.8561282886
 20
102.7056496415
 10
150.8137738217
 20
102.7514771072
 10
150.7722460876
 20
102.7988217538
 10
150.7315332602
 20
102.8476830091
 10
150.6918381906
 20
102.8978103038
 10
150.6531765498
 20
102.9491916069
 10
150.6155333334
 20
103.0018393359
 10
150.5790653659
 20
103.0555395858
 10
150.5437681946
 20
103.1103062069
 10
150.509647015
 20
103.1661257793
 10
150.4768730926
 20
103.2227434742
 10
150.4454360372
 20
103.2802014472
 10
150.4153470189
 20
103.3384579943
 10
150.3868095633
 20
103.3971324505
 10
150.3598386619
 20
103.4562373856
 10
150.3344200442
 20
103.5157606467
 10
150.3107131966
 20
103.5752844003
 10
150.2887404027
 20
103.6348071269
 10
150.2684799632
 20
103.6943306833
 10
150.2500251968
 20
103.7534421881
 10
150.2334072904
 20
103.8120040605
 10
150.2185954206
 20
103.8701540903
 10
150.2055897853
 20
103.9278923913
  0
LINE
  5
25E
100
AcDbEntity
  8
DRAFT
100
AcDbLine
 62
7
  6
CONTINUOUS
 10
150.9311517573
 20
104.8788931088
 11
151.0583246026
 21
104.959077642
  0
LWPOLYLINE
  5
25F
100
AcDbEntity
  8
RACCORDO
100
AcDbPolyline
 62
250
  6
CONTINUOUS
 90
11
 70
0
 10
150.4262071144
 20
104.4975080866
 10
150.4313945306
 20
104.5006261963
 10
150.4390853606
 20
104.5060936871
 10
150.4463057741
 20
104.5123038816
 10
150.4530340397
 20
104.5192380435
 10
150.4592502629
 20
104.5268754608
 10
150.4649364271
 20
104.5351937632
 10
150.4700759881
 20
104.5441684506
 10
150.474653931
 20
104.5537730594
 10
150.4786568093
 20
104.5639792464
 10
150.4820729017
 20
104.5747569241
  0
LINE
  5
260
100
AcDbEntity
  8
RACCORDO
100
AcDbLine
 62
250
  6
CONTINUOUS
 10
150.7058294199
 20
104.5197416687
 11
150.2775884918
 21
104.2714601924
  0
LINE
  5
261
100
AcDbEntity
  8
RACCORDO
100
AcDbLine
 62
250
  6
CONTINUOUS
 10
150.9104085972
 20
104.2214313434
 11
150.4820728555
 21
103.9738171158
  0
LINE
  5
262
100
AcDbEntity
  8
RACCORDO
100
AcDbLine
 62
7
  6
CONTINUOUS
 10
150.7370714992
 20
104.9290437293
 11
150.7376123288
 21
104.9293488157
  0
LINE
  5
263
100
AcDbEntity
  8
RACCORDO
100
AcDbLine
 62
250
  6
CONTINUOUS
 10
150.4820729114
 20
104.5747569295
 11
150.9104085972
 21
104.8149303794
  0
LINE
  5
264
100
AcDbEntity
  8
RACCORDO
100
AcDbLine
 62
7
  6
CONTINUOUS
 10
150.4261406676
 20
104.4974708593
 11
150.4262071144
 21
104.4975080866
  0
LINE
  5
265
100
AcDbEntity
  8
0
100
AcDbLine
 62
7
  6
CONTINUOUS
 10
150.4261406687
 20
104.4974708599
 11
150.8546716275
 21
104.7373412565
  0
LWPOLYLINE
  5
266
100
AcDbEntity
  8
RACCORDO
100
AcDbPolyline
 62
7
  6
CONTINUOUS
 90
51
 70
0
 10
150.7370613701
 20
104.9290373482
 10
150.765495698
 20
104.9433607695
 10
150.7934103086
 20
104.9543304832
 10
150.8220008262
 20
104.9628243142
 10
150.8512943069
 20
104.9690142988
 10
150.8815643135
 20
104.9730480107
 10
150.9127777363
 20
104.9749643407
 10
150.9447706392
 20
104.9747974593
 10
150.9776499705
 20
104.9725756996
 10
151.0113265813
 20
104.9683193326
 10
151.0456616898
 20
104.9620622466
 10
151.0807248588
 20
104.9537979794
 10
151.1164183681
 20
104.943547854
 10
151.1526268985
 20
104.9313451443
 10
151.1894324995
 20
104.9171519448
 10
151.2267463651
 20
104.9009847027
 10
151.2644680191
 20
104.8828706536
 10
151.3026907922
 20
104.8627374783
 10
151.3413839415
 20
104.840562148
 10
151.3804025291
 20
104.8163896958
 10
151.4196829453
 20
104.7902238136
 10
151.4591555098
 20
104.7620762807
 10
151.4987136162
 20
104.7319898438
 10
151.5382452916
 20
104.700018838
 10
151.5776626454
 20
104.6662086453
 10
151.6168807592
 20
104.630608145
 10
151.6557985238
 20
104.5932853263
 10
151.6943320078
 20
104.5543007539
 10
151.7323998605
 20
104.5137189568
 10
151.7699106624
 20
104.4716192593
 10
151.8067855984
 20
104.4280748705
 10
151.8429485947
 20
104.3831630011
 10
151.8783173739
 20
104.3369725723
 10
151.9128206425
 20
104.2895854249
 10
151.9463875887
 20
104.2410906879
 10
151.9789412866
 20
104.1915912233
 10
152.0104182604
 20
104.1411771631
 10
152.0407557682
 20
104.0899464827
 10
152.0698829978
 20
104.0380169698
 10
152.0977447694
 20
103.9854875586
 10
152.1242898833
 20
103.9324601991
 10
152.149459062
 20
103.8790602084
 10
152.1732077855
 20
103.8253917788
 10
152.1954969215
 20
103.7715599799
 10
152.2162811158
 20
103.7176940941
 10
152.2355279785
 20
103.663901312
 10
152.2532124654
 20
103.6102831521
 10
152.2693061447
 20
103.556962745
 10
152.2837888522
 20
103.5040509119
 10
152.2966492122
 20
103.4516505122
 10
152.3051687147
 20
103.4130148785
  0
LWPOLYLINE
  5
267
100
AcDbEntity
  8
RACCORDO
100
AcDbPolyline
 62
250
  6
CONTINUOUS
 90
25
 70
0
 10
152.3594883539
 20
103.3725538404
 10
152.3606126635
 20
103.3676524038
 10
152.3619256284
 20
103.3627413544
 10
152.3634272459
 20
103.3578206908
 10
152.3651230358
 20
103.3528756401
 10
152.3670074734
 20
103.3479209724
 10
152.3690639894
 20
103.343001
 10
152.3712941293
 20
103.338116139
 10
152.3736963412
 20
103.3332659698
 10
152.3762494078
 20
103.3284935507
 10
152.3789546976
 20
103.3237996233
 10
152.3818108354
 20
103.3191834421
 10
152.384792487
 20
103.3146858339
 10
152.3879006337
 20
103.3103080292
 10
152.3911342877
 20
103.3060487937
 10
152.3944651608
 20
103.3019452574
 10
152.3978941912
 20
103.2979987051
 10
152.4014204349
 20
103.2942078486
 10
152.405012781
 20
103.2906059586
 10
152.4086718088
 20
103.2871947016
 10
152.4123969348
 20
103.2839724086
 10
152.4161553033
 20
103.2809673464
 10
152.4199359616
 20
103.2781889366
 10
152.4237498602
 20
103.2756277563
 10
152.4275969987
 20
103.2732838051
  0
LWPOLYLINE
  5
268
100
AcDbEntity
  8
RACCORDO
100
AcDbPolyline
 62
7
  6
CONTINUOUS
 90
18
 70
0
 10
152.3051672463
 20
103.4130258752
 10
152.3056637054
 20
103.4107004452
 10
152.3099141942
 20
103.3933534075
 10
152.3150706634
 20
103.3762129652
 10
152.3211470026
 20
103.3592049247
 10
152.328126127
 20
103.3423860914
 10
152.3359226647
 20
103.3259487883
 10
152.3445353237
 20
103.3098764205
 10
152.3539711634
 20
103.294170464
 10
152.3641087315
 20
103.2790328281
 10
152.3749454357
 20
103.2644620492
 10
152.3864991718
 20
103.2504479385
 10
152.3986482879
 20
103.2371521611
 10
152.4113946617
 20
103.2245758455
 10
152.4247581377
 20
103.2127230925
 10
152.4386142542
 20
103.2017214779
 10
152.4529181385
 20
103.1916121598
 10
152.4690094906
 20
103.181625998
  0
LWPOLYLINE
  5
269
100
AcDbEntity
  8
RACCORDO
100
AcDbPolyline
 62
7
  6
CONTINUOUS
 90
14
 70
0
 10
152.4164087985
 20
102.9631847769
 10
152.4105195676
 20
102.9595623864
 10
152.3985510479
 20
102.951421483
 10
152.3870337169
 20
102.9424921742
 10
152.3760235821
 20
102.9327985706
 10
152.3655698894
 20
102.9223640884
 10
152.3557259349
 20
102.911221289
 10
152.3465446432
 20
102.8994111253
 10
152.3380678147
 20
102.8869719087
 10
152.3303342417
 20
102.8739453801
 10
152.3233834193
 20
102.8603841404
 10
152.3172466018
 20
102.8463382703
 10
152.3119466255
 20
102.8318567307
 10
152.3082063025
 20
102.8195776868
  0
LINE
  5
26A
100
AcDbEntity
  8
0
100
AcDbLine
 62
7
  6
CONTINUOUS
 10
152.6285884541
 20
103.0894861284
 11
152.4163524322
 21
102.9631514038
  0
LINE
  5
26B
100
AcDbEntity
  8
RACCORDO
100
AcDbLine
 62
250
  6
CONTINUOUS
 10
152.5677842021
 20
102.9491298922
 11
152.7174154392
 21
103.0381985404
  0
LINE
  5
26C
100
AcDbEntity
  8
RACCORDO
100
AcDbLine
 62
7
  6
CONTINUOUS
 10
152.4164141038
 20
102.9631880837
 11
152.4163524319
 21
102.9631514036
  0
LINE
  5
26D
100
AcDbEntity
  8
RACCORDO
100
AcDbLine
 62
7
  6
CONTINUOUS
 10
152.11787144
 20
102.5387736768
 11
152.1174538043
 21
102.538526849
  0
LWPOLYLINE
  5
26E
100
AcDbEntity
  8
RACCORDO
100
AcDbPolyline
 62
250
  6
CONTINUOUS
 90
52
 70
0
 10
152.1174538043
 20
102.538526849
 10
152.0993358569
 20
102.5283788456
 10
152.0697050359
 20
102.5139908475
 10
152.0389900199
 20
102.5016946077
 10
152.0072526313
 20
102.4915085402
 10
151.9745429936
 20
102.4834426326
 10
151.9408826624
 20
102.4775001949
 10
151.906317403
 20
102.4736924123
 10
151.87091593
 20
102.4720299314
 10
151.8347334273
 20
102.4725169432
 10
151.7978242085
 20
102.4751557812
 10
151.7602572362
 20
102.4799446255
 10
151.722112266
 20
102.4868736558
 10
151.683459056
 20
102.4959294709
 10
151.6443597216
 20
102.5070969622
 10
151.6048847648
 20
102.5203547635
 10
151.5651044869
 20
102.5356780346
 10
151.5250845439
 20
102.5530404754
 10
151.4848892301
 20
102.5724131794
 10
151.4445876411
 20
102.5937623091
 10
151.4042482931
 20
102.6170512849
 10
151.3639347738
 20
102.6422433839
 10
151.3237154163
 20
102.669296148
 10
151.2836594945
 20
102.6981635075
 10
151.2438318439
 20
102.7287998317
 10
151.2042979592
 20
102.7611556856
 10
151.1651282985
 20
102.7951746587
 10
151.1263943987
 20
102.8307962546
 10
151.0881580315
 20
102.8679641724
 10
151.0504893373
 20
102.9066110549
 10
151.0134702119
 20
102.9466534246
 10
150.9771691896
 20
102.9880139496
 10
150.9416410808
 20
103.0306271818
 10
150.906944535
 20
103.0744225771
 10
150.8731483368
 20
103.1193098822
 10
150.84029809
 20
103.1652251824
 10
150.808418357
 20
103.2121380842
 10
150.777559669
 20
103.2599797541
 10
150.7477831897
 20
103.3086611903
 10
150.7191314909
 20
103.3581230141
 10
150.6916407705
 20
103.4083142821
 10
150.6653807674
 20
103.4591197326
 10
150.6404376413
 20
103.5103797519
 10
150.6168499045
 20
103.5620126539
 10
150.5946602577
 20
103.61392201
 10
150.57394411
 20
103.6659217493
 10
150.5547278232
 20
103.717920918
 10
150.5370340685
 20
103.7698309256
 10
150.520912322
 20
103.8214694405
 10
150.5063802493
 20
103.8727193777
 10
150.4934328641
 20
103.923528888
 10
150.4820728555
 20
103.9738171158
  0
LINE
  5
26F
100
AcDbEntity
  8
RACCORDO
100
AcDbLine
 62
7
  6
CONTINUOUS
 10
162.9681120427
 20
101.4756579974
 11
163.0557413453
 21
101.4250619363
  0
LINE
  5
270
100
AcDbEntity
  8
RACCORDO
100
AcDbLine
 62
250
  6
CONTINUOUS
 10
156.9691535379
 20
121.9442889709
 11
156.9691535379
 21
121.8816851875
  0
LWPOLYLINE
  5
271
100
AcDbEntity
  8
RACCORDO
100
AcDbPolyline
 62
250
  6
CONTINUOUS
 90
37
 70
0
 10
159.7537663523
 20
82.73324127
 10
159.7555952023
 20
82.7007457921
 10
159.7586178788
 20
82.6691365037
 10
159.7628343817
 20
82.6384134046
 10
159.7682557847
 20
82.6085267547
 10
159.7748710142
 20
82.5795262942
 10
159.7826468492
 20
82.5515612439
 10
159.7915892468
 20
82.5246375464
 10
159.8016922499
 20
82.4987492591
 10
159.812904767
 20
82.4740277755
 10
159.8252322847
 20
82.4504794135
 10
159.8386693163
 20
82.4280978553
 10
159.8531483096
 20
82.40699554
 10
159.8686744806
 20
82.3871788432
 10
159.8852426132
 20
82.3686413894
 10
159.9027695079
 20
82.3514764919
 10
159.9212601326
 20
82.3356909612
 10
159.9407095194
 20
82.3212779868
 10
159.961019564
 20
82.3083104506
 10
159.9821946593
 20
82.2967957034
 10
160.0042304125
 20
82.2867263944
 10
160.027015542
 20
82.2781533526
 10
160.0505536784
 20
82.2710841925
 10
160.0748411911
 20
82.2655112996
 10
160.0997559073
 20
82.2614626601
 10
160.1253009461
 20
82.2589459052
 10
160.1514731883
 20
82.2579534036
 10
160.1781411037
 20
82.2584902479
 10
160.2053076243
 20
82.2605642609
 10
160.2329698181
 20
82.2641676196
 10
160.2609873592
 20
82.2692819474
 10
160.2893623701
 20
82.2759151926
 10
160.3180927284
 20
82.2840594068
 10
160.347031741
 20
82.293672369
 10
160.3761305102
 20
82.3047400053
 10
160.4054379337
 20
82.3172763896
 10
160.4349540116
 20
82.3312815219
  0
LWPOLYLINE
  5
272
100
AcDbEntity
  8
RACCORDO
100
AcDbPolyline
 62
250
  6
CONTINUOUS
 90
20
 70
0
 10
159.0531822647
 20
82.7201733182
 10
159.0558944118
 20
82.6715492064
 10
159.0604066099
 20
82.6241095172
 10
159.0667113982
 20
82.5779340966
 10
159.0747984741
 20
82.5331007673
 10
159.0846542668
 20
82.4896848181
 10
159.0962620506
 20
82.447758953
 10
159.1096029701
 20
82.4073930334
 10
159.1246546675
 20
82.3686557574
 10
159.14139075
 20
82.3316140302
 10
159.1597831177
 20
82.2963304614
 10
159.1798012636
 20
82.262863678
 10
159.2014109442
 20
82.2312700454
 10
159.2245763149
 20
82.2016024646
 10
159.2492587314
 20
82.1739107219
 10
159.2754159757
 20
82.1482417578
 10
159.3030048495
 20
82.1246383807
 10
159.3319792289
 20
82.1031403464
 10
159.3622889366
 20
82.0837847802
 10
159.3663328998
 20
82.0814228906
  0
LINE
  5
273
100
AcDbEntity
  8
DRAFT
100
AcDbLine
 62
7
  6
CONTINUOUS
 10
157.1506840222
 20
122.3614488313
 11
157.1720184012
 21
121.7412234832
  0
LWPOLYLINE
  5
274
100
AcDbEntity
  8
RACCORDO
100
AcDbPolyline
 62
250
  6
CONTINUOUS
 90
12
 70
0
 10
158.7489525087
 20
99.6234123595
 10
158.7493366004
 20
99.6114930901
 10
158.7505013914
 20
99.6000911639
 10
158.7524404339
 20
99.5892696951
 10
158.7551429943
 20
99.5790885848
 10
158.7585941127
 20
99.5696041896
 10
158.7627746853
 20
99.5608690098
 10
158.7676615706
 20
99.5529313978
 10
158.7732277174
 20
99.5458352913
 10
158.7794423145
 20
99.53961997
 10
158.7862709611
 20
99.5343198377
 10
158.7903621933
 20
99.5317551971
  0
LWPOLYLINE
  5
275
100
AcDbEntity
  8
RACCORDO
100
AcDbPolyline
 62
250
  6
CONTINUOUS
 90
13
 70
0
 10
159.0531822728
 20
116.2974282571
 10
159.0053668284
 20
114.8960031551
 10
158.9616351589
 20
113.4967100905
 10
158.9219874899
 20
112.0995648204
 10
158.886424236
 20
110.7045930262
 10
158.854945239
 20
109.311800429
 10
158.8275500532
 20
107.9211729458
 10
158.8042394193
 20
106.5327269238
 10
158.7850131477
 20
105.1464775726
 10
158.7698698664
 20
103.7624093622
 10
158.7588095219
 20
102.3805277602
 10
158.7518330695
 20
101.0008590588
 10
158.7489408607
 20
99.6234190849
  0
LWPOLYLINE
  5
276
100
AcDbEntity
  8
RACCORDO
100
AcDbPolyline
 62
250
  6
CONTINUOUS
 90
22
 70
0
 10
159.4498338206
 20
99.0535962221
 10
159.4493516153
 20
99.0659775057
 10
159.4480952923
 20
99.078754019
 10
159.4460718761
 20
99.0918543241
 10
159.4432926807
 20
99.1052051729
 10
159.4397732456
 20
99.1187319161
 10
159.4355332497
 20
99.1323589204
 10
159.4305964005
 20
99.1460099926
 10
159.4249903018
 20
99.159608805
 10
159.4187462999
 20
99.1730793217
 10
159.4118993072
 20
99.1863462246
 10
159.4044876079
 20
99.1993353343
 10
159.3965526438
 20
99.2119740244
 10
159.3881387822
 20
99.2241916279
 10
159.3792930679
 20
99.2359198328
 10
159.3700649606
 20
99.247093063
 10
159.3605060579
 20
99.2576488459
 10
159.3506698068
 20
99.2675281614
 10
159.3406112049
 20
99.2766757715
 10
159.3303864933
 20
99.2850405297
 10
159.3200528415
 20
99.2925756668
 10
159.309668028
 20
99.2992390522
  0
LWPOLYLINE
  5
277
100
AcDbEntity
  8
RACCORDO
100
AcDbPolyline
 62
250
  6
CONTINUOUS
 90
6
 70
0
 10
159.5557060736
 20
89.4918536785
 10
159.5871557935
 20
88.1353531579
 10
159.6226866737
 20
86.781240092
 10
159.6622987396
 20
85.4295196966
 10
159.7059919658
 20
84.080186756
 10
159.7537663523
 20
82.73324127
  0
LWPOLYLINE
  5
278
100
AcDbEntity
  8
RACCORDO
100
AcDbPolyline
 62
250
  6
CONTINUOUS
 90
12
 70
0
 10
158.7518330696
 20
97.6806949162
 10
158.758809522
 20
96.3087974908
 10
158.7698698664
 20
94.9392444439
 10
158.7850131477
 20
93.5720619526
 10
158.8042394193
 20
92.2072545583
 10
158.8275500532
 20
90.8448053508
 10
158.854945239
 20
89.4847287706
 10
158.886424236
 20
88.1270412976
 10
158.9219874899
 20
86.7717293627
 10
158.9616351589
 20
85.4187988696
 10
159.0053668284
 20
84.0682750209
 10
159.0531822728
 20
82.7201733134
  0
LINE
  5
279
100
AcDbEntity
  8
RACCORDO
100
AcDbLine
 62
250
  6
CONTINUOUS
 10
158.7489408608
 20
99.054921299
 11
158.7518330696
 21
97.6806949162
  0
LWPOLYLINE
  5
27A
100
AcDbEntity
  8
RACCORDO
100
AcDbPolyline
 62
250
  6
CONTINUOUS
 90
8
 70
0
 10
159.4498457769
 20
99.0536030071
 10
159.4527201378
 20
97.6805644402
 10
159.4596775317
 20
96.3098828334
 10
159.4707179587
 20
94.9415581866
 10
159.4858420683
 20
93.5755855508
 10
159.505049211
 20
92.2119698749
 10
159.5283374377
 20
90.8507260064
 10
159.5557060736
 20
89.4918536785
  0
LWPOLYLINE
  5
27B
100
AcDbEntity
  8
RACCORDO
100
AcDbPolyline
 62
250
  6
CONTINUOUS
 90
22
 70
0
 10
158.7489525087
 20
99.0549145737
 10
158.7493365992
 20
99.067277365
 10
158.750501387
 20
99.0800243451
 10
158.7524404244
 20
99.0930849543
 10
158.7551429782
 20
99.1063868971
 10
158.7585940886
 20
99.1198565418
 10
158.7627746523
 20
99.1334193286
 10
158.7676615283
 20
99.1470001821
 10
158.7732276658
 20
99.1605239269
 10
158.779442254
 20
99.1739157035
 10
158.7862708926
 20
99.1871013833
 10
158.7936757824
 20
99.2000079782
 10
158.8016159345
 20
99.2125640451
 10
158.8100473968
 20
99.2247000812
 10
158.8189234979
 20
99.2363489086
 10
158.8281951051
 20
99.2474460464
 10
158.8378108963
 20
99.2579300677
 10
158.8477176443
 20
99.2677429391
 10
158.8578605113
 20
99.2768303425
 10
158.8681833524
 20
99.2851419755
 10
158.8786290266
 20
99.2926318299
 10
158.8891397131
 20
99.2992584464
  0
LWPOLYLINE
  5
27C
100
AcDbEntity
  8
RACCORDO
100
AcDbPolyline
 62
250
  6
CONTINUOUS
 90
13
 70
0
 10
159.7537663523
 20
116.276952391
 10
159.7059919658
 20
114.8767311455
 10
159.6622987396
 20
113.4786735642
 10
159.6226866737
 20
112.0827796472
 10
159.5871557935
 20
110.6890442068
 10
159.5557060736
 20
109.2974724307
 10
159.5283374377
 20
107.9080798812
 10
159.505049211
 20
106.5208660722
 10
159.4858420683
 20
105.13583149
 10
159.4707179587
 20
103.752993155
 10
159.4596775317
 20
102.3723567408
 10
159.4527201378
 20
100.993916574
 10
159.4498457769
 20
99.6176726544
  0
LWPOLYLINE
  5
27D
100
AcDbEntity
  8
RACCORDO
100
AcDbPolyline
 62
250
  6
CONTINUOUS
 90
12
 70
0
 10
159.4498338206
 20
99.6176661063
 10
159.4493516168
 20
99.6056447009
 10
159.4480952975
 20
99.5941549684
 10
159.4460718872
 20
99.5832611517
 10
159.4432926993
 20
99.5730241617
 10
159.4397732732
 20
99.5635012365
 10
159.4355332872
 20
99.554745622
 10
159.4305964484
 20
99.5468062736
 10
159.4249903603
 20
99.5397275828
 10
159.4187463682
 20
99.5335491288
 10
159.4118993844
 20
99.5283054573
 10
159.4069866932
 20
99.5253262538
  0
LWPOLYLINE
  5
27E
100
AcDbEntity
  8
RACCORDO
100
AcDbPolyline
 62
250
  6
CONTINUOUS
 90
28
 70
0
 10
160.4349540116
 20
117.4385407313
 10
160.4332733721
 20
117.461972312
 10
160.4304245274
 20
117.4860265692
 10
160.4264171058
 20
117.5106222054
 10
160.4212646513
 20
117.5356760937
 10
160.4149845776
 20
117.5611035583
 10
160.40759811
 20
117.5868186608
 10
160.3991302125
 20
117.6127344906
 10
160.3896095047
 20
117.6387634587
 10
160.3790681638
 20
117.6648175936
 10
160.3675418171
 20
117.6908088391
 10
160.3550694205
 20
117.716649351
 10
160.3416931276
 20
117.7422517949
 10
160.3274581469
 20
117.7675296408
 10
160.312412589
 20
117.792397456
 10
160.296607304
 20
117.8167711934
 10
160.28009571
 20
117.8405684756
 10
160.2629336119
 20
117.8637088738
 10
160.2451790133
 20
117.8861141791
 10
160.2268919205
 20
117.907708667
 10
160.2081341391
 20
117.9284193534
 10
160.1889690659
 20
117.9481762414
 10
160.169461474
 20
117.9669125573
 10
160.1496772944
 20
117.9845649772
 10
160.1296833927
 20
118.00107384
 10
160.1095473434
 20
118.0163833499
 10
160.0893372012
 20
118.0304417644
 10
160.0691212716
 20
118.0432015697
  0
LWPOLYLINE
  5
27F
100
AcDbEntity
  8
RACCORDO
100
AcDbPolyline
 62
250
  6
CONTINUOUS
 90
16
 70
0
 10
160.4349540116
 20
82.3312815219
 10
160.4332733715
 20
82.3073321627
 10
160.4304245255
 20
82.2841656156
 10
160.426417102
 20
82.2618601775
 10
160.4212646451
 20
82.2404912353
 10
160.4149845688
 20
82.2201310107
 10
160.4075980982
 20
82.2008483162
 10
160.3991301978
 20
82.1827083224
 10
160.3896094869
 20
82.1657723381
 10
160.3790681431
 20
82.1500976026
 10
160.3675417937
 20
82.1357370926
 10
160.3550693947
 20
82.1227393431
 10
160.3416930997
 20
82.1111482833
 10
160.3274581173
 20
82.1010030879
 10
160.3124125583
 20
82.0923380453
 10
160.3105515857
 20
82.0913974456
  0
LINE
  5
280
100
AcDbEntity
  8
RACCORDO
100
AcDbLine
 62
250
  6
CONTINUOUS
 10
163.0557413453
 20
101.4250619363
 11
159.309668028
 21
99.2992390522
  0
LINE
  5
281
100
AcDbEntity
  8
RACCORDO
100
AcDbLine
 62
250
  6
CONTINUOUS
 10
163.1971627024
 20
101.1801316143
 11
159.4498457769
 21
99.0536030071
  0
LINE
  5
282
100
AcDbEntity
  8
RACCORDO
100
AcDbLine
 62
250
  6
CONTINUOUS
 10
159.4498457769
 20
99.6176726544
 11
163.1971627024
 21
101.6699764754
  0
LINE
  5
283
100
AcDbEntity
  8
RACCORDO
100
AcDbLine
 62
7
  6
CONTINUOUS
 10
159.4069723344
 20
99.5253183875
 11
163.1544416799
 21
101.5777056848
  0
LWPOLYLINE
  5
284
100
AcDbEntity
  8
RACCORDO
100
AcDbPolyline
 62
250
  6
CONTINUOUS
 90
31
 70
0
 10
159.309668028
 20
99.2992390522
 10
159.2981735311
 20
99.2930477883
 10
159.2862154257
 20
99.2872355284
 10
159.2737937118
 20
99.2818022726
 10
159.2608723254
 20
99.2767352127
 10
159.2474873306
 20
99.272047157
 10
159.2337469193
 20
99.2677765299
 10
159.2196482687
 20
99.2639268438
 10
159.2051942017
 20
99.2604945865
 10
159.1905013794
 20
99.257507645
 10
159.1755683088
 20
99.2549697407
 10
159.160396483
 20
99.2528771524
 10
159.1451070421
 20
99.251246604
 10
159.1296988477
 20
99.250081774
 10
159.1141730382
 20
99.249378984
 10
159.098654169
 20
99.2491439226
 10
159.0831422483
 20
99.2493803827
 10
159.0676372679
 20
99.2500845713
 10
159.0522637585
 20
99.2512507978
 10
159.0370230145
 20
99.2528827466
 10
159.0219137416
 20
99.2549767333
 10
159.0070565882
 20
99.2575160139
 10
158.9924531614
 20
99.2605043075
 10
158.978101854
 20
99.263937895
 10
158.9641184934
 20
99.2677888754
 10
158.9505060276
 20
99.2720607544
 10
158.9372615085
 20
99.2767500263
 10
158.9244919193
 20
99.2818182733
 10
158.9122329208
 20
99.2872526893
 10
158.900448852
 20
99.2930660803
 10
158.8891397131
 20
99.2992584464
  0
LWPOLYLINE
  5
285
100
AcDbEntity
  8
RACCORDO
100
AcDbPolyline
 62
250
  6
CONTINUOUS
 90
31
 70
0
 10
159.4498457767
 20
99.0536029632
 10
159.4307631485
 20
99.0433833967
 10
159.4108017031
 20
99.0337492576
 10
159.39001512
 20
99.0247259869
 10
159.3684602606
 20
99.016337484
 10
159.3461941163
 20
99.0086056794
 10
159.3232733445
 20
99.0015507763
 10
159.2997574591
 20
98.9951911272
 10
159.275711075
 20
98.9895442177
 10
159.2512007716
 20
98.9846262514
 10
159.2262932532
 20
98.9804502965
 10
159.2010543749
 20
98.9770270421
 10
159.1755511411
 20
98.9743660191
 10
159.1498516214
 20
98.9724741622
 10
159.1240249932
 20
98.9713563556
 10
159.0981406926
 20
98.9710160213
 10
159.0722681132
 20
98.9714539052
 10
159.0464766106
 20
98.9726686162
 10
159.0208355152
 20
98.9746572272
 10
158.9954138384
 20
98.9774142251
 10
158.9702794368
 20
98.9809320322
 10
158.9454990472
 20
98.9852015981
 10
158.9211382027
 20
98.9902116304
 10
158.8972631857
 20
98.9959484342
 10
158.8739400653
 20
99.0023962709
 10
158.8512329017
 20
99.0095371038
 10
158.8292006596
 20
99.0173519887
 10
158.8078994128
 20
99.0258211497
 10
158.7873854906
 20
99.0349224468
 10
158.7677150075
 20
99.04463114
 10
158.7489408627
 20
99.0549212943
  0
LINE
  5
286
100
AcDbEntity
  8
RACCORDO
100
AcDbLine
 62
7
  6
CONTINUOUS
 10
163.1971627024
 20
101.1801316143
 11
163.1971627024
 21
90.7292934189
  0
LINE
  5
287
100
AcDbEntity
  8
RACCORDO
100
AcDbLine
 62
7
  6
CONTINUOUS
 10
163.1971627024
 20
101.6699764754
 11
163.1971627024
 21
112.1208146709
  0
LINE
  5
288
100
AcDbEntity
  8
RACCORDO
100
AcDbLine
 62
7
  6
CONTINUOUS
 10
163.1971627024
 20
112.1208146709
 11
162.6582788927
 21
118.810447337
  0
LINE
  5
289
100
AcDbEntity
  8
RACCORDO
100
AcDbLine
 62
7
  6
CONTINUOUS
 10
163.1971627024
 20
90.7292934189
 11
162.6582788927
 21
83.4387227526
  0
LINE
  5
28A
100
AcDbEntity
  8
RACCORDO
100
AcDbLine
 62
250
  6
CONTINUOUS
 10
144.1098473118
 20
124.9255225793
 11
159.0531822647
 21
116.2974282619
  0
LINE
  5
28B
100
AcDbEntity
  8
RACCORDO
100
AcDbLine
 62
7
  6
CONTINUOUS
 10
160.2738685988
 20
120.5581611995
 11
159.5963876083
 21
120.4273569456
  0
LINE
  5
28C
100
AcDbEntity
  8
RACCORDO
100
AcDbLine
 62
250
  6
CONTINUOUS
 10
145.1024259336
 20
126.684798764
 11
160.0691337323
 21
118.0432092586
  0
LINE
  5
28D
100
AcDbEntity
  8
RACCORDO
100
AcDbLine
 62
7
  6
CONTINUOUS
 10
159.403202443
 20
120.4529657808
 11
157.020917347
 21
121.8284673382
  0
LINE
  5
28E
100
AcDbEntity
  8
RACCORDO
100
AcDbLine
 62
7
  6
CONTINUOUS
 10
151.4836064937
 20
125.0256412261
 11
149.1013213977
 21
126.4011427835
  0
LINE
  5
28F
100
AcDbEntity
  8
RACCORDO
100
AcDbLine
 62
7
  6
CONTINUOUS
 10
162.273652098
 20
119.4035112702
 11
160.2738685988
 21
120.5581611995
  0
LINE
  5
290
100
AcDbEntity
  8
DRAFT
100
AcDbLine
 62
7
  6
CONTINUOUS
 10
157.1506840222
 20
122.3614488313
 11
152.3542726495
 21
125.1308366447
  0
LINE
  5
291
100
AcDbEntity
  8
RACCORDO
100
AcDbLine
 62
7
  6
CONTINUOUS
 10
149.2310880729
 20
126.9341242765
 11
147.2313045737
 21
128.0887742058
  0
LINE
  5
292
100
AcDbEntity
  8
RACCORDO
100
AcDbLine
 62
7
  6
CONTINUOUS
 10
152.3542726495
 20
125.1308366447
 11
151.676791659
 21
125.0000323909
  0
LWPOLYLINE
  5
293
100
AcDbEntity
  8
RACCORDO
100
AcDbPolyline
 62
250
  6
CONTINUOUS
 90
28
 70
0
 10
159.7537663523
 20
82.73324127
 10
159.7325281648
 20
82.7210978762
 10
159.7102109466
 20
82.7096818392
 10
159.6868885452
 20
82.6990309348
 10
159.6626381341
 20
82.6891804065
 10
159.6375399576
 20
82.6801628496
 10
159.6116770654
 20
82.6720081033
 10
159.5851350374
 20
82.6647431513
 10
159.5580017009
 20
82.6583920334
 10
159.5303668399
 20
82.6529757654
 10
159.5023218978
 20
82.6485122696
 10
159.473959675
 20
82.6450163157
 10
159.4453740217
 20
82.6424994718
 10
159.4166595276
 20
82.640970066
 10
159.3879112087
 20
82.6404331591
 10
159.3592241928
 20
82.6408905278
 10
159.3306934048
 20
82.6423406587
 10
159.302413253
 20
82.6447787532
 10
159.2744773159
 20
82.6481967438
 10
159.2469780333
 20
82.6525833204
 10
159.2200064001
 20
82.6579239677
 10
159.193651665
 20
82.6642010138
 10
159.1680010355
 20
82.6713936878
 10
159.1431393894
 20
82.6794781894
 10
159.1191489935
 20
82.6884277669
 10
159.0961092319
 20
82.6982128064
 10
159.0740963427
 20
82.7088009293
 10
159.0531831664
 20
82.7201570995
  0
LINE
  5
294
100
AcDbEntity
  8
RACCORDO
100
AcDbLine
 62
250
  6
CONTINUOUS
 10
160.4349540116
 20
82.3312815219
 11
162.6582788927
 21
83.4387227526
  0
LINE
  5
295
100
AcDbEntity
  8
RACCORDO
100
AcDbLine
 62
7
  6
CONTINUOUS
 10
160.3105515857
 20
82.0913974456
 11
162.5227012196
 21
83.1932722702
  0
ELLIPSE
  5
296
100
AcDbEntity
  8
RACCORDO
100
AcDbEllipse
 62
7
  6
CONTINUOUS
 10
162.3047003001
 20
83.6432788067
 30
0.0
 11
-0.2148150744
 21
0.4515576038
 31
0.0
 40
0.6258090719
 41
-3.1302698991
 42
-2.3092664522
  0
ELLIPSE
  5
297
100
AcDbEntity
  8
RACCORDO
100
AcDbEllipse
 62
7
  6
CONTINUOUS
 10
163.0557198037
 20
101.2617741009
 30
0.0
 11
-0.1000238792
 21
0.1731956925
 31
0.0
 40
0.5774195892
 41
-2.3562809449
 42
-0.7856369171
  0
ELLIPSE
  5
298
100
AcDbEntity
  8
RACCORDO
100
AcDbEllipse
 62
7
  6
CONTINUOUS
 10
162.3047003001
 20
119.0142600216
 30
0.0
 11
-0.2807400337
 21
0.4141474974
 31
0.0
 40
0.5245128892
 41
-2.3945640771
 42
-0.8246811388
  0
ELLIPSE
  5
299
100
AcDbEntity
  8
RACCORDO
100
AcDbEllipse
 62
7
  6
CONTINUOUS
 10
163.0557198037
 20
101.7516687029
 30
0.0
 11
-0.1000390991
 21
0.1732220807
 31
0.0
 40
0.5772437351
 41
-3.1546807054
 42
-2.3564331449
  0
ELLIPSE
  5
29A
100
AcDbEntity
  8
RACCORDO
100
AcDbEllipse
 62
7
  6
CONTINUOUS
 10
147.2619223536
 20
127.6997714776
 30
0.0
 11
-0.2805986523
 21
0.4138767202
 31
0.0
 40
0.5251497255
 41
-0.8253745819
 42
-0.0067082778
  0
ELLIPSE
  5
29B
100
AcDbEntity
  8
RACCORDO
100
AcDbEllipse
 62
7
  6
CONTINUOUS
 10
159.5446237993
 20
120.5431785783
 30
0.0
 11
0.1999154856
 21
0.0095814127
 31
0.0
 40
0.6067642562
 41
-2.385266879
 42
-1.3380693278
  0
ELLIPSE
  5
29C
100
AcDbEntity
  8
RACCORDO
100
AcDbEllipse
 62
7
  6
CONTINUOUS
 10
151.62502785
 20
125.1158540235
 30
0.0
 11
0.1999154856
 21
0.0095814127
 31
0.0
 40
0.6067642562
 41
-2.385266879
 42
-1.3380693278
  0
ELLIPSE
  5
29D
100
AcDbEntity
  8
RACCORDO
100
AcDbEllipse
 62
7
  6
CONTINUOUS
 10
157.1623387032
 20
121.9186801357
 30
0.0
 11
0.1999154856
 21
0.0095814127
 31
0.0
 40
0.6067642562
 41
2.850720877
 42
3.8979184282
  0
ELLIPSE
  5
29E
100
AcDbEntity
  8
RACCORDO
100
AcDbEllipse
 62
7
  6
CONTINUOUS
 10
149.2427427539
 20
126.491355581
 30
0.0
 11
0.1999154856
 21
0.0095814127
 31
0.0
 40
0.6067642562
 41
2.850720877
 42
3.8979184282
  0
ENDSEC
  0
SECTION
  2
OBJECTS
  0
DICTIONARY
  5
C
100
AcDbDictionary
280
0
281
1
  3
ACAD_GROUP
350
D
  3
ACAD_MLINESTYLE
350
17
  3
ACAD_LAYOUT
350
1A
  3
ACAD_PLOTSETTINGS
350
19
  3
ACAD_PLOTSTYLENAME
350
E
  0
DICTIONARY
  5
D
102
{ACAD_REACTORS
330
C
102
}
100
AcDbDictionary
280
0
281
1
  0
ACDBDICTIONARYWDFLT
  5
E
102
{ACAD_REACTORS
330
C
102
}
100
AcDbDictionary
281
1
  3
Normal
350
F
100
AcDbDictionaryWithDefault
340
F
  0
DICTIONARY
  5
17
102
{ACAD_REACTORS
330
C
102
}
100
AcDbDictionary
280
0
281
1
  3
Standard
350
18
  0
DICTIONARY
  5
19
102
{ACAD_REACTORS
330
C
102
}
100
AcDbDictionary
281
1
  0
DICTIONARY
  5
1A
102
{ACAD_REACTORS
330
C
102
}
100
AcDbDictionary
281
1
  3
Model
350
29F
  3
Layout1
350
2A0
  0
ACDBPLACEHOLDER
  5
F
102
{ACAD_REACTORS
330
E
102
}
  0
MLINESTYLE
  5
18
102
{ACAD_REACTORS
330
17
102
}
100
AcDbMlineStyle
  2
STANDARD
 70
0
  3

 62
256
 51
90.0
 52
90.0
 71
2
 49
0.5
 62
256
  6
BYLAYER
 49
-0.5
 62
256
  6
BYLAYER
  0
LAYOUT
  5
29F
102
{ACAD_REACTORS
330
1A
102
}
100
AcDbPlotSettings
  1

  2
none_device
  4
ISO_A4_(297.00_x_210.00_MM)
  6

 40
0.0
 41
0.0
 42
0.0
 43
0.0
 44
297.0
 45
210.0
 46
0.0
 47
0.0
 48
0.0
 49
0.0
140
0.0
141
0.0
142
1.0
143
1.0
 70
1024
 72
1
 73
0
 74
0
  7

 75
0
147
1.0
148
0.0
149
0.0
100
AcDbLayout
  1
Model
 70
0
 71
0
 10
0.0
 20
0.0
 11
297.0
 21
210.0
 12
0.0
 22
0.0
 32
0.0
 14
0.0
 24
0.0
 34
0.0
 15
0.0
 25
0.0
 35
0.0
146
0.0
 13
0.0
 23
0.0
 33
0.0
 16
1.0
 26
0.0
 36
0.0
 17
0.0
 27
1.0
 37
0.0
 76
0
330
212
345
0
346
0
  0
LAYOUT
  5
2A0
102
{ACAD_REACTORS
330
1A
102
}
100
AcDbPlotSettings
  1

  2
none_device
  4
ISO_A4_(297.00_x_210.00_MM)
  6

 40
0.0
 41
0.0
 42
0.0
 43
0.0
 44
297.0
 45
210.0
 46
0.0
 47
0.0
 48
0.0
 49
0.0
140
0.0
141
0.0
142
1.0
143
1.0
 70
0
 72
1
 73
0
 74
0
  7

 75
0
147
1.0
148
0.0
149
0.0
100
AcDbLayout
  1
Layout1
 70
0
 71
1
 10
0.0
 20
0.0
 11
297.0
 21
210.0
 12
0.0
 22
0.0
 32
0.0
 14
0.0
 24
0.0
 34
0.0
 15
0.0
 25
0.0
 35
0.0
146
0.0
 13
0.0
 23
0.0
 33
0.0
 16
1.0
 26
0.0
 36
0.0
 17
0.0
 27
1.0
 37
0.0
 76
0
330
213
345
0
346
0
  0
ENDSEC
  0
EOF
