  0
SECTION
  2
HEADER
  9
$ACADVER
  1
AC1024
  9
$DWGCODEPAGE
  3
ANSI_1252
  9
$EXTMAX
 10
297.0
 20
210.0
 30
0.0
  9
$EXTMIN
 10
0.0
 20
0.0
 30
0.0
  9
$LIMMIN
 10
0.0
 20
0.0
  9
$LIMMAX
 10
297.0
 20
210.0
  9
$VIEWCTR
 10
148.5
 20
105.0
  9
$VIEWSIZE
 40
210.0
  9
$CLAYER
  8
0
  9
$LTSCALE
 40
16.335
  9
$CELTYPE
  6
BYLAYER
  9
$DIMSCALE
 40
1.0
  9
$DIMASZ
 40
3.0
  9
$DIMEXO
 40
0.5
  9
$DIMDLI
 40
11.286
  9
$DIMEXE
 40
1.5
  9
$DIMCEN
 40
2.673
  9
$DIMLFAC
 40
1.0
  9
$DIMBLK
  1
_FILLED
  9
$DIMALT
 70
0
  9
$DIMALTF
 40
0.0393700787
  9
$DIMTXT
 40
3.0
  9
$DIMTOL
 70
1
  9
$DIMLIM
 70
0
  9
$DIMTFAC
 40
1.0
  9
$DIMTP
 40
0.01
  9
$DIMTM
 40
0.01
  9
$DIMGAP
 40
0.625
  9
$DIMDSEP
 70
44
  9
$AUNITS
 70
0
  9
$PDMODE
 70
3
  9
$PDSIZE
 40
3.0
  9
$HANDSEED
  5
43B
  9
$TILEMODE
 70
1
  9
$MEASUREMENT
 70
1
  9
$INSUNITS
 70
4
  0
ENDSEC
  0
SECTION
  2
CLASSES
  0
CLASS
  1
ACDBDICTIONARYWDFLT
  2
AcDbDictionaryWithDefault
  3
AutoCAD 2000
 90
0
 91
1
280
0
281
0
  0
CLASS
  1
ACDBPLACEHOLDER
  2
AcDbPlaceHolder
  3
AutoCAD 2000
 90
0
 91
1
280
0
281
0
  0
CLASS
  1
LAYOUT
  2
AcDbLayout
  3
AutoCAD 2000
 90
0
 91
0
280
0
281
0
  0
ENDSEC
  0
SECTION
  2
TABLES
  0
TABLE
  2
VPORT
  5
8
100
AcDbSymbolTable
 70
2
  0
VPORT
  5
1F4
100
AcDbSymbolTableRecord
100
AcDbViewportTableRecord
  2
*ACTIVE
 70
0
 10
0.0
 20
0.0
 11
1.0
 21
1.0
 12
148.5
 22
105.0
 13
0.0
 23
0.0
 14
1.0
 24
1.0
 15
0.0
 25
0.0
 16
0.0
 26
0.0
 36
1.0
 17
0.0
 27
0.0
 37
0.0
 40
210.0
 41
1.4142857143
 42
50.0
 43
0.0
 44
0.0
 50
0.0
 51
0.0
 71
0
 72
100
 73
1
 74
1
 75
0
 76
0
 77
0
 78
0
  0
ENDTAB
  0
TABLE
  2
LTYPE
  5
5
100
AcDbSymbolTable
 70
6
  0
LTYPE
  5
14
100
AcDbSymbolTableRecord
100
AcDbLinetypeTableRecord
  2
BYBLOCK
 70
0
  3

 72
65
 73
0
 40
0.0
  0
LTYPE
  5
15
100
AcDbSymbolTableRecord
100
AcDbLinetypeTableRecord
  2
BYLAYER
 70
0
  3

 72
65
 73
0
 40
0.0
  0
LTYPE
  5
16
100
AcDbSymbolTableRecord
100
AcDbLinetypeTableRecord
  2
CONTINUOUS
 70
64
  3
Solid line
 72
65
 73
0
 40
0.0
  0
LTYPE
  5
1F5
100
AcDbSymbolTableRecord
100
AcDbLinetypeTableRecord
  2
CENTER
 70
64
  3
____ _ ____ _ ____ _ ____ _ ____ _ ____ _ ____
 72
65
 73
4
 40
0.6
 49
0.375
 74
0
 49
-0.075
 74
0
 49
0.075
 74
0
 49
-0.075
 74
0
  0
LTYPE
  5
1F6
100
AcDbSymbolTableRecord
100
AcDbLinetypeTableRecord
  2
HIDDEN
 70
64
  3
- - - - - - - - - - - - - - - - - - - -
 72
65
 73
2
 40
0.2
 49
0.1
 74
0
 49
-0.1
 74
0
  0
LTYPE
  5
1F7
100
AcDbSymbolTableRecord
100
AcDbLinetypeTableRecord
  2
PHANTOM
 70
64
  3
_____ _ _ _____ _ _ _____ _ _ _____
 72
65
 73
6
 40
0.8
 49
0.45
 74
0
 49
-0.05
 74
0
 49
0.1
 74
0
 49
-0.05
 74
0
 49
0.1
 74
0
 49
-0.05
 74
0
  0
LTYPE
  5
1F8
100
AcDbSymbolTableRecord
100
AcDbLinetypeTableRecord
  2
DOT
 70
64
  3
. . . . . . . . . . . . . . . . . . . .
 72
65
 73
2
 40
0.2
 49
0.1
 74
0
 49
-0.1
 74
0
  0
LTYPE
  5
1F9
100
AcDbSymbolTableRecord
100
AcDbLinetypeTableRecord
  2
DASHED
 70
64
  3
- - - - - - - - - - - - - - - - - - - -
 72
65
 73
2
 40
0.2
 49
0.1
 74
0
 49
-0.1
 74
0
  0
ENDTAB
  0
TABLE
  2
LAYER
  5
2
100
AcDbSymbolTable
 70
36
  0
LAYER
  5
10
100
AcDbSymbolTableRecord
100
AcDbLayerTableRecord
  2
0
 70
0
 62
7
  6
CONTINUOUS
370
-3
390
F
  0
LAYER
  5
1FA
100
AcDbSymbolTableRecord
100
AcDbLayerTableRecord
  2
DEFAULT_1
 70
0
 62
7
  6
CENTER
370
-3
390
F
  0
LAYER
  5
1FB
100
AcDbSymbolTableRecord
100
AcDbLayerTableRecord
  2
DEFAULT_2
 70
0
 62
7
  6
HIDDEN
370
-3
390
F
  0
LAYER
  5
1FC
100
AcDbSymbolTableRecord
100
AcDbLayerTableRecord
  2
DEFAULT_3
 70
0
 62
7
  6
PHANTOM
370
-3
390
F
  0
LAYER
  5
1FD
100
AcDbSymbolTableRecord
100
AcDbLayerTableRecord
  2
ASSI
 70
0
 62
7
  6
CONTINUOUS
370
-3
390
F
  0
LAYER
  5
1FE
100
AcDbSymbolTableRecord
100
AcDbLayerTableRecord
  2
COORDINATE
 70
0
 62
7
  6
CONTINUOUS
370
-3
390
F
  0
LAYER
  5
1FF
100
AcDbSymbolTableRecord
100
AcDbLayerTableRecord
  2
COPY_PUBLISH
 70
0
 62
7
  6
CONTINUOUS
370
-3
390
F
  0
LAYER
  5
200
100
AcDbSymbolTableRecord
100
AcDbLayerTableRecord
  2
COSMETICI
 70
0
 62
7
  6
CONTINUOUS
370
-3
390
F
  0
LAYER
  5
201
100
AcDbSymbolTableRecord
100
AcDbLayerTableRecord
  2
CURVE
 70
0
 62
7
  6
CONTINUOUS
370
-3
390
F
  0
LAYER
  5
202
100
AcDbSymbolTableRecord
100
AcDbLayerTableRecord
  2
DRAFT
 70
0
 62
7
  6
CONTINUOUS
370
-3
390
F
  0
LAYER
  5
203
100
AcDbSymbolTableRecord
100
AcDbLayerTableRecord
  2
IMPORT_IGES
 70
0
 62
7
  6
CONTINUOUS
370
-3
390
F
  0
LAYER
  5
204
100
AcDbSymbolTableRecord
100
AcDbLayerTableRecord
  2
INTF_1
 70
0
 62
7
  6
CONTINUOUS
370
-3
390
F
  0
LAYER
  5
205
100
AcDbSymbolTableRecord
100
AcDbLayerTableRecord
  2
INTF_11
 70
0
 62
7
  6
CONTINUOUS
370
-3
390
F
  0
LAYER
  5
206
100
AcDbSymbolTableRecord
100
AcDbLayerTableRecord
  2
NONE
 70
0
 62
7
  6
CONTINUOUS
370
-3
390
F
  0
LAYER
  5
207
100
AcDbSymbolTableRecord
100
AcDbLayerTableRecord
  2
NOTE
 70
0
 62
7
  6
CONTINUOUS
370
-3
390
F
  0
LAYER
  5
208
100
AcDbSymbolTableRecord
100
AcDbLayerTableRecord
  2
PIANI
 70
0
 62
7
  6
CONTINUOUS
370
-3
390
F
  0
LAYER
  5
209
100
AcDbSymbolTableRecord
100
AcDbLayerTableRecord
  2
PUNTI
 70
0
 62
7
  6
CONTINUOUS
370
-3
390
F
  0
LAYER
  5
20A
100
AcDbSymbolTableRecord
100
AcDbLayerTableRecord
  2
RACCORDO
 70
0
 62
7
  6
CONTINUOUS
370
-3
390
F
  0
LAYER
  5
20B
100
AcDbSymbolTableRecord
100
AcDbLayerTableRecord
  2
RGB____0____0____0__
 70
0
 62
7
  6
CONTINUOUS
370
-3
390
F
  0
LAYER
  5
20C
100
AcDbSymbolTableRecord
100
AcDbLayerTableRecord
  2
SIMBOLI
 70
0
 62
7
  6
CONTINUOUS
370
-3
390
F
  0
LAYER
  5
20D
100
AcDbSymbolTableRecord
100
AcDbLayerTableRecord
  2
SMUSSO
 70
0
 62
7
  6
CONTINUOUS
370
-3
390
F
  0
LAYER
  5
20E
100
AcDbSymbolTableRecord
100
AcDbLayerTableRecord
  2
SNAPLINE
 70
0
 62
7
  6
CONTINUOUS
370
-3
390
F
  0
LAYER
  5
20F
100
AcDbSymbolTableRecord
100
AcDbLayerTableRecord
  2
SUPERFICI
 70
0
 62
7
  6
CONTINUOUS
370
-3
390
F
  0
LAYER
  5
210
100
AcDbSymbolTableRecord
100
AcDbLayerTableRecord
  2
TRASH
 70
0
 62
7
  6
CONTINUOUS
370
-3
390
F
  0
ENDTAB
  0
TABLE
  2
STYLE
  5
3
100
AcDbSymbolTable
 70
1
  0
STYLE
  5
11
100
AcDbSymbolTableRecord
100
AcDbTextStyleTableRecord
  2
STANDARD
 70
0
 40
0.0
 41
0.8
 50
0.0
 71
0
 42
0.2
  3
txt
  4

  0
STYLE
  5
211
100
AcDbSymbolTableRecord
100
AcDbTextStyleTableRecord
  2
TEXTSTYLE_1
 70
0
 40
0.0
 41
0.8
 50
0.0
 71
0
 42
0.2
  3
gdt
  4

  0
ENDTAB
  0
TABLE
  2
VIEW
  5
6
100
AcDbSymbolTable
 70
0
  0
ENDTAB
  0
TABLE
  2
UCS
  5
7
100
AcDbSymbolTable
 70
0
  0
ENDTAB
  0
TABLE
  2
APPID
  5
9
100
AcDbSymbolTable
 70
1
  0
APPID
  5
212
100
AcDbSymbolTableRecord
100
AcDbRegAppTableRecord
  2
ACAD
 70
0
  0
ENDTAB
  0
TABLE
  2
BLOCK_RECORD
  5
1
100
AcDbSymbolTable
 70
0
  0
BLOCK_RECORD
  5
213
100
AcDbSymbolTableRecord
100
AcDbBlockTableRecord
  2
*Model_Space
  0
BLOCK_RECORD
  5
214
100
AcDbSymbolTableRecord
100
AcDbBlockTableRecord
  2
*Paper_Space
  0
BLOCK_RECORD
  5
215
100
AcDbSymbolTableRecord
100
AcDbBlockTableRecord
  2
_FILLED
  0
ENDTAB
  0
TABLE
  2
DIMSTYLE
  5
A
100
AcDbSymbolTable
 70
1
100
AcDbDimStyleTable
 71
0
  0
DIMSTYLE
105
216
100
AcDbSymbolTableRecord
100
AcDbDimStyleTableRecord
  2
STANDARD
 70
0
  3

  4

 40
1.0
 41
3.0
 42
0.5
 43
0.38
 44
1.5
 45
0.0
 46
0.0
 47
0.01
 48
0.01
140
3.0
141
0.09
142
0.0
143
25.4
144
1.0
145
0.0
146
1.0
147
0.625
 71
1
 72
0
 73
0
 74
0
 75
0
 76
0
 77
1
 78
8
 79
2
170
0
171
1
172
0
173
0
174
0
175
0
176
0
177
0
178
0
270
2
179
2
271
2
272
2
273
2
274
2
275
0
280
0
281
0
282
0
283
1
284
8
285
0
286
0
287
3
288
0
340
11
278
44
341
215
342
215
343
215
344
215
  0
ENDTAB
  0
ENDSEC
  0
SECTION
  2
BLOCKS
  0
BLOCK
  5
20
100
AcDbEntity
  8
0
100
AcDbBlockBegin
  2
*Model_Space
 70
0
 10
0.0
 20
0.0
 30
0.0
  3
*Model_Space
  1

  0
ENDBLK
  5
21
100
AcDbEntity
  8
0
100
AcDbBlockEnd
  0
BLOCK
  5
1C
100
AcDbEntity
  8
0
100
AcDbBlockBegin
  2
*Paper_Space
 70
0
 10
0.0
 20
0.0
 30
0.0
  3
*Paper_Space
  1

  0
ENDBLK
  5
1D
100
AcDbEntity
  8
0
100
AcDbBlockEnd
  0
BLOCK
  5
217
100
AcDbEntity
  8
0
100
AcDbBlockBegin
  2
_FILLED
 70
64
 10
0.0
 20
0.0
  3
_FILLED
  1

  0
SOLID
  5
218
100
AcDbEntity
  8
0
  6
BYBLOCK
 62
0
100
AcDbTrace
 10
0.0
 20
0.0
 11
-1.0
 21
0.3166666667
 12
-1.0
 22
-0.3166666667
 13
-1.0
 23
-0.3166666667
  0
ENDBLK
  5
219
100
AcDbEntity
  8
0
  6
BYBLOCK
 62
0
100
AcDbBlockEnd
  0
ENDSEC
  0
SECTION
  2
ENTITIES
  0
LWPOLYLINE
  5
21A
100
AcDbEntity
  8
ASSI
100
AcDbPolyline
 62
7
  6
CONTINUOUS
 90
15
 70
0
 10
-50.8733506844
 20
63.6883096287
 10
-50.8953089648
 20
63.6735889474
 10
-50.9315174961
 20
63.6460424376
 10
-50.9658580483
 20
63.6155585109
 10
-50.9980357672
 20
63.5823138305
 10
-51.0278539281
 20
63.5464368372
 10
-51.0552034561
 20
63.5079674233
 10
-51.0798899762
 20
63.4670611148
 10
-51.1017054959
 20
63.4239494696
 10
-51.1205419576
 20
63.3787236454
 10
-51.1362817914
 20
63.3315225322
 10
-51.1487958371
 20
63.282574983
 10
-51.1580087546
 20
63.2319912796
 10
-51.1638616725
 20
63.1798738752
 10
-51.1656143962
 20
63.1507900374
  0
LINE
  5
21B
100
AcDbEntity
  8
ASSI
100
AcDbLine
 62
7
  6
CONTINUOUS
 10
-50.873571761
 20
63.6881690429
 11
-49.7959898524
 21
64.3772701809
  0
LINE
  5
21C
100
AcDbEntity
  8
ASSI
100
AcDbLine
 62
250
  6
CONTINUOUS
 10
-50.4640397183
 20
63.6543399616
 11
-49.3857584911
 21
64.3438883058
  0
LWPOLYLINE
  5
21D
100
AcDbEntity
  8
ASSI
100
AcDbPolyline
 62
250
  6
CONTINUOUS
 90
19
 70
0
 10
-50.8260504675
 20
63.0965852488
 10
-50.8220986908
 20
63.1312853311
 10
-50.8157487975
 20
63.1667708395
 10
-50.8070422461
 20
63.2028100952
 10
-50.7960358811
 20
63.2391678023
 10
-50.7828015619
 20
63.2756065892
 10
-50.7674256917
 20
63.3118885577
 10
-50.750008656
 20
63.3477768304
 10
-50.7306641683
 20
63.3830370979
 10
-50.7095185252
 20
63.4174391519
 10
-50.6867097829
 20
63.4507583875
 10
-50.6623868557
 20
63.4827772691
 10
-50.6367085436
 20
63.5132867511
 10
-50.6098424883
 20
63.5420876501
 10
-50.5819641007
 20
63.5689919212
 10
-50.5532554179
 20
63.5938238915
 10
-50.5239038835
 20
63.6164214368
 10
-50.4941011216
 20
63.6366370351
 10
-50.4640417093
 20
63.6543387092
  0
LWPOLYLINE
  5
21E
100
AcDbEntity
  8
ASSI
100
AcDbPolyline
 62
250
  6
CONTINUOUS
 90
25
 70
0
 10
-51.0500051089
 20
-5.8371169268
 10
-51.0482329123
 20
-5.8539015238
 10
-51.0456459068
 20
-5.8710630171
 10
-51.0422388074
 20
-5.8885981975
 10
-51.037985172
 20
-5.906572128
 10
-51.0329006781
 20
-5.9249131969
 10
-51.027044098
 20
-5.9434137223
 10
-51.0203996839
 20
-5.9620838057
 10
-51.0129747293
 20
-5.9809082083
 10
-51.0048649756
 20
-5.9996427206
 10
-50.9960609809
 20
-6.0182834364
 10
-50.9865677131
 20
-6.0368315638
 10
-50.9765057024
 20
-6.0550525193
 10
-50.9658689025
 20
-6.0729431433
 10
-50.9546636377
 20
-6.0905068156
 10
-50.9430323802
 20
-6.1075208469
 10
-50.9309715702
 20
-6.1239824269
 10
-50.9184898364
 20
-6.1398975335
 10
-50.9057511198
 20
-6.1550586213
 10
-50.8927565455
 20
-6.1694594044
 10
-50.8795140981
 20
-6.1831118219
 10
-50.8662005233
 20
-6.1958372111
 10
-50.8528789787
 20
-6.2075786406
 10
-50.8394979551
 20
-6.2184002475
 10
-50.8260631426
 20
-6.2283055492
  0
LWPOLYLINE
  5
21F
100
AcDbEntity
  8
ASSI
100
AcDbPolyline
 62
250
  6
CONTINUOUS
 90
10
 70
0
 10
-51.0500051089
 20
-5.8371169268
 10
-51.066520225
 20
-5.6187314267
 10
-51.0815085772
 20
-5.3899765193
 10
-51.0949740251
 20
-5.1508559527
 10
-51.1069918759
 20
-4.9002129062
 10
-51.117510634
 20
-4.6392230622
 10
-51.1264085815
 20
-4.3714304057
 10
-51.1337097037
 20
-4.0968028822
 10
-51.1395556916
 20
-3.815482897
 10
-51.1440860365
 20
-3.5313303185
  0
LWPOLYLINE
  5
220
100
AcDbEntity
  8
ASSI
100
AcDbPolyline
 62
7
  6
CONTINUOUS
 90
19
 70
0
 10
-51.1655833201
 20
-5.654146992
 10
-51.1646150285
 20
-5.6717761124
 10
-51.1592942019
 20
-5.7257235273
 10
-51.1505752541
 20
-5.779338072
 10
-51.1385416294
 20
-5.832778014
 10
-51.1232805149
 20
-5.8859496355
 10
-51.1050001761
 20
-5.9383458176
 10
-51.0837752889
 20
-5.9899455994
 10
-51.05962249
 20
-6.0407214844
 10
-51.0328617813
 20
-6.0900495676
 10
-51.0035385057
 20
-6.1378852391
 10
-50.9716726069
 20
-6.1841647979
 10
-50.937648473
 20
-6.2282984997
 10
-50.9014847832
 20
-6.2702596562
 10
-50.8631626963
 20
-6.3099779465
 10
-50.8230144864
 20
-6.3470266658
 10
-50.7810768374
 20
-6.3812879155
 10
-50.7371739178
 20
-6.4127701121
 10
-50.725333572
 20
-6.4205407213
  0
LWPOLYLINE
  5
221
100
AcDbEntity
  8
ASSI
100
AcDbPolyline
 62
250
  6
CONTINUOUS
 90
7
 70
0
 10
-51.2491747693
 20
28.698111919
 10
-51.2483914672
 20
28.6819586534
 10
-51.2444554816
 20
28.658540852
 10
-51.2372299203
 20
28.6353858757
 10
-51.2267627743
 20
28.6126475161
 10
-51.2131235648
 20
28.5904767977
 10
-51.1964028811
 20
28.5690209749
  0
LINE
  5
222
100
AcDbEntity
  8
ASSI
100
AcDbLine
 62
7
  6
CONTINUOUS
 10
-51.1655686444
 20
-5.6544847099
 11
-51.1655834024
 21
-5.6541469956
  0
LWPOLYLINE
  5
223
100
AcDbEntity
  8
ASSI
100
AcDbPolyline
 62
250
  6
CONTINUOUS
 90
10
 70
0
 10
-51.1656189378
 20
63.1506832981
 10
-51.1651574538
 20
63.1310422723
 10
-51.1615671344
 20
63.1089602393
 10
-51.1547488797
 20
63.0870131372
 10
-51.1447471073
 20
63.0653439387
 10
-51.1316269732
 20
63.0440938056
 10
-51.1154739478
 20
63.0234011697
 10
-51.0963932585
 20
63.0034008312
 10
-51.0745092054
 20
62.9842230806
 10
-51.0499643504
 20
62.9659928496
  0
LINE
  5
224
100
AcDbEntity
  8
ASSI
100
AcDbLine
 62
250
  6
CONTINUOUS
 10
-51.1440860365
 20
-3.5313303185
 11
-51.1495517295
 21
-2.9587591468
  0
LWPOLYLINE
  5
225
100
AcDbEntity
  8
ASSI
100
AcDbPolyline
 62
7
  6
CONTINUOUS
 90
4
 70
0
 10
-51.2207927782
 20
-2.6743715335
 10
-51.2140764151
 20
-3.7190120373
 10
-51.1965821042
 20
-4.7350657279
 10
-51.1655686444
 20
-5.6544847099
  0
LINE
  5
226
100
AcDbEntity
  8
ASSI
100
AcDbLine
 62
250
  6
CONTINUOUS
 10
-51.1782912532
 20
9.3432360101
 11
-51.1869949442
 21
11.9297451486
  0
LINE
  5
227
100
AcDbEntity
  8
ASSI
100
AcDbLine
 62
250
  6
CONTINUOUS
 10
-51.1495517295
 20
-2.9587591468
 11
-51.1516182027
 21
-2.3698457478
  0
LINE
  5
228
100
AcDbEntity
  8
ASSI
100
AcDbLine
 62
7
  6
CONTINUOUS
 10
-51.2447919683
 20
12.9223708403
 11
-51.2232739223
 21
4.0815282116
  0
LINE
  5
229
100
AcDbEntity
  8
ASSI
100
AcDbLine
 62
250
  6
CONTINUOUS
 10
-51.1869949442
 20
11.9297451486
 11
-51.1926083838
 21
14.805748306
  0
LINE
  5
22A
100
AcDbEntity
  8
ASSI
100
AcDbLine
 62
250
  6
CONTINUOUS
 10
-51.149530053
 20
2.2337057603
 11
-51.1782912532
 21
9.3432360101
  0
LINE
  5
22B
100
AcDbEntity
  8
ASSI
100
AcDbLine
 62
7
  6
CONTINUOUS
 10
-51.2232739223
 20
4.0815282116
 11
-51.2205684804
 21
1.7425187496
  0
LINE
  5
22C
100
AcDbEntity
  8
ASSI
100
AcDbLine
 62
250
  6
CONTINUOUS
 10
-51.1926083838
 20
14.805748306
 11
-51.1956812796
 21
18.8388859758
  0
LINE
  5
22D
100
AcDbEntity
  8
ASSI
100
AcDbLine
 62
7
  6
CONTINUOUS
 10
-51.2490188929
 20
21.2827323775
 11
-51.2447919683
 21
12.9223708403
  0
LINE
  5
22E
100
AcDbEntity
  8
ASSI
100
AcDbLine
 62
250
  6
CONTINUOUS
 10
-51.1489517995
 20
56.2339590315
 11
-51.151691836
 21
59.3981981419
  0
LINE
  5
22F
100
AcDbEntity
  8
ASSI
100
AcDbLine
 62
250
  6
CONTINUOUS
 10
-51.1956812796
 20
18.8388859758
 11
-51.1960748622
 21
36.8277573851
  0
LINE
  5
230
100
AcDbEntity
  8
ASSI
100
AcDbLine
 62
7
  6
CONTINUOUS
 10
-51.2205684804
 20
1.7425187496
 11
-51.2207927782
 21
-2.6743715335
  0
LINE
  5
231
100
AcDbEntity
  8
ASSI
100
AcDbLine
 62
7
  6
CONTINUOUS
 10
-51.2447999433
 20
44.4736796704
 11
-51.2490188929
 21
21.2827323775
  0
LINE
  5
232
100
AcDbEntity
  8
ASSI
100
AcDbLine
 62
250
  6
CONTINUOUS
 10
-51.1960748622
 20
36.8277573851
 11
-51.1928453654
 21
42.148957446
  0
LWPOLYLINE
  5
233
100
AcDbEntity
  8
ASSI
100
AcDbPolyline
 62
250
  6
CONTINUOUS
 90
3
 70
0
 10
-51.1516182027
 20
-2.3698457478
 10
-51.1506156288
 20
-1.1168711336
 10
-51.149530053
 20
2.2337057603
  0
LINE
  5
234
100
AcDbEntity
  8
ASSI
100
AcDbLine
 62
7
  6
CONTINUOUS
 10
-51.2205699732
 20
55.6828099309
 11
-51.2232795638
 21
53.3406216303
  0
LINE
  5
235
100
AcDbEntity
  8
ASSI
100
AcDbLine
 62
250
  6
CONTINUOUS
 10
-51.1928453654
 20
42.148957446
 11
-51.188005001
 21
44.8077990966
  0
LINE
  5
236
100
AcDbEntity
  8
ASSI
100
AcDbLine
 62
7
  6
CONTINUOUS
 10
-51.2370952161
 20
48.3963953662
 11
-51.2447999433
 21
44.4736796704
  0
LINE
  5
237
100
AcDbEntity
  8
ASSI
100
AcDbLine
 62
7
  6
CONTINUOUS
 10
-51.2232795638
 20
53.3406216303
 11
-51.2370952161
 21
48.3963953662
  0
LINE
  5
238
100
AcDbEntity
  8
ASSI
100
AcDbLine
 62
250
  6
CONTINUOUS
 10
-51.151691836
 20
59.3981981419
 11
-51.1501657038
 21
59.9865967896
  0
LINE
  5
239
100
AcDbEntity
  8
ASSI
100
AcDbLine
 62
250
  6
CONTINUOUS
 10
-51.188005001
 20
44.8077990966
 11
-51.1805824744
 21
47.2132148969
  0
LINE
  5
23A
100
AcDbEntity
  8
ASSI
100
AcDbLine
 62
250
  6
CONTINUOUS
 10
-51.1549576409
 20
52.7183891831
 11
-51.1489517995
 21
56.2339590315
  0
LINE
  5
23B
100
AcDbEntity
  8
ASSI
100
AcDbLine
 62
250
  6
CONTINUOUS
 10
-51.1805824744
 20
47.2132148969
 11
-51.1549576409
 21
52.7183891831
  0
LINE
  5
23C
100
AcDbEntity
  8
ASSI
100
AcDbLine
 62
250
  6
CONTINUOUS
 10
-51.1501657038
 20
59.9865967896
 11
-51.1455961387
 21
60.544019464
  0
LWPOLYLINE
  5
23D
100
AcDbEntity
  8
ASSI
100
AcDbPolyline
 62
250
  6
CONTINUOUS
 90
11
 70
0
 10
-51.1455961387
 20
60.544019464
 10
-51.1373715481
 20
61.0645316423
 10
-51.1317717533
 20
61.3093022361
 10
-51.1251678868
 20
61.5443046703
 10
-51.1175413936
 20
61.7708297131
 10
-51.1088679036
 20
61.9888887032
 10
-51.0991521427
 20
62.1984790101
 10
-51.0884056114
 20
62.4008754108
 10
-51.0766236928
 20
62.5965061927
 10
-51.0637977266
 20
62.7849486839
 10
-51.0499294922
 20
62.9662024156
  0
LWPOLYLINE
  5
23E
100
AcDbEntity
  8
ASSI
100
AcDbPolyline
 62
7
  6
CONTINUOUS
 90
5
 70
0
 10
-51.1656192471
 20
63.1506833111
 10
-51.1967366441
 20
62.1886296767
 10
-51.2141424664
 20
61.1516647235
 10
-51.2208096645
 20
60.0990264443
 10
-51.2205699732
 20
55.6828099309
  0
LINE
  5
23F
100
AcDbEntity
  8
ASSI
100
AcDbLine
 62
7
  6
CONTINUOUS
 10
-51.1656143962
 20
63.1507900374
 11
-51.1656189378
 21
63.1506832981
  0
LINE
  5
240
100
AcDbEntity
  8
RACCORDO
100
AcDbLine
 62
250
  6
CONTINUOUS
 10
-32.6872831032
 20
30.344426213
 11
-34.3949008837
 21
29.1478697248
  0
LINE
  5
241
100
AcDbEntity
  8
RACCORDO
100
AcDbLine
 62
7
  6
CONTINUOUS
 10
-32.7600248718
 20
30.1354917135
 11
-34.3949008837
 21
28.9899066055
  0
LWPOLYLINE
  5
242
100
AcDbEntity
  8
RACCORDO
100
AcDbPolyline
 62
250
  6
CONTINUOUS
 90
3
 70
0
 10
-32.6872831032
 20
33.2703852913
 10
-32.6625985261
 20
33.2862806627
 10
-32.6553366934
 20
33.2917168265
  0
LINE
  5
243
100
AcDbEntity
  8
RACCORDO
100
AcDbLine
 62
250
  6
CONTINUOUS
 10
-33.3749381983
 20
33.7177650791
 11
-34.3949008837
 21
33.2127941631
  0
LINE
  5
244
100
AcDbEntity
  8
RACCORDO
100
AcDbLine
 62
250
  6
CONTINUOUS
 10
-32.6872831032
 20
33.2703852913
 11
-34.3949008837
 21
32.424964839
  0
LINE
  5
245
100
AcDbEntity
  8
RACCORDO
100
AcDbLine
 62
7
  6
CONTINUOUS
 10
-33.8081258253
 20
33.9742387389
 11
-34.3949008837
 21
33.7053257719
  0
LINE
  5
246
100
AcDbEntity
  8
RACCORDO
100
AcDbLine
 62
250
  6
CONTINUOUS
 10
-33.6751654148
 20
33.8955180161
 11
-34.3949008837
 21
33.5656706622
  0
LINE
  5
247
100
AcDbEntity
  8
RACCORDO
100
AcDbLine
 62
7
  6
CONTINUOUS
 10
-35.6239645587
 20
35.0273204783
 11
-35.6236208481
 21
35.0274554829
  0
LINE
  5
248
100
AcDbEntity
  8
RACCORDO
100
AcDbLine
 62
250
  6
CONTINUOUS
 10
-35.7523231656
 20
34.7870948243
 11
-35.4084745972
 21
34.9217434247
  0
LWPOLYLINE
  5
249
100
AcDbEntity
  8
RACCORDO
100
AcDbPolyline
 62
250
  6
CONTINUOUS
 90
25
 70
0
 10
-36.1611105893
 20
34.8074575541
 10
-36.1586268762
 20
34.8500731601
 10
-36.1538307853
 20
34.8908051227
 10
-36.146721839
 20
34.929653614
 10
-36.1372444217
 20
34.9667961604
 10
-36.125452972
 20
35.0020557103
 10
-36.1115121994
 20
35.034900456
 10
-36.0953897196
 20
35.0652696291
 10
-36.0771168744
 20
35.0932242788
 10
-36.0569543311
 20
35.1184150355
 10
-36.0348903615
 20
35.1407944231
 10
-36.0109359711
 20
35.1604099864
 10
-35.9853863664
 20
35.1770546044
 10
-35.9582068932
 20
35.19069829
 10
-35.929431924
 20
35.2013708872
 10
-35.8994607207
 20
35.2089547297
 10
-35.8683506506
 20
35.2134247354
 10
-35.8360447299
 20
35.2148055578
 10
-35.802771138
 20
35.2130539059
 10
-35.7684515984
 20
35.2081489027
 10
-35.7331651152
 20
35.2001109287
 10
-35.697376203
 20
35.1889583829
 10
-35.6612402357
 20
35.1746971183
 10
-35.6246031751
 20
35.1573205908
 10
-35.5874656557
 20
35.1368285074
  0
LWPOLYLINE
  5
24A
100
AcDbEntity
  8
RACCORDO
100
AcDbPolyline
 62
250
  6
CONTINUOUS
 90
14
 70
0
 10
-35.7515974968
 20
34.8132262937
 10
-35.7493186897
 20
34.8384335909
 10
-35.7454976044
 20
34.8626019061
 10
-35.7401529112
 20
34.8856344233
 10
-35.7333039491
 20
34.907408043
 10
-35.7249801605
 20
34.9277844992
 10
-35.715225097
 20
34.9466702653
 10
-35.7040862597
 20
34.9639958729
 10
-35.6916173555
 20
34.9796825296
 10
-35.677881355
 20
34.9936644755
 10
-35.6629378839
 20
35.0058968901
 10
-35.6468414908
 20
35.0163429898
 10
-35.6296459663
 20
35.0249678566
 10
-35.6239645587
 20
35.0273204783
  0
LWPOLYLINE
  5
24B
100
AcDbEntity
  8
ASSI
100
AcDbPolyline
 62
250
  6
CONTINUOUS
 90
25
 70
0
 10
48.7164243678
 20
-63.7028788223
 10
48.7312133262
 20
-63.7092746297
 10
48.7458010747
 20
-63.7146057345
 10
48.7601927031
 20
-63.7188682643
 10
48.7744557123
 20
-63.722066384
 10
48.7885330318
 20
-63.7241879801
 10
48.8022420421
 20
-63.7252054096
 10
48.8155794381
 20
-63.7251006318
 10
48.8285566604
 20
-63.7238854763
 10
48.8410109535
 20
-63.7215788259
 10
48.8529367973
 20
-63.7181664979
 10
48.8643442518
 20
-63.7136592004
 10
48.8750910972
 20
-63.7081153165
 10
48.8851697199
 20
-63.7015234782
 10
48.8945880059
 20
-63.6938948311
 10
48.9032239727
 20
-63.6853238313
 10
48.911066734
 20
-63.6758001
 10
48.9181232221
 20
-63.6653370126
 10
48.9242953593
 20
-63.654066812
 10
48.9295681649
 20
-63.6419747587
 10
48.9339491619
 20
-63.6290812516
 10
48.9373717105
 20
-63.6155730117
 10
48.939809963
 20
-63.6015150395
 10
48.941279925
 20
-63.5868498005
 10
48.9417768281
 20
-63.5715809041
  0
LINE
  5
24C
100
AcDbEntity
  8
RACCORDO
100
AcDbLine
 62
250
  6
CONTINUOUS
 10
-36.1611105893
 20
-1.5513897559
 11
-36.2170097813
 21
0.3475754439
  0
LINE
  5
24D
100
AcDbEntity
  8
RACCORDO
100
AcDbLine
 62
250
  6
CONTINUOUS
 10
-36.2170097813
 20
0.3475754439
 11
-36.2472501307
 21
1.4653871637
  0
LINE
  5
24E
100
AcDbEntity
  8
RACCORDO
100
AcDbLine
 62
250
  6
CONTINUOUS
 10
-35.8078087129
 20
0.3419252374
 11
-35.8377082556
 21
1.4589485053
  0
LINE
  5
24F
100
AcDbEntity
  8
RACCORDO
100
AcDbLine
 62
250
  6
CONTINUOUS
 10
-36.2472501307
 20
1.4653871637
 11
-36.2742396527
 21
2.5810358074
  0
LINE
  5
250
100
AcDbEntity
  8
RACCORDO
100
AcDbLine
 62
250
  6
CONTINUOUS
 10
-35.8377082556
 20
1.4589485053
 11
-35.8643508759
 21
2.5736297578
  0
LINE
  5
251
100
AcDbEntity
  8
RACCORDO
100
AcDbLine
 62
250
  6
CONTINUOUS
 10
-36.2742396527
 20
2.5810358074
 11
-36.2980301148
 21
3.6944139681
  0
LINE
  5
252
100
AcDbEntity
  8
RACCORDO
100
AcDbLine
 62
250
  6
CONTINUOUS
 10
-35.8643508759
 20
2.5736297578
 11
-35.8877323004
 21
3.6860724265
  0
LINE
  5
253
100
AcDbEntity
  8
RACCORDO
100
AcDbLine
 62
250
  6
CONTINUOUS
 10
-36.2980301148
 20
3.6944139681
 11
-36.3193835323
 21
4.8272870295
  0
LINE
  5
254
100
AcDbEntity
  8
RACCORDO
100
AcDbLine
 62
250
  6
CONTINUOUS
 10
-35.8877323004
 20
3.6860724265
 11
-35.9086270562
 21
4.8180611222
  0
LWPOLYLINE
  5
255
100
AcDbEntity
  8
RACCORDO
100
AcDbPolyline
 62
250
  6
CONTINUOUS
 90
9
 70
0
 10
-35.5874656557
 20
35.1368285075
 10
-35.5870829349
 20
35.1122352988
 10
-35.584500406
 20
35.0890397608
 10
-35.5797444919
 20
35.0674792264
 10
-35.5728638535
 20
35.0477743003
 10
-35.5639288908
 20
35.0301265996
 10
-35.5530310226
 20
35.0147166918
 10
-35.5402817521
 20
35.0017022501
 10
-35.5255678899
 20
34.9910704899
  0
LINE
  5
256
100
AcDbEntity
  8
RACCORDO
100
AcDbLine
 62
250
  6
CONTINUOUS
 10
-36.3193835323
 20
4.8272870295
 11
-36.3454285751
 21
6.4320429489
  0
LINE
  5
257
100
AcDbEntity
  8
RACCORDO
100
AcDbLine
 62
250
  6
CONTINUOUS
 10
-35.9086270562
 20
4.8180611222
 11
-35.9339919931
 21
6.4216976029
  0
LINE
  5
258
100
AcDbEntity
  8
RACCORDO
100
AcDbLine
 62
250
  6
CONTINUOUS
 10
-36.3454285751
 20
6.4320429489
 11
-36.3699086919
 21
8.2283576028
  0
LINE
  5
259
100
AcDbEntity
  8
RACCORDO
100
AcDbLine
 62
250
  6
CONTINUOUS
 10
-35.9339919931
 20
6.4216976029
 11
-35.9577487243
 21
8.216958366
  0
LINE
  5
25A
100
AcDbEntity
  8
RACCORDO
100
AcDbLine
 62
250
  6
CONTINUOUS
 10
-36.3699086919
 20
8.2283576028
 11
-36.3872638243
 21
9.7344584106
  0
LINE
  5
25B
100
AcDbEntity
  8
RACCORDO
100
AcDbLine
 62
250
  6
CONTINUOUS
 10
-35.9577487243
 20
8.216958366
 11
-35.974551047
 21
9.722253383
  0
LINE
  5
25C
100
AcDbEntity
  8
RACCORDO
100
AcDbLine
 62
250
  6
CONTINUOUS
 10
-36.3872638243
 20
9.7344584106
 11
-36.4027761774
 21
11.3831518909
  0
LINE
  5
25D
100
AcDbEntity
  8
RACCORDO
100
AcDbLine
 62
250
  6
CONTINUOUS
 10
-35.974551047
 20
9.722253383
 11
-35.9895609654
 21
11.3700646057
  0
LINE
  5
25E
100
AcDbEntity
  8
RACCORDO
100
AcDbLine
 62
250
  6
CONTINUOUS
 10
-36.4027761774
 20
11.3831518909
 11
-36.4151819711
 21
13.1768478382
  0
LINE
  5
25F
100
AcDbEntity
  8
RACCORDO
100
AcDbLine
 62
250
  6
CONTINUOUS
 10
-35.9895609654
 20
11.3700646057
 11
-36.0015499231
 21
13.1628298124
  0
LINE
  5
260
100
AcDbEntity
  8
RACCORDO
100
AcDbLine
 62
250
  6
CONTINUOUS
 10
-36.4151819711
 20
13.1768478382
 11
-36.4209854966
 21
14.4561667936
  0
LINE
  5
261
100
AcDbEntity
  8
RACCORDO
100
AcDbLine
 62
250
  6
CONTINUOUS
 10
-36.0015499231
 20
13.1628298124
 11
-36.0071660698
 21
14.4415034009
  0
LINE
  5
262
100
AcDbEntity
  8
RACCORDO
100
AcDbLine
 62
250
  6
CONTINUOUS
 10
-36.4209854966
 20
14.4561667936
 11
-36.424173681
 21
15.805262973
  0
LINE
  5
263
100
AcDbEntity
  8
RACCORDO
100
AcDbLine
 62
250
  6
CONTINUOUS
 10
-36.0071660698
 20
14.4415034009
 11
-36.0101342274
 21
15.7900259099
  0
LINE
  5
264
100
AcDbEntity
  8
RACCORDO
100
AcDbLine
 62
7
  6
CONTINUOUS
 10
-34.3949008837
 20
34.3216455836
 11
-34.3949008837
 21
-0.7724416258
  0
LINE
  5
265
100
AcDbEntity
  8
RACCORDO
100
AcDbLine
 62
250
  6
CONTINUOUS
 10
-32.6872831032
 20
33.2703852913
 11
-32.6872831032
 21
30.344426213
  0
LINE
  5
266
100
AcDbEntity
  8
RACCORDO
100
AcDbLine
 62
7
  6
CONTINUOUS
 10
-32.5469530034
 20
33.2275470306
 11
-32.5469530034
 21
30.5449697315
  0
LINE
  5
267
100
AcDbEntity
  8
RACCORDO
100
AcDbLine
 62
250
  6
CONTINUOUS
 10
-36.424173681
 20
15.805262973
 11
-36.4242136521
 21
17.1745476944
  0
LINE
  5
268
100
AcDbEntity
  8
RACCORDO
100
AcDbLine
 62
250
  6
CONTINUOUS
 10
-36.0101342274
 20
15.7900259099
 11
-36.0101810489
 21
17.1587031606
  0
LINE
  5
269
100
AcDbEntity
  8
RACCORDO
100
AcDbLine
 62
250
  6
CONTINUOUS
 10
-36.0101810489
 20
17.1587031606
 11
-36.0074841555
 21
18.445914497
  0
LINE
  5
26A
100
AcDbEntity
  8
RACCORDO
100
AcDbLine
 62
250
  6
CONTINUOUS
 10
-36.4242136521
 20
17.1745476944
 11
-36.4213150611
 21
18.462306067
  0
LINE
  5
26B
100
AcDbEntity
  8
RACCORDO
100
AcDbLine
 62
250
  6
CONTINUOUS
 10
-36.4213150611
 20
18.462306067
 11
-36.4160494282
 21
19.6828091582
  0
LINE
  5
26C
100
AcDbEntity
  8
RACCORDO
100
AcDbLine
 62
250
  6
CONTINUOUS
 10
-36.0074841555
 20
18.445914497
 11
-35.9991550396
 21
20.2526777129
  0
LINE
  5
26D
100
AcDbEntity
  8
RACCORDO
100
AcDbLine
 62
250
  6
CONTINUOUS
 10
-36.4160494282
 20
19.6828091582
 11
-36.40477699
 21
21.3984009601
  0
LINE
  5
26E
100
AcDbEntity
  8
RACCORDO
100
AcDbLine
 62
250
  6
CONTINUOUS
 10
-35.9991550396
 20
20.2526777129
 11
-35.9872012328
 21
21.9230003468
  0
LINE
  5
26F
100
AcDbEntity
  8
RACCORDO
100
AcDbLine
 62
250
  6
CONTINUOUS
 10
-36.40477699
 20
21.3984009601
 11
-36.3906549679
 21
22.9792000371
  0
LINE
  5
270
100
AcDbEntity
  8
RACCORDO
100
AcDbLine
 62
250
  6
CONTINUOUS
 10
-35.9872012328
 20
21.9230003468
 11
-35.9728663241
 21
23.4591561588
  0
LINE
  5
271
100
AcDbEntity
  8
RACCORDO
100
AcDbLine
 62
250
  6
CONTINUOUS
 10
-36.3906549679
 20
22.9792000371
 11
-36.3748136427
 21
24.4271081119
  0
LINE
  5
272
100
AcDbEntity
  8
RACCORDO
100
AcDbLine
 62
250
  6
CONTINUOUS
 10
-35.9728663241
 20
23.4591561588
 11
-35.9517363872
 21
25.3069909001
  0
LINE
  5
273
100
AcDbEntity
  8
RACCORDO
100
AcDbLine
 62
250
  6
CONTINUOUS
 10
-36.3748136427
 20
24.4271081119
 11
-36.3522559645
 21
26.1748992819
  0
LINE
  5
274
100
AcDbEntity
  8
RACCORDO
100
AcDbLine
 62
250
  6
CONTINUOUS
 10
-35.9517363872
 20
25.3069909001
 11
-35.9290965415
 21
26.970523384
  0
LWPOLYLINE
  5
275
100
AcDbEntity
  8
RACCORDO
100
AcDbPolyline
 62
250
  6
CONTINUOUS
 90
16
 70
0
 10
-35.587465656
 20
-2.52290927
 10
-35.587082922
 20
-2.4979558514
 10
-35.5845003144
 20
-2.4719393743
 10
-35.5797442748
 20
-2.4451260486
 10
-35.5728634836
 20
-2.4177902367
 10
-35.5639283602
 20
-2.3902116389
 10
-35.5530303399
 20
-2.3626724316
 10
-35.5402809435
 20
-2.3354543937
 10
-35.5258106322
 20
-2.3088360114
 10
-35.5097674664
 20
-2.2830896225
 10
-35.4923156185
 20
-2.2584786723
 10
-35.4736336457
 20
-2.2352549454
 10
-35.4539126433
 20
-2.2136559919
 10
-35.4333543676
 20
-2.1939027939
 10
-35.4121691818
 20
-2.1761974897
 10
-35.3905738461
 20
-2.1607212435
  0
LINE
  5
276
100
AcDbEntity
  8
RACCORDO
100
AcDbLine
 62
250
  6
CONTINUOUS
 10
-36.3522559645
 20
26.1748992819
 11
-36.3278774337
 21
27.7783865849
  0
LINE
  5
277
100
AcDbEntity
  8
RACCORDO
100
AcDbLine
 62
250
  6
CONTINUOUS
 10
-35.9290965415
 20
26.970523384
 11
-35.9039060342
 21
28.5346949044
  0
LINE
  5
278
100
AcDbEntity
  8
RACCORDO
100
AcDbLine
 62
250
  6
CONTINUOUS
 10
-36.3278774337
 20
27.7783865849
 11
-36.307479781
 21
28.9395622327
  0
LINE
  5
279
100
AcDbEntity
  8
RACCORDO
100
AcDbLine
 62
250
  6
CONTINUOUS
 10
-35.9039060342
 20
28.5346949044
 11
-35.8822525172
 21
29.6928018788
  0
LINE
  5
27A
100
AcDbEntity
  8
RACCORDO
100
AcDbLine
 62
250
  6
CONTINUOUS
 10
-36.307479781
 20
28.9395622327
 11
-36.2844399752
 21
30.0976381281
  0
LINE
  5
27B
100
AcDbEntity
  8
RACCORDO
100
AcDbLine
 62
250
  6
CONTINUOUS
 10
-35.8822525172
 20
29.6928018788
 11
-35.8575279404
 21
30.8551349886
  0
LINE
  5
27C
100
AcDbEntity
  8
RACCORDO
100
AcDbLine
 62
250
  6
CONTINUOUS
 10
-36.2844399752
 20
30.0976381281
 11
-36.2581168772
 21
31.2657515898
  0
LINE
  5
27D
100
AcDbEntity
  8
RACCORDO
100
AcDbLine
 62
250
  6
CONTINUOUS
 10
-35.8575279404
 20
30.8551349886
 11
-35.8287221661
 21
32.0457349927
  0
LWPOLYLINE
  5
27E
100
AcDbEntity
  8
RACCORDO
100
AcDbPolyline
 62
250
  6
CONTINUOUS
 90
12
 70
0
 10
-32.5469530057
 20
30.5449423695
 10
-32.5471704292
 20
30.5364568686
 10
-32.5496307679
 20
30.5151316229
 10
-32.5548207848
 20
30.4939570362
 10
-32.5627129988
 20
30.4730586364
 10
-32.5732552253
 20
30.4525689465
 10
-32.5863872085
 20
30.4325953132
 10
-32.6020298486
 20
30.4132502155
 10
-32.6200638246
 20
30.3946651947
 10
-32.6403647339
 20
30.3769450391
 10
-32.6628161879
 20
30.3601706448
 10
-32.6872831032
 20
30.344426213
  0
LINE
  5
27F
100
AcDbEntity
  8
RACCORDO
100
AcDbLine
 62
250
  6
CONTINUOUS
 10
-36.2581168772
 20
31.2657515898
 11
-36.2271966793
 21
32.4801518169
  0
LINE
  5
280
100
AcDbEntity
  8
RACCORDO
100
AcDbLine
 62
250
  6
CONTINUOUS
 10
-35.8287221661
 20
32.0457349927
 11
-35.7809982522
 21
33.7959356227
  0
LWPOLYLINE
  5
281
100
AcDbEntity
  8
RACCORDO
100
AcDbPolyline
 62
250
  6
CONTINUOUS
 90
3
 70
0
 10
-36.2271966793
 20
32.4801518169
 10
-36.1759174888
 20
34.3021231491
 10
-36.1611105893
 20
34.8074575541
  0
LINE
  5
282
100
AcDbEntity
  8
RACCORDO
100
AcDbLine
 62
250
  6
CONTINUOUS
 10
-35.7809982522
 20
33.7959356227
 11
-35.7515974968
 21
34.8132262937
  0
LWPOLYLINE
  5
283
100
AcDbEntity
  8
ASSI
100
AcDbPolyline
 62
250
  6
CONTINUOUS
 90
8
 70
0
 10
48.7164243678
 20
-63.7028788223
 10
48.5206410052
 20
-63.6106573032
 10
48.3257668316
 20
-63.517328612
 10
48.1317292399
 20
-63.4229490155
 10
47.9383719608
 20
-63.3275267656
 10
47.7457179196
 20
-63.2311568192
 10
47.5539663784
 20
-63.1340230604
 10
47.3634644808
 20
-63.036375278
  0
LWPOLYLINE
  5
284
100
AcDbEntity
  8
ASSI
100
AcDbPolyline
 62
7
  6
CONTINUOUS
 90
15
 70
0
 10
48.8185309667
 20
-63.8959706817
 10
48.8494828111
 20
-63.9111562425
 10
48.8973068645
 20
-63.931451429
 10
48.945413298
 20
-63.9481173583
 10
48.9936895346
 20
-63.9611639111
 10
49.0420177248
 20
-63.9706121503
 10
49.0901385279
 20
-63.9764653493
 10
49.1378768302
 20
-63.9787615973
 10
49.1851200838
 20
-63.97755337
 10
49.2315743849
 20
-63.9729066778
 10
49.2770154447
 20
-63.9649123312
 10
49.3213737529
 20
-63.9536407418
 10
49.3644524355
 20
-63.9391924034
 10
49.4059560469
 20
-63.9217295522
 10
49.4292362179
 20
-63.9102786952
  0
LINE
  5
285
100
AcDbEntity
  8
ASSI
100
AcDbLine
 62
7
  6
CONTINUOUS
 10
48.8184135735
 20
-63.895910231
 11
48.8185308716
 21
-63.8959708657
  0
LINE
  5
286
100
AcDbEntity
  8
ASSI
100
AcDbLine
 62
250
  6
CONTINUOUS
 10
47.3634644808
 20
-63.036375278
 11
46.9838041408
 21
-62.8386254603
  0
LINE
  5
287
100
AcDbEntity
  8
ASSI
100
AcDbLine
 62
250
  6
CONTINUOUS
 10
46.9838041408
 20
-62.8386254603
 11
46.6042392325
 21
-62.6371825415
  0
LINE
  5
288
100
AcDbEntity
  8
ASSI
100
AcDbLine
 62
250
  6
CONTINUOUS
 10
46.6042392325
 20
-62.6371825415
 11
46.2156771462
 21
-62.4275728706
  0
LWPOLYLINE
  5
289
100
AcDbEntity
  8
ASSI
100
AcDbPolyline
 62
250
  6
CONTINUOUS
 90
3
 70
0
 10
46.2156771462
 20
-62.4275728706
 10
45.8115861538
 20
-62.2064393355
 10
45.598787254
 20
-62.0888582735
  0
LWPOLYLINE
  5
28A
100
AcDbEntity
  8
ASSI
100
AcDbPolyline
 62
7
  6
CONTINUOUS
 90
6
 70
0
 10
-50.7256144589
 20
-6.4203600202
 10
-49.6190967486
 20
-7.1170969039
 10
-48.4061544206
 20
-7.8533321985
 10
-47.1434284437
 20
-8.6006960488
 10
-45.835704986
 20
-9.3623255984
 10
-38.7687720621
 20
-13.4375879615
  0
LWPOLYLINE
  5
28B
100
AcDbEntity
  8
ASSI
100
AcDbPolyline
 62
250
  6
CONTINUOUS
 90
9
 70
0
 10
-48.9810693313
 20
-7.4409052643
 10
-49.3544553124
 20
-7.205745734
 10
-49.5405227183
 20
-7.0869788315
 10
-49.7256335457
 20
-6.9676495135
 10
-49.9090337763
 20
-6.8481716568
 10
-50.0913606322
 20
-6.7280617102
 10
-50.2741667274
 20
-6.6061896928
 10
-50.4578936157
 20
-6.4821335989
 10
-50.641895964
 20
-6.3561940806
  0
LINE
  5
28C
100
AcDbEntity
  8
ASSI
100
AcDbLine
 62
7
  6
CONTINUOUS
 10
-50.725333572
 20
-6.4205407213
 11
-50.7256144645
 21
-6.420360029
  0
LWPOLYLINE
  5
28D
100
AcDbEntity
  8
ASSI
100
AcDbPolyline
 62
250
  6
CONTINUOUS
 90
10
 70
0
 10
-50.7256144645
 20
-6.420360029
 10
-50.7306640055
 20
-6.4169873258
 10
-50.7500084788
 20
-6.4016207241
 10
-50.7674255011
 20
-6.3836324037
 10
-50.7828013599
 20
-6.3631398071
 10
-50.796035669
 20
-6.3402767269
 10
-50.8070420239
 20
-6.315192432
 10
-50.8157485662
 20
-6.2880506931
 10
-50.8220984523
 20
-6.259028714
 10
-50.826050225
 20
-6.2283159737
  0
LINE
  5
28E
100
AcDbEntity
  8
ASSI
100
AcDbLine
 62
250
  6
CONTINUOUS
 10
-50.641895964
 20
-6.3561940806
 11
-50.8260631426
 21
-6.2283055492
  0
LWPOLYLINE
  5
28F
100
AcDbEntity
  8
ASSI
100
AcDbPolyline
 62
250
  6
CONTINUOUS
 90
10
 70
0
 10
-51.0499644335
 20
-5.8373895684
 10
-51.0745093053
 20
-5.818630053
 10
-51.0963933696
 20
-5.7986567641
 10
-51.1154740646
 20
-5.7775998164
 10
-51.131627091
 20
-5.7555963841
 10
-51.1447472217
 20
-5.7327898066
 10
-51.1547489877
 20
-5.7093286545
 10
-51.1615672333
 20
-5.6853657631
 10
-51.1651575414
 20
-5.6610572371
 10
-51.1655686444
 20
-5.6544847099
  0
LWPOLYLINE
  5
290
100
AcDbEntity
  8
RACCORDO
100
AcDbPolyline
 62
250
  6
CONTINUOUS
 90
11
 70
0
 10
-32.6872831032
 20
30.344426213
 10
-32.686027186
 20
30.3159749363
 10
-32.6867858069
 20
30.2888018135
 10
-32.6895547317
 20
30.2630585138
 10
-32.6943185054
 20
30.2388887255
 10
-32.7010505385
 20
30.2164273545
 10
-32.7097132557
 20
30.1957997706
 10
-32.7202583053
 20
30.1771211086
 10
-32.7326268291
 20
30.1604956251
 10
-32.7467497913
 20
30.1460161165
 10
-32.7600248718
 20
30.1354917135
  0
LWPOLYLINE
  5
291
100
AcDbEntity
  8
RACCORDO
100
AcDbPolyline
 62
250
  6
CONTINUOUS
 90
3
 70
0
 10
-32.6861980236
 20
33.3099886279
 10
-32.6860295327
 20
33.3023600548
 10
-32.6872831032
 20
33.2703852913
  0
LWPOLYLINE
  5
292
100
AcDbEntity
  8
ASSI
100
AcDbPolyline
 62
250
  6
CONTINUOUS
 90
16
 70
0
 10
-0.8015390333
 20
34.8743501411
 10
-0.8299882474
 20
34.8557357807
 10
-0.8581922489
 20
34.8346231489
 10
-0.8859676106
 20
34.8111495535
 10
-0.9131336928
 20
34.7854676573
 10
-0.9395138184
 20
34.757744485
 10
-0.9649364218
 20
34.7281603366
 10
-0.9892361648
 20
34.6969076154
 10
-1.0122550119
 20
34.6641895764
 10
-1.0338432579
 20
34.6302190043
 10
-1.0538605016
 20
34.5952168299
 10
-1.0721765591
 20
34.559410693
 10
-1.0886723102
 20
34.5230334621
 10
-1.1032404734
 20
34.4863217198
 10
-1.1157863032
 20
34.4495142243
 10
-1.1262282068
 20
34.4128503566
  0
LINE
  5
293
100
AcDbEntity
  8
ASSI
100
AcDbLine
 62
250
  6
CONTINUOUS
 10
45.598787254
 20
-62.0888582735
 11
45.1510107669
 21
-61.8392367416
  0
LINE
  5
294
100
AcDbEntity
  8
ASSI
100
AcDbLine
 62
250
  6
CONTINUOUS
 10
45.1510107669
 20
-61.8392367416
 11
44.4126011698
 21
-61.4221692338
  0
LINE
  5
295
100
AcDbEntity
  8
ASSI
100
AcDbLine
 62
250
  6
CONTINUOUS
 10
44.4126011698
 20
-61.4221692338
 11
43.6053647194
 21
-60.9604751187
  0
LWPOLYLINE
  5
296
100
AcDbEntity
  8
ASSI
100
AcDbPolyline
 62
7
  6
CONTINUOUS
 90
6
 70
0
 10
42.9923326474
 20
-60.6510064357
 10
44.2065259055
 20
-61.3502039907
 10
45.398670572
 20
-62.029694382
 10
46.5717605494
 20
-62.6872698119
 10
47.730170785
 20
-63.3207967282
 10
48.8184135735
 20
-63.895910231
  0
LINE
  5
297
100
AcDbEntity
  8
ASSI
100
AcDbLine
 62
250
  6
CONTINUOUS
 10
32.9758441192
 20
-54.8139126215
 11
29.991952561
 21
-53.0945754941
  0
LINE
  5
298
100
AcDbEntity
  8
ASSI
100
AcDbLine
 62
250
  6
CONTINUOUS
 10
-39.0438688794
 20
-13.2303099577
 11
-45.2561923549
 21
-9.6535525362
  0
LINE
  5
299
100
AcDbEntity
  8
ASSI
100
AcDbLine
 62
7
  6
CONTINUOUS
 10
-11.1242862886
 20
-29.3882085858
 11
0.8009207648
 21
-36.2719457975
  0
LINE
  5
29A
100
AcDbEntity
  8
ASSI
100
AcDbLine
 62
250
  6
CONTINUOUS
 10
-5.8501574464
 20
-32.3744430537
 11
-29.9730698964
 21
-18.4728465954
  0
LINE
  5
29B
100
AcDbEntity
  8
ASSI
100
AcDbLine
 62
7
  6
CONTINUOUS
 10
-30.9345728062
 20
-17.964736716
 11
-11.1242862886
 21
-29.3882085858
  0
LINE
  5
29C
100
AcDbEntity
  8
ASSI
100
AcDbLine
 62
7
  6
CONTINUOUS
 10
26.4073163085
 20
-51.073181344
 11
35.1584788058
 21
-56.1220368914
  0
LINE
  5
29D
100
AcDbEntity
  8
ASSI
100
AcDbLine
 62
250
  6
CONTINUOUS
 10
29.991952561
 20
-53.0945754941
 11
27.047811368
 21
-51.3958992004
  0
LWPOLYLINE
  5
29E
100
AcDbEntity
  8
ASSI
100
AcDbPolyline
 62
7
  6
CONTINUOUS
 90
3
 70
0
 10
-38.7687720621
 20
-13.4375879615
 10
-35.7233208848
 20
-15.1963730779
 10
-30.9345728062
 20
-17.964736716
  0
LINE
  5
29F
100
AcDbEntity
  8
ASSI
100
AcDbLine
 62
7
  6
CONTINUOUS
 10
0.8009207648
 20
-36.2719457975
 11
9.927388986
 21
-41.5436358195
  0
LWPOLYLINE
  5
2A0
100
AcDbEntity
  8
ASSI
100
AcDbPolyline
 62
7
  6
CONTINUOUS
 90
4
 70
0
 10
35.1584788058
 20
-56.1220368914
 10
39.1953130004
 20
-58.4547491077
 10
40.4883401157
 20
-59.2026134757
 10
42.9923326474
 20
-60.6510064357
  0
LINE
  5
2A1
100
AcDbEntity
  8
ASSI
100
AcDbLine
 62
250
  6
CONTINUOUS
 10
36.6136581787
 20
-56.9138696144
 11
32.9758441192
 21
-54.8139126215
  0
LWPOLYLINE
  5
2A2
100
AcDbEntity
  8
ASSI
100
AcDbPolyline
 62
7
  6
CONTINUOUS
 90
3
 70
0
 10
9.927388986
 20
-41.5436358195
 10
18.4633452887
 20
-46.4796535486
 10
26.4073163085
 20
-51.073181344
  0
LINE
  5
2A3
100
AcDbEntity
  8
ASSI
100
AcDbLine
 62
250
  6
CONTINUOUS
 10
-29.9730698964
 20
-18.4728465954
 11
-39.0438688794
 21
-13.2303099577
  0
LINE
  5
2A4
100
AcDbEntity
  8
ASSI
100
AcDbLine
 62
250
  6
CONTINUOUS
 10
37.64404892
 20
-57.5099040477
 11
36.6136581787
 21
-56.9138696144
  0
LWPOLYLINE
  5
2A5
100
AcDbEntity
  8
ASSI
100
AcDbPolyline
 62
250
  6
CONTINUOUS
 90
4
 70
0
 10
43.6053647194
 20
-60.9604751187
 10
42.4487264327
 20
-60.2926857757
 10
42.1491803959
 20
-60.1191457593
 10
37.64404892
 20
-57.5099040477
  0
LINE
  5
2A6
100
AcDbEntity
  8
ASSI
100
AcDbLine
 62
250
  6
CONTINUOUS
 10
27.047811368
 20
-51.3958992004
 11
22.1055764041
 21
-48.5370514112
  0
LWPOLYLINE
  5
2A7
100
AcDbEntity
  8
ASSI
100
AcDbPolyline
 62
250
  6
CONTINUOUS
 90
3
 70
0
 10
22.1055764041
 20
-48.5370514112
 10
17.9337726591
 20
-46.1216235406
 10
-5.8501574464
 20
-32.3744430537
  0
LINE
  5
2A8
100
AcDbEntity
  8
ASSI
100
AcDbLine
 62
250
  6
CONTINUOUS
 10
-45.2561923549
 20
-9.6535525362
 11
-46.235732503
 21
-9.0859891464
  0
LINE
  5
2A9
100
AcDbEntity
  8
ASSI
100
AcDbLine
 62
250
  6
CONTINUOUS
 10
-46.235732503
 20
-9.0859891464
 11
-46.8846997983
 21
-8.7062449773
  0
LINE
  5
2AA
100
AcDbEntity
  8
ASSI
100
AcDbLine
 62
250
  6
CONTINUOUS
 10
-46.8846997983
 20
-8.7062449773
 11
-47.4793426724
 21
-8.3544499678
  0
LINE
  5
2AB
100
AcDbEntity
  8
ASSI
100
AcDbLine
 62
250
  6
CONTINUOUS
 10
-47.4793426724
 20
-8.3544499678
 11
-48.0464043708
 21
-8.0144578707
  0
LINE
  5
2AC
100
AcDbEntity
  8
ASSI
100
AcDbLine
 62
250
  6
CONTINUOUS
 10
-48.0464043708
 20
-8.0144578707
 11
-48.4200988611
 21
-7.7873915028
  0
LWPOLYLINE
  5
2AD
100
AcDbEntity
  8
ASSI
100
AcDbPolyline
 62
250
  6
CONTINUOUS
 90
3
 70
0
 10
-48.4200988611
 20
-7.7873915028
 10
-48.7938573374
 20
-7.5573619365
 10
-48.9810693313
 20
-7.4409052643
  0
LWPOLYLINE
  5
2AE
100
AcDbEntity
  8
ASSI
100
AcDbPolyline
 62
250
  6
CONTINUOUS
 90
7
 70
0
 10
-1.0422962045
 20
-35.2076714277
 10
-1.0538605016
 20
-35.2003458572
 10
-1.0721765591
 20
-35.1856906444
 10
-1.0886723102
 20
-35.1683622934
 10
-1.1032404734
 20
-35.1484735008
 10
-1.1157863032
 20
-35.1261536151
 10
-1.1262282068
 20
-35.1015477959
  0
LWPOLYLINE
  5
2AF
100
AcDbEntity
  8
0
100
AcDbPolyline
 62
7
  6
CONTINUOUS
 90
5
 70
0
 10
-1.0043823836
 20
-25.2158513678
 10
-1.0159589529
 20
-25.2168795238
 10
-1.0304304794
 20
-25.216393401
 10
-1.0458770903
 20
-25.2142400192
 10
-1.06220277
 20
-25.2106749959
  0
LWPOLYLINE
  5
2B0
100
AcDbEntity
  8
0
100
AcDbPolyline
 62
7
  6
CONTINUOUS
 90
7
 70
0
 10
-1.06220277
 20
-25.2106749959
 10
-1.0793663703
 20
-25.2057574398
 10
-1.0974094853
 20
-25.1994284998
 10
-1.1163600784
 20
-25.1917667762
 10
-1.1362275379
 20
-25.182798508
 10
-1.1570026975
 20
-25.1724975844
 10
-1.1786856278
 20
-25.1608640463
  0
LINE
  5
2B1
100
AcDbEntity
  8
0
100
AcDbLine
 62
7
  6
CONTINUOUS
 10
-1.8139559038
 20
-24.0269781976
 11
-1.8509216475
 21
-24.0111469428
  0
LWPOLYLINE
  5
2B2
100
AcDbEntity
  8
0
100
AcDbPolyline
 62
7
  6
CONTINUOUS
 90
25
 70
0
 10
-1.900854173
 20
-24.0399773573
 10
-1.863779247
 20
-24.0559215807
 10
-1.8266890282
 20
-24.0721153315
 10
-1.7895891057
 20
-24.088596505
 10
-1.7525205241
 20
-24.1053909736
 10
-1.7154532633
 20
-24.1225461393
 10
-1.6782858506
 20
-24.140134656
 10
-1.6410140516
 20
-24.158200927
 10
-1.603652079
 20
-24.1767796052
 10
-1.5661256183
 20
-24.1959349819
 10
-1.528434549
 20
-24.2157131175
 10
-1.4905888187
 20
-24.2361540538
 10
-1.452529067
 20
-24.2573192175
 10
-1.4142200019
 20
-24.2792793767
 10
-1.3757070514
 20
-24.3020601619
 10
-1.3370520158
 20
-24.3256542906
 10
-1.298299375
 20
-24.3500875336
 10
-1.2594151867
 20
-24.3754209268
 10
-1.2203589226
 20
-24.4017124517
 10
-1.181174827
 20
-24.4291128664
 10
-1.1419871056
 20
-24.4577206185
 10
-1.1029239372
 20
-24.4875570995
 10
-1.0640868541
 20
-24.5187058051
 10
-1.0255527715
 20
-24.5513230746
 10
-0.9874105023
 20
-24.5855290566
  0
LWPOLYLINE
  5
2B3
100
AcDbEntity
  8
0
100
AcDbPolyline
 62
7
  6
CONTINUOUS
 90
17
 70
0
 10
-1.2286891233
 20
-25.1897353485
 10
-1.2137547967
 20
-25.1978225743
 10
-1.198808573
 20
-25.2055190556
 10
-1.183921484
 20
-25.2127476729
 10
-1.169192804
 20
-25.2194158957
 10
-1.1546577242
 20
-25.2254739515
 10
-1.1402890557
 20
-25.2308989448
 10
-1.1261511625
 20
-25.2356061647
 10
-1.1123108448
 20
-25.2395144402
 10
-1.0987528746
 20
-25.2425705098
 10
-1.0854939861
 20
-25.2446718159
 10
-1.0726774548
 20
-25.2456875589
 10
-1.0604807152
 20
-25.2455160923
 10
-1.0489813776
 20
-25.2440611696
 10
-1.0382577388
 20
-25.2412161167
 10
-1.0284593119
 20
-25.2369308393
 10
-1.0265761705
 20
-25.2358832357
  0
LINE
  5
2B4
100
AcDbEntity
  8
0
100
AcDbLine
 62
7
  6
CONTINUOUS
 10
-1.4396001907
 20
-25.0680182334
 11
-1.2286891233
 21
-25.1897353485
  0
LINE
  5
2B5
100
AcDbEntity
  8
0
100
AcDbLine
 62
7
  6
CONTINUOUS
 10
-1.1786857053
 20
-25.1608640016
 11
-1.3895960176
 21
-25.0391464505
  0
LINE
  5
2B6
100
AcDbEntity
  8
0
100
AcDbLine
 62
7
  6
CONTINUOUS
 10
-2.9115086469
 20
-23.4361078297
 11
-2.5544958143
 21
-23.6421442607
  0
LINE
  5
2B7
100
AcDbEntity
  8
0
100
AcDbLine
 62
7
  6
CONTINUOUS
 10
-2.5045637997
 20
-23.6133141412
 11
-2.8615761016
 21
-23.4072774039
  0
LINE
  5
2B8
100
AcDbEntity
  8
0
100
AcDbLine
 62
7
  6
CONTINUOUS
 10
-1.7550732315
 20
-25.847805536
 11
-2.1439517521
 21
-25.6232795279
  0
LINE
  5
2B9
100
AcDbEntity
  8
0
100
AcDbLine
 62
7
  6
CONTINUOUS
 10
-2.8438231
 20
-25.2191969153
 11
-3.2087878708
 21
-25.0084766516
  0
LINE
  5
2BA
100
AcDbEntity
  8
0
100
AcDbLine
 62
7
  6
CONTINUOUS
 10
-1.2792434739
 20
-26.1225369198
 11
-1.6467262921
 21
-25.9103617181
  0
LINE
  5
2BB
100
AcDbEntity
  8
0
100
AcDbLine
 62
7
  6
CONTINUOUS
 10
-3.2667259973
 20
-24.9750246255
 11
-3.6276725188
 21
-24.7666214579
  0
LINE
  5
2BC
100
AcDbEntity
  8
0
100
AcDbLine
 62
7
  6
CONTINUOUS
 10
-6.3320083384
 20
-23.2051329758
 11
-6.6571567235
 21
-23.0173957657
  0
LINE
  5
2BD
100
AcDbEntity
  8
0
100
AcDbLine
 62
7
  6
CONTINUOUS
 10
-4.1421723072
 20
-24.4695537511
 11
-4.1939193093
 21
-24.439675119
  0
LINE
  5
2BE
100
AcDbEntity
  8
0
100
AcDbLine
 62
7
  6
CONTINUOUS
 10
-4.7063731336
 20
-24.1437826591
 11
-5.0593447329
 21
-23.9399741145
  0
LINE
  5
2BF
100
AcDbEntity
  8
0
100
AcDbLine
 62
7
  6
CONTINUOUS
 10
-5.2579652681
 20
-23.8252889053
 11
-5.6269221926
 21
-23.6122503596
  0
LINE
  5
2C0
100
AcDbEntity
  8
0
100
AcDbLine
 62
7
  6
CONTINUOUS
 10
-0.3593305141
 20
-26.6536868351
 11
-0.7142261987
 21
-26.4487697722
  0
LINE
  5
2C1
100
AcDbEntity
  8
0
100
AcDbLine
 62
7
  6
CONTINUOUS
 10
-2.2945136215
 20
-25.1923894167
 11
-2.7970077573
 21
-24.9022874636
  0
LINE
  5
2C2
100
AcDbEntity
  8
0
100
AcDbLine
 62
7
  6
CONTINUOUS
 10
-2.762808663
 20
-24.6544140823
 11
-2.409521946
 21
-24.8583624023
  0
LINE
  5
2C3
100
AcDbEntity
  8
0
100
AcDbLine
 62
7
  6
CONTINUOUS
 10
-2.4334491169
 20
-24.786764628
 11
-2.7127638269
 21
-24.6255188212
  0
LINE
  5
2C4
100
AcDbEntity
  8
0
100
AcDbLine
 62
7
  6
CONTINUOUS
 10
-1.1872842819
 20
-25.4991702242
 11
-1.3851475296
 21
-25.3849656719
  0
LINE
  5
2C5
100
AcDbEntity
  8
0
100
AcDbLine
 62
7
  6
CONTINUOUS
 10
-4.0543246893
 20
-22.7763891407
 11
-3.6892627364
 21
-22.9871610772
  0
LINE
  5
2C6
100
AcDbEntity
  8
0
100
AcDbLine
 62
7
  6
CONTINUOUS
 10
-3.6393295444
 20
-22.958330278
 11
-4.0043914409
 21
-22.7475583089
  0
LINE
  5
2C7
100
AcDbEntity
  8
0
100
AcDbLine
 62
7
  6
CONTINUOUS
 10
-5.1568862903
 20
-22.1396381934
 11
-4.788296034
 21
-22.3525356994
  0
LINE
  5
2C8
100
AcDbEntity
  8
0
100
AcDbLine
 62
7
  6
CONTINUOUS
 10
-4.7383631554
 20
-22.3237050811
 11
-5.1069538356
 21
-22.1108078199
  0
LINE
  5
2C9
100
AcDbEntity
  8
0
100
AcDbLine
 62
7
  6
CONTINUOUS
 10
-5.8838826594
 20
-21.7195334983
 11
-5.515036981
 21
-21.932636276
  0
LINE
  5
2CA
100
AcDbEntity
  8
0
100
AcDbLine
 62
7
  6
CONTINUOUS
 10
-6.3893008502
 20
-21.4275841882
 11
-6.0207419517
 21
-21.640561041
  0
LINE
  5
2CB
100
AcDbEntity
  8
0
100
AcDbLine
 62
7
  6
CONTINUOUS
 10
-5.4651050963
 20
-21.9038062317
 11
-5.8339515021
 21
-21.6907038739
  0
LINE
  5
2CC
100
AcDbEntity
  8
0
100
AcDbLine
 62
7
  6
CONTINUOUS
 10
-5.970811093
 20
-21.611731589
 11
-6.3393709215
 21
-21.3987552732
  0
LINE
  5
2CD
100
AcDbEntity
  8
0
100
AcDbLine
 62
7
  6
CONTINUOUS
 10
-7.4736756025
 20
-20.800796738
 11
-7.0731111221
 21
-21.0323587697
  0
LINE
  5
2CE
100
AcDbEntity
  8
0
100
AcDbLine
 62
7
  6
CONTINUOUS
 10
-7.0231832983
 20
-21.00353107
 11
-7.4237492332
 21
-20.7719698781
  0
LINE
  5
2CF
100
AcDbEntity
  8
RACCORDO
100
AcDbLine
 62
250
  6
CONTINUOUS
 10
-35.7523231656
 20
-1.5561880521
 11
-34.3949008837
 21
-0.7724416258
  0
LINE
  5
2D0
100
AcDbEntity
  8
RACCORDO
100
AcDbLine
 62
250
  6
CONTINUOUS
 10
-35.3905742903
 20
-2.1607215366
 11
-34.0426928705
 21
-1.3824837989
  0
LWPOLYLINE
  5
2D1
100
AcDbEntity
  8
RACCORDO
100
AcDbPolyline
 62
250
  6
CONTINUOUS
 90
16
 70
0
 10
-36.1611105893
 20
-1.5513897559
 10
-36.1392205558
 20
-1.5631692813
 10
-36.1153856908
 20
-1.5735490382
 10
-36.0898448614
 20
-1.5824250035
 10
-36.0628540314
 20
-1.5897082251
 10
-36.034683696
 20
-1.5953257125
 10
-36.0056161714
 20
-1.5992211681
 10
-35.9759427649
 20
-1.6013555528
 10
-35.9459608561
 20
-1.6017074765
 10
-35.9159709161
 20
-1.6002734123
 10
-35.8862734965
 20
-1.5970677319
 10
-35.8571662175
 20
-1.5921225619
 10
-35.8289407847
 20
-1.5854874619
 10
-35.8018800664
 20
-1.5772289272
 10
-35.7762552583
 20
-1.5674297223
 10
-35.7523231656
 20
-1.5561880521
  0
LINE
  5
2D2
100
AcDbEntity
  8
RACCORDO
100
AcDbLine
 62
250
  6
CONTINUOUS
 10
27.7128257879
 20
-39.0717042107
 11
26.1256658701
 21
-38.1851845959
  0
LINE
  5
2D3
100
AcDbEntity
  8
RACCORDO
100
AcDbLine
 62
250
  6
CONTINUOUS
 10
27.9029159639
 20
-38.7055895557
 11
26.3162507411
 21
-37.818271149
  0
LINE
  5
2D4
100
AcDbEntity
  8
RACCORDO
100
AcDbLine
 62
250
  6
CONTINUOUS
 10
26.1256658701
 20
-38.1851845959
 11
24.1495704193
 21
-37.0767658787
  0
LINE
  5
2D5
100
AcDbEntity
  8
RACCORDO
100
AcDbLine
 62
250
  6
CONTINUOUS
 10
26.3162507411
 20
-37.818271149
 11
24.3404585695
 21
-36.7082002847
  0
LINE
  5
2D6
100
AcDbEntity
  8
RACCORDO
100
AcDbLine
 62
250
  6
CONTINUOUS
 10
24.1495704193
 20
-37.0767658787
 11
21.2774772817
 21
-35.460544356
  0
LINE
  5
2D7
100
AcDbEntity
  8
RACCORDO
100
AcDbLine
 62
250
  6
CONTINUOUS
 10
24.3404585695
 20
-36.7082002847
 11
21.4684906864
 21
-35.0891981762
  0
LINE
  5
2D8
100
AcDbEntity
  8
RACCORDO
100
AcDbLine
 62
250
  6
CONTINUOUS
 10
21.2774772817
 20
-35.460544356
 11
17.930048852
 21
-33.5726825713
  0
LINE
  5
2D9
100
AcDbEntity
  8
RACCORDO
100
AcDbLine
 62
250
  6
CONTINUOUS
 10
21.4684906864
 20
-35.0891981762
 11
18.1210935512
 21
-33.1984895586
  0
LINE
  5
2DA
100
AcDbEntity
  8
RACCORDO
100
AcDbLine
 62
250
  6
CONTINUOUS
 10
17.930048852
 20
-33.5726825713
 11
15.4577917897
 21
-32.1751014872
  0
LINE
  5
2DB
100
AcDbEntity
  8
RACCORDO
100
AcDbLine
 62
250
  6
CONTINUOUS
 10
18.1210935512
 20
-33.1984895586
 11
15.1286531958
 21
-31.504263413
  0
LINE
  5
2DC
100
AcDbEntity
  8
RACCORDO
100
AcDbLine
 62
250
  6
CONTINUOUS
 10
15.4577917897
 20
-32.1751014872
 11
12.6993186462
 21
-30.6118309894
  0
LINE
  5
2DD
100
AcDbEntity
  8
RACCORDO
100
AcDbLine
 62
250
  6
CONTINUOUS
 10
15.1286531958
 20
-31.504263413
 11
12.2863884605
 21
-29.8908059771
  0
LINE
  5
2DE
100
AcDbEntity
  8
RACCORDO
100
AcDbLine
 62
250
  6
CONTINUOUS
 10
12.6993186462
 20
-30.6118309894
 11
10.1714083229
 21
-29.1754157132
  0
LINE
  5
2DF
100
AcDbEntity
  8
RACCORDO
100
AcDbLine
 62
250
  6
CONTINUOUS
 10
12.2863884605
 20
-29.8908059771
 11
9.6841845587
 21
-28.4098097272
  0
LINE
  5
2E0
100
AcDbEntity
  8
RACCORDO
100
AcDbLine
 62
250
  6
CONTINUOUS
 10
10.1714083229
 20
-29.1754157132
 11
7.3464106922
 21
-27.5656437244
  0
LINE
  5
2E1
100
AcDbEntity
  8
RACCORDO
100
AcDbLine
 62
250
  6
CONTINUOUS
 10
9.6841845587
 20
-28.4098097272
 11
6.7843569433
 21
-26.754849548
  0
LINE
  5
2E2
100
AcDbEntity
  8
RACCORDO
100
AcDbLine
 62
250
  6
CONTINUOUS
 10
7.3464106922
 20
-27.5656437244
 11
5.0270204476
 21
-26.2403205305
  0
LINE
  5
2E3
100
AcDbEntity
  8
RACCORDO
100
AcDbLine
 62
250
  6
CONTINUOUS
 10
6.7843569433
 20
-26.754849548
 11
4.4042091829
 21
-25.3928798474
  0
LINE
  5
2E4
100
AcDbEntity
  8
RACCORDO
100
AcDbLine
 62
250
  6
CONTINUOUS
 10
5.0270204476
 20
-26.2403205305
 11
2.5178267165
 21
-24.8029041113
  0
LINE
  5
2E5
100
AcDbEntity
  8
RACCORDO
100
AcDbLine
 62
250
  6
CONTINUOUS
 10
4.4042091829
 20
-25.3928798474
 11
1.8282573693
 21
-23.9152965043
  0
LINE
  5
2E6
100
AcDbEntity
  8
RACCORDO
100
AcDbLine
 62
250
  6
CONTINUOUS
 10
2.5178267165
 20
-24.8029041113
 11
-0.1963579576
 21
-23.2439043913
  0
LINE
  5
2E7
100
AcDbEntity
  8
RACCORDO
100
AcDbLine
 62
250
  6
CONTINUOUS
 10
1.8282573693
 20
-23.9152965043
 11
-0.956710963
 21
-22.3137483503
  0
LINE
  5
2E8
100
AcDbEntity
  8
RACCORDO
100
AcDbLine
 62
250
  6
CONTINUOUS
 10
-0.1963579576
 20
-23.2439043913
 11
-3.1279383849
 21
-21.5553046042
  0
LINE
  5
2E9
100
AcDbEntity
  8
RACCORDO
100
AcDbLine
 62
250
  6
CONTINUOUS
 10
-0.956710963
 20
-22.3137483503
 11
-3.9617761682
 21
-20.5810124114
  0
LINE
  5
2EA
100
AcDbEntity
  8
RACCORDO
100
AcDbLine
 62
7
  6
CONTINUOUS
 10
-34.0426928705
 20
-1.3824837989
 11
28.144291561
 21
-37.2884692237
  0
LINE
  5
2EB
100
AcDbEntity
  8
RACCORDO
100
AcDbLine
 62
250
  6
CONTINUOUS
 10
-3.1279383849
 20
-21.5553046042
 11
-5.9956760298
 21
-19.898863245
  0
LINE
  5
2EC
100
AcDbEntity
  8
RACCORDO
100
AcDbLine
 62
250
  6
CONTINUOUS
 10
-3.9617761682
 20
-20.5810124114
 11
-6.6899545851
 21
-19.0038559903
  0
LINE
  5
2ED
100
AcDbEntity
  8
RACCORDO
100
AcDbLine
 62
250
  6
CONTINUOUS
 10
-5.9956760298
 20
-19.898863245
 11
-8.5870280287
 21
-18.3980963139
  0
LINE
  5
2EE
100
AcDbEntity
  8
RACCORDO
100
AcDbLine
 62
250
  6
CONTINUOUS
 10
-6.6899545851
 20
-19.0038559903
 11
-9.2150349881
 21
-17.5405760847
  0
LINE
  5
2EF
100
AcDbEntity
  8
RACCORDO
100
AcDbLine
 62
250
  6
CONTINUOUS
 10
-8.5870280287
 20
-18.3980963139
 11
-10.989834035
 21
-17.0030438354
  0
LWPOLYLINE
  5
2F0
100
AcDbEntity
  8
RACCORDO
100
AcDbPolyline
 62
250
  6
CONTINUOUS
 90
25
 70
0
 10
-35.3905738139
 20
-2.1607212616
 10
-35.4143127001
 20
-2.1469294804
 10
-35.4379492985
 20
-2.131433063
 10
-35.4613943497
 20
-2.114297592
 10
-35.484584585
 20
-2.0955865986
 10
-35.5074030896
 20
-2.075386674
 10
-35.5296817188
 20
-2.0538170017
 10
-35.5513186928
 20
-2.0309877825
 10
-35.5722458692
 20
-2.0069943139
 10
-35.5923516028
 20
-1.9819508807
 10
-35.6115462225
 20
-1.9559815215
 10
-35.6297687666
 20
-1.9291920929
 10
-35.6469549654
 20
-1.9016737939
 10
-35.6630429675
 20
-1.8735254068
 10
-35.6779606772
 20
-1.8448860017
 10
-35.6916355548
 20
-1.8159090068
 10
-35.7039874689
 20
-1.7867804495
 10
-35.7150013449
 20
-1.7575574723
 10
-35.7246940073
 20
-1.7282009212
 10
-35.7330240265
 20
-1.6987704974
 10
-35.7399169728
 20
-1.66945491
 10
-35.7453307253
 20
-1.6404109469
 10
-35.7492269357
 20
-1.6117739298
 10
-35.7515677612
 20
-1.5836583145
 10
-35.8078087129
 20
0.3419252374
  0
LINE
  5
2F1
100
AcDbEntity
  8
RACCORDO
100
AcDbLine
 62
250
  6
CONTINUOUS
 10
-9.2150349881
 20
-17.5405760847
 11
-11.5595250354
 21
-16.1788090423
  0
LINE
  5
2F2
100
AcDbEntity
  8
RACCORDO
100
AcDbLine
 62
250
  6
CONTINUOUS
 10
-10.989834035
 20
-17.0030438354
 11
-13.224537529
 21
-15.7024964651
  0
LINE
  5
2F3
100
AcDbEntity
  8
RACCORDO
100
AcDbLine
 62
250
  6
CONTINUOUS
 10
-11.5595250354
 20
-16.1788090423
 11
-14.4348212542
 21
-14.5044745521
  0
LINE
  5
2F4
100
AcDbEntity
  8
RACCORDO
100
AcDbLine
 62
250
  6
CONTINUOUS
 10
-13.224537529
 20
-15.7024964651
 11
-15.9658929686
 21
-14.1028890797
  0
LINE
  5
2F5
100
AcDbEntity
  8
RACCORDO
100
AcDbLine
 62
250
  6
CONTINUOUS
 10
-14.4348212542
 20
-14.5044745521
 11
-17.0447662417
 21
-12.9804385026
  0
LINE
  5
2F6
100
AcDbEntity
  8
RACCORDO
100
AcDbLine
 62
250
  6
CONTINUOUS
 10
-15.9658929686
 20
-14.1028890797
 11
-18.4457989341
 21
-12.6517418991
  0
LINE
  5
2F7
100
AcDbEntity
  8
RACCORDO
100
AcDbLine
 62
250
  6
CONTINUOUS
 10
-17.0447662417
 20
-12.9804385026
 11
-19.3939763665
 21
-11.6052112839
  0
LINE
  5
2F8
100
AcDbEntity
  8
RACCORDO
100
AcDbLine
 62
250
  6
CONTINUOUS
 10
-18.4457989341
 20
-12.6517418991
 11
-21.1868835526
 21
-11.0433080323
  0
LINE
  5
2F9
100
AcDbEntity
  8
RACCORDO
100
AcDbLine
 62
250
  6
CONTINUOUS
 10
-19.3939763665
 20
-11.6052112839
 11
-21.9923402574
 21
-10.0804374074
  0
LINE
  5
2FA
100
AcDbEntity
  8
RACCORDO
100
AcDbLine
 62
250
  6
CONTINUOUS
 10
-21.1868835526
 20
-11.0433080323
 11
-23.6176575065
 21
-9.6132248821
  0
LINE
  5
2FB
100
AcDbEntity
  8
RACCORDO
100
AcDbLine
 62
250
  6
CONTINUOUS
 10
-21.9923402574
 20
-10.0804374074
 11
-24.8047662579
 21
-8.4258880399
  0
LINE
  5
2FC
100
AcDbEntity
  8
RACCORDO
100
AcDbLine
 62
250
  6
CONTINUOUS
 10
-23.6176575065
 20
-9.6132248821
 11
-26.3671316107
 21
-7.991621798
  0
LINE
  5
2FD
100
AcDbEntity
  8
RACCORDO
100
AcDbLine
 62
250
  6
CONTINUOUS
 10
-24.8047662579
 20
-8.4258880399
 11
-28.4458617607
 21
-6.2781080074
  0
LINE
  5
2FE
100
AcDbEntity
  8
RACCORDO
100
AcDbLine
 62
250
  6
CONTINUOUS
 10
-28.4458617607
 20
-6.2781080074
 11
-31.668041519
 21
-4.3733720702
  0
LINE
  5
2FF
100
AcDbEntity
  8
RACCORDO
100
AcDbLine
 62
250
  6
CONTINUOUS
 10
-26.3671316107
 20
-7.991621798
 11
-32.8498406736
 21
-4.154142094
  0
LINE
  5
300
100
AcDbEntity
  8
RACCORDO
100
AcDbLine
 62
250
  6
CONTINUOUS
 10
-31.668041519
 20
-4.3733720702
 11
-33.6938498447
 21
-3.17185782
  0
LINE
  5
301
100
AcDbEntity
  8
RACCORDO
100
AcDbLine
 62
250
  6
CONTINUOUS
 10
-32.8498406736
 20
-4.154142094
 11
-34.4385120078
 21
-3.2089892857
  0
LINE
  5
302
100
AcDbEntity
  8
RACCORDO
100
AcDbLine
 62
250
  6
CONTINUOUS
 10
-33.6938498447
 20
-3.17185782
 11
-35.3905742903
 21
-2.1607215366
  0
LINE
  5
303
100
AcDbEntity
  8
RACCORDO
100
AcDbLine
 62
250
  6
CONTINUOUS
 10
-34.4385120078
 20
-3.2089892857
 11
-35.5874656557
 21
-2.5229092701
  0
LWPOLYLINE
  5
304
100
AcDbEntity
  8
RACCORDO
100
AcDbPolyline
 62
250
  6
CONTINUOUS
 90
9
 70
0
 10
28.2689069272
 20
-38.7524743725
 10
28.2483452376
 20
-38.739742734
 10
28.2300744933
 20
-38.7258111101
 10
28.2142777864
 20
-38.7108191318
 10
28.2011134129
 20
-38.6949170566
 10
28.1907132836
 20
-38.6782642585
 10
28.183181605
 20
-38.6610276297
 10
28.178593839
 20
-38.6433799168
 10
28.1770323121
 20
-38.6277768444
  0
LWPOLYLINE
  5
305
100
AcDbEntity
  8
RACCORDO
100
AcDbPolyline
 62
250
  6
CONTINUOUS
 90
25
 70
0
 10
-35.5874656557
 20
-2.5229092701
 10
-35.6240449801
 20
-2.4996575162
 10
-35.660281091
 20
-2.4739653738
 10
-35.6961733134
 20
-2.4458324274
 10
-35.7318969164
 20
-2.4150955747
 10
-35.7672751891
 20
-2.3819170585
 10
-35.8017797191
 20
-2.3467846312
 10
-35.8353755823
 20
-2.3096819068
 10
-35.8680968233
 20
-2.2706247982
 10
-35.8995190178
 20
-2.2301498322
 10
-35.9296095734
 20
-2.1882616331
 10
-35.9584008412
 20
-2.1449555239
 10
-35.9855663444
 20
-2.1007543975
 10
-36.0110990899
 20
-2.0556228612
 10
-36.0350063845
 20
-2.0095966092
 10
-36.0569837129
 20
-1.9633054576
 10
-36.0769786477
 20
-1.9168499016
 10
-36.0950444641
 20
-1.8701300613
 10
-36.1110355568
 20
-1.8234753867
 10
-36.1249792271
 20
-1.7767812561
 10
-36.136849079
 20
-1.7301529404
 10
-36.1464192275
 20
-1.6842348617
 10
-36.1536148121
 20
-1.6392421025
 10
-36.1585117846
 20
-1.5949603
 10
-36.1611105893
 20
-1.5513897559
  0
LWPOLYLINE
  5
306
100
AcDbEntity
  8
0
100
AcDbPolyline
 62
7
  6
CONTINUOUS
 90
10
 70
0
 10
-1.2199174756
 20
-24.702653569
 10
-1.2512808288
 20
-24.681506261
 10
-1.2828949626
 20
-24.6612104755
 10
-1.3147143738
 20
-24.6418232369
 10
-1.3466766936
 20
-24.6234126399
 10
-1.3787456588
 20
-24.6060285183
 10
-1.4109108118
 20
-24.5897087001
 10
-1.4431304259
 20
-24.5745129089
 10
-1.4753669581
 20
-24.5603792643
 10
-1.5076488203
 20
-24.5470254027
  0
LWPOLYLINE
  5
307
100
AcDbEntity
  8
0
100
AcDbPolyline
 62
7
  6
CONTINUOUS
 90
24
 70
0
 10
-0.9374788579
 20
-24.5566993295
 10
-0.9757194671
 20
-24.5227357104
 10
-1.0141969728
 20
-24.490100329
 10
-1.0529119465
 20
-24.4587935153
 10
-1.0919683507
 20
-24.4288976668
 10
-1.1312631125
 20
-24.4003308996
 10
-1.1704860321
 20
-24.3728469951
 10
-1.2095575555
 20
-24.3464365281
 10
-1.2485575209
 20
-24.3211090878
 10
-1.2874146478
 20
-24.2966468801
 10
-1.326130773
 20
-24.2730059825
 10
-1.3647041081
 20
-24.2502303453
 10
-1.4030578826
 20
-24.2282339534
 10
-1.4411511793
 20
-24.2070387133
 10
-1.4790248506
 20
-24.186622681
 10
-1.5167247713
 20
-24.1668340593
 10
-1.5542439583
 20
-24.1476719523
 10
-1.5915892692
 20
-24.1291371834
 10
-1.6288273505
 20
-24.1110805409
 10
-1.6659511863
 20
-24.0935016631
 10
-1.7029676472
 20
-24.0764008278
 10
-1.7399642336
 20
-24.0596297965
 10
-1.7769700739
 20
-24.0431391343
 10
-1.8139559038
 20
-24.0269781976
  0
LWPOLYLINE
  5
308
100
AcDbEntity
  8
0
100
AcDbPolyline
 62
7
  6
CONTINUOUS
 90
46
 70
0
 10
-0.9874105023
 20
-24.5855290566
 10
-0.9665885574
 20
-24.6054913031
 10
-0.9453330129
 20
-24.6274817928
 10
-0.9237129768
 20
-24.6514059516
 10
-0.9018617275
 20
-24.6770478954
 10
-0.8797978188
 20
-24.7043227691
 10
-0.8574726792
 20
-24.733430648
 10
-0.8349828496
 20
-24.7645058469
 10
-0.8125918457
 20
-24.7974443768
 10
-0.7905420898
 20
-24.8321051102
 10
-0.7688567813
 20
-24.8686963218
 10
-0.7479665228
 20
-24.9068082775
 10
-0.7286044772
 20
-24.9452799709
 10
-0.7108076097
 20
-24.9840239852
 10
-0.6947661433
 20
-25.0227122085
 10
-0.6810363157
 20
-25.0598605718
 10
-0.6695311598
 20
-25.0950083404
 10
-0.6599030423
 20
-25.128478063
 10
-0.6520328575
 20
-25.1600767721
 10
-0.6457298441
 20
-25.1896393859
 10
-0.6407271793
 20
-25.2173840142
 10
-0.6368640322
 20
-25.243681129
 10
-0.634059909
 20
-25.268595621
 10
-0.6322436323
 20
-25.2920447008
 10
-0.6313490895
 20
-25.3141499413
 10
-0.631311885
 20
-25.3349409296
 10
-0.6320600888
 20
-25.3544247733
 10
-0.6335336694
 20
-25.3726880209
 10
-0.6356680937
 20
-25.3897597523
 10
-0.6383998078
 20
-25.405686189
 10
-0.6416840683
 20
-25.4205719088
 10
-0.6454547874
 20
-25.4344338714
 10
-0.6496463206
 20
-25.4472962286
 10
-0.6542300551
 20
-25.4592568001
 10
-0.6591547026
 20
-25.4703345832
 10
-0.6643692547
 20
-25.4805509732
 10
-0.669866733
 20
-25.4899943672
 10
-0.6756176049
 20
-25.4986945234
 10
-0.68157899
 20
-25.5066615668
 10
-0.6877377625
 20
-25.5139435105
 10
-0.6940730502
 20
-25.5205690413
 10
-0.700548663
 20
-25.5265537174
 10
-0.7071328713
 20
-25.5319396878
 10
-0.7138022336
 20
-25.5367992964
 10
-0.7205237557
 20
-25.5411934527
 10
-0.7254579241
 20
-25.544146614
  0
LWPOLYLINE
  5
309
100
AcDbEntity
  8
0
100
AcDbPolyline
 62
7
  6
CONTINUOUS
 90
3
 70
0
 10
-0.823511937
 20
-25.5777500539
 10
-0.8047765101
 20
-25.5963906232
 10
-0.787149583
 20
-25.615777448
  0
LINE
  5
30A
100
AcDbEntity
  8
0
100
AcDbLine
 62
7
  6
CONTINUOUS
 10
-0.7526252265
 20
-25.5704361653
 11
-0.7617477792
 21
-25.5610090304
  0
LINE
  5
30B
100
AcDbEntity
  8
0
100
AcDbLine
 62
7
  6
CONTINUOUS
 10
-0.7321787118
 20
-25.5931895068
 11
-0.7526252265
 21
-25.5704361653
  0
LWPOLYLINE
  5
30C
100
AcDbEntity
  8
0
100
AcDbPolyline
 62
7
  6
CONTINUOUS
 90
21
 70
0
 10
-0.787149583
 20
-25.615777448
 10
-0.7705525877
 20
-25.635721683
 10
-0.7548524983
 20
-25.6560826682
 10
-0.7400404861
 20
-25.6766735061
 10
-0.7262158089
 20
-25.6972436616
 10
-0.7133762338
 20
-25.7175438677
 10
-0.7013703599
 20
-25.737553489
 10
-0.690081367
 20
-25.7573857049
 10
-0.6794674251
 20
-25.7769580935
 10
-0.6694756806
 20
-25.7961895346
 10
-0.6600041781
 20
-25.8152247493
 10
-0.6510113094
 20
-25.8340412983
 10
-0.6424822741
 20
-25.8525502683
 10
-0.6343751349
 20
-25.870808522
 10
-0.6266735448
 20
-25.8887645828
 10
-0.6193524077
 20
-25.9063819729
 10
-0.612368823
 20
-25.9237417762
 10
-0.6057153364
 20
-25.9408027838
 10
-0.5993726034
 20
-25.9575263943
 10
-0.5932789741
 20
-25.9740242296
 10
-0.5873804176
 20
-25.9903935015
  0
LWPOLYLINE
  5
30D
100
AcDbEntity
  8
0
100
AcDbPolyline
 62
7
  6
CONTINUOUS
 90
19
 70
0
 10
-0.9582523479
 20
-25.7842951143
 10
-0.9661728396
 20
-25.7658319747
 10
-0.9748108094
 20
-25.7471811052
 10
-0.9841295812
 20
-25.728467056
 10
-0.9940818939
 20
-25.7098608976
 10
-1.0046409567
 20
-25.6914264991
 10
-1.0158173153
 20
-25.6731239671
 10
-1.0276028964
 20
-25.6550558945
 10
-1.0399690933
 20
-25.6373486554
 10
-1.0529205015
 20
-25.6200089982
 10
-1.0664868564
 20
-25.6031107679
 10
-1.0806218961
 20
-25.5868419477
 10
-1.0952164589
 20
-25.571382067
 10
-1.1101827636
 20
-25.5568363505
 10
-1.1254474856
 20
-25.5432357864
 10
-1.1409014307
 20
-25.53062603
 10
-1.1564337925
 20
-25.5190505238
 10
-1.1719323034
 20
-25.5085509227
 10
-1.1872842819
 20
-25.4991702242
  0
LINE
  5
30E
100
AcDbEntity
  8
0
100
AcDbLine
 62
7
  6
CONTINUOUS
 10
-4.1939193093
 20
-24.439675119
 11
-4.3962304712
 21
-23.9512006819
  0
LINE
  5
30F
100
AcDbEntity
  8
0
100
AcDbLine
 62
7
  6
CONTINUOUS
 10
-4.3962304712
 20
-23.9512006819
 11
-4.5981995846
 21
-23.4569640872
  0
LINE
  5
310
100
AcDbEntity
  8
0
100
AcDbLine
 62
7
  6
CONTINUOUS
 10
-4.5981995846
 20
-23.4569640872
 11
-4.7998037131
 21
-22.9569660894
  0
LINE
  5
311
100
AcDbEntity
  8
0
100
AcDbLine
 62
7
  6
CONTINUOUS
 10
-4.2613525655
 20
-23.52557379
 11
-4.4594932103
 21
-23.0310385953
  0
LINE
  5
312
100
AcDbEntity
  8
0
100
AcDbLine
 62
7
  6
CONTINUOUS
 10
-4.5094818319
 20
-23.059888747
 11
-4.2860566657
 21
-23.6172658847
  0
LWPOLYLINE
  5
313
100
AcDbEntity
  8
0
100
AcDbPolyline
 62
7
  6
CONTINUOUS
 90
3
 70
0
 10
-4.4594932103
 20
-23.0310385953
 10
-4.6826321805
 20
-22.466119014
 10
-4.7383631554
 20
-22.3237050811
  0
LWPOLYLINE
  5
314
100
AcDbEntity
  8
0
100
AcDbPolyline
 62
7
  6
CONTINUOUS
 90
3
 70
0
 10
-4.788296034
 20
-22.3525356994
 10
-4.732576699
 20
-22.494951324
 10
-4.5094818319
 20
-23.059888747
  0
LINE
  5
315
100
AcDbEntity
  8
0
100
AcDbLine
 62
7
  6
CONTINUOUS
 10
-6.6571567235
 20
-23.0173957657
 11
-6.8398556239
 21
-22.5345744464
  0
LINE
  5
316
100
AcDbEntity
  8
0
100
AcDbLine
 62
7
  6
CONTINUOUS
 10
-6.8398556239
 20
-22.5345744464
 11
-7.0218525299
 21
-22.0461772525
  0
LINE
  5
317
100
AcDbEntity
  8
0
100
AcDbLine
 62
7
  6
CONTINUOUS
 10
-1.7049605175
 20
-25.818871083
 11
-1.8833397732
 21
-25.3398220749
  0
LINE
  5
318
100
AcDbEntity
  8
0
100
AcDbLine
 62
7
  6
CONTINUOUS
 10
-1.9334169441
 20
-25.3687093842
 11
-1.7550732315
 21
-25.847805536
  0
LINE
  5
319
100
AcDbEntity
  8
0
100
AcDbLine
 62
7
  6
CONTINUOUS
 10
-7.0218525299
 20
-22.0461772525
 11
-7.2031390143
 21
-21.5522047795
  0
LINE
  5
31A
100
AcDbEntity
  8
0
100
AcDbLine
 62
7
  6
CONTINUOUS
 10
-1.8833397732
 20
-25.3398220749
 11
-2.061338965
 21
-24.8544454289
  0
LINE
  5
31B
100
AcDbEntity
  8
0
100
AcDbLine
 62
7
  6
CONTINUOUS
 10
-2.1113778342
 20
-24.8832993404
 11
-1.9334169441
 21
-25.3687093842
  0
LWPOLYLINE
  5
31C
100
AcDbEntity
  8
0
100
AcDbPolyline
 62
7
  6
CONTINUOUS
 90
3
 70
0
 10
-7.2031390143
 20
-21.5522047795
 10
-7.3836813679
 20
-21.0526594089
 10
-7.4736756025
 20
-20.800796738
  0
LINE
  5
31D
100
AcDbEntity
  8
0
100
AcDbLine
 62
7
  6
CONTINUOUS
 10
-2.061338965
 20
-24.8544454289
 11
-2.2389485991
 21
-24.3627406068
  0
LINE
  5
31E
100
AcDbEntity
  8
0
100
AcDbLine
 62
7
  6
CONTINUOUS
 10
-2.2889464913
 20
-24.3915748287
 11
-2.1113778342
 21
-24.8832993404
  0
LWPOLYLINE
  5
31F
100
AcDbEntity
  8
0
100
AcDbPolyline
 62
7
  6
CONTINUOUS
 90
3
 70
0
 10
-2.2389485991
 20
-24.3627406068
 10
-2.4161307004
 20
-23.8647054556
 10
-2.5045637997
 20
-23.6133141412
  0
LWPOLYLINE
  5
320
100
AcDbEntity
  8
0
100
AcDbPolyline
 62
250
  6
CONTINUOUS
 90
11
 70
0
 10
-1.1262282068
 20
-35.1015477959
 10
-1.4275598507
 20
-34.2478046186
 10
-1.7150608605
 20
-33.3777649682
 10
-1.988648429
 20
-32.4913810332
 10
-2.2478183822
 20
-31.5901738596
 10
-2.492999502
 20
-30.6725788707
 10
-2.7252808995
 20
-29.7337884553
 10
-2.9440755939
 20
-28.775068835
 10
-3.1494859877
 20
-27.7948739986
 10
-3.3430249604
 20
-26.7838256025
 10
-3.5248401266
 20
-25.7385915903
  0
LWPOLYLINE
  5
321
100
AcDbEntity
  8
0
100
AcDbPolyline
 62
7
  6
CONTINUOUS
 90
3
 70
0
 10
-2.5544958143
 20
-23.6421442607
 10
-2.4660852736
 20
-23.8935335467
 10
-2.2889464913
 20
-24.3915748287
  0
LINE
  5
322
100
AcDbEntity
  8
0
100
AcDbLine
 62
7
  6
CONTINUOUS
 10
-2.1439517521
 20
-25.6232795279
 11
-2.2945136215
 21
-25.1923894167
  0
LINE
  5
323
100
AcDbEntity
  8
0
100
AcDbLine
 62
7
  6
CONTINUOUS
 10
-6.734947844
 20
-22.0386658105
 11
-6.5646589508
 21
-22.532722779
  0
LINE
  5
324
100
AcDbEntity
  8
0
100
AcDbLine
 62
7
  6
CONTINUOUS
 10
-6.5464473501
 20
-22.412008621
 11
-6.6849364875
 21
-22.0098101132
  0
LINE
  5
325
100
AcDbEntity
  8
0
100
AcDbLine
 62
7
  6
CONTINUOUS
 10
-6.6849364875
 20
-22.0098101132
 11
-6.8544690145
 21
-21.5097113455
  0
LINE
  5
326
100
AcDbEntity
  8
0
100
AcDbLine
 62
7
  6
CONTINUOUS
 10
-6.9044402771
 20
-21.5385440176
 11
-6.734947844
 21
-22.0386658105
  0
LINE
  5
327
100
AcDbEntity
  8
0
100
AcDbLine
 62
7
  6
CONTINUOUS
 10
-6.8544690145
 20
-21.5097113455
 11
-7.0231832983
 21
-21.00353107
  0
LINE
  5
328
100
AcDbEntity
  8
0
100
AcDbLine
 62
7
  6
CONTINUOUS
 10
-7.0731111221
 20
-21.0323587697
 11
-6.9044402771
 21
-21.5385440176
  0
LINE
  5
329
100
AcDbEntity
  8
0
100
AcDbLine
 62
250
  6
CONTINUOUS
 10
-4.0894346335
 20
-21.5779017317
 11
-4.1541256841
 21
-20.9630948317
  0
LINE
  5
32A
100
AcDbEntity
  8
0
100
AcDbLine
 62
7
  6
CONTINUOUS
 10
-4.6562576085
 20
-24.1148465829
 11
-4.6893168604
 21
-23.724418874
  0
LINE
  5
32B
100
AcDbEntity
  8
0
100
AcDbLine
 62
7
  6
CONTINUOUS
 10
-4.739389354
 20
-23.7533223744
 11
-4.7063731336
 21
-24.1437826591
  0
LINE
  5
32C
100
AcDbEntity
  8
0
100
AcDbLine
 62
7
  6
CONTINUOUS
 10
-4.6893168604
 20
-23.724418874
 11
-4.7205088725
 21
-23.3288377629
  0
LINE
  5
32D
100
AcDbEntity
  8
0
100
AcDbLine
 62
7
  6
CONTINUOUS
 10
-4.7705396791
 20
-23.3577172817
 11
-4.739389354
 21
-23.7533223744
  0
LINE
  5
32E
100
AcDbEntity
  8
0
100
AcDbLine
 62
7
  6
CONTINUOUS
 10
-4.7205088725
 20
-23.3288377629
 11
-4.73640488
 21
-23.1149006509
  0
LINE
  5
32F
100
AcDbEntity
  8
0
100
AcDbLine
 62
7
  6
CONTINUOUS
 10
-4.7998037131
 20
-22.9569660894
 11
-4.7705396791
 21
-23.3577172817
  0
LINE
  5
330
100
AcDbEntity
  8
0
100
AcDbLine
 62
7
  6
CONTINUOUS
 10
-5.0593447329
 20
-23.9399741145
 11
-5.0845347112
 21
-23.5493284044
  0
LWPOLYLINE
  5
331
100
AcDbEntity
  8
RACCORDO
100
AcDbPolyline
 62
250
  6
CONTINUOUS
 90
19
 70
0
 10
-4.1541256841
 20
-20.9630948317
 10
-4.1553685693
 20
-20.9421756601
 10
-4.1549493025
 20
-20.9202546458
 10
-4.1528711696
 20
-20.8975035916
 10
-4.1491504576
 20
-20.8741008054
 10
-4.1438163272
 20
-20.8502297029
 10
-4.1369105837
 20
-20.8260773704
 10
-4.1284873498
 20
-20.8018330979
 10
-4.1186126414
 20
-20.7776868964
 10
-4.10736385
 20
-20.7538280079
 10
-4.0948291362
 20
-20.730443423
 10
-4.081106739
 20
-20.7077164147
 10
-4.0663042057
 20
-20.6858251026
 10
-4.0505375487
 20
-20.6649410564
 10
-4.0339303369
 20
-20.6452279516
 10
-4.0166127267
 20
-20.6268402868
 10
-3.9987204423
 20
-20.6099221725
 10
-3.9803937119
 20
-20.5946062019
 10
-3.9617761682
 20
-20.5810124114
  0
LINE
  5
332
100
AcDbEntity
  8
0
100
AcDbLine
 62
7
  6
CONTINUOUS
 10
-5.0845347112
 20
-23.5493284044
 11
-5.1077286404
 21
-23.1532961693
  0
LINE
  5
333
100
AcDbEntity
  8
0
100
AcDbLine
 62
7
  6
CONTINUOUS
 10
-5.1077286404
 20
-23.1532961693
 11
-5.1289183952
 21
-22.7518764337
  0
LWPOLYLINE
  5
334
100
AcDbEntity
  8
0
100
AcDbPolyline
 62
7
  6
CONTINUOUS
 90
3
 70
0
 10
-5.1289183952
 20
-22.7518764337
 10
-5.1480714735
 20
-22.345065295
 10
-5.1568862903
 20
-22.1396381934
  0
LWPOLYLINE
  5
335
100
AcDbEntity
  8
RACCORDO
100
AcDbPolyline
 62
250
  6
CONTINUOUS
 90
12
 70
0
 10
-4.1541256841
 20
16.7778572825
 10
-4.1553685693
 20
16.7555028582
 10
-4.1549493025
 20
16.7340660028
 10
-4.1528711696
 20
16.7137147244
 10
-4.1491504577
 20
16.694608523
 10
-4.1438163273
 20
16.6768971406
 10
-4.1369105838
 20
16.6607193876
 10
-4.1284873499
 20
16.6462020544
 10
-4.1186126415
 20
16.6334589187
 10
-4.1073638501
 20
16.6225898526
 10
-4.0948291363
 20
16.6136800409
 10
-4.0932949955
 20
16.6127759365
  0
LWPOLYLINE
  5
336
100
AcDbEntity
  8
RACCORDO
100
AcDbPolyline
 62
250
  6
CONTINUOUS
 90
13
 70
0
 10
-1.1262282068
 20
34.4128503566
 10
-1.4812264369
 20
32.9911150938
 10
-1.8171360877
 20
31.5676667903
 10
-2.1337652174
 20
30.1426162707
 10
-2.430148964
 20
28.7200218616
 10
-2.7070677991
 20
27.2959317011
 10
-2.9664294447
 20
25.8587406127
 10
-3.2071673714
 20
24.4115438616
 10
-3.4293894579
 20
22.9517996954
 10
-3.6356402175
 20
21.4600968683
 10
-3.8259634173
 20
19.9304294178
 10
-3.99889516
 20
18.3696232717
 10
-4.1541256841
 20
16.7778572825
  0
LWPOLYLINE
  5
337
100
AcDbEntity
  8
ASSI
100
AcDbPolyline
 62
250
  6
CONTINUOUS
 90
14
 70
0
 10
51.0966413736
 20
7.0619652776
 10
51.0666506142
 20
7.0536207857
 10
51.0320906058
 20
7.0420544234
 10
50.9931401294
 20
7.0273889603
 10
50.9501545606
 20
7.0098121511
 10
50.9031334223
 20
6.9894328162
 10
50.8516593856
 20
6.9661134416
 10
50.7959878771
 20
6.9397918125
 10
50.7360865487
 20
6.9105291057
 10
50.6710061168
 20
6.878063336
 10
50.6003753491
 20
6.8419657902
 10
50.5247126669
 20
6.802292815
 10
50.4443951501
 20
6.7594673823
 10
50.3613781627
 20
6.7146066899
  0
LWPOLYLINE
  5
338
100
AcDbEntity
  8
RACCORDO
100
AcDbPolyline
 62
250
  6
CONTINUOUS
 90
16
 70
0
 10
28.0573948124
 20
-20.7251978131
 10
29.5366503725
 20
-21.4982241783
 10
30.9905348714
 20
-22.2363663352
 10
32.4201453991
 20
-22.9389908378
 10
33.8201705092
 20
-23.6029958346
 10
35.196313194
 20
-24.2312571034
 10
36.5656900662
 20
-24.832397569
 10
37.9291487786
 20
-25.4075137166
 10
39.2843189757
 20
-25.9563882505
 10
40.6446643393
 20
-26.4849955238
 10
42.0142113875
 20
-26.9950130397
 10
43.3885906778
 20
-27.4849612954
 10
44.7694136102
 20
-27.9556509103
 10
46.1570867588
 20
-28.407427474
 10
47.5507083669
 20
-28.8402313092
 10
48.949970783
 20
-29.2542400499
  0
LWPOLYLINE
  5
339
100
AcDbEntity
  8
RACCORDO
100
AcDbPolyline
 62
250
  6
CONTINUOUS
 90
16
 70
0
 10
-36.4246201121
 20
16.5059094549
 10
-37.7634547931
 20
17.3600130759
 10
-39.0418721454
 20
18.1994677641
 10
-40.2587750792
 20
19.0249069656
 10
-41.4087913763
 20
19.8332639177
 10
-42.4969017088
 20
20.6278314568
 10
-43.5380404586
 20
21.4184925005
 10
-44.5341066713
 20
22.2057364729
 10
-45.4847240041
 20
22.9881947604
 10
-46.4002396733
 20
23.7736411242
 10
-47.2835590127
 20
24.5644004254
 10
-48.1321196131
 20
25.3579498026
 10
-48.9473254179
 20
26.155219658
 10
-49.729774968
 20
26.9564447424
 10
-50.4793649052
 20
27.7611043927
 10
-51.1964028811
 20
28.5690209749
  0
LWPOLYLINE
  5
33A
100
AcDbEntity
  8
0
100
AcDbPolyline
 62
7
  6
CONTINUOUS
 90
6
 70
0
 10
-0.8980498648
 20
-25.9399523102
 10
-0.9095334826
 20
-25.9090430061
 10
-0.9212527797
 20
-25.8780366763
 10
-0.9332548713
 20
-25.8469030422
 10
-0.9455743535
 20
-25.8156582288
 10
-0.9582523673
 20
-25.7842951115
  0
LWPOLYLINE
  5
33B
100
AcDbEntity
  8
0
100
AcDbPolyline
 62
7
  6
CONTINUOUS
 90
18
 70
0
 10
-0.5412142111
 20
-25.9506678003
 10
-0.5480412602
 20
-25.9320694324
 10
-0.5551653177
 20
-25.9132421061
 10
-0.5625746713
 20
-25.8941959996
 10
-0.5704214668
 20
-25.8747892085
 10
-0.5787133885
 20
-25.8549743771
 10
-0.5874426077
 20
-25.8347987778
 10
-0.5967380187
 20
-25.8142624597
 10
-0.6065892249
 20
-25.7933386162
 10
-0.6170065883
 20
-25.7720540341
 10
-0.6281503165
 20
-25.7504892537
 10
-0.6399629983
 20
-25.7286614597
 10
-0.6525022578
 20
-25.7065535904
 10
-0.6661011272
 20
-25.6841949737
 10
-0.6807648214
 20
-25.6614465157
 10
-0.6964885685
 20
-25.6384475661
 10
-0.713590953
 20
-25.6156454255
 10
-0.7321787118
 20
-25.5931895068
  0
LINE
  5
33C
100
AcDbEntity
  8
0
100
AcDbLine
 62
7
  6
CONTINUOUS
 10
-0.8755776597
 20
-26.0017130862
 11
-0.8980498648
 21
-25.9399523102
  0
LINE
  5
33D
100
AcDbEntity
  8
0
100
AcDbLine
 62
7
  6
CONTINUOUS
 10
-0.7142261987
 20
-26.4487697722
 11
-0.808927814
 21
-26.1884213362
  0
LINE
  5
33E
100
AcDbEntity
  8
0
100
AcDbLine
 62
7
  6
CONTINUOUS
 10
-0.808927814
 20
-26.1884213362
 11
-0.8755776597
 21
-26.0017130862
  0
LINE
  5
33F
100
AcDbEntity
  8
0
100
AcDbLine
 62
7
  6
CONTINUOUS
 10
-0.528228896
 20
-25.9873807359
 11
-0.5412142111
 21
-25.9506678003
  0
LINE
  5
340
100
AcDbEntity
  8
0
100
AcDbLine
 62
7
  6
CONTINUOUS
 10
-0.5873804176
 20
-25.9903935015
 11
-0.576019243
 21
-26.0227871981
  0
LINE
  5
341
100
AcDbEntity
  8
0
100
AcDbLine
 62
7
  6
CONTINUOUS
 10
-0.4025028526
 20
-26.5292802725
 11
-0.3593305141
 21
-26.6536868351
  0
LINE
  5
342
100
AcDbEntity
  8
0
100
AcDbLine
 62
7
  6
CONTINUOUS
 10
-0.3092241379
 20
-26.6247560414
 11
-0.3962386864
 21
-26.3724431092
  0
LINE
  5
343
100
AcDbEntity
  8
0
100
AcDbLine
 62
7
  6
CONTINUOUS
 10
-0.576019243
 20
-26.0227871981
 11
-0.4025028526
 21
-26.5292802725
  0
LWPOLYLINE
  5
344
100
AcDbEntity
  8
0
100
AcDbPolyline
 62
7
  6
CONTINUOUS
 90
3
 70
0
 10
-0.3962386864
 20
-26.3724431092
 10
-0.5155109557
 20
-26.0240233639
 10
-0.528228896
 20
-25.9873807359
  0
LINE
  5
345
100
AcDbEntity
  8
0
100
AcDbLine
 62
7
  6
CONTINUOUS
 10
-2.409521946
 20
-24.8583624023
 11
-2.5565362086
 21
-24.4157041375
  0
LINE
  5
346
100
AcDbEntity
  8
0
100
AcDbLine
 62
7
  6
CONTINUOUS
 10
-2.5565362086
 20
-24.4157041375
 11
-2.6737773869
 21
-24.0577289547
  0
LINE
  5
347
100
AcDbEntity
  8
0
100
AcDbLine
 62
7
  6
CONTINUOUS
 10
-3.2166097811
 20
-24.9460881504
 11
-3.312774059
 21
-24.5145233011
  0
LINE
  5
348
100
AcDbEntity
  8
0
100
AcDbLine
 62
7
  6
CONTINUOUS
 10
-3.362850308
 20
-24.5434145991
 11
-3.2667259973
 21
-24.9750246255
  0
LINE
  5
349
100
AcDbEntity
  8
0
100
AcDbLine
 62
7
  6
CONTINUOUS
 10
-3.4577147805
 20
-24.1060125886
 11
-3.362850308
 21
-24.5434145991
  0
LINE
  5
34A
100
AcDbEntity
  8
0
100
AcDbLine
 62
7
  6
CONTINUOUS
 10
-3.312774059
 20
-24.5145233011
 11
-3.4076790143
 21
-24.0771540172
  0
LINE
  5
34B
100
AcDbEntity
  8
0
100
AcDbLine
 62
7
  6
CONTINUOUS
 10
-3.4076790143
 20
-24.0771540172
 11
-3.5013158451
 21
-23.6339797716
  0
LINE
  5
34C
100
AcDbEntity
  8
0
100
AcDbLine
 62
7
  6
CONTINUOUS
 10
-3.5513106894
 20
-23.6628180302
 11
-3.4577147805
 21
-24.1060125886
  0
LWPOLYLINE
  5
34D
100
AcDbEntity
  8
0
100
AcDbPolyline
 62
7
  6
CONTINUOUS
 90
3
 70
0
 10
-3.5013158451
 20
-23.6339797716
 10
-3.593649344
 20
-23.1849984556
 10
-3.6393295444
 20
-22.958330278
  0
LWPOLYLINE
  5
34E
100
AcDbEntity
  8
0
100
AcDbPolyline
 62
7
  6
CONTINUOUS
 90
3
 70
0
 10
-3.6892627364
 20
-22.9871610772
 10
-3.6436031328
 20
-23.2138286684
 10
-3.5513106894
 20
-23.6628180302
  0
LINE
  5
34F
100
AcDbEntity
  8
0
100
AcDbLine
 62
7
  6
CONTINUOUS
 10
-3.6276725188
 20
-24.7666214579
 11
-3.711764986
 21
-24.3482119387
  0
LINE
  5
350
100
AcDbEntity
  8
0
100
AcDbLine
 62
7
  6
CONTINUOUS
 10
-3.711764986
 20
-24.3482119387
 11
-3.7945105256
 21
-23.9244208238
  0
LINE
  5
351
100
AcDbEntity
  8
0
100
AcDbLine
 62
7
  6
CONTINUOUS
 10
-3.7945105256
 20
-23.9244208238
 11
-3.8758877322
 21
-23.4952476326
  0
LWPOLYLINE
  5
352
100
AcDbEntity
  8
0
100
AcDbPolyline
 62
7
  6
CONTINUOUS
 90
19
 70
0
 10
-0.9808728683
 20
-25.060626419
 10
-0.9841194923
 20
-25.0423036067
 10
-0.988687984
 20
-25.0229159495
 10
-0.9946010221
 20
-25.002593032
 10
-1.0018898842
 20
-24.9815219163
 10
-1.0105586619
 20
-24.9598158339
 10
-1.0206031486
 20
-24.9375112328
 10
-1.0321125415
 20
-24.9146869109
 10
-1.0450684957
 20
-24.8916611542
 10
-1.0592783334
 20
-24.8688466776
 10
-1.0746997769
 20
-24.8464519028
 10
-1.0912536207
 20
-24.8246446197
 10
-1.1086047258
 20
-24.8037406748
 10
-1.1265162551
 20
-24.783895068
 10
-1.1448904978
 20
-24.7651312622
 10
-1.1635720164
 20
-24.7475382618
 10
-1.1824059757
 20
-24.7312038368
 10
-1.2012379375
 20
-24.7162141916
 10
-1.2199174756
 20
-24.7026535689
  0
LWPOLYLINE
  5
353
100
AcDbEntity
  8
0
100
AcDbPolyline
 62
250
  6
CONTINUOUS
 90
3
 70
0
 10
-3.5248401266
 20
-25.7385915903
 10
-3.694074532
 20
-24.6620944543
 10
-3.808858454
 20
-23.8494879498
  0
LINE
  5
354
100
AcDbEntity
  8
0
100
AcDbLine
 62
7
  6
CONTINUOUS
 10
-1.2291326265
 20
-26.0936035446
 11
-1.2768958599
 21
-25.7678933273
  0
LINE
  5
355
100
AcDbEntity
  8
0
100
AcDbLine
 62
7
  6
CONTINUOUS
 10
-5.3179890387
 20
-23.4144275534
 11
-5.2579652681
 21
-23.8252889053
  0
LINE
  5
356
100
AcDbEntity
  8
0
100
AcDbLine
 62
7
  6
CONTINUOUS
 10
-5.2078510407
 20
-23.7963535784
 11
-5.2679160778
 21
-23.3855379263
  0
LINE
  5
357
100
AcDbEntity
  8
0
100
AcDbLine
 62
7
  6
CONTINUOUS
 10
-1.3269720682
 20
-25.7968039908
 11
-1.2792434739
 21
-26.1225369198
  0
LINE
  5
358
100
AcDbEntity
  8
0
100
AcDbLine
 62
7
  6
CONTINUOUS
 10
-5.6269221926
 20
-23.6122503596
 11
-5.6869268885
 21
-23.2013644938
  0
LINE
  5
359
100
AcDbEntity
  8
0
100
AcDbLine
 62
7
  6
CONTINUOUS
 10
-1.6467262921
 20
-25.9103617181
 11
-1.7060396065
 21
-25.5041992066
  0
LWPOLYLINE
  5
35A
100
AcDbEntity
  8
0
100
AcDbPolyline
 62
7
  6
CONTINUOUS
 90
3
 70
0
 10
-1.2768958599
 20
-25.7678933273
 10
-1.3236027916
 20
-25.4388558821
 10
-1.3263797084
 20
-25.4188858303
  0
LWPOLYLINE
  5
35B
100
AcDbEntity
  8
0
100
AcDbPolyline
 62
7
  6
CONTINUOUS
 90
3
 70
0
 10
-1.3851475296
 20
-25.3849656719
 10
-1.3736450989
 20
-25.4677486121
 10
-1.3269720682
 20
-25.7968039908
  0
LINE
  5
35C
100
AcDbEntity
  8
0
100
AcDbLine
 62
7
  6
CONTINUOUS
 10
-5.3763698951
 20
-22.9980082738
 11
-5.3179890387
 21
-23.4144275534
  0
LINE
  5
35D
100
AcDbEntity
  8
0
100
AcDbLine
 62
7
  6
CONTINUOUS
 10
-5.2679160778
 20
-23.3855379263
 11
-5.3263378819
 21
-22.969151553
  0
LINE
  5
35E
100
AcDbEntity
  8
0
100
AcDbLine
 62
7
  6
CONTINUOUS
 10
-1.7060396065
 20
-25.5041992066
 11
-1.7637417238
 21
-25.0926213537
  0
LINE
  5
35F
100
AcDbEntity
  8
0
100
AcDbLine
 62
7
  6
CONTINUOUS
 10
-5.6869268885
 20
-23.2013644938
 11
-5.7452854468
 21
-22.7849265401
  0
LINE
  5
360
100
AcDbEntity
  8
0
100
AcDbLine
 62
7
  6
CONTINUOUS
 10
-5.3263378819
 20
-22.969151553
 11
-5.3831080097
 21
-22.5471938148
  0
LINE
  5
361
100
AcDbEntity
  8
0
100
AcDbLine
 62
7
  6
CONTINUOUS
 10
-1.7637417238
 20
-25.0926213537
 11
-1.8198245704
 21
-24.6756275363
  0
LINE
  5
362
100
AcDbEntity
  8
0
100
AcDbLine
 62
7
  6
CONTINUOUS
 10
-5.7452854468
 20
-22.7849265401
 11
-5.801989495
 21
-22.3629358299
  0
LINE
  5
363
100
AcDbEntity
  8
0
100
AcDbLine
 62
7
  6
CONTINUOUS
 10
-5.4330994668
 20
-22.5760303899
 11
-5.3763698951
 21
-22.9980082738
  0
LINE
  5
364
100
AcDbEntity
  8
0
100
AcDbLine
 62
250
  6
CONTINUOUS
 10
-3.9005655366
 20
-23.5831096619
 11
-3.9510711581
 21
-23.1972804361
  0
LWPOLYLINE
  5
365
100
AcDbEntity
  8
0
100
AcDbPolyline
 62
7
  6
CONTINUOUS
 90
3
 70
0
 10
-5.3831080097
 20
-22.5471938148
 10
-5.4381926891
 20
-22.119662137
 10
-5.4651050963
 20
-21.9038062317
  0
LWPOLYLINE
  5
366
100
AcDbEntity
  8
0
100
AcDbPolyline
 62
7
  6
CONTINUOUS
 90
3
 70
0
 10
-1.8198245704
 20
-24.6756275363
 10
-1.8742558513
 20
-24.2532152609
 10
-1.900854173
 20
-24.0399773573
  0
LWPOLYLINE
  5
367
100
AcDbEntity
  8
0
100
AcDbPolyline
 62
7
  6
CONTINUOUS
 90
3
 70
0
 10
-5.801989495
 20
-22.3629358299
 10
-5.8570055426
 20
-21.9353896885
 10
-5.8838826594
 20
-21.7195334983
  0
LWPOLYLINE
  5
368
100
AcDbEntity
  8
0
100
AcDbPolyline
 62
7
  6
CONTINUOUS
 90
3
 70
0
 10
-5.515036981
 20
-21.932636276
 10
-5.4881442726
 20
-22.1484911955
 10
-5.4330994668
 20
-22.5760303899
  0
LINE
  5
369
100
AcDbEntity
  8
0
100
AcDbLine
 62
250
  6
CONTINUOUS
 10
-3.9510711581
 20
-23.1972804361
 11
-4.0000884643
 21
-22.8077047799
  0
LINE
  5
36A
100
AcDbEntity
  8
0
100
AcDbLine
 62
250
  6
CONTINUOUS
 10
-3.9501552141
 20
-22.7788739471
 11
-4.0214412472
 21
-22.183159572
  0
LINE
  5
36B
100
AcDbEntity
  8
0
100
AcDbLine
 62
250
  6
CONTINUOUS
 10
-4.0214412472
 20
-22.183159572
 11
-4.0894346335
 21
-21.5779017317
  0
LINE
  5
36C
100
AcDbEntity
  8
0
100
AcDbLine
 62
7
  6
CONTINUOUS
 10
-6.5646589508
 20
-22.532722779
 11
-6.5091784863
 21
-22.1697211372
  0
LINE
  5
36D
100
AcDbEntity
  8
0
100
AcDbLine
 62
7
  6
CONTINUOUS
 10
-6.5091784863
 20
-22.1697211372
 11
-6.4507332857
 21
-21.8013432838
  0
LINE
  5
36E
100
AcDbEntity
  8
0
100
AcDbLine
 62
7
  6
CONTINUOUS
 10
-6.4507332857
 20
-21.8013432838
 11
-6.3893008502
 21
-21.4275841882
  0
LINE
  5
36F
100
AcDbEntity
  8
0
100
AcDbLine
 62
7
  6
CONTINUOUS
 10
-6.2818980375
 20
-23.176199916
 11
-6.2179098261
 21
-22.8371100228
  0
LINE
  5
370
100
AcDbEntity
  8
0
100
AcDbLine
 62
7
  6
CONTINUOUS
 10
-6.2679735247
 20
-22.8660010981
 11
-6.3320083384
 21
-23.2051329758
  0
LINE
  5
371
100
AcDbEntity
  8
0
100
AcDbLine
 62
7
  6
CONTINUOUS
 10
-6.2179098261
 20
-22.8371100228
 11
-6.1509943174
 21
-22.4931258257
  0
LINE
  5
372
100
AcDbEntity
  8
0
100
AcDbLine
 62
7
  6
CONTINUOUS
 10
-6.2010151832
 20
-22.5219857726
 11
-6.2679735247
 21
-22.8660010981
  0
LINE
  5
373
100
AcDbEntity
  8
0
100
AcDbLine
 62
7
  6
CONTINUOUS
 10
-6.1509943174
 20
-22.4931258257
 11
-6.0811439822
 21
-22.1442455042
  0
LINE
  5
374
100
AcDbEntity
  8
0
100
AcDbLine
 62
7
  6
CONTINUOUS
 10
-6.1311258349
 20
-22.1730851641
 11
-6.2010151832
 21
-22.5219857726
  0
LWPOLYLINE
  5
375
100
AcDbEntity
  8
0
100
AcDbPolyline
 62
7
  6
CONTINUOUS
 90
3
 70
0
 10
-6.0811439822
 20
-22.1442455042
 10
-6.0083287037
 20
-21.7904617757
 10
-5.970811093
 20
-21.611731589
  0
LWPOLYLINE
  5
376
100
AcDbEntity
  8
0
100
AcDbPolyline
 62
7
  6
CONTINUOUS
 90
3
 70
0
 10
-6.0207419517
 20
-21.640561041
 10
-6.0582755637
 20
-21.8192919321
 10
-6.1311258349
 20
-22.1730851641
  0
LWPOLYLINE
  5
377
100
AcDbEntity
  8
RACCORDO
100
AcDbPolyline
 62
250
  6
CONTINUOUS
 90
16
 70
0
 10
-36.4246201121
 20
16.5059094549
 10
-36.4028733652
 20
16.4935429735
 10
-36.3790628616
 20
16.4825163631
 10
-36.3534350803
 20
16.4729437679
 10
-36.326255312
 20
16.4649242803
 10
-36.2978049129
 20
16.4585409155
 10
-36.2683783927
 20
16.453859752
 10
-36.2382803653
 20
16.4509292478
 10
-36.2078223959
 20
16.4497797385
 10
-36.1773197759
 20
16.4504231235
 10
-36.1470882586
 20
16.4528527427
 10
-36.1174407912
 20
16.4570434454
 10
-36.088684275
 20
16.4629518508
 10
-36.0611163881
 20
16.470516797
 10
-36.0350225047
 20
16.479659974
 10
-36.0106727404
 20
16.4902867346
  0
LINE
  5
378
100
AcDbEntity
  8
DRAFT
100
AcDbLine
 62
7
  6
CONTINUOUS
 10
50.8821769274
 20
-29.9250905033
 11
51.3774757921
 21
-30.2110698603
  0
LWPOLYLINE
  5
379
100
AcDbEntity
  8
RACCORDO
100
AcDbPolyline
 62
250
  6
CONTINUOUS
 90
10
 70
0
 10
28.0573948124
 20
-20.7251978131
 10
28.0359768178
 20
-20.7126415141
 10
28.0168793985
 20
-20.698893628
 10
28.0003002451
 20
-20.6840964684
 10
27.9864109798
 20
-20.668403211
 10
27.9753553797
 20
-20.6519763072
 10
27.9672478889
 20
-20.6349858033
 10
27.9621724337
 20
-20.6176075795
 10
27.9601815535
 20
-20.6000215297
 10
27.9601505432
 20
-20.5975316277
  0
LINE
  5
37A
100
AcDbEntity
  8
0
100
AcDbLine
 62
7
  6
CONTINUOUS
 10
-0.8250342711
 20
-25.5665687375
 11
-0.823511937
 21
-25.5777500539
  0
LINE
  5
37B
100
AcDbEntity
  8
0
100
AcDbLine
 62
7
  6
CONTINUOUS
 10
-1.4852443791
 20
-24.7216405226
 11
-1.4396001907
 21
-25.0680182334
  0
LINE
  5
37C
100
AcDbEntity
  8
0
100
AcDbLine
 62
7
  6
CONTINUOUS
 10
-1.3895960176
 20
-25.0391464505
 11
-1.4352714584
 21
-24.69279028
  0
LINE
  5
37D
100
AcDbEntity
  8
0
100
AcDbLine
 62
7
  6
CONTINUOUS
 10
-1.4352714584
 20
-24.69279028
 11
-1.4509385338
 21
-24.5710895561
  0
LINE
  5
37E
100
AcDbEntity
  8
0
100
AcDbLine
 62
7
  6
CONTINUOUS
 10
-1.5076488203
 20
-24.5470254027
 11
-1.4852443791
 21
-24.7216405226
  0
LINE
  5
37F
100
AcDbEntity
  8
0
100
AcDbLine
 62
7
  6
CONTINUOUS
 10
-2.7127638269
 20
-24.6255188212
 11
-2.6642884392
 21
-24.2956739
  0
LINE
  5
380
100
AcDbEntity
  8
0
100
AcDbLine
 62
7
  6
CONTINUOUS
 10
-2.793707458
 20
-25.1902607717
 11
-2.7549057282
 21
-24.9265939779
  0
LINE
  5
381
100
AcDbEntity
  8
0
100
AcDbLine
 62
7
  6
CONTINUOUS
 10
-2.7142947746
 20
-24.3245444866
 11
-2.762808663
 21
-24.6544140823
  0
LWPOLYLINE
  5
382
100
AcDbEntity
  8
0
100
AcDbPolyline
 62
7
  6
CONTINUOUS
 90
3
 70
0
 10
-2.7970077573
 20
-24.9022874636
 10
-2.8023216696
 20
-24.9376833968
 10
-2.8438231
 20
-25.2191969153
  0
LINE
  5
383
100
AcDbEntity
  8
0
100
AcDbLine
 62
7
  6
CONTINUOUS
 10
-2.6642884392
 20
-24.2956739
 11
-2.6427540084
 21
-24.1528776084
  0
LINE
  5
384
100
AcDbEntity
  8
0
100
AcDbLine
 62
7
  6
CONTINUOUS
 10
-2.6737773869
 20
-24.0577289547
 11
-2.7142947746
 21
-24.3245444866
  0
LINE
  5
385
100
AcDbEntity
  8
0
100
AcDbLine
 62
7
  6
CONTINUOUS
 10
-3.2087878708
 20
-25.0084766516
 11
-3.1477534698
 21
-24.6671703452
  0
LINE
  5
386
100
AcDbEntity
  8
0
100
AcDbLine
 62
7
  6
CONTINUOUS
 10
-3.1477534698
 20
-24.6671703452
 11
-3.0838562553
 21
-24.3212322586
  0
LINE
  5
387
100
AcDbEntity
  8
0
100
AcDbLine
 62
7
  6
CONTINUOUS
 10
-3.0838562553
 20
-24.3212322586
 11
-3.017089366
 21
-23.9706610865
  0
LWPOLYLINE
  5
388
100
AcDbEntity
  8
0
100
AcDbPolyline
 62
7
  6
CONTINUOUS
 90
3
 70
0
 10
-3.017089366
 20
-23.9706610865
 10
-2.9474253564
 20
-23.6154516078
 10
-2.9115086469
 20
-23.4361078297
  0
LINE
  5
389
100
AcDbEntity
  8
0
100
AcDbLine
 62
7
  6
CONTINUOUS
 10
-4.0641197351
 20
-24.1776309202
 11
-4.1421723072
 21
-24.4695537511
  0
LINE
  5
38A
100
AcDbEntity
  8
0
100
AcDbLine
 62
7
  6
CONTINUOUS
 10
-4.0920560235
 20
-24.440617237
 11
-4.0140436246
 21
-24.1487190166
  0
LINE
  5
38B
100
AcDbEntity
  8
0
100
AcDbLine
 62
7
  6
CONTINUOUS
 10
-4.2860566657
 20
-23.6172658847
 11
-4.185463168
 21
-23.2470979587
  0
LINE
  5
38C
100
AcDbEntity
  8
0
100
AcDbLine
 62
7
  6
CONTINUOUS
 10
-4.0140436246
 20
-24.1487190166
 11
-3.9335503556
 21
-23.8532604276
  0
LINE
  5
38D
100
AcDbEntity
  8
0
100
AcDbLine
 62
7
  6
CONTINUOUS
 10
-3.9835883473
 20
-23.8821503062
 11
-4.0641197351
 21
-24.1776309202
  0
LINE
  5
38E
100
AcDbEntity
  8
0
100
AcDbLine
 62
7
  6
CONTINUOUS
 10
-3.9335503556
 20
-23.8532604276
 11
-3.8590821793
 21
-23.5847501577
  0
LINE
  5
38F
100
AcDbEntity
  8
0
100
AcDbLine
 62
7
  6
CONTINUOUS
 10
-3.9005655366
 20
-23.5831096619
 11
-3.9835883473
 21
-23.8821503062
  0
LWPOLYLINE
  5
390
100
AcDbEntity
  8
0
100
AcDbPolyline
 62
7
  6
CONTINUOUS
 90
3
 70
0
 10
-4.185463168
 20
-23.2470979587
 10
-4.0810335692
 20
-22.8712422631
 10
-4.0543246893
 20
-22.7763891407
  0
LINE
  5
391
100
AcDbEntity
  8
0
100
AcDbLine
 62
7
  6
CONTINUOUS
 10
-3.8758877322
 20
-23.4952476326
 11
-3.9005655366
 21
-23.5831096619
  0
LINE
  5
392
100
AcDbEntity
  8
0
100
AcDbLine
 62
7
  6
CONTINUOUS
 10
-7.4237492332
 20
-20.7719698781
 11
-7.4736756025
 21
-20.800796738
  0
LINE
  5
393
100
AcDbEntity
  8
0
100
AcDbLine
 62
7
  6
CONTINUOUS
 10
-7.0231832983
 20
-21.00353107
 11
-7.0731111221
 21
-21.0323587697
  0
LINE
  5
394
100
AcDbEntity
  8
0
100
AcDbLine
 62
7
  6
CONTINUOUS
 10
-6.3393709215
 20
-21.3987552732
 11
-6.3893008502
 21
-21.4275841882
  0
LINE
  5
395
100
AcDbEntity
  8
0
100
AcDbLine
 62
7
  6
CONTINUOUS
 10
-5.970811093
 20
-21.611731589
 11
-6.0207419517
 21
-21.640561041
  0
LINE
  5
396
100
AcDbEntity
  8
0
100
AcDbLine
 62
7
  6
CONTINUOUS
 10
-5.8339515021
 20
-21.6907038739
 11
-5.8838826594
 21
-21.7195334983
  0
LINE
  5
397
100
AcDbEntity
  8
0
100
AcDbLine
 62
7
  6
CONTINUOUS
 10
-5.4651050963
 20
-21.9038062317
 11
-5.515036981
 21
-21.932636276
  0
LINE
  5
398
100
AcDbEntity
  8
0
100
AcDbLine
 62
7
  6
CONTINUOUS
 10
-5.1069538356
 20
-22.1108078199
 11
-5.1568862903
 21
-22.1396381934
  0
LINE
  5
399
100
AcDbEntity
  8
0
100
AcDbLine
 62
7
  6
CONTINUOUS
 10
-6.2818980375
 20
-23.176199916
 11
-6.3320083384
 21
-23.2051329758
  0
LINE
  5
39A
100
AcDbEntity
  8
0
100
AcDbLine
 62
7
  6
CONTINUOUS
 10
-4.7383631554
 20
-22.3237050811
 11
-4.788296034
 21
-22.3525356994
  0
LWPOLYLINE
  5
39B
100
AcDbEntity
  8
RACCORDO
100
AcDbPolyline
 62
250
  6
CONTINUOUS
 90
16
 70
0
 10
-36.1611105892
 20
34.8074575545
 10
-36.1392202131
 20
34.795493083
 10
-36.115385011
 20
34.7847743073
 10
-36.0898438725
 20
34.7754086416
 10
-36.0628527838
 20
34.7674899386
 10
-36.0346822544
 20
34.7610975468
 10
-36.0056146052
 20
34.7562955175
 10
-35.9759411535
 20
34.7531319651
 10
-35.9459592807
 20
34.751638583
 10
-35.9159694443
 20
34.7518303266
 10
-35.8862722114
 20
34.753705264
 10
-35.8571651748
 20
34.757244596
 10
-35.8289399636
 20
34.7624128586
 10
-35.8018794206
 20
34.7691582667
 10
-35.7762547625
 20
34.7774132197
 10
-35.7523227941
 20
34.7870949923
  0
LINE
  5
39C
100
AcDbEntity
  8
RACCORDO
100
AcDbLine
 62
250
  6
CONTINUOUS
 10
24.8983019267
 20
0.1748659416
 11
27.7128257879
 21
-1.4119664331
  0
LINE
  5
39D
100
AcDbEntity
  8
RACCORDO
100
AcDbLine
 62
250
  6
CONTINUOUS
 10
14.0208671775
 20
6.3522222503
 11
24.8983019267
 21
0.1748659416
  0
LINE
  5
39E
100
AcDbEntity
  8
RACCORDO
100
AcDbLine
 62
250
  6
CONTINUOUS
 10
7.0500444232
 20
10.3341860235
 11
14.0208671775
 21
6.3522222503
  0
LINE
  5
39F
100
AcDbEntity
  8
RACCORDO
100
AcDbLine
 62
250
  6
CONTINUOUS
 10
1.1111354911
 20
13.7432716029
 11
7.0500444232
 21
10.3341860235
  0
LWPOLYLINE
  5
3A0
100
AcDbEntity
  8
RACCORDO
100
AcDbPolyline
 62
7
  6
CONTINUOUS
 90
10
 70
0
 10
-4.0932947798
 20
16.612775812
 10
-0.1783746981
 20
14.3557080792
 10
3.6899674961
 20
12.1322615252
 10
7.4544556474
 20
9.9752145509
 10
11.114757408
 20
7.884406317
 10
14.6701201495
 20
5.8595089557
 10
18.1196176907
 20
3.9001316524
 10
21.4619195961
 20
2.0056742896
 10
24.6963803755
 20
0.1757278553
 10
27.7746681237
 20
-1.5576965693
  0
LINE
  5
3A1
100
AcDbEntity
  8
RACCORDO
100
AcDbLine
 62
250
  6
CONTINUOUS
 10
-9.029988128
 20
19.5978557981
 11
1.1111354911
 21
13.7432716029
  0
LINE
  5
3A2
100
AcDbEntity
  8
RACCORDO
100
AcDbLine
 62
250
  6
CONTINUOUS
 10
-15.5987300393
 20
23.4127006232
 11
-9.029988128
 21
19.5978557981
  0
LWPOLYLINE
  5
3A3
100
AcDbEntity
  8
RACCORDO
100
AcDbPolyline
 62
7
  6
CONTINUOUS
 90
27
 70
0
 10
27.774693165
 20
-1.5577106061
 10
27.7878572885
 20
-1.5653884931
 10
27.8091322615
 20
-1.5790103384
 10
27.8314696997
 20
-1.5948895728
 10
27.8545063449
 20
-1.6129456727
 10
27.8780370067
 20
-1.6331672313
 10
27.9018818599
 20
-1.655540364
 10
27.925739888
 20
-1.6799065426
 10
27.9494192592
 20
-1.7061733233
 10
27.972738303
 20
-1.7342351817
 10
27.9954450181
 20
-1.7638681009
 10
28.0173709071
 20
-1.7949120042
 10
28.0383603074
 20
-1.8271971163
 10
28.0582179535
 20
-1.8604547907
 10
28.0768169099
 20
-1.8944826317
 10
28.0940439088
 20
-1.9290706567
 10
28.1097633874
 20
-1.963917061
 10
28.123903158
 20
-1.9988011247
 10
28.1364055798
 20
-2.0334953358
 10
28.1472015069
 20
-2.0676720738
 10
28.1562860161
 20
-2.1011193082
 10
28.1636694709
 20
-2.1336193767
 10
28.1693615916
 20
-2.1648322777
 10
28.1734337727
 20
-2.1945881503
 10
28.1759725395
 20
-2.2227019443
 10
28.1770839873
 20
-2.2488257238
 10
28.1770237411
 20
-2.269286276
  0
LINE
  5
3A4
100
AcDbEntity
  8
RACCORDO
100
AcDbLine
 62
250
  6
CONTINUOUS
 10
-24.1020580645
 20
28.3795137451
 11
-15.5987300393
 21
23.4127006232
  0
LINE
  5
3A5
100
AcDbEntity
  8
RACCORDO
100
AcDbLine
 62
250
  6
CONTINUOUS
 10
-34.550112616
 20
34.5218967228
 11
-24.1020580645
 21
28.3795137451
  0
LWPOLYLINE
  5
3A6
100
AcDbEntity
  8
RACCORDO
100
AcDbPolyline
 62
7
  6
CONTINUOUS
 90
10
 70
0
 10
-35.5253976406
 20
34.9909690419
 10
-32.5351422927
 20
33.220554365
 10
-29.3720283147
 20
31.3566079551
 10
-26.0968026553
 20
29.4301864111
 10
-22.7086416888
 20
27.4415788632
 10
-19.206275769
 20
25.3914245824
 10
-15.588874817
 20
23.2801706791
 10
-11.8557459821
 20
21.108178257
 10
-8.0065498746
 20
18.8756064551
 10
-4.0932949955
 20
16.6127759365
  0
LINE
  5
3A7
100
AcDbEntity
  8
RACCORDO
100
AcDbLine
 62
250
  6
CONTINUOUS
 10
-35.5874656557
 20
35.1368285074
 11
-34.550112616
 21
34.5218967228
  0
LWPOLYLINE
  5
3A8
100
AcDbEntity
  8
RACCORDO
100
AcDbPolyline
 62
250
  6
CONTINUOUS
 90
5
 70
0
 10
27.7128257879
 20
-1.4119664331
 10
27.7505110204
 20
-1.4345796496
 10
27.7876841397
 20
-1.459730775
 10
27.8243457789
 20
-1.4874194699
 10
27.8606748596
 20
-1.5178067273
  0
LWPOLYLINE
  5
3A9
100
AcDbEntity
  8
RACCORDO
100
AcDbPolyline
 62
250
  6
CONTINUOUS
 90
10
 70
0
 10
28.2689069272
 20
-2.3936270621
 10
28.2483455306
 20
-2.3810803984
 10
28.2300749658
 20
-2.3674878843
 10
28.2142783359
 20
-2.3529857403
 10
28.2011139507
 20
-2.3377193027
 10
28.1907137403
 20
-2.3218415679
 10
28.1831819331
 20
-2.305511659
 10
28.1785940108
 20
-2.2888932301
 10
28.1769959524
 20
-2.2721528269
 10
28.1770226059
 20
-2.2693319746
  0
LWPOLYLINE
  5
3AA
100
AcDbEntity
  8
0
100
AcDbPolyline
 62
7
  6
CONTINUOUS
 90
16
 70
0
 10
-1.0265761705
 20
-25.2358832357
 10
-1.0196265086
 20
-25.2312822756
 10
-1.0117149573
 20
-25.224370887
 10
-1.0046908434
 20
-25.2163073654
 10
-0.9985435167
 20
-25.2072197462
 10
-0.9932468212
 20
-25.197211105
 10
-0.9887415448
 20
-25.1863534507
 10
-0.9850186492
 20
-25.1747720531
 10
-0.9820554576
 20
-25.1625423233
 10
-0.9797912124
 20
-25.1496357968
 10
-0.9782276486
 20
-25.1361355104
 10
-0.977366016
 20
-25.1221134384
 10
-0.9771796994
 20
-25.107495261
 10
-0.9776822017
 20
-25.0922988269
 10
-0.9789061776
 20
-25.0766490358
 10
-0.9808728836
 20
-25.0606264105
  0
LWPOLYLINE
  5
3AB
100
AcDbEntity
  8
0
100
AcDbPolyline
 62
7
  6
CONTINUOUS
 90
42
 70
0
 10
-0.6754398239
 20
-25.5152843991
 10
-0.6715409874
 20
-25.5129983203
 10
-0.6640596546
 20
-25.5081073762
 10
-0.6566336791
 20
-25.5026300563
 10
-0.6492662641
 20
-25.4965663575
 10
-0.6420896092
 20
-25.4897142195
 10
-0.6351108458
 20
-25.4820488946
 10
-0.6283221411
 20
-25.4735947254
 10
-0.6218331257
 20
-25.4642232171
 10
-0.6156359605
 20
-25.4539452483
 10
-0.6097375919
 20
-25.4427494248
 10
-0.6042697044
 20
-25.4304737703
 10
-0.5992098269
 20
-25.4171270865
 10
-0.5945792674
 20
-25.4026999001
 10
-0.5905752284
 20
-25.3870027354
 10
-0.5871826204
 20
-25.370043079
 10
-0.5844150765
 20
-25.3518126035
 10
-0.5825127196
 20
-25.3320980177
 10
-0.5814663482
 20
-25.3108861255
 10
-0.5812833608
 20
-25.2881890822
 10
-0.5822286492
 20
-25.263831548
 10
-0.5842670332
 20
-25.2378395467
 10
-0.5874316448
 20
-25.210185872
 10
-0.592089734
 20
-25.1806152758
 10
-0.598118489
 20
-25.149123011
 10
-0.6056382931
 20
-25.1157124225
 10
-0.6153813422
 20
-25.0801404885
 10
-0.6275666059
 20
-25.0418594745
 10
-0.6419726708
 20
-25.0014157039
 10
-0.6586733353
 20
-24.9602084989
 10
-0.6781393155
 20
-24.9179082407
 10
-0.6999015725
 20
-24.8748455166
 10
-0.7226282244
 20
-24.8334122387
 10
-0.7462067692
 20
-24.7942030381
 10
-0.7707551151
 20
-24.7566264053
 10
-0.7952887108
 20
-24.7212960328
 10
-0.819585079
 20
-24.6884566134
 10
-0.8438704441
 20
-24.6578656177
 10
-0.8678328015
 20
-24.6294056131
 10
-0.891368776
 20
-24.6030378169
 10
-0.9145838494
 20
-24.5788022281
 10
-0.9374788579
 20
-24.5566993295
  0
LINE
  5
3AC
100
AcDbEntity
  8
0
100
AcDbLine
 62
7
  6
CONTINUOUS
 10
-4.0043914409
 20
-22.7475583089
 11
-4.0543246893
 21
-22.7763891407
  0
LINE
  5
3AD
100
AcDbEntity
  8
0
100
AcDbLine
 62
7
  6
CONTINUOUS
 10
-5.2078510407
 20
-23.7963535784
 11
-5.2579652681
 21
-23.8252889053
  0
LINE
  5
3AE
100
AcDbEntity
  8
0
100
AcDbLine
 62
7
  6
CONTINUOUS
 10
-3.6393295444
 20
-22.958330278
 11
-3.6892627364
 21
-22.9871610772
  0
LINE
  5
3AF
100
AcDbEntity
  8
0
100
AcDbLine
 62
7
  6
CONTINUOUS
 10
-4.6562576085
 20
-24.1148465829
 11
-4.7063731336
 21
-24.1437826591
  0
LINE
  5
3B0
100
AcDbEntity
  8
0
100
AcDbLine
 62
7
  6
CONTINUOUS
 10
-2.8615761016
 20
-23.4072774039
 11
-2.9115086469
 21
-23.4361078297
  0
LINE
  5
3B1
100
AcDbEntity
  8
0
100
AcDbLine
 62
7
  6
CONTINUOUS
 10
-4.0920560235
 20
-24.440617237
 11
-4.1421723072
 21
-24.4695537511
  0
LINE
  5
3B2
100
AcDbEntity
  8
ASSI
100
AcDbLine
 62
250
  6
CONTINUOUS
 10
49.0390185371
 20
6.2025510666
 11
50.1752639925
 21
6.8586017164
  0
LINE
  5
3B3
100
AcDbEntity
  8
0
100
AcDbLine
 62
7
  6
CONTINUOUS
 10
-2.5045637997
 20
-23.6133141412
 11
-2.5544958143
 21
-23.6421442607
  0
LINE
  5
3B4
100
AcDbEntity
  8
0
100
AcDbLine
 62
7
  6
CONTINUOUS
 10
-1.8509216475
 20
-24.0111469428
 11
-1.900854173
 21
-24.0399773573
  0
LINE
  5
3B5
100
AcDbEntity
  8
0
100
AcDbLine
 62
7
  6
CONTINUOUS
 10
-2.7127638269
 20
-24.6255188212
 11
-2.762808663
 21
-24.6544140823
  0
LINE
  5
3B6
100
AcDbEntity
  8
0
100
AcDbLine
 62
7
  6
CONTINUOUS
 10
-3.2166097811
 20
-24.9460881504
 11
-3.2667259973
 21
-24.9750246255
  0
LINE
  5
3B7
100
AcDbEntity
  8
ASSI
100
AcDbLine
 62
250
  6
CONTINUOUS
 10
49.6052977202
 20
5.2235456728
 11
50.7407555712
 21
5.8791415719
  0
LINE
  5
3B8
100
AcDbEntity
  8
0
100
AcDbLine
 62
7
  6
CONTINUOUS
 10
-2.793707458
 20
-25.1902607717
 11
-2.8438231
 21
-25.2191969153
  0
LINE
  5
3B9
100
AcDbEntity
  8
0
100
AcDbLine
 62
250
  6
CONTINUOUS
 10
-0.9374789654
 20
-24.5566992129
 11
-0.9874105023
 21
-24.5855290566
  0
LINE
  5
3BA
100
AcDbEntity
  8
0
100
AcDbLine
 62
7
  6
CONTINUOUS
 10
-1.3895960176
 20
-25.0391464505
 11
-1.4396001907
 21
-25.0680182334
  0
LINE
  5
3BB
100
AcDbEntity
  8
0
100
AcDbLine
 62
250
  6
CONTINUOUS
 10
-1.1786857053
 20
-25.1608640016
 11
-1.2286891233
 21
-25.1897353485
  0
LINE
  5
3BC
100
AcDbEntity
  8
0
100
AcDbLine
 62
7
  6
CONTINUOUS
 10
-1.7049605175
 20
-25.818871083
 11
-1.7550732315
 21
-25.847805536
  0
LINE
  5
3BD
100
AcDbEntity
  8
0
100
AcDbLine
 62
7
  6
CONTINUOUS
 10
-0.8114489718
 20
-25.570785049
 11
-0.823511937
 21
-25.5777500539
  0
LINE
  5
3BE
100
AcDbEntity
  8
0
100
AcDbLine
 62
7
  6
CONTINUOUS
 10
-1.2291326265
 20
-26.0936035446
 11
-1.2792434739
 21
-26.1225369198
  0
LINE
  5
3BF
100
AcDbEntity
  8
0
100
AcDbLine
 62
250
  6
CONTINUOUS
 10
-0.5092990168
 20
-26.0422752357
 11
-0.5593523522
 21
-26.0711754042
  0
LWPOLYLINE
  5
3C0
100
AcDbEntity
  8
0
100
AcDbPolyline
 62
7
  6
CONTINUOUS
 90
17
 70
0
 10
-0.7254579241
 20
-25.544146614
 10
-0.7272514024
 20
-25.5451691247
 10
-0.7339588832
 20
-25.5487783378
 10
-0.7406254982
 20
-25.5520695731
 10
-0.7472154775
 20
-25.5550768006
 10
-0.7536960769
 20
-25.5578315544
 10
-0.7600617096
 20
-25.5603724182
 10
-0.7663208996
 20
-25.5627357113
 10
-0.7724174638
 20
-25.5649270656
 10
-0.7783804993
 20
-25.566979345
 10
-0.7843733068
 20
-25.5688562429
 10
-0.7904036975
 20
-25.5703608519
 10
-0.7965189198
 20
-25.5713330442
 10
-0.8029753095
 20
-25.571657111
 10
-0.8098908255
 20
-25.5711288916
 10
-0.8172298027
 20
-25.569509369
 10
-0.8250342711
 20
-25.5665687375
  0
LWPOLYLINE
  5
3C1
100
AcDbEntity
  8
RACCORDO
100
AcDbPolyline
 62
250
  6
CONTINUOUS
 90
21
 70
0
 10
27.8606748596
 20
-1.5178067273
 10
27.8964938528
 20
-1.5507307771
 10
27.9312685046
 20
-1.5857072394
 10
27.9649613577
 20
-1.622753963
 10
27.9976107826
 20
-1.6618525373
 10
28.0287957587
 20
-1.7024644703
 10
28.0584819727
 20
-1.7445861312
 10
28.0867040874
 20
-1.7882208623
 10
28.1131440283
 20
-1.8328409192
 10
28.137791915
 20
-1.8784833618
 10
28.1606574741
 20
-1.9251110988
 10
28.181451531
 20
-1.9720854566
 10
28.2001230459
 20
-2.0193051388
 10
28.2167223849
 20
-2.0668717047
 10
28.2311121144
 20
-2.1144509864
 10
28.2433144376
 20
-2.1621505489
 10
28.2533064257
 20
-2.2098631196
 10
28.2608826555
 20
-2.256932462
 10
28.2659742547
 20
-2.303140036
 10
28.2686491376
 20
-2.3487048452
 10
28.2689069272
 20
-2.3936270621
  0
LINE
  5
3C2
100
AcDbEntity
  8
RACCORDO
100
AcDbLine
 62
250
  6
CONTINUOUS
 10
28.1969512632
 20
-35.6974366697
 11
28.2689069272
 21
-38.7524743721
  0
LINE
  5
3C3
100
AcDbEntity
  8
RACCORDO
100
AcDbLine
 62
250
  6
CONTINUOUS
 10
28.1550615134
 20
-33.4162594309
 11
28.1969512632
 21
-35.6974366697
  0
LWPOLYLINE
  5
3C4
100
AcDbEntity
  8
RACCORDO
100
AcDbPolyline
 62
250
  6
CONTINUOUS
 90
10
 70
0
 10
27.7128257882
 20
-1.4119664333
 10
27.7131373771
 20
-1.4365189586
 10
27.7155799766
 20
-1.459633944
 10
27.7201285784
 20
-1.4810748863
 10
27.7267366251
 20
-1.5006224124
 10
27.7353364885
 20
-1.5180765286
 10
27.7458401639
 20
-1.5332586649
 10
27.7581401659
 20
-1.5460134941
 10
27.772110632
 20
-1.556210528
 10
27.7746681237
 20
-1.5576965693
  0
LWPOLYLINE
  5
3C5
100
AcDbEntity
  8
RACCORDO
100
AcDbPolyline
 62
7
  6
CONTINUOUS
 90
10
 70
0
 10
28.1770323121
 20
-38.6277768444
 10
28.1771634987
 20
-38.6387999222
 10
28.1767461258
 20
-38.6558086304
 10
28.1755984679
 20
-38.6714931975
 10
28.1738137217
 20
-38.6856089018
 10
28.1715718037
 20
-38.6977263056
 10
28.1690766999
 20
-38.7077324051
 10
28.1665412342
 20
-38.7156297832
 10
28.1642774376
 20
-38.7212594675
 10
28.1626252645
 20
-38.7246112154
  0
LINE
  5
3C6
100
AcDbEntity
  8
RACCORDO
100
AcDbLine
 62
250
  6
CONTINUOUS
 10
28.1183392497
 20
-30.7251105027
 11
28.1550615134
 21
-33.4162594309
  0
LINE
  5
3C7
100
AcDbEntity
  8
RACCORDO
100
AcDbLine
 62
250
  6
CONTINUOUS
 10
28.0837334818
 20
-27.1636697291
 11
28.1183392497
 21
-30.7251105027
  0
LINE
  5
3C8
100
AcDbEntity
  8
RACCORDO
100
AcDbLine
 62
250
  6
CONTINUOUS
 10
28.066619946
 20
-24.4766809305
 11
28.0837334818
 21
-27.1636697291
  0
LINE
  5
3C9
100
AcDbEntity
  8
RACCORDO
100
AcDbLine
 62
250
  6
CONTINUOUS
 10
28.0585554486
 20
-22.0444273364
 11
28.066619946
 21
-24.4766809305
  0
LWPOLYLINE
  5
3CA
100
AcDbEntity
  8
RACCORDO
100
AcDbPolyline
 62
7
  6
CONTINUOUS
 90
10
 70
0
 10
27.9601505432
 20
-20.5975305021
 10
27.9623543618
 20
-22.3678149358
 10
27.9693240043
 20
-24.2497563373
 10
27.981067151
 20
-26.1775184423
 10
27.9975448657
 20
-28.1511083883
 10
28.0186842856
 20
-30.1705722413
 10
28.0453872711
 20
-32.2353456303
 10
28.0799430597
 20
-34.3438045386
 10
28.1248715835
 20
-36.4940622419
 10
28.177029077
 20
-38.6276526087
  0
LINE
  5
3CB
100
AcDbEntity
  8
RACCORDO
100
AcDbLine
 62
250
  6
CONTINUOUS
 10
28.0577115895
 20
-20.0241106642
 11
28.0585554486
 21
-22.0444273364
  0
LINE
  5
3CC
100
AcDbEntity
  8
RACCORDO
100
AcDbLine
 62
250
  6
CONTINUOUS
 10
28.0646872331
 20
-17.3864761796
 11
28.0577115895
 21
-20.0241106642
  0
LINE
  5
3CD
100
AcDbEntity
  8
RACCORDO
100
AcDbLine
 62
250
  6
CONTINUOUS
 10
28.0821472338
 20
-14.4547103976
 11
28.0646872331
 21
-17.3864761796
  0
LINE
  5
3CE
100
AcDbEntity
  8
RACCORDO
100
AcDbLine
 62
250
  6
CONTINUOUS
 10
28.0907677096
 20
-13.3917378164
 11
28.0821472338
 21
-14.4547103976
  0
LWPOLYLINE
  5
3CF
100
AcDbEntity
  8
RACCORDO
100
AcDbPolyline
 62
250
  6
CONTINUOUS
 90
16
 70
0
 10
27.712825788
 20
-39.0717042107
 10
27.7131373414
 20
-39.0467101368
 10
27.7155798452
 20
-39.0206132079
 10
27.7201283089
 20
-38.9936804424
 10
27.7267361941
 20
-38.9661874117
 10
27.7353358913
 20
-38.9384154183
 10
27.7458394123
 20
-38.9106486165
 10
27.7581392887
 20
-38.8831711113
 10
27.7721096717
 20
-38.8562640483
 10
27.7876076213
 20
-38.8302027343
 10
27.8044745671
 20
-38.8052538252
 10
27.8225379302
 20
-38.7816725962
 10
27.8416128912
 20
-38.7597003273
 10
27.8615042794
 20
-38.7395618379
 10
27.8820085692
 20
-38.7214631853
 10
27.9029159639
 20
-38.7055895557
  0
LWPOLYLINE
  5
3D0
100
AcDbEntity
  8
ASSI
100
AcDbPolyline
 62
250
  6
CONTINUOUS
 90
19
 70
0
 10
49.0389907986
 20
6.2025350508
 10
49.0121316592
 20
6.1829854762
 10
48.9855083022
 20
6.1609340449
 10
48.9592945466
 20
6.1365247265
 10
48.9336615375
 20
6.1099168853
 10
48.908776628
 20
6.0812842389
 10
48.8848022873
 20
6.0508137249
 10
48.8618950396
 20
6.0187042796
 10
48.8402044422
 20
5.9851655399
 10
48.8198721089
 20
5.9504164742
 10
48.8010307861
 20
5.9146839529
 10
48.7838034853
 20
5.8782012672
 10
48.7683026805
 20
5.8412066059
 10
48.7546295736
 20
5.8039415006
 10
48.7428734338
 20
5.7666492485
 10
48.733111015
 20
5.7295733238
 10
48.7254060541
 20
5.6929557888
 10
48.7198088555
 20
5.6570357127
 10
48.7163559623
 20
5.6220476111
  0
LINE
  5
3D1
100
AcDbEntity
  8
0
100
AcDbLine
 62
7
  6
CONTINUOUS
 10
-0.3092241379
 20
-26.6247560414
 11
-0.3593305141
 21
-26.6536868351
  0
LWPOLYLINE
  5
3D2
100
AcDbEntity
  8
ASSI
100
AcDbPolyline
 62
250
  6
CONTINUOUS
 90
19
 70
0
 10
48.9417971411
 20
5.2320028593
 10
48.9738291492
 20
5.2175663225
 10
49.0077327713
 20
5.2045329757
 10
49.0432871445
 20
5.1929877232
 10
49.0802606519
 20
5.1830057758
 10
49.118412433
 20
5.1746521595
 10
49.1574939529
 20
5.1679812928
 10
49.197250619
 20
5.1630366325
 10
49.2374234389
 20
5.1598503904
 10
49.2777507101
 20
5.1584433229
 10
49.3179697239
 20
5.1588245963
 10
49.3578184768
 20
5.1609917269
 10
49.397037377
 20
5.1649305971
 10
49.4353709399
 20
5.170615548
 10
49.4725694407
 20
5.1780095453
 10
49.5083905427
 20
5.1870644184
 10
49.5426008904
 20
5.1977211777
 10
49.5749776285
 20
5.2099104001
 10
49.6053098434
 20
5.2235526788
  0
LINE
  5
3D3
100
AcDbEntity
  8
ASSI
100
AcDbLine
 62
250
  6
CONTINUOUS
 10
48.6361350309
 20
6.4116755533
 11
49.0390185371
 21
6.2025510666
  0
LINE
  5
3D4
100
AcDbEntity
  8
ASSI
100
AcDbLine
 62
250
  6
CONTINUOUS
 10
-49.0442544114
 20
62.7616468652
 11
-48.6834292922
 21
62.5415581645
  0
LINE
  5
3D5
100
AcDbEntity
  8
ASSI
100
AcDbLine
 62
250
  6
CONTINUOUS
 10
-49.4018149178
 20
62.9820477525
 11
-49.0442544114
 21
62.7616468652
  0
LINE
  5
3D6
100
AcDbEntity
  8
ASSI
100
AcDbLine
 62
250
  6
CONTINUOUS
 10
-49.7587349884
 20
63.2047139417
 11
-49.4018149178
 21
62.9820477525
  0
LINE
  5
3D7
100
AcDbEntity
  8
ASSI
100
AcDbLine
 62
250
  6
CONTINUOUS
 10
-50.1129384381
 20
63.4288445916
 11
-49.7587349884
 21
63.2047139417
  0
LINE
  5
3D8
100
AcDbEntity
  8
ASSI
100
AcDbLine
 62
250
  6
CONTINUOUS
 10
-50.4640397183
 20
63.6543399616
 11
-50.1129384381
 21
63.4288445916
  0
LWPOLYLINE
  5
3D9
100
AcDbEntity
  8
RACCORDO
100
AcDbPolyline
 62
250
  6
CONTINUOUS
 90
25
 70
0
 10
28.2689069272
 20
-38.7524743721
 10
28.2687290283
 20
-38.7937586299
 10
28.2661302414
 20
-38.8332218966
 10
28.2611109872
 20
-38.870863826
 10
28.2536261517
 20
-38.9068558805
 10
28.2437219131
 20
-38.9410257785
 10
28.2315354963
 20
-38.9728575811
 10
28.2170319404
 20
-39.0022920079
 10
28.2002470758
 20
-39.0293875161
 10
28.181423907
 20
-39.0538049348
 10
28.160548636
 20
-39.0754979827
 10
28.1376355982
 20
-39.0945122821
 10
28.1129695441
 20
-39.1106467491
 10
28.0865142713
 20
-39.1238722904
 10
28.0583061037
 20
-39.1342176235
 10
28.0287380708
 20
-39.1415686805
 10
27.9978657413
 20
-39.1459014177
 10
27.965633057
 20
-39.1472399543
 10
27.932265179
 20
-39.1455427421
 10
27.8976819393
 20
-39.140789996
 10
27.8619627428
 20
-39.1330018652
 10
27.8255717179
 20
-39.1221969717
 10
27.7886630554
 20
-39.1083818517
 10
27.7510812765
 20
-39.0915507927
 10
27.7128257879
 20
-39.0717042107
  0
LINE
  5
3DA
100
AcDbEntity
  8
RACCORDO
100
AcDbLine
 62
250
  6
CONTINUOUS
 10
28.1343338906
 20
-9.3338118368
 11
28.0907677096
 21
-13.3917378164
  0
LINE
  5
3DB
100
AcDbEntity
  8
RACCORDO
100
AcDbLine
 62
250
  6
CONTINUOUS
 10
28.1759423353
 20
-6.6450485191
 11
28.1343338906
 21
-9.3338118368
  0
LINE
  5
3DC
100
AcDbEntity
  8
RACCORDO
100
AcDbLine
 62
250
  6
CONTINUOUS
 10
28.2227890815
 20
-4.3514956209
 11
28.1759423353
 21
-6.6450485191
  0
LWPOLYLINE
  5
3DD
100
AcDbEntity
  8
RACCORDO
100
AcDbPolyline
 62
7
  6
CONTINUOUS
 90
10
 70
0
 10
28.1770226059
 20
-2.2693319746
 10
28.1264651632
 20
-4.4035021942
 10
28.0821174836
 20
-6.5666522815
 10
28.0475654016
 20
-8.6902992149
 10
28.0206124743
 20
-10.7757968863
 10
27.999119247
 20
-12.8245611057
 10
27.9821660283
 20
-14.8372691879
 10
27.96991285
 20
-16.8138141213
 10
27.9625299167
 20
-18.754061171
 10
27.9601505432
 20
-20.5975316277
  0
LINE
  5
3DE
100
AcDbEntity
  8
RACCORDO
100
AcDbLine
 62
250
  6
CONTINUOUS
 10
28.2689069272
 20
-2.3936270621
 11
28.2227890815
 21
-4.3514956209
  0
LWPOLYLINE
  5
3DF
100
AcDbEntity
  8
ASSI
100
AcDbPolyline
 62
250
  6
CONTINUOUS
 90
14
 70
0
 10
51.3774758105
 20
6.5755458266
 10
51.3552603282
 20
6.5537340805
 10
51.3279698187
 20
6.5295765196
 10
51.2957999919
 20
6.5031665966
 10
51.2590911159
 20
6.4747182461
 10
51.2179372108
 20
6.4441766117
 10
51.1720105718
 20
6.4112489238
 10
51.1213850268
 20
6.3761875096
 10
51.0660973774
 20
6.3389337711
 10
51.0054461393
 20
6.2987964807
 10
50.9388744423
 20
6.2556684427
 10
50.8666902525
 20
6.2099705364
 10
50.7894483602
 20
6.1618179347
 10
50.7091029907
 20
6.1123512608
  0
LINE
  5
3E0
100
AcDbEntity
  8
ASSI
100
AcDbLine
 62
250
  6
CONTINUOUS
 10
48.2413006736
 20
6.6197332083
 11
48.6361350309
 21
6.4116755533
  0
LWPOLYLINE
  5
3E1
100
AcDbEntity
  8
ASSI
100
AcDbPolyline
 62
250
  6
CONTINUOUS
 90
25
 70
0
 10
-50.8261168366
 20
63.0966154077
 10
-50.8395276392
 20
63.1038052059
 10
-50.852890556
 20
63.1098422091
 10
-50.8661998894
 20
63.1147287734
 10
-50.8795090453
 20
63.1184773464
 10
-50.8927529333
 20
63.1210803003
 10
-50.9057490698
 20
63.1225094789
 10
-50.9184875837
 20
63.1227504882
 10
-50.9309692408
 20
63.1218214658
 10
-50.9430300514
 20
63.1197420072
 10
-50.9546614005
 20
63.1164997168
 10
-50.9658668326
 20
63.1121090645
 10
-50.9765037836
 20
63.1066286323
 10
-50.9865658791
 20
63.1000463365
 10
-50.9960592163
 20
63.0923743559
 10
-51.0048633249
 20
63.0837062731
 10
-51.0129732647
 20
63.0740282762
 10
-51.0203984484
 20
63.0633523085
 10
-51.0270431084
 20
63.0518092793
 10
-51.032902858
 20
63.0393783402
 10
-51.0379904939
 20
63.0260768371
 10
-51.042238625
 20
63.0120918994
 10
-51.0456288792
 20
62.9974842033
 10
-51.0481907121
 20
62.9821884565
 10
-51.0499294922
 20
62.9662024156
  0
LINE
  5
3E2
100
AcDbEntity
  8
ASSI
100
AcDbLine
 62
250
  6
CONTINUOUS
 10
47.8526779137
 20
6.8275524637
 11
48.2413006736
 21
6.6197332083
  0
LINE
  5
3E3
100
AcDbEntity
  8
ASSI
100
AcDbLine
 62
250
  6
CONTINUOUS
 10
47.4626435779
 20
7.0386668236
 11
47.8526779137
 21
6.8275524637
  0
LWPOLYLINE
  5
3E4
100
AcDbEntity
  8
ASSI
100
AcDbPolyline
 62
250
  6
CONTINUOUS
 90
14
 70
0
 10
-50.4640414902
 20
63.6543388285
 10
-50.5008843391
 20
63.6743972022
 10
-50.5375997676
 20
63.6915558821
 10
-50.5740264551
 20
63.7057434181
 10
-50.6100084245
 20
63.7169000563
 10
-50.6453843579
 20
63.7249798849
 10
-50.6799886746
 20
63.729952604
 10
-50.7136702154
 20
63.7317995253
 10
-50.7462836474
 20
63.7305145916
 10
-50.7776795327
 20
63.7261087116
 10
-50.8077188857
 20
63.7186050757
 10
-50.8362776385
 20
63.708037441
 10
-50.8632376012
 20
63.6944513446
 10
-50.8733682375
 20
63.688299064
  0
LINE
  5
3E5
100
AcDbEntity
  8
ASSI
100
AcDbLine
 62
250
  6
CONTINUOUS
 10
46.8802733711
 20
7.3580542787
 11
47.4626435779
 21
7.0386668236
  0
LINE
  5
3E6
100
AcDbEntity
  8
ASSI
100
AcDbLine
 62
250
  6
CONTINUOUS
 10
46.3045967743
 20
7.6779778341
 11
46.8802733711
 21
7.3580542787
  0
LINE
  5
3E7
100
AcDbEntity
  8
ASSI
100
AcDbLine
 62
250
  6
CONTINUOUS
 10
45.5368769334
 20
8.1099499947
 11
46.3045967743
 21
7.6779778341
  0
LINE
  5
3E8
100
AcDbEntity
  8
ASSI
100
AcDbLine
 62
250
  6
CONTINUOUS
 10
44.5083201437
 20
8.6959587422
 11
45.5368769334
 21
8.1099499947
  0
LINE
  5
3E9
100
AcDbEntity
  8
ASSI
100
AcDbLine
 62
250
  6
CONTINUOUS
 10
-50.4701877791
 20
62.8910126329
 11
-48.0629475058
 21
61.5183550159
  0
LINE
  5
3EA
100
AcDbEntity
  8
ASSI
100
AcDbLine
 62
250
  6
CONTINUOUS
 10
-48.0629475058
 20
61.5183550159
 11
-46.9319138336
 21
60.8703040929
  0
LINE
  5
3EB
100
AcDbEntity
  8
ASSI
100
AcDbLine
 62
250
  6
CONTINUOUS
 10
-46.9319138336
 20
60.8703040929
 11
-45.5938273731
 21
60.0993972222
  0
LINE
  5
3EC
100
AcDbEntity
  8
ASSI
100
AcDbLine
 62
7
  6
CONTINUOUS
 10
50.1752639925
 20
6.8586017164
 11
-49.3857584911
 21
64.3438883058
  0
LINE
  5
3ED
100
AcDbEntity
  8
ASSI
100
AcDbLine
 62
7
  6
CONTINUOUS
 10
-47.4787019143
 20
63.9781339798
 11
51.09664127
 21
7.0619653543
  0
LINE
  5
3EE
100
AcDbEntity
  8
ASSI
100
AcDbLine
 62
250
  6
CONTINUOUS
 10
30.6868159698
 20
16.0493057219
 11
43.2432737365
 21
8.8059594928
  0
LINE
  5
3EF
100
AcDbEntity
  8
ASSI
100
AcDbLine
 62
250
  6
CONTINUOUS
 10
-7.279279881
 20
38.613949707
 11
6.1193398465
 21
30.8776471589
  0
LINE
  5
3F0
100
AcDbEntity
  8
ASSI
100
AcDbLine
 62
250
  6
CONTINUOUS
 10
-25.8897053034
 20
48.7153739626
 11
30.6868159698
 21
16.0493057219
  0
LWPOLYLINE
  5
3F1
100
AcDbEntity
  8
ASSI
100
AcDbPolyline
 62
250
  6
CONTINUOUS
 90
3
 70
0
 10
-38.5595744642
 20
56.6619642514
 10
-35.3709118385
 20
54.8204042704
 10
-32.4770713358
 20
53.1471248135
  0
LINE
  5
3F2
100
AcDbEntity
  8
ASSI
100
AcDbLine
 62
250
  6
CONTINUOUS
 10
-45.5938273731
 20
60.0993972222
 11
-44.118698135
 21
59.2467705664
  0
LINE
  5
3F3
100
AcDbEntity
  8
ASSI
100
AcDbLine
 62
250
  6
CONTINUOUS
 10
-44.118698135
 20
59.2467705664
 11
-25.8897053034
 21
48.7153739626
  0
LINE
  5
3F4
100
AcDbEntity
  8
ASSI
100
AcDbLine
 62
250
  6
CONTINUOUS
 10
-32.4770713358
 20
53.1471248135
 11
-7.279279881
 21
38.613949707
  0
LINE
  5
3F5
100
AcDbEntity
  8
ASSI
100
AcDbLine
 62
250
  6
CONTINUOUS
 10
6.1193398465
 20
30.8776471589
 11
13.9541544589
 21
26.3493665417
  0
LWPOLYLINE
  5
3F6
100
AcDbEntity
  8
ASSI
100
AcDbPolyline
 62
250
  6
CONTINUOUS
 90
3
 70
0
 10
13.9541544589
 20
26.3493665417
 10
18.1552930165
 20
23.9193289213
 10
38.3063452829
 20
12.2797482973
  0
LWPOLYLINE
  5
3F7
100
AcDbEntity
  8
ASSI
100
AcDbPolyline
 62
250
  6
CONTINUOUS
 90
3
 70
0
 10
38.3063452829
 20
12.2797482973
 10
42.2060564702
 20
10.0240045869
 10
44.5083201437
 20
8.6959587422
  0
LINE
  5
3F8
100
AcDbEntity
  8
ASSI
100
AcDbLine
 62
250
  6
CONTINUOUS
 10
-50.8261168366
 20
63.0966154077
 11
-50.4701877791
 21
62.8910126329
  0
LINE
  5
3F9
100
AcDbEntity
  8
ASSI
100
AcDbLine
 62
250
  6
CONTINUOUS
 10
43.2432737365
 20
8.8059594928
 11
44.8239746479
 21
7.8911601235
  0
LINE
  5
3FA
100
AcDbEntity
  8
ASSI
100
AcDbLine
 62
250
  6
CONTINUOUS
 10
48.1136654653
 20
5.9706057419
 11
48.7163711128
 21
5.6220371014
  0
LINE
  5
3FB
100
AcDbEntity
  8
ASSI
100
AcDbLine
 62
250
  6
CONTINUOUS
 10
-46.3594461874
 20
61.1629870104
 11
-38.5595744642
 21
56.6619642514
  0
LINE
  5
3FC
100
AcDbEntity
  8
ASSI
100
AcDbLine
 62
250
  6
CONTINUOUS
 10
44.8239746479
 20
7.8911601235
 11
45.9855170625
 21
7.2148539471
  0
LINE
  5
3FD
100
AcDbEntity
  8
ASSI
100
AcDbLine
 62
250
  6
CONTINUOUS
 10
45.9855170625
 20
7.2148539471
 11
48.1136654653
 21
5.9706057419
  0
LINE
  5
3FE
100
AcDbEntity
  8
ASSI
100
AcDbLine
 62
250
  6
CONTINUOUS
 10
-47.3123771666
 20
61.721858203
 11
-46.3594461874
 21
61.1629870104
  0
LINE
  5
3FF
100
AcDbEntity
  8
ASSI
100
AcDbLine
 62
250
  6
CONTINUOUS
 10
-47.9346769619
 20
62.0911222927
 11
-47.3123771666
 21
61.721858203
  0
LWPOLYLINE
  5
400
100
AcDbEntity
  8
ASSI
100
AcDbPolyline
 62
250
  6
CONTINUOUS
 90
3
 70
0
 10
-48.6834292922
 20
62.5415581645
 10
-48.5015633586
 20
62.4314452912
 10
-47.9346769619
 20
62.0911222927
  0
LWPOLYLINE
  5
401
100
AcDbEntity
  8
ASSI
100
AcDbPolyline
 62
7
  6
CONTINUOUS
 90
19
 70
0
 10
51.09664127
 20
7.0619653543
 10
51.1242971643
 20
7.0447349226
 10
51.1508665202
 20
7.0257997385
 10
51.1763493378
 20
7.0051598021
 10
51.2008887034
 20
6.9826332712
 10
51.2243415307
 20
6.958401988
 10
51.2462785605
 20
6.9330114787
 10
51.2666398319
 20
6.9064235587
 10
51.285485306
 20
6.8786764126
 10
51.3025656065
 20
6.8504301206
 10
51.3177664731
 20
6.8218969309
 10
51.3312021662
 20
6.7928645954
 10
51.3429660908
 20
6.7633564492
 10
51.3531321086
 20
6.7334104655
 10
51.3616263579
 20
6.7029886712
 10
51.3683206579
 20
6.6720004828
 10
51.3731722817
 20
6.6404157057
 10
51.3762239562
 20
6.6082645345
 10
51.3774756815
 20
6.5755469692
  0
LWPOLYLINE
  5
402
100
AcDbEntity
  8
ASSI
100
AcDbPolyline
 62
7
  6
CONTINUOUS
 90
3
 70
0
 10
-47.527065196
 20
64.0022125102
 10
-47.5063607722
 20
63.9928424867
 10
-47.4787019143
 20
63.9781339798
  0
LWPOLYLINE
  5
403
100
AcDbEntity
  8
RACCORDO
100
AcDbPolyline
 62
7
  6
CONTINUOUS
 90
10
 70
0
 10
-35.6263174846
 20
35.0266401154
 10
-35.6254595795
 20
35.0267534286
 10
-35.6219382466
 20
35.0268717757
 10
-35.6156042332
 20
35.0264639587
 10
-35.6063293329
 20
35.0250180432
 10
-35.594058214
 20
35.0220338961
 10
-35.5791992818
 20
35.0171679595
 10
-35.5624825537
 20
35.0103466136
 10
-35.5443627612
 20
35.0015624723
 10
-35.5255678898
 20
34.9910704899
  0
LINE
  5
404
100
AcDbEntity
  8
ASSI
100
AcDbLine
 62
250
  6
CONTINUOUS
 10
-47.621686295
 20
64.0340974191
 11
-47.4787096639
 21
63.9781373764
  0
LWPOLYLINE
  5
405
100
AcDbEntity
  8
ASSI
100
AcDbPolyline
 62
7
  6
CONTINUOUS
 90
13
 70
0
 10
-47.5270686897
 20
64.0022434131
 10
-47.6031508926
 20
64.0329415862
 10
-47.7682498072
 20
64.0935440039
 10
-47.9321438295
 20
64.1454699854
 10
-48.0944781739
 20
64.1886660123
 10
-48.2549141629
 20
64.2231097127
 10
-48.4131539426
 20
64.2488197955
 10
-48.5687973391
 20
64.2658493793
 10
-48.721469324
 20
64.2742925512
 10
-48.8708786217
 20
64.2742784833
 10
-49.0166298636
 20
64.2660090939
 10
-49.1583266219
 20
64.249733146
 10
-49.2077308434
 20
64.2410973732
  0
LWPOLYLINE
  5
406
100
AcDbEntity
  8
ASSI
100
AcDbPolyline
 62
250
  6
CONTINUOUS
 90
10
 70
0
 10
48.7163557491
 20
-63.7028538744
 10
48.7198086459
 20
-63.7332785906
 10
48.7254058506
 20
-63.7618659941
 10
48.7331108195
 20
-63.7884294433
 10
48.7428732471
 20
-63.8127955098
 10
48.7546293958
 20
-63.8348051136
 10
48.7683025128
 20
-63.8543145608
 10
48.7838033293
 20
-63.8711964783
 10
48.8010306428
 20
-63.885340646
 10
48.8184135735
 20
-63.895910231
  0
LWPOLYLINE
  5
407
100
AcDbEntity
  8
ASSI
100
AcDbPolyline
 62
250
  6
CONTINUOUS
 90
3
 70
0
 10
49.5903209587
 20
-63.1808808714
 10
49.5975434652
 20
-63.3635006087
 10
49.6053179637
 20
-63.5384247151
  0
LINE
  5
408
100
AcDbEntity
  8
ASSI
100
AcDbLine
 62
250
  6
CONTINUOUS
 10
49.5775263612
 20
-62.7929546979
 11
49.5903209587
 21
-63.1808808714
  0
LWPOLYLINE
  5
409
100
AcDbEntity
  8
ASSI
100
AcDbPolyline
 62
250
  6
CONTINUOUS
 90
25
 70
0
 10
48.9418210997
 20
5.2317201786
 10
48.941304319
 20
5.2492298091
 10
48.9398196714
 20
5.267027919
 10
48.9373718504
 20
5.2851170607
 10
48.9339463511
 20
5.3035691752
 10
48.9295672357
 20
5.3223175066
 10
48.9242962653
 20
5.3411561413
 10
48.9181243809
 20
5.3600990574
 10
48.911068139
 20
5.3791363501
 10
48.9032255811
 20
5.3980251379
 10
48.8945897439
 20
5.4167629458
 10
48.885171546
 20
5.4353544176
 10
48.8750930277
 20
5.4535658418
 10
48.8643463535
 20
5.4713930258
 10
48.8529390859
 20
5.4888400642
 10
48.8410133497
 20
5.5056840672
 10
48.8285590737
 20
5.5219184648
 10
48.8155817904
 20
5.5375474473
 10
48.8022441964
 20
5.5523627508
 10
48.7885367373
 20
5.5663519741
 10
48.7744608288
 20
5.5795232125
 10
48.7601933854
 20
5.5916977482
 10
48.7457895923
 20
5.6028139955
 10
48.7311838627
 20
5.6129280143
 10
48.7163711128
 20
5.6220371014
  0
LWPOLYLINE
  5
40A
100
AcDbEntity
  8
ASSI
100
AcDbPolyline
 62
250
  6
CONTINUOUS
 90
25
 70
0
 10
49.6053099156
 20
5.2235527142
 10
49.6041870344
 20
5.2670167741
 10
49.6006171954
 20
5.311677093
 10
49.5946191473
 20
5.3573451975
 10
49.5862191664
 20
5.4038293584
 10
49.5754580414
 20
5.4509313268
 10
49.5623921089
 20
5.49844687
 10
49.5470807633
 20
5.5461736393
 10
49.5295914483
 20
5.5939086579
 10
49.5100081957
 20
5.641444905
 10
49.4884205851
 20
5.688575089
 10
49.4649199046
 20
5.7351033049
 10
49.439604584
 20
5.7808417776
 10
49.4125842293
 20
5.8255956988
 10
49.3839726192
 20
5.8691730281
 10
49.3538827585
 20
5.9113949371
 10
49.3224385927
 20
5.9520844695
 10
49.2897748807
 20
5.9910602941
 10
49.2560285987
 20
6.0281461286
 10
49.2213416695
 20
6.0631821873
 10
49.185859747
 20
6.0960155991
 10
49.1497316346
 20
6.1264949393
 10
49.1131086816
 20
6.1544856105
 10
49.0761437807
 20
6.1798691405
 10
49.0389907986
 20
6.2025350508
  0
LINE
  5
40B
100
AcDbEntity
  8
ASSI
100
AcDbLine
 62
250
  6
CONTINUOUS
 10
49.5669508516
 20
-62.3734456134
 11
49.5775263612
 21
-62.7929546979
  0
LINE
  5
40C
100
AcDbEntity
  8
ASSI
100
AcDbLine
 62
250
  6
CONTINUOUS
 10
49.5586658024
 20
-61.9183859891
 11
49.5669508516
 21
-62.3734456134
  0
LINE
  5
40D
100
AcDbEntity
  8
ASSI
100
AcDbLine
 62
250
  6
CONTINUOUS
 10
49.5526553457
 20
-61.4231747186
 11
49.5586658024
 21
-61.9183859891
  0
LINE
  5
40E
100
AcDbEntity
  8
ASSI
100
AcDbLine
 62
250
  6
CONTINUOUS
 10
49.5477250295
 20
-60.6053252611
 11
49.5526553457
 21
-61.4231747186
  0
LINE
  5
40F
100
AcDbEntity
  8
ASSI
100
AcDbLine
 62
250
  6
CONTINUOUS
 10
48.9418210997
 20
5.2317201786
 11
48.9475754287
 21
1.7084434025
  0
LINE
  5
410
100
AcDbEntity
  8
ASSI
100
AcDbLine
 62
250
  6
CONTINUOUS
 10
49.5177135519
 20
-30.6243997763
 11
49.5464196046
 21
-54.5986532346
  0
LWPOLYLINE
  5
411
100
AcDbEntity
  8
ASSI
100
AcDbPolyline
 62
250
  6
CONTINUOUS
 90
3
 70
0
 10
49.5464196046
 20
-54.5986532346
 10
49.5480124869
 20
-56.854571803
 10
49.5479949195
 20
-57.1993319772
  0
LINE
  5
412
100
AcDbEntity
  8
ASSI
100
AcDbLine
 62
250
  6
CONTINUOUS
 10
48.9495140926
 20
-16.2563777427
 11
48.9475219722
 21
-48.453124291
  0
LINE
  5
413
100
AcDbEntity
  8
ASSI
100
AcDbLine
 62
250
  6
CONTINUOUS
 10
48.9475219722
 20
-48.453124291
 11
48.9475209648
 21
-60.057615078
  0
LINE
  5
414
100
AcDbEntity
  8
ASSI
100
AcDbLine
 62
250
  6
CONTINUOUS
 10
49.5479949195
 20
-57.1993319772
 11
49.5476736387
 21
-58.1835243741
  0
LINE
  5
415
100
AcDbEntity
  8
ASSI
100
AcDbLine
 62
250
  6
CONTINUOUS
 10
48.9475754287
 20
1.7084434025
 11
48.9495140926
 21
-16.2563777427
  0
LINE
  5
416
100
AcDbEntity
  8
ASSI
100
AcDbLine
 62
250
  6
CONTINUOUS
 10
49.5476736387
 20
-58.1835243741
 11
49.5477250295
 21
-60.6053252611
  0
LINE
  5
417
100
AcDbEntity
  8
ASSI
100
AcDbLine
 62
250
  6
CONTINUOUS
 10
48.9475209648
 20
-60.057615078
 11
48.9461751872
 21
-61.716999436
  0
LINE
  5
418
100
AcDbEntity
  8
ASSI
100
AcDbLine
 62
250
  6
CONTINUOUS
 10
49.5308408371
 20
-9.3722432881
 11
49.5177135519
 21
-30.6243997763
  0
LINE
  5
419
100
AcDbEntity
  8
ASSI
100
AcDbLine
 62
250
  6
CONTINUOUS
 10
48.9461751872
 20
-61.716999436
 11
48.9417768281
 21
-63.5715809041
  0
LINE
  5
41A
100
AcDbEntity
  8
ASSI
100
AcDbLine
 62
250
  6
CONTINUOUS
 10
49.5457836396
 20
-4.1638164638
 11
49.5308408371
 21
-9.3722432881
  0
LINE
  5
41B
100
AcDbEntity
  8
ASSI
100
AcDbLine
 62
250
  6
CONTINUOUS
 10
49.5494033609
 20
2.6225702277
 11
49.5457836396
 21
-4.1638164638
  0
LINE
  5
41C
100
AcDbEntity
  8
ASSI
100
AcDbLine
 62
250
  6
CONTINUOUS
 10
49.5541093319
 20
3.1914144827
 11
49.5494033609
 21
2.6225702277
  0
LINE
  5
41D
100
AcDbEntity
  8
ASSI
100
AcDbLine
 62
250
  6
CONTINUOUS
 10
49.561799124
 20
3.747924265
 11
49.5541093319
 21
3.1914144827
  0
LWPOLYLINE
  5
41E
100
AcDbEntity
  8
ASSI
100
AcDbPolyline
 62
250
  6
CONTINUOUS
 90
6
 70
0
 10
49.6052977202
 20
5.2235456728
 10
49.5960267488
 20
5.002430623
 10
49.5875642596
 20
4.7713868326
 10
49.5799102525
 20
4.5304143016
 10
49.5730490306
 20
4.2783558903
 10
49.561799124
 20
3.747924265
  0
LINE
  5
41F
100
AcDbEntity
  8
RACCORDO
100
AcDbLine
 62
250
  6
CONTINUOUS
 10
27.9029159639
 20
-38.7055895557
 11
28.1736475786
 21
-38.4893267026
  0
LINE
  5
420
100
AcDbEntity
  8
RACCORDO
100
AcDbLine
 62
7
  6
CONTINUOUS
 10
28.1664752905
 20
-38.7214919708
 11
28.1662647584
 21
-38.7216598589
  0
LINE
  5
421
100
AcDbEntity
  8
RACCORDO
100
AcDbLine
 62
250
  6
CONTINUOUS
 10
28.1662647584
 20
-38.7216598589
 11
28.1627524709
 21
-38.7243531529
  0
LWPOLYLINE
  5
422
100
AcDbEntity
  8
RACCORDO
100
AcDbPolyline
 62
250
  6
CONTINUOUS
 90
3
 70
0
 10
28.1616220912
 20
-38.7252199513
 10
28.1462956915
 20
-38.7352214664
 10
28.1299364572
 20
-38.7433634697
  0
LWPOLYLINE
  5
423
100
AcDbEntity
  8
ASSI
100
AcDbPolyline
 62
250
  6
CONTINUOUS
 90
16
 70
0
 10
49.5177258336
 20
-29.2054271786
 10
49.4870493034
 20
-29.2209137691
 10
49.454290551
 20
-29.2349066252
 10
49.4196671549
 20
-29.2473128088
 10
49.3834090782
 20
-29.2580499198
 10
49.3457571411
 20
-29.2670466441
 10
49.3069614219
 20
-29.2742432269
 10
49.2672795956
 20
-29.2795918697
 10
49.2269752226
 20
-29.2830570475
 10
49.186315998
 20
-29.2846157452
 10
49.145571974
 20
-29.2842576102
 10
49.1050137659
 20
-29.2819850212
 10
49.0649107549
 20
-29.2778130723
 10
49.0255292988
 20
-29.2717694729
 10
48.9871309629
 20
-29.2638943637
 10
48.949970783
 20
-29.2542400499
  0
LWPOLYLINE
  5
424
100
AcDbEntity
  8
RACCORDO
100
AcDbPolyline
 62
250
  6
CONTINUOUS
 90
12
 70
0
 10
28.1299364572
 20
-38.7433634697
 10
28.1126231141
 20
-38.7496080793
 10
28.0944412341
 20
-38.753933668
 10
28.0755168235
 20
-38.756322725
 10
28.0558994539
 20
-38.7567811054
 10
28.0355547722
 20
-38.7553103341
 10
28.0145211394
 20
-38.7518815713
 10
27.9929268614
 20
-38.746485468
 10
27.970868408
 20
-38.7391413671
 10
27.9484457339
 20
-38.7298674053
 10
27.9257599103
 20
-38.718674596
 10
27.9029163775
 20
-38.7055892253
  0
LINE
  5
425
100
AcDbEntity
  8
ASSI
100
AcDbLine
 62
7
  6
CONTINUOUS
 10
50.7407555712
 20
-62.9497504161
 11
50.7407555712
 21
5.8791415719
  0
LINE
  5
426
100
AcDbEntity
  8
0
100
AcDbLine
 62
7
  6
CONTINUOUS
 10
51.3774756815
 20
6.5755469692
 11
51.3774757921
 21
-24.3286107885
  0
LINE
  5
427
100
AcDbEntity
  8
0
100
AcDbLine
 62
7
  6
CONTINUOUS
 10
51.3774757921
 20
-30.2110698603
 11
51.3774759851
 21
-61.1152246418
  0
LWPOLYLINE
  5
428
100
AcDbEntity
  8
ASSI
100
AcDbPolyline
 62
7
  6
CONTINUOUS
 90
3
 70
0
 10
51.3774759851
 20
-61.1152246418
 10
51.3762247048
 20
-61.1464987727
 10
51.373996888
 20
-61.1690735216
  0
LINE
  5
429
100
AcDbEntity
  8
RACCORDO
100
AcDbLine
 62
7
  6
CONTINUOUS
 10
50.7407555712
 20
-30.0010935564
 11
50.8821769274
 21
-29.9250905033
  0
LINE
  5
42A
100
AcDbEntity
  8
ASSI
100
AcDbLine
 62
250
  6
CONTINUOUS
 10
51.3544475956
 20
-61.2670662146
 11
51.3774757602
 21
-61.1152266873
  0
LWPOLYLINE
  5
42B
100
AcDbEntity
  8
ASSI
100
AcDbPolyline
 62
7
  6
CONTINUOUS
 90
13
 70
0
 10
50.7407555712
 20
-62.7440974287
 10
50.7729247692
 20
-62.705639552
 10
50.8578622169
 20
-62.5910627247
 10
50.9378892022
 20
-62.4689763472
 10
51.0126027926
 20
-62.3395826996
 10
51.0816271934
 20
-62.2031289725
 10
51.1446917856
 20
-62.0598294384
 10
51.2015394903
 20
-61.9099356052
 10
51.2519269539
 20
-61.7537556837
 10
51.2956786351
 20
-61.591581094
 10
51.3326477296
 20
-61.4237093783
 10
51.3627099149
 20
-61.25042886
 10
51.3741639197
 20
-61.169196417
  0
LWPOLYLINE
  5
42C
100
AcDbEntity
  8
ASSI
100
AcDbPolyline
 62
250
  6
CONTINUOUS
 90
13
 70
0
 10
50.7407555712
 20
-62.6225627434
 10
50.7640306376
 20
-62.5970053255
 10
50.8363389991
 20
-62.508813464
 10
50.9053650773
 20
-62.4151157161
 10
50.9714973618
 20
-62.3146986538
 10
51.0344946204
 20
-62.2074954407
 10
51.0939148759
 20
-62.0936009797
 10
51.1496499015
 20
-61.9720042684
 10
51.201797642
 20
-61.8411672836
 10
51.2492759265
 20
-61.7026808479
 10
51.2905980771
 20
-61.5603198074
 10
51.3255069824
 20
-61.4154768697
 10
51.3544475956
 20
-61.2670662146
  0
LWPOLYLINE
  5
42D
100
AcDbEntity
  8
ASSI
100
AcDbPolyline
 62
250
  6
CONTINUOUS
 90
19
 70
0
 10
49.6053099156
 20
-63.5384288876
 10
49.5749776539
 20
-63.5554332168
 10
49.5426008745
 20
-63.5709625792
 10
49.5083904937
 20
-63.5849158103
 10
49.4725693727
 20
-63.5972020133
 10
49.4353708657
 20
-63.6077411508
 10
49.3970373003
 20
-63.6164645667
 10
49.357818398
 20
-63.6233154333
 10
49.317969647
 20
-63.6282491217
 10
49.2777506387
 20
-63.6312334923
 10
49.2374233765
 20
-63.6322491041
 10
49.197250569
 20
-63.6312893412
 10
49.157493918
 20
-63.6283604564
 10
49.1184124147
 20
-63.62348153
 10
49.080260652
 20
-63.6166843456
 10
49.0432871655
 20
-63.608013183
 10
49.0077328153
 20
-63.5975245299
 10
48.9738292173
 20
-63.585286714
 10
48.9417972333
 20
-63.5713794575
  0
LWPOLYLINE
  5
42E
100
AcDbEntity
  8
ASSI
100
AcDbPolyline
 62
250
  6
CONTINUOUS
 90
14
 70
0
 10
49.4292182471
 20
-63.9102886317
 10
49.4395997397
 20
-63.9045993394
 10
49.4649153035
 20
-63.8880127606
 10
49.4884162054
 20
-63.8685323572
 10
49.5100041834
 20
-63.8462374814
 10
49.5295879489
 20
-63.8212186038
 10
49.547077853
 20
-63.7935844622
 10
49.5623898657
 20
-63.7634588125
 10
49.5754565566
 20
-63.7309702409
 10
49.5862183736
 20
-63.6962591485
 10
49.5946188052
 20
-63.6594846871
 10
49.6006170801
 20
-63.62080983
 10
49.6041870172
 20
-63.5803994005
 10
49.6053099156
 20
-63.5384288876
  0
LINE
  5
42F
100
AcDbEntity
  8
ASSI
100
AcDbLine
 62
250
  6
CONTINUOUS
 10
49.6053179637
 20
-63.5384247151
 11
50.7407555712
 21
-62.9497504161
  0
LINE
  5
430
100
AcDbEntity
  8
ASSI
100
AcDbLine
 62
7
  6
CONTINUOUS
 10
49.4290088032
 20
-63.9103973364
 11
50.5645701514
 21
-63.3216588833
  0
LWPOLYLINE
  5
431
100
AcDbEntity
  8
ASSI
100
AcDbPolyline
 62
250
  6
CONTINUOUS
 90
13
 70
0
 10
-49.1024565432
 20
64.1803133116
 10
-49.0686710322
 20
64.1876965607
 10
-48.9561219141
 20
64.2062302955
 10
-48.8404347417
 20
64.2191680564
 10
-48.7203810124
 20
64.2262369711
 10
-48.5960285555
 20
64.2271948561
 10
-48.4676751785
 20
64.2217078997
 10
-48.3344999371
 20
64.2091781345
 10
-48.1951214301
 20
64.1889219264
 10
-48.0514585072
 20
64.1607982296
 10
-47.9075248572
 20
64.1254084637
 10
-47.7646553433
 20
64.0832272552
 10
-47.621686295
 20
64.0340974191
  0
ARC
  5
432
100
AcDbEntity
  8
RACCORDO
100
AcDbCircle
 62
7
  6
CONTINUOUS
 10
-33.0469530034
 20
30.5449697315
 40
0.5
100
AcDbArc
 50
305.0195749003
 51
359.996864539
  0
ELLIPSE
  5
433
100
AcDbEntity
  8
ASSI
100
AcDbEllipse
 62
7
  6
CONTINUOUS
 10
-49.3853707321
 20
63.6902642932
 30
0.0
 11
-0.4002934887
 21
0.6932840847
 31
0.0
 40
0.5769361983
 41
-0.7851038024
 42
0.0261607465
  0
ELLIPSE
  5
434
100
AcDbEntity
  8
ASSI
100
AcDbEllipse
 62
7
  6
CONTINUOUS
 10
50.1748762335
 20
-62.6225710476
 30
0.0
 11
-0.4002934887
 21
0.6932840847
 31
0.0
 40
0.5769361983
 41
-3.1677534001
 42
-2.3565853618
  0
ELLIPSE
  5
435
100
AcDbEntity
  8
ASSI
100
AcDbEllipse
 62
7
  6
CONTINUOUS
 10
50.1748762335
 20
6.2054254782
 30
0.0
 11
-0.4000193679
 21
0.6928091406
 31
0.0
 40
0.5777274115
 41
-2.3559002616
 42
-0.7857891675
  0
ELLIPSE
  5
436
100
AcDbEntity
  8
RACCORDO
100
AcDbEllipse
 62
7
  6
CONTINUOUS
 10
47.4125309924
 20
-24.0754693419
 30
0.0
 11
3.9996194055
 21
0.093159354
 31
0.0
 40
0.5922968643
 41
-0.6017588903
 42
-0.1462836581
  0
ELLIPSE
  5
437
100
AcDbEntity
  8
RACCORDO
100
AcDbEllipse
 62
7
  6
CONTINUOUS
 10
-34.0399969766
 20
-0.9742458439
 30
0.0
 11
-0.2500123596
 21
0.4330055659
 31
0.0
 40
0.5817339356
 41
0.7891471962
 42
2.3523473265
  0
ELLIPSE
  5
438
100
AcDbEntity
  8
RACCORDO
100
AcDbEllipse
 62
7
  6
CONTINUOUS
 10
47.4125309924
 20
-29.8540214842
 30
0.0
 11
3.9996913222
 21
-0.0884076603
 31
0.0
 40
0.5620816791
 41
-0.5755405533
 42
-0.1200653212
  0
ENDSEC
  0
SECTION
  2
OBJECTS
  0
DICTIONARY
  5
C
100
AcDbDictionary
280
0
281
1
  3
ACAD_GROUP
350
D
  3
ACAD_MLINESTYLE
350
17
  3
ACAD_LAYOUT
350
1A
  3
ACAD_PLOTSETTINGS
350
19
  3
ACAD_PLOTSTYLENAME
350
E
  0
DICTIONARY
  5
D
102
{ACAD_REACTORS
330
C
102
}
100
AcDbDictionary
280
0
281
1
  0
ACDBDICTIONARYWDFLT
  5
E
102
{ACAD_REACTORS
330
C
102
}
100
AcDbDictionary
281
1
  3
Normal
350
F
100
AcDbDictionaryWithDefault
340
F
  0
DICTIONARY
  5
17
102
{ACAD_REACTORS
330
C
102
}
100
AcDbDictionary
280
0
281
1
  3
Standard
350
18
  0
DICTIONARY
  5
19
102
{ACAD_REACTORS
330
C
102
}
100
AcDbDictionary
281
1
  0
DICTIONARY
  5
1A
102
{ACAD_REACTORS
330
C
102
}
100
AcDbDictionary
281
1
  3
Model
350
439
  3
Layout1
350
43A
  0
ACDBPLACEHOLDER
  5
F
102
{ACAD_REACTORS
330
E
102
}
  0
MLINESTYLE
  5
18
102
{ACAD_REACTORS
330
17
102
}
100
AcDbMlineStyle
  2
STANDARD
 70
0
  3

 62
256
 51
90.0
 52
90.0
 71
2
 49
0.5
 62
256
  6
BYLAYER
 49
-0.5
 62
256
  6
BYLAYER
  0
LAYOUT
  5
439
102
{ACAD_REACTORS
330
1A
102
}
100
AcDbPlotSettings
  1

  2
none_device
  4
ISO_A4_(297.00_x_210.00_MM)
  6

 40
0.0
 41
0.0
 42
0.0
 43
0.0
 44
297.0
 45
210.0
 46
0.0
 47
0.0
 48
0.0
 49
0.0
140
0.0
141
0.0
142
1.0
143
1.0
 70
1024
 72
1
 73
0
 74
0
  7

 75
0
147
1.0
148
0.0
149
0.0
100
AcDbLayout
  1
Model
 70
0
 71
0
 10
0.0
 20
0.0
 11
297.0
 21
210.0
 12
0.0
 22
0.0
 32
0.0
 14
0.0
 24
0.0
 34
0.0
 15
0.0
 25
0.0
 35
0.0
146
0.0
 13
0.0
 23
0.0
 33
0.0
 16
1.0
 26
0.0
 36
0.0
 17
0.0
 27
1.0
 37
0.0
 76
0
330
213
345
0
346
0
  0
LAYOUT
  5
43A
102
{ACAD_REACTORS
330
1A
102
}
100
AcDbPlotSettings
  1

  2
none_device
  4
ISO_A4_(297.00_x_210.00_MM)
  6

 40
0.0
 41
0.0
 42
0.0
 43
0.0
 44
297.0
 45
210.0
 46
0.0
 47
0.0
 48
0.0
 49
0.0
140
0.0
141
0.0
142
1.0
143
1.0
 70
0
 72
1
 73
0
 74
0
  7

 75
0
147
1.0
148
0.0
149
0.0
100
AcDbLayout
  1
Layout1
 70
0
 71
1
 10
0.0
 20
0.0
 11
297.0
 21
210.0
 12
0.0
 22
0.0
 32
0.0
 14
0.0
 24
0.0
 34
0.0
 15
0.0
 25
0.0
 35
0.0
146
0.0
 13
0.0
 23
0.0
 33
0.0
 16
1.0
 26
0.0
 36
0.0
 17
0.0
 27
1.0
 37
0.0
 76
0
330
214
345
0
346
0
  0
ENDSEC
  0
EOF
