  0
SECTION
  2
HEADER
  9
$ACADVER
  1
AC1024
  9
$DWGCODEPAGE
  3
ANSI_1252
  9
$EXTMAX
 10
210.0
 20
297.0
 30
0.0
  9
$EXTMIN
 10
0.0
 20
0.0
 30
0.0
  9
$LIMMIN
 10
0.0
 20
0.0
  9
$LIMMAX
 10
210.0
 20
297.0
  9
$VIEWCTR
 10
105.0
 20
148.5
  9
$VIEWSIZE
 40
297.0
  9
$CLAYER
  8
0
  9
$LTSCALE
 40
19.36
  9
$CELTYPE
  6
BYLAYER
  9
$DIMSCALE
 40
1.0
  9
$DIMASZ
 40
3.0
  9
$DIMEXO
 40
0.5
  9
$DIMDLI
 40
13.376
  9
$DIMEXE
 40
1.5
  9
$DIMCEN
 40
3.168
  9
$DIMLFAC
 40
1.0
  9
$DIMBLK
  1
_FILLED
  9
$DIMALT
 70
0
  9
$DIMALTF
 40
0.0393700787
  9
$DIMTXT
 40
3.0
  9
$DIMTOL
 70
1
  9
$DIMLIM
 70
0
  9
$DIMTFAC
 40
1.0
  9
$DIMTP
 40
0.01
  9
$DIMTM
 40
0.01
  9
$DIMGAP
 40
0.625
  9
$DIMDSEP
 70
44
  9
$AUNITS
 70
0
  9
$PDMODE
 70
3
  9
$PDSIZE
 40
3.0
  9
$HANDSEED
  5
42B
  9
$TILEMODE
 70
1
  9
$MEASUREMENT
 70
1
  9
$INSUNITS
 70
4
  0
ENDSEC
  0
SECTION
  2
CLASSES
  0
CLASS
  1
ACDBDICTIONARYWDFLT
  2
AcDbDictionaryWithDefault
  3
AutoCAD 2000
 90
0
 91
1
280
0
281
0
  0
CLASS
  1
ACDBPLACEHOLDER
  2
AcDbPlaceHolder
  3
AutoCAD 2000
 90
0
 91
1
280
0
281
0
  0
CLASS
  1
LAYOUT
  2
AcDbLayout
  3
AutoCAD 2000
 90
0
 91
0
280
0
281
0
  0
ENDSEC
  0
SECTION
  2
TABLES
  0
TABLE
  2
VPORT
  5
8
100
AcDbSymbolTable
 70
2
  0
VPORT
  5
1F4
100
AcDbSymbolTableRecord
100
AcDbViewportTableRecord
  2
*ACTIVE
 70
0
 10
0.0
 20
0.0
 11
1.0
 21
1.0
 12
105.0
 22
148.5
 13
0.0
 23
0.0
 14
1.0
 24
1.0
 15
0.0
 25
0.0
 16
0.0
 26
0.0
 36
1.0
 17
0.0
 27
0.0
 37
0.0
 40
297.0
 41
0.7070707071
 42
50.0
 43
0.0
 44
0.0
 50
0.0
 51
0.0
 71
0
 72
100
 73
1
 74
1
 75
0
 76
0
 77
0
 78
0
  0
ENDTAB
  0
TABLE
  2
LTYPE
  5
5
100
AcDbSymbolTable
 70
6
  0
LTYPE
  5
14
100
AcDbSymbolTableRecord
100
AcDbLinetypeTableRecord
  2
BYBLOCK
 70
0
  3

 72
65
 73
0
 40
0.0
  0
LTYPE
  5
15
100
AcDbSymbolTableRecord
100
AcDbLinetypeTableRecord
  2
BYLAYER
 70
0
  3

 72
65
 73
0
 40
0.0
  0
LTYPE
  5
16
100
AcDbSymbolTableRecord
100
AcDbLinetypeTableRecord
  2
CONTINUOUS
 70
64
  3
Solid line
 72
65
 73
0
 40
0.0
  0
LTYPE
  5
1F5
100
AcDbSymbolTableRecord
100
AcDbLinetypeTableRecord
  2
CENTER
 70
64
  3
____ _ ____ _ ____ _ ____ _ ____ _ ____ _ ____
 72
65
 73
4
 40
0.6
 49
0.375
 74
0
 49
-0.075
 74
0
 49
0.075
 74
0
 49
-0.075
 74
0
  0
LTYPE
  5
1F6
100
AcDbSymbolTableRecord
100
AcDbLinetypeTableRecord
  2
HIDDEN
 70
64
  3
- - - - - - - - - - - - - - - - - - - -
 72
65
 73
2
 40
0.2
 49
0.1
 74
0
 49
-0.1
 74
0
  0
LTYPE
  5
1F7
100
AcDbSymbolTableRecord
100
AcDbLinetypeTableRecord
  2
PHANTOM
 70
64
  3
_____ _ _ _____ _ _ _____ _ _ _____
 72
65
 73
6
 40
0.8
 49
0.45
 74
0
 49
-0.05
 74
0
 49
0.1
 74
0
 49
-0.05
 74
0
 49
0.1
 74
0
 49
-0.05
 74
0
  0
LTYPE
  5
1F8
100
AcDbSymbolTableRecord
100
AcDbLinetypeTableRecord
  2
DOT
 70
64
  3
. . . . . . . . . . . . . . . . . . . .
 72
65
 73
2
 40
0.2
 49
0.1
 74
0
 49
-0.1
 74
0
  0
LTYPE
  5
1F9
100
AcDbSymbolTableRecord
100
AcDbLinetypeTableRecord
  2
DASHED
 70
64
  3
- - - - - - - - - - - - - - - - - - - -
 72
65
 73
2
 40
0.2
 49
0.1
 74
0
 49
-0.1
 74
0
  0
ENDTAB
  0
TABLE
  2
LAYER
  5
2
100
AcDbSymbolTable
 70
36
  0
LAYER
  5
10
100
AcDbSymbolTableRecord
100
AcDbLayerTableRecord
  2
0
 70
0
 62
7
  6
CONTINUOUS
370
-3
390
F
  0
LAYER
  5
1FA
100
AcDbSymbolTableRecord
100
AcDbLayerTableRecord
  2
DEFAULT_1
 70
0
 62
7
  6
CENTER
370
-3
390
F
  0
LAYER
  5
1FB
100
AcDbSymbolTableRecord
100
AcDbLayerTableRecord
  2
DEFAULT_2
 70
0
 62
7
  6
HIDDEN
370
-3
390
F
  0
LAYER
  5
1FC
100
AcDbSymbolTableRecord
100
AcDbLayerTableRecord
  2
DEFAULT_3
 70
0
 62
7
  6
PHANTOM
370
-3
390
F
  0
LAYER
  5
1FD
100
AcDbSymbolTableRecord
100
AcDbLayerTableRecord
  2
ASSI
 70
0
 62
7
  6
CONTINUOUS
370
-3
390
F
  0
LAYER
  5
1FE
100
AcDbSymbolTableRecord
100
AcDbLayerTableRecord
  2
COORDINATE
 70
0
 62
7
  6
CONTINUOUS
370
-3
390
F
  0
LAYER
  5
1FF
100
AcDbSymbolTableRecord
100
AcDbLayerTableRecord
  2
COPY_PUBLISH
 70
0
 62
7
  6
CONTINUOUS
370
-3
390
F
  0
LAYER
  5
200
100
AcDbSymbolTableRecord
100
AcDbLayerTableRecord
  2
COSMETICI
 70
0
 62
7
  6
CONTINUOUS
370
-3
390
F
  0
LAYER
  5
201
100
AcDbSymbolTableRecord
100
AcDbLayerTableRecord
  2
CURVE
 70
0
 62
7
  6
CONTINUOUS
370
-3
390
F
  0
LAYER
  5
202
100
AcDbSymbolTableRecord
100
AcDbLayerTableRecord
  2
DRAFT
 70
0
 62
7
  6
CONTINUOUS
370
-3
390
F
  0
LAYER
  5
203
100
AcDbSymbolTableRecord
100
AcDbLayerTableRecord
  2
IMPORT_IGES
 70
0
 62
7
  6
CONTINUOUS
370
-3
390
F
  0
LAYER
  5
204
100
AcDbSymbolTableRecord
100
AcDbLayerTableRecord
  2
INTF_1
 70
0
 62
7
  6
CONTINUOUS
370
-3
390
F
  0
LAYER
  5
205
100
AcDbSymbolTableRecord
100
AcDbLayerTableRecord
  2
INTF_11
 70
0
 62
7
  6
CONTINUOUS
370
-3
390
F
  0
LAYER
  5
206
100
AcDbSymbolTableRecord
100
AcDbLayerTableRecord
  2
INTF_8
 70
0
 62
7
  6
CONTINUOUS
370
-3
390
F
  0
LAYER
  5
207
100
AcDbSymbolTableRecord
100
AcDbLayerTableRecord
  2
NONE
 70
0
 62
7
  6
CONTINUOUS
370
-3
390
F
  0
LAYER
  5
208
100
AcDbSymbolTableRecord
100
AcDbLayerTableRecord
  2
NOTE
 70
0
 62
7
  6
CONTINUOUS
370
-3
390
F
  0
LAYER
  5
209
100
AcDbSymbolTableRecord
100
AcDbLayerTableRecord
  2
PIANI
 70
0
 62
7
  6
CONTINUOUS
370
-3
390
F
  0
LAYER
  5
20A
100
AcDbSymbolTableRecord
100
AcDbLayerTableRecord
  2
PUNTI
 70
0
 62
7
  6
CONTINUOUS
370
-3
390
F
  0
LAYER
  5
20B
100
AcDbSymbolTableRecord
100
AcDbLayerTableRecord
  2
RACCORDO
 70
0
 62
7
  6
CONTINUOUS
370
-3
390
F
  0
LAYER
  5
20C
100
AcDbSymbolTableRecord
100
AcDbLayerTableRecord
  2
RGB____0____0____0__
 70
0
 62
7
  6
CONTINUOUS
370
-3
390
F
  0
LAYER
  5
20D
100
AcDbSymbolTableRecord
100
AcDbLayerTableRecord
  2
SIMBOLI
 70
0
 62
7
  6
CONTINUOUS
370
-3
390
F
  0
LAYER
  5
20E
100
AcDbSymbolTableRecord
100
AcDbLayerTableRecord
  2
SMUSSO
 70
0
 62
7
  6
CONTINUOUS
370
-3
390
F
  0
LAYER
  5
20F
100
AcDbSymbolTableRecord
100
AcDbLayerTableRecord
  2
SNAPLINE
 70
0
 62
7
  6
CONTINUOUS
370
-3
390
F
  0
LAYER
  5
210
100
AcDbSymbolTableRecord
100
AcDbLayerTableRecord
  2
SUPERFICI
 70
0
 62
7
  6
CONTINUOUS
370
-3
390
F
  0
LAYER
  5
211
100
AcDbSymbolTableRecord
100
AcDbLayerTableRecord
  2
TRASH
 70
0
 62
7
  6
CONTINUOUS
370
-3
390
F
  0
ENDTAB
  0
TABLE
  2
STYLE
  5
3
100
AcDbSymbolTable
 70
1
  0
STYLE
  5
11
100
AcDbSymbolTableRecord
100
AcDbTextStyleTableRecord
  2
STANDARD
 70
0
 40
0.0
 41
0.8
 50
0.0
 71
0
 42
0.2
  3
txt
  4

  0
STYLE
  5
212
100
AcDbSymbolTableRecord
100
AcDbTextStyleTableRecord
  2
TEXTSTYLE_1
 70
0
 40
0.0
 41
0.8
 50
0.0
 71
0
 42
0.2
  3
gdt
  4

  0
ENDTAB
  0
TABLE
  2
VIEW
  5
6
100
AcDbSymbolTable
 70
0
  0
ENDTAB
  0
TABLE
  2
UCS
  5
7
100
AcDbSymbolTable
 70
0
  0
ENDTAB
  0
TABLE
  2
APPID
  5
9
100
AcDbSymbolTable
 70
1
  0
APPID
  5
213
100
AcDbSymbolTableRecord
100
AcDbRegAppTableRecord
  2
ACAD
 70
0
  0
ENDTAB
  0
TABLE
  2
BLOCK_RECORD
  5
1
100
AcDbSymbolTable
 70
0
  0
BLOCK_RECORD
  5
214
100
AcDbSymbolTableRecord
100
AcDbBlockTableRecord
  2
*Model_Space
  0
BLOCK_RECORD
  5
215
100
AcDbSymbolTableRecord
100
AcDbBlockTableRecord
  2
*Paper_Space
  0
BLOCK_RECORD
  5
216
100
AcDbSymbolTableRecord
100
AcDbBlockTableRecord
  2
_FILLED
  0
ENDTAB
  0
TABLE
  2
DIMSTYLE
  5
A
100
AcDbSymbolTable
 70
1
100
AcDbDimStyleTable
 71
0
  0
DIMSTYLE
105
217
100
AcDbSymbolTableRecord
100
AcDbDimStyleTableRecord
  2
STANDARD
 70
0
  3

  4

 40
1.0
 41
3.0
 42
0.5
 43
0.38
 44
1.5
 45
0.0
 46
0.0
 47
0.01
 48
0.01
140
3.0
141
0.09
142
0.0
143
25.4
144
1.0
145
0.0
146
1.0
147
0.625
 71
1
 72
0
 73
0
 74
0
 75
0
 76
0
 77
1
 78
8
 79
2
170
0
171
1
172
0
173
0
174
0
175
0
176
0
177
0
178
0
270
2
179
2
271
2
272
2
273
2
274
2
275
0
280
0
281
0
282
0
283
1
284
8
285
0
286
0
287
3
288
0
340
11
278
44
341
216
342
216
343
216
344
216
  0
ENDTAB
  0
ENDSEC
  0
SECTION
  2
BLOCKS
  0
BLOCK
  5
20
100
AcDbEntity
  8
0
100
AcDbBlockBegin
  2
*Model_Space
 70
0
 10
0.0
 20
0.0
 30
0.0
  3
*Model_Space
  1

  0
ENDBLK
  5
21
100
AcDbEntity
  8
0
100
AcDbBlockEnd
  0
BLOCK
  5
1C
100
AcDbEntity
  8
0
100
AcDbBlockBegin
  2
*Paper_Space
 70
0
 10
0.0
 20
0.0
 30
0.0
  3
*Paper_Space
  1

  0
ENDBLK
  5
1D
100
AcDbEntity
  8
0
100
AcDbBlockEnd
  0
BLOCK
  5
218
100
AcDbEntity
  8
0
100
AcDbBlockBegin
  2
_FILLED
 70
64
 10
0.0
 20
0.0
  3
_FILLED
  1

  0
SOLID
  5
219
100
AcDbEntity
  8
0
  6
BYBLOCK
 62
0
100
AcDbTrace
 10
0.0
 20
0.0
 11
-1.0
 21
0.3166666667
 12
-1.0
 22
-0.3166666667
 13
-1.0
 23
-0.3166666667
  0
ENDBLK
  5
21A
100
AcDbEntity
  8
0
  6
BYBLOCK
 62
0
100
AcDbBlockEnd
  0
ENDSEC
  0
SECTION
  2
ENTITIES
  0
LWPOLYLINE
  5
21B
100
AcDbEntity
  8
ASSI
100
AcDbPolyline
 62
7
  6
CONTINUOUS
 90
15
 70
0
 10
-30.8958620756
 20
52.1546813118
 10
-30.918353195
 20
52.1395854872
 10
-30.9546130976
 20
52.1119355848
 10
-30.9889865252
 20
52.0813408686
 10
-31.0211835434
 20
52.0479792044
 10
-31.0510094705
 20
52.0119899911
 10
-31.0783476747
 20
51.973423717
 10
-31.103002048
 20
51.9324340939
 10
-31.1247668799
 20
51.8892523297
 10
-31.1435397296
 20
51.8439865335
 10
-31.1592055294
 20
51.7967775858
 10
-31.1716375607
 20
51.7478453098
 10
-31.1807682311
 20
51.6973128864
 10
-31.1865429158
 20
51.6452910673
 10
-31.1882349663
 20
51.616755696
  0
LINE
  5
21C
100
AcDbEntity
  8
ASSI
100
AcDbLine
 62
7
  6
CONTINUOUS
 10
-30.8960275637
 20
52.1545793707
 11
-29.8200915303
 21
52.8426279905
  0
LINE
  5
21D
100
AcDbEntity
  8
ASSI
100
AcDbLine
 62
250
  6
CONTINUOUS
 10
-30.4857226659
 20
52.1212445212
 11
-29.409860169
 21
52.8092461154
  0
LWPOLYLINE
  5
21E
100
AcDbEntity
  8
ASSI
100
AcDbPolyline
 62
250
  6
CONTINUOUS
 90
22
 70
0
 10
-31.0704458145
 20
-17.3724272694
 10
-31.0684050935
 20
-17.3914518296
 10
-31.0652953887
 20
-17.4109702093
 10
-31.061109157
 20
-17.4309781022
 10
-31.0558015234
 20
-17.4515920879
 10
-31.0494018526
 20
-17.472686722
 10
-31.0420156543
 20
-17.4938956463
 10
-31.0336220585
 20
-17.5152149846
 10
-31.0242310132
 20
-17.536642403
 10
-31.0139986218
 20
-17.5578163909
 10
-31.0029095957
 20
-17.5787325634
 10
-30.9909752172
 20
-17.5993930877
 10
-30.978396802
 20
-17.6194493818
 10
-30.9651668587
 20
-17.6388926988
 10
-30.9512967626
 20
-17.6577341343
 10
-30.9370214824
 20
-17.6756579689
 10
-30.9223385065
 20
-17.6926540578
 10
-30.9072611294
 20
-17.7087388964
 10
-30.8920523926
 20
-17.7236392452
 10
-30.8768057295
 20
-17.7372673881
 10
-30.8614430607
 20
-17.7497200357
 10
-30.8459718507
 20
-17.7610015643
  0
LWPOLYLINE
  5
21F
100
AcDbEntity
  8
ASSI
100
AcDbPolyline
 62
7
  6
CONTINUOUS
 90
6
 70
0
 10
-31.1882387819
 20
51.6166644748
 10
-31.2233142592
 20
50.5254673369
 10
-31.2436388415
 20
49.35397462
 10
-31.2525023925
 20
48.1611913147
 10
-31.2549921225
 20
46.9438456819
 10
-31.2520059081
 20
43.1299964344
  0
LINE
  5
220
100
AcDbEntity
  8
ASSI
100
AcDbLine
 62
7
  6
CONTINUOUS
 10
-31.1882349663
 20
51.616755696
 11
-31.1882387808
 21
51.6166644748
  0
LWPOLYLINE
  5
221
100
AcDbEntity
  8
ASSI
100
AcDbPolyline
 62
250
  6
CONTINUOUS
 90
19
 70
0
 10
-30.8459017065
 20
51.5600963183
 10
-30.8421015235
 20
51.5948744521
 10
-30.8358989658
 20
51.630464655
 10
-30.8273347981
 20
51.6666330356
 10
-30.816465307
 20
51.7031418982
 10
-30.8033619255
 20
51.7397513208
 10
-30.7881107612
 20
51.7762207316
 10
-30.7708120382
 20
51.812310468
 10
-30.7515794411
 20
51.8477833522
 10
-30.7305393614
 20
51.8824062652
 10
-30.707830069
 20
51.9159516739
 10
-30.6836008038
 20
51.9481991263
 10
-30.6580107941
 20
51.9789366997
 10
-30.6312281837
 20
52.0079624227
 10
-30.6034290066
 20
52.0350855133
 10
-30.5747960394
 20
52.0601276525
 10
-30.5455174864
 20
52.0829242679
 10
-30.5157857335
 20
52.1033255949
 10
-30.4857961702
 20
52.1211975857
  0
LWPOLYLINE
  5
222
100
AcDbEntity
  8
ASSI
100
AcDbPolyline
 62
250
  6
CONTINUOUS
 90
22
 70
0
 10
28.7408288137
 20
-52.1656765832
 10
28.7576986525
 20
-52.1730673493
 10
28.77427293
 20
-52.1790540812
 10
28.7905583562
 20
-52.1836319708
 10
28.8066505452
 20
-52.1868047608
 10
28.8224676642
 20
-52.1885588206
 10
28.8377487513
 20
-52.18886436
 10
28.8524881032
 20
-52.1876937499
 10
28.8667011372
 20
-52.185067647
 10
28.8801546945
 20
-52.1810314824
 10
28.8928383176
 20
-52.1755615636
 10
28.9047660135
 20
-52.1686790393
 10
28.9157365484
 20
-52.160500037
 10
28.9257321242
 20
-52.1510056357
 10
28.9347670519
 20
-52.1402172719
 10
28.9426834877
 20
-52.1283150458
 10
28.9494574294
 20
-52.1152868787
 10
28.9551032178
 20
-52.1011518014
 10
28.9595166859
 20
-52.0861393402
 10
28.9626580143
 20
-52.0703296685
 10
28.9645533679
 20
-52.0536524263
 10
28.9651960817
 20
-52.0361123982
  0
LWPOLYLINE
  5
223
100
AcDbEntity
  8
ASSI
100
AcDbPolyline
 62
250
  6
CONTINUOUS
 90
8
 70
0
 10
28.7408288137
 20
-52.1656765832
 10
28.442391246
 20
-52.0205241294
 10
28.1469119004
 20
-51.8728620533
 10
27.8540373782
 20
-51.7229476612
 10
27.5629455343
 20
-51.5706208808
 10
27.2738722394
 20
-51.416466874
 10
26.9881090843
 20
-51.2618187916
 10
26.7068615925
 20
-51.1076104307
  0
LWPOLYLINE
  5
224
100
AcDbEntity
  8
ASSI
100
AcDbPolyline
 62
7
  6
CONTINUOUS
 90
15
 70
0
 10
28.8431531731
 20
-52.3606618844
 10
28.8738554235
 20
-52.3759158526
 10
28.9215854693
 20
-52.3964486231
 10
28.9696397993
 20
-52.4133529847
 10
29.0178992669
 20
-52.4266313434
 10
29.0662433287
 20
-52.4362957703
 10
29.1144195918
 20
-52.4423519614
 10
29.1622496673
 20
-52.4448347055
 10
29.2096116022
 20
-52.4437840979
 10
29.2562102389
 20
-52.4392650019
 10
29.3018200955
 20
-52.4313707569
 10
29.3463622217
 20
-52.4201717812
 10
29.389630716
 20
-52.4057600995
 10
29.4313271527
 20
-52.3882934124
 10
29.4553044678
 20
-52.3765204474
  0
LINE
  5
225
100
AcDbEntity
  8
ASSI
100
AcDbLine
 62
7
  6
CONTINUOUS
 10
28.8430635754
 20
-52.3606158936
 11
28.8431528064
 21
-52.3606625849
  0
LWPOLYLINE
  5
226
100
AcDbEntity
  8
ASSI
100
AcDbPolyline
 62
250
  6
CONTINUOUS
 90
10
 70
0
 10
-31.0704629012
 20
-17.3723200881
 10
-31.0953251478
 20
-17.3535817335
 10
-31.1175141153
 20
-17.3336108371
 10
-31.1368839392
 20
-17.3125386832
 10
-31.153307287
 20
-17.2905037956
 10
-31.1666761965
 20
-17.2676510263
 10
-31.1769027847
 20
-17.2441306027
 10
-31.1839198246
 20
-17.2200971421
 10
-31.1876811875
 20
-17.1957086351
 10
-31.1881905964
 20
-17.1879009561
  0
LWPOLYLINE
  5
227
100
AcDbEntity
  8
ASSI
100
AcDbPolyline
 62
250
  6
CONTINUOUS
 90
8
 70
0
 10
-31.0704458145
 20
-17.3724272694
 10
-31.0943733662
 20
-17.0387100543
 10
-31.1146295119
 20
-16.7048271788
 10
-31.1316031752
 20
-16.3710232735
 10
-31.1455687376
 20
-16.0369217762
 10
-31.1568972097
 20
-15.7033018899
 10
-31.1660658146
 20
-15.3721064469
 10
-31.1732725171
 20
-15.045444924
  0
LWPOLYLINE
  5
228
100
AcDbEntity
  8
ASSI
100
AcDbPolyline
 62
7
  6
CONTINUOUS
 90
19
 70
0
 10
-31.1882057379
 20
-17.1875450802
 10
-31.187245692
 20
-17.2052404551
 10
-31.1819254653
 20
-17.2593933717
 10
-31.1731753738
 20
-17.3132108265
 10
-31.1610777049
 20
-17.3668443636
 10
-31.1457230782
 20
-17.4201877711
 10
-31.1273266678
 20
-17.4727308186
 10
-31.1059555822
 20
-17.5244669033
 10
-31.0816353153
 20
-17.575370209
 10
-31.0546813874
 20
-17.6248009503
 10
-31.0251495434
 20
-17.6727210262
 10
-30.9930461647
 20
-17.719064775
 10
-30.9587711941
 20
-17.7632440461
 10
-30.9223348421
 20
-17.8052241238
 10
-30.8837090235
 20
-17.8449489598
 10
-30.8432251808
 20
-17.8819836759
 10
-30.8009323827
 20
-17.9161991409
 10
-30.7566609379
 20
-17.9475984149
 10
-30.7447534032
 20
-17.9553199727
  0
LWPOLYLINE
  5
229
100
AcDbEntity
  8
ASSI
100
AcDbPolyline
 62
250
  6
CONTINUOUS
 90
7
 70
0
 10
-31.2751168389
 20
17.1623499508
 10
-31.2744343569
 20
17.1472712901
 10
-31.2706744132
 20
17.123951838
 10
-31.2636530712
 20
17.1008850945
 10
-31.2534165403
 20
17.0782228682
 10
-31.2400321899
 20
17.0561143053
 10
-31.223588106
 20
17.0347049081
  0
LINE
  5
22A
100
AcDbEntity
  8
ASSI
100
AcDbLine
 62
7
  6
CONTINUOUS
 10
-31.1881905964
 20
-17.1879009561
 11
-31.1882058767
 21
-17.1875450861
  0
LWPOLYLINE
  5
22B
100
AcDbEntity
  8
ASSI
100
AcDbPolyline
 62
250
  6
CONTINUOUS
 90
10
 70
0
 10
-31.1882387808
 20
51.6166644748
 10
-31.1876810469
 20
51.5961013007
 10
-31.1839196772
 20
51.5739036558
 10
-31.1769026323
 20
51.5518511818
 10
-31.1666760404
 20
51.5300888463
 10
-31.1533071288
 20
51.5087597097
 10
-31.1368837816
 20
51.4880039846
 10
-31.1175139617
 20
51.4679581142
 10
-31.0953250018
 20
51.4487538753
 10
-31.0704627669
 20
51.4305175118
  0
LINE
  5
22C
100
AcDbEntity
  8
ASSI
100
AcDbLine
 62
250
  6
CONTINUOUS
 10
-31.1732725171
 20
-15.045444924
 11
-31.1830430183
 21
-14.3962297913
  0
LINE
  5
22D
100
AcDbEntity
  8
ASSI
100
AcDbLine
 62
250
  6
CONTINUOUS
 10
-31.1830430183
 20
-14.3962297913
 11
-31.1884309711
 21
-13.7433672722
  0
LINE
  5
22E
100
AcDbEntity
  8
ASSI
100
AcDbLine
 62
250
  6
CONTINUOUS
 10
-31.2074832345
 20
-1.8681220268
 11
-31.2157687621
 21
0.9631871627
  0
LINE
  5
22F
100
AcDbEntity
  8
ASSI
100
AcDbLine
 62
7
  6
CONTINUOUS
 10
-31.2689869294
 20
0.2004892526
 11
-31.252564255
 21
-6.8583475694
  0
LINE
  5
230
100
AcDbEntity
  8
ASSI
100
AcDbLine
 62
250
  6
CONTINUOUS
 10
-31.1884309711
 20
-13.7433672722
 11
-31.191618519
 21
-12.7183220783
  0
LINE
  5
231
100
AcDbEntity
  8
ASSI
100
AcDbLine
 62
250
  6
CONTINUOUS
 10
-31.1859114118
 20
-7.6655447507
 11
-31.2074832345
 21
-1.8681220268
  0
LWPOLYLINE
  5
232
100
AcDbEntity
  8
ASSI
100
AcDbPolyline
 62
7
  6
CONTINUOUS
 90
5
 70
0
 10
-31.2551295335
 20
-12.2091126837
 10
-31.2535376755
 20
-13.5034803578
 10
-31.2459562065
 20
-14.778310637
 10
-31.2259086659
 20
-16.0296172946
 10
-31.1881905964
 20
-17.1879009561
  0
LINE
  5
233
100
AcDbEntity
  8
ASSI
100
AcDbLine
 62
250
  6
CONTINUOUS
 10
-31.2157687621
 20
0.9631871627
 11
-31.2207004585
 21
4.1185073726
  0
LINE
  5
234
100
AcDbEntity
  8
ASSI
100
AcDbLine
 62
7
  6
CONTINUOUS
 10
-31.252564255
 20
-6.8583475694
 11
-31.2517418687
 21
-8.2206320888
  0
LINE
  5
235
100
AcDbEntity
  8
ASSI
100
AcDbLine
 62
7
  6
CONTINUOUS
 10
-31.2741940739
 20
6.1533644227
 11
-31.2689869294
 21
0.2004892526
  0
LINE
  5
236
100
AcDbEntity
  8
ASSI
100
AcDbLine
 62
250
  6
CONTINUOUS
 10
-31.2207004585
 20
4.1185073726
 11
-31.2230430115
 21
8.5794312359
  0
LINE
  5
237
100
AcDbEntity
  8
ASSI
100
AcDbLine
 62
7
  6
CONTINUOUS
 10
-31.2520059081
 20
43.1299964344
 11
-31.2519238967
 21
41.8028899147
  0
LINE
  5
238
100
AcDbEntity
  8
ASSI
100
AcDbLine
 62
250
  6
CONTINUOUS
 10
-31.2230430115
 20
8.5794312359
 11
-31.2231110112
 21
25.1492985351
  0
LINE
  5
239
100
AcDbEntity
  8
ASSI
100
AcDbLine
 62
7
  6
CONTINUOUS
 10
-31.2702644335
 20
33.2713715429
 11
-31.2741940739
 21
6.1533644227
  0
LINE
  5
23A
100
AcDbEntity
  8
ASSI
100
AcDbLine
 62
250
  6
CONTINUOUS
 10
-31.2231110112
 20
25.1492985351
 11
-31.2194105965
 21
31.0525732309
  0
LINE
  5
23B
100
AcDbEntity
  8
ASSI
100
AcDbLine
 62
7
  6
CONTINUOUS
 10
-31.2517418687
 20
-8.2206320888
 11
-31.2551295335
 21
-12.2091126837
  0
LINE
  5
23C
100
AcDbEntity
  8
ASSI
100
AcDbLine
 62
250
  6
CONTINUOUS
 10
-31.191618519
 20
-12.7183220783
 11
-31.191002292
 21
-11.2197033715
  0
LINE
  5
23D
100
AcDbEntity
  8
ASSI
100
AcDbLine
 62
250
  6
CONTINUOUS
 10
-31.1864938995
 20
41.2870209088
 11
-31.1906712778
 21
47.2774124945
  0
LINE
  5
23E
100
AcDbEntity
  8
ASSI
100
AcDbLine
 62
250
  6
CONTINUOUS
 10
-31.2194105965
 20
31.0525732309
 11
-31.2145765884
 21
33.6161251987
  0
LINE
  5
23F
100
AcDbEntity
  8
ASSI
100
AcDbLine
 62
250
  6
CONTINUOUS
 10
-31.191002292
 20
-11.2197033715
 11
-31.1859114118
 21
-7.6655447507
  0
LWPOLYLINE
  5
240
100
AcDbEntity
  8
ASSI
100
AcDbPolyline
 62
7
  6
CONTINUOUS
 90
4
 70
0
 10
-31.2519238967
 20
41.8028899147
 10
-31.2572944721
 20
39.0648441364
 10
-31.2612492096
 20
37.6547281358
 10
-31.2702644335
 20
33.2713715429
  0
LINE
  5
241
100
AcDbEntity
  8
ASSI
100
AcDbLine
 62
250
  6
CONTINUOUS
 10
-31.2145765884
 20
33.6161251987
 11
-31.20745368
 21
35.9429473627
  0
LINE
  5
242
100
AcDbEntity
  8
ASSI
100
AcDbLine
 62
250
  6
CONTINUOUS
 10
-31.20745368
 20
35.9429473627
 11
-31.1864938995
 21
41.2870209088
  0
LINE
  5
243
100
AcDbEntity
  8
ASSI
100
AcDbLine
 62
250
  6
CONTINUOUS
 10
-31.1906712778
 20
47.2774124945
 11
-31.1878969468
 21
47.8971066296
  0
LINE
  5
244
100
AcDbEntity
  8
ASSI
100
AcDbLine
 62
250
  6
CONTINUOUS
 10
-31.1878969468
 20
47.8971066296
 11
-31.1825257329
 21
48.506893731
  0
LWPOLYLINE
  5
245
100
AcDbEntity
  8
ASSI
100
AcDbPolyline
 62
250
  6
CONTINUOUS
 90
12
 70
0
 10
-31.1825257329
 20
48.506893731
 10
-31.1736478713
 20
49.0869597416
 10
-31.1677905329
 20
49.363516719
 10
-31.160950996
 20
49.6288560964
 10
-31.1531183733
 20
49.8842276752
 10
-31.1442995566
 20
50.1303345608
 10
-31.1344897094
 20
50.3668034181
 10
-31.1236860418
 20
50.594012893
 10
-31.1118882971
 20
50.8137981113
 10
-31.0990869126
 20
51.0267752349
 10
-31.085279895
 20
51.2323341999
 10
-31.0704705223
 20
51.430473982
  0
LWPOLYLINE
  5
246
100
AcDbEntity
  8
ASSI
100
AcDbPolyline
 62
250
  6
CONTINUOUS
 90
13
 70
0
 10
-0.8195409382
 20
34.8624467771
 10
-0.8535270588
 20
34.8398987483
 10
-0.8871113928
 20
34.8138179505
 10
-0.919981882
 20
34.7844467208
 10
-0.9518331008
 20
34.7520579704
 10
-0.9823690945
 20
34.7169526484
 10
-1.0113061293
 20
34.6794569459
 10
-1.0383753286
 20
34.6399192649
 10
-1.063325171
 20
34.598706981
 10
-1.0859238281
 20
34.5562030299
 10
-1.105961318
 20
34.512802349
 10
-1.1232514567
 20
34.4689082081
 10
-1.1376335879
 20
34.4249284621
  0
LINE
  5
247
100
AcDbEntity
  8
ASSI
100
AcDbLine
 62
250
  6
CONTINUOUS
 10
26.7068615925
 20
-51.1076104307
 11
26.150246133
 21
-50.7974912316
  0
LINE
  5
248
100
AcDbEntity
  8
ASSI
100
AcDbLine
 62
250
  6
CONTINUOUS
 10
26.150246133
 20
-50.7974912316
 11
25.5945263988
 21
-50.4832240583
  0
LWPOLYLINE
  5
249
100
AcDbEntity
  8
ASSI
100
AcDbPolyline
 62
7
  6
CONTINUOUS
 90
4
 70
0
 10
25.8240281144
 20
-50.6906118408
 10
26.8614085216
 20
-51.2793297915
 10
27.8857569683
 20
-51.8477284687
 10
28.8430635754
 20
-52.3606158936
  0
LINE
  5
24A
100
AcDbEntity
  8
ASSI
100
AcDbLine
 62
250
  6
CONTINUOUS
 10
25.5945263988
 20
-50.4832240583
 11
24.4310394038
 21
-49.8178956418
  0
LINE
  5
24B
100
AcDbEntity
  8
ASSI
100
AcDbLine
 62
7
  6
CONTINUOUS
 10
14.1902769175
 20
-44.0116222453
 11
19.130125102
 21
-46.8419330104
  0
LINE
  5
24C
100
AcDbEntity
  8
ASSI
100
AcDbLine
 62
7
  6
CONTINUOUS
 10
19.130125102
 20
-46.8419330104
 11
21.4587784761
 21
-48.1791562544
  0
LINE
  5
24D
100
AcDbEntity
  8
ASSI
100
AcDbLine
 62
250
  6
CONTINUOUS
 10
12.6193684388
 20
-43.0594085478
 11
10.0696986412
 21
-41.5952004863
  0
LWPOLYLINE
  5
24E
100
AcDbEntity
  8
ASSI
100
AcDbPolyline
 62
250
  6
CONTINUOUS
 90
3
 70
0
 10
24.4310394038
 20
-49.8178956418
 10
22.8107924604
 20
-48.8866142075
 10
12.6193684388
 20
-43.0594085478
  0
LINE
  5
24F
100
AcDbEntity
  8
ASSI
100
AcDbLine
 62
7
  6
CONTINUOUS
 10
10.2592416634
 20
-41.7512957038
 11
14.1902769175
 21
-44.0116222453
  0
LWPOLYLINE
  5
250
100
AcDbEntity
  8
ASSI
100
AcDbPolyline
 62
7
  6
CONTINUOUS
 90
3
 70
0
 10
21.4587784761
 20
-48.1791562544
 10
23.6885144851
 20
-49.4634551685
 10
25.8240281144
 20
-50.6906118408
  0
LINE
  5
251
100
AcDbEntity
  8
ASSI
100
AcDbLine
 62
250
  6
CONTINUOUS
 10
10.0696986412
 20
-41.5952004863
 11
7.2478892339
 21
-39.9697480465
  0
LINE
  5
252
100
AcDbEntity
  8
ASSI
100
AcDbLine
 62
7
  6
CONTINUOUS
 10
-7.6569483466
 20
-31.4098010943
 11
10.2592416634
 21
-41.7512957038
  0
LINE
  5
253
100
AcDbEntity
  8
ASSI
100
AcDbLine
 62
250
  6
CONTINUOUS
 10
7.2478892339
 20
-39.9697480465
 11
-7.6315955812
 21
-31.3794239374
  0
LINE
  5
254
100
AcDbEntity
  8
ASSI
100
AcDbLine
 62
7
  6
CONTINUOUS
 10
-12.3696964236
 20
-28.6856351395
 11
-7.6569483466
 21
-31.4098010943
  0
LINE
  5
255
100
AcDbEntity
  8
ASSI
100
AcDbLine
 62
250
  6
CONTINUOUS
 10
-7.6315955812
 20
-31.3794239374
 11
-11.0955032386
 21
-29.3768613977
  0
LINE
  5
256
100
AcDbEntity
  8
ASSI
100
AcDbLine
 62
7
  6
CONTINUOUS
 10
-15.3705310599
 20
-26.9465686929
 11
-12.3696964236
 21
-28.6856351395
  0
LINE
  5
257
100
AcDbEntity
  8
ASSI
100
AcDbLine
 62
7
  6
CONTINUOUS
 10
-23.6627110828
 20
-22.1262974071
 11
-22.3541363639
 21
-22.8850039783
  0
LINE
  5
258
100
AcDbEntity
  8
ASSI
100
AcDbLine
 62
250
  6
CONTINUOUS
 10
-11.0955032386
 20
-29.3768613977
 11
-13.5791857743
 21
-27.9374351419
  0
LWPOLYLINE
  5
259
100
AcDbEntity
  8
ASSI
100
AcDbPolyline
 62
7
  6
CONTINUOUS
 90
3
 70
0
 10
-22.3541363639
 20
-22.8850039783
 10
-19.64970733
 20
-24.4581609981
 10
-15.3705310599
 20
-26.9465686929
  0
LINE
  5
25A
100
AcDbEntity
  8
ASSI
100
AcDbLine
 62
250
  6
CONTINUOUS
 10
-13.5791857743
 20
-27.9374351419
 11
-15.8353129809
 21
-26.6256016248
  0
LINE
  5
25B
100
AcDbEntity
  8
ASSI
100
AcDbLine
 62
250
  6
CONTINUOUS
 10
-21.4553724968
 20
-23.3414867223
 11
-26.585854181
 21
-20.3616181493
  0
LINE
  5
25C
100
AcDbEntity
  8
ASSI
100
AcDbLine
 62
250
  6
CONTINUOUS
 10
-15.8353129809
 20
-26.6256016248
 11
-17.8885366336
 21
-25.4276361597
  0
LINE
  5
25D
100
AcDbEntity
  8
ASSI
100
AcDbLine
 62
250
  6
CONTINUOUS
 10
-26.585854181
 20
-20.3616181493
 11
-27.7561047353
 21
-19.6796645341
  0
LINE
  5
25E
100
AcDbEntity
  8
ASSI
100
AcDbLine
 62
250
  6
CONTINUOUS
 10
-17.8885366336
 20
-25.4276361597
 11
-21.4553724968
 21
-23.3414867223
  0
LINE
  5
25F
100
AcDbEntity
  8
ASSI
100
AcDbLine
 62
250
  6
CONTINUOUS
 10
-27.7561047353
 20
-19.6796645341
 11
-28.3108399775
 21
-19.3530883603
  0
LWPOLYLINE
  5
260
100
AcDbEntity
  8
ASSI
100
AcDbPolyline
 62
250
  6
CONTINUOUS
 90
6
 70
0
 10
-1.0602980355
 20
-35.2184782585
 10
-1.0633251736
 20
-35.2166875763
 10
-1.0859238303
 20
-35.2002799877
 10
-1.1059613196
 20
-35.1800180975
 10
-1.1232514576
 20
-35.156090175
 10
-1.1376335879
 20
-35.1287185531
  0
LWPOLYLINE
  5
261
100
AcDbEntity
  8
ASSI
100
AcDbPolyline
 62
250
  6
CONTINUOUS
 90
11
 70
0
 10
-28.3108399775
 20
-19.3530883603
 10
-28.824909398
 20
-19.0462844573
 10
-29.0672929311
 20
-18.899772626
 10
-29.2991961041
 20
-18.7581855349
 10
-29.5211576065
 20
-18.6212061454
 10
-29.7345204311
 20
-18.4880173997
 10
-29.9393461021
 20
-18.358544721
 10
-30.1355402504
 20
-18.2328501206
 10
-30.3241982392
 20
-18.1103131227
 10
-30.5056753974
 20
-17.9907228901
 10
-30.6795992901
 20
-17.8742848126
  0
LWPOLYLINE
  5
262
100
AcDbEntity
  8
ASSI
100
AcDbPolyline
 62
7
  6
CONTINUOUS
 90
5
 70
0
 10
-30.7450674023
 20
-17.9551204512
 10
-29.7152431901
 20
-18.5940861271
 10
-28.5817714198
 20
-19.2711389438
 10
-27.4040686121
 20
-19.9594596683
 10
-23.6627110828
 20
-22.1262974071
  0
LINE
  5
263
100
AcDbEntity
  8
ASSI
100
AcDbLine
 62
7
  6
CONTINUOUS
 10
-30.7447534032
 20
-17.9553199727
 11
-30.7450673795
 21
-17.9551204153
  0
LWPOLYLINE
  5
264
100
AcDbEntity
  8
ASSI
100
AcDbPolyline
 62
250
  6
CONTINUOUS
 90
10
 70
0
 10
-30.7450673795
 20
-17.9551204153
 10
-30.7515788245
 20
-17.9507749015
 10
-30.7708113668
 20
-17.9353363837
 10
-30.7881100397
 20
-17.9172560966
 10
-30.8033611609
 20
-17.8966528587
 10
-30.8164645042
 20
-17.8736620692
 10
-30.827333958
 20
-17.8484348173
 10
-30.8358980912
 20
-17.8211368896
 10
-30.8421006227
 20
-17.7919476809
 10
-30.8459007912
 20
-17.7610590148
  0
LINE
  5
265
100
AcDbEntity
  8
ASSI
100
AcDbLine
 62
250
  6
CONTINUOUS
 10
-30.6795992901
 20
-17.8742848126
 11
-30.8459718507
 21
-17.7610015643
  0
LINE
  5
266
100
AcDbEntity
  8
RACCORDO
100
AcDbLine
 62
7
  6
CONTINUOUS
 10
-11.9336166026
 20
21.1787811748
 11
-11.9332577526
 21
21.1789221183
  0
LWPOLYLINE
  5
267
100
AcDbEntity
  8
0
100
AcDbPolyline
 62
7
  6
CONTINUOUS
 90
5
 70
0
 10
-1.1119296768
 20
-25.2796378507
 10
-1.1259656556
 20
-25.2810229457
 10
-1.1409129085
 20
-25.2806862649
 10
-1.1567878096
 20
-25.2786520353
 10
-1.1734713996
 20
-25.275201191
  0
LWPOLYLINE
  5
268
100
AcDbEntity
  8
0
100
AcDbPolyline
 62
7
  6
CONTINUOUS
 90
7
 70
0
 10
-1.1734713996
 20
-25.275201191
 10
-1.1909226974
 20
-25.270390656
 10
-1.2091832461
 20
-25.2641638308
 10
-1.2282576847
 20
-25.2566312566
 10
-1.2481476297
 20
-25.2478298208
 10
-1.2688517155
 20
-25.2377227809
 10
-1.2903700179
 20
-25.2263101805
  0
LINE
  5
269
100
AcDbEntity
  8
RACCORDO
100
AcDbLine
 62
7
  6
CONTINUOUS
 10
-10.1012897481
 20
20.1165817228
 11
-10.5299152651
 21
19.8690987212
  0
LINE
  5
26A
100
AcDbEntity
  8
RACCORDO
100
AcDbLine
 62
250
  6
CONTINUOUS
 10
-9.9567870247
 20
20.0308913538
 11
-10.5299152651
 21
19.6999742908
  0
LINE
  5
26B
100
AcDbEntity
  8
RACCORDO
100
AcDbLine
 62
250
  6
CONTINUOUS
 10
-9.6076131263
 20
19.8242253932
 11
-10.5299152651
 21
19.2916996974
  0
LINE
  5
26C
100
AcDbEntity
  8
RACCORDO
100
AcDbLine
 62
250
  6
CONTINUOUS
 10
-8.9091145681
 20
19.4110199747
 11
-10.5299152651
 21
18.4751899657
  0
LINE
  5
26D
100
AcDbEntity
  8
RACCORDO
100
AcDbLine
 62
250
  6
CONTINUOUS
 10
-12.0711346978
 20
20.9349687422
 11
-11.7150728499
 21
21.074399974
  0
LINE
  5
26E
100
AcDbEntity
  8
0
100
AcDbLine
 62
7
  6
CONTINUOUS
 10
-1.8974077175
 20
-24.0761460458
 11
-1.9347932053
 21
-24.0605343309
  0
LWPOLYLINE
  5
26F
100
AcDbEntity
  8
0
100
AcDbPolyline
 62
7
  6
CONTINUOUS
 90
25
 70
0
 10
-1.9845441324
 20
-24.0892598927
 10
-1.9470543573
 20
-24.1049827522
 10
-1.9095557732
 20
-24.120963069
 10
-1.8720539592
 20
-24.1372389086
 10
-1.8345870334
 20
-24.1538363633
 10
-1.7971278878
 20
-24.1708030647
 10
-1.7595838214
 20
-24.1882117112
 10
-1.7219505498
 20
-24.206106539
 10
-1.6842423703
 20
-24.2245224776
 10
-1.6463939709
 20
-24.2435241415
 10
-1.6084053192
 20
-24.2631570863
 10
-1.5702863155
 20
-24.2834614302
 10
-1.5319864079
 20
-24.3044993479
 10
-1.4934723158
 20
-24.3263395627
 10
-1.4547874703
 20
-24.3490085504
 10
-1.4159964617
 20
-24.372504043
 10
-1.3771424748
 20
-24.3968499312
 10
-1.3381928358
 20
-24.4221081175
 10
-1.2991138306
 20
-24.4483464234
 10
-1.2599475182
 20
-24.4757132093
 10
-1.2208200003
 20
-24.5043086381
 10
-1.1818724663
 20
-24.534171134
 10
-1.1432108467
 20
-24.5653905051
 10
-1.1049076904
 20
-24.5981178718
 10
-1.067051942
 20
-24.6324740274
  0
LWPOLYLINE
  5
270
100
AcDbEntity
  8
0
100
AcDbPolyline
 62
7
  6
CONTINUOUS
 90
17
 70
0
 10
-1.3401917971
 20
-25.2550765966
 10
-1.3252881335
 20
-25.2630506119
 10
-1.3103567202
 20
-25.2706288356
 10
-1.2954669786
 20
-25.277736198
 10
-1.280725639
 20
-25.2842796907
 10
-1.2661571765
 20
-25.2902147207
 10
-1.2517057819
 20
-25.2955261049
 10
-1.237433389
 20
-25.300128481
 10
-1.2234080791
 20
-25.3039376615
 10
-1.209593457
 20
-25.3068977671
 10
-1.1959998832
 20
-25.3088993944
 10
-1.1827828633
 20
-25.3098016276
 10
-1.1701284577
 20
-25.3094917253
 10
-1.1581121385
 20
-25.3078612969
 10
-1.1468257881
 20
-25.304793297
 10
-1.136448517
 20
-25.3002360867
 10
-1.1342940539
 20
-25.2990391933
  0
LINE
  5
271
100
AcDbEntity
  8
RACCORDO
100
AcDbLine
 62
250
  6
CONTINUOUS
 10
3.7044775662
 20
-25.4133936172
 11
1.689135912
 21
-24.2881821203
  0
LINE
  5
272
100
AcDbEntity
  8
RACCORDO
100
AcDbLine
 62
250
  6
CONTINUOUS
 10
3.8944062565
 20
-25.0420657869
 11
1.8791477486
 21
-23.9162452803
  0
LWPOLYLINE
  5
273
100
AcDbEntity
  8
RACCORDO
100
AcDbPolyline
 62
250
  6
CONTINUOUS
 90
7
 70
0
 10
1.689135912
 20
-24.2881821203
 10
-0.1755544148
 20
-23.2415942497
 10
-1.0509591646
 20
-22.7475269482
 10
-1.8882788301
 20
-22.2728617562
 10
-2.6874987443
 20
-21.8175871303
 10
-3.4486635283
 20
-21.3817319091
 10
-4.1718538929
 20
-20.9653426939
  0
LINE
  5
274
100
AcDbEntity
  8
0
100
AcDbLine
 62
7
  6
CONTINUOUS
 10
-1.5520477491
 20
-25.133905046
 11
-1.3401917971
 21
-25.2550765966
  0
LINE
  5
275
100
AcDbEntity
  8
0
100
AcDbLine
 62
7
  6
CONTINUOUS
 10
-1.2903700656
 20
-25.2263101532
 11
-1.5022303377
 21
-25.105141097
  0
LINE
  5
276
100
AcDbEntity
  8
0
100
AcDbLine
 62
7
  6
CONTINUOUS
 10
-1.3097290229
 20
-25.5708292848
 11
-1.5084151402
 21
-25.4570998471
  0
LINE
  5
277
100
AcDbEntity
  8
0
100
AcDbLine
 62
7
  6
CONTINUOUS
 10
-0.5033840625
 20
-26.7378225502
 11
-0.8597280775
 21
-26.5337417352
  0
LINE
  5
278
100
AcDbEntity
  8
0
100
AcDbLine
 62
7
  6
CONTINUOUS
 10
-1.4267622533
 20
-26.2086734159
 11
-1.7953576062
 21
-25.9971405777
  0
LINE
  5
279
100
AcDbEntity
  8
0
100
AcDbLine
 62
7
  6
CONTINUOUS
 10
-2.9979096972
 20
-23.4869557151
 11
-2.6398711659
 21
-23.6923999204
  0
LINE
  5
27A
100
AcDbEntity
  8
0
100
AcDbLine
 62
7
  6
CONTINUOUS
 10
-2.590139749
 20
-23.6636856236
 11
-2.9481866389
 21
-23.4582462444
  0
LINE
  5
27B
100
AcDbEntity
  8
0
100
AcDbLine
 62
7
  6
CONTINUOUS
 10
-1.9040015258
 20
-25.9347558684
 11
-2.2938262165
 21
-25.710776167
  0
LINE
  5
27C
100
AcDbEntity
  8
0
100
AcDbLine
 62
7
  6
CONTINUOUS
 10
-2.8925581454
 20
-24.730290809
 11
-2.538514972
 21
-24.9338023606
  0
LINE
  5
27D
100
AcDbEntity
  8
0
100
AcDbLine
 62
7
  6
CONTINUOUS
 10
-2.5593505165
 20
-24.8644308714
 11
-2.8427326501
 21
-24.7015221925
  0
LINE
  5
27E
100
AcDbEntity
  8
0
100
AcDbLine
 62
7
  6
CONTINUOUS
 10
-2.4328634755
 20
-25.2732318901
 11
-2.9363447163
 21
-24.9836998792
  0
LINE
  5
27F
100
AcDbEntity
  8
0
100
AcDbLine
 62
7
  6
CONTINUOUS
 10
-2.9949104754
 20
-25.307393874
 11
-3.3602466688
 21
-25.0968880651
  0
LINE
  5
280
100
AcDbEntity
  8
0
100
AcDbLine
 62
7
  6
CONTINUOUS
 10
-3.4182267524
 20
-25.0634602645
 11
-3.7793273706
 21
-24.8551460704
  0
LINE
  5
281
100
AcDbEntity
  8
0
100
AcDbLine
 62
7
  6
CONTINUOUS
 10
-4.1421113123
 20
-22.8280370384
 11
-3.7769361768
 21
-23.0387436246
  0
LINE
  5
282
100
AcDbEntity
  8
0
100
AcDbLine
 62
7
  6
CONTINUOUS
 10
-3.7272246878
 20
-23.0100408339
 11
-4.0924009644
 21
-22.7993349065
  0
LINE
  5
283
100
AcDbEntity
  8
0
100
AcDbLine
 62
7
  6
CONTINUOUS
 10
-4.2937213739
 20
-24.5580172846
 11
-4.3454367222
 21
-24.528120376
  0
LINE
  5
284
100
AcDbEntity
  8
0
100
AcDbLine
 62
7
  6
CONTINUOUS
 10
-4.8573758448
 20
-24.2319307337
 11
-5.2097858712
 21
-24.027797944
  0
LWPOLYLINE
  5
285
100
AcDbEntity
  8
RACCORDO
100
AcDbPolyline
 62
250
  6
CONTINUOUS
 90
3
 70
0
 10
-4.1718538929
 20
-20.9653426939
 10
-4.9280318216
 20
-20.5273840991
 10
-5.6629061916
 20
-20.0994858698
  0
LINE
  5
286
100
AcDbEntity
  8
0
100
AcDbLine
 62
7
  6
CONTINUOUS
 10
-5.4080184566
 20
-23.9128887374
 11
-5.7761210309
 21
-23.6993569007
  0
LINE
  5
287
100
AcDbEntity
  8
0
100
AcDbLine
 62
7
  6
CONTINUOUS
 10
-5.2431113789
 20
-22.1903844806
 11
-4.8753489937
 21
-22.4037599891
  0
LINE
  5
288
100
AcDbEntity
  8
0
100
AcDbLine
 62
7
  6
CONTINUOUS
 10
-4.8256316531
 20
-22.3750538197
 11
-5.1933868352
 21
-22.1616741523
  0
LINE
  5
289
100
AcDbEntity
  8
0
100
AcDbLine
 62
7
  6
CONTINUOUS
 10
-6.4791101508
 20
-23.2910287203
 11
-6.8030954162
 21
-23.1026199396
  0
LINE
  5
28A
100
AcDbEntity
  8
0
100
AcDbLine
 62
7
  6
CONTINUOUS
 10
-5.9676378124
 20
-21.7688536757
 11
-5.6001767903
 21
-21.9827559367
  0
LINE
  5
28B
100
AcDbEntity
  8
0
100
AcDbLine
 62
7
  6
CONTINUOUS
 10
-5.550443589
 20
-21.9540406095
 11
-5.9178945042
 21
-21.740132513
  0
LINE
  5
28C
100
AcDbEntity
  8
0
100
AcDbLine
 62
7
  6
CONTINUOUS
 10
-6.4707411552
 20
-21.4755678014
 11
-6.103920354
 21
-21.6895482098
  0
LINE
  5
28D
100
AcDbEntity
  8
0
100
AcDbLine
 62
7
  6
CONTINUOUS
 10
-6.0541730912
 20
-21.6608247637
 11
-6.4209830317
 21
-21.4468380844
  0
LINE
  5
28E
100
AcDbEntity
  8
0
100
AcDbLine
 62
7
  6
CONTINUOUS
 10
-7.5486517359
 20
-20.8450480195
 11
-7.1506964424
 21
-21.078116563
  0
LINE
  5
28F
100
AcDbEntity
  8
0
100
AcDbLine
 62
7
  6
CONTINUOUS
 10
-7.1009188135
 20
-21.0493755839
 11
-7.4988642084
 21
-20.8163013251
  0
LINE
  5
290
100
AcDbEntity
  8
RACCORDO
100
AcDbLine
 62
250
  6
CONTINUOUS
 10
-5.6629061916
 20
-20.0994858698
 11
-7.0699214096
 21
-19.2745248204
  0
LINE
  5
291
100
AcDbEntity
  8
RACCORDO
100
AcDbLine
 62
250
  6
CONTINUOUS
 10
-7.0699214096
 20
-19.2745248204
 11
-8.3949832883
 21
-18.4917387557
  0
LINE
  5
292
100
AcDbEntity
  8
RACCORDO
100
AcDbLine
 62
250
  6
CONTINUOUS
 10
-8.3949832883
 20
-18.4917387557
 11
-9.6397778388
 21
-17.7523737253
  0
LWPOLYLINE
  5
293
100
AcDbEntity
  8
RACCORDO
100
AcDbPolyline
 62
250
  6
CONTINUOUS
 90
3
 70
0
 10
-9.6397778388
 20
-17.7523737253
 10
-11.3593031526
 20
-16.7266594819
 10
-11.8935808585
 20
-16.4072701724
  0
LWPOLYLINE
  5
294
100
AcDbEntity
  8
RACCORDO
100
AcDbPolyline
 62
250
  6
CONTINUOUS
 90
25
 70
0
 10
-11.8935808585
 20
-16.4072701724
 10
-11.9300040102
 20
-16.3841072578
 10
-11.965978177
 20
-16.3587565244
 10
-12.0015025729
 20
-16.3312175187
 10
-12.0366666979
 20
-16.3013940726
 10
-12.0713790101
 20
-16.269381175
 10
-12.1053670519
 20
-16.2354650442
 10
-12.1386757974
 20
-16.19958538
 10
-12.1712576639
 20
-16.1618009763
 10
-12.2027015406
 20
-16.1225767978
 10
-12.2329997459
 20
-16.0818746554
 10
-12.262157277
 20
-16.0397311881
 10
-12.2897825586
 20
-15.9967239025
 10
-12.3158286496
 20
-15.9528865616
 10
-12.3403402978
 20
-15.9081841359
 10
-12.3630641621
 20
-15.8630913471
 10
-12.3839378306
 20
-15.8178416739
 10
-12.4030222511
 20
-15.7722007922
 10
-12.4202492282
 20
-15.7259417814
 10
-12.435775706
 20
-15.6787260764
 10
-12.4494423605
 20
-15.6308908682
 10
-12.4607069502
 20
-15.5832230749
 10
-12.4693886649
 20
-15.5359849664
 10
-12.4756674271
 20
-15.4889137603
 10
-12.4795427053
 20
-15.4420091497
  0
LWPOLYLINE
  5
295
100
AcDbEntity
  8
0
100
AcDbPolyline
 62
7
  6
CONTINUOUS
 90
10
 70
0
 10
-1.3114290192
 20
-24.7564521891
 10
-1.3428935264
 20
-24.7352856101
 10
-1.3746359494
 20
-24.7150098282
 10
-1.4066104224
 20
-24.6956802901
 10
-1.4387537487
 20
-24.67736356
 10
-1.4710301954
 20
-24.6601074798
 10
-1.5034311917
 20
-24.6439476008
 10
-1.5359158476
 20
-24.6289416015
 10
-1.5684464814
 20
-24.6150253697
 10
-1.6010516265
 20
-24.6019160141
  0
LINE
  5
296
100
AcDbEntity
  8
RACCORDO
100
AcDbLine
 62
250
  6
CONTINUOUS
 10
-8.8328589902
 20
16.5974030209
 11
-10.5299152651
 21
15.6175439969
  0
LINE
  5
297
100
AcDbEntity
  8
RACCORDO
100
AcDbLine
 62
7
  6
CONTINUOUS
 10
-8.9364003007
 20
16.3685345903
 11
-10.5299152651
 21
15.4484590214
  0
LWPOLYLINE
  5
298
100
AcDbEntity
  8
RACCORDO
100
AcDbPolyline
 62
250
  6
CONTINUOUS
 90
16
 70
0
 10
-12.4795427053
 20
-15.4420091497
 10
-12.4576491715
 20
-15.453716673
 10
-12.433817314
 20
-15.463983577
 10
-12.4082856409
 20
-15.4727071112
 10
-12.3813096723
 20
-15.4797999712
 10
-12.3531593827
 20
-15.4851911719
 10
-12.3241164992
 20
-15.4888267582
 10
-12.2944716821
 20
-15.4906703452
 10
-12.2645216154
 20
-15.4907034826
 10
-12.2345660384
 20
-15.4889258388
 10
-12.2049047454
 20
-15.4853552044
 10
-12.1758345854
 20
-15.480027314
 10
-12.1476464915
 20
-15.4729954895
 10
-12.120622569
 20
-15.464330105
 10
-12.0950332722
 20
-15.454117883
 10
-12.0711346978
 20
-15.4424610271
  0
LWPOLYLINE
  5
299
100
AcDbEntity
  8
RACCORDO
100
AcDbPolyline
 62
250
  6
CONTINUOUS
 90
7
 70
0
 10
1.8791477486
 20
-23.9162452803
 10
0.0154036498
 20
-22.8690643069
 10
-0.8596590912
 20
-22.3749697503
 10
-1.696619763
 20
-21.9003763438
 10
-2.4954096068
 20
-21.4452352464
 10
-3.2560973816
 20
-21.0095952993
 10
-3.9786830873
 20
-20.5934565022
  0
LINE
  5
29A
100
AcDbEntity
  8
RACCORDO
100
AcDbLine
 62
7
  6
CONTINUOUS
 10
-10.1777072519
 20
-15.1626362526
 11
4.1033545431
 21
-23.4083423492
  0
LWPOLYLINE
  5
29B
100
AcDbEntity
  8
RACCORDO
100
AcDbPolyline
 62
250
  6
CONTINUOUS
 90
25
 70
0
 10
-11.6969476057
 20
-16.0398129528
 10
-11.7206145702
 20
-16.0261095064
 10
-11.7441218648
 20
-16.0108343071
 10
-11.7673828234
 20
-15.994074234
 10
-11.7902904583
 20
-15.9759533014
 10
-11.8127857962
 20
-15.9565376646
 10
-11.8348545561
 20
-15.9358171348
 10
-11.8564478745
 20
-15.9138442247
 10
-11.8774516096
 20
-15.8907428904
 10
-11.8977526909
 20
-15.8666021882
 10
-11.9172793616
 20
-15.8415126618
 10
-11.9359526095
 20
-15.8155908292
 10
-11.9536557499
 20
-15.7889739329
 10
-11.9703049844
 20
-15.7618019424
 10
-11.9858608637
 20
-15.7341636805
 10
-12.0002778149
 20
-15.706122863
 10
-12.0134352116
 20
-15.6779490509
 10
-12.0253549975
 20
-15.6496029537
 10
-12.0361502194
 20
-15.6206853728
 10
-12.0457744585
 20
-15.5911445279
 10
-12.0540447151
 20
-15.561303924
 10
-12.0608173698
 20
-15.5313446791
 10
-12.0659810249
 20
-15.5014386448
 10
-12.0694510902
 20
-15.471749825
 10
-12.0711343948
 20
-15.4424608521
  0
LWPOLYLINE
  5
29C
100
AcDbEntity
  8
RACCORDO
100
AcDbPolyline
 62
250
  6
CONTINUOUS
 90
3
 70
0
 10
-3.9786830873
 20
-20.5934565022
 10
-5.4683284477
 20
-19.7281356735
 10
-6.182110777
 20
-19.3110605369
  0
LINE
  5
29D
100
AcDbEntity
  8
RACCORDO
100
AcDbLine
 62
250
  6
CONTINUOUS
 10
-6.182110777
 20
-19.3110605369
 11
-7.5471537815
 21
-18.5077825798
  0
LINE
  5
29E
100
AcDbEntity
  8
RACCORDO
100
AcDbLine
 62
250
  6
CONTINUOUS
 10
-7.5471537815
 20
-18.5077825798
 11
-8.8314736384
 21
-17.7474531574
  0
LINE
  5
29F
100
AcDbEntity
  8
RACCORDO
100
AcDbLine
 62
250
  6
CONTINUOUS
 10
-8.8314736384
 20
-17.7474531574
 11
-10.6093490349
 21
-16.6893432094
  0
LINE
  5
2A0
100
AcDbEntity
  8
RACCORDO
100
AcDbLine
 62
250
  6
CONTINUOUS
 10
-10.6093490349
 20
-16.6893432094
 11
-11.6969480557
 21
-16.0398132126
  0
LWPOLYLINE
  5
2A1
100
AcDbEntity
  8
RACCORDO
100
AcDbPolyline
 62
250
  6
CONTINUOUS
 90
9
 70
0
 10
4.24987489
 20
-25.1013652008
 10
4.2293475211
 20
-25.0885793655
 10
4.2111084831
 20
-25.0745549258
 10
4.1953402963
 20
-25.0594322523
 10
4.1822007507
 20
-25.0433627066
 10
4.1718213235
 20
-25.026507121
 10
4.1643058665
 20
-25.0090341886
 10
4.1597295719
 20
-24.9911187847
 10
4.1582315499
 20
-24.976967837
  0
LWPOLYLINE
  5
2A2
100
AcDbEntity
  8
0
100
AcDbPolyline
 62
7
  6
CONTINUOUS
 90
24
 70
0
 10
-1.0172734659
 20
-24.6037328016
 10
-1.0552300886
 20
-24.569618837
 10
-1.0934790018
 20
-24.5368726363
 10
-1.1320206503
 20
-24.5054944562
 10
-1.1709629805
 20
-24.4755722639
 10
-1.2101985869
 20
-24.4470184045
 10
-1.2494047219
 20
-24.4195696072
 10
-1.2884996852
 20
-24.3932137556
 10
-1.3275652265
 20
-24.3679629944
 10
-1.3665237274
 20
-24.3435904176
 10
-1.4053756806
 20
-24.3200503894
 10
-1.4441204505
 20
-24.297388463
 10
-1.4826787459
 20
-24.2755145266
 10
-1.5210115023
 20
-24.2544491583
 10
-1.55915758
 20
-24.234171662
 10
-1.597154606
 20
-24.2145300331
 10
-1.6349956838
 20
-24.1955233236
 10
-1.6726874548
 20
-24.1771523341
 10
-1.7102878792
 20
-24.1592676973
 10
-1.747789817
 20
-24.1418690634
 10
-1.7852001403
 20
-24.1249566276
 10
-1.8225978567
 20
-24.1083818571
 10
-1.8600092216
 20
-24.0920951944
 10
-1.8974077175
 20
-24.0761460458
  0
LWPOLYLINE
  5
2A3
100
AcDbEntity
  8
0
100
AcDbPolyline
 62
7
  6
CONTINUOUS
 90
42
 70
0
 10
-1.067051942
 20
-24.6324740274
 10
-1.0439286224
 20
-24.6551286594
 10
-1.0203716757
 20
-24.6803519859
 10
-0.9964773981
 20
-24.7079951763
 10
-0.9723925002
 20
-24.7377821805
 10
-0.9482093827
 20
-24.7696304835
 10
-0.9239930569
 20
-24.8037048845
 10
-0.8998124924
 20
-24.8402681274
 10
-0.8761153931
 20
-24.8790567882
 10
-0.8535080777
 20
-24.919354621
 10
-0.832031122
 20
-24.961272555
 10
-0.8121198699
 20
-25.0042725393
 10
-0.7946656361
 20
-25.0465259185
 10
-0.7797023532
 20
-25.0875707241
 10
-0.7670166471
 20
-25.1274777555
 10
-0.7567383207
 20
-25.1652699724
 10
-0.7486581613
 20
-25.2005379195
 10
-0.7423614269
 20
-25.2336886538
 10
-0.7375799489
 20
-25.2650374002
 10
-0.7341423482
 20
-25.2946067412
 10
-0.7319340886
 20
-25.3223631808
 10
-0.7308600103
 20
-25.3485204269
 10
-0.7308390188
 20
-25.3731203791
 10
-0.7317834197
 20
-25.3961312147
 10
-0.7336199644
 20
-25.4176632885
 10
-0.7362702183
 20
-25.4377570127
 10
-0.7396533162
 20
-25.4564578505
 10
-0.7437103469
 20
-25.4738830384
 10
-0.7483634057
 20
-25.4900603827
 10
-0.7535297456
 20
-25.5050226906
 10
-0.7591685141
 20
-25.518884185
 10
-0.7652107132
 20
-25.5316632167
 10
-0.7715912182
 20
-25.5433874231
 10
-0.7783037126
 20
-25.5541686753
 10
-0.7853123533
 20
-25.5640443826
 10
-0.7925606806
 20
-25.5730234955
 10
-0.8000299862
 20
-25.5811611968
 10
-0.8076951922
 20
-25.5884942775
 10
-0.8155078959
 20
-25.5950488752
 10
-0.8234171302
 20
-25.6009019775
 10
-0.8313911066
 20
-25.6061494458
 10
-0.8370158415
 20
-25.6095197591
  0
LINE
  5
2A4
100
AcDbEntity
  8
0
100
AcDbLine
 62
7
  6
CONTINUOUS
 10
-0.9391578039
 20
-25.6454835298
 11
-0.9199667065
 21
-25.6649839435
  0
LINE
  5
2A5
100
AcDbEntity
  8
0
100
AcDbLine
 62
7
  6
CONTINUOUS
 10
-0.8675934081
 20
-25.6397438874
 11
-0.878124561
 21
-25.6285762601
  0
LINE
  5
2A6
100
AcDbEntity
  8
0
100
AcDbLine
 62
7
  6
CONTINUOUS
 10
-0.9199667065
 20
-25.6649839435
 11
-0.9020964327
 21
-25.685215599
  0
LWPOLYLINE
  5
2A7
100
AcDbEntity
  8
0
100
AcDbPolyline
 62
7
  6
CONTINUOUS
 90
22
 70
0
 10
-0.9020964327
 20
-25.685215599
 10
-0.885447526
 20
-25.7059536235
 10
-0.869880972
 20
-25.7270203254
 10
-0.8553569743
 20
-25.7482115496
 10
-0.8419222221
 20
-25.7692825526
 10
-0.8295658525
 20
-25.7899622949
 10
-0.8181237783
 20
-25.8102329735
 10
-0.8074302691
 20
-25.8302621031
 10
-0.7974330106
 20
-25.849978297
 10
-0.7880836411
 20
-25.8692898143
 10
-0.7792606521
 20
-25.8883680845
 10
-0.7709225512
 20
-25.9071905157
 10
-0.7630523736
 20
-25.9256727773
 10
-0.7555888165
 20
-25.9439061714
 10
-0.7485154426
 20
-25.9618422097
 10
-0.7418092232
 20
-25.9794458979
 10
-0.7354143495
 20
-25.9968292491
 10
-0.7293196986
 20
-26.0139637791
 10
-0.7235142603
 20
-26.0307985568
 10
-0.7179417765
 20
-26.0474386981
 10
-0.7125484755
 20
-26.0639846786
 10
-0.7073038955
 20
-26.0804352332
  0
LINE
  5
2A8
100
AcDbEntity
  8
RACCORDO
100
AcDbLine
 62
250
  6
CONTINUOUS
 10
-12.4795427053
 20
-15.4420091497
 11
-12.5186874658
 21
-14.5615464396
  0
LINE
  5
2A9
100
AcDbEntity
  8
RACCORDO
100
AcDbLine
 62
250
  6
CONTINUOUS
 10
-12.0711346978
 20
-15.4424610271
 11
-12.1097998831
 21
-14.5635859902
  0
LINE
  5
2AA
100
AcDbEntity
  8
RACCORDO
100
AcDbLine
 62
250
  6
CONTINUOUS
 10
-12.5186874658
 20
-14.5615464396
 11
-12.5516641131
 21
-13.710334684
  0
LINE
  5
2AB
100
AcDbEntity
  8
RACCORDO
100
AcDbLine
 62
250
  6
CONTINUOUS
 10
-12.1097998831
 20
-14.5635859902
 11
-12.1427587544
 21
-13.7139209431
  0
LINE
  5
2AC
100
AcDbEntity
  8
RACCORDO
100
AcDbLine
 62
250
  6
CONTINUOUS
 10
-12.5516641131
 20
-13.710334684
 11
-12.5795883814
 21
-12.8835702573
  0
LINE
  5
2AD
100
AcDbEntity
  8
RACCORDO
100
AcDbLine
 62
250
  6
CONTINUOUS
 10
-12.1427587544
 20
-13.7139209431
 11
-12.1704633654
 21
-12.8883055498
  0
LINE
  5
2AE
100
AcDbEntity
  8
RACCORDO
100
AcDbLine
 62
250
  6
CONTINUOUS
 10
-12.5795883814
 20
-12.8835702573
 11
-12.6038189084
 21
-12.0611303845
  0
LINE
  5
2AF
100
AcDbEntity
  8
RACCORDO
100
AcDbLine
 62
250
  6
CONTINUOUS
 10
-12.1704633654
 20
-12.8883055498
 11
-12.194582946
 21
-12.0668982313
  0
LINE
  5
2B0
100
AcDbEntity
  8
RACCORDO
100
AcDbLine
 62
250
  6
CONTINUOUS
 10
-12.6038189084
 20
-12.0611303845
 11
-12.6248520451
 21
-11.2419569951
  0
LINE
  5
2B1
100
AcDbEntity
  8
RACCORDO
100
AcDbLine
 62
250
  6
CONTINUOUS
 10
-12.194582946
 20
-12.0668982313
 11
-12.2155933315
 21
-11.248634559
  0
LINE
  5
2B2
100
AcDbEntity
  8
RACCORDO
100
AcDbLine
 62
250
  6
CONTINUOUS
 10
-12.6248520451
 20
-11.2419569951
 11
-12.6431623119
 21
-10.4240135724
  0
LINE
  5
2B3
100
AcDbEntity
  8
RACCORDO
100
AcDbLine
 62
250
  6
CONTINUOUS
 10
-12.2155933315
 20
-11.248634559
 11
-12.2338731074
 21
-10.4314330579
  0
LINE
  5
2B4
100
AcDbEntity
  8
RACCORDO
100
AcDbLine
 62
250
  6
CONTINUOUS
 10
-12.6431623119
 20
-10.4240135724
 11
-12.6665262343
 21
-9.1936766976
  0
LINE
  5
2B5
100
AcDbEntity
  8
RACCORDO
100
AcDbLine
 62
250
  6
CONTINUOUS
 10
-12.2338731074
 20
-10.4314330579
 11
-12.2572758693
 21
-9.201978917
  0
LINE
  5
2B6
100
AcDbEntity
  8
RACCORDO
100
AcDbLine
 62
250
  6
CONTINUOUS
 10
-12.2572758693
 20
-9.201978917
 11
-12.2769308601
 21
-7.9690545176
  0
LINE
  5
2B7
100
AcDbEntity
  8
RACCORDO
100
AcDbLine
 62
250
  6
CONTINUOUS
 10
-12.6665262343
 20
-9.1936766976
 11
-12.6860961095
 21
-7.9601561426
  0
LINE
  5
2B8
100
AcDbEntity
  8
RACCORDO
100
AcDbLine
 62
250
  6
CONTINUOUS
 10
-12.6860961095
 20
-7.9601561426
 11
-12.7136683739
 21
-5.9084613535
  0
LINE
  5
2B9
100
AcDbEntity
  8
RACCORDO
100
AcDbLine
 62
250
  6
CONTINUOUS
 10
-12.2769308601
 20
-7.9690545176
 11
-12.3047074204
 21
-5.9177701101
  0
LINE
  5
2BA
100
AcDbEntity
  8
RACCORDO
100
AcDbLine
 62
250
  6
CONTINUOUS
 10
-12.7136683739
 20
-5.9084613535
 11
-12.7383523103
 21
-3.8618383409
  0
LINE
  5
2BB
100
AcDbEntity
  8
RACCORDO
100
AcDbLine
 62
250
  6
CONTINUOUS
 10
-12.3047074204
 20
-5.9177701101
 11
-12.3341053169
 21
-3.4590996409
  0
LINE
  5
2BC
100
AcDbEntity
  8
RACCORDO
100
AcDbLine
 62
250
  6
CONTINUOUS
 10
-12.7383523103
 20
-3.8618383409
 11
-12.7556491591
 21
-2.1923071142
  0
LINE
  5
2BD
100
AcDbEntity
  8
RACCORDO
100
AcDbLine
 62
250
  6
CONTINUOUS
 10
-12.3341053169
 20
-3.4590996409
 11
-12.3507938986
 21
-1.7721684864
  0
LINE
  5
2BE
100
AcDbEntity
  8
RACCORDO
100
AcDbLine
 62
250
  6
CONTINUOUS
 10
-12.7556491591
 20
-2.1923071142
 11
-12.7666616975
 21
-0.87711361
  0
LINE
  5
2BF
100
AcDbEntity
  8
RACCORDO
100
AcDbLine
 62
250
  6
CONTINUOUS
 10
-12.3507938986
 20
-1.7721684864
 11
-12.3611385988
 21
-0.4296686983
  0
LINE
  5
2C0
100
AcDbEntity
  8
RACCORDO
100
AcDbLine
 62
250
  6
CONTINUOUS
 10
-12.7666616975
 20
-0.87711361
 11
-12.7752229315
 21
0.5330324339
  0
LINE
  5
2C1
100
AcDbEntity
  8
RACCORDO
100
AcDbLine
 62
250
  6
CONTINUOUS
 10
-12.3611385988
 20
-0.4296686983
 11
-12.3686359658
 21
1.0183867014
  0
LINE
  5
2C2
100
AcDbEntity
  8
RACCORDO
100
AcDbLine
 62
250
  6
CONTINUOUS
 10
-12.7752229315
 20
0.5330324339
 11
-12.7789085912
 21
1.5425605985
  0
LWPOLYLINE
  5
2C3
100
AcDbEntity
  8
RACCORDO
100
AcDbPolyline
 62
250
  6
CONTINUOUS
 90
16
 70
0
 10
-11.8935808589
 20
-16.4072701722
 10
-11.8936614706
 20
-16.3822154479
 10
-11.8914761164
 20
-16.356012363
 10
-11.8870478264
 20
-16.328936831
 10
-11.880423248
 20
-16.3012739502
 10
-11.8716721519
 20
-16.2733149939
 10
-11.8608866953
 20
-16.2453543424
 10
-11.848180457
 20
-16.217686401
 10
-11.8336872369
 20
-16.1906024845
 10
-11.8175596395
 20
-16.1643877431
 10
-11.799967497
 20
-16.1393182063
 10
-11.781096034
 20
-16.1156578037
 10
-11.7611438963
 20
-16.0936555854
 10
-11.7403211374
 20
-16.0735431989
 10
-11.7188470172
 20
-16.0555324351
 10
-11.6969476365
 20
-16.0398129356
  0
LINE
  5
2C4
100
AcDbEntity
  8
RACCORDO
100
AcDbLine
 62
250
  6
CONTINUOUS
 10
-12.3686359658
 20
1.0183867014
 11
-12.3716438175
 21
2.6006615132
  0
LINE
  5
2C5
100
AcDbEntity
  8
RACCORDO
100
AcDbLine
 62
250
  6
CONTINUOUS
 10
-12.7789085912
 20
1.5425605985
 11
-12.7803110331
 21
2.6130440775
  0
LINE
  5
2C6
100
AcDbEntity
  8
RACCORDO
100
AcDbLine
 62
250
  6
CONTINUOUS
 10
-12.7803110331
 20
2.6130440775
 11
-12.777841529
 21
4.04864297
  0
LINE
  5
2C7
100
AcDbEntity
  8
RACCORDO
100
AcDbLine
 62
250
  6
CONTINUOUS
 10
-12.3716438175
 20
2.6006615132
 11
-12.3691669422
 21
4.0353761987
  0
LWPOLYLINE
  5
2C8
100
AcDbEntity
  8
RACCORDO
100
AcDbPolyline
 62
250
  6
CONTINUOUS
 90
10
 70
0
 10
-11.8935808586
 20
21.2950286703
 10
-11.8936614776
 20
21.2698159992
 10
-11.891476208
 20
21.245990694
 10
-11.8870480578
 20
21.2238036149
 10
-11.880423651
 20
21.2034883739
 10
-11.8716727361
 20
21.1852588727
 10
-11.8608874509
 20
21.169307052
 10
-11.8481813542
 20
21.1558008721
 10
-11.8336882291
 20
21.1448825432
 10
-11.8318804766
 20
21.1437785107
  0
LINE
  5
2C9
100
AcDbEntity
  8
RACCORDO
100
AcDbLine
 62
250
  6
CONTINUOUS
 10
-12.777841529
 20
4.04864297
 11
-12.7714693145
 21
5.3954451704
  0
LINE
  5
2CA
100
AcDbEntity
  8
RACCORDO
100
AcDbLine
 62
250
  6
CONTINUOUS
 10
-12.3691669422
 20
4.0353761987
 11
-12.3627731765
 21
5.3814576611
  0
LINE
  5
2CB
100
AcDbEntity
  8
RACCORDO
100
AcDbLine
 62
250
  6
CONTINUOUS
 10
-12.7714693145
 20
5.3954451704
 11
-12.7622406516
 21
6.6873814108
  0
LINE
  5
2CC
100
AcDbEntity
  8
RACCORDO
100
AcDbLine
 62
250
  6
CONTINUOUS
 10
-12.3627731765
 20
5.3814576611
 11
-12.3535089752
 21
6.6728009555
  0
LINE
  5
2CD
100
AcDbEntity
  8
RACCORDO
100
AcDbLine
 62
250
  6
CONTINUOUS
 10
-12.7622406516
 20
6.6873814108
 11
-12.7466456024
 21
8.3587399314
  0
LINE
  5
2CE
100
AcDbEntity
  8
RACCORDO
100
AcDbLine
 62
250
  6
CONTINUOUS
 10
-12.3535089752
 20
6.6728009555
 11
-12.337851873
 21
8.3435300229
  0
LINE
  5
2CF
100
AcDbEntity
  8
RACCORDO
100
AcDbLine
 62
250
  6
CONTINUOUS
 10
-12.7466456024
 20
8.3587399314
 11
-12.7232205725
 21
10.4256594181
  0
LINE
  5
2D0
100
AcDbEntity
  8
RACCORDO
100
AcDbLine
 62
250
  6
CONTINUOUS
 10
-12.337851873
 20
8.3435300229
 11
-12.3142923933
 21
10.4099016114
  0
LINE
  5
2D1
100
AcDbEntity
  8
RACCORDO
100
AcDbLine
 62
250
  6
CONTINUOUS
 10
-12.7232205725
 20
10.4256594181
 11
-12.6911558963
 21
12.9218395199
  0
LINE
  5
2D2
100
AcDbEntity
  8
RACCORDO
100
AcDbLine
 62
250
  6
CONTINUOUS
 10
-12.3142923933
 20
10.4099016114
 11
-12.2820199174
 21
12.9054735386
  0
LINE
  5
2D3
100
AcDbEntity
  8
RACCORDO
100
AcDbLine
 62
250
  6
CONTINUOUS
 10
-12.6911558963
 20
12.9218395199
 11
-12.672473958
 21
14.1718627122
  0
LINE
  5
2D4
100
AcDbEntity
  8
RACCORDO
100
AcDbLine
 62
250
  6
CONTINUOUS
 10
-12.2820199174
 20
12.9054735386
 11
-12.2632443748
 21
14.1548497085
  0
LINE
  5
2D5
100
AcDbEntity
  8
RACCORDO
100
AcDbLine
 62
250
  6
CONTINUOUS
 10
-12.672473958
 20
14.1718627122
 11
-12.6503698009
 21
15.4227473524
  0
LINE
  5
2D6
100
AcDbEntity
  8
RACCORDO
100
AcDbLine
 62
250
  6
CONTINUOUS
 10
-12.2632443748
 20
14.1548497085
 11
-12.2410855915
 21
15.4048377602
  0
LINE
  5
2D7
100
AcDbEntity
  8
RACCORDO
100
AcDbLine
 62
250
  6
CONTINUOUS
 10
-12.2410855915
 20
15.4048377602
 11
-12.2238807487
 21
16.2373573112
  0
LINE
  5
2D8
100
AcDbEntity
  8
RACCORDO
100
AcDbLine
 62
250
  6
CONTINUOUS
 10
-12.6503698009
 20
15.4227473524
 11
-12.6331331536
 21
16.2560151904
  0
LINE
  5
2D9
100
AcDbEntity
  8
RACCORDO
100
AcDbLine
 62
250
  6
CONTINUOUS
 10
-12.6331331536
 20
16.2560151904
 11
-12.6130522863
 21
17.104931897
  0
LINE
  5
2DA
100
AcDbEntity
  8
RACCORDO
100
AcDbLine
 62
250
  6
CONTINUOUS
 10
-12.2238807487
 20
16.2373573112
 11
-12.2038024415
 21
17.0854469932
  0
LINE
  5
2DB
100
AcDbEntity
  8
RACCORDO
100
AcDbLine
 62
250
  6
CONTINUOUS
 10
-12.6130522863
 20
17.104931897
 11
-12.5892732003
 21
17.9808224293
  0
LINE
  5
2DC
100
AcDbEntity
  8
RACCORDO
100
AcDbLine
 62
250
  6
CONTINUOUS
 10
-12.2038024415
 20
17.0854469932
 11
-12.1801035684
 21
17.9603613846
  0
LINE
  5
2DD
100
AcDbEntity
  8
RACCORDO
100
AcDbLine
 62
250
  6
CONTINUOUS
 10
-12.1801035684
 20
17.9603613846
 11
-12.1514864803
 21
18.88241431
  0
LINE
  5
2DE
100
AcDbEntity
  8
RACCORDO
100
AcDbLine
 62
250
  6
CONTINUOUS
 10
-12.5892732003
 20
17.9808224293
 11
-12.5603985142
 21
18.9040712231
  0
LWPOLYLINE
  5
2DF
100
AcDbEntity
  8
RACCORDO
100
AcDbPolyline
 62
250
  6
CONTINUOUS
 90
4
 70
0
 10
-12.5603985142
 20
18.9040712231
 10
-12.5244661406
 20
19.8946975242
 10
-12.5032571913
 20
20.4180219244
 10
-12.4795427053
 20
20.9595788063
  0
LINE
  5
2E0
100
AcDbEntity
  8
RACCORDO
100
AcDbLine
 62
250
  6
CONTINUOUS
 10
-12.1514864803
 20
18.88241431
 11
-12.1154019044
 21
19.8718979325
  0
LINE
  5
2E1
100
AcDbEntity
  8
RACCORDO
100
AcDbLine
 62
250
  6
CONTINUOUS
 10
-12.1154019044
 20
19.8718979325
 11
-12.0711346978
 21
20.9349687422
  0
LWPOLYLINE
  5
2E2
100
AcDbEntity
  8
RACCORDO
100
AcDbPolyline
 62
250
  6
CONTINUOUS
 90
15
 70
0
 10
-12.0711344596
 20
20.9349688355
 10
-12.069699641
 20
20.9612998171
 10
-12.0667423171
 20
20.9865818775
 10
-12.062294071
 20
21.0107199207
 10
-12.0564022891
 20
21.0335933215
 10
-12.0491006563
 20
21.05515739
 10
-12.0403914537
 20
21.0754241609
 10
-12.030291628
 20
21.094336624
 10
-12.0188548851
 20
21.1117816934
 10
-12.0061313261
 20
21.1276799531
 10
-11.992161527
 20
21.1419721582
 10
-11.9770082711
 20
21.1545911105
 10
-11.9607666639
 20
21.1654652045
 10
-11.9435179174
 20
21.1745507683
 10
-11.9336166026
 20
21.1787811748
  0
LWPOLYLINE
  5
2E3
100
AcDbEntity
  8
RACCORDO
100
AcDbPolyline
 62
250
  6
CONTINUOUS
 90
25
 70
0
 10
-12.4795427053
 20
20.9595788063
 10
-12.4762985833
 20
21.0023491266
 10
-12.4708558597
 20
21.0431071908
 10
-12.4632145115
 20
21.0818530123
 10
-12.4533325319
 20
21.1186699241
 10
-12.4412517734
 20
21.1534746822
 10
-12.4270983057
 20
21.1860172586
 10
-12.4108408983
 20
21.2163339149
 10
-12.3925112513
 20
21.2443881185
 10
-12.3723306372
 20
21.2698201844
 10
-12.3502627312
 20
21.2925973646
 10
-12.3263453108
 20
21.3127515683
 10
-12.3009117575
 20
21.330019546
 10
-12.2739719472
 20
21.3443496006
 10
-12.2455183162
 20
21.3557920942
 10
-12.2158588105
 20
21.3642364477
 10
-12.185173851
 20
21.3697251285
 10
-12.1532856583
 20
21.3722141441
 10
-12.1199650932
 20
21.3714631016
 10
-12.0849877559
 20
21.3675162984
 10
-12.0485801513
 20
21.3603282216
 10
-12.0111898089
 20
21.3495235829
 10
-11.9729668574
 20
21.3349767363
 10
-11.9337635692
 20
21.3168119414
 10
-11.8935808585
 20
21.2950286703
  0
LWPOLYLINE
  5
2E4
100
AcDbEntity
  8
RACCORDO
100
AcDbPolyline
 62
250
  6
CONTINUOUS
 90
16
 70
0
 10
-31.223588106
 20
17.0347049081
 10
-30.3434353277
 20
16.0324028376
 10
-29.4332399331
 20
15.051893837
 10
-28.4932131847
 20
14.0930559261
 10
-27.5303327743
 20
13.1621364178
 10
-26.538487955
 20
12.252387436
 10
-25.4962801365
 20
11.3453358244
 10
-24.4047176532
 20
10.4431947783
 10
-23.26209555
 20
9.5441533225
 10
-22.0389713935
 20
8.6259965294
 10
-20.7281237652
 20
7.6856223069
 10
-19.3338735491
 20
6.7278074795
 10
-17.8417233236
 20
5.7435230028
 10
-16.2477694754
 20
4.7292228831
 10
-14.5592568945
 20
3.6865239027
 10
-12.7803110331
 20
2.6130440775
  0
LINE
  5
2E5
100
AcDbEntity
  8
0
100
AcDbLine
 62
7
  6
CONTINUOUS
 10
-4.3454367222
 20
-24.528120376
 11
-4.4710152366
 21
-24.2010256514
  0
LINE
  5
2E6
100
AcDbEntity
  8
0
100
AcDbLine
 62
7
  6
CONTINUOUS
 10
-4.4710152366
 20
-24.2010256514
 11
-4.6594077467
 21
-23.7022154409
  0
LWPOLYLINE
  5
2E7
100
AcDbEntity
  8
0
100
AcDbPolyline
 62
7
  6
CONTINUOUS
 90
3
 70
0
 10
-4.6594077467
 20
-23.7022154409
 10
-4.847791874
 20
-23.1936037793
 10
-4.9105809648
 20
-23.0218884879
  0
LINE
  5
2E8
100
AcDbEntity
  8
0
100
AcDbLine
 62
7
  6
CONTINUOUS
 10
-4.5657449667
 20
-23.2683252552
 11
-4.4109727121
 21
-23.6903518461
  0
LINE
  5
2E9
100
AcDbEntity
  8
0
100
AcDbLine
 62
7
  6
CONTINUOUS
 10
-4.3836745919
 20
-23.6005744234
 11
-4.5159887919
 21
-23.2395443416
  0
LINE
  5
2EA
100
AcDbEntity
  8
0
100
AcDbLine
 62
7
  6
CONTINUOUS
 10
-4.7205442206
 20
-22.8394563054
 11
-4.5657449667
 21
-23.2683252552
  0
LINE
  5
2EB
100
AcDbEntity
  8
0
100
AcDbLine
 62
7
  6
CONTINUOUS
 10
-4.5159887919
 20
-23.2395443416
 11
-4.670815449
 21
-22.8106945909
  0
LINE
  5
2EC
100
AcDbEntity
  8
0
100
AcDbLine
 62
7
  6
CONTINUOUS
 10
-4.670815449
 20
-22.8106945909
 11
-4.8256316531
 21
-22.3750538197
  0
LINE
  5
2ED
100
AcDbEntity
  8
0
100
AcDbLine
 62
7
  6
CONTINUOUS
 10
-4.8753489937
 20
-22.4037599891
 11
-4.7205442206
 21
-22.8394563054
  0
LINE
  5
2EE
100
AcDbEntity
  8
0
100
AcDbLine
 62
7
  6
CONTINUOUS
 10
-6.8030954162
 20
-23.1026199396
 11
-6.9694747269
 21
-22.6186056592
  0
LINE
  5
2EF
100
AcDbEntity
  8
0
100
AcDbLine
 62
7
  6
CONTINUOUS
 10
-6.9694747269
 20
-22.6186056592
 11
-7.1354745562
 21
-22.1244779526
  0
LINE
  5
2F0
100
AcDbEntity
  8
0
100
AcDbLine
 62
7
  6
CONTINUOUS
 10
-7.1354745562
 20
-22.1244779526
 11
-7.3010809546
 21
-21.6202484819
  0
LWPOLYLINE
  5
2F1
100
AcDbEntity
  8
0
100
AcDbPolyline
 62
7
  6
CONTINUOUS
 90
3
 70
0
 10
-7.3010809546
 20
-21.6202484819
 10
-7.4662381244
 20
-21.1059638961
 10
-7.5486517359
 20
-20.8450480195
  0
LINE
  5
2F2
100
AcDbEntity
  8
0
100
AcDbLine
 62
7
  6
CONTINUOUS
 10
-6.6699281075
 20
-22.4887149105
 11
-6.7445996104
 21
-22.2466103248
  0
LINE
  5
2F3
100
AcDbEntity
  8
0
100
AcDbLine
 62
7
  6
CONTINUOUS
 10
-6.7944172293
 20
-22.275448526
 11
-6.6919629853
 21
-22.6071875347
  0
LINE
  5
2F4
100
AcDbEntity
  8
0
100
AcDbLine
 62
7
  6
CONTINUOUS
 10
-6.8965824243
 20
-21.9391002608
 11
-6.7944172293
 21
-22.275448526
  0
LINE
  5
2F5
100
AcDbEntity
  8
0
100
AcDbLine
 62
7
  6
CONTINUOUS
 10
-6.7445996104
 20
-22.2466103248
 11
-6.846789996
 21
-21.9102481818
  0
LINE
  5
2F6
100
AcDbEntity
  8
0
100
AcDbLine
 62
7
  6
CONTINUOUS
 10
-6.9984556127
 20
-21.598147252
 11
-6.8965824243
 21
-21.9391002608
  0
LINE
  5
2F7
100
AcDbEntity
  8
0
100
AcDbLine
 62
7
  6
CONTINUOUS
 10
-6.846789996
 20
-21.9102481818
 11
-6.9486760602
 21
-21.5693176262
  0
LWPOLYLINE
  5
2F8
100
AcDbEntity
  8
0
100
AcDbPolyline
 62
7
  6
CONTINUOUS
 90
3
 70
0
 10
-6.9486760602
 20
-21.5693176262
 10
-7.0502491186
 20
-21.2238294523
 10
-7.1009188135
 20
-21.0493755839
  0
LWPOLYLINE
  5
2F9
100
AcDbEntity
  8
0
100
AcDbPolyline
 62
7
  6
CONTINUOUS
 90
3
 70
0
 10
-7.1506964424
 20
-21.078116563
 10
-7.1000249653
 20
-21.2526075511
 10
-6.9984556127
 20
-21.598147252
  0
LWPOLYLINE
  5
2FA
100
AcDbEntity
  8
0
100
AcDbPolyline
 62
7
  6
CONTINUOUS
 90
3
 70
0
 10
-5.4048553313
 20
-23.4701139632
 10
-5.4493130222
 20
-23.0476064084
 10
-5.4706883358
 20
-22.8331487546
  0
LINE
  5
2FB
100
AcDbEntity
  8
0
100
AcDbLine
 62
7
  6
CONTINUOUS
 10
-5.4991076272
 20
-23.0765948315
 11
-5.4546938587
 21
-23.499062237
  0
LINE
  5
2FC
100
AcDbEntity
  8
0
100
AcDbLine
 62
7
  6
CONTINUOUS
 10
-5.822658068
 20
-23.2854491152
 11
-5.8669302731
 21
-22.8628992898
  0
LINE
  5
2FD
100
AcDbEntity
  8
0
100
AcDbLine
 62
7
  6
CONTINUOUS
 10
-5.5412536881
 20
-22.6454980114
 11
-5.4991076272
 21
-23.0765948315
  0
LINE
  5
2FE
100
AcDbEntity
  8
0
100
AcDbLine
 62
7
  6
CONTINUOUS
 10
-5.8669302731
 20
-22.8628992898
 11
-5.9089321121
 21
-22.4317192847
  0
LWPOLYLINE
  5
2FF
100
AcDbEntity
  8
0
100
AcDbPolyline
 62
7
  6
CONTINUOUS
 90
3
 70
0
 10
-5.9089321121
 20
-22.4317192847
 10
-5.9486414489
 20
-21.9919565402
 10
-5.9676378124
 20
-21.7688536757
  0
LINE
  5
300
100
AcDbEntity
  8
RACCORDO
100
AcDbLine
 62
7
  6
CONTINUOUS
 10
-10.5299152651
 20
20.3707999227
 11
-10.5299152651
 21
-14.5525940795
  0
LINE
  5
301
100
AcDbEntity
  8
RACCORDO
100
AcDbLine
 62
250
  6
CONTINUOUS
 10
-8.8328589902
 20
19.3660051827
 11
-8.8328589902
 21
16.5974030209
  0
LINE
  5
302
100
AcDbEntity
  8
RACCORDO
100
AcDbLine
 62
7
  6
CONTINUOUS
 10
-8.6864123808
 20
19.2795555897
 11
-8.6864123808
 21
16.8015403176
  0
LWPOLYLINE
  5
303
100
AcDbEntity
  8
RACCORDO
100
AcDbPolyline
 62
250
  6
CONTINUOUS
 90
10
 70
0
 10
-8.8328589902
 20
16.5974030209
 10
-8.8342088694
 20
16.562543023
 10
-8.838248307
 20
16.5295073831
 10
-8.8449466169
 20
16.498548491
 10
-8.8542528806
 20
16.4699027041
 10
-8.866096141
 20
16.4437891696
 10
-8.8803857614
 20
16.4204079594
 10
-8.8970138345
 20
16.3999363081
 10
-8.9158524242
 20
16.3825323021
 10
-8.9364003007
 20
16.3685345903
  0
LWPOLYLINE
  5
304
100
AcDbEntity
  8
RACCORDO
100
AcDbPolyline
 62
250
  6
CONTINUOUS
 90
10
 70
0
 10
-8.686412381
 20
16.8015333424
 10
-8.6882622006
 20
16.7767301323
 10
-8.693916613
 20
16.7517110143
 10
-8.7033329212
 20
16.7270724739
 10
-8.7164381759
 20
16.7030043686
 10
-8.7331328309
 20
16.6796887838
 10
-8.7532889271
 20
16.6573042664
 10
-8.7767521467
 20
16.6360218572
 10
-8.8033432482
 20
16.6160038471
 10
-8.8328589902
 20
16.5974030209
  0
LWPOLYLINE
  5
305
100
AcDbEntity
  8
RACCORDO
100
AcDbPolyline
 62
250
  6
CONTINUOUS
 90
4
 70
0
 10
-2.623422655
 20
28.6076101542
 10
-2.3050222212
 20
30.0186114491
 10
-1.9503182153
 20
31.4643716758
 10
-1.5613770882
 20
32.9330352236
  0
LINE
  5
306
100
AcDbEntity
  8
RACCORDO
100
AcDbLine
 62
250
  6
CONTINUOUS
 10
-1.5613770882
 20
32.9330352236
 11
-1.1376335879
 21
34.4249284621
  0
LWPOLYLINE
  5
307
100
AcDbEntity
  8
RACCORDO
100
AcDbPolyline
 62
250
  6
CONTINUOUS
 90
16
 70
0
 10
28.9749007943
 20
-17.7231481187
 10
27.2389745269
 20
-17.2149589354
 10
25.5407925322
 20
-16.689423522
 10
23.8801435476
 20
-16.1466638587
 10
22.2678475393
 20
-15.5907087775
 10
20.6922175964
 20
-15.0180300096
 10
19.1212593346
 20
-14.4162722771
 10
17.5588058739
 20
-13.7860177798
 10
16.0017207151
 20
-13.1262820978
 10
14.411528954
 20
-12.4200655391
 10
12.7828579555
 20
-11.6631985474
 10
11.1239808893
 20
-10.8581759467
 10
9.4192599994
 20
-9.9966271075
 10
7.6625538399
 20
-9.0762981325
 10
5.85666258
 20
-8.1013721303
 10
3.9974607676
 20
-7.0742310853
  0
LWPOLYLINE
  5
308
100
AcDbEntity
  8
0
100
AcDbPolyline
 62
7
  6
CONTINUOUS
 90
19
 70
0
 10
-1.0855363544
 20
-25.8587483061
 10
-1.0929781965
 20
-25.8399488128
 10
-1.1011603093
 20
-25.8209700824
 10
-1.110045928
 20
-25.8019375878
 10
-1.1195871276
 20
-25.7830191085
 10
-1.1297578146
 20
-25.7642837225
 10
-1.1405694918
 20
-25.7457050558
 10
-1.1520115112
 20
-25.7273863306
 10
-1.1640557451
 20
-25.7094540578
 10
-1.1767107081
 20
-25.6919266723
 10
-1.190002284
 20
-25.6748794277
 10
-1.2038848118
 20
-25.6584959039
 10
-1.218259248
 20
-25.6429574156
 10
-1.2330374047
 20
-25.6283699035
 10
-1.2481435021
 20
-25.6147571858
 10
-1.2634754687
 20
-25.6021552849
 10
-1.2789257575
 20
-25.5906046327
 10
-1.2943808142
 20
-25.5801485971
 10
-1.3097290229
 20
-25.5708292848
  0
LINE
  5
309
100
AcDbEntity
  8
0
100
AcDbLine
 62
7
  6
CONTINUOUS
 10
-2.0680406484
 20
-25.4532137474
 11
-1.9040015258
 21
-25.9347558684
  0
LINE
  5
30A
100
AcDbEntity
  8
0
100
AcDbLine
 62
7
  6
CONTINUOUS
 10
-1.8541014113
 20
-25.9059441677
 11
-2.0182446937
 21
-25.424234421
  0
LWPOLYLINE
  5
30B
100
AcDbEntity
  8
0
100
AcDbPolyline
 62
7
  6
CONTINUOUS
 90
6
 70
0
 10
-1.0296398442
 20
-26.0168507325
 10
-1.0402611989
 20
-25.9854490499
 10
-1.0511187903
 20
-25.9539519552
 10
-1.0622597845
 20
-25.9223293224
 10
-1.0737186203
 20
-25.8905971428
 10
-1.0855363738
 20
-25.8587483033
  0
LWPOLYLINE
  5
30C
100
AcDbEntity
  8
0
100
AcDbPolyline
 62
7
  6
CONTINUOUS
 90
19
 70
0
 10
-0.666314576
 20
-26.0239965529
 10
-0.6725842008
 20
-26.0051554265
 10
-0.6791327262
 20
-25.9861304146
 10
-0.6859496184
 20
-25.9669238808
 10
-0.6931755485
 20
-25.9474023928
 10
-0.7008086393
 20
-25.9275383368
 10
-0.7088506814
 20
-25.9073592765
 10
-0.717447845
 20
-25.8868145452
 10
-0.7265838018
 20
-25.8658788697
 10
-0.7362748556
 20
-25.8445775089
 10
-0.7467162832
 20
-25.8229356848
 10
-0.7578482213
 20
-25.8009603515
 10
-0.7697307453
 20
-25.7786446774
 10
-0.7827393482
 20
-25.7559933845
 10
-0.7968473648
 20
-25.7328731267
 10
-0.812081937
 20
-25.7094175251
 10
-0.8288999355
 20
-25.6860321376
 10
-0.847454285
 20
-25.6628525165
 10
-0.8675934081
 20
-25.6397438874
  0
LINE
  5
30D
100
AcDbEntity
  8
0
100
AcDbLine
 62
7
  6
CONTINUOUS
 10
-2.2318024203
 20
-24.9620790577
 11
-2.0680406484
 21
-25.4532137474
  0
LINE
  5
30E
100
AcDbEntity
  8
0
100
AcDbLine
 62
7
  6
CONTINUOUS
 10
-2.0182446937
 20
-25.424234421
 11
-2.1820686762
 21
-24.9330474584
  0
LINE
  5
30F
100
AcDbEntity
  8
0
100
AcDbLine
 62
7
  6
CONTINUOUS
 10
-0.8597280775
 20
-26.5337417352
 11
-0.9474266122
 21
-26.2692965451
  0
LINE
  5
310
100
AcDbEntity
  8
0
100
AcDbLine
 62
7
  6
CONTINUOUS
 10
-1.0088929934
 20
-26.0795997133
 11
-1.0296398442
 21
-26.0168507325
  0
LINE
  5
311
100
AcDbEntity
  8
0
100
AcDbLine
 62
7
  6
CONTINUOUS
 10
-2.3952763234
 20
-24.4613625583
 11
-2.2318024203
 21
-24.9620790577
  0
LINE
  5
312
100
AcDbEntity
  8
0
100
AcDbLine
 62
7
  6
CONTINUOUS
 10
-2.1820686762
 20
-24.9330474584
 11
-2.3455654495
 21
-24.4323891629
  0
LINE
  5
313
100
AcDbEntity
  8
0
100
AcDbLine
 62
7
  6
CONTINUOUS
 10
-0.9474266122
 20
-26.2692965451
 11
-1.0088929934
 21
-26.0795997133
  0
LWPOLYLINE
  5
314
100
AcDbEntity
  8
0
100
AcDbPolyline
 62
7
  6
CONTINUOUS
 90
3
 70
0
 10
-2.3455654495
 20
-24.4323891629
 10
-2.508703376
 20
-23.9222830673
 10
-2.590139749
 20
-23.6636856236
  0
LINE
  5
315
100
AcDbEntity
  8
0
100
AcDbLine
 62
7
  6
CONTINUOUS
 10
-0.6544080521
 20
-26.0612747034
 11
-0.666314576
 21
-26.0239965529
  0
LINE
  5
316
100
AcDbEntity
  8
0
100
AcDbLine
 62
7
  6
CONTINUOUS
 10
-2.2938262165
 20
-25.710776167
 11
-2.4020063186
 21
-25.3711534252
  0
LINE
  5
317
100
AcDbEntity
  8
0
100
AcDbLine
 62
7
  6
CONTINUOUS
 10
-2.4020063186
 20
-25.3711534252
 11
-2.4328634755
 21
-25.2732318901
  0
LWPOLYLINE
  5
318
100
AcDbEntity
  8
0
100
AcDbPolyline
 62
7
  6
CONTINUOUS
 90
3
 70
0
 10
-2.6398711659
 20
-23.6923999204
 10
-2.5584202842
 20
-23.9511072861
 10
-2.3952763234
 20
-24.4613625583
  0
LINE
  5
319
100
AcDbEntity
  8
0
100
AcDbLine
 62
7
  6
CONTINUOUS
 10
-0.5432394383
 20
-26.6111125037
 11
-0.5033840625
 21
-26.7378225502
  0
LINE
  5
31A
100
AcDbEntity
  8
0
100
AcDbLine
 62
7
  6
CONTINUOUS
 10
-0.4534784343
 20
-26.709007666
 11
-0.5134858299
 21
-26.5173534691
  0
LINE
  5
31B
100
AcDbEntity
  8
0
100
AcDbLine
 62
7
  6
CONTINUOUS
 10
-0.7073038955
 20
-26.0804352332
 11
-0.5432394383
 21
-26.6111125037
  0
LWPOLYLINE
  5
31C
100
AcDbEntity
  8
0
100
AcDbPolyline
 62
7
  6
CONTINUOUS
 90
3
 70
0
 10
-0.5134858299
 20
-26.5173534691
 10
-0.6427705415
 20
-26.0984822402
 10
-0.6544080521
 20
-26.0612747034
  0
LINE
  5
31D
100
AcDbEntity
  8
0
100
AcDbLine
 62
7
  6
CONTINUOUS
 10
-2.538514972
 20
-24.9338023606
 11
-2.6455542273
 21
-24.575057021
  0
LWPOLYLINE
  5
31E
100
AcDbEntity
  8
0
100
AcDbPolyline
 62
7
  6
CONTINUOUS
 90
3
 70
0
 10
-2.6455542273
 20
-24.575057021
 10
-2.7522507255
 20
-24.2111514712
 10
-2.7788705504
 20
-24.1193694319
  0
LINE
  5
31F
100
AcDbEntity
  8
0
100
AcDbLine
 62
7
  6
CONTINUOUS
 10
-3.3683340121
 20
-25.0346528216
 11
-3.4510471509
 21
-24.6002400675
  0
LINE
  5
320
100
AcDbEntity
  8
0
100
AcDbLine
 62
7
  6
CONTINUOUS
 10
-3.5008622833
 20
-24.6291928414
 11
-3.4182267524
 21
-25.0634602645
  0
LINE
  5
321
100
AcDbEntity
  8
0
100
AcDbLine
 62
7
  6
CONTINUOUS
 10
-3.5818403906
 20
-24.1859548946
 11
-3.5008622833
 21
-24.6291928414
  0
LWPOLYLINE
  5
322
100
AcDbEntity
  8
0
100
AcDbPolyline
 62
7
  6
CONTINUOUS
 90
3
 70
0
 10
-3.4510471509
 20
-24.6002400675
 10
-3.5320788253
 20
-24.1569604902
 10
-3.571964389
 20
-23.9319953862
  0
LINE
  5
323
100
AcDbEntity
  8
0
100
AcDbLine
 62
7
  6
CONTINUOUS
 10
-3.6611526225
 20
-23.7337575758
 11
-3.5818403906
 21
-24.1859548946
  0
LINE
  5
324
100
AcDbEntity
  8
0
100
AcDbLine
 62
7
  6
CONTINUOUS
 10
-3.7793273706
 20
-24.8551460704
 11
-3.8270264957
 21
-24.5741366041
  0
LWPOLYLINE
  5
325
100
AcDbEntity
  8
0
100
AcDbPolyline
 62
7
  6
CONTINUOUS
 90
3
 70
0
 10
-3.8270264957
 20
-24.5741366041
 10
-3.8739260883
 20
-24.2893326092
 10
-3.8970761751
 20
-24.1455076122
  0
LINE
  5
326
100
AcDbEntity
  8
0
100
AcDbLine
 62
7
  6
CONTINUOUS
 10
-5.3581210438
 20
-23.8840785967
 11
-5.4048553313
 21
-23.4701139632
  0
LINE
  5
327
100
AcDbEntity
  8
0
100
AcDbLine
 62
7
  6
CONTINUOUS
 10
-5.4546938587
 20
-23.499062237
 11
-5.4080184566
 21
-23.9128887374
  0
LINE
  5
328
100
AcDbEntity
  8
0
100
AcDbLine
 62
7
  6
CONTINUOUS
 10
-5.7761210309
 20
-23.6993569007
 11
-5.822658068
 21
-23.2854491152
  0
LINE
  5
329
100
AcDbEntity
  8
0
100
AcDbLine
 62
250
  6
CONTINUOUS
 10
-3.9384713162
 20
-23.8825376942
 11
-3.8425004556
 21
-24.7777447221
  0
LINE
  5
32A
100
AcDbEntity
  8
0
100
AcDbLine
 62
7
  6
CONTINUOUS
 10
-1.490907877
 20
-25.626499149
 11
-1.4639619845
 21
-25.8780458845
  0
LINE
  5
32B
100
AcDbEntity
  8
0
100
AcDbLine
 62
7
  6
CONTINUOUS
 10
-1.414088161
 20
-25.8492523346
 11
-1.4410543384
 21
-25.5977163689
  0
LINE
  5
32C
100
AcDbEntity
  8
0
100
AcDbLine
 62
7
  6
CONTINUOUS
 10
-1.8412897832
 20
-25.5879178743
 11
-1.8850062291
 21
-25.1702489251
  0
LINE
  5
32D
100
AcDbEntity
  8
0
100
AcDbLine
 62
7
  6
CONTINUOUS
 10
-1.5084151402
 20
-25.4570998471
 11
-1.490907877
 21
-25.626499149
  0
LINE
  5
32E
100
AcDbEntity
  8
0
100
AcDbLine
 62
7
  6
CONTINUOUS
 10
-1.4410543384
 20
-25.5977163689
 11
-1.4523220552
 21
-25.4892143326
  0
LINE
  5
32F
100
AcDbEntity
  8
0
100
AcDbLine
 62
7
  6
CONTINUOUS
 10
-1.8850062291
 20
-25.1702489251
 11
-1.9265018351
 21
-24.7441454001
  0
LINE
  5
330
100
AcDbEntity
  8
0
100
AcDbLine
 62
7
  6
CONTINUOUS
 10
-5.4706883358
 20
-22.8331487546
 11
-5.5117150092
 21
-22.3978504127
  0
LINE
  5
331
100
AcDbEntity
  8
0
100
AcDbLine
 62
7
  6
CONTINUOUS
 10
-1.579690988
 20
-24.839935637
 11
-1.5520477491
 21
-25.133905046
  0
LINE
  5
332
100
AcDbEntity
  8
0
100
AcDbLine
 62
7
  6
CONTINUOUS
 10
-1.5022303377
 20
-25.105141097
 11
-1.5298939377
 21
-24.8111840044
  0
LINE
  5
333
100
AcDbEntity
  8
0
100
AcDbLine
 62
250
  6
CONTINUOUS
 10
-4.0529995574
 20
-23.2579898236
 11
-4.0161691293
 21
-23.6508187292
  0
LINE
  5
334
100
AcDbEntity
  8
0
100
AcDbLine
 62
7
  6
CONTINUOUS
 10
-1.5298939377
 20
-24.8111840044
 11
-1.5467500494
 21
-24.6243068543
  0
LWPOLYLINE
  5
335
100
AcDbEntity
  8
0
100
AcDbPolyline
 62
7
  6
CONTINUOUS
 90
3
 70
0
 10
-1.9265018351
 20
-24.7441454001
 10
-1.965756167
 20
-24.3096539805
 10
-1.9845441324
 20
-24.0892598927
  0
LINE
  5
336
100
AcDbEntity
  8
0
100
AcDbLine
 62
7
  6
CONTINUOUS
 10
-1.6010516265
 20
-24.6019160141
 11
-1.579690988
 21
-24.839935637
  0
LINE
  5
337
100
AcDbEntity
  8
0
100
AcDbLine
 62
7
  6
CONTINUOUS
 10
-5.5117150092
 20
-22.3978504127
 11
-5.550443589
 21
-21.9540406095
  0
LWPOLYLINE
  5
338
100
AcDbEntity
  8
0
100
AcDbPolyline
 62
7
  6
CONTINUOUS
 90
3
 70
0
 10
-5.6001767903
 20
-21.9827559367
 10
-5.5811077449
 20
-22.2058177396
 10
-5.5412536881
 20
-22.6454980114
  0
LINE
  5
339
100
AcDbEntity
  8
0
100
AcDbLine
 62
250
  6
CONTINUOUS
 10
-4.0878786782
 20
-22.8593547509
 11
-4.0529995574
 21
-23.2579898236
  0
LINE
  5
33A
100
AcDbEntity
  8
0
100
AcDbLine
 62
250
  6
CONTINUOUS
 10
-4.0869218157
 20
-22.2218754913
 11
-4.0381683675
 21
-22.8306526405
  0
LINE
  5
33B
100
AcDbEntity
  8
0
100
AcDbLine
 62
250
  6
CONTINUOUS
 10
-4.1314388268
 20
-21.6000796245
 11
-4.0869218157
 21
-22.2218754913
  0
LINE
  5
33C
100
AcDbEntity
  8
0
100
AcDbLine
 62
250
  6
CONTINUOUS
 10
-4.1718538929
 20
-20.9653426939
 11
-4.1314388268
 21
-21.6000796245
  0
LINE
  5
33D
100
AcDbEntity
  8
0
100
AcDbLine
 62
7
  6
CONTINUOUS
 10
-4.8074812981
 20
-24.2031222478
 11
-4.8213896917
 21
-23.9405528583
  0
LINE
  5
33E
100
AcDbEntity
  8
0
100
AcDbLine
 62
7
  6
CONTINUOUS
 10
-4.8712545325
 20
-23.9693389391
 11
-4.8573758448
 21
-24.2319307337
  0
LINE
  5
33F
100
AcDbEntity
  8
0
100
AcDbLine
 62
7
  6
CONTINUOUS
 10
-4.8213896917
 20
-23.9405528583
 11
-4.8341254379
 21
-23.6743740155
  0
LINE
  5
340
100
AcDbEntity
  8
0
100
AcDbLine
 62
7
  6
CONTINUOUS
 10
-4.8839621164
 20
-23.7031416902
 11
-4.8712545325
 21
-23.9693389391
  0
LINE
  5
341
100
AcDbEntity
  8
0
100
AcDbLine
 62
7
  6
CONTINUOUS
 10
-4.895496314
 20
-23.4333401726
 11
-4.8839621164
 21
-23.7031416902
  0
LINE
  5
342
100
AcDbEntity
  8
0
100
AcDbLine
 62
7
  6
CONTINUOUS
 10
-4.8341254379
 20
-23.6743740155
 11
-4.8456863594
 21
-23.4045870374
  0
LINE
  5
343
100
AcDbEntity
  8
0
100
AcDbLine
 62
7
  6
CONTINUOUS
 10
-4.8456863594
 20
-23.4045870374
 11
-4.854437993
 21
-23.1754280064
  0
LWPOLYLINE
  5
344
100
AcDbEntity
  8
0
100
AcDbPolyline
 62
7
  6
CONTINUOUS
 90
3
 70
0
 10
-4.9105809648
 20
-23.0218884879
 10
-4.9058479963
 20
-23.1599391286
 10
-4.895496314
 20
-23.4333401726
  0
LINE
  5
345
100
AcDbEntity
  8
0
100
AcDbLine
 62
7
  6
CONTINUOUS
 10
-5.2097858712
 20
-24.027797944
 11
-5.2221292491
 21
-23.6339383775
  0
LINE
  5
346
100
AcDbEntity
  8
0
100
AcDbLine
 62
7
  6
CONTINUOUS
 10
-5.2221292491
 20
-23.6339383775
 11
-5.2316585754
 21
-23.2318037362
  0
LINE
  5
347
100
AcDbEntity
  8
0
100
AcDbLine
 62
7
  6
CONTINUOUS
 10
-5.2316585754
 20
-23.2318037362
 11
-5.2383687717
 21
-22.8214044116
  0
LWPOLYLINE
  5
348
100
AcDbEntity
  8
RACCORDO
100
AcDbPolyline
 62
250
  6
CONTINUOUS
 90
16
 70
0
 10
-4.1718538929
 20
-20.9653426939
 10
-4.1721846739
 20
-20.9402323275
 10
-4.1702530062
 20
-20.9139112629
 10
-4.1660795057
 20
-20.8866604096
 10
-4.1597087139
 20
-20.8587705999
 10
-4.1512086227
 20
-20.8305394857
 10
-4.1406699488
 20
-20.802268362
 10
-4.1282051656
 20
-20.7742589498
 10
-4.1139473027
 20
-20.7468101774
 10
-4.0980485264
 20
-20.7202149898
 10
-4.0806785152
 20
-20.6947572216
 10
-4.0620226492
 20
-20.6707085687
 10
-4.0422800321
 20
-20.6483256881
 10
-4.0216613652
 20
-20.6278474589
 10
-4.0003866997
 20
-20.609492433
 10
-3.9786830873
 20
-20.5934565022
  0
LWPOLYLINE
  5
349
100
AcDbEntity
  8
0
100
AcDbPolyline
 62
7
  6
CONTINUOUS
 90
3
 70
0
 10
-5.2383687717
 20
-22.8214044116
 10
-5.2422395243
 20
-22.402781969
 10
-5.2431113789
 20
-22.1903844806
  0
LWPOLYLINE
  5
34A
100
AcDbEntity
  8
RACCORDO
100
AcDbPolyline
 62
250
  6
CONTINUOUS
 90
10
 70
0
 10
-4.1718538929
 20
16.7577110501
 10
-4.1721846588
 20
16.7322187149
 10
-4.1702529782
 20
16.7081282992
 10
-4.1660794667
 20
16.6856969059
 10
-4.159708666
 20
16.665163932
 10
-4.1512085678
 20
16.6467485142
 10
-4.1406698893
 20
16.6306471895
 10
-4.1282051039
 20
16.6170317979
 10
-4.113947241
 20
16.6060476481
 10
-4.1102023153
 20
16.6037745688
  0
LWPOLYLINE
  5
34B
100
AcDbEntity
  8
RACCORDO
100
AcDbPolyline
 62
250
  6
CONTINUOUS
 90
9
 70
0
 10
-4.1718538929
 20
16.7577110501
 10
-4.0675763083
 20
18.3842678849
 10
-3.9385545105
 20
19.9638358038
 10
-3.7838190846
 20
21.496974535
 10
-3.6048828633
 20
22.972002672
 10
-3.4015505177
 20
24.399840911
 10
-3.1692841563
 20
25.8155331212
 10
-2.90925282
 20
27.218549761
 10
-2.623422655
 20
28.6076101542
  0
LWPOLYLINE
  5
34C
100
AcDbEntity
  8
RACCORDO
100
AcDbPolyline
 62
250
  6
CONTINUOUS
 90
16
 70
0
 10
-12.7803110331
 20
2.6130440775
 10
-12.7584136148
 20
2.6011956937
 10
-12.7345755786
 20
2.5906697557
 10
-12.7090354626
 20
2.5815715922
 10
-12.682048837
 20
2.5739922453
 10
-12.6538857464
 20
2.5680075584
 10
-12.624828008
 20
2.5636774181
 10
-12.5951663914
 20
2.5610451543
 10
-12.565197709
 20
2.5601371071
 10
-12.5352218458
 20
2.560962363
 10
-12.5055387587
 20
2.5635126639
 10
-12.4764454749
 20
2.56776249
 10
-12.4482331196
 20
2.5736693149
 10
-12.421184003
 20
2.5811740313
 10
-12.3955687951
 20
2.5902015423
 10
-12.3716438175
 20
2.6006615132
  0
LWPOLYLINE
  5
34D
100
AcDbEntity
  8
RACCORDO
100
AcDbPolyline
 62
250
  6
CONTINUOUS
 90
9
 70
0
 10
3.9974607676
 20
-7.0742310853
 10
3.9769400869
 20
-7.0615877905
 10
3.9587098018
 20
-7.0478240072
 10
3.9429523357
 20
-7.0330774644
 10
3.9298253674
 20
-7.017495725
 10
3.9194602534
 20
-7.0012347095
 10
3.9119607135
 20
-6.9844571355
 10
3.9074017926
 20
-6.9673308899
 10
3.9058282518
 20
-6.9496162881
  0
LINE
  5
34E
100
AcDbEntity
  8
0
100
AcDbLine
 62
7
  6
CONTINUOUS
 10
-3.571964389
 20
-23.9319953862
 11
-3.6504507091
 21
-23.4754371427
  0
LWPOLYLINE
  5
34F
100
AcDbEntity
  8
0
100
AcDbPolyline
 62
7
  6
CONTINUOUS
 90
3
 70
0
 10
-3.7769361768
 20
-23.0387436246
 10
-3.7387651709
 20
-23.2726454916
 10
-3.6611526225
 20
-23.7337575758
  0
LINE
  5
350
100
AcDbEntity
  8
0
100
AcDbLine
 62
7
  6
CONTINUOUS
 10
-3.6504507091
 20
-23.4754371427
 11
-3.7272246878
 21
-23.0100408339
  0
LINE
  5
351
100
AcDbEntity
  8
0
100
AcDbLine
 62
7
  6
CONTINUOUS
 10
-3.8970761751
 20
-24.1455076122
 11
-3.9427667986
 21
-23.8550161353
  0
LINE
  5
352
100
AcDbEntity
  8
0
100
AcDbLine
 62
7
  6
CONTINUOUS
 10
-3.9427667986
 20
-23.8550161353
 11
-3.9876449957
 21
-23.5607358776
  0
LWPOLYLINE
  5
353
100
AcDbEntity
  8
0
100
AcDbPolyline
 62
7
  6
CONTINUOUS
 90
22
 70
0
 10
-1.0801723913
 20
-25.1189217208
 10
-1.082591869
 20
-25.1011304569
 10
-1.0861445189
 20
-25.0827152219
 10
-1.0907883425
 20
-25.0638144986
 10
-1.0964833091
 20
-25.0445933592
 10
-1.1031851336
 20
-25.0251537705
 10
-1.1108585533
 20
-25.0055316216
 10
-1.1194837474
 20
-24.985834105
 10
-1.1290272887
 20
-24.9662023744
 10
-1.1394492528
 20
-24.9467202889
 10
-1.1507283229
 20
-24.92749967
 10
-1.1628376082
 20
-24.9086771614
 10
-1.1757015439
 20
-24.8903420412
 10
-1.1892277667
 20
-24.8725543846
 10
-1.2033354406
 20
-24.8553706673
 10
-1.2179373099
 20
-24.8388440091
 10
-1.2329329335
 20
-24.8230471708
 10
-1.2482479354
 20
-24.8080226933
 10
-1.2638373532
 20
-24.793786502
 10
-1.279629691
 20
-24.7803925731
 10
-1.295523415
 20
-24.7679245489
 10
-1.3114290192
 20
-24.756452189
  0
LWPOLYLINE
  5
354
100
AcDbEntity
  8
0
100
AcDbPolyline
 62
250
  6
CONTINUOUS
 90
12
 70
0
 10
-3.8425004556
 20
-24.7777447221
 10
-3.6993364852
 20
-25.8869386907
 10
-3.5366715461
 20
-26.9495279866
 10
-3.3558561028
 20
-27.9591321527
 10
-3.1566675872
 20
-28.9227828794
 10
-2.9363285563
 20
-29.8603571007
 10
-2.6953274412
 20
-30.7731367838
 10
-2.4345919821
 20
-31.6606576411
 10
-2.1496028818
 20
-32.5387910224
 10
-1.8379761494
 20
-33.4123206863
 10
-1.5008230249
 20
-34.2757280037
 10
-1.1376335879
 20
-35.1287185531
  0
LWPOLYLINE
  5
355
100
AcDbEntity
  8
0
100
AcDbPolyline
 62
7
  6
CONTINUOUS
 90
3
 70
0
 10
-1.3768595968
 20
-26.1798602475
 10
-1.4049171479
 20
-25.9324159824
 10
-1.414088161
 20
-25.8492523346
  0
LINE
  5
356
100
AcDbEntity
  8
0
100
AcDbLine
 62
7
  6
CONTINUOUS
 10
-1.7953576062
 20
-25.9971405777
 11
-1.8412897832
 21
-25.5879178743
  0
LWPOLYLINE
  5
357
100
AcDbEntity
  8
0
100
AcDbPolyline
 62
7
  6
CONTINUOUS
 90
3
 70
0
 10
-1.4639619845
 20
-25.8780458845
 10
-1.4547979678
 20
-25.9612138455
 10
-1.4267622533
 20
-26.2086734159
  0
LINE
  5
358
100
AcDbEntity
  8
0
100
AcDbLine
 62
7
  6
CONTINUOUS
 10
-0.9402807916
 20
-25.6340716358
 11
-0.9391578039
 21
-25.6454835298
  0
LINE
  5
359
100
AcDbEntity
  8
0
100
AcDbLine
 62
7
  6
CONTINUOUS
 10
-6.6919629853
 20
-22.6071875347
 11
-6.6460109486
 21
-22.361727574
  0
LINE
  5
35A
100
AcDbEntity
  8
0
100
AcDbLine
 62
7
  6
CONTINUOUS
 10
-6.6460109486
 20
-22.361727574
 11
-6.5982246601
 21
-22.1128277654
  0
LINE
  5
35B
100
AcDbEntity
  8
0
100
AcDbLine
 62
7
  6
CONTINUOUS
 10
-6.5982246601
 20
-22.1128277654
 11
-6.5486047277
 21
-21.8604914544
  0
LINE
  5
35C
100
AcDbEntity
  8
0
100
AcDbLine
 62
7
  6
CONTINUOUS
 10
-6.5486047277
 20
-21.8604914544
 11
-6.4707411552
 21
-21.4755678014
  0
LINE
  5
35D
100
AcDbEntity
  8
0
100
AcDbLine
 62
7
  6
CONTINUOUS
 10
-6.40303587
 20
-22.9478548982
 11
-6.4791101508
 21
-23.2910287203
  0
LINE
  5
35E
100
AcDbEntity
  8
0
100
AcDbLine
 62
7
  6
CONTINUOUS
 10
-6.4292069007
 20
-23.2622152091
 11
-6.3531387191
 21
-22.9189295054
  0
LINE
  5
35F
100
AcDbEntity
  8
0
100
AcDbLine
 62
7
  6
CONTINUOUS
 10
-6.3531387191
 20
-22.9189295054
 11
-6.2729171983
 21
-22.5684493563
  0
LINE
  5
360
100
AcDbEntity
  8
0
100
AcDbLine
 62
7
  6
CONTINUOUS
 10
-6.3227919495
 20
-22.5974065265
 11
-6.40303587
 21
-22.9478548982
  0
LINE
  5
361
100
AcDbEntity
  8
0
100
AcDbLine
 62
7
  6
CONTINUOUS
 10
-6.2383767015
 20
-22.2396912411
 11
-6.3227919495
 21
-22.5974065265
  0
LINE
  5
362
100
AcDbEntity
  8
0
100
AcDbLine
 62
7
  6
CONTINUOUS
 10
-6.2729171983
 20
-22.5684493563
 11
-6.1885406655
 21
-22.21077919
  0
LWPOLYLINE
  5
363
100
AcDbEntity
  8
0
100
AcDbPolyline
 62
7
  6
CONTINUOUS
 90
3
 70
0
 10
-6.1885406655
 20
-22.21077919
 10
-6.1000024296
 20
-21.8459367198
 10
-6.0541730912
 20
-21.6608247637
  0
LWPOLYLINE
  5
364
100
AcDbEntity
  8
0
100
AcDbPolyline
 62
7
  6
CONTINUOUS
 90
3
 70
0
 10
-6.103920354
 20
-21.6895482098
 10
-6.1497833749
 20
-21.8747395854
 10
-6.2383767015
 20
-22.2396912411
  0
LINE
  5
365
100
AcDbEntity
  8
ASSI
100
AcDbLine
 62
250
  6
CONTINUOUS
 10
29.0658334914
 20
17.7368378583
 11
30.1996291775
 21
18.391474049
  0
LINE
  5
366
100
AcDbEntity
  8
ASSI
100
AcDbLine
 62
250
  6
CONTINUOUS
 10
29.6312372196
 20
16.7573269903
 11
30.7651207562
 21
17.4120139045
  0
LINE
  5
367
100
AcDbEntity
  8
RACCORDO
100
AcDbLine
 62
250
  6
CONTINUOUS
 10
30.9465299809
 20
-19.4424995799
 11
30.8436034087
 21
-19.3830710671
  0
LINE
  5
368
100
AcDbEntity
  8
DRAFT
100
AcDbLine
 62
7
  6
CONTINUOUS
 10
31.4018409772
 20
-18.6675075143
 11
30.9065421125
 21
-18.3815281574
  0
LINE
  5
369
100
AcDbEntity
  8
RACCORDO
100
AcDbLine
 62
7
  6
CONTINUOUS
 10
4.1582315499
 20
-24.976967837
 11
4.1582255987
 21
-24.9768216763
  0
LINE
  5
36A
100
AcDbEntity
  8
RACCORDO
100
AcDbLine
 62
250
  6
CONTINUOUS
 10
4.212675638
 20
-24.0839005288
 11
4.24987489
 21
-25.1013652004
  0
LINE
  5
36B
100
AcDbEntity
  8
RACCORDO
100
AcDbLine
 62
250
  6
CONTINUOUS
 10
4.1829559182
 20
-23.1311809235
 11
4.212675638
 21
-24.0839005288
  0
LINE
  5
36C
100
AcDbEntity
  8
RACCORDO
100
AcDbLine
 62
250
  6
CONTINUOUS
 10
4.1485282841
 20
-21.8078893786
 11
4.1829559182
 21
-23.1311809235
  0
LWPOLYLINE
  5
36D
100
AcDbEntity
  8
RACCORDO
100
AcDbPolyline
 62
7
  6
CONTINUOUS
 90
8
 70
0
 10
4.1582315499
 20
-24.976967837
 10
4.1585372193
 20
-24.9898042756
 10
4.1582466773
 20
-25.0071475226
 10
4.1571650246
 20
-25.022888424
 10
4.1554192884
 20
-25.036737635
 10
4.1532493476
 20
-25.0481880251
 10
4.1509338462
 20
-25.0571158037
 10
4.1498030925
 20
-25.0606660654
  0
LINE
  5
36E
100
AcDbEntity
  8
RACCORDO
100
AcDbLine
 62
250
  6
CONTINUOUS
 10
4.1222498401
 20
-20.5601718887
 11
4.1485282841
 21
-21.8078893786
  0
LINE
  5
36F
100
AcDbEntity
  8
RACCORDO
100
AcDbLine
 62
250
  6
CONTINUOUS
 10
4.0890681671
 20
-18.51789298
 11
4.1222498401
 21
-20.5601718887
  0
LINE
  5
370
100
AcDbEntity
  8
RACCORDO
100
AcDbLine
 62
250
  6
CONTINUOUS
 10
4.033558197
 20
-13.6005235261
 11
4.0890681671
 21
-18.51789298
  0
LWPOLYLINE
  5
371
100
AcDbEntity
  8
RACCORDO
100
AcDbPolyline
 62
250
  6
CONTINUOUS
 90
25
 70
0
 10
4.24987489
 20
-25.1013652004
 10
4.250233689
 20
-25.1420552393
 10
4.2482826601
 20
-25.1807972427
 10
4.2440218266
 20
-25.2175911974
 10
4.2374170051
 20
-25.2525159191
 10
4.2285025331
 20
-25.2854925031
 10
4.2173809106
 20
-25.3162845301
 10
4.2040240987
 20
-25.3449264189
 10
4.1884596667
 20
-25.371384022
 10
4.1708727201
 20
-25.3953185369
 10
4.1512233014
 20
-25.4166993127
 10
4.1295499153
 20
-25.4355578392
 10
4.1061544058
 20
-25.4516490759
 10
4.0810395584
 20
-25.4649254198
 10
4.0542002753
 20
-25.4754358091
 10
4.0259258518
 20
-25.4830804336
 10
3.9963941694
 20
-25.4879032266
 10
3.9654247051
 20
-25.48986178
 10
3.9327689318
 20
-25.488726895
 10
3.8982094322
 20
-25.4845388376
 10
3.8619615184
 20
-25.4772585573
 10
3.8244254467
 20
-25.4665380608
 10
3.7857336837
 20
-25.4522619001
 10
3.7457513615
 20
-25.4345469097
 10
3.7044775662
 20
-25.4133936172
  0
LINE
  5
372
100
AcDbEntity
  8
RACCORDO
100
AcDbLine
 62
250
  6
CONTINUOUS
 10
4.0073163357
 20
-10.2802475883
 11
4.033558197
 21
-13.6005235261
  0
LWPOLYLINE
  5
373
100
AcDbEntity
  8
RACCORDO
100
AcDbPolyline
 62
250
  6
CONTINUOUS
 90
16
 70
0
 10
3.7044775662
 20
-25.4133936172
 10
3.7043403623
 20
-25.3883067145
 10
3.7063990574
 20
-25.3620309972
 10
3.7106319759
 20
-25.3348431256
 10
3.7169945492
 20
-25.307029365
 10
3.7254197856
 20
-25.2788825693
 10
3.7358189763
 20
-25.2506990977
 10
3.7480826282
 20
-25.2227756979
 10
3.7620816162
 20
-25.19540638
 10
3.7776685452
 20
-25.1688793182
 10
3.7946792992
 20
-25.1434738209
 10
3.8129347701
 20
-25.1194573881
 10
3.8322427448
 20
-25.097082893
 10
3.8523999273
 20
-25.0765859222
 10
3.8731940796
 20
-25.0581822943
 10
3.8944062565
 20
-25.0420657869
  0
LINE
  5
374
100
AcDbEntity
  8
RACCORDO
100
AcDbLine
 62
250
  6
CONTINUOUS
 10
3.9984176908
 20
-8.0399105987
 11
4.0073163357
 21
-10.2802475883
  0
LWPOLYLINE
  5
375
100
AcDbEntity
  8
RACCORDO
100
AcDbPolyline
 62
7
  6
CONTINUOUS
 90
10
 70
0
 10
3.9058282518
 20
-6.9496095773
 10
3.9106978001
 20
-9.1710092506
 10
3.923822111
 20
-11.3889361938
 10
3.942334048
 20
-13.539536987
 10
3.9637451321
 20
-15.6245416508
 10
3.986954243
 20
-17.6448827916
 10
4.0150620152
 20
-19.5985110028
 10
4.0516184248
 20
-21.4828446791
 10
4.0994160295
 20
-23.2957606401
 10
4.1582255987
 20
-24.9768216763
  0
LINE
  5
376
100
AcDbEntity
  8
RACCORDO
100
AcDbLine
 62
250
  6
CONTINUOUS
 10
3.9986311131
 20
-6.0022621111
 11
3.9984176908
 21
-8.0399105987
  0
LWPOLYLINE
  5
377
100
AcDbEntity
  8
RACCORDO
100
AcDbPolyline
 62
250
  6
CONTINUOUS
 90
10
 70
0
 10
3.7044775665
 20
12.2889052253
 10
3.7043403938
 20
12.2637247549
 10
3.7063991916
 20
12.2399721903
 10
3.710632263
 20
12.2178976197
 10
3.716995017
 20
12.197733462
 10
3.7254204401
 20
12.1796920125
 10
3.7358198046
 20
12.1639632113
 10
3.7480835975
 20
12.1507126529
 10
3.762082678
 20
12.1400798337
 10
3.7661049718
 20
12.1376933101
  0
LINE
  5
378
100
AcDbEntity
  8
RACCORDO
100
AcDbLine
 62
250
  6
CONTINUOUS
 10
4.0090187838
 20
-3.569518989
 11
3.9986311131
 21
-6.0022621111
  0
LINE
  5
379
100
AcDbEntity
  8
RACCORDO
100
AcDbLine
 62
250
  6
CONTINUOUS
 10
4.0496399095
 20
1.1038086476
 11
4.0090187838
 21
-3.569518989
  0
LINE
  5
37A
100
AcDbEntity
  8
RACCORDO
100
AcDbLine
 62
250
  6
CONTINUOUS
 10
4.0941048079
 20
4.8539886638
 11
4.0496399095
 21
1.1038086476
  0
LINE
  5
37B
100
AcDbEntity
  8
RACCORDO
100
AcDbLine
 62
250
  6
CONTINUOUS
 10
4.1212515827
 20
6.5277521704
 11
4.0941048079
 21
4.8539886638
  0
LINE
  5
37C
100
AcDbEntity
  8
RACCORDO
100
AcDbLine
 62
250
  6
CONTINUOUS
 10
4.1467799737
 20
7.7880627552
 11
4.1212515827
 21
6.5277521704
  0
LINE
  5
37D
100
AcDbEntity
  8
RACCORDO
100
AcDbLine
 62
250
  6
CONTINUOUS
 10
4.1781766898
 20
9.0629142439
 11
4.1467799737
 21
7.7880627552
  0
LINE
  5
37E
100
AcDbEntity
  8
RACCORDO
100
AcDbLine
 62
250
  6
CONTINUOUS
 10
4.2032499428
 20
9.930329139
 11
4.1781766898
 21
9.0629142439
  0
LWPOLYLINE
  5
37F
100
AcDbEntity
  8
RACCORDO
100
AcDbPolyline
 62
7
  6
CONTINUOUS
 90
10
 70
0
 10
4.1582011258
 20
11.4239884957
 10
4.0995668253
 20
9.667862926
 10
4.0517336542
 20
7.7893598399
 10
4.0151476938
 20
5.8548367733
 10
3.9870205172
 20
3.862589496
 10
3.9637936409
 20
1.8103347691
 10
3.9423834378
 20
-0.3041011628
 10
3.9238618624
 20
-2.4801379613
 10
3.9107206095
 20
-4.7160936453
 10
3.9058282518
 20
-6.9496162881
  0
LWPOLYLINE
  5
380
100
AcDbEntity
  8
RACCORDO
100
AcDbPolyline
 62
250
  6
CONTINUOUS
 90
3
 70
0
 10
4.24987489
 20
11.3002227557
 10
4.2329679069
 20
10.8350541233
 10
4.2032499428
 20
9.930329139
  0
LINE
  5
381
100
AcDbEntity
  8
RACCORDO
100
AcDbLine
 62
7
  6
CONTINUOUS
 10
4.1582011258
 20
11.4239884957
 11
4.1582034813
 21
11.42405001
  0
LINE
  5
382
100
AcDbEntity
  8
0
100
AcDbLine
 62
7
  6
CONTINUOUS
 10
-2.9562584777
 20
-25.0923133905
 11
-2.9949104754
 21
-25.307393874
  0
LINE
  5
383
100
AcDbEntity
  8
0
100
AcDbLine
 62
7
  6
CONTINUOUS
 10
-2.9450162175
 20
-25.2785855548
 11
-2.9063919843
 21
-25.0635218015
  0
LINE
  5
384
100
AcDbEntity
  8
0
100
AcDbLine
 62
7
  6
CONTINUOUS
 10
-2.9063919843
 20
-25.0635218015
 11
-2.8960441147
 21
-25.0068908736
  0
LINE
  5
385
100
AcDbEntity
  8
0
100
AcDbLine
 62
7
  6
CONTINUOUS
 10
-2.9363447163
 20
-24.9836998792
 11
-2.9562584777
 21
-25.0923133905
  0
LINE
  5
386
100
AcDbEntity
  8
0
100
AcDbLine
 62
7
  6
CONTINUOUS
 10
-2.8427326501
 20
-24.7015221925
 11
-2.7936509739
 21
-24.4326502848
  0
LINE
  5
387
100
AcDbEntity
  8
0
100
AcDbLine
 62
7
  6
CONTINUOUS
 10
-2.843448896
 20
-24.4614012299
 11
-2.8925581454
 21
-24.730290809
  0
LINE
  5
388
100
AcDbEntity
  8
0
100
AcDbLine
 62
7
  6
CONTINUOUS
 10
-2.7936509739
 20
-24.4326502848
 11
-2.7521613532
 21
-24.2114582843
  0
LWPOLYLINE
  5
389
100
AcDbEntity
  8
0
100
AcDbPolyline
 62
7
  6
CONTINUOUS
 90
3
 70
0
 10
-2.7788705504
 20
-24.1193694319
 10
-2.7920704121
 20
-24.188301825
 10
-2.843448896
 20
-24.4614012299
  0
LINE
  5
38A
100
AcDbEntity
  8
0
100
AcDbLine
 62
7
  6
CONTINUOUS
 10
-3.3602466688
 20
-25.0968880651
 11
-3.2873229536
 21
-24.7523702318
  0
LINE
  5
38B
100
AcDbEntity
  8
0
100
AcDbLine
 62
7
  6
CONTINUOUS
 10
-3.2873229536
 20
-24.7523702318
 11
-3.2100714489
 21
-24.4002773221
  0
LINE
  5
38C
100
AcDbEntity
  8
0
100
AcDbLine
 62
7
  6
CONTINUOUS
 10
-3.2100714489
 20
-24.4002773221
 11
-3.1284836463
 21
-24.0406137769
  0
LWPOLYLINE
  5
38D
100
AcDbEntity
  8
0
100
AcDbPolyline
 62
7
  6
CONTINUOUS
 90
3
 70
0
 10
-3.1284836463
 20
-24.0406137769
 10
-3.0425255118
 20
-23.6733973604
 10
-2.9979096972
 20
-23.4869557151
  0
LINE
  5
38E
100
AcDbEntity
  8
0
100
AcDbLine
 62
7
  6
CONTINUOUS
 10
-4.243828826
 20
-24.5292099527
 11
-4.1551384389
 21
-24.2326288674
  0
LINE
  5
38F
100
AcDbEntity
  8
0
100
AcDbLine
 62
7
  6
CONTINUOUS
 10
-4.20498756
 20
-24.2614077605
 11
-4.2937213739
 21
-24.5580172846
  0
LINE
  5
390
100
AcDbEntity
  8
0
100
AcDbLine
 62
7
  6
CONTINUOUS
 10
-4.4109727121
 20
-23.6903518461
 11
-4.3245110987
 21
-23.4078217631
  0
LINE
  5
391
100
AcDbEntity
  8
0
100
AcDbLine
 62
7
  6
CONTINUOUS
 10
-4.1551384389
 20
-24.2326288674
 11
-4.0626685153
 21
-23.9302534971
  0
LINE
  5
392
100
AcDbEntity
  8
0
100
AcDbLine
 62
7
  6
CONTINUOUS
 10
-4.1124786914
 20
-23.9590098845
 11
-4.20498756
 21
-24.2614077605
  0
LINE
  5
393
100
AcDbEntity
  8
0
100
AcDbLine
 62
7
  6
CONTINUOUS
 10
-4.3245110987
 20
-23.4078217631
 11
-4.2348935975
 21
-23.1203812502
  0
LINE
  5
394
100
AcDbEntity
  8
0
100
AcDbLine
 62
7
  6
CONTINUOUS
 10
-4.0626685153
 20
-23.9302534971
 11
-3.9744746327
 21
-23.6477694792
  0
LINE
  5
395
100
AcDbEntity
  8
0
100
AcDbLine
 62
7
  6
CONTINUOUS
 10
-4.0161691292
 20
-23.6508187289
 11
-4.1124786914
 21
-23.9590098845
  0
LINE
  5
396
100
AcDbEntity
  8
0
100
AcDbLine
 62
7
  6
CONTINUOUS
 10
-3.9876449957
 20
-23.5607358776
 11
-4.0161691292
 21
-23.6508187289
  0
LINE
  5
397
100
AcDbEntity
  8
0
100
AcDbLine
 62
7
  6
CONTINUOUS
 10
-4.2348935975
 20
-23.1203812502
 11
-4.1421113123
 21
-22.8280370384
  0
LWPOLYLINE
  5
398
100
AcDbEntity
  8
ASSI
100
AcDbPolyline
 62
250
  6
CONTINUOUS
 90
19
 70
0
 10
29.0658300345
 20
17.7368358623
 10
29.0386962142
 20
17.7173146281
 10
29.0118015313
 20
17.6952749071
 10
28.9853227306
 20
17.6708615386
 10
28.9594338235
 20
17.6442349606
 10
28.934304945
 20
17.6155701559
 10
28.9101012354
 20
17.5850555022
 10
28.8869817549
 20
17.5528915334
 10
28.8650984384
 20
17.5192896227
 10
28.8445950973
 20
17.4844705927
 10
28.8256064739
 20
17.4486632647
 10
28.8082573563
 20
17.412102955
 10
28.7926617581
 20
17.375029928
 10
28.7789221694
 20
17.3376878177
 10
28.7671288831
 20
17.3003220262
 10
28.7573594013
 20
17.2631781116
 10
28.7496779265
 20
17.2265001734
 10
28.7441349392
 20
17.1905292494
 10
28.7407668664
 20
17.1555017307
  0
LWPOLYLINE
  5
399
100
AcDbEntity
  8
ASSI
100
AcDbPolyline
 62
250
  6
CONTINUOUS
 90
3
 70
0
 10
30.9216670648
 20
17.7621314079
 10
30.7893917188
 20
17.6796074014
 10
30.7332638564
 20
17.6450374505
  0
LWPOLYLINE
  5
39A
100
AcDbEntity
  8
RACCORDO
100
AcDbPolyline
 62
7
  6
CONTINUOUS
 90
9
 70
0
 10
30.8766122824
 20
-19.4655607529
 10
30.8717059184
 20
-19.4621909052
 10
30.8650256027
 20
-19.4555366216
 10
30.859127467
 20
-19.4468707312
 10
30.8541979899
 20
-19.4363279387
 10
30.8503529479
 20
-19.4241671274
 10
30.8476146979
 20
-19.4106183925
 10
30.8459751925
 20
-19.3958089167
 10
30.8454235126
 20
-19.3799187578
  0
LINE
  5
39B
100
AcDbEntity
  8
RACCORDO
100
AcDbLine
 62
250
  6
CONTINUOUS
 10
-12.0711346978
 20
-15.4424610271
 11
-10.5299152651
 21
-14.5525940795
  0
LINE
  5
39C
100
AcDbEntity
  8
RACCORDO
100
AcDbLine
 62
250
  6
CONTINUOUS
 10
-11.6969480557
 20
-16.0398132126
 11
-10.1777072519
 21
-15.1626362526
  0
LWPOLYLINE
  5
39D
100
AcDbEntity
  8
ASSI
100
AcDbPolyline
 62
250
  6
CONTINUOUS
 90
14
 70
0
 10
31.4018409742
 20
18.1084181318
 10
31.384559666
 20
18.0912866855
 10
31.363962382
 20
18.0725420266
 10
31.3401162297
 20
18.0522363175
 10
31.3131192291
 20
18.0304569344
 10
31.2830201606
 20
18.0072139369
 10
31.2497858623
 20
17.9824451388
 10
31.2135875379
 20
17.9563454293
 10
31.1743683047
 20
17.928813808
 10
31.1316064557
 20
17.8993726149
 10
31.0852040681
 20
17.8681860674
 10
31.0351255654
 20
17.8352449309
 10
30.9807266174
 20
17.7998688497
 10
30.9216670648
 20
17.7621314079
  0
LWPOLYLINE
  5
39E
100
AcDbEntity
  8
ASSI
100
AcDbPolyline
 62
250
  6
CONTINUOUS
 90
16
 70
0
 10
31.1210065564
 20
18.5948376098
 10
31.097534509
 20
18.5884284909
 10
31.0710073751
 20
18.5799543827
 10
31.0415038811
 20
18.5694473297
 10
31.0091487222
 20
18.5569485387
 10
30.973974983
 20
18.5424952345
 10
30.935912176
 20
18.5260898002
 10
30.8952146653
 20
18.5077830846
 10
30.851766552
 20
18.4875763091
 10
30.8048933039
 20
18.4652564347
 10
30.7546881626
 20
18.4406565519
 10
30.7011253466
 20
18.4137504777
 10
30.6432934949
 20
18.3843203404
 10
30.5810862113
 20
18.3520347644
 10
30.5146613572
 20
18.3168191056
 10
30.3854793051
 20
18.2473949189
  0
LWPOLYLINE
  5
39F
100
AcDbEntity
  8
RACCORDO
100
AcDbPolyline
 62
250
  6
CONTINUOUS
 90
16
 70
0
 10
-12.4795427052
 20
20.9595788068
 10
-12.4576487605
 20
20.9475820152
 10
-12.4338164985
 20
20.936787033
 10
-12.4082844547
 20
20.9273018881
 10
-12.3813081756
 20
20.9192214989
 10
-12.3531576527
 20
20.9126267213
 10
-12.3241146192
 20
20.9075835417
 10
-12.294469747
 20
20.9041424204
 10
-12.2645197228
 20
20.9023377828
 10
-12.2345642695
 20
20.9021876768
 10
-12.2049031901
 20
20.9036935934
 10
-12.1758333116
 20
20.9068404508
 10
-12.1476455028
 20
20.9115967561
 10
-12.1206218442
 20
20.9179149125
 10
-12.0950328001
 20
20.9257316857
 10
-12.0711344592
 20
20.9349688459
  0
LINE
  5
3A0
100
AcDbEntity
  8
RACCORDO
100
AcDbLine
 62
7
  6
CONTINUOUS
 10
0.8950109599
 20
13.7519713733
 11
3.7661049718
 21
12.1376933101
  0
LINE
  5
3A1
100
AcDbEntity
  8
RACCORDO
100
AcDbLine
 62
250
  6
CONTINUOUS
 10
0.7538666067
 20
13.94950908
 11
3.7044775662
 21
12.2889052255
  0
LINE
  5
3A2
100
AcDbEntity
  8
RACCORDO
100
AcDbLine
 62
7
  6
CONTINUOUS
 10
-0.9098181085
 20
14.7728750414
 11
0.8950109599
 21
13.7519713733
  0
LINE
  5
3A3
100
AcDbEntity
  8
RACCORDO
100
AcDbLine
 62
250
  6
CONTINUOUS
 10
-1.246603736
 20
15.0825880924
 11
0.7538666067
 21
13.94950908
  0
LINE
  5
3A4
100
AcDbEntity
  8
RACCORDO
100
AcDbLine
 62
7
  6
CONTINUOUS
 10
-2.5973942592
 20
15.7343814471
 11
-0.9098181085
 21
14.7728750414
  0
LINE
  5
3A5
100
AcDbEntity
  8
RACCORDO
100
AcDbLine
 62
250
  6
CONTINUOUS
 10
-2.673211885
 20
15.896236429
 11
-1.246603736
 21
15.0825880924
  0
LINE
  5
3A6
100
AcDbEntity
  8
RACCORDO
100
AcDbLine
 62
7
  6
CONTINUOUS
 10
-4.110201456
 20
16.6037740727
 11
-2.5973942592
 21
15.7343814471
  0
LINE
  5
3A7
100
AcDbEntity
  8
RACCORDO
100
AcDbLine
 62
250
  6
CONTINUOUS
 10
-4.8932153146
 20
17.1751562739
 11
-2.673211885
 21
15.896236429
  0
LINE
  5
3A8
100
AcDbEntity
  8
RACCORDO
100
AcDbLine
 62
250
  6
CONTINUOUS
 10
-6.4383861075
 20
18.0750704393
 11
-4.8932153146
 21
17.1751562739
  0
LWPOLYLINE
  5
3A9
100
AcDbEntity
  8
RACCORDO
100
AcDbPolyline
 62
7
  6
CONTINUOUS
 90
3
 70
0
 10
-6.4388785516
 20
17.9577975738
 10
-5.6199594777
 20
17.4795970638
 10
-4.1102023153
 20
16.6037745688
  0
LINE
  5
3AA
100
AcDbEntity
  8
RACCORDO
100
AcDbLine
 62
250
  6
CONTINUOUS
 10
-8.1198442356
 20
19.0618556953
 11
-6.4383861075
 21
18.0750704393
  0
LINE
  5
3AB
100
AcDbEntity
  8
RACCORDO
100
AcDbLine
 62
7
  6
CONTINUOUS
 10
-8.1526628512
 20
18.964475372
 11
-6.4388785516
 21
17.9577975738
  0
LINE
  5
3AC
100
AcDbEntity
  8
RACCORDO
100
AcDbLine
 62
250
  6
CONTINUOUS
 10
-9.9378165384
 20
20.1354179674
 11
-8.1198442356
 21
19.0618556953
  0
LINE
  5
3AD
100
AcDbEntity
  8
RACCORDO
100
AcDbLine
 62
7
  6
CONTINUOUS
 10
-9.9684419041
 20
20.0377895407
 11
-8.1526628512
 21
18.964475372
  0
LINE
  5
3AE
100
AcDbEntity
  8
RACCORDO
100
AcDbLine
 62
250
  6
CONTINUOUS
 10
-11.8935808585
 20
21.2950286703
 11
-9.9378165384
 21
20.1354179674
  0
LINE
  5
3AF
100
AcDbEntity
  8
RACCORDO
100
AcDbLine
 62
7
  6
CONTINUOUS
 10
-11.8317161196
 20
21.1436806369
 11
-9.9684419041
 21
20.0377895407
  0
LWPOLYLINE
  5
3B0
100
AcDbEntity
  8
RACCORDO
100
AcDbPolyline
 62
7
  6
CONTINUOUS
 90
24
 70
0
 10
3.7661584132
 20
12.1376633489
 10
3.7863929676
 20
12.1255917832
 10
3.810237844
 20
12.109575671
 10
3.8352044994
 20
12.0907643237
 10
3.8608136453
 20
12.0692868561
 10
3.8867877512
 20
12.0451883561
 10
3.9128837887
 20
12.0185156071
 10
3.9387182871
 20
11.9895066566
 10
3.9640342433
 20
11.9583284327
 10
3.9885996549
 20
11.9251556123
 10
4.0121141741
 20
11.8903082654
 10
4.0343741205
 20
11.8540324854
 10
4.0551946027
 20
11.8165887421
 10
4.0743583973
 20
11.7783596501
 10
4.0917345856
 20
11.7396359304
 10
4.1072104036
 20
11.7007253046
 10
4.120660205
 20
11.6620593293
 10
4.1320464214
 20
11.623932595
 10
4.1413504842
 20
11.58665877
 10
4.1485574439
 20
11.5506989103
 10
4.1537393911
 20
11.5163029753
 10
4.156990129
 20
11.4837372659
 10
4.1584332318
 20
11.4534712723
 10
4.1582034814
 20
11.4240500101
  0
LWPOLYLINE
  5
3B1
100
AcDbEntity
  8
RACCORDO
100
AcDbPolyline
 62
250
  6
CONTINUOUS
 90
5
 70
0
 10
3.7044775662
 20
12.2889052255
 10
3.7419205064
 20
12.266331124
 10
3.7786454251
 20
12.2414138654
 10
3.8146531081
 20
12.2141539035
 10
3.8500335172
 20
12.1844553371
  0
LWPOLYLINE
  5
3B2
100
AcDbEntity
  8
RACCORDO
100
AcDbPolyline
 62
250
  6
CONTINUOUS
 90
10
 70
0
 10
4.24987489
 20
11.3002227557
 10
4.2293478713
 20
11.3127192875
 10
4.2111090478
 20
11.3262155393
 10
4.195340953
 20
11.3405764413
 10
4.1822013934
 20
11.3556582704
 10
4.1718218691
 20
11.3713100883
 10
4.1643062581
 20
11.3873752519
 10
4.1597297762
 20
11.4036929815
 10
4.1581382246
 20
11.4200999701
 10
4.1582011258
 20
11.4239884957
  0
LWPOLYLINE
  5
3B3
100
AcDbEntity
  8
RACCORDO
100
AcDbPolyline
 62
250
  6
CONTINUOUS
 90
21
 70
0
 10
3.8500335172
 20
12.1844553371
 10
3.8846987326
 20
12.1524152465
 10
3.9183828273
 20
12.1183236204
 10
3.9511314694
 20
12.0821205595
 10
3.9829015995
 20
12.0438674694
 10
4.013294017
 20
12.0040361916
 10
4.042299234
 20
11.9625874939
 10
4.0699294228
 20
11.9195621584
 10
4.0958173553
 20
11.8755517491
 10
4.1199174086
 20
11.8305907905
 10
4.142277399
 20
11.7846460245
 10
4.1626695564
 20
11.7382069373
 10
4.1810501731
 20
11.6915178073
 10
4.197464421
 20
11.6443352014
 10
4.2118177429
 20
11.5964169781
 10
4.2242515332
 20
11.5474155941
 10
4.2346267773
 20
11.4976799667
 10
4.2424279493
 20
11.4480124395
 10
4.2474832701
 20
11.3986804966
 10
4.2499654065
 20
11.3494171664
 10
4.24987489
 20
11.3002227557
  0
LINE
  5
3B4
100
AcDbEntity
  8
0
100
AcDbLine
 62
7
  6
CONTINUOUS
 10
-7.4988642084
 20
-20.8163013251
 11
-7.5486517359
 21
-20.8450480195
  0
LINE
  5
3B5
100
AcDbEntity
  8
0
100
AcDbLine
 62
7
  6
CONTINUOUS
 10
-7.1009188135
 20
-21.0493755839
 11
-7.1506964424
 21
-21.078116563
  0
LINE
  5
3B6
100
AcDbEntity
  8
0
100
AcDbLine
 62
7
  6
CONTINUOUS
 10
-6.4209830317
 20
-21.4468380844
 11
-6.4707411552
 21
-21.4755678014
  0
LINE
  5
3B7
100
AcDbEntity
  8
0
100
AcDbLine
 62
7
  6
CONTINUOUS
 10
-6.0541730912
 20
-21.6608247637
 11
-6.103920354
 21
-21.6895482098
  0
LINE
  5
3B8
100
AcDbEntity
  8
0
100
AcDbLine
 62
7
  6
CONTINUOUS
 10
-5.9178945042
 20
-21.740132513
 11
-5.9676378124
 21
-21.7688536757
  0
LINE
  5
3B9
100
AcDbEntity
  8
0
100
AcDbLine
 62
7
  6
CONTINUOUS
 10
-5.550443589
 20
-21.9540406095
 11
-5.6001767903
 21
-21.9827559367
  0
LINE
  5
3BA
100
AcDbEntity
  8
0
100
AcDbLine
 62
7
  6
CONTINUOUS
 10
-5.1933868352
 20
-22.1616741523
 11
-5.2431113789
 21
-22.1903844806
  0
LINE
  5
3BB
100
AcDbEntity
  8
0
100
AcDbLine
 62
7
  6
CONTINUOUS
 10
-6.4292069007
 20
-23.2622152091
 11
-6.4791101508
 21
-23.2910287203
  0
LWPOLYLINE
  5
3BC
100
AcDbEntity
  8
0
100
AcDbPolyline
 62
7
  6
CONTINUOUS
 90
16
 70
0
 10
-1.1342940539
 20
-25.2990391933
 10
-1.1270219496
 20
-25.2942616473
 10
-1.1185043445
 20
-25.286973047
 10
-1.1108859011
 20
-25.2785055535
 10
-1.1041551252
 20
-25.268999171
 10
-1.0982793421
 20
-25.2585617276
 10
-1.0932084337
 20
-25.2472881855
 10
-1.0889316148
 20
-25.2353203801
 10
-1.0854162984
 20
-25.2227330015
 10
-1.0825981177
 20
-25.2094940062
 10
-1.0804755104
 20
-25.1956920505
 10
-1.0790454573
 20
-25.1813985203
 10
-1.0782805472
 20
-25.1665215291
 10
-1.0781945354
 20
-25.1510716186
 10
-1.0788184117
 20
-25.1351786339
 10
-1.0801724066
 20
-25.1189217123
  0
LINE
  5
3BD
100
AcDbEntity
  8
0
100
AcDbLine
 62
7
  6
CONTINUOUS
 10
-4.8256316531
 20
-22.3750538197
 11
-4.8753489937
 21
-22.4037599891
  0
LINE
  5
3BE
100
AcDbEntity
  8
0
100
AcDbLine
 62
7
  6
CONTINUOUS
 10
-4.0924009644
 20
-22.7993349065
 11
-4.1421113123
 21
-22.8280370384
  0
LINE
  5
3BF
100
AcDbEntity
  8
0
100
AcDbLine
 62
7
  6
CONTINUOUS
 10
-5.3581210438
 20
-23.8840785967
 11
-5.4080184566
 21
-23.9128887374
  0
LINE
  5
3C0
100
AcDbEntity
  8
0
100
AcDbLine
 62
7
  6
CONTINUOUS
 10
-3.7272246878
 20
-23.0100408339
 11
-3.7769361768
 21
-23.0387436246
  0
LINE
  5
3C1
100
AcDbEntity
  8
0
100
AcDbLine
 62
7
  6
CONTINUOUS
 10
-4.8074812981
 20
-24.2031222478
 11
-4.8573758448
 21
-24.2319307337
  0
LINE
  5
3C2
100
AcDbEntity
  8
0
100
AcDbLine
 62
7
  6
CONTINUOUS
 10
-2.9481866389
 20
-23.4582462444
 11
-2.9979096972
 21
-23.4869557151
  0
LINE
  5
3C3
100
AcDbEntity
  8
0
100
AcDbLine
 62
7
  6
CONTINUOUS
 10
-4.243828826
 20
-24.5292099527
 11
-4.2937213739
 21
-24.5580172846
  0
LINE
  5
3C4
100
AcDbEntity
  8
0
100
AcDbLine
 62
7
  6
CONTINUOUS
 10
-2.590139749
 20
-23.6636856236
 11
-2.6398711659
 21
-23.6923999204
  0
LINE
  5
3C5
100
AcDbEntity
  8
0
100
AcDbLine
 62
7
  6
CONTINUOUS
 10
-1.9347932053
 20
-24.0605343309
 11
-1.9845441324
 21
-24.0892598927
  0
LINE
  5
3C6
100
AcDbEntity
  8
0
100
AcDbLine
 62
7
  6
CONTINUOUS
 10
-2.8427326501
 20
-24.7015221925
 11
-2.8925581454
 21
-24.730290809
  0
LINE
  5
3C7
100
AcDbEntity
  8
0
100
AcDbLine
 62
7
  6
CONTINUOUS
 10
-3.3683340121
 20
-25.0346528216
 11
-3.4182267524
 21
-25.0634602645
  0
LINE
  5
3C8
100
AcDbEntity
  8
0
100
AcDbLine
 62
7
  6
CONTINUOUS
 10
-2.9450162175
 20
-25.2785855548
 11
-2.9949104754
 21
-25.307393874
  0
LINE
  5
3C9
100
AcDbEntity
  8
0
100
AcDbLine
 62
250
  6
CONTINUOUS
 10
-1.0172736173
 20
-24.6037326466
 11
-1.067051942
 21
-24.6324740274
  0
LINE
  5
3CA
100
AcDbEntity
  8
0
100
AcDbLine
 62
7
  6
CONTINUOUS
 10
-1.5022303377
 20
-25.105141097
 11
-1.5520477491
 21
-25.133905046
  0
LWPOLYLINE
  5
3CB
100
AcDbEntity
  8
ASSI
100
AcDbPolyline
 62
250
  6
CONTINUOUS
 90
10
 70
0
 10
28.7407660381
 20
-52.1656546092
 10
28.7441341241
 20
-52.1962938743
 10
28.7496771349
 20
-52.2251023331
 10
28.7573586406
 20
-52.2518906655
 10
28.7671281561
 20
-52.2764828244
 10
28.778921477
 20
-52.2987172031
 10
28.7926611046
 20
-52.318447694
 10
28.8082567481
 20
-52.3355446354
 10
28.8256059154
 20
-52.3498956674
 10
28.8430635754
 20
-52.3606158936
  0
LINE
  5
3CC
100
AcDbEntity
  8
RACCORDO
100
AcDbLine
 62
250
  6
CONTINUOUS
 10
3.8944062565
 20
-25.0420657869
 11
4.1532739588
 21
-24.8352799339
  0
LWPOLYLINE
  5
3CD
100
AcDbEntity
  8
RACCORDO
100
AcDbPolyline
 62
250
  6
CONTINUOUS
 90
15
 70
0
 10
4.153577455
 20
-25.0614728438
 10
4.1518818292
 20
-25.0628003857
 10
4.1375143767
 20
-25.0725923662
 10
4.1221450382
 20
-25.0805927834
 10
4.1058279602
 20
-25.086784699
 10
4.0885925681
 20
-25.0911647928
 10
4.0706086616
 20
-25.0937025706
 10
4.051867175
 20
-25.094406747
 10
4.0320848208
 20
-25.0932438731
 10
4.0111772623
 20
-25.090094693
 10
3.9893269379
 20
-25.0848708388
 10
3.9666267023
 20
-25.0775116464
 10
3.9431725127
 20
-25.0679608297
 10
3.9190606741
 20
-25.0561590708
 10
3.894406744
 20
-25.0420653975
  0
LWPOLYLINE
  5
3CE
100
AcDbEntity
  8
0
100
AcDbPolyline
 62
7
  6
CONTINUOUS
 90
42
 70
0
 10
-0.7871901501
 20
-25.5807313447
 10
-0.7789304062
 20
-25.5757586964
 10
-0.7709263851
 20
-25.5702410709
 10
-0.7630081993
 20
-25.564069401
 10
-0.7551713325
 20
-25.5572531113
 10
-0.7475362512
 20
-25.549608881
 10
-0.74010643
 20
-25.5411114649
 10
-0.7328774201
 20
-25.5317855458
 10
-0.7259576785
 20
-25.5215226237
 10
-0.7193402137
 20
-25.5103375501
 10
-0.7130308563
 20
-25.4982148032
 10
-0.7071571751
 20
-25.485000253
 10
-0.7016971979
 20
-25.4706982607
 10
-0.6966714364
 20
-25.4553036218
 10
-0.6922710463
 20
-25.4386477773
 10
-0.6884860368
 20
-25.4207287403
 10
-0.6853246708
 20
-25.4015475
 10
-0.6830053826
 20
-25.3809399022
 10
-0.6815216425
 20
-25.3589046402
 10
-0.6808780164
 20
-25.3354418869
 10
-0.6813095114
 20
-25.3103896663
 10
-0.6827736277
 20
-25.2837770496
 10
-0.6853106926
 20
-25.2555737113
 10
-0.689279885
 20
-25.2255285405
 10
-0.6945838612
 20
-25.1935722288
 10
-0.7013174159
 20
-25.1597726129
 10
-0.7101284304
 20
-25.1240845853
 10
-0.7212070322
 20
-25.0860710398
 10
-0.7343612939
 20
-25.0461680435
 10
-0.7496685736
 20
-25.0056417271
 10
-0.767492151
 20
-24.9642629308
 10
-0.7874710624
 20
-24.9222621517
 10
-0.808600099
 20
-24.8815971992
 10
-0.8308819695
 20
-24.8426511241
 10
-0.8543193613
 20
-24.8050439913
 10
-0.8779087783
 20
-24.7695901387
 10
-0.9014450996
 20
-24.736563243
 10
-0.9251375425
 20
-24.7056919928
 10
-0.9486038292
 20
-24.6769730777
 10
-0.9717172511
 20
-24.6504058084
 10
-0.9946068354
 20
-24.6259922129
 10
-1.0172734659
 20
-24.6037328016
  0
LINE
  5
3CF
100
AcDbEntity
  8
0
100
AcDbLine
 62
250
  6
CONTINUOUS
 10
-1.2903700656
 20
-25.2263101532
 11
-1.3401917971
 21
-25.2550765966
  0
LINE
  5
3D0
100
AcDbEntity
  8
0
100
AcDbLine
 62
7
  6
CONTINUOUS
 10
-1.8541014113
 20
-25.9059441677
 11
-1.9040015258
 21
-25.9347558684
  0
LINE
  5
3D1
100
AcDbEntity
  8
0
100
AcDbLine
 62
7
  6
CONTINUOUS
 10
-0.9263706598
 20
-25.6381003931
 11
-0.9391578039
 21
-25.6454835298
  0
LINE
  5
3D2
100
AcDbEntity
  8
0
100
AcDbLine
 62
7
  6
CONTINUOUS
 10
-1.3768595968
 20
-26.1798602475
 11
-1.4267622533
 21
-26.2086734159
  0
LINE
  5
3D3
100
AcDbEntity
  8
0
100
AcDbLine
 62
250
  6
CONTINUOUS
 10
-0.6370956573
 20
-26.117024416
 11
-0.6869630874
 21
-26.1458172451
  0
LINE
  5
3D4
100
AcDbEntity
  8
0
100
AcDbLine
 62
7
  6
CONTINUOUS
 10
-0.4534784343
 20
-26.709007666
 11
-0.5033840625
 21
-26.7378225502
  0
LWPOLYLINE
  5
3D5
100
AcDbEntity
  8
0
100
AcDbPolyline
 62
7
  6
CONTINUOUS
 90
15
 70
0
 10
-0.8370158415
 20
-25.6095197591
 10
-0.8393884207
 20
-25.6108691581
 10
-0.8473444963
 20
-25.6151172139
 10
-0.8552179749
 20
-25.6189552717
 10
-0.8629890814
 20
-25.6224464822
 10
-0.8706283295
 20
-25.6256382975
 10
-0.8780578175
 20
-25.6285514563
 10
-0.8853076381
 20
-25.6312457083
 10
-0.8925220793
 20
-25.6338058061
 10
-0.8996703026
 20
-25.6360756484
 10
-0.9068399082
 20
-25.6378012447
 10
-0.9143900962
 20
-25.6387995087
 10
-0.9224905927
 20
-25.6387568115
 10
-0.9310990081
 20
-25.6373004649
 10
-0.9402807916
 20
-25.6340716358
  0
LWPOLYLINE
  5
3D6
100
AcDbEntity
  8
RACCORDO
100
AcDbPolyline
 62
7
  6
CONTINUOUS
 90
10
 70
0
 10
-11.9339311348
 20
21.1786713451
 10
-11.9325461782
 20
21.178858668
 10
-11.9283442101
 20
21.1790275834
 10
-11.9215658058
 20
21.1786280482
 10
-11.9120348402
 20
21.1771906611
 10
-11.8996857862
 20
21.1742446443
 10
-11.8849015522
 20
21.1694620231
 10
-11.8683399502
 20
21.1627577271
 10
-11.8504242847
 20
21.1541125015
 10
-11.8318804765
 20
21.1437785107
  0
LINE
  5
3D7
100
AcDbEntity
  8
ASSI
100
AcDbLine
 62
250
  6
CONTINUOUS
 10
29.622859223
 20
-51.8132169128
 11
29.6312515435
 21
-52.004739239
  0
LINE
  5
3D8
100
AcDbEntity
  8
ASSI
100
AcDbLine
 62
250
  6
CONTINUOUS
 10
29.6077074225
 20
-51.4064176416
 11
29.622859223
 21
-51.8132169128
  0
LINE
  5
3D9
100
AcDbEntity
  8
ASSI
100
AcDbLine
 62
250
  6
CONTINUOUS
 10
29.5947292128
 20
-50.9691270626
 11
29.6077074225
 21
-51.4064176416
  0
LINE
  5
3DA
100
AcDbEntity
  8
ASSI
100
AcDbLine
 62
250
  6
CONTINUOUS
 10
29.5839432704
 20
-50.4944791
 11
29.5947292128
 21
-50.9691270626
  0
LINE
  5
3DB
100
AcDbEntity
  8
ASSI
100
AcDbLine
 62
250
  6
CONTINUOUS
 10
29.5753623947
 20
-49.9800323933
 11
29.5839432704
 21
-50.4944791
  0
LWPOLYLINE
  5
3DC
100
AcDbEntity
  8
ASSI
100
AcDbPolyline
 62
250
  6
CONTINUOUS
 90
3
 70
0
 10
29.5666766813
 20
-49.1299964988
 10
29.5690487103
 20
-49.4216964186
 10
29.5753623947
 20
-49.9800323933
  0
LINE
  5
3DD
100
AcDbEntity
  8
ASSI
100
AcDbLine
 62
250
  6
CONTINUOUS
 10
28.9747797517
 20
-6.5186483793
 11
28.9734392739
 21
-35.4901489522
  0
LINE
  5
3DE
100
AcDbEntity
  8
ASSI
100
AcDbLine
 62
250
  6
CONTINUOUS
 10
28.9734392739
 20
-35.4901489522
 11
28.9736453822
 21
-47.0122106113
  0
LINE
  5
3DF
100
AcDbEntity
  8
ASSI
100
AcDbLine
 62
250
  6
CONTINUOUS
 10
28.9733090727
 20
9.7358574968
 11
28.9747797517
 21
-6.5186483793
  0
LINE
  5
3E0
100
AcDbEntity
  8
ASSI
100
AcDbLine
 62
250
  6
CONTINUOUS
 10
28.9724634981
 20
13.4019993108
 11
28.9733090727
 21
9.7358574968
  0
LINE
  5
3E1
100
AcDbEntity
  8
ASSI
100
AcDbLine
 62
250
  6
CONTINUOUS
 10
28.9651777377
 20
16.7668265448
 11
28.9724634981
 21
13.4019993108
  0
LWPOLYLINE
  5
3E2
100
AcDbEntity
  8
ASSI
100
AcDbPolyline
 62
250
  6
CONTINUOUS
 90
3
 70
0
 10
28.9736453822
 20
-47.0122106113
 10
28.9679676887
 20
-50.5359855202
 10
28.9651960817
 20
-52.0361123982
  0
LWPOLYLINE
  5
3E3
100
AcDbEntity
  8
ASSI
100
AcDbPolyline
 62
250
  6
CONTINUOUS
 90
6
 70
0
 10
29.6312372196
 20
16.7573269903
 10
29.6179771563
 20
16.4191822357
 10
29.6063635566
 20
16.0820332496
 10
29.5963964205
 20
15.7458800319
 10
29.5882533642
 20
15.4100920362
 10
29.5763737935
 20
14.7433949893
  0
LWPOLYLINE
  5
3E4
100
AcDbEntity
  8
ASSI
100
AcDbPolyline
 62
250
  6
CONTINUOUS
 90
16
 70
0
 10
29.5401516505
 20
-17.6736174651
 10
29.5096202971
 20
-17.6890365635
 10
29.4770247552
 20
-17.7029759941
 10
29.4425795447
 20
-17.7153440179
 10
29.406511359
 20
-17.7260592375
 10
29.3690575723
 20
-17.7350511331
 10
29.3304646781
 20
-17.7422605266
 10
29.2909866668
 20
-17.7476399711
 10
29.2508833538
 20
-17.7511540629
 10
29.2104186697
 20
-17.7527796748
 10
29.1698589236
 20
-17.7525061083
 10
29.1294710502
 20
-17.7503351637
 10
29.0895208529
 20
-17.7462811286
 10
29.0502712548
 20
-17.7403706836
 10
29.0119805682
 20
-17.7326427271
 10
28.9749007943
 20
-17.7231481187
  0
LWPOLYLINE
  5
3E5
100
AcDbEntity
  8
ASSI
100
AcDbPolyline
 62
250
  6
CONTINUOUS
 90
19
 70
0
 10
28.9651910798
 20
16.7666831895
 10
28.9972100766
 20
16.7520770462
 10
29.0311345674
 20
16.7388820883
 10
29.0667415401
 20
16.727185056
 10
29.1037969213
 20
16.7170628428
 10
29.1420571183
 20
16.7085819888
 10
29.1812706206
 20
16.7017982445
 10
29.221179649
 20
16.6967562043
 10
29.2615218498
 20
16.6934890136
 10
29.3020320231
 20
16.6920181503
 10
29.3424438644
 20
16.6923532834
 10
29.3824917158
 20
16.6944922097
 10
29.4219123122
 20
16.6984208687
 10
29.4604465216
 20
16.7041134357
 10
29.497841019
 20
16.7115324884
 10
29.5338499543
 20
16.720629248
 10
29.5682366085
 20
16.7313439081
 10
29.6007749459
 20
16.7436060314
 10
29.6312510728
 20
16.7573350065
  0
LINE
  5
3E6
100
AcDbEntity
  8
ASSI
100
AcDbLine
 62
250
  6
CONTINUOUS
 10
28.8852901761
 20
17.8313355463
 11
29.0658334914
 21
17.7368378583
  0
LINE
  5
3E7
100
AcDbEntity
  8
ASSI
100
AcDbLine
 62
250
  6
CONTINUOUS
 10
-26.3422868686
 20
48.9696217869
 11
-20.6603099071
 21
45.6897343084
  0
LINE
  5
3E8
100
AcDbEntity
  8
ASSI
100
AcDbLine
 62
250
  6
CONTINUOUS
 10
-12.3419885708
 20
40.8931294216
 11
8.1597328102
 21
29.0563318512
  0
LINE
  5
3E9
100
AcDbEntity
  8
ASSI
100
AcDbLine
 62
250
  6
CONTINUOUS
 10
8.1597328102
 20
29.0563318512
 11
13.0233448932
 21
26.2456550201
  0
LWPOLYLINE
  5
3EA
100
AcDbEntity
  8
ASSI
100
AcDbPolyline
 62
250
  6
CONTINUOUS
 90
3
 70
0
 10
13.0233448932
 20
26.2456550201
 10
25.2504989083
 20
19.1797595003
 10
25.8231383608
 20
18.848297751
  0
LINE
  5
3EB
100
AcDbEntity
  8
ASSI
100
AcDbLine
 62
250
  6
CONTINUOUS
 10
28.1771007829
 20
17.4811521998
 11
28.7408436875
 21
17.1554471103
  0
LINE
  5
3EC
100
AcDbEntity
  8
ASSI
100
AcDbLine
 62
250
  6
CONTINUOUS
 10
-30.8459583815
 20
51.5601218149
 11
-30.5714442811
 21
51.4011562508
  0
LWPOLYLINE
  5
3ED
100
AcDbEntity
  8
ASSI
100
AcDbPolyline
 62
250
  6
CONTINUOUS
 90
7
 70
0
 10
-30.4857226659
 20
52.1212445212
 10
-30.2146273811
 20
51.9496574418
 10
-29.9423975746
 20
51.7793017333
 10
-29.6690332465
 20
51.6101773958
 10
-29.3938276403
 20
51.4420947655
 10
-29.1174875124
 20
51.2752435061
 10
-28.5692151661
 20
50.9477394876
  0
LWPOLYLINE
  5
3EE
100
AcDbEntity
  8
ASSI
100
AcDbPolyline
 62
250
  6
CONTINUOUS
 90
22
 70
0
 10
28.9651777377
 20
16.7668265448
 10
28.9645434478
 20
16.7866480417
 10
28.9626544941
 20
16.8068599287
 10
28.9595175683
 20
16.8274661185
 10
28.9551059338
 20
16.8485949232
 10
28.9494600951
 20
16.8701260704
 10
28.9426860819
 20
16.8916897225
 10
28.9347701471
 20
16.9132848562
 10
28.9257356854
 20
16.9349181616
 10
28.9157405297
 20
16.9562291264
 10
28.9047703756
 20
16.9772139341
 10
28.8928430162
 20
16.9978785111
 10
28.8801596569
 20
17.0178742119
 10
28.8667063276
 20
17.0371885486
 10
28.8524934506
 20
17.0558320667
 10
28.8377540492
 20
17.0734879235
 10
28.8224721241
 20
17.090138205
 10
28.8066539644
 20
17.1057953434
 10
28.7905621412
 20
17.1201857724
 10
28.7742790171
 20
17.1332153654
 10
28.7577084369
 20
17.1449704146
 10
28.7408436875
 20
17.1554471103
  0
LWPOLYLINE
  5
3EF
100
AcDbEntity
  8
ASSI
100
AcDbPolyline
 62
250
  6
CONTINUOUS
 90
22
 70
0
 10
29.6312512767
 20
16.7573351066
 10
29.629758513
 20
16.8070799345
 10
29.6250824662
 20
16.8583554209
 10
29.6172541666
 20
16.9108791374
 10
29.6063189599
 20
16.964360012
 10
29.5923440719
 20
17.0185033225
 10
29.5754184426
 20
17.0730123093
 10
29.5556398636
 20
17.1275853903
 10
29.5331198756
 20
17.1819178921
 10
29.5079915168
 20
17.2357071544
 10
29.4803975752
 20
17.2886544366
 10
29.4504913444
 20
17.3404626543
 10
29.418442182
 20
17.390838373
 10
29.3844307936
 20
17.4395001589
 10
29.3486444099
 20
17.4861750851
 10
29.3112782663
 20
17.5305968586
 10
29.2725403451
 20
17.5725165206
 10
29.2326429801
 20
17.611698407
 10
29.1917985578
 20
17.6479170416
 10
29.1502286649
 20
17.6809667029
 10
29.1081627824
 20
17.710662398
 10
29.0658300345
 20
17.7368358623
  0
LINE
  5
3F0
100
AcDbEntity
  8
ASSI
100
AcDbLine
 62
250
  6
CONTINUOUS
 10
29.5618585666
 20
-47.904625812
 11
29.5666766813
 21
-49.1299964988
  0
LINE
  5
3F1
100
AcDbEntity
  8
ASSI
100
AcDbLine
 62
250
  6
CONTINUOUS
 10
29.5401999585
 20
-22.3955380996
 11
29.5645974348
 21
-42.3336672766
  0
LINE
  5
3F2
100
AcDbEntity
  8
ASSI
100
AcDbLine
 62
7
  6
CONTINUOUS
 10
30.7651207562
 20
-51.4168780835
 11
30.7651207562
 21
17.4120139045
  0
LINE
  5
3F3
100
AcDbEntity
  8
RACCORDO
100
AcDbLine
 62
7
  6
CONTINUOUS
 10
30.8454235126
 20
-13.9011278446
 11
30.8454235126
 21
-19.3799187578
  0
LINE
  5
3F4
100
AcDbEntity
  8
0
100
AcDbLine
 62
7
  6
CONTINUOUS
 10
31.4018409955
 20
18.1084179457
 11
31.4018409772
 21
-12.8064284692
  0
LINE
  5
3F5
100
AcDbEntity
  8
0
100
AcDbLine
 62
7
  6
CONTINUOUS
 10
31.4018409772
 20
-18.6675075143
 11
31.4018410588
 21
-49.5823533577
  0
LINE
  5
3F6
100
AcDbEntity
  8
ASSI
100
AcDbLine
 62
250
  6
CONTINUOUS
 10
29.5645974348
 20
-42.3336672766
 11
29.5642242649
 21
-43.9151583888
  0
LWPOLYLINE
  5
3F7
100
AcDbEntity
  8
ASSI
100
AcDbPolyline
 62
250
  6
CONTINUOUS
 90
3
 70
0
 10
29.5642242649
 20
-43.9151583888
 10
29.5628847275
 20
-45.0031369717
 10
29.5618585666
 20
-47.904625812
  0
LINE
  5
3F8
100
AcDbEntity
  8
ASSI
100
AcDbLine
 62
250
  6
CONTINUOUS
 10
29.5646981823
 20
8.004753947
 11
29.5633068484
 21
6.0118183395
  0
LINE
  5
3F9
100
AcDbEntity
  8
ASSI
100
AcDbLine
 62
250
  6
CONTINUOUS
 10
29.5505504851
 20
1.2327391295
 11
29.5401999585
 21
-22.3955380996
  0
LINE
  5
3FA
100
AcDbEntity
  8
ASSI
100
AcDbLine
 62
250
  6
CONTINUOUS
 10
29.5632029534
 20
13.1143059873
 11
29.5646981823
 21
8.004753947
  0
LINE
  5
3FB
100
AcDbEntity
  8
ASSI
100
AcDbLine
 62
250
  6
CONTINUOUS
 10
29.5633068484
 20
6.0118183395
 11
29.5505504851
 21
1.2327391295
  0
LINE
  5
3FC
100
AcDbEntity
  8
ASSI
100
AcDbLine
 62
250
  6
CONTINUOUS
 10
29.5688982088
 20
14.0921688982
 11
29.5632029534
 21
13.1143059873
  0
LINE
  5
3FD
100
AcDbEntity
  8
ASSI
100
AcDbLine
 62
250
  6
CONTINUOUS
 10
29.5763737935
 20
14.7433949893
 11
29.5688982088
 21
14.0921688982
  0
LWPOLYLINE
  5
3FE
100
AcDbEntity
  8
RACCORDO
100
AcDbPolyline
 62
7
  6
CONTINUOUS
 90
16
 70
0
 10
30.8454235126
 20
-13.9011278446
 10
30.8459727834
 20
-13.8842373434
 10
30.8476079716
 20
-13.8663663409
 10
30.8503362442
 20
-13.8476829025
 10
30.8541592357
 20
-13.8282885986
 10
30.8590522435
 20
-13.8084537142
 10
30.8649119027
 20
-13.7886158899
 10
30.8715661538
 20
-13.7691356568
 10
30.8789565203
 20
-13.7500269305
 10
30.887134274
 20
-13.7312196305
 10
30.8960857125
 20
-13.7127511369
 10
30.9056459713
 20
-13.6950079003
 10
30.9156341305
 20
-13.6784279742
 10
30.9258738739
 20
-13.6632307129
 10
30.9362251666
 20
-13.6494621498
 10
30.9465299809
 20
-13.6372324695
  0
LWPOLYLINE
  5
3FF
100
AcDbEntity
  8
ASSI
100
AcDbPolyline
 62
7
  6
CONTINUOUS
 90
3
 70
0
 10
31.4018410588
 20
-49.5823533577
 10
31.4006486659
 20
-49.6136763562
 10
31.3984171299
 20
-49.6362408533
  0
LINE
  5
400
100
AcDbEntity
  8
RACCORDO
100
AcDbLine
 62
7
  6
CONTINUOUS
 10
30.8454235126
 20
-18.414374683
 11
30.9065421125
 21
-18.3815281574
  0
LWPOLYLINE
  5
401
100
AcDbEntity
  8
ASSI
100
AcDbPolyline
 62
250
  6
CONTINUOUS
 90
22
 70
0
 10
-30.8459583815
 20
51.5601218149
 10
-30.8614341752
 20
51.5683174851
 10
-30.8768001456
 20
51.5750018783
 10
-30.8920488316
 20
51.5801783687
 10
-30.9072578297
 20
51.583861102
 10
-30.9223342019
 20
51.5860428597
 10
-30.9370163715
 20
51.5866942066
 10
-30.9512915682
 20
51.5857915938
 10
-30.9651617754
 20
51.5833634349
 10
-30.9783919016
 20
51.5794562766
 10
-30.9909705384
 20
51.5740469756
 10
-31.0029052086
 20
51.5671604244
 10
-31.0139945731
 20
51.5589128113
 10
-31.0242273397
 20
51.5492814591
 10
-31.0336188052
 20
51.5382872349
 10
-31.0420128684
 20
51.5261092327
 10
-31.0493986726
 20
51.5127277838
 10
-31.0557980088
 20
51.4981576175
 10
-31.0611080476
 20
51.4826274876
 10
-31.0653002583
 20
51.4662110496
 10
-31.0684185769
 20
51.4488276828
 10
-31.0704705223
 20
51.430473982
  0
LINE
  5
402
100
AcDbEntity
  8
ASSI
100
AcDbLine
 62
250
  6
CONTINUOUS
 10
28.5047865421
 20
18.0334990633
 11
28.8852901761
 21
17.8313355463
  0
LWPOLYLINE
  5
403
100
AcDbEntity
  8
ASSI
100
AcDbPolyline
 62
250
  6
CONTINUOUS
 90
12
 70
0
 10
-30.4857953815
 20
52.1211980204
 10
-30.5279674447
 20
52.1438169055
 10
-30.569936985
 20
52.1626430984
 10
-30.6114639763
 20
52.1775738389
 10
-30.6523140691
 20
52.1885261599
 10
-30.6922518703
 20
52.1954417845
 10
-30.7310423193
 20
52.1982877276
 10
-30.768464774
 20
52.1970494975
 10
-30.8043078382
 20
52.1917338351
 10
-30.8383628483
 20
52.1823739421
 10
-30.8704368108
 20
52.1690232554
 10
-30.8958469802
 20
52.1546947511
  0
LINE
  5
404
100
AcDbEntity
  8
ASSI
100
AcDbLine
 62
250
  6
CONTINUOUS
 10
28.0991560169
 20
18.2527738057
 11
28.5047865421
 21
18.0334990633
  0
LINE
  5
405
100
AcDbEntity
  8
ASSI
100
AcDbLine
 62
250
  6
CONTINUOUS
 10
27.664294166
 20
18.4915753786
 11
28.0991560169
 21
18.2527738057
  0
LINE
  5
406
100
AcDbEntity
  8
ASSI
100
AcDbLine
 62
250
  6
CONTINUOUS
 10
27.1976465868
 20
18.751359737
 11
27.664294166
 21
18.4915753786
  0
LINE
  5
407
100
AcDbEntity
  8
ASSI
100
AcDbLine
 62
250
  6
CONTINUOUS
 10
26.4285639562
 20
19.1856627999
 11
27.1976465868
 21
18.751359737
  0
LINE
  5
408
100
AcDbEntity
  8
ASSI
100
AcDbLine
 62
250
  6
CONTINUOUS
 10
24.395805264
 20
20.3512874085
 11
26.4285639562
 21
19.1856627999
  0
LINE
  5
409
100
AcDbEntity
  8
ASSI
100
AcDbLine
 62
250
  6
CONTINUOUS
 10
-30.5714442811
 20
51.4011562508
 11
-27.2405872308
 21
49.4877852183
  0
LINE
  5
40A
100
AcDbEntity
  8
ASSI
100
AcDbLine
 62
250
  6
CONTINUOUS
 10
21.821823177
 20
21.8336224164
 11
24.395805264
 21
20.3512874085
  0
LINE
  5
40B
100
AcDbEntity
  8
ASSI
100
AcDbLine
 62
250
  6
CONTINUOUS
 10
-20.6603099071
 20
45.6897343084
 11
-12.3419885708
 21
40.8931294216
  0
LINE
  5
40C
100
AcDbEntity
  8
ASSI
100
AcDbLine
 62
250
  6
CONTINUOUS
 10
-27.2405872308
 20
49.4877852183
 11
-26.3422868686
 21
48.9696217869
  0
LINE
  5
40D
100
AcDbEntity
  8
ASSI
100
AcDbLine
 62
7
  6
CONTINUOUS
 10
30.1996291775
 20
18.391474049
 11
-29.409860169
 21
52.8092461154
  0
LINE
  5
40E
100
AcDbEntity
  8
ASSI
100
AcDbLine
 62
7
  6
CONTINUOUS
 10
-27.5028075257
 20
52.4434935266
 11
31.1210063802
 21
18.5948377404
  0
LINE
  5
40F
100
AcDbEntity
  8
ASSI
100
AcDbLine
 62
250
  6
CONTINUOUS
 10
-16.3034857274
 20
43.816663347
 11
21.821823177
 21
21.8336224164
  0
LINE
  5
410
100
AcDbEntity
  8
ASSI
100
AcDbLine
 62
250
  6
CONTINUOUS
 10
25.8231383608
 20
18.848297751
 11
28.1771007829
 21
17.4811521998
  0
LINE
  5
411
100
AcDbEntity
  8
ASSI
100
AcDbLine
 62
250
  6
CONTINUOUS
 10
-22.8646034602
 20
47.6338723943
 11
-20.7805166815
 21
46.422975175
  0
LINE
  5
412
100
AcDbEntity
  8
ASSI
100
AcDbLine
 62
250
  6
CONTINUOUS
 10
-20.7805166815
 20
46.422975175
 11
-16.3034857274
 21
43.816663347
  0
LINE
  5
413
100
AcDbEntity
  8
ASSI
100
AcDbLine
 62
250
  6
CONTINUOUS
 10
-27.7502773427
 20
50.4660143764
 11
-22.8646034602
 21
47.6338723943
  0
LINE
  5
414
100
AcDbEntity
  8
ASSI
100
AcDbLine
 62
250
  6
CONTINUOUS
 10
-28.5692151661
 20
50.9477394876
 11
-27.7502773427
 21
50.4660143764
  0
LWPOLYLINE
  5
415
100
AcDbEntity
  8
ASSI
100
AcDbPolyline
 62
7
  6
CONTINUOUS
 90
19
 70
0
 10
31.1210063802
 20
18.5948377404
 10
31.1490582681
 20
18.5772250933
 10
31.1757990116
 20
18.5581417913
 10
31.2012286109
 20
18.5375878343
 10
31.2254083643
 20
18.515415985
 10
31.2482769734
 20
18.4917734809
 10
31.2696505429
 20
18.4671020338
 10
31.2894736083
 20
18.4414921992
 10
31.3078016342
 20
18.4148534217
 10
31.3246171188
 20
18.3873557477
 10
31.3399645529
 20
18.3589835297
 10
31.3537994457
 20
18.3297524152
 10
31.3659708239
 20
18.2998793926
 10
31.3764995605
 20
18.269406318
 10
31.3853647825
 20
18.2382913352
 10
31.3923528963
 20
18.2066258645
 10
31.3973927041
 20
18.1744403795
 10
31.4005554039
 20
18.1417044065
 10
31.4018409955
 20
18.1084179457
  0
LWPOLYLINE
  5
416
100
AcDbEntity
  8
RACCORDO
100
AcDbPolyline
 62
7
  6
CONTINUOUS
 90
9
 70
0
 10
30.9465299809
 20
-19.4424995799
 10
30.9362545768
 20
-19.4520689455
 10
30.9259333155
 20
-19.4596936922
 10
30.9157228054
 20
-19.4653023178
 10
30.9057656451
 20
-19.468865732
 10
30.8962321419
 20
-19.4703155506
 10
30.8872916031
 20
-19.4696182489
 10
30.8791101514
 20
-19.4668766736
 10
30.8766122824
 20
-19.4655607529
  0
LWPOLYLINE
  5
417
100
AcDbEntity
  8
ASSI
100
AcDbPolyline
 62
7
  6
CONTINUOUS
 90
3
 70
0
 10
-27.5511591022
 20
52.4674924539
 10
-27.5304651284
 20
52.4581230547
 10
-27.5028075257
 20
52.4434935266
  0
LINE
  5
418
100
AcDbEntity
  8
ASSI
100
AcDbLine
 62
250
  6
CONTINUOUS
 10
31.3853536439
 20
-49.6952541251
 11
31.4018409637
 21
-49.5823542197
  0
LINE
  5
419
100
AcDbEntity
  8
ASSI
100
AcDbLine
 62
250
  6
CONTINUOUS
 10
-27.6088719527
 20
52.485679921
 11
-27.5028108175
 21
52.4434949719
  0
LWPOLYLINE
  5
41A
100
AcDbEntity
  8
ASSI
100
AcDbPolyline
 62
7
  6
CONTINUOUS
 90
13
 70
0
 10
-27.5511711608
 20
52.4675999179
 10
-27.6272526511
 20
52.4982978177
 10
-27.7923405132
 20
52.5588976699
 10
-27.9562197175
 20
52.6108215347
 10
-28.1185393788
 20
52.6540151801
 10
-28.2789700863
 20
52.6884578919
 10
-28.4372078059
 20
52.7141706502
 10
-28.5928427227
 20
52.7312042767
 10
-28.7455103642
 20
52.7396479318
 10
-28.8949157276
 20
52.7396368516
 10
-29.0406564358
 20
52.7313756268
 10
-29.1823448729
 20
52.7151019945
 10
-29.2318301075
 20
52.7064537891
  0
LWPOLYLINE
  5
41B
100
AcDbEntity
  8
ASSI
100
AcDbPolyline
 62
7
  6
CONTINUOUS
 90
13
 70
0
 10
30.7651207562
 20
-51.2112224245
 10
30.7973407372
 20
-51.1727009799
 10
30.8822716501
 20
-51.0581304508
 10
30.9622872869
 20
-50.9360485393
 10
31.0369960225
 20
-50.8066571066
 10
31.1060174333
 20
-50.6702070882
 10
31.169074554
 20
-50.5269122464
 10
31.2259193686
 20
-50.3770191898
 10
31.2763052856
 20
-50.2208443052
 10
31.3200513691
 20
-50.0586829739
 10
31.3570150911
 20
-49.8908248203
 10
31.3870746688
 20
-49.717555195
 10
31.3985287377
 20
-49.6363231061
  0
LWPOLYLINE
  5
41C
100
AcDbEntity
  8
ASSI
100
AcDbPolyline
 62
250
  6
CONTINUOUS
 90
15
 70
0
 10
30.7651207562
 20
-51.090260836
 10
30.8213740478
 20
-51.0250754621
 10
30.8827532414
 20
-50.9471181148
 10
30.9420607911
 20
-50.86427654
 10
30.9993145603
 20
-50.776212847
 10
31.0540593482
 20
-50.6832723374
 10
31.1058513893
 20
-50.585689228
 10
31.154716859
 20
-50.4829605811
 10
31.2002664859
 20
-50.3756573806
 10
31.2416731013
 20
-50.2656877451
 10
31.278989066
 20
-50.1528876106
 10
31.3122230185
 20
-50.0375898529
 10
31.3408985383
 20
-49.9225211212
 10
31.3651245545
 20
-49.8086708981
 10
31.3853536439
 20
-49.6952541251
  0
LWPOLYLINE
  5
41D
100
AcDbEntity
  8
ASSI
100
AcDbPolyline
 62
250
  6
CONTINUOUS
 90
12
 70
0
 10
29.4553235997
 20
-52.3765141251
 10
29.4803865933
 20
-52.3617043213
 10
29.5079815245
 20
-52.340611193
 10
29.5331109284
 20
-52.3158068887
 10
29.5556320577
 20
-52.2874317208
 10
29.5754119737
 20
-52.2556494653
 10
29.5923390715
 20
-52.220639634
 10
29.6063154203
 20
-52.1826005058
 10
29.6172519837
 20
-52.1417519513
 10
29.6250814113
 20
-52.0983268421
 10
29.629758227
 20
-52.0525695813
 10
29.6312512767
 20
-52.0047393773
  0
LWPOLYLINE
  5
41E
100
AcDbEntity
  8
ASSI
100
AcDbPolyline
 62
250
  6
CONTINUOUS
 90
19
 70
0
 10
29.6312512767
 20
-52.0047393773
 10
29.6007750629
 20
-52.0217911268
 10
29.5682366536
 20
-52.0373541643
 10
29.5338499485
 20
-52.0513261822
 10
29.4978409975
 20
-52.0636153317
 10
29.4604465149
 20
-52.0741408271
 10
29.4219123228
 20
-52.0828334761
 10
29.382491736
 20
-52.0896361355
 10
29.3424438958
 20
-52.0945040861
 10
29.3020320672
 20
-52.0974053272
 10
29.2615219078
 20
-52.0983207867
 10
29.2211797216
 20
-52.0972444468
 10
29.1812707086
 20
-52.0941833829
 10
29.1420572209
 20
-52.0891577177
 10
29.1037970387
 20
-52.0822004888
 10
29.0667416751
 20
-52.0733574314
 10
29.0311347233
 20
-52.0626866775
 10
28.9972102547
 20
-52.0502583742
 10
28.9651912806
 20
-52.0361542221
  0
LINE
  5
41F
100
AcDbEntity
  8
ASSI
100
AcDbLine
 62
250
  6
CONTINUOUS
 10
29.6312515435
 20
-52.004739239
 11
30.7651207562
 21
-51.4168780835
  0
LINE
  5
420
100
AcDbEntity
  8
ASSI
100
AcDbLine
 62
7
  6
CONTINUOUS
 10
29.4551392125
 20
-52.3766098128
 11
30.5889353364
 21
-51.7887865506
  0
LWPOLYLINE
  5
421
100
AcDbEntity
  8
ASSI
100
AcDbPolyline
 62
250
  6
CONTINUOUS
 90
15
 70
0
 10
-29.1270501433
 20
52.6459551509
 10
-29.042603007
 20
52.6620645998
 10
-28.944434887
 20
52.6762502938
 10
-28.8430709529
 20
52.6862026248
 10
-28.7382143894
 20
52.6917679997
 10
-28.6303869777
 20
52.6927249135
 10
-28.5200009223
 20
52.6888046131
 10
-28.4066024816
 20
52.6797766591
 10
-28.2908867188
 20
52.6655879746
 10
-28.1749239361
 20
52.6464744543
 10
-28.0585449357
 20
52.6223981206
 10
-27.9420353128
 20
52.5935325593
 10
-27.8280022598
 20
52.5608295824
 10
-27.7172506662
 20
52.5248790464
 10
-27.6088719527
 20
52.485679921
  0
ARC
  5
422
100
AcDbEntity
  8
RACCORDO
100
AcDbCircle
 62
7
  6
CONTINUOUS
 10
-9.1864123808
 20
16.8015403176
 40
0.5
100
AcDbArc
 50
300.000799211
 51
359.9992006989
  0
ELLIPSE
  5
423
100
AcDbEntity
  8
ASSI
100
AcDbEllipse
 62
7
  6
CONTINUOUS
 10
-29.40947241
 20
52.1556221029
 30
0.0
 11
-0.4002934887
 21
0.6932840847
 31
0.0
 40
0.5769361983
 41
-0.7851038024
 42
0.0261607743
  0
ELLIPSE
  5
424
100
AcDbEntity
  8
ASSI
100
AcDbEllipse
 62
7
  6
CONTINUOUS
 10
30.1992414186
 20
-51.089698715
 30
0.0
 11
-0.4002934887
 21
0.6932840847
 31
0.0
 40
0.5769361983
 41
-3.1677534278
 42
-2.3565853618
  0
ELLIPSE
  5
425
100
AcDbEntity
  8
ASSI
100
AcDbEllipse
 62
7
  6
CONTINUOUS
 10
30.1992414186
 20
17.7382978109
 30
0.0
 11
-0.4000193679
 21
0.6928091406
 31
0.0
 40
0.5777274115
 41
-2.3559002616
 42
-0.7857891675
  0
ELLIPSE
  5
426
100
AcDbEntity
  8
RACCORDO
100
AcDbEllipse
 62
7
  6
CONTINUOUS
 10
27.4368961775
 20
-12.5532870226
 30
0.0
 11
3.9996194055
 21
0.093159354
 31
0.0
 40
0.5922968643
 41
-0.5141579812
 42
-0.1462836581
  0
ELLIPSE
  5
427
100
AcDbEntity
  8
RACCORDO
100
AcDbEllipse
 62
7
  6
CONTINUOUS
 10
-10.175011358
 20
-14.7543982976
 30
0.0
 11
-0.2500123596
 21
0.4330055659
 31
0.0
 40
0.5817339356
 41
0.7891471962
 42
2.3523473265
  0
ELLIPSE
  5
428
100
AcDbEntity
  8
RACCORDO
100
AcDbEllipse
 62
7
  6
CONTINUOUS
 10
27.4368961775
 20
-18.3104591383
 30
0.0
 11
3.9996913222
 21
-0.0884076603
 31
0.0
 40
0.5620816791
 41
-0.4879396442
 42
-0.1200653212
  0
ENDSEC
  0
SECTION
  2
OBJECTS
  0
DICTIONARY
  5
C
100
AcDbDictionary
280
0
281
1
  3
ACAD_GROUP
350
D
  3
ACAD_MLINESTYLE
350
17
  3
ACAD_LAYOUT
350
1A
  3
ACAD_PLOTSETTINGS
350
19
  3
ACAD_PLOTSTYLENAME
350
E
  0
DICTIONARY
  5
D
102
{ACAD_REACTORS
330
C
102
}
100
AcDbDictionary
280
0
281
1
  0
ACDBDICTIONARYWDFLT
  5
E
102
{ACAD_REACTORS
330
C
102
}
100
AcDbDictionary
281
1
  3
Normal
350
F
100
AcDbDictionaryWithDefault
340
F
  0
DICTIONARY
  5
17
102
{ACAD_REACTORS
330
C
102
}
100
AcDbDictionary
280
0
281
1
  3
Standard
350
18
  0
DICTIONARY
  5
19
102
{ACAD_REACTORS
330
C
102
}
100
AcDbDictionary
281
1
  0
DICTIONARY
  5
1A
102
{ACAD_REACTORS
330
C
102
}
100
AcDbDictionary
281
1
  3
Model
350
429
  3
Layout1
350
42A
  0
ACDBPLACEHOLDER
  5
F
102
{ACAD_REACTORS
330
E
102
}
  0
MLINESTYLE
  5
18
102
{ACAD_REACTORS
330
17
102
}
100
AcDbMlineStyle
  2
STANDARD
 70
0
  3

 62
256
 51
90.0
 52
90.0
 71
2
 49
0.5
 62
256
  6
BYLAYER
 49
-0.5
 62
256
  6
BYLAYER
  0
LAYOUT
  5
429
102
{ACAD_REACTORS
330
1A
102
}
100
AcDbPlotSettings
  1

  2
none_device
  4

  6

 40
0.0
 41
0.0
 42
0.0
 43
0.0
 44
210.0
 45
297.0
 46
0.0
 47
0.0
 48
0.0
 49
0.0
140
0.0
141
0.0
142
1.0
143
1.0
 70
1024
 72
1
 73
0
 74
0
  7

 75
0
147
1.0
148
0.0
149
0.0
100
AcDbLayout
  1
Model
 70
0
 71
0
 10
0.0
 20
0.0
 11
210.0
 21
297.0
 12
0.0
 22
0.0
 32
0.0
 14
0.0
 24
0.0
 34
0.0
 15
0.0
 25
0.0
 35
0.0
146
0.0
 13
0.0
 23
0.0
 33
0.0
 16
1.0
 26
0.0
 36
0.0
 17
0.0
 27
1.0
 37
0.0
 76
0
330
214
345
0
346
0
  0
LAYOUT
  5
42A
102
{ACAD_REACTORS
330
1A
102
}
100
AcDbPlotSettings
  1

  2
none_device
  4

  6

 40
0.0
 41
0.0
 42
0.0
 43
0.0
 44
210.0
 45
297.0
 46
0.0
 47
0.0
 48
0.0
 49
0.0
140
0.0
141
0.0
142
1.0
143
1.0
 70
0
 72
1
 73
0
 74
0
  7

 75
0
147
1.0
148
0.0
149
0.0
100
AcDbLayout
  1
Layout1
 70
0
 71
1
 10
0.0
 20
0.0
 11
210.0
 21
297.0
 12
0.0
 22
0.0
 32
0.0
 14
0.0
 24
0.0
 34
0.0
 15
0.0
 25
0.0
 35
0.0
146
0.0
 13
0.0
 23
0.0
 33
0.0
 16
1.0
 26
0.0
 36
0.0
 17
0.0
 27
1.0
 37
0.0
 76
0
330
215
345
0
346
0
  0
ENDSEC
  0
EOF
