  0
SECTION
  2
HEADER
  9
$ACADVER
  1
AC1024
  9
$DWGCODEPAGE
  3
ANSI_1252
  9
$EXTMAX
 10
297.0
 20
210.0
 30
0.0
  9
$EXTMIN
 10
0.0
 20
0.0
 30
0.0
  9
$LIMMIN
 10
0.0
 20
0.0
  9
$LIMMAX
 10
297.0
 20
210.0
  9
$VIEWCTR
 10
148.5
 20
105.0
  9
$VIEWSIZE
 40
210.0
  9
$CLAYER
  8
0
  9
$LTSCALE
 40
16.335
  9
$CELTYPE
  6
BYLAYER
  9
$DIMSCALE
 40
1.0
  9
$DIMASZ
 40
3.0
  9
$DIMEXO
 40
0.5
  9
$DIMDLI
 40
11.286
  9
$DIMEXE
 40
1.5
  9
$DIMCEN
 40
2.673
  9
$DIMLFAC
 40
1.0
  9
$DIMBLK
  1
_FILLED
  9
$DIMALT
 70
0
  9
$DIMALTF
 40
0.0393700787
  9
$DIMTXT
 40
3.0
  9
$DIMTOL
 70
1
  9
$DIMLIM
 70
0
  9
$DIMTFAC
 40
1.0
  9
$DIMTP
 40
0.01
  9
$DIMTM
 40
0.01
  9
$DIMGAP
 40
0.625
  9
$DIMDSEP
 70
44
  9
$AUNITS
 70
0
  9
$PDMODE
 70
3
  9
$PDSIZE
 40
3.0
  9
$HANDSEED
  5
548
  9
$TILEMODE
 70
1
  9
$MEASUREMENT
 70
1
  9
$INSUNITS
 70
4
  0
ENDSEC
  0
SECTION
  2
CLASSES
  0
CLASS
  1
ACDBDICTIONARYWDFLT
  2
AcDbDictionaryWithDefault
  3
AutoCAD 2000
 90
0
 91
1
280
0
281
0
  0
CLASS
  1
ACDBPLACEHOLDER
  2
AcDbPlaceHolder
  3
AutoCAD 2000
 90
0
 91
1
280
0
281
0
  0
CLASS
  1
LAYOUT
  2
AcDbLayout
  3
AutoCAD 2000
 90
0
 91
0
280
0
281
0
  0
ENDSEC
  0
SECTION
  2
TABLES
  0
TABLE
  2
VPORT
  5
8
100
AcDbSymbolTable
 70
2
  0
VPORT
  5
1F4
100
AcDbSymbolTableRecord
100
AcDbViewportTableRecord
  2
*ACTIVE
 70
0
 10
0.0
 20
0.0
 11
1.0
 21
1.0
 12
148.5
 22
105.0
 13
0.0
 23
0.0
 14
1.0
 24
1.0
 15
0.0
 25
0.0
 16
0.0
 26
0.0
 36
1.0
 17
0.0
 27
0.0
 37
0.0
 40
210.0
 41
1.4142857143
 42
50.0
 43
0.0
 44
0.0
 50
0.0
 51
0.0
 71
0
 72
100
 73
1
 74
1
 75
0
 76
0
 77
0
 78
0
  0
ENDTAB
  0
TABLE
  2
LTYPE
  5
5
100
AcDbSymbolTable
 70
6
  0
LTYPE
  5
14
100
AcDbSymbolTableRecord
100
AcDbLinetypeTableRecord
  2
BYBLOCK
 70
0
  3

 72
65
 73
0
 40
0.0
  0
LTYPE
  5
15
100
AcDbSymbolTableRecord
100
AcDbLinetypeTableRecord
  2
BYLAYER
 70
0
  3

 72
65
 73
0
 40
0.0
  0
LTYPE
  5
16
100
AcDbSymbolTableRecord
100
AcDbLinetypeTableRecord
  2
CONTINUOUS
 70
64
  3
Solid line
 72
65
 73
0
 40
0.0
  0
LTYPE
  5
1F5
100
AcDbSymbolTableRecord
100
AcDbLinetypeTableRecord
  2
CENTER
 70
64
  3
____ _ ____ _ ____ _ ____ _ ____ _ ____ _ ____
 72
65
 73
4
 40
0.6
 49
0.375
 74
0
 49
-0.075
 74
0
 49
0.075
 74
0
 49
-0.075
 74
0
  0
LTYPE
  5
1F6
100
AcDbSymbolTableRecord
100
AcDbLinetypeTableRecord
  2
HIDDEN
 70
64
  3
- - - - - - - - - - - - - - - - - - - -
 72
65
 73
2
 40
0.2
 49
0.1
 74
0
 49
-0.1
 74
0
  0
LTYPE
  5
1F7
100
AcDbSymbolTableRecord
100
AcDbLinetypeTableRecord
  2
PHANTOM
 70
64
  3
_____ _ _ _____ _ _ _____ _ _ _____
 72
65
 73
6
 40
0.8
 49
0.45
 74
0
 49
-0.05
 74
0
 49
0.1
 74
0
 49
-0.05
 74
0
 49
0.1
 74
0
 49
-0.05
 74
0
  0
LTYPE
  5
1F8
100
AcDbSymbolTableRecord
100
AcDbLinetypeTableRecord
  2
DOT
 70
64
  3
. . . . . . . . . . . . . . . . . . . .
 72
65
 73
2
 40
0.2
 49
0.1
 74
0
 49
-0.1
 74
0
  0
LTYPE
  5
1F9
100
AcDbSymbolTableRecord
100
AcDbLinetypeTableRecord
  2
DASHED
 70
64
  3
- - - - - - - - - - - - - - - - - - - -
 72
65
 73
2
 40
0.2
 49
0.1
 74
0
 49
-0.1
 74
0
  0
ENDTAB
  0
TABLE
  2
LAYER
  5
2
100
AcDbSymbolTable
 70
36
  0
LAYER
  5
10
100
AcDbSymbolTableRecord
100
AcDbLayerTableRecord
  2
0
 70
0
 62
7
  6
CONTINUOUS
370
-3
390
F
  0
LAYER
  5
1FA
100
AcDbSymbolTableRecord
100
AcDbLayerTableRecord
  2
DEFAULT_1
 70
0
 62
7
  6
CENTER
370
-3
390
F
  0
LAYER
  5
1FB
100
AcDbSymbolTableRecord
100
AcDbLayerTableRecord
  2
DEFAULT_2
 70
0
 62
7
  6
HIDDEN
370
-3
390
F
  0
LAYER
  5
1FC
100
AcDbSymbolTableRecord
100
AcDbLayerTableRecord
  2
DEFAULT_3
 70
0
 62
7
  6
PHANTOM
370
-3
390
F
  0
LAYER
  5
1FD
100
AcDbSymbolTableRecord
100
AcDbLayerTableRecord
  2
0402_C_REF_70000
 70
0
 62
7
  6
CONTINUOUS
370
-3
390
F
  0
LAYER
  5
1FE
100
AcDbSymbolTableRecord
100
AcDbLayerTableRecord
  2
0402_C_REF_70000_1
 70
0
 62
7
  6
CONTINUOUS
370
-3
390
F
  0
LAYER
  5
1FF
100
AcDbSymbolTableRecord
100
AcDbLayerTableRecord
  2
0402_C_REF_70000_10
 70
0
 62
7
  6
CONTINUOUS
370
-3
390
F
  0
LAYER
  5
200
100
AcDbSymbolTableRecord
100
AcDbLayerTableRecord
  2
0402_C_REF_70000_11
 70
0
 62
7
  6
CONTINUOUS
370
-3
390
F
  0
LAYER
  5
201
100
AcDbSymbolTableRecord
100
AcDbLayerTableRecord
  2
0402_C_REF_70000_2
 70
0
 62
7
  6
CONTINUOUS
370
-3
390
F
  0
LAYER
  5
202
100
AcDbSymbolTableRecord
100
AcDbLayerTableRecord
  2
0402_C_REF_70000_3
 70
0
 62
7
  6
CONTINUOUS
370
-3
390
F
  0
LAYER
  5
203
100
AcDbSymbolTableRecord
100
AcDbLayerTableRecord
  2
0402_C_REF_70000_4
 70
0
 62
7
  6
CONTINUOUS
370
-3
390
F
  0
LAYER
  5
204
100
AcDbSymbolTableRecord
100
AcDbLayerTableRecord
  2
0402_C_REF_70000_5
 70
0
 62
7
  6
CONTINUOUS
370
-3
390
F
  0
LAYER
  5
205
100
AcDbSymbolTableRecord
100
AcDbLayerTableRecord
  2
0402_C_REF_70000_6
 70
0
 62
7
  6
CONTINUOUS
370
-3
390
F
  0
LAYER
  5
206
100
AcDbSymbolTableRecord
100
AcDbLayerTableRecord
  2
0402_C_REF_70000_7
 70
0
 62
7
  6
CONTINUOUS
370
-3
390
F
  0
LAYER
  5
207
100
AcDbSymbolTableRecord
100
AcDbLayerTableRecord
  2
0402_C_REF_70000_8
 70
0
 62
7
  6
CONTINUOUS
370
-3
390
F
  0
LAYER
  5
208
100
AcDbSymbolTableRecord
100
AcDbLayerTableRecord
  2
0402_C_REF_70000_9
 70
0
 62
7
  6
CONTINUOUS
370
-3
390
F
  0
LAYER
  5
209
100
AcDbSymbolTableRecord
100
AcDbLayerTableRecord
  2
0402_R_REF_30000
 70
0
 62
7
  6
CONTINUOUS
370
-3
390
F
  0
LAYER
  5
20A
100
AcDbSymbolTableRecord
100
AcDbLayerTableRecord
  2
0402_R_REF_30000_1
 70
0
 62
7
  6
CONTINUOUS
370
-3
390
F
  0
LAYER
  5
20B
100
AcDbSymbolTableRecord
100
AcDbLayerTableRecord
  2
0402_R_REF_30000_10
 70
0
 62
7
  6
CONTINUOUS
370
-3
390
F
  0
LAYER
  5
20C
100
AcDbSymbolTableRecord
100
AcDbLayerTableRecord
  2
0402_R_REF_30000_11
 70
0
 62
7
  6
CONTINUOUS
370
-3
390
F
  0
LAYER
  5
20D
100
AcDbSymbolTableRecord
100
AcDbLayerTableRecord
  2
0402_R_REF_30000_12
 70
0
 62
7
  6
CONTINUOUS
370
-3
390
F
  0
LAYER
  5
20E
100
AcDbSymbolTableRecord
100
AcDbLayerTableRecord
  2
0402_R_REF_30000_13
 70
0
 62
7
  6
CONTINUOUS
370
-3
390
F
  0
LAYER
  5
20F
100
AcDbSymbolTableRecord
100
AcDbLayerTableRecord
  2
0402_R_REF_30000_14
 70
0
 62
7
  6
CONTINUOUS
370
-3
390
F
  0
LAYER
  5
210
100
AcDbSymbolTableRecord
100
AcDbLayerTableRecord
  2
0402_R_REF_30000_15
 70
0
 62
7
  6
CONTINUOUS
370
-3
390
F
  0
LAYER
  5
211
100
AcDbSymbolTableRecord
100
AcDbLayerTableRecord
  2
0402_R_REF_30000_16
 70
0
 62
7
  6
CONTINUOUS
370
-3
390
F
  0
LAYER
  5
212
100
AcDbSymbolTableRecord
100
AcDbLayerTableRecord
  2
0402_R_REF_30000_17
 70
0
 62
7
  6
CONTINUOUS
370
-3
390
F
  0
LAYER
  5
213
100
AcDbSymbolTableRecord
100
AcDbLayerTableRecord
  2
0402_R_REF_30000_18
 70
0
 62
7
  6
CONTINUOUS
370
-3
390
F
  0
LAYER
  5
214
100
AcDbSymbolTableRecord
100
AcDbLayerTableRecord
  2
0402_R_REF_30000_19
 70
0
 62
7
  6
CONTINUOUS
370
-3
390
F
  0
LAYER
  5
215
100
AcDbSymbolTableRecord
100
AcDbLayerTableRecord
  2
0402_R_REF_30000_2
 70
0
 62
7
  6
CONTINUOUS
370
-3
390
F
  0
LAYER
  5
216
100
AcDbSymbolTableRecord
100
AcDbLayerTableRecord
  2
0402_R_REF_30000_20
 70
0
 62
7
  6
CONTINUOUS
370
-3
390
F
  0
LAYER
  5
217
100
AcDbSymbolTableRecord
100
AcDbLayerTableRecord
  2
0402_R_REF_30000_21
 70
0
 62
7
  6
CONTINUOUS
370
-3
390
F
  0
LAYER
  5
218
100
AcDbSymbolTableRecord
100
AcDbLayerTableRecord
  2
0402_R_REF_30000_22
 70
0
 62
7
  6
CONTINUOUS
370
-3
390
F
  0
LAYER
  5
219
100
AcDbSymbolTableRecord
100
AcDbLayerTableRecord
  2
0402_R_REF_30000_23
 70
0
 62
7
  6
CONTINUOUS
370
-3
390
F
  0
LAYER
  5
21A
100
AcDbSymbolTableRecord
100
AcDbLayerTableRecord
  2
0402_R_REF_30000_24
 70
0
 62
7
  6
CONTINUOUS
370
-3
390
F
  0
LAYER
  5
21B
100
AcDbSymbolTableRecord
100
AcDbLayerTableRecord
  2
0402_R_REF_30000_25
 70
0
 62
7
  6
CONTINUOUS
370
-3
390
F
  0
LAYER
  5
21C
100
AcDbSymbolTableRecord
100
AcDbLayerTableRecord
  2
0402_R_REF_30000_26
 70
0
 62
7
  6
CONTINUOUS
370
-3
390
F
  0
LAYER
  5
21D
100
AcDbSymbolTableRecord
100
AcDbLayerTableRecord
  2
0402_R_REF_30000_27
 70
0
 62
7
  6
CONTINUOUS
370
-3
390
F
  0
LAYER
  5
21E
100
AcDbSymbolTableRecord
100
AcDbLayerTableRecord
  2
0402_R_REF_30000_28
 70
0
 62
7
  6
CONTINUOUS
370
-3
390
F
  0
LAYER
  5
21F
100
AcDbSymbolTableRecord
100
AcDbLayerTableRecord
  2
0402_R_REF_30000_29
 70
0
 62
7
  6
CONTINUOUS
370
-3
390
F
  0
LAYER
  5
220
100
AcDbSymbolTableRecord
100
AcDbLayerTableRecord
  2
0402_R_REF_30000_3
 70
0
 62
7
  6
CONTINUOUS
370
-3
390
F
  0
LAYER
  5
221
100
AcDbSymbolTableRecord
100
AcDbLayerTableRecord
  2
0402_R_REF_30000_30
 70
0
 62
7
  6
CONTINUOUS
370
-3
390
F
  0
LAYER
  5
222
100
AcDbSymbolTableRecord
100
AcDbLayerTableRecord
  2
0402_R_REF_30000_31
 70
0
 62
7
  6
CONTINUOUS
370
-3
390
F
  0
LAYER
  5
223
100
AcDbSymbolTableRecord
100
AcDbLayerTableRecord
  2
0402_R_REF_30000_32
 70
0
 62
7
  6
CONTINUOUS
370
-3
390
F
  0
LAYER
  5
224
100
AcDbSymbolTableRecord
100
AcDbLayerTableRecord
  2
0402_R_REF_30000_33
 70
0
 62
7
  6
CONTINUOUS
370
-3
390
F
  0
LAYER
  5
225
100
AcDbSymbolTableRecord
100
AcDbLayerTableRecord
  2
0402_R_REF_30000_4
 70
0
 62
7
  6
CONTINUOUS
370
-3
390
F
  0
LAYER
  5
226
100
AcDbSymbolTableRecord
100
AcDbLayerTableRecord
  2
0402_R_REF_30000_5
 70
0
 62
7
  6
CONTINUOUS
370
-3
390
F
  0
LAYER
  5
227
100
AcDbSymbolTableRecord
100
AcDbLayerTableRecord
  2
0402_R_REF_30000_6
 70
0
 62
7
  6
CONTINUOUS
370
-3
390
F
  0
LAYER
  5
228
100
AcDbSymbolTableRecord
100
AcDbLayerTableRecord
  2
0402_R_REF_30000_7
 70
0
 62
7
  6
CONTINUOUS
370
-3
390
F
  0
LAYER
  5
229
100
AcDbSymbolTableRecord
100
AcDbLayerTableRecord
  2
0402_R_REF_30000_8
 70
0
 62
7
  6
CONTINUOUS
370
-3
390
F
  0
LAYER
  5
22A
100
AcDbSymbolTableRecord
100
AcDbLayerTableRecord
  2
0402_R_REF_30000_9
 70
0
 62
7
  6
CONTINUOUS
370
-3
390
F
  0
LAYER
  5
22B
100
AcDbSymbolTableRecord
100
AcDbLayerTableRecord
  2
0603_C_REF_90000
 70
0
 62
7
  6
CONTINUOUS
370
-3
390
F
  0
LAYER
  5
22C
100
AcDbSymbolTableRecord
100
AcDbLayerTableRecord
  2
0603_C_REF_90000_1
 70
0
 62
7
  6
CONTINUOUS
370
-3
390
F
  0
LAYER
  5
22D
100
AcDbSymbolTableRecord
100
AcDbLayerTableRecord
  2
0603_C_REF_90000_2
 70
0
 62
7
  6
CONTINUOUS
370
-3
390
F
  0
LAYER
  5
22E
100
AcDbSymbolTableRecord
100
AcDbLayerTableRecord
  2
0603_C_REF_90000_3
 70
0
 62
7
  6
CONTINUOUS
370
-3
390
F
  0
LAYER
  5
22F
100
AcDbSymbolTableRecord
100
AcDbLayerTableRecord
  2
0603_C_REF_90000_4
 70
0
 62
7
  6
CONTINUOUS
370
-3
390
F
  0
LAYER
  5
230
100
AcDbSymbolTableRecord
100
AcDbLayerTableRecord
  2
0603_C_REF_90000_5
 70
0
 62
7
  6
CONTINUOUS
370
-3
390
F
  0
LAYER
  5
231
100
AcDbSymbolTableRecord
100
AcDbLayerTableRecord
  2
0603_R_REF_55000
 70
0
 62
7
  6
CONTINUOUS
370
-3
390
F
  0
LAYER
  5
232
100
AcDbSymbolTableRecord
100
AcDbLayerTableRecord
  2
0603_R_REF_55000_1
 70
0
 62
7
  6
CONTINUOUS
370
-3
390
F
  0
LAYER
  5
233
100
AcDbSymbolTableRecord
100
AcDbLayerTableRecord
  2
0603_R_REF_55000_2
 70
0
 62
7
  6
CONTINUOUS
370
-3
390
F
  0
LAYER
  5
234
100
AcDbSymbolTableRecord
100
AcDbLayerTableRecord
  2
0603_R_REF_55000_3
 70
0
 62
7
  6
CONTINUOUS
370
-3
390
F
  0
LAYER
  5
235
100
AcDbSymbolTableRecord
100
AcDbLayerTableRecord
  2
06___PRT_ALL_SURFS_18
 70
0
 62
7
  6
CONTINUOUS
370
-3
390
F
  0
LAYER
  5
236
100
AcDbSymbolTableRecord
100
AcDbLayerTableRecord
  2
06___PRT_ALL_SURFS_2
 70
0
 62
7
  6
CONTINUOUS
370
-3
390
F
  0
LAYER
  5
237
100
AcDbSymbolTableRecord
100
AcDbLayerTableRecord
  2
06___PRT_ALL_SURFS_22
 70
0
 62
7
  6
CONTINUOUS
370
-3
390
F
  0
LAYER
  5
238
100
AcDbSymbolTableRecord
100
AcDbLayerTableRecord
  2
06___PRT_ALL_SURFS_3
 70
0
 62
7
  6
CONTINUOUS
370
-3
390
F
  0
LAYER
  5
239
100
AcDbSymbolTableRecord
100
AcDbLayerTableRecord
  2
06___PRT_ALL_SURFS_4
 70
0
 62
7
  6
CONTINUOUS
370
-3
390
F
  0
LAYER
  5
23A
100
AcDbSymbolTableRecord
100
AcDbLayerTableRecord
  2
06___PRT_ALL_SURFS_5
 70
0
 62
7
  6
CONTINUOUS
370
-3
390
F
  0
LAYER
  5
23B
100
AcDbSymbolTableRecord
100
AcDbLayerTableRecord
  2
06___PRT_ALL_SURFS_7
 70
0
 62
7
  6
CONTINUOUS
370
-3
390
F
  0
LAYER
  5
23C
100
AcDbSymbolTableRecord
100
AcDbLayerTableRecord
  2
06___PRT_ALL_SURFS_9
 70
0
 62
7
  6
CONTINUOUS
370
-3
390
F
  0
LAYER
  5
23D
100
AcDbSymbolTableRecord
100
AcDbLayerTableRecord
  2
0805_R_REF_60000
 70
0
 62
7
  6
CONTINUOUS
370
-3
390
F
  0
LAYER
  5
23E
100
AcDbSymbolTableRecord
100
AcDbLayerTableRecord
  2
0805_R_REF_60000_1
 70
0
 62
7
  6
CONTINUOUS
370
-3
390
F
  0
LAYER
  5
23F
100
AcDbSymbolTableRecord
100
AcDbLayerTableRecord
  2
0805_R_REF_60000_2
 70
0
 62
7
  6
CONTINUOUS
370
-3
390
F
  0
LAYER
  5
240
100
AcDbSymbolTableRecord
100
AcDbLayerTableRecord
  2
1206_C_REF_180000
 70
0
 62
7
  6
CONTINUOUS
370
-3
390
F
  0
LAYER
  5
241
100
AcDbSymbolTableRecord
100
AcDbLayerTableRecord
  2
1206_C_REF_180000_1
 70
0
 62
7
  6
CONTINUOUS
370
-3
390
F
  0
LAYER
  5
242
100
AcDbSymbolTableRecord
100
AcDbLayerTableRecord
  2
1206_C_REF_180000_2
 70
0
 62
7
  6
CONTINUOUS
370
-3
390
F
  0
LAYER
  5
243
100
AcDbSymbolTableRecord
100
AcDbLayerTableRecord
  2
1206_C_REF_180000_3
 70
0
 62
7
  6
CONTINUOUS
370
-3
390
F
  0
LAYER
  5
244
100
AcDbSymbolTableRecord
100
AcDbLayerTableRecord
  2
43000919A0
 70
0
 62
7
  6
CONTINUOUS
370
-3
390
F
  0
LAYER
  5
245
100
AcDbSymbolTableRecord
100
AcDbLayerTableRecord
  2
43000920A0
 70
0
 62
7
  6
CONTINUOUS
370
-3
390
F
  0
LAYER
  5
246
100
AcDbSymbolTableRecord
100
AcDbLayerTableRecord
  2
ASSI
 70
0
 62
7
  6
CONTINUOUS
370
-3
390
F
  0
LAYER
  5
247
100
AcDbSymbolTableRecord
100
AcDbLayerTableRecord
  2
BOARD_PRODUCER_TESTIMONI_14_F0_
 70
0
 62
7
  6
CONTINUOUS
370
-3
390
F
  0
LAYER
  5
248
100
AcDbSymbolTableRecord
100
AcDbLayerTableRecord
  2
BOARD_PRODUCER_TESTIMONI_14_F_1
 70
0
 62
7
  6
CONTINUOUS
370
-3
390
F
  0
LAYER
  5
249
100
AcDbSymbolTableRecord
100
AcDbLayerTableRecord
  2
BOARD_PRODUCER_TESTIMONI_14_F_2
 70
0
 62
7
  6
CONTINUOUS
370
-3
390
F
  0
LAYER
  5
24A
100
AcDbSymbolTableRecord
100
AcDbLayerTableRecord
  2
CN4_HEADER_P2_SMD_H_15MM_TET_15
 70
0
 62
7
  6
CONTINUOUS
370
-3
390
F
  0
LAYER
  5
24B
100
AcDbSymbolTableRecord
100
AcDbLayerTableRecord
  2
CN4_SOCKET_P2_SMD_220000
 70
0
 62
7
  6
CONTINUOUS
370
-3
390
F
  0
LAYER
  5
24C
100
AcDbSymbolTableRecord
100
AcDbLayerTableRecord
  2
CN_M_THT_P5_R1_P2_TET_1600000
 70
0
 62
7
  6
CONTINUOUS
370
-3
390
F
  0
LAYER
  5
24D
100
AcDbSymbolTableRecord
100
AcDbLayerTableRecord
  2
COLOR38
 70
0
 62
7
  6
CONTINUOUS
370
-3
390
F
  0
LAYER
  5
24E
100
AcDbSymbolTableRecord
100
AcDbLayerTableRecord
  2
COLOR6
 70
0
 62
7
  6
CONTINUOUS
370
-3
390
F
  0
LAYER
  5
24F
100
AcDbSymbolTableRecord
100
AcDbLayerTableRecord
  2
COORDINATE
 70
0
 62
7
  6
CONTINUOUS
370
-3
390
F
  0
LAYER
  5
250
100
AcDbSymbolTableRecord
100
AcDbLayerTableRecord
  2
COORD_ORIGINE
 70
0
 62
7
  6
CONTINUOUS
370
-3
390
F
  0
LAYER
  5
251
100
AcDbSymbolTableRecord
100
AcDbLayerTableRecord
  2
COPY_PUBLISH
 70
0
 62
7
  6
CONTINUOUS
370
-3
390
F
  0
LAYER
  5
252
100
AcDbSymbolTableRecord
100
AcDbLayerTableRecord
  2
COSMETICI
 70
0
 62
7
  6
CONTINUOUS
370
-3
390
F
  0
LAYER
  5
253
100
AcDbSymbolTableRecord
100
AcDbLayerTableRecord
  2
CURVE
 70
0
 62
7
  6
CONTINUOUS
370
-3
390
F
  0
LAYER
  5
254
100
AcDbSymbolTableRecord
100
AcDbLayerTableRecord
  2
DB-SMD-TO-269AA_MBS_300000
 70
0
 62
7
  6
CONTINUOUS
370
-3
390
F
  0
LAYER
  5
255
100
AcDbSymbolTableRecord
100
AcDbLayerTableRecord
  2
DL_RGB_1_6-1_6-0_5MM_50000
 70
0
 62
7
  6
CONTINUOUS
370
-3
390
F
  0
LAYER
  5
256
100
AcDbSymbolTableRecord
100
AcDbLayerTableRecord
  2
DRAFT
 70
0
 62
7
  6
CONTINUOUS
370
-3
390
F
  0
LAYER
  5
257
100
AcDbSymbolTableRecord
100
AcDbLayerTableRecord
  2
E2_MARK_10000
 70
0
 62
7
  6
CONTINUOUS
370
-3
390
F
  0
LAYER
  5
258
100
AcDbSymbolTableRecord
100
AcDbLayerTableRecord
  2
FIDUCIAL_1MM_0
 70
0
 62
7
  6
CONTINUOUS
370
-3
390
F
  0
LAYER
  5
259
100
AcDbSymbolTableRecord
100
AcDbLayerTableRecord
  2
FIDUCIAL_1MM_0_1
 70
0
 62
7
  6
CONTINUOUS
370
-3
390
F
  0
LAYER
  5
25A
100
AcDbSymbolTableRecord
100
AcDbLayerTableRecord
  2
FIDUCIAL_1MM_0_2
 70
0
 62
7
  6
CONTINUOUS
370
-3
390
F
  0
LAYER
  5
25B
100
AcDbSymbolTableRecord
100
AcDbLayerTableRecord
  2
FIDUCIAL_1MM_0_3
 70
0
 62
7
  6
CONTINUOUS
370
-3
390
F
  0
LAYER
  5
25C
100
AcDbSymbolTableRecord
100
AcDbLayerTableRecord
  2
FIDUCIAL_1_2_MM_RUOTATO_45_1000
 70
0
 62
7
  6
CONTINUOUS
370
-3
390
F
  0
LAYER
  5
25D
100
AcDbSymbolTableRecord
100
AcDbLayerTableRecord
  2
FIDUCIAL_1_2_MM_RUOTATO_45_10_1
 70
0
 62
7
  6
CONTINUOUS
370
-3
390
F
  0
LAYER
  5
25E
100
AcDbSymbolTableRecord
100
AcDbLayerTableRecord
  2
FIDUCIAL_1_2_MM_RUOTATO_45_10_2
 70
0
 62
7
  6
CONTINUOUS
370
-3
390
F
  0
LAYER
  5
25F
100
AcDbSymbolTableRecord
100
AcDbLayerTableRecord
  2
FIDUCIAL_1_2_MM_RUOTATO_45_10_3
 70
0
 62
7
  6
CONTINUOUS
370
-3
390
F
  0
LAYER
  5
260
100
AcDbSymbolTableRecord
100
AcDbLayerTableRecord
  2
GEOMETRIA_SOLIDA
 70
0
 62
7
  6
CONTINUOUS
370
-3
390
F
  0
LAYER
  5
261
100
AcDbSymbolTableRecord
100
AcDbLayerTableRecord
  2
GEOMETRIA_SOLIDA_1
 70
0
 62
7
  6
CONTINUOUS
370
-3
390
F
  0
LAYER
  5
262
100
AcDbSymbolTableRecord
100
AcDbLayerTableRecord
  2
GEOMETRIA_SOLIDA_2
 70
0
 62
7
  6
CONTINUOUS
370
-3
390
F
  0
LAYER
  5
263
100
AcDbSymbolTableRecord
100
AcDbLayerTableRecord
  2
GEOMETRIA_SOLIDA_3
 70
0
 62
7
  6
CONTINUOUS
370
-3
390
F
  0
LAYER
  5
264
100
AcDbSymbolTableRecord
100
AcDbLayerTableRecord
  2
IMPORT_IGES
 70
0
 62
7
  6
CONTINUOUS
370
-3
390
F
  0
LAYER
  5
265
100
AcDbSymbolTableRecord
100
AcDbLayerTableRecord
  2
INTF_1
 70
0
 62
7
  6
CONTINUOUS
370
-3
390
F
  0
LAYER
  5
266
100
AcDbSymbolTableRecord
100
AcDbLayerTableRecord
  2
INTF_11
 70
0
 62
7
  6
CONTINUOUS
370
-3
390
F
  0
LAYER
  5
267
100
AcDbSymbolTableRecord
100
AcDbLayerTableRecord
  2
INTF_2
 70
0
 62
7
  6
CONTINUOUS
370
-3
390
F
  0
LAYER
  5
268
100
AcDbSymbolTableRecord
100
AcDbLayerTableRecord
  2
INTF_24
 70
0
 62
7
  6
CONTINUOUS
370
-3
390
F
  0
LAYER
  5
269
100
AcDbSymbolTableRecord
100
AcDbLayerTableRecord
  2
INTF_7
 70
0
 62
7
  6
CONTINUOUS
370
-3
390
F
  0
LAYER
  5
26A
100
AcDbSymbolTableRecord
100
AcDbLayerTableRecord
  2
INTF_CYAN
 70
0
 62
7
  6
CONTINUOUS
370
-3
390
F
  0
LAYER
  5
26B
100
AcDbSymbolTableRecord
100
AcDbLayerTableRecord
  2
LOGO_RESIST-RESTYLING_10000
 70
0
 62
7
  6
CONTINUOUS
370
-3
390
F
  0
LAYER
  5
26C
100
AcDbSymbolTableRecord
100
AcDbLayerTableRecord
  2
NO-PB_MARK_10000
 70
0
 62
7
  6
CONTINUOUS
370
-3
390
F
  0
LAYER
  5
26D
100
AcDbSymbolTableRecord
100
AcDbLayerTableRecord
  2
NOTE
 70
0
 62
7
  6
CONTINUOUS
370
-3
390
F
  0
LAYER
  5
26E
100
AcDbSymbolTableRecord
100
AcDbLayerTableRecord
  2
PIANI
 70
0
 62
7
  6
CONTINUOUS
370
-3
390
F
  0
LAYER
  5
26F
100
AcDbSymbolTableRecord
100
AcDbLayerTableRecord
  2
PIANI_ORIGINE
 70
0
 62
7
  6
CONTINUOUS
370
-3
390
F
  0
LAYER
  5
270
100
AcDbSymbolTableRecord
100
AcDbLayerTableRecord
  2
PUNTI
 70
0
 62
7
  6
CONTINUOUS
370
-3
390
F
  0
LAYER
  5
271
100
AcDbSymbolTableRecord
100
AcDbLayerTableRecord
  2
P_4_5X9_H5_SMD_500000
 70
0
 62
7
  6
CONTINUOUS
370
-3
390
F
  0
LAYER
  5
272
100
AcDbSymbolTableRecord
100
AcDbLayerTableRecord
  2
RACCORDO
 70
0
 62
7
  6
CONTINUOUS
370
-3
390
F
  0
LAYER
  5
273
100
AcDbSymbolTableRecord
100
AcDbLayerTableRecord
  2
RGB__255__255__255__
 70
0
 62
7
  6
CONTINUOUS
370
-3
390
F
  0
LAYER
  5
274
100
AcDbSymbolTableRecord
100
AcDbLayerTableRecord
  2
SC88-6_REF_H1_1_110000
 70
0
 62
7
  6
CONTINUOUS
370
-3
390
F
  0
LAYER
  5
275
100
AcDbSymbolTableRecord
100
AcDbLayerTableRecord
  2
SC88-6_REF_H1_1_110000_1
 70
0
 62
7
  6
CONTINUOUS
370
-3
390
F
  0
LAYER
  5
276
100
AcDbSymbolTableRecord
100
AcDbLayerTableRecord
  2
SC88-6_REF_H1_1_110000_2
 70
0
 62
7
  6
CONTINUOUS
370
-3
390
F
  0
LAYER
  5
277
100
AcDbSymbolTableRecord
100
AcDbLayerTableRecord
  2
SIMBOLI
 70
0
 62
7
  6
CONTINUOUS
370
-3
390
F
  0
LAYER
  5
278
100
AcDbSymbolTableRecord
100
AcDbLayerTableRecord
  2
SMUSSO
 70
0
 62
7
  6
CONTINUOUS
370
-3
390
F
  0
LAYER
  5
279
100
AcDbSymbolTableRecord
100
AcDbLayerTableRecord
  2
SO8C-5_0-6_2-1_75-REF_175000
 70
0
 62
7
  6
CONTINUOUS
370
-3
390
F
  0
LAYER
  5
27A
100
AcDbSymbolTableRecord
100
AcDbLayerTableRecord
  2
SOT23-5_REF_H1_5_150000
 70
0
 62
7
  6
CONTINUOUS
370
-3
390
F
  0
LAYER
  5
27B
100
AcDbSymbolTableRecord
100
AcDbLayerTableRecord
  2
SOT23-6_REF_H1_5_150000
 70
0
 62
7
  6
CONTINUOUS
370
-3
390
F
  0
LAYER
  5
27C
100
AcDbSymbolTableRecord
100
AcDbLayerTableRecord
  2
SUB_SMA_143000
 70
0
 62
7
  6
CONTINUOUS
370
-3
390
F
  0
LAYER
  5
27D
100
AcDbSymbolTableRecord
100
AcDbLayerTableRecord
  2
SUB_SMA_143000_1
 70
0
 62
7
  6
CONTINUOUS
370
-3
390
F
  0
LAYER
  5
27E
100
AcDbSymbolTableRecord
100
AcDbLayerTableRecord
  2
SUPERFICI
 70
0
 62
7
  6
CONTINUOUS
370
-3
390
F
  0
LAYER
  5
27F
100
AcDbSymbolTableRecord
100
AcDbLayerTableRecord
  2
TP-RND-1_5_1000
 70
0
 62
7
  6
CONTINUOUS
370
-3
390
F
  0
LAYER
  5
280
100
AcDbSymbolTableRecord
100
AcDbLayerTableRecord
  2
TP-RND-1_5_1000_1
 70
0
 62
7
  6
CONTINUOUS
370
-3
390
F
  0
LAYER
  5
281
100
AcDbSymbolTableRecord
100
AcDbLayerTableRecord
  2
TP-RND-1_5_1000_10
 70
0
 62
7
  6
CONTINUOUS
370
-3
390
F
  0
LAYER
  5
282
100
AcDbSymbolTableRecord
100
AcDbLayerTableRecord
  2
TP-RND-1_5_1000_11
 70
0
 62
7
  6
CONTINUOUS
370
-3
390
F
  0
LAYER
  5
283
100
AcDbSymbolTableRecord
100
AcDbLayerTableRecord
  2
TP-RND-1_5_1000_12
 70
0
 62
7
  6
CONTINUOUS
370
-3
390
F
  0
LAYER
  5
284
100
AcDbSymbolTableRecord
100
AcDbLayerTableRecord
  2
TP-RND-1_5_1000_13
 70
0
 62
7
  6
CONTINUOUS
370
-3
390
F
  0
LAYER
  5
285
100
AcDbSymbolTableRecord
100
AcDbLayerTableRecord
  2
TP-RND-1_5_1000_14
 70
0
 62
7
  6
CONTINUOUS
370
-3
390
F
  0
LAYER
  5
286
100
AcDbSymbolTableRecord
100
AcDbLayerTableRecord
  2
TP-RND-1_5_1000_15
 70
0
 62
7
  6
CONTINUOUS
370
-3
390
F
  0
LAYER
  5
287
100
AcDbSymbolTableRecord
100
AcDbLayerTableRecord
  2
TP-RND-1_5_1000_16
 70
0
 62
7
  6
CONTINUOUS
370
-3
390
F
  0
LAYER
  5
288
100
AcDbSymbolTableRecord
100
AcDbLayerTableRecord
  2
TP-RND-1_5_1000_17
 70
0
 62
7
  6
CONTINUOUS
370
-3
390
F
  0
LAYER
  5
289
100
AcDbSymbolTableRecord
100
AcDbLayerTableRecord
  2
TP-RND-1_5_1000_2
 70
0
 62
7
  6
CONTINUOUS
370
-3
390
F
  0
LAYER
  5
28A
100
AcDbSymbolTableRecord
100
AcDbLayerTableRecord
  2
TP-RND-1_5_1000_3
 70
0
 62
7
  6
CONTINUOUS
370
-3
390
F
  0
LAYER
  5
28B
100
AcDbSymbolTableRecord
100
AcDbLayerTableRecord
  2
TP-RND-1_5_1000_4
 70
0
 62
7
  6
CONTINUOUS
370
-3
390
F
  0
LAYER
  5
28C
100
AcDbSymbolTableRecord
100
AcDbLayerTableRecord
  2
TP-RND-1_5_1000_5
 70
0
 62
7
  6
CONTINUOUS
370
-3
390
F
  0
LAYER
  5
28D
100
AcDbSymbolTableRecord
100
AcDbLayerTableRecord
  2
TP-RND-1_5_1000_6
 70
0
 62
7
  6
CONTINUOUS
370
-3
390
F
  0
LAYER
  5
28E
100
AcDbSymbolTableRecord
100
AcDbLayerTableRecord
  2
TP-RND-1_5_1000_7
 70
0
 62
7
  6
CONTINUOUS
370
-3
390
F
  0
LAYER
  5
28F
100
AcDbSymbolTableRecord
100
AcDbLayerTableRecord
  2
TP-RND-1_5_1000_8
 70
0
 62
7
  6
CONTINUOUS
370
-3
390
F
  0
LAYER
  5
290
100
AcDbSymbolTableRecord
100
AcDbLayerTableRecord
  2
TP-RND-1_5_1000_9
 70
0
 62
7
  6
CONTINUOUS
370
-3
390
F
  0
LAYER
  5
291
100
AcDbSymbolTableRecord
100
AcDbLayerTableRecord
  2
TRASH
 70
0
 62
7
  6
CONTINUOUS
370
-3
390
F
  0
LAYER
  5
292
100
AcDbSymbolTableRecord
100
AcDbLayerTableRecord
  2
VG_CAP-CHIP-2008-2_5-REF_250000
 70
0
 62
7
  6
CONTINUOUS
370
-3
390
F
  0
LAYER
  5
293
100
AcDbSymbolTableRecord
100
AcDbLayerTableRecord
  2
VG_CAP-E-SMD-10_0-10_0-10_0_110
 70
0
 62
7
  6
CONTINUOUS
370
-3
390
F
  0
LAYER
  5
294
100
AcDbSymbolTableRecord
100
AcDbLayerTableRecord
  2
VG_CAP-E-SMD-10_0-10_0-10_0_1_1
 70
0
 62
7
  6
CONTINUOUS
370
-3
390
F
  0
LAYER
  5
295
100
AcDbSymbolTableRecord
100
AcDbLayerTableRecord
  2
VG_CN-STRIP-M-SMT-P1_27-R2-P5-T
 70
0
 62
7
  6
CONTINUOUS
370
-3
390
F
  0
LAYER
  5
296
100
AcDbSymbolTableRecord
100
AcDbLayerTableRecord
  2
VG_DFN8-2_0-3_0-0_5-0_5-REF_500
 70
0
 62
7
  6
CONTINUOUS
370
-3
390
F
  0
LAYER
  5
297
100
AcDbSymbolTableRecord
100
AcDbLayerTableRecord
  2
VG_DFN8-2_0-3_0-1_0-0_5-REF-EXP
 70
0
 62
7
  6
CONTINUOUS
370
-3
390
F
  0
LAYER
  5
298
100
AcDbSymbolTableRecord
100
AcDbLayerTableRecord
  2
VG_IND-PS-3_0-3_0-1_5_150000
 70
0
 62
7
  6
CONTINUOUS
370
-3
390
F
  0
LAYER
  5
299
100
AcDbSymbolTableRecord
100
AcDbLayerTableRecord
  2
VG_IND-SMT-13_0-13_0-7_0-4_5-14
 70
0
 62
7
  6
CONTINUOUS
370
-3
390
F
  0
LAYER
  5
29A
100
AcDbSymbolTableRecord
100
AcDbLayerTableRecord
  2
VG_IND-SMT-4_0-4_0-2_5-1_55-3_6
 70
0
 62
7
  6
CONTINUOUS
370
-3
390
F
  0
LAYER
  5
29B
100
AcDbSymbolTableRecord
100
AcDbLayerTableRecord
  2
VG_MCM_ESP32-WROVER_340000
 70
0
 62
7
  6
CONTINUOUS
370
-3
390
F
  0
LAYER
  5
29C
100
AcDbSymbolTableRecord
100
AcDbLayerTableRecord
  2
VG_NTC-4_0-7_5-2_0-2_5-0_0-0_4_
 70
0
 62
7
  6
CONTINUOUS
370
-3
390
F
  0
LAYER
  5
29D
100
AcDbSymbolTableRecord
100
AcDbLayerTableRecord
  2
VG_PTC-9_9-13_8-3_8-5_0-0_0-0_5
 70
0
 62
7
  6
CONTINUOUS
370
-3
390
F
  0
LAYER
  5
29E
100
AcDbSymbolTableRecord
100
AcDbLayerTableRecord
  2
VG_SOT23_H1_2_REF_120000
 70
0
 62
7
  6
CONTINUOUS
370
-3
390
F
  0
LAYER
  5
29F
100
AcDbSymbolTableRecord
100
AcDbLayerTableRecord
  2
VG_VAR_S05_D7_S4_3_H8_5_850000
 70
0
 62
7
  6
CONTINUOUS
370
-3
390
F
  0
LAYER
  5
2A0
100
AcDbSymbolTableRecord
100
AcDbLayerTableRecord
  2
VG_X-SMT-2-3_2-1_5-1_0_100000
 70
0
 62
7
  6
CONTINUOUS
370
-3
390
F
  0
LAYER
  5
2A1
100
AcDbSymbolTableRecord
100
AcDbLayerTableRecord
  2
___SHELL
 70
0
 62
7
  6
CONTINUOUS
370
-3
390
F
  0
ENDTAB
  0
TABLE
  2
STYLE
  5
3
100
AcDbSymbolTable
 70
1
  0
STYLE
  5
11
100
AcDbSymbolTableRecord
100
AcDbTextStyleTableRecord
  2
STANDARD
 70
0
 40
0.0
 41
0.8
 50
0.0
 71
0
 42
0.2
  3
txt
  4

  0
STYLE
  5
2A2
100
AcDbSymbolTableRecord
100
AcDbTextStyleTableRecord
  2
TEXTSTYLE_1
 70
0
 40
0.0
 41
0.8
 50
0.0
 71
0
 42
0.2
  3
gdt
  4

  0
ENDTAB
  0
TABLE
  2
VIEW
  5
6
100
AcDbSymbolTable
 70
0
  0
ENDTAB
  0
TABLE
  2
UCS
  5
7
100
AcDbSymbolTable
 70
0
  0
ENDTAB
  0
TABLE
  2
APPID
  5
9
100
AcDbSymbolTable
 70
1
  0
APPID
  5
2A3
100
AcDbSymbolTableRecord
100
AcDbRegAppTableRecord
  2
ACAD
 70
0
  0
ENDTAB
  0
TABLE
  2
BLOCK_RECORD
  5
1
100
AcDbSymbolTable
 70
0
  0
BLOCK_RECORD
  5
2A4
100
AcDbSymbolTableRecord
100
AcDbBlockTableRecord
  2
*Model_Space
  0
BLOCK_RECORD
  5
2A5
100
AcDbSymbolTableRecord
100
AcDbBlockTableRecord
  2
*Paper_Space
  0
BLOCK_RECORD
  5
2A6
100
AcDbSymbolTableRecord
100
AcDbBlockTableRecord
  2
_FILLED
  0
ENDTAB
  0
TABLE
  2
DIMSTYLE
  5
A
100
AcDbSymbolTable
 70
1
100
AcDbDimStyleTable
 71
0
  0
DIMSTYLE
105
2A7
100
AcDbSymbolTableRecord
100
AcDbDimStyleTableRecord
  2
STANDARD
 70
0
  3

  4

 40
1.0
 41
3.0
 42
0.5
 43
0.38
 44
1.5
 45
0.0
 46
0.0
 47
0.01
 48
0.01
140
3.0
141
0.09
142
0.0
143
25.4
144
1.0
145
0.0
146
1.0
147
0.625
 71
1
 72
0
 73
0
 74
0
 75
0
 76
0
 77
1
 78
8
 79
2
170
0
171
1
172
0
173
0
174
0
175
0
176
0
177
0
178
0
270
2
179
2
271
2
272
2
273
2
274
2
275
0
280
0
281
0
282
0
283
1
284
8
285
0
286
0
287
3
288
0
340
11
278
44
341
2A6
342
2A6
343
2A6
344
2A6
  0
ENDTAB
  0
ENDSEC
  0
SECTION
  2
BLOCKS
  0
BLOCK
  5
20
100
AcDbEntity
  8
0
100
AcDbBlockBegin
  2
*Model_Space
 70
0
 10
0.0
 20
0.0
 30
0.0
  3
*Model_Space
  1

  0
ENDBLK
  5
21
100
AcDbEntity
  8
0
100
AcDbBlockEnd
  0
BLOCK
  5
1C
100
AcDbEntity
  8
0
100
AcDbBlockBegin
  2
*Paper_Space
 70
0
 10
0.0
 20
0.0
 30
0.0
  3
*Paper_Space
  1

  0
ENDBLK
  5
1D
100
AcDbEntity
  8
0
100
AcDbBlockEnd
  0
BLOCK
  5
2A8
100
AcDbEntity
  8
0
100
AcDbBlockBegin
  2
_FILLED
 70
64
 10
0.0
 20
0.0
  3
_FILLED
  1

  0
SOLID
  5
2A9
100
AcDbEntity
  8
0
  6
BYBLOCK
 62
0
100
AcDbTrace
 10
0.0
 20
0.0
 11
-1.0
 21
0.3166666667
 12
-1.0
 22
-0.3166666667
 13
-1.0
 23
-0.3166666667
  0
ENDBLK
  5
2AA
100
AcDbEntity
  8
0
  6
BYBLOCK
 62
0
100
AcDbBlockEnd
  0
ENDSEC
  0
SECTION
  2
ENTITIES
  0
LWPOLYLINE
  5
2AB
100
AcDbEntity
  8
ASSI
100
AcDbPolyline
 62
250
  6
CONTINUOUS
 90
8
 70
0
 10
109.9204743388
 20
80.0613309389
 10
109.9262940868
 20
80.0305166427
 10
109.9373965084
 20
80.0003536351
 10
109.9536626465
 20
79.9711650982
 10
109.9749182173
 20
79.9432637731
 10
110.0009354776
 20
79.9169486091
 10
110.0314356648
 20
79.8925015607
 10
110.0660919842
 20
79.8701845662
  0
LWPOLYLINE
  5
2AC
100
AcDbEntity
  8
ASSI
100
AcDbPolyline
 62
7
  6
CONTINUOUS
 90
14
 70
0
 10
109.9196679882
 20
80.072998793
 10
109.9244050354
 20
80.007417365
 10
109.9339542405
 20
79.942250785
 10
109.9479795293
 20
79.8800178751
 10
109.966180763
 20
79.8210513125
 10
109.9883232257
 20
79.765333907
 10
110.0142953263
 20
79.7126388078
 10
110.0438129033
 20
79.6632143124
 10
110.0766166391
 20
79.6172045467
 10
110.1127255644
 20
79.5744247873
 10
110.1518421559
 20
79.5351319782
 10
110.1936851689
 20
79.4995003555
 10
110.2383983351
 20
79.4673930647
 10
110.2711478991
 20
79.4472187946
  0
LWPOLYLINE
  5
2AD
100
AcDbEntity
  8
ASSI
100
AcDbPolyline
 62
250
  6
CONTINUOUS
 90
9
 70
0
 10
109.9196311017
 20
114.3959012071
 10
109.9204741827
 20
114.3739635038
 10
109.92629369
 20
114.3454124021
 10
109.9373959281
 20
114.3172172528
 10
109.9536619668
 20
114.2896801602
 10
109.9749175353
 20
114.2630961914
 10
110.0009349
 20
114.237750193
 10
110.0314353123
 20
114.2139137404
 10
110.0660919841
 20
114.1918422403
  0
LWPOLYLINE
  5
2AE
100
AcDbEntity
  8
ASSI
100
AcDbPolyline
 62
250
  6
CONTINUOUS
 90
16
 70
0
 10
110.0660919842
 20
79.8701845662
 10
109.9845948738
 20
82.2721576763
 10
109.9175360274
 20
84.6102790946
 10
109.8638127989
 20
86.8837889713
 10
109.8226795097
 20
89.0716709048
 10
109.7925891029
 20
91.1934132426
 10
109.7721282864
 20
93.3095657519
 10
109.7611555458
 20
95.4217952291
 10
109.7595187956
 20
97.528147457
 10
109.7673857371
 20
99.6846824039
 10
109.7854323898
 20
101.8964530903
 10
109.8142586552
 20
104.1590090324
 10
109.8552897522
 20
106.5149256098
 10
109.910140079
 20
108.9789697843
 10
109.9799476984
 20
111.5377258409
 10
110.0660919842
 20
114.1918422418
  0
LWPOLYLINE
  5
2AF
100
AcDbEntity
  8
ASSI
100
AcDbPolyline
 62
7
  6
CONTINUOUS
 90
10
 70
0
 10
109.9196397337
 20
114.3961534353
 10
109.7996360462
 20
110.5588098654
 10
109.7080047449
 20
106.6768584216
 10
109.6469199111
 20
102.8122989048
 10
109.6163870453
 20
98.9654643106
 10
109.6164091941
 20
95.1366786538
 10
109.6469870678
 20
91.3262770618
 10
109.7081192705
 20
87.5345843183
 10
109.7998019295
 20
83.7619238903
 10
109.9196671444
 20
80.0730218161
  0
LWPOLYLINE
  5
2B0
100
AcDbEntity
  8
ASSI
100
AcDbPolyline
 62
250
  6
CONTINUOUS
 90
19
 70
0
 10
110.0660919842
 20
114.1918422418
 10
110.0708728538
 20
114.2615232164
 10
110.0802242869
 20
114.3324701241
 10
110.0939287122
 20
114.404154804
 10
110.1116661628
 20
114.4757887365
 10
110.1332254144
 20
114.5471711476
 10
110.1586663453
 20
114.618704759
 10
110.1879049188
 20
114.6901113455
 10
110.2207092967
 20
114.7607918164
 10
110.2570798885
 20
114.8306662367
 10
110.2966927702
 20
114.8990323559
 10
110.3394746659
 20
114.965691714
 10
110.3859524991
 20
115.0311879816
 10
110.4363350701
 20
115.0953365207
 10
110.4901069273
 20
115.1570150779
 10
110.5467300271
 20
115.2152565475
 10
110.6057655705
 20
115.2693398445
 10
110.6669107807
 20
115.3187290764
 10
110.7297237615
 20
115.3627917779
  0
LWPOLYLINE
  5
2B1
100
AcDbEntity
  8
ASSI
100
AcDbPolyline
 62
7
  6
CONTINUOUS
 90
14
 70
0
 10
141.0339646001
 20
61.685157776
 10
141.0640032965
 20
61.6687988042
 10
141.1160382141
 20
61.6448823413
 10
141.1707102638
 20
61.6252013892
 10
141.2276046642
 20
61.6100833539
 10
141.286386373
 20
61.5997528263
 10
141.3466359622
 20
61.5944009717
 10
141.4078293601
 20
61.5941586299
 10
141.4696570941
 20
61.5990814538
 10
141.5317450094
 20
61.6091814501
 10
141.5936136358
 20
61.6243971794
 10
141.6549811708
 20
61.6446339237
 10
141.715666105
 20
61.6698083141
 10
141.7426906619
 20
61.6827269665
  0
LINE
  5
2B2
100
AcDbEntity
  8
ASSI
100
AcDbLine
 62
7
  6
CONTINUOUS
 10
141.0342529841
 20
61.6849864615
 11
110.2707473883
 21
79.4474490352
  0
LINE
  5
2B3
100
AcDbEntity
  8
ASSI
100
AcDbLine
 62
250
  6
CONTINUOUS
 10
140.8259936585
 20
62.1098028515
 11
110.0660919842
 21
79.8701845662
  0
LWPOLYLINE
  5
2B4
100
AcDbEntity
  8
ASSI
100
AcDbPolyline
 62
250
  6
CONTINUOUS
 90
10
 70
0
 10
110.270747088
 20
79.4474492086
 10
110.2413192076
 20
79.4666089628
 10
110.2061199039
 20
79.496184708
 10
110.1738154463
 20
79.5317351687
 10
110.144678099
 20
79.5736569832
 10
110.1194108522
 20
79.6217509349
 10
110.0985553685
 20
79.6757048858
 10
110.0825050578
 20
79.7352355707
 10
110.0715765388
 20
79.8001714828
 10
110.0660919842
 20
79.8701845662
  0
LINE
  5
2B5
100
AcDbEntity
  8
CURVE
100
AcDbLine
 62
250
  6
CONTINUOUS
 10
113.1367470347
 20
83.2967051413
 11
113.1709192851
 21
82.0199413606
  0
LINE
  5
2B6
100
AcDbEntity
  8
CURVE
100
AcDbLine
 62
250
  6
CONTINUOUS
 10
113.0916711693
 20
85.2399937785
 11
113.1204204811
 21
83.9600997063
  0
LWPOLYLINE
  5
2B7
100
AcDbEntity
  8
ASSI
100
AcDbPolyline
 62
7
  6
CONTINUOUS
 90
16
 70
0
 10
110.4731601747
 20
115.3833377732
 10
110.435532982
 20
115.3572975772
 10
110.3711909053
 20
115.3067813382
 10
110.3103858229
 20
115.2514328542
 10
110.2530007229
 20
115.1914204691
 10
110.1991772841
 20
115.1271114499
 10
110.1494166205
 20
115.059299491
 10
110.1037654251
 20
114.9882218927
 10
110.062364667
 20
114.914112167
 10
110.0257820118
 20
114.8379721944
 10
109.9941285101
 20
114.7600547816
 10
109.9675926057
 20
114.6805382732
 10
109.9465765253
 20
114.6002685421
 10
109.9313089982
 20
114.5195459727
 10
109.9219967774
 20
114.4383439238
 10
109.9196311017
 20
114.3959012071
  0
LINE
  5
2B8
100
AcDbEntity
  8
ASSI
100
AcDbLine
 62
7
  6
CONTINUOUS
 10
110.4729543397
 20
115.383202262
 11
115.4122550034
 21
118.6406245973
  0
LINE
  5
2B9
100
AcDbEntity
  8
ASSI
100
AcDbLine
 62
250
  6
CONTINUOUS
 10
110.7297237615
 20
115.3627917779
 11
115.6703690697
 21
118.6211008937
  0
LWPOLYLINE
  5
2BA
100
AcDbEntity
  8
ASSI
100
AcDbPolyline
 62
250
  6
CONTINUOUS
 90
9
 70
0
 10
110.473160175
 20
115.3833377734
 10
110.4939302364
 20
115.3948193518
 10
110.5219611564
 20
115.404662555
 10
110.5524682164
 20
115.4097030716
 10
110.5851175627
 20
115.4098857406
 10
110.6195518978
 20
115.405208563
 10
110.65539439
 20
115.3957227233
 10
110.6922527977
 20
115.3815320298
 10
110.7297237615
 20
115.3627917779
  0
LINE
  5
2BB
100
AcDbEntity
  8
RACCORDO
100
AcDbLine
 62
7
  6
CONTINUOUS
 10
115.4787240864
 20
118.6657665107
 11
116.1197674206
 21
119.0104988709
  0
LINE
  5
2BC
100
AcDbEntity
  8
RACCORDO
100
AcDbLine
 62
250
  6
CONTINUOUS
 10
115.6807442053
 20
118.6151104204
 11
116.3653485329
 21
118.9832684731
  0
LWPOLYLINE
  5
2BD
100
AcDbEntity
  8
CURVE
100
AcDbPolyline
 62
250
  6
CONTINUOUS
 90
93
 70
0
 10
113.2849404501
 20
81.6966471608
 10
113.2198351408
 20
81.7353316259
 10
113.1546336215
 20
81.7764364482
 10
113.1110580516
 20
81.8053435293
 10
113.0675100427
 20
81.8354596307
 10
113.0241393083
 20
81.8667536517
 10
112.9810783618
 20
81.8992160481
 10
112.9383909165
 20
81.932923501
 10
112.896123486
 20
81.967974248
 10
112.8542868501
 20
82.0045046776
 10
112.8127488546
 20
82.0428037829
 10
112.771341612
 20
82.0831987079
 10
112.7299089069
 20
82.1260060485
 10
112.688341213
 20
82.1715002087
 10
112.6465406763
 20
82.2199450442
 10
112.6149841103
 20
82.2583924835
 10
112.5832332742
 20
82.2988716487
 10
112.5512799151
 20
82.3416060916
 10
112.5191157798
 20
82.3868193643
 10
112.486790259
 20
82.4346714896
 10
112.4545833187
 20
82.4850683734
 10
112.4333303332
 20
82.520029375
 10
112.4122943873
 20
82.5561676005
 10
112.3914897697
 20
82.5935993248
 10
112.3709469812
 20
82.632392176
 10
112.3507613729
 20
82.6724191957
 10
112.3310445083
 20
82.7135047789
 10
112.3118928689
 20
82.7554898033
 10
112.293342608
 20
82.7982810776
 10
112.2754147973
 20
82.841801893
 10
112.2497298367
 20
82.9082876345
 10
112.2255253214
 20
82.9760099307
 10
112.2028337732
 20
83.0447364628
 10
112.1816877141
 20
83.1142349123
 10
112.1621043007
 20
83.1843106374
 10
112.1440392298
 20
83.2549197042
 10
112.1274328332
 20
83.3260558556
 10
112.1122254428
 20
83.3977128346
 10
112.0983592709
 20
83.4698815935
 10
112.0857840527
 20
83.5425419228
 10
112.074451404
 20
83.6156708223
 10
112.0643129407
 20
83.689245292
 10
112.0525732786
 20
83.7879648045
 10
112.0427816736
 20
83.8871822162
 10
112.0348492031
 20
83.9866441903
 10
112.0286858709
 20
84.0860911474
 10
112.0241973873
 20
84.1852385352
 10
112.0212883891
 20
84.2837955586
 10
112.0198996859
 20
84.3814391444
 10
112.0201167776
 20
84.4777171065
 10
112.0220613369
 20
84.5721449811
 10
112.0258501081
 20
84.6642660104
 10
112.0315801224
 20
84.7537342612
 10
112.0393434829
 20
84.8402315067
 10
112.046556905
 20
84.90297599
 10
112.0550114246
 20
84.9638122572
 10
112.0647525743
 20
85.0226822852
 10
112.0758258865
 20
85.0795280508
 10
112.0882810883
 20
85.134290413
 10
112.1021846855
 20
85.1869057585
 10
112.1176073783
 20
85.2373093562
 10
112.1346198671
 20
85.2854364746
 10
112.1532699735
 20
85.3311909951
 10
112.1735140041
 20
85.3743512487
 10
112.1952853867
 20
85.414664179
 10
112.2185175492
 20
85.4518767297
 10
112.243148843
 20
85.4857669931
 10
112.2691373138
 20
85.5162376564
 10
112.2871828737
 20
85.534615894
 10
112.3057094661
 20
85.5514067801
 10
112.3246113921
 20
85.5665721912
 10
112.3437979353
 20
85.5801034484
 10
112.3632383101
 20
85.5921096491
 10
112.382916714
 20
85.6027293347
 10
112.4128111912
 20
85.6163199944
 10
112.4429431555
 20
85.6273170157
 10
112.4730923242
 20
85.6359315864
 10
112.5032073727
 20
85.6423624355
 10
112.5332792161
 20
85.6468051777
 10
112.5632987692
 20
85.6494554275
 10
112.6032531412
 20
85.6504822717
 10
112.6432289306
 20
85.6487942995
 10
112.6833566667
 20
85.6445155885
 10
112.7237634122
 20
85.6377705605
 10
112.7645623651
 20
85.6286850144
 10
112.8058632574
 20
85.6173850937
 10
112.8477411205
 20
85.6040058549
 10
112.8901321848
 20
85.5887180081
 10
112.9329379803
 20
85.5717011764
 10
112.9976913316
 20
85.5433035273
 10
113.0627185762
 20
85.5118851581
 10
113.127678208
 20
85.4778653438
 10
113.192613476
 20
85.4414790838
  0
LWPOLYLINE
  5
2BE
100
AcDbEntity
  8
CURVE
100
AcDbPolyline
 62
250
  6
CONTINUOUS
 90
86
 70
0
 10
117.8136447962
 20
79.5399861025
 10
117.8136083618
 20
79.5427059648
 10
117.8136514316
 20
79.5453287382
 10
117.8137720848
 20
79.5478604307
 10
117.8139684006
 20
79.55030705
 10
117.8142384582
 20
79.5526746042
 10
117.8145803367
 20
79.554969101
 10
117.8149921153
 20
79.5571965482
 10
117.8155587983
 20
79.5597165386
 10
117.8162179068
 20
79.5621511642
 10
117.8169693388
 20
79.5644981445
 10
117.8178129926
 20
79.5667551991
 10
117.8187487662
 20
79.5689200476
 10
117.8197765579
 20
79.5709904095
 10
117.8208958573
 20
79.5729638596
 10
117.8221045201
 20
79.5748373926
 10
117.8233999934
 20
79.5766078583
 10
117.8247797246
 20
79.5782721068
 10
117.8262411607
 20
79.5798269879
 10
117.827781749
 20
79.5812693514
 10
117.8293991016
 20
79.5825964059
 10
117.8310914902
 20
79.5838067941
 10
117.8328573512
 20
79.5848995175
 10
117.8346951214
 20
79.5858735776
 10
117.8366032373
 20
79.5867279757
 10
117.8385801355
 20
79.5874617133
 10
117.840623919
 20
79.5880738033
 10
117.8427313567
 20
79.5885633045
 10
117.844898884
 20
79.5889292875
 10
117.8471229363
 20
79.5891708224
 10
117.8493999488
 20
79.5892869798
 10
117.8517263571
 20
79.58927683
 10
117.8540986413
 20
79.5891397064
 10
117.8565134614
 20
79.5888759945
 10
117.8589675223
 20
79.5884863428
 10
117.8614575287
 20
79.5879714
 10
117.8639801856
 20
79.5873318146
 10
117.8665321978
 20
79.5865682352
 10
117.8691101791
 20
79.585681463
 10
117.8717103795
 20
79.5846729109
 10
117.874328958
 20
79.5835441445
 10
117.8769620737
 20
79.5822967292
 10
117.8796058854
 20
79.5809322305
 10
117.8822565521
 20
79.5794522142
 10
117.8849101121
 20
79.5778585856
 10
117.8875621202
 20
79.5761546098
 10
117.8902080106
 20
79.5743438917
 10
117.8928432172
 20
79.5724300364
 10
117.8954631741
 20
79.5704166487
 10
117.8980633154
 20
79.5683073338
 10
117.9006394224
 20
79.566105574
 10
117.9031886649
 20
79.563814362
 10
117.90570856
 20
79.5614365678
 10
117.9081966247
 20
79.5589750616
 10
117.9106503761
 20
79.5564327134
 10
117.9130673312
 20
79.5538123933
 10
117.9154450238
 20
79.5511168961
 10
117.9177810543
 20
79.548348715
 10
117.9200730399
 20
79.5455102681
 10
117.9223185978
 20
79.5426039733
 10
117.924515345
 20
79.5396322484
 10
117.9266608987
 20
79.5365975115
 10
117.9287526317
 20
79.5335026598
 10
117.9307869387
 20
79.5303525074
 10
117.9327599703
 20
79.527152348
 10
117.9346678769
 20
79.523907475
 10
117.936506809
 20
79.520623182
 10
117.938272917
 20
79.5173047624
 10
117.9399624956
 20
79.5139580115
 10
117.9415724174
 20
79.5105907313
 10
117.9430996992
 20
79.5072112254
 10
117.9445413576
 20
79.5038277977
 10
117.9458944095
 20
79.5004487518
 10
117.9471558717
 20
79.4970823914
 10
117.9483234055
 20
79.4937358161
 10
117.9493972496
 20
79.4904113086
 10
117.9503782874
 20
79.4871099475
 10
117.9512674021
 20
79.4838328112
 10
117.952065477
 20
79.4805809783
 10
117.9527733955
 20
79.4773555275
 10
117.9533915271
 20
79.4741562127
 10
117.9539181874
 20
79.470977491
 10
117.9543511782
 20
79.4678124948
 10
117.9546883014
 20
79.4646543565
 10
117.9549273589
 20
79.4614962087
 10
117.9550661525
 20
79.4583311838
  0
LWPOLYLINE
  5
2BF
100
AcDbEntity
  8
CURVE
100
AcDbPolyline
 62
250
  6
CONTINUOUS
 90
86
 70
0
 10
117.9550661525
 20
79.4583311838
 10
117.9551026029
 20
79.4556113217
 10
117.9550595799
 20
79.4529885676
 10
117.9549390032
 20
79.450456913
 10
117.9547427927
 20
79.4480103494
 10
117.9544728684
 20
79.4456428683
 10
117.9541311502
 20
79.4433484613
 10
117.953719558
 20
79.4411211198
 10
117.953153124
 20
79.4386012723
 10
117.9524942973
 20
79.4361668096
 10
117.9517431782
 20
79.4338200112
 10
117.9508998673
 20
79.4315631564
 10
117.9499644649
 20
79.4293985246
 10
117.9489370714
 20
79.4273283953
 10
117.9478181955
 20
79.4253551928
 10
117.9466099789
 20
79.4234819205
 10
117.9453149715
 20
79.421711727
 10
117.9439357233
 20
79.4200477607
 10
117.9424747842
 20
79.41849317
 10
117.9409347042
 20
79.4170511033
 10
117.9393178683
 20
79.4157243506
 10
117.9376260022
 20
79.4145142673
 10
117.9358606666
 20
79.4134218504
 10
117.9340234221
 20
79.4124480969
 10
117.9321158297
 20
79.4115940037
 10
117.9301394499
 20
79.4108605678
 10
117.928096177
 20
79.4102487747
 10
117.9259892392
 20
79.4097595637
 10
117.9238221984
 20
79.4093938628
 10
117.9215986161
 20
79.4091526001
 10
117.9193220541
 20
79.4090367034
 10
117.9169960742
 20
79.4090471007
 10
117.9146241934
 20
79.409184457
 10
117.9122097497
 20
79.4094483856
 10
117.9097560365
 20
79.4098382368
 10
117.9072663473
 20
79.410353361
 10
117.9047439753
 20
79.4109931086
 10
117.9021922139
 20
79.4117568298
 10
117.8996144476
 20
79.4126437223
 10
117.8970144255
 20
79.4136523728
 10
117.8943959879
 20
79.4147812154
 10
117.8917629748
 20
79.4160286842
 10
117.8891192266
 20
79.417393213
 10
117.8864685833
 20
79.4188732361
 10
117.8838150065
 20
79.4204668476
 10
117.8811629416
 20
79.4221707829
 10
117.8785169554
 20
79.4239814376
 10
117.8758816148
 20
79.4258952071
 10
117.8732614865
 20
79.427908487
 10
117.8706611372
 20
79.4300176729
 10
117.8680847867
 20
79.4322192828
 10
117.8655352668
 20
79.4345103253
 10
117.8630150622
 20
79.4368879312
 10
117.8605266576
 20
79.4393492317
 10
117.858072538
 20
79.4418913576
 10
117.8556551879
 20
79.4445114401
 10
117.8532770755
 20
79.4472066854
 10
117.8509406027
 20
79.4499746019
 10
117.8486481544
 20
79.4528127729
 10
117.8464021158
 20
79.4557187823
 10
117.8442048719
 20
79.4586902134
 10
117.8420588079
 20
79.4617246499
 10
117.8399665535
 20
79.4648191962
 10
117.837931717
 20
79.4679690398
 10
117.8359581512
 20
79.471168889
 10
117.834049709
 20
79.4744134523
 10
117.8322102432
 20
79.4776974379
 10
117.8304436068
 20
79.4810155541
 10
117.8287535082
 20
79.4843620077
 10
117.8271430781
 20
79.4877289983
 10
117.825615303
 20
79.4911082241
 10
117.8241731692
 20
79.4944913829
 10
117.822819663
 20
79.4978701731
 10
117.8215577709
 20
79.5012362924
 10
117.8203898345
 20
79.5045826431
 10
117.8193156162
 20
79.5079069432
 10
117.8183342339
 20
79.511208115
 10
117.8174448054
 20
79.5144850807
 10
117.8166464484
 20
79.5177367623
 10
117.8159382807
 20
79.5209620822
 10
117.8153199338
 20
79.5241612867
 10
117.8147930938
 20
79.5273399199
 10
117.8143599602
 20
79.5305048498
 10
117.814022733
 20
79.5336629448
 10
117.8137836118
 20
79.5368210729
 10
117.8136447962
 20
79.5399861025
  0
LWPOLYLINE
  5
2C0
100
AcDbEntity
  8
RACCORDO
100
AcDbPolyline
 62
7
  6
CONTINUOUS
 90
10
 70
0
 10
124.6737841233
 20
119.7885369997
 10
124.6947848379
 20
119.8017534616
 10
124.7133202457
 20
119.8138544846
 10
124.7293683166
 20
119.8248285316
 10
124.7428254857
 20
119.8346025704
 10
124.7535600649
 20
119.8430767687
 10
124.7614884293
 20
119.8501652374
 10
124.76649329
 20
119.855787629
 10
124.7684278387
 20
119.8598792443
 10
124.7671556093
 20
119.862381307
  0
LWPOLYLINE
  5
2C1
100
AcDbEntity
  8
DRAFT
100
AcDbPolyline
 62
7
  6
CONTINUOUS
 90
8
 70
0
 10
139.1773909329
 20
126.6012516461
 10
139.0823724607
 20
126.54307869
 10
138.9948506004
 20
126.4820095911
 10
138.914825352
 20
126.4180443493
 10
138.8420167362
 20
126.3508871342
 10
138.7767047322
 20
126.2808337762
 10
138.7197292783
 20
126.2087717664
 10
138.6763375318
 20
126.1425137414
  0
LWPOLYLINE
  5
2C2
100
AcDbEntity
  8
0
100
AcDbPolyline
 62
7
  6
CONTINUOUS
 90
12
 70
0
 10
119.9387657474
 20
116.4821904473
 10
119.9435335856
 20
116.4851065661
 10
119.9659194684
 20
116.501703153
 10
119.9857135671
 20
116.5223035057
 10
120.0029662343
 20
116.5467543541
 10
120.0171600175
 20
116.574281283
 10
120.0281834689
 20
116.6048786315
 10
120.0361480364
 20
116.6385520606
 10
120.0408706105
 20
116.6745441387
 10
120.0422901549
 20
116.7126023886
 10
120.0404677059
 20
116.7529792875
 10
120.0354032635
 20
116.7956748353
  0
LINE
  5
2C3
100
AcDbEntity
  8
ASSI
100
AcDbLine
 62
7
  6
CONTINUOUS
 10
121.40863878
 20
115.9574007497
 11
120.8555304413
 21
115.6272537031
  0
LINE
  5
2C4
100
AcDbEntity
  8
ASSI
100
AcDbLine
 62
7
  6
CONTINUOUS
 10
124.3203536691
 20
118.5933546608
 11
122.8613488777
 21
117.7509406873
  0
LINE
  5
2C5
100
AcDbEntity
  8
0
100
AcDbLine
 62
7
  6
CONTINUOUS
 10
123.5778915404
 20
118.7523716207
 11
120.0354032635
 21
116.7956748353
  0
LINE
  5
2C6
100
AcDbEntity
  8
0
100
AcDbLine
 62
250
  6
CONTINUOUS
 10
120.1960527554
 20
116.8272171086
 11
123.7496286684
 21
118.7864744918
  0
LINE
  5
2C7
100
AcDbEntity
  8
0
100
AcDbLine
 62
250
  6
CONTINUOUS
 10
120.5867454115
 20
116.7376050508
 11
124.1408962792
 21
118.6969711086
  0
LINE
  5
2C8
100
AcDbEntity
  8
DRAFT
100
AcDbLine
 62
7
  6
CONTINUOUS
 10
119.1848890833
 20
116.5918610851
 11
119.8617083132
 21
116.9645141557
  0
LWPOLYLINE
  5
2C9
100
AcDbEntity
  8
RACCORDO
100
AcDbPolyline
 62
7
  6
CONTINUOUS
 90
7
 70
0
 10
121.8214949943
 20
118.2152888717
 10
124.5364213279
 20
119.7083447974
 10
124.5674979705
 20
119.7258391002
 10
124.5968654938
 20
119.7427257148
 10
124.6245278587
 20
119.7589034526
 10
124.6502933163
 20
119.7742224531
 10
124.6737841233
 20
119.7885369997
  0
LINE
  5
2CA
100
AcDbEntity
  8
ASSI
100
AcDbLine
 62
7
  6
CONTINUOUS
 10
119.6487566429
 20
117.0874697812
 11
124.7350361396
 21
119.8809991033
  0
LINE
  5
2CB
100
AcDbEntity
  8
RACCORDO
100
AcDbLine
 62
7
  6
CONTINUOUS
 10
143.5962955287
 20
130.2227599774
 11
138.9711749333
 21
127.6839031591
  0
LINE
  5
2CC
100
AcDbEntity
  8
0
100
AcDbLine
 62
7
  6
CONTINUOUS
 10
123.1039749814
 20
118.6422445812
 11
119.5051314457
 21
116.6724521619
  0
LWPOLYLINE
  5
2CD
100
AcDbEntity
  8
RACCORDO
100
AcDbPolyline
 62
7
  6
CONTINUOUS
 90
3
 70
0
 10
124.90791933
 20
119.9656966369
 10
124.9368042993
 20
119.9812498507
 10
138.9711749333
 20
127.6839031591
  0
LINE
  5
2CE
100
AcDbEntity
  8
RACCORDO
100
AcDbLine
 62
250
  6
CONTINUOUS
 10
140.6898853211
 20
126.9215584974
 11
138.8713418503
 21
125.9521807688
  0
LWPOLYLINE
  5
2CF
100
AcDbEntity
  8
RACCORDO
100
AcDbPolyline
 62
7
  6
CONTINUOUS
 90
3
 70
0
 10
124.8327392293
 20
119.9260505068
 10
124.8556164505
 20
119.9379918028
 10
124.90791933
 20
119.9656966369
  0
LWPOLYLINE
  5
2D0
100
AcDbEntity
  8
RACCORDO
100
AcDbPolyline
 62
250
  6
CONTINUOUS
 90
40
 70
0
 10
139.1404674004
 20
127.4360807694
 10
139.2376291967
 20
127.4866566209
 10
139.3401634239
 20
127.5336563689
 10
139.4476441773
 20
127.5769284925
 10
139.5596260402
 20
127.6163205308
 10
139.6756971971
 20
127.651692459
 10
139.7954858763
 20
127.682910341
 10
139.9185677554
 20
127.7098279153
 10
140.0444750267
 20
127.7323570056
 10
140.1727659961
 20
127.7504591351
 10
140.3029800722
 20
127.764085404
 10
140.4345949951
 20
127.7731729679
 10
140.567075464
 20
127.7776667548
 10
140.6998994735
 20
127.7775204481
 10
140.8325985091
 20
127.7727258642
 10
140.9647166719
 20
127.7633346473
 10
141.0957847523
 20
127.749401101
 10
141.2252829845
 20
127.7309806493
 10
141.3526814734
 20
127.7081385852
 10
141.47746582
 20
127.6809457358
 10
141.5991787407
 20
127.6494771589
 10
141.7174143022
 20
127.6138584021
 10
141.8317699927
 20
127.5742381736
 10
141.9417995066
 20
127.5307805425
 10
142.0470527165
 20
127.4836610646
 10
142.1470980881
 20
127.4330571524
 10
142.2415491111
 20
127.3791293982
 10
142.3300752029
 20
127.3220583183
 10
142.4123953398
 20
127.2620636568
 10
142.4882047877
 20
127.1993933873
 10
142.5572025919
 20
127.1343057678
 10
142.6191056551
 20
127.0670563669
 10
142.6736564788
 20
126.9978756006
 10
142.7206256328
 20
126.9269925105
 10
142.7598779431
 20
126.8546686893
 10
142.7912986086
 20
126.7811942525
 10
142.814781402
 20
126.7068615372
 10
142.8302305837
 20
126.6319520185
 10
142.8375530465
 20
126.5567468813
 10
142.8368386072
 20
126.484158174
  0
LINE
  5
2D1
100
AcDbEntity
  8
RACCORDO
100
AcDbLine
 62
7
  6
CONTINUOUS
 10
124.7936797041
 20
119.9059996349
 11
124.8327392293
 21
119.9260505068
  0
LWPOLYLINE
  5
2D2
100
AcDbEntity
  8
RACCORDO
100
AcDbPolyline
 62
250
  6
CONTINUOUS
 90
49
 70
0
 10
139.4190765032
 20
127.9300660827
 10
139.5463959919
 20
127.9697646151
 10
139.6768369758
 20
128.0047950429
 10
139.8103994547
 20
128.0351573661
 10
139.947586921
 20
128.0609242899
 10
140.0878958825
 20
128.0820231092
 10
140.2298158616
 20
128.0982357085
 10
140.3733657496
 20
128.1095139471
 10
140.5185266552
 20
128.1159059657
 10
140.6637314278
 20
128.1173380708
 10
140.8089841385
 20
128.1137536707
 10
140.9542807161
 20
128.1052093571
 10
141.0980417963
 20
128.0918012123
 10
141.2402439402
 20
128.0734787881
 10
141.3809105866
 20
128.0502925327
 10
141.5185326881
 20
128.0224898733
 10
141.6530855745
 20
127.9900187626
 10
141.784593916
 20
127.9529312478
 10
141.9116226755
 20
127.9116308979
 10
142.0341133531
 20
127.8660738519
 10
142.1521244486
 20
127.8163039708
 10
142.2643964248
 20
127.7628564075
 10
142.3708795407
 20
127.705689664
 10
142.4716235372
 20
127.6448452382
 10
142.5655180993
 20
127.5809827762
 10
142.6524737592
 20
127.5140711371
 10
142.7325799847
 20
127.4441414619
 10
142.8049948646
 20
127.3719468198
 10
142.8696537375
 20
127.2974601448
 10
142.9266212647
 20
127.2207085029
 10
142.9752495188
 20
127.1425261611
 10
143.0154260379
 20
127.0629015749
 10
143.0472632839
 20
126.9818462887
 10
143.0704507142
 20
126.9002292027
 10
143.0849186269
 20
126.818036383
 10
143.090736724
 20
126.7352817634
 10
143.0878035686
 20
126.6528760451
 10
143.0761207629
 20
126.5709921635
 10
143.0556867046
 20
126.4894571832
 10
143.0263951507
 20
126.408662999
 10
142.9881273556
 20
126.3283408495
 10
142.9410020648
 20
126.248759496
 10
142.8852692718
 20
126.1711171179
 10
142.8205391144
 20
126.0953665548
 10
142.7472014549
 20
126.0215549671
 10
142.6666758732
 20
125.9510220154
 10
142.5794355625
 20
125.8842142532
 10
142.4850073297
 20
125.820685127
 10
142.3833911745
 20
125.7604346368
  0
LWPOLYLINE
  5
2D3
100
AcDbEntity
  8
ASSI
100
AcDbPolyline
 62
7
  6
CONTINUOUS
 90
8
 70
0
 10
135.9183427608
 20
69.8917258725
 10
135.9232690401
 20
69.8907509449
 10
135.9942705563
 20
69.8842127039
 10
136.0622491952
 20
69.8856558303
 10
136.1271484
 20
69.8950813792
 10
136.1887096373
 20
69.9125530999
 10
136.2462822802
 20
69.9379968937
 10
136.2640627997
 20
69.9479643886
  0
LWPOLYLINE
  5
2D4
100
AcDbEntity
  8
ASSI
100
AcDbPolyline
 62
250
  6
CONTINUOUS
 90
8
 70
0
 10
134.2132517832
 20
71.7940255563
 10
134.2038872324
 20
71.7962095465
 10
134.0738356666
 20
71.8237639162
 10
133.9423011711
 20
71.8488906821
 10
133.80940984
 20
71.8715657565
 10
133.6752890687
 20
71.8917674023
 10
133.5400674307
 20
71.9094762533
 10
133.4038745551
 20
71.9246753331
  0
LWPOLYLINE
  5
2D5
100
AcDbEntity
  8
ASSI
100
AcDbPolyline
 62
7
  6
CONTINUOUS
 90
28
 70
0
 10
131.5145065937
 20
73.143514799
 10
131.4894646911
 20
73.1499110678
 10
131.4304794631
 20
73.170022486
 10
131.3695473365
 20
73.195794491
 10
131.3068233935
 20
73.2273618165
 10
131.2430202096
 20
73.2645445169
 10
131.1783662501
 20
73.3073608255
 10
131.1132006889
 20
73.3557574711
 10
131.0480446155
 20
73.4095057804
 10
130.9833307112
 20
73.4683834937
 10
130.9194467148
 20
73.5321653609
 10
130.856833854
 20
73.6005294964
 10
130.7959567861
 20
73.6730651328
 10
130.7371909621
 20
73.7494042598
 10
130.6809072149
 20
73.829136459
 10
130.6275121198
 20
73.9117363147
 10
130.5773222264
 20
73.9967432922
 10
130.5306324939
 20
74.0836763119
 10
130.4877589848
 20
74.1719387422
 10
130.4489323924
 20
74.2610157705
 10
130.4143505246
 20
74.3503929175
 10
130.3842140256
 20
74.4394458453
 10
130.3586477531
 20
74.5276362674
 10
130.3377307366
 20
74.6144649935
 10
130.3215246277
 20
74.6993455726
 10
130.3100318822
 20
74.7817453538
 10
130.3032025681
 20
74.8612167727
 10
130.3009516053
 20
74.9373178681
  0
LWPOLYLINE
  5
2D6
100
AcDbEntity
  8
ASSI
100
AcDbPolyline
 62
250
  6
CONTINUOUS
 90
10
 70
0
 10
129.6800756337
 20
74.5437007048
 10
129.5507647075
 20
74.5806499411
 10
129.4194023214
 20
74.6150719388
 10
129.2861250211
 20
74.6469309177
 10
129.151071343
 20
74.6761937618
 10
129.0143816698
 20
74.7028300534
 10
128.8761980847
 20
74.7268121053
 10
128.7366642239
 20
74.7481149891
 10
128.5959251271
 20
74.7667165613
 10
128.4541270868
 20
74.7825974864
  0
LINE
  5
2D7
100
AcDbEntity
  8
RACCORDO
100
AcDbLine
 62
250
  6
CONTINUOUS
 10
131.4901388704
 20
73.5429539531
 11
131.549868529
 21
73.5221865347
  0
LINE
  5
2D8
100
AcDbEntity
  8
RACCORDO
100
AcDbLine
 62
7
  6
CONTINUOUS
 10
131.5003934308
 20
73.4810466011
 11
131.5527476423
 21
73.4593611482
  0
LWPOLYLINE
  5
2D9
100
AcDbEntity
  8
CURVE
100
AcDbPolyline
 62
250
  6
CONTINUOUS
 90
93
 70
0
 10
113.192613476
 20
85.4414790838
 10
113.2577068668
 20
85.4027975173
 10
113.3228770674
 20
85.3616846761
 10
113.3664199716
 20
85.3327654058
 10
113.4099253847
 20
85.3026312494
 10
113.4532432338
 20
85.2713130254
 10
113.4962405741
 20
85.2388199594
 10
113.538852971
 20
85.2050749057
 10
113.581033118
 20
85.1699791256
 10
113.6227693352
 20
85.1333956193
 10
113.6641924505
 20
85.0950343405
 10
113.7054689187
 20
85.0545669816
 10
113.7467536077
 20
85.0116758815
 10
113.7881550379
 20
84.9660859641
 10
113.8297701432
 20
84.9175328003
 10
113.8611744076
 20
84.878995455
 10
113.8927606799
 20
84.8384183589
 10
113.9245362506
 20
84.7955773292
 10
113.9565084102
 20
84.7502481828
 10
113.9886270701
 20
84.7022704872
 10
114.0206126256
 20
84.6517388119
 10
114.0417101566
 20
84.6166830878
 10
114.0625840297
 20
84.5804460621
 10
114.083219515
 20
84.542911171
 10
114.1035859424
 20
84.5040106951
 10
114.1235888811
 20
84.4638722924
 10
114.1431179599
 20
84.4226724651
 10
114.1620778481
 20
84.380571192
 10
114.1804333768
 20
84.3376623581
 10
114.1981644175
 20
84.2940233247
 10
114.2235523783
 20
84.2273603449
 10
114.2474600928
 20
84.1594623722
 10
114.2698577014
 20
84.0905632994
 10
114.2907153447
 20
84.0208970191
 10
114.3100183175
 20
83.9506595799
 10
114.3278125327
 20
83.8798956522
 10
114.344159057
 20
83.8086120625
 10
114.3591189577
 20
83.736815637
 10
114.3727514068
 20
83.6645159976
 10
114.385107997
 20
83.5917339483
 10
114.3962384259
 20
83.5184930889
 10
114.4061923911
 20
83.4448170192
 10
114.4177157923
 20
83.3459790807
 10
114.4273274844
 20
83.2466634819
 10
114.4351188978
 20
83.1471243146
 10
114.4411822314
 20
83.0476218402
 10
114.4456127588
 20
82.948440998
 10
114.4485065221
 20
82.8498728966
 10
114.4499230677
 20
82.7522409148
 10
114.4497759586
 20
82.6559975112
 10
114.4479422623
 20
82.5616274146
 10
114.444303749
 20
82.4695874084
 10
114.4387610005
 20
82.3802224945
 10
114.4312193012
 20
82.2938497297
 10
114.4241931122
 20
82.2312117028
 10
114.4159425227
 20
82.1704921797
 10
114.4064208193
 20
82.111748236
 10
114.3955812887
 20
82.0550369471
 10
114.3833730304
 20
82.0004165333
 10
114.3697283956
 20
81.9479497924
 10
114.3545755483
 20
81.8977006672
 10
114.3378426527
 20
81.8497331002
 10
114.3194804308
 20
81.8041422689
 10
114.2995298372
 20
81.7611482908
 10
114.2780543846
 20
81.7210025182
 10
114.2551175857
 20
81.6839563035
 10
114.2307781113
 20
81.6502299335
 10
114.2050752653
 20
81.6199194317
 10
114.1872153407
 20
81.6016452474
 10
114.1688692983
 20
81.58495555
 10
114.150141647
 20
81.5698877925
 10
114.131122195
 20
81.5564501436
 10
114.111841949
 20
81.5445336359
 10
114.0923172152
 20
81.5340000175
 10
114.0626418358
 20
81.5205320993
 10
114.0327148759
 20
81.5096501215
 10
114.002756186
 20
81.501142827
 10
113.972817706
 20
81.4948119064
 10
113.9429093985
 20
81.4904622872
 10
113.9130412261
 20
81.487898897
 10
113.8732711124
 20
81.4869789398
 10
113.8334604644
 20
81.4887641931
 10
113.7934796854
 20
81.4931311444
 10
113.7532027036
 20
81.4999558858
 10
113.7125175458
 20
81.5091129261
 10
113.6713157634
 20
81.5204763785
 10
113.6295235356
 20
81.5339114473
 10
113.5872055515
 20
81.5492477019
 10
113.5444611278
 20
81.5663058028
 10
113.4797794828
 20
81.5947526777
 10
113.4148008625
 20
81.626206323
 10
113.3498682616
 20
81.6602489583
 10
113.2849404501
 20
81.6966471608
  0
LWPOLYLINE
  5
2DA
100
AcDbEntity
  8
0
100
AcDbPolyline
 62
250
  6
CONTINUOUS
 90
22
 70
0
 10
134.3115774715
 20
71.4279865002
 10
134.4141900751
 20
71.3618384197
 10
134.5154150202
 20
71.2827831792
 10
134.6138834133
 20
71.1918898648
 10
134.7082636378
 20
71.0903876527
 10
134.7972793634
 20
70.9796491855
 10
134.8797268063
 20
70.861172009
 10
134.9544910073
 20
70.7365583201
 10
135.0205609062
 20
70.6074933079
 10
135.0770430172
 20
70.4757223625
 10
135.1231735163
 20
70.3430274649
 10
135.1583285706
 20
70.2112030813
 10
135.1820327704
 20
70.082031904
 10
135.1939655565
 20
69.9572607488
 10
135.1939655575
 20
69.8385769347
 10
135.1820327729
 20
69.7275854591
 10
135.1583285735
 20
69.6257872919
 10
135.1231735179
 20
69.5345590779
 10
135.077043018
 20
69.4551345219
 10
135.0205609097
 20
69.388587705
 10
134.9544910168
 20
69.3358185585
 10
134.9366076717
 20
69.3248843361
  0
LWPOLYLINE
  5
2DB
100
AcDbEntity
  8
0
100
AcDbPolyline
 62
250
  6
CONTINUOUS
 90
13
 70
0
 10
134.1024124649
 20
71.1030996776
 10
134.194702959
 20
71.0428281168
 10
134.2854165075
 20
70.969617566
 10
134.373000936
 20
70.8847197678
 10
134.4559579604
 20
70.7895859269
 10
134.5328671885
 20
70.685843745
 10
134.6024108647
 20
70.5752701082
 10
134.6633990202
 20
70.4597568595
 10
134.7147878439
 20
70.3412807839
 10
134.7556970258
 20
70.2218721491
 10
134.7854270826
 20
70.1035751223
 10
134.8034704657
 20
69.9884126496
 10
134.8095192461
 20
69.8783548075
  0
LWPOLYLINE
  5
2DC
100
AcDbEntity
  8
ASSI
100
AcDbPolyline
 62
7
  6
CONTINUOUS
 90
22
 70
0
 10
130.52159533
 20
75.5398470054
 10
130.6347208129
 20
75.4449506983
 10
130.7465550942
 20
75.3424490126
 10
130.8556589531
 20
75.233666756
 10
130.9619893687
 20
75.1185359662
 10
131.0655946049
 20
74.9971277762
 10
131.1651725432
 20
74.8709757442
 10
131.2606765942
 20
74.7400255122
 10
131.3521602071
 20
74.604335593
 10
131.4384709325
 20
74.4656086185
 10
131.5195549493
 20
74.3237955822
 10
131.5954735456
 20
74.1789500231
 10
131.6652458639
 20
74.0329277442
 10
131.7287933586
 20
73.8857264058
 10
131.7862014858
 20
73.7373525554
 10
131.8367336412
 20
73.5896742686
 10
131.88031272
 20
73.4426036959
 10
131.9170212404
 20
73.2962319982
 10
131.9463594853
 20
73.1526942218
 10
131.9681610256
 20
73.0127021455
 10
131.9825944396
 20
72.8755453253
 10
131.9896609951
 20
72.7412245476
  0
LWPOLYLINE
  5
2DD
100
AcDbEntity
  8
ASSI
100
AcDbPolyline
 62
250
  6
CONTINUOUS
 90
10
 70
0
 10
131.5537779155
 20
73.4618484903
 10
131.6195513233
 20
73.3861584771
 10
131.6811228528
 20
73.30918285
 10
131.7384285029
 20
73.2310016219
 10
131.7914087067
 20
73.1516960592
 10
131.8400083935
 20
73.0713485966
 10
131.8841770459
 20
72.9900427519
 10
131.9238687525
 20
72.9078630394
 10
131.9590422552
 20
72.8248948813
 10
131.9896609928
 20
72.7412245198
  0
LINE
  5
2DE
100
AcDbEntity
  8
RACCORDO
100
AcDbLine
 62
7
  6
CONTINUOUS
 10
120.7231067893
 20
115.7037134601
 11
120.7231067893
 21
116.5597776044
  0
LINE
  5
2DF
100
AcDbEntity
  8
RACCORDO
100
AcDbLine
 62
250
  6
CONTINUOUS
 10
141.0917593676
 20
126.9274533448
 11
140.9015258589
 21
126.8018302219
  0
LWPOLYLINE
  5
2E0
100
AcDbEntity
  8
RACCORDO
100
AcDbPolyline
 62
250
  6
CONTINUOUS
 90
10
 70
0
 10
140.9015258589
 20
126.8018302219
 10
140.8502416303
 20
126.7684690178
 10
140.8242255074
 20
126.7517949786
 10
140.7981312384
 20
126.7352607782
 10
140.7722234206
 20
126.7190939821
 10
140.746386328
 20
126.7032609353
 10
140.7207183316
 20
126.6878149676
 10
140.6958044814
 20
126.6731146832
 10
140.6718367982
 20
126.6592829013
 10
140.6486148577
 20
126.6462060528
  0
LWPOLYLINE
  5
2E1
100
AcDbEntity
  8
RACCORDO
100
AcDbPolyline
 62
250
  6
CONTINUOUS
 90
13
 70
0
 10
135.8759455695
 20
121.2019246128
 10
135.8538708678
 20
121.1880289444
 10
135.8320928793
 20
121.1711336916
 10
135.8109518873
 20
121.1515028445
 10
135.7907782219
 20
121.129443137
 10
135.7718870987
 20
121.1052992543
 10
135.7545736935
 20
121.0794484469
 10
135.7391085299
 20
121.0522946365
 10
135.7257332526
 20
121.024262104
 10
135.7146568518
 20
120.9957888605
 10
135.7060523974
 20
120.9673198035
 10
135.7000543347
 20
120.9392997647
 10
135.6967563842
 20
120.9121665602
  0
LINE
  5
2E2
100
AcDbEntity
  8
RACCORDO
100
AcDbLine
 62
7
  6
CONTINUOUS
 10
131.0259898852
 20
117.7932670101
 11
131.0258787473
 21
117.7932049729
  0
LINE
  5
2E3
100
AcDbEntity
  8
RACCORDO
100
AcDbLine
 62
7
  6
CONTINUOUS
 10
134.9116141033
 20
119.9584640534
 11
131.025989885
 21
117.79326701
  0
LINE
  5
2E4
100
AcDbEntity
  8
RACCORDO
100
AcDbLine
 62
250
  6
CONTINUOUS
 10
135.0363898012
 20
119.9459482304
 11
131.1507655846
 21
117.780751188
  0
LINE
  5
2E5
100
AcDbEntity
  8
RACCORDO
100
AcDbLine
 62
250
  6
CONTINUOUS
 10
141.3741973122
 20
126.8816577023
 11
139.2592340509
 21
125.7171898278
  0
LINE
  5
2E6
100
AcDbEntity
  8
RACCORDO
100
AcDbLine
 62
7
  6
CONTINUOUS
 10
134.91720445
 20
119.961530534
 11
134.9114268707
 21
119.9583594159
  0
LINE
  5
2E7
100
AcDbEntity
  8
RACCORDO
100
AcDbLine
 62
250
  6
CONTINUOUS
 10
140.6486148577
 20
126.6462060528
 11
139.0960544293
 21
125.8021323875
  0
LWPOLYLINE
  5
2E8
100
AcDbEntity
  8
RACCORDO
100
AcDbPolyline
 62
7
  6
CONTINUOUS
 90
38
 70
0
 10
142.2585366975
 20
125.7729065121
 10
142.2190032553
 20
125.7514532188
 10
142.118965022
 20
125.7018399485
 10
142.0120449408
 20
125.6552002637
 10
141.898601748
 20
125.6118739698
 10
141.779171681
 20
125.5722537821
 10
141.6544586133
 20
125.5367209552
 10
141.5249317382
 20
125.5055403039
 10
141.3911063901
 20
125.4789402594
 10
141.2538292272
 20
125.4571383631
 10
141.1137241353
 20
125.4402659617
 10
140.9714225203
 20
125.4284300662
 10
140.8278107654
 20
125.4217329528
 10
140.6835749903
 20
125.4202420478
 10
140.5393320133
 20
125.4239802914
 10
140.3958606331
 20
125.4328973562
 10
140.2538204001
 20
125.4469041221
 10
140.1138210024
 20
125.4658868051
 10
139.9765669465
 20
125.4897107661
 10
139.8426889885
 20
125.5182505397
 10
139.7127687766
 20
125.5513451033
 10
139.5874118042
 20
125.5887542917
 10
139.4673215671
 20
125.6301474351
 10
139.3527674261
 20
125.675295199
 10
139.2437859723
 20
125.7241091923
 10
139.1412336936
 20
125.776167514
 10
139.0452477109
 20
125.8313314026
 10
138.9551447084
 20
125.8900275265
 10
138.871225549
 20
125.9522670248
 10
138.7945997227
 20
126.0174129787
 10
138.7261109185
 20
126.0848509217
 10
138.6664045258
 20
126.1540211989
 10
138.6158484371
 20
126.2244702179
 10
138.5747702939
 20
126.2956161216
 10
138.5434384603
 20
126.3666440306
 10
138.5216468279
 20
126.4374355572
 10
138.5092207635
 20
126.5087056447
 10
138.5071500584
 20
126.5334289945
  0
LWPOLYLINE
  5
2E9
100
AcDbEntity
  8
RACCORDO
100
AcDbPolyline
 62
7
  6
CONTINUOUS
 90
31
 70
0
 10
131.0258787473
 20
117.7932049729
 10
131.0042247554
 20
117.7816660255
 10
130.9637842488
 20
117.7625556422
 10
130.9187627143
 20
117.7443660228
 10
130.8694853262
 20
117.7275388426
 10
130.8165919051
 20
117.7125202887
 10
130.7604428798
 20
117.6995796007
 10
130.7014115187
 20
117.6889562275
 10
130.6402623883
 20
117.6808983329
 10
130.5775039091
 20
117.6755446861
 10
130.5136414845
 20
117.6730001832
 10
130.4494853267
 20
117.6733224027
 10
130.3855824914
 20
117.6765030094
 10
130.3224599666
 20
117.6825010516
 10
130.2608872619
 20
117.6911940546
 10
130.2013525647
 20
117.7024357083
 10
130.1443286879
 20
117.7160468439
 10
130.0905039002
 20
117.7317290249
 10
130.0404482203
 20
117.7491272908
 10
129.9942307835
 20
117.768008629
 10
129.9518238772
 20
117.788190167
 10
129.913553081
 20
117.8093213131
 10
129.8796024335
 20
117.8310659355
 10
129.8499720341
 20
117.853160074
 10
129.8247766062
 20
117.8752415884
 10
129.8043027634
 20
117.8966748456
 10
129.7887793666
 20
117.9165378702
 10
129.7780947761
 20
117.9338335777
 10
129.7713447004
 20
117.948459168
 10
129.7675109585
 20
117.9610421659
 10
129.7661754399
 20
117.9695350823
  0
LINE
  5
2EA
100
AcDbEntity
  8
RACCORDO
100
AcDbLine
 62
250
  6
CONTINUOUS
 10
129.8169170405
 20
118.5709730985
 11
134.8325245422
 21
121.2206173592
  0
LINE
  5
2EB
100
AcDbEntity
  8
RACCORDO
100
AcDbLine
 62
250
  6
CONTINUOUS
 10
129.985541243
 20
118.2787394188
 11
135.0285509216
 21
120.9428576358
  0
LINE
  5
2EC
100
AcDbEntity
  8
RACCORDO
100
AcDbLine
 62
250
  6
CONTINUOUS
 10
142.3833911745
 20
125.7604346368
 11
142.2739019015
 21
125.7034160413
  0
LWPOLYLINE
  5
2ED
100
AcDbEntity
  8
RACCORDO
100
AcDbPolyline
 62
250
  6
CONTINUOUS
 90
52
 70
0
 10
142.5023959459
 20
125.6917227733
 10
142.612903679
 20
125.7492468444
 10
142.728144226
 20
125.8022695983
 10
142.8481175868
 20
125.850791035
 10
142.9731778324
 20
125.8948981617
 10
143.1029708918
 20
125.9345039713
 10
143.2364345528
 20
125.9693474424
 10
143.3737486476
 20
125.9994284397
 10
143.514733344
 20
126.0247470986
 10
143.6577869327
 20
126.0450428036
 10
143.8029198649
 20
126.0602742275
 10
143.9501216895
 20
126.0704826976
 10
144.0977593442
 20
126.0755315804
 10
144.2458531405
 20
126.0753487749
 10
144.3943827669
 20
126.0700063822
 10
144.5416542265
 20
126.0595840712
 10
144.6876364506
 20
126.044036886
 10
144.8323605078
 20
126.0234097825
 10
144.9742256078
 20
125.9979172986
 10
145.1132148278
 20
125.9674937326
 10
145.2493450905
 20
125.9322047861
 10
145.3810663731
 20
125.8924621017
 10
145.5083148142
 20
125.8482248993
 10
145.6311542752
 20
125.7995339589
 10
145.7482263178
 20
125.7469232632
 10
145.8594802259
 20
125.6903410151
 10
145.9649667154
 20
125.6298390117
 10
146.0634794967
 20
125.5661066274
 10
146.1549246061
 20
125.4991137072
 10
146.2393960072
 20
125.4288904062
 10
146.3159693005
 20
125.3562165645
 10
146.3845735084
 20
125.2810586027
 10
146.4452796086
 20
125.2034501003
 10
146.497376135
 20
125.124271635
 10
146.5407452571
 20
125.0435146193
 10
146.5755048054
 20
124.9611876409
 10
146.6012968061
 20
124.8781970405
 10
146.618039497
 20
124.794508618
 10
146.6258146402
 20
124.7101565737
 10
146.6245095486
 20
124.6261498486
 10
146.6141015273
 20
124.54266825
 10
146.5946132711
 20
124.4595319706
 10
146.566000177
 20
124.3772105296
 10
146.528145263
 20
124.2954567195
 10
146.481165511
 20
124.2145177476
 10
146.4253672645
 20
124.1356047554
 10
146.3603740086
 20
124.058678234
 10
146.2865622581
 20
123.9837776922
 10
146.2053679012
 20
123.9122327981
 10
146.1172695674
 20
123.8444867744
 10
146.0217886271
 20
123.7800963984
 10
145.9189250805
 20
123.7190616702
  0
LWPOLYLINE
  5
2EE
100
AcDbEntity
  8
RACCORDO
100
AcDbPolyline
 62
250
  6
CONTINUOUS
 90
40
 70
0
 10
142.6760016825
 20
125.394699299
 10
142.7743011653
 20
125.4458342357
 10
142.8777998897
 20
125.4931836468
 10
142.9860169869
 20
125.5366225491
 10
143.098348432
 20
125.5759913727
 10
143.2144449627
 20
125.611225981
 10
143.3342567839
 20
125.64231164
 10
143.4574889316
 20
125.6691263968
 10
143.5835517012
 20
125.6915482572
 10
143.7119824298
 20
125.7095354897
 10
143.8423090436
 20
125.7230393473
 10
143.9740182778
 20
125.7319986063
 10
144.1065838839
 20
125.7363581125
 10
144.2394892961
 20
125.7360705081
 10
144.3722590615
 20
125.731129317
 10
144.5044279403
 20
125.7215882876
 10
144.635521509
 20
125.7075034035
 10
144.76502388
 20
125.6889298993
 10
144.8924094581
 20
125.6659319041
 10
145.0171651643
 20
125.6385793237
 10
145.1388314966
 20
125.6069491412
 10
145.2570017391
 20
125.5711701232
 10
145.3712729584
 20
125.5313918341
 10
145.4811981816
 20
125.4877782879
 10
145.5863252183
 20
125.440505477
 10
145.6862205051
 20
125.389751887
 10
145.7804997515
 20
125.3356784318
 10
145.8688389406
 20
125.2784661709
 10
145.9509597141
 20
125.2183337707
 10
146.0265535376
 20
125.1555309557
 10
146.0953147665
 20
125.090319748
 10
146.156958154
 20
125.0229592887
 10
146.2112302673
 20
124.9536779397
 10
146.2579090491
 20
124.8827007258
 10
146.2968628676
 20
124.8102869671
 10
146.3279736292
 20
124.7367300816
 10
146.351133013
 20
124.6623268615
 10
146.366245944
 20
124.587357748
 10
146.3732193997
 20
124.5121059661
 10
146.3723938296
 20
124.4431269278
  0
LINE
  5
2EF
100
AcDbEntity
  8
RACCORDO
100
AcDbLine
 62
250
  6
CONTINUOUS
 10
134.9161515262
 20
119.9608190887
 11
134.9116141033
 21
119.9584640534
  0
LINE
  5
2F0
100
AcDbEntity
  8
DRAFT
100
AcDbLine
 62
7
  6
CONTINUOUS
 10
123.976512783
 20
117.5220494292
 11
124.3203536691
 21
117.6948699361
  0
LWPOLYLINE
  5
2F1
100
AcDbEntity
  8
RACCORDO
100
AcDbPolyline
 62
250
  6
CONTINUOUS
 90
22
 70
0
 10
134.8325245422
 20
121.2206173592
 10
134.8740737952
 20
121.2408566589
 10
134.9173744257
 20
121.2590994432
 10
134.9624264336
 20
121.2753457124
 10
135.009381892
 20
121.2896202063
 10
135.0580887279
 20
121.3018981849
 10
135.1080907221
 20
121.3121054281
 10
135.159549989
 20
121.3202539744
 10
135.2123044142
 20
121.3263317852
 10
135.2654114351
 20
121.3302285247
 10
135.3187469412
 20
121.3319129849
 10
135.3724350429
 20
121.3314163737
 10
135.4259055097
 20
121.3287219793
 10
135.4790569969
 20
121.3238792345
 10
135.531990849
 20
121.3168387064
 10
135.5844408688
 20
121.3074353841
 10
135.636781381
 20
121.2955824913
 10
135.6886380609
 20
121.2813668043
 10
135.7386217369
 20
121.2648836412
 10
135.7862693517
 20
121.2461647745
 10
135.8320439626
 20
121.2251784317
 10
135.8759455695
 20
121.2019246128
  0
LWPOLYLINE
  5
2F2
100
AcDbEntity
  8
RACCORDO
100
AcDbPolyline
 62
250
  6
CONTINUOUS
 90
48
 70
0
 10
142.2739019015
 20
125.7034160413
 10
142.1598284966
 20
125.650828603
 10
142.0411709599
 20
125.6026723218
 10
141.917619882
 20
125.5588750205
 10
141.7894846723
 20
125.5195088763
 10
141.6576935589
 20
125.4847904216
 10
141.5220257808
 20
125.45470301
 10
141.3827020991
 20
125.4292632877
 10
141.2413130253
 20
125.4087377268
 10
141.0978638501
 20
125.3931691429
 10
140.9523492829
 20
125.3825147203
 10
140.8063439637
 20
125.3769124828
 10
140.6598284825
 20
125.3764324313
 10
140.5128222494
 20
125.381004565
 10
140.3669581351
 20
125.3905569044
 10
140.2222576932
 20
125.4051308267
 10
140.0786993702
 20
125.4246849549
 10
139.9378513762
 20
125.449023179
 10
139.7997384442
 20
125.4782104667
 10
139.6643358412
 20
125.5121818504
 10
139.5331375789
 20
125.5505463169
 10
139.4061929223
 20
125.5933415794
 10
139.2834526064
 20
125.6405299246
 10
139.1662628479
 20
125.6916072004
 10
139.0546831928
 20
125.7466252914
 10
138.9486540952
 20
125.8055323129
 10
138.8493431339
 20
125.8676684587
 10
138.7568255155
 20
125.9330618926
 10
138.6710260334
 20
126.0016844508
 10
138.5928866458
 20
126.0727918357
 10
138.5224905084
 20
126.1464176462
 10
138.4597544656
 20
126.2225282835
 10
138.4053710084
 20
126.3002786537
 10
138.3594338106
 20
126.3796830573
 10
138.3218491985
 20
126.4607271936
 10
138.2930286423
 20
126.5425230676
 10
138.2730663915
 20
126.6250773155
 10
138.2618681967
 20
126.7083833009
 10
138.2595627801
 20
126.7915331199
 10
138.2662460799
 20
126.8745236244
 10
138.2818221578
 20
126.9573579624
 10
138.3061319217
 20
127.0391376747
 10
138.3392880406
 20
127.1198807241
 10
138.3811778453
 20
127.1995691477
 10
138.4313042368
 20
127.277250597
 10
138.4895015153
 20
127.3526076225
 10
138.5559353805
 20
127.4259576737
 10
138.6306058324
 20
127.4973007505
  0
LWPOLYLINE
  5
2F3
100
AcDbEntity
  8
RACCORDO
100
AcDbPolyline
 62
250
  6
CONTINUOUS
 90
21
 70
0
 10
135.0285509216
 20
120.9428576358
 10
135.0574785491
 20
120.955950073
 10
135.0877546389
 20
120.9676216291
 10
135.1191275737
 20
120.9778261002
 10
135.1514826313
 20
120.9865573667
 10
135.1848670937
 20
120.9938245904
 10
135.2192244274
 20
120.9996068398
 10
135.254276919
 20
121.0038528363
 10
135.289748609
 20
121.006522235
 10
135.3253652789
 20
121.0076013446
 10
135.3610334654
 20
121.0071006249
 10
135.3967438112
 20
121.0050175317
 10
135.4322189625
 20
121.0013623958
 10
135.467366765
 20
120.9961241787
 10
135.5024312906
 20
120.9892147701
 10
135.5374046841
 20
120.9805422041
 10
135.5718198291
 20
120.9701285061
 10
135.6052138961
 20
120.9580479927
 10
135.6372872731
 20
120.9443525104
 10
135.6678791752
 20
120.9290452187
 10
135.6967563829
 20
120.9121657859
  0
LINE
  5
2F4
100
AcDbEntity
  8
ASSI
100
AcDbLine
 62
7
  6
CONTINUOUS
 10
123.1541651289
 20
117.5818722537
 11
123.3793392972
 21
117.6811315564
  0
LINE
  5
2F5
100
AcDbEntity
  8
ASSI
100
AcDbLine
 62
250
  6
CONTINUOUS
 10
123.2272753442
 20
117.546333395
 11
123.4955865473
 21
117.6646079872
  0
LWPOLYLINE
  5
2F6
100
AcDbEntity
  8
ASSI
100
AcDbPolyline
 62
250
  6
CONTINUOUS
 90
10
 70
0
 10
123.4955865473
 20
117.6646079872
 10
123.5212992264
 20
117.675323895
 10
123.5471416364
 20
117.6839130481
 10
123.5729588577
 20
117.6902089845
 10
123.5985193385
 20
117.6940433899
 10
123.6237146292
 20
117.6952893608
 10
123.6485375616
 20
117.6937921846
 10
123.6728205936
 20
117.689348389
 10
123.6962597379
 20
117.6817815535
 10
123.7185994072
 20
117.6709375692
  0
LWPOLYLINE
  5
2F7
100
AcDbEntity
  8
ASSI
100
AcDbPolyline
 62
7
  6
CONTINUOUS
 90
10
 70
0
 10
121.8214949943
 20
118.2152888717
 10
121.9598262927
 20
118.2711506117
 10
122.0992082392
 20
118.3249098032
 10
122.2396408339
 20
118.3765664463
 10
122.3811361148
 20
118.4261245488
 10
122.5236820439
 20
118.4735801028
 10
122.6672425066
 20
118.5189210853
 10
122.8118054646
 20
118.5621434887
 10
122.9573829562
 20
118.6032513207
 10
123.1039749814
 20
118.6422445812
  0
LINE
  5
2F8
100
AcDbEntity
  8
RACCORDO
100
AcDbLine
 62
7
  6
CONTINUOUS
 10
126.1180048852
 20
118.1227729266
 11
125.804659285
 21
117.9989843113
  0
LINE
  5
2F9
100
AcDbEntity
  8
RACCORDO
100
AcDbLine
 62
250
  6
CONTINUOUS
 10
126.2649737644
 20
118.0773393329
 11
125.9516281642
 21
117.9535507176
  0
LWPOLYLINE
  5
2FA
100
AcDbEntity
  8
ASSI
100
AcDbPolyline
 62
250
  6
CONTINUOUS
 90
7
 70
0
 10
123.3793877556
 20
117.6811529007
 10
123.3887620352
 20
117.684680956
 10
123.4084049019
 20
117.6886506204
 10
123.429271204
 20
117.6885930179
 10
123.4510052841
 20
117.6845090917
 10
123.473236708
 20
117.6764684109
 10
123.4955865482
 20
117.6646079875
  0
LWPOLYLINE
  5
2FB
100
AcDbEntity
  8
RACCORDO
100
AcDbPolyline
 62
250
  6
CONTINUOUS
 90
4
 70
0
 10
126.3409815829
 20
118.1085292149
 10
126.3164522128
 20
118.0992984481
 10
126.2911094513
 20
118.0889237979
 10
126.2649737644
 20
118.0773393329
  0
LINE
  5
2FC
100
AcDbEntity
  8
DRAFT
100
AcDbLine
 62
7
  6
CONTINUOUS
 10
119.1504402814
 20
116.5728937579
 11
119.2287513302
 21
116.5961004211
  0
LINE
  5
2FD
100
AcDbEntity
  8
DRAFT
100
AcDbLine
 62
7
  6
CONTINUOUS
 10
119.2287513302
 20
116.5961004211
 11
119.3073544282
 21
116.6186887718
  0
LINE
  5
2FE
100
AcDbEntity
  8
ASSI
100
AcDbLine
 62
7
  6
CONTINUOUS
 10
135.4713314801
 20
72.6819339084
 11
135.5844567634
 21
72.5870386312
  0
LWPOLYLINE
  5
2FF
100
AcDbEntity
  8
ASSI
100
AcDbPolyline
 62
7
  6
CONTINUOUS
 90
21
 70
0
 10
135.5844567634
 20
72.5870386312
 10
135.6962909185
 20
72.4845379772
 10
135.8053946311
 20
72.3757568577
 10
135.9117247814
 20
72.2606274292
 10
136.0153297321
 20
72.1392207057
 10
136.1149075673
 20
72.0130699908
 10
136.2104117459
 20
71.8821209306
 10
136.3018956688
 20
71.7464320338
 10
136.388206945
 20
71.607705665
 10
136.4692918111
 20
71.4658927655
 10
136.5452114977
 20
71.3210469267
 10
136.6149850317
 20
71.1750238424
 10
136.6785339268
 20
71.0278209673
 10
136.7359435807
 20
70.879445055
 10
136.7864770968
 20
70.7317646891
 10
136.8300572762
 20
70.5846922176
 10
136.8667667313
 20
70.4383186039
 10
136.8961057355
 20
70.2947788105
 10
136.9179078568
 20
70.1547845879
 10
136.9323416767
 20
70.0176255204
 10
136.9394084635
 20
69.8833023945
  0
LWPOLYLINE
  5
300
100
AcDbEntity
  8
ASSI
100
AcDbPolyline
 62
250
  6
CONTINUOUS
 90
10
 70
0
 10
136.5274833274
 20
70.577058934
 10
136.5892947275
 20
70.5039461297
 10
136.6472117753
 20
70.4296709532
 10
136.7011789489
 20
70.3543046078
 10
136.7511445134
 20
70.2779193427
 10
136.7970605695
 20
70.2005883839
 10
136.8388831004
 20
70.1223858642
 10
136.8765720131
 20
70.0433867517
 10
136.9100911776
 20
69.9636667782
 10
136.9394084611
 20
69.8833023665
  0
LINE
  5
301
100
AcDbEntity
  8
ASSI
100
AcDbLine
 62
7
  6
CONTINUOUS
 10
124.3203536691
 20
117.3235570872
 11
124.3203536691
 21
118.5933546608
  0
LINE
  5
302
100
AcDbEntity
  8
RACCORDO
100
AcDbLine
 62
7
  6
CONTINUOUS
 10
125.6548588492
 20
113.7122457744
 11
125.6548588492
 21
112.8561816301
  0
LINE
  5
303
100
AcDbEntity
  8
RACCORDO
100
AcDbLine
 62
7
  6
CONTINUOUS
 10
125.6638565534
 20
117.7931183283
 11
125.6638565534
 21
117.2804336955
  0
LWPOLYLINE
  5
304
100
AcDbEntity
  8
0
100
AcDbPolyline
 62
7
  6
CONTINUOUS
 90
25
 70
0
 10
126.3425623749
 20
113.1540002117
 10
126.3374979326
 20
113.1171529549
 10
126.3356754836
 20
113.0788805744
 10
126.3370950279
 20
113.0391830703
 10
126.3418176021
 20
112.997737482
 10
126.3497821696
 20
112.95486677
 10
126.360805621
 20
112.9115398161
 10
126.3749994042
 20
112.8676222621
 10
126.3922520714
 20
112.8232484661
 10
126.41204617
 20
112.7797903844
 10
126.4344320528
 20
112.7373431412
 10
126.4593593671
 20
112.6958116122
 10
126.486159602
 20
112.6562823813
 10
126.5148759854
 20
112.6188016593
 10
126.5454652894
 20
112.5833232354
 10
126.5771293197
 20
112.5507950609
 10
126.6099427248
 20
112.5212681863
 10
126.6438308562
 20
112.4946915612
 10
126.6777715736
 20
112.4718599853
 10
126.7117071899
 20
112.4529151783
 10
126.7456953922
 20
112.4377154206
 10
126.7788871015
 20
112.4266303532
 10
126.8109992915
 20
112.41978319
 10
126.8423149886
 20
112.4170507171
 10
126.8728341928
 20
112.4184329347
  0
LWPOLYLINE
  5
305
100
AcDbEntity
  8
RACCORDO
100
AcDbPolyline
 62
7
  6
CONTINUOUS
 90
25
 70
0
 10
131.2897284208
 20
115.772207049
 10
131.307077058
 20
115.7916836367
 10
131.3231643716
 20
115.8102001243
 10
131.3379587657
 20
115.8277996455
 10
131.3513274416
 20
115.8445748146
 10
131.3633511108
 20
115.8605266724
 10
131.3743229739
 20
115.8755583593
 10
131.3842473183
 20
115.889692813
 10
131.3930854994
 20
115.902998332
 10
131.4010678044
 20
115.9154331686
 10
131.4082017209
 20
115.9270247328
 10
131.4144561104
 20
115.9378228373
 10
131.4200020726
 20
115.9478027938
 10
131.4248417909
 20
115.9569829234
 10
131.4289560615
 20
115.965409989
 10
131.4324793777
 20
115.9730816182
 10
131.4354124266
 20
115.9800141969
 10
131.4377358454
 20
115.986232698
 10
131.4395466624
 20
115.9917250579
 10
131.4408381842
 20
115.9964994379
 10
131.4415946336
 20
116.0005715342
 10
131.4418905243
 20
116.0039195661
 10
131.4417380062
 20
116.0065329965
 10
131.4410928516
 20
116.0084250048
 10
131.4399399953
 20
116.0095992322
  0
LWPOLYLINE
  5
306
100
AcDbEntity
  8
RACCORDO
100
AcDbPolyline
 62
250
  6
CONTINUOUS
 90
6
 70
0
 10
140.7275216345
 20
126.9517002274
 10
140.721983606
 20
126.945687826
 10
140.7133777472
 20
126.9373953144
 10
140.7051963263
 20
126.9306393972
 10
140.6973681744
 20
126.9253574259
 10
140.6898853211
 20
126.9215584974
  0
LINE
  5
307
100
AcDbEntity
  8
RACCORDO
100
AcDbLine
 62
250
  6
CONTINUOUS
 10
129.7601469859
 20
115.7545596819
 11
129.974541344
 21
115.9354815043
  0
LINE
  5
308
100
AcDbEntity
  8
RACCORDO
100
AcDbLine
 62
250
  6
CONTINUOUS
 10
130.0479185967
 20
115.2618158497
 11
130.3046642485
 21
115.4784768273
  0
LWPOLYLINE
  5
309
100
AcDbEntity
  8
RACCORDO
100
AcDbPolyline
 62
250
  6
CONTINUOUS
 90
13
 70
0
 10
130.3046642485
 20
115.4784768273
 10
130.3140519467
 20
115.4862218674
 10
130.3234460505
 20
115.4936026666
 10
130.3328465599
 20
115.5006192251
 10
130.3422030032
 20
115.5072519278
 10
130.3515658521
 20
115.5135203898
 10
130.3610865212
 20
115.5194834558
 10
130.3707882237
 20
115.5251807681
 10
130.3806477465
 20
115.5305726844
 10
130.390746865
 20
115.5355991229
 10
130.4011128377
 20
115.5402400561
 10
130.4117184061
 20
115.5445155114
 10
130.4225635702
 20
115.5484254889
  0
LINE
  5
30A
100
AcDbEntity
  8
RACCORDO
100
AcDbLine
 62
7
  6
CONTINUOUS
 10
130.0479185967
 20
114.7491312169
 11
131.2384059469
 21
115.7242215202
  0
LWPOLYLINE
  5
30B
100
AcDbEntity
  8
RACCORDO
100
AcDbPolyline
 62
250
  6
CONTINUOUS
 90
13
 70
0
 10
129.974541344
 20
115.9354815043
 10
129.9916071139
 20
115.9475347581
 10
130.0087140169
 20
115.9590059992
 10
130.0258475169
 20
115.9698821392
 10
130.042882681
 20
115.980088774
 10
130.0599155029
 20
115.9896832892
 10
130.0772587905
 20
115.9988139717
 10
130.0949221642
 20
116.0074465593
 10
130.1128522933
 20
116.0155118078
 10
130.131256054
 20
116.0230386106
 10
130.1501765535
 20
116.0299671429
 10
130.1694981045
 20
116.036180558
 10
130.1891785708
 20
116.0415897468
  0
LINE
  5
30C
100
AcDbEntity
  8
ASSI
100
AcDbLine
 62
7
  6
CONTINUOUS
 10
125.6548588492
 20
113.0229377954
 11
125.5224351972
 21
112.9326413871
  0
LWPOLYLINE
  5
30D
100
AcDbEntity
  8
DRAFT
100
AcDbPolyline
 62
7
  6
CONTINUOUS
 90
8
 70
0
 10
142.7129248389
 20
124.5598786794
 10
142.6179063666
 20
124.5017057234
 10
142.5303845063
 20
124.4406366245
 10
142.4503592579
 20
124.3766713827
 10
142.3775506421
 20
124.3095141675
 10
142.3122386381
 20
124.2394608095
 10
142.2552631842
 20
124.1673987998
 10
142.2118869698
 20
124.1011644918
  0
LINE
  5
30E
100
AcDbEntity
  8
0
100
AcDbLine
 62
7
  6
CONTINUOUS
 10
130.3450584689
 20
114.4613337277
 11
129.2032678262
 21
113.7866523214
  0
LINE
  5
30F
100
AcDbEntity
  8
0
100
AcDbLine
 62
7
  6
CONTINUOUS
 10
129.2032678262
 20
113.7866523214
 11
127.6565311047
 21
112.8773335467
  0
LINE
  5
310
100
AcDbEntity
  8
0
100
AcDbLine
 62
7
  6
CONTINUOUS
 10
127.6565311047
 20
112.8773335467
 11
126.8728341928
 21
112.4184329347
  0
LINE
  5
311
100
AcDbEntity
  8
0
100
AcDbLine
 62
250
  6
CONTINUOUS
 10
136.1788458718
 20
119.567150197
 11
136.2507896631
 21
119.6078242059
  0
LINE
  5
312
100
AcDbEntity
  8
DRAFT
100
AcDbLine
 62
7
  6
CONTINUOUS
 10
127.9304708877
 20
112.3057117705
 11
127.2615710757
 21
111.9284861273
  0
LINE
  5
313
100
AcDbEntity
  8
0
100
AcDbLine
 62
250
  6
CONTINUOUS
 10
129.3081371712
 20
115.7134709783
 11
125.7912202269
 21
113.7326065198
  0
LINE
  5
314
100
AcDbEntity
  8
0
100
AcDbLine
 62
250
  6
CONTINUOUS
 10
129.6994047819
 20
115.3511483321
 11
126.181912883
 21
113.3710564914
  0
LINE
  5
315
100
AcDbEntity
  8
DRAFT
100
AcDbLine
 62
7
  6
CONTINUOUS
 10
150.5337145073
 20
124.7202974501
 11
143.4639094458
 21
120.7807693301
  0
LINE
  5
316
100
AcDbEntity
  8
0
100
AcDbLine
 62
7
  6
CONTINUOUS
 10
129.0970501463
 20
114.6899324771
 11
126.3425623749
 21
113.1540002117
  0
LINE
  5
317
100
AcDbEntity
  8
0
100
AcDbLine
 62
7
  6
CONTINUOUS
 10
129.8711419099
 20
115.1187277303
 11
129.0970501463
 21
114.6899324771
  0
LWPOLYLINE
  5
318
100
AcDbEntity
  8
RACCORDO
100
AcDbPolyline
 62
7
  6
CONTINUOUS
 90
38
 70
0
 10
145.7940720719
 20
123.7315343656
 10
145.7545956189
 20
123.7101111807
 10
145.6546058823
 20
123.6605158551
 10
145.5477257752
 20
123.61388597
 10
145.4343093451
 20
123.5705629058
 10
145.3148879661
 20
123.5309381853
 10
145.190166113
 20
123.4953947114
 10
145.0606125739
 20
123.4642003273
 10
144.9267467428
 20
123.4375853184
 10
144.7894153165
 20
123.4157719823
 10
144.6492382943
 20
123.398892576
 10
144.5068486377
 20
123.3870517746
 10
144.3631400928
 20
123.3803543139
 10
144.2188014564
 20
123.378872031
 10
144.0744484544
 20
123.3826253812
 10
143.9308631987
 20
123.3915680779
 10
143.7887069757
 20
123.4056099395
 10
143.6485958405
 20
123.424632317
 10
143.5112412961
 20
123.4485032829
 10
143.3772723354
 20
123.4771010553
 10
143.247259444
 20
123.5102606619
 10
143.1218183535
 20
123.5477445636
 10
143.0016588905
 20
123.5892189169
 10
142.8870583636
 20
123.6344455659
 10
142.7780640618
 20
123.6833363266
 10
142.6755121093
 20
123.735476702
 10
142.5795294354
 20
123.7907224438
 10
142.4894796628
 20
123.8494830676
 10
142.4056808984
 20
123.9117506784
 10
142.3292153367
 20
123.9768826439
 10
142.2609066789
 20
124.0442759419
 10
142.2013644164
 20
124.1133761677
 10
142.1509504258
 20
124.183735441
 10
142.1100171192
 20
124.2547930441
 10
142.0788056963
 20
124.3257347186
 10
142.0571033722
 20
124.3964400036
 10
142.0447214194
 20
124.4676224853
 10
142.0427069314
 20
124.4914568889
  0
LINE
  5
319
100
AcDbEntity
  8
ASSI
100
AcDbLine
 62
7
  6
CONTINUOUS
 10
129.1286797812
 20
115.8170874262
 11
127.6178360917
 21
115.0046045827
  0
LINE
  5
31A
100
AcDbEntity
  8
RACCORDO
100
AcDbLine
 62
250
  6
CONTINUOUS
 10
145.9189250805
 20
123.7190616702
 11
145.8084328966
 21
123.6615367692
  0
LINE
  5
31B
100
AcDbEntity
  8
ASSI
100
AcDbLine
 62
250
  6
CONTINUOUS
 10
127.6435352261
 20
115.2696344061
 11
127.3933309814
 21
115.140905083
  0
LINE
  5
31C
100
AcDbEntity
  8
RACCORDO
100
AcDbLine
 62
250
  6
CONTINUOUS
 10
131.1507655846
 20
117.780751188
 11
131.0971425337
 21
117.7532345785
  0
LWPOLYLINE
  5
31D
100
AcDbEntity
  8
RACCORDO
100
AcDbPolyline
 62
250
  6
CONTINUOUS
 90
7
 70
0
 10
135.3883290896
 20
119.9425540633
 10
135.4098457654
 20
119.9530223086
 10
135.4309958386
 20
119.960265711
 10
135.4514640162
 20
119.9641762349
 10
135.4709451636
 20
119.9646955257
 10
135.489148846
 20
119.9618157807
 10
135.5053400384
 20
119.9557534621
  0
LWPOLYLINE
  5
31E
100
AcDbEntity
  8
RACCORDO
100
AcDbPolyline
 62
250
  6
CONTINUOUS
 90
8
 70
0
 10
138.7697400427
 20
117.990169758
 10
138.7912574248
 20
118.0006382547
 10
138.8124080394
 20
118.0078816752
 10
138.8328765796
 20
118.0117920366
 10
138.8523579065
 20
118.0123110446
 10
138.8705615984
 20
118.0094309619
 10
138.8872162802
 20
118.0031947239
 10
138.891660904
 20
118.000804797
  0
LWPOLYLINE
  5
31F
100
AcDbEntity
  8
RACCORDO
100
AcDbPolyline
 62
250
  6
CONTINUOUS
 90
51
 70
0
 10
145.8084328966
 20
123.6615367692
 10
145.6932032458
 20
123.6085118693
 10
145.5732361281
 20
123.5599869704
 10
145.4481760442
 20
123.5158745613
 10
145.3183784934
 20
123.4762621531
 10
145.1849099737
 20
123.4414122799
 10
145.0475921485
 20
123.4113254318
 10
144.9066033544
 20
123.3860011186
 10
144.7635450985
 20
123.3657004036
 10
144.6184067458
 20
123.3504648862
 10
144.4711989312
 20
123.340252967
 10
144.3235550673
 20
123.3352009102
 10
144.1754549717
 20
123.3353805847
 10
144.0269188267
 20
123.3407201217
 10
143.8796405909
 20
123.3511401799
 10
143.7336511442
 20
123.3666859204
 10
143.5889196067
 20
123.3873121821
 10
143.447047298
 20
123.4128041397
 10
143.308051357
 20
123.4432273407
 10
143.1719146446
 20
123.4785162376
 10
143.0401870631
 20
123.518259363
 10
142.9129322743
 20
123.562497644
 10
142.7900866162
 20
123.6111901535
 10
142.6730090054
 20
123.6638026421
 10
142.5617503924
 20
123.7203867914
 10
142.4562598266
 20
123.7808909198
 10
142.3577433732
 20
123.8446257336
 10
142.2662947629
 20
123.9116215039
 10
142.181820265
 20
123.9818479596
 10
142.1052447518
 20
124.0545249937
 10
142.0366395033
 20
124.1296860678
 10
141.9759332397
 20
124.2072977202
 10
141.9238369935
 20
124.2864794594
 10
141.8804682759
 20
124.3672400311
 10
141.8457095758
 20
124.4495706896
 10
141.8199193927
 20
124.5325647055
 10
141.8031798713
 20
124.6162560172
 10
141.7954088668
 20
124.7006106863
 10
141.7967184441
 20
124.7846201686
 10
141.807130969
 20
124.8681051154
 10
141.8266240756
 20
124.9512448754
 10
141.8552427312
 20
125.0335689497
 10
141.8931043032
 20
125.1153239714
 10
141.9400914242
 20
125.1962633075
 10
141.995896959
 20
125.2751765595
 10
142.0608965531
 20
125.3521033996
 10
142.1347145609
 20
125.4270041556
 10
142.2159169112
 20
125.4985494125
 10
142.3040255803
 20
125.5662960319
 10
142.3995185918
 20
125.6306871521
 10
142.5023959459
 20
125.6917227733
  0
LWPOLYLINE
  5
320
100
AcDbEntity
  8
RACCORDO
100
AcDbPolyline
 62
250
  6
CONTINUOUS
 90
3
 70
0
 10
131.0971425337
 20
117.7532345785
 10
131.0408710664
 20
117.7283909518
 10
130.9819511826
 20
117.7062203077
  0
LINE
  5
321
100
AcDbEntity
  8
RACCORDO
100
AcDbLine
 62
250
  6
CONTINUOUS
 10
130.1891785708
 20
116.0415897468
 11
130.8328847514
 21
116.2518416397
  0
LINE
  5
322
100
AcDbEntity
  8
RACCORDO
100
AcDbLine
 62
250
  6
CONTINUOUS
 10
130.4225635702
 20
115.5484254889
 11
131.0662697508
 21
115.7586773818
  0
LWPOLYLINE
  5
323
100
AcDbEntity
  8
RACCORDO
100
AcDbPolyline
 62
250
  6
CONTINUOUS
 90
14
 70
0
 10
130.9819511826
 20
117.7062203077
 10
130.9200872652
 20
117.6866604158
 10
130.8555749314
 20
117.6697735066
 10
130.7893010325
 20
117.6557462718
 10
130.7211688041
 20
117.6445936435
 10
130.6512750107
 20
117.6363006897
 10
130.5807967974
 20
117.6310093055
 10
130.5097341076
 20
117.6287708213
 10
130.4380869978
 20
117.6295339067
 10
130.3670327834
 20
117.6332864656
 10
130.2965734926
 20
117.6400791124
 10
130.2267070972
 20
117.6498612327
 10
130.1586048272
 20
117.6624688867
 10
130.0923031257
 20
117.6779481165
  0
LWPOLYLINE
  5
324
100
AcDbEntity
  8
RACCORDO
100
AcDbPolyline
 62
250
  6
CONTINUOUS
 90
19
 70
0
 10
131.0662697508
 20
115.7586773818
 10
131.0741730921
 20
115.7610821889
 10
131.0818989059
 20
115.7631482242
 10
131.0894471921
 20
115.7648754876
 10
131.0967860613
 20
115.7662536961
 10
131.103947403
 20
115.7672931327
 10
131.1110268854
 20
115.7680246467
 10
131.1180602864
 20
115.7684594411
 10
131.1250118282
 20
115.768586313
 10
131.1318698446
 20
115.7684025021
 10
131.1386049566
 20
115.7679181663
 10
131.1452465434
 20
115.7671231478
 10
131.1518710762
 20
115.765984213
 10
131.1584778476
 20
115.7645244339
 10
131.1650675651
 20
115.7627207384
 10
131.1717188226
 20
115.7604706764
 10
131.1784578181
 20
115.7577400978
 10
131.1852583536
 20
115.7545631526
 10
131.192120429
 20
115.7509398409
  0
LWPOLYLINE
  5
325
100
AcDbEntity
  8
ASSI
100
AcDbPolyline
 62
7
  6
CONTINUOUS
 90
31
 70
0
 10
129.6802819945
 20
74.5311186685
 10
129.6849720851
 20
74.4455064327
 10
129.6955435497
 20
74.3561293457
 10
129.7121232632
 20
74.2634777065
 10
129.7349443381
 20
74.1676068764
 10
129.7639628166
 20
74.0695830428
 10
129.7985543031
 20
73.9715235511
 10
129.8381800575
 20
73.8745921801
 10
129.8826788849
 20
73.7789254195
 10
129.9316828064
 20
73.6851064688
 10
129.9845739816
 20
73.5941164752
 10
130.0411609818
 20
73.5060828475
 10
130.101847958
 20
73.4203766427
 10
130.166856907
 20
73.3370017997
 10
130.2353889664
 20
73.2572941743
 10
130.3063273241
 20
73.1826024104
 10
130.37907421
 20
73.1134917889
 10
130.4532543578
 20
73.0502762025
 10
130.5279610749
 20
72.9936286033
 10
130.6021720666
 20
72.9440986936
 10
130.6759204425
 20
72.9014417044
 10
130.7498836036
 20
72.8652698474
 10
130.8241075679
 20
72.8357946689
 10
130.8975531708
 20
72.8136671274
 10
130.9692704462
 20
72.7992752284
 10
131.0388456727
 20
72.792743196
 10
131.1057212756
 20
72.7941760647
 10
131.1688563526
 20
72.8034821262
 10
131.2274526939
 20
72.8202403738
 10
131.2817301111
 20
72.8441984018
 10
131.2957941212
 20
72.8519645934
  0
LWPOLYLINE
  5
326
100
AcDbEntity
  8
ASSI
100
AcDbPolyline
 62
7
  6
CONTINUOUS
 90
28
 70
0
 10
128.4541270844
 20
74.7825974584
 10
128.4547143017
 20
74.91229258
 10
128.4628071945
 20
75.0362739363
 10
128.4784045289
 20
75.1545407619
 10
128.5016451091
 20
75.2676407085
 10
128.532388056
 20
75.375024835
 10
128.5702110485
 20
75.475046537
 10
128.6151896268
 20
75.5674976649
 10
128.6672428161
 20
75.6525830441
 10
128.7257109662
 20
75.7292739834
 10
128.7906817094
 20
75.7974806051
 10
128.8620605522
 20
75.8572886088
 10
128.9389129182
 20
75.9079316187
 10
129.0212955813
 20
75.9492833648
 10
129.1091443096
 20
75.98146559
 10
129.2013419325
 20
76.0040832825
 10
129.2979401147
 20
76.0170163633
 10
129.398880334
 20
76.020380758
 10
129.5028797478
 20
76.0141352273
 10
129.6099729415
 20
75.998158377
 10
129.7201200839
 20
75.9725684289
 10
129.8319268823
 20
75.9376836744
 10
129.9454157492
 20
75.893385166
 10
130.0605614286
 20
75.8397901333
 10
130.1758986836
 20
75.7775714713
 10
130.2914345333
 20
75.7066147695
 10
130.4071619513
 20
75.627034434
 10
130.52159533
 20
75.5398470054
  0
LWPOLYLINE
  5
327
100
AcDbEntity
  8
RACCORDO
100
AcDbPolyline
 62
250
  6
CONTINUOUS
 90
12
 70
0
 10
138.9427588699
 20
117.5009110736
 10
138.972008458
 20
117.5206404542
 10
138.9982172302
 20
117.5415242487
 10
139.0212379332
 20
117.5633781952
 10
139.0409166814
 20
117.5859643889
 10
139.0572102446
 20
117.6091479184
 10
139.0701198197
 20
117.6329075566
 10
139.0795586079
 20
117.6571028175
 10
139.0854313173
 20
117.6815165681
 10
139.0876883582
 20
117.7060175389
 10
139.0862967909
 20
117.7303826822
 10
139.0859418134
 20
117.7329072293
  0
LINE
  5
328
100
AcDbEntity
  8
RACCORDO
100
AcDbLine
 62
250
  6
CONTINUOUS
 10
141.0516478205
 20
117.677282352
 11
141.0127148118
 21
117.6522529535
  0
LWPOLYLINE
  5
329
100
AcDbEntity
  8
RACCORDO
100
AcDbPolyline
 62
250
  6
CONTINUOUS
 90
13
 70
0
 10
140.9982997412
 20
118.2443415123
 10
140.9762242761
 20
118.2304453075
 10
140.9544457097
 20
118.2135494488
 10
140.9333043432
 20
118.1939180114
 10
140.9131305174
 20
118.1718578158
 10
140.8942394253
 20
118.147713604
 10
140.8769261947
 20
118.121862643
 10
140.8614613204
 20
118.0947088905
 10
140.8480864003
 20
118.0666766339
 10
140.8370103549
 20
118.0382038219
 10
140.8284062109
 20
118.009735314
 10
140.8224083838
 20
117.9817159339
 10
140.8191105558
 20
117.9545834597
  0
LWPOLYLINE
  5
32A
100
AcDbEntity
  8
RACCORDO
100
AcDbPolyline
 62
250
  6
CONTINUOUS
 90
12
 70
0
 10
138.7694713141
 20
117.7905137513
 10
138.7843308035
 20
117.7996388125
 10
138.7975329199
 20
117.8092426041
 10
138.8090776635
 20
117.8193251263
 10
138.8189971758
 20
117.8299484587
 10
138.8272593152
 20
117.8410505216
 10
138.833767657
 20
117.8524450759
 10
138.8385171601
 20
117.8641501314
 10
138.8415128656
 20
117.8761476783
 10
138.8426734722
 20
117.8881974474
 10
138.8419876803
 20
117.9002845886
 10
138.8394667895
 20
117.912423952
  0
LWPOLYLINE
  5
32B
100
AcDbEntity
  8
DRAFT
100
AcDbPolyline
 62
7
  6
CONTINUOUS
 90
9
 70
0
 10
152.0567169373
 20
123.8409349347
 10
152.1100740732
 20
123.8730125106
 10
152.15892172
 20
123.9072996518
 10
152.2032598778
 20
123.9437963584
 10
152.2434404666
 20
123.9827852126
 10
152.2791115664
 20
124.0239836322
 10
152.3092174169
 20
124.0665438704
 10
152.3336507178
 20
124.1104518052
 10
152.3537084255
 20
124.1592068627
  0
LWPOLYLINE
  5
32C
100
AcDbEntity
  8
DRAFT
100
AcDbPolyline
 62
7
  6
CONTINUOUS
 90
14
 70
0
 10
143.4639094458
 20
120.7807693301
 10
143.4103994996
 20
120.7487125727
 10
143.3614027249
 20
120.7144430671
 10
143.3169191216
 20
120.6779608133
 10
143.2765964848
 20
120.6389836735
 10
143.2407870195
 20
120.5977937854
 10
143.2105473404
 20
120.5552375627
 10
143.1859845121
 20
120.5113286963
 10
143.1669914701
 20
120.4660534953
 10
143.1543036351
 20
120.4202172998
 10
143.1482276496
 20
120.3736661174
 10
143.1484568711
 20
120.3265539405
 10
143.1548067924
 20
120.280148087
 10
143.1656687886
 20
120.2399070445
  0
LWPOLYLINE
  5
32D
100
AcDbEntity
  8
DRAFT
100
AcDbPolyline
 62
7
  6
CONTINUOUS
 90
14
 70
0
 10
145.9387831799
 20
119.3518082534
 10
145.8852732337
 20
119.3197514961
 10
145.836276459
 20
119.2854819905
 10
145.7917928557
 20
119.2489997367
 10
145.751470219
 20
119.2100225968
 10
145.7156607536
 20
119.1688327088
 10
145.6854210745
 20
119.126276486
 10
145.6608582463
 20
119.0823676197
 10
145.6418652043
 20
119.0370924186
 10
145.6291773692
 20
118.9912562232
 10
145.6231013838
 20
118.9447050407
 10
145.6233306052
 20
118.8975928639
 10
145.6296805266
 20
118.8511870104
 10
145.6405425228
 20
118.8109459678
  0
LINE
  5
32E
100
AcDbEntity
  8
RACCORDO
100
AcDbLine
 62
7
  6
CONTINUOUS
 10
140.8829534776
 20
117.661915061
 11
136.1233196762
 21
114.8644747918
  0
LINE
  5
32F
100
AcDbEntity
  8
RACCORDO
100
AcDbLine
 62
250
  6
CONTINUOUS
 10
141.0127148118
 20
117.6522529535
 11
136.2530810121
 21
114.8548126854
  0
LINE
  5
330
100
AcDbEntity
  8
0
100
AcDbLine
 62
7
  6
CONTINUOUS
 10
129.5414234222
 20
111.3755679671
 11
131.627538456
 21
112.5534022755
  0
LWPOLYLINE
  5
331
100
AcDbEntity
  8
RACCORDO
100
AcDbPolyline
 62
7
  6
CONTINUOUS
 90
31
 70
0
 10
136.1231989356
 20
114.8644037019
 10
136.1022540243
 20
114.85263605
 10
136.063145887
 20
114.8331483407
 10
136.0193607632
 20
114.8144629102
 10
135.9712017084
 20
114.7970356256
 10
135.919278618
 20
114.7813281107
 10
135.8639384927
 20
114.7676238398
 10
135.8055438462
 20
114.7561763959
 10
135.744834244
 20
114.7472511926
 10
135.6823088345
 20
114.7410036699
 10
135.618473613
 20
114.7375558815
 10
135.5541323477
 20
114.7369857602
 10
135.4898291055
 20
114.7393027029
 10
135.4261081106
 20
114.7444822122
 10
135.3637683437
 20
114.7524180284
 10
135.3033113503
 20
114.7629763503
 10
135.2452286549
 20
114.7759885988
 10
135.1902480261
 20
114.7911637811
 10
135.1389952515
 20
114.8081431998
 10
135.0915166704
 20
114.8267052865
 10
135.0477227022
 20
114.8467056197
 10
135.0079827054
 20
114.8678036169
 10
134.9725122109
 20
114.8896742336
 10
134.9412912611
 20
114.9121035554
 10
134.9144651175
 20
114.9347715236
 10
134.8924695563
 20
114.9569851716
 10
134.8757038629
 20
114.9776847003
 10
134.8641070733
 20
114.9957869107
 10
134.8567369456
 20
115.0111469141
 10
134.8525463508
 20
115.0243106379
 10
134.8510206889
 20
115.0337048233
  0
LINE
  5
332
100
AcDbEntity
  8
RACCORDO
100
AcDbLine
 62
250
  6
CONTINUOUS
 10
134.8838470976
 20
115.6253167089
 11
138.7694713141
 21
117.7905137513
  0
LINE
  5
333
100
AcDbEntity
  8
RACCORDO
100
AcDbLine
 62
250
  6
CONTINUOUS
 10
135.0571346534
 20
115.3357140312
 11
138.9427588699
 21
117.5009110736
  0
LINE
  5
334
100
AcDbEntity
  8
DRAFT
100
AcDbLine
 62
7
  6
CONTINUOUS
 10
150.8191802941
 20
123.3321991599
 11
144.3609026573
 21
119.733435394
  0
LINE
  5
335
100
AcDbEntity
  8
DRAFT
100
AcDbLine
 62
7
  6
CONTINUOUS
 10
144.9856480865
 20
119.9007038386
 11
152.0567169373
 21
123.8409349347
  0
LINE
  5
336
100
AcDbEntity
  8
DRAFT
100
AcDbLine
 62
7
  6
CONTINUOUS
 10
153.0085882414
 20
123.2913363734
 11
145.9387831799
 21
119.3518082534
  0
LINE
  5
337
100
AcDbEntity
  8
RACCORDO
100
AcDbLine
 62
250
  6
CONTINUOUS
 10
136.2530810121
 20
114.8548126854
 11
136.2007706561
 21
114.8264959918
  0
LINE
  5
338
100
AcDbEntity
  8
RACCORDO
100
AcDbLine
 62
7
  6
CONTINUOUS
 10
139.0479582238
 20
116.8062237213
 11
135.252622279
 21
114.7743322074
  0
LWPOLYLINE
  5
339
100
AcDbEntity
  8
RACCORDO
100
AcDbPolyline
 62
250
  6
CONTINUOUS
 90
3
 70
0
 10
136.2007706561
 20
114.8264959918
 10
136.1456906761
 20
114.8008132957
 10
136.087841072
 20
114.7777645972
  0
LWPOLYLINE
  5
33A
100
AcDbEntity
  8
RACCORDO
100
AcDbPolyline
 62
250
  6
CONTINUOUS
 90
21
 70
0
 10
136.087841072
 20
114.7777645972
 10
136.0269293471
 20
114.7572832686
 10
135.9632479982
 20
114.7394359376
 10
135.8976745153
 20
114.7244224868
 10
135.830111492
 20
114.7122564074
 10
135.7606563346
 20
114.7029242083
 10
135.6904787532
 20
114.6965852992
 10
135.6195763302
 20
114.6932910233
 10
135.5479514831
 20
114.6929900375
 10
135.4767811742
 20
114.6956877216
 10
135.4060651022
 20
114.7014347297
 10
135.3358035683
 20
114.7101804077
 10
135.2671744389
 20
114.7217781732
 10
135.2002120098
 20
114.7362746162
 10
135.1348819851
 20
114.7536231468
 10
135.0722593433
 20
114.773537412
 10
135.0123855814
 20
114.796060891
 10
134.9552192025
 20
114.8211501047
 10
134.9017106938
 20
114.8483882635
 10
134.8519221112
 20
114.8778108682
 10
134.8057913989
 20
114.909382418
  0
LWPOLYLINE
  5
33B
100
AcDbEntity
  8
ASSI
100
AcDbPolyline
 62
7
  6
CONTINUOUS
 90
6
 70
0
 10
133.4917822236
 20
71.3120701235
 10
133.4771263062
 20
71.3699173958
 10
133.4475246386
 20
71.5133271238
 10
133.4255326126
 20
71.6532340194
 10
133.4109821606
 20
71.7903498261
 10
133.4038745527
 20
71.9246753049
  0
LINE
  5
33C
100
AcDbEntity
  8
RACCORDO
100
AcDbLine
 62
7
  6
CONTINUOUS
 10
129.7662888672
 20
117.968432343
 11
129.7661696471
 21
117.9695696527
  0
LWPOLYLINE
  5
33D
100
AcDbEntity
  8
RACCORDO
100
AcDbPolyline
 62
250
  6
CONTINUOUS
 90
13
 70
0
 10
129.7661696471
 20
117.9695696527
 10
129.765504865
 20
117.9774045469
 10
129.7654590088
 20
118.0069979096
 10
129.769345987
 20
118.0366481418
 10
129.777223266
 20
118.0661953294
 10
129.7891197848
 20
118.0954470247
 10
129.8051516604
 20
118.1244106076
 10
129.8254961507
 20
118.1530394308
 10
129.8500947121
 20
118.180954673
 10
129.8786151483
 20
118.2076786632
 10
129.910776555
 20
118.2329514751
 10
129.9464880093
 20
118.2566925085
 10
129.9855412516
 20
118.2787392967
  0
LINE
  5
33E
100
AcDbEntity
  8
RACCORDO
100
AcDbLine
 62
250
  6
CONTINUOUS
 10
130.0224709323
 20
117.7564716024
 11
129.985541243
 21
118.2787394188
  0
LWPOLYLINE
  5
33F
100
AcDbEntity
  8
ASSI
100
AcDbPolyline
 62
7
  6
CONTINUOUS
 90
31
 70
0
 10
131.5537779155
 20
73.4618484903
 10
131.5482386161
 20
73.5473428494
 10
131.5368960349
 20
73.6365079781
 10
131.5196267525
 20
73.7288597397
 10
131.4962078394
 20
73.8243404026
 10
131.4666801055
 20
73.9218996711
 10
131.4316401168
 20
74.0194595689
 10
131.3915854554
 20
74.1159120391
 10
131.3466940177
 20
74.211085618
 10
131.2973994459
 20
74.3043063734
 10
131.2443579388
 20
74.3945718043
 10
131.1877363099
 20
74.4818064137
 10
131.127116212
 20
74.5666625263
 10
131.0622783306
 20
74.6491422542
 10
130.9940197028
 20
74.7279385173
 10
130.9234290021
 20
74.8017545118
 10
130.8510894339
 20
74.8700444662
 10
130.7773718391
 20
74.9325002999
 10
130.7031629548
 20
74.9884707395
 10
130.6294560665
 20
75.037426364
 10
130.5562251713
 20
75.079600231
 10
130.4828269778
 20
75.1153623245
 10
130.4092277919
 20
75.1445103942
 10
130.336430036
 20
75.1664241523
 10
130.2653439621
 20
75.1807341794
 10
130.196368042
 20
75.1873226847
 10
130.1300488603
 20
75.1860882051
 10
130.0673986575
 20
75.1771177605
 10
130.0091938643
 20
75.1608173614
 10
129.9552231149
 20
75.1374350734
 10
129.938380941
 20
75.1282169506
  0
LWPOLYLINE
  5
340
100
AcDbEntity
  8
RACCORDO
100
AcDbPolyline
 62
7
  6
CONTINUOUS
 90
13
 70
0
 10
130.6153945166
 20
74.9355116108
 10
130.6234577078
 20
74.7951980713
 10
130.6470250556
 20
74.651667188
 10
130.6851086008
 20
74.507103956
 10
130.7366547741
 20
74.3636215486
 10
130.8006325984
 20
74.2231097101
 10
130.8760111311
 20
74.0874181647
 10
130.9616231639
 20
73.9585488629
 10
131.0562053803
 20
73.8384805848
 10
131.1585909511
 20
73.7289523342
 10
131.2684158443
 20
73.6310313972
 10
131.3835741975
 20
73.547429588
 10
131.5003934308
 20
73.4810466011
  0
LWPOLYLINE
  5
341
100
AcDbEntity
  8
RACCORDO
100
AcDbPolyline
 62
250
  6
CONTINUOUS
 90
14
 70
0
 10
130.6600528954
 20
74.8627768744
 10
130.6663343424
 20
74.7484908521
 10
130.6850713193
 20
74.6289060733
 10
130.7159433969
 20
74.5060686104
 10
130.7584225692
 20
74.38208006
 10
130.8117821062
 20
74.2590621193
 10
130.8751088323
 20
74.1391202563
 10
130.9473191286
 20
74.0243068545
 10
131.0271774664
 20
73.9165863805
 10
131.1133172163
 20
73.8178022274
 10
131.2042643303
 20
73.7296446967
 10
131.2984627134
 20
73.6536220395
 10
131.3943006688
 20
73.5910349104
 10
131.4901388704
 20
73.5429539531
  0
LWPOLYLINE
  5
342
100
AcDbEntity
  8
0
100
AcDbPolyline
 62
250
  6
CONTINUOUS
 90
25
 70
0
 10
133.3953056837
 20
70.6949039942
 10
133.401355081
 20
70.5848403855
 10
133.4193997658
 20
70.4696743036
 10
133.4491309887
 20
70.3513762723
 10
133.4900400398
 20
70.2319704048
 10
133.5414269539
 20
70.1134997678
 10
133.6024124879
 20
69.9979914251
 10
133.6719531663
 20
69.8874217517
 10
133.7488591262
 20
69.7836826318
 10
133.8318144743
 20
69.6885490831
 10
133.9193998102
 20
69.6036488726
 10
134.0101165324
 20
69.5304346516
 10
134.1024124711
 20
69.4701591204
 10
134.1947084276
 20
69.4238536094
 10
134.2854251827
 20
69.3923104294
 10
134.3730105368
 20
69.3760692983
 10
134.4559658769
 20
69.3754081049
 10
134.5328718182
 20
69.3903381604
 10
134.6024124801
 20
69.4206040067
 10
134.663398003
 20
69.4656877865
 10
134.7147849079
 20
69.5248181033
 10
134.7556939514
 20
69.5969832215
 10
134.7854251686
 20
69.6809483764
 10
134.80346985
 20
69.7752769008
 10
134.8095192461
 20
69.8783548075
  0
LWPOLYLINE
  5
343
100
AcDbEntity
  8
ASSI
100
AcDbPolyline
 62
250
  6
CONTINUOUS
 90
25
 70
0
 10
130.2423729616
 20
74.8556629482
 10
130.2454111033
 20
74.7668580228
 10
130.2545058235
 20
74.675120673
 10
130.2695981376
 20
74.5810458533
 10
130.2905901699
 20
74.4852436532
 10
130.3173457739
 20
74.3883354126
 10
130.3496914001
 20
74.2909496947
 10
130.3874172356
 20
74.1937181447
 10
130.4302786187
 20
74.097271284
 10
130.4779976202
 20
74.0022344991
 10
130.5302647886
 20
73.9092241049
 10
130.586741138
 20
73.8188433462
 10
130.6470603987
 20
73.7316783813
 10
130.7108313892
 20
73.6482944984
 10
130.7776405236
 20
73.5692324892
 10
130.847054488
 20
73.4950051373
 10
130.9186230823
 20
73.4260938518
 10
130.9918821766
 20
73.3629455204
 10
131.0663566915
 20
73.3059696545
 10
131.141563653
 20
73.2555357548
 10
131.2170152955
 20
73.2119709247
 10
131.2922222588
 20
73.1755577147
 10
131.3666967804
 20
73.1465322808
 10
131.4399558829
 20
73.1250828506
 10
131.5031530234
 20
73.1129550434
  0
LINE
  5
344
100
AcDbEntity
  8
ASSI
100
AcDbLine
 62
7
  6
CONTINUOUS
 10
131.5541149322
 20
73.4491909774
 11
131.5537779155
 21
73.4618484903
  0
LINE
  5
345
100
AcDbEntity
  8
ASSI
100
AcDbLine
 62
7
  6
CONTINUOUS
 10
129.6800756337
 20
74.5437007048
 11
129.6802819945
 21
74.5311186685
  0
LINE
  5
346
100
AcDbEntity
  8
RACCORDO
100
AcDbLine
 62
7
  6
CONTINUOUS
 10
130.0479185967
 20
115.2618158497
 11
130.0479185967
 21
114.7491312169
  0
LWPOLYLINE
  5
347
100
AcDbEntity
  8
ASSI
100
AcDbPolyline
 62
7
  6
CONTINUOUS
 90
49
 70
0
 10
131.9896609951
 20
72.7412245476
 10
131.9891102621
 20
72.6115290917
 10
131.9811266901
 20
72.4875943943
 10
131.9657090437
 20
72.3694197154
 10
131.9427169734
 20
72.2564567662
 10
131.9122887511
 20
72.149252593
 10
131.8748395096
 20
72.0494485006
 10
131.8302876761
 20
71.9572492449
 10
131.7787093844
 20
71.8724467643
 10
131.7207537699
 20
71.7960615699
 10
131.6563263572
 20
71.7281793016
 10
131.5855147569
 20
71.6687101284
 10
131.5092394972
 20
71.6184102875
 10
131.4274361128
 20
71.5774007589
 10
131.34016161
 20
71.5455559944
 10
131.248517639
 20
71.5232617707
 10
131.1524451278
 20
71.5106327727
 10
131.051996292
 20
71.507550107
 10
130.9484393218
 20
71.51404894
 10
130.8417322456
 20
71.5302466748
 10
130.73191179
 20
71.556022684
 10
130.6203643674
 20
71.5910551954
 10
130.507063127
 20
71.6354610563
 10
130.3920320757
 20
71.6891216695
 10
130.2767344709
 20
71.7513624385
 10
130.1611618225
 20
71.8222973087
 10
130.0453226133
 20
71.9018123304
 10
129.9307062571
 20
71.9888914928
 10
129.8173281741
 20
72.0836376997
 10
129.7051757824
 20
72.1859497939
 10
129.5956970527
 20
72.2945060179
 10
129.4889399454
 20
72.4093757861
 10
129.3848617425
 20
72.5304929071
 10
129.2847745727
 20
72.6563323206
 10
129.1887306682
 20
72.7869516742
 10
129.0966846554
 20
72.9222975303
 10
129.0098018671
 20
73.0606779618
 10
128.928142235
 20
73.2021464148
 10
128.8516532947
 20
73.3466540166
 10
128.7813307144
 20
73.492354702
 10
128.7172591451
 20
73.6392553313
 10
128.6593608495
 20
73.7873532654
 10
128.6083861643
 20
73.9347871144
 10
128.5644169891
 20
74.0816481037
 10
128.5273768423
 20
74.2278483006
 10
128.4977759409
 20
74.3712560173
 10
128.4757845013
 20
74.5111607698
 10
128.4612344593
 20
74.6482743299
 10
128.4541270844
 20
74.7825974584
  0
LWPOLYLINE
  5
348
100
AcDbEntity
  8
ASSI
100
AcDbPolyline
 62
7
  6
CONTINUOUS
 90
5
 70
0
 10
130.3009516053
 20
74.9373178656
 10
130.3025879574
 20
74.9998310069
 10
130.3074509736
 20
75.0595209381
 10
130.3154454932
 20
75.1160736443
 10
130.3262812344
 20
75.1684671632
  0
LINE
  5
349
100
AcDbEntity
  8
RACCORDO
100
AcDbLine
 62
250
  6
CONTINUOUS
 10
130.6663301214
 20
74.969774649
 11
130.6600528954
 21
74.8627768744
  0
LWPOLYLINE
  5
34A
100
AcDbEntity
  8
RACCORDO
100
AcDbPolyline
 62
250
  6
CONTINUOUS
 90
10
 70
0
 10
140.6261371687
 20
126.6338857673
 10
140.6383942189
 20
126.6612387897
 10
140.6493984499
 20
126.689880805
 10
140.6591287137
 20
126.7197567693
 10
140.667566311
 20
126.7508092675
 10
140.6746950264
 20
126.7829786233
 10
140.68050116
 20
126.8162030142
 10
140.6849735538
 20
126.8504185899
 10
140.6881036126
 20
126.8855595955
 10
140.6898853211
 20
126.9215584974
  0
LWPOLYLINE
  5
34B
100
AcDbEntity
  8
DRAFT
100
AcDbPolyline
 62
7
  6
CONTINUOUS
 90
9
 70
0
 10
154.5315906715
 20
122.411973858
 10
154.5849478073
 20
122.4440514339
 10
154.6337954542
 20
122.4783385751
 10
154.6781336119
 20
122.5148352817
 10
154.7183142008
 20
122.5538241359
 10
154.7539853006
 20
122.5950225555
 10
154.7840911511
 20
122.6375827938
 10
154.808524452
 20
122.6814907286
 10
154.8285821597
 20
122.730245786
  0
LWPOLYLINE
  5
34C
100
AcDbEntity
  8
DRAFT
100
AcDbPolyline
 62
7
  6
CONTINUOUS
 90
9
 70
0
 10
157.0064644056
 20
120.9830127814
 10
157.0598215415
 20
121.0150903573
 10
157.1086691883
 20
121.0493774985
 10
157.1530073461
 20
121.0858742051
 10
157.1931879349
 20
121.1248630593
 10
157.2288590347
 20
121.1660614789
 10
157.2589648852
 20
121.2086217171
 10
157.2833981861
 20
121.2525296519
 10
157.3034558938
 20
121.3012847094
  0
LWPOLYLINE
  5
34D
100
AcDbEntity
  8
DRAFT
100
AcDbPolyline
 62
7
  6
CONTINUOUS
 90
14
 70
0
 10
148.4136569141
 20
117.9228471768
 10
148.3601469679
 20
117.8907904194
 10
148.3111501932
 20
117.8565209138
 10
148.2666665899
 20
117.82003866
 10
148.2263439531
 20
117.7810615202
 10
148.1905344878
 20
117.7398716321
 10
148.1602948087
 20
117.6973154094
 10
148.1357319804
 20
117.653406543
 10
148.1167389384
 20
117.608131342
 10
148.1040511034
 20
117.5622951465
 10
148.0979751179
 20
117.5157439641
 10
148.0982043394
 20
117.4686317872
 10
148.1045542607
 20
117.4222259338
 10
148.115416257
 20
117.3819848912
  0
LINE
  5
34E
100
AcDbEntity
  8
DRAFT
100
AcDbLine
 62
7
  6
CONTINUOUS
 10
153.2940540283
 20
121.9032380832
 11
146.8357763915
 21
118.3044743173
  0
LINE
  5
34F
100
AcDbEntity
  8
DRAFT
100
AcDbLine
 62
7
  6
CONTINUOUS
 10
147.4605218206
 20
118.471742762
 11
154.5315906715
 21
122.411973858
  0
LINE
  5
350
100
AcDbEntity
  8
DRAFT
100
AcDbLine
 62
7
  6
CONTINUOUS
 10
155.4834619756
 20
121.8623752968
 11
148.4136569141
 21
117.9228471768
  0
LINE
  5
351
100
AcDbEntity
  8
DRAFT
100
AcDbLine
 62
7
  6
CONTINUOUS
 10
155.7689277624
 20
120.4742770066
 11
149.3106501256
 21
116.8755132407
  0
LINE
  5
352
100
AcDbEntity
  8
DRAFT
100
AcDbLine
 62
7
  6
CONTINUOUS
 10
149.9353955548
 20
117.0427816853
 11
157.0064644056
 21
120.9830127814
  0
LWPOLYLINE
  5
353
100
AcDbEntity
  8
ASSI
100
AcDbPolyline
 62
7
  6
CONTINUOUS
 90
31
 70
0
 10
136.5274833274
 20
70.577058934
 10
136.5216919344
 20
70.6668230424
 10
136.5098187607
 20
70.7599255422
 10
136.4918404381
 20
70.8558084715
 10
136.4676942621
 20
70.9541428468
 10
136.4374874427
 20
71.0540538973
 10
136.4016554957
 20
71.1541040414
 10
136.3606647844
 20
71.253196941
 10
136.314680772
 20
71.3511405852
 10
136.2637959999
 20
71.4478385378
 10
136.2081216002
 20
71.54295795
 10
136.1481305999
 20
71.6355568737
 10
136.0844819663
 20
71.7246561184
 10
136.0178248759
 20
71.8094412296
 10
135.9484027165
 20
71.8896898482
 10
135.8762976642
 20
71.9653247365
 10
135.8016656173
 20
72.0360711596
 10
135.7252276547
 20
72.1011290106
 10
135.647927026
 20
72.1597063884
 10
135.5705797584
 20
72.2112946917
 10
135.4933750881
 20
72.2558695277
 10
135.4163360136
 20
72.2934176819
 10
135.3396608339
 20
72.3237402087
 10
135.2641563795
 20
72.3464089715
 10
135.1907386484
 20
72.3611413946
 10
135.120127079
 20
72.3679036437
 10
135.0524798462
 20
72.3667895635
 10
134.9878573022
 20
72.3577979711
 10
134.9265151163
 20
72.3408676732
 10
134.8690884454
 20
72.3160697538
 10
134.8558605861
 20
72.3089168871
  0
LWPOLYLINE
  5
354
100
AcDbEntity
  8
RACCORDO
100
AcDbPolyline
 62
250
  6
CONTINUOUS
 90
12
 70
0
 10
134.8510148712
 20
115.0337279109
 10
134.8498845071
 20
115.0606407651
 10
134.852390655
 20
115.0903571415
 10
134.8588880503
 20
115.1200294262
 10
134.8694143629
 20
115.1494656359
 10
134.8840856745
 20
115.1786746073
 10
134.9030809875
 20
115.2076124053
 10
134.9263592536
 20
115.2358994142
 10
134.9536113067
 20
115.2630527137
 10
134.984568537
 20
115.2888080758
 10
135.0191432693
 20
115.313083665
 10
135.0571346623
 20
115.3357139092
  0
LINE
  5
355
100
AcDbEntity
  8
ASSI
100
AcDbLine
 62
7
  6
CONTINUOUS
 10
136.5278062748
 20
70.5647578
 11
136.5274833274
 21
70.577058934
  0
LINE
  5
356
100
AcDbEntity
  8
RACCORDO
100
AcDbLine
 62
250
  6
CONTINUOUS
 10
135.0011487447
 20
120.9283836795
 11
134.9997928908
 21
120.130166224
  0
LINE
  5
357
100
AcDbEntity
  8
RACCORDO
100
AcDbLine
 62
250
  6
CONTINUOUS
 10
135.6967563842
 20
120.9121665602
 11
135.6954383473
 21
120.1362126873
  0
LWPOLYLINE
  5
358
100
AcDbEntity
  8
ASSI
100
AcDbPolyline
 62
7
  6
CONTINUOUS
 90
28
 70
0
 10
133.4038745527
 20
71.9246753049
 10
133.4044617187
 20
72.054370001
 10
133.4125545617
 20
72.1783510582
 10
133.428151848
 20
72.2966177109
 10
133.4513923798
 20
72.4097176528
 10
133.4821352802
 20
72.517101901
 10
133.5199582341
 20
72.6171237262
 10
133.5649368069
 20
72.7095749521
 10
133.6169899985
 20
72.7946604308
 10
133.6754580888
 20
72.8713514244
 10
133.7404287079
 20
72.9395580174
 10
133.8118073643
 20
72.9993659473
 10
133.8886594177
 20
73.0500089056
 10
133.9710416079
 20
73.0913606144
 10
134.0588897369
 20
73.1235428245
 10
134.1510866724
 20
73.1461606156
 10
134.247684072
 20
73.1590939319
 10
134.3486234206
 20
73.1624586759
 10
134.4526219348
 20
73.1562136299
 10
134.5597141836
 20
73.1402374246
 10
134.6698603523
 20
73.114648257
 10
134.781666257
 20
73.0797643655
 10
134.895154338
 20
73.0354668067
 10
135.0102993114
 20
72.981872806
 10
135.125635967
 20
72.9196551927
 10
135.2411713435
 20
72.8486995396
 10
135.3568983947
 20
72.7691202696
 10
135.4713314801
 20
72.6819339084
  0
LWPOLYLINE
  5
359
100
AcDbEntity
  8
0
100
AcDbPolyline
 62
7
  6
CONTINUOUS
 90
10
 70
0
 10
133.3398260294
 20
70.7952595183
 10
133.3449582067
 20
70.9037001782
 10
133.3599524628
 20
71.0050349516
 10
133.3842031015
 20
71.0989098515
 10
133.4170611108
 20
71.1849575628
 10
133.4579231346
 20
71.2630263354
 10
133.5061706796
 20
71.3329113336
 10
133.5609992334
 20
71.3942205212
 10
133.6214611165
 20
71.4466168762
 10
133.6865472714
 20
71.4899129723
  0
LWPOLYLINE
  5
35A
100
AcDbEntity
  8
0
100
AcDbPolyline
 62
250
  6
CONTINUOUS
 90
13
 70
0
 10
133.3953056837
 20
70.6949039942
 10
133.4013553733
 20
70.7979843059
 10
133.4194007631
 20
70.8923141643
 10
133.4491328409
 20
70.9762796967
 10
133.4900425348
 20
71.0484442731
 10
133.5414297016
 20
71.1075735885
 10
133.6024153454
 20
71.1526564665
 10
133.6719562424
 20
71.1829216074
 10
133.7488623456
 20
71.1978509906
 10
133.8318175025
 20
71.1971891952
 10
133.9194021953
 20
71.1809477161
 10
134.0101179013
 20
71.1494045971
 10
134.1024124649
 20
71.1030996776
  0
LWPOLYLINE
  5
35B
100
AcDbEntity
  8
ASSI
100
AcDbPolyline
 62
250
  6
CONTINUOUS
 90
3
 70
0
 10
130.2545058239
 20
75.0221945008
 10
130.2454111034
 20
74.9409595061
 10
130.2423729616
 20
74.8556629482
  0
LWPOLYLINE
  5
35C
100
AcDbEntity
  8
RACCORDO
100
AcDbPolyline
 62
7
  6
CONTINUOUS
 90
3
 70
0
 10
130.6209186761
 20
75.0423430698
 10
130.6197882361
 20
75.0342434733
 10
130.6153945166
 20
74.9355116138
  0
LINE
  5
35D
100
AcDbEntity
  8
RACCORDO
100
AcDbLine
 62
250
  6
CONTINUOUS
 10
130.6736535416
 20
75.0080706953
 11
130.6663301214
 21
74.969774649
  0
LWPOLYLINE
  5
35E
100
AcDbEntity
  8
0
100
AcDbPolyline
 62
7
  6
CONTINUOUS
 90
12
 70
0
 10
135.8486683241
 20
107.2960120974
 10
135.8534361623
 20
107.2989282162
 10
135.8758220451
 20
107.3155248031
 10
135.8956161438
 20
107.3361251559
 10
135.912868811
 20
107.3605760042
 10
135.9270625942
 20
107.3881029332
 10
135.9380860456
 20
107.4187002816
 10
135.9460506131
 20
107.4523737108
 10
135.9507731872
 20
107.4883657889
 10
135.9521927316
 20
107.5264240387
 10
135.9503702826
 20
107.5668009376
 10
135.9453058402
 20
107.6094964854
  0
LWPOLYLINE
  5
35F
100
AcDbEntity
  8
DRAFT
100
AcDbPolyline
 62
7
  6
CONTINUOUS
 90
9
 70
0
 10
159.4813381398
 20
119.5540517047
 10
159.5346952756
 20
119.5861292806
 10
159.5835429225
 20
119.6204164218
 10
159.6278810803
 20
119.6569131284
 10
159.6680616691
 20
119.6959019826
 10
159.7037327689
 20
119.7371004022
 10
159.7338386194
 20
119.7796606405
 10
159.7582719203
 20
119.8235685753
 10
159.778329628
 20
119.8723236327
  0
LWPOLYLINE
  5
360
100
AcDbEntity
  8
DRAFT
100
AcDbPolyline
 62
7
  6
CONTINUOUS
 90
14
 70
0
 10
150.8885306482
 20
116.4938861002
 10
150.8350207021
 20
116.4618293428
 10
150.7860239273
 20
116.4275598372
 10
150.741540324
 20
116.3910775834
 10
150.7012176873
 20
116.3521004435
 10
150.6654082219
 20
116.3109105555
 10
150.6351685428
 20
116.2683543327
 10
150.6106057146
 20
116.2244454664
 10
150.5916126726
 20
116.1791702653
 10
150.5789248375
 20
116.1333340699
 10
150.5728488521
 20
116.0867828874
 10
150.5730780735
 20
116.0396707106
 10
150.5794279949
 20
115.9932648571
 10
150.5902899911
 20
115.9530238145
  0
LWPOLYLINE
  5
361
100
AcDbEntity
  8
DRAFT
100
AcDbPolyline
 62
7
  6
CONTINUOUS
 90
14
 70
0
 10
153.3634043824
 20
115.0649250235
 10
153.3098944362
 20
115.0328682661
 10
153.2608976615
 20
114.9985987605
 10
153.2164140582
 20
114.9621165068
 10
153.1760914214
 20
114.9231393669
 10
153.1402819561
 20
114.8819494788
 10
153.110042277
 20
114.8393932561
 10
153.0854794487
 20
114.7954843897
 10
153.0664864067
 20
114.7502091887
 10
153.0537985717
 20
114.7043729932
 10
153.0477225862
 20
114.6578218108
 10
153.0479518077
 20
114.6107096339
 10
153.054301729
 20
114.5643037805
 10
153.0651637253
 20
114.5240627379
  0
LINE
  5
362
100
AcDbEntity
  8
ASSI
100
AcDbLine
 62
7
  6
CONTINUOUS
 10
137.3185413567
 20
106.7712223998
 11
136.765433018
 21
106.4410753532
  0
LINE
  5
363
100
AcDbEntity
  8
ASSI
100
AcDbLine
 62
7
  6
CONTINUOUS
 10
140.2302562458
 20
109.4071763109
 11
138.7712514544
 21
108.5647623374
  0
LINE
  5
364
100
AcDbEntity
  8
DRAFT
100
AcDbLine
 62
7
  6
CONTINUOUS
 10
157.9583357097
 20
120.4334142201
 11
150.8885306482
 21
116.4938861002
  0
LINE
  5
365
100
AcDbEntity
  8
DRAFT
100
AcDbLine
 62
7
  6
CONTINUOUS
 10
158.2438014966
 20
119.0453159299
 11
151.7855238598
 21
115.4465521641
  0
LINE
  5
366
100
AcDbEntity
  8
DRAFT
100
AcDbLine
 62
7
  6
CONTINUOUS
 10
152.410269289
 20
115.6138206087
 11
159.4813381398
 21
119.5540517047
  0
LINE
  5
367
100
AcDbEntity
  8
DRAFT
100
AcDbLine
 62
7
  6
CONTINUOUS
 10
160.4332094439
 20
119.0044531435
 11
153.3634043824
 21
115.0649250235
  0
LINE
  5
368
100
AcDbEntity
  8
0
100
AcDbLine
 62
7
  6
CONTINUOUS
 10
139.4877941171
 20
109.5661932708
 11
135.9453058402
 21
107.6094964854
  0
LINE
  5
369
100
AcDbEntity
  8
0
100
AcDbLine
 62
250
  6
CONTINUOUS
 10
136.1059553321
 20
107.6410387587
 11
139.6595312451
 21
109.600296142
  0
LINE
  5
36A
100
AcDbEntity
  8
0
100
AcDbLine
 62
250
  6
CONTINUOUS
 10
136.4966479882
 20
107.5514267009
 11
140.0507988559
 21
109.5107927587
  0
LINE
  5
36B
100
AcDbEntity
  8
DRAFT
100
AcDbLine
 62
7
  6
CONTINUOUS
 10
135.09479166
 20
107.4056827353
 11
135.7716108899
 21
107.7783358058
  0
LINE
  5
36C
100
AcDbEntity
  8
0
100
AcDbLine
 62
7
  6
CONTINUOUS
 10
135.6181673761
 20
107.8669321675
 11
137.731397571
 21
109.0291105218
  0
LINE
  5
36D
100
AcDbEntity
  8
0
100
AcDbLine
 62
7
  6
CONTINUOUS
 10
139.0138775581
 20
109.4560662314
 11
135.4150340224
 21
107.486273812
  0
LINE
  5
36E
100
AcDbEntity
  8
RACCORDO
100
AcDbLine
 62
250
  6
CONTINUOUS
 10
144.3126060548
 20
110.2013439353
 11
149.3282135565
 21
112.850988196
  0
LINE
  5
36F
100
AcDbEntity
  8
RACCORDO
100
AcDbLine
 62
250
  6
CONTINUOUS
 10
144.4812302573
 20
109.9091102555
 11
149.524239936
 21
112.5732284726
  0
LINE
  5
370
100
AcDbEntity
  8
DRAFT
100
AcDbLine
 62
7
  6
CONTINUOUS
 10
139.8864153597
 20
108.3358710794
 11
140.2302562458
 21
108.5086915862
  0
LWPOLYLINE
  5
371
100
AcDbEntity
  8
RACCORDO
100
AcDbPolyline
 62
250
  6
CONTINUOUS
 90
22
 70
0
 10
149.3282135565
 20
112.850988196
 10
149.3697628095
 20
112.8712274956
 10
149.41306344
 20
112.88947028
 10
149.4581154479
 20
112.9057165491
 10
149.5050709064
 20
112.9199910431
 10
149.5537777422
 20
112.9322690217
 10
149.6037797364
 20
112.9424762649
 10
149.6552390033
 20
112.9506248112
 10
149.7079934285
 20
112.956702622
 10
149.7611004494
 20
112.9605993615
 10
149.8144359555
 20
112.9622838217
 10
149.8681240573
 20
112.9617872105
 10
149.921594524
 20
112.9590928161
 10
149.9747460112
 20
112.9542500713
 10
150.0276798633
 20
112.9472095432
 10
150.0801298831
 20
112.9378062209
 10
150.1324703953
 20
112.9259533281
 10
150.1843270752
 20
112.9117376411
 10
150.2343107512
 20
112.895254478
 10
150.281958366
 20
112.8765356113
 10
150.3277329769
 20
112.8555492685
 10
150.3716345839
 20
112.8322954496
  0
LWPOLYLINE
  5
372
100
AcDbEntity
  8
RACCORDO
100
AcDbPolyline
 62
250
  6
CONTINUOUS
 90
21
 70
0
 10
149.524239936
 20
112.5732284726
 10
149.5531675634
 20
112.5863209098
 10
149.5834436533
 20
112.5979924659
 10
149.6148165881
 20
112.608196937
 10
149.6471716456
 20
112.6169282034
 10
149.6805561081
 20
112.6241954272
 10
149.7149134417
 20
112.6299776766
 10
149.7499659333
 20
112.634223673
 10
149.7854376234
 20
112.6368930718
 10
149.8210542932
 20
112.6379721814
 10
149.8567224797
 20
112.6374714617
 10
149.8924328256
 20
112.6353883685
 10
149.9279079768
 20
112.6317332326
 10
149.9630557793
 20
112.6264950155
 10
149.998120305
 20
112.6195856069
 10
150.0330936985
 20
112.6109130409
 10
150.0675088434
 20
112.6004993429
 10
150.1009029104
 20
112.5884188295
 10
150.1329762874
 20
112.5747233472
 10
150.1635681896
 20
112.5594160555
 10
150.1924453972
 20
112.5425366227
  0
LINE
  5
373
100
AcDbEntity
  8
ASSI
100
AcDbLine
 62
7
  6
CONTINUOUS
 10
139.0640677056
 20
108.3956939039
 11
139.2892418739
 21
108.4949532066
  0
LINE
  5
374
100
AcDbEntity
  8
ASSI
100
AcDbLine
 62
250
  6
CONTINUOUS
 10
139.1371779209
 20
108.3601550451
 11
139.405489124
 21
108.4784296373
  0
LWPOLYLINE
  5
375
100
AcDbEntity
  8
ASSI
100
AcDbPolyline
 62
250
  6
CONTINUOUS
 90
10
 70
0
 10
139.405489124
 20
108.4784296373
 10
139.4312018031
 20
108.4891455452
 10
139.4570442131
 20
108.4977346982
 10
139.4828614344
 20
108.5040306346
 10
139.5084219151
 20
108.50786504
 10
139.5336172059
 20
108.5091110109
 10
139.5584401383
 20
108.5076138347
 10
139.5827231703
 20
108.5031700391
 10
139.6061623146
 20
108.4956032036
 10
139.6285019839
 20
108.4847592193
  0
LWPOLYLINE
  5
376
100
AcDbEntity
  8
ASSI
100
AcDbPolyline
 62
7
  6
CONTINUOUS
 90
10
 70
0
 10
137.731397571
 20
109.0291105218
 10
137.8697288694
 20
109.0849722618
 10
138.0091108159
 20
109.1387314533
 10
138.1495434106
 20
109.1903880965
 10
138.2910386915
 20
109.2399461989
 10
138.4335846206
 20
109.2874017529
 10
138.5771450833
 20
109.3327427355
 10
138.7217080413
 20
109.3759651389
 10
138.8672855329
 20
109.4170729708
 10
139.0138775581
 20
109.4560662314
  0
LINE
  5
377
100
AcDbEntity
  8
RACCORDO
100
AcDbLine
 62
7
  6
CONTINUOUS
 10
142.0279074619
 20
108.9365945767
 11
141.7145618617
 21
108.8128059614
  0
LINE
  5
378
100
AcDbEntity
  8
RACCORDO
100
AcDbLine
 62
250
  6
CONTINUOUS
 10
142.1748763411
 20
108.891160983
 11
141.8615307409
 21
108.7673723677
  0
LWPOLYLINE
  5
379
100
AcDbEntity
  8
ASSI
100
AcDbPolyline
 62
250
  6
CONTINUOUS
 90
7
 70
0
 10
139.2892903323
 20
108.4949745508
 10
139.2986646119
 20
108.4985026062
 10
139.3183074786
 20
108.5024722705
 10
139.3391737807
 20
108.502414668
 10
139.3609078608
 20
108.4983307418
 10
139.3831392847
 20
108.490290061
 10
139.4054891249
 20
108.4784296377
  0
LWPOLYLINE
  5
37A
100
AcDbEntity
  8
RACCORDO
100
AcDbPolyline
 62
250
  6
CONTINUOUS
 90
4
 70
0
 10
142.2508841596
 20
108.922350865
 10
142.2263547895
 20
108.9131200983
 10
142.201012028
 20
108.902745448
 10
142.1748763411
 20
108.891160983
  0
LWPOLYLINE
  5
37B
100
AcDbEntity
  8
RACCORDO
100
AcDbPolyline
 62
250
  6
CONTINUOUS
 90
14
 70
0
 10
145.4776401969
 20
109.3365911445
 10
145.4157762795
 20
109.3170312526
 10
145.3512639457
 20
109.3001443434
 10
145.2849900469
 20
109.2861171086
 10
145.2168578185
 20
109.2749644803
 10
145.146964025
 20
109.2666715265
 10
145.0764858117
 20
109.2613801422
 10
145.0054231219
 20
109.2591416581
 10
144.9337760121
 20
109.2599047435
 10
144.8627217977
 20
109.2636573023
 10
144.7922625069
 20
109.2704499492
 10
144.7223961115
 20
109.2802320695
 10
144.6542938415
 20
109.2928397235
 10
144.58799214
 20
109.3083189533
  0
LINE
  5
37C
100
AcDbEntity
  8
DRAFT
100
AcDbLine
 62
7
  6
CONTINUOUS
 10
135.0603428581
 20
107.3867154081
 11
135.1386539072
 21
107.4099220713
  0
LINE
  5
37D
100
AcDbEntity
  8
DRAFT
100
AcDbLine
 62
7
  6
CONTINUOUS
 10
135.1386539072
 20
107.4099220713
 11
135.2172570053
 21
107.4325104221
  0
LWPOLYLINE
  5
37E
100
AcDbEntity
  8
ASSI
100
AcDbPolyline
 62
250
  6
CONTINUOUS
 90
6
 70
0
 10
127.9404494591
 20
115.1780956116
 10
127.9312782033
 20
115.2010924058
 10
127.9174557156
 20
115.2252724114
 10
127.9005901563
 20
115.2467768719
 10
127.8809611027
 20
115.2652492812
 10
127.8588939495
 20
115.2803833906
  0
LWPOLYLINE
  5
37F
100
AcDbEntity
  8
ASSI
100
AcDbPolyline
 62
250
  6
CONTINUOUS
 90
9
 70
0
 10
127.7872328957
 20
115.095700702
 10
127.7823503438
 20
115.1083912739
 10
127.7680961726
 20
115.1377389684
 10
127.751456362
 20
115.1657173125
 10
127.7327145238
 20
115.1918494387
 10
127.712190097
 20
115.2156899464
 10
127.6902329034
 20
115.2368324939
 10
127.6672171851
 20
115.254916724
 10
127.6435352261
 20
115.2696344061
  0
LINE
  5
380
100
AcDbEntity
  8
RACCORDO
100
AcDbLine
 62
7
  6
CONTINUOUS
 10
134.8511432587
 20
115.0325008027
 11
134.8510148712
 21
115.0337279109
  0
LWPOLYLINE
  5
381
100
AcDbEntity
  8
ASSI
100
AcDbPolyline
 62
250
  6
CONTINUOUS
 90
22
 70
0
 10
141.526563718
 20
62.1232516414
 10
141.528849338
 20
62.093751359
 10
141.5329344445
 20
62.0660866302
 10
141.5388190375
 20
62.040257455
 10
141.5465360717
 20
62.0162478343
 10
141.5560525925
 20
61.9940737672
 10
141.5672697354
 20
61.9737832506
 10
141.580298368
 20
61.9552667999
 10
141.5950276227
 20
61.9386338997
 10
141.6110260329
 20
61.9242610009
 10
141.6284133091
 20
61.9122835287
 10
141.6470697408
 20
61.9025660579
 10
141.6662047292
 20
61.8950787635
 10
141.6855228722
 20
61.8899222782
 10
141.7053195719
 20
61.8869959694
 10
141.7256904361
 20
61.8859681135
 10
141.7464088305
 20
61.8865936436
 10
141.7677013894
 20
61.8891176268
 10
141.7903436245
 20
61.8939435404
 10
141.8145940398
 20
61.901205877
 10
141.8401941313
 20
61.9107701442
 10
141.8671438991
 20
61.9226363418
  0
LINE
  5
382
100
AcDbEntity
  8
RACCORDO
100
AcDbLine
 62
250
  6
CONTINUOUS
 10
135.0942212567
 20
114.8256479094
 11
135.0571346534
 21
115.3357140312
  0
LINE
  5
383
100
AcDbEntity
  8
RACCORDO
100
AcDbLine
 62
250
  6
CONTINUOUS
 10
134.9997928908
 20
120.130166224
 11
135.009248376
 21
119.9999523307
  0
LINE
  5
384
100
AcDbEntity
  8
RACCORDO
100
AcDbLine
 62
250
  6
CONTINUOUS
 10
135.6987109404
 20
120.1349325988
 11
135.7144900013
 21
119.9174769092
  0
LWPOLYLINE
  5
385
100
AcDbEntity
  8
ASSI
100
AcDbPolyline
 62
250
  6
CONTINUOUS
 90
12
 70
0
 10
140.8259936585
 20
62.1098028515
 10
140.8302500821
 20
62.0511498421
 10
140.8384000098
 20
61.9957852565
 10
140.8502941386
 20
61.9439358221
 10
140.8657011751
 20
61.8959735869
 10
140.8844785183
 20
61.8518571603
 10
140.9067072709
 20
61.8112693303
 10
140.9325025478
 20
61.7741824329
 10
140.9615935788
 20
61.7411446904
 10
140.9934693392
 20
61.7126581756
 10
141.0279644516
 20
61.6887082855
 10
141.0339844501
 20
61.6851416738
  0
LINE
  5
386
100
AcDbEntity
  8
RACCORDO
100
AcDbLine
 62
7
  6
CONTINUOUS
 10
136.633009366
 20
106.5175351102
 11
136.633009366
 21
107.3735992545
  0
LWPOLYLINE
  5
387
100
AcDbEntity
  8
ASSI
100
AcDbPolyline
 62
7
  6
CONTINUOUS
 90
30
 70
0
 10
136.9394084635
 20
69.8833023945
 10
136.9388577815
 20
69.753607363
 10
136.9308742585
 20
69.6296729637
 10
136.9154566592
 20
69.5114984564
 10
136.8924646363
 20
69.3985355108
 10
136.8620364596
 20
69.291331215
 10
136.8245872561
 20
69.1915269991
 10
136.7800354277
 20
69.0993276453
 10
136.7284571333
 20
69.0145250656
 10
136.6705015781
 20
68.9381398172
 10
136.6060742885
 20
68.8702575776
 10
136.5352628733
 20
68.8107884781
 10
136.4589879243
 20
68.7604886882
 10
136.3771850104
 20
68.7194791959
 10
136.2899111039
 20
68.6876344451
 10
136.1982678177
 20
68.6653401214
 10
136.102196087
 20
68.6527108869
 10
136.0017481203
 20
68.649627871
 10
135.8981920489
 20
68.6561262192
 10
135.7914859179
 20
68.6723233093
 10
135.6816664372
 20
68.6980985391
 10
135.5701199104
 20
68.7331301895
 10
135.4568194595
 20
68.7775351038
 10
135.3417891186
 20
68.8311946889
 10
135.226492118
 20
68.8934344139
 10
135.1109199478
 20
68.9643682412
 10
134.9950811106
 20
69.0438822039
 10
134.8804650529
 20
69.1309603061
 10
134.7670871743
 20
69.2257054908
 10
134.7384248573
 20
69.2518527331
  0
LINE
  5
388
100
AcDbEntity
  8
RACCORDO
100
AcDbLine
 62
7
  6
CONTINUOUS
 10
140.9650973611
 20
117.7375561665
 11
140.9650496736
 21
117.7372350683
  0
LINE
  5
389
100
AcDbEntity
  8
RACCORDO
100
AcDbLine
 62
250
  6
CONTINUOUS
 10
140.8191105558
 20
117.9545834597
 11
140.7649777421
 21
117.5925756775
  0
LWPOLYLINE
  5
38A
100
AcDbEntity
  8
RACCORDO
100
AcDbPolyline
 62
7
  6
CONTINUOUS
 90
12
 70
0
 10
140.9650989469
 20
117.7375671525
 10
140.9651470617
 20
117.7377771911
 10
140.9650320334
 20
117.7372404039
 10
140.9640608244
 20
117.7346989955
 10
140.9616961736
 20
117.7301396132
 10
140.9574594658
 20
117.7236580779
 10
140.9509685165
 20
117.7154536554
 10
140.9418437588
 20
117.705709892
 10
140.9300308125
 20
117.6948935471
 10
140.9158881217
 20
117.683638025
 10
140.8996619077
 20
117.6722937401
 10
140.8831198399
 20
117.6620126013
  0
LWPOLYLINE
  5
38B
100
AcDbEntity
  8
RACCORDO
100
AcDbPolyline
 62
250
  6
CONTINUOUS
 90
13
 70
0
 10
145.8844439207
 20
106.7493031544
 10
145.9015096906
 20
106.7613564082
 10
145.9186165936
 20
106.7728276493
 10
145.9357500936
 20
106.7837037894
 10
145.9527852577
 20
106.7939104241
 10
145.9698180796
 20
106.8035049393
 10
145.9871613672
 20
106.8126356218
 10
146.0048247409
 20
106.8212682094
 10
146.02275487
 20
106.8293334579
 10
146.0411586307
 20
106.8368602607
 10
146.0600791302
 20
106.843788793
 10
146.0794006812
 20
106.8500022081
 10
146.0990811475
 20
106.8554113969
  0
LINE
  5
38C
100
AcDbEntity
  8
ASSI
100
AcDbLine
 62
7
  6
CONTINUOUS
 10
141.5647614259
 20
103.8367594455
 11
141.4323377738
 21
103.7464630372
  0
LWPOLYLINE
  5
38D
100
AcDbEntity
  8
RACCORDO
100
AcDbPolyline
 62
250
  6
CONTINUOUS
 90
13
 70
0
 10
150.3716345839
 20
112.8322954496
 10
150.3495598821
 20
112.8183997812
 10
150.3277818936
 20
112.8015045284
 10
150.3066409016
 20
112.7818736813
 10
150.2864672362
 20
112.7598139738
 10
150.267576113
 20
112.7356700911
 10
150.2502627078
 20
112.7098192837
 10
150.2347975442
 20
112.6826654733
 10
150.221422267
 20
112.6546329407
 10
150.2103458662
 20
112.6261596973
 10
150.2017414117
 20
112.5976906402
 10
150.195743349
 20
112.5696706015
 10
150.1924453985
 20
112.542537397
  0
LWPOLYLINE
  5
38E
100
AcDbEntity
  8
DRAFT
100
AcDbPolyline
 62
7
  6
CONTINUOUS
 90
9
 70
0
 10
161.9562118739
 20
118.1250906281
 10
162.0095690098
 20
118.157168204
 10
162.0584166566
 20
118.1914553452
 10
162.1027548144
 20
118.2279520518
 10
162.1429354032
 20
118.266940906
 10
162.178606503
 20
118.3081393256
 10
162.2087123535
 20
118.3506995638
 10
162.2331456544
 20
118.3946074986
 10
162.2532033621
 20
118.4433625561
  0
LWPOLYLINE
  5
38F
100
AcDbEntity
  8
DRAFT
100
AcDbPolyline
 62
7
  6
CONTINUOUS
 90
14
 70
0
 10
155.8382781165
 20
113.6359639469
 10
155.7847681704
 20
113.6039071895
 10
155.7357713956
 20
113.5696376839
 10
155.6912877923
 20
113.5331554301
 10
155.6509651556
 20
113.4941782903
 10
155.6151556902
 20
113.4529884022
 10
155.5849160111
 20
113.4104321794
 10
155.5603531829
 20
113.3665233131
 10
155.5413601409
 20
113.321248112
 10
155.5286723058
 20
113.2754119166
 10
155.5225963204
 20
113.2288607341
 10
155.5228255418
 20
113.1817485573
 10
155.5291754632
 20
113.1353427038
 10
155.5400374594
 20
113.0951016613
  0
LINE
  5
390
100
AcDbEntity
  8
0
100
AcDbLine
 62
250
  6
CONTINUOUS
 10
145.2180397478
 20
106.5272926285
 11
141.7011228036
 21
104.5464281699
  0
LINE
  5
391
100
AcDbEntity
  8
0
100
AcDbLine
 62
250
  6
CONTINUOUS
 10
145.6093073587
 20
106.1649699822
 11
142.0918154597
 21
104.1848781415
  0
LINE
  5
392
100
AcDbEntity
  8
RACCORDO
100
AcDbLine
 62
7
  6
CONTINUOUS
 10
145.5216788996
 20
109.4236378469
 11
145.5215677617
 21
109.4235758097
  0
LINE
  5
393
100
AcDbEntity
  8
RACCORDO
100
AcDbLine
 62
7
  6
CONTINUOUS
 10
149.4073031176
 20
111.5888348902
 11
145.5216788993
 21
109.4236378468
  0
LINE
  5
394
100
AcDbEntity
  8
RACCORDO
100
AcDbLine
 62
250
  6
CONTINUOUS
 10
149.5320788155
 20
111.5763190672
 11
145.646454599
 21
109.4111220248
  0
LINE
  5
395
100
AcDbEntity
  8
DRAFT
100
AcDbLine
 62
7
  6
CONTINUOUS
 10
160.7186752307
 20
117.6163548533
 11
154.2603975939
 21
114.0175910874
  0
LINE
  5
396
100
AcDbEntity
  8
DRAFT
100
AcDbLine
 62
7
  6
CONTINUOUS
 10
154.8851430231
 20
114.184859532
 11
161.9562118739
 21
118.1250906281
  0
LINE
  5
397
100
AcDbEntity
  8
DRAFT
100
AcDbLine
 62
7
  6
CONTINUOUS
 10
162.908083178
 20
117.5754920668
 11
155.8382781165
 21
113.6359639469
  0
LINE
  5
398
100
AcDbEntity
  8
DRAFT
100
AcDbLine
 62
7
  6
CONTINUOUS
 10
163.1935489649
 20
116.1873937767
 11
156.7352713281
 21
112.5886300108
  0
LINE
  5
399
100
AcDbEntity
  8
DRAFT
100
AcDbLine
 62
7
  6
CONTINUOUS
 10
157.3600167573
 20
112.7558984554
 11
164.4310856081
 21
116.6961295515
  0
LINE
  5
39A
100
AcDbEntity
  8
ASSI
100
AcDbLine
 62
7
  6
CONTINUOUS
 10
145.0385823579
 20
106.6309090763
 11
143.5277386684
 21
105.8184262329
  0
LWPOLYLINE
  5
39B
100
AcDbEntity
  8
RACCORDO
100
AcDbPolyline
 62
7
  6
CONTINUOUS
 90
31
 70
0
 10
145.5215677617
 20
109.4235758097
 10
145.4999137697
 20
109.4120368623
 10
145.4594732631
 20
109.3929264789
 10
145.4144517286
 20
109.3747368596
 10
145.3651743405
 20
109.3579096794
 10
145.3122809194
 20
109.3428911255
 10
145.2561318942
 20
109.3299504375
 10
145.197100533
 20
109.3193270642
 10
145.1359514026
 20
109.3112691697
 10
145.0731929234
 20
109.3059155229
 10
145.0093304988
 20
109.30337102
 10
144.9451743411
 20
109.3036932395
 10
144.8812715057
 20
109.3068738462
 10
144.8181489809
 20
109.3128718884
 10
144.7565762762
 20
109.3215648914
 10
144.697041579
 20
109.3328065451
 10
144.6400177022
 20
109.3464176807
 10
144.5861929146
 20
109.3620998617
 10
144.5361372346
 20
109.3794981276
 10
144.4899197978
 20
109.3983794658
 10
144.4475128915
 20
109.4185610038
 10
144.4092420953
 20
109.4396921498
 10
144.3752914478
 20
109.4614367722
 10
144.3456610484
 20
109.4835309108
 10
144.3204656206
 20
109.5056124252
 10
144.2999917778
 20
109.5270456824
 10
144.2844683809
 20
109.546908707
 10
144.2737837905
 20
109.5642044144
 10
144.2670337147
 20
109.5788300048
 10
144.2631999729
 20
109.5914130027
 10
144.2618644543
 20
109.599905919
  0
LINE
  5
39C
100
AcDbEntity
  8
ASSI
100
AcDbLine
 62
250
  6
CONTINUOUS
 10
143.5534378028
 20
106.0834560562
 11
143.3032335581
 21
105.9547267331
  0
LINE
  5
39D
100
AcDbEntity
  8
RACCORDO
100
AcDbLine
 62
250
  6
CONTINUOUS
 10
145.646454599
 20
109.4111220248
 11
145.592831548
 21
109.3836054153
  0
LWPOLYLINE
  5
39E
100
AcDbEntity
  8
RACCORDO
100
AcDbPolyline
 62
250
  6
CONTINUOUS
 90
7
 70
0
 10
149.8840181039
 20
111.5729249001
 10
149.9055347797
 20
111.5833931454
 10
149.9266848529
 20
111.5906365477
 10
149.9471530305
 20
111.5945470717
 10
149.9666341779
 20
111.5950663625
 10
149.9848378604
 20
111.5921866175
 10
150.0010290527
 20
111.5861242989
  0
LWPOLYLINE
  5
39F
100
AcDbEntity
  8
RACCORDO
100
AcDbPolyline
 62
250
  6
CONTINUOUS
 90
8
 70
0
 10
153.265429057
 20
109.6205405948
 10
153.2869464391
 20
109.6310090915
 10
153.3080970537
 20
109.6382525119
 10
153.3285655939
 20
109.6421628734
 10
153.3480469208
 20
109.6426818814
 10
153.3662506127
 20
109.6398017987
 10
153.3829052946
 20
109.6335655607
 10
153.3873499183
 20
109.6311756338
  0
LWPOLYLINE
  5
3A0
100
AcDbEntity
  8
RACCORDO
100
AcDbPolyline
 62
250
  6
CONTINUOUS
 90
3
 70
0
 10
145.592831548
 20
109.3836054153
 10
145.5365600807
 20
109.3587617885
 10
145.4776401969
 20
109.3365911445
  0
LINE
  5
3A1
100
AcDbEntity
  8
RACCORDO
100
AcDbLine
 62
250
  6
CONTINUOUS
 10
146.0990811475
 20
106.8554113969
 11
146.7427873281
 21
107.0656632898
  0
LINE
  5
3A2
100
AcDbEntity
  8
RACCORDO
100
AcDbLine
 62
250
  6
CONTINUOUS
 10
146.3324661469
 20
106.362247139
 11
146.9761723275
 21
106.5724990319
  0
LWPOLYLINE
  5
3A3
100
AcDbEntity
  8
RACCORDO
100
AcDbPolyline
 62
250
  6
CONTINUOUS
 90
19
 70
0
 10
146.9761723275
 20
106.5724990319
 10
146.9840756688
 20
106.5749038391
 10
146.9918014826
 20
106.5769698743
 10
146.9993497688
 20
106.5786971377
 10
147.006688638
 20
106.5800753462
 10
147.0138499797
 20
106.5811147828
 10
147.0209294621
 20
106.5818462968
 10
147.0279628631
 20
106.5822810913
 10
147.0349144049
 20
106.5824079631
 10
147.0417724213
 20
106.5822241522
 10
147.0485075333
 20
106.5817398164
 10
147.0551491201
 20
106.580944798
 10
147.0617736529
 20
106.5798058631
 10
147.0683804243
 20
106.578346084
 10
147.0749701418
 20
106.5765423886
 10
147.0816213993
 20
106.5742923265
 10
147.0883603948
 20
106.5715617479
 10
147.0951609303
 20
106.5683848027
 10
147.1020230057
 20
106.564761491
  0
LWPOLYLINE
  5
3A4
100
AcDbEntity
  8
0
100
AcDbPolyline
 62
7
  6
CONTINUOUS
 90
15
 70
0
 10
119.5051314457
 20
116.6724521619
 10
119.5356506498
 20
116.6358271323
 10
119.5669663469
 20
116.6023970231
 10
119.599078537
 20
116.5721618342
 10
119.6322702463
 20
116.5449179476
 10
119.6662584486
 20
116.5208689813
 10
119.7001940649
 20
116.5006257893
 10
119.7341347823
 20
116.4842634755
 10
119.7680229136
 20
116.4717069359
 10
119.8008363188
 20
116.4633417127
 10
119.8325003491
 20
116.4593050587
 10
119.8630896531
 20
116.4594597211
 10
119.8918060365
 20
116.4637794833
 10
119.9186062714
 20
116.4723604748
 10
119.9387657474
 20
116.4821904473
  0
LINE
  5
3A5
100
AcDbEntity
  8
0
100
AcDbLine
 62
7
  6
CONTINUOUS
 10
126.181912883
 20
113.3710564914
 11
126.306953392
 21
113.2023388585
  0
LINE
  5
3A6
100
AcDbEntity
  8
0
100
AcDbLine
 62
7
  6
CONTINUOUS
 10
126.306953392
 20
113.2023388585
 11
126.3425623749
 21
113.1540002117
  0
LINE
  5
3A7
100
AcDbEntity
  8
DRAFT
100
AcDbLine
 62
7
  6
CONTINUOUS
 10
126.8728341928
 20
112.4184329347
 11
127.0312001121
 21
112.1928548674
  0
LINE
  5
3A8
100
AcDbEntity
  8
DRAFT
100
AcDbLine
 62
7
  6
CONTINUOUS
 10
127.0312001121
 20
112.1928548674
 11
127.1831392208
 21
111.9737716973
  0
LINE
  5
3A9
100
AcDbEntity
  8
DRAFT
100
AcDbLine
 62
7
  6
CONTINUOUS
 10
127.1831392208
 20
111.9737716973
 11
127.227525357
 21
111.909286065
  0
LWPOLYLINE
  5
3AA
100
AcDbEntity
  8
ASSI
100
AcDbPolyline
 62
250
  6
CONTINUOUS
 90
16
 70
0
 10
141.8671438991
 20
96.9910020348
 10
141.8632773381
 20
97.0336303182
 10
141.8556522069
 20
97.0780647828
 10
141.8443519172
 20
97.1238191887
 10
141.8295000992
 20
97.1703928473
 10
141.8112592519
 20
97.2172760921
 10
141.7898289675
 20
97.2639558562
 10
141.7654437397
 20
97.3099213047
 10
141.7383704066
 20
97.354669405
 10
141.7089052388
 20
97.397710426
 10
141.6773706733
 20
97.4385733357
 10
141.6441118015
 20
97.4768109273
 10
141.60949261
 20
97.5120047012
 10
141.5738919629
 20
97.5437694861
 10
141.5376994528
 20
97.5717576482
 10
141.5013111598
 20
97.5956628736
  0
LINE
  5
3AB
100
AcDbEntity
  8
RACCORDO
100
AcDbLine
 62
7
  6
CONTINUOUS
 10
138.5072229003
 20
126.5316318381
 11
138.5070948541
 21
126.5336726074
  0
LWPOLYLINE
  5
3AC
100
AcDbEntity
  8
RACCORDO
100
AcDbPolyline
 62
250
  6
CONTINUOUS
 90
15
 70
0
 10
138.5070948541
 20
126.5336726074
 10
138.5059721723
 20
126.5605235667
 10
138.5084312937
 20
126.6360350231
 10
138.5191436273
 20
126.7112663976
 10
138.5380287633
 20
126.7859167163
 10
138.564992098
 20
126.859690595
 10
138.5999487398
 20
126.9323327117
 10
138.6427863401
 20
127.0035303269
 10
138.6933223376
 20
127.07291016
 10
138.7513830814
 20
127.1402512957
 10
138.8166477877
 20
127.2052814925
 10
138.8885805936
 20
127.2675909508
 10
138.9667321004
 20
127.3269223795
 10
139.0508134322
 20
127.3831467481
 10
139.1404674301
 20
127.4360800985
  0
LINE
  5
3AD
100
AcDbEntity
  8
ASSI
100
AcDbLine
 62
7
  6
CONTINUOUS
 10
140.2302562458
 20
108.1373787374
 11
140.2302562458
 21
109.4071763109
  0
LINE
  5
3AE
100
AcDbEntity
  8
RACCORDO
100
AcDbLine
 62
250
  6
CONTINUOUS
 10
140.6898853211
 20
126.9215584974
 11
140.6898853211
 21
126.9525248879
  0
LINE
  5
3AF
100
AcDbEntity
  8
RACCORDO
100
AcDbLine
 62
7
  6
CONTINUOUS
 10
141.5647614259
 20
104.5260674245
 11
141.5647614259
 21
103.6700032802
  0
LINE
  5
3B0
100
AcDbEntity
  8
RACCORDO
100
AcDbLine
 62
7
  6
CONTINUOUS
 10
141.5737591301
 20
108.6069399785
 11
141.5737591301
 21
108.0942553457
  0
LINE
  5
3B1
100
AcDbEntity
  8
RACCORDO
100
AcDbLine
 62
250
  6
CONTINUOUS
 10
142.3674327885
 20
123.9443297181
 11
142.3674327885
 21
124.2986618039
  0
LINE
  5
3B2
100
AcDbEntity
  8
RACCORDO
100
AcDbLine
 62
250
  6
CONTINUOUS
 10
142.3674327885
 20
125.8388801675
 11
142.3674327885
 21
126.458931795
  0
LWPOLYLINE
  5
3B3
100
AcDbEntity
  8
ASSI
100
AcDbPolyline
 62
250
  6
CONTINUOUS
 90
16
 70
0
 10
141.526563718
 20
96.4105876594
 10
141.444069569
 20
93.9150216886
 10
141.3742979803
 20
91.499365235
 10
141.3172489518
 20
89.1636182985
 10
141.2738317992
 20
86.9287049366
 10
141.2431372068
 20
84.7737010918
 10
141.2224372275
 20
82.6358345918
 10
141.2106056759
 20
80.5126782047
 10
141.2087687375
 20
78.4066591624
 10
141.2175770217
 20
76.2622869871
 10
141.236088654
 20
74.0742650585
 10
141.2652455089
 20
71.847889997
 10
141.3085238195
 20
69.5435611862
 10
141.36708233
 20
67.1480784206
 10
141.4397622962
 20
64.6746419057
 10
141.526563718
 20
62.1232516414
  0
LWPOLYLINE
  5
3B4
100
AcDbEntity
  8
ASSI
100
AcDbPolyline
 62
250
  6
CONTINUOUS
 90
16
 70
0
 10
140.8259936585
 20
96.4314605272
 10
140.7416298035
 20
93.9325433527
 10
140.6721584158
 20
91.5146399532
 10
140.6164729625
 20
89.1772348673
 10
140.5738553995
 20
86.9405181917
 10
140.5427236989
 20
84.783176359
 10
140.5215679598
 20
82.6429159025
 10
140.510205769
 20
80.5178942
 10
140.5085212042
 20
78.4098995614
 10
140.5167029724
 20
76.2629883221
 10
140.5353936182
 20
74.0728671874
 10
140.5652240293
 20
71.8446988021
 10
140.6077392462
 20
69.5375379717
 10
140.664593939
 20
67.1384769611
 10
140.7368856913
 20
64.6622505153
 10
140.8259936585
 20
62.1098028515
  0
LINE
  5
3B5
100
AcDbEntity
  8
RACCORDO
100
AcDbLine
 62
7
  6
CONTINUOUS
 10
142.8368386072
 20
126.484158174
 11
142.8367692636
 21
126.4830648647
  0
LWPOLYLINE
  5
3B6
100
AcDbEntity
  8
RACCORDO
100
AcDbPolyline
 62
7
  6
CONTINUOUS
 90
14
 70
0
 10
142.8368288104
 20
126.4839669382
 10
142.8362428247
 20
126.475617244
 10
142.8268731742
 20
126.4094453618
 10
142.8093898021
 20
126.3440595768
 10
142.7836813689
 20
126.2786635585
 10
142.7495752433
 20
126.2132405382
 10
142.7071965825
 20
126.1483969472
 10
142.6566456334
 20
126.084512446
 10
142.5981125929
 20
126.0219006828
 10
142.5321050092
 20
125.9610944893
 10
142.4594205462
 20
125.9027314589
 10
142.3807547461
 20
125.8471935968
 10
142.2966307211
 20
125.7946968727
 10
142.2587412422
 20
125.7730203952
  0
LWPOLYLINE
  5
3B7
100
AcDbEntity
  8
0
100
AcDbPolyline
 62
7
  6
CONTINUOUS
 90
25
 70
0
 10
142.2524649516
 20
103.9678218618
 10
142.2474005093
 20
103.930974605
 10
142.2455780603
 20
103.8927022246
 10
142.2469976046
 20
103.8530047205
 10
142.2517201788
 20
103.8115591321
 10
142.2596847462
 20
103.7686884201
 10
142.2707081977
 20
103.7253614662
 10
142.2849019809
 20
103.6814439122
 10
142.3021546481
 20
103.6370701162
 10
142.3219487467
 20
103.5936120346
 10
142.3443346295
 20
103.5511647913
 10
142.3692619438
 20
103.5096332623
 10
142.3960621787
 20
103.4701040314
 10
142.4247785621
 20
103.4326233094
 10
142.4553678661
 20
103.3971448855
 10
142.4870318964
 20
103.364616711
 10
142.5198453015
 20
103.3350898364
 10
142.5537334329
 20
103.3085132113
 10
142.5876741503
 20
103.2856816355
 10
142.6216097666
 20
103.2667368284
 10
142.6555979688
 20
103.2515370707
 10
142.6887896782
 20
103.2404520033
 10
142.7209018682
 20
103.2336048401
 10
142.7522175653
 20
103.2308723673
 10
142.7827367695
 20
103.2322545848
  0
LWPOLYLINE
  5
3B8
100
AcDbEntity
  8
ASSI
100
AcDbPolyline
 62
250
  6
CONTINUOUS
 90
4
 70
0
 10
130.2925574687
 20
75.1752559472
 10
130.2905901687
 20
75.1704022162
 10
130.2695981375
 20
75.098841092
 10
130.2545058239
 20
75.0221945008
  0
LWPOLYLINE
  5
3B9
100
AcDbEntity
  8
RACCORDO
100
AcDbPolyline
 62
7
  6
CONTINUOUS
 90
25
 70
0
 10
147.1996309975
 20
106.5860286991
 10
147.2169796347
 20
106.6055052869
 10
147.2330669483
 20
106.6240217744
 10
147.2478613424
 20
106.6416212956
 10
147.2612300182
 20
106.6583964648
 10
147.2732536875
 20
106.6743483226
 10
147.2842255506
 20
106.6893800094
 10
147.294149895
 20
106.7035144631
 10
147.3029880761
 20
106.7168199821
 10
147.3109703811
 20
106.7292548187
 10
147.3181042976
 20
106.7408463829
 10
147.3243586871
 20
106.7516444874
 10
147.3299046493
 20
106.761624444
 10
147.3347443676
 20
106.7708045735
 10
147.3388586382
 20
106.7792316391
 10
147.3423819544
 20
106.7869032684
 10
147.3453150033
 20
106.7938358471
 10
147.3476384221
 20
106.8000543482
 10
147.3494492391
 20
106.8055467081
 10
147.3507407609
 20
106.8103210881
 10
147.3514972103
 20
106.8143931843
 10
147.351793101
 20
106.8177412163
 10
147.3516405829
 20
106.8203546466
 10
147.3509954283
 20
106.8222466549
 10
147.349842572
 20
106.8234208823
  0
LWPOLYLINE
  5
3BA
100
AcDbEntity
  8
CURVE
100
AcDbPolyline
 62
250
  6
CONTINUOUS
 90
56
 70
0
 10
117.4267315756
 20
80.1514678199
 10
117.4380776557
 20
80.1613595957
 10
117.4498626442
 20
80.1704793981
 10
117.4620909651
 20
80.1788340101
 10
117.4747670423
 20
80.1864302148
 10
117.4878952996
 20
80.1932747954
 10
117.5014759189
 20
80.1993717876
 10
117.5154921137
 20
80.2047142381
 10
117.5299228554
 20
80.2092924463
 10
117.5447471156
 20
80.2130967115
 10
117.5599438655
 20
80.2161173332
 10
117.5754928367
 20
80.2183463074
 10
117.5913768009
 20
80.2197824173
 10
117.6075792895
 20
80.2204261425
 10
117.6240838343
 20
80.2202779628
 10
117.6408739668
 20
80.2193383579
 10
117.6579326837
 20
80.2176082731
 10
117.6752408411
 20
80.2150905154
 10
117.6927787604
 20
80.2117883573
 10
117.7105267628
 20
80.2077050716
 10
117.7284651694
 20
80.2028439306
 10
117.7465742264
 20
80.1972089834
 10
117.7648338792
 20
80.1908073846
 10
117.7832239981
 20
80.1836470653
 10
117.8017244532
 20
80.1757359567
 10
117.8203151149
 20
80.1670819899
 10
117.8389757639
 20
80.1576937655
 10
117.8576858226
 20
80.1475825628
 10
117.8764246239
 20
80.1367603308
 10
117.8951715008
 20
80.1252390183
 10
117.9139057861
 20
80.1130305742
 10
117.9326068804
 20
80.1001475187
 10
117.9512544548
 20
80.0866046568
 10
117.9698282484
 20
80.0724173646
 10
117.9883079998
 20
80.0576010184
 10
118.0066734481
 20
80.0421709945
 10
118.0249043543
 20
80.026143409
 10
118.0429805685
 20
80.009537339
 10
118.0608819633
 20
79.9923726014
 10
118.078588411
 20
79.9746690131
 10
118.096079784
 20
79.9564463912
 10
118.1133365522
 20
79.9377242893
 10
118.1303415754
 20
79.9185212078
 10
118.1470783106
 20
79.8988553836
 10
118.163530215
 20
79.8787450539
 10
118.1796807458
 20
79.8582084556
 10
118.1955122382
 20
79.8372668862
 10
118.2110025392
 20
79.815953885
 10
118.2261283737
 20
79.7943060514
 10
118.2408664669
 20
79.7723599853
 10
118.2551935438
 20
79.7501522862
 10
118.2690911925
 20
79.7277113274
 10
118.2825604547
 20
79.7050325763
 10
118.295607235
 20
79.6821032738
 10
118.3082374382
 20
79.658910661
 10
118.3204569689
 20
79.6354419788
  0
LINE
  5
3BB
100
AcDbEntity
  8
RACCORDO
100
AcDbLine
 62
250
  6
CONTINUOUS
 10
145.6700495626
 20
106.568381332
 11
145.8844439207
 21
106.7493031544
  0
LINE
  5
3BC
100
AcDbEntity
  8
RACCORDO
100
AcDbLine
 62
250
  6
CONTINUOUS
 10
145.9578211734
 20
106.0756374998
 11
146.2145668252
 21
106.2922984774
  0
LWPOLYLINE
  5
3BD
100
AcDbEntity
  8
RACCORDO
100
AcDbPolyline
 62
250
  6
CONTINUOUS
 90
13
 70
0
 10
146.2145668252
 20
106.2922984774
 10
146.2239545234
 20
106.3000435175
 10
146.2333486272
 20
106.3074243168
 10
146.2427491366
 20
106.3144408752
 10
146.2521055799
 20
106.321073578
 10
146.2614684288
 20
106.3273420399
 10
146.2709890979
 20
106.3333051059
 10
146.2806908004
 20
106.3390024182
 10
146.2905503232
 20
106.3443943345
 10
146.3006494417
 20
106.349420773
 10
146.3110154144
 20
106.3540617062
 10
146.3216209828
 20
106.3583371616
 10
146.3324661469
 20
106.362247139
  0
LINE
  5
3BE
100
AcDbEntity
  8
RACCORDO
100
AcDbLine
 62
7
  6
CONTINUOUS
 10
145.9578211734
 20
105.562952867
 11
147.1483085236
 21
106.5380431703
  0
LWPOLYLINE
  5
3BF
100
AcDbEntity
  8
RACCORDO
100
AcDbPolyline
 62
250
  6
CONTINUOUS
 90
12
 70
0
 10
153.4384478842
 20
109.1312819104
 10
153.4676974723
 20
109.1510112909
 10
153.4939062445
 20
109.1718950854
 10
153.5169269475
 20
109.1937490319
 10
153.5366056957
 20
109.2163352256
 10
153.5528992589
 20
109.2395187552
 10
153.565808834
 20
109.2632783934
 10
153.5752476222
 20
109.2874736543
 10
153.5811203316
 20
109.3118874048
 10
153.5833773725
 20
109.3363883757
 10
153.5819858052
 20
109.360753519
 10
153.5816308277
 20
109.3632780661
  0
LINE
  5
3C0
100
AcDbEntity
  8
RACCORDO
100
AcDbLine
 62
250
  6
CONTINUOUS
 10
155.5473368348
 20
109.3076531888
 11
155.5084038261
 21
109.2826237903
  0
LWPOLYLINE
  5
3C1
100
AcDbEntity
  8
RACCORDO
100
AcDbPolyline
 62
250
  6
CONTINUOUS
 90
13
 70
0
 10
155.4939887555
 20
109.874712349
 10
155.4719132904
 20
109.8608161442
 10
155.450134724
 20
109.8439202856
 10
155.4289933576
 20
109.8242888482
 10
155.4088195317
 20
109.8022286526
 10
155.3899284396
 20
109.7780844408
 10
155.372615209
 20
109.7522334798
 10
155.3571503347
 20
109.7250797273
 10
155.3437754146
 20
109.6970474707
 10
155.3326993692
 20
109.6685746587
 10
155.3240952252
 20
109.6401061508
 10
155.3180973981
 20
109.6120867706
 10
155.3147995702
 20
109.5849542964
  0
LWPOLYLINE
  5
3C2
100
AcDbEntity
  8
RACCORDO
100
AcDbPolyline
 62
250
  6
CONTINUOUS
 90
12
 70
0
 10
153.2651603285
 20
109.4208845881
 10
153.2800198178
 20
109.4300096492
 10
153.2932219343
 20
109.4396134409
 10
153.3047666778
 20
109.4496959631
 10
153.3146861901
 20
109.4603192955
 10
153.3229483295
 20
109.4714213584
 10
153.3294566713
 20
109.4828159126
 10
153.3342061744
 20
109.4945209682
 10
153.3372018799
 20
109.506518515
 10
153.3383624865
 20
109.5185682842
 10
153.3376766947
 20
109.5306554254
 10
153.3351558039
 20
109.5427947888
  0
LWPOLYLINE
  5
3C3
100
AcDbEntity
  8
DRAFT
100
AcDbPolyline
 62
7
  6
CONTINUOUS
 90
9
 70
0
 10
164.4310856081
 20
116.6961295515
 10
164.4844427439
 20
116.7282071273
 10
164.5332903908
 20
116.7624942685
 10
164.5776285486
 20
116.7989909751
 10
164.6178091374
 20
116.8379798294
 10
164.6534802372
 20
116.8791782489
 10
164.6835860877
 20
116.9217384872
 10
164.7080193886
 20
116.965646422
 10
164.7280770963
 20
117.0144014794
  0
LWPOLYLINE
  5
3C4
100
AcDbEntity
  8
DRAFT
100
AcDbPolyline
 62
7
  6
CONTINUOUS
 90
9
 70
0
 10
166.9059593422
 20
115.2671684748
 10
166.9593164781
 20
115.2992460507
 10
167.0081641249
 20
115.3335331919
 10
167.0525022827
 20
115.3700298985
 10
167.0926828716
 20
115.4090187527
 10
167.1283539714
 20
115.4502171723
 10
167.1584598219
 20
115.4927774105
 10
167.1828931227
 20
115.5366853453
 10
167.2029508304
 20
115.5854404028
  0
LWPOLYLINE
  5
3C5
100
AcDbEntity
  8
DRAFT
100
AcDbPolyline
 62
7
  6
CONTINUOUS
 90
14
 70
0
 10
158.3131518507
 20
112.2070028702
 10
158.2596419045
 20
112.1749461128
 10
158.2106451298
 20
112.1406766073
 10
158.1661615265
 20
112.1041943535
 10
158.1258388897
 20
112.0652172136
 10
158.0900294244
 20
112.0240273255
 10
158.0597897453
 20
111.9814711028
 10
158.035226917
 20
111.9375622364
 10
158.016233875
 20
111.8922870354
 10
158.00354604
 20
111.8464508399
 10
157.9974700545
 20
111.7998996575
 10
157.997699276
 20
111.7527874807
 10
158.0040491973
 20
111.7063816272
 10
158.0149111936
 20
111.6661405846
  0
LINE
  5
3C6
100
AcDbEntity
  8
0
100
AcDbLine
 62
7
  6
CONTINUOUS
 10
146.2549610456
 20
105.2751553778
 11
145.1131704029
 21
104.6004739715
  0
LINE
  5
3C7
100
AcDbEntity
  8
RACCORDO
100
AcDbLine
 62
7
  6
CONTINUOUS
 10
155.378642492
 20
109.2922858978
 11
150.6190086905
 21
106.4948456286
  0
LINE
  5
3C8
100
AcDbEntity
  8
RACCORDO
100
AcDbLine
 62
250
  6
CONTINUOUS
 10
155.5084038261
 20
109.2826237903
 11
150.7487700264
 21
106.4851835221
  0
LINE
  5
3C9
100
AcDbEntity
  8
0
100
AcDbLine
 62
7
  6
CONTINUOUS
 10
145.1131704029
 20
104.6004739715
 11
143.5664336814
 21
103.6911551969
  0
LINE
  5
3CA
100
AcDbEntity
  8
0
100
AcDbLine
 62
7
  6
CONTINUOUS
 10
143.5664336814
 20
103.6911551969
 11
142.7827367695
 21
103.2322545848
  0
LINE
  5
3CB
100
AcDbEntity
  8
CURVE
100
AcDbLine
 62
250
  6
CONTINUOUS
 10
113.0775331976
 20
83.6577233209
 11
112.5066150665
 21
83.3263794825
  0
LINE
  5
3CC
100
AcDbEntity
  8
CURVE
100
AcDbLine
 62
250
  6
CONTINUOUS
 10
113.3600921007
 20
83.8187418056
 11
113.6245470645
 21
83.9714207915
  0
LINE
  5
3CD
100
AcDbEntity
  8
CURVE
100
AcDbLine
 62
250
  6
CONTINUOUS
 10
112.6820888355
 20
83.0342263298
 11
113.1367470347
 21
83.2967051413
  0
LINE
  5
3CE
100
AcDbEntity
  8
CURVE
100
AcDbLine
 62
250
  6
CONTINUOUS
 10
112.6395087235
 20
84.7643745316
 11
112.4735823056
 21
84.6685937928
  0
LINE
  5
3CF
100
AcDbEntity
  8
CURVE
100
AcDbLine
 62
250
  6
CONTINUOUS
 10
113.4177279269
 20
83.4612991478
 11
113.9648748971
 21
83.7771383033
  0
LINE
  5
3D0
100
AcDbEntity
  8
RACCORDO
100
AcDbLine
 62
7
  6
CONTINUOUS
 10
150.1852077754
 20
104.8621940856
 11
147.5374410327
 21
103.3672239256
  0
LINE
  5
3D1
100
AcDbEntity
  8
DRAFT
100
AcDbLine
 62
7
  6
CONTINUOUS
 10
143.8403734644
 20
103.1195334206
 11
143.1714736524
 21
102.7423077775
  0
LWPOLYLINE
  5
3D2
100
AcDbEntity
  8
RACCORDO
100
AcDbPolyline
 62
7
  6
CONTINUOUS
 90
31
 70
0
 10
150.61888795
 20
106.4947745386
 10
150.5979430386
 20
106.4830068868
 10
150.5588349013
 20
106.4635191775
 10
150.5150497775
 20
106.444833747
 10
150.4668907227
 20
106.4274064624
 10
150.4149676324
 20
106.4116989475
 10
150.359627507
 20
106.3979946766
 10
150.3012328605
 20
106.3865472326
 10
150.2405232583
 20
106.3776220294
 10
150.1779978488
 20
106.3713745067
 10
150.1141626274
 20
106.3679267182
 10
150.0498213621
 20
106.367356597
 10
149.9855181198
 20
106.3696735396
 10
149.9217971249
 20
106.3748530489
 10
149.8594573581
 20
106.3827888652
 10
149.7990003646
 20
106.3933471871
 10
149.7409176692
 20
106.4063594355
 10
149.6859370404
 20
106.4215346179
 10
149.6346842658
 20
106.4385140366
 10
149.5872056847
 20
106.4570761233
 10
149.5434117165
 20
106.4770764565
 10
149.5036717198
 20
106.4981744537
 10
149.4682012252
 20
106.5200450704
 10
149.4369802754
 20
106.5424743922
 10
149.4101541318
 20
106.5651423603
 10
149.3881585706
 20
106.5873560084
 10
149.3713928773
 20
106.6080555371
 10
149.3597960877
 20
106.6261577475
 10
149.35242596
 20
106.6415177508
 10
149.3482353651
 20
106.6546814747
 10
149.3467097033
 20
106.6640756601
  0
LINE
  5
3D3
100
AcDbEntity
  8
RACCORDO
100
AcDbLine
 62
250
  6
CONTINUOUS
 10
149.3795361119
 20
107.2556875457
 11
153.2651603285
 21
109.4208845881
  0
LINE
  5
3D4
100
AcDbEntity
  8
DRAFT
100
AcDbLine
 62
7
  6
CONTINUOUS
 10
165.3829569122
 20
116.1465309902
 11
158.3131518507
 21
112.2070028702
  0
LINE
  5
3D5
100
AcDbEntity
  8
RACCORDO
100
AcDbLine
 62
250
  6
CONTINUOUS
 10
149.5528236677
 20
106.9660848679
 11
153.4384478842
 21
109.1312819104
  0
LINE
  5
3D6
100
AcDbEntity
  8
DRAFT
100
AcDbLine
 62
7
  6
CONTINUOUS
 10
165.668422699
 20
114.7584327
 11
159.2101450622
 21
111.1596689341
  0
LINE
  5
3D7
100
AcDbEntity
  8
DRAFT
100
AcDbLine
 62
7
  6
CONTINUOUS
 10
159.8348904914
 20
111.3269373787
 11
166.9059593422
 21
115.2671684748
  0
LINE
  5
3D8
100
AcDbEntity
  8
DRAFT
100
AcDbLine
 62
7
  6
CONTINUOUS
 10
167.8578306463
 20
114.7175699136
 11
160.7880255848
 21
110.7780417936
  0
LINE
  5
3D9
100
AcDbEntity
  8
0
100
AcDbLine
 62
7
  6
CONTINUOUS
 10
145.006952723
 20
105.5037541273
 11
142.2524649516
 21
103.9678218618
  0
LINE
  5
3DA
100
AcDbEntity
  8
0
100
AcDbLine
 62
7
  6
CONTINUOUS
 10
145.7810444866
 20
105.9325493804
 11
145.006952723
 21
105.5037541273
  0
LINE
  5
3DB
100
AcDbEntity
  8
RACCORDO
100
AcDbLine
 62
250
  6
CONTINUOUS
 10
150.7487700264
 20
106.4851835221
 11
150.6964596704
 21
106.4568668285
  0
LINE
  5
3DC
100
AcDbEntity
  8
RACCORDO
100
AcDbLine
 62
7
  6
CONTINUOUS
 10
153.5436472381
 20
108.4365945581
 11
149.7483112933
 21
106.4047030442
  0
LWPOLYLINE
  5
3DD
100
AcDbEntity
  8
RACCORDO
100
AcDbPolyline
 62
250
  6
CONTINUOUS
 90
3
 70
0
 10
150.6964596704
 20
106.4568668285
 10
150.6413796904
 20
106.4311841325
 10
150.5835300863
 20
106.408135434
  0
LWPOLYLINE
  5
3DE
100
AcDbEntity
  8
RACCORDO
100
AcDbPolyline
 62
250
  6
CONTINUOUS
 90
21
 70
0
 10
150.5835300863
 20
106.408135434
 10
150.5226183614
 20
106.3876541054
 10
150.4589370125
 20
106.3698067744
 10
150.3933635297
 20
106.3547933236
 10
150.3258005063
 20
106.3426272442
 10
150.2563453489
 20
106.3332950451
 10
150.1861677675
 20
106.3269561359
 10
150.1152653445
 20
106.3236618601
 10
150.0436404974
 20
106.3233608743
 10
149.9724701885
 20
106.3260585584
 10
149.9017541165
 20
106.3318055665
 10
149.8314925826
 20
106.3405512445
 10
149.7628634532
 20
106.35214901
 10
149.6959010241
 20
106.366645453
 10
149.6305709994
 20
106.3839939835
 10
149.5679483576
 20
106.4039082488
 10
149.5080745958
 20
106.4264317278
 10
149.4509082168
 20
106.4515209414
 10
149.3973997081
 20
106.4787591002
 10
149.3476111255
 20
106.508181705
 10
149.3014804132
 20
106.5397532548
  0
LINE
  5
3DF
100
AcDbEntity
  8
ASSI
100
AcDbLine
 62
250
  6
CONTINUOUS
 10
140.8259936585
 20
96.4314605272
 11
110.0660919842
 21
114.1918422418
  0
LINE
  5
3E0
100
AcDbEntity
  8
ASSI
100
AcDbLine
 62
250
  6
CONTINUOUS
 10
141.501311159
 20
97.5956628731
 11
110.7297237615
 21
115.3627917779
  0
LINE
  5
3E1
100
AcDbEntity
  8
ASSI
100
AcDbLine
 62
7
  6
CONTINUOUS
 10
129.6994047814
 20
115.3511483328
 11
129.8330827082
 21
115.1704958135
  0
LINE
  5
3E2
100
AcDbEntity
  8
ASSI
100
AcDbLine
 62
7
  6
CONTINUOUS
 10
129.8330827082
 20
115.1704958135
 11
129.8711419099
 21
115.1187277303
  0
LWPOLYLINE
  5
3E3
100
AcDbEntity
  8
ASSI
100
AcDbPolyline
 62
7
  6
CONTINUOUS
 90
10
 70
0
 10
130.3450584689
 20
114.4613337277
 10
130.4916504941
 20
114.2530596709
 10
130.6372279857
 20
114.0438426007
 10
130.7817909438
 20
113.8336825169
 10
130.9253514064
 20
113.6225615105
 10
131.0678973355
 20
113.4104974906
 10
131.2093926165
 20
113.1975441845
 10
131.3498252111
 20
112.9837195011
 10
131.4892071576
 20
112.7690055314
 10
131.627538456
 20
112.5534022755
  0
LWPOLYLINE
  5
3E4
100
AcDbEntity
  8
RACCORDO
100
AcDbPolyline
 62
7
  6
CONTINUOUS
 90
12
 70
0
 10
139.0859406533
 20
117.7328721958
 10
139.0812604991
 20
117.757643223
 10
139.0731206027
 20
117.7870699696
 10
139.0621036146
 20
117.8162638874
 10
139.0481868672
 20
117.8449113648
 10
139.0314323659
 20
117.8726753902
 10
139.011871255
 20
117.899364879
 10
138.9895807591
 20
117.9247538614
 10
138.9647210113
 20
117.948584434
 10
138.9374088403
 20
117.9707306258
 10
138.9077120423
 20
117.9911150034
 10
138.8916929132
 20
118.0007863058
  0
LINE
  5
3E5
100
AcDbEntity
  8
RACCORDO
100
AcDbLine
 62
250
  6
CONTINUOUS
 10
139.0479582238
 20
116.8062237213
 11
138.9427588699
 21
117.5009110736
  0
LINE
  5
3E6
100
AcDbEntity
  8
RACCORDO
100
AcDbLine
 62
7
  6
CONTINUOUS
 10
139.1933952656
 20
117.0233392093
 11
139.0858731841
 21
117.7333647692
  0
LINE
  5
3E7
100
AcDbEntity
  8
RACCORDO
100
AcDbLine
 62
7
  6
CONTINUOUS
 10
144.2619778815
 20
109.5988031798
 11
144.2618586614
 21
109.5999404895
  0
LWPOLYLINE
  5
3E8
100
AcDbEntity
  8
RACCORDO
100
AcDbPolyline
 62
250
  6
CONTINUOUS
 90
13
 70
0
 10
144.2618586614
 20
109.5999404895
 10
144.2611938793
 20
109.6077753837
 10
144.2611480231
 20
109.6373687464
 10
144.2650350013
 20
109.6670189786
 10
144.2729122803
 20
109.6965661662
 10
144.2848087992
 20
109.7258178615
 10
144.3008406748
 20
109.7547814444
 10
144.321185165
 20
109.7834102676
 10
144.3457837265
 20
109.8113255098
 10
144.3743041627
 20
109.8380495
 10
144.4064655694
 20
109.8633223119
 10
144.4421770236
 20
109.8870633453
 10
144.4812302659
 20
109.9091101335
  0
LINE
  5
3E9
100
AcDbEntity
  8
RACCORDO
100
AcDbLine
 62
250
  6
CONTINUOUS
 10
144.5181599466
 20
109.3868424392
 11
144.4812302573
 21
109.9091102555
  0
LINE
  5
3EA
100
AcDbEntity
  8
RACCORDO
100
AcDbLine
 62
7
  6
CONTINUOUS
 10
142.0427567147
 20
124.4902602973
 11
142.042681491
 21
124.4914475005
  0
LWPOLYLINE
  5
3EB
100
AcDbEntity
  8
RACCORDO
100
AcDbPolyline
 62
250
  6
CONTINUOUS
 90
15
 70
0
 10
142.042681491
 20
124.4914475005
 10
142.0418278272
 20
124.5084585673
 10
142.0430940849
 20
124.5837112837
 10
142.0525224052
 20
124.6585011418
 10
142.0700118055
 20
124.7327053034
 10
142.0956271666
 20
124.8064687817
 10
142.1294966323
 20
124.8796936854
 10
142.1715800298
 20
124.9518674726
 10
142.2217546816
 20
125.0225010054
 10
142.2800024548
 20
125.0913959425
 10
142.3460410445
 20
125.1581756619
 10
142.4191095323
 20
125.2221445036
 10
142.4986318176
 20
125.2829517972
 10
142.5843880734
 20
125.340536482
 10
142.6760016825
 20
125.394699299
  0
LINE
  5
3EC
100
AcDbEntity
  8
RACCORDO
100
AcDbLine
 62
250
  6
CONTINUOUS
 10
143.0683153644
 20
123.5662117057
 11
143.0683153644
 21
124.7224920568
  0
LINE
  5
3ED
100
AcDbEntity
  8
RACCORDO
100
AcDbLine
 62
7
  6
CONTINUOUS
 10
145.9578211734
 20
106.0756374998
 11
145.9578211734
 21
105.562952867
  0
LINE
  5
3EE
100
AcDbEntity
  8
RACCORDO
100
AcDbLine
 62
7
  6
CONTINUOUS
 10
146.3723938296
 20
124.4431269278
 11
146.3723031478
 21
124.4416915597
  0
LWPOLYLINE
  5
3EF
100
AcDbEntity
  8
RACCORDO
100
AcDbPolyline
 62
7
  6
CONTINUOUS
 90
14
 70
0
 10
146.3723729669
 20
124.4428355524
 10
146.3717709316
 20
124.4342110716
 10
146.3624040228
 20
124.3680455569
 10
146.3449190242
 20
124.302665779
 10
146.3192070953
 20
124.237271773
 10
146.2850952733
 20
124.171848621
 10
146.2427132339
 20
124.1070049462
 10
146.1921637681
 20
124.0431210555
 10
146.1336301588
 20
123.9805112288
 10
146.0676231375
 20
123.9197074296
 10
145.9949424849
 20
123.8613480927
 10
145.9162805944
 20
123.8058144103
 10
145.8321593546
 20
123.753320817
 10
145.7942739841
 20
123.7316467826
  0
LWPOLYLINE
  5
3F0
100
AcDbEntity
  8
ASSI
100
AcDbPolyline
 62
250
  6
CONTINUOUS
 90
9
 70
0
 10
141.8671438991
 20
61.9226363418
 10
141.8632772331
 20
61.8800873215
 10
141.8556518909
 20
61.8402765567
 10
141.8443513204
 20
61.8036397158
 10
141.829499189
 20
61.7705777334
 10
141.811258031
 20
61.7414524228
 10
141.789827468
 20
61.7165825163
 10
141.765442025
 20
61.6962401773
 10
141.7427414739
 20
61.6827522659
  0
LWPOLYLINE
  5
3F1
100
AcDbEntity
  8
DRAFT
100
AcDbPolyline
 62
7
  6
CONTINUOUS
 90
35
 70
0
 10
152.3537084255
 20
124.1592068627
 10
152.3650877123
 20
124.2015477504
 10
152.3710513158
 20
124.2480843316
 10
152.3707158108
 20
124.295177351
 10
152.3642660303
 20
124.3415595741
 10
152.3515399696
 20
124.386946406
 10
152.3326996335
 20
124.4316224415
 10
152.3084158702
 20
124.4751742301
 10
152.2786563182
 20
124.5177281805
 10
152.243453339
 20
124.5591578839
 10
152.203574866
 20
124.5986706639
 10
152.1591164056
 20
124.6361423469
 10
152.1099824514
 20
124.6716971063
 10
152.0566544174
 20
124.704914786
 10
151.9990487557
 20
124.7357488294
 10
151.9372490143
 20
124.764245793
 10
151.8719872513
 20
124.79012519
 10
151.8030462815
 20
124.8134433913
 10
151.7306432901
 20
124.834144026
 10
151.6561618903
 20
124.8517774947
 10
151.5798243285
 20
124.8663231986
 10
151.5014083583
 20
124.8778017364
 10
151.4216308539
 20
124.885825305
 10
151.3399872817
 20
124.8903070819
 10
151.2569821752
 20
124.8913338896
 10
151.1748460098
 20
124.8887783929
 10
151.0938447157
 20
124.8824641839
 10
151.0137123626
 20
124.8725676705
 10
150.9358816353
 20
124.8594907406
 10
150.8603257353
 20
124.8431727918
 10
150.7870714612
 20
124.8236744265
 10
150.7176318932
 20
124.8015793401
 10
150.6525113917
 20
124.7770820978
 10
150.5912055964
 20
124.7499881345
 10
150.5337145073
 20
124.7202974501
  0
LWPOLYLINE
  5
3F2
100
AcDbEntity
  8
CURVE
100
AcDbPolyline
 62
250
  6
CONTINUOUS
 90
56
 70
0
 10
116.961564262
 20
80.9259794983
 10
116.9857570368
 20
80.9425786877
 10
117.0107082483
 20
80.9577627983
 10
117.0364270467
 20
80.9715408635
 10
117.0629225824
 20
80.9839219166
 10
117.0902040058
 20
80.9949149908
 10
117.1182729474
 20
81.0045250375
 10
117.147100959
 20
81.0127406805
 10
117.1766520723
 20
81.0195464617
 10
117.2068903194
 20
81.024926923
 10
117.237779732
 20
81.0288666063
 10
117.2692841461
 20
81.0313533339
 10
117.3013666143
 20
81.0323880506
 10
117.333989993
 20
81.0319749816
 10
117.3671171387
 20
81.030118352
 10
117.4007109081
 20
81.0268223871
 10
117.4347371736
 20
81.0220909093
 10
117.4691738719
 20
81.0159261301
 10
117.5040019556
 20
81.0083298582
 10
117.5392023773
 20
80.9993039021
 10
117.5747560897
 20
80.9888500706
 10
117.6106383439
 20
80.9769736116
 10
117.6468015846
 20
80.9636935293
 10
117.6831925552
 20
80.9490322672
 10
117.7197579989
 20
80.9330122688
 10
117.7564446591
 20
80.9156559775
 10
117.7932058796
 20
80.8969833539
 10
117.8300214065
 20
80.8770044263
 10
117.8668775865
 20
80.8557267397
 10
117.9037607664
 20
80.8331578395
 10
117.9406572929
 20
80.8093052709
 10
117.9775465234
 20
80.7841821773
 10
118.0143798583
 20
80.7578240948
 10
118.051101709
 20
80.7302721576
 10
118.0876564867
 20
80.7015674999
 10
118.1239886025
 20
80.6717512559
 10
118.1600489964
 20
80.6408606064
 10
118.1958147222
 20
80.6089169179
 10
118.2312693626
 20
80.5759376034
 10
118.2663965
 20
80.541940076
 10
118.3011797171
 20
80.5069417486
 10
118.3355984968
 20
80.4709642536
 10
118.3696159246
 20
80.4340461008
 10
118.4031909861
 20
80.3962300192
 10
118.4362826672
 20
80.3575587381
 10
118.4688499537
 20
80.3180749864
 10
118.5008528814
 20
80.2778234599
 10
118.5322556861
 20
80.2368567209
 10
118.5630236537
 20
80.1952292982
 10
118.59312207
 20
80.1529957207
 10
118.6225162208
 20
80.1102105172
 10
118.6511786924
 20
80.0669159216
 10
118.679111272
 20
80.0231049869
 10
118.7063230475
 20
79.978758471
 10
118.7328231065
 20
79.9338571319
 10
118.7586205368
 20
79.8883817276
  0
LWPOLYLINE
  5
3F3
100
AcDbEntity
  8
ASSI
100
AcDbPolyline
 62
250
  6
CONTINUOUS
 90
22
 70
0
 10
141.501311159
 20
97.5956628731
 10
141.4480033595
 20
97.5599213661
 10
141.3956805299
 20
97.5202843221
 10
141.344612171
 20
97.4770830468
 10
141.295233769
 20
97.4308424698
 10
141.2475793363
 20
97.3817462435
 10
141.2013344544
 20
97.329512161
 10
141.1564180253
 20
97.2739649843
 10
141.113438111
 20
97.2157705007
 10
141.0730818895
 20
97.1559045648
 10
141.0354209168
 20
97.0946017484
 10
141.0006683505
 20
97.0323522331
 10
140.9694781609
 20
96.9706530493
 10
140.9421586861
 20
96.9107569081
 10
140.9181550121
 20
96.8521285489
 10
140.8968333643
 20
96.7935607994
 10
140.8783623844
 20
96.7357037733
 10
140.8626257528
 20
96.6783819937
 10
140.849108894
 20
96.6191707756
 10
140.8380946002
 20
96.5575425265
 10
140.8302417325
 20
96.4948094991
 10
140.8259936585
 20
96.4314605272
  0
LWPOLYLINE
  5
3F4
100
AcDbEntity
  8
ASSI
100
AcDbPolyline
 62
250
  6
CONTINUOUS
 90
22
 70
0
 10
141.8671438991
 20
96.9910020348
 10
141.8400494626
 20
96.9729834778
 10
141.8137070582
 20
96.9533506083
 10
141.788116686
 20
96.9321034262
 10
141.7632483592
 20
96.9091873863
 10
141.7391320645
 20
96.8846570339
 10
141.7158577623
 20
96.8586760042
 10
141.6932757
 20
96.8310331883
 10
141.6715356302
 20
96.8019396951
 10
141.6511767713
 20
96.7721924865
 10
141.6322609895
 20
96.7416910798
 10
141.6147264186
 20
96.7105359577
 10
141.5989266785
 20
96.6798255307
 10
141.5850924442
 20
96.6500264284
 10
141.5729930408
 20
96.6206720213
 10
141.5622900633
 20
96.5914608304
 10
141.5528765107
 20
96.562589052
 10
141.544859384
 20
96.5338604898
 10
141.5382212815
 20
96.5043850763
 10
141.5329564027
 20
96.4738661221
 10
141.5290705482
 20
96.4426003164
 10
141.526563718
 20
96.4105876594
  0
LWPOLYLINE
  5
3F5
100
AcDbEntity
  8
CURVE
100
AcDbPolyline
 62
250
  6
CONTINUOUS
 90
56
 70
0
 10
116.395308181
 20
81.8705579034
 10
116.435160301
 20
81.8955840858
 10
116.4761654679
 20
81.9183915911
 10
116.5183362527
 20
81.9389940375
 10
116.5616852262
 20
81.9574050433
 10
116.6062249594
 20
81.9736382268
 10
116.6519571731
 20
81.9877014156
 10
116.6988401872
 20
81.9995792741
 10
116.7468214716
 20
82.0092506764
 10
116.7958484962
 20
82.0166944962
 10
116.8458687309
 20
82.0218896076
 10
116.89682852
 20
82.0248195642
 10
116.9486697054
 20
82.0254866395
 10
117.0013330037
 20
82.0238977869
 10
117.0547591313
 20
82.0200599598
 10
117.1088888046
 20
82.0139801113
 10
117.1636679985
 20
82.0056645807
 10
117.2190637224
 20
81.9951172495
 10
117.2750482437
 20
81.982341385
 10
117.3315938302
 20
81.9673402545
 10
117.3886727496
 20
81.9501171253
 10
117.4462484292
 20
81.9306803832
 10
117.5042489356
 20
81.9090588877
 10
117.5625934948
 20
81.8852866168
 10
117.6212013332
 20
81.8593975484
 10
117.6799916768
 20
81.8314256606
 10
117.7388935706
 20
81.8014013379
 10
117.7978753346
 20
81.7693405906
 10
117.8569151076
 20
81.7352558358
 10
117.9159910283
 20
81.6991594905
 10
117.9750812355
 20
81.6610639717
 10
118.0341537956
 20
81.6209897295
 10
118.093136485
 20
81.5789893467
 10
118.1519470078
 20
81.5351234393
 10
118.210503068
 20
81.4894526233
 10
118.2687223698
 20
81.4420375147
 10
118.3265320188
 20
81.3929330888
 10
118.3838967275
 20
81.3421717587
 10
118.4407906101
 20
81.2897802967
 10
118.4971877808
 20
81.235785475
 10
118.5530623537
 20
81.1802140662
 10
118.608382362
 20
81.1230991706
 10
118.6630915157
 20
81.064499201
 10
118.7171274435
 20
81.0044788982
 10
118.7704277745
 20
80.943103003
 10
118.8229301375
 20
80.8804362562
 10
118.8745739959
 20
80.8165457853
 10
118.9253061514
 20
80.7515082646
 10
118.97507524
 20
80.6854027548
 10
119.0238298978
 20
80.6183083168
 10
119.0715187609
 20
80.5503040116
 10
119.1181012133
 20
80.4814510121
 10
119.1635796301
 20
80.41173894
 10
119.2079671343
 20
80.3411395292
 10
119.2512768489
 20
80.2696245136
 10
119.2935218969
 20
80.197165627
  0
LINE
  5
3F6
100
AcDbEntity
  8
ASSI
100
AcDbLine
 62
250
  6
CONTINUOUS
 10
146.6174991454
 20
100.7526158466
 11
141.501311159
 21
97.5956628731
  0
LINE
  5
3F7
100
AcDbEntity
  8
ASSI
100
AcDbLine
 62
250
  6
CONTINUOUS
 10
146.9707834114
 20
100.1402119498
 11
141.8671438991
 21
96.9910020348
  0
LWPOLYLINE
  5
3F8
100
AcDbEntity
  8
DRAFT
100
AcDbPolyline
 62
7
  6
CONTINUOUS
 90
9
 70
0
 10
169.3808330764
 20
113.8382073982
 10
169.4341902122
 20
113.870284974
 10
169.4830378591
 20
113.9045721153
 10
169.5273760169
 20
113.9410688219
 10
169.5675566057
 20
113.9800576761
 10
169.6032277055
 20
114.0212560956
 10
169.633333556
 20
114.0638163339
 10
169.6577668569
 20
114.1077242687
 10
169.6778245646
 20
114.1564793261
  0
LWPOLYLINE
  5
3F9
100
AcDbEntity
  8
DRAFT
100
AcDbPolyline
 62
7
  6
CONTINUOUS
 90
14
 70
0
 10
160.7880255848
 20
110.7780417936
 10
160.7345156387
 20
110.7459850362
 10
160.6855188639
 20
110.7117155306
 10
160.6410352606
 20
110.6752332768
 10
160.6007126239
 20
110.636256137
 10
160.5649031585
 20
110.5950662489
 10
160.5346634794
 20
110.5525100261
 10
160.5101006512
 20
110.5086011598
 10
160.4911076092
 20
110.4633259587
 10
160.4784197742
 20
110.4174897633
 10
160.4723437887
 20
110.3709385809
 10
160.4725730101
 20
110.323826404
 10
160.4789229315
 20
110.2774205505
 10
160.4897849277
 20
110.237179508
  0
LINE
  5
3FA
100
AcDbEntity
  8
RACCORDO
100
AcDbLine
 62
250
  6
CONTINUOUS
 10
146.670987864
 20
100.7163847443
 11
147.3367332446
 21
101.1007791032
  0
LINE
  5
3FB
100
AcDbEntity
  8
RACCORDO
100
AcDbLine
 62
250
  6
CONTINUOUS
 10
146.9954686009
 20
100.0873504242
 11
147.6902327873
 21
100.4884999354
  0
LINE
  5
3FC
100
AcDbEntity
  8
CURVE
100
AcDbLine
 62
250
  6
CONTINUOUS
 10
113.6559546629
 20
82.6952431895
 11
113.392156808
 21
82.5429901724
  0
LINE
  5
3FD
100
AcDbEntity
  8
CURVE
100
AcDbLine
 62
250
  6
CONTINUOUS
 10
113.1709192843
 20
82.0199413891
 11
113.9963930674
 21
82.4964678235
  0
LINE
  5
3FE
100
AcDbEntity
  8
RACCORDO
100
AcDbLine
 62
7
  6
CONTINUOUS
 10
171.532194385
 20
114.0929220969
 11
153.2415457712
 21
103.7458389619
  0
LINE
  5
3FF
100
AcDbEntity
  8
DRAFT
100
AcDbLine
 62
7
  6
CONTINUOUS
 10
168.1432964332
 20
113.3294716234
 11
161.6850187964
 21
109.7307078575
  0
LINE
  5
400
100
AcDbEntity
  8
DRAFT
100
AcDbLine
 62
7
  6
CONTINUOUS
 10
162.3097642256
 20
109.8979763021
 11
169.3808330764
 21
113.8382073982
  0
LWPOLYLINE
  5
401
100
AcDbEntity
  8
RACCORDO
100
AcDbPolyline
 62
7
  6
CONTINUOUS
 90
12
 70
0
 10
171.532194385
 20
114.0929220969
 10
171.5707877222
 20
114.113831127
 10
171.6081419292
 20
114.1321898016
 10
171.6440574924
 20
114.1478629674
 10
171.6783083019
 20
114.1607295428
 10
171.7107123965
 20
114.1706884842
 10
171.7411288394
 20
114.177643479
 10
171.7693420335
 20
114.181520739
 10
171.7951396823
 20
114.1822387235
 10
171.8183823659
 20
114.1797063248
 10
171.8388313458
 20
114.1739173391
 10
171.8514851888
 20
114.1678655604
  0
LWPOLYLINE
  5
402
100
AcDbEntity
  8
RACCORDO
100
AcDbPolyline
 62
7
  6
CONTINUOUS
 90
16
 70
0
 10
153.2415457712
 20
103.7458389619
 10
153.2072434209
 20
103.728184615
 10
153.1709719965
 20
103.713279239
 10
153.1328163488
 20
103.7012258724
 10
153.0928056179
 20
103.6920965339
 10
153.0510966267
 20
103.6860285889
 10
153.0079651942
 20
103.68317847
 10
152.9636818522
 20
103.6835967999
 10
152.9181573302
 20
103.6873081848
 10
152.871135357
 20
103.6944286341
 10
152.8226831452
 20
103.7050448282
 10
152.7729628319
 20
103.7192347519
 10
152.721888158
 20
103.7371606412
 10
152.6695234899
 20
103.7589389494
 10
152.6160744153
 20
103.7846170445
 10
152.5616807963
 20
103.814262014
  0
LWPOLYLINE
  5
403
100
AcDbEntity
  8
ASSI
100
AcDbPolyline
 62
250
  6
CONTINUOUS
 90
16
 70
0
 10
141.526563718
 20
96.4105876594
 10
141.4875559777
 20
96.3927621165
 10
141.4452447212
 20
96.3773526382
 10
141.4000832933
 20
96.3645243296
 10
141.352555577
 20
96.3544146398
 10
141.303170809
 20
96.3471318894
 10
141.2524581233
 20
96.3427541094
 10
141.2009608819
 20
96.3413282058
 10
141.1492308531
 20
96.3428694564
 10
141.0978222993
 20
96.3473613475
 10
141.0472860384
 20
96.3547557505
 10
140.9981635423
 20
96.3649734381
 10
140.9509811348
 20
96.3779049326
 10
140.9062443528
 20
96.3934116792
 10
140.8644325295
 20
96.4113275307
 10
140.8259936585
 20
96.4314605272
  0
LWPOLYLINE
  5
404
100
AcDbEntity
  8
0
100
AcDbPolyline
 62
7
  6
CONTINUOUS
 90
15
 70
0
 10
135.4150340224
 20
107.486273812
 10
135.4455532265
 20
107.4496487825
 10
135.4768689236
 20
107.4162186733
 10
135.5089811137
 20
107.3859834843
 10
135.542172823
 20
107.3587395977
 10
135.5761610253
 20
107.3346906314
 10
135.6100966416
 20
107.3144474394
 10
135.644037359
 20
107.2980851256
 10
135.6779254903
 20
107.285528586
 10
135.7107388955
 20
107.2771633628
 10
135.7424029258
 20
107.2731267088
 10
135.7729922298
 20
107.2732813712
 10
135.8017086132
 20
107.2776011335
 10
135.8285088481
 20
107.2861821249
 10
135.8486683241
 20
107.2960120974
  0
LWPOLYLINE
  5
405
100
AcDbEntity
  8
ASSI
100
AcDbPolyline
 62
7
  6
CONTINUOUS
 90
13
 70
0
 10
129.6994047814
 20
115.3511483328
 10
129.6700372749
 20
115.3894402414
 10
129.6399560561
 20
115.4263809649
 10
129.6091611251
 20
115.4619705034
 10
129.5775769272
 20
115.4962855763
 10
129.545279017
 20
115.5292494642
 10
129.5124940583
 20
115.5606320081
 10
129.4792188072
 20
115.5904227016
 10
129.4454565077
 20
115.6186320512
 10
129.4114435548
 20
115.6450614177
 10
129.3772587469
 20
115.6696445877
 10
129.3428232858
 20
115.6924477746
 10
129.3081371713
 20
115.7134709782
  0
LINE
  5
406
100
AcDbEntity
  8
0
100
AcDbLine
 62
7
  6
CONTINUOUS
 10
142.0918154597
 20
104.1848781415
 11
142.2168559687
 21
104.0161605086
  0
LINE
  5
407
100
AcDbEntity
  8
0
100
AcDbLine
 62
7
  6
CONTINUOUS
 10
142.2168559687
 20
104.0161605086
 11
142.2524649516
 21
103.9678218618
  0
LINE
  5
408
100
AcDbEntity
  8
DRAFT
100
AcDbLine
 62
7
  6
CONTINUOUS
 10
142.7827367695
 20
103.2322545848
 11
142.9411026893
 21
103.0066765169
  0
LINE
  5
409
100
AcDbEntity
  8
DRAFT
100
AcDbLine
 62
7
  6
CONTINUOUS
 10
142.9411026893
 20
103.0066765169
 11
143.0930417975
 21
102.7875933475
  0
LINE
  5
40A
100
AcDbEntity
  8
DRAFT
100
AcDbLine
 62
7
  6
CONTINUOUS
 10
143.0930417975
 20
102.7875933475
 11
143.1374279337
 21
102.7231077151
  0
LWPOLYLINE
  5
40B
100
AcDbEntity
  8
ASSI
100
AcDbPolyline
 62
250
  6
CONTINUOUS
 90
9
 70
0
 10
143.6971354724
 20
105.9095223522
 10
143.6922529205
 20
105.922212924
 10
143.6779987493
 20
105.9515606185
 10
143.6613589387
 20
105.9795389626
 10
143.6426171005
 20
106.0056710888
 10
143.6220926737
 20
106.0295115965
 10
143.6001354801
 20
106.050654144
 10
143.5771197618
 20
106.0687383741
 10
143.5534378028
 20
106.0834560562
  0
LWPOLYLINE
  5
40C
100
AcDbEntity
  8
RACCORDO
100
AcDbPolyline
 62
250
  6
CONTINUOUS
 90
8
 70
0
 10
138.8394667895
 20
117.912423952
 10
138.8350633969
 20
117.9244198191
 10
138.8287348737
 20
117.9363114098
 10
138.8205238487
 20
117.9480595041
 10
138.8105108048
 20
117.9593507239
 10
138.7987225697
 20
117.9700806098
 10
138.7851323156
 20
117.9803536211
 10
138.7697400427
 20
117.990169758
  0
LWPOLYLINE
  5
40D
100
AcDbEntity
  8
RACCORDO
100
AcDbPolyline
 62
250
  6
CONTINUOUS
 90
12
 70
0
 10
149.3467038855
 20
106.6640987477
 10
149.3455735214
 20
106.6910116019
 10
149.3480796693
 20
106.7207279783
 10
149.3545770646
 20
106.750400263
 10
149.3651033773
 20
106.7798364727
 10
149.3797746888
 20
106.8090454441
 10
149.3987700018
 20
106.837983242
 10
149.422048268
 20
106.866270251
 10
149.4493003211
 20
106.8934235505
 10
149.4802575513
 20
106.9191789126
 10
149.5148322836
 20
106.9434545017
 10
149.5528236766
 20
106.966084746
  0
LINE
  5
40E
100
AcDbEntity
  8
ASSI
100
AcDbLine
 62
7
  6
CONTINUOUS
 10
146.9707834114
 20
100.1402119498
 11
146.9707834114
 21
64.4647663162
  0
LINE
  5
40F
100
AcDbEntity
  8
RACCORDO
100
AcDbLine
 62
7
  6
CONTINUOUS
 10
146.9954686009
 20
64.4891220037
 11
146.9954686009
 21
100.0873504242
  0
LINE
  5
410
100
AcDbEntity
  8
RACCORDO
100
AcDbLine
 62
7
  6
CONTINUOUS
 10
147.6902327873
 20
64.9187745982
 11
147.6902327873
 21
69.5424146857
  0
LINE
  5
411
100
AcDbEntity
  8
RACCORDO
100
AcDbLine
 62
7
  6
CONTINUOUS
 10
147.6902327873
 20
95.8648598479
 11
147.6902327873
 21
100.4884999354
  0
LINE
  5
412
100
AcDbEntity
  8
DRAFT
100
AcDbLine
 62
7
  6
CONTINUOUS
 10
149.880903485
 20
106.3800587856
 11
149.880903485
 21
106.4756883148
  0
LINE
  5
413
100
AcDbEntity
  8
RACCORDO
100
AcDbLine
 62
250
  6
CONTINUOUS
 10
149.4968377591
 20
112.5587545163
 11
149.4954819052
 21
111.7605370608
  0
LWPOLYLINE
  5
414
100
AcDbEntity
  8
DRAFT
100
AcDbPolyline
 62
7
  6
CONTINUOUS
 90
35
 70
0
 10
154.8285821597
 20
122.730245786
 10
154.8399614465
 20
122.7725866738
 10
154.84592505
 20
122.819123255
 10
154.8455895449
 20
122.8662162744
 10
154.8391397645
 20
122.9125984974
 10
154.8264137037
 20
122.9579853293
 10
154.8075733676
 20
123.0026613648
 10
154.7832896044
 20
123.0462131534
 10
154.7535300523
 20
123.0887671038
 10
154.7183270732
 20
123.1301968073
 10
154.6784486002
 20
123.1697095872
 10
154.6339901397
 20
123.2071812702
 10
154.5848561855
 20
123.2427360297
 10
154.5315281516
 20
123.2759537094
 10
154.4739224899
 20
123.3067877528
 10
154.4121227485
 20
123.3352847164
 10
154.3468609854
 20
123.3611641134
 10
154.2779200157
 20
123.3844823147
 10
154.2055170243
 20
123.4051829494
 10
154.1310356245
 20
123.4228164181
 10
154.0546980627
 20
123.4373621219
 10
153.9762820925
 20
123.4488406597
 10
153.8965045881
 20
123.4568642284
 10
153.8148610158
 20
123.4613460053
 10
153.7318559094
 20
123.462372813
 10
153.649719744
 20
123.4598173163
 10
153.5687184498
 20
123.4535031073
 10
153.4885860967
 20
123.4436065939
 10
153.4107553695
 20
123.430529664
 10
153.3351994695
 20
123.4142117151
 10
153.2619451953
 20
123.3947133498
 10
153.1925056274
 20
123.3726182635
 10
153.1273851258
 20
123.3481210212
 10
153.0660793305
 20
123.3210270578
 10
153.0085882414
 20
123.2913363734
  0
LINE
  5
415
100
AcDbEntity
  8
RACCORDO
100
AcDbLine
 62
250
  6
CONTINUOUS
 10
147.6902327873
 20
95.8648598479
 11
172.9546112089
 21
110.7892009363
  0
LWPOLYLINE
  5
416
100
AcDbEntity
  8
RACCORDO
100
AcDbPolyline
 62
250
  6
CONTINUOUS
 90
12
 70
0
 10
147.6902327873
 20
97.2330937163
 10
172.6888494248
 20
112.0200346807
 10
172.7315594001
 20
112.0459532179
 10
172.7702524766
 20
112.0702807483
 10
172.8046406803
 20
112.0928362138
 10
172.8344680762
 20
112.1134517447
 10
172.859512673
 20
112.1319739094
 10
172.8795880759
 20
112.1482648564
 10
172.8945448736
 20
112.16220334
 10
172.90427175
 20
112.1736856228
 10
172.9086963129
 20
112.1826262478
 10
172.9083005504
 20
112.1881019283
  0
LINE
  5
417
100
AcDbEntity
  8
ASSI
100
AcDbLine
 62
7
  6
CONTINUOUS
 10
115.6703690697
 20
118.6211008937
 11
120.8555304413
 21
115.6272537031
  0
LINE
  5
418
100
AcDbEntity
  8
ASSI
100
AcDbLine
 62
7
  6
CONTINUOUS
 10
125.5224351972
 20
112.9326413871
 11
136.765433018
 21
106.4410753532
  0
LINE
  5
419
100
AcDbEntity
  8
ASSI
100
AcDbLine
 62
7
  6
CONTINUOUS
 10
141.4323377738
 20
103.7464630372
 11
146.6174991454
 21
100.7526158466
  0
LINE
  5
41A
100
AcDbEntity
  8
RACCORDO
100
AcDbLine
 62
250
  6
CONTINUOUS
 10
120.8468878606
 20
116.285432084
 11
125.6548588492
 21
113.5093698933
  0
LINE
  5
41B
100
AcDbEntity
  8
RACCORDO
100
AcDbLine
 62
250
  6
CONTINUOUS
 10
136.7567904373
 20
107.0992537342
 11
141.5647614259
 21
104.3231915434
  0
LINE
  5
41C
100
AcDbEntity
  8
RACCORDO
100
AcDbLine
 62
7
  6
CONTINUOUS
 10
147.3367332446
 20
101.1007791032
 11
143.8403734644
 21
103.1195334206
  0
LINE
  5
41D
100
AcDbEntity
  8
DRAFT
100
AcDbLine
 62
7
  6
CONTINUOUS
 10
135.7716108899
 20
107.7783358058
 11
127.9304708877
 21
112.3057117705
  0
LINE
  5
41E
100
AcDbEntity
  8
RACCORDO
100
AcDbLine
 62
7
  6
CONTINUOUS
 10
119.8617083132
 20
116.9645141557
 11
116.3653485329
 21
118.9832684731
  0
LINE
  5
41F
100
AcDbEntity
  8
RACCORDO
100
AcDbLine
 62
250
  6
CONTINUOUS
 10
120.7231067893
 20
116.5597776044
 11
125.6548588492
 21
113.7122457744
  0
LINE
  5
420
100
AcDbEntity
  8
RACCORDO
100
AcDbLine
 62
250
  6
CONTINUOUS
 10
136.633009366
 20
107.3735992545
 11
141.5647614259
 21
104.5260674245
  0
LINE
  5
421
100
AcDbEntity
  8
0
100
AcDbLine
 62
7
  6
CONTINUOUS
 10
141.7011228036
 20
104.5464281699
 11
136.4966479882
 21
107.5514267009
  0
LINE
  5
422
100
AcDbEntity
  8
0
100
AcDbLine
 62
7
  6
CONTINUOUS
 10
125.7912202269
 20
113.7326065198
 11
120.5867454115
 21
116.7376050508
  0
LINE
  5
423
100
AcDbEntity
  8
RACCORDO
100
AcDbLine
 62
7
  6
CONTINUOUS
 10
125.6548588492
 20
113.5056864994
 11
121.0309295983
 21
116.175511387
  0
LINE
  5
424
100
AcDbEntity
  8
RACCORDO
100
AcDbLine
 62
7
  6
CONTINUOUS
 10
141.5647614259
 20
104.3195081495
 11
136.940832175
 21
106.9893330371
  0
LINE
  5
425
100
AcDbEntity
  8
RACCORDO
100
AcDbLine
 62
7
  6
CONTINUOUS
 10
121.0309295983
 20
116.175511387
 11
120.8468878606
 21
116.285432084
  0
LINE
  5
426
100
AcDbEntity
  8
RACCORDO
100
AcDbLine
 62
7
  6
CONTINUOUS
 10
136.940832175
 20
106.9893330371
 11
136.7567904373
 21
107.0992537342
  0
LWPOLYLINE
  5
427
100
AcDbEntity
  8
0
100
AcDbPolyline
 62
7
  6
CONTINUOUS
 90
10
 70
0
 10
125.7912202269
 20
113.7326065198
 10
125.8375010049
 20
113.7040972334
 10
125.8832031715
 20
113.6725435719
 10
125.9283267267
 20
113.6379455351
 10
125.9730570164
 20
113.6001316025
 10
126.0172086948
 20
113.5592732947
 10
126.0602257244
 20
113.5158851735
 10
126.1019227594
 20
113.4701387595
 10
126.1424851456
 20
113.4218625321
 10
126.181912883
 20
113.3710564914
  0
LWPOLYLINE
  5
428
100
AcDbEntity
  8
0
100
AcDbPolyline
 62
7
  6
CONTINUOUS
 90
10
 70
0
 10
141.7011228036
 20
104.5464281699
 10
141.7474035816
 20
104.5179188836
 10
141.7931057482
 20
104.486365222
 10
141.8382293034
 20
104.4517671852
 10
141.8829595931
 20
104.4139532526
 10
141.9271112715
 20
104.3730949448
 10
141.9701283011
 20
104.3297068236
 10
142.0118253361
 20
104.2839604096
 10
142.0523877223
 20
104.2356841822
 10
142.0918154597
 20
104.1848781415
  0
LWPOLYLINE
  5
429
100
AcDbEntity
  8
RACCORDO
100
AcDbPolyline
 62
250
  6
CONTINUOUS
 90
8
 70
0
 10
126.2649737644
 20
118.0773393329
 10
126.2413635477
 20
118.0954742969
 10
126.2180120094
 20
118.1098324028
 10
126.1951749939
 20
118.1202563401
 10
126.1731027083
 20
118.126631902
 10
126.1520369813
 20
118.1288892365
 10
126.1322086133
 20
118.1270036118
 10
126.1180048852
 20
118.1227729266
  0
LWPOLYLINE
  5
42A
100
AcDbEntity
  8
ASSI
100
AcDbPolyline
 62
250
  6
CONTINUOUS
 90
6
 70
0
 10
143.8503520358
 20
105.9919172617
 10
143.84118078
 20
106.014914056
 10
143.8273582923
 20
106.0390940615
 10
143.810492733
 20
106.060598522
 10
143.7908636794
 20
106.0790709314
 10
143.7687965262
 20
106.0942050407
  0
LINE
  5
42B
100
AcDbEntity
  8
DRAFT
100
AcDbLine
 62
250
  6
CONTINUOUS
 10
143.6591299366
 20
119.8267951748
 11
143.4639094458
 21
120.7807693301
  0
LINE
  5
42C
100
AcDbEntity
  8
RACCORDO
100
AcDbLine
 62
7
  6
CONTINUOUS
 10
149.346832273
 20
106.6628716395
 11
149.3467038855
 21
106.6640987477
  0
LINE
  5
42D
100
AcDbEntity
  8
RACCORDO
100
AcDbLine
 62
250
  6
CONTINUOUS
 10
149.589910271
 20
106.4560187462
 11
149.5528236677
 21
106.9660848679
  0
LINE
  5
42E
100
AcDbEntity
  8
RACCORDO
100
AcDbLine
 62
250
  6
CONTINUOUS
 10
149.4954819052
 20
111.7605370608
 11
149.5049373903
 21
111.6303231675
  0
LINE
  5
42F
100
AcDbEntity
  8
RACCORDO
100
AcDbLine
 62
250
  6
CONTINUOUS
 10
150.1943999548
 20
111.7653034356
 11
150.2164112867
 21
111.4620358585
  0
LINE
  5
430
100
AcDbEntity
  8
DRAFT
100
AcDbLine
 62
7
  6
CONTINUOUS
 10
150.1651065215
 20
106.6278407847
 11
150.1651065215
 21
106.3706782364
  0
LINE
  5
431
100
AcDbEntity
  8
DRAFT
100
AcDbLine
 62
7
  6
CONTINUOUS
 10
151.5793200839
 20
107.0592616898
 11
151.5793200839
 21
107.3849617821
  0
LINE
  5
432
100
AcDbEntity
  8
DRAFT
100
AcDbLine
 62
7
  6
CONTINUOUS
 10
152.3557772192
 20
107.5156187433
 11
152.3557772192
 21
107.8006500604
  0
LINE
  5
433
100
AcDbEntity
  8
DRAFT
100
AcDbLine
 62
7
  6
CONTINUOUS
 10
152.3557772192
 20
115.5856799701
 11
152.3557772192
 21
115.764316008
  0
LINE
  5
434
100
AcDbEntity
  8
DRAFT
100
AcDbLine
 62
7
  6
CONTINUOUS
 10
152.6399802557
 20
107.9528025302
 11
152.6399802557
 21
107.6826570181
  0
LINE
  5
435
100
AcDbEntity
  8
RACCORDO
100
AcDbLine
 62
250
  6
CONTINUOUS
 10
150.1924453985
 20
112.542537397
 11
150.1911273616
 21
111.7665835241
  0
LWPOLYLINE
  5
436
100
AcDbEntity
  8
RACCORDO
100
AcDbPolyline
 62
7
  6
CONTINUOUS
 90
12
 70
0
 10
155.4607879613
 20
109.3679379893
 10
155.460836076
 20
109.3681480279
 10
155.4607210477
 20
109.3676112407
 10
155.4597498388
 20
109.3650698323
 10
155.4573851879
 20
109.36051045
 10
155.4531484801
 20
109.3540289147
 10
155.4466575308
 20
109.3458244921
 10
155.4375327731
 20
109.3360807287
 10
155.4257198268
 20
109.3252643839
 10
155.411577136
 20
109.3140088618
 10
155.395350922
 20
109.3026645769
 10
155.3788088542
 20
109.2923834381
  0
LWPOLYLINE
  5
437
100
AcDbEntity
  8
DRAFT
100
AcDbPolyline
 62
7
  6
CONTINUOUS
 90
35
 70
0
 10
157.3034558938
 20
121.3012847094
 10
157.3148351806
 20
121.3436255971
 10
157.3207987842
 20
121.3901621783
 10
157.3204632791
 20
121.4372551978
 10
157.3140134986
 20
121.4836374208
 10
157.3012874379
 20
121.5290242527
 10
157.2824471018
 20
121.5737002882
 10
157.2581633385
 20
121.6172520768
 10
157.2284037865
 20
121.6598060272
 10
157.1932008073
 20
121.7012357306
 10
157.1533223343
 20
121.7407485106
 10
157.1088638739
 20
121.7782201936
 10
157.0597299197
 20
121.8137749531
 10
157.0064018857
 20
121.8469926327
 10
156.948796224
 20
121.8778266761
 10
156.8869964826
 20
121.9063236397
 10
156.8217347196
 20
121.9322030367
 10
156.7527937498
 20
121.955521238
 10
156.6803907584
 20
121.9762218728
 10
156.6059093586
 20
121.9938553414
 10
156.5295717968
 20
122.0084010453
 10
156.4511558266
 20
122.0198795831
 10
156.3713783223
 20
122.0279031517
 10
156.28973475
 20
122.0323849286
 10
156.2067296435
 20
122.0334117363
 10
156.1245934781
 20
122.0308562396
 10
156.043592184
 20
122.0245420307
 10
155.9634598309
 20
122.0146455172
 10
155.8856291036
 20
122.0015685873
 10
155.8100732036
 20
121.9852506385
 10
155.7368189295
 20
121.9657522732
 10
155.6673793615
 20
121.9436571868
 10
155.60225886
 20
121.9191599445
 10
155.5409530647
 20
121.8920659812
 10
155.4834619756
 20
121.8623752968
  0
LWPOLYLINE
  5
438
100
AcDbEntity
  8
RACCORDO
100
AcDbPolyline
 62
250
  6
CONTINUOUS
 90
10
 70
0
 10
172.9546112089
 20
110.7892009363
 10
173.000367814
 20
110.8190333637
 10
173.0415008743
 20
110.8510318477
 10
173.0777042578
 20
110.884958236
 10
173.1087085233
 20
110.9205600295
 10
173.1342829221
 20
110.9575722574
 10
173.1542371171
 20
110.9957194484
 10
173.1684226043
 20
111.0347176886
 10
173.176733814
 20
111.0742767316
 10
173.1791393005
 20
111.10987986
  0
LWPOLYLINE
  5
439
100
AcDbEntity
  8
ASSI
100
AcDbPolyline
 62
7
  6
CONTINUOUS
 90
28
 70
0
 10
146.2549610456
 20
105.2751553778
 10
146.2308312324
 20
105.2801476951
 10
146.2064753867
 20
105.2873051164
 10
146.1818935087
 20
105.2966276417
 10
146.1569675954
 20
105.3081796184
 10
146.1318156496
 20
105.3218966991
 10
146.1067916801
 20
105.3375858413
 10
146.081885629
 20
105.3552828975
 10
146.0571075542
 20
105.3749520152
 10
146.0328416376
 20
105.3962925945
 10
146.0090966991
 20
105.4193328436
 10
145.9858639188
 20
105.4440445544
 10
145.9635010189
 20
105.4700425025
 10
145.942030545
 20
105.4973324081
 10
145.9214299514
 20
105.5259085511
 10
145.9019893233
 20
105.555368546
 10
145.8837162304
 20
105.5857388988
 10
145.866603103
 20
105.6169931035
 10
145.8509173165
 20
105.6486492573
 10
145.836683001
 20
105.6807143166
 10
145.8238760265
 20
105.713181325
 10
145.8126913785
 20
105.7455475101
 10
145.8031569348
 20
105.7777961112
 10
145.7952448177
 20
105.8099438892
 10
145.7890663792
 20
105.841538354
 10
145.7846587365
 20
105.8724286759
 10
145.7819847723
 20
105.9027656847
 10
145.7810444866
 20
105.9325493804
  0
LWPOLYLINE
  5
43A
100
AcDbEntity
  8
RACCORDO
100
AcDbPolyline
 62
250
  6
CONTINUOUS
 90
16
 70
0
 10
145.8844439207
 20
106.7493031544
 10
145.9189511734
 20
106.7338818207
 10
145.9530803558
 20
106.7150512768
 10
145.9864575413
 20
106.6930178348
 10
146.0187170426
 20
106.6680228979
 10
146.0495054175
 20
106.6403403166
 10
146.0784853417
 20
106.610273388
 10
146.1053393051
 20
106.5781515323
 10
146.1297730906
 20
106.5443266836
 10
146.1515189967
 20
106.5091694349
 10
146.1703387712
 20
106.4730649767
 10
146.1860262214
 20
106.4364088769
 10
146.1984094732
 20
106.3996027476
 10
146.207352854
 20
106.3630498445
 10
146.212758379
 20
106.3271506482
 10
146.2145668252
 20
106.2922984774
  0
LWPOLYLINE
  5
43B
100
AcDbEntity
  8
ASSI
100
AcDbPolyline
 62
250
  6
CONTINUOUS
 90
10
 70
0
 10
143.7687965262
 20
106.0942050407
 10
143.7507088453
 20
106.1031850086
 10
143.7310013499
 20
106.1100462667
 10
143.709699495
 20
106.1145883283
 10
143.6868192372
 20
106.1166158275
 10
143.6624544399
 20
106.1159343578
 10
143.6367905335
 20
106.1123897654
 10
143.6099824513
 20
106.1058654743
 10
143.5821430618
 20
106.0962496057
 10
143.5534378028
 20
106.0834560562
  0
LWPOLYLINE
  5
43C
100
AcDbEntity
  8
ASSI
100
AcDbPolyline
 62
250
  6
CONTINUOUS
 90
10
 70
0
 10
127.8588939495
 20
115.2803833906
 10
127.8408062686
 20
115.2893633585
 10
127.8210987732
 20
115.2962246166
 10
127.7997969183
 20
115.3007666781
 10
127.7769166605
 20
115.3027941774
 10
127.7525518632
 20
115.3021127077
 10
127.7268879568
 20
115.2985681152
 10
127.7000798746
 20
115.2920438242
 10
127.6722404851
 20
115.2824279556
 10
127.6435352261
 20
115.2696344061
  0
LWPOLYLINE
  5
43D
100
AcDbEntity
  8
ASSI
100
AcDbPolyline
 62
7
  6
CONTINUOUS
 90
12
 70
0
 10
139.6285957676
 20
108.4847050392
 10
139.6072910079
 20
108.4960202479
 10
139.5791018368
 20
108.5081908551
 10
139.5494239402
 20
108.5179370246
 10
139.5184436053
 20
108.5250775722
 10
139.4864148348
 20
108.52944306
 10
139.4536229279
 20
108.5309121445
 10
139.4202563271
 20
108.5294167922
 10
139.3865543175
 20
108.5249110639
 10
139.3527992836
 20
108.5173940539
 10
139.3191793699
 20
108.5068956174
 10
139.2892903321
 20
108.4949745508
  0
LWPOLYLINE
  5
43E
100
AcDbEntity
  8
ASSI
100
AcDbPolyline
 62
7
  6
CONTINUOUS
 90
12
 70
0
 10
123.7186931909
 20
117.6708833891
 10
123.6973884312
 20
117.6821985978
 10
123.6691992601
 20
117.694369205
 10
123.6395213635
 20
117.7041153745
 10
123.6085410286
 20
117.7112559221
 10
123.5765122581
 20
117.7156214099
 10
123.5437203512
 20
117.7170904943
 10
123.5103537504
 20
117.7155951421
 10
123.4766517408
 20
117.7110894138
 10
123.4428967069
 20
117.7035724037
 10
123.4092767932
 20
117.6930739673
 10
123.3793877554
 20
117.6811529006
  0
LWPOLYLINE
  5
43F
100
AcDbEntity
  8
RACCORDO
100
AcDbPolyline
 62
250
  6
CONTINUOUS
 90
16
 70
0
 10
146.0990811475
 20
106.8554113969
 10
146.1311722423
 20
106.838168759
 10
146.1619628406
 20
106.8174383339
 10
146.1911421189
 20
106.7934293901
 10
146.2184155198
 20
106.7663842918
 10
146.243507725
 20
106.7365760527
 10
146.2661654351
 20
106.7043055794
 10
146.286159926
 20
106.6698986342
 10
146.3032893585
 20
106.6337025468
 10
146.3173808151
 20
106.5960827075
 10
146.3282920462
 20
106.5574188792
 10
146.3359129056
 20
106.5181013636
 10
146.3401664626
 20
106.4785270612
 10
146.3410097786
 20
106.4390954647
 10
146.3384343406
 20
106.4002046262
 10
146.3324661469
 20
106.362247139
  0
LWPOLYLINE
  5
440
100
AcDbEntity
  8
ASSI
100
AcDbPolyline
 62
7
  6
CONTINUOUS
 90
13
 70
0
 10
140.0507988557
 20
109.5107927588
 10
140.0161127412
 20
109.5298242107
 10
139.9816772801
 20
109.5467862313
 10
139.9474924723
 20
109.5616788204
 10
139.9134795194
 20
109.5745267594
 10
139.8797172198
 20
109.5853052671
 10
139.8464419688
 20
109.5939399994
 10
139.81365701
 20
109.600416704
 10
139.7813590999
 20
109.6047496332
 10
139.749774902
 20
109.6069072003
 10
139.7189799709
 20
109.6068788764
 10
139.6888987521
 20
109.6046751903
 10
139.6595312456
 20
109.6002961421
  0
LWPOLYLINE
  5
441
100
AcDbEntity
  8
ASSI
100
AcDbPolyline
 62
7
  6
CONTINUOUS
 90
13
 70
0
 10
124.140896279
 20
118.6969711087
 10
124.1062101645
 20
118.7160025606
 10
124.0717747034
 20
118.7329645811
 10
124.0375898956
 20
118.7478571703
 10
124.0035769427
 20
118.7607051093
 10
123.9698146431
 20
118.7714836169
 10
123.9365393921
 20
118.7801183492
 10
123.9037544333
 20
118.7865950538
 10
123.8714565232
 20
118.7909279831
 10
123.8398723253
 20
118.7930855502
 10
123.8090773942
 20
118.7930572263
 10
123.7789961754
 20
118.7908535402
 10
123.7496286689
 20
118.7864744919
  0
LINE
  5
442
100
AcDbEntity
  8
ASSI
100
AcDbLine
 62
7
  6
CONTINUOUS
 10
122.8613488777
 20
117.7509406873
 11
127.6178360917
 21
115.0046045827
  0
LINE
  5
443
100
AcDbEntity
  8
ASSI
100
AcDbLine
 62
7
  6
CONTINUOUS
 10
138.7712514544
 20
108.5647623374
 11
143.5277386684
 21
105.8184262329
  0
LINE
  5
444
100
AcDbEntity
  8
ASSI
100
AcDbLine
 62
7
  6
CONTINUOUS
 10
127.3933309814
 20
115.140905083
 11
123.2272753442
 21
117.546333395
  0
LINE
  5
445
100
AcDbEntity
  8
ASSI
100
AcDbLine
 62
7
  6
CONTINUOUS
 10
139.1371779209
 20
108.3601550451
 11
143.3032335581
 21
105.9547267331
  0
LINE
  5
446
100
AcDbEntity
  8
ASSI
100
AcDbLine
 62
250
  6
CONTINUOUS
 10
143.5534378028
 20
106.0834560562
 11
139.405489124
 21
108.4784296373
  0
LINE
  5
447
100
AcDbEntity
  8
ASSI
100
AcDbLine
 62
250
  6
CONTINUOUS
 10
127.6435352261
 20
115.2696344061
 11
123.4955865473
 21
117.6646079872
  0
LINE
  5
448
100
AcDbEntity
  8
ASSI
100
AcDbLine
 62
7
  6
CONTINUOUS
 10
143.8998642565
 20
106.0185433317
 11
139.6285019839
 21
108.4847592193
  0
LINE
  5
449
100
AcDbEntity
  8
ASSI
100
AcDbLine
 62
7
  6
CONTINUOUS
 10
127.9899616798
 20
115.2047216816
 11
123.7185994072
 21
117.6709375692
  0
LINE
  5
44A
100
AcDbEntity
  8
ASSI
100
AcDbLine
 62
7
  6
CONTINUOUS
 10
125.6638565534
 20
117.2804336955
 11
128.6469537548
 21
115.5580307584
  0
LINE
  5
44B
100
AcDbEntity
  8
ASSI
100
AcDbLine
 62
7
  6
CONTINUOUS
 10
129.957799109
 20
114.8011650797
 11
130.0479185967
 21
114.7491312169
  0
LINE
  5
44C
100
AcDbEntity
  8
ASSI
100
AcDbLine
 62
7
  6
CONTINUOUS
 10
141.5737591301
 20
108.0942553457
 11
144.5568563315
 21
106.3718524086
  0
LINE
  5
44D
100
AcDbEntity
  8
ASSI
100
AcDbLine
 62
7
  6
CONTINUOUS
 10
145.8677016857
 20
105.6149867298
 11
145.9578211734
 21
105.562952867
  0
LINE
  5
44E
100
AcDbEntity
  8
ASSI
100
AcDbLine
 62
7
  6
CONTINUOUS
 10
145.218039748
 20
106.5272926284
 11
145.0385823579
 21
106.6309090763
  0
LINE
  5
44F
100
AcDbEntity
  8
ASSI
100
AcDbLine
 62
7
  6
CONTINUOUS
 10
140.2302562458
 20
109.4071763109
 11
140.0507988557
 21
109.5107927588
  0
LINE
  5
450
100
AcDbEntity
  8
ASSI
100
AcDbLine
 62
7
  6
CONTINUOUS
 10
129.3081371713
 20
115.7134709782
 11
129.1286797812
 21
115.8170874262
  0
LINE
  5
451
100
AcDbEntity
  8
ASSI
100
AcDbLine
 62
7
  6
CONTINUOUS
 10
124.3203536691
 20
118.5933546608
 11
124.140896279
 21
118.6969711087
  0
LINE
  5
452
100
AcDbEntity
  8
RACCORDO
100
AcDbLine
 62
7
  6
CONTINUOUS
 10
125.9516281642
 20
117.9535507176
 11
129.7601469859
 21
115.7545596819
  0
LINE
  5
453
100
AcDbEntity
  8
RACCORDO
100
AcDbLine
 62
7
  6
CONTINUOUS
 10
141.8615307409
 20
108.7673723677
 11
145.6700495626
 21
106.568381332
  0
LINE
  5
454
100
AcDbEntity
  8
RACCORDO
100
AcDbLine
 62
250
  6
CONTINUOUS
 10
126.2649737644
 20
118.0773393329
 11
129.974541344
 21
115.9354815043
  0
LINE
  5
455
100
AcDbEntity
  8
RACCORDO
100
AcDbLine
 62
250
  6
CONTINUOUS
 10
142.1748763411
 20
108.891160983
 11
145.8844439207
 21
106.7493031544
  0
LINE
  5
456
100
AcDbEntity
  8
RACCORDO
100
AcDbLine
 62
250
  6
CONTINUOUS
 10
126.5340260629
 20
118.1520289951
 11
130.1891785708
 21
116.0415897468
  0
LINE
  5
457
100
AcDbEntity
  8
RACCORDO
100
AcDbLine
 62
250
  6
CONTINUOUS
 10
142.4439286396
 20
108.9658506452
 11
146.0990811475
 21
106.8554113969
  0
LINE
  5
458
100
AcDbEntity
  8
RACCORDO
100
AcDbLine
 62
250
  6
CONTINUOUS
 10
147.1020230057
 20
106.564761491
 11
147.1483085236
 21
106.5380431703
  0
LINE
  5
459
100
AcDbEntity
  8
RACCORDO
100
AcDbLine
 62
250
  6
CONTINUOUS
 10
131.192120429
 20
115.7509398409
 11
131.2384059469
 21
115.7242215202
  0
LWPOLYLINE
  5
45A
100
AcDbEntity
  8
ASSI
100
AcDbPolyline
 62
7
  6
CONTINUOUS
 90
6
 70
0
 10
123.2171209997
 20
118.5528743704
 10
123.2019684317
 20
118.5621084418
 10
123.1770425183
 20
118.579340285
 10
123.1524606403
 20
118.5984042964
 10
123.1281047947
 20
118.6193723951
 10
123.1039749814
 20
118.6422445812
  0
LWPOLYLINE
  5
45B
100
AcDbEntity
  8
ASSI
100
AcDbPolyline
 62
7
  6
CONTINUOUS
 90
6
 70
0
 10
139.1270235764
 20
109.3666960206
 10
139.1118710084
 20
109.3759300919
 10
139.086945095
 20
109.3931619352
 10
139.062363217
 20
109.4122259465
 10
139.0380073714
 20
109.4331940452
 10
139.0138775581
 20
109.4560662314
  0
LWPOLYLINE
  5
45C
100
AcDbEntity
  8
RACCORDO
100
AcDbPolyline
 62
250
  6
CONTINUOUS
 90
6
 70
0
 10
126.5340260629
 20
118.1520289951
 10
126.5102140982
 20
118.1670640833
 10
126.4856659647
 20
118.178285546
 10
126.4606294698
 20
118.1855801057
 10
126.4353573508
 20
118.188874126
 10
126.4208425472
 20
118.1889430878
  0
LWPOLYLINE
  5
45D
100
AcDbEntity
  8
RACCORDO
100
AcDbPolyline
 62
250
  6
CONTINUOUS
 90
6
 70
0
 10
127.4748274037
 20
118.1907418659
 10
127.451015446
 20
118.2057769499
 10
127.4264673191
 20
118.2169984112
 10
127.4014308301
 20
118.2242929719
 10
127.3761587162
 20
118.2275869953
 10
127.3618023147
 20
118.2276623981
  0
LWPOLYLINE
  5
45E
100
AcDbEntity
  8
RACCORDO
100
AcDbPolyline
 62
250
  6
CONTINUOUS
 90
6
 70
0
 10
142.4439286396
 20
108.9658506452
 10
142.4201166749
 20
108.9808857334
 10
142.3955685414
 20
108.9921071961
 10
142.3705320465
 20
108.9994017558
 10
142.3452599275
 20
109.0026957761
 10
142.3307451239
 20
109.0027647379
  0
LWPOLYLINE
  5
45F
100
AcDbEntity
  8
RACCORDO
100
AcDbPolyline
 62
250
  6
CONTINUOUS
 90
6
 70
0
 10
143.3847299804
 20
109.004563516
 10
143.3609180227
 20
109.0195986
 10
143.3363698957
 20
109.0308200613
 10
143.3113334068
 20
109.038114622
 10
143.2860612929
 20
109.0414086455
 10
143.2717048914
 20
109.0414840482
  0
LWPOLYLINE
  5
460
100
AcDbEntity
  8
RACCORDO
100
AcDbPolyline
 62
250
  6
CONTINUOUS
 90
16
 70
0
 10
131.0619975245
 20
116.2277665683
 10
131.0904744416
 20
116.2091975568
 10
131.116847002
 20
116.1876090074
 10
131.1408723048
 20
116.1631997588
 10
131.1623290681
 20
116.136194629
 10
131.1810196672
 20
116.1068423453
 10
131.1967719548
 20
116.0754132529
 10
131.2094408465
 20
116.0421968256
 10
131.2189096572
 20
116.0074989986
 10
131.2250911757
 20
115.971639352
 10
131.2279284678
 20
115.9349481661
 10
131.227395401
 20
115.8977633804
 10
131.2234968851
 20
115.8604274804
 10
131.216268827
 20
115.8232843436
 10
131.2057777995
 20
115.7866760719
 10
131.192120429
 20
115.7509398409
  0
LWPOLYLINE
  5
461
100
AcDbEntity
  8
RACCORDO
100
AcDbPolyline
 62
250
  6
CONTINUOUS
 90
13
 70
0
 10
129.8169170405
 20
118.5709730985
 10
129.8381207043
 20
118.5564971722
 10
129.8589533945
 20
118.5390980372
 10
129.8790969246
 20
118.5190414379
 10
129.898243634
 20
118.4966337072
 10
129.9161010872
 20
118.4722170875
 10
129.9323965396
 20
118.4461645043
 10
129.946881104
 20
118.4188738696
 10
129.9593335517
 20
118.3907620045
 10
129.9695636911
 20
118.3622582735
 10
129.9774152731
 20
118.3337980259
 10
129.9827683771
 20
118.305815947
 10
129.985541243
 20
118.2787394188
  0
LWPOLYLINE
  5
462
100
AcDbEntity
  8
RACCORDO
100
AcDbPolyline
 62
250
  6
CONTINUOUS
 90
8
 70
0
 10
142.1748763411
 20
108.891160983
 10
142.1512661244
 20
108.909295947
 10
142.1279145861
 20
108.9236540529
 10
142.1050775706
 20
108.9340779902
 10
142.083005285
 20
108.9404535521
 10
142.061939558
 20
108.9427108866
 10
142.04211119
 20
108.9408252619
 10
142.0279074619
 20
108.9365945767
  0
LWPOLYLINE
  5
463
100
AcDbEntity
  8
RACCORDO
100
AcDbPolyline
 62
250
  6
CONTINUOUS
 90
20
 70
0
 10
134.8057913989
 20
114.909382418
 10
134.7640828768
 20
114.9425796207
 10
134.7268709888
 20
114.9774259297
 10
134.694081291
 20
115.0138978915
 10
134.6662547719
 20
115.0514018543
 10
134.6434722967
 20
115.0899812836
 10
134.6256530003
 20
115.1295927139
 10
134.6130952758
 20
115.1695120961
 10
134.6058538859
 20
115.2096215634
 10
134.603874068
 20
115.2500389827
 10
134.6072899273
 20
115.2903939051
 10
134.6160503532
 20
115.3307325566
 10
134.6302064564
 20
115.3710087113
 10
134.6500456737
 20
115.410713243
 10
134.6758547118
 20
115.4500690872
 10
134.7073468639
 20
115.4888533085
 10
134.7439494469
 20
115.5258879745
 10
134.7854715663
 20
115.5607804412
 10
134.8321041165
 20
115.5939233526
 10
134.8838470976
 20
115.6253167089
  0
LWPOLYLINE
  5
464
100
AcDbEntity
  8
ASSI
100
AcDbPolyline
 62
7
  6
CONTINUOUS
 90
13
 70
0
 10
145.6093073581
 20
106.1649699829
 10
145.5799398516
 20
106.2032618915
 10
145.5498586328
 20
106.2402026151
 10
145.5190637018
 20
106.2757921535
 10
145.4874795039
 20
106.3101072264
 10
145.4551815937
 20
106.3430711143
 10
145.422396635
 20
106.3744536582
 10
145.3891213839
 20
106.4042443517
 10
145.3553590844
 20
106.4324537014
 10
145.3213461315
 20
106.4588830678
 10
145.2871613236
 20
106.4834662379
 10
145.2527258625
 20
106.5062694247
 10
145.218039748
 20
106.5272926284
  0
LINE
  5
465
100
AcDbEntity
  8
ASSI
100
AcDbLine
 62
7
  6
CONTINUOUS
 10
145.6093073581
 20
106.1649699829
 11
145.7429852849
 21
105.9843174636
  0
LINE
  5
466
100
AcDbEntity
  8
ASSI
100
AcDbLine
 62
7
  6
CONTINUOUS
 10
145.7429852849
 20
105.9843174636
 11
145.7810444866
 21
105.9325493804
  0
LWPOLYLINE
  5
467
100
AcDbEntity
  8
ASSI
100
AcDbPolyline
 62
7
  6
CONTINUOUS
 90
10
 70
0
 10
146.2549610456
 20
105.2751553778
 10
146.4015530708
 20
105.066881321
 10
146.5471305624
 20
104.8576642508
 10
146.6916935204
 20
104.647504167
 10
146.8352539831
 20
104.4363831606
 10
146.9777999122
 20
104.2243191407
 10
147.1192951932
 20
104.0113658346
 10
147.2597277878
 20
103.7975411512
 10
147.3991097343
 20
103.5828271816
 10
147.5374410327
 20
103.3672239256
  0
LWPOLYLINE
  5
468
100
AcDbEntity
  8
DRAFT
100
AcDbPolyline
 62
7
  6
CONTINUOUS
 90
31
 70
0
 10
143.1656687886
 20
120.2399070445
 10
143.1674386477
 20
120.2347331374
 10
143.1861912028
 20
120.190024511
 10
143.2103962488
 20
120.1464357845
 10
143.2400865916
 20
120.103839745
 10
143.2752294253
 20
120.0623636053
 10
143.3150581228
 20
120.0228025807
 10
143.3594778382
 20
119.9852806923
 10
143.4085834173
 20
119.949673919
 10
143.4618927712
 20
119.9164054129
 10
143.519489351
 20
119.8855222219
 10
143.5812897055
 20
119.8569772982
 10
143.6465613922
 20
119.8310526505
 10
143.7155241948
 20
119.8076921525
 10
143.7879583297
 20
119.7869519305
 10
143.8624720033
 20
119.7692823727
 10
143.9388401871
 20
119.754705061
 10
144.0172879098
 20
119.7431984134
 10
144.0970984635
 20
119.735148073
 10
144.178775341
 20
119.7306386426
 10
144.2618150497
 20
119.7295855192
 10
144.3439904042
 20
119.7321205368
 10
144.4250375234
 20
119.7384216124
 10
144.5052202886
 20
119.7483108289
 10
144.5831031577
 20
119.7613862694
 10
144.6587107054
 20
119.7777081075
 10
144.732018357
 20
119.7972161697
 10
144.8015168475
 20
119.8193280176
 10
144.8667030884
 20
119.8438495054
 10
144.928080168
 20
119.8709747791
 10
144.9856480865
 20
119.9007038386
  0
LWPOLYLINE
  5
469
100
AcDbEntity
  8
DRAFT
100
AcDbPolyline
 62
7
  6
CONTINUOUS
 90
31
 70
0
 10
145.6405425228
 20
118.8109459678
 10
145.6423123818
 20
118.8057720607
 10
145.661064937
 20
118.7610634344
 10
145.685269983
 20
118.7174747079
 10
145.7149603258
 20
118.6748786684
 10
145.7501031595
 20
118.6334025287
 10
145.789931857
 20
118.5938415041
 10
145.8343515723
 20
118.5563196156
 10
145.8834571515
 20
118.5207128423
 10
145.9367665054
 20
118.4874443363
 10
145.9943630851
 20
118.4565611453
 10
146.0561634396
 20
118.4280162216
 10
146.1214351263
 20
118.4020915739
 10
146.190397929
 20
118.3787310758
 10
146.2628320638
 20
118.3579908538
 10
146.3373457375
 20
118.3403212961
 10
146.4137139213
 20
118.3257439843
 10
146.4921616439
 20
118.3142373368
 10
146.5719721977
 20
118.3061869963
 10
146.6536490752
 20
118.3016775659
 10
146.7366887838
 20
118.3006244426
 10
146.8188641383
 20
118.3031594602
 10
146.8999112576
 20
118.3094605357
 10
146.9800940227
 20
118.3193497523
 10
147.0579768919
 20
118.3324251927
 10
147.1335844395
 20
118.3487470309
 10
147.2068920912
 20
118.368255093
 10
147.2763905816
 20
118.390366941
 10
147.3415768225
 20
118.4148884288
 10
147.4029539022
 20
118.4420137024
 10
147.4605218206
 20
118.471742762
  0
LINE
  5
46A
100
AcDbEntity
  8
DRAFT
100
AcDbLine
 62
250
  6
CONTINUOUS
 10
146.1340036707
 20
118.3978340982
 11
145.9387831799
 21
119.3518082534
  0
LINE
  5
46B
100
AcDbEntity
  8
DRAFT
100
AcDbLine
 62
250
  6
CONTINUOUS
 10
148.6088774049
 20
116.9688730215
 11
148.4136569141
 21
117.9228471768
  0
LINE
  5
46C
100
AcDbEntity
  8
DRAFT
100
AcDbLine
 62
7
  6
CONTINUOUS
 10
154.054193818
 20
108.5138507892
 11
154.054193818
 21
109.2172693451
  0
LINE
  5
46D
100
AcDbEntity
  8
DRAFT
100
AcDbLine
 62
7
  6
CONTINUOUS
 10
154.8306509533
 20
114.1567188935
 11
154.8306509533
 21
114.3353549314
  0
LINE
  5
46E
100
AcDbEntity
  8
RACCORDO
100
AcDbLine
 62
7
  6
CONTINUOUS
 10
155.4607863755
 20
109.3679270033
 11
155.4607386879
 21
109.3676059051
  0
LINE
  5
46F
100
AcDbEntity
  8
RACCORDO
100
AcDbLine
 62
250
  6
CONTINUOUS
 10
155.3147995702
 20
109.5849542964
 11
155.2606667564
 21
109.2229465143
  0
LWPOLYLINE
  5
470
100
AcDbEntity
  8
DRAFT
100
AcDbPolyline
 62
7
  6
CONTINUOUS
 90
35
 70
0
 10
159.778329628
 20
119.8723236327
 10
159.7897089148
 20
119.9146645205
 10
159.7956725183
 20
119.9612011017
 10
159.7953370132
 20
120.0082941211
 10
159.7888872328
 20
120.0546763441
 10
159.776161172
 20
120.100063176
 10
159.7573208359
 20
120.1447392115
 10
159.7330370727
 20
120.1882910001
 10
159.7032775206
 20
120.2308449505
 10
159.6680745415
 20
120.272274654
 10
159.6281960685
 20
120.3117874339
 10
159.5837376081
 20
120.3492591169
 10
159.5346036538
 20
120.3848138764
 10
159.4812756199
 20
120.4180315561
 10
159.4236699582
 20
120.4488655995
 10
159.3618702168
 20
120.4773625631
 10
159.2966084538
 20
120.5032419601
 10
159.227667484
 20
120.5265601614
 10
159.1552644926
 20
120.5472607961
 10
159.0807830928
 20
120.5648942648
 10
159.004445531
 20
120.5794399686
 10
158.9260295608
 20
120.5909185064
 10
158.8462520564
 20
120.5989420751
 10
158.7646084841
 20
120.603423852
 10
158.6816033777
 20
120.6044506597
 10
158.5994672123
 20
120.601895163
 10
158.5184659181
 20
120.595580954
 10
158.4383335651
 20
120.5856844406
 10
158.3605028378
 20
120.5726075107
 10
158.2849469378
 20
120.5562895618
 10
158.2116926636
 20
120.5367911965
 10
158.1422530957
 20
120.5146961102
 10
158.0771325941
 20
120.4901988679
 10
158.0158267988
 20
120.4631049045
 10
157.9583357097
 20
120.4334142201
  0
LWPOLYLINE
  5
471
100
AcDbEntity
  8
DRAFT
100
AcDbPolyline
 62
7
  6
CONTINUOUS
 90
35
 70
0
 10
162.2532033621
 20
118.4433625561
 10
162.2645826489
 20
118.4857034438
 10
162.2705462525
 20
118.532240025
 10
162.2702107474
 20
118.5793330445
 10
162.263760967
 20
118.6257152675
 10
162.2510349062
 20
118.6711020994
 10
162.2321945701
 20
118.7157781349
 10
162.2079108068
 20
118.7593299235
 10
162.1781512548
 20
118.8018838739
 10
162.1429482756
 20
118.8433135773
 10
162.1030698026
 20
118.8828263573
 10
162.0586113422
 20
118.9202980403
 10
162.009477388
 20
118.9558527998
 10
161.956149354
 20
118.9890704794
 10
161.8985436923
 20
119.0199045228
 10
161.836743951
 20
119.0484014864
 10
161.7714821879
 20
119.0742808834
 10
161.7025412181
 20
119.0975990847
 10
161.6301382267
 20
119.1182997195
 10
161.5556568269
 20
119.1359331881
 10
161.4793192651
 20
119.150478892
 10
161.4009032949
 20
119.1619574298
 10
161.3211257906
 20
119.1699809984
 10
161.2394822183
 20
119.1744627753
 10
161.1564771118
 20
119.1754895831
 10
161.0743409464
 20
119.1729340863
 10
160.9933396523
 20
119.1666198774
 10
160.9132072992
 20
119.1567233639
 10
160.8353765719
 20
119.143646434
 10
160.759820672
 20
119.1273284852
 10
160.6865663978
 20
119.1078301199
 10
160.6171268298
 20
119.0857350335
 10
160.5520063283
 20
119.0612377912
 10
160.490700533
 20
119.0341438279
 10
160.4332094439
 20
119.0044531435
  0
LWPOLYLINE
  5
472
100
AcDbEntity
  8
RACCORDO
100
AcDbPolyline
 62
250
  6
CONTINUOUS
 90
19
 70
0
 10
146.7427873281
 20
107.0656632898
 10
146.7571711931
 20
107.0690021739
 10
146.7712371902
 20
107.0717527547
 10
146.78498208
 20
107.0739346813
 10
146.7983397532
 20
107.0755615681
 10
146.8113735728
 20
107.0766640742
 10
146.8242683007
 20
107.0772663214
 10
146.8370755328
 20
107.0773668083
 10
146.8497253703
 20
107.0769603453
 10
146.862213143
 20
107.0760446416
 10
146.8744716648
 20
107.0746276437
 10
146.8865537811
 20
107.0727055494
 10
146.8986256014
 20
107.0702374959
 10
146.9106499687
 20
107.0672083609
 10
146.9226280197
 20
107.0635928676
 10
146.9347588191
 20
107.0592851365
 10
146.9470776788
 20
107.0542032714
 10
146.9594717184
 20
107.048321439
 10
146.9719001012
 20
107.0415882185
  0
LINE
  5
473
100
AcDbEntity
  8
0
100
AcDbLine
 62
7
  6
CONTINUOUS
 10
135.9453058402
 20
107.6094964854
 11
135.9987388211
 21
107.6202791571
  0
LINE
  5
474
100
AcDbEntity
  8
0
100
AcDbLine
 62
7
  6
CONTINUOUS
 10
135.9987388211
 20
107.6202791571
 11
136.0522888407
 21
107.6307932853
  0
LINE
  5
475
100
AcDbEntity
  8
0
100
AcDbLine
 62
7
  6
CONTINUOUS
 10
136.0522888407
 20
107.6307932853
 11
136.1059553321
 21
107.6410387587
  0
LWPOLYLINE
  5
476
100
AcDbEntity
  8
0
100
AcDbPolyline
 62
7
  6
CONTINUOUS
 90
10
 70
0
 10
136.1059553321
 20
107.6410387587
 10
136.1453830696
 20
107.6463146366
 10
136.1859454558
 20
107.6477504371
 10
136.2276424908
 20
107.6453461602
 10
136.2706595204
 20
107.6390592939
 10
136.3148111987
 20
107.6289323503
 10
136.3595414884
 20
107.6150928655
 10
136.4046650437
 20
107.5975833518
 10
136.4503672103
 20
107.5763612969
 10
136.4966479882
 20
107.5514267009
  0
LWPOLYLINE
  5
477
100
AcDbEntity
  8
RACCORDO
100
AcDbPolyline
 62
250
  6
CONTINUOUS
 90
10
 70
0
 10
142.4439286396
 20
108.9658506452
 10
142.423799099
 20
108.963865501
 10
142.403406593
 20
108.9612138706
 10
142.3827627614
 20
108.9578904917
 10
142.3620044828
 20
108.9539173124
 10
142.3410209074
 20
108.9492715282
 10
142.3194462718
 20
108.9438454479
 10
142.2972549172
 20
108.9375894978
 10
142.2744904142
 20
108.9304724533
 10
142.2508841596
 20
108.922350865
  0
LWPOLYLINE
  5
478
100
AcDbEntity
  8
RACCORDO
100
AcDbPolyline
 62
7
  6
CONTINUOUS
 90
8
 70
0
 10
142.3307267514
 20
109.0027639808
 10
142.3159161969
 20
109.0020221682
 10
142.2658129075
 20
108.9975765129
 10
142.2153026281
 20
108.9901128885
 10
142.1645120921
 20
108.9796259545
 10
142.1135836543
 20
108.9661201733
 10
142.0626279411
 20
108.9495967174
 10
142.0279005918
 20
108.9365918623
  0
LINE
  5
479
100
AcDbEntity
  8
RACCORDO
100
AcDbLine
 62
250
  6
CONTINUOUS
 10
143.3847299804
 20
109.004563516
 11
142.4439286396
 21
108.9658506452
  0
LINE
  5
47A
100
AcDbEntity
  8
RACCORDO
100
AcDbLine
 62
7
  6
CONTINUOUS
 10
143.2715464621
 20
109.0414776087
 11
142.3307451239
 21
109.0027647379
  0
LWPOLYLINE
  5
47B
100
AcDbEntity
  8
RACCORDO
100
AcDbPolyline
 62
250
  6
CONTINUOUS
 90
27
 70
0
 10
144.58799214
 20
109.3083189533
 10
144.5234545641
 20
109.3266237168
 10
144.4617430151
 20
109.347451948
 10
144.4029009923
 20
109.370846477
 10
144.3468849966
 20
109.3967644737
 10
144.2946264313
 20
109.4247753816
 10
144.246188994
 20
109.4549137563
 10
144.2015089872
 20
109.4871450422
 10
144.1613267216
 20
109.5209350164
 10
144.1257177356
 20
109.5563060104
 10
144.0946064908
 20
109.5932356926
 10
144.0685066833
 20
109.6311228454
 10
144.0475011987
 20
109.6700097045
 10
144.0315071514
 20
109.7098540342
 10
144.0207895801
 20
109.7499279095
 10
144.0153978234
 20
109.790112738
 10
144.0152825427
 20
109.8305271122
 10
144.0205607609
 20
109.8707988843
 10
144.0311834992
 20
109.9109750068
 10
144.0471997365
 20
109.9510085272
 10
144.0688734325
 20
109.9903864405
 10
144.0965016145
 20
110.0293272351
 10
144.1297872552
 20
110.0676124226
 10
144.1681032318
 20
110.1040735334
 10
144.2112405035
 20
110.1383210774
 10
144.2594081112
 20
110.1707445447
 10
144.3126060548
 20
110.2013439353
  0
LWPOLYLINE
  5
47C
100
AcDbEntity
  8
RACCORDO
100
AcDbPolyline
 62
250
  6
CONTINUOUS
 90
16
 70
0
 10
129.974541344
 20
115.9354815043
 10
130.0090485967
 20
115.9200601705
 10
130.0431777791
 20
115.9012296267
 10
130.0765549646
 20
115.8791961847
 10
130.1088144659
 20
115.8542012478
 10
130.1396028408
 20
115.8265186665
 10
130.168582765
 20
115.7964517379
 10
130.1954367284
 20
115.7643298822
 10
130.2198705139
 20
115.7305050335
 10
130.24161642
 20
115.6953477848
 10
130.2604361945
 20
115.6592433265
 10
130.2761236447
 20
115.6225872267
 10
130.2885068966
 20
115.5857810975
 10
130.2974502773
 20
115.5492281944
 10
130.3028558023
 20
115.5133289981
 10
130.3046642485
 20
115.4784768273
  0
LWPOLYLINE
  5
47D
100
AcDbEntity
  8
RACCORDO
100
AcDbPolyline
 62
250
  6
CONTINUOUS
 90
17
 70
0
 10
143.645676627
 20
108.9608763242
 10
143.6321629742
 20
108.9671468842
 10
143.6183969784
 20
108.9729571515
 10
143.6043903036
 20
108.9783050644
 10
143.5901629457
 20
108.9831861684
 10
143.5757885004
 20
108.9875829156
 10
143.5612119941
 20
108.9915199692
 10
143.5462530162
 20
108.9950396953
 10
143.5309294604
 20
108.9981226
 10
143.5152258054
 20
109.0007574333
 10
143.4988949202
 20
109.0029580576
 10
143.4819230161
 20
109.0046849639
 10
143.4643115115
 20
109.005897093
 10
143.4458204532
 20
109.0065592515
 10
143.4263597987
 20
109.0066052322
 10
143.405998487
 20
109.0059630081
 10
143.3847299804
 20
109.004563516
  0
LWPOLYLINE
  5
47E
100
AcDbEntity
  8
RACCORDO
100
AcDbPolyline
 62
250
  6
CONTINUOUS
 90
17
 70
0
 10
127.7357741239
 20
118.1470546384
 10
127.7222603975
 20
118.1533252341
 10
127.7084943763
 20
118.1591355115
 10
127.694487714
 20
118.1644834189
 10
127.680260369
 20
118.1693645183
 10
127.6658859237
 20
118.1737612654
 10
127.6513094174
 20
118.177698319
 10
127.6363504395
 20
118.1812180451
 10
127.6210268837
 20
118.1843009499
 10
127.6053232287
 20
118.1869357832
 10
127.5889923435
 20
118.1891364075
 10
127.5720204394
 20
118.1908633138
 10
127.5544089348
 20
118.1920754429
 10
127.5359178765
 20
118.1927376014
 10
127.516457222
 20
118.192783582
 10
127.4960959103
 20
118.1921413579
 10
127.4748274037
 20
118.1907418659
  0
LWPOLYLINE
  5
47F
100
AcDbEntity
  8
RACCORDO
100
AcDbPolyline
 62
250
  6
CONTINUOUS
 90
8
 70
0
 10
150.7487700264
 20
106.4851835221
 10
150.7263773496
 20
106.4958794656
 10
150.704279711
 20
106.5032675149
 10
150.6828146245
 20
106.507234884
 10
150.6623099393
 20
106.5077210371
 10
150.6430788114
 20
106.5047186128
 10
150.6254149253
 20
106.4982735218
 10
150.6190086909
 20
106.4948456289
  0
LWPOLYLINE
  5
480
100
AcDbEntity
  8
RACCORDO
100
AcDbPolyline
 62
250
  6
CONTINUOUS
 90
8
 70
0
 10
136.2530810121
 20
114.8548126854
 10
136.2306883353
 20
114.8655086288
 10
136.2085906967
 20
114.8728966782
 10
136.1871256101
 20
114.8768640472
 10
136.166620925
 20
114.8773502003
 10
136.1473897971
 20
114.8743477761
 10
136.129725911
 20
114.867902685
 10
136.1233196766
 20
114.8644747921
  0
LWPOLYLINE
  5
481
100
AcDbEntity
  8
RACCORDO
100
AcDbPolyline
 62
250
  6
CONTINUOUS
 90
8
 70
0
 10
145.646454599
 20
109.4111220248
 10
145.624631785
 20
109.4221373705
 10
145.6030951257
 20
109.4298419785
 10
145.5821733644
 20
109.4341182999
 10
145.5621858555
 20
109.4349011202
 10
145.5434376685
 20
109.4321785547
 10
145.5262149371
 20
109.4259922144
 10
145.5216788996
 20
109.4236378469
  0
LWPOLYLINE
  5
482
100
AcDbEntity
  8
RACCORDO
100
AcDbPolyline
 62
250
  6
CONTINUOUS
 90
8
 70
0
 10
131.1507655846
 20
117.780751188
 10
131.1289427706
 20
117.7917665337
 10
131.1074061114
 20
117.7994711417
 10
131.08648435
 20
117.8037474631
 10
131.0664968411
 20
117.8045302835
 10
131.0477486542
 20
117.8018077179
 10
131.0305259227
 20
117.7956213776
 10
131.0259898852
 20
117.7932670101
  0
LWPOLYLINE
  5
483
100
AcDbEntity
  8
RACCORDO
100
AcDbPolyline
 62
250
  6
CONTINUOUS
 90
16
 70
0
 10
146.7427873281
 20
107.0656632898
 10
146.7748784225
 20
107.0484206522
 10
146.8056690204
 20
107.0276902275
 10
146.8348482985
 20
107.003681284
 10
146.8621216992
 20
106.9766361862
 10
146.8872139043
 20
106.9468279475
 10
146.9098716144
 20
106.9145574745
 10
146.9298661054
 20
106.8801505297
 10
146.9469955381
 20
106.8439544424
 10
146.961086995
 20
106.8063346031
 10
146.9719982263
 20
106.7676707747
 10
146.9796190859
 20
106.7283532589
 10
146.9838726431
 20
106.6887789561
 10
146.9847159593
 20
106.649347359
 10
146.9821405213
 20
106.6104565199
 10
146.9761723275
 20
106.5724990319
  0
LWPOLYLINE
  5
484
100
AcDbEntity
  8
RACCORDO
100
AcDbPolyline
 62
250
  6
CONTINUOUS
 90
16
 70
0
 10
130.1891785708
 20
116.0415897468
 10
130.2212696656
 20
116.0243471089
 10
130.2520602639
 20
116.0036166838
 10
130.2812395422
 20
115.9796077399
 10
130.3085129431
 20
115.9525626417
 10
130.3336051483
 20
115.9227544026
 10
130.3562628584
 20
115.8904839292
 10
130.3762573493
 20
115.8560769841
 10
130.3933867818
 20
115.8198808966
 10
130.4074782384
 20
115.7822610573
 10
130.4183894695
 20
115.743597229
 10
130.4260103289
 20
115.7042797135
 10
130.4302638859
 20
115.6647054111
 10
130.4311072019
 20
115.6252738146
 10
130.4285317639
 20
115.5863829761
 10
130.4225635702
 20
115.5484254889
  0
LWPOLYLINE
  5
485
100
AcDbEntity
  8
RACCORDO
100
AcDbPolyline
 62
250
  6
CONTINUOUS
 90
16
 70
0
 10
130.8328847514
 20
116.2518416397
 10
130.8649758458
 20
116.2345990021
 10
130.8957664437
 20
116.2138685773
 10
130.9249457218
 20
116.1898596339
 10
130.9522191225
 20
116.1628145361
 10
130.9773113276
 20
116.1330062974
 10
130.9999690377
 20
116.1007358244
 10
131.0199635287
 20
116.0663288795
 10
131.0370929614
 20
116.0301327922
 10
131.0511844183
 20
115.992512953
 10
131.0620956496
 20
115.9538491246
 10
131.0697165092
 20
115.9145316087
 10
131.0739700664
 20
115.8749573059
 10
131.0748133826
 20
115.8355257089
 10
131.0722379446
 20
115.7966348697
 10
131.0662697508
 20
115.7586773818
  0
LWPOLYLINE
  5
486
100
AcDbEntity
  8
RACCORDO
100
AcDbPolyline
 62
7
  6
CONTINUOUS
 90
16
 70
0
 10
150.8970895252
 20
104.775284949
 10
150.8390686097
 20
104.8070204223
 10
150.7820833513
 20
104.8347211538
 10
150.72626977
 20
104.8584454378
 10
150.6717712011
 20
104.8782595421
 10
150.6187076735
 20
104.8942413426
 10
150.567171531
 20
104.9064696368
 10
150.5173493795
 20
104.9150112773
 10
150.4692890143
 20
104.9199702133
 10
150.422854891
 20
104.9214456665
 10
150.3779908875
 20
104.9194686654
 10
150.3349431025
 20
104.9141157243
 10
150.2940249592
 20
104.9055749269
 10
150.2554069823
 20
104.8940108374
 10
150.2191067943
 20
104.879510174
 10
150.1852077754
 20
104.8621940856
  0
LINE
  5
487
100
AcDbEntity
  8
RACCORDO
100
AcDbLine
 62
250
  6
CONTINUOUS
 10
143.671927682
 20
108.946950935
 11
143.6589340997
 21
108.9541441198
  0
LINE
  5
488
100
AcDbEntity
  8
RACCORDO
100
AcDbLine
 62
250
  6
CONTINUOUS
 10
127.7620254234
 20
118.1331291012
 11
127.7490317033
 21
118.140322374
  0
LWPOLYLINE
  5
489
100
AcDbEntity
  8
RACCORDO
100
AcDbPolyline
 62
7
  6
CONTINUOUS
 90
9
 70
0
 10
143.6716583623
 20
108.9471061807
 10
143.6632208583
 20
108.9518926037
 10
143.6125942658
 20
108.9774561556
 10
143.5591698424
 20
108.999113039
 10
143.5031713578
 20
109.0166109859
 10
143.4449101285
 20
109.029709257
 10
143.3847541127
 20
109.0382110449
 10
143.322990631
 20
109.0419814438
 10
143.2717048914
 20
109.0414840482
  0
LWPOLYLINE
  5
48A
100
AcDbEntity
  8
RACCORDO
100
AcDbPolyline
 62
7
  6
CONTINUOUS
 90
9
 70
0
 10
127.7617557856
 20
118.1332845305
 10
127.7533182816
 20
118.1380709535
 10
127.7026916891
 20
118.1636345055
 10
127.6492672657
 20
118.1852913889
 10
127.5932687811
 20
118.2027893358
 10
127.5350075518
 20
118.2158876069
 10
127.474851536
 20
118.2243893948
 10
127.4130880543
 20
118.2281597937
 10
127.3618023147
 20
118.2276623981
  0
LINE
  5
48B
100
AcDbEntity
  8
RACCORDO
100
AcDbLine
 62
250
  6
CONTINUOUS
 10
150.1852077754
 20
104.8621940856
 11
147.1996309975
 21
106.5860286991
  0
LINE
  5
48C
100
AcDbEntity
  8
RACCORDO
100
AcDbLine
 62
250
  6
CONTINUOUS
 10
142.968537356
 20
109.0290091396
 11
131.2897284208
 21
115.772207049
  0
LINE
  5
48D
100
AcDbEntity
  8
RACCORDO
100
AcDbLine
 62
250
  6
CONTINUOUS
 10
127.0586347793
 20
118.2151874895
 11
124.5037187889
 21
119.6903639617
  0
LINE
  5
48E
100
AcDbEntity
  8
RACCORDO
100
AcDbLine
 62
250
  6
CONTINUOUS
 10
146.7427873281
 20
107.0656632898
 11
143.3847299804
 21
109.004563516
  0
LINE
  5
48F
100
AcDbEntity
  8
RACCORDO
100
AcDbLine
 62
250
  6
CONTINUOUS
 10
130.8328847514
 20
116.2518416397
 11
127.4748274037
 21
118.1907418659
  0
LINE
  5
490
100
AcDbEntity
  8
RACCORDO
100
AcDbLine
 62
250
  6
CONTINUOUS
 10
125.0325426181
 20
120.0333638406
 11
153.2415457712
 21
103.7458389619
  0
LINE
  5
491
100
AcDbEntity
  8
RACCORDO
100
AcDbLine
 62
7
  6
CONTINUOUS
 10
124.7350524106
 20
119.8809897092
 11
152.5616807963
 21
103.814262014
  0
LWPOLYLINE
  5
492
100
AcDbEntity
  8
RACCORDO
100
AcDbPolyline
 62
250
  6
CONTINUOUS
 90
13
 70
0
 10
134.8838470976
 20
115.6253167089
 10
134.9056221899
 20
115.6111592622
 10
134.9270178142
 20
115.5940755429
 10
134.9477073873
 20
115.5743263174
 10
134.9673751029
 20
115.5522130385
 10
134.9857207525
 20
115.5280732438
 10
135.0024643074
 20
115.5022754038
 10
135.0173501937
 20
115.4752132975
 10
135.0301511928
 20
115.4473000017
 10
135.0406719098
 20
115.4189615856
 10
135.0487517562
 20
115.3906306077
 10
135.0542674011
 20
115.3627395127
 10
135.0571346534
 20
115.3357140312
  0
LWPOLYLINE
  5
493
100
AcDbEntity
  8
RACCORDO
100
AcDbPolyline
 62
250
  6
CONTINUOUS
 90
13
 70
0
 10
149.3795361119
 20
107.2556875457
 10
149.4013112042
 20
107.241530099
 10
149.4227068286
 20
107.2244463797
 10
149.4433964017
 20
107.2046971542
 10
149.4630641173
 20
107.1825838753
 10
149.4814097668
 20
107.1584440805
 10
149.4981533218
 20
107.1326462406
 10
149.5130392081
 20
107.1055841343
 10
149.5258402071
 20
107.0776708385
 10
149.5363609241
 20
107.0493324224
 10
149.5444407705
 20
107.0210014444
 10
149.5499564154
 20
106.9931103495
 10
149.5528236677
 20
106.9660848679
  0
LWPOLYLINE
  5
494
100
AcDbEntity
  8
RACCORDO
100
AcDbPolyline
 62
250
  6
CONTINUOUS
 90
16
 70
0
 10
146.9719001012
 20
107.0415882185
 10
147.0003770183
 20
107.0230192069
 10
147.0267495787
 20
107.0014306576
 10
147.0507748815
 20
106.9770214089
 10
147.0722316448
 20
106.9500162791
 10
147.0909222439
 20
106.9206639954
 10
147.1066745315
 20
106.8892349031
 10
147.1193434232
 20
106.8560184757
 10
147.1288122339
 20
106.8213206488
 10
147.1349937524
 20
106.7854610021
 10
147.1378310444
 20
106.7487698163
 10
147.1372979777
 20
106.7115850305
 10
147.1333994618
 20
106.6742491306
 10
147.1261714037
 20
106.6371059937
 10
147.1156803762
 20
106.600497722
 10
147.1020230057
 20
106.564761491
  0
LWPOLYLINE
  5
495
100
AcDbEntity
  8
RACCORDO
100
AcDbPolyline
 62
250
  6
CONTINUOUS
 90
13
 70
0
 10
144.3126060548
 20
110.2013439353
 10
144.3338097186
 20
110.1868680089
 10
144.3546424088
 20
110.169468874
 10
144.3747859389
 20
110.1494122747
 10
144.3939326484
 20
110.1270045439
 10
144.4117901015
 20
110.1025879243
 10
144.4280855539
 20
110.0765353411
 10
144.4425701184
 20
110.0492447063
 10
144.455022566
 20
110.0211328413
 10
144.4652527054
 20
109.9926291103
 10
144.4731042874
 20
109.9641688626
 10
144.4784573914
 20
109.9361867837
 10
144.4812302573
 20
109.9091102555
  0
LWPOLYLINE
  5
496
100
AcDbEntity
  8
RACCORDO
100
AcDbPolyline
 62
250
  6
CONTINUOUS
 90
20
 70
0
 10
149.3014804132
 20
106.5397532548
 10
149.2597718911
 20
106.5729504575
 10
149.2225600031
 20
106.6077967664
 10
149.1897703053
 20
106.6442687283
 10
149.1619437862
 20
106.681772691
 10
149.139161311
 20
106.7203521204
 10
149.1213420146
 20
106.7599635507
 10
149.1087842901
 20
106.7998829329
 10
149.1015429002
 20
106.8399924002
 10
149.0995630823
 20
106.8804098194
 10
149.1029789416
 20
106.9207647419
 10
149.1117393676
 20
106.9611033934
 10
149.1258954708
 20
107.0013795481
 10
149.145734688
 20
107.0410840798
 10
149.1715437261
 20
107.080439924
 10
149.2030358782
 20
107.1192241452
 10
149.2396384612
 20
107.1562588112
 10
149.2811605806
 20
107.1911512779
 10
149.3277931308
 20
107.2242941894
 10
149.3795361119
 20
107.2556875457
  0
LWPOLYLINE
  5
497
100
AcDbEntity
  8
RACCORDO
100
AcDbPolyline
 62
7
  6
CONTINUOUS
 90
5
 70
0
 10
138.4730490315
 20
118.2876985077
 10
138.5039741874
 20
118.2545048092
 10
138.5354350928
 20
118.2227540455
 10
138.5674317478
 20
118.1924462166
 10
138.5817523371
 20
118.1797421195
  0
LWPOLYLINE
  5
498
100
AcDbEntity
  8
DRAFT
100
AcDbPolyline
 62
7
  6
CONTINUOUS
 90
33
 70
0
 10
142.6797436911
 20
126.1137029543
 10
142.674923689
 20
126.1228526151
 10
142.6263241523
 20
126.1972931376
 10
142.569256327
 20
126.2697507467
 10
142.5038358571
 20
126.3402494491
 10
142.4309105095
 20
126.4078893045
 10
142.3503916631
 20
126.4726345788
 10
142.262367939
 20
126.534521006
 10
142.1679529673
 20
126.5927558474
 10
142.0670598449
 20
126.6472894517
 10
141.9597754748
 20
126.6981714703
 10
141.8474741971
 20
126.7447581191
 10
141.7300933304
 20
126.7869986868
 10
141.6076955561
 20
126.8249438846
 10
141.4818432577
 20
126.8581020623
 10
141.3524940299
 20
126.8864069263
 10
141.2196902781
 20
126.9099247702
 10
141.0851216023
 20
126.9283628245
 10
140.9487603476
 20
126.9416608691
 10
140.8106341689
 20
126.9498791241
 10
140.6725156308
 20
126.9529054803
 10
140.5344118204
 20
126.9506690318
 10
140.3963156505
 20
126.9432406846
 10
140.2599784248
 20
126.9307210474
 10
140.1254151295
 20
126.9130485857
 10
139.9926107784
 20
126.890284834
 10
139.8632717159
 20
126.8627150055
 10
139.7374493219
 20
126.8302744377
 10
139.6150922164
 20
126.793027793
 10
139.4977526043
 20
126.7514542715
 10
139.3859478871
 20
126.7057136065
 10
139.2791606633
 20
126.6556460647
 10
139.1773909329
 20
126.6012516461
  0
LWPOLYLINE
  5
499
100
AcDbEntity
  8
RACCORDO
100
AcDbPolyline
 62
250
  6
CONTINUOUS
 90
8
 70
0
 10
153.3351558039
 20
109.5427947888
 10
153.3307524112
 20
109.5547906559
 10
153.3244238881
 20
109.5666822466
 10
153.3162128631
 20
109.5784303409
 10
153.3061998192
 20
109.5897215607
 10
153.294411584
 20
109.6004514465
 10
153.28082133
 20
109.6107244579
 10
153.265429057
 20
109.6205405948
  0
LWPOLYLINE
  5
49A
100
AcDbEntity
  8
DRAFT
100
AcDbPolyline
 62
7
  6
CONTINUOUS
 90
31
 70
0
 10
148.115416257
 20
117.3819848912
 10
148.117186116
 20
117.3768109841
 10
148.1359386711
 20
117.3321023577
 10
148.1601437171
 20
117.2885136313
 10
148.1898340599
 20
117.2459175917
 10
148.2249768936
 20
117.204441452
 10
148.2648055911
 20
117.1648804274
 10
148.3092253065
 20
117.127358539
 10
148.3583308856
 20
117.0917517657
 10
148.4116402395
 20
117.0584832596
 10
148.4692368193
 20
117.0276000686
 10
148.5310371738
 20
116.9990551449
 10
148.5963088605
 20
116.9731304972
 10
148.6652716631
 20
116.9497699992
 10
148.737705798
 20
116.9290297772
 10
148.8122194716
 20
116.9113602194
 10
148.8885876555
 20
116.8967829077
 10
148.9670353781
 20
116.8852762601
 10
149.0468459318
 20
116.8772259197
 10
149.1285228093
 20
116.8727164893
 10
149.211562518
 20
116.8716633659
 10
149.2937378725
 20
116.8741983835
 10
149.3747849917
 20
116.8804994591
 10
149.4549677569
 20
116.8903886756
 10
149.532850626
 20
116.9034641161
 10
149.6084581737
 20
116.9197859542
 10
149.6817658253
 20
116.9392940164
 10
149.7512643158
 20
116.9614058643
 10
149.8164505567
 20
116.9859273521
 10
149.8778276363
 20
117.0130526258
 10
149.9353955548
 20
117.0427816853
  0
LWPOLYLINE
  5
49B
100
AcDbEntity
  8
DRAFT
100
AcDbPolyline
 62
7
  6
CONTINUOUS
 90
31
 70
0
 10
150.5902899911
 20
115.9530238145
 10
150.5920598501
 20
115.9478499074
 10
150.6108124053
 20
115.9031412811
 10
150.6350174513
 20
115.8595525546
 10
150.6647077941
 20
115.8169565151
 10
150.6998506278
 20
115.7754803754
 10
150.7396793253
 20
115.7359193508
 10
150.7840990406
 20
115.6983974624
 10
150.8332046198
 20
115.662790689
 10
150.8865139737
 20
115.629522183
 10
150.9441105534
 20
115.598638992
 10
151.0059109079
 20
115.5700940683
 10
151.0711825946
 20
115.5441694206
 10
151.1401453973
 20
115.5208089225
 10
151.2125795321
 20
115.5000687005
 10
151.2870932058
 20
115.4823991428
 10
151.3634613896
 20
115.467821831
 10
151.4419091122
 20
115.4563151835
 10
151.521719666
 20
115.448264843
 10
151.6033965435
 20
115.4437554126
 10
151.6864362521
 20
115.4427022893
 10
151.7686116066
 20
115.4452373069
 10
151.8496587259
 20
115.4515383825
 10
151.929841491
 20
115.461427599
 10
152.0077243602
 20
115.4745030395
 10
152.0833319078
 20
115.4908248776
 10
152.1566395595
 20
115.5103329397
 10
152.2261380499
 20
115.5324447877
 10
152.2913242908
 20
115.5569662755
 10
152.3527013705
 20
115.5840915492
 10
152.410269289
 20
115.6138206087
  0
LINE
  5
49C
100
AcDbEntity
  8
DRAFT
100
AcDbLine
 62
250
  6
CONTINUOUS
 10
150.8191802941
 20
123.3321991599
 11
150.5337155395
 21
124.7202971775
  0
LINE
  5
49D
100
AcDbEntity
  8
DRAFT
100
AcDbLine
 62
250
  6
CONTINUOUS
 10
151.083751139
 20
115.5399119449
 11
150.8885306482
 21
116.4938861002
  0
LINE
  5
49E
100
AcDbEntity
  8
DRAFT
100
AcDbLine
 62
250
  6
CONTINUOUS
 10
153.5586248732
 20
114.1109508682
 11
153.3634043824
 21
115.0649250235
  0
LWPOLYLINE
  5
49F
100
AcDbEntity
  8
RACCORDO
100
AcDbPolyline
 62
7
  6
CONTINUOUS
 90
12
 70
0
 10
153.5816296676
 20
109.3632430326
 10
153.5769495134
 20
109.3880140598
 10
153.568809617
 20
109.4174408064
 10
153.5577926289
 20
109.4466347242
 10
153.5438758815
 20
109.4752822016
 10
153.5271213802
 20
109.503046227
 10
153.5075602694
 20
109.5297357157
 10
153.4852697734
 20
109.5551246982
 10
153.4604100256
 20
109.5789552708
 10
153.4330978546
 20
109.6011014625
 10
153.4034010566
 20
109.6214858402
 10
153.3873819275
 20
109.6311571426
  0
LINE
  5
4A0
100
AcDbEntity
  8
RACCORDO
100
AcDbLine
 62
250
  6
CONTINUOUS
 10
153.5436472381
 20
108.4365945581
 11
153.4384478842
 21
109.1312819104
  0
LINE
  5
4A1
100
AcDbEntity
  8
RACCORDO
100
AcDbLine
 62
7
  6
CONTINUOUS
 10
153.6890842799
 20
108.6537100461
 11
153.5815621984
 21
109.363735606
  0
LINE
  5
4A2
100
AcDbEntity
  8
DRAFT
100
AcDbLine
 62
7
  6
CONTINUOUS
 10
157.3055246875
 20
112.7277578168
 11
157.3055246875
 21
112.9063938547
  0
LINE
  5
4A3
100
AcDbEntity
  8
DRAFT
100
AcDbLine
 62
7
  6
CONTINUOUS
 10
159.7803984216
 20
111.2987967402
 11
159.7803984216
 21
111.4774327781
  0
LWPOLYLINE
  5
4A4
100
AcDbEntity
  8
DRAFT
100
AcDbPolyline
 62
7
  6
CONTINUOUS
 90
35
 70
0
 10
164.7280770963
 20
117.0144014794
 10
164.7394563831
 20
117.0567423672
 10
164.7454199866
 20
117.1032789484
 10
164.7450844815
 20
117.1503719678
 10
164.7386347011
 20
117.1967541908
 10
164.7259086403
 20
117.2421410227
 10
164.7070683042
 20
117.2868170582
 10
164.682784541
 20
117.3303688468
 10
164.6530249889
 20
117.3729227972
 10
164.6178220098
 20
117.4143525007
 10
164.5779435368
 20
117.4538652806
 10
164.5334850764
 20
117.4913369636
 10
164.4843511221
 20
117.5268917231
 10
164.4310230882
 20
117.5601094028
 10
164.3734174265
 20
117.5909434462
 10
164.3116176851
 20
117.6194404098
 10
164.2463559221
 20
117.6453198068
 10
164.1774149523
 20
117.6686380081
 10
164.1050119609
 20
117.6893386428
 10
164.0305305611
 20
117.7069721115
 10
163.9541929993
 20
117.7215178153
 10
163.8757770291
 20
117.7329963531
 10
163.7959995247
 20
117.7410199218
 10
163.7143559524
 20
117.7455016987
 10
163.631350846
 20
117.7465285064
 10
163.5492146806
 20
117.7439730097
 10
163.4682133864
 20
117.7376588007
 10
163.3880810334
 20
117.7277622873
 10
163.3102503061
 20
117.7146853574
 10
163.2346944061
 20
117.6983674085
 10
163.1614401319
 20
117.6788690432
 10
163.092000564
 20
117.6567739569
 10
163.0268800624
 20
117.6322767146
 10
162.9655742671
 20
117.6051827512
 10
162.908083178
 20
117.5754920668
  0
LWPOLYLINE
  5
4A5
100
AcDbEntity
  8
ASSI
100
AcDbPolyline
 62
7
  6
CONTINUOUS
 90
11
 70
0
 10
131.2957941212
 20
72.8519645934
 10
131.3321522882
 20
72.8755338339
 10
131.3785422478
 20
72.9143913979
 10
131.4202341183
 20
72.9604979497
 10
131.4568344813
 20
73.0136137568
 10
131.4881381266
 20
73.0737646644
 10
131.5136685569
 20
73.1404016352
 10
131.5329548251
 20
73.2120468368
 10
131.546007119
 20
73.2876540862
 10
131.5530160673
 20
73.3669161692
 10
131.5541149322
 20
73.4491909774
  0
LWPOLYLINE
  5
4A6
100
AcDbEntity
  8
ASSI
100
AcDbPolyline
 62
7
  6
CONTINUOUS
 90
11
 70
0
 10
129.938380941
 20
75.1282169506
 10
129.905037164
 20
75.1068067468
 10
129.8588177323
 20
75.0688067721
 10
129.8171971096
 20
75.0236927155
 10
129.7805263946
 20
74.9716641799
 10
129.7489868659
 20
74.9126610849
 10
129.7230763171
 20
74.8472303388
 10
129.7033009074
 20
74.7768487547
 10
129.689663547
 20
74.7025528773
 10
129.6819648355
 20
74.6246282398
 10
129.6800756337
 20
74.5437007048
  0
LINE
  5
4A7
100
AcDbEntity
  8
DRAFT
100
AcDbLine
 62
7
  6
CONTINUOUS
 10
135.2172570053
 20
107.4325104221
 11
135.2961514262
 21
107.4544802565
  0
LWPOLYLINE
  5
4A8
100
AcDbEntity
  8
DRAFT
100
AcDbPolyline
 62
7
  6
CONTINUOUS
 90
3
 70
0
 10
135.2961514262
 20
107.4544802565
 10
135.3753342649
 20
107.4758307591
 10
135.4150340224
 20
107.486273812
  0
LINE
  5
4A9
100
AcDbEntity
  8
ASSI
100
AcDbLine
 62
7
  6
CONTINUOUS
 10
139.4877941171
 20
109.5661932708
 11
139.5449053661
 21
109.577869286
  0
LINE
  5
4AA
100
AcDbEntity
  8
ASSI
100
AcDbLine
 62
7
  6
CONTINUOUS
 10
139.5449053661
 20
109.577869286
 11
139.6021512937
 21
109.5892369531
  0
LINE
  5
4AB
100
AcDbEntity
  8
ASSI
100
AcDbLine
 62
7
  6
CONTINUOUS
 10
139.6021512937
 20
109.5892369531
 11
139.6595312456
 21
109.6002961421
  0
LWPOLYLINE
  5
4AC
100
AcDbEntity
  8
ASSI
100
AcDbPolyline
 62
7
  6
CONTINUOUS
 90
28
 70
0
 10
130.3450584689
 20
114.4613337277
 10
130.3209286557
 20
114.466326045
 10
130.29657281
 20
114.4734834663
 10
130.271990932
 20
114.4828059916
 10
130.2470650187
 20
114.4943579683
 10
130.2219130729
 20
114.508075049
 10
130.1968891034
 20
114.5237641911
 10
130.1719830523
 20
114.5414612473
 10
130.1472049775
 20
114.561130365
 10
130.1229390609
 20
114.5824709444
 10
130.0991941224
 20
114.6055111935
 10
130.0759613421
 20
114.6302229043
 10
130.0535984422
 20
114.6562208524
 10
130.0321279683
 20
114.683510758
 10
130.0115273747
 20
114.712086901
 10
129.9920867466
 20
114.7415468959
 10
129.9738136537
 20
114.7719172486
 10
129.9567005263
 20
114.8031714534
 10
129.9410147398
 20
114.8348276071
 10
129.9267804243
 20
114.8668926665
 10
129.9139734498
 20
114.8993596748
 10
129.9027888018
 20
114.93172586
 10
129.8932543582
 20
114.9639744611
 10
129.885342241
 20
114.996122239
 10
129.8791638025
 20
115.0277167039
 10
129.8747561598
 20
115.0586070257
 10
129.8720821956
 20
115.0889440345
 10
129.8711419099
 20
115.1187277303
  0
LWPOLYLINE
  5
4AD
100
AcDbEntity
  8
RACCORDO
100
AcDbPolyline
 62
250
  6
CONTINUOUS
 90
27
 70
0
 10
130.0923031257
 20
117.6779481165
 10
130.0277655498
 20
117.69625288
 10
129.9660540008
 20
117.7170811112
 10
129.907211978
 20
117.7404756402
 10
129.8511959823
 20
117.7663936369
 10
129.798937417
 20
117.7944045448
 10
129.7504999797
 20
117.8245429195
 10
129.7058199729
 20
117.8567742054
 10
129.6656377073
 20
117.8905641796
 10
129.6300287213
 20
117.9259351736
 10
129.5989174765
 20
117.9628648558
 10
129.5728176689
 20
118.0007520086
 10
129.5518121844
 20
118.0396388677
 10
129.5358181371
 20
118.0794831974
 10
129.5251005658
 20
118.1195570727
 10
129.5197088091
 20
118.1597419012
 10
129.5195935284
 20
118.2001562754
 10
129.5248717466
 20
118.2404280475
 10
129.5354944849
 20
118.2806041699
 10
129.5515107222
 20
118.3206376903
 10
129.5731844181
 20
118.3600156037
 10
129.6008126001
 20
118.3989563983
 10
129.6340982408
 20
118.4372415858
 10
129.6724142175
 20
118.4737026966
 10
129.7155514892
 20
118.5079502407
 10
129.7637190968
 20
118.540373708
 10
129.8169170405
 20
118.5709730985
  0
LWPOLYLINE
  5
4AE
100
AcDbEntity
  8
RACCORDO
100
AcDbPolyline
 62
250
  6
CONTINUOUS
 90
8
 70
0
 10
155.5084038261
 20
109.2826237903
 10
155.4860117954
 20
109.2933194717
 10
155.4639146462
 20
109.3007074879
 10
155.4424498777
 20
109.3046749988
 10
155.4219453302
 20
109.3051614068
 10
155.4027141784
 20
109.3021592829
 10
155.3850501475
 20
109.2957144797
 10
155.3788088516
 20
109.2923834366
  0
LWPOLYLINE
  5
4AF
100
AcDbEntity
  8
RACCORDO
100
AcDbPolyline
 62
250
  6
CONTINUOUS
 90
8
 70
0
 10
149.5320788155
 20
111.5763190672
 10
149.510256631
 20
111.5873341417
 10
149.4887204487
 20
111.5950387095
 10
149.4677989974
 20
111.599315168
 10
149.4478116228
 20
111.6000982411
 10
149.4290634128
 20
111.597375976
 10
149.4118405405
 20
111.5911899254
 10
149.4073031176
 20
111.5888348902
  0
LWPOLYLINE
  5
4B0
100
AcDbEntity
  8
RACCORDO
100
AcDbPolyline
 62
250
  6
CONTINUOUS
 90
7
 70
0
 10
135.0363898012
 20
119.9459482304
 10
135.0145676167
 20
119.9569633049
 10
134.9930314343
 20
119.9646678727
 10
134.9721099831
 20
119.9689443312
 10
134.9521226085
 20
119.9697274043
 10
134.9333743985
 20
119.9670051392
 10
134.9161515262
 20
119.9608190887
  0
LWPOLYLINE
  5
4B1
100
AcDbEntity
  8
RACCORDO
100
AcDbPolyline
 62
7
  6
CONTINUOUS
 90
16
 70
0
 10
150.0061024828
 20
111.5834652783
 10
149.9695362218
 20
111.6026299148
 10
149.9301840666
 20
111.6194146979
 10
149.8887736295
 20
111.6334437816
 10
149.8459594956
 20
111.6445374229
 10
149.8018284514
 20
111.6527265382
 10
149.7565319179
 20
111.6579642299
 10
149.7110125461
 20
111.6601586451
 10
149.665446585
 20
111.6593182378
 10
149.6200023963
 20
111.6554295794
 10
149.5756150168
 20
111.6485539567
 10
149.5324375559
 20
111.638731687
 10
149.4905571981
 20
111.6259262439
 10
149.4506276514
 20
111.6102878419
 10
149.4128934644
 20
111.5919013707
 10
149.407115885
 20
111.5887302527
  0
LWPOLYLINE
  5
4B2
100
AcDbEntity
  8
RACCORDO
100
AcDbPolyline
 62
7
  6
CONTINUOUS
 90
15
 70
0
 10
135.5104134684
 20
119.9530944415
 10
135.4738472074
 20
119.972259078
 10
135.4344950523
 20
119.9890438611
 10
135.3930846152
 20
120.0030729448
 10
135.3502704813
 20
120.0141665861
 10
135.3061394371
 20
120.0223557014
 10
135.2608429036
 20
120.0275933931
 10
135.2153235318
 20
120.0297878083
 10
135.1697575706
 20
120.028947401
 10
135.124313382
 20
120.0250587427
 10
135.0799260025
 20
120.0181831199
 10
135.0367485416
 20
120.0083608502
 10
134.9948681837
 20
119.9955554071
 10
134.9549386371
 20
119.9799170051
 10
134.91720445
 20
119.961530534
  0
LWPOLYLINE
  5
4B3
100
AcDbEntity
  8
RACCORDO
100
AcDbPolyline
 62
250
  6
CONTINUOUS
 90
19
 70
0
 10
149.8840181039
 20
111.5729249001
 10
149.867704051
 20
111.5815002204
 10
149.8505714292
 20
111.5891442893
 10
149.8326202384
 20
111.5958571065
 10
149.8137406514
 20
111.6016582391
 10
149.7940424955
 20
111.6065281201
 10
149.7738552526
 20
111.610408049
 10
149.7531470184
 20
111.6132953937
 10
149.7319496973
 20
111.6151927862
 10
149.7106884847
 20
111.6160494223
 10
149.6893893242
 20
111.6158584725
 10
149.6680262723
 20
111.6146267663
 10
149.6469466936
 20
111.6123239876
 10
149.6260826013
 20
111.6089265164
 10
149.6055019822
 20
111.6044579728
 10
149.5857561616
 20
111.5989589016
 10
149.5670289145
 20
111.5924428177
 10
149.5491364658
 20
111.5848962062
 10
149.5320788155
 20
111.5763190672
  0
LWPOLYLINE
  5
4B4
100
AcDbEntity
  8
RACCORDO
100
AcDbPolyline
 62
250
  6
CONTINUOUS
 90
19
 70
0
 10
135.3883290896
 20
119.9425540633
 10
135.3720150367
 20
119.9511293837
 10
135.3548824148
 20
119.9587734525
 10
135.3369312241
 20
119.9654862697
 10
135.3180516371
 20
119.9712874023
 10
135.2983534811
 20
119.9761572833
 10
135.2781662383
 20
119.9800372122
 10
135.2574580041
 20
119.9829245569
 10
135.236260683
 20
119.9848219495
 10
135.2149994704
 20
119.9856785856
 10
135.1937003099
 20
119.9854876358
 10
135.172337258
 20
119.9842559295
 10
135.1512576793
 20
119.9819531508
 10
135.130393587
 20
119.9785556796
 10
135.1098129679
 20
119.974087136
 10
135.0900671473
 20
119.9685880648
 10
135.0713399001
 20
119.9620719809
 10
135.0534474514
 20
119.9545253695
 10
135.0363898012
 20
119.9459482304
  0
LINE
  5
4B5
100
AcDbEntity
  8
RACCORDO
100
AcDbLine
 62
250
  6
CONTINUOUS
 10
150.0014926749
 20
111.5859507092
 11
150.0059388252
 21
111.5835600199
  0
LINE
  5
4B6
100
AcDbEntity
  8
RACCORDO
100
AcDbLine
 62
250
  6
CONTINUOUS
 10
135.5058036605
 20
119.9555798724
 11
135.5102498109
 21
119.9531891831
  0
LWPOLYLINE
  5
4B7
100
AcDbEntity
  8
RACCORDO
100
AcDbPolyline
 62
7
  6
CONTINUOUS
 90
19
 70
0
 10
150.1943999546
 20
111.7653034355
 10
150.1620138317
 20
111.7829252156
 10
150.1273641562
 20
111.7980600592
 10
150.0907387859
 20
111.8106353311
 10
150.0524441778
 20
111.8203000031
 10
150.0127763125
 20
111.8273037468
 10
149.9720228954
 20
111.8325031195
 10
149.9305626516
 20
111.8361895728
 10
149.8886480851
 20
111.8380802632
 10
149.8463714231
 20
111.8381685515
 10
149.8040336883
 20
111.8364607846
 10
149.7619396291
 20
111.8329765394
 10
149.7201863862
 20
111.8276923552
 10
149.6789546985
 20
111.8206038004
 10
149.6387015475
 20
111.8117584414
 10
149.599929588
 20
111.8012302149
 10
149.5629863738
 20
111.7891178317
 10
149.5280836146
 20
111.7755162373
 10
149.4954819052
 20
111.7605370608
  0
LWPOLYLINE
  5
4B8
100
AcDbEntity
  8
RACCORDO
100
AcDbPolyline
 62
7
  6
CONTINUOUS
 90
19
 70
0
 10
135.6987109402
 20
120.1349325987
 10
135.6663248173
 20
120.1525543788
 10
135.6316751419
 20
120.1676892224
 10
135.5950497716
 20
120.1802644943
 10
135.5567551635
 20
120.1899291663
 10
135.5170872982
 20
120.19693291
 10
135.4763338811
 20
120.2021322828
 10
135.4348736373
 20
120.205818736
 10
135.3929590707
 20
120.2077094264
 10
135.3506824087
 20
120.2077977147
 10
135.308344674
 20
120.2060899478
 10
135.2662506148
 20
120.2026057026
 10
135.2244973719
 20
120.1973215184
 10
135.1832656842
 20
120.1902329636
 10
135.1430125332
 20
120.1813876046
 10
135.1042405737
 20
120.1708593781
 10
135.0672973595
 20
120.1587469949
 10
135.0323946003
 20
120.1451454005
 10
134.9997928908
 20
120.130166224
  0
LWPOLYLINE
  5
4B9
100
AcDbEntity
  8
RACCORDO
100
AcDbPolyline
 62
250
  6
CONTINUOUS
 90
13
 70
0
 10
155.3147994879
 20
109.5849537464
 10
155.3399445116
 20
109.5707111003
 10
155.3629182577
 20
109.5554810397
 10
155.3836352934
 20
109.5393739922
 10
155.4019878718
 20
109.5225507348
 10
155.4179664494
 20
109.5050735604
 10
155.4316084196
 20
109.4868962038
 10
155.4428685584
 20
109.4680599048
 10
155.4516349967
 20
109.448730704
 10
155.4578372903
 20
109.4290451136
 10
155.4614493565
 20
109.4091572483
 10
155.4624843458
 20
109.3891263247
 10
155.4607863755
 20
109.3679270033
  0
LWPOLYLINE
  5
4BA
100
AcDbEntity
  8
RACCORDO
100
AcDbPolyline
 62
250
  6
CONTINUOUS
 90
13
 70
0
 10
140.8191104736
 20
117.9545829097
 10
140.8442554973
 20
117.9403402635
 10
140.8672292434
 20
117.9251102029
 10
140.8879462791
 20
117.9090031555
 10
140.9062988575
 20
117.892179898
 10
140.9222774351
 20
117.8747027236
 10
140.9359194053
 20
117.856525367
 10
140.947179544
 20
117.837689068
 10
140.9559459824
 20
117.8183598672
 10
140.962148276
 20
117.7986742768
 10
140.9657603421
 20
117.7787864115
 10
140.9667953315
 20
117.758755488
 10
140.9650973611
 20
117.7375561665
  0
LINE
  5
4BB
100
AcDbEntity
  8
RACCORDO
100
AcDbLine
 62
250
  6
CONTINUOUS
 10
153.265429057
 20
109.6205405948
 11
149.8840181039
 21
111.5729249001
  0
LINE
  5
4BC
100
AcDbEntity
  8
RACCORDO
100
AcDbLine
 62
250
  6
CONTINUOUS
 10
138.7697400427
 20
117.990169758
 11
135.3883290896
 21
119.9425540633
  0
LINE
  5
4BD
100
AcDbEntity
  8
RACCORDO
100
AcDbLine
 62
7
  6
CONTINUOUS
 10
140.1622300735
 20
117.238315104
 11
139.0062571309
 21
117.9057593934
  0
LINE
  5
4BE
100
AcDbEntity
  8
RACCORDO
100
AcDbLine
 62
7
  6
CONTINUOUS
 10
153.5019461455
 20
109.5361302299
 11
154.6579190878
 21
108.8686859408
  0
LINE
  5
4BF
100
AcDbEntity
  8
RACCORDO
100
AcDbLine
 62
7
  6
CONTINUOUS
 10
153.3873499183
 20
109.6311756338
 11
150.0059388252
 21
111.5835600199
  0
LINE
  5
4C0
100
AcDbEntity
  8
RACCORDO
100
AcDbLine
 62
7
  6
CONTINUOUS
 10
138.891660904
 20
118.000804797
 11
135.5102498109
 21
119.9531891831
  0
LINE
  5
4C1
100
AcDbEntity
  8
RACCORDO
100
AcDbLine
 62
7
  6
CONTINUOUS
 10
135.7144900013
 20
119.9174769092
 11
138.3259289537
 21
118.4096647871
  0
LINE
  5
4C2
100
AcDbEntity
  8
RACCORDO
100
AcDbLine
 62
7
  6
CONTINUOUS
 10
140.4358716094
 20
117.3991459334
 11
135.6954383473
 21
120.1362126873
  0
LINE
  5
4C3
100
AcDbEntity
  8
RACCORDO
100
AcDbLine
 62
7
  6
CONTINUOUS
 10
150.1911273616
 20
111.7665835241
 11
154.9315606237
 21
109.0295167701
  0
LINE
  5
4C4
100
AcDbEntity
  8
RACCORDO
100
AcDbLine
 62
250
  6
CONTINUOUS
 10
135.6967563842
 20
120.9121665602
 11
140.8191105558
 21
117.9545834597
  0
LINE
  5
4C5
100
AcDbEntity
  8
RACCORDO
100
AcDbLine
 62
250
  6
CONTINUOUS
 10
150.1924453985
 20
112.542537397
 11
155.3147995702
 21
109.5849542964
  0
LWPOLYLINE
  5
4C6
100
AcDbEntity
  8
RACCORDO
100
AcDbPolyline
 62
250
  6
CONTINUOUS
 90
21
 70
0
 10
140.9982997412
 20
118.2443415123
 10
141.0359191844
 20
118.2208581748
 10
141.0700832212
 20
118.1963704413
 10
141.1007918515
 20
118.1708783118
 10
141.1280936523
 20
118.1442944701
 10
141.1519400466
 20
118.1167062323
 10
141.172185304
 20
118.0883755473
 10
141.188857247
 20
118.0592111085
 10
141.2019280529
 20
118.0293042224
 10
141.2111685233
 20
117.9991907571
 10
141.2165180165
 20
117.9689418808
 10
141.2180371742
 20
117.9384864253
 10
141.2156787225
 20
117.9081467542
 10
141.209526693
 20
117.8779821992
 10
141.1994970541
 20
117.8479334286
 10
141.1852904374
 20
117.8181448108
 10
141.1667707816
 20
117.7884019535
 10
141.1440741479
 20
117.758919249
 10
141.1173093525
 20
117.7304842423
 10
141.0865126674
 20
117.7033594483
 10
141.0516478205
 20
117.677282352
  0
LWPOLYLINE
  5
4C7
100
AcDbEntity
  8
RACCORDO
100
AcDbPolyline
 62
250
  6
CONTINUOUS
 90
13
 70
0
 10
138.7694713141
 20
117.7905137513
 10
138.7912457826
 20
117.7763568047
 10
138.8126409348
 20
117.7592736437
 10
138.8333302014
 20
117.7395249639
 10
138.8529977812
 20
117.7174121505
 10
138.8713434509
 20
117.6932726895
 10
138.8880871515
 20
117.6674750217
 10
138.9029732823
 20
117.6404128917
 10
138.9157745829
 20
117.6124993694
 10
138.9262956032
 20
117.5841605607
 10
138.9343757129
 20
117.5558290509
 10
138.9398915454
 20
117.5279372995
 10
138.9427588699
 20
117.5009110736
  0
LWPOLYLINE
  5
4C8
100
AcDbEntity
  8
RACCORDO
100
AcDbPolyline
 62
250
  6
CONTINUOUS
 90
13
 70
0
 10
153.2651603285
 20
109.4208845881
 10
153.2869347969
 20
109.4067276415
 10
153.3083299491
 20
109.3896444804
 10
153.3290192158
 20
109.3698958007
 10
153.3486867955
 20
109.3477829872
 10
153.3670324653
 20
109.3236435263
 10
153.3837761659
 20
109.2978458585
 10
153.3986622967
 20
109.2707837285
 10
153.4114635972
 20
109.2428702062
 10
153.4219846175
 20
109.2145313975
 10
153.4300647272
 20
109.1861998877
 10
153.4355805597
 20
109.1583081363
 10
153.4384478842
 20
109.1312819104
  0
LWPOLYLINE
  5
4C9
100
AcDbEntity
  8
RACCORDO
100
AcDbPolyline
 62
250
  6
CONTINUOUS
 90
13
 70
0
 10
134.8325245422
 20
121.2206173592
 10
134.8537289451
 20
121.2061408735
 10
134.8745621898
 20
121.1887411174
 10
134.8947060752
 20
121.1686839195
 10
134.9138529329
 20
121.1462756976
 10
134.9317103503
 20
121.12185875
 10
134.9480056302
 20
121.0958060169
 10
134.962489914
 20
121.0685154458
 10
134.9749420186
 20
121.0404038631
 10
134.9851718185
 20
121.0119005708
 10
134.9930231055
 20
120.9834408805
 10
134.9983759889
 20
120.9554594686
 10
135.0011487447
 20
120.9283836795
  0
LWPOLYLINE
  5
4CA
100
AcDbEntity
  8
RACCORDO
100
AcDbPolyline
 62
250
  6
CONTINUOUS
 90
13
 70
0
 10
149.3282135565
 20
112.850988196
 10
149.3494179594
 20
112.8365117102
 10
149.3702512041
 20
112.8191119542
 10
149.3903950896
 20
112.7990547563
 10
149.4095419473
 20
112.7766465344
 10
149.4273993647
 20
112.7522295867
 10
149.4436946445
 20
112.7261768537
 10
149.4581789283
 20
112.6988862826
 10
149.4706310329
 20
112.6707746999
 10
149.4808608328
 20
112.6422714076
 10
149.4887121199
 20
112.6138117172
 10
149.4940650032
 20
112.5858303054
 10
149.4968377591
 20
112.5587545163
  0
LWPOLYLINE
  5
4CB
100
AcDbEntity
  8
DRAFT
100
AcDbPolyline
 62
7
  6
CONTINUOUS
 90
33
 70
0
 10
146.2152769376
 20
124.0723312395
 10
146.2104575949
 20
124.0814796485
 10
146.1618580582
 20
124.1559201709
 10
146.1047902329
 20
124.22837778
 10
146.039369763
 20
124.2988764825
 10
145.9664444154
 20
124.3665163378
 10
145.885925569
 20
124.4312616121
 10
145.7979018449
 20
124.4931480393
 10
145.7034868733
 20
124.5513828808
 10
145.6025937508
 20
124.6059164851
 10
145.4953093808
 20
124.6567985037
 10
145.3830081031
 20
124.7033851525
 10
145.2656272364
 20
124.7456257201
 10
145.143229462
 20
124.783570918
 10
145.0173771636
 20
124.8167290957
 10
144.8880279358
 20
124.8450339597
 10
144.755224184
 20
124.8685518036
 10
144.6206555082
 20
124.8869898579
 10
144.4842942535
 20
124.9002879024
 10
144.3461680749
 20
124.9085061574
 10
144.2080495368
 20
124.9115325137
 10
144.0699457263
 20
124.9092960652
 10
143.9318495564
 20
124.9018677179
 10
143.7955123307
 20
124.8893480808
 10
143.6609490355
 20
124.871675619
 10
143.5281446844
 20
124.8489118674
 10
143.3988056219
 20
124.8213420388
 10
143.2729832278
 20
124.788901471
 10
143.1506261223
 20
124.7516548264
 10
143.0332865102
 20
124.7100813049
 10
142.9214817931
 20
124.6643406399
 10
142.8146945693
 20
124.6142730981
 10
142.7129248389
 20
124.5598786794
  0
LWPOLYLINE
  5
4CC
100
AcDbEntity
  8
DRAFT
100
AcDbPolyline
 62
7
  6
CONTINUOUS
 90
31
 70
0
 10
153.0651637253
 20
114.5240627379
 10
153.0669335843
 20
114.5188888308
 10
153.0856861394
 20
114.4741802044
 10
153.1098911854
 20
114.430591478
 10
153.1395815282
 20
114.3879954384
 10
153.1747243619
 20
114.3465192987
 10
153.2145530594
 20
114.3069582741
 10
153.2589727748
 20
114.2694363857
 10
153.3080783539
 20
114.2338296124
 10
153.3613877078
 20
114.2005611063
 10
153.4189842876
 20
114.1696779153
 10
153.4807846421
 20
114.1411329916
 10
153.5460563288
 20
114.1152083439
 10
153.6150191314
 20
114.0918478459
 10
153.6874532663
 20
114.0711076239
 10
153.7619669399
 20
114.0534380661
 10
153.8383351238
 20
114.0388607544
 10
153.9167828464
 20
114.0273541068
 10
153.9965934001
 20
114.0193037664
 10
154.0782702776
 20
114.014794336
 10
154.1613099863
 20
114.0137412126
 10
154.2434853408
 20
114.0162762303
 10
154.3245324601
 20
114.0225773058
 10
154.4047152252
 20
114.0324665223
 10
154.4825980943
 20
114.0455419628
 10
154.558205642
 20
114.061863801
 10
154.6315132936
 20
114.0813718631
 10
154.7010117841
 20
114.103483711
 10
154.766198025
 20
114.1280051988
 10
154.8275751046
 20
114.1551304725
 10
154.8851430231
 20
114.184859532
  0
LWPOLYLINE
  5
4CD
100
AcDbEntity
  8
DRAFT
100
AcDbPolyline
 62
7
  6
CONTINUOUS
 90
31
 70
0
 10
155.5400374594
 20
113.0951016613
 10
155.5418073184
 20
113.0899277541
 10
155.5605598736
 20
113.0452191278
 10
155.5847649196
 20
113.0016304013
 10
155.6144552624
 20
112.9590343618
 10
155.6495980961
 20
112.9175582221
 10
155.6894267936
 20
112.8779971975
 10
155.7338465089
 20
112.8404753091
 10
155.7829520881
 20
112.8048685357
 10
155.836261442
 20
112.7716000297
 10
155.8938580217
 20
112.7407168387
 10
155.9556583762
 20
112.712171915
 10
156.0209300629
 20
112.6862472673
 10
156.0898928656
 20
112.6628867692
 10
156.1623270004
 20
112.6421465472
 10
156.2368406741
 20
112.6244769895
 10
156.3132088579
 20
112.6098996777
 10
156.3916565805
 20
112.5983930302
 10
156.4714671343
 20
112.5903426897
 10
156.5531440118
 20
112.5858332593
 10
156.6361837204
 20
112.584780136
 10
156.718359075
 20
112.5873151536
 10
156.7994061942
 20
112.5936162292
 10
156.8795889593
 20
112.6035054457
 10
156.9574718285
 20
112.6165808862
 10
157.0330793761
 20
112.6329027243
 10
157.1063870278
 20
112.6524107864
 10
157.1758855183
 20
112.6745226344
 10
157.2410717591
 20
112.6990441222
 10
157.3024488388
 20
112.7261693959
 10
157.3600167573
 20
112.7558984554
  0
LINE
  5
4CE
100
AcDbEntity
  8
DRAFT
100
AcDbLine
 62
250
  6
CONTINUOUS
 10
153.2940540283
 20
121.9032380832
 11
153.0085892737
 21
123.2913361009
  0
LINE
  5
4CF
100
AcDbEntity
  8
DRAFT
100
AcDbLine
 62
250
  6
CONTINUOUS
 10
155.7689277624
 20
120.4742770066
 11
155.4834630078
 21
121.8623750242
  0
LINE
  5
4D0
100
AcDbEntity
  8
DRAFT
100
AcDbLine
 62
250
  6
CONTINUOUS
 10
156.0334986073
 20
112.6819897916
 11
155.8382781165
 21
113.6359639469
  0
LINE
  5
4D1
100
AcDbEntity
  8
DRAFT
100
AcDbLine
 62
7
  6
CONTINUOUS
 10
162.2552721558
 20
109.8698356635
 11
162.2552721558
 21
110.0484717014
  0
LWPOLYLINE
  5
4D2
100
AcDbEntity
  8
DRAFT
100
AcDbPolyline
 62
7
  6
CONTINUOUS
 90
35
 70
0
 10
167.2029508304
 20
115.5854404028
 10
167.2143301172
 20
115.6277812905
 10
167.2202937208
 20
115.6743178717
 10
167.2199582157
 20
115.7214108912
 10
167.2135084353
 20
115.7677931142
 10
167.2007823745
 20
115.8131799461
 10
167.1819420384
 20
115.8578559816
 10
167.1576582751
 20
115.9014077702
 10
167.1278987231
 20
115.9439617206
 10
167.0926957439
 20
115.985391424
 10
167.0528172709
 20
116.024904204
 10
167.0083588105
 20
116.062375887
 10
166.9592248563
 20
116.0979306465
 10
166.9058968223
 20
116.1311483261
 10
166.8482911607
 20
116.1619823695
 10
166.7864914193
 20
116.1904793331
 10
166.7212296562
 20
116.2163587301
 10
166.6522886864
 20
116.2396769315
 10
166.579885695
 20
116.2603775662
 10
166.5054042952
 20
116.2780110348
 10
166.4290667334
 20
116.2925567387
 10
166.3506507632
 20
116.3040352765
 10
166.2708732589
 20
116.3120588451
 10
166.1892296866
 20
116.316540622
 10
166.1062245801
 20
116.3175674298
 10
166.0240884147
 20
116.315011933
 10
165.9430871206
 20
116.3086977241
 10
165.8629547675
 20
116.2988012106
 10
165.7851240403
 20
116.2857242807
 10
165.7095681403
 20
116.2694063319
 10
165.6363138661
 20
116.2499079666
 10
165.5668742981
 20
116.2278128802
 10
165.5017537966
 20
116.2033156379
 10
165.4404480013
 20
116.1762216746
 10
165.3829569122
 20
116.1465309902
  0
LWPOLYLINE
  5
4D3
100
AcDbEntity
  8
ASSI
100
AcDbPolyline
 62
7
  6
CONTINUOUS
 90
7
 70
0
 10
134.8558605861
 20
72.3089168871
 10
134.8161752411
 20
72.2836518274
 10
134.7682464982
 20
72.2440047231
 10
134.7254170822
 20
72.1973348735
 10
134.6877267063
 20
72.1436716945
 10
134.6553478423
 20
72.083021361
 10
134.6379883558
 20
72.0392631301
  0
LINE
  5
4D4
100
AcDbEntity
  8
0
100
AcDbLine
 62
7
  6
CONTINUOUS
 10
133.6865472714
 20
71.4899129723
 11
135.1942437726
 21
72.3604380362
  0
LWPOLYLINE
  5
4D5
100
AcDbEntity
  8
RACCORDO
100
AcDbPolyline
 62
250
  6
CONTINUOUS
 90
8
 70
0
 10
141.0127148118
 20
117.6522529535
 10
140.990322781
 20
117.6629486349
 10
140.9682256319
 20
117.6703366511
 10
140.9467608634
 20
117.674304162
 10
140.9262563159
 20
117.67479057
 10
140.907025164
 20
117.6717884461
 10
140.8893611332
 20
117.6653436429
 10
140.8831198373
 20
117.6620125998
  0
LINE
  5
4D6
100
AcDbEntity
  8
RACCORDO
100
AcDbLine
 62
250
  6
CONTINUOUS
 10
135.8759455695
 20
121.2019246128
 11
140.9982997412
 21
118.2443415123
  0
LINE
  5
4D7
100
AcDbEntity
  8
RACCORDO
100
AcDbLine
 62
250
  6
CONTINUOUS
 10
150.3716345839
 20
112.8322954496
 11
155.4939887555
 21
109.874712349
  0
LINE
  5
4D8
100
AcDbEntity
  8
RACCORDO
100
AcDbLine
 62
7
  6
CONTINUOUS
 10
144.6479256644
 20
119.7753798784
 11
144.5439312774
 21
119.8354249341
  0
LWPOLYLINE
  5
4D9
100
AcDbEntity
  8
RACCORDO
100
AcDbPolyline
 62
250
  6
CONTINUOUS
 90
21
 70
0
 10
155.4939887555
 20
109.874712349
 10
155.5316081987
 20
109.8512290116
 10
155.5657722355
 20
109.8267412781
 10
155.5964808658
 20
109.8012491486
 10
155.6237826666
 20
109.7746653068
 10
155.647629061
 20
109.7470770691
 10
155.6678743183
 20
109.7187463841
 10
155.6845462613
 20
109.6895819453
 10
155.6976170672
 20
109.6596750592
 10
155.7068575376
 20
109.6295615939
 10
155.7122070309
 20
109.5993127176
 10
155.7137261885
 20
109.5688572621
 10
155.7113677368
 20
109.538517591
 10
155.7052157073
 20
109.508353036
 10
155.6951860684
 20
109.4783042654
 10
155.6809794517
 20
109.4485156476
 10
155.6624597959
 20
109.4187727903
 10
155.6397631623
 20
109.3892900858
 10
155.6129983669
 20
109.3608550791
 10
155.5822016817
 20
109.3337302851
 10
155.5473368348
 20
109.3076531888
  0
LWPOLYLINE
  5
4DA
100
AcDbEntity
  8
RACCORDO
100
AcDbPolyline
 62
250
  6
CONTINUOUS
 90
16
 70
0
 10
139.0075930253
 20
127.7038794426
 10
139.0220956635
 20
127.6906663093
 10
139.03617001
 20
127.676254082
 10
139.0497129019
 20
127.6607485066
 10
139.0626250774
 20
127.6442633461
 10
139.0748118969
 20
127.6269195552
 10
139.0861840386
 20
127.6088443938
 10
139.0966581616
 20
127.5901704829
 10
139.106157517
 20
127.571034828
 10
139.114612505
 20
127.5515778237
 10
139.1219611849
 20
127.5319422243
 10
139.1281497314
 20
127.5122720939
 10
139.1331328297
 20
127.4927117475
 10
139.1368740056
 20
127.4734046976
 10
139.1393458941
 20
127.4544926018
 10
139.1405304405
 20
127.4361142198
  0
LWPOLYLINE
  5
4DB
100
AcDbEntity
  8
DRAFT
100
AcDbPolyline
 62
7
  6
CONTINUOUS
 90
5
 70
0
 10
152.470908377
 20
115.828470859
 10
152.4846501698
 20
115.8060226598
 10
152.5157955153
 20
115.7487241768
 10
152.5441013463
 20
115.6897865106
 10
152.5445736648
 20
115.6886594045
  0
LWPOLYLINE
  5
4DC
100
AcDbEntity
  8
DRAFT
100
AcDbPolyline
 62
7
  6
CONTINUOUS
 90
5
 70
0
 10
154.9457821112
 20
114.3995097823
 10
154.9595239039
 20
114.3770615832
 10
154.9906692494
 20
114.3197631002
 10
155.0189750805
 20
114.260825434
 10
155.0194473989
 20
114.2596983278
  0
LWPOLYLINE
  5
4DD
100
AcDbEntity
  8
DRAFT
100
AcDbPolyline
 62
7
  6
CONTINUOUS
 90
5
 70
0
 10
157.4206558453
 20
112.9705487057
 10
157.4343976381
 20
112.9481005065
 10
157.4655429836
 20
112.8908020235
 10
157.4938488146
 20
112.8318643573
 10
157.4943211331
 20
112.8307372512
  0
LWPOLYLINE
  5
4DE
100
AcDbEntity
  8
DRAFT
100
AcDbPolyline
 62
7
  6
CONTINUOUS
 90
31
 70
0
 10
158.0149111936
 20
111.6661405846
 10
158.0166810526
 20
111.6609666775
 10
158.0354336077
 20
111.6162580511
 10
158.0596386537
 20
111.5726693247
 10
158.0893289966
 20
111.5300732851
 10
158.1244718302
 20
111.4885971454
 10
158.1643005277
 20
111.4490361208
 10
158.2087202431
 20
111.4115142324
 10
158.2578258223
 20
111.3759074591
 10
158.3111351762
 20
111.342638953
 10
158.3687317559
 20
111.311755762
 10
158.4305321104
 20
111.2832108383
 10
158.4958037971
 20
111.2572861907
 10
158.5647665997
 20
111.2339256926
 10
158.6372007346
 20
111.2131854706
 10
158.7117144082
 20
111.1955159128
 10
158.7880825921
 20
111.1809386011
 10
158.8665303147
 20
111.1694319535
 10
158.9463408685
 20
111.1613816131
 10
159.0280177459
 20
111.1568721827
 10
159.1110574546
 20
111.1558190593
 10
159.1932328091
 20
111.158354077
 10
159.2742799284
 20
111.1646551525
 10
159.3544626935
 20
111.174544369
 10
159.4323455627
 20
111.1876198095
 10
159.5079531103
 20
111.2039416477
 10
159.5812607619
 20
111.2234497098
 10
159.6507592524
 20
111.2455615577
 10
159.7159454933
 20
111.2700830455
 10
159.7773225729
 20
111.2972083192
 10
159.8348904914
 20
111.3269373787
  0
LWPOLYLINE
  5
4DF
100
AcDbEntity
  8
DRAFT
100
AcDbPolyline
 62
7
  6
CONTINUOUS
 90
31
 70
0
 10
160.4897849277
 20
110.237179508
 10
160.4915547868
 20
110.2320056008
 10
160.5103073419
 20
110.1872969745
 10
160.5345123879
 20
110.143708248
 10
160.5642027307
 20
110.1011122085
 10
160.5993455644
 20
110.0596360688
 10
160.6391742619
 20
110.0200750442
 10
160.6835939772
 20
109.9825531558
 10
160.7326995564
 20
109.9469463824
 10
160.7860089103
 20
109.9136778764
 10
160.8436054901
 20
109.8827946854
 10
160.9054058445
 20
109.8542497617
 10
160.9706775312
 20
109.828325114
 10
161.0396403339
 20
109.8049646159
 10
161.1120744687
 20
109.7842243939
 10
161.1865881424
 20
109.7665548362
 10
161.2629563262
 20
109.7519775244
 10
161.3414040488
 20
109.7404708769
 10
161.4212146026
 20
109.7324205364
 10
161.5028914801
 20
109.727911106
 10
161.5859311887
 20
109.7268579827
 10
161.6681065433
 20
109.7293930003
 10
161.7491536625
 20
109.7356940759
 10
161.8293364276
 20
109.7455832924
 10
161.9072192968
 20
109.7586587329
 10
161.9828268444
 20
109.774980571
 10
162.0561344961
 20
109.7944886331
 10
162.1256329866
 20
109.8166004811
 10
162.1908192274
 20
109.8411219689
 10
162.2521963071
 20
109.8682472426
 10
162.3097642256
 20
109.8979763021
  0
LINE
  5
4E0
100
AcDbEntity
  8
DRAFT
100
AcDbLine
 62
250
  6
CONTINUOUS
 10
158.2438014966
 20
119.0453159299
 11
157.958336742
 21
120.4334139476
  0
LINE
  5
4E1
100
AcDbEntity
  8
DRAFT
100
AcDbLine
 62
250
  6
CONTINUOUS
 10
158.5083723415
 20
111.2530287149
 11
158.3131518507
 21
112.2070028702
  0
LINE
  5
4E2
100
AcDbEntity
  8
DRAFT
100
AcDbLine
 62
250
  6
CONTINUOUS
 10
160.9832460756
 20
109.8240676383
 11
160.7880255848
 21
110.7780417936
  0
LWPOLYLINE
  5
4E3
100
AcDbEntity
  8
DRAFT
100
AcDbPolyline
 62
7
  6
CONTINUOUS
 90
35
 70
0
 10
169.6778245646
 20
114.1564793261
 10
169.6892038514
 20
114.1988202139
 10
169.6951674549
 20
114.2453567951
 10
169.6948319498
 20
114.2924498145
 10
169.6883821694
 20
114.3388320375
 10
169.6756561086
 20
114.3842188694
 10
169.6568157725
 20
114.4288949049
 10
169.6325320093
 20
114.4724466935
 10
169.6027724573
 20
114.5150006439
 10
169.5675694781
 20
114.5564303474
 10
169.5276910051
 20
114.5959431273
 10
169.4832325447
 20
114.6334148103
 10
169.4340985904
 20
114.6689695698
 10
169.3807705565
 20
114.7021872495
 10
169.3231648948
 20
114.7330212929
 10
169.2613651534
 20
114.7615182565
 10
169.1961033904
 20
114.7873976535
 10
169.1271624206
 20
114.8107158548
 10
169.0547594292
 20
114.8314164895
 10
168.9802780294
 20
114.8490499582
 10
168.9039404676
 20
114.863595662
 10
168.8255244974
 20
114.8750741998
 10
168.745746993
 20
114.8830977685
 10
168.6641034207
 20
114.8875795454
 10
168.5810983143
 20
114.8886063531
 10
168.4989621489
 20
114.8860508564
 10
168.4179608547
 20
114.8797366474
 10
168.3378285017
 20
114.869840134
 10
168.2599977744
 20
114.8567632041
 10
168.1844418744
 20
114.8404452552
 10
168.1111876002
 20
114.8209468899
 10
168.0417480323
 20
114.7988518036
 10
167.9766275307
 20
114.7743545613
 10
167.9153217354
 20
114.7472605979
 10
167.8578306463
 20
114.7175699136
  0
LWPOLYLINE
  5
4E4
100
AcDbEntity
  8
ASSI
100
AcDbPolyline
 62
7
  6
CONTINUOUS
 90
11
 70
0
 10
136.2640627997
 20
69.9479643886
 10
136.299254904
 20
69.971154209
 10
136.3471576318
 20
70.0116227804
 10
136.3898698351
 20
70.0591845713
 10
136.4273331188
 20
70.1137908075
 10
136.4593537573
 20
70.1754007096
 10
136.4855020947
 20
70.2434605684
 10
136.5054635946
 20
70.317054242
 10
136.5191587711
 20
70.3954416412
 10
136.5266011439
 20
70.4782068187
 10
136.5278062748
 20
70.5647578
  0
LINE
  5
4E5
100
AcDbEntity
  8
0
100
AcDbLine
 62
7
  6
CONTINUOUS
 10
134.9366076717
 20
69.3248843361
 11
136.4735225292
 21
70.2122797128
  0
LWPOLYLINE
  5
4E6
100
AcDbEntity
  8
0
100
AcDbPolyline
 62
250
  6
CONTINUOUS
 90
9
 70
0
 10
133.6865472714
 20
71.4899129723
 10
133.7201444522
 20
71.5073297296
 10
133.7920443487
 20
71.5330439406
 10
133.869636348
 20
71.5464253313
 10
133.9520703286
 20
71.5473273005
 10
134.0384430787
 20
71.5357399844
 10
134.1278082587
 20
71.511790369
 10
134.2191867766
 20
71.4757408773
 10
134.3115774715
 20
71.4279865002
  0
LWPOLYLINE
  5
4E7
100
AcDbEntity
  8
RACCORDO
100
AcDbPolyline
 62
250
  6
CONTINUOUS
 90
19
 70
0
 10
130.8328847514
 20
116.2518416397
 10
130.8472686164
 20
116.2551805238
 10
130.8613346135
 20
116.2579311045
 10
130.8750795033
 20
116.2601130311
 10
130.8884371765
 20
116.261739918
 10
130.9014709961
 20
116.2628424241
 10
130.914365724
 20
116.2634446712
 10
130.9271729561
 20
116.2635451582
 10
130.9398227936
 20
116.2631386952
 10
130.9523105663
 20
116.2622229914
 10
130.9645690881
 20
116.2608059936
 10
130.9766512044
 20
116.2588838993
 10
130.9887230247
 20
116.2564158458
 10
131.000747392
 20
116.2533867108
 10
131.012725443
 20
116.2497712174
 10
131.0248562424
 20
116.2454634864
 10
131.0371751021
 20
116.2403816213
 10
131.0495691417
 20
116.2344997889
 10
131.0619975245
 20
116.2277665683
  0
LWPOLYLINE
  5
4E8
100
AcDbEntity
  8
RACCORDO
100
AcDbPolyline
 62
250
  6
CONTINUOUS
 90
10
 70
0
 10
126.5340260629
 20
118.1520289951
 10
126.5138965223
 20
118.1500438508
 10
126.4935040163
 20
118.1473922204
 10
126.4728601847
 20
118.1440688416
 10
126.4521019061
 20
118.1400956623
 10
126.4311183307
 20
118.1354498781
 10
126.4095436951
 20
118.1300237978
 10
126.3873523405
 20
118.1237678477
 10
126.3645878375
 20
118.1166508032
 10
126.3409815829
 20
118.1085292149
  0
LWPOLYLINE
  5
4E9
100
AcDbEntity
  8
RACCORDO
100
AcDbPolyline
 62
7
  6
CONTINUOUS
 90
8
 70
0
 10
126.4208241747
 20
118.1889423307
 10
126.4060136202
 20
118.1882005181
 10
126.3559103308
 20
118.1837548628
 10
126.3054000514
 20
118.1762912384
 10
126.2546095154
 20
118.1658043044
 10
126.2036810776
 20
118.1522985231
 10
126.1527253644
 20
118.1357750673
 10
126.1179980151
 20
118.1227702122
  0
LINE
  5
4EA
100
AcDbEntity
  8
RACCORDO
100
AcDbLine
 62
250
  6
CONTINUOUS
 10
127.4748274037
 20
118.1907418659
 11
126.5340260629
 21
118.1520289951
  0
LINE
  5
4EB
100
AcDbEntity
  8
RACCORDO
100
AcDbLine
 62
7
  6
CONTINUOUS
 10
127.3616438854
 20
118.2276559585
 11
126.4208425472
 21
118.1889430878
  0
LWPOLYLINE
  5
4EC
100
AcDbEntity
  8
DRAFT
100
AcDbPolyline
 62
7
  6
CONTINUOUS
 90
5
 70
0
 10
159.8955295795
 20
111.541587629
 10
159.9092713722
 20
111.5191394299
 10
159.9404167177
 20
111.4618409469
 10
159.9687225488
 20
111.4029032807
 10
159.9691948672
 20
111.4017761746
  0
LWPOLYLINE
  5
4ED
100
AcDbEntity
  8
DRAFT
100
AcDbPolyline
 62
7
  6
CONTINUOUS
 90
5
 70
0
 10
162.3704033136
 20
110.1126265524
 10
162.3841451064
 20
110.0901783532
 10
162.4152904519
 20
110.0328798702
 10
162.4435962829
 20
109.973942204
 10
162.4440686014
 20
109.9728150979
  0
LINE
  5
4EE
100
AcDbEntity
  8
DRAFT
100
AcDbLine
 62
250
  6
CONTINUOUS
 10
160.7186752307
 20
117.6163548533
 11
160.4332104761
 21
119.0044528709
  0
LINE
  5
4EF
100
AcDbEntity
  8
DRAFT
100
AcDbLine
 62
250
  6
CONTINUOUS
 10
163.1935489649
 20
116.1873937767
 11
162.9080842103
 21
117.5754917943
  0
LWPOLYLINE
  5
4F0
100
AcDbEntity
  8
0
100
AcDbPolyline
 62
7
  6
CONTINUOUS
 90
19
 70
0
 10
134.9366076717
 20
69.3248843361
 10
134.8423400861
 20
69.2805983662
 10
134.7388491066
 20
69.2518967916
 10
134.6277122244
 20
69.2403551833
 10
134.5098775857
 20
69.2472843611
 10
134.3876635843
 20
69.273667799
 10
134.2643910574
 20
69.3193071898
 10
134.1402135346
 20
69.3845742047
 10
134.0171877721
 20
69.4690848107
 10
133.9010139166
 20
69.5686116946
 10
133.7940706815
 20
69.6796060347
 10
133.6957937188
 20
69.8014296929
 10
133.607376023
 20
69.9320099094
 10
133.5299684124
 20
70.0691875956
 10
133.4644334517
 20
70.2112217311
 10
133.4116218767
 20
70.3565550733
 10
133.3725012972
 20
70.5036078875
 10
133.3481884428
 20
70.6505000332
 10
133.3398260294
 20
70.7952595183
  0
LINE
  5
4F1
100
AcDbEntity
  8
DRAFT
100
AcDbLine
 62
7
  6
CONTINUOUS
 10
119.3073544282
 20
116.6186887718
 11
119.3862488491
 21
116.6406586063
  0
LWPOLYLINE
  5
4F2
100
AcDbEntity
  8
DRAFT
100
AcDbPolyline
 62
7
  6
CONTINUOUS
 90
3
 70
0
 10
119.3862488491
 20
116.6406586063
 10
119.465431688
 20
116.662009109
 10
119.5051314457
 20
116.6724521619
  0
LINE
  5
4F3
100
AcDbEntity
  8
ASSI
100
AcDbLine
 62
7
  6
CONTINUOUS
 10
123.5778915404
 20
118.7523716207
 11
123.6350027894
 21
118.7640476359
  0
LINE
  5
4F4
100
AcDbEntity
  8
0
100
AcDbLine
 62
7
  6
CONTINUOUS
 10
120.0354032635
 20
116.7956748353
 11
120.0888362444
 21
116.8064575069
  0
LINE
  5
4F5
100
AcDbEntity
  8
ASSI
100
AcDbLine
 62
7
  6
CONTINUOUS
 10
123.6350027894
 20
118.7640476359
 11
123.692248717
 21
118.775415303
  0
LINE
  5
4F6
100
AcDbEntity
  8
0
100
AcDbLine
 62
7
  6
CONTINUOUS
 10
120.0888362444
 20
116.8064575069
 11
120.142386264
 21
116.8169716351
  0
LINE
  5
4F7
100
AcDbEntity
  8
ASSI
100
AcDbLine
 62
7
  6
CONTINUOUS
 10
123.692248717
 20
118.775415303
 11
123.7496286689
 21
118.7864744919
  0
LINE
  5
4F8
100
AcDbEntity
  8
0
100
AcDbLine
 62
7
  6
CONTINUOUS
 10
120.142386264
 20
116.8169716351
 11
120.1960527554
 21
116.8272171086
  0
LWPOLYLINE
  5
4F9
100
AcDbEntity
  8
0
100
AcDbPolyline
 62
7
  6
CONTINUOUS
 90
10
 70
0
 10
120.1960527554
 20
116.8272171086
 10
120.2354804929
 20
116.8324929864
 10
120.2760428791
 20
116.833928787
 10
120.3177399141
 20
116.8315245101
 10
120.3607569437
 20
116.8252376438
 10
120.404908622
 20
116.8151107002
 10
120.4496389117
 20
116.8012712154
 10
120.494762467
 20
116.7837617016
 10
120.5404646336
 20
116.7625396468
 10
120.5867454115
 20
116.7376050508
  0
LINE
  5
4FA
100
AcDbEntity
  8
DRAFT
100
AcDbLine
 62
250
  6
CONTINUOUS
 10
165.668422699
 20
114.7584327
 11
165.3829579444
 21
116.1465307176
  0
LINE
  5
4FB
100
AcDbEntity
  8
DRAFT
100
AcDbLine
 62
250
  6
CONTINUOUS
 10
168.1432964332
 20
113.3294716234
 11
167.8578316786
 21
114.717569641
  0
LWPOLYLINE
  5
4FC
100
AcDbEntity
  8
RACCORDO
100
AcDbPolyline
 62
250
  6
CONTINUOUS
 90
13
 70
0
 10
172.9546112089
 20
110.7892009363
 10
172.9526269643
 20
110.8807011943
 10
172.946305369
 20
110.9744024953
 10
172.9356641569
 20
111.0700190152
 10
172.9207737825
 20
111.1670278055
 10
172.9016592197
 20
111.2653580968
 10
172.878199514
 20
111.3654191146
 10
172.85037802
 20
111.4669121741
 10
172.8181918549
 20
111.5695399817
 10
172.781384372
 20
111.6737200119
 10
172.7398004597
 20
111.7793535158
 10
172.6934884466
 20
111.8858201711
 10
172.6424404208
 20
111.9927180361
  0
LWPOLYLINE
  5
4FD
100
AcDbEntity
  8
RACCORDO
100
AcDbPolyline
 62
7
  6
CONTINUOUS
 90
13
 70
0
 10
173.1791393005
 20
111.10987986
 10
173.1789650321
 20
111.1360055486
 10
173.1749130487
 20
111.2391229227
 10
173.1656575588
 20
111.3424484875
 10
173.151373661
 20
111.4458669869
 10
173.1322313803
 20
111.5491953217
 10
173.1084326308
 20
111.652100981
 10
173.0801273398
 20
111.7544437934
 10
173.0474461534
 20
111.8561091755
 10
173.0105882818
 20
111.9567226626
 10
172.9697345936
 20
112.0560225218
 10
172.9250118207
 20
112.1538876749
 10
172.9082967593
 20
112.188109547
  0
LINE
  5
4FE
100
AcDbEntity
  8
RACCORDO
100
AcDbLine
 62
250
  6
CONTINUOUS
 10
172.9546112089
 20
84.8293297372
 11
172.9546112089
 21
110.7892009363
  0
LINE
  5
4FF
100
AcDbEntity
  8
RACCORDO
100
AcDbLine
 62
7
  6
CONTINUOUS
 10
173.1791393686
 20
85.1501993668
 11
173.1791393686
 21
111.1100705668
  0
LWPOLYLINE
  5
500
100
AcDbEntity
  8
RACCORDO
100
AcDbPolyline
 62
250
  6
CONTINUOUS
 90
3
 70
0
 10
172.6424404206
 20
83.986299639
 10
172.6888495555
 20
84.0178942485
 10
172.7128432014
 20
84.0372961169
  0
LWPOLYLINE
  5
501
100
AcDbEntity
  8
RACCORDO
100
AcDbPolyline
 62
250
  6
CONTINUOUS
 90
10
 70
0
 10
172.9546112089
 20
84.8293297372
 10
173.0003676806
 20
84.8591620697
 10
173.0415006461
 20
84.8911604541
 10
173.0777039725
 20
84.9250867416
 10
173.1087082155
 20
84.960688435
 10
173.1342826254
 20
84.9977005679
 10
173.154236864
 20
85.0358476767
 10
173.1684224215
 20
85.0748458506
 10
173.1767337216
 20
85.1144048448
 10
173.1791393673
 20
85.150172354
  0
LINE
  5
502
100
AcDbEntity
  8
RACCORDO
100
AcDbLine
 62
250
  6
CONTINUOUS
 10
171.532194385
 20
83.1681798708
 11
171.5390691957
 21
83.1724192611
  0
LWPOLYLINE
  5
503
100
AcDbEntity
  8
RACCORDO
100
AcDbPolyline
 62
250
  6
CONTINUOUS
 90
7
 70
0
 10
171.6750133558
 20
83.2592457652
 10
171.7102988304
 20
83.2827478409
 10
171.8915852351
 20
83.4054856066
 10
172.075759093
 20
83.5367957107
 10
172.2625113732
 20
83.6770885789
 10
172.4515181792
 20
83.8267818474
 10
172.6424404206
 20
83.9862996389
  0
LWPOLYLINE
  5
504
100
AcDbEntity
  8
RACCORDO
100
AcDbPolyline
 62
7
  6
CONTINUOUS
 90
10
 70
0
 10
171.5390691957
 20
83.1724192611
 10
171.6750133558
 20
83.2592457652
 10
171.8096490991
 20
83.3484315755
 10
171.9429089078
 20
83.4399362671
 10
172.0747704287
 20
83.5337467239
 10
172.2052240859
 20
83.6298583426
 10
172.3342724482
 20
83.7282761543
 10
172.4619054299
 20
83.8289965599
 10
172.5881009281
 20
83.932006213
 10
172.7128432014
 20
84.0372961169
  0
LINE
  5
505
100
AcDbEntity
  8
RACCORDO
100
AcDbLine
 62
7
  6
CONTINUOUS
 10
171.5390707457
 20
83.1724183889
 11
171.532194385
 21
83.1681798708
  0
LINE
  5
506
100
AcDbEntity
  8
ASSI
100
AcDbLine
 62
7
  6
CONTINUOUS
 10
153.0428232294
 20
71.9577845817
 11
147.6902327873
 21
68.7127745561
  0
LINE
  5
507
100
AcDbEntity
  8
RACCORDO
100
AcDbLine
 62
250
  6
CONTINUOUS
 10
147.6902327873
 20
69.5424146857
 11
172.9546112089
 21
84.8293297372
  0
LINE
  5
508
100
AcDbEntity
  8
RACCORDO
100
AcDbLine
 62
250
  6
CONTINUOUS
 10
147.6902327873
 20
68.890261204
 11
172.6424404206
 21
83.9862996389
  0
LINE
  5
509
100
AcDbEntity
  8
RACCORDO
100
AcDbLine
 62
7
  6
CONTINUOUS
 10
153.0428132792
 20
71.9577946974
 11
171.532194385
 21
83.1681798708
  0
LWPOLYLINE
  5
50A
100
AcDbEntity
  8
RACCORDO
100
AcDbPolyline
 62
7
  6
CONTINUOUS
 90
7
 70
0
 10
124.7370890229
 20
119.8798325799
 10
124.7393798477
 20
119.8802711108
 10
124.7447096538
 20
119.8823764782
 10
124.7529385791
 20
119.8860815948
 10
124.7639439525
 20
119.8912912174
 10
124.7775784912
 20
119.8979367678
 10
124.7936797041
 20
119.9059996349
  0
LWPOLYLINE
  5
50B
100
AcDbEntity
  8
RACCORDO
100
AcDbPolyline
 62
7
  6
CONTINUOUS
 90
12
 70
0
 10
144.0572907776
 20
130.2158850704
 10
144.0271912542
 20
130.2320097662
 10
143.9839223274
 20
130.2509747032
 10
143.9400772712
 20
130.2654026538
 10
143.8958628951
 20
130.2753182568
 10
143.8515849373
 20
130.28071659
 10
143.8074996613
 20
130.2816538082
 10
143.7637786971
 20
130.2782290854
 10
143.7205973991
 20
130.2705188621
 10
143.6781492007
 20
130.2586175581
 10
143.6366487393
 20
130.2426528787
 10
143.5962955287
 20
130.2227599774
  0
LINE
  5
50C
100
AcDbEntity
  8
RACCORDO
100
AcDbLine
 62
250
  6
CONTINUOUS
 10
171.532194385
 20
114.0929220969
 11
143.5962955287
 21
130.2227599774
  0
LINE
  5
50D
100
AcDbEntity
  8
RACCORDO
100
AcDbLine
 62
7
  6
CONTINUOUS
 10
171.8515062726
 20
114.1678533869
 11
144.0572771534
 21
130.2158929369
  0
LWPOLYLINE
  5
50E
100
AcDbEntity
  8
RACCORDO
100
AcDbPolyline
 62
7
  6
CONTINUOUS
 90
4
 70
0
 10
171.8514851888
 20
114.1678655604
 10
171.8563118668
 20
114.1648602746
 10
171.8707810274
 20
114.1524612154
 10
171.8818594741
 20
114.1370529126
  0
LWPOLYLINE
  5
50F
100
AcDbEntity
  8
RACCORDO
100
AcDbPolyline
 62
250
  6
CONTINUOUS
 90
10
 70
0
 10
172.7739838949
 20
84.1347815392
 10
172.8103358893
 20
84.1935417581
 10
172.842802835
 20
84.2567005952
 10
172.8714740075
 20
84.3245596417
 10
172.8961702032
 20
84.3969914264
 10
172.9167271477
 20
84.4738592838
 10
172.9330903573
 20
84.5555914815
 10
172.9450376087
 20
84.6422796737
 10
172.9522865283
 20
84.7335866961
 10
172.9546112089
 20
84.8293297372
  0
LINE
  5
510
100
AcDbEntity
  8
RACCORDO
100
AcDbLine
 62
250
  6
CONTINUOUS
 10
172.7337583554
 20
84.0804746346
 11
172.7739838949
 21
84.1347815392
  0
LWPOLYLINE
  5
511
100
AcDbEntity
  8
RACCORDO
100
AcDbPolyline
 62
250
  6
CONTINUOUS
 90
3
 70
0
 10
172.6424404208
 20
83.9862996387
 10
172.6898654113
 20
84.030930509
 10
172.7337583554
 20
84.0804746346
  0
LWPOLYLINE
  5
512
100
AcDbEntity
  8
RACCORDO
100
AcDbPolyline
 62
7
  6
CONTINUOUS
 90
15
 70
0
 10
172.7131540618
 20
84.0375631098
 10
172.7621980412
 20
84.0820614758
 10
172.8196790518
 20
84.1409476791
 10
172.8738495708
 20
84.2044132307
 10
172.9243999356
 20
84.2723231557
 10
172.9710758427
 20
84.3445938384
 10
173.0136187505
 20
84.4210935879
 10
173.0517613635
 20
84.5016207738
 10
173.0852919897
 20
84.5860487868
 10
173.1140099978
 20
84.6742518448
 10
173.1377232035
 20
84.7660697273
 10
173.1562612631
 20
84.86143086
 10
173.1694470614
 20
84.9602709369
 10
173.1771073433
 20
85.0624264526
 10
173.1791393673
 20
85.1501723542
  0
LINE
  5
513
100
AcDbEntity
  8
RACCORDO
100
AcDbLine
 62
7
  6
CONTINUOUS
 10
172.7128432014
 20
84.0372961169
 11
172.7131540617
 21
84.0375631101
  0
LINE
  5
514
100
AcDbEntity
  8
RACCORDO
100
AcDbLine
 62
250
  6
CONTINUOUS
 10
146.9954686009
 20
64.4891220037
 11
147.6902327873
 21
64.9187745982
  0
LINE
  5
515
100
AcDbEntity
  8
RACCORDO
100
AcDbLine
 62
7
  6
CONTINUOUS
 10
146.9094102832
 20
64.2709855996
 11
147.5910370607
 21
64.6925138234
  0
LWPOLYLINE
  5
516
100
AcDbEntity
  8
ASSI
100
AcDbPolyline
 62
250
  6
CONTINUOUS
 90
16
 70
0
 10
141.526563718
 20
62.1232516414
 10
141.4875567007
 20
62.1018780131
 10
141.4452461552
 20
62.0829583294
 10
141.4000853793
 20
62.0666953207
 10
141.3525582133
 20
62.0532632549
 10
141.3031738629
 20
62.0428060726
 10
141.2524614455
 20
62.0354358422
 10
141.2009643036
 20
62.0312315558
 10
141.1492342029
 20
62.030238286
 10
141.0978254293
 20
62.0324666988
 10
141.0472888074
 20
62.0378929395
 10
140.9981658304
 20
62.0464588888
 10
140.9509828755
 20
62.0580727775
 10
140.9062455145
 20
62.0726101768
 10
140.8644331
 20
62.0899153378
 10
140.8259936585
 20
62.1098028521
  0
LINE
  5
517
100
AcDbEntity
  8
ASSI
100
AcDbLine
 62
250
  6
CONTINUOUS
 10
141.8671438991
 20
61.9226363418
 11
146.9707834114
 21
64.4647663162
  0
LINE
  5
518
100
AcDbEntity
  8
ASSI
100
AcDbLine
 62
7
  6
CONTINUOUS
 10
141.7427414739
 20
61.6827522659
 11
146.8581549759
 21
64.2307468811
  0
LWPOLYLINE
  5
519
100
AcDbEntity
  8
RACCORDO
100
AcDbPolyline
 62
7
  6
CONTINUOUS
 90
9
 70
0
 10
171.8818478665
 20
114.137060551
 10
172.0646653602
 20
113.8058183583
 10
172.1892003977
 20
113.5764833073
 10
172.3124149388
 20
113.3465253013
 10
172.4342979725
 20
113.1159647268
 10
172.554838919
 20
112.8848213866
 10
172.6740269676
 20
112.6531157514
 10
172.7918510937
 20
112.420868971
 10
172.9083005504
 20
112.1881019283
  0
LWPOLYLINE
  5
51A
100
AcDbEntity
  8
RACCORDO
100
AcDbPolyline
 62
250
  6
CONTINUOUS
 90
7
 70
0
 10
172.6424404206
 20
111.992718036
 10
172.4607752194
 20
112.3544802079
 10
172.277587466
 20
112.7116017726
 10
172.0930081758
 20
113.0640415594
 10
171.9071659138
 20
113.4117626802
 10
171.720186778
 20
113.7547324149
 10
171.532194385
 20
114.0929220969
  0
ELLIPSE
  5
51B
100
AcDbEntity
  8
ASSI
100
AcDbEllipse
 62
7
  6
CONTINUOUS
 10
146.6171761647
 20
64.6693080977
 30
0.0
 11
-0.2498600223
 21
0.43379745
 31
0.0
 40
0.5768037941
 41
-3.1764863044
 42
-2.355482613
  0
ELLIPSE
  5
51C
100
AcDbEntity
  8
ASSI
100
AcDbEllipse
 62
7
  6
CONTINUOUS
 10
146.6171761647
 20
100.3440069534
 30
0.0
 11
-0.2496303025
 21
0.4334023309
 31
0.0
 40
0.5778584463
 41
-2.3545649475
 42
-0.7846820092
  0
ELLIPSE
  5
51D
100
AcDbEntity
  8
ASSI
100
AcDbEllipse
 62
7
  6
CONTINUOUS
 10
115.6706920505
 20
118.2121190304
 30
0.0
 11
-0.2498600223
 21
0.43379745
 31
0.0
 40
0.5768037941
 41
-0.7837728977
 42
0.0348936515
  0
ELLIPSE
  5
51E
100
AcDbEntity
  8
ASSI
100
AcDbEllipse
 62
7
  6
CONTINUOUS
 10
139.1377159488
 20
108.1549471294
 30
0.0
 11
-0.124874063
 21
0.2176580375
 31
0.0
 40
0.5755725746
 41
-0.7807417146
 42
-0.5299696177
  0
ELLIPSE
  5
51F
100
AcDbEntity
  8
ASSI
100
AcDbEllipse
 62
7
  6
CONTINUOUS
 10
143.3026955301
 20
105.7501401186
 30
0.0
 11
-0.1244876053
 21
0.2170011437
 31
0.0
 40
0.5790846157
 41
-1.0345171267
 42
-0.7837450299
  0
ELLIPSE
  5
520
100
AcDbEntity
  8
ASSI
100
AcDbEllipse
 62
7
  6
CONTINUOUS
 10
123.2278133721
 20
117.3411254792
 30
0.0
 11
-0.124874063
 21
0.2176580375
 31
0.0
 40
0.5755725746
 41
-0.7807417146
 42
-0.5299696177
  0
ELLIPSE
  5
521
100
AcDbEntity
  8
ASSI
100
AcDbEllipse
 62
7
  6
CONTINUOUS
 10
127.3927929535
 20
114.9363184684
 30
0.0
 11
-0.1244876053
 21
0.2170011437
 31
0.0
 40
0.5790846157
 41
-1.0345171267
 42
-0.7837450299
  0
ELLIPSE
  5
522
100
AcDbEntity
  8
CURVE
100
AcDbEllipse
 62
250
  6
CONTINUOUS
 10
455.4125609976
 20
305.5459976793
 30
0.0
 11
-353.5448483845
 21
612.3773669863
 31
0.0
 40
0.5773595689
 41
-4.6826853446
 42
-4.6822032368
  0
ELLIPSE
  5
523
100
AcDbEntity
  8
CURVE
100
AcDbEllipse
 62
250
  6
CONTINUOUS
 10
456.5933259464
 20
304.8642387963
 30
0.0
 11
-353.4781544059
 21
612.354265211
 31
0.0
 40
0.5774031324
 41
-4.6834986795
 42
-4.6827296313
  0
ELLIPSE
  5
524
100
AcDbEntity
  8
CURVE
100
AcDbEllipse
 62
250
  6
CONTINUOUS
 10
456.6162070109
 20
304.8510275565
 30
0.0
 11
-352.371711785
 21
611.9717230398
 31
0.0
 40
0.5781256965
 41
-4.685355474
 42
-4.6836875299
  0
ELLIPSE
  5
525
100
AcDbEntity
  8
CURVE
100
AcDbEllipse
 62
250
  6
CONTINUOUS
 10
456.9325296537
 20
304.668386827
 30
0.0
 11
-353.5315073812
 21
612.372745476
 31
0.0
 40
0.5773682831
 41
-4.6864957193
 42
-4.685170145
  0
ELLIPSE
  5
526
100
AcDbEntity
  8
CURVE
100
AcDbEllipse
 62
250
  6
CONTINUOUS
 10
458.0553539377
 20
304.0200821577
 30
0.0
 11
-353.530172211
 21
612.3722829651
 31
0.0
 40
0.5773691552
 41
-4.6883462818
 42
-4.6859364011
  0
ELLIPSE
  5
527
100
AcDbEntity
  8
CURVE
100
AcDbEllipse
 62
250
  6
CONTINUOUS
 10
456.9298779961
 20
304.6699178608
 30
0.0
 11
-353.5565164082
 21
612.3814091132
 31
0.0
 40
0.5773519474
 41
-4.6843598773
 42
-4.6827683868
  0
ELLIPSE
  5
528
100
AcDbEntity
  8
CURVE
100
AcDbEllipse
 62
250
  6
CONTINUOUS
 10
466.7867055759
 20
298.9787091513
 30
0.0
 11
250.1573405318
 21
432.9218448448
 31
0.0
 40
0.5771078566
 41
-3.8979204839
 42
-3.896381964
  0
ELLIPSE
  5
529
100
AcDbEntity
  8
CURVE
100
AcDbEllipse
 62
250
  6
CONTINUOUS
 10
466.7790302483
 20
298.9831407892
 30
0.0
 11
249.8666983381
 21
433.0896579714
 31
0.0
 40
0.5775553942
 41
-3.901480175
 42
-3.8999417837
  0
ELLIPSE
  5
52A
100
AcDbEntity
  8
CURVE
100
AcDbEllipse
 62
250
  6
CONTINUOUS
 10
457.7128117082
 20
304.2178617479
 30
0.0
 11
-353.5391028236
 21
612.3753766196
 31
0.0
 40
0.5773633218
 41
-4.6867053406
 42
-4.6859358697
  0
ELLIPSE
  5
52B
100
AcDbEntity
  8
RACCORDO
100
AcDbEllipse
 62
7
  6
CONTINUOUS
 10
168.6205935105
 20
113.0538862729
 30
0.0
 11
0.6749760266
 21
-0.0100293469
 31
0.0
 40
0.5672251703
 41
1.5231509283
 42
2.3646225871
  0
ELLIPSE
  5
52C
100
AcDbEntity
  8
RACCORDO
100
AcDbEllipse
 62
7
  6
CONTINUOUS
 10
166.1457197763
 20
114.4828473495
 30
0.0
 11
0.6749760266
 21
-0.0100293469
 31
0.0
 40
0.5672251703
 41
1.5231509283
 42
2.3646225871
  0
ELLIPSE
  5
52D
100
AcDbEntity
  8
RACCORDO
100
AcDbEllipse
 62
7
  6
CONTINUOUS
 10
163.6708460422
 20
115.9118084262
 30
0.0
 11
0.6749760266
 21
-0.0100293469
 31
0.0
 40
0.5672251703
 41
1.5231509283
 42
2.3646225871
  0
ELLIPSE
  5
52E
100
AcDbEntity
  8
RACCORDO
100
AcDbEllipse
 62
7
  6
CONTINUOUS
 10
161.195972308
 20
117.3407695028
 30
0.0
 11
0.6749760266
 21
-0.0100293469
 31
0.0
 40
0.5672251703
 41
1.5231509283
 42
2.3646225871
  0
ELLIPSE
  5
52F
100
AcDbEntity
  8
RACCORDO
100
AcDbEllipse
 62
7
  6
CONTINUOUS
 10
158.7210985739
 20
118.7697305795
 30
0.0
 11
0.6749760266
 21
-0.0100293469
 31
0.0
 40
0.5672251703
 41
1.5231509283
 42
2.3646225871
  0
ELLIPSE
  5
530
100
AcDbEntity
  8
RACCORDO
100
AcDbEllipse
 62
7
  6
CONTINUOUS
 10
156.2462248397
 20
120.1986916561
 30
0.0
 11
0.6749760266
 21
-0.0100293469
 31
0.0
 40
0.5672251703
 41
1.5231509283
 42
2.3646225871
  0
ELLIPSE
  5
531
100
AcDbEntity
  8
RACCORDO
100
AcDbEllipse
 62
7
  6
CONTINUOUS
 10
153.7713511056
 20
121.6276527327
 30
0.0
 11
0.6749760266
 21
-0.0100293469
 31
0.0
 40
0.5672251703
 41
1.5231509283
 42
2.3646225871
  0
ELLIPSE
  5
532
100
AcDbEntity
  8
RACCORDO
100
AcDbEllipse
 62
7
  6
CONTINUOUS
 10
138.6898052854
 20
117.0094018273
 30
0.0
 11
0.5052978201
 21
-0.0134148724
 31
0.0
 40
0.5510536778
 41
-0.7684856912
 42
0.0981573026
  0
ELLIPSE
  5
533
100
AcDbEntity
  8
RACCORDO
100
AcDbEllipse
 62
7
  6
CONTINUOUS
 10
151.2964773714
 20
123.0566138094
 30
0.0
 11
0.6749760266
 21
-0.0100293469
 31
0.0
 40
0.5672251703
 41
1.5231509283
 42
2.3646225871
  0
ELLIPSE
  5
534
100
AcDbEntity
  8
RACCORDO
100
AcDbEllipse
 62
7
  6
CONTINUOUS
 10
153.1854942997
 20
108.6397726641
 30
0.0
 11
0.5052978201
 21
-0.0134148724
 31
0.0
 40
0.5510536778
 41
-0.7684856912
 42
0.0981573026
  0
ELLIPSE
  5
535
100
AcDbEntity
  8
RACCORDO
100
AcDbEllipse
 62
7
  6
CONTINUOUS
 10
147.3366255407
 20
65.1230673526
 30
0.0
 11
-0.2500882309
 21
0.4331376414
 31
0.0
 40
0.5771558487
 41
-3.1241455232
 42
-2.3563950755
  0
ELLIPSE
  5
536
100
AcDbEntity
  8
RACCORDO
100
AcDbEllipse
 62
7
  6
CONTINUOUS
 10
147.3366255407
 20
100.692543966
 30
0.0
 11
-0.2500120911
 21
0.4330057209
 31
0.0
 40
0.5775075436
 41
-2.3560905478
 42
-0.7855988075
  0
ELLIPSE
  5
537
100
AcDbEntity
  8
0
100
AcDbEllipse
 62
7
  6
CONTINUOUS
 10
153.3861336674
 20
128.8913923067
 30
0.0
 11
29.4396078285
 21
16.2422853717
 31
0.0
 40
0.0106312507
 41
2.1921610988
 42
2.1951921063
  0
ELLIPSE
  5
538
100
AcDbEntity
  8
RACCORDO
100
AcDbEllipse
 62
7
  6
CONTINUOUS
 10
138.3259127986
 20
118.0014333804
 30
0.0
 11
-0.2500219825
 21
0.4330017693
 31
0.0
 40
0.5773580476
 41
-1.2146532597
 42
-0.785493706
  0
ELLIPSE
  5
539
100
AcDbEntity
  8
RACCORDO
100
AcDbEllipse
 62
7
  6
CONTINUOUS
 10
116.3654562369
 20
118.5749089621
 30
0.0
 11
-0.2500882309
 21
0.4331376414
 31
0.0
 40
0.5771558487
 41
-0.7852941622
 42
-0.0174471304
  0
ELLIPSE
  5
53A
100
AcDbEntity
  8
RACCORDO
100
AcDbEllipse
 62
7
  6
CONTINUOUS
 10
135.360774601
 20
119.7155706886
 30
0.0
 11
0.5010658084
 21
-0.0038961965
 31
0.0
 40
0.5740749608
 41
7.0747257069
 42
7.7881499604
  0
ELLIPSE
  5
53B
100
AcDbEntity
  8
RACCORDO
100
AcDbEllipse
 62
7
  6
CONTINUOUS
 10
149.1131359665
 20
116.8602571265
 30
0.0
 11
-0.2055804311
 21
0.3560522809
 31
0.0
 40
0.5817339356
 41
-1.8423693656
 42
-1.7827014604
  0
ELLIPSE
  5
53C
100
AcDbEntity
  8
RACCORDO
100
AcDbEllipse
 62
7
  6
CONTINUOUS
 10
145.6700495626
 20
106.2417932213
 30
0.0
 11
-0.206978449
 21
0.3464057993
 31
0.0
 40
0.5771584731
 41
-2.3735121062
 42
-0.8027157794
  0
ELLIPSE
  5
53D
100
AcDbEntity
  8
RACCORDO
100
AcDbEllipse
 62
7
  6
CONTINUOUS
 10
141.8615307409
 20
108.440784257
 30
0.0
 11
-0.206978449
 21
0.3464057993
 31
0.0
 40
0.5771584731
 41
-0.8027157794
 42
0.7680805474
  0
ELLIPSE
  5
53E
100
AcDbEntity
  8
RACCORDO
100
AcDbEllipse
 62
7
  6
CONTINUOUS
 10
129.7601469859
 20
115.4279715712
 30
0.0
 11
-0.206978449
 21
0.3464057993
 31
0.0
 40
0.5771584731
 41
-2.3735121062
 42
-0.8027157794
  0
ELLIPSE
  5
53F
100
AcDbEntity
  8
RACCORDO
100
AcDbEllipse
 62
7
  6
CONTINUOUS
 10
125.9516281642
 20
117.6269626069
 30
0.0
 11
-0.206978449
 21
0.3464057993
 31
0.0
 40
0.5771584731
 41
-0.8027157794
 42
0.7680805474
  0
ELLIPSE
  5
540
100
AcDbEntity
  8
RACCORDO
100
AcDbEllipse
 62
7
  6
CONTINUOUS
 10
146.6418613542
 20
64.693414758
 30
0.0
 11
-0.2500882309
 21
0.4331376414
 31
0.0
 40
0.5771558487
 41
3.159039784
 42
3.9267902317
  0
ELLIPSE
  5
541
100
AcDbEntity
  8
RACCORDO
100
AcDbEllipse
 62
7
  6
CONTINUOUS
 10
146.6418613542
 20
100.2913944549
 30
0.0
 11
-0.2500120911
 21
0.4330057209
 31
0.0
 40
0.5775075436
 41
3.9270947593
 42
4.6290455726
  0
ELLIPSE
  5
542
100
AcDbEntity
  8
RACCORDO
100
AcDbEllipse
 62
7
  6
CONTINUOUS
 10
121.1547764149
 20
116.8004664846
 30
0.0
 11
0.3079969422
 21
0.51496962
 31
0.0
 40
0.5873179545
 41
-3.917905871
 42
-3.1412343538
  0
ELLIPSE
  5
543
100
AcDbEntity
  8
RACCORDO
100
AcDbEllipse
 62
7
  6
CONTINUOUS
 10
137.0646789916
 20
107.6142881348
 30
0.0
 11
0.3079969422
 21
0.51496962
 31
0.0
 40
0.5873179545
 41
-3.917905871
 42
-3.1412343538
  0
ELLIPSE
  5
544
100
AcDbEntity
  8
RACCORDO
100
AcDbEllipse
 62
7
  6
CONTINUOUS
 10
146.8174332417
 20
106.6688940466
 30
0.0
 11
0.458499628
 21
0.1447511585
 31
0.0
 40
0.5700939823
 41
-0.959038597
 42
-0.7867589931
  0
ELLIPSE
  5
545
100
AcDbEntity
  8
RACCORDO
100
AcDbEllipse
 62
7
  6
CONTINUOUS
 10
130.907530665
 20
115.8550723964
 30
0.0
 11
0.458499628
 21
0.1447511585
 31
0.0
 40
0.5700939823
 41
-0.959038597
 42
-0.7867589931
  0
ENDSEC
  0
SECTION
  2
OBJECTS
  0
DICTIONARY
  5
C
100
AcDbDictionary
280
0
281
1
  3
ACAD_GROUP
350
D
  3
ACAD_MLINESTYLE
350
17
  3
ACAD_LAYOUT
350
1A
  3
ACAD_PLOTSETTINGS
350
19
  3
ACAD_PLOTSTYLENAME
350
E
  0
DICTIONARY
  5
D
102
{ACAD_REACTORS
330
C
102
}
100
AcDbDictionary
280
0
281
1
  0
ACDBDICTIONARYWDFLT
  5
E
102
{ACAD_REACTORS
330
C
102
}
100
AcDbDictionary
281
1
  3
Normal
350
F
100
AcDbDictionaryWithDefault
340
F
  0
DICTIONARY
  5
17
102
{ACAD_REACTORS
330
C
102
}
100
AcDbDictionary
280
0
281
1
  3
Standard
350
18
  0
DICTIONARY
  5
19
102
{ACAD_REACTORS
330
C
102
}
100
AcDbDictionary
281
1
  0
DICTIONARY
  5
1A
102
{ACAD_REACTORS
330
C
102
}
100
AcDbDictionary
281
1
  3
Model
350
546
  3
Layout1
350
547
  0
ACDBPLACEHOLDER
  5
F
102
{ACAD_REACTORS
330
E
102
}
  0
MLINESTYLE
  5
18
102
{ACAD_REACTORS
330
17
102
}
100
AcDbMlineStyle
  2
STANDARD
 70
0
  3

 62
256
 51
90.0
 52
90.0
 71
2
 49
0.5
 62
256
  6
BYLAYER
 49
-0.5
 62
256
  6
BYLAYER
  0
LAYOUT
  5
546
102
{ACAD_REACTORS
330
1A
102
}
100
AcDbPlotSettings
  1

  2
none_device
  4
ISO_A4_(297.00_x_210.00_MM)
  6

 40
0.0
 41
0.0
 42
0.0
 43
0.0
 44
297.0
 45
210.0
 46
0.0
 47
0.0
 48
0.0
 49
0.0
140
0.0
141
0.0
142
1.0
143
1.0
 70
1024
 72
1
 73
0
 74
0
  7

 75
0
147
1.0
148
0.0
149
0.0
100
AcDbLayout
  1
Model
 70
0
 71
0
 10
0.0
 20
0.0
 11
297.0
 21
210.0
 12
0.0
 22
0.0
 32
0.0
 14
0.0
 24
0.0
 34
0.0
 15
0.0
 25
0.0
 35
0.0
146
0.0
 13
0.0
 23
0.0
 33
0.0
 16
1.0
 26
0.0
 36
0.0
 17
0.0
 27
1.0
 37
0.0
 76
0
330
2A4
345
0
346
0
  0
LAYOUT
  5
547
102
{ACAD_REACTORS
330
1A
102
}
100
AcDbPlotSettings
  1

  2
none_device
  4
ISO_A4_(297.00_x_210.00_MM)
  6

 40
0.0
 41
0.0
 42
0.0
 43
0.0
 44
297.0
 45
210.0
 46
0.0
 47
0.0
 48
0.0
 49
0.0
140
0.0
141
0.0
142
1.0
143
1.0
 70
0
 72
1
 73
0
 74
0
  7

 75
0
147
1.0
148
0.0
149
0.0
100
AcDbLayout
  1
Layout1
 70
0
 71
1
 10
0.0
 20
0.0
 11
297.0
 21
210.0
 12
0.0
 22
0.0
 32
0.0
 14
0.0
 24
0.0
 34
0.0
 15
0.0
 25
0.0
 35
0.0
146
0.0
 13
0.0
 23
0.0
 33
0.0
 16
1.0
 26
0.0
 36
0.0
 17
0.0
 27
1.0
 37
0.0
 76
0
330
2A5
345
0
346
0
  0
ENDSEC
  0
EOF
