  0
SECTION
  2
HEADER
  9
$ACADVER
  1
AC1024
  9
$DWGCODEPAGE
  3
ANSI_1252
  9
$EXTMAX
 10
297.0
 20
210.0
 30
0.0
  9
$EXTMIN
 10
0.0
 20
0.0
 30
0.0
  9
$LIMMIN
 10
0.0
 20
0.0
  9
$LIMMAX
 10
297.0
 20
210.0
  9
$VIEWCTR
 10
148.5
 20
105.0
  9
$VIEWSIZE
 40
210.0
  9
$CLAYER
  8
0
  9
$LTSCALE
 40
16.335
  9
$CELTYPE
  6
BYLAYER
  9
$DIMSCALE
 40
1.0
  9
$DIMASZ
 40
3.0
  9
$DIMEXO
 40
0.5
  9
$DIMDLI
 40
11.286
  9
$DIMEXE
 40
1.5
  9
$DIMCEN
 40
2.673
  9
$DIMLFAC
 40
1.0
  9
$DIMBLK
  1
_FILLED
  9
$DIMALT
 70
0
  9
$DIMALTF
 40
0.0393700787
  9
$DIMTXT
 40
3.0
  9
$DIMTOL
 70
1
  9
$DIMLIM
 70
0
  9
$DIMTFAC
 40
1.0
  9
$DIMTP
 40
0.01
  9
$DIMTM
 40
0.01
  9
$DIMGAP
 40
0.625
  9
$DIMDSEP
 70
44
  9
$AUNITS
 70
0
  9
$PDMODE
 70
3
  9
$PDSIZE
 40
3.0
  9
$HANDSEED
  5
24F
  9
$TILEMODE
 70
1
  9
$MEASUREMENT
 70
1
  9
$INSUNITS
 70
4
  0
ENDSEC
  0
SECTION
  2
CLASSES
  0
CLASS
  1
ACDBDICTIONARYWDFLT
  2
AcDbDictionaryWithDefault
  3
AutoCAD 2000
 90
0
 91
1
280
0
281
0
  0
CLASS
  1
ACDBPLACEHOLDER
  2
AcDbPlaceHolder
  3
AutoCAD 2000
 90
0
 91
1
280
0
281
0
  0
CLASS
  1
LAYOUT
  2
AcDbLayout
  3
AutoCAD 2000
 90
0
 91
0
280
0
281
0
  0
ENDSEC
  0
SECTION
  2
TABLES
  0
TABLE
  2
VPORT
  5
8
100
AcDbSymbolTable
 70
2
  0
VPORT
  5
1F4
100
AcDbSymbolTableRecord
100
AcDbViewportTableRecord
  2
*ACTIVE
 70
0
 10
0.0
 20
0.0
 11
1.0
 21
1.0
 12
148.5
 22
105.0
 13
0.0
 23
0.0
 14
1.0
 24
1.0
 15
0.0
 25
0.0
 16
0.0
 26
0.0
 36
1.0
 17
0.0
 27
0.0
 37
0.0
 40
210.0
 41
1.4142857143
 42
50.0
 43
0.0
 44
0.0
 50
0.0
 51
0.0
 71
0
 72
100
 73
1
 74
1
 75
0
 76
0
 77
0
 78
0
  0
ENDTAB
  0
TABLE
  2
LTYPE
  5
5
100
AcDbSymbolTable
 70
6
  0
LTYPE
  5
14
100
AcDbSymbolTableRecord
100
AcDbLinetypeTableRecord
  2
BYBLOCK
 70
0
  3

 72
65
 73
0
 40
0.0
  0
LTYPE
  5
15
100
AcDbSymbolTableRecord
100
AcDbLinetypeTableRecord
  2
BYLAYER
 70
0
  3

 72
65
 73
0
 40
0.0
  0
LTYPE
  5
16
100
AcDbSymbolTableRecord
100
AcDbLinetypeTableRecord
  2
CONTINUOUS
 70
64
  3
Solid line
 72
65
 73
0
 40
0.0
  0
LTYPE
  5
1F5
100
AcDbSymbolTableRecord
100
AcDbLinetypeTableRecord
  2
CENTER
 70
64
  3
____ _ ____ _ ____ _ ____ _ ____ _ ____ _ ____
 72
65
 73
4
 40
0.6
 49
0.375
 74
0
 49
-0.075
 74
0
 49
0.075
 74
0
 49
-0.075
 74
0
  0
LTYPE
  5
1F6
100
AcDbSymbolTableRecord
100
AcDbLinetypeTableRecord
  2
HIDDEN
 70
64
  3
- - - - - - - - - - - - - - - - - - - -
 72
65
 73
2
 40
0.2
 49
0.1
 74
0
 49
-0.1
 74
0
  0
LTYPE
  5
1F7
100
AcDbSymbolTableRecord
100
AcDbLinetypeTableRecord
  2
PHANTOM
 70
64
  3
_____ _ _ _____ _ _ _____ _ _ _____
 72
65
 73
6
 40
0.8
 49
0.45
 74
0
 49
-0.05
 74
0
 49
0.1
 74
0
 49
-0.05
 74
0
 49
0.1
 74
0
 49
-0.05
 74
0
  0
LTYPE
  5
1F8
100
AcDbSymbolTableRecord
100
AcDbLinetypeTableRecord
  2
DOT
 70
64
  3
. . . . . . . . . . . . . . . . . . . .
 72
65
 73
2
 40
0.2
 49
0.1
 74
0
 49
-0.1
 74
0
  0
LTYPE
  5
1F9
100
AcDbSymbolTableRecord
100
AcDbLinetypeTableRecord
  2
DASHED
 70
64
  3
- - - - - - - - - - - - - - - - - - - -
 72
65
 73
2
 40
0.2
 49
0.1
 74
0
 49
-0.1
 74
0
  0
ENDTAB
  0
TABLE
  2
LAYER
  5
2
100
AcDbSymbolTable
 70
36
  0
LAYER
  5
10
100
AcDbSymbolTableRecord
100
AcDbLayerTableRecord
  2
0
 70
0
 62
7
  6
CONTINUOUS
370
-3
390
F
  0
LAYER
  5
1FA
100
AcDbSymbolTableRecord
100
AcDbLayerTableRecord
  2
DEFAULT_1
 70
0
 62
7
  6
CENTER
370
-3
390
F
  0
LAYER
  5
1FB
100
AcDbSymbolTableRecord
100
AcDbLayerTableRecord
  2
DEFAULT_2
 70
0
 62
7
  6
HIDDEN
370
-3
390
F
  0
LAYER
  5
1FC
100
AcDbSymbolTableRecord
100
AcDbLayerTableRecord
  2
DEFAULT_3
 70
0
 62
7
  6
PHANTOM
370
-3
390
F
  0
LAYER
  5
1FD
100
AcDbSymbolTableRecord
100
AcDbLayerTableRecord
  2
ASSI
 70
0
 62
7
  6
CONTINUOUS
370
-3
390
F
  0
LAYER
  5
1FE
100
AcDbSymbolTableRecord
100
AcDbLayerTableRecord
  2
COORDINATE
 70
0
 62
7
  6
CONTINUOUS
370
-3
390
F
  0
LAYER
  5
1FF
100
AcDbSymbolTableRecord
100
AcDbLayerTableRecord
  2
COORD_ORIGINE
 70
0
 62
7
  6
CONTINUOUS
370
-3
390
F
  0
LAYER
  5
200
100
AcDbSymbolTableRecord
100
AcDbLayerTableRecord
  2
COPY_PUBLISH
 70
0
 62
7
  6
CONTINUOUS
370
-3
390
F
  0
LAYER
  5
201
100
AcDbSymbolTableRecord
100
AcDbLayerTableRecord
  2
COSMETICI
 70
0
 62
7
  6
CONTINUOUS
370
-3
390
F
  0
LAYER
  5
202
100
AcDbSymbolTableRecord
100
AcDbLayerTableRecord
  2
CURVE
 70
0
 62
7
  6
CONTINUOUS
370
-3
390
F
  0
LAYER
  5
203
100
AcDbSymbolTableRecord
100
AcDbLayerTableRecord
  2
CURVE_LED_TASTO
 70
0
 62
7
  6
CONTINUOUS
370
-3
390
F
  0
LAYER
  5
204
100
AcDbSymbolTableRecord
100
AcDbLayerTableRecord
  2
DRAFT
 70
0
 62
7
  6
CONTINUOUS
370
-3
390
F
  0
LAYER
  5
205
100
AcDbSymbolTableRecord
100
AcDbLayerTableRecord
  2
IGES_SCRITTE
 70
0
 62
7
  6
CONTINUOUS
370
-3
390
F
  0
LAYER
  5
206
100
AcDbSymbolTableRecord
100
AcDbLayerTableRecord
  2
IMPORT_IGES
 70
0
 62
7
  6
CONTINUOUS
370
-3
390
F
  0
LAYER
  5
207
100
AcDbSymbolTableRecord
100
AcDbLayerTableRecord
  2
INTF_1
 70
0
 62
7
  6
CONTINUOUS
370
-3
390
F
  0
LAYER
  5
208
100
AcDbSymbolTableRecord
100
AcDbLayerTableRecord
  2
INTF_11
 70
0
 62
7
  6
CONTINUOUS
370
-3
390
F
  0
LAYER
  5
209
100
AcDbSymbolTableRecord
100
AcDbLayerTableRecord
  2
INTF_8
 70
0
 62
7
  6
CONTINUOUS
370
-3
390
F
  0
LAYER
  5
20A
100
AcDbSymbolTableRecord
100
AcDbLayerTableRecord
  2
NOTE
 70
0
 62
7
  6
CONTINUOUS
370
-3
390
F
  0
LAYER
  5
20B
100
AcDbSymbolTableRecord
100
AcDbLayerTableRecord
  2
PIANI
 70
0
 62
7
  6
CONTINUOUS
370
-3
390
F
  0
LAYER
  5
20C
100
AcDbSymbolTableRecord
100
AcDbLayerTableRecord
  2
PIANI_ORIGINE
 70
0
 62
7
  6
CONTINUOUS
370
-3
390
F
  0
LAYER
  5
20D
100
AcDbSymbolTableRecord
100
AcDbLayerTableRecord
  2
PIANI_RIFERIMENTO
 70
0
 62
7
  6
CONTINUOUS
370
-3
390
F
  0
LAYER
  5
20E
100
AcDbSymbolTableRecord
100
AcDbLayerTableRecord
  2
PUNTI
 70
0
 62
7
  6
CONTINUOUS
370
-3
390
F
  0
LAYER
  5
20F
100
AcDbSymbolTableRecord
100
AcDbLayerTableRecord
  2
RACCORDO
 70
0
 62
7
  6
CONTINUOUS
370
-3
390
F
  0
LAYER
  5
210
100
AcDbSymbolTableRecord
100
AcDbLayerTableRecord
  2
RGB____0____0____0__
 70
0
 62
7
  6
CONTINUOUS
370
-3
390
F
  0
LAYER
  5
211
100
AcDbSymbolTableRecord
100
AcDbLayerTableRecord
  2
SIMBOLI
 70
0
 62
7
  6
CONTINUOUS
370
-3
390
F
  0
LAYER
  5
212
100
AcDbSymbolTableRecord
100
AcDbLayerTableRecord
  2
SMUSSO
 70
0
 62
7
  6
CONTINUOUS
370
-3
390
F
  0
LAYER
  5
213
100
AcDbSymbolTableRecord
100
AcDbLayerTableRecord
  2
SUPERFICI
 70
0
 62
7
  6
CONTINUOUS
370
-3
390
F
  0
LAYER
  5
214
100
AcDbSymbolTableRecord
100
AcDbLayerTableRecord
  2
TRASH
 70
0
 62
7
  6
CONTINUOUS
370
-3
390
F
  0
ENDTAB
  0
TABLE
  2
STYLE
  5
3
100
AcDbSymbolTable
 70
1
  0
STYLE
  5
11
100
AcDbSymbolTableRecord
100
AcDbTextStyleTableRecord
  2
STANDARD
 70
0
 40
0.0
 41
0.8
 50
0.0
 71
0
 42
0.2
  3
txt
  4

  0
STYLE
  5
215
100
AcDbSymbolTableRecord
100
AcDbTextStyleTableRecord
  2
TEXTSTYLE_1
 70
0
 40
0.0
 41
0.8
 50
0.0
 71
0
 42
0.2
  3
gdt
  4

  0
ENDTAB
  0
TABLE
  2
VIEW
  5
6
100
AcDbSymbolTable
 70
0
  0
ENDTAB
  0
TABLE
  2
UCS
  5
7
100
AcDbSymbolTable
 70
0
  0
ENDTAB
  0
TABLE
  2
APPID
  5
9
100
AcDbSymbolTable
 70
1
  0
APPID
  5
216
100
AcDbSymbolTableRecord
100
AcDbRegAppTableRecord
  2
ACAD
 70
0
  0
ENDTAB
  0
TABLE
  2
BLOCK_RECORD
  5
1
100
AcDbSymbolTable
 70
0
  0
BLOCK_RECORD
  5
217
100
AcDbSymbolTableRecord
100
AcDbBlockTableRecord
  2
*Model_Space
  0
BLOCK_RECORD
  5
218
100
AcDbSymbolTableRecord
100
AcDbBlockTableRecord
  2
*Paper_Space
  0
BLOCK_RECORD
  5
219
100
AcDbSymbolTableRecord
100
AcDbBlockTableRecord
  2
_FILLED
  0
ENDTAB
  0
TABLE
  2
DIMSTYLE
  5
A
100
AcDbSymbolTable
 70
1
100
AcDbDimStyleTable
 71
0
  0
DIMSTYLE
105
21A
100
AcDbSymbolTableRecord
100
AcDbDimStyleTableRecord
  2
STANDARD
 70
0
  3

  4

 40
1.0
 41
3.0
 42
0.5
 43
0.38
 44
1.5
 45
0.0
 46
0.0
 47
0.01
 48
0.01
140
3.0
141
0.09
142
0.0
143
25.4
144
1.0
145
0.0
146
1.0
147
0.625
 71
1
 72
0
 73
0
 74
0
 75
0
 76
0
 77
1
 78
8
 79
2
170
0
171
1
172
0
173
0
174
0
175
0
176
0
177
0
178
0
270
2
179
2
271
2
272
2
273
2
274
2
275
0
280
0
281
0
282
0
283
1
284
8
285
0
286
0
287
3
288
0
340
11
278
44
341
219
342
219
343
219
344
219
  0
ENDTAB
  0
ENDSEC
  0
SECTION
  2
BLOCKS
  0
BLOCK
  5
20
100
AcDbEntity
  8
0
100
AcDbBlockBegin
  2
*Model_Space
 70
0
 10
0.0
 20
0.0
 30
0.0
  3
*Model_Space
  1

  0
ENDBLK
  5
21
100
AcDbEntity
  8
0
100
AcDbBlockEnd
  0
BLOCK
  5
1C
100
AcDbEntity
  8
0
100
AcDbBlockBegin
  2
*Paper_Space
 70
0
 10
0.0
 20
0.0
 30
0.0
  3
*Paper_Space
  1

  0
ENDBLK
  5
1D
100
AcDbEntity
  8
0
100
AcDbBlockEnd
  0
BLOCK
  5
21B
100
AcDbEntity
  8
0
100
AcDbBlockBegin
  2
_FILLED
 70
64
 10
0.0
 20
0.0
  3
_FILLED
  1

  0
SOLID
  5
21C
100
AcDbEntity
  8
0
  6
BYBLOCK
 62
0
100
AcDbTrace
 10
0.0
 20
0.0
 11
-1.0
 21
0.3166666667
 12
-1.0
 22
-0.3166666667
 13
-1.0
 23
-0.3166666667
  0
ENDBLK
  5
21D
100
AcDbEntity
  8
0
  6
BYBLOCK
 62
0
100
AcDbBlockEnd
  0
ENDSEC
  0
SECTION
  2
ENTITIES
  0
LWPOLYLINE
  5
21E
100
AcDbEntity
  8
ASSI
100
AcDbPolyline
 62
7
  6
CONTINUOUS
 90
19
 70
0
 10
131.5030090284
 20
130.9459422364
 10
131.4774280368
 20
130.9286983043
 10
131.3941035563
 20
130.8671457681
 10
131.3147193879
 20
130.8002634547
 10
131.2390679832
 20
130.7282079729
 10
131.1672167263
 20
130.6513017149
 10
131.0996042008
 20
130.5702335913
 10
131.0362071353
 20
130.485209458
 10
130.9770960559
 20
130.3964028109
 10
130.9228221167
 20
130.3047184668
 10
130.8734346782
 20
130.2103455447
 10
130.8290631406
 20
130.1134246481
 10
130.790169926
 20
130.0149082334
 10
130.7568714326
 20
129.914953365
 10
130.7293312861
 20
129.8136347468
 10
130.707896178
 20
129.7116729978
 10
130.6928004147
 20
129.6093004981
 10
130.684264087
 20
129.5064468901
 10
130.6832586781
 20
129.4825663711
  0
LINE
  5
21F
100
AcDbEntity
  8
ASSI
100
AcDbLine
 62
7
  6
CONTINUOUS
 10
131.5028260458
 20
130.9458328925
 11
134.1310179043
 21
132.6791007059
  0
LINE
  5
220
100
AcDbEntity
  8
ASSI
100
AcDbLine
 62
250
  6
CONTINUOUS
 10
131.9136571207
 20
130.913176118
 11
134.5440004105
 21
132.6478627802
  0
LWPOLYLINE
  5
221
100
AcDbEntity
  8
ASSI
100
AcDbPolyline
 62
250
  6
CONTINUOUS
 90
11
 70
0
 10
131.5030038738
 20
130.9459500587
 10
131.5156036504
 20
130.9537146815
 10
131.5508658519
 20
130.9705148301
 10
131.5891109613
 20
130.9820505628
 10
131.6300482485
 20
130.9882341877
 10
131.673366518
 20
130.9890186983
 10
131.7187364747
 20
130.9843981311
 10
131.7658132268
 20
130.9744076103
 10
131.8142389081
 20
130.9591230816
 10
131.8636453982
 20
130.9386607342
 10
131.9136571207
 20
130.913176118
  0
LWPOLYLINE
  5
222
100
AcDbEntity
  8
ASSI
100
AcDbPolyline
 62
250
  6
CONTINUOUS
 90
10
 70
0
 10
130.6833044473
 20
95.9343009061
 10
130.6867576893
 20
95.8989383366
 10
130.6962891097
 20
95.8580554664
 10
130.7116742024
 20
95.8179532792
 10
130.7327984612
 20
95.7789302422
 10
130.7595046654
 20
95.7412767906
 10
130.7915940497
 20
95.7052731663
 10
130.8288277836
 20
95.6711873323
 10
130.8709287489
 20
95.6392729779
 10
130.9175836021
 20
95.609767631
  0
LWPOLYLINE
  5
223
100
AcDbEntity
  8
ASSI
100
AcDbPolyline
 62
7
  6
CONTINUOUS
 90
15
 70
0
 10
130.6833143324
 20
95.9343012605
 10
130.6898378123
 20
95.840350026
 10
130.7031330986
 20
95.7454117619
 10
130.7227267725
 20
95.6544792611
 10
130.7482004891
 20
95.5679432533
 10
130.7792217195
 20
95.4857729481
 10
130.8156326844
 20
95.4077237951
 10
130.8570424491
 20
95.334165317
 10
130.9030893906
 20
95.2652670919
 10
130.9537882233
 20
95.2007341769
 10
131.0087583465
 20
95.1409113889
 10
131.0676309599
 20
95.086052896
 10
131.1305832466
 20
95.0359450976
 10
131.1974546043
 20
94.9907849474
 10
131.225373866
 20
94.9740930887
  0
LWPOLYLINE
  5
224
100
AcDbEntity
  8
ASSI
100
AcDbPolyline
 62
250
  6
CONTINUOUS
 90
28
 70
0
 10
130.9175836017
 20
95.6097676307
 10
130.8757267998
 20
96.8269704529
 10
130.8370917544
 20
98.0461628588
 10
130.8016781922
 20
99.2673331442
 10
130.7694859955
 20
100.4904619667
 10
130.7405146034
 20
101.7155451929
 10
130.7147632158
 20
102.9425940233
 10
130.6922316228
 20
104.171596884
 10
130.6729195818
 20
105.4025420342
 10
130.6568265636
 20
106.6354406222
 10
130.6439524504
 20
107.8702810534
 10
130.6342970885
 20
109.1070517313
 10
130.6278602133
 20
110.3457639936
 10
130.624641798
 20
111.586406307
 10
130.6246417797
 20
112.8289671283
 10
130.6278601591
 20
114.0734579666
 10
130.6342970001
 20
115.3198673453
 10
130.6439523312
 20
116.5681837696
 10
130.6568264178
 20
117.8184189019
 10
130.6729194152
 20
119.0705613183
 10
130.6922314424
 20
120.3245995667
 10
130.7147630297
 20
121.5805454436
 10
130.7405144217
 20
122.8383875084
 10
130.7694858291
 20
124.098114411
 10
130.8016780512
 20
125.3597382548
 10
130.8370916488
 20
126.6232555474
 10
130.875726741
 20
127.8886470896
 10
130.9175836017
 20
129.1559014932
  0
LWPOLYLINE
  5
225
100
AcDbEntity
  8
ASSI
100
AcDbPolyline
 62
250
  6
CONTINUOUS
 90
11
 70
0
 10
130.6832525478
 20
129.4825665789
 10
130.6831572199
 20
129.4703858855
 10
130.6867644422
 20
129.4321869683
 10
130.6962962008
 20
129.3941608963
 10
130.7116815545
 20
129.3565906818
 10
130.7328059965
 20
129.3197559448
 10
130.7595123061
 20
129.2839308313
 10
130.7916017191
 20
129.2493819732
 10
130.8288354071
 20
129.2163665035
 10
130.8709362549
 20
129.185130143
 10
130.917590923
 20
129.1559053713
  0
LWPOLYLINE
  5
226
100
AcDbEntity
  8
ASSI
100
AcDbPolyline
 62
7
  6
CONTINUOUS
 90
10
 70
0
 10
130.6832608417
 20
129.4828121665
 10
130.5686495675
 20
125.7347691027
 10
130.4811002147
 20
121.9414002851
 10
130.4227361677
 20
118.1646222571
 10
130.393563393
 20
114.4047526249
 10
130.3935854085
 20
110.6621056541
 10
130.4228033595
 20
106.9369922032
 10
130.4812160202
 20
103.2297236198
 10
130.5688197157
 20
99.5406117811
 10
130.6833017891
 20
95.9343750156
  0
LWPOLYLINE
  5
227
100
AcDbEntity
  8
ASSI
100
AcDbPolyline
 62
250
  6
CONTINUOUS
 90
22
 70
0
 10
130.9175836017
 20
129.1559014932
 10
130.9232214898
 20
129.2451079347
 10
130.9340330622
 20
129.3366720548
 10
130.9499638061
 20
129.4301408574
 10
130.9709319812
 20
129.5250499279
 10
130.9968338648
 20
129.6209322775
 10
131.027545715
 20
129.7173208749
 10
131.0629173655
 20
129.8137474356
 10
131.1027715003
 20
129.9097278986
 10
131.1469082569
 20
130.0047718238
 10
131.1951003952
 20
130.0984004771
 10
131.2471115464
 20
130.1901625981
 10
131.3026982077
 20
130.2796189507
 10
131.3615900202
 20
130.3663368909
 10
131.4234889623
 20
130.4498782221
 10
131.4880861998
 20
130.5298156657
 10
131.5550545612
 20
130.6057509266
 10
131.6240641408
 20
130.6773156158
 10
131.6947836554
 20
130.7441574504
 10
131.7668649361
 20
130.8059467191
 10
131.8399442442
 20
130.8623789454
 10
131.9136571207
 20
130.913176118
  0
LWPOLYLINE
  5
228
100
AcDbEntity
  8
ASSI
100
AcDbPolyline
 62
7
  6
CONTINUOUS
 90
15
 70
0
 10
161.6334632677
 20
77.4168435078
 10
161.6638496961
 20
77.3999416436
 10
161.7396483381
 20
77.3632735017
 10
161.818074532
 20
77.3328551334
 10
161.8988102683
 20
77.3087725649
 10
161.9820039516
 20
77.2910208933
 10
162.0672135979
 20
77.2798063754
 10
162.1538921544
 20
77.2752992391
 10
162.2421562202
 20
77.2776413754
 10
162.3316230796
 20
77.2870137965
 10
162.421765221
 20
77.3035375494
 10
162.512647807
 20
77.3274538945
 10
162.6040873252
 20
77.3590241295
 10
162.6954931247
 20
77.3983276229
 10
162.7201654623
 20
77.4103065463
  0
LWPOLYLINE
  5
229
100
AcDbEntity
  8
ASSI
100
AcDbPolyline
 62
250
  6
CONTINUOUS
 90
12
 70
0
 10
131.2247887211
 20
94.9744212555
 10
131.1950972185
 20
94.9930032869
 10
131.1469055585
 20
95.0300680473
 10
131.1027696305
 20
95.073308236
 10
131.0629163744
 20
95.1225066822
 10
131.0275451498
 20
95.1774159368
 10
130.9968331066
 20
95.2377590178
 10
130.9709309381
 20
95.3032391498
 10
130.9499628449
 20
95.3735380054
 10
130.9340324747
 20
95.4483100951
 10
130.9232212752
 20
95.5271833506
 10
130.9175836017
 20
95.6097676307
  0
LINE
  5
22A
100
AcDbEntity
  8
ASSI
100
AcDbLine
 62
7
  6
CONTINUOUS
 10
161.6340332385
 20
77.4165045885
 11
131.2247886152
 21
94.9744213167
  0
LINE
  5
22B
100
AcDbEntity
  8
ASSI
100
AcDbLine
 62
250
  6
CONTINUOUS
 10
161.3217816705
 20
78.0547647198
 11
130.9175836017
 21
95.6097676307
  0
LINE
  5
22C
100
AcDbEntity
  8
ASSI
100
AcDbLine
 62
250
  6
CONTINUOUS
 10
165.0580160971
 20
115.0294525531
 11
162.3342158848
 21
113.3487267467
  0
LWPOLYLINE
  5
22D
100
AcDbEntity
  8
ASSI
100
AcDbPolyline
 62
250
  6
CONTINUOUS
 90
19
 70
0
 10
162.4427161167
 20
111.5681353181
 10
162.3910897174
 20
111.5440526672
 10
162.3357114688
 20
111.5226222311
 10
162.2769935325
 20
111.5040035095
 10
162.2153729266
 20
111.4883350751
 10
162.1513082724
 20
111.475733543
 10
162.0852763817
 20
111.4662927021
 10
162.0177687077
 20
111.4600828174
 10
161.9492876873
 20
111.457150107
 10
161.8803430018
 20
111.457516398
 10
161.8114477834
 20
111.4611789644
 10
161.7431147961
 20
111.4681105468
 10
161.6758526193
 20
111.4782595558
 10
161.6101618629
 20
111.4915504557
 10
161.5465314411
 20
111.5078843269
 10
161.4854349337
 20
111.5271396018
 10
161.4273270617
 20
111.5491729701
 10
161.3726403023
 20
111.5738204446
 10
161.3217816708
 20
111.6008985826
  0
LINE
  5
22E
100
AcDbEntity
  8
ASSI
100
AcDbLine
 62
250
  6
CONTINUOUS
 10
166.1800692994
 20
93.5698493246
 11
166.5067780656
 21
93.3812117776
  0
LINE
  5
22F
100
AcDbEntity
  8
ASSI
100
AcDbLine
 62
7
  6
CONTINUOUS
 10
166.17840545
 20
93.6777923653
 11
166.6100750756
 21
93.4285517335
  0
LWPOLYLINE
  5
230
100
AcDbEntity
  8
ASSI
100
AcDbPolyline
 62
250
  6
CONTINUOUS
 90
22
 70
0
 10
162.3342158848
 20
113.3487267467
 10
162.2592825477
 20
113.2986342528
 10
162.1850050435
 20
113.2428938499
 10
162.111747831
 20
113.1817835495
 10
162.0398691725
 20
113.11561099
 10
161.9697227133
 20
113.0447027209
 10
161.9016561667
 20
112.9694015383
 10
161.8359997777
 20
112.8900756355
 10
161.7730803784
 20
112.8071235036
 10
161.713222215
 20
112.7209635223
 10
161.6567243412
 20
112.6320332924
 10
161.6038560838
 20
112.5407660537
 10
161.5548732616
 20
112.4475939314
 10
161.5100130367
 20
112.3529677277
 10
161.4695018559
 20
112.2573666348
 10
161.4335495172
 20
112.1612753563
 10
161.4023346108
 20
112.0651772172
 10
161.3760060288
 20
111.9695412379
 10
161.3546936256
 20
111.8748309204
 10
161.3385031612
 20
111.7815120771
 10
161.3275143386
 20
111.6900502991
 10
161.3217816705
 20
111.6008985824
  0
LWPOLYLINE
  5
231
100
AcDbEntity
  8
ASSI
100
AcDbPolyline
 62
250
  6
CONTINUOUS
 90
22
 70
0
 10
162.9195482688
 20
112.3812694054
 10
162.8841429915
 20
112.3579829627
 10
162.8493338278
 20
112.3322993707
 10
162.8151207777
 20
112.3042186295
 10
162.7813251888
 20
112.2735693813
 10
162.7481257135
 20
112.2405229839
 10
162.7160583092
 20
112.2055935106
 10
162.685153823
 20
112.1687609624
 10
162.6553814076
 20
112.1300453382
 10
162.627184479
 20
112.0900207079
 10
162.6005883881
 20
112.048670259
 10
162.5755677838
 20
112.006010804
 10
162.5524900289
 20
111.9626668506
 10
162.5313818782
 20
111.9186227866
 10
162.5122165768
 20
111.8738942242
 10
162.4952812226
 20
111.829152508
 10
162.4806106285
 20
111.7843856176
 10
162.4681699816
 20
111.7396055733
 10
162.4581419411
 20
111.6955197807
 10
162.4505873933
 20
111.6523640415
 10
162.4454454518
 20
111.609902554
 10
162.4427161167
 20
111.5681353181
  0
LINE
  5
232
100
AcDbEntity
  8
ASSI
100
AcDbLine
 62
250
  6
CONTINUOUS
 10
165.6232709226
 20
114.0496063183
 11
162.9195482688
 21
112.3812694054
  0
LWPOLYLINE
  5
233
100
AcDbEntity
  8
ASSI
100
AcDbPolyline
 62
250
  6
CONTINUOUS
 90
12
 70
0
 10
161.3217816705
 20
78.0547647198
 10
161.3275140956
 20
77.9721257314
 10
161.3385025282
 20
77.8931501437
 10
161.3546926132
 20
77.8182280979
 10
161.3760049666
 20
77.7477304709
 10
161.4023338768
 20
77.6820039435
 10
161.4335489526
 20
77.6213704178
 10
161.4695007113
 20
77.5661259701
 10
161.5100107922
 20
77.5165482814
 10
161.5548700122
 20
77.4728904731
 10
161.6038522574
 20
77.4353692386
 10
161.6334366691
 20
77.4168495796
  0
LWPOLYLINE
  5
234
100
AcDbEntity
  8
ASSI
100
AcDbPolyline
 62
250
  6
CONTINUOUS
 90
22
 70
0
 10
162.4427161167
 20
78.0756752698
 10
162.445441007
 20
78.0369790108
 10
162.4505775218
 20
78.0002729412
 10
162.4581256611
 20
77.965557061
 10
162.4681465916
 20
77.932661949
 10
162.4805791465
 20
77.9017570264
 10
162.4952398259
 20
77.8733505569
 10
162.5121617598
 20
77.8474955685
 10
162.5313118182
 20
77.8241390332
 10
162.5524071109
 20
77.8036301304
 10
162.575475198
 20
77.7860126374
 10
162.6004885193
 20
77.7712427768
 10
162.6270815049
 20
77.7595383955
 10
162.6552813648
 20
77.7509446731
 10
162.685060889
 20
77.74541643
 10
162.7159728769
 20
77.7430359744
 10
162.7480454424
 20
77.7438581246
 10
162.7812504717
 20
77.7478280622
 10
162.8150564231
 20
77.7548636411
 10
162.8492861162
 20
77.7649374791
 10
162.8841167314
 20
77.7780769583
 10
162.9195482688
 20
77.7942820787
  0
LWPOLYLINE
  5
235
100
AcDbEntity
  8
ASSI
100
AcDbPolyline
 62
250
  6
CONTINUOUS
 90
28
 70
0
 10
161.3217816705
 20
111.6008985824
 10
161.2784400621
 20
110.3345014535
 10
161.2384344851
 20
109.069901212
 10
161.2017646654
 20
107.8071092463
 10
161.1684305
 20
106.5461447463
 10
161.138431412
 20
105.2870112136
 10
161.1117665545
 20
104.0296965723
 10
161.0884357114
 20
102.7742121757
 10
161.0684386435
 20
101.5205694612
 10
161.0517747887
 20
100.2687566508
 10
161.0384440225
 20
99.0187851994
 10
161.0284461954
 20
97.7706665281
 10
161.0217810255
 20
96.5243889835
 10
161.0184484794
 20
95.2799640637
 10
161.0184484984
 20
94.0374032421
 10
161.0217810817
 20
92.7966950095
 10
161.0284462868
 20
91.5578509123
 10
161.0384441461
 20
90.3208824807
 10
161.0517749396
 20
89.0857783681
 10
161.068438816
 20
87.8525501737
 10
161.0884358983
 20
86.6212094892
 10
161.1117667472
 20
85.3917451482
 10
161.1384316001
 20
84.1641688944
 10
161.1684306722
 20
82.9384922986
 10
161.2017648113
 20
81.7147041329
 10
161.2384345943
 20
80.4928085213
 10
161.278440123
 20
79.2728248156
 10
161.3217816705
 20
78.0547647198
  0
LINE
  5
236
100
AcDbEntity
  8
ASSI
100
AcDbLine
 62
7
  6
CONTINUOUS
 10
166.6100750756
 20
100.8625024967
 11
166.5067780656
 21
100.7946504623
  0
LINE
  5
237
100
AcDbEntity
  8
ASSI
100
AcDbLine
 62
250
  6
CONTINUOUS
 10
161.3217816705
 20
111.6008985824
 11
130.9175836017
 21
129.1559014932
  0
LWPOLYLINE
  5
238
100
AcDbEntity
  8
ASSI
100
AcDbPolyline
 62
250
  6
CONTINUOUS
 90
19
 70
0
 10
162.9195482688
 20
112.3812694054
 10
162.914813066
 20
112.4378862535
 10
162.9058894328
 20
112.4965985911
 10
162.8928451859
 20
112.5569601172
 10
162.8757794654
 20
112.6185119921
 10
162.8548219829
 20
112.6807863225
 10
162.8301320355
 20
112.7433097181
 10
162.8018972932
 20
112.8056068966
 10
162.7703323753
 20
112.8672042882
 10
162.7356772223
 20
112.9276336336
 10
162.6981952623
 20
112.9864355595
 10
162.6581714161
 20
113.0431630581
 10
162.6159099378
 20
113.0973848784
 10
162.571732084
 20
113.148688829
 10
162.5259736831
 20
113.1966848953
 10
162.4789825925
 20
113.2410081958
 10
162.4311160342
 20
113.2813217791
 10
162.3827378775
 20
113.3173191823
 10
162.3342158866
 20
113.3487267478
  0
LWPOLYLINE
  5
239
100
AcDbEntity
  8
ASSI
100
AcDbPolyline
 62
250
  6
CONTINUOUS
 90
28
 70
0
 10
162.4427161167
 20
111.5681353181
 10
162.3994432001
 20
110.3037471185
 10
162.359500462
 20
109.041175295
 10
162.3228879022
 20
107.7804198475
 10
162.2896059815
 20
106.5214771268
 10
162.2596542393
 20
105.2643507821
 10
162.2330312934
 20
104.0090517619
 10
162.2097369918
 20
102.7555800364
 10
162.1897714865
 20
101.5039356354
 10
162.1731338523
 20
100.2541295971
 10
162.1598239353
 20
99.0061618496
 10
162.1498418893
 20
97.7600324649
 10
162.1431872503
 20
96.5157526968
 10
162.1398598641
 20
95.2733224641
 10
162.1398598849
 20
94.0327418482
 10
162.1431873107
 20
92.7940223463
 10
162.1498419873
 20
91.5571638681
 10
162.1598240689
 20
90.3221665039
 10
162.1731340156
 20
89.0890420226
 10
162.1897716738
 20
87.8577903245
 10
162.209737197
 20
86.6284115094
 10
162.2330315068
 20
85.4009176447
 10
162.2596544513
 20
84.1753085781
 10
162.2896061824
 20
82.9515844619
 10
162.3228880768
 20
81.7297578206
 10
162.3595005934
 20
80.5098328289
 10
162.3994432734
 20
79.2918053119
 10
162.4427161167
 20
78.0756752698
  0
LINE
  5
23A
100
AcDbEntity
  8
ASSI
100
AcDbLine
 62
250
  6
CONTINUOUS
 10
162.3342158848
 20
113.3487267467
 11
131.9136571207
 21
130.913176118
  0
LINE
  5
23B
100
AcDbEntity
  8
ASSI
100
AcDbLine
 62
7
  6
CONTINUOUS
 10
165.6232709226
 20
113.373772403
 11
166.6100750756
 21
103.2690541911
  0
LINE
  5
23C
100
AcDbEntity
  8
ASSI
100
AcDbLine
 62
7
  6
CONTINUOUS
 10
165.6232709226
 20
114.0496063183
 11
165.6232709226
 21
113.373772403
  0
LINE
  5
23D
100
AcDbEntity
  8
ASSI
100
AcDbLine
 62
7
  6
CONTINUOUS
 10
165.6232709226
 20
79.8168440268
 11
165.6232709226
 21
79.1410101115
  0
LINE
  5
23E
100
AcDbEntity
  8
ASSI
100
AcDbLine
 62
7
  6
CONTINUOUS
 10
166.17840545
 20
93.6048005729
 11
166.17840545
 21
100.2048758968
  0
LWPOLYLINE
  5
23F
100
AcDbEntity
  8
ASSI
100
AcDbPolyline
 62
250
  6
CONTINUOUS
 90
11
 70
0
 10
162.9195482688
 20
77.7942820787
 10
162.9148129937
 20
77.73726537
 10
162.9058892135
 20
77.6832079277
 10
162.8928447645
 20
77.6325206835
 10
162.8757788075
 20
77.5855889496
 10
162.854821074
 20
77.54276949
 10
162.8301308795
 20
77.5043878079
 10
162.801895913
 20
77.4707356718
 10
162.7703308101
 20
77.4420688971
 10
162.735675521
 20
77.4186054018
 10
162.7205043878
 20
77.4104675568
  0
LINE
  5
240
100
AcDbEntity
  8
ASSI
100
AcDbLine
 62
7
  6
CONTINUOUS
 10
134.5440004105
 20
132.6478627802
 11
165.0580160971
 21
115.0294525531
  0
LINE
  5
241
100
AcDbEntity
  8
ASSI
100
AcDbLine
 62
7
  6
CONTINUOUS
 10
166.6100750756
 20
91.0220000392
 11
166.6100750756
 21
93.4285517335
  0
LINE
  5
242
100
AcDbEntity
  8
ASSI
100
AcDbLine
 62
7
  6
CONTINUOUS
 10
166.6100750756
 20
100.8625024967
 11
166.6100750756
 21
103.2690541911
  0
LINE
  5
243
100
AcDbEntity
  8
ASSI
100
AcDbLine
 62
7
  6
CONTINUOUS
 10
166.6100750756
 20
91.0220000392
 11
165.6232709226
 21
79.8168440268
  0
LINE
  5
244
100
AcDbEntity
  8
ASSI
100
AcDbLine
 62
7
  6
CONTINUOUS
 10
166.6100750756
 20
93.4285517335
 11
166.5067780656
 21
93.3812117776
  0
LWPOLYLINE
  5
245
100
AcDbEntity
  8
ASSI
100
AcDbPolyline
 62
250
  6
CONTINUOUS
 90
19
 70
0
 10
162.4427161167
 20
78.0756752698
 10
162.3910900179
 20
78.0469665253
 10
162.3357121674
 20
78.0209444179
 10
162.2769947182
 20
77.9978026186
 10
162.2153746784
 20
77.9777133617
 10
162.1513106591
 20
77.9608261627
 10
162.0852794605
 20
77.9472667057
 10
162.0177725238
 20
77.9371359077
 10
161.9492922737
 20
77.9305091678
 10
161.8803483784
 20
77.927435806
 10
161.8114539572
 20
77.9279386958
 10
161.743121761
 20
77.9320140946
 10
161.6758603563
 20
77.9396316708
 10
161.6101703402
 20
77.9507347303
 10
161.5465406147
 20
77.9652406378
 10
161.4854447479
 20
77.983041432
 10
161.4273374495
 20
78.0040046295
 10
161.3726511867
 20
78.0279742104
 10
161.3217929652
 20
78.0547717796
  0
LINE
  5
246
100
AcDbEntity
  8
ASSI
100
AcDbLine
 62
250
  6
CONTINUOUS
 10
162.9195482688
 20
77.7942820787
 11
165.6232709226
 21
79.1410101115
  0
LINE
  5
247
100
AcDbEntity
  8
ASSI
100
AcDbLine
 62
7
  6
CONTINUOUS
 10
162.7205043878
 20
77.4104675568
 11
165.4430654259
 21
78.7665790152
  0
ELLIPSE
  5
248
100
AcDbEntity
  8
ASSI
100
AcDbEllipse
 62
7
  6
CONTINUOUS
 10
165.0574993279
 20
79.4682769618
 30
0.0
 11
-0.3997760356
 21
0.69407592
 31
0.0
 40
0.5768037941
 41
-3.1764861678
 42
-2.355482613
  0
ELLIPSE
  5
249
100
AcDbEntity
  8
ASSI
100
AcDbEllipse
 62
7
  6
CONTINUOUS
 10
165.0574993279
 20
114.375678324
 30
0.0
 11
-0.399408484
 21
0.6934437295
 31
0.0
 40
0.5778584463
 41
-2.3545649475
 42
-0.7846820092
  0
ELLIPSE
  5
24A
100
AcDbEntity
  8
ASSI
100
AcDbEllipse
 62
7
  6
CONTINUOUS
 10
134.5445171797
 20
131.9934917989
 30
0.0
 11
-0.3997760356
 21
0.69407592
 31
0.0
 40
0.5768037941
 41
-0.7837728977
 42
0.0348935127
  0
ELLIPSE
  5
24B
100
AcDbEntity
  8
ASSI
100
AcDbEllipse
 62
7
  6
CONTINUOUS
 10
166.538130138
 20
100.4054499637
 30
0.0
 11
0.2566641185
 21
0.42914135
 31
0.0
 40
0.5873179545
 41
0.881749572
 42
2.3652794362
  0
ELLIPSE
  5
24C
100
AcDbEntity
  8
ASSI
100
AcDbEllipse
 62
7
  6
CONTINUOUS
 10
166.538130138
 20
93.8053746398
 30
0.0
 11
0.2566641185
 21
0.42914135
 31
0.0
 40
0.5873179545
 41
2.3652794362
 42
3.8488093004
  0
ENDSEC
  0
SECTION
  2
OBJECTS
  0
DICTIONARY
  5
C
100
AcDbDictionary
280
0
281
1
  3
ACAD_GROUP
350
D
  3
ACAD_MLINESTYLE
350
17
  3
ACAD_LAYOUT
350
1A
  3
ACAD_PLOTSETTINGS
350
19
  3
ACAD_PLOTSTYLENAME
350
E
  0
DICTIONARY
  5
D
102
{ACAD_REACTORS
330
C
102
}
100
AcDbDictionary
280
0
281
1
  0
ACDBDICTIONARYWDFLT
  5
E
102
{ACAD_REACTORS
330
C
102
}
100
AcDbDictionary
281
1
  3
Normal
350
F
100
AcDbDictionaryWithDefault
340
F
  0
DICTIONARY
  5
17
102
{ACAD_REACTORS
330
C
102
}
100
AcDbDictionary
280
0
281
1
  3
Standard
350
18
  0
DICTIONARY
  5
19
102
{ACAD_REACTORS
330
C
102
}
100
AcDbDictionary
281
1
  0
DICTIONARY
  5
1A
102
{ACAD_REACTORS
330
C
102
}
100
AcDbDictionary
281
1
  3
Model
350
24D
  3
Layout1
350
24E
  0
ACDBPLACEHOLDER
  5
F
102
{ACAD_REACTORS
330
E
102
}
  0
MLINESTYLE
  5
18
102
{ACAD_REACTORS
330
17
102
}
100
AcDbMlineStyle
  2
STANDARD
 70
0
  3

 62
256
 51
90.0
 52
90.0
 71
2
 49
0.5
 62
256
  6
BYLAYER
 49
-0.5
 62
256
  6
BYLAYER
  0
LAYOUT
  5
24D
102
{ACAD_REACTORS
330
1A
102
}
100
AcDbPlotSettings
  1

  2
none_device
  4
ISO_A4_(297.00_x_210.00_MM)
  6

 40
0.0
 41
0.0
 42
0.0
 43
0.0
 44
297.0
 45
210.0
 46
0.0
 47
0.0
 48
0.0
 49
0.0
140
0.0
141
0.0
142
1.0
143
1.0
 70
1024
 72
1
 73
0
 74
0
  7

 75
0
147
1.0
148
0.0
149
0.0
100
AcDbLayout
  1
Model
 70
0
 71
0
 10
0.0
 20
0.0
 11
297.0
 21
210.0
 12
0.0
 22
0.0
 32
0.0
 14
0.0
 24
0.0
 34
0.0
 15
0.0
 25
0.0
 35
0.0
146
0.0
 13
0.0
 23
0.0
 33
0.0
 16
1.0
 26
0.0
 36
0.0
 17
0.0
 27
1.0
 37
0.0
 76
0
330
217
345
0
346
0
  0
LAYOUT
  5
24E
102
{ACAD_REACTORS
330
1A
102
}
100
AcDbPlotSettings
  1

  2
none_device
  4
ISO_A4_(297.00_x_210.00_MM)
  6

 40
0.0
 41
0.0
 42
0.0
 43
0.0
 44
297.0
 45
210.0
 46
0.0
 47
0.0
 48
0.0
 49
0.0
140
0.0
141
0.0
142
1.0
143
1.0
 70
0
 72
1
 73
0
 74
0
  7

 75
0
147
1.0
148
0.0
149
0.0
100
AcDbLayout
  1
Layout1
 70
0
 71
1
 10
0.0
 20
0.0
 11
297.0
 21
210.0
 12
0.0
 22
0.0
 32
0.0
 14
0.0
 24
0.0
 34
0.0
 15
0.0
 25
0.0
 35
0.0
146
0.0
 13
0.0
 23
0.0
 33
0.0
 16
1.0
 26
0.0
 36
0.0
 17
0.0
 27
1.0
 37
0.0
 76
0
330
218
345
0
346
0
  0
ENDSEC
  0
EOF
