  0
SECTION
  2
HEADER
  9
$ACADVER
  1
AC1024
  9
$DWGCODEPAGE
  3
ANSI_1252
  9
$EXTMAX
 10
297.0
 20
210.0
 30
0.0
  9
$EXTMIN
 10
0.0
 20
0.0
 30
0.0
  9
$LIMMIN
 10
0.0
 20
0.0
  9
$LIMMAX
 10
297.0
 20
210.0
  9
$VIEWCTR
 10
148.5
 20
105.0
  9
$VIEWSIZE
 40
210.0
  9
$CLAYER
  8
0
  9
$LTSCALE
 40
16.335
  9
$CELTYPE
  6
BYLAYER
  9
$DIMSCALE
 40
1.0
  9
$DIMASZ
 40
3.0
  9
$DIMEXO
 40
0.5
  9
$DIMDLI
 40
11.286
  9
$DIMEXE
 40
1.5
  9
$DIMCEN
 40
2.673
  9
$DIMLFAC
 40
1.0
  9
$DIMBLK
  1
_FILLED
  9
$DIMALT
 70
0
  9
$DIMALTF
 40
0.0393700787
  9
$DIMTXT
 40
3.0
  9
$DIMTOL
 70
1
  9
$DIMLIM
 70
0
  9
$DIMTFAC
 40
1.0
  9
$DIMTP
 40
0.01
  9
$DIMTM
 40
0.01
  9
$DIMGAP
 40
0.625
  9
$DIMDSEP
 70
44
  9
$AUNITS
 70
0
  9
$PDMODE
 70
3
  9
$PDSIZE
 40
3.0
  9
$HANDSEED
  5
559
  9
$TILEMODE
 70
1
  9
$MEASUREMENT
 70
1
  9
$INSUNITS
 70
4
  0
ENDSEC
  0
SECTION
  2
CLASSES
  0
CLASS
  1
ACDBDICTIONARYWDFLT
  2
AcDbDictionaryWithDefault
  3
AutoCAD 2000
 90
0
 91
1
280
0
281
0
  0
CLASS
  1
ACDBPLACEHOLDER
  2
AcDbPlaceHolder
  3
AutoCAD 2000
 90
0
 91
1
280
0
281
0
  0
CLASS
  1
LAYOUT
  2
AcDbLayout
  3
AutoCAD 2000
 90
0
 91
0
280
0
281
0
  0
ENDSEC
  0
SECTION
  2
TABLES
  0
TABLE
  2
VPORT
  5
8
100
AcDbSymbolTable
 70
2
  0
VPORT
  5
1F4
100
AcDbSymbolTableRecord
100
AcDbViewportTableRecord
  2
*ACTIVE
 70
0
 10
0.0
 20
0.0
 11
1.0
 21
1.0
 12
148.5
 22
105.0
 13
0.0
 23
0.0
 14
1.0
 24
1.0
 15
0.0
 25
0.0
 16
0.0
 26
0.0
 36
1.0
 17
0.0
 27
0.0
 37
0.0
 40
210.0
 41
1.4142857143
 42
50.0
 43
0.0
 44
0.0
 50
0.0
 51
0.0
 71
0
 72
100
 73
1
 74
1
 75
0
 76
0
 77
0
 78
0
  0
ENDTAB
  0
TABLE
  2
LTYPE
  5
5
100
AcDbSymbolTable
 70
6
  0
LTYPE
  5
14
100
AcDbSymbolTableRecord
100
AcDbLinetypeTableRecord
  2
BYBLOCK
 70
0
  3

 72
65
 73
0
 40
0.0
  0
LTYPE
  5
15
100
AcDbSymbolTableRecord
100
AcDbLinetypeTableRecord
  2
BYLAYER
 70
0
  3

 72
65
 73
0
 40
0.0
  0
LTYPE
  5
16
100
AcDbSymbolTableRecord
100
AcDbLinetypeTableRecord
  2
CONTINUOUS
 70
64
  3
Solid line
 72
65
 73
0
 40
0.0
  0
LTYPE
  5
1F5
100
AcDbSymbolTableRecord
100
AcDbLinetypeTableRecord
  2
CENTER
 70
64
  3
____ _ ____ _ ____ _ ____ _ ____ _ ____ _ ____
 72
65
 73
4
 40
0.6
 49
0.375
 74
0
 49
-0.075
 74
0
 49
0.075
 74
0
 49
-0.075
 74
0
  0
LTYPE
  5
1F6
100
AcDbSymbolTableRecord
100
AcDbLinetypeTableRecord
  2
HIDDEN
 70
64
  3
- - - - - - - - - - - - - - - - - - - -
 72
65
 73
2
 40
0.2
 49
0.1
 74
0
 49
-0.1
 74
0
  0
LTYPE
  5
1F7
100
AcDbSymbolTableRecord
100
AcDbLinetypeTableRecord
  2
PHANTOM
 70
64
  3
_____ _ _ _____ _ _ _____ _ _ _____
 72
65
 73
6
 40
0.8
 49
0.45
 74
0
 49
-0.05
 74
0
 49
0.1
 74
0
 49
-0.05
 74
0
 49
0.1
 74
0
 49
-0.05
 74
0
  0
LTYPE
  5
1F8
100
AcDbSymbolTableRecord
100
AcDbLinetypeTableRecord
  2
DOT
 70
64
  3
. . . . . . . . . . . . . . . . . . . .
 72
65
 73
2
 40
0.2
 49
0.1
 74
0
 49
-0.1
 74
0
  0
LTYPE
  5
1F9
100
AcDbSymbolTableRecord
100
AcDbLinetypeTableRecord
  2
DASHED
 70
64
  3
- - - - - - - - - - - - - - - - - - - -
 72
65
 73
2
 40
0.2
 49
0.1
 74
0
 49
-0.1
 74
0
  0
ENDTAB
  0
TABLE
  2
LAYER
  5
2
100
AcDbSymbolTable
 70
36
  0
LAYER
  5
10
100
AcDbSymbolTableRecord
100
AcDbLayerTableRecord
  2
0
 70
0
 62
7
  6
CONTINUOUS
370
-3
390
F
  0
LAYER
  5
1FA
100
AcDbSymbolTableRecord
100
AcDbLayerTableRecord
  2
DEFAULT_1
 70
0
 62
7
  6
CENTER
370
-3
390
F
  0
LAYER
  5
1FB
100
AcDbSymbolTableRecord
100
AcDbLayerTableRecord
  2
DEFAULT_2
 70
0
 62
7
  6
HIDDEN
370
-3
390
F
  0
LAYER
  5
1FC
100
AcDbSymbolTableRecord
100
AcDbLayerTableRecord
  2
DEFAULT_3
 70
0
 62
7
  6
PHANTOM
370
-3
390
F
  0
LAYER
  5
1FD
100
AcDbSymbolTableRecord
100
AcDbLayerTableRecord
  2
ASSI
 70
0
 62
7
  6
CONTINUOUS
370
-3
390
F
  0
LAYER
  5
1FE
100
AcDbSymbolTableRecord
100
AcDbLayerTableRecord
  2
COLOR5
 70
0
 62
7
  6
CONTINUOUS
370
-3
390
F
  0
LAYER
  5
1FF
100
AcDbSymbolTableRecord
100
AcDbLayerTableRecord
  2
COORDINATE
 70
0
 62
7
  6
CONTINUOUS
370
-3
390
F
  0
LAYER
  5
200
100
AcDbSymbolTableRecord
100
AcDbLayerTableRecord
  2
COORD_ORIGINE
 70
0
 62
7
  6
CONTINUOUS
370
-3
390
F
  0
LAYER
  5
201
100
AcDbSymbolTableRecord
100
AcDbLayerTableRecord
  2
COPY_PUBLISH
 70
0
 62
7
  6
CONTINUOUS
370
-3
390
F
  0
LAYER
  5
202
100
AcDbSymbolTableRecord
100
AcDbLayerTableRecord
  2
COSMETIC
 70
0
 62
7
  6
CONTINUOUS
370
-3
390
F
  0
LAYER
  5
203
100
AcDbSymbolTableRecord
100
AcDbLayerTableRecord
  2
COSMETICHE
 70
0
 62
7
  6
CONTINUOUS
370
-3
390
F
  0
LAYER
  5
204
100
AcDbSymbolTableRecord
100
AcDbLayerTableRecord
  2
COSMETICI
 70
0
 62
7
  6
CONTINUOUS
370
-3
390
F
  0
LAYER
  5
205
100
AcDbSymbolTableRecord
100
AcDbLayerTableRecord
  2
CURVE
 70
0
 62
7
  6
CONTINUOUS
370
-3
390
F
  0
LAYER
  5
206
100
AcDbSymbolTableRecord
100
AcDbLayerTableRecord
  2
DRAFT
 70
0
 62
7
  6
CONTINUOUS
370
-3
390
F
  0
LAYER
  5
207
100
AcDbSymbolTableRecord
100
AcDbLayerTableRecord
  2
IMPORT_FEATURES
 70
0
 62
7
  6
CONTINUOUS
370
-3
390
F
  0
LAYER
  5
208
100
AcDbSymbolTableRecord
100
AcDbLayerTableRecord
  2
IMPORT_IGES
 70
0
 62
7
  6
CONTINUOUS
370
-3
390
F
  0
LAYER
  5
209
100
AcDbSymbolTableRecord
100
AcDbLayerTableRecord
  2
INTF_YELLOW
 70
0
 62
7
  6
CONTINUOUS
370
-3
390
F
  0
LAYER
  5
20A
100
AcDbSymbolTableRecord
100
AcDbLayerTableRecord
  2
NOTE
 70
0
 62
7
  6
CONTINUOUS
370
-3
390
F
  0
LAYER
  5
20B
100
AcDbSymbolTableRecord
100
AcDbLayerTableRecord
  2
PIANI
 70
0
 62
7
  6
CONTINUOUS
370
-3
390
F
  0
LAYER
  5
20C
100
AcDbSymbolTableRecord
100
AcDbLayerTableRecord
  2
PIANI_ORIGINE
 70
0
 62
7
  6
CONTINUOUS
370
-3
390
F
  0
LAYER
  5
20D
100
AcDbSymbolTableRecord
100
AcDbLayerTableRecord
  2
PUNTI
 70
0
 62
7
  6
CONTINUOUS
370
-3
390
F
  0
LAYER
  5
20E
100
AcDbSymbolTableRecord
100
AcDbLayerTableRecord
  2
RACCORDO
 70
0
 62
7
  6
CONTINUOUS
370
-3
390
F
  0
LAYER
  5
20F
100
AcDbSymbolTableRecord
100
AcDbLayerTableRecord
  2
SIMBOLI
 70
0
 62
7
  6
CONTINUOUS
370
-3
390
F
  0
LAYER
  5
210
100
AcDbSymbolTableRecord
100
AcDbLayerTableRecord
  2
SMUSSO
 70
0
 62
7
  6
CONTINUOUS
370
-3
390
F
  0
LAYER
  5
211
100
AcDbSymbolTableRecord
100
AcDbLayerTableRecord
  2
SNAPLINE
 70
0
 62
7
  6
CONTINUOUS
370
-3
390
F
  0
LAYER
  5
212
100
AcDbSymbolTableRecord
100
AcDbLayerTableRecord
  2
SUPERFICI
 70
0
 62
7
  6
CONTINUOUS
370
-3
390
F
  0
LAYER
  5
213
100
AcDbSymbolTableRecord
100
AcDbLayerTableRecord
  2
TRASH
 70
0
 62
7
  6
CONTINUOUS
370
-3
390
F
  0
LAYER
  5
214
100
AcDbSymbolTableRecord
100
AcDbLayerTableRecord
  2
XSEC_DATUMS
 70
0
 62
7
  6
CONTINUOUS
370
-3
390
F
  0
ENDTAB
  0
TABLE
  2
STYLE
  5
3
100
AcDbSymbolTable
 70
1
  0
STYLE
  5
11
100
AcDbSymbolTableRecord
100
AcDbTextStyleTableRecord
  2
STANDARD
 70
0
 40
0.0
 41
0.8
 50
0.0
 71
0
 42
0.2
  3
txt
  4

  0
STYLE
  5
215
100
AcDbSymbolTableRecord
100
AcDbTextStyleTableRecord
  2
TEXTSTYLE_1
 70
0
 40
0.0
 41
0.8
 50
0.0
 71
0
 42
0.2
  3
gdt
  4

  0
ENDTAB
  0
TABLE
  2
VIEW
  5
6
100
AcDbSymbolTable
 70
0
  0
ENDTAB
  0
TABLE
  2
UCS
  5
7
100
AcDbSymbolTable
 70
0
  0
ENDTAB
  0
TABLE
  2
APPID
  5
9
100
AcDbSymbolTable
 70
1
  0
APPID
  5
216
100
AcDbSymbolTableRecord
100
AcDbRegAppTableRecord
  2
ACAD
 70
0
  0
ENDTAB
  0
TABLE
  2
BLOCK_RECORD
  5
1
100
AcDbSymbolTable
 70
0
  0
BLOCK_RECORD
  5
217
100
AcDbSymbolTableRecord
100
AcDbBlockTableRecord
  2
*Model_Space
  0
BLOCK_RECORD
  5
218
100
AcDbSymbolTableRecord
100
AcDbBlockTableRecord
  2
*Paper_Space
  0
BLOCK_RECORD
  5
219
100
AcDbSymbolTableRecord
100
AcDbBlockTableRecord
  2
_FILLED
  0
ENDTAB
  0
TABLE
  2
DIMSTYLE
  5
A
100
AcDbSymbolTable
 70
1
100
AcDbDimStyleTable
 71
0
  0
DIMSTYLE
105
21A
100
AcDbSymbolTableRecord
100
AcDbDimStyleTableRecord
  2
STANDARD
 70
0
  3

  4

 40
1.0
 41
3.0
 42
0.5
 43
0.38
 44
1.5
 45
0.0
 46
0.0
 47
0.01
 48
0.01
140
3.0
141
0.09
142
0.0
143
25.4
144
1.0
145
0.0
146
1.0
147
0.625
 71
1
 72
0
 73
0
 74
0
 75
0
 76
0
 77
1
 78
8
 79
2
170
0
171
1
172
0
173
0
174
0
175
0
176
0
177
0
178
0
270
2
179
2
271
2
272
2
273
2
274
2
275
0
280
0
281
0
282
0
283
1
284
8
285
0
286
0
287
3
288
0
340
11
278
44
341
219
342
219
343
219
344
219
  0
ENDTAB
  0
ENDSEC
  0
SECTION
  2
BLOCKS
  0
BLOCK
  5
20
100
AcDbEntity
  8
0
100
AcDbBlockBegin
  2
*Model_Space
 70
0
 10
0.0
 20
0.0
 30
0.0
  3
*Model_Space
  1

  0
ENDBLK
  5
21
100
AcDbEntity
  8
0
100
AcDbBlockEnd
  0
BLOCK
  5
1C
100
AcDbEntity
  8
0
100
AcDbBlockBegin
  2
*Paper_Space
 70
0
 10
0.0
 20
0.0
 30
0.0
  3
*Paper_Space
  1

  0
ENDBLK
  5
1D
100
AcDbEntity
  8
0
100
AcDbBlockEnd
  0
BLOCK
  5
21B
100
AcDbEntity
  8
0
100
AcDbBlockBegin
  2
_FILLED
 70
64
 10
0.0
 20
0.0
  3
_FILLED
  1

  0
SOLID
  5
21C
100
AcDbEntity
  8
0
  6
BYBLOCK
 62
0
100
AcDbTrace
 10
0.0
 20
0.0
 11
-1.0
 21
0.3166666667
 12
-1.0
 22
-0.3166666667
 13
-1.0
 23
-0.3166666667
  0
ENDBLK
  5
21D
100
AcDbEntity
  8
0
  6
BYBLOCK
 62
0
100
AcDbBlockEnd
  0
ENDSEC
  0
SECTION
  2
ENTITIES
  0
LWPOLYLINE
  5
21E
100
AcDbEntity
  8
0
100
AcDbPolyline
 62
250
  6
CONTINUOUS
 90
11
 70
0
 10
-33.0218347142
 20
-22.5298539492
 10
-33.063900549
 20
-22.5028778475
 10
-33.1026061818
 20
-22.4701136353
 10
-33.1376975941
 20
-22.4317812865
 10
-33.1689570132
 20
-22.3881192641
 10
-33.1961772319
 20
-22.3394024831
 10
-33.2191597744
 20
-22.2859677946
 10
-33.2377417933
 20
-22.2281969564
 10
-33.2517992348
 20
-22.1664904113
 10
-33.2612410201
 20
-22.101257785
 10
-33.266005683
 20
-22.0329396218
  0
LWPOLYLINE
  5
21F
100
AcDbEntity
  8
0
100
AcDbPolyline
 62
250
  6
CONTINUOUS
 90
8
 70
0
 10
-33.4116233152
 20
-21.8665338254
 10
-33.4058035664
 20
-21.8934384273
 10
-33.3947011443
 20
-21.9197502845
 10
-33.3784350059
 20
-21.945187478
 10
-33.3571794352
 20
-21.9694774604
 10
-33.3311621753
 20
-21.9923599762
 10
-33.3006619887
 20
-22.0135898503
 10
-33.2660056702
 20
-22.0329396147
  0
LWPOLYLINE
  5
220
100
AcDbEntity
  8
0
100
AcDbPolyline
 62
7
  6
CONTINUOUS
 90
13
 70
0
 10
-33.4124582471
 20
-21.8555187894
 10
-33.4061307357
 20
-21.938150854
 10
-33.3933722857
 20
-22.0162214982
 10
-33.3744479903
 20
-22.0905280156
 10
-33.3496274522
 20
-22.160840078
 10
-33.3193001569
 20
-22.2267651176
 10
-33.2840391712
 20
-22.2877692603
 10
-33.2442046436
 20
-22.343810505
 10
-33.1999489748
 20
-22.3950075562
 10
-33.1518957527
 20
-22.4409393462
 10
-33.1004879619
 20
-22.4814870632
 10
-33.0454781266
 20
-22.5169410038
 10
-33.0086109911
 20
-22.5367834627
  0
LINE
  5
221
100
AcDbEntity
  8
0
100
AcDbLine
 62
7
  6
CONTINUOUS
 10
-33.4124700097
 20
-21.8552835998
 11
-33.4124617251
 21
-21.8555189128
  0
LWPOLYLINE
  5
222
100
AcDbEntity
  8
0
100
AcDbPolyline
 62
250
  6
CONTINUOUS
 90
10
 70
0
 10
-33.266005683
 20
-22.0329396218
 10
-33.3873050631
 20
-18.0524140427
 10
-33.4782890288
 20
-14.0549563195
 10
-33.5389494964
 20
-10.0409155571
 10
-33.5692810768
 20
-6.0106423275
 10
-33.5692810769
 20
-1.9644885118
 10
-33.5389494966
 20
2.0971927321
 10
-33.478289029
 20
6.1740468299
 10
-33.3873050632
 20
10.2657178207
 10
-33.266005683
 20
14.3718485156
  0
LWPOLYLINE
  5
223
100
AcDbEntity
  8
0
100
AcDbPolyline
 62
7
  6
CONTINUOUS
 90
10
 70
0
 10
-33.4124899041
 20
14.546844297
 10
-33.5322734364
 20
10.498952755
 10
-33.6239985849
 20
6.3900639684
 10
-33.6851464978
 20
2.2960687695
 10
-33.7157086809
 20
-1.7826243192
 10
-33.7156832618
 20
-5.8456769986
 10
-33.6850696558
 20
-9.892777233
 10
-33.6238685006
 20
-13.9235886184
 10
-33.5320870594
 20
-17.9377113661
 10
-33.4124700097
 20
-21.8552835998
  0
LWPOLYLINE
  5
224
100
AcDbEntity
  8
0
100
AcDbPolyline
 62
250
  6
CONTINUOUS
 90
19
 70
0
 10
-33.266005683
 20
14.3718485156
 10
-33.2612410202
 20
14.4450179109
 10
-33.2517992348
 20
14.5198582584
 10
-33.2377417934
 20
14.5958675472
 10
-33.2191597744
 20
14.6725479194
 10
-33.1961772319
 20
14.7493720318
 10
-33.1689570132
 20
14.825786741
 10
-33.137697594
 20
14.9012578756
 10
-33.1026061818
 20
14.9753021577
 10
-33.063900549
 20
15.0474513476
 10
-33.0218347142
 20
15.1172327893
 10
-32.9766981496
 20
15.1841648324
 10
-32.9287921183
 20
15.2477879871
 10
-32.8784412888
 20
15.3076757235
 10
-32.8259867377
 20
15.3634254853
 10
-32.7717806359
 20
15.41465337
 10
-32.7161898859
 20
15.4610140238
 10
-32.659592966
 20
15.5022014187
 10
-32.6023739058
 20
15.5379410238
  0
LWPOLYLINE
  5
225
100
AcDbEntity
  8
0
100
AcDbPolyline
 62
7
  6
CONTINUOUS
 90
15
 70
0
 10
-32.8355724303
 20
15.5467788126
 10
-32.9046692555
 20
15.5024215276
 10
-32.9728468369
 20
15.4499928383
 10
-33.0374090453
 20
15.3913782967
 10
-33.0981177498
 20
15.3269773845
 10
-33.15431926
 20
15.2577033989
 10
-33.2059654413
 20
15.1838379557
 10
-33.2528455226
 20
15.1056482481
 10
-33.294228729
 20
15.0244339226
 10
-33.3299713513
 20
14.9404926127
 10
-33.3598599826
 20
14.8541084557
 10
-33.3833315181
 20
14.7666614275
 10
-33.4001534162
 20
14.6787275889
 10
-33.4101827376
 20
14.590153197
 10
-33.4124923104
 20
14.5466673294
  0
LINE
  5
226
100
AcDbEntity
  8
0
100
AcDbLine
 62
7
  6
CONTINUOUS
 10
-32.8357279541
 20
15.5467084165
 11
-27.2008671862
 21
18.8323483579
  0
LINE
  5
227
100
AcDbEntity
  8
0
100
AcDbLine
 62
250
  6
CONTINUOUS
 10
-32.6023739058
 20
15.5379410238
 11
-26.9669644111
 21
18.8239009232
  0
LWPOLYLINE
  5
228
100
AcDbEntity
  8
0
100
AcDbPolyline
 62
250
  6
CONTINUOUS
 90
16
 70
0
 10
-18.4160065779
 20
-29.4579391664
 10
-18.3775677074
 20
-29.4751369967
 10
-18.3357558848
 20
-29.4900631274
 10
-18.2910191036
 20
-29.502557632
 10
-18.243836697
 20
-29.512486638
 10
-18.1947142017
 20
-29.5197437609
 10
-18.1441779417
 20
-29.5242512442
 10
-18.0927693887
 20
-29.5259607926
 10
-18.0410393607
 20
-29.524854089
 10
-17.98954212
 20
-29.5209429912
 10
-17.9388294348
 20
-29.5142694047
 10
-17.8894446671
 20
-29.5049048338
 10
-17.8419169511
 20
-29.4929496154
 10
-17.7967555232
 20
-29.4785318439
 10
-17.7544442666
 20
-29.4618059988
 10
-17.7154365259
 20
-29.4429512895
  0
LWPOLYLINE
  5
229
100
AcDbEntity
  8
0
100
AcDbPolyline
 62
7
  6
CONTINUOUS
 90
11
 70
0
 10
-18.1552377154
 20
-29.9634684044
 10
-18.1198070922
 20
-29.980007961
 10
-18.0582790921
 20
-30.0032492458
 10
-17.9945988372
 20
-30.0206611677
 10
-17.9291316391
 20
-30.0321204649
 10
-17.8618108405
 20
-30.0375161963
 10
-17.7930853751
 20
-30.0366103878
 10
-17.7235480999
 20
-30.0292558376
 10
-17.6532026088
 20
-30.01526031
 10
-17.5823056391
 20
-29.9943718098
 10
-17.5291370588
 20
-29.9740991287
  0
LINE
  5
22A
100
AcDbEntity
  8
0
100
AcDbLine
 62
7
  6
CONTINUOUS
 10
-18.1544752141
 20
-29.9638523084
 11
-33.0089998995
 21
-22.5365899656
  0
LINE
  5
22B
100
AcDbEntity
  8
0
100
AcDbLine
 62
250
  6
CONTINUOUS
 10
-18.4160065854
 20
-29.4579391706
 11
-33.266005683
 21
-22.0329396218
  0
LINE
  5
22C
100
AcDbEntity
  8
0
100
AcDbLine
 62
250
  6
CONTINUOUS
 10
-33.009000529
 20
-22.5365896509
 11
-33.0218347142
 21
-22.5298539492
  0
LWPOLYLINE
  5
22D
100
AcDbEntity
  8
0
100
AcDbPolyline
 62
250
  6
CONTINUOUS
 90
12
 70
0
 10
-18.155290636
 20
-29.96344338
 10
-18.1675149229
 20
-29.9570149289
 10
-18.2103164264
 20
-29.929675982
 10
-18.2497125402
 20
-29.8965671123
 10
-18.2854397059
 20
-29.8579097757
 10
-18.3172557568
 20
-29.8139618591
 10
-18.3449488194
 20
-29.7650125482
 10
-18.3683309506
 20
-29.7113917546
 10
-18.3872380553
 20
-29.6534699988
 10
-18.4015428767
 20
-29.5916412402
 10
-18.4111534463
 20
-29.526317785
 10
-18.4160065854
 20
-29.4579391706
  0
LWPOLYLINE
  5
22E
100
AcDbEntity
  8
0
100
AcDbPolyline
 62
250
  6
CONTINUOUS
 90
9
 70
0
 10
-33.4124923104
 20
14.5466673294
 10
-33.4116197607
 20
14.5286807937
 10
-33.4057997737
 20
14.5041769975
 10
-33.3946971718
 20
14.4799527476
 10
-33.3784309131
 20
14.4562675933
 10
-33.3571752815
 20
14.4333753074
 10
-33.331158019
 20
14.4115211679
 10
-33.300657886
 20
14.3909393295
 10
-33.2660016741
 20
14.371850315
  0
LWPOLYLINE
  5
22F
100
AcDbEntity
  8
RACCORDO
100
AcDbPolyline
 62
250
  6
CONTINUOUS
 90
12
 70
0
 10
-31.6342552116
 20
-12.0446803761
 10
-31.6342312771
 20
-12.0336721673
 10
-31.6332755951
 20
-12.022549759
 10
-31.6312391763
 20
-12.0114030987
 10
-31.627979144
 20
-12.0003451123
 10
-31.6233277508
 20
-11.9894484458
 10
-31.6170737639
 20
-11.9787567803
 10
-31.6089569449
 20
-11.9683012592
 10
-31.5988359106
 20
-11.9582860011
 10
-31.5867383708
 20
-11.9489761762
 10
-31.5725304829
 20
-11.9404207597
 10
-31.5648184758
 20
-11.936549626
  0
LWPOLYLINE
  5
230
100
AcDbEntity
  8
RACCORDO
100
AcDbPolyline
 62
250
  6
CONTINUOUS
 90
52
 70
0
 10
-31.9145882671
 20
-12.0463580966
 10
-31.9141745021
 20
-12.0191727315
 10
-31.9113204527
 20
-11.9930218379
 10
-31.9060260894
 20
-11.9679054007
 10
-31.8982662582
 20
-11.943509578
 10
-31.8880660177
 20
-11.9201481621
 10
-31.8755008175
 20
-11.8987626728
 10
-31.8604075571
 20
-11.8796209412
 10
-31.8429496079
 20
-11.8624552772
 10
-31.8236923468
 20
-11.8474040325
 10
-31.8026814798
 20
-11.8346587392
 10
-31.7798716595
 20
-11.8240280517
 10
-31.7556917048
 20
-11.8150760158
 10
-31.7302113967
 20
-11.8077845165
 10
-31.7033611929
 20
-11.8021717928
 10
-31.67536086
 20
-11.7978563868
 10
-31.6462662217
 20
-11.794792113
 10
-31.6160216041
 20
-11.7930252347
 10
-31.5846794718
 20
-11.7923129371
 10
-31.5522684393
 20
-11.7926223515
 10
-31.518759986
 20
-11.7939863955
 10
-31.4841208363
 20
-11.7962609143
 10
-31.4483581579
 20
-11.7994227879
 10
-31.4114648418
 20
-11.8034951668
 10
-31.3733861731
 20
-11.8084032894
 10
-31.3341269847
 20
-11.8141320825
 10
-31.2936824827
 20
-11.8206966396
 10
-31.2519834984
 20
-11.8280674415
 10
-31.2090415213
 20
-11.8362324223
 10
-31.1648450894
 20
-11.8452036621
 10
-31.1192905981
 20
-11.8549878561
 10
-31.0723684041
 20
-11.8655810494
 10
-31.0240881704
 20
-11.876987207
 10
-30.9743752466
 20
-11.8892249013
 10
-30.9232305201
 20
-11.902290266
 10
-30.8706531201
 20
-11.9161871761
 10
-30.8165657573
 20
-11.9309458151
 10
-30.7609796921
 20
-11.9465599115
 10
-30.7038836793
 20
-11.9630357449
 10
-30.6451666694
 20
-11.9804223241
 10
-30.5848350155
 20
-11.9987145644
 10
-30.5228823785
 20
-12.0179175578
 10
-30.4591786698
 20
-12.0380955787
 10
-30.3937302855
 20
-12.0592435894
 10
-30.326530843
 20
-12.0813666345
 10
-30.2574310861
 20
-12.1045441118
 10
-30.1864276451
 20
-12.1287754996
 10
-30.1135239035
 20
-12.1540613267
 10
-30.0385807363
 20
-12.1804825674
 10
-29.9616026228
 20
-12.2080365749
 10
-29.8825850986
 20
-12.2367260037
 10
-29.8013756248
 20
-12.2666397809
  0
LWPOLYLINE
  5
231
100
AcDbEntity
  8
RACCORDO
100
AcDbPolyline
 62
250
  6
CONTINUOUS
 90
12
 70
0
 10
-31.6723470705
 20
-8.4257661205
 10
-31.6721023678
 20
-8.4141751979
 10
-31.6708441029
 20
-8.4024710058
 10
-31.6684062349
 20
-8.3907544773
 10
-31.6646248467
 20
-8.3791448122
 10
-31.6593165234
 20
-8.367731517
 10
-31.6522634086
 20
-8.356583492
 10
-31.6431799741
 20
-8.3457355412
 10
-31.6319154871
 20
-8.3354089585
 10
-31.6185373219
 20
-8.3259002387
 10
-31.6029242958
 20
-8.3172597648
 10
-31.6007532678
 20
-8.3162168237
  0
LWPOLYLINE
  5
232
100
AcDbEntity
  8
RACCORDO
100
AcDbPolyline
 62
250
  6
CONTINUOUS
 90
143
 70
0
 10
-31.9526951074
 20
-8.4259958268
 10
-31.9520228392
 20
-8.3975974045
 10
-31.9487229892
 20
-8.3703650868
 10
-31.9427955332
 20
-8.3442988615
 10
-31.9341953023
 20
-8.3190645145
 10
-31.9229673764
 20
-8.2949962147
 10
-31.9092472859
 20
-8.2730966164
 10
-31.8928660917
 20
-8.2536762021
 10
-31.8739930558
 20
-8.2364246541
 10
-31.8532712432
 20
-8.2214135454
 10
-31.8307660797
 20
-8.2088351127
 10
-31.806412532
 20
-8.1984973194
 10
-31.7806579853
 20
-8.189895333
 10
-31.7535812449
 20
-8.1829947817
 10
-31.7251037547
 20
-8.1778301643
 10
-31.6954367788
 20
-8.1739999139
 10
-31.6646384875
 20
-8.1714540888
 10
-31.6326508643
 20
-8.1702427091
 10
-31.5995108317
 20
-8.1701141188
 10
-31.5652437276
 20
-8.1710326693
 10
-31.5298243083
 20
-8.1730340572
 10
-31.4932135832
 20
-8.1759736243
 10
-31.4554176005
 20
-8.1798272342
 10
-31.4164303705
 20
-8.1846190531
 10
-31.3761948218
 20
-8.1902768639
 10
-31.3347190615
 20
-8.1967833774
 10
-31.2919950214
 20
-8.2041559028
 10
-31.247941353
 20
-8.2123741131
 10
-31.2025668855
 20
-8.2214265279
 10
-31.1558628177
 20
-8.231324642
 10
-31.1077213477
 20
-8.2420825868
 10
-31.0581314036
 20
-8.2536970602
 10
-31.0071040781
 20
-8.2661713749
 10
-30.9545648118
 20
-8.2795295825
 10
-30.9005217866
 20
-8.2937666042
 10
-30.8449668394
 20
-8.3088875283
 10
-30.7878008903
 20
-8.3249316566
 10
-30.7290331984
 20
-8.3418937182
 10
-30.6686545216
 20
-8.3597789926
 10
-30.6065380275
 20
-8.3786426059
 10
-30.5426906626
 20
-8.3984789198
 10
-30.4771054955
 20
-8.4192935804
 10
-30.4096348763
 20
-8.4411586402
 10
-30.3402809838
 20
-8.4640704285
 10
-30.2690416536
 20
-8.4880326234
 10
-30.1957627209
 20
-8.5131283011
 10
-30.1204406867
 20
-8.5393569503
 10
-30.0430790649
 20
-8.5667190898
 10
-29.9635342103
 20
-8.5952993412
 10
-29.881816245
 20
-8.6250916138
 10
-29.797915063
 20
-8.6561020065
 10
-29.7116566785
 20
-8.6884334265
 10
-29.6230515934
 20
-8.7220785079
 10
-29.5320893232
 20
-8.7570446254
 10
-29.4385644039
 20
-8.7934567979
 10
-29.3424839587
 20
-8.8313083491
 10
-29.2438408837
 20
-8.8706059651
 10
-29.1424083774
 20
-8.9114947102
 10
-29.0381897372
 20
-8.9539688608
 10
-28.9311816873
 20
-8.9980341516
 10
-28.8211475698
 20
-9.0438528358
 10
-28.7080987328
 20
-9.0914151305
 10
-28.592023853
 20
-9.1407308312
 10
-28.4726522696
 20
-9.1919915605
 10
-28.3499973912
 20
-9.2451874297
 10
-28.2240458371
 20
-9.3003283416
 10
-28.094486768
 20
-9.3576356092
 10
-27.9613123662
 20
-9.4171074396
 10
-27.8245304795
 20
-9.478745641
 10
-27.6838537714
 20
-9.54277693
 10
-27.5392991852
 20
-9.6091846211
 10
-27.3908498085
 20
-9.6779854155
 10
-27.2381675266
 20
-9.749456112
 10
-27.0813672363
 20
-9.8235272488
 10
-26.9203340696
 20
-9.9002683025
 10
-26.7543852682
 20
-9.9801644817
 10
-26.5832212597
 20
-10.0633464082
 10
-26.4071416381
 20
-10.1496834712
 10
-26.2263623961
 20
-10.2392690315
 10
-26.0398704654
 20
-10.3326342287
 10
-25.8486789179
 20
-10.429247925
 10
-25.6560429511
 20
-10.5276100617
 10
-25.4609613937
 20
-10.6283225348
 10
-25.2644353855
 20
-10.7307834323
 10
-25.072723585
 20
-10.8316869815
 10
-24.8872552847
 20
-10.9303522779
 10
-24.706601138
 20
-11.0274601986
 10
-24.5327318534
 20
-11.1217476473
 10
-24.366529841
 20
-11.2127405627
 10
-24.2071126417
 20
-11.3009129813
 10
-24.0538036764
 20
-11.3864239625
 10
-23.9067924688
 20
-11.4691487788
 10
-23.7658894555
 20
-11.5492121376
 10
-23.6298494391
 20
-11.6271472562
 10
-23.4984763152
 20
-11.7030478727
 10
-23.3719661534
 20
-11.7768202315
 10
-23.2496620254
 20
-11.8487163135
 10
-23.1315196216
 20
-11.9187500641
 10
-23.0175832238
 20
-11.986907524
 10
-22.9073287975
 20
-12.053398821
 10
-22.8007414121
 20
-12.118223182
 10
-22.6978359757
 20
-12.1813813688
 10
-22.5981332159
 20
-12.2430858139
 10
-22.5015997593
 20
-12.3033488848
 10
-22.4082689594
 20
-12.3621582039
 10
-22.3177616367
 20
-12.4196890866
 10
-22.2300524654
 20
-12.475951692
 10
-22.1451667525
 20
-12.5309358515
 10
-22.0628012691
 20
-12.5847863906
 10
-21.9829477548
 20
-12.6375037598
 10
-21.9056144518
 20
-12.6890874992
 10
-21.8305228848
 20
-12.739681069
 10
-21.7576598938
 20
-12.789287031
 10
-21.6870386194
 20
-12.8379028134
 10
-21.6184200354
 20
-12.8856641754
 10
-21.5517830505
 20
-12.9325795735
 10
-21.4871487334
 20
-12.9786405396
 10
-21.4243412944
 20
-13.0239574449
 10
-21.3633355851
 20
-13.0685439627
 10
-21.3041567266
 20
-13.1123864058
 10
-21.24670433
 20
-13.1555541023
 10
-21.1909831153
 20
-13.1980360496
 10
-21.1369883314
 20
-13.2398432346
 10
-21.0846053766
 20
-13.2810779667
 10
-21.0338347021
 20
-13.3217259532
 10
-20.9846758169
 20
-13.3618014667
 10
-20.9370126941
 20
-13.4014496587
 10
-20.8908333004
 20
-13.4406549247
 10
-20.8461496117
 20
-13.47943284
 10
-20.8028815915
 20
-13.517975315
 10
-20.7610257595
 20
-13.5562393588
 10
-20.7205855063
 20
-13.5942679166
 10
-20.6814910566
 20
-13.6323817792
 10
-20.6436744897
 20
-13.670578068
 10
-20.6072035644
 20
-13.7088595791
 10
-20.5722119458
 20
-13.7475555754
 10
-20.5385776363
 20
-13.786674383
 10
-20.5064223499
 20
-13.8262075315
 10
-20.4762451869
 20
-13.8664590214
 10
-20.4478693728
 20
-13.9076783276
 10
-20.4214711551
 20
-13.9496157066
 10
-20.3980790561
 20
-13.9918262758
 10
-20.3777954852
 20
-14.0346163419
  0
LWPOLYLINE
  5
233
100
AcDbEntity
  8
RACCORDO
100
AcDbPolyline
 62
250
  6
CONTINUOUS
 90
144
 70
0
 10
-31.9526951074
 20
-1.1484714252
 10
-31.9516187146
 20
-1.1198756629
 10
-31.9479122396
 20
-1.0924463737
 10
-31.9415756583
 20
-1.066183546
 10
-31.932558611
 20
-1.0407506147
 10
-31.9209113689
 20
-1.0164841018
 10
-31.9067850349
 20
-0.9943937149
 10
-31.8900138848
 20
-0.9747917088
 10
-31.8707639661
 20
-0.9573659873
 10
-31.8496842734
 20
-0.9421898453
 10
-31.8268434076
 20
-0.929456786
 10
-31.8021731604
 20
-0.9189734984
 10
-31.7761173197
 20
-0.9102330611
 10
-31.748754831
 20
-0.9032012149
 10
-31.7200069983
 20
-0.8979123409
 10
-31.6900810692
 20
-0.8939624396
 10
-31.6590351443
 20
-0.8913013423
 10
-31.6268112768
 20
-0.8899792929
 10
-31.5934425831
 20
-0.8897428813
 10
-31.5589541175
 20
-0.89055616
 10
-31.5233209197
 20
-0.8924551224
 10
-31.4865010434
 20
-0.8952942498
 10
-31.4485001363
 20
-0.8990492565
 10
-31.4093126091
 20
-0.9037444568
 10
-31.3688796358
 20
-0.9093072201
 10
-31.3272090682
 20
-0.9157202061
 10
-31.2842930935
 20
-0.9230007742
 10
-31.2400493755
 20
-0.9311283368
 10
-31.1944865788
 20
-0.9400913989
 10
-31.1475960668
 20
-0.9499014691
 10
-31.0992695436
 20
-0.9605724614
 10
-31.0494956863
 20
-0.9721010653
 10
-30.9982858386
 20
-0.9844906015
 10
-30.9455656999
 20
-0.9977649288
 10
-30.8913434535
 20
-1.0119189713
 10
-30.8356109347
 20
-1.0269578141
 10
-30.7782693192
 20
-1.0429205557
 10
-30.7193279646
 20
-1.0598018887
 10
-30.6587775301
 20
-1.0776071288
 10
-30.5964911418
 20
-1.096391309
 10
-30.5324757679
 20
-1.1161487607
 10
-30.4667244554
 20
-1.13688516
 10
-30.3990894485
 20
-1.1586725564
 10
-30.329572874
 20
-1.1815072653
 10
-30.2581726195
 20
-1.2053929784
 10
-30.1847345709
 20
-1.2304128105
 10
-30.1092551977
 20
-1.2565662281
 10
-30.0317380452
 20
-1.283853772
 10
-29.9520396143
 20
-1.3123601683
 10
-29.8701700084
 20
-1.3420793178
 10
-29.78611914
 20
-1.3730173276
 10
-29.699713225
 20
-1.4052772337
 10
-29.610962715
 20
-1.4388516674
 10
-29.5198571757
 20
-1.4737480059
 10
-29.4261914966
 20
-1.5100914058
 10
-29.3299727528
 20
-1.5478751771
 10
-29.2311938884
 20
-1.5871060191
 10
-29.1296285987
 20
-1.6279291728
 10
-29.025280132
 20
-1.6703388934
 10
-28.9181452618
 20
-1.7143409362
 10
-28.8079879752
 20
-1.7600977955
 10
-28.6948195572
 20
-1.8075996735
 10
-28.5786287475
 20
-1.85685638
 10
-28.4591457199
 20
-1.9080598228
 10
-28.3363838397
 20
-1.9612000757
 10
-28.2103297694
 20
-2.0162870785
 10
-28.080673634
 20
-2.0735425398
 10
-27.9474075528
 20
-2.1329646046
 10
-27.8105394365
 20
-2.1945551426
 10
-27.6697831014
 20
-2.2585414522
 10
-27.5251553551
 20
-2.3249068131
 10
-27.3766394209
 20
-2.3936679606
 10
-27.2238987435
 20
-2.4651023793
 10
-27.0670479604
 20
-2.5391405955
 10
-26.9059724629
 20
-2.615852097
 10
-26.7399918304
 20
-2.6957228121
 10
-26.568806582
 20
-2.7788830828
 10
-26.3927162202
 20
-2.8652025777
 10
-26.2119388002
 20
-2.9547762154
 10
-26.0254621057
 20
-3.0481349591
 10
-25.8342983565
 20
-3.1447478473
 10
-25.6417022571
 20
-3.2431169078
 10
-25.4466733428
 20
-3.3438450309
 10
-25.2502120466
 20
-3.4463293109
 10
-25.0585744136
 20
-3.5472630795
 10
-24.8731895993
 20
-3.6459660312
 10
-24.6926283942
 20
-3.7431184451
 10
-24.5188593042
 20
-3.8374545334
 10
-24.3527645903
 20
-3.9284998866
 10
-24.1934619427
 20
-4.0167288906
 10
-24.040273027
 20
-4.1022989589
 10
-23.8933872559
 20
-4.1850849606
 10
-23.7526151771
 20
-4.2652120075
 10
-23.6167101718
 20
-4.3432128836
 10
-23.485476011
 20
-4.4191813351
 10
-23.359108889
 20
-4.493023599
 10
-23.2369508301
 20
-4.5649911993
 10
-23.1189573978
 20
-4.6350980506
 10
-23.0051730008
 20
-4.7033302249
 10
-22.8950729395
 20
-4.7698974857
 10
-22.7886421861
 20
-4.8347990046
 10
-22.6858957458
 20
-4.8980355991
 10
-22.5863539731
 20
-4.9598195047
 10
-22.4899834328
 20
-5.0201630667
 10
-22.3968175401
 20
-5.0790539301
 10
-22.3064769281
 20
-5.1366672816
 10
-22.2189362191
 20
-5.193013271
 10
-22.134220772
 20
-5.2480817393
 10
-22.0520273258
 20
-5.3020174099
 10
-21.9723476156
 20
-5.3548206718
 10
-21.895189888
 20
-5.4064911272
 10
-21.8202756505
 20
-5.4571723198
 10
-21.7475917192
 20
-5.5068667607
 10
-21.6771512585
 20
-5.5555719294
 10
-21.6087152969
 20
-5.6034238218
 10
-21.5422625861
 20
-5.6504309677
 10
-21.4778143518
 20
-5.6965848263
 10
-21.4151953304
 20
-5.7419957853
 10
-21.3543802647
 20
-5.7866776207
 10
-21.2953943847
 20
-5.8306165433
 10
-21.2381381545
 20
-5.8738815916
 10
-21.1826162827
 20
-5.9164616511
 10
-21.1288240299
 20
-5.9583678213
 10
-21.0766476821
 20
-5.9997024596
 10
-21.0260876612
 20
-6.040451077
 10
-20.9771435057
 20
-6.0806281431
 10
-20.9297001642
 20
-6.120379448
 10
-20.8837453632
 20
-6.1596892213
 10
-20.839291319
 20
-6.1985732054
 10
-20.7962596918
 20
-6.2372244475
 10
-20.7546464732
 20
-6.275599604
 10
-20.714455582
 20
-6.3137419748
 10
-20.675620524
 20
-6.3519745498
 10
-20.638072757
 20
-6.39029407
 10
-20.6018806616
 20
-6.4287037153
 10
-20.5671830476
 20
-6.467536095
 10
-20.5338571698
 20
-6.506799363
 10
-20.5020254902
 20
-6.5464852269
 10
-20.4721944983
 20
-6.5869015611
 10
-20.4441896907
 20
-6.6282988197
 10
-20.4181850441
 20
-6.670426291
 10
-20.395209657
 20
-6.7128400463
 10
-20.3753705007
 20
-6.7558479921
 10
-20.3585599176
 20
-6.7991418857
  0
LWPOLYLINE
  5
234
100
AcDbEntity
  8
RACCORDO
100
AcDbPolyline
 62
250
  6
CONTINUOUS
 90
52
 70
0
 10
-31.9145882671
 20
2.5086907065
 10
-31.9133986866
 20
2.5362532852
 10
-31.9097630471
 20
2.5627816326
 10
-31.9036813193
 20
2.5882757627
 10
-31.8951188478
 20
2.6130538787
 10
-31.8841101932
 20
2.6367978226
 10
-31.8707593109
 20
2.6585529891
 10
-31.8549084126
 20
2.67804857
 10
-31.8367155578
 20
2.6955552434
 10
-31.8167586923
 20
2.7109305293
 10
-31.7950895961
 20
2.7239804129
 10
-31.7716568477
 20
2.7348987372
 10
-31.7468836111
 20
2.7441247992
 10
-31.7208401975
 20
2.7516763819
 10
-31.6934565344
 20
2.7575355879
 10
-31.6649451435
 20
2.762088226
 10
-31.6353617419
 20
2.7653807672
 10
-31.6046507621
 20
2.7673666689
 10
-31.5728577432
 20
2.7682922465
 10
-31.5400109347
 20
2.7681909255
 10
-31.5060821806
 20
2.7670292356
 10
-31.4710323732
 20
2.7649531669
 10
-31.4348679499
 20
2.7619861503
 10
-31.3975825316
 20
2.7581047268
 10
-31.3591177623
 20
2.7533845633
 10
-31.3194778954
 20
2.7478408501
 10
-31.2786587163
 20
2.7414583782
 10
-31.2365891531
 20
2.7342672227
 10
-31.1932804511
 20
2.7262794791
 10
-31.1487213925
 20
2.7174830387
 10
-31.1028072019
 20
2.7078716734
 10
-31.0555277308
 20
2.6974493654
 10
-31.0068931474
 20
2.6862121231
 10
-30.9568291474
 20
2.6741417605
 10
-30.9053364603
 20
2.6612421311
 10
-30.8524143731
 20
2.6475093734
 10
-30.7979864155
 20
2.6329137296
 10
-30.7420640607
 20
2.6174615179
 10
-30.6846358505
 20
2.6011464129
 10
-30.6255909162
 20
2.5839196913
 10
-30.564935841
 20
2.5657865452
 10
-30.5026640556
 20
2.546741776
 10
-30.438644962
 20
2.5267210741
 10
-30.3728848681
 20
2.5057294959
 10
-30.3053774794
 20
2.4837619787
 10
-30.2359732942
 20
2.4607390346
 10
-30.1646687562
 20
2.4366611907
 10
-30.0914674353
 20
2.4115279133
 10
-30.0162305205
 20
2.3852581231
 10
-29.9389624588
 20
2.3578544909
 10
-29.859658818
 20
2.3293143389
 10
-29.7781674699
 20
2.299548563
  0
LWPOLYLINE
  5
235
100
AcDbEntity
  8
RACCORDO
100
AcDbPolyline
 62
250
  6
CONTINUOUS
 90
10
 70
0
 10
-31.6850434601
 20
-4.7945898051
 10
-31.6842913693
 20
-4.7795326791
 10
-31.6818813522
 20
-4.7647439549
 10
-31.6776053128
 20
-4.7503482418
 10
-31.6712646162
 20
-4.7364960743
 10
-31.6626376826
 20
-4.7232841882
 10
-31.6514440656
 20
-4.7107773325
 10
-31.6372382584
 20
-4.6989836251
 10
-31.6198954748
 20
-4.6882214088
 10
-31.6114216667
 20
-4.6839523683
  0
LWPOLYLINE
  5
236
100
AcDbEntity
  8
RACCORDO
100
AcDbPolyline
 62
250
  6
CONTINUOUS
 90
137
 70
0
 10
-31.9653964905
 20
-4.7933665032
 10
-31.9634453507
 20
-4.7568303503
 10
-31.9578497499
 20
-4.7230145378
 10
-31.9486098746
 20
-4.6919191593
 10
-31.9355041469
 20
-4.6633820753
 10
-31.9187544689
 20
-4.6375655877
 10
-31.8990263974
 20
-4.6149565274
 10
-31.8762019844
 20
-4.5958948974
 10
-31.8503998233
 20
-4.5800410172
 10
-31.8226404115
 20
-4.566862257
 10
-31.7931063026
 20
-4.5564438486
 10
-31.7616154617
 20
-4.5487008191
 10
-31.7286414016
 20
-4.5428451805
 10
-31.6942983132
 20
-4.5387672427
 10
-31.6584722837
 20
-4.5365768346
 10
-31.6212945414
 20
-4.5358151817
 10
-31.5828153821
 20
-4.5364147454
 10
-31.5429846686
 20
-4.5384431434
 10
-31.5017829031
 20
-4.5416442973
 10
-31.4592210441
 20
-4.5459745252
 10
-31.4152882252
 20
-4.5514775549
 10
-31.3699321674
 20
-4.5580284009
 10
-31.3231668561
 20
-4.5655993319
 10
-31.2749783655
 20
-4.574218109
 10
-31.2252725266
 20
-4.5838429738
 10
-31.1740525898
 20
-4.5944591726
 10
-31.1213153463
 20
-4.6060814798
 10
-31.0669569265
 20
-4.6187124232
 10
-31.0109675166
 20
-4.6323468365
 10
-30.9533569622
 20
-4.6469899019
 10
-30.8940508771
 20
-4.6626596658
 10
-30.8330640426
 20
-4.6793484443
 10
-30.7703817055
 20
-4.6970639353
 10
-30.7058851751
 20
-4.7158472574
 10
-30.6395835205
 20
-4.7356912639
 10
-30.5714676968
 20
-4.7566031136
 10
-30.5013918402
 20
-4.7786453822
 10
-30.4293634186
 20
-4.8018113186
 10
-30.355374986
 20
-4.8261076849
 10
-30.2792583061
 20
-4.8516173261
 10
-30.2010061714
 20
-4.8783400018
 10
-30.1206258102
 20
-4.9062759628
 10
-30.0379706398
 20
-4.9355087911
 10
-29.9530487913
 20
-4.9660331304
 10
-29.8658521552
 20
-4.9978543477
 10
-29.7762097891
 20
-5.0310721118
 10
-29.684134785
 20
-5.0656776377
 10
-29.5896140735
 20
-5.1016797215
 10
-29.4924374722
 20
-5.139204404
 10
-29.3926134947
 20
-5.1782439267
 10
-29.2901336514
 20
-5.2188060599
 10
-29.1847622587
 20
-5.2610401386
 10
-29.0765010443
 20
-5.3049405659
 10
-28.9653483067
 20
-5.3505129518
 10
-28.8510632225
 20
-5.3979234433
 10
-28.7336591808
 20
-5.4471608601
 10
-28.6131228217
 20
-5.4982363971
 10
-28.4891732029
 20
-5.5513497663
 10
-28.3618279994
 20
-5.6064887375
 10
-28.2310695684
 20
-5.6636655569
 10
-28.0965639969
 20
-5.7231166544
 10
-27.9582864627
 20
-5.7848474655
 10
-27.8162618221
 20
-5.8488525717
 10
-27.6702306851
 20
-5.9153521237
 10
-27.5202296158
 20
-5.9843196226
 10
-27.3662220846
 20
-6.0557815845
 10
-27.2078390663
 20
-6.1300376863
 10
-27.0452541937
 20
-6.2069869986
 10
-26.8782938653
 20
-6.2867304664
 10
-26.7060682082
 20
-6.36987058
 10
-26.5278964722
 20
-6.4567293897
 10
-26.3444594297
 20
-6.5469848562
 10
-26.1569094911
 20
-6.640273335
 10
-25.9640346612
 20
-6.737254263
 10
-25.7670469349
 20
-6.837268203
 10
-25.5707347011
 20
-6.9379731963
 10
-25.3748795706
 20
-7.0395789555
 10
-25.1796998953
 20
-7.1418757496
 10
-24.9906391732
 20
-7.2418924528
 10
-24.8093322456
 20
-7.3388118793
 10
-24.6341442195
 20
-7.4334511894
 10
-24.4656140021
 20
-7.5252907828
 10
-24.3042470931
 20
-7.6140439321
 10
-24.1495379472
 20
-7.6999973421
 10
-24.0005089198
 20
-7.7834915684
 10
-23.8571659736
 20
-7.8645047315
 10
-23.7195031073
 20
-7.9430586917
 10
-23.5865247407
 20
-8.0195596185
 10
-23.4581079118
 20
-8.0940620721
 10
-23.3343755497
 20
-8.1665114761
 10
-23.2147009193
 20
-8.2371503001
 10
-23.0990458469
 20
-8.3059894752
 10
-22.9874484797
 20
-8.3730180572
 10
-22.8793965704
 20
-8.4384457062
 10
-22.7748678546
 20
-8.5022766337
 10
-22.6738845747
 20
-8.5645066171
 10
-22.5760012486
 20
-8.6253326678
 10
-22.4811872063
 20
-8.6847661176
 10
-22.3894730982
 20
-8.7427956249
 10
-22.300505425
 20
-8.799584191
 10
-22.2142639367
 20
-8.8551392359
 10
-22.1307688649
 20
-8.9094533305
 10
-22.0497274337
 20
-8.9626672035
 10
-21.9711315682
 20
-9.014781228
 10
-21.8949893253
 20
-9.065795022
 10
-21.8210321263
 20
-9.1158481802
 10
-21.7492465919
 20
-9.1649435156
 10
-21.679646082
 20
-9.2130782057
 10
-21.6120021241
 20
-9.2603833913
 10
-21.546293304
 20
-9.3068681069
 10
-21.4825410132
 20
-9.3525233067
 10
-21.4205809848
 20
-9.3974530102
 10
-21.3603893358
 20
-9.4416702143
 10
-21.3019899222
 20
-9.4851619085
 10
-21.2452900816
 20
-9.5279930998
 10
-21.1902965655
 20
-9.5701511722
 10
-21.1370025917
 20
-9.6116487262
 10
-21.0852951928
 20
-9.6525885906
 10
-21.0351734355
 20
-9.6929574148
 10
-20.9866382134
 20
-9.7327685294
 10
-20.9395792864
 20
-9.7721647788
 10
-20.8939855232
 20
-9.8111296552
 10
-20.8498679979
 20
-9.8496796378
 10
-20.807149756
 20
-9.8880070396
 10
-20.7658270308
 20
-9.9260689189
 10
-20.7259034992
 20
-9.9639081725
 10
-20.6873133261
 20
-10.0018458481
 10
-20.6499865686
 20
-10.0398819056
 10
-20.6139930078
 20
-10.0780163043
 10
-20.5794763156
 20
-10.1165700506
 10
-20.5463183076
 20
-10.1555484232
 10
-20.5146368867
 20
-10.1949460029
 10
-20.4849297258
 20
-10.235067685
 10
-20.4570155763
 20
-10.2761941344
 10
-20.4310751606
 20
-10.3180444235
 10
-20.4081490116
 20
-10.3600810107
 10
-20.3883730246
 20
-10.4024909097
  0
LWPOLYLINE
  5
237
100
AcDbEntity
  8
RACCORDO
100
AcDbPolyline
 62
250
  6
CONTINUOUS
 90
12
 70
0
 10
-31.6723470705
 20
-1.1511527287
 10
-31.6716964037
 20
-1.1393657414
 10
-31.6700307881
 20
-1.1274660002
 10
-31.6671842126
 20
-1.1155543829
 10
-31.6629880954
 20
-1.1037477529
 10
-31.6572637303
 20
-1.0921377742
 10
-31.6498073284
 20
-1.0807999325
 10
-31.6403359616
 20
-1.069770058
 10
-31.6286961042
 20
-1.0592680796
 10
-31.6149611975
 20
-1.0495933234
 10
-31.5990132234
 20
-1.0407974941
 10
-31.5968275078
 20
-1.0397480105
  0
LWPOLYLINE
  5
238
100
AcDbEntity
  8
RACCORDO
100
AcDbPolyline
 62
250
  6
CONTINUOUS
 90
12
 70
0
 10
-31.6342552116
 20
2.5045464075
 10
-31.6334522669
 20
2.5159301953
 10
-31.6317135946
 20
2.5274279803
 10
-31.6288902814
 20
2.5389499168
 10
-31.6248308128
 20
2.5503873963
 10
-31.6193762178
 20
2.5616637858
 10
-31.6123414042
 20
2.5727232152
 10
-31.6034705275
 20
2.583532842
 10
-31.5926175128
 20
2.5938908557
 10
-31.5798226736
 20
2.6035261783
 10
-31.5649580494
 20
2.6123873562
 10
-31.5569847965
 20
2.616379546
  0
LWPOLYLINE
  5
239
100
AcDbEntity
  8
0
100
AcDbPolyline
 62
250
  6
CONTINUOUS
 90
8
 70
0
 10
-32.8355811997
 20
15.5467938937
 10
-32.8101365122
 20
15.5590131917
 10
-32.7796294526
 20
15.5679051127
 10
-32.7469801066
 20
15.571838196
 10
-32.7125457715
 20
15.5707693999
 10
-32.6767032789
 20
15.5647104209
 10
-32.6398448705
 20
15.5537275653
 10
-32.6023739058
 20
15.5379410238
  0
LWPOLYLINE
  5
23A
100
AcDbEntity
  8
DRAFT
100
AcDbPolyline
 62
7
  6
CONTINUOUS
 90
21
 70
0
 10
-22.7125856911
 20
16.9675279276
 10
-22.7156610274
 20
16.9660232965
 10
-22.7332419985
 20
16.9586870374
 10
-22.7516144761
 20
16.9531317839
 10
-22.7707695036
 20
16.9493369603
 10
-22.7904857328
 20
16.9473456276
 10
-22.8107696725
 20
16.9471787485
 10
-22.831614814
 20
16.9488153601
 10
-22.8527802826
 20
16.9522356354
 10
-22.8742692968
 20
16.9574600223
 10
-22.8960786382
 20
16.9644680728
 10
-22.9179577765
 20
16.9731786149
 10
-22.9399076484
 20
16.9836111978
 10
-22.9619273172
 20
16.9957462724
 10
-22.9837634433
 20
17.0094440199
 10
-23.0054138016
 20
17.0247222688
 10
-23.0268806171
 20
17.0415631906
 10
-23.0479172245
 20
17.0597734814
 10
-23.0684414021
 20
17.0792887066
 10
-23.0885353716
 20
17.1001733009
 10
-23.108199133
 20
17.1224272642
  0
LINE
  5
23B
100
AcDbEntity
  8
DRAFT
100
AcDbLine
 62
7
  6
CONTINUOUS
 10
-22.5871775924
 20
17.3094281409
 11
-19.7553939661
 21
18.6882258919
  0
LINE
  5
23C
100
AcDbEntity
  8
DRAFT
100
AcDbLine
 62
7
  6
CONTINUOUS
 10
-22.2455818492
 20
17.4158375864
 11
-19.4098558937
 21
18.7961709766
  0
LINE
  5
23D
100
AcDbEntity
  8
DRAFT
100
AcDbLine
 62
7
  6
CONTINUOUS
 10
-20.5601496194
 20
18.3850796972
 11
-18.7942688517
 21
19.2435135633
  0
LINE
  5
23E
100
AcDbEntity
  8
DRAFT
100
AcDbLine
 62
7
  6
CONTINUOUS
 10
-23.108199133
 20
17.1224272642
 11
-20.2550162806
 21
18.5089054539
  0
LWPOLYLINE
  5
23F
100
AcDbEntity
  8
DRAFT
100
AcDbPolyline
 62
7
  6
CONTINUOUS
 90
7
 70
0
 10
-23.3791897176
 20
17.0300135764
 10
-20.9775819416
 20
18.1974669453
 10
-20.835090894
 20
18.2640111641
 10
-20.6915852017
 20
18.3284288067
 10
-20.5470768728
 20
18.3907142653
 10
-20.4015538991
 20
18.4508731477
 10
-20.2550162806
 20
18.5089054539
  0
LINE
  5
240
100
AcDbEntity
  8
DRAFT
100
AcDbLine
 62
7
  6
CONTINUOUS
 10
-21.5573284103
 20
16.1190829228
 11
-19.6349018892
 21
17.0391027857
  0
LINE
  5
241
100
AcDbEntity
  8
RACCORDO
100
AcDbLine
 62
7
  6
CONTINUOUS
 10
-17.6169654652
 20
19.0521857597
 11
-3.6962407697
 21
25.4812377411
  0
LINE
  5
242
100
AcDbEntity
  8
RACCORDO
100
AcDbLine
 62
250
  6
CONTINUOUS
 10
-16.7883456745
 20
18.682454286
 11
-2.3013660744
 21
25.3730215473
  0
LINE
  5
243
100
AcDbEntity
  8
DRAFT
100
AcDbLine
 62
7
  6
CONTINUOUS
 10
-23.3604507024
 20
17.0206440688
 11
-23.3046498004
 21
17.0438124153
  0
LINE
  5
244
100
AcDbEntity
  8
RACCORDO
100
AcDbLine
 62
250
  6
CONTINUOUS
 10
-3.6962468955
 20
25.481234912
 11
-3.6043593384
 21
25.5191458581
  0
LINE
  5
245
100
AcDbEntity
  8
DRAFT
100
AcDbLine
 62
7
  6
CONTINUOUS
 10
-21.5573284103
 20
17.071710867
 11
-19.6349018892
 21
17.8593703364
  0
LINE
  5
246
100
AcDbEntity
  8
DRAFT
100
AcDbLine
 62
7
  6
CONTINUOUS
 10
-23.3046498004
 20
17.0438124153
 11
-23.2487027987
 21
17.0666667119
  0
LINE
  5
247
100
AcDbEntity
  8
DRAFT
100
AcDbLine
 62
7
  6
CONTINUOUS
 10
-23.2487027987
 20
17.0666667119
 11
-23.1926099574
 21
17.0892068535
  0
LWPOLYLINE
  5
248
100
AcDbEntity
  8
DRAFT
100
AcDbPolyline
 62
7
  6
CONTINUOUS
 90
3
 70
0
 10
-23.1926099574
 20
17.0892068535
 10
-23.1363723175
 20
17.1114324202
 10
-23.108199133
 20
17.1224272642
  0
LINE
  5
249
100
AcDbEntity
  8
DRAFT
100
AcDbLine
 62
7
  6
CONTINUOUS
 10
-19.7553939661
 20
18.6882258919
 11
-19.6790240194
 21
18.7131879759
  0
LINE
  5
24A
100
AcDbEntity
  8
DRAFT
100
AcDbLine
 62
7
  6
CONTINUOUS
 10
-22.5871775924
 20
17.3094281409
 11
-22.5116731744
 21
17.3340251433
  0
LINE
  5
24B
100
AcDbEntity
  8
DRAFT
100
AcDbLine
 62
7
  6
CONTINUOUS
 10
-19.6790240194
 20
18.7131879759
 11
-19.6024152687
 21
18.7375936127
  0
LINE
  5
24C
100
AcDbEntity
  8
DRAFT
100
AcDbLine
 62
7
  6
CONTINUOUS
 10
-22.5116731744
 20
17.3340251433
 11
-22.435936012
 21
17.3580793033
  0
LWPOLYLINE
  5
24D
100
AcDbEntity
  8
RACCORDO
100
AcDbPolyline
 62
250
  6
CONTINUOUS
 90
8
 70
0
 10
-3.6043593384
 20
25.5191458581
 10
-3.4924423978
 20
25.5540238806
 10
-3.3725428955
 20
25.5790836719
 10
-3.2441334532
 20
25.5932319579
 10
-3.1073900433
 20
25.59516213
 10
-2.9624868043
 20
25.5835784113
 10
-2.8089625526
 20
25.5570458293
 10
-2.6470069245
 20
25.5140201139
  0
LINE
  5
24E
100
AcDbEntity
  8
DRAFT
100
AcDbLine
 62
7
  6
CONTINUOUS
 10
-19.6024152687
 20
18.7375936127
 11
-19.5255683395
 21
18.7614426067
  0
LWPOLYLINE
  5
24F
100
AcDbEntity
  8
DRAFT
100
AcDbPolyline
 62
7
  6
CONTINUOUS
 90
3
 70
0
 10
-22.435936012
 20
17.3580793033
 10
-22.3599667073
 20
17.3815904331
 10
-22.321895955
 20
17.3931420647
  0
LWPOLYLINE
  5
250
100
AcDbEntity
  8
DRAFT
100
AcDbPolyline
 62
7
  6
CONTINUOUS
 90
3
 70
0
 10
-19.5255683395
 20
18.7614426067
 10
-19.4484857326
 20
18.7847341767
 10
-19.4098558937
 20
18.7961709766
  0
LINE
  5
251
100
AcDbEntity
  8
DRAFT
100
AcDbLine
 62
7
  6
CONTINUOUS
 10
-27.7469812647
 20
0.42856621
 11
-27.7469812647
 21
0.1299666639
  0
LINE
  5
252
100
AcDbEntity
  8
DRAFT
100
AcDbLine
 62
7
  6
CONTINUOUS
 10
-27.7469812647
 20
-3.2087404859
 11
-27.7469812647
 21
-3.5073374955
  0
LINE
  5
253
100
AcDbEntity
  8
DRAFT
100
AcDbLine
 62
7
  6
CONTINUOUS
 10
-27.7469812647
 20
-6.8460471818
 11
-27.7469812647
 21
-7.1446443476
  0
LINE
  5
254
100
AcDbEntity
  8
DRAFT
100
AcDbLine
 62
7
  6
CONTINUOUS
 10
-27.7469812647
 20
-10.4833538777
 11
-27.7469812647
 21
-10.7819507728
  0
LINE
  5
255
100
AcDbEntity
  8
DRAFT
100
AcDbLine
 62
7
  6
CONTINUOUS
 10
-17.3146877232
 20
14.9503905234
 11
-15.7015803384
 21
15.8927095609
  0
LWPOLYLINE
  5
256
100
AcDbEntity
  8
RACCORDO
100
AcDbPolyline
 62
250
  6
CONTINUOUS
 90
12
 70
0
 10
-5.0427817325
 20
23.2463397438
 10
-5.3069719826
 20
23.0948211486
 10
-5.5234681417
 20
22.9332137425
 10
-5.6922702096
 20
22.7615175254
 10
-5.8147166826
 20
22.5764621065
 10
-5.8894690645
 20
22.3813178766
 10
-5.9125118666
 20
22.1858960087
 10
-5.8811939999
 20
21.9902730323
 10
-5.7981665534
 20
21.794372418
 10
-5.6673673053
 20
21.6077757501
 10
-5.4863410283
 20
21.4308921352
 10
-5.2575429497
 20
21.2633124667
  0
LINE
  5
257
100
AcDbEntity
  8
RACCORDO
100
AcDbLine
 62
250
  6
CONTINUOUS
 10
-4.6892821898
 20
22.6366432205
 11
-4.9073722326
 21
22.5141932064
  0
LINE
  5
258
100
AcDbEntity
  8
DRAFT
100
AcDbLine
 62
7
  6
CONTINUOUS
 10
-0.8365533664
 20
23.9120783996
 11
-4.6892821898
 21
21.9591798862
  0
LINE
  5
259
100
AcDbEntity
  8
RACCORDO
100
AcDbLine
 62
250
  6
CONTINUOUS
 10
-1.5313723489
 20
24.9880246845
 11
-5.0427817325
 21
23.2463397438
  0
LINE
  5
25A
100
AcDbEntity
  8
RACCORDO
100
AcDbLine
 62
250
  6
CONTINUOUS
 10
-0.8365533664
 20
24.5476251196
 11
-4.6892821898
 21
22.6366432205
  0
LINE
  5
25B
100
AcDbEntity
  8
RACCORDO
100
AcDbLine
 62
7
  6
CONTINUOUS
 10
-2.5715113355
 20
22.9415484646
 11
-4.5867656619
 21
21.94684474
  0
LINE
  5
25C
100
AcDbEntity
  8
DRAFT
100
AcDbLine
 62
7
  6
CONTINUOUS
 10
-17.6682411138
 20
17.9611321684
 11
-17.2459638406
 21
18.1051361935
  0
LINE
  5
25D
100
AcDbEntity
  8
DRAFT
100
AcDbLine
 62
7
  6
CONTINUOUS
 10
-22.321895955
 20
17.3931420647
 11
-22.2455818492
 21
17.4158375864
  0
LWPOLYLINE
  5
25E
100
AcDbEntity
  8
RACCORDO
100
AcDbPolyline
 62
250
  6
CONTINUOUS
 90
7
 70
0
 10
-20.2925579916
 20
-17.8573478043
 10
-20.3096312344
 20
-17.8475990814
 10
-20.3240530958
 20
-17.8367817117
 10
-20.3355822344
 20
-17.8250767287
 10
-20.344025717
 20
-17.8126800152
 10
-20.3492422472
 20
-17.7997990393
 10
-20.3511470058
 20
-17.7864937037
  0
LINE
  5
25F
100
AcDbEntity
  8
RACCORDO
100
AcDbLine
 62
7
  6
CONTINUOUS
 10
-22.8342903854
 20
-15.7773355815
 11
-22.7027451326
 21
-15.8573501217
  0
LINE
  5
260
100
AcDbEntity
  8
RACCORDO
100
AcDbLine
 62
7
  6
CONTINUOUS
 10
-22.7027451326
 20
-15.8573501217
 11
-22.5730940173
 21
-15.9370758171
  0
LINE
  5
261
100
AcDbEntity
  8
RACCORDO
100
AcDbLine
 62
7
  6
CONTINUOUS
 10
-22.5730940173
 20
-15.9370758171
 11
-22.4452486563
 21
-16.0165906207
  0
LINE
  5
262
100
AcDbEntity
  8
RACCORDO
100
AcDbLine
 62
7
  6
CONTINUOUS
 10
-22.4452486563
 20
-16.0165906207
 11
-22.3191685864
 21
-16.0959453381
  0
LINE
  5
263
100
AcDbEntity
  8
RACCORDO
100
AcDbLine
 62
7
  6
CONTINUOUS
 10
-22.3191685864
 20
-16.0959453381
 11
-22.2257930952
 21
-16.1553626837
  0
LINE
  5
264
100
AcDbEntity
  8
RACCORDO
100
AcDbLine
 62
7
  6
CONTINUOUS
 10
-22.2257930952
 20
-16.1553626837
 11
-22.1334578014
 21
-16.2146984749
  0
LINE
  5
265
100
AcDbEntity
  8
RACCORDO
100
AcDbLine
 62
7
  6
CONTINUOUS
 10
-22.1334578014
 20
-16.2146984749
 11
-22.0421871459
 21
-16.2739546579
  0
LINE
  5
266
100
AcDbEntity
  8
RACCORDO
100
AcDbLine
 62
7
  6
CONTINUOUS
 10
-22.0421871459
 20
-16.2739546579
 11
-21.9520047101
 21
-16.3331371759
  0
LINE
  5
267
100
AcDbEntity
  8
RACCORDO
100
AcDbLine
 62
7
  6
CONTINUOUS
 10
-21.9520047101
 20
-16.3331371759
 11
-21.8629338232
 21
-16.3922504344
  0
LINE
  5
268
100
AcDbEntity
  8
RACCORDO
100
AcDbLine
 62
7
  6
CONTINUOUS
 10
-21.8629338232
 20
-16.3922504344
 11
-21.7750030853
 21
-16.4512991343
  0
LINE
  5
269
100
AcDbEntity
  8
RACCORDO
100
AcDbLine
 62
7
  6
CONTINUOUS
 10
-21.7750030853
 20
-16.4512991343
 11
-21.6882397529
 21
-16.5102917186
  0
LINE
  5
26A
100
AcDbEntity
  8
RACCORDO
100
AcDbLine
 62
7
  6
CONTINUOUS
 10
-21.6882397529
 20
-16.5102917186
 11
-21.6026753353
 21
-16.5692341199
  0
LINE
  5
26B
100
AcDbEntity
  8
RACCORDO
100
AcDbLine
 62
7
  6
CONTINUOUS
 10
-21.6026753353
 20
-16.5692341199
 11
-21.5463153768
 21
-16.608508371
  0
LINE
  5
26C
100
AcDbEntity
  8
RACCORDO
100
AcDbLine
 62
7
  6
CONTINUOUS
 10
-21.5463153768
 20
-16.608508371
 11
-21.4905140212
 21
-16.6477709474
  0
LINE
  5
26D
100
AcDbEntity
  8
RACCORDO
100
AcDbLine
 62
7
  6
CONTINUOUS
 10
-21.4905140212
 20
-16.6477709474
 11
-21.435280474
 21
-16.6870269847
  0
LINE
  5
26E
100
AcDbEntity
  8
RACCORDO
100
AcDbLine
 62
7
  6
CONTINUOUS
 10
-21.435280474
 20
-16.6870269847
 11
-21.3806297768
 21
-16.7262823621
  0
LINE
  5
26F
100
AcDbEntity
  8
RACCORDO
100
AcDbLine
 62
7
  6
CONTINUOUS
 10
-21.3806297768
 20
-16.7262823621
 11
-21.3265731558
 21
-16.7655464127
  0
LINE
  5
270
100
AcDbEntity
  8
RACCORDO
100
AcDbLine
 62
7
  6
CONTINUOUS
 10
-21.3265731558
 20
-16.7655464127
 11
-21.2731243322
 21
-16.8048257305
  0
LINE
  5
271
100
AcDbEntity
  8
RACCORDO
100
AcDbLine
 62
7
  6
CONTINUOUS
 10
-21.2731243322
 20
-16.8048257305
 11
-21.2203054308
 21
-16.8441257033
  0
LINE
  5
272
100
AcDbEntity
  8
RACCORDO
100
AcDbLine
 62
7
  6
CONTINUOUS
 10
-21.2203054308
 20
-16.8441257033
 11
-21.1681596344
 21
-16.8834402379
  0
LINE
  5
273
100
AcDbEntity
  8
RACCORDO
100
AcDbLine
 62
7
  6
CONTINUOUS
 10
-21.1681596344
 20
-16.8834402379
 11
-21.1167193564
 21
-16.9227691609
  0
LINE
  5
274
100
AcDbEntity
  8
RACCORDO
100
AcDbLine
 62
7
  6
CONTINUOUS
 10
-21.1167193564
 20
-16.9227691609
 11
-21.0660347842
 21
-16.9621027775
  0
LWPOLYLINE
  5
275
100
AcDbEntity
  8
RACCORDO
100
AcDbPolyline
 62
7
  6
CONTINUOUS
 90
41
 70
0
 10
-21.0660347842
 20
-16.9621027775
 10
-21.0161569449
 20
-17.0014390985
 10
-20.9915299534
 20
-17.0211122661
 10
-20.9671272238
 20
-17.0407814973
 10
-20.9429507763
 20
-17.0604508002
 10
-20.9190047448
 20
-17.0801241171
 10
-20.8953079402
 20
-17.0997931289
 10
-20.8718654673
 20
-17.119460465
 10
-20.8486791999
 20
-17.1391313834
 10
-20.8257629809
 20
-17.1588010685
 10
-20.8031313193
 20
-17.1784666777
 10
-20.7807811079
 20
-17.1981426945
 10
-20.7587009743
 20
-17.2178517081
 10
-20.7368974084
 20
-17.2376012771
 10
-20.7153782666
 20
-17.2573982102
 10
-20.6941355955
 20
-17.2772652216
 10
-20.6731791567
 20
-17.2972116634
 10
-20.6525226313
 20
-17.3172455606
 10
-20.6321674232
 20
-17.3373897398
 10
-20.6121283627
 20
-17.3576575119
 10
-20.5924247225
 20
-17.3780607698
 10
-20.5730700314
 20
-17.3986177212
 10
-20.5540966222
 20
-17.419333601
 10
-20.5355348959
 20
-17.4402273262
 10
-20.5174077765
 20
-17.4613417696
 10
-20.4997873254
 20
-17.4826713599
 10
-20.4826923092
 20
-17.5042194073
 10
-20.4660997601
 20
-17.526055719
 10
-20.4501152057
 20
-17.5481593254
 10
-20.4348699348
 20
-17.5705639394
 10
-20.4204460697
 20
-17.5934071451
 10
-20.4069169629
 20
-17.6166178693
 10
-20.3944280457
 20
-17.6400002083
 10
-20.3831875228
 20
-17.6633206334
 10
-20.3733681153
 20
-17.6865603158
 10
-20.3653042506
 20
-17.7092772278
 10
-20.3592677078
 20
-17.7304528709
 10
-20.3551826732
 20
-17.7490458964
 10
-20.3525759597
 20
-17.7655344692
 10
-20.351260681
 20
-17.7809759938
 10
-20.351112232
 20
-17.7864731408
  0
LINE
  5
276
100
AcDbEntity
  8
DRAFT
100
AcDbLine
 62
7
  6
CONTINUOUS
 10
-25.2174422256
 20
-0.8393496943
 11
-25.2174422256
 21
-1.1981321139
  0
LINE
  5
277
100
AcDbEntity
  8
DRAFT
100
AcDbLine
 62
7
  6
CONTINUOUS
 10
-25.2174422256
 20
-4.4766563902
 11
-25.2174422256
 21
-4.8354407611
  0
LINE
  5
278
100
AcDbEntity
  8
DRAFT
100
AcDbLine
 62
7
  6
CONTINUOUS
 10
-25.2174422256
 20
-8.1139630861
 11
-25.2174422256
 21
-8.4727474803
  0
LINE
  5
279
100
AcDbEntity
  8
DRAFT
100
AcDbLine
 62
7
  6
CONTINUOUS
 10
-25.2174422256
 20
-11.751269782
 11
-25.2174422256
 21
-12.1100541359
  0
LINE
  5
27A
100
AcDbEntity
  8
RACCORDO
100
AcDbLine
 62
7
  6
CONTINUOUS
 10
-25.0928623163
 20
-0.9008348134
 11
-25.0928623163
 21
-1.2593057444
  0
LINE
  5
27B
100
AcDbEntity
  8
RACCORDO
100
AcDbLine
 62
7
  6
CONTINUOUS
 10
-25.0928623163
 20
-4.5381415093
 11
-25.0928623163
 21
-4.896615073
  0
LINE
  5
27C
100
AcDbEntity
  8
RACCORDO
100
AcDbLine
 62
7
  6
CONTINUOUS
 10
-25.0928623163
 20
-8.1754482052
 11
-25.0928623163
 21
-8.533921801
  0
LINE
  5
27D
100
AcDbEntity
  8
RACCORDO
100
AcDbLine
 62
7
  6
CONTINUOUS
 10
-25.0928623163
 20
-11.8127549011
 11
-25.0928623163
 21
-12.1712284412
  0
LWPOLYLINE
  5
27E
100
AcDbEntity
  8
RACCORDO
100
AcDbPolyline
 62
250
  6
CONTINUOUS
 90
3
 70
0
 10
-4.9073722326
 20
22.5141932064
 10
-5.0903731746
 20
22.3783441488
 10
-5.2351600849
 20
22.2314704293
  0
LINE
  5
27F
100
AcDbEntity
  8
DRAFT
100
AcDbLine
 62
7
  6
CONTINUOUS
 10
-12.9884973405
 20
15.9764029435
 11
-13.2841790705
 21
15.7691011467
  0
LINE
  5
280
100
AcDbEntity
  8
DRAFT
100
AcDbLine
 62
7
  6
CONTINUOUS
 10
-13.203048855
 20
14.9599559548
 11
-11.9642257822
 21
15.8284920286
  0
LWPOLYLINE
  5
281
100
AcDbEntity
  8
0
100
AcDbPolyline
 62
7
  6
CONTINUOUS
 90
10
 70
0
 10
-3.7035538105
 20
21.0756053315
 10
-3.6619772469
 20
21.1044419168
 10
-3.6182634476
 20
21.1323351794
 10
-3.5724124126
 20
21.1592851193
 10
-3.5243417876
 20
21.1853330943
 10
-3.4741339268
 20
21.2104377466
 10
-3.4220358934
 20
21.2344750033
 10
-3.3681300417
 20
21.2574035067
 10
-3.3123340174
 20
21.2792646144
 10
-3.2546478205
 20
21.3000583265
  0
LINE
  5
282
100
AcDbEntity
  8
DRAFT
100
AcDbLine
 62
7
  6
CONTINUOUS
 10
-15.7638170006
 20
13.450236198
 11
-12.9601456034
 21
14.8614701153
  0
LINE
  5
283
100
AcDbEntity
  8
0
100
AcDbLine
 62
7
  6
CONTINUOUS
 10
-1.8588516939
 20
21.1257222489
 11
-0.7726260853
 21
21.6688350532
  0
LINE
  5
284
100
AcDbEntity
  8
DRAFT
100
AcDbLine
 62
7
  6
CONTINUOUS
 10
-16.6264342843
 20
14.606263804
 11
-13.8053059903
 21
15.9938960249
  0
LINE
  5
285
100
AcDbEntity
  8
DRAFT
100
AcDbLine
 62
7
  6
CONTINUOUS
 10
-16.2848385412
 20
14.1582586153
 11
-15.0248168803
 21
14.7751749597
  0
LWPOLYLINE
  5
286
100
AcDbEntity
  8
DRAFT
100
AcDbPolyline
 62
7
  6
CONTINUOUS
 90
3
 70
0
 10
-15.0248168803
 20
14.7751749597
 10
-13.7718901895
 20
15.3878923208
 10
-13.459767918
 20
15.5404128678
  0
LWPOLYLINE
  5
287
100
AcDbEntity
  8
0
100
AcDbPolyline
 62
7
  6
CONTINUOUS
 90
11
 70
0
 10
-0.7726260853
 20
21.6688350532
 10
-0.7637035124
 20
21.6729590931
 10
-0.7548781802
 20
21.6763873382
 10
-0.7461500886
 20
21.6791197884
 10
-0.7374851751
 20
21.6811622681
 10
-0.7289175023
 20
21.6825089529
 10
-0.7205492575
 20
21.6831423702
 10
-0.7123849443
 20
21.683053777
 10
-0.7044200592
 20
21.6822519164
 10
-0.6967432788
 20
21.6807455439
 10
-0.6900166809
 20
21.6787577162
  0
LINE
  5
288
100
AcDbEntity
  8
RACCORDO
100
AcDbLine
 62
7
  6
CONTINUOUS
 10
-0.8764500621
 20
21.0719551262
 11
2.9792102773
 21
22.8526324969
  0
LINE
  5
289
100
AcDbEntity
  8
RACCORDO
100
AcDbLine
 62
250
  6
CONTINUOUS
 10
-0.659387403
 20
21.0546425791
 11
2.9767834579
 21
22.7339467812
  0
LINE
  5
28A
100
AcDbEntity
  8
RACCORDO
100
AcDbLine
 62
250
  6
CONTINUOUS
 10
-0.959290112
 20
20.9324764196
 11
-0.659387403
 21
21.0546425791
  0
LWPOLYLINE
  5
28B
100
AcDbEntity
  8
RACCORDO
100
AcDbPolyline
 62
7
  6
CONTINUOUS
 90
14
 70
0
 10
-0.8765160769
 20
21.0720967765
 10
-1.1321501709
 20
20.9686449266
 10
-1.4259764933
 20
20.8781332425
 10
-1.7528866221
 20
20.8048230844
 10
-2.1055090281
 20
20.7520357636
 10
-2.4733767396
 20
20.72220037
 10
-2.849085204
 20
20.7163937993
 10
-3.2249717925
 20
20.7349192159
 10
-3.5900166317
 20
20.7769013625
 10
-3.9353481976
 20
20.840516566
 10
-4.2559545896
 20
20.9237730311
 10
-4.5463801667
 20
21.0239505736
 10
-4.800405036
 20
21.1373655962
 10
-5.0139594253
 20
21.2602195261
  0
LWPOLYLINE
  5
28C
100
AcDbEntity
  8
RACCORDO
100
AcDbPolyline
 62
250
  6
CONTINUOUS
 90
5
 70
0
 10
-0.8751970938
 20
21.0725394423
 10
-0.8338487297
 20
21.0860827919
 10
-0.7785314945
 20
21.0898070529
 10
-0.7197829341
 20
21.0792197937
 10
-0.659387403
 20
21.0546425791
  0
LINE
  5
28D
100
AcDbEntity
  8
RACCORDO
100
AcDbLine
 62
250
  6
CONTINUOUS
 10
-1.2825868575
 20
20.8323313185
 11
-0.959290112
 21
20.9324764196
  0
LWPOLYLINE
  5
28E
100
AcDbEntity
  8
RACCORDO
100
AcDbPolyline
 62
250
  6
CONTINUOUS
 90
3
 70
0
 10
-22.3232477283
 20
-17.6658521328
 10
-22.4877491805
 20
-17.6047721713
 10
-22.5732817129
 20
-17.5723997227
  0
LINE
  5
28F
100
AcDbEntity
  8
RACCORDO
100
AcDbLine
 62
250
  6
CONTINUOUS
 10
-22.2804627246
 20
-17.3835124751
 11
-22.44822134
 21
-17.320392937
  0
LINE
  5
290
100
AcDbEntity
  8
RACCORDO
100
AcDbLine
 62
7
  6
CONTINUOUS
 10
-29.59944725
 20
-12.4296241409
 11
-29.4815276252
 21
-12.474644405
  0
LWPOLYLINE
  5
291
100
AcDbEntity
  8
RACCORDO
100
AcDbPolyline
 62
250
  6
CONTINUOUS
 90
97
 70
0
 10
-22.5732817129
 20
-17.5723997227
 10
-22.7514618663
 20
-17.5036632634
 10
-22.8441095044
 20
-17.4672992616
 10
-22.9393371466
 20
-17.4294752168
 10
-23.0371398455
 20
-17.3901968477
 10
-23.1375225676
 20
-17.3494584456
 10
-23.2407059477
 20
-17.3071154193
 10
-23.3466848399
 20
-17.26317415
 10
-23.4554644118
 20
-17.2176282678
 10
-23.5672807721
 20
-17.1703140573
 10
-23.6821198306
 20
-17.1212421259
 10
-23.7999957021
 20
-17.0704018789
 10
-23.9211868066
 20
-17.0175977995
 10
-24.0456872584
 20
-16.9628363523
 10
-24.1735029704
 20
-16.9061110868
 10
-24.3049300646
 20
-16.847207116
 10
-24.4399785637
 20
-16.7861263919
 10
-24.5786384737
 20
-16.7228669774
 10
-24.7211758961
 20
-16.657208154
 10
-24.8675319838
 20
-16.5891872867
 10
-25.0177656127
 20
-16.5187670256
 10
-25.1723194729
 20
-16.4456145812
 10
-25.3311568616
 20
-16.3697634018
 10
-25.494314507
 20
-16.2911800525
 10
-25.6623452485
 20
-16.2094314202
 10
-25.8356846175
 20
-16.124311752
 10
-26.0138970988
 20
-16.0360268093
 10
-26.1962289608
 20
-15.9447607504
 10
-26.3839731438
 20
-15.8498174124
 10
-26.5758367012
 20
-15.7518929548
 10
-26.7671870641
 20
-15.6532600155
 10
-26.958179453
 20
-15.5537498673
 10
-27.1486586068
 20
-15.453531216
 10
-27.3335262322
 20
-15.3553828477
 10
-27.5114249693
 20
-15.2599760348
 10
-27.6837121256
 20
-15.1666394773
 10
-27.8493614211
 20
-15.0761381086
 10
-28.0076723878
 20
-14.9888611537
 10
-28.1593454502
 20
-14.904419365
 10
-28.3054556824
 20
-14.8224099745
 10
-28.4460148288
 20
-14.7428462224
 10
-28.5810111085
 20
-14.6657148495
 10
-28.7114843173
 20
-14.5905733448
 10
-28.8375934936
 20
-14.5173457289
 10
-28.9591795674
 20
-14.4461079646
 10
-29.0768051794
 20
-14.3766454575
 10
-29.1904939797
 20
-14.308954536
 10
-29.3002222928
 20
-14.2430388583
 10
-29.4064817778
 20
-14.1786948284
 10
-29.5092876009
 20
-14.1159219916
 10
-29.6086245748
 20
-14.0547207915
 10
-29.7049388327
 20
-13.9948889814
 10
-29.7982656267
 20
-13.9364120423
 10
-29.8885696853
 20
-13.8793044831
 10
-29.9761913581
 20
-13.8234075994
 10
-30.0611493446
 20
-13.7687137124
 10
-30.1434249268
 20
-13.7152304913
 10
-30.2233023292
 20
-13.6628222534
 10
-30.3007886601
 20
-13.611488582
 10
-30.3758767934
 20
-13.5612298845
 10
-30.4488296013
 20
-13.511911715
 10
-30.5196601474
 20
-13.4635312604
 10
-30.5883553494
 20
-13.4160913239
 10
-30.6551388594
 20
-13.3694658835
 10
-30.7200339519
 20
-13.3236447805
 10
-30.7830173306
 20
-13.2786381622
 10
-30.8442427889
 20
-13.2343504629
 10
-30.9037337904
 20
-13.1907702779
 10
-30.9614668459
 20
-13.1479089987
 10
-31.0175253165
 20
-13.1057052521
 10
-31.0718986114
 20
-13.0641747914
 10
-31.1245972922
 20
-13.0233018481
 10
-31.1757364424
 20
-12.9829777633
 10
-31.2253184752
 20
-12.9432147124
 10
-31.2733409382
 20
-12.9040004995
 10
-31.3199116043
 20
-12.8651899016
 10
-31.3650392906
 20
-12.8267995026
 10
-31.4087151224
 20
-12.7888126885
 10
-31.4510203116
 20
-12.7510344271
 10
-31.4919584465
 20
-12.7135059533
 10
-31.531525848
 20
-12.6761859851
 10
-31.5697927806
 20
-12.6387556909
 10
-31.6068315392
 20
-12.6012117577
 10
-31.642569666
 20
-12.5635574137
 10
-31.676860218
 20
-12.5254835989
 10
-31.7098212884
 20
-12.4869799856
 10
-31.7413345023
 20
-12.4480567546
 10
-31.7708980869
 20
-12.4084355422
 10
-31.7986790836
 20
-12.3678597483
 10
-31.8245099322
 20
-12.3265857028
 10
-31.8473868595
 20
-12.2851043862
 10
-31.8671975467
 20
-12.243078637
 10
-31.8840536563
 20
-12.2008452751
 10
-31.8972875896
 20
-12.1599063584
 10
-31.9066768472
 20
-12.1207625904
 10
-31.9124437745
 20
-12.0829131879
 10
-31.9145882671
 20
-12.0463580966
  0
LWPOLYLINE
  5
292
100
AcDbEntity
  8
RACCORDO
100
AcDbPolyline
 62
250
  6
CONTINUOUS
 90
97
 70
0
 10
-22.44822134
 20
-17.320392937
 10
-22.6253142854
 20
-17.2520739784
 10
-22.7174448117
 20
-17.2158971749
 10
-22.8121493256
 20
-17.1782830667
 10
-22.909437568
 20
-17.1392107114
 10
-23.0093235596
 20
-17.0986572479
 10
-23.1120034175
 20
-17.0565251474
 10
-23.2174833846
 20
-17.0127918508
 10
-23.3257774831
 20
-16.9674312732
 10
-23.4371029312
 20
-16.9203311776
 10
-23.5514493245
 20
-16.8714724364
 10
-23.6688391946
 20
-16.8208216384
 10
-23.7895486011
 20
-16.7682343707
 10
-23.9135599516
 20
-16.7136903791
 10
-24.0408811032
 20
-16.6571609266
 10
-24.1718348434
 20
-16.598476861
 10
-24.306398281
 20
-16.5376181595
 10
-24.444550335
 20
-16.4745638125
 10
-24.586620747
 20
-16.4091319354
 10
-24.7324903065
 20
-16.3413414231
 10
-24.8821904237
 20
-16.2711409222
 10
-25.0362779556
 20
-16.1982292795
 10
-25.194614489
 20
-16.1226251371
 10
-25.3571908149
 20
-16.0442846478
 10
-25.5247524679
 20
-15.9627945886
 10
-25.6975589551
 20
-15.8779622256
 10
-25.8751048358
 20
-15.7899668122
 10
-26.0569607705
 20
-15.6989566838
 10
-26.2441793262
 20
-15.6043335885
 10
-26.4353013108
 20
-15.5067652087
 10
-26.6261165931
 20
-15.4083726057
 10
-26.8166276294
 20
-15.3091537819
 10
-27.0063878899
 20
-15.2093361453
 10
-27.1906192962
 20
-15.1114654745
 10
-27.3679937782
 20
-15.016326763
 10
-27.539655713
 20
-14.923380938
 10
-27.7046771486
 20
-14.8331972433
 10
-27.862415509
 20
-14.7462075388
 10
-28.0135244494
 20
-14.6621302911
 10
-28.1590455823
 20
-14.5804464954
 10
-28.2990194502
 20
-14.5011901927
 10
-28.433470143
 20
-14.4244081367
 10
-28.5633692678
 20
-14.3495952528
 10
-28.6888957264
 20
-14.276690953
 10
-28.8099348612
 20
-14.2058037862
 10
-28.9269764724
 20
-14.1366841604
 10
-29.0400706575
 20
-14.0693371674
 10
-29.1492386953
 20
-14.0037843869
 10
-29.2548992853
 20
-13.9398038847
 10
-29.3570883501
 20
-13.8774016514
 10
-29.4558364084
 20
-13.816586629
 10
-29.5515249595
 20
-13.7571469347
 10
-29.6442019311
 20
-13.699074276
 10
-29.7338715814
 20
-13.6423874527
 10
-29.8208220651
 20
-13.5869221071
 10
-29.9050828007
 20
-13.5326761736
 10
-29.9866639402
 20
-13.4796604643
 10
-30.065804622
 20
-13.4277355623
 10
-30.1425269058
 20
-13.3769033668
 10
-30.2168543305
 20
-13.3271653743
 10
-30.2890091521
 20
-13.2783877206
 10
-30.3590025104
 20
-13.2305754151
 10
-30.4268484781
 20
-13.183731385
 10
-30.4927475209
 20
-13.1377277643
 10
-30.5567088314
 20
-13.0925661536
 10
-30.6187243976
 20
-13.0482601924
 10
-30.6789434571
 20
-13.0047095225
 10
-30.7373674364
 20
-12.9619170208
 10
-30.793974104
 20
-12.9199027554
 10
-30.8488558015
 20
-12.8786005298
 10
-30.9019706807
 20
-12.8380427748
 10
-30.9533242629
 20
-12.7982259631
 10
-31.0030536511
 20
-12.7590408012
 10
-31.0511078708
 20
-12.7205215428
 10
-31.0974670627
 20
-12.6826775306
 10
-31.1422747038
 20
-12.6453793671
 10
-31.1854686603
 20
-12.6086615705
 10
-31.2269922227
 20
-12.5725534137
 10
-31.2669594382
 20
-12.5369277721
 10
-31.3052951568
 20
-12.5018157246
 10
-31.3419377337
 20
-12.4672378103
 10
-31.3769703665
 20
-12.433070874
 10
-31.4103705719
 20
-12.3992695836
 10
-31.4419480171
 20
-12.3659615603
 10
-31.4715243493
 20
-12.3332867734
 10
-31.4991753244
 20
-12.3010816654
 10
-31.5246280638
 20
-12.2695826248
 10
-31.5473395445
 20
-12.2394595824
 10
-31.5673923604
 20
-12.2106134113
 10
-31.5847448008
 20
-12.183102433
 10
-31.5990290342
 20
-12.1576815105
 10
-31.6104066736
 20
-12.1344677111
 10
-31.6192673781
 20
-12.1131054127
 10
-31.6258267514
 20
-12.0935462881
 10
-31.6303369833
 20
-12.0757004134
 10
-31.6330645925
 20
-12.0594446931
 10
-31.6342552116
 20
-12.0446803761
  0
LINE
  5
293
100
AcDbEntity
  8
RACCORDO
100
AcDbLine
 62
7
  6
CONTINUOUS
 10
-29.4815276252
 20
-12.474644405
 11
-29.3618117135
 21
-12.5211063685
  0
LWPOLYLINE
  5
294
100
AcDbEntity
  8
RACCORDO
100
AcDbPolyline
 62
250
  6
CONTINUOUS
 90
25
 70
0
 10
-29.5444430391
 20
-12.3638161674
 10
-29.3614173546
 20
-12.4351812095
 10
-29.2661364319
 20
-12.4729910381
 10
-29.1682798214
 20
-12.5122558644
 10
-29.067842591
 20
-12.5529814236
 10
-28.9646041629
 20
-12.5953124619
 10
-28.858569698
 20
-12.6392425817
 10
-28.7497340569
 20
-12.6847781918
 10
-28.6378612153
 20
-12.7320832495
 10
-28.5229653056
 20
-12.7811471323
 10
-28.4050322199
 20
-12.8319804755
 10
-28.2837835776
 20
-12.8847791256
 10
-28.1592252272
 20
-12.9395366848
 10
-28.0313513474
 20
-12.996259565
 10
-27.8998660577
 20
-13.0551628298
 10
-27.7647592895
 20
-13.1162445443
 10
-27.6260411401
 20
-13.1795066582
 10
-27.4834459822
 20
-13.245170064
 10
-27.3370330402
 20
-13.3131971782
 10
-27.1867431185
 20
-13.3836255993
 10
-27.0321329645
 20
-13.4567889955
 10
-26.8732388358
 20
-13.5326540229
 10
-26.7100245004
 20
-13.6112540387
 10
-26.5419379746
 20
-13.6930227643
 10
-26.3685414112
 20
-13.7781671309
  0
LINE
  5
295
100
AcDbEntity
  8
RACCORDO
100
AcDbLine
 62
7
  6
CONTINUOUS
 10
-29.3618117135
 20
-12.5211063685
 11
-29.240519191
 21
-12.5689131
  0
LINE
  5
296
100
AcDbEntity
  8
RACCORDO
100
AcDbLine
 62
7
  6
CONTINUOUS
 10
-29.240519191
 20
-12.5689131
 11
-29.1179859202
 21
-12.6179157694
  0
LINE
  5
297
100
AcDbEntity
  8
RACCORDO
100
AcDbLine
 62
7
  6
CONTINUOUS
 10
-29.1179859202
 20
-12.6179157694
 11
-28.994545576
 21
-12.6679640746
  0
LINE
  5
298
100
AcDbEntity
  8
RACCORDO
100
AcDbLine
 62
7
  6
CONTINUOUS
 10
-28.994545576
 20
-12.6679640746
 11
-28.8704223097
 21
-12.7189477614
  0
LINE
  5
299
100
AcDbEntity
  8
RACCORDO
100
AcDbLine
 62
7
  6
CONTINUOUS
 10
-28.8704223097
 20
-12.7189477614
 11
-28.7459492758
 21
-12.7707088942
  0
LINE
  5
29A
100
AcDbEntity
  8
RACCORDO
100
AcDbLine
 62
7
  6
CONTINUOUS
 10
-28.7459492758
 20
-12.7707088942
 11
-28.6214598089
 21
-12.8230872516
  0
LINE
  5
29B
100
AcDbEntity
  8
RACCORDO
100
AcDbLine
 62
7
  6
CONTINUOUS
 10
-28.6214598089
 20
-12.8230872516
 11
-28.4971702211
 21
-12.8759671205
  0
LINE
  5
29C
100
AcDbEntity
  8
RACCORDO
100
AcDbLine
 62
7
  6
CONTINUOUS
 10
-28.4971702211
 20
-12.8759671205
 11
-28.311793685
 21
-12.9558830266
  0
LWPOLYLINE
  5
29D
100
AcDbEntity
  8
RACCORDO
100
AcDbPolyline
 62
250
  6
CONTINUOUS
 90
13
 70
0
 10
-31.91456344
 20
-12.0463452118
 10
-31.8951274822
 20
-12.0548508186
 10
-31.8736507331
 20
-12.0619826076
 10
-31.8504925943
 20
-12.0676212222
 10
-31.8260406047
 20
-12.071672297
 10
-31.8007039542
 20
-12.0740680239
 10
-31.7749066364
 20
-12.0747682902
 10
-31.7490803541
 20
-12.0737613672
 10
-31.7236572958
 20
-12.0710641005
 10
-31.6990629013
 20
-12.0667216169
 10
-31.6757087439
 20
-12.0608065762
 10
-31.6539856421
 20
-12.0534179551
 10
-31.6342571197
 20
-12.0446793887
  0
LINE
  5
29E
100
AcDbEntity
  8
RACCORDO
100
AcDbLine
 62
7
  6
CONTINUOUS
 10
-28.311793685
 20
-12.9558830266
 11
-28.1280956566
 21
-13.0362617763
  0
LINE
  5
29F
100
AcDbEntity
  8
RACCORDO
100
AcDbLine
 62
7
  6
CONTINUOUS
 10
-28.1280956566
 20
-13.0362617763
 11
-27.946449822
 21
-13.1168534548
  0
LINE
  5
2A0
100
AcDbEntity
  8
RACCORDO
100
AcDbLine
 62
7
  6
CONTINUOUS
 10
-27.946449822
 20
-13.1168534548
 11
-27.7672277897
 21
-13.1974066508
  0
LINE
  5
2A1
100
AcDbEntity
  8
RACCORDO
100
AcDbLine
 62
7
  6
CONTINUOUS
 10
-27.7672277897
 20
-13.1974066508
 11
-27.5908033445
 21
-13.2776710514
  0
LINE
  5
2A2
100
AcDbEntity
  8
RACCORDO
100
AcDbLine
 62
7
  6
CONTINUOUS
 10
-27.5908033445
 20
-13.2776710514
 11
-27.4175464889
 21
-13.3574013498
  0
LINE
  5
2A3
100
AcDbEntity
  8
RACCORDO
100
AcDbLine
 62
7
  6
CONTINUOUS
 10
-27.4175464889
 20
-13.3574013498
 11
-27.2478274714
 21
-13.4363507701
  0
LINE
  5
2A4
100
AcDbEntity
  8
RACCORDO
100
AcDbLine
 62
7
  6
CONTINUOUS
 10
-27.2478274714
 20
-13.4363507701
 11
-27.0818773747
 21
-13.5143411955
  0
LINE
  5
2A5
100
AcDbEntity
  8
RACCORDO
100
AcDbLine
 62
7
  6
CONTINUOUS
 10
-27.0818773747
 20
-13.5143411955
 11
-26.9195522987
 21
-13.5913737611
  0
LINE
  5
2A6
100
AcDbEntity
  8
RACCORDO
100
AcDbLine
 62
7
  6
CONTINUOUS
 10
-26.9195522987
 20
-13.5913737611
 11
-26.7606466156
 21
-13.6674876418
  0
LINE
  5
2A7
100
AcDbEntity
  8
RACCORDO
100
AcDbLine
 62
7
  6
CONTINUOUS
 10
-26.7606466156
 20
-13.6674876418
 11
-26.6049524611
 21
-13.7427333542
  0
LINE
  5
2A8
100
AcDbEntity
  8
RACCORDO
100
AcDbLine
 62
7
  6
CONTINUOUS
 10
-26.6049524611
 20
-13.7427333542
 11
-26.4019923
 21
-13.8418103439
  0
LINE
  5
2A9
100
AcDbEntity
  8
RACCORDO
100
AcDbLine
 62
7
  6
CONTINUOUS
 10
-26.4019923
 20
-13.8418103439
 11
-26.2038824727
 21
-13.9395925543
  0
LWPOLYLINE
  5
2AA
100
AcDbEntity
  8
RACCORDO
100
AcDbPolyline
 62
250
  6
CONTINUOUS
 90
67
 70
0
 10
-26.3685414112
 20
-13.7781671309
 10
-26.1902726736
 20
-13.8664802157
 10
-26.007893343
 20
-13.9577749585
 10
-25.8201091108
 20
-14.0527487765
 10
-25.6282142791
 20
-14.1507042492
 10
-25.4368533379
 20
-14.2493620562
 10
-25.2458783438
 20
-14.3488875344
 10
-25.0554371996
 20
-14.4491153259
 10
-24.8706181625
 20
-14.5472700669
 10
-24.6927783501
 20
-14.6426803132
 10
-24.5205605923
 20
-14.7360174818
 10
-24.354981727
 20
-14.8265205072
 10
-24.1967399022
 20
-14.9138011129
 10
-24.0451369265
 20
-14.9982475529
 10
-23.8990951435
 20
-15.0802635655
 10
-23.7586014729
 20
-15.1598365945
 10
-23.6236689587
 20
-15.2369791773
 10
-23.4932591407
 20
-15.3121326982
 10
-23.3672134443
 20
-15.3853728246
 10
-23.2456904125
 20
-15.4566238727
 10
-23.1281272701
 20
-15.5261002044
 10
-23.0145003451
 20
-15.5938054241
 10
-22.9048332841
 20
-15.6597359142
 10
-22.798634296
 20
-15.7240952066
 10
-22.6958881166
 20
-15.7868837561
 10
-22.596609989
 20
-15.848101097
 10
-22.5003538867
 20
-15.9079493827
 10
-22.4070845506
 20
-15.9664431013
 10
-22.3168372204
 20
-16.0235677547
 10
-22.2292716205
 20
-16.0794820185
 10
-22.1443690831
 20
-16.1341935588
 10
-22.0621482575
 20
-16.1876946999
 10
-21.9823248438
 20
-16.240121105
 10
-21.9048916012
 20
-16.2914732627
 10
-21.8298557525
 20
-16.341750675
 10
-21.7569546935
 20
-16.3910875249
 10
-21.6861753064
 20
-16.4394866243
 10
-21.6175306899
 20
-16.4869451516
 10
-21.5507975637
 20
-16.5335888384
 10
-21.4859529162
 20
-16.5794276147
 10
-21.4230197372
 20
-16.6244515393
 10
-21.3618437443
 20
-16.6687565367
 10
-21.3024016469
 20
-16.7123538109
 10
-21.2447167102
 20
-16.7552321446
 10
-21.1887044819
 20
-16.7974538283
 10
-21.1343752395
 20
-16.8390032203
 10
-21.0817186762
 20
-16.8798959471
 10
-21.030619457
 20
-16.9202411974
 10
-20.9810747993
 20
-16.960026946
 10
-20.9330874464
 20
-16.9992651977
 10
-20.8865503391
 20
-17.0381011807
 10
-20.8414544704
 20
-17.0765183003
 10
-20.7978087897
 20
-17.1145331211
 10
-20.7555331483
 20
-17.1523405978
 10
-20.7146236249
 20
-17.1898995082
 10
-20.6750840499
 20
-17.2272510272
 10
-20.6368458574
 20
-17.264713682
 10
-20.5998367616
 20
-17.3022909214
 10
-20.564128885
 20
-17.3399792117
 10
-20.5298701957
 20
-17.3780865661
 10
-20.4969422047
 20
-17.4166227665
 10
-20.465463119
 20
-17.4555778842
 10
-20.4359358234
 20
-17.4952302999
 10
-20.4081928802
 20
-17.5358374705
 10
-20.3824012078
 20
-17.5771416687
 10
-20.3595651271
 20
-17.6186484481
 10
-20.339798041
 20
-17.6606960976
  0
LINE
  5
2AB
100
AcDbEntity
  8
RACCORDO
100
AcDbLine
 62
7
  6
CONTINUOUS
 10
-26.2038824727
 20
-13.9395925543
 11
-26.0101107266
 21
-14.0362583299
  0
LINE
  5
2AC
100
AcDbEntity
  8
RACCORDO
100
AcDbLine
 62
7
  6
CONTINUOUS
 10
-26.0101107266
 20
-14.0362583299
 11
-25.8203294668
 21
-14.1319156078
  0
LINE
  5
2AD
100
AcDbEntity
  8
RACCORDO
100
AcDbLine
 62
7
  6
CONTINUOUS
 10
-25.8203294668
 20
-14.1319156078
 11
-25.6344165399
 21
-14.2265667546
  0
LINE
  5
2AE
100
AcDbEntity
  8
RACCORDO
100
AcDbLine
 62
7
  6
CONTINUOUS
 10
-25.6344165399
 20
-14.2265667546
 11
-25.452268592
 21
-14.3202089809
  0
LINE
  5
2AF
100
AcDbEntity
  8
RACCORDO
100
AcDbLine
 62
7
  6
CONTINUOUS
 10
-25.452268592
 20
-14.3202089809
 11
-25.2737871853
 21
-14.4128402182
  0
LINE
  5
2B0
100
AcDbEntity
  8
RACCORDO
100
AcDbLine
 62
7
  6
CONTINUOUS
 10
-25.2737871853
 20
-14.4128402182
 11
-25.0988756081
 21
-14.50446557
  0
LINE
  5
2B1
100
AcDbEntity
  8
RACCORDO
100
AcDbLine
 62
7
  6
CONTINUOUS
 10
-25.0988756081
 20
-14.50446557
 11
-24.927430077
 21
-14.5951016173
  0
LINE
  5
2B2
100
AcDbEntity
  8
RACCORDO
100
AcDbLine
 62
7
  6
CONTINUOUS
 10
-24.927430077
 20
-14.5951016173
 11
-24.7593507149
 21
-14.6847647184
  0
LINE
  5
2B3
100
AcDbEntity
  8
RACCORDO
100
AcDbLine
 62
7
  6
CONTINUOUS
 10
-24.7593507149
 20
-14.6847647184
 11
-24.5945378867
 21
-14.7734753335
  0
LWPOLYLINE
  5
2B4
100
AcDbEntity
  8
RACCORDO
100
AcDbPolyline
 62
250
  6
CONTINUOUS
 90
62
 70
0
 10
-27.5733607175
 20
-11.6349606312
 10
-27.747259694
 20
-11.5406894861
 10
-27.9134935925
 20
-11.4497137252
 10
-28.0729452514
 20
-11.361559227
 10
-28.2262898018
 20
-11.276066976
 10
-28.3733372656
 20
-11.1933618206
 10
-28.5142775814
 20
-11.1133188923
 10
-28.6503557668
 20
-11.0354046063
 10
-28.7817679418
 20
-10.9595251618
 10
-28.9083179517
 20
-10.8857743419
 10
-29.0306624114
 20
-10.813899942
 10
-29.1488455883
 20
-10.7438879629
 10
-29.2628231872
 20
-10.6757523897
 10
-29.3731189865
 20
-10.6092829978
 10
-29.4797478501
 20
-10.5444805341
 10
-29.5826948916
 20
-10.4813442402
 10
-29.6824392685
 20
-10.4196616367
 10
-29.7790143227
 20
-10.3594203316
 10
-29.8723866923
 20
-10.3006327067
 10
-29.9629354819
 20
-10.2431234441
 10
-30.0506860082
 20
-10.1868823633
 10
-30.1356129357
 20
-10.1319196352
 10
-30.2180193918
 20
-10.0780904695
 10
-30.2979135618
 20
-10.0253944375
 10
-30.3752872421
 20
-9.9738319585
 10
-30.4504189775
 20
-9.9232595149
 10
-30.5233218658
 20
-9.8736745524
 10
-30.5939827897
 20
-9.8250796153
 10
-30.6626409696
 20
-9.7773388321
 10
-30.7293175975
 20
-9.7304436447
 10
-30.7939914588
 20
-9.6844025997
 10
-30.8568381608
 20
-9.639105481
 10
-30.9178829525
 20
-9.5945385086
 10
-30.9771005577
 20
-9.5507154486
 10
-31.0345907924
 20
-9.5075674025
 10
-31.0903487777
 20
-9.4651053998
 10
-31.1443793617
 20
-9.4233183952
 10
-31.1967969452
 20
-9.3821043747
 10
-31.2476008415
 20
-9.341477695
 10
-31.2967916975
 20
-9.3014239792
 10
-31.3444859023
 20
-9.261798106
 10
-31.3906953308
 20
-9.2226156464
 10
-31.4354080507
 20
-9.1838610002
 10
-31.4787047171
 20
-9.1453422777
 10
-31.5205885508
 20
-9.1071024286
 10
-31.5610562412
 20
-9.0690984575
 10
-31.6001786015
 20
-9.0310095337
 10
-31.6380234449
 20
-8.9928385517
 10
-31.6745227966
 20
-8.9545825345
 10
-31.709543708
 20
-8.9159118036
 10
-31.743207852
 20
-8.8768176686
 10
-31.7753932725
 20
-8.8373086752
 10
-31.8056014458
 20
-8.7970809317
 10
-31.8340087763
 20
-8.7558849346
 10
-31.8604383331
 20
-8.7139699183
 10
-31.8838614774
 20
-8.6717800416
 10
-31.9041757889
 20
-8.6290096735
 10
-31.9214830016
 20
-8.5859640946
 10
-31.9350608673
 20
-8.544003912
 10
-31.9446686189
 20
-8.5035826525
 10
-31.9505467531
 20
-8.4642466516
 10
-31.9526951074
 20
-8.4259958268
  0
LINE
  5
2B5
100
AcDbEntity
  8
RACCORDO
100
AcDbLine
 62
7
  6
CONTINUOUS
 10
-24.5945378867
 20
-14.7734753335
 11
-24.4328860985
 21
-14.8612649586
  0
LINE
  5
2B6
100
AcDbEntity
  8
RACCORDO
100
AcDbLine
 62
7
  6
CONTINUOUS
 10
-24.4328860985
 20
-14.8612649586
 11
-24.274293315
 21
-14.9481648635
  0
LINE
  5
2B7
100
AcDbEntity
  8
RACCORDO
100
AcDbLine
 62
7
  6
CONTINUOUS
 10
-24.274293315
 20
-14.9481648635
 11
-24.1186587018
 21
-15.0342078324
  0
LWPOLYLINE
  5
2B8
100
AcDbEntity
  8
DRAFT
100
AcDbPolyline
 62
7
  6
CONTINUOUS
 90
3
 70
0
 10
-27.40161535
 20
-10.9749173923
 10
-27.8240947148
 20
-10.7388651029
 10
-28.2333161952
 20
-10.5040710718
  0
LINE
  5
2B9
100
AcDbEntity
  8
RACCORDO
100
AcDbLine
 62
7
  6
CONTINUOUS
 10
-24.1186587018
 20
-15.0342078324
 11
-23.9658765603
 21
-15.1194364184
  0
LINE
  5
2BA
100
AcDbEntity
  8
RACCORDO
100
AcDbLine
 62
7
  6
CONTINUOUS
 10
-23.9658765603
 20
-15.1194364184
 11
-23.8158442979
 21
-15.2038932253
  0
LINE
  5
2BB
100
AcDbEntity
  8
RACCORDO
100
AcDbLine
 62
7
  6
CONTINUOUS
 10
-23.8158442979
 20
-15.2038932253
 11
-23.6684599532
 21
-15.2876213414
  0
LINE
  5
2BC
100
AcDbEntity
  8
RACCORDO
100
AcDbLine
 62
7
  6
CONTINUOUS
 10
-23.6684599532
 20
-15.2876213414
 11
-23.5236200797
 21
-15.370668015
  0
LINE
  5
2BD
100
AcDbEntity
  8
RACCORDO
100
AcDbLine
 62
7
  6
CONTINUOUS
 10
-23.5236200797
 20
-15.370668015
 11
-23.3812296523
 21
-15.4530765198
  0
LINE
  5
2BE
100
AcDbEntity
  8
RACCORDO
100
AcDbLine
 62
7
  6
CONTINUOUS
 10
-23.3812296523
 20
-15.4530765198
 11
-23.241196355
 21
-15.5348921411
  0
LINE
  5
2BF
100
AcDbEntity
  8
RACCORDO
100
AcDbLine
 62
7
  6
CONTINUOUS
 10
-23.241196355
 20
-15.5348921411
 11
-23.1034233487
 21
-15.6161703013
  0
LINE
  5
2C0
100
AcDbEntity
  8
RACCORDO
100
AcDbLine
 62
7
  6
CONTINUOUS
 10
-23.1034233487
 20
-15.6161703013
 11
-22.9678178079
 21
-15.6969650774
  0
LINE
  5
2C1
100
AcDbEntity
  8
RACCORDO
100
AcDbLine
 62
7
  6
CONTINUOUS
 10
-22.9678178079
 20
-15.6969650774
 11
-22.8342903854
 21
-15.7773355815
  0
LINE
  5
2C2
100
AcDbEntity
  8
RACCORDO
100
AcDbLine
 62
7
  6
CONTINUOUS
 10
-22.0325215076
 20
-12.6792232884
 11
-21.9421102466
 21
-12.7389460707
  0
LINE
  5
2C3
100
AcDbEntity
  8
RACCORDO
100
AcDbLine
 62
7
  6
CONTINUOUS
 10
-21.9421102466
 20
-12.7389460707
 11
-21.8528527258
 21
-12.798596753
  0
LINE
  5
2C4
100
AcDbEntity
  8
RACCORDO
100
AcDbLine
 62
7
  6
CONTINUOUS
 10
-21.8528527258
 20
-12.798596753
 11
-21.7647778703
 21
-12.8581838073
  0
LINE
  5
2C5
100
AcDbEntity
  8
RACCORDO
100
AcDbLine
 62
7
  6
CONTINUOUS
 10
-21.7647778703
 20
-12.8581838073
 11
-21.6779189663
 21
-12.9177128488
  0
LINE
  5
2C6
100
AcDbEntity
  8
RACCORDO
100
AcDbLine
 62
7
  6
CONTINUOUS
 10
-21.6779189663
 20
-12.9177128488
 11
-21.6207067592
 21
-12.9573735234
  0
LINE
  5
2C7
100
AcDbEntity
  8
RACCORDO
100
AcDbLine
 62
7
  6
CONTINUOUS
 10
-21.6207067592
 20
-12.9573735234
 11
-21.5640606435
 21
-12.9970200477
  0
LINE
  5
2C8
100
AcDbEntity
  8
RACCORDO
100
AcDbLine
 62
7
  6
CONTINUOUS
 10
-21.5640606435
 20
-12.9970200477
 11
-21.5079926882
 21
-13.036655685
  0
LINE
  5
2C9
100
AcDbEntity
  8
RACCORDO
100
AcDbLine
 62
7
  6
CONTINUOUS
 10
-21.5079926882
 20
-13.036655685
 11
-21.4525173184
 21
-13.0762867987
  0
LINE
  5
2CA
100
AcDbEntity
  8
RACCORDO
100
AcDbLine
 62
7
  6
CONTINUOUS
 10
-21.4525173184
 20
-13.0762867987
 11
-21.3976457051
 21
-13.1159232128
  0
LINE
  5
2CB
100
AcDbEntity
  8
RACCORDO
100
AcDbLine
 62
7
  6
CONTINUOUS
 10
-21.3976457051
 20
-13.1159232128
 11
-21.343389112
 21
-13.1555735037
  0
LINE
  5
2CC
100
AcDbEntity
  8
RACCORDO
100
AcDbLine
 62
7
  6
CONTINUOUS
 10
-21.343389112
 20
-13.1555735037
 11
-21.2897688903
 21
-13.1952419239
  0
LINE
  5
2CD
100
AcDbEntity
  8
RACCORDO
100
AcDbLine
 62
7
  6
CONTINUOUS
 10
-21.2897688903
 20
-13.1952419239
 11
-21.236809569
 21
-13.234934709
  0
LINE
  5
2CE
100
AcDbEntity
  8
RACCORDO
100
AcDbLine
 62
7
  6
CONTINUOUS
 10
-21.236809569
 20
-13.234934709
 11
-21.1845511996
 21
-13.2746447054
  0
LINE
  5
2CF
100
AcDbEntity
  8
RACCORDO
100
AcDbLine
 62
7
  6
CONTINUOUS
 10
-21.1845511996
 20
-13.2746447054
 11
-21.1330465234
 21
-13.3143566856
  0
LINE
  5
2D0
100
AcDbEntity
  8
RACCORDO
100
AcDbLine
 62
7
  6
CONTINUOUS
 10
-21.1330465234
 20
-13.3143566856
 11
-21.0823362446
 21
-13.3540740554
  0
LWPOLYLINE
  5
2D1
100
AcDbEntity
  8
RACCORDO
100
AcDbPolyline
 62
7
  6
CONTINUOUS
 90
40
 70
0
 10
-21.0823362446
 20
-13.3540740554
 10
-21.0324715002
 20
-13.3937908514
 10
-21.0078759269
 20
-13.4136437055
 10
-20.9835129653
 20
-13.4334941541
 10
-20.959386431
 20
-13.4533457908
 10
-20.9355153246
 20
-13.4731893991
 10
-20.9119051424
 20
-13.4930265184
 10
-20.8885568463
 20
-13.5128623847
 10
-20.8654831063
 20
-13.532693533
 10
-20.8426989929
 20
-13.5525177372
 10
-20.8202014706
 20
-13.5723490835
 10
-20.7979779993
 20
-13.5922107893
 10
-20.7760346135
 20
-13.612110365
 10
-20.7543793914
 20
-13.6320539475
 10
-20.7330049678
 20
-13.6520641811
 10
-20.7119215918
 20
-13.6721506446
 10
-20.6911427725
 20
-13.6923218851
 10
-20.6706692938
 20
-13.7126015262
 10
-20.6505156272
 20
-13.7330032143
 10
-20.6307014472
 20
-13.7535376046
 10
-20.6112410258
 20
-13.7742232642
 10
-20.5921678075
 20
-13.795066788
 10
-20.5735105155
 20
-13.8160903767
 10
-20.5552878606
 20
-13.8373419592
 10
-20.5375668218
 20
-13.8588103044
 10
-20.5203670632
 20
-13.8804916073
 10
-20.5036730403
 20
-13.9024659641
 10
-20.4875984541
 20
-13.9247213541
 10
-20.472279378
 20
-13.9473027728
 10
-20.4577739663
 20
-13.9703356687
 10
-20.4441441435
 20
-13.9937401151
 10
-20.4315451273
 20
-14.0173274589
 10
-20.420201731
 20
-14.0408819881
 10
-20.4103053951
 20
-14.0644057431
 10
-20.4021832704
 20
-14.0874493979
 10
-20.3960965258
 20
-14.1089702771
 10
-20.3919694054
 20
-14.1278821875
 10
-20.389342965
 20
-14.1446949241
 10
-20.3880404243
 20
-14.1605448136
 10
-20.3879046099
 20
-14.1668487875
  0
LWPOLYLINE
  5
2D2
100
AcDbEntity
  8
RACCORDO
100
AcDbPolyline
 62
250
  6
CONTINUOUS
 90
4
 70
0
 10
-20.3777954852
 20
-14.0346163419
 10
-20.3605173463
 20
-14.0776792476
 10
-20.3469650611
 20
-14.1196507448
 10
-20.3373787536
 20
-14.1600760753
  0
LWPOLYLINE
  5
2D3
100
AcDbEntity
  8
RACCORDO
100
AcDbPolyline
 62
250
  6
CONTINUOUS
 90
4
 70
0
 10
-20.339798041
 20
-17.6606960976
 10
-20.3229858905
 20
-17.7029459868
 10
-20.309792009
 20
-17.7438883964
 10
-20.3004375434
 20
-17.783020105
  0
LWPOLYLINE
  5
2D4
100
AcDbEntity
  8
DRAFT
100
AcDbPolyline
 62
7
  6
CONTINUOUS
 90
18
 70
0
 10
-22.5871775924
 20
17.3094281409
 10
-22.5843402011
 20
17.2810707938
 10
-22.5828663822
 20
17.2534609425
 10
-22.5827561357
 20
17.226598587
 10
-22.5840193438
 20
17.2003965578
 10
-22.5866461242
 20
17.1749420244
 10
-22.59060683
 20
17.1504964957
 10
-22.5959171538
 20
17.1270574025
 10
-22.6025614029
 20
17.104627314
 10
-22.6104628523
 20
17.0834754463
 10
-22.6196358562
 20
17.0636201672
 10
-22.6300660604
 20
17.0450431089
 10
-22.641633677
 20
17.0279583836
 10
-22.654352238
 20
17.0123829253
 10
-22.6682082114
 20
16.9982998
 10
-22.6830412126
 20
16.9858723175
 10
-22.6988626061
 20
16.9751199855
 10
-22.7125856911
 20
16.9675279276
  0
LINE
  5
2D5
100
AcDbEntity
  8
RACCORDO
100
AcDbLine
 62
250
  6
CONTINUOUS
 10
-20.2947011976
 20
-17.8208442558
 11
-20.2925828693
 21
-17.8573607955
  0
LINE
  5
2D6
100
AcDbEntity
  8
RACCORDO
100
AcDbLine
 62
250
  6
CONTINUOUS
 10
-20.3315180308
 20
-14.1994098595
 11
-20.3293827313
 21
-14.2376520149
  0
LINE
  5
2D7
100
AcDbEntity
  8
RACCORDO
100
AcDbLine
 62
250
  6
CONTINUOUS
 10
-20.3436184482
 20
-10.5666634648
 11
-20.3416484856
 21
-10.6052405056
  0
LINE
  5
2D8
100
AcDbEntity
  8
RACCORDO
100
AcDbLine
 62
250
  6
CONTINUOUS
 10
-20.3310147204
 20
-6.9216186059
 11
-20.3293827313
 21
-6.9601276133
  0
LINE
  5
2D9
100
AcDbEntity
  8
RACCORDO
100
AcDbLine
 62
250
  6
CONTINUOUS
 10
-20.2937373592
 20
-3.2652618997
 11
-20.2925828693
 21
-3.3023119924
  0
LINE
  5
2DA
100
AcDbEntity
  8
RACCORDO
100
AcDbLine
 62
7
  6
CONTINUOUS
 10
-20.4001912664
 20
-10.534643532
 11
-20.4001914619
 21
-10.5345446218
  0
LINE
  5
2DB
100
AcDbEntity
  8
DRAFT
100
AcDbLine
 62
7
  6
CONTINUOUS
 10
-21.5573284103
 20
16.1190829228
 11
-21.5573284103
 21
17.071710867
  0
LWPOLYLINE
  5
2DC
100
AcDbEntity
  8
RACCORDO
100
AcDbPolyline
 62
250
  6
CONTINUOUS
 90
51
 70
0
 10
-20.2925828693
 20
-17.8573607955
 10
-20.2930085827
 20
-17.8845414406
 10
-20.2958723334
 20
-17.9106838436
 10
-20.3011740922
 20
-17.9357879891
 10
-20.3089392326
 20
-17.9601674396
 10
-20.3191422863
 20
-17.9835085831
 10
-20.3317071219
 20
-18.0048707263
 10
-20.3467971155
 20
-18.0239858548
 10
-20.3642491624
 20
-18.0411221242
 10
-20.3834976288
 20
-18.0561432105
 10
-20.4044972518
 20
-18.0688583576
 10
-20.4272936529
 20
-18.0794585082
 10
-20.451457546
 20
-18.0883798985
 10
-20.4769193516
 20
-18.0956406771
 10
-20.5037488878
 20
-18.1012228197
 10
-20.531725898
 20
-18.1055082675
 10
-20.5607942861
 20
-18.1085433019
 10
-20.5910102976
 20
-18.1102817194
 10
-20.6223221322
 20
-18.1109667049
 10
-20.6547010812
 20
-18.1106314542
 10
-20.6881759468
 20
-18.1092428201
 10
-20.7227811571
 20
-18.1069444529
 10
-20.7585097507
 20
-18.1037595213
 10
-20.7953687472
 20
-18.099664887
 10
-20.8334135225
 20
-18.0947347265
 10
-20.8726394834
 20
-18.0889840602
 10
-20.9130512617
 20
-18.082397888
 10
-20.9547180568
 20
-18.0750053484
 10
-20.9976284622
 20
-18.0668184565
 10
-21.0417939118
 20
-18.0578252115
 10
-21.0873178568
 20
-18.0480187235
 10
-21.1342102005
 20
-18.0374028518
 10
-21.1824610594
 20
-18.0259737472
 10
-21.2321441995
 20
-18.0137129547
 10
-21.2832588052
 20
-18.0006242846
 10
-21.335805709
 20
-17.9867039352
 10
-21.3898611471
 20
-17.9719220316
 10
-21.4454136442
 20
-17.9562848911
 10
-21.5024746908
 20
-17.9397862043
 10
-21.5611549714
 20
-17.9223771558
 10
-21.62144786
 20
-17.9040629165
 10
-21.6833599964
 20
-17.8848383227
 10
-21.7470219626
 20
-17.8646390571
 10
-21.8124274071
 20
-17.8434701543
 10
-21.8795826948
 20
-17.8213265866
 10
-21.9486374821
 20
-17.7981289435
 10
-22.01959527
 20
-17.7738777245
 10
-22.092452571
 20
-17.7485724372
 10
-22.1673485606
 20
-17.7221321844
 10
-22.2442787929
 20
-17.6945596375
 10
-22.3232477283
 20
-17.6658521328
  0
LWPOLYLINE
  5
2DD
100
AcDbEntity
  8
RACCORDO
100
AcDbPolyline
 62
7
  6
CONTINUOUS
 90
6
 70
0
 10
-20.3511470058
 20
-17.7864937037
 10
-20.3513341592
 20
-17.7964443553
 10
-20.3522998834
 20
-17.8061764227
 10
-20.35359631
 20
-17.8129573984
 10
-20.3547022561
 20
-17.8166860322
 10
-20.3549258181
 20
-17.8172288417
  0
LWPOLYLINE
  5
2DE
100
AcDbEntity
  8
RACCORDO
100
AcDbPolyline
 62
250
  6
CONTINUOUS
 90
87
 70
0
 10
-20.3293827313
 20
-14.2376520149
 10
-20.3300604719
 20
-14.2660484511
 10
-20.3333631021
 20
-14.2932758178
 10
-20.3392905977
 20
-14.3193341027
 10
-20.3478881829
 20
-14.344557303
 10
-20.359110545
 20
-14.3686113759
 10
-20.3728220353
 20
-14.390494341
 10
-20.3891919814
 20
-14.409895745
 10
-20.4080513789
 20
-14.427126206
 10
-20.4287573153
 20
-14.4421154697
 10
-20.4512449117
 20
-14.4546718944
 10
-20.4755794395
 20
-14.4649873222
 10
-20.5013132195
 20
-14.4735667292
 10
-20.5283676373
 20
-14.48044454
 10
-20.5568215567
 20
-14.4855864574
 10
-20.5864634368
 20
-14.4893943342
 10
-20.617235015
 20
-14.4919182581
 10
-20.6491947076
 20
-14.49310822
 10
-20.6823059318
 20
-14.4932158968
 10
-20.7165433707
 20
-14.4922771048
 10
-20.7519324353
 20
-14.4902560758
 10
-20.7885125942
 20
-14.4872970898
 10
-20.8262779274
 20
-14.4834242961
 10
-20.8652344133
 20
-14.4786135751
 10
-20.9054393443
 20
-14.4729367907
 10
-20.9468846987
 20
-14.466411198
 10
-20.9895785372
 20
-14.4590195618
 10
-21.0336022621
 20
-14.4507820027
 10
-21.0789471241
 20
-14.4417099732
 10
-21.1256219004
 20
-14.4317920352
 10
-21.1737342753
 20
-14.4210139687
 10
-21.2232954498
 20
-14.4093790234
 10
-21.2742942438
 20
-14.3968839604
 10
-21.3268047658
 20
-14.3835048247
 10
-21.3808188353
 20
-14.3692466937
 10
-21.4363446515
 20
-14.3541044997
 10
-21.4934808904
 20
-14.3380390697
 10
-21.552218201
 20
-14.3210557147
 10
-21.612565951
 20
-14.3031491324
 10
-21.6746508936
 20
-14.2842642293
 10
-21.7384660402
 20
-14.264406664
 10
-21.8040183946
 20
-14.2435707856
 10
-21.8714556973
 20
-14.2216845371
 10
-21.9407757929
 20
-14.1987515888
 10
-22.0119808514
 20
-14.1747682776
 10
-22.0852251016
 20
-14.1496515464
 10
-22.1605120507
 20
-14.1234019167
 10
-22.2378382065
 20
-14.0960188745
 10
-22.3173472996
 20
-14.0674178093
 10
-22.3990292251
 20
-14.0376048196
 10
-22.4828941041
 20
-14.0065738151
 10
-22.5691160083
 20
-13.9742219035
 10
-22.6576844673
 20
-13.9405564443
 10
-22.7486099688
 20
-13.9055700869
 10
-22.8420980237
 20
-13.869137875
 10
-22.9381415226
 20
-13.8312664812
 10
-23.036747594
 20
-13.7919492427
 10
-23.138143109
 20
-13.7510412016
 10
-23.2423247707
 20
-13.7085480785
 10
-23.3492958976
 20
-13.664464164
 10
-23.4592932875
 20
-13.6186273563
 10
-23.5723056089
 20
-13.57104743
 10
-23.6883442182
 20
-13.5217146233
 10
-23.8076799495
 20
-13.4704375324
 10
-23.9302994098
 20
-13.4172260695
 10
-24.05621602
 20
-13.3620703368
 10
-24.1857408406
 20
-13.304749218
 10
-24.3188816821
 20
-13.2452645333
 10
-24.4556307639
 20
-13.1836144781
 10
-24.5962757652
 20
-13.1195725015
 10
-24.740799765
 20
-13.0531552674
 10
-24.8892197151
 20
-12.9843461279
 10
-25.041874108
 20
-12.912868567
 10
-25.1986481242
 20
-12.8387919672
 10
-25.359656612
 20
-12.7620469609
 10
-25.5255825707
 20
-12.6821489089
 10
-25.6967251652
 20
-12.5989673112
 10
-25.872785252
 20
-12.5126326787
 10
-26.0535483688
 20
-12.4230518895
 10
-26.2400271762
 20
-12.3296942022
 10
-26.4312090171
 20
-12.2330903599
 10
-26.623841446
 20
-12.1347394641
 10
-26.8189267028
 20
-12.0340395123
 10
-27.015462516
 20
-11.9315924907
 10
-27.2071896669
 20
-11.8307034812
 10
-27.3926795503
 20
-11.732053064
 10
-27.5733607175
 20
-11.6349606312
  0
LWPOLYLINE
  5
2DF
100
AcDbEntity
  8
RACCORDO
100
AcDbPolyline
 62
7
  6
CONTINUOUS
 90
7
 70
0
 10
-20.3879438877
 20
-14.1668781334
 10
-20.3882050921
 20
-14.1770525632
 10
-20.3892748477
 20
-14.1870500959
 10
-20.3906825907
 20
-14.1940975587
 10
-20.3918892631
 20
-14.1980704802
 10
-20.3925360117
 20
-14.1996209666
 10
-20.3925621615
 20
-14.1996734386
  0
LWPOLYLINE
  5
2E0
100
AcDbEntity
  8
RACCORDO
100
AcDbPolyline
 62
7
  6
CONTINUOUS
 90
7
 70
0
 10
-20.4001912664
 20
-10.534643532
 10
-20.4005564556
 20
-10.5457888248
 10
-20.4017316723
 20
-10.5555271122
 10
-20.4032758045
 20
-10.5625150938
 10
-20.4045794659
 20
-10.5666369674
 10
-20.4053391264
 20
-10.5684935801
 10
-20.4055202538
 20
-10.5688670102
  0
LWPOLYLINE
  5
2E1
100
AcDbEntity
  8
RACCORDO
100
AcDbPolyline
 62
250
  6
CONTINUOUS
 90
87
 70
0
 10
-20.3293827313
 20
-6.9601276133
 10
-20.3304504621
 20
-6.9887237668
 10
-20.3341446041
 20
-7.0161532305
 10
-20.340465133
 20
-7.0424159924
 10
-20.3494619398
 20
-7.0678486273
 10
-20.3610850446
 20
-7.0921145166
 10
-20.3751847976
 20
-7.1142039461
 10
-20.3919274975
 20
-7.1338051133
 10
-20.4111471685
 20
-7.1512299788
 10
-20.4321959834
 20
-7.1664045886
 10
-20.4550060342
 20
-7.179135465
 10
-20.4796456213
 20
-7.189616278
 10
-20.5056712382
 20
-7.1983537995
 10
-20.5330042732
 20
-7.2053824981
 10
-20.5617235873
 20
-7.2106680274
 10
-20.5916218042
 20
-7.2146138984
 10
-20.6226411691
 20
-7.2172702602
 10
-20.6548395906
 20
-7.2185870391
 10
-20.6881831276
 20
-7.2188173816
 10
-20.7226468174
 20
-7.217997124
 10
-20.7582557168
 20
-7.2160904761
 10
-20.7950508735
 20
-7.2132431248
 10
-20.8330265516
 20
-7.2094793626
 10
-20.8721885455
 20
-7.2047749256
 10
-20.912595174
 20
-7.1992026547
 10
-20.9542385259
 20
-7.1927799369
 10
-20.9971265514
 20
-7.1854894043
 10
-21.0413413485
 20
-7.1773517584
 10
-21.0868741986
 20
-7.1683785348
 10
-21.1337338482
 20
-7.1585582117
 10
-21.1820285846
 20
-7.1478769
 10
-21.231769602
 20
-7.1363379633
 10
-21.2829457271
 20
-7.1239380484
 10
-21.3356316905
 20
-7.1106531893
 10
-21.3898193405
 20
-7.0964884801
 10
-21.4455168477
 20
-7.081438836
 10
-21.5028234251
 20
-7.0654650219
 10
-21.5617298379
 20
-7.0485723206
 10
-21.6222453376
 20
-7.0307554577
 10
-21.6844968649
 20
-7.011959361
 10
-21.7484775126
 20
-6.9921896884
 10
-21.8141942029
 20
-6.9714407896
 10
-21.8817946205
 20
-6.9496406289
 10
-21.9512766292
 20
-6.9267928987
 10
-22.0226423796
 20
-6.9028939139
 10
-22.0960459865
 20
-6.8778605733
 10
-22.171490988
 20
-6.8516934078
 10
-22.2489738608
 20
-6.8243918937
 10
-22.3286381285
 20
-6.7958713489
 10
-22.4104736963
 20
-6.7661378775
 10
-22.4944906751
 20
-6.7351853832
 10
-22.5808628993
 20
-6.7029108831
 10
-22.6695799067
 20
-6.6693217629
 10
-22.7606521769
 20
-6.6344106453
 10
-22.8542849593
 20
-6.5980524043
 10
-22.9504711824
 20
-6.5602537421
 10
-23.0492179369
 20
-6.5210079659
 10
-23.1507517177
 20
-6.480169858
 10
-23.255069291
 20
-6.4377451739
 10
-23.3621739123
 20
-6.3937281689
 10
-23.4723018138
 20
-6.3479563767
 10
-23.5854417144
 20
-6.3004396138
 10
-23.70160492
 20
-6.2511680759
 10
-23.8210615482
 20
-6.199949869
 10
-23.9437982511
 20
-6.1467949121
 10
-24.0698284044
 20
-6.0916932999
 10
-24.1994622163
 20
-6.0344234037
 10
-24.3327075923
 20
-5.9749870603
 10
-24.4695566569
 20
-5.9133824478
 10
-24.6102959515
 20
-5.8493824521
 10
-24.7549086463
 20
-5.7830038153
 10
-24.903411602
 20
-5.7142298104
 10
-25.0561418997
 20
-5.6427831218
 10
-25.2129847919
 20
-5.5687332859
 10
-25.374055055
 20
-5.4920107805
 10
-25.5400340611
 20
-5.4121297036
 10
-25.7112215949
 20
-5.3289595398
 10
-25.8873178933
 20
-5.2426308151
 10
-26.0681050064
 20
-5.1530491904
 10
-26.2545957701
 20
-5.0596834097
 10
-26.4457773521
 20
-4.9630647307
 10
-26.6383932944
 20
-4.8646925817
 10
-26.8334437502
 20
-4.7639645579
 10
-27.0299285349
 20
-4.6614830485
 10
-27.2215906779
 20
-4.5605546706
 10
-27.4070005044
 20
-4.4618601373
 10
-27.5875876353
 20
-4.3647187088
  0
LWPOLYLINE
  5
2E2
100
AcDbEntity
  8
RACCORDO
100
AcDbPolyline
 62
7
  6
CONTINUOUS
 90
12
 70
0
 10
-20.3879446354
 20
-6.8895598769
 10
-20.3883616446
 20
-6.9000745661
 10
-20.3896298997
 20
-6.9104648289
 10
-20.3912437705
 20
-6.9179235742
 10
-20.3926694613
 20
-6.9223307294
 10
-20.3935593219
 20
-6.9243382082
 10
-20.3941090679
 20
-6.9252926094
 10
-20.3943590126
 20
-6.925625506
 10
-20.3949015692
 20
-6.9261119436
 10
-20.3964997726
 20
-6.9272336337
 10
-20.3991677277
 20
-6.9287891039
 10
-20.399962988
 20
-6.9292106784
  0
LINE
  5
2E3
100
AcDbEntity
  8
RACCORDO
100
AcDbLine
 62
250
  6
CONTINUOUS
 10
-20.2925828693
 20
-3.3023119924
 11
-20.2937575157
 21
-3.3298777982
  0
LWPOLYLINE
  5
2E4
100
AcDbEntity
  8
RACCORDO
100
AcDbPolyline
 62
7
  6
CONTINUOUS
 90
13
 70
0
 10
-20.3511485074
 20
-3.2318576206
 10
-20.3516455826
 20
-3.2424852396
 10
-20.3530055677
 20
-3.2530000871
 10
-20.3547132646
 20
-3.260602972
 10
-20.356257445
 20
-3.2652006672
 10
-20.3572832607
 20
-3.2674257077
 10
-20.357971394
 20
-3.2685824314
 10
-20.3583449142
 20
-3.2690752211
 10
-20.3584647695
 20
-3.2692157518
 10
-20.3592426251
 20
-3.2698968928
 10
-20.3611987821
 20
-3.2712605751
 10
-20.3643049069
 20
-3.2730643015
 10
-20.3648119845
 20
-3.2733329536
  0
LWPOLYLINE
  5
2E5
100
AcDbEntity
  8
RACCORDO
100
AcDbPolyline
 62
250
  6
CONTINUOUS
 90
51
 70
0
 10
-20.2937575157
 20
-3.3298777982
 10
-20.2973746236
 20
-3.356410221
 10
-20.3034341635
 20
-3.3819092465
 10
-20.3119701713
 20
-3.4066931575
 10
-20.3229485155
 20
-3.4304436252
 10
-20.3362670764
 20
-3.4522057949
 10
-20.3520841715
 20
-3.4717094438
 10
-20.370241754
 20
-3.4892249244
 10
-20.3901633762
 20
-3.5046083497
 10
-20.4117979448
 20
-3.5176654938
 10
-20.4351969117
 20
-3.5285907546
 10
-20.4599376692
 20
-3.5378231919
 10
-20.4859502376
 20
-3.5453808214
 10
-20.5133048352
 20
-3.5512457419
 10
-20.5417890837
 20
-3.5558031058
 10
-20.5713477965
 20
-3.5590994168
 10
-20.6020363097
 20
-3.5610882429
 10
-20.6338079737
 20
-3.5620153064
 10
-20.6666347568
 20
-3.5619137672
 10
-20.7005447844
 20
-3.5607505104
 10
-20.7355756051
 20
-3.5586718271
 10
-20.7717206192
 20
-3.5557011214
 10
-20.808986485
 20
-3.5518150173
 10
-20.8474306137
 20
-3.5470896248
 10
-20.8870485395
 20
-3.5415402003
 10
-20.9278447673
 20
-3.5351515061
 10
-20.9698901505
 20
-3.5279539037
 10
-21.0131733902
 20
-3.5199595542
 10
-21.057705813
 20
-3.5111563098
 10
-21.1035922022
 20
-3.5015380648
 10
-21.1508424454
 20
-3.4911088961
 10
-21.1994466747
 20
-3.4798647363
 10
-21.2494800366
 20
-3.467787261
 10
-21.3009417473
 20
-3.4548803884
 10
-21.3538326072
 20
-3.4411402083
 10
-21.4082301358
 20
-3.4265366522
 10
-21.4641231044
 20
-3.4110760074
 10
-21.5215227569
 20
-3.3947519939
 10
-21.5805403213
 20
-3.377515692
 10
-21.6411695065
 20
-3.3593722174
 10
-21.7034166174
 20
-3.3403164609
 10
-21.7674117756
 20
-3.3202841647
 10
-21.8331486444
 20
-3.2992803963
 10
-21.9006335739
 20
-3.2773000947
 10
-21.9700157151
 20
-3.2542638095
 10
-22.0412985066
 20
-3.230172097
 10
-22.1144785235
 20
-3.2050244075
 10
-22.1896946227
 20
-3.1787396328
 10
-22.2669423501
 20
-3.1513204323
 10
-22.3462261746
 20
-3.1227641536
 10
-22.4276983391
 20
-3.0929817217
  0
LWPOLYLINE
  5
2E6
100
AcDbEntity
  8
0
100
AcDbPolyline
 62
7
  6
CONTINUOUS
 90
35
 70
0
 10
-4.767756765
 20
21.1227890534
 10
-4.7194504392
 20
21.1707399521
 10
-4.6455735992
 20
21.235849462
 10
-4.5648281684
 20
21.2993225872
 10
-4.4780710847
 20
21.3603948311
 10
-4.3856328921
 20
21.4188570285
 10
-4.287521825
 20
21.4747178122
 10
-4.1844044186
 20
21.5276275381
 10
-4.0766592538
 20
21.5774605853
 10
-3.9644497514
 20
21.6242008905
 10
-3.8482619444
 20
21.6677027918
 10
-3.7284395573
 20
21.7079019291
 10
-3.6052674938
 20
21.7447608309
 10
-3.479213142
 20
21.7781979891
 10
-3.3507637985
 20
21.8081520428
 10
-3.2201118924
 20
21.8346414428
 10
-3.0872964704
 20
21.8576979255
 10
-2.9525858201
 20
21.8772966783
 10
-2.8163609578
 20
21.8934017657
 10
-2.6788228447
 20
21.9060040432
 10
-2.5402585903
 20
21.9150833577
 10
-2.4010388739
 20
21.9206199346
 10
-2.2614932785
 20
21.9226051004
 10
-2.1219468794
 20
21.9210367751
 10
-1.9827389145
 20
21.9159198092
 10
-1.8442196713
 20
21.9072676328
 10
-1.7067667143
 20
21.8951055305
 10
-1.5706549341
 20
21.8794579569
 10
-1.4360761537
 20
21.8603382029
 10
-1.3033431116
 20
21.83777431
 10
-1.1727843339
 20
21.8118035799
 10
-1.0446113191
 20
21.7824428634
 10
-0.9191031548
 20
21.749721447
 10
-0.7966078203
 20
21.7136918339
 10
-0.690015089
 20
21.6787613378
  0
LINE
  5
2E7
100
AcDbEntity
  8
DRAFT
100
AcDbLine
 62
7
  6
CONTINUOUS
 10
-11.6781584685
 20
12.9807868948
 11
-8.9531093868
 21
14.3229338309
  0
LINE
  5
2E8
100
AcDbEntity
  8
RACCORDO
100
AcDbLine
 62
7
  6
CONTINUOUS
 10
-31.5569847965
 20
2.616379546
 11
-31.5566222228
 21
2.6165504809
  0
LINE
  5
2E9
100
AcDbEntity
  8
RACCORDO
100
AcDbLine
 62
7
  6
CONTINUOUS
 10
-30.3144217668
 20
-12.1760462541
 11
-30.2097568249
 21
-12.210703705
  0
LINE
  5
2EA
100
AcDbEntity
  8
RACCORDO
100
AcDbLine
 62
7
  6
CONTINUOUS
 10
-30.2097568249
 20
-12.210703705
 11
-30.1033215222
 21
-12.2469257329
  0
LINE
  5
2EB
100
AcDbEntity
  8
RACCORDO
100
AcDbLine
 62
7
  6
CONTINUOUS
 10
-30.1033215222
 20
-12.2469257329
 11
-29.9950011609
 21
-12.2847211249
  0
LINE
  5
2EC
100
AcDbEntity
  8
RACCORDO
100
AcDbLine
 62
7
  6
CONTINUOUS
 10
-29.9950011609
 20
-12.2847211249
 11
-29.8846717822
 21
-12.3241066053
  0
LINE
  5
2ED
100
AcDbEntity
  8
RACCORDO
100
AcDbLine
 62
7
  6
CONTINUOUS
 10
-29.8846717822
 20
-12.3241066053
 11
-29.7722552786
 21
-12.3650902387
  0
LWPOLYLINE
  5
2EE
100
AcDbEntity
  8
RACCORDO
100
AcDbPolyline
 62
7
  6
CONTINUOUS
 90
3
 70
0
 10
-29.7722552786
 20
-12.3650902387
 10
-29.6575866899
 20
-12.4077145336
 10
-29.59944725
 20
-12.4296241409
  0
LWPOLYLINE
  5
2EF
100
AcDbEntity
  8
RACCORDO
100
AcDbPolyline
 62
250
  6
CONTINUOUS
 90
3
 70
0
 10
-29.8013756248
 20
-12.2666397809
 10
-29.6324011457
 20
-12.3301271461
 10
-29.5444430391
 20
-12.3638161674
  0
LWPOLYLINE
  5
2F0
100
AcDbEntity
  8
RACCORDO
100
AcDbPolyline
 62
250
  6
CONTINUOUS
 90
96
 70
0
 10
-22.5323283966
 20
-13.6900995004
 10
-22.6227144441
 20
-13.6553049852
 10
-22.7156580627
 20
-13.6190869925
 10
-22.8111683088
 20
-13.5814252676
 10
-22.9092608483
 20
-13.5422967177
 10
-23.010135686
 20
-13.5016035782
 10
-23.1138034797
 20
-13.4593217889
 10
-23.2202769793
 20
-13.4154260751
 10
-23.3297699241
 20
-13.3698068823
 10
-23.4422795419
 20
-13.3224421728
 10
-23.557825628
 20
-13.2732999712
 10
-23.6766657898
 20
-13.2222450571
 10
-23.7987815682
 20
-13.1692573837
 10
-23.9241970617
 20
-13.1142987945
 10
-24.0532378486
 20
-13.0571993839
 10
-24.1858833847
 20
-12.9979388043
 10
-24.3221199777
 20
-12.9364938278
 10
-24.4622869672
 20
-12.8726805154
 10
-24.6063158633
 20
-12.8064949384
 10
-24.754202136
 20
-12.7379033344
 10
-24.9063831287
 20
-12.6666642934
 10
-25.0626550759
 20
-12.5928300282
 10
-25.2230906808
 20
-12.5163217325
 10
-25.3885412774
 20
-12.4366816156
 10
-25.5591523021
 20
-12.3537769079
 10
-25.734564456
 20
-12.2677169628
 10
-25.9148517466
 20
-12.1783988186
 10
-26.1007862036
 20
-12.0853610124
 10
-26.2912280476
 20
-11.9890975058
 10
-26.4833512942
 20
-11.8909915473
 10
-26.6779474472
 20
-11.7906035873
 10
-26.8737312945
 20
-11.6885582413
 10
-27.0648316682
 20
-11.5879308353
 10
-27.2498086837
 20
-11.4895502274
 10
-27.4298267073
 20
-11.3928635349
 10
-27.6030791689
 20
-11.2989074322
 10
-27.7687437483
 20
-11.2082146612
 10
-27.9276086056
 20
-11.1204378963
 10
-28.0803439059
 20
-11.0352749026
 10
-28.2267974198
 20
-10.9528758335
 10
-28.3671792018
 20
-10.8731909901
 10
-28.5026709116
 20
-10.7956082294
 10
-28.6334904408
 20
-10.7200509708
 10
-28.7594875141
 20
-10.6466535241
 10
-28.8812422659
 20
-10.5751211365
 10
-28.9988261652
 20
-10.5054504181
 10
-29.1122421675
 20
-10.4376774342
 10
-29.2219366973
 20
-10.3715691851
 10
-29.3279482437
 20
-10.3071334326
 10
-29.4303104072
 20
-10.2443802994
 10
-29.5294320477
 20
-10.1830855909
 10
-29.6253617368
 20
-10.123243326
 10
-29.7181094927
 20
-10.0648711236
 10
-29.8079965518
 20
-10.0077872447
 10
-29.8950594033
 20
-9.9519872487
 10
-29.9793060388
 20
-9.8974849121
 10
-30.0609892865
 20
-9.8441328349
 10
-30.1401310473
 20
-9.7919327993
 10
-30.2167556608
 20
-9.7408859453
 10
-30.2910983945
 20
-9.6908501182
 10
-30.3631717459
 20
-9.6418295562
 10
-30.4329913438
 20
-9.5938263036
 10
-30.5007696915
 20
-9.5467043855
 10
-30.5665131322
 20
-9.5004673858
 10
-30.6302188821
 20
-9.4551253097
 10
-30.6920579907
 20
-9.4105620232
 10
-30.7520329278
 20
-9.3667790317
 10
-30.8101218259
 20
-9.3237977928
 10
-30.8664348519
 20
-9.2815415861
 10
-30.9209366616
 20
-9.2400393936
 10
-30.973627957
 20
-9.1992930572
 10
-31.0246455371
 20
-9.1591963436
 10
-31.0739361973
 20
-9.119787084
 10
-31.1214852746
 20
-9.081072357
 10
-31.16744647
 20
-9.0429172844
 10
-31.2117603545
 20
-9.0053560554
 10
-31.2543663208
 20
-8.9684225862
 10
-31.2953758134
 20
-8.9319923769
 10
-31.334712864
 20
-8.8960964977
 10
-31.3723149868
 20
-8.8607538476
 10
-31.4082657148
 20
-8.8258368193
 10
-31.4425329817
 20
-8.7913090613
 10
-31.4749347408
 20
-8.7572867578
 10
-31.5053128183
 20
-8.7238776327
 10
-31.533744178
 20
-8.6909111358
 10
-31.5599374573
 20
-8.6586342418
 10
-31.5833386589
 20
-8.6277129882
 10
-31.6040296362
 20
-8.5980364033
 10
-31.6219443401
 20
-8.5696829488
 10
-31.6366753465
 20
-8.5434498971
 10
-31.6483651276
 20
-8.5194875954
 10
-31.6574325403
 20
-8.4974036265
 10
-31.6641211456
 20
-8.4770898361
 10
-31.668675254
 20
-8.4584433754
 10
-31.6713387108
 20
-8.441366911
 10
-31.6723470705
 20
-8.4257661205
  0
LINE
  5
2F1
100
AcDbEntity
  8
RACCORDO
100
AcDbLine
 62
7
  6
CONTINUOUS
 10
-28.843318515
 20
-9.120561062
 11
-28.7168107449
 21
-9.1733909007
  0
LINE
  5
2F2
100
AcDbEntity
  8
RACCORDO
100
AcDbLine
 62
7
  6
CONTINUOUS
 10
-28.7168107449
 20
-9.1733909007
 11
-28.5905646898
 21
-9.2267307523
  0
LWPOLYLINE
  5
2F3
100
AcDbEntity
  8
DRAFT
100
AcDbPolyline
 62
7
  6
CONTINUOUS
 90
11
 70
0
 10
-22.942357931
 20
-13.1495502038
 10
-23.3462559758
 20
-12.9775040549
 10
-23.764378877
 20
-12.7930869607
 10
-24.1967266346
 20
-12.5962989213
 10
-24.6478791398
 20
-12.3850493031
 10
-25.1132565015
 20
-12.1614287398
 10
-25.5791190458
 20
-11.9317091318
 10
-26.0454679039
 20
-11.6955286782
 10
-26.5123019445
 20
-11.4532491799
 10
-26.9658781007
 20
-11.2122279399
 10
-27.40161535
 20
-10.9749173923
  0
LINE
  5
2F4
100
AcDbEntity
  8
RACCORDO
100
AcDbLine
 62
7
  6
CONTINUOUS
 10
-28.5905646898
 20
-9.2267307523
 11
-28.4648046149
 21
-9.2804603463
  0
LINE
  5
2F5
100
AcDbEntity
  8
RACCORDO
100
AcDbLine
 62
7
  6
CONTINUOUS
 10
-28.4648046149
 20
-9.2804603463
 11
-28.2777177992
 21
-9.3614488199
  0
LWPOLYLINE
  5
2F6
100
AcDbEntity
  8
RACCORDO
100
AcDbPolyline
 62
250
  6
CONTINUOUS
 90
13
 70
0
 10
-31.9526669059
 20
-8.4259814893
 10
-31.933231077
 20
-8.4345024708
 10
-31.9117542136
 20
-8.44167364
 10
-31.8885957233
 20
-8.447374978
 10
-31.8641431553
 20
-8.4515110689
 10
-31.8388057137
 20
-8.4540126776
 10
-31.8130074091
 20
-8.4548379132
 10
-31.7871799659
 20
-8.4539729548
 10
-31.7617555965
 20
-8.4514322744
 10
-31.7371597673
 20
-8.4472583782
 10
-31.71380408
 20
-8.441521106
 10
-31.6920793831
 20
-8.4343164615
 10
-31.672349231
 20
-8.4257650027
  0
LINE
  5
2F7
100
AcDbEntity
  8
RACCORDO
100
AcDbLine
 62
7
  6
CONTINUOUS
 10
-28.2777177992
 20
-9.3614488199
 11
-28.092764792
 21
-9.4427076161
  0
LINE
  5
2F8
100
AcDbEntity
  8
RACCORDO
100
AcDbLine
 62
7
  6
CONTINUOUS
 10
-28.092764792
 20
-9.4427076161
 11
-27.9102591993
 21
-9.5240041632
  0
LINE
  5
2F9
100
AcDbEntity
  8
RACCORDO
100
AcDbLine
 62
7
  6
CONTINUOUS
 10
-27.9102591993
 20
-9.5240041632
 11
-27.7305158608
 21
-9.6051086732
  0
LINE
  5
2FA
100
AcDbEntity
  8
RACCORDO
100
AcDbLine
 62
7
  6
CONTINUOUS
 10
-27.7305158608
 20
-9.6051086732
 11
-27.5538474513
 21
-9.6857934099
  0
LINE
  5
2FB
100
AcDbEntity
  8
RACCORDO
100
AcDbLine
 62
7
  6
CONTINUOUS
 10
-27.5538474513
 20
-9.6857934099
 11
-27.3805680019
 21
-9.765833651
  0
LINE
  5
2FC
100
AcDbEntity
  8
RACCORDO
100
AcDbLine
 62
7
  6
CONTINUOUS
 10
-27.3805680019
 20
-9.765833651
 11
-27.2109746724
 21
-9.8450171022
  0
LINE
  5
2FD
100
AcDbEntity
  8
RACCORDO
100
AcDbLine
 62
7
  6
CONTINUOUS
 10
-27.2109746724
 20
-9.8450171022
 11
-27.0451124639
 21
-9.9232500958
  0
LINE
  5
2FE
100
AcDbEntity
  8
RACCORDO
100
AcDbLine
 62
7
  6
CONTINUOUS
 10
-27.0451124639
 20
-9.9232500958
 11
-26.8827934227
 21
-10.0005581167
  0
LINE
  5
2FF
100
AcDbEntity
  8
RACCORDO
100
AcDbLine
 62
7
  6
CONTINUOUS
 10
-26.8827934227
 20
-10.0005581167
 11
-26.7238182738
 21
-10.07698031
  0
LINE
  5
300
100
AcDbEntity
  8
RACCORDO
100
AcDbLine
 62
7
  6
CONTINUOUS
 10
-26.7238182738
 20
-10.07698031
 11
-26.5679879517
 21
-10.152561944
  0
LINE
  5
301
100
AcDbEntity
  8
RACCORDO
100
AcDbLine
 62
7
  6
CONTINUOUS
 10
-26.5679879517
 20
-10.152561944
 11
-26.3647590768
 21
-10.252126861
  0
LINE
  5
302
100
AcDbEntity
  8
RACCORDO
100
AcDbLine
 62
7
  6
CONTINUOUS
 10
-26.3647590768
 20
-10.252126861
 11
-26.1662959562
 21
-10.3504409911
  0
LINE
  5
303
100
AcDbEntity
  8
RACCORDO
100
AcDbLine
 62
7
  6
CONTINUOUS
 10
-26.1662959562
 20
-10.3504409911
 11
-25.9721268171
 21
-10.4476632799
  0
LINE
  5
304
100
AcDbEntity
  8
RACCORDO
100
AcDbLine
 62
7
  6
CONTINUOUS
 10
-25.9721268171
 20
-10.4476632799
 11
-25.7820054439
 21
-10.5438508627
  0
LINE
  5
305
100
AcDbEntity
  8
RACCORDO
100
AcDbLine
 62
7
  6
CONTINUOUS
 10
-25.7820054439
 20
-10.5438508627
 11
-25.5958192561
 21
-10.6389991186
  0
LINE
  5
306
100
AcDbEntity
  8
RACCORDO
100
AcDbLine
 62
7
  6
CONTINUOUS
 10
-25.5958192561
 20
-10.6389991186
 11
-25.4134546686
 21
-10.7331089344
  0
LINE
  5
307
100
AcDbEntity
  8
RACCORDO
100
AcDbLine
 62
7
  6
CONTINUOUS
 10
-25.4134546686
 20
-10.7331089344
 11
-25.2348037812
 21
-10.8261884849
  0
LINE
  5
308
100
AcDbEntity
  8
RACCORDO
100
AcDbLine
 62
7
  6
CONTINUOUS
 10
-25.2348037812
 20
-10.8261884849
 11
-25.059756924
 21
-10.9182513969
  0
LINE
  5
309
100
AcDbEntity
  8
RACCORDO
100
AcDbLine
 62
7
  6
CONTINUOUS
 10
-25.059756924
 20
-10.9182513969
 11
-24.888199455
 21
-11.0093164724
  0
LINE
  5
30A
100
AcDbEntity
  8
RACCORDO
100
AcDbLine
 62
7
  6
CONTINUOUS
 10
-24.888199455
 20
-11.0093164724
 11
-24.7200246179
 21
-11.0994063461
  0
LINE
  5
30B
100
AcDbEntity
  8
RACCORDO
100
AcDbLine
 62
7
  6
CONTINUOUS
 10
-24.7200246179
 20
-11.0994063461
 11
-24.555128281
 21
-11.1885478935
  0
LINE
  5
30C
100
AcDbEntity
  8
RACCORDO
100
AcDbLine
 62
250
  6
CONTINUOUS
 10
-27.4941627854
 20
-8.0596206911
 11
-27.7226444397
 21
-7.9359879934
  0
LWPOLYLINE
  5
30D
100
AcDbEntity
  8
RACCORDO
100
AcDbPolyline
 62
250
  6
CONTINUOUS
 90
62
 70
0
 10
-27.7226444397
 20
-7.9359879934
 10
-27.8380406223
 20
-7.8731295248
 10
-27.999487164
 20
-7.784372057
 10
-28.1542778438
 20
-7.6984145625
 10
-28.3033869079
 20
-7.6149178382
 10
-28.4468068493
 20
-7.5339045084
 10
-28.5845451363
 20
-7.4553519293
 10
-28.7175984899
 20
-7.3788530011
 10
-28.8460902475
 20
-7.304352903
 10
-28.9698970388
 20
-7.2319064392
 10
-29.0896455317
 20
-7.1612709518
 10
-29.2053738996
 20
-7.0924354566
 10
-29.3170439425
 20
-7.0254109245
 10
-29.4251677745
 20
-6.9599876342
 10
-29.5297675938
 20
-6.8961613689
 10
-29.6308211802
 20
-6.8339363344
 10
-29.7287740243
 20
-6.7731154457
 10
-29.8236567355
 20
-6.7136873778
 10
-29.9154386848
 20
-6.6556634459
 10
-30.0044735087
 20
-6.5988805271
 10
-30.0907814991
 20
-6.5433311523
 10
-30.1743423456
 20
-6.4890227814
 10
-30.255448782
 20
-6.4358146859
 10
-30.3341088399
 20
-6.3837064846
 10
-30.4103144696
 20
-6.3326985496
 10
-30.4843342829
 20
-6.2826512814
 10
-30.5561816126
 20
-6.2335618626
 10
-30.6258431066
 20
-6.1854331009
 10
-30.6935473471
 20
-6.1381338335
 10
-30.759315694
 20
-6.0916550415
 10
-30.8231267648
 20
-6.0460057325
 10
-30.8851450244
 20
-6.0010817818
 10
-30.945394373
 20
-5.9568701549
 10
-31.0038508833
 20
-5.9133838728
 10
-31.0606072766
 20
-5.8705578928
 10
-31.1156568202
 20
-5.8284047465
 10
-31.1690062161
 20
-5.7869118869
 10
-31.2207683314
 20
-5.7459766512
 10
-31.2709439506
 20
-5.705612414
 10
-31.3195322496
 20
-5.6658057808
 10
-31.3666436706
 20
-5.6264139287
 10
-31.4122892851
 20
-5.5874532862
 10
-31.4564579645
 20
-5.5489073961
 10
-31.4992268281
 20
-5.5105840964
 10
-31.5405994569
 20
-5.4725262811
 10
-31.5805721801
 20
-5.434691011
 10
-31.6192111942
 20
-5.3967573516
 10
-31.6565861599
 20
-5.35872538
 10
-31.6926272546
 20
-5.320594938
 10
-31.7271913707
 20
-5.282044698
 10
-31.7603964776
 20
-5.2430693195
 10
-31.7921243243
 20
-5.203674002
 10
-31.821877343
 20
-5.1635531636
 10
-31.8498374654
 20
-5.1224237629
 10
-31.8758222328
 20
-5.0805685775
 10
-31.898787396
 20
-5.0385307063
 10
-31.918594568
 20
-4.996127361
 10
-31.9353815021
 20
-4.9535410129
 10
-31.9485182878
 20
-4.9118627152
 10
-31.9577948995
 20
-4.8714561248
 10
-31.9634210303
 20
-4.8319574191
 10
-31.9653964905
 20
-4.7933665032
  0
LINE
  5
30E
100
AcDbEntity
  8
RACCORDO
100
AcDbLine
 62
7
  6
CONTINUOUS
 10
-24.555128281
 20
-11.1885478935
 11
-24.3934025146
 21
-11.2767711187
  0
LINE
  5
30F
100
AcDbEntity
  8
RACCORDO
100
AcDbLine
 62
7
  6
CONTINUOUS
 10
-24.3934025146
 20
-11.2767711187
 11
-24.2347467519
 21
-11.3641075697
  0
LINE
  5
310
100
AcDbEntity
  8
RACCORDO
100
AcDbLine
 62
7
  6
CONTINUOUS
 10
-24.2347467519
 20
-11.3641075697
 11
-24.0790586562
 21
-11.4505967641
  0
LINE
  5
311
100
AcDbEntity
  8
RACCORDO
100
AcDbLine
 62
7
  6
CONTINUOUS
 10
-24.0790586562
 20
-11.4505967641
 11
-23.9262299988
 21
-11.5362820062
  0
LINE
  5
312
100
AcDbEntity
  8
RACCORDO
100
AcDbLine
 62
7
  6
CONTINUOUS
 10
-23.9262299988
 20
-11.5362820062
 11
-23.7761583208
 21
-11.6212049719
  0
LWPOLYLINE
  5
313
100
AcDbEntity
  8
RACCORDO
100
AcDbPolyline
 62
250
  6
CONTINUOUS
 90
7
 70
0
 10
-20.329354501
 20
-14.2376375555
 10
-20.3464276547
 20
-14.2279043612
 10
-20.3608492285
 20
-14.2171264832
 10
-20.3723778834
 20
-14.2054842982
 10
-20.3808206921
 20
-14.1931726404
 10
-20.3860363684
 20
-14.1803975603
 10
-20.3879438877
 20
-14.1668781334
  0
LINE
  5
314
100
AcDbEntity
  8
RACCORDO
100
AcDbLine
 62
7
  6
CONTINUOUS
 10
-23.7761583208
 20
-11.6212049719
 11
-23.6287411528
 21
-11.7054098288
  0
LINE
  5
315
100
AcDbEntity
  8
RACCORDO
100
AcDbLine
 62
7
  6
CONTINUOUS
 10
-23.6287411528
 20
-11.7054098288
 11
-23.4838743326
 21
-11.7889422122
  0
LINE
  5
316
100
AcDbEntity
  8
RACCORDO
100
AcDbLine
 62
7
  6
CONTINUOUS
 10
-23.4838743326
 20
-11.7889422122
 11
-23.3414618635
 21
-11.8718480862
  0
LINE
  5
317
100
AcDbEntity
  8
RACCORDO
100
AcDbLine
 62
7
  6
CONTINUOUS
 10
-23.3414618635
 20
-11.8718480862
 11
-23.2014063589
 21
-11.95417945
  0
LINE
  5
318
100
AcDbEntity
  8
RACCORDO
100
AcDbLine
 62
7
  6
CONTINUOUS
 10
-23.2014063589
 20
-11.95417945
 11
-23.0636069299
 21
-12.0359915261
  0
LINE
  5
319
100
AcDbEntity
  8
RACCORDO
100
AcDbLine
 62
7
  6
CONTINUOUS
 10
-23.0636069299
 20
-12.0359915261
 11
-22.9279695881
 21
-12.1173440501
  0
LINE
  5
31A
100
AcDbEntity
  8
RACCORDO
100
AcDbLine
 62
7
  6
CONTINUOUS
 10
-22.9279695881
 20
-12.1173440501
 11
-22.7943986384
 21
-12.198301292
  0
LINE
  5
31B
100
AcDbEntity
  8
RACCORDO
100
AcDbLine
 62
7
  6
CONTINUOUS
 10
-22.7943986384
 20
-12.198301292
 11
-22.6627973532
 21
-12.2789332267
  0
LINE
  5
31C
100
AcDbEntity
  8
RACCORDO
100
AcDbLine
 62
7
  6
CONTINUOUS
 10
-22.6627973532
 20
-12.2789332267
 11
-22.5330726785
 21
-12.3593172248
  0
LINE
  5
31D
100
AcDbEntity
  8
RACCORDO
100
AcDbLine
 62
7
  6
CONTINUOUS
 10
-22.5330726785
 20
-12.3593172248
 11
-22.4051495237
 21
-12.4395225043
  0
LINE
  5
31E
100
AcDbEntity
  8
RACCORDO
100
AcDbLine
 62
7
  6
CONTINUOUS
 10
-22.4051495237
 20
-12.4395225043
 11
-22.2790443033
 21
-12.5195740138
  0
LINE
  5
31F
100
AcDbEntity
  8
RACCORDO
100
AcDbLine
 62
7
  6
CONTINUOUS
 10
-22.2790443033
 20
-12.5195740138
 11
-22.1856923608
 21
-12.5795118712
  0
LINE
  5
320
100
AcDbEntity
  8
RACCORDO
100
AcDbLine
 62
7
  6
CONTINUOUS
 10
-22.1856923608
 20
-12.5795118712
 11
-22.0934221593
 21
-12.6393650913
  0
LINE
  5
321
100
AcDbEntity
  8
RACCORDO
100
AcDbLine
 62
7
  6
CONTINUOUS
 10
-22.0934221593
 20
-12.6393650913
 11
-22.0325215076
 21
-12.6792232884
  0
LINE
  5
322
100
AcDbEntity
  8
RACCORDO
100
AcDbLine
 62
7
  6
CONTINUOUS
 10
-21.6057667712
 20
-9.3394156202
 11
-21.5493181075
 21
-9.3791738133
  0
LINE
  5
323
100
AcDbEntity
  8
RACCORDO
100
AcDbLine
 62
7
  6
CONTINUOUS
 10
-21.5493181075
 20
-9.3791738133
 11
-21.493454943
 21
-9.4189257918
  0
LINE
  5
324
100
AcDbEntity
  8
RACCORDO
100
AcDbLine
 62
7
  6
CONTINUOUS
 10
-21.493454943
 20
-9.4189257918
 11
-21.4381930807
 21
-9.4586781466
  0
LINE
  5
325
100
AcDbEntity
  8
RACCORDO
100
AcDbLine
 62
7
  6
CONTINUOUS
 10
-21.4381930807
 20
-9.4586781466
 11
-21.3835444963
 21
-9.4984405546
  0
LINE
  5
326
100
AcDbEntity
  8
RACCORDO
100
AcDbLine
 62
7
  6
CONTINUOUS
 10
-21.3835444963
 20
-9.4984405546
 11
-21.3295221549
 21
-9.5382209514
  0
LINE
  5
327
100
AcDbEntity
  8
RACCORDO
100
AcDbLine
 62
7
  6
CONTINUOUS
 10
-21.3295221549
 20
-9.5382209514
 11
-21.276145143
 21
-9.5780272918
  0
LINE
  5
328
100
AcDbEntity
  8
RACCORDO
100
AcDbLine
 62
7
  6
CONTINUOUS
 10
-21.276145143
 20
-9.5780272918
 11
-21.2234559554
 21
-9.6178530865
  0
LINE
  5
329
100
AcDbEntity
  8
RACCORDO
100
AcDbLine
 62
7
  6
CONTINUOUS
 10
-21.2234559554
 20
-9.6178530865
 11
-21.1714873678
 21
-9.6576968706
  0
LINE
  5
32A
100
AcDbEntity
  8
RACCORDO
100
AcDbLine
 62
7
  6
CONTINUOUS
 10
-21.1714873678
 20
-9.6576968706
 11
-21.1202921463
 21
-9.6975466008
  0
LWPOLYLINE
  5
32B
100
AcDbEntity
  8
RACCORDO
100
AcDbPolyline
 62
7
  6
CONTINUOUS
 90
41
 70
0
 10
-21.1202921463
 20
-9.6975466008
 10
-21.0699229476
 20
-9.7373980549
 10
-21.0450577002
 20
-9.7573278451
 10
-21.020422223
 20
-9.7772523766
 10
-20.9960188265
 20
-9.7971754385
 10
-20.9718515207
 20
-9.8171007983
 10
-20.9479391894
 20
-9.8370196886
 10
-20.9242866181
 20
-9.85693463
 10
-20.9008959245
 20
-9.8768502803
 10
-20.8777819139
 20
-9.896760688
 10
-20.8549599194
 20
-9.9166625253
 10
-20.8324265515
 20
-9.9365705892
 10
-20.8101700644
 20
-9.9565078259
 10
-20.7881971691
 20
-9.9764815117
 10
-20.7665157502
 20
-9.996498274
 10
-20.7451173682
 20
-10.0165814406
 10
-20.7240122365
 20
-10.0367405041
 10
-20.7032141959
 20
-10.0569837522
 10
-20.682723847
 20
-10.0773350979
 10
-20.6625560181
 20
-10.0978079458
 10
-20.6427301444
 20
-10.1184139029
 10
-20.6232595135
 20
-10.1391724397
 10
-20.6041768423
 20
-10.1600897595
 10
-20.5855119946
 20
-10.1811858262
 10
-20.5672857691
 20
-10.2025053558
 10
-20.5495685203
 20
-10.2240410323
 10
-20.5323795785
 20
-10.2457955727
 10
-20.5156981459
 20
-10.2678455261
 10
-20.4996347816
 20
-10.2901712202
 10
-20.4843200959
 20
-10.3128136475
 10
-20.4698222786
 20
-10.3359190672
 10
-20.4562109083
 20
-10.3594137539
 10
-20.4436355165
 20
-10.3831092308
 10
-20.4323082369
 20
-10.4067998302
 10
-20.4224145206
 20
-10.4304960471
 10
-20.4142947137
 20
-10.4537425147
 10
-20.408221465
 20
-10.4754808038
 10
-20.4041217357
 20
-10.4946055115
 10
-20.4015310335
 20
-10.5116409669
 10
-20.4002774201
 20
-10.5277527533
 10
-20.4001695373
 20
-10.5345446116
  0
LWPOLYLINE
  5
32C
100
AcDbEntity
  8
RACCORDO
100
AcDbPolyline
 62
250
  6
CONTINUOUS
 90
4
 70
0
 10
-20.3883730246
 20
-10.4024909097
 10
-20.3716106694
 20
-10.4450867895
 10
-20.35849397
 20
-10.4867696558
 10
-20.3492335466
 20
-10.5271731499
  0
LWPOLYLINE
  5
32D
100
AcDbEntity
  8
RACCORDO
100
AcDbPolyline
 62
250
  6
CONTINUOUS
 90
4
 70
0
 10
-20.3585599176
 20
-6.7991418857
 10
-20.3454852204
 20
-6.8413536526
 10
-20.3363821627
 20
-6.8820272591
 10
-20.3310147204
 20
-6.9216186059
  0
LINE
  5
32E
100
AcDbEntity
  8
RACCORDO
100
AcDbLine
 62
250
  6
CONTINUOUS
 10
-20.3004375434
 20
-17.783020105
 11
-20.2947011976
 21
-17.8208442558
  0
LINE
  5
32F
100
AcDbEntity
  8
RACCORDO
100
AcDbLine
 62
250
  6
CONTINUOUS
 10
-20.3373787536
 20
-14.1600760753
 11
-20.3315180308
 21
-14.1994098595
  0
LINE
  5
330
100
AcDbEntity
  8
RACCORDO
100
AcDbLine
 62
250
  6
CONTINUOUS
 10
-20.3492335466
 20
-10.5271731499
 11
-20.3436184482
 21
-10.5666634648
  0
LINE
  5
331
100
AcDbEntity
  8
RACCORDO
100
AcDbLine
 62
250
  6
CONTINUOUS
 10
-20.386036396
 20
-6.903492898
 11
-20.3879446854
 21
-6.8895686032
  0
LINE
  5
332
100
AcDbEntity
  8
0
100
AcDbLine
 62
250
  6
CONTINUOUS
 10
-18.4160065854
 20
-29.4579391706
 11
-18.5416117032
 21
-25.4752607241
  0
LWPOLYLINE
  5
333
100
AcDbEntity
  8
0
100
AcDbPolyline
 62
250
  6
CONTINUOUS
 90
7
 70
0
 10
-17.7154365259
 20
-29.4429512895
 10
-17.8409270854
 20
-25.4636828967
 10
-17.9350450003
 20
-21.4687307792
 10
-17.9977902708
 20
-17.4580949367
 10
-18.0291628906
 20
-13.4314180997
 10
-18.0291628659
 20
-9.3890575379
 10
-17.9977902152
 20
-5.3320850602
  0
LWPOLYLINE
  5
334
100
AcDbEntity
  8
0
100
AcDbPolyline
 62
250
  6
CONTINUOUS
 90
8
 70
0
 10
-18.5416117032
 20
-25.4752607241
 10
-18.6358249723
 20
-21.4761883503
 10
-18.6986383088
 20
-17.4610711541
 10
-18.7300463236
 20
-13.4302597074
 10
-18.7300463236
 20
-9.3841058913
 10
-18.6986383089
 20
-5.3229628641
 10
-18.6358249723
 20
-1.2471852
 10
-18.5416117033
 20
2.8428711398
  0
LINE
  5
335
100
AcDbEntity
  8
DRAFT
100
AcDbLine
 62
7
  6
CONTINUOUS
 10
-17.6679391547
 20
17.9252126071
 11
-17.6682411138
 21
17.9611321684
  0
LINE
  5
336
100
AcDbEntity
  8
DRAFT
100
AcDbLine
 62
7
  6
CONTINUOUS
 10
-19.6349018892
 20
17.0391027857
 11
-19.6349018892
 21
17.8593703364
  0
LINE
  5
337
100
AcDbEntity
  8
DRAFT
100
AcDbLine
 62
7
  6
CONTINUOUS
 10
-17.3146877232
 20
13.9977625792
 11
-17.3146877232
 21
14.9503905234
  0
LWPOLYLINE
  5
338
100
AcDbEntity
  8
0
100
AcDbPolyline
 62
250
  6
CONTINUOUS
 90
4
 70
0
 10
-17.9977902152
 20
-5.3320850602
 10
-17.9350449448
 20
-1.2608579361
 10
-17.8409270483
 20
2.8249811039
 10
-17.7154365259
 20
6.9254320598
  0
LINE
  5
339
100
AcDbEntity
  8
0
100
AcDbLine
 62
250
  6
CONTINUOUS
 10
-18.5416117033
 20
2.8428711398
 11
-18.4160065854
 21
6.9468489668
  0
LWPOLYLINE
  5
33A
100
AcDbEntity
  8
RACCORDO
100
AcDbPolyline
 62
250
  6
CONTINUOUS
 90
80
 70
0
 10
-20.3416484856
 20
-10.6052405056
 10
-20.3435878918
 20
-10.6417536921
 10
-20.3491714821
 20
-10.6755537936
 10
-20.3583994402
 20
-10.7066409018
 10
-20.3714939409
 20
-10.7351819021
 10
-20.3882331283
 20
-10.7610100681
 10
-20.4079512944
 20
-10.7836251511
 10
-20.4307692234
 20
-10.8026827234
 10
-20.4565667783
 20
-10.8185275362
 10
-20.4843170005
 20
-10.8316931751
 10
-20.5138354249
 20
-10.8420938622
 10
-20.5453070372
 20
-10.8498156359
 10
-20.5782589543
 20
-10.8556497554
 10
-20.6125773666
 20
-10.8597069426
 10
-20.648376362
 20
-10.8618766149
 10
-20.6855247737
 20
-10.8626180092
 10
-20.7239719842
 20
-10.8619989566
 10
-20.7637687697
 20
-10.8599517055
 10
-20.8049359778
 20
-10.8567320806
 10
-20.8474631282
 20
-10.8523838222
 10
-20.8913607933
 20
-10.8468632362
 10
-20.9366813562
 20
-10.8402949739
 10
-20.9834111284
 20
-10.8327066967
 10
-21.0315638579
 20
-10.8240707729
 10
-21.0812330592
 20
-10.8144289037
 10
-21.1324154159
 20
-10.8037958316
 10
-21.1851142861
 20
-10.7921568349
 10
-21.2394331834
 20
-10.7795094116
 10
-21.2953818125
 20
-10.765858753
 10
-21.3529505005
 20
-10.7511996839
 10
-21.4122136887
 20
-10.7355141493
 10
-21.4731566498
 20
-10.718809842
 10
-21.5357941392
 20
-10.7010790833
 10
-21.6002448189
 20
-10.6822807602
 10
-21.666499692
 20
-10.6624220095
 10
-21.7345677796
 20
-10.6414957064
 10
-21.8045947681
 20
-10.6194393446
 10
-21.8765731985
 20
-10.596259679
 10
-21.9505105516
 20
-10.5719499656
 10
-22.0265749233
 20
-10.5464274495
 10
-22.104773488
 20
-10.5196923893
 10
-22.185099092
 20
-10.4917445369
 10
-22.2676983397
 20
-10.4625003773
 10
-22.3525631313
 20
-10.4319652698
 10
-22.4397015882
 20
-10.4001338659
 10
-22.5292846474
 20
-10.36690659
 10
-22.6212992678
 20
-10.3322922183
 10
-22.715758513
 20
-10.2962819859
 10
-22.8128724792
 20
-10.2587500064
 10
-22.9126326698
 20
-10.219704038
 10
-23.0150476054
 20
-10.1791363346
 10
-23.1203529103
 20
-10.1368977549
 10
-23.2285468564
 20
-10.0929939003
 10
-23.3396311982
 20
-10.0474191826
 10
-23.4538467876
 20
-10.0000076784
 10
-23.571180294
 20
-9.9507705501
 10
-23.6916450774
 20
-9.89969665
 10
-23.8155220314
 20
-9.8465865916
 10
-23.9427934997
 20
-9.7914526135
 10
-24.0734771709
 20
-9.7342824935
 10
-24.2079069611
 20
-9.6748401559
 10
-24.3461075369
 20
-9.6131202334
 10
-24.4880542658
 20
-9.5491281106
 10
-24.6340071211
 20
-9.4826438433
 10
-24.7839300786
 20
-9.4136936661
 10
-24.937859197
 20
-9.3422513618
 10
-25.0961625788
 20
-9.2680183116
 10
-25.2586663017
 20
-9.1910955168
 10
-25.4255443196
 20
-9.111381992
 10
-25.5976865528
 20
-9.0282761404
 10
-25.7757697612
 20
-8.9414579216
 10
-25.9591172072
 20
-8.8512473873
 10
-26.1465885657
 20
-8.7580030789
 10
-26.3393943272
 20
-8.6610668749
 10
-26.5363240009
 20
-8.5610968967
 10
-26.7326057824
 20
-8.4604260466
 10
-26.9284677769
 20
-8.3588400403
 10
-27.123681842
 20
-8.2565531434
 10
-27.3127917991
 20
-8.1565410819
 10
-27.4941627854
 20
-8.0596206911
  0
LWPOLYLINE
  5
33B
100
AcDbEntity
  8
0
100
AcDbPolyline
 62
250
  6
CONTINUOUS
 90
19
 70
0
 10
-18.4160065854
 20
6.9468489668
 10
-18.4111534463
 20
7.0199940126
 10
-18.4015428766
 20
7.0947620517
 10
-18.3872380553
 20
7.170650368
 10
-18.3683309506
 20
7.2471519111
 10
-18.3449488195
 20
7.3237482404
 10
-18.3172557568
 20
7.3999130674
 10
-18.2854397059
 20
7.475127229
 10
-18.2497125402
 20
7.5488909746
 10
-18.2103164264
 20
7.6207165019
 10
-18.1675149229
 20
7.6901176318
 10
-18.121592832
 20
7.75662949
 10
-18.0728556455
 20
7.8198184933
 10
-18.0216195238
 20
7.8792643955
 10
-17.9682318927
 20
7.9345556238
 10
-17.9130701457
 20
7.9853101264
 10
-17.8565100286
 20
8.0311842612
 10
-17.7989216547
 20
8.071871724
 10
-17.7406890849
 20
8.1070986134
  0
LWPOLYLINE
  5
33C
100
AcDbEntity
  8
0
100
AcDbPolyline
 62
250
  6
CONTINUOUS
 90
19
 70
0
 10
-17.7154365259
 20
6.9254320598
 10
-17.7129328824
 20
6.9623009213
 10
-17.7081139385
 20
6.9995006197
 10
-17.7009796944
 20
7.037031155
 10
-17.6914497172
 20
7.0751623693
 10
-17.6796044397
 20
7.1136244204
 10
-17.6656851605
 20
7.1516077821
 10
-17.6496522481
 20
7.1890879919
 10
-17.6315453339
 20
7.2260895121
 10
-17.611724611
 20
7.2618762033
 10
-17.5901564863
 20
7.2964227715
 10
-17.5668745527
 20
7.3297545107
 10
-17.5423397827
 20
7.361211163
 10
-17.5165164704
 20
7.3907636637
 10
-17.4894403215
 20
7.4184410775
 10
-17.4616794256
 20
7.4436703412
 10
-17.4334231458
 20
7.4662604336
 10
-17.4044821188
 20
7.4864023757
 10
-17.3748563448
 20
7.5040961677
  0
LWPOLYLINE
  5
33D
100
AcDbEntity
  8
RACCORDO
100
AcDbPolyline
 62
250
  6
CONTINUOUS
 90
4
 70
0
 10
-5.2351600849
 20
22.2314704293
 10
-5.3392670412
 20
22.0761758056
 10
-5.4008486296
 20
21.9151166497
 10
-5.4186814552
 20
21.7857064186
  0
LINE
  5
33E
100
AcDbEntity
  8
DRAFT
100
AcDbLine
 62
7
  6
CONTINUOUS
 10
-25.582424749
 20
-4.6554215813
 11
-25.3370366732
 21
-4.4163758507
  0
LINE
  5
33F
100
AcDbEntity
  8
0
100
AcDbLine
 62
250
  6
CONTINUOUS
 10
-17.7406890849
 20
8.1070986134
 11
-11.9050517225
 21
11.2929445789
  0
LINE
  5
340
100
AcDbEntity
  8
0
100
AcDbLine
 62
250
  6
CONTINUOUS
 10
-17.3748563448
 20
7.5040961677
 11
-11.5517674566
 21
10.6830915523
  0
LINE
  5
341
100
AcDbEntity
  8
DRAFT
100
AcDbLine
 62
7
  6
CONTINUOUS
 10
-28.2333161952
 20
0.4078341995
 11
-27.885934102
 21
0.5957675308
  0
LINE
  5
342
100
AcDbEntity
  8
DRAFT
100
AcDbLine
 62
7
  6
CONTINUOUS
 10
-27.7469812647
 20
0.42856621
 11
-27.6686185706
 21
0.4709649636
  0
LINE
  5
343
100
AcDbEntity
  8
DRAFT
100
AcDbLine
 62
7
  6
CONTINUOUS
 10
-11.5850443961
 20
10.8828296908
 11
-7.7063982464
 21
12.9332496837
  0
LINE
  5
344
100
AcDbEntity
  8
RACCORDO
100
AcDbLine
 62
250
  6
CONTINUOUS
 10
-11.5517674566
 20
10.5350546502
 11
7.9894649735
 21
20.2276060234
  0
LWPOLYLINE
  5
345
100
AcDbEntity
  8
RACCORDO
100
AcDbPolyline
 62
7
  6
CONTINUOUS
 90
31
 70
0
 10
-31.5564459831
 20
2.616617925
 10
-31.5495594063
 20
2.619503859
 10
-31.5292567748
 20
2.6256246449
 10
-31.5014463443
 20
2.6308825264
 10
-31.4693160973
 20
2.6342989401
 10
-31.4337538697
 20
2.6358555657
 10
-31.3947728663
 20
2.6356279161
 10
-31.3539376724
 20
2.6337401083
 10
-31.3117853929
 20
2.6304030047
 10
-31.2681726523
 20
2.6257364
 10
-31.2235851524
 20
2.6199135501
 10
-31.1781960115
 20
2.6130534501
 10
-31.131988931
 20
2.6052384611
 10
-31.085093861
 20
2.596558535
 10
-31.0375811895
 20
2.5870799382
 10
-30.9894509694
 20
2.5768544243
 10
-30.9406925507
 20
2.5659169526
 10
-30.8912773079
 20
2.554291894
 10
-30.8412714737
 20
2.5420251387
 10
-30.7907945727
 20
2.52916995
 10
-30.7398809794
 20
2.5157587884
 10
-30.6885196253
 20
2.5018120568
 10
-30.6367569613
 20
2.4873599719
 10
-30.5846318719
 20
2.4724301176
 10
-30.5321201555
 20
2.4570325218
 10
-30.4791703516
 20
2.4411648338
 10
-30.4257882225
 20
2.4248388867
 10
-30.3719768154
 20
2.4080662112
 10
-30.3176783806
 20
2.3908380129
 10
-30.2628968478
 20
2.3731615695
 10
-30.2076338849
 20
2.3550435018
  0
LWPOLYLINE
  5
346
100
AcDbEntity
  8
RACCORDO
100
AcDbPolyline
 62
250
  6
CONTINUOUS
 90
36
 70
0
 10
-20.4827029009
 20
-17.8492164711
 10
-20.5094338612
 20
-17.850784068
 10
-20.5376048748
 20
-17.8513767177
 10
-20.5671329304
 20
-17.8510242411
 10
-20.5980044823
 20
-17.8497576987
 10
-20.6302409776
 20
-17.8475997812
 10
-20.6638012505
 20
-17.8445735817
 10
-20.6986549059
 20
-17.8407017613
 10
-20.7348614429
 20
-17.835993761
 10
-20.772390909
 20
-17.8304657255
 10
-20.8112109119
 20
-17.8241330566
 10
-20.8514009515
 20
-17.8169903548
 10
-20.8929358657
 20
-17.8090466621
 10
-20.9357943489
 20
-17.8003102269
 10
-20.9800866017
 20
-17.790760287
 10
-21.0258216854
 20
-17.7803937462
 10
-21.0729702365
 20
-17.7692159895
 10
-21.1216039401
 20
-17.7572078353
 10
-21.1717235179
 20
-17.7443655893
 10
-21.2233196061
 20
-17.7306880762
 10
-21.2764607731
 20
-17.716152665
 10
-21.3311417438
 20
-17.7007555175
 10
-21.3873677963
 20
-17.6844898389
 10
-21.4452349103
 20
-17.6673213727
 10
-21.5047487586
 20
-17.6492409645
 10
-21.5659146392
 20
-17.6302395195
 10
-21.6288403345
 20
-17.610274961
 10
-21.6935361895
 20
-17.5893345051
 10
-21.7600125574
 20
-17.5674052783
 10
-21.8283892334
 20
-17.5444371068
 10
-21.8986857256
 20
-17.5204117109
 10
-21.9709122192
 20
-17.4953141329
 10
-22.0451827403
 20
-17.4690934787
 10
-22.1215033709
 20
-17.4417367252
 10
-22.1998869562
 20
-17.4132289375
 10
-22.2804627246
 20
-17.3835124751
  0
LINE
  5
347
100
AcDbEntity
  8
RACCORDO
100
AcDbLine
 62
7
  6
CONTINUOUS
 10
-30.3202248114
 20
-8.562720525
 11
-30.2132533326
 21
-8.5983453079
  0
LINE
  5
348
100
AcDbEntity
  8
RACCORDO
100
AcDbLine
 62
7
  6
CONTINUOUS
 10
-30.2132533326
 20
-8.5983453079
 11
-30.1044115484
 21
-8.6355915546
  0
LINE
  5
349
100
AcDbEntity
  8
RACCORDO
100
AcDbLine
 62
7
  6
CONTINUOUS
 10
-30.1044115484
 20
-8.6355915546
 11
-29.9935742448
 21
-8.6744679738
  0
LINE
  5
34A
100
AcDbEntity
  8
RACCORDO
100
AcDbLine
 62
7
  6
CONTINUOUS
 10
-29.9935742448
 20
-8.6744679738
 11
-29.8806032625
 21
-8.7149980212
  0
LINE
  5
34B
100
AcDbEntity
  8
RACCORDO
100
AcDbLine
 62
7
  6
CONTINUOUS
 10
-29.8806032625
 20
-8.7149980212
 11
-29.7654182959
 21
-8.7571899718
  0
LINE
  5
34C
100
AcDbEntity
  8
RACCORDO
100
AcDbLine
 62
7
  6
CONTINUOUS
 10
-29.7654182959
 20
-8.7571899718
 11
-29.6478389265
 21
-8.8010989129
  0
LWPOLYLINE
  5
34D
100
AcDbEntity
  8
RACCORDO
100
AcDbPolyline
 62
250
  6
CONTINUOUS
 90
96
 70
0
 10
-22.4962806063
 20
-10.0831589813
 10
-22.5901608824
 20
-10.0473536326
 10
-22.6866974469
 20
-10.0100469437
 10
-22.7858947511
 20
-9.9712203574
 10
-22.8877640124
 20
-9.9308523977
 10
-22.9925217556
 20
-9.8888386237
 10
-23.1001772247
 20
-9.8451550094
 10
-23.2107369229
 20
-9.7997782094
 10
-23.3244258671
 20
-9.7525932769
 10
-23.4412358879
 20
-9.7035795337
 10
-23.5611844604
 20
-9.6527050289
 10
-23.6845467218
 20
-9.5998256965
 10
-23.8112956118
 20
-9.5449237855
 10
-23.9414557931
 20
-9.4879594574
 10
-24.0753854205
 20
-9.4287465853
 10
-24.2130734463
 20
-9.3672589148
 10
-24.3544852871
 20
-9.3034807838
 10
-24.499946907
 20
-9.2372319556
 10
-24.6493600257
 20
-9.1685205087
 10
-24.8027322727
 20
-9.0973053009
 10
-24.9605503269
 20
-9.0233185173
 10
-25.1225378415
 20
-8.9466440903
 10
-25.2888167852
 20
-8.8671769876
 10
-25.4604723165
 20
-8.7843403068
 10
-25.6380037707
 20
-8.697820132
 10
-25.8206666729
 20
-8.6079031553
 10
-26.0076532173
 20
-8.514916818
 10
-26.1999181147
 20
-8.4183108111
 10
-26.396084898
 20
-8.3187066819
 10
-26.591826053
 20
-8.2182740914
 10
-26.7872019081
 20
-8.1169829184
 10
-26.9816799848
 20
-8.0151082272
 10
-27.1701437367
 20
-7.9153708587
 10
-27.3509819237
 20
-7.8187141058
 10
-27.5256134754
 20
-7.7244662855
 10
-27.6936006655
 20
-7.6329384145
 10
-27.8544757864
 20
-7.5444656819
 10
-28.0086912047
 20
-7.4588776082
 10
-28.1572061888
 20
-7.3757064836
 10
-28.3000407989
 20
-7.2949987723
 10
-28.4372258473
 20
-7.2167990364
 10
-28.5696965743
 20
-7.1406294243
 10
-28.6976009004
 20
-7.0664509416
 10
-28.8208588569
 20
-6.9943550105
 10
-28.9400226981
 20
-6.924060187
 10
-29.0551559038
 20
-6.8555656015
 10
-29.1662665565
 20
-6.7889021604
 10
-29.273793402
 20
-6.7238391024
 10
-29.3777797181
 20
-6.6603793466
 10
-29.4782489815
 20
-6.5985371882
 10
-29.5755810369
 20
-6.5381042578
 10
-29.669820684
 20
-6.4790755467
 10
-29.7609776081
 20
-6.4214675346
 10
-29.8493512567
 20
-6.3651107349
 10
-29.9349727102
 20
-6.3100031843
 10
-30.0178524135
 20
-6.256156161
 10
-30.0982354482
 20
-6.2034263747
 10
-30.1761431407
 20
-6.1518154938
 10
-30.2515984077
 20
-6.1013246643
 10
-30.3248291281
 20
-6.0518154787
 10
-30.3958465721
 20
-6.0032922786
 10
-30.4646643824
 20
-5.955757652
 10
-30.5314872626
 20
-5.9090798367
 10
-30.5963209027
 20
-5.8632622352
 10
-30.6591604759
 20
-5.8183156596
 10
-30.7201681234
 20
-5.774129352
 10
-30.779345074
 20
-5.7307054581
 10
-30.8366694546
 20
-5.6880653058
 10
-30.8922452788
 20
-5.6461359987
 10
-30.9460350039
 20
-5.6049480203
 10
-30.9980405608
 20
-5.5645018555
 10
-31.0483981171
 20
-5.524690686
 10
-31.097055723
 20
-5.4855511351
 10
-31.1439959686
 20
-5.4470919206
 10
-31.1893663983
 20
-5.4091816826
 10
-31.2331076901
 20
-5.3718545807
 10
-31.2751592581
 20
-5.3351439844
 10
-31.3156283355
 20
-5.298926583
 10
-31.3544400231
 20
-5.2632328802
 10
-31.391531929
 20
-5.2280813365
 10
-31.4269819885
 20
-5.1933466466
 10
-31.4607627951
 20
-5.1589883213
 10
-31.4926898881
 20
-5.1251252196
 10
-31.5225925257
 20
-5.0918760305
 10
-31.5505464772
 20
-5.0590747629
 10
-31.5762712897
 20
-5.0269592554
 10
-31.5992170229
 20
-4.9961865751
 10
-31.6194734944
 20
-4.9666316567
 10
-31.6369678046
 20
-4.9383866291
 10
-31.6512807748
 20
-4.9122796675
 10
-31.6625381617
 20
-4.8885142328
 10
-31.6712044142
 20
-4.8666349031
 10
-31.6775728273
 20
-4.8464030447
 10
-31.6818680466
 20
-4.827686614
 10
-31.6842882743
 20
-4.8104436079
 10
-31.6850434601
 20
-4.7945898051
  0
LINE
  5
34E
100
AcDbEntity
  8
RACCORDO
100
AcDbLine
 62
7
  6
CONTINUOUS
 10
-29.6478389265
 20
-8.8010989129
 11
-29.5280769064
 21
-8.8466346219
  0
LINE
  5
34F
100
AcDbEntity
  8
RACCORDO
100
AcDbLine
 62
7
  6
CONTINUOUS
 10
-29.5280769064
 20
-8.8466346219
 11
-29.4063134973
 21
-8.893719869
  0
LINE
  5
350
100
AcDbEntity
  8
RACCORDO
100
AcDbLine
 62
7
  6
CONTINUOUS
 10
-29.4063134973
 20
-8.893719869
 11
-29.2829400877
 21
-8.9421893915
  0
LINE
  5
351
100
AcDbEntity
  8
RACCORDO
100
AcDbLine
 62
7
  6
CONTINUOUS
 10
-29.2829400877
 20
-8.9421893915
 11
-29.1583305993
 21
-8.9918813317
  0
LINE
  5
352
100
AcDbEntity
  8
RACCORDO
100
AcDbLine
 62
7
  6
CONTINUOUS
 10
-29.1583305993
 20
-8.9918813317
 11
-29.0327358549
 21
-9.0426768486
  0
LWPOLYLINE
  5
353
100
AcDbEntity
  8
RACCORDO
100
AcDbPolyline
 62
7
  6
CONTINUOUS
 90
3
 70
0
 10
-29.0327358549
 20
-9.0426768486
 10
-28.9065285746
 20
-9.0944047068
 10
-28.843318515
 20
-9.120561062
  0
LWPOLYLINE
  5
354
100
AcDbEntity
  8
DRAFT
100
AcDbPolyline
 62
7
  6
CONTINUOUS
 90
11
 70
0
 10
-22.942357931
 20
-9.5122437372
 10
-23.3462558359
 20
-9.3401976864
 10
-23.7643786729
 20
-9.1557806259
 10
-24.1967264422
 20
-8.9589925557
 10
-24.6478790656
 20
-8.7477428014
 10
-25.1132566212
 20
-8.5241220374
 10
-25.5791193431
 20
-8.2944022874
 10
-26.0454683627
 20
-8.0582218007
 10
-26.5123025486
 20
-7.8159423279
 10
-26.9658787409
 20
-7.5749211445
 10
-27.401615886
 20
-7.3376106754
  0
LWPOLYLINE
  5
355
100
AcDbEntity
  8
RACCORDO
100
AcDbPolyline
 62
250
  6
CONTINUOUS
 90
13
 70
0
 10
-31.9653364877
 20
-4.7933368273
 10
-31.9459034254
 20
-4.8018741122
 10
-31.9244291952
 20
-4.8090857341
 10
-31.9012732094
 20
-4.814850996
 10
-31.8768230278
 20
-4.8190734159
 10
-31.8514878709
 20
-4.8216823238
 10
-31.8256917704
 20
-4.8226340502
 10
-31.7998664733
 20
-4.8219126769
 10
-31.7744442153
 20
-4.8195302963
 10
-31.7498504864
 20
-4.8155267954
 10
-31.7264969095
 20
-4.8099691964
 10
-31.7047743517
 20
-4.802950534
 10
-31.6850463813
 20
-4.7945882959
  0
LINE
  5
356
100
AcDbEntity
  8
RACCORDO
100
AcDbLine
 62
7
  6
CONTINUOUS
 10
-27.7621915607
 20
-5.9585583658
 11
-27.5859355754
 21
-6.0388637951
  0
LINE
  5
357
100
AcDbEntity
  8
RACCORDO
100
AcDbLine
 62
7
  6
CONTINUOUS
 10
-27.5859355754
 20
-6.0388637951
 11
-27.4131567157
 21
-6.1184920042
  0
LINE
  5
358
100
AcDbEntity
  8
RACCORDO
100
AcDbLine
 62
7
  6
CONTINUOUS
 10
-27.4131567157
 20
-6.1184920042
 11
-27.2437791008
 21
-6.1974037714
  0
LINE
  5
359
100
AcDbEntity
  8
RACCORDO
100
AcDbLine
 62
7
  6
CONTINUOUS
 10
-27.2437791008
 20
-6.1974037714
 11
-27.0777094485
 21
-6.2755747607
  0
LINE
  5
35A
100
AcDbEntity
  8
RACCORDO
100
AcDbLine
 62
7
  6
CONTINUOUS
 10
-27.0777094485
 20
-6.2755747607
 11
-26.91483525
 21
-6.3529979156
  0
LINE
  5
35B
100
AcDbEntity
  8
RACCORDO
100
AcDbLine
 62
7
  6
CONTINUOUS
 10
-26.91483525
 20
-6.3529979156
 11
-26.7550401261
 21
-6.4296770608
  0
LINE
  5
35C
100
AcDbEntity
  8
RACCORDO
100
AcDbLine
 62
7
  6
CONTINUOUS
 10
-26.7550401261
 20
-6.4296770608
 11
-26.5982067748
 21
-6.5056207351
  0
LINE
  5
35D
100
AcDbEntity
  8
RACCORDO
100
AcDbLine
 62
7
  6
CONTINUOUS
 10
-26.5982067748
 20
-6.5056207351
 11
-26.4442187605
 21
-6.5808425018
  0
LINE
  5
35E
100
AcDbEntity
  8
RACCORDO
100
AcDbLine
 62
7
  6
CONTINUOUS
 10
-26.4442187605
 20
-6.5808425018
 11
-26.24312154
 21
-6.680053676
  0
LINE
  5
35F
100
AcDbEntity
  8
RACCORDO
100
AcDbLine
 62
7
  6
CONTINUOUS
 10
-26.24312154
 20
-6.680053676
 11
-26.0465944032
 21
-6.7780785835
  0
LINE
  5
360
100
AcDbEntity
  8
RACCORDO
100
AcDbLine
 62
7
  6
CONTINUOUS
 10
-26.0465944032
 20
-6.7780785835
 11
-25.854394874
 21
-6.8749662142
  0
LINE
  5
361
100
AcDbEntity
  8
RACCORDO
100
AcDbLine
 62
7
  6
CONTINUOUS
 10
-25.854394874
 20
-6.8749662142
 11
-25.6663624176
 21
-6.9707316977
  0
LINE
  5
362
100
AcDbEntity
  8
RACCORDO
100
AcDbLine
 62
7
  6
CONTINUOUS
 10
-25.6663624176
 20
-6.9707316977
 11
-25.4823447477
 21
-7.0653908192
  0
LINE
  5
363
100
AcDbEntity
  8
RACCORDO
100
AcDbLine
 62
7
  6
CONTINUOUS
 10
-25.4823447477
 20
-7.0653908192
 11
-25.302183154
 21
-7.1589690751
  0
LINE
  5
364
100
AcDbEntity
  8
RACCORDO
100
AcDbLine
 62
7
  6
CONTINUOUS
 10
-25.302183154
 20
-7.1589690751
 11
-25.1257261347
 21
-7.2514999724
  0
LINE
  5
365
100
AcDbEntity
  8
RACCORDO
100
AcDbLine
 62
7
  6
CONTINUOUS
 10
-25.1257261347
 20
-7.2514999724
 11
-24.9528201174
 21
-7.3430228923
  0
LINE
  5
366
100
AcDbEntity
  8
RACCORDO
100
AcDbLine
 62
7
  6
CONTINUOUS
 10
-24.9528201174
 20
-7.3430228923
 11
-24.7833089802
 21
-7.4335819305
  0
LINE
  5
367
100
AcDbEntity
  8
RACCORDO
100
AcDbLine
 62
7
  6
CONTINUOUS
 10
-24.7833089802
 20
-7.4335819305
 11
-24.6170791559
 21
-7.5232072395
  0
LINE
  5
368
100
AcDbEntity
  8
RACCORDO
100
AcDbLine
 62
7
  6
CONTINUOUS
 10
-24.6170791559
 20
-7.5232072395
 11
-24.4540359489
 21
-7.6119235955
  0
LINE
  5
369
100
AcDbEntity
  8
RACCORDO
100
AcDbLine
 62
7
  6
CONTINUOUS
 10
-24.4540359489
 20
-7.6119235955
 11
-24.2940806117
 21
-7.6997588447
  0
LINE
  5
36A
100
AcDbEntity
  8
RACCORDO
100
AcDbLine
 62
7
  6
CONTINUOUS
 10
-24.2940806117
 20
-7.6997588447
 11
-24.1371208752
 21
-7.7867434235
  0
LWPOLYLINE
  5
36B
100
AcDbEntity
  8
DRAFT
100
AcDbPolyline
 62
7
  6
CONTINUOUS
 90
3
 70
0
 10
-27.401615886
 20
-7.3376106754
 10
-27.8240950374
 20
-7.1015584957
 10
-28.2333161952
 20
-6.8667646052
  0
LINE
  5
36C
100
AcDbEntity
  8
RACCORDO
100
AcDbLine
 62
7
  6
CONTINUOUS
 10
-24.1371208752
 20
-7.7867434235
 11
-23.9830623108
 21
-7.8729141822
  0
LINE
  5
36D
100
AcDbEntity
  8
RACCORDO
100
AcDbLine
 62
7
  6
CONTINUOUS
 10
-23.9830623108
 20
-7.8729141822
 11
-23.8318054894
 21
-7.9583108355
  0
LWPOLYLINE
  5
36E
100
AcDbEntity
  8
RACCORDO
100
AcDbPolyline
 62
250
  6
CONTINUOUS
 90
7
 70
0
 10
-20.3415885814
 20
-10.6052102291
 10
-20.3586631127
 20
-10.595493678
 10
-20.3730863793
 20
-10.584756574
 10
-20.3846169802
 20
-10.57317862
 10
-20.3930619291
 20
-10.5609535846
 10
-20.3982798837
 20
-10.5482860766
 10
-20.4001912664
 20
-10.534643532
  0
LINE
  5
36F
100
AcDbEntity
  8
RACCORDO
100
AcDbLine
 62
7
  6
CONTINUOUS
 10
-23.8318054894
 20
-7.9583108355
 11
-23.6832566398
 21
-8.0429717368
  0
LINE
  5
370
100
AcDbEntity
  8
RACCORDO
100
AcDbLine
 62
7
  6
CONTINUOUS
 10
-23.6832566398
 20
-8.0429717368
 11
-23.5373211605
 21
-8.1269372736
  0
LINE
  5
371
100
AcDbEntity
  8
RACCORDO
100
AcDbLine
 62
7
  6
CONTINUOUS
 10
-23.5373211605
 20
-8.1269372736
 11
-23.3938958734
 21
-8.2102537256
  0
LINE
  5
372
100
AcDbEntity
  8
RACCORDO
100
AcDbLine
 62
7
  6
CONTINUOUS
 10
-23.3938958734
 20
-8.2102537256
 11
-23.2528824115
 21
-8.2929720729
  0
LINE
  5
373
100
AcDbEntity
  8
RACCORDO
100
AcDbLine
 62
7
  6
CONTINUOUS
 10
-23.2528824115
 20
-8.2929720729
 11
-23.1141810948
 21
-8.3751475049
  0
LINE
  5
374
100
AcDbEntity
  8
RACCORDO
100
AcDbLine
 62
7
  6
CONTINUOUS
 10
-23.1141810948
 20
-8.3751475049
 11
-22.9776901138
 21
-8.4568396825
  0
LINE
  5
375
100
AcDbEntity
  8
RACCORDO
100
AcDbLine
 62
7
  6
CONTINUOUS
 10
-22.9776901138
 20
-8.4568396825
 11
-22.8433128131
 21
-8.5381141146
  0
LINE
  5
376
100
AcDbEntity
  8
RACCORDO
100
AcDbLine
 62
7
  6
CONTINUOUS
 10
-22.8433128131
 20
-8.5381141146
 11
-22.7109525568
 21
-8.619037983
  0
LINE
  5
377
100
AcDbEntity
  8
RACCORDO
100
AcDbLine
 62
7
  6
CONTINUOUS
 10
-22.7109525568
 20
-8.619037983
 11
-22.5805117179
 21
-8.6996887509
  0
LINE
  5
378
100
AcDbEntity
  8
RACCORDO
100
AcDbLine
 62
7
  6
CONTINUOUS
 10
-22.5805117179
 20
-8.6996887509
 11
-22.4518995675
 21
-8.7801454124
  0
LINE
  5
379
100
AcDbEntity
  8
RACCORDO
100
AcDbLine
 62
7
  6
CONTINUOUS
 10
-22.4518995675
 20
-8.7801454124
 11
-22.325100477
 21
-8.8604478189
  0
LINE
  5
37A
100
AcDbEntity
  8
RACCORDO
100
AcDbLine
 62
7
  6
CONTINUOUS
 10
-22.325100477
 20
-8.8604478189
 11
-22.2312238952
 21
-8.9205762868
  0
LINE
  5
37B
100
AcDbEntity
  8
RACCORDO
100
AcDbLine
 62
7
  6
CONTINUOUS
 10
-22.2312238952
 20
-8.9205762868
 11
-22.1384234667
 21
-8.980620557
  0
LINE
  5
37C
100
AcDbEntity
  8
RACCORDO
100
AcDbLine
 62
7
  6
CONTINUOUS
 10
-22.1384234667
 20
-8.980620557
 11
-22.0467256691
 21
-9.0405853198
  0
LINE
  5
37D
100
AcDbEntity
  8
RACCORDO
100
AcDbLine
 62
7
  6
CONTINUOUS
 10
-22.0467256691
 20
-9.0405853198
 11
-21.9561560258
 21
-9.1004754301
  0
LINE
  5
37E
100
AcDbEntity
  8
RACCORDO
100
AcDbLine
 62
7
  6
CONTINUOUS
 10
-21.9561560258
 20
-9.1004754301
 11
-21.8667440175
 21
-9.1602947272
  0
LINE
  5
37F
100
AcDbEntity
  8
RACCORDO
100
AcDbLine
 62
7
  6
CONTINUOUS
 10
-21.8667440175
 20
-9.1602947272
 11
-21.778519558
 21
-9.2200524843
  0
LINE
  5
380
100
AcDbEntity
  8
RACCORDO
100
AcDbLine
 62
7
  6
CONTINUOUS
 10
-21.778519558
 20
-9.2200524843
 11
-21.691514877
 21
-9.279755103
  0
LWPOLYLINE
  5
381
100
AcDbEntity
  8
RACCORDO
100
AcDbPolyline
 62
7
  6
CONTINUOUS
 90
3
 70
0
 10
-21.691514877
 20
-9.279755103
 10
-21.6342080722
 20
-9.3195320138
 10
-21.6057667712
 20
-9.3394156202
  0
LINE
  5
382
100
AcDbEntity
  8
RACCORDO
100
AcDbLine
 62
7
  6
CONTINUOUS
 10
-21.3510766934
 20
-5.8643324186
 11
-21.2972701671
 21
-5.9042038061
  0
LINE
  5
383
100
AcDbEntity
  8
RACCORDO
100
AcDbLine
 62
7
  6
CONTINUOUS
 10
-21.2972701671
 20
-5.9042038061
 11
-21.244102945
 21
-5.9441179791
  0
LINE
  5
384
100
AcDbEntity
  8
RACCORDO
100
AcDbLine
 62
7
  6
CONTINUOUS
 10
-21.244102945
 20
-5.9441179791
 11
-21.1916091776
 21
-5.984074201
  0
LINE
  5
385
100
AcDbEntity
  8
RACCORDO
100
AcDbLine
 62
7
  6
CONTINUOUS
 10
-21.1916091776
 20
-5.984074201
 11
-21.1398354739
 21
-6.0240615687
  0
LINE
  5
386
100
AcDbEntity
  8
RACCORDO
100
AcDbLine
 62
7
  6
CONTINUOUS
 10
-21.1398354739
 20
-6.0240615687
 11
-21.08881893
 21
-6.0640864414
  0
LWPOLYLINE
  5
387
100
AcDbEntity
  8
RACCORDO
100
AcDbPolyline
 62
7
  6
CONTINUOUS
 90
40
 70
0
 10
-21.08881893
 20
-6.0640864414
 10
-21.0386071539
 20
-6.1041491907
 10
-21.0138208895
 20
-6.1241916041
 10
-20.9892554043
 20
-6.1442423978
 10
-20.9649141908
 20
-6.1643060695
 10
-20.940812726
 20
-6.1843770689
 10
-20.9169521941
 20
-6.2044614417
 10
-20.893338629
 20
-6.2245611052
 10
-20.8699946169
 20
-6.2446637889
 10
-20.8469335592
 20
-6.2647679359
 10
-20.8241542424
 20
-6.284886976
 10
-20.8016584932
 20
-6.3050321512
 10
-20.77945791
 20
-6.3252062718
 10
-20.7575555438
 20
-6.3454202031
 10
-20.7359416694
 20
-6.3656983057
 10
-20.7146262798
 20
-6.3860503964
 10
-20.6936237202
 20
-6.4064844583
 10
-20.6729345038
 20
-6.427024567
 10
-20.6525732027
 20
-6.4476843846
 10
-20.6325595546
 20
-6.4684753386
 10
-20.6129075888
 20
-6.489416622
 10
-20.5936494351
 20
-6.5105151388
 10
-20.5748154832
 20
-6.5317900183
 10
-20.5564286824
 20
-6.5532827146
 10
-20.538558218
 20
-6.5749887493
 10
-20.5212256668
 20
-6.5969126718
 10
-20.5044148389
 20
-6.6191221531
 10
-20.4882399818
 20
-6.6415873458
 10
-20.4728222208
 20
-6.6643554168
 10
-20.4582233438
 20
-6.6875979164
 10
-20.4445210301
 20
-6.7112353959
 10
-20.4318523459
 20
-6.7350900023
 10
-20.4204023072
 20
-6.7590083362
 10
-20.4103534381
 20
-6.7830399564
 10
-20.4020930292
 20
-6.8066922677
 10
-20.3959334442
 20
-6.8288390155
 10
-20.3918050359
 20
-6.8483374752
 10
-20.3892133054
 20
-6.86572485
 10
-20.3879856644
 20
-6.8821779174
 10
-20.3879055509
 20
-6.8895688839
  0
LWPOLYLINE
  5
388
100
AcDbEntity
  8
RACCORDO
100
AcDbPolyline
 62
250
  6
CONTINUOUS
 90
5
 70
0
 10
-20.3350992211
 20
-3.1031542676
 10
-20.3192047154
 20
-3.1458684315
 10
-20.3069424807
 20
-3.1872931975
 10
-20.2985238614
 20
-3.2269222847
 10
-20.2937373592
 20
-3.2652618997
  0
LINE
  5
389
100
AcDbEntity
  8
DRAFT
100
AcDbLine
 62
7
  6
CONTINUOUS
 10
-7.2677719615
 20
13.70710392
 11
-7.7063982464
 21
12.9332496837
  0
LINE
  5
38A
100
AcDbEntity
  8
DRAFT
100
AcDbLine
 62
7
  6
CONTINUOUS
 10
-25.9460006888
 20
-4.4712900638
 11
-25.6898232466
 21
-4.2375424625
  0
LINE
  5
38B
100
AcDbEntity
  8
DRAFT
100
AcDbLine
 62
7
  6
CONTINUOUS
 10
-28.2333161952
 20
-3.229457777
 11
-27.885934102
 21
-3.0415391651
  0
LINE
  5
38C
100
AcDbEntity
  8
RACCORDO
100
AcDbLine
 62
250
  6
CONTINUOUS
 10
-10.6563995311
 20
7.1084742321
 11
-11.5517674566
 21
6.6511940276
  0
LINE
  5
38D
100
AcDbEntity
  8
RACCORDO
100
AcDbLine
 62
250
  6
CONTINUOUS
 10
-10.5096211769
 20
6.5068799258
 11
-11.5517674566
 21
5.9750078034
  0
LINE
  5
38E
100
AcDbEntity
  8
RACCORDO
100
AcDbLine
 62
7
  6
CONTINUOUS
 10
-31.5968275078
 20
-1.0397480105
 11
-31.5962711823
 21
-1.0394861144
  0
LINE
  5
38F
100
AcDbEntity
  8
RACCORDO
100
AcDbLine
 62
7
  6
CONTINUOUS
 10
-11.4771130339
 20
8.493157684
 11
-11.5517674566
 21
8.4613646978
  0
LINE
  5
390
100
AcDbEntity
  8
RACCORDO
100
AcDbLine
 62
250
  6
CONTINUOUS
 10
-11.2842981049
 20
8.370912145
 11
-11.5517674566
 21
8.2571370735
  0
LWPOLYLINE
  5
391
100
AcDbEntity
  8
RACCORDO
100
AcDbPolyline
 62
7
  6
CONTINUOUS
 90
31
 70
0
 10
-31.5961919067
 20
-1.0394706938
 10
-31.5895055609
 20
-1.0366845921
 10
-31.5695379688
 20
-1.0306895564
 10
-31.5419703169
 20
-1.025534854
 10
-31.5100337472
 20
-1.022197069
 10
-31.4746382018
 20
-1.0207158868
 10
-31.4357976671
 20
-1.0210083334
 10
-31.3950804236
 20
-1.0229560752
 10
-31.3530217173
 20
-1.0263471668
 10
-31.309495287
 20
-1.031057966
 10
-31.2649835866
 20
-1.0369242167
 10
-31.2196767532
 20
-1.043813346
 10
-31.1735443923
 20
-1.0516569954
 10
-31.1267155183
 20
-1.0603645299
 10
-31.07926444
 20
-1.0698684704
 10
-31.031184532
 20
-1.0801259374
 10
-30.9824632722
 20
-1.0910980129
 10
-30.9330682927
 20
-1.1027638525
 10
-30.8830657696
 20
-1.1150825742
 10
-30.8325812046
 20
-1.1279958094
 10
-30.7816476375
 20
-1.1414729624
 10
-30.7302523624
 20
-1.1554970299
 10
-30.678447824
 20
-1.1700328433
 10
-30.626272869
 20
-1.1850520585
 10
-30.573703019
 20
-1.2005463829
 10
-30.5206939868
 20
-1.2165138784
 10
-30.4672529022
 20
-1.2329397702
 10
-30.4133823422
 20
-1.2498138892
 10
-30.359030476
 20
-1.2671433853
 10
-30.3042022585
 20
-1.2849177943
 10
-30.2488996325
 20
-1.3031298798
  0
LWPOLYLINE
  5
392
100
AcDbEntity
  8
RACCORDO
100
AcDbPolyline
 62
7
  6
CONTINUOUS
 90
13
 70
0
 10
-11.4770801175
 20
8.4930874089
 10
-11.4743411401
 20
8.4941702625
 10
-11.4579376288
 20
8.4984209885
 10
-11.4406561629
 20
8.4993075014
 10
-11.4224476173
 20
8.4966476454
 10
-11.4033611172
 20
8.4906235763
 10
-11.3844116617
 20
8.4815586744
 10
-11.3656162787
 20
8.4693031923
 10
-11.3469579404
 20
8.4540068776
 10
-11.3294005623
 20
8.4364423531
 10
-11.3132654496
 20
8.4168671601
 10
-11.2982312972
 20
8.3950237573
 10
-11.284298105
 20
8.370912145
  0
LINE
  5
393
100
AcDbEntity
  8
RACCORDO
100
AcDbLine
 62
250
  6
CONTINUOUS
 10
-20.3914747314
 20
-17.8327146659
 11
-20.4116593883
 21
-17.8383798675
  0
LWPOLYLINE
  5
394
100
AcDbEntity
  8
RACCORDO
100
AcDbPolyline
 62
250
  6
CONTINUOUS
 90
4
 70
0
 10
-20.4116593883
 20
-17.8383798675
 10
-20.4337685824
 20
-17.8430446715
 10
-20.457498047
 20
-17.8466509915
 10
-20.4827029009
 20
-17.8492164711
  0
LWPOLYLINE
  5
395
100
AcDbEntity
  8
RACCORDO
100
AcDbPolyline
 62
250
  6
CONTINUOUS
 90
38
 70
0
 10
-20.5101517375
 20
-14.2317363462
 10
-20.5371520939
 20
-14.2338885044
 10
-20.5657126287
 20
-14.2349893241
 10
-20.5957708604
 20
-14.2350699628
 10
-20.6272472396
 20
-14.2341641149
 10
-20.6601175188
 20
-14.2323052925
 10
-20.6944125048
 20
-14.2295181708
 10
-20.7300901142
 20
-14.2258282875
 10
-20.7671163129
 20
-14.2212603778
 10
-20.8055565883
 20
-14.2158234808
 10
-20.8453712241
 20
-14.2095341285
 10
-20.886527482
 20
-14.2024066865
 10
-20.9291210029
 20
-14.1944305013
 10
-20.9731320423
 20
-14.185612165
 10
-21.0185355757
 20
-14.1759592017
 10
-21.0654460432
 20
-14.1654471004
 10
-21.113874714
 20
-14.1540706472
 10
-21.163791734
 20
-14.1418340378
 10
-21.2152690851
 20
-14.1287155716
 10
-21.2683001531
 20
-14.1147119325
 10
-21.3228838304
 20
-14.0998186065
 10
-21.3791130299
 20
-14.0840050491
 10
-21.4369864843
 20
-14.0672661017
 10
-21.4965063142
 20
-14.0495958359
 10
-21.5577838585
 20
-14.0309547436
 10
-21.6208263471
 20
-14.0113328391
 10
-21.6856394626
 20
-13.9907205614
 10
-21.7523461608
 20
-13.9690700344
 10
-21.8209617847
 20
-13.946366236
 10
-21.8914945569
 20
-13.9225964326
 10
-21.9640694658
 20
-13.8977076498
 10
-22.0387056107
 20
-13.8716812496
 10
-22.1154110463
 20
-13.8445034977
 10
-22.1943035516
 20
-13.816121986
 10
-22.2753861065
 20
-13.7865236463
 10
-22.3586757062
 20
-13.7556903203
 10
-22.4443213371
 20
-13.7235543149
 10
-22.5323283966
 20
-13.6900995004
  0
LINE
  5
396
100
AcDbEntity
  8
RACCORDO
100
AcDbLine
 62
7
  6
CONTINUOUS
 10
-30.2579474959
 20
-4.951852333
 11
-30.1451414286
 21
-4.9900200875
  0
LINE
  5
397
100
AcDbEntity
  8
RACCORDO
100
AcDbLine
 62
7
  6
CONTINUOUS
 10
-30.1451414286
 20
-4.9900200875
 11
-30.0301174071
 21
-5.0299894446
  0
LINE
  5
398
100
AcDbEntity
  8
RACCORDO
100
AcDbLine
 62
7
  6
CONTINUOUS
 10
-30.0301174071
 20
-5.0299894446
 11
-29.9126968733
 21
-5.0717934365
  0
LINE
  5
399
100
AcDbEntity
  8
RACCORDO
100
AcDbLine
 62
7
  6
CONTINUOUS
 10
-29.9126968733
 20
-5.0717934365
 11
-29.7926727628
 21
-5.1154866199
  0
LINE
  5
39A
100
AcDbEntity
  8
RACCORDO
100
AcDbLine
 62
7
  6
CONTINUOUS
 10
-29.7926727628
 20
-5.1154866199
 11
-29.6699938947
 21
-5.1610751159
  0
LINE
  5
39B
100
AcDbEntity
  8
RACCORDO
100
AcDbLine
 62
7
  6
CONTINUOUS
 10
-29.6699938947
 20
-5.1610751159
 11
-29.5445982487
 21
-5.2085734449
  0
LWPOLYLINE
  5
39C
100
AcDbEntity
  8
RACCORDO
100
AcDbPolyline
 62
250
  6
CONTINUOUS
 90
96
 70
0
 10
-22.5442194842
 20
-6.4217732123
 10
-22.6347522519
 20
-6.3870539068
 10
-22.7278405535
 20
-6.350909852
 10
-22.8234934903
 20
-6.3133208153
 10
-22.9217266723
 20
-6.2742636864
 10
-23.0227397165
 20
-6.2336404522
 10
-23.1265433714
 20
-6.1914270622
 10
-23.2331503188
 20
-6.1475982099
 10
-23.3427736811
 20
-6.1020440221
 10
-23.4554107879
 20
-6.0547424577
 10
-23.571081402
 20
-6.0056614841
 10
-23.6900423246
 20
-5.9546654717
 10
-23.8122751613
 20
-5.9017343628
 10
-23.9378040774
 20
-5.8468298995
 10
-24.0669537933
 20
-5.7897816795
 10
-24.1997037946
 20
-5.7305694338
 10
-24.3360402908
 20
-5.669169916
 10
-24.4763015365
 20
-5.6053985731
 10
-24.6204191089
 20
-5.5392515669
 10
-24.7683883498
 20
-5.4706950916
 10
-24.9206452315
 20
-5.3994869125
 10
-25.0769860468
 20
-5.3256793772
 10
-25.2374833946
 20
-5.2491935577
 10
-25.4029870045
 20
-5.1695704346
 10
-25.573642909
 20
-5.0866771819
 10
-25.7490911854
 20
-5.0006231464
 10
-25.9294024055
 20
-4.9113041978
 10
-26.1153487562
 20
-4.8182583883
 10
-26.3057902604
 20
-4.7219801131
 10
-26.4978969697
 20
-4.6238528841
 10
-26.6924583417
 20
-4.5234368329
 10
-26.8881912112
 20
-4.4213570409
 10
-27.0792266141
 20
-4.3206902876
 10
-27.2641236031
 20
-4.2222655472
 10
-27.4440476529
 20
-4.1255298648
 10
-27.6171976315
 20
-4.0315210532
 10
-27.7827519112
 20
-3.9407719393
 10
-27.9414979125
 20
-3.8529350926
 10
-28.0941090257
 20
-3.7677091235
 10
-28.2404337614
 20
-3.6852441862
 10
-28.3806814259
 20
-3.6054905577
 10
-28.5160346739
 20
-3.5278369033
 10
-28.6467114847
 20
-3.4522066895
 10
-28.7725616501
 20
-3.3787341463
 10
-28.8941662488
 20
-3.3071251435
 10
-29.0115968401
 20
-3.2373763742
 10
-29.1248563396
 20
-3.1695238096
 10
-29.2343919067
 20
-3.1033348105
 10
-29.3402421336
 20
-3.0388172029
 10
-29.4424405055
 20
-2.9759810484
 10
-29.5413962791
 20
-2.9146023293
 10
-29.6371580519
 20
-2.8546751083
 10
-29.7297357754
 20
-2.7962169712
 10
-29.8194509356
 20
-2.7390462411
 10
-29.9063400261
 20
-2.6831585052
 10
-29.9904109792
 20
-2.6285675277
 10
-30.0719167781
 20
-2.5751259103
 10
-30.1508794897
 20
-2.5228353874
 10
-30.2273233573
 20
-2.4716971038
 10
-30.3014834539
 20
-2.4215689658
 10
-30.3733724028
 20
-2.3724551953
 10
-30.4430057674
 20
-2.3243578172
 10
-30.5105955895
 20
-2.2771409062
 10
-30.5761481377
 20
-2.2308081421
 10
-30.6396607782
 20
-2.1853693966
 10
-30.7013044369
 20
-2.1407082423
 10
-30.7610814162
 20
-2.0968262912
 10
-30.818970057
 20
-2.0537448906
 10
-30.8750808917
 20
-2.0113867291
 10
-30.9293786805
 20
-1.9697808626
 10
-30.9818639189
 20
-1.9289291323
 10
-31.0326731917
 20
-1.8887246469
 10
-31.0817535023
 20
-1.8492052938
 10
-31.1290897468
 20
-1.8103782193
 10
-31.1748343751
 20
-1.7721079331
 10
-31.2189282782
 20
-1.7344287247
 10
-31.2613102594
 20
-1.6973745441
 10
-31.3020892516
 20
-1.6608200685
 10
-31.3411900539
 20
-1.6247964382
 10
-31.3785494489
 20
-1.5893222635
 10
-31.414246407
 20
-1.5542684529
 10
-31.4482494503
 20
-1.519598828
 10
-31.4803761425
 20
-1.485429182
 10
-31.51046247
 20
-1.4518648618
 10
-31.5385861741
 20
-1.4187357887
 10
-31.5644554023
 20
-1.3862883881
 10
-31.5875082957
 20
-1.3551849497
 10
-31.607823784
 20
-1.3253139157
 10
-31.6253383122
 20
-1.2967549461
 10
-31.639644273
 20
-1.2703045979
 10
-31.6508799073
 20
-1.2461110442
 10
-31.6594678403
 20
-1.2237850579
 10
-31.6656636411
 20
-1.2032257337
 10
-31.6697159949
 20
-1.1843326764
 10
-31.6718651546
 20
-1.1670064113
 10
-31.6723470705
 20
-1.1511527287
  0
LINE
  5
39D
100
AcDbEntity
  8
RACCORDO
100
AcDbLine
 62
7
  6
CONTINUOUS
 10
-29.5445982487
 20
-5.2085734449
 11
-29.4170697183
 21
-5.2577528702
  0
LINE
  5
39E
100
AcDbEntity
  8
RACCORDO
100
AcDbLine
 62
7
  6
CONTINUOUS
 10
-29.4170697183
 20
-5.2577528702
 11
-29.2877578748
 21
-5.3084619344
  0
LINE
  5
39F
100
AcDbEntity
  8
RACCORDO
100
AcDbLine
 62
7
  6
CONTINUOUS
 10
-29.2877578748
 20
-5.3084619344
 11
-29.1572214397
 21
-5.3604637319
  0
LINE
  5
3A0
100
AcDbEntity
  8
RACCORDO
100
AcDbLine
 62
7
  6
CONTINUOUS
 10
-29.1572214397
 20
-5.3604637319
 11
-29.0260112091
 21
-5.4135115762
  0
LINE
  5
3A1
100
AcDbEntity
  8
RACCORDO
100
AcDbLine
 62
7
  6
CONTINUOUS
 10
-29.0260112091
 20
-5.4135115762
 11
-28.8944958476
 21
-5.4674278224
  0
LINE
  5
3A2
100
AcDbEntity
  8
RACCORDO
100
AcDbLine
 62
7
  6
CONTINUOUS
 10
-28.8944958476
 20
-5.4674278224
 11
-28.7632239024
 21
-5.5219549112
  0
LINE
  5
3A3
100
AcDbEntity
  8
RACCORDO
100
AcDbLine
 62
7
  6
CONTINUOUS
 10
-28.7632239024
 20
-5.5219549112
 11
-28.6327564565
 21
-5.5768217502
  0
LWPOLYLINE
  5
3A4
100
AcDbEntity
  8
DRAFT
100
AcDbPolyline
 62
7
  6
CONTINUOUS
 90
11
 70
0
 10
-22.942357931
 20
-5.874936909
 10
-23.3462559166
 20
-5.7028908015
 10
-23.7643787907
 20
-5.5184737216
 10
-24.1967265532
 20
-5.3216856692
 10
-24.6478791084
 20
-5.1104359934
 10
-25.1132565521
 20
-4.8868153453
 10
-25.5791191715
 20
-4.6570956772
 10
-26.0454680979
 20
-4.4209152096
 10
-26.5123022
 20
-4.1786357221
 10
-26.9658783714
 20
-3.937614506
 10
-27.4016155767
 20
-3.7003039916
  0
LINE
  5
3A5
100
AcDbEntity
  8
RACCORDO
100
AcDbLine
 62
7
  6
CONTINUOUS
 10
-28.6327564565
 20
-5.5768217502
 11
-28.5034283246
 21
-5.6318498621
  0
LINE
  5
3A6
100
AcDbEntity
  8
RACCORDO
100
AcDbLine
 62
7
  6
CONTINUOUS
 10
-28.5034283246
 20
-5.6318498621
 11
-28.3757627511
 21
-5.6867749355
  0
LINE
  5
3A7
100
AcDbEntity
  8
RACCORDO
100
AcDbLine
 62
7
  6
CONTINUOUS
 10
-28.3757627511
 20
-5.6867749355
 11
-28.1873856381
 21
-5.7688761991
  0
LINE
  5
3A8
100
AcDbEntity
  8
RACCORDO
100
AcDbLine
 62
7
  6
CONTINUOUS
 10
-28.1873856381
 20
-5.7688761991
 11
-28.0027346895
 21
-5.8505278783
  0
LWPOLYLINE
  5
3A9
100
AcDbEntity
  8
RACCORDO
100
AcDbPolyline
 62
7
  6
CONTINUOUS
 90
3
 70
0
 10
-28.0027346895
 20
-5.8505278783
 10
-27.8217297267
 20
-5.9316481989
 10
-27.7621915607
 20
-5.9585583658
  0
LINE
  5
3AA
100
AcDbEntity
  8
RACCORDO
100
AcDbLine
 62
7
  6
CONTINUOUS
 10
-26.4409849478
 20
-2.9260240975
 11
-26.2396999698
 21
-3.0252286109
  0
LINE
  5
3AB
100
AcDbEntity
  8
RACCORDO
100
AcDbLine
 62
7
  6
CONTINUOUS
 10
-26.2396999698
 20
-3.0252286109
 11
-26.0430004357
 21
-3.1232508741
  0
LINE
  5
3AC
100
AcDbEntity
  8
RACCORDO
100
AcDbLine
 62
7
  6
CONTINUOUS
 10
-26.0430004357
 20
-3.1232508741
 11
-25.8506223391
 21
-3.2201495946
  0
LINE
  5
3AD
100
AcDbEntity
  8
RACCORDO
100
AcDbLine
 62
7
  6
CONTINUOUS
 10
-25.8506223391
 20
-3.2201495946
 11
-25.6624040857
 21
-3.315939243
  0
LINE
  5
3AE
100
AcDbEntity
  8
RACCORDO
100
AcDbLine
 62
7
  6
CONTINUOUS
 10
-25.6624040857
 20
-3.315939243
 11
-25.4781991036
 21
-3.4106316103
  0
LINE
  5
3AF
100
AcDbEntity
  8
RACCORDO
100
AcDbLine
 62
7
  6
CONTINUOUS
 10
-25.4781991036
 20
-3.4106316103
 11
-25.2978545812
 21
-3.5042510758
  0
LINE
  5
3B0
100
AcDbEntity
  8
RACCORDO
100
AcDbLine
 62
7
  6
CONTINUOUS
 10
-25.2978545812
 20
-3.5042510758
 11
-25.121223419
 21
-3.5968278834
  0
LINE
  5
3B1
100
AcDbEntity
  8
RACCORDO
100
AcDbLine
 62
7
  6
CONTINUOUS
 10
-25.121223419
 20
-3.5968278834
 11
-24.9481576267
 21
-3.6883959136
  0
LINE
  5
3B2
100
AcDbEntity
  8
RACCORDO
100
AcDbLine
 62
7
  6
CONTINUOUS
 10
-24.9481576267
 20
-3.6883959136
 11
-24.7785063254
 21
-3.7789964598
  0
LINE
  5
3B3
100
AcDbEntity
  8
RACCORDO
100
AcDbLine
 62
7
  6
CONTINUOUS
 10
-24.7785063254
 20
-3.7789964598
 11
-24.6121524091
 21
-3.8686620751
  0
LWPOLYLINE
  5
3B4
100
AcDbEntity
  8
RACCORDO
100
AcDbPolyline
 62
250
  6
CONTINUOUS
 90
62
 70
0
 10
-27.5875876353
 20
-4.3647187088
 10
-27.7613840526
 20
-4.2703948264
 10
-27.9275076247
 20
-4.1793626909
 10
-28.0868404344
 20
-4.0911480774
 10
-28.2400608013
 20
-4.0055927971
 10
-28.386979463
 20
-3.9228217078
 10
-28.5277856423
 20
-3.8427099321
 10
-28.6637253991
 20
-3.7647246836
 10
-28.7949948467
 20
-3.688772229
 10
-28.921397837
 20
-3.6149462845
 10
-29.0435920457
 20
-3.5429952427
 10
-29.1616218387
 20
-3.4729051867
 10
-29.2754428222
 20
-3.4046900198
 10
-29.3855795402
 20
-3.3381398686
 10
-29.4920469861
 20
-3.2732555378
 10
-29.5948301438
 20
-3.2100362117
 10
-29.6944085483
 20
-3.1482695889
 10
-29.7908155982
 20
-3.0879433147
 10
-29.8840178749
 20
-3.029069734
 10
-29.9743946891
 20
-2.971473597
 10
-30.0619713746
 20
-2.9151447487
 10
-30.1467225791
 20
-2.860093335
 10
-30.2289515853
 20
-2.8061745573
 10
-30.3086666753
 20
-2.753387976
 10
-30.3858595489
 20
-2.7017340218
 10
-30.4608086161
 20
-2.6510692021
 10
-30.5335270616
 20
-2.6013909675
 10
-30.6040016813
 20
-2.5527018577
 10
-30.6724713012
 20
-2.5048660136
 10
-30.7389570128
 20
-2.4578749789
 10
-30.8034377019
 20
-2.4117371988
 10
-30.8660888816
 20
-2.3663421639
 10
-30.9269356608
 20
-2.321676181
 10
-30.9859529034
 20
-2.2777529299
 10
-31.0432407522
 20
-2.2345029595
 10
-31.0987945548
 20
-2.1919373061
 10
-31.1526189325
 20
-2.1500449181
 10
-31.2048279334
 20
-2.108723209
 10
-31.2554212294
 20
-2.0679865333
 10
-31.3043991088
 20
-2.0278205169
 10
-31.3518765309
 20
-1.9880794745
 10
-31.3978657265
 20
-1.9487791095
 10
-31.4423544075
 20
-1.9099036903
 10
-31.4854207329
 20
-1.871260368
 10
-31.527068629
 20
-1.8328923562
 10
-31.5672940797
 20
-1.7947563971
 10
-31.6061632846
 20
-1.7565299121
 10
-31.6437444532
 20
-1.7182159242
 10
-31.6799692142
 20
-1.679811331
 10
-31.7146988163
 20
-1.6409843264
 10
-31.7480556324
 20
-1.601726772
 10
-31.779917006
 20
-1.5620466672
 10
-31.8097765106
 20
-1.5216363481
 10
-31.8378083669
 20
-1.480245063
 10
-31.8638378272
 20
-1.4381233052
 10
-31.8868349007
 20
-1.3957152233
 10
-31.9066918582
 20
-1.3527118506
 10
-31.9235157424
 20
-1.3094218174
 10
-31.9365988786
 20
-1.2672157458
 10
-31.9457053588
 20
-1.2265505017
 10
-31.9510708223
 20
-1.1869690878
 10
-31.9526951074
 20
-1.1484714252
  0
LINE
  5
3B5
100
AcDbEntity
  8
RACCORDO
100
AcDbLine
 62
7
  6
CONTINUOUS
 10
-24.6121524091
 20
-3.8686620751
 11
-24.4489982452
 21
-3.957416839
  0
LINE
  5
3B6
100
AcDbEntity
  8
RACCORDO
100
AcDbLine
 62
7
  6
CONTINUOUS
 10
-24.4489982452
 20
-3.957416839
 11
-24.2889439725
 21
-4.0452884617
  0
LINE
  5
3B7
100
AcDbEntity
  8
RACCORDO
100
AcDbLine
 62
7
  6
CONTINUOUS
 10
-24.2889439725
 20
-4.0452884617
 11
-24.1318947885
 21
-4.1323104754
  0
LWPOLYLINE
  5
3B8
100
AcDbEntity
  8
DRAFT
100
AcDbPolyline
 62
7
  6
CONTINUOUS
 90
3
 70
0
 10
-27.4016155767
 20
-3.7003039916
 10
-27.8240948513
 20
-3.4642517486
 10
-28.2333161952
 20
-3.229457777
  0
LINE
  5
3B9
100
AcDbEntity
  8
RACCORDO
100
AcDbLine
 62
7
  6
CONTINUOUS
 10
-24.1318947885
 20
-4.1323104754
 11
-23.9777539832
 21
-4.2185197965
  0
LINE
  5
3BA
100
AcDbEntity
  8
RACCORDO
100
AcDbLine
 62
7
  6
CONTINUOUS
 10
-23.9777539832
 20
-4.2185197965
 11
-23.8264205215
 21
-4.3039561724
  0
LWPOLYLINE
  5
3BB
100
AcDbEntity
  8
RACCORDO
100
AcDbPolyline
 62
250
  6
CONTINUOUS
 90
6
 70
0
 10
-20.329354535
 20
-6.9601137519
 10
-20.34642769
 20
-6.9504114335
 10
-20.3608492635
 20
-6.9397126193
 10
-20.3723779169
 20
-6.9281963629
 10
-20.3808207231
 20
-6.916055391
 10
-20.386036396
 20
-6.903492898
  0
LINE
  5
3BC
100
AcDbEntity
  8
RACCORDO
100
AcDbLine
 62
7
  6
CONTINUOUS
 10
-23.8264205215
 20
-4.3039561724
 11
-23.6777984112
 21
-4.3886593211
  0
LINE
  5
3BD
100
AcDbEntity
  8
RACCORDO
100
AcDbLine
 62
7
  6
CONTINUOUS
 10
-23.6777984112
 20
-4.3886593211
 11
-23.5317919784
 21
-4.4726696673
  0
LINE
  5
3BE
100
AcDbEntity
  8
RACCORDO
100
AcDbLine
 62
7
  6
CONTINUOUS
 10
-23.5317919784
 20
-4.4726696673
 11
-23.3883019113
 21
-4.5560318028
  0
LINE
  5
3BF
100
AcDbEntity
  8
RACCORDO
100
AcDbLine
 62
7
  6
CONTINUOUS
 10
-23.3883019113
 20
-4.5560318028
 11
-23.247232886
 21
-4.6387952601
  0
LINE
  5
3C0
100
AcDbEntity
  8
RACCORDO
100
AcDbLine
 62
7
  6
CONTINUOUS
 10
-23.247232886
 20
-4.6387952601
 11
-23.1084889213
 21
-4.721011333
  0
LINE
  5
3C1
100
AcDbEntity
  8
RACCORDO
100
AcDbLine
 62
7
  6
CONTINUOUS
 10
-23.1084889213
 20
-4.721011333
 11
-22.9719725264
 21
-4.8027375871
  0
LINE
  5
3C2
100
AcDbEntity
  8
RACCORDO
100
AcDbLine
 62
7
  6
CONTINUOUS
 10
-22.9719725264
 20
-4.8027375871
 11
-22.8375900596
 21
-4.8840367875
  0
LINE
  5
3C3
100
AcDbEntity
  8
RACCORDO
100
AcDbLine
 62
7
  6
CONTINUOUS
 10
-22.8375900596
 20
-4.8840367875
 11
-22.7052490105
 21
-4.9649726488
  0
LINE
  5
3C4
100
AcDbEntity
  8
RACCORDO
100
AcDbLine
 62
7
  6
CONTINUOUS
 10
-22.7052490105
 20
-4.9649726488
 11
-22.5748553788
 21
-5.0456204435
  0
LINE
  5
3C5
100
AcDbEntity
  8
RACCORDO
100
AcDbLine
 62
7
  6
CONTINUOUS
 10
-22.5748553788
 20
-5.0456204435
 11
-22.4463202985
 21
-5.1260560216
  0
LINE
  5
3C6
100
AcDbEntity
  8
RACCORDO
100
AcDbLine
 62
7
  6
CONTINUOUS
 10
-22.4463202985
 20
-5.1260560216
 11
-22.3196171461
 21
-5.2063261703
  0
LINE
  5
3C7
100
AcDbEntity
  8
RACCORDO
100
AcDbLine
 62
7
  6
CONTINUOUS
 10
-22.3196171461
 20
-5.2063261703
 11
-22.2258172072
 21
-5.2664267217
  0
LINE
  5
3C8
100
AcDbEntity
  8
RACCORDO
100
AcDbLine
 62
7
  6
CONTINUOUS
 10
-22.2258172072
 20
-5.2664267217
 11
-22.1330931354
 21
-5.3264424315
  0
LINE
  5
3C9
100
AcDbEntity
  8
RACCORDO
100
AcDbLine
 62
7
  6
CONTINUOUS
 10
-22.1330931354
 20
-5.3264424315
 11
-22.0414668693
 21
-5.3863810262
  0
LINE
  5
3CA
100
AcDbEntity
  8
RACCORDO
100
AcDbLine
 62
7
  6
CONTINUOUS
 10
-22.0414668693
 20
-5.3863810262
 11
-21.950959674
 21
-5.4462496181
  0
LINE
  5
3CB
100
AcDbEntity
  8
RACCORDO
100
AcDbLine
 62
7
  6
CONTINUOUS
 10
-21.950959674
 20
-5.4462496181
 11
-21.8615968449
 21
-5.5060552519
  0
LINE
  5
3CC
100
AcDbEntity
  8
RACCORDO
100
AcDbLine
 62
7
  6
CONTINUOUS
 10
-21.8615968449
 20
-5.5060552519
 11
-21.7734036369
 21
-5.5658099363
  0
LINE
  5
3CD
100
AcDbEntity
  8
RACCORDO
100
AcDbLine
 62
7
  6
CONTINUOUS
 10
-21.7734036369
 20
-5.5658099363
 11
-21.6864082175
 21
-5.6255226284
  0
LINE
  5
3CE
100
AcDbEntity
  8
RACCORDO
100
AcDbLine
 62
7
  6
CONTINUOUS
 10
-21.6864082175
 20
-5.6255226284
 11
-21.6290930819
 21
-5.6653153838
  0
LINE
  5
3CF
100
AcDbEntity
  8
RACCORDO
100
AcDbLine
 62
7
  6
CONTINUOUS
 10
-21.6290930819
 20
-5.6653153838
 11
-21.5723337175
 21
-5.7051031045
  0
LINE
  5
3D0
100
AcDbEntity
  8
RACCORDO
100
AcDbLine
 62
7
  6
CONTINUOUS
 10
-21.5723337175
 20
-5.7051031045
 11
-21.5161399362
 21
-5.744890776
  0
LINE
  5
3D1
100
AcDbEntity
  8
RACCORDO
100
AcDbLine
 62
7
  6
CONTINUOUS
 10
-21.5161399362
 20
-5.744890776
 11
-21.4605254293
 21
-5.7846842373
  0
LINE
  5
3D2
100
AcDbEntity
  8
RACCORDO
100
AcDbLine
 62
7
  6
CONTINUOUS
 10
-21.4605254293
 20
-5.7846842373
 11
-21.4055009206
 21
-5.8244946489
  0
LINE
  5
3D3
100
AcDbEntity
  8
RACCORDO
100
AcDbLine
 62
7
  6
CONTINUOUS
 10
-21.4055009206
 20
-5.8244946489
 11
-21.3510766934
 21
-5.8643324186
  0
LINE
  5
3D4
100
AcDbEntity
  8
RACCORDO
100
AcDbLine
 62
7
  6
CONTINUOUS
 10
-21.1540138583
 20
-2.3238865007
 11
-21.1035745195
 21
-2.3628898389
  0
LINE
  5
3D5
100
AcDbEntity
  8
RACCORDO
100
AcDbLine
 62
7
  6
CONTINUOUS
 10
-21.1035745195
 20
-2.3628898389
 11
-21.0538285477
 21
-2.4019438227
  0
LWPOLYLINE
  5
3D6
100
AcDbEntity
  8
RACCORDO
100
AcDbPolyline
 62
7
  6
CONTINUOUS
 90
41
 70
0
 10
-21.0538285477
 20
-2.4019438227
 10
-21.0048179603
 20
-2.4410552308
 10
-20.9805970174
 20
-2.4606379388
 10
-20.9565786898
 20
-2.4802343912
 10
-20.9327657836
 20
-2.4998480983
 10
-20.9091620574
 20
-2.5194838108
 10
-20.8857811464
 20
-2.5391380729
 10
-20.8626247312
 20
-2.5588172553
 10
-20.8396989801
 20
-2.5785239181
 10
-20.8170240584
 20
-2.5982483956
 10
-20.7946088345
 20
-2.6179929707
 10
-20.7724567382
 20
-2.6377675775
 10
-20.7505803583
 20
-2.6575743476
 10
-20.7289947399
 20
-2.6774131769
 10
-20.7076998802
 20
-2.6972980825
 10
-20.6866867378
 20
-2.7172530493
 10
-20.6659653546
 20
-2.7372874304
 10
-20.6455503522
 20
-2.757408698
 10
-20.625443203
 20
-2.7776400573
 10
-20.6056588463
 20
-2.7979948667
 10
-20.5862175016
 20
-2.8184843466
 10
-20.5671341204
 20
-2.8391262244
 10
-20.5484405337
 20
-2.8599258314
 10
-20.5301689771
 20
-2.8808991854
 10
-20.5123471991
 20
-2.90208222
 10
-20.4950477438
 20
-2.9234696952
 10
-20.478292377
 20
-2.9450712966
 10
-20.462061088
 20
-2.9669480413
 10
-20.4464642309
 20
-2.9890586622
 10
-20.4316154559
 20
-3.0114431395
 10
-20.4175808525
 20
-3.0342835919
 10
-20.4044516711
 20
-3.057509212
 10
-20.3923530954
 20
-3.0809457802
 10
-20.3814425608
 20
-3.1044528805
 10
-20.3718724509
 20
-3.1280951924
 10
-20.3640420413
 20
-3.1513539699
 10
-20.3582757982
 20
-3.1730669132
 10
-20.3544920308
 20
-3.1920888218
 10
-20.3521724799
 20
-3.2090174703
 10
-20.3511364496
 20
-3.225086219
 10
-20.3511142733
 20
-3.2318796172
  0
LINE
  5
3D7
100
AcDbEntity
  8
DRAFT
100
AcDbLine
 62
7
  6
CONTINUOUS
 10
-13.2798669304
 20
15.0374545953
 11
-13.2841790705
 21
15.7691011467
  0
LWPOLYLINE
  5
3D8
100
AcDbEntity
  8
DRAFT
100
AcDbPolyline
 62
7
  6
CONTINUOUS
 90
19
 70
0
 10
-13.459767918
 20
15.5404128678
 10
-13.4605699918
 20
15.4896736061
 10
-13.4568489252
 20
15.4381738526
 10
-13.4486047181
 20
15.3859136074
 10
-13.4356059148
 20
15.3321758076
 10
-13.418083971
 20
15.277677516
 10
-13.3967332538
 20
15.2245699216
 10
-13.371405033
 20
15.1729169993
 10
-13.3422480388
 20
15.1226547743
 10
-13.3104028292
 20
15.0757425107
 10
-13.2757642114
 20
15.0323103368
 10
-13.2384373782
 20
14.9922281244
 10
-13.1998784658
 20
14.9570647537
 10
-13.160032779
 20
14.9270116237
 10
-13.1189550131
 20
14.9018773354
 10
-13.0782653904
 20
14.8826565721
 10
-13.0385039849
 20
14.8696808949
 10
-12.9991307226
 20
14.8626187426
 10
-12.9601456034
 20
14.8614701153
  0
LINE
  5
3D9
100
AcDbEntity
  8
RACCORDO
100
AcDbLine
 62
7
  6
CONTINUOUS
 10
-20.3549258181
 20
-17.8172288417
 11
-20.3553099639
 21
-17.8181366351
  0
LINE
  5
3DA
100
AcDbEntity
  8
DRAFT
100
AcDbLine
 62
7
  6
CONTINUOUS
 10
-27.7469812647
 20
-3.2087404859
 11
-27.6686324646
 21
-3.1663337531
  0
LINE
  5
3DB
100
AcDbEntity
  8
DRAFT
100
AcDbLine
 62
7
  6
CONTINUOUS
 10
-22.942357931
 20
-2.2376449325
 11
-22.5826332431
 21
-2.0558828986
  0
LINE
  5
3DC
100
AcDbEntity
  8
RACCORDO
100
AcDbLine
 62
250
  6
CONTINUOUS
 10
-10.5096211769
 20
6.0277464544
 11
10.2518149438
 21
16.3255718257
  0
LINE
  5
3DD
100
AcDbEntity
  8
DRAFT
100
AcDbLine
 62
7
  6
CONTINUOUS
 10
-26.2719103244
 20
-4.3033952891
 11
-25.9095340297
 21
-4.1236539754
  0
LWPOLYLINE
  5
3DE
100
AcDbEntity
  8
RACCORDO
100
AcDbPolyline
 62
7
  6
CONTINUOUS
 90
31
 70
0
 10
-31.611037592
 20
-4.6837684707
 10
-31.6041206125
 20
-4.6808812285
 10
-31.584232139
 20
-4.6750049907
 10
-31.5565789097
 20
-4.669926276
 10
-31.5245370691
 20
-4.6666966779
 10
-31.4890325282
 20
-4.6653384177
 10
-31.4500627606
 20
-4.6657631661
 10
-31.4091950755
 20
-4.6678529919
 10
-31.3669798845
 20
-4.6713879455
 10
-31.3232924106
 20
-4.6762444484
 10
-31.2786063447
 20
-4.6822636068
 10
-31.2331165674
 20
-4.6893056345
 10
-31.1867946373
 20
-4.69730244
 10
-31.1397650552
 20
-4.7061698709
 10
-31.0921095354
 20
-4.7158320597
 10
-31.0438201504
 20
-4.7262492213
 10
-30.9948820101
 20
-4.7373873307
 10
-30.945265444
 20
-4.7492184395
 10
-30.8950374563
 20
-4.7617030621
 10
-30.844327477
 20
-4.7747855828
 10
-30.7931767202
 20
-4.7884293029
 10
-30.7415682142
 20
-4.8026176072
 10
-30.6895435962
 20
-4.8173214486
 10
-30.6371398553
 20
-4.8325115045
 10
-30.5843360949
 20
-4.8481759736
 10
-30.531084852
 20
-4.8643167505
 10
-30.4773926261
 20
-4.8809207546
 10
-30.4232632787
 20
-4.8979751282
 10
-30.3686436185
 20
-4.9154868794
 10
-30.3135377747
 20
-4.9334483141
 10
-30.2579474959
 20
-4.951852333
  0
LINE
  5
3DF
100
AcDbEntity
  8
RACCORDO
100
AcDbLine
 62
7
  6
CONTINUOUS
 10
-30.0223422597
 20
-1.3804528942
 11
-29.9056414065
 21
-1.4218155728
  0
LINE
  5
3E0
100
AcDbEntity
  8
RACCORDO
100
AcDbLine
 62
7
  6
CONTINUOUS
 10
-29.9056414065
 20
-1.4218155728
 11
-29.786405181
 21
-1.4650364448
  0
LINE
  5
3E1
100
AcDbEntity
  8
RACCORDO
100
AcDbLine
 62
7
  6
CONTINUOUS
 10
-29.786405181
 20
-1.4650364448
 11
-29.6645724477
 21
-1.5101262135
  0
LINE
  5
3E2
100
AcDbEntity
  8
RACCORDO
100
AcDbLine
 62
7
  6
CONTINUOUS
 10
-29.6645724477
 20
-1.5101262135
 11
-29.5400440009
 21
-1.5571119657
  0
LINE
  5
3E3
100
AcDbEntity
  8
RACCORDO
100
AcDbLine
 62
7
  6
CONTINUOUS
 10
-29.5400440009
 20
-1.5571119657
 11
-29.4133665016
 21
-1.6057801007
  0
LINE
  5
3E4
100
AcDbEntity
  8
RACCORDO
100
AcDbLine
 62
7
  6
CONTINUOUS
 10
-29.4133665016
 20
-1.6057801007
 11
-29.2848700224
 21
-1.6559884839
  0
LINE
  5
3E5
100
AcDbEntity
  8
RACCORDO
100
AcDbLine
 62
7
  6
CONTINUOUS
 10
-29.2848700224
 20
-1.6559884839
 11
-29.1550932658
 21
-1.7075086863
  0
LINE
  5
3E6
100
AcDbEntity
  8
RACCORDO
100
AcDbLine
 62
7
  6
CONTINUOUS
 10
-29.1550932658
 20
-1.7075086863
 11
-29.024563986
 21
-1.7601065666
  0
LINE
  5
3E7
100
AcDbEntity
  8
RACCORDO
100
AcDbLine
 62
7
  6
CONTINUOUS
 10
-29.024563986
 20
-1.7601065666
 11
-28.8936364105
 21
-1.8136108862
  0
LINE
  5
3E8
100
AcDbEntity
  8
RACCORDO
100
AcDbLine
 62
7
  6
CONTINUOUS
 10
-28.8936364105
 20
-1.8136108862
 11
-28.7628375949
 21
-1.8677759493
  0
LINE
  5
3E9
100
AcDbEntity
  8
RACCORDO
100
AcDbLine
 62
7
  6
CONTINUOUS
 10
-28.7628375949
 20
-1.8677759493
 11
-28.6327025802
 21
-1.9223434451
  0
LINE
  5
3EA
100
AcDbEntity
  8
RACCORDO
100
AcDbLine
 62
7
  6
CONTINUOUS
 10
-28.6327025802
 20
-1.9223434451
 11
-28.503561607
 21
-1.9771386029
  0
LINE
  5
3EB
100
AcDbEntity
  8
RACCORDO
100
AcDbLine
 62
7
  6
CONTINUOUS
 10
-28.503561607
 20
-1.9771386029
 11
-28.3759437527
 21
-2.0318972969
  0
LINE
  5
3EC
100
AcDbEntity
  8
RACCORDO
100
AcDbLine
 62
7
  6
CONTINUOUS
 10
-28.3759437527
 20
-2.0318972969
 11
-28.2498917725
 21
-2.0865600624
  0
LWPOLYLINE
  5
3ED
100
AcDbEntity
  8
RACCORDO
100
AcDbPolyline
 62
250
  6
CONTINUOUS
 90
13
 70
0
 10
-31.952666872
 20
-1.1484576517
 10
-31.9332310437
 20
-1.1570095088
 10
-31.911754182
 20
-1.1642597428
 10
-31.8885956943
 20
-1.1700870113
 10
-31.8641431298
 20
-1.1743937913
 10
-31.8388056922
 20
-1.1771079908
 10
-31.8130073919
 20
-1.1781841612
 10
-31.7871799528
 20
-1.1776042823
 10
-31.7617555875
 20
-1.1753780551
 10
-31.7371597623
 20
-1.1715427237
 10
-31.7138040784
 20
-1.1661624618
 10
-31.6920793845
 20
-1.1593272987
 10
-31.6723492347
 20
-1.151151609
  0
LINE
  5
3EE
100
AcDbEntity
  8
RACCORDO
100
AcDbLine
 62
7
  6
CONTINUOUS
 10
-28.2498917725
 20
-2.0865600624
 11
-28.0638048247
 21
-2.168267485
  0
LINE
  5
3EF
100
AcDbEntity
  8
RACCORDO
100
AcDbLine
 62
7
  6
CONTINUOUS
 10
-28.0638048247
 20
-2.168267485
 11
-27.8812592865
 21
-2.2495452422
  0
LINE
  5
3F0
100
AcDbEntity
  8
RACCORDO
100
AcDbLine
 62
7
  6
CONTINUOUS
 10
-27.8812592865
 20
-2.2495452422
 11
-27.7022290125
 21
-2.3302987684
  0
LINE
  5
3F1
100
AcDbEntity
  8
RACCORDO
100
AcDbLine
 62
7
  6
CONTINUOUS
 10
-27.7022290125
 20
-2.3302987684
 11
-27.5266860728
 21
-2.4104442841
  0
LINE
  5
3F2
100
AcDbEntity
  8
RACCORDO
100
AcDbLine
 62
7
  6
CONTINUOUS
 10
-27.5266860728
 20
-2.4104442841
 11
-27.3546032395
 21
-2.4899100299
  0
LINE
  5
3F3
100
AcDbEntity
  8
RACCORDO
100
AcDbLine
 62
7
  6
CONTINUOUS
 10
-27.3546032395
 20
-2.4899100299
 11
-27.185941704
 21
-2.5686406721
  0
LINE
  5
3F4
100
AcDbEntity
  8
RACCORDO
100
AcDbLine
 62
7
  6
CONTINUOUS
 10
-27.185941704
 20
-2.5686406721
 11
-27.0206201232
 21
-2.6466064986
  0
LINE
  5
3F5
100
AcDbEntity
  8
RACCORDO
100
AcDbLine
 62
7
  6
CONTINUOUS
 10
-27.0206201232
 20
-2.6466064986
 11
-26.8585138514
 21
-2.7238082754
  0
LINE
  5
3F6
100
AcDbEntity
  8
RACCORDO
100
AcDbLine
 62
7
  6
CONTINUOUS
 10
-26.8585138514
 20
-2.7238082754
 11
-26.6994955232
 21
-2.8002544831
  0
LINE
  5
3F7
100
AcDbEntity
  8
RACCORDO
100
AcDbLine
 62
7
  6
CONTINUOUS
 10
-26.6994955232
 20
-2.8002544831
 11
-26.5434385667
 21
-2.8759581167
  0
LINE
  5
3F8
100
AcDbEntity
  8
RACCORDO
100
AcDbLine
 62
7
  6
CONTINUOUS
 10
-26.5434385667
 20
-2.8759581167
 11
-26.4409849478
 21
-2.9260240975
  0
LINE
  5
3F9
100
AcDbEntity
  8
RACCORDO
100
AcDbLine
 62
7
  6
CONTINUOUS
 10
-25.1133128999
 20
0.081105066
 11
-24.9444542096
 21
-0.0080838895
  0
LINE
  5
3FA
100
AcDbEntity
  8
RACCORDO
100
AcDbLine
 62
7
  6
CONTINUOUS
 10
-24.9444542096
 20
-0.0080838895
 11
-24.7788416774
 21
-0.0963613831
  0
LINE
  5
3FB
100
AcDbEntity
  8
RACCORDO
100
AcDbLine
 62
7
  6
CONTINUOUS
 10
-24.7788416774
 20
-0.0963613831
 11
-24.6163424562
 21
-0.1837655504
  0
LINE
  5
3FC
100
AcDbEntity
  8
RACCORDO
100
AcDbLine
 62
7
  6
CONTINUOUS
 10
-24.6163424562
 20
-0.1837655504
 11
-24.4568662836
 21
-0.270319923
  0
LINE
  5
3FD
100
AcDbEntity
  8
RACCORDO
100
AcDbLine
 62
7
  6
CONTINUOUS
 10
-24.4568662836
 20
-0.270319923
 11
-24.300330008
 21
-0.356046993
  0
LINE
  5
3FE
100
AcDbEntity
  8
RACCORDO
100
AcDbLine
 62
7
  6
CONTINUOUS
 10
-24.300330008
 20
-0.356046993
 11
-24.1466507381
 21
-0.4409698473
  0
LWPOLYLINE
  5
3FF
100
AcDbEntity
  8
DRAFT
100
AcDbPolyline
 62
7
  6
CONTINUOUS
 90
3
 70
0
 10
-27.4016071372
 20
-0.0629984139
 10
-27.8240899347
 20
0.1730482943
 10
-28.2333161952
 20
0.4078341995
  0
LINE
  5
400
100
AcDbEntity
  8
RACCORDO
100
AcDbLine
 62
7
  6
CONTINUOUS
 10
-24.1466507381
 20
-0.4409698473
 11
-23.9957428129
 21
-0.5251188391
  0
LINE
  5
401
100
AcDbEntity
  8
RACCORDO
100
AcDbLine
 62
7
  6
CONTINUOUS
 10
-23.9957428129
 20
-0.5251188391
 11
-23.8475227691
 21
-0.6085267279
  0
LWPOLYLINE
  5
402
100
AcDbEntity
  8
RACCORDO
100
AcDbPolyline
 62
250
  6
CONTINUOUS
 90
8
 70
0
 10
-20.2925580462
 20
-3.302300052
 10
-20.3096312912
 20
-3.2926130889
 10
-20.3240531523
 20
-3.2819538558
 10
-20.3355822886
 20
-3.27050074
 10
-20.3440257668
 20
-3.2584454095
 10
-20.3492422914
 20
-3.2459896196
 10
-20.3511445675
 20
-3.2333418325
 10
-20.3511487788
 20
-3.2318791415
  0
LINE
  5
403
100
AcDbEntity
  8
RACCORDO
100
AcDbLine
 62
7
  6
CONTINUOUS
 10
-23.8475227691
 20
-0.6085267279
 11
-23.701907035
 21
-0.6912262997
  0
LINE
  5
404
100
AcDbEntity
  8
RACCORDO
100
AcDbLine
 62
7
  6
CONTINUOUS
 10
-23.701907035
 20
-0.6912262997
 11
-23.5588095917
 21
-0.773254181
  0
LINE
  5
405
100
AcDbEntity
  8
RACCORDO
100
AcDbLine
 62
7
  6
CONTINUOUS
 10
-23.5588095917
 20
-0.773254181
 11
-23.4181463006
 21
-0.8546476965
  0
LINE
  5
406
100
AcDbEntity
  8
RACCORDO
100
AcDbLine
 62
7
  6
CONTINUOUS
 10
-23.4181463006
 20
-0.8546476965
 11
-23.2798300137
 21
-0.9354467357
  0
LINE
  5
407
100
AcDbEntity
  8
RACCORDO
100
AcDbLine
 62
7
  6
CONTINUOUS
 10
-23.2798300137
 20
-0.9354467357
 11
-23.1437713127
 21
-1.015699857
  0
LINE
  5
408
100
AcDbEntity
  8
RACCORDO
100
AcDbLine
 62
7
  6
CONTINUOUS
 10
-23.1437713127
 20
-1.015699857
 11
-23.0098834642
 21
-1.0954571952
  0
LINE
  5
409
100
AcDbEntity
  8
RACCORDO
100
AcDbLine
 62
7
  6
CONTINUOUS
 10
-23.0098834642
 20
-1.0954571952
 11
-22.878082154
 21
-1.1747700235
  0
LINE
  5
40A
100
AcDbEntity
  8
RACCORDO
100
AcDbLine
 62
7
  6
CONTINUOUS
 10
-22.878082154
 20
-1.1747700235
 11
-22.7482799268
 21
-1.2537000063
  0
LINE
  5
40B
100
AcDbEntity
  8
RACCORDO
100
AcDbLine
 62
7
  6
CONTINUOUS
 10
-22.7482799268
 20
-1.2537000063
 11
-22.6203926991
 21
-1.3323081528
  0
LINE
  5
40C
100
AcDbEntity
  8
RACCORDO
100
AcDbLine
 62
7
  6
CONTINUOUS
 10
-22.6203926991
 20
-1.3323081528
 11
-22.4943405531
 21
-1.4106613431
  0
LINE
  5
40D
100
AcDbEntity
  8
RACCORDO
100
AcDbLine
 62
7
  6
CONTINUOUS
 10
-22.4943405531
 20
-1.4106613431
 11
-22.3700459717
 21
-1.4888310032
  0
LINE
  5
40E
100
AcDbEntity
  8
RACCORDO
100
AcDbLine
 62
7
  6
CONTINUOUS
 10
-22.3700459717
 20
-1.4888310032
 11
-22.2475088758
 21
-1.5668457402
  0
LINE
  5
40F
100
AcDbEntity
  8
RACCORDO
100
AcDbLine
 62
7
  6
CONTINUOUS
 10
-22.2475088758
 20
-1.5668457402
 11
-22.1567814216
 21
-1.6252648775
  0
LINE
  5
410
100
AcDbEntity
  8
RACCORDO
100
AcDbLine
 62
7
  6
CONTINUOUS
 10
-22.1567814216
 20
-1.6252648775
 11
-22.0670789991
 21
-1.6836116384
  0
LINE
  5
411
100
AcDbEntity
  8
RACCORDO
100
AcDbLine
 62
7
  6
CONTINUOUS
 10
-22.0670789991
 20
-1.6836116384
 11
-21.9784194291
 21
-1.741894072
  0
LINE
  5
412
100
AcDbEntity
  8
RACCORDO
100
AcDbLine
 62
7
  6
CONTINUOUS
 10
-21.9784194291
 20
-1.741894072
 11
-21.8908189787
 21
-1.8001218863
  0
LINE
  5
413
100
AcDbEntity
  8
RACCORDO
100
AcDbLine
 62
7
  6
CONTINUOUS
 10
-21.8908189787
 20
-1.8001218863
 11
-21.8042960719
 21
-1.8583030247
  0
LINE
  5
414
100
AcDbEntity
  8
RACCORDO
100
AcDbLine
 62
7
  6
CONTINUOUS
 10
-21.8042960719
 20
-1.8583030247
 11
-21.7188729088
 21
-1.9164489403
  0
LINE
  5
415
100
AcDbEntity
  8
RACCORDO
100
AcDbLine
 62
7
  6
CONTINUOUS
 10
-21.7188729088
 20
-1.9164489403
 11
-21.6345709379
 21
-1.9745710546
  0
LINE
  5
416
100
AcDbEntity
  8
RACCORDO
100
AcDbLine
 62
7
  6
CONTINUOUS
 10
-21.6345709379
 20
-1.9745710546
 11
-21.5790055095
 21
-2.0133122743
  0
LINE
  5
417
100
AcDbEntity
  8
RACCORDO
100
AcDbLine
 62
7
  6
CONTINUOUS
 10
-21.5790055095
 20
-2.0133122743
 11
-21.5239586977
 21
-2.05205513
  0
LINE
  5
418
100
AcDbEntity
  8
RACCORDO
100
AcDbLine
 62
7
  6
CONTINUOUS
 10
-21.5239586977
 20
-2.05205513
 11
-21.4694387321
 21
-2.0908053158
  0
LINE
  5
419
100
AcDbEntity
  8
RACCORDO
100
AcDbLine
 62
7
  6
CONTINUOUS
 10
-21.4694387321
 20
-2.0908053158
 11
-21.4154535695
 21
-2.1295692187
  0
LINE
  5
41A
100
AcDbEntity
  8
RACCORDO
100
AcDbLine
 62
7
  6
CONTINUOUS
 10
-21.4154535695
 20
-2.1295692187
 11
-21.3620163093
 21
-2.1683545268
  0
LINE
  5
41B
100
AcDbEntity
  8
RACCORDO
100
AcDbLine
 62
7
  6
CONTINUOUS
 10
-21.3620163093
 20
-2.1683545268
 11
-21.3091360938
 21
-2.2071723631
  0
LINE
  5
41C
100
AcDbEntity
  8
RACCORDO
100
AcDbLine
 62
7
  6
CONTINUOUS
 10
-21.3091360938
 20
-2.2071723631
 11
-21.2568255268
 21
-2.2460305326
  0
LINE
  5
41D
100
AcDbEntity
  8
RACCORDO
100
AcDbLine
 62
7
  6
CONTINUOUS
 10
-21.2568255268
 20
-2.2460305326
 11
-21.2051065078
 21
-2.2849350225
  0
LINE
  5
41E
100
AcDbEntity
  8
RACCORDO
100
AcDbLine
 62
7
  6
CONTINUOUS
 10
-21.2051065078
 20
-2.2849350225
 11
-21.1540138583
 21
-2.3238865007
  0
LINE
  5
41F
100
AcDbEntity
  8
RACCORDO
100
AcDbLine
 62
7
  6
CONTINUOUS
 10
-11.5517674566
 20
-27.24842475
 11
-11.5517674566
 21
10.6830915523
  0
LINE
  5
420
100
AcDbEntity
  8
RACCORDO
100
AcDbLine
 62
7
  6
CONTINUOUS
 10
-10.5096211769
 20
6.5068799258
 11
-10.5096211769
 21
-21.9930390596
  0
LWPOLYLINE
  5
421
100
AcDbEntity
  8
RACCORDO
100
AcDbPolyline
 62
7
  6
CONTINUOUS
 90
10
 70
0
 10
-10.5096211769
 20
-21.9930390596
 10
-10.5115003874
 20
-22.0553418334
 10
-10.5170803454
 20
-22.1149888997
 10
-10.5263610511
 20
-22.1719802584
 10
-10.5394670026
 20
-22.2266975222
 10
-10.5562737017
 20
-22.2787590784
 10
-10.5764076535
 20
-22.3270200892
 10
-10.5997443599
 20
-22.3710989421
 10
-10.6264083191
 20
-22.4113772496
 10
-10.6563995311
 20
-22.4478550117
  0
LINE
  5
422
100
AcDbEntity
  8
DRAFT
100
AcDbLine
 62
7
  6
CONTINUOUS
 10
-27.7469812647
 20
-6.8460471818
 11
-27.6686324646
 21
-6.8036404489
  0
LINE
  5
423
100
AcDbEntity
  8
DRAFT
100
AcDbLine
 62
7
  6
CONTINUOUS
 10
-28.2333161952
 20
-6.8667646052
 11
-27.885934102
 21
-6.678845861
  0
LINE
  5
424
100
AcDbEntity
  8
RACCORDO
100
AcDbLine
 62
7
  6
CONTINUOUS
 10
1.3684911398
 20
6.9120369805
 11
10.2518149438
 21
11.5755558788
  0
LINE
  5
425
100
AcDbEntity
  8
DRAFT
100
AcDbLine
 62
7
  6
CONTINUOUS
 10
-22.942357931
 20
-5.874936909
 11
-22.5826332431
 21
-5.6931895945
  0
LINE
  5
426
100
AcDbEntity
  8
DRAFT
100
AcDbLine
 62
7
  6
CONTINUOUS
 10
9.720713117
 20
11.0029311899
 11
1.1273425737
 21
6.7083402298
  0
LINE
  5
427
100
AcDbEntity
  8
RACCORDO
100
AcDbLine
 62
7
  6
CONTINUOUS
 10
-31.6007532678
 20
-8.3162168237
 11
-31.600366507
 21
-8.3160345502
  0
LWPOLYLINE
  5
428
100
AcDbEntity
  8
RACCORDO
100
AcDbPolyline
 62
250
  6
CONTINUOUS
 90
3
 70
0
 10
-20.3647481559
 20
-3.2733221603
 10
-20.3810849182
 20
-3.2809932582
 10
-20.3999695249
 20
-3.2879838051
  0
LWPOLYLINE
  5
429
100
AcDbEntity
  8
RACCORDO
100
AcDbPolyline
 62
7
  6
CONTINUOUS
 90
31
 70
0
 10
-31.6002889786
 20
-8.3160200488
 10
-31.5952654865
 20
-8.31388117
 10
-31.5775196194
 20
-8.308324046
 10
-31.5523657942
 20
-8.3033373006
 10
-31.5228216175
 20
-8.2999484647
 10
-31.4897574182
 20
-8.2982599527
 10
-31.4532062237
 20
-8.2982345331
 10
-31.4147544325
 20
-8.2997852609
 10
-31.3749214922
 20
-8.3027280925
 10
-31.3335982761
 20
-8.3069400313
 10
-31.2912710632
 20
-8.3122743444
 10
-31.248132545
 20
-8.3186000711
 10
-31.2041599861
 20
-8.3258488488
 10
-31.1594968898
 20
-8.3339358626
 10
-31.1142277757
 20
-8.3427883561
 10
-31.0683427844
 20
-8.3523675198
 10
-31.0218373485
 20
-8.3626361033
 10
-30.9747066492
 20
-8.3735627891
 10
-30.9269924955
 20
-8.3851149321
 10
-30.878757666
 20
-8.3972530951
 10
-30.8299968995
 20
-8.4099559468
 10
-30.7807377018
 20
-8.4231996578
 10
-30.7310923795
 20
-8.4369359744
 10
-30.6811165698
 20
-8.451129952
 10
-30.6307705093
 20
-8.4657776425
 10
-30.5800237008
 20
-8.4808746656
 10
-30.5288837122
 20
-8.4964054145
 10
-30.4773544907
 20
-8.5123572628
 10
-30.4253987779
 20
-8.5287334538
 10
-30.3730212979
 20
-8.5455243182
 10
-30.3202248114
 20
-8.562720525
  0
LWPOLYLINE
  5
42A
100
AcDbEntity
  8
RACCORDO
100
AcDbPolyline
 62
250
  6
CONTINUOUS
 90
4
 70
0
 10
-20.439020189
 20
-14.2186434812
 10
-20.4608526991
 20
-14.224106691
 10
-20.4846649539
 20
-14.2284845993
 10
-20.5101517375
 20
-14.2317363462
  0
LWPOLYLINE
  5
42B
100
AcDbEntity
  8
RACCORDO
100
AcDbPolyline
 62
250
  6
CONTINUOUS
 90
35
 70
0
 10
-20.5051572524
 20
-10.5998579614
 10
-20.5348200969
 20
-10.6032618254
 10
-20.5665083626
 20
-10.6052649341
 10
-20.6000552901
 20
-10.6059194318
 10
-20.6352946415
 20
-10.6052887314
 10
-20.6721922651
 20
-10.603436294
 10
-20.710785907
 20
-10.6004100626
 10
-20.7509984123
 20
-10.5962569693
 10
-20.7927627053
 20
-10.5910223071
 10
-20.8361709182
 20
-10.5847251101
 10
-20.8811548351
 20
-10.5773955704
 10
-20.9276536655
 20
-10.5690614367
 10
-20.975806506
 20
-10.559710254
 10
-21.0255893269
 20
-10.5493538902
 10
-21.0769475335
 20
-10.5380101706
 10
-21.1300147499
 20
-10.5256525676
 10
-21.1847919473
 20
-10.5122805232
 10
-21.2412347924
 20
-10.4979042963
 10
-21.2994357607
 20
-10.4824978334
 10
-21.3593760712
 20
-10.4660624166
 10
-21.4210462272
 20
-10.4485988672
 10
-21.4845730779
 20
-10.4300680342
 10
-21.5499538618
 20
-10.4104655994
 10
-21.6171801334
 20
-10.389788971
 10
-21.6863904481
 20
-10.3679888747
 10
-21.7575896084
 20
-10.3450555011
 10
-21.8307778824
 20
-10.3209804055
 10
-21.9061053292
 20
-10.295704434
 10
-21.983591283
 20
-10.2692096983
 10
-22.0632350201
 20
-10.2414853113
 10
-22.1451669107
 20
-10.2124750523
 10
-22.229385076
 20
-10.1821681816
 10
-22.3158986993
 20
-10.1505501309
 10
-22.4048643091
 20
-10.1175514987
 10
-22.4962806063
 20
-10.0831589813
  0
LINE
  5
42C
100
AcDbEntity
  8
RACCORDO
100
AcDbLine
 62
7
  6
CONTINUOUS
 10
-30.2488996325
 20
-1.3031298798
 11
-30.1367043253
 21
-1.3409015187
  0
LINE
  5
42D
100
AcDbEntity
  8
RACCORDO
100
AcDbLine
 62
7
  6
CONTINUOUS
 10
-30.1367043253
 20
-1.3409015187
 11
-30.0223422597
 21
-1.3804528942
  0
LWPOLYLINE
  5
42E
100
AcDbEntity
  8
RACCORDO
100
AcDbPolyline
 62
250
  6
CONTINUOUS
 90
99
 70
0
 10
-22.4276983391
 20
-3.0929817217
 10
-22.5971875099
 20
-3.0297517024
 10
-22.6853971879
 20
-2.9961884668
 10
-22.7759702518
 20
-2.9612963619
 10
-22.8689142475
 20
-2.9250691123
 10
-22.9644343484
 20
-2.8873788727
 10
-23.0625257018
 20
-2.8482314178
 10
-23.1631931795
 20
-2.8076209823
 10
-23.2666565446
 20
-2.7654024126
 10
-23.3729107508
 20
-2.7215821633
 10
-23.481960866
 20
-2.6761537904
 10
-23.5940418292
 20
-2.6289527934
 10
-23.7091396188
 20
-2.5799898506
 10
-23.827268281
 20
-2.5292542956
 10
-23.9487048607
 20
-2.4765496141
 10
-24.0734436207
 20
-2.4218822597
 10
-24.2014903253
 20
-2.365245792
 10
-24.3331392759
 20
-2.3064243577
 10
-24.4684007377
 20
-2.24541999
 10
-24.6072644741
 20
-2.1822306696
 10
-24.749994039
 20
-2.1166344673
 10
-24.8965304288
 20
-2.0486690769
 10
-25.0469326759
 20
-1.9782968186
 10
-25.2016413932
 20
-1.905182704
 10
-25.3606207128
 20
-1.829360272
 10
-25.523906528
 20
-1.7507959961
 10
-25.6920470959
 20
-1.6690542916
 10
-25.8654805681
 20
-1.5839283794
 10
-26.0437688091
 20
-1.4956250463
 10
-26.2261456446
 20
-1.4043290559
 10
-26.4139041881
 20
-1.3093423935
 10
-26.6057513195
 20
-1.2113630707
 10
-26.7970415067
 20
-1.1126698867
 10
-26.9879204861
 20
-1.0130964012
 10
-27.1782424806
 20
-0.9128090349
 10
-27.3629246862
 20
-0.8145858781
 10
-27.5406097656
 20
-0.7190982653
 10
-27.7126550035
 20
-0.6256748368
 10
-27.8780495408
 20
-0.5350796474
 10
-28.0360961241
 20
-0.447701421
 10
-28.1874919634
 20
-0.3631514127
 10
-28.3333179095
 20
-0.2810274816
 10
-28.4735874651
 20
-0.2013423952
 10
-28.6082870911
 20
-0.1240833682
 10
-28.7384570856
 20
-0.0488099356
 10
-28.8642560791
 20
0.0245535422
 10
-28.9855254096
 20
0.095931441
 10
-29.102829444
 20
0.1655373266
 10
-29.2161920284
 20
0.2333747166
 10
-29.3255892913
 20
0.2994401057
 10
-29.43151403
 20
0.3639365229
 10
-29.5339816622
 20
0.426864346
 10
-29.632976749
 20
0.4882232073
 10
-29.7289458059
 20
0.5482150157
 10
-29.8219241499
 20
0.6068542304
 10
-29.9118764447
 20
0.6641264014
 10
-29.999143229
 20
0.7201900731
 10
-30.0837431926
 20
0.7750529003
 10
-30.1656576272
 20
0.8287072369
 10
-30.2451709744
 20
0.8812886752
 10
-30.3222905346
 20
0.9327976741
 10
-30.3970089895
 20
0.9832337833
 10
-30.4695888528
 20
1.0327312311
 10
-30.5400433167
 20
1.0812927921
 10
-30.6083591702
 20
1.1289157008
 10
-30.6747593204
 20
1.1757258757
 10
-30.7392667962
 20
1.2217332377
 10
-30.801858547
 20
1.2669278765
 10
-30.8626883579
 20
1.3114059649
 10
-30.9217795048
 20
1.3551787143
 10
-30.9791086862
 20
1.3982349257
 10
-31.0347598176
 20
1.4406371579
 10
-31.088722859
 20
1.4823696504
 10
-31.1410078212
 20
1.5234481776
 10
-31.1917286894
 20
1.5639826035
 10
-31.24088855
 20
1.6039607506
 10
-31.2884842772
 20
1.6433948152
 10
-31.3346205247
 20
1.682431228
 10
-31.3793067855
 20
1.7210531515
 10
-31.4225335089
 20
1.7592774511
 10
-31.4643767593
 20
1.7973011233
 10
-31.504841489
 20
1.8350824305
 10
-31.5439226547
 20
1.8726631542
 10
-31.5816812824
 20
1.9103655914
 10
-31.6181903516
 20
1.9481928441
 10
-31.6533767195
 20
1.9861418888
 10
-31.68708215
 20
2.0245258725
 10
-31.7194261603
 20
2.0633540632
 10
-31.7502889513
 20
2.1026173284
 10
-31.7791531847
 20
2.1426012752
 10
-31.8061811523
 20
2.1835659335
 10
-31.8312100428
 20
2.2252515227
 10
-31.8532347664
 20
2.2671639806
 10
-31.8721305999
 20
2.3096472565
 10
-31.8880216101
 20
2.3523577158
 10
-31.9002760964
 20
2.3937698229
 10
-31.9086835274
 20
2.4333750489
 10
-31.9134542851
 20
2.4716819938
 10
-31.9145882671
 20
2.5086907065
  0
LWPOLYLINE
  5
42F
100
AcDbEntity
  8
RACCORDO
100
AcDbPolyline
 62
250
  6
CONTINUOUS
 90
97
 70
0
 10
-22.559776571
 20
-2.7502101912
 10
-22.6498120693
 20
-2.7155244122
 10
-22.742238796
 20
-2.6794843314
 10
-22.8372356189
 20
-2.6420039981
 10
-22.9348123888
 20
-2.6030625061
 10
-23.0349830015
 20
-2.5626369567
 10
-23.137942675
 20
-2.5206292907
 10
-23.2436978073
 20
-2.4770169695
 10
-23.3522623133
 20
-2.4317738362
 10
-23.4638521367
 20
-2.3847869683
 10
-23.5784570003
 20
-2.3360372476
 10
-23.6960994509
 20
-2.285491125
 10
-23.8170541362
 20
-2.2330032541
 10
-23.941303571
 20
-2.1785533961
 10
-24.0688555057
 20
-2.1221127801
 10
-24.2000310185
 20
-2.0635112247
 10
-24.3348073492
 20
-2.0027288541
 10
-24.473163098
 20
-1.939744628
 10
-24.6154256262
 20
-1.8743753544
 10
-24.7614754731
 20
-1.8066402645
 10
-24.9113440976
 20
-1.7364877607
 10
-25.0655864413
 20
-1.6636144727
 10
-25.224064823
 20
-1.5880390645
 10
-25.3867691211
 20
-1.5097176379
 10
-25.5544404841
 20
-1.4282346017
 10
-25.7273408378
 20
-1.3433962436
 10
-25.9049620668
 20
-1.2553826389
 10
-26.0868627609
 20
-1.164342543
 10
-26.2740956862
 20
-1.0696762301
 10
-26.4652011394
 20
-0.9720532405
 10
-26.6559560135
 20
-0.873600374
 10
-26.8463536912
 20
-0.7743180541
 10
-27.0359571009
 20
-0.6744317705
 10
-27.2200031912
 20
-0.5764864382
 10
-27.3971640141
 20
-0.481266896
 10
-27.568584311
 20
-0.3882341298
 10
-27.733351263
 20
-0.2979566644
 10
-27.8908253436
 20
-0.2108657729
 10
-28.0416571547
 20
-0.1266803279
 10
-28.1868939911
 20
-0.0448821005
 10
-28.3265783172
 20
0.0344954139
 10
-28.4607325312
 20
0.111405083
 10
-28.5903285223
 20
0.1863498034
 10
-28.7155448792
 20
0.2593898609
 10
-28.8362674844
 20
0.330417121
 10
-28.9529877118
 20
0.3996800626
 10
-29.0657558151
 20
0.4671734448
 10
-29.174592953
 20
0.5328758846
 10
-29.2799189637
 20
0.5970087101
 10
-29.3817699545
 20
0.6595658438
 10
-29.4801761869
 20
0.7205384358
 10
-29.5755196222
 20
0.7801380252
 10
-29.6678481843
 20
0.8383728307
 10
-29.7571660256
 20
0.8952241106
 10
-29.8437616052
 20
0.9508560732
 10
-29.9276643292
 20
1.0052707475
 10
-30.0088842429
 20
1.0584573313
 10
-30.0876607442
 20
1.1105551861
 10
-30.1640162474
 20
1.1615625022
 10
-30.2379741002
 20
1.2114777342
 10
-30.3097560693
 20
1.2604345026
 10
-30.3793734853
 20
1.3084277771
 10
-30.4468403351
 20
1.3554546749
 10
-30.512356224
 20
1.401642934
 10
-30.5759301383
 20
1.4469907301
 10
-30.6375543923
 20
1.4914846824
 10
-30.6973781517
 20
1.5352257415
 10
-30.7554025516
 20
1.5782107995
 10
-30.8116056586
 20
1.620420015
 10
-30.8660804695
 20
1.6619208003
 10
-30.9187854007
 20
1.7026805983
 10
-30.9697254269
 20
1.742702942
 10
-31.0190368793
 20
1.782098451
 10
-31.066669176
 20
1.8208327906
 10
-31.1126015666
 20
1.8588964826
 10
-31.1569747344
 20
1.8964201249
 10
-31.1997271734
 20
1.9333690227
 10
-31.2408010778
 20
1.969713911
 10
-31.2803053485
 20
2.0055836054
 10
-31.3181663132
 20
2.0409468375
 10
-31.3543209392
 20
2.0757836463
 10
-31.3888432974
 20
2.110220169
 10
-31.4217120304
 20
2.1443015212
 10
-31.452736064
 20
2.1779006731
 10
-31.4817255374
 20
2.210881958
 10
-31.5087576894
 20
2.243407946
 10
-31.5335588185
 20
2.2752433746
 10
-31.5555706379
 20
2.3057254623
 10
-31.5748697965
 20
2.3349548903
 10
-31.5914198843
 20
2.3628706329
 10
-31.6048541366
 20
2.3887180352
 10
-31.615324628
 20
2.4123851399
 10
-31.6232302008
 20
2.4342207059
 10
-31.6288162287
 20
2.4542556317
 10
-31.6323457817
 20
2.4725741329
 10
-31.6340765821
 20
2.4893048185
 10
-31.6342552116
 20
2.5045464075
  0
LINE
  5
430
100
AcDbEntity
  8
RACCORDO
100
AcDbLine
 62
7
  6
CONTINUOUS
 10
-29.4343772829
 20
2.0772790288
 11
-29.3061924972
 21
2.0276966626
  0
LINE
  5
431
100
AcDbEntity
  8
RACCORDO
100
AcDbLine
 62
7
  6
CONTINUOUS
 10
-29.3061924972
 20
2.0276966626
 11
-29.1766120794
 21
1.9767341982
  0
LINE
  5
432
100
AcDbEntity
  8
RACCORDO
100
AcDbLine
 62
7
  6
CONTINUOUS
 10
-29.1766120794
 20
1.9767341982
 11
-29.0460477179
 21
1.9245796645
  0
LINE
  5
433
100
AcDbEntity
  8
RACCORDO
100
AcDbLine
 62
7
  6
CONTINUOUS
 10
-29.0460477179
 20
1.9245796645
 11
-28.9151121928
 21
1.8715058438
  0
LINE
  5
434
100
AcDbEntity
  8
RACCORDO
100
AcDbLine
 62
7
  6
CONTINUOUS
 10
-28.9151121928
 20
1.8715058438
 11
-28.7844174754
 21
1.8177974402
  0
LINE
  5
435
100
AcDbEntity
  8
RACCORDO
100
AcDbLine
 62
7
  6
CONTINUOUS
 10
-28.7844174754
 20
1.8177974402
 11
-28.6543729583
 21
1.7636609548
  0
LINE
  5
436
100
AcDbEntity
  8
RACCORDO
100
AcDbLine
 62
7
  6
CONTINUOUS
 10
-28.6543729583
 20
1.7636609548
 11
-28.5256072767
 21
1.7094005681
  0
LWPOLYLINE
  5
437
100
AcDbEntity
  8
DRAFT
100
AcDbPolyline
 62
7
  6
CONTINUOUS
 90
11
 70
0
 10
-22.942357931
 20
-2.2376449325
 10
-23.346255591
 20
-2.0655881806
 10
-23.7643776967
 20
-1.881164019
 10
-24.1967242481
 20
-1.6843724477
 10
-24.647874842
 20
-1.4731246332
 10
-25.1132498815
 20
-1.249509409
 10
-25.5791105764
 20
-1.019793276
 10
-26.0454580606
 20
-0.7836111639
 10
-26.5122912001
 20
-0.541328143
 10
-26.9658678026
 20
-0.300305925
 10
-27.4016071372
 20
-0.0629984139
  0
LINE
  5
438
100
AcDbEntity
  8
RACCORDO
100
AcDbLine
 62
7
  6
CONTINUOUS
 10
-28.5256072767
 20
1.7094005681
 11
-28.3986805494
 21
1.6552995687
  0
LINE
  5
439
100
AcDbEntity
  8
RACCORDO
100
AcDbLine
 62
7
  6
CONTINUOUS
 10
-28.3986805494
 20
1.6552995687
 11
-28.2737906184
 21
1.6014885817
  0
LINE
  5
43A
100
AcDbEntity
  8
RACCORDO
100
AcDbLine
 62
7
  6
CONTINUOUS
 10
-28.2737906184
 20
1.6014885817
 11
-28.0903165154
 21
1.5214318351
  0
LWPOLYLINE
  5
43B
100
AcDbEntity
  8
RACCORDO
100
AcDbPolyline
 62
250
  6
CONTINUOUS
 90
13
 70
0
 10
-31.9145633854
 20
2.5087025951
 10
-31.8951274282
 20
2.5001352294
 10
-31.8736506816
 20
2.4928453023
 10
-31.850492547
 20
2.4869548172
 10
-31.826040563
 20
2.4825623545
 10
-31.8007039192
 20
2.4797414354
 10
-31.7749066082
 20
2.4785392882
 10
-31.7490803329
 20
2.4789760406
 10
-31.7236572814
 20
2.4810443886
 10
-31.6990628933
 20
2.4847097302
 10
-31.6757087414
 20
2.4899107374
 10
-31.6539856441
 20
2.4965603827
 10
-31.634257125
 20
2.5045473976
  0
LINE
  5
43C
100
AcDbEntity
  8
RACCORDO
100
AcDbLine
 62
7
  6
CONTINUOUS
 10
-28.0903165154
 20
1.5214318351
 11
-27.9111625056
 21
1.4421510249
  0
LINE
  5
43D
100
AcDbEntity
  8
RACCORDO
100
AcDbLine
 62
7
  6
CONTINUOUS
 10
-27.9111625056
 20
1.4421510249
 11
-27.7360372722
 21
1.3636374373
  0
LINE
  5
43E
100
AcDbEntity
  8
RACCORDO
100
AcDbLine
 62
7
  6
CONTINUOUS
 10
-27.7360372722
 20
1.3636374373
 11
-27.5646506929
 21
1.285862374
  0
LINE
  5
43F
100
AcDbEntity
  8
RACCORDO
100
AcDbLine
 62
7
  6
CONTINUOUS
 10
-27.5646506929
 20
1.285862374
 11
-27.3967083479
 21
1.2087765406
  0
LINE
  5
440
100
AcDbEntity
  8
RACCORDO
100
AcDbLine
 62
7
  6
CONTINUOUS
 10
-27.3967083479
 20
1.2087765406
 11
-27.2319158249
 21
1.1323182839
  0
LINE
  5
441
100
AcDbEntity
  8
RACCORDO
100
AcDbLine
 62
7
  6
CONTINUOUS
 10
-27.2319158249
 20
1.1323182839
 11
-27.0700240549
 21
1.0564321547
  0
LINE
  5
442
100
AcDbEntity
  8
RACCORDO
100
AcDbLine
 62
7
  6
CONTINUOUS
 10
-27.0700240549
 20
1.0564321547
 11
-26.9109407731
 21
0.9811286392
  0
LINE
  5
443
100
AcDbEntity
  8
RACCORDO
100
AcDbLine
 62
7
  6
CONTINUOUS
 10
-26.9109407731
 20
0.9811286392
 11
-26.7546085975
 21
0.9064291247
  0
LINE
  5
444
100
AcDbEntity
  8
RACCORDO
100
AcDbLine
 62
7
  6
CONTINUOUS
 10
-26.7546085975
 20
0.9064291247
 11
-26.6009687241
 21
0.8323470541
  0
LINE
  5
445
100
AcDbEntity
  8
RACCORDO
100
AcDbLine
 62
7
  6
CONTINUOUS
 10
-26.6009687241
 20
0.8323470541
 11
-26.4001993433
 21
0.7345481051
  0
LINE
  5
446
100
AcDbEntity
  8
RACCORDO
100
AcDbLine
 62
7
  6
CONTINUOUS
 10
-26.4001993433
 20
0.7345481051
 11
-26.2039705964
 21
0.6378809243
  0
LINE
  5
447
100
AcDbEntity
  8
RACCORDO
100
AcDbLine
 62
7
  6
CONTINUOUS
 10
-26.2039705964
 20
0.6378809243
 11
-26.0121338293
 21
0.54234582
  0
LINE
  5
448
100
AcDbEntity
  8
RACCORDO
100
AcDbLine
 62
7
  6
CONTINUOUS
 10
-26.0121338293
 20
0.54234582
 11
-25.8245416392
 21
0.4479380663
  0
LINE
  5
449
100
AcDbEntity
  8
RACCORDO
100
AcDbLine
 62
7
  6
CONTINUOUS
 10
-25.8245416392
 20
0.4479380663
 11
-25.6410328153
 21
0.354640212
  0
LINE
  5
44A
100
AcDbEntity
  8
RACCORDO
100
AcDbLine
 62
7
  6
CONTINUOUS
 10
-25.6410328153
 20
0.354640212
 11
-25.4614346907
 21
0.2624230696
  0
LINE
  5
44B
100
AcDbEntity
  8
RACCORDO
100
AcDbLine
 62
7
  6
CONTINUOUS
 10
-25.4614346907
 20
0.2624230696
 11
-25.2855824022
 21
0.1712568647
  0
LINE
  5
44C
100
AcDbEntity
  8
RACCORDO
100
AcDbLine
 62
7
  6
CONTINUOUS
 10
-25.2855824022
 20
0.1712568647
 11
-25.1133128999
 21
0.081105066
  0
LINE
  5
44D
100
AcDbEntity
  8
DRAFT
100
AcDbLine
 62
250
  6
CONTINUOUS
 10
-6.0730853919
 20
-7.0225368791
 11
-5.5575000202
 21
-7.2973003363
  0
LWPOLYLINE
  5
44E
100
AcDbEntity
  8
DRAFT
100
AcDbPolyline
 62
7
  6
CONTINUOUS
 90
6
 70
0
 10
-5.9073937032
 20
-7.3100972292
 10
-5.8944236438
 20
-7.3175586849
 10
-5.820993841
 20
-7.3445720515
 10
-5.7412565996
 20
-7.3494621206
 10
-5.653425326
 20
-7.3337048822
 10
-5.5575000202
 20
-7.2973003363
  0
LINE
  5
44F
100
AcDbEntity
  8
DRAFT
100
AcDbLine
 62
7
  6
CONTINUOUS
 10
-7.2677719615
 20
13.9221674295
 11
-7.2677719615
 21
13.70710392
  0
LWPOLYLINE
  5
450
100
AcDbEntity
  8
RACCORDO
100
AcDbPolyline
 62
7
  6
CONTINUOUS
 90
5
 70
0
 10
-20.4054419083
 20
-10.5688366715
 10
-20.4057354543
 20
-10.5690717644
 10
-20.407136258
 20
-10.5700878347
 10
-20.4096555823
 20
-10.5716199682
 10
-20.4103495973
 20
-10.5720003461
  0
LWPOLYLINE
  5
451
100
AcDbEntity
  8
DRAFT
100
AcDbPolyline
 62
7
  6
CONTINUOUS
 90
15
 70
0
 10
-2.0945044402
 20
2.0147323815
 10
-2.189115165
 20
1.9524557632
 10
-2.2756078521
 20
1.8782226685
 10
-2.3539825014
 20
1.7920330972
 10
-2.4259564436
 20
1.6906004129
 10
-2.4898123481
 20
1.5772112521
 10
-2.5403982233
 20
1.4617255243
 10
-2.5765775091
 20
1.3441188206
 10
-2.5994867657
 20
1.2244155499
 10
-2.6073836818
 20
1.1125488475
 10
-2.5990752936
 20
1.0091472141
 10
-2.575754565
 20
0.9135821489
 10
-2.5392580762
 20
0.8339012852
 10
-2.4884482761
 20
0.7713417327
 10
-2.4371655308
 20
0.7319740626
  0
LWPOLYLINE
  5
452
100
AcDbEntity
  8
DRAFT
100
AcDbPolyline
 62
7
  6
CONTINUOUS
 90
15
 70
0
 10
1.3684911398
 20
6.9120369805
 10
1.2765320454
 20
6.8517101445
 10
1.1923321728
 20
6.7796245067
 10
1.1158915221
 20
6.6957800672
 10
1.0454972804
 20
6.5969882308
 10
0.9828622605
 20
6.4864375927
 10
0.9331249006
 20
6.3736939382
 10
0.8973987415
 20
6.2586993743
 10
0.8745702425
 20
6.1415117941
 10
0.8664372191
 20
6.0318706622
 10
0.8741674554
 20
5.9303700193
 10
0.8965931674
 20
5.8364158249
 10
0.9320088186
 20
5.7579654214
 10
0.98152698
 20
5.6961948031
 10
1.0330385633
 20
5.6563075559
  0
LINE
  5
453
100
AcDbEntity
  8
DRAFT
100
AcDbLine
 62
7
  6
CONTINUOUS
 10
-27.7469812647
 20
-10.4833538777
 11
-27.6686324646
 21
-10.4409471448
  0
LINE
  5
454
100
AcDbEntity
  8
DRAFT
100
AcDbLine
 62
7
  6
CONTINUOUS
 10
-28.2333161952
 20
-10.5040710718
 11
-27.885934102
 21
-10.3161525568
  0
LINE
  5
455
100
AcDbEntity
  8
RACCORDO
100
AcDbLine
 62
7
  6
CONTINUOUS
 10
-2.0945044402
 20
2.0147323815
 11
10.2518149438
 21
8.4962358189
  0
LINE
  5
456
100
AcDbEntity
  8
RACCORDO
100
AcDbLine
 62
7
  6
CONTINUOUS
 10
1.3684911398
 20
5.6686215329
 11
10.2518149438
 21
10.2040537209
  0
LWPOLYLINE
  5
457
100
AcDbEntity
  8
RACCORDO
100
AcDbPolyline
 62
250
  6
CONTINUOUS
 90
4
 70
0
 10
-20.4000064838
 20
-6.9292565935
 10
-20.4049652797
 20
-6.9317695437
 10
-20.4231831721
 20
-6.9396155556
 10
-20.4433867819
 20
-6.9463435958
  0
LINE
  5
458
100
AcDbEntity
  8
DRAFT
100
AcDbLine
 62
7
  6
CONTINUOUS
 10
9.720713117
 20
7.8468683426
 11
-2.319929692
 21
1.8294813929
  0
LINE
  5
459
100
AcDbEntity
  8
RACCORDO
100
AcDbLine
 62
7
  6
CONTINUOUS
 10
-31.5648184758
 20
-11.936549626
 11
-31.5646358834
 21
-11.9364634426
  0
LWPOLYLINE
  5
45A
100
AcDbEntity
  8
RACCORDO
100
AcDbPolyline
 62
250
  6
CONTINUOUS
 90
4
 70
0
 10
-20.3999695249
 20
-3.2879838051
 10
-20.4207041339
 20
-3.2939445138
 10
-20.4433372665
 20
-3.2988907516
 10
-20.4675721386
 20
-3.3027679867
  0
LWPOLYLINE
  5
45B
100
AcDbEntity
  8
RACCORDO
100
AcDbPolyline
 62
250
  6
CONTINUOUS
 90
3
 70
0
 10
-20.4519535558
 20
-10.5885449519
 10
-20.4774448098
 20
-10.5949655922
 10
-20.5051572524
 20
-10.5998579614
  0
LWPOLYLINE
  5
45C
100
AcDbEntity
  8
RACCORDO
100
AcDbPolyline
 62
250
  6
CONTINUOUS
 90
38
 70
0
 10
-20.5153164063
 20
-6.9598668574
 10
-20.5425632127
 20
-6.9621510217
 10
-20.5713611765
 20
-6.9633781889
 10
-20.6016504791
 20
-6.9635811293
 10
-20.6333519678
 20
-6.9627937007
 10
-20.6664411835
 20
-6.9610492356
 10
-20.7009504561
 20
-6.9583736557
 10
-20.7368378152
 20
-6.9547927287
 10
-20.7740691174
 20
-6.9503310966
 10
-20.8127108923
 20
-6.9449986468
 10
-20.8527233803
 20
-6.9388120942
 10
-20.8940736864
 20
-6.9317857402
 10
-20.9368582465
 20
-6.9239094066
 10
-20.9810572538
 20
-6.9151897932
 10
-21.0266455572
 20
-6.9056344071
 10
-21.0737383316
 20
-6.8952190046
 10
-21.122346829
 20
-6.8839384803
 10
-21.1724410886
 20
-6.8717969725
 10
-21.2240937672
 20
-6.8587727568
 10
-21.2772983172
 20
-6.8448625001
 10
-21.332053554
 20
-6.8300616848
 10
-21.3884529281
 20
-6.8143397231
 10
-21.4464953422
 20
-6.7976914079
 10
-21.5061828012
 20
-6.7801108299
 10
-21.5676267803
 20
-6.761558529
 10
-21.6308346248
 20
-6.7420245023
 10
-21.6958119662
 20
-6.7214991727
 10
-21.7626816403
 20
-6.6999347187
 10
-21.8314590353
 20
-6.6773161295
 10
-21.9021523934
 20
-6.653630629
 10
-21.9748865344
 20
-6.6288252245
 10
-22.0496805924
 20
-6.6028812887
 10
-22.1265426422
 20
-6.5757850519
 10
-22.2055902531
 20
-6.5474840306
 10
-22.2868263848
 20
-6.5179651826
 10
-22.3702680125
 20
-6.4872103502
 10
-22.4560639138
 20
-6.4551517263
 10
-22.5442194842
 20
-6.4217732123
  0
LINE
  5
45D
100
AcDbEntity
  8
RACCORDO
100
AcDbLine
 62
7
  6
CONTINUOUS
 10
-30.2076338849
 20
2.3550435018
 11
-30.0954788536
 21
2.3174443141
  0
LINE
  5
45E
100
AcDbEntity
  8
RACCORDO
100
AcDbLine
 62
7
  6
CONTINUOUS
 10
-30.0954788536
 20
2.3174443141
 11
-29.9810946386
 21
2.2780336664
  0
LINE
  5
45F
100
AcDbEntity
  8
RACCORDO
100
AcDbLine
 62
7
  6
CONTINUOUS
 10
-29.9810946386
 20
2.2780336664
 11
-29.8642886023
 21
2.2367719343
  0
LINE
  5
460
100
AcDbEntity
  8
RACCORDO
100
AcDbLine
 62
7
  6
CONTINUOUS
 10
-29.8642886023
 20
2.2367719343
 11
-29.7448406448
 21
2.1935989083
  0
LINE
  5
461
100
AcDbEntity
  8
RACCORDO
100
AcDbLine
 62
7
  6
CONTINUOUS
 10
-29.7448406448
 20
2.1935989083
 11
-29.622684473
 21
2.1485053787
  0
LWPOLYLINE
  5
462
100
AcDbEntity
  8
RACCORDO
100
AcDbPolyline
 62
250
  6
CONTINUOUS
 90
94
 70
0
 10
-29.7781674699
 20
2.299548563
 10
-29.6086418759
 20
2.2363534075
 10
-29.5204151264
 20
2.2028083546
 10
-29.429825799
 20
2.16793491
 10
-29.3368663821
 20
2.1317267976
 10
-29.2413319018
 20
2.0940561719
 10
-29.1432272233
 20
2.0549287925
 10
-29.0425475007
 20
2.0143388907
 10
-28.9390731968
 20
1.9721413263
 10
-28.8328093599
 20
1.9283425293
 10
-28.7237509634
 20
1.8829360595
 10
-28.611663362
 20
1.8357574695
 10
-28.4965605585
 20
1.7868174105
 10
-28.3784285747
 20
1.7361052197
 10
-28.2569907982
 20
1.6834244763
 10
-28.1322530309
 20
1.6287816868
 10
-28.0042094981
 20
1.5721703318
 10
-27.872566226
 20
1.5133744499
 10
-27.7373130008
 20
1.4523960889
 10
-27.5984600651
 20
1.3892331873
 10
-27.4557441348
 20
1.3236636178
 10
-27.3092238346
 20
1.2557248567
 10
-27.1588405687
 20
1.1853794141
 10
-27.0041552262
 20
1.1122927108
 10
-26.8452040564
 20
1.036498422
 10
-26.6819508354
 20
0.9579628605
 10
-26.5138477462
 20
0.8762504021
 10
-26.3404588935
 20
0.7911554757
 10
-26.1622201887
 20
0.7028836448
 10
-25.9798915238
 20
0.6116159873
 10
-25.792181544
 20
0.5166555477
 10
-25.6003815977
 20
0.4186992846
 10
-25.4091256245
 20
0.3200191504
 10
-25.2182612759
 20
0.220444982
 10
-25.0279408599
 20
0.1201469619
 10
-24.8432552994
 20
0.0219075611
 10
-24.6655621399
 20
-0.0736020406
 10
-24.4935037833
 20
-0.167052998
 10
-24.3280984491
 20
-0.2576763473
 10
-24.1700453236
 20
-0.3450822228
 10
-24.0186451771
 20
-0.4296604695
 10
-23.8728186188
 20
-0.5118116969
 10
-23.732553263
 20
-0.5915223443
 10
-23.5978614591
 20
-0.668805955
 10
-23.4677009299
 20
-0.7441037996
 10
-23.3419124935
 20
-0.8174917854
 10
-23.2206553002
 20
-0.8888939899
 10
-23.1033645786
 20
-0.9585239423
 10
-22.9900163972
 20
-1.0263851732
 10
-22.8806346621
 20
-1.0924741399
 10
-22.7747263659
 20
-1.1569937642
 10
-22.6722760981
 20
-1.2199443787
 10
-22.5732992481
 20
-1.2813256407
 10
-22.4773490118
 20
-1.3413394616
 10
-22.3843900207
 20
-1.4000003021
 10
-22.2944576241
 20
-1.4572936924
 10
-22.2072110967
 20
-1.5133781488
 10
-22.1226316685
 20
-1.5682613149
 10
-22.040738091
 20
-1.6219355384
 10
-21.9612459222
 20
-1.6745363931
 10
-21.8841479389
 20
-1.7260642383
 10
-21.8094513464
 20
-1.7765187062
 10
-21.7368933461
 20
-1.8260342795
 10
-21.6664607411
 20
-1.8746137046
 10
-21.5981667093
 20
-1.9222542261
 10
-21.5317880128
 20
-1.9690820734
 10
-21.4673013098
 20
-2.0151073711
 10
-21.4047299203
 20
-2.060319984
 10
-21.3439205958
 20
-2.1048157503
 10
-21.2848498371
 20
-2.1486060566
 10
-21.2275411179
 20
-2.191679504
 10
-21.171911646
 20
-2.2340977499
 10
-21.1179716666
 20
-2.2758448684
 10
-21.0657109054
 20
-2.3169367714
 10
-21.0150157847
 20
-2.357482871
 10
-20.9658834497
 20
-2.3974707708
 10
-20.9183167161
 20
-2.4369128484
 10
-20.8722104993
 20
-2.475955671
 10
-20.827555297
 20
-2.514582312
 10
-20.7843605539
 20
-2.5528096704
 10
-20.7425495823
 20
-2.5908350405
 10
-20.7021174252
 20
-2.6286165032
 10
-20.663068949
 20
-2.6661959342
 10
-20.6253421553
 20
-2.7038962978
 10
-20.5888636192
 20
-2.7417203422
 10
-20.5537066028
 20
-2.7796652415
 10
-20.5200290605
 20
-2.8180455611
 10
-20.4877111956
 20
-2.8568707772
 10
-20.456872523
 20
-2.8961312788
 10
-20.4280298373
 20
-2.9361129406
 10
-20.401020603
 20
-2.9770746157
 10
-20.3760068367
 20
-3.0187572024
 10
-20.353992064
 20
-3.0606695963
 10
-20.3350992211
 20
-3.1031542676
  0
LWPOLYLINE
  5
463
100
AcDbEntity
  8
RACCORDO
100
AcDbPolyline
 62
7
  6
CONTINUOUS
 90
3
 70
0
 10
-29.622684473
 20
2.1485053787
 10
-29.497706642
 20
2.1014542412
 10
-29.4343772829
 20
2.0772790288
  0
LINE
  5
464
100
AcDbEntity
  8
DRAFT
100
AcDbLine
 62
250
  6
CONTINUOUS
 10
-2.5996234178
 20
-8.3393822827
 11
-2.0945044402
 21
-8.6085680358
  0
LINE
  5
465
100
AcDbEntity
  8
DRAFT
100
AcDbLine
 62
250
  6
CONTINUOUS
 10
0.8742207518
 20
-9.6564313641
 11
1.3684911398
 21
-9.9198357352
  0
LINE
  5
466
100
AcDbEntity
  8
DRAFT
100
AcDbLine
 62
250
  6
CONTINUOUS
 10
-6.0732804532
 20
-3.9047414743
 11
-5.5575000202
 21
-4.1796088827
  0
LWPOLYLINE
  5
467
100
AcDbEntity
  8
DRAFT
100
AcDbPolyline
 62
7
  6
CONTINUOUS
 90
6
 70
0
 10
1.033062526
 20
-9.9321035876
 10
1.045496386
 20
-9.9392565768
 10
1.1158905034
 20
-9.965153175
 10
1.1923313013
 20
-9.9698410821
 10
1.2765315135
 20
-9.9547352688
 10
1.3684911398
 20
-9.9198357352
  0
LWPOLYLINE
  5
468
100
AcDbEntity
  8
DRAFT
100
AcDbPolyline
 62
7
  6
CONTINUOUS
 90
6
 70
0
 10
-2.4371901053
 20
-8.6211475988
 10
-2.425957461
 20
-8.6276642047
 10
-2.3539835788
 20
-8.6545659236
 10
-2.27560875
 20
-8.6595962937
 10
-2.1891157037
 20
-8.6442636645
 10
-2.0945044402
 20
-8.6085680358
  0
LWPOLYLINE
  5
469
100
AcDbEntity
  8
DRAFT
100
AcDbPolyline
 62
7
  6
CONTINUOUS
 90
6
 70
0
 10
-5.9074186994
 20
-4.1924538893
 10
-5.8959479668
 20
-4.1991085833
 10
-5.8224548735
 20
-4.226577877
 10
-5.7424259738
 20
-4.2317142961
 10
-5.6541076893
 20
-4.2160579647
 10
-5.5575000202
 20
-4.1796088827
  0
LWPOLYLINE
  5
46A
100
AcDbEntity
  8
RACCORDO
100
AcDbPolyline
 62
250
  6
CONTINUOUS
 90
3
 70
0
 10
-4.4093149877
 20
-5.4884563467
 10
-4.4130019352
 20
-5.4855212045
 10
-4.4745321924
 20
-5.4317331254
  0
LINE
  5
46B
100
AcDbEntity
  8
RACCORDO
100
AcDbLine
 62
250
  6
CONTINUOUS
 10
-4.8189634217
 20
-5.6931807273
 11
-4.8756969453
 21
-5.6423344102
  0
LWPOLYLINE
  5
46C
100
AcDbEntity
  8
RACCORDO
100
AcDbPolyline
 62
250
  6
CONTINUOUS
 90
3
 70
0
 10
-5.1245276521
 20
-5.772964198
 10
-5.0927004581
 20
-5.8054298274
 10
-5.0757035071
 20
-5.8214881992
  0
LINE
  5
46D
100
AcDbEntity
  8
RACCORDO
100
AcDbLine
 62
7
  6
CONTINUOUS
 10
-5.1929962406
 20
-5.8089084643
 11
-5.1463873496
 21
-5.8568128939
  0
LINE
  5
46E
100
AcDbEntity
  8
0
100
AcDbLine
 62
7
  6
CONTINUOUS
 10
-4.9403190525
 20
-2.6361375131
 11
-4.9403190525
 21
-2.5585679181
  0
LINE
  5
46F
100
AcDbEntity
  8
RACCORDO
100
AcDbLine
 62
250
  6
CONTINUOUS
 10
-4.6892821898
 20
22.6366432205
 11
-4.6892821898
 21
21.9591798862
  0
LINE
  5
470
100
AcDbEntity
  8
DRAFT
100
AcDbLine
 62
250
  6
CONTINUOUS
 10
-4.5867656619
 20
21.94684474
 11
-4.5867656619
 21
21.2820777567
  0
LINE
  5
471
100
AcDbEntity
  8
RACCORDO
100
AcDbLine
 62
250
  6
CONTINUOUS
 10
-5.4186814552
 20
21.7857064186
 11
-5.4189987089
 21
21.7659117345
  0
LINE
  5
472
100
AcDbEntity
  8
0
100
AcDbLine
 62
7
  6
CONTINUOUS
 10
-1.9177258722
 20
20.7801467671
 11
-1.8588516939
 21
21.1257222489
  0
LINE
  5
473
100
AcDbEntity
  8
RACCORDO
100
AcDbLine
 62
7
  6
CONTINUOUS
 10
-20.3921659019
 20
-14.1993775619
 11
-20.3925621615
 21
-14.1996734386
  0
LWPOLYLINE
  5
474
100
AcDbEntity
  8
RACCORDO
100
AcDbPolyline
 62
7
  6
CONTINUOUS
 90
3
 70
0
 10
-20.3925621615
 20
-14.1996734386
 10
-20.3931558859
 20
-14.200093958
 10
-20.39509027
 20
-14.2012414122
  0
LWPOLYLINE
  5
475
100
AcDbEntity
  8
DRAFT
100
AcDbPolyline
 62
7
  6
CONTINUOUS
 90
15
 70
0
 10
-5.5575000202
 20
-2.8825722176
 10
-5.6534247712
 20
-2.9455005964
 10
-5.7412556906
 20
-3.0206948651
 10
-5.8209927784
 20
-3.1081550237
 10
-5.894422711
 20
-3.2112071728
 10
-5.959758812
 20
-3.3265252117
 10
-6.0116410525
 20
-3.4441308388
 10
-6.0489078713
 20
-3.564084444
 10
-6.0727208297
 20
-3.6863256374
 10
-6.0812045827
 20
-3.8006949483
 10
-6.0731409866
 20
-3.9065727187
 10
-6.0497481852
 20
-4.0045786067
 10
-6.0128052646
 20
-4.0864121161
 10
-5.9611516753
 20
-4.1508465389
 10
-5.9074186994
 20
-4.1924538893
  0
LINE
  5
476
100
AcDbEntity
  8
RACCORDO
100
AcDbLine
 62
7
  6
CONTINUOUS
 10
-20.4098593686
 20
-10.5717655331
 11
-20.4102046685
 21
-10.5719483382
  0
LINE
  5
477
100
AcDbEntity
  8
RACCORDO
100
AcDbLine
 62
7
  6
CONTINUOUS
 10
-5.5575000202
 20
-2.8825722176
 11
10.2518149438
 21
5.416915759
  0
LINE
  5
478
100
AcDbEntity
  8
RACCORDO
100
AcDbLine
 62
7
  6
CONTINUOUS
 10
-2.0945044402
 20
0.7445063251
 11
10.2518149438
 21
7.0479908736
  0
LINE
  5
479
100
AcDbEntity
  8
DRAFT
100
AcDbLine
 62
7
  6
CONTINUOUS
 10
-22.942357931
 20
-9.5122437372
 11
-22.5826332431
 21
-9.3304962904
  0
LINE
  5
47A
100
AcDbEntity
  8
DRAFT
100
AcDbLine
 62
7
  6
CONTINUOUS
 10
9.720713117
 20
4.6908054953
 11
-5.7675758348
 21
-3.0495642915
  0
LWPOLYLINE
  5
47B
100
AcDbEntity
  8
RACCORDO
100
AcDbPolyline
 62
7
  6
CONTINUOUS
 90
31
 70
0
 10
-31.5644622107
 20
-11.9363973949
 10
-31.5600443171
 20
-11.9344946019
 10
-31.5432991488
 20
-11.9291760174
 10
-31.5192119885
 20
-11.9242855173
 10
-31.4907536555
 20
-11.9208999012
 10
-31.458732046
 20
-11.9191411475
 10
-31.4232101661
 20
-11.9189939216
 10
-31.3857659576
 20
-11.9203943836
 10
-31.3469396264
 20
-11.9231589468
 10
-31.3066020513
 20
-11.9271815161
 10
-31.2652552957
 20
-11.932310055
 10
-31.223088759
 20
-11.9384221901
 10
-31.1800789983
 20
-11.9454505079
 10
-31.1363819302
 20
-11.9533019215
 10
-31.0920749293
 20
-11.9619104764
 10
-31.047153651
 20
-11.9712333493
 10
-31.0016275348
 20
-11.9812276829
 10
-30.9555013326
 20
-11.9918637827
 10
-30.9088071253
 20
-12.0031079708
 10
-30.8615834574
 20
-12.014924714
 10
-30.8138083274
 20
-12.0273007645
 10
-30.7655251082
 20
-12.0402075937
 10
-30.7168655211
 20
-12.0535905574
 10
-30.6678875667
 20
-12.0674169685
 10
-30.618548152
 20
-12.0816845127
 10
-30.5688254448
 20
-12.0963854675
 10
-30.5187279412
 20
-12.1115052866
 10
-30.4682570241
 20
-12.1270343786
 10
-30.4173795025
 20
-12.1429739881
 10
-30.3661003431
 20
-12.1593137378
 10
-30.3144217668
 20
-12.1760462541
  0
LWPOLYLINE
  5
47C
100
AcDbEntity
  8
RACCORDO
100
AcDbPolyline
 62
250
  6
CONTINUOUS
 90
4
 70
0
 10
-20.4433867819
 20
-6.9463435958
 10
-20.46549731
 20
-6.9519569329
 10
-20.4895743017
 20
-6.9564776899
 10
-20.5153164063
 20
-6.9598668574
  0
LINE
  5
47D
100
AcDbEntity
  8
ASSI
100
AcDbLine
 62
7
  6
CONTINUOUS
 10
0.4375675185
 20
-6.0090686475
 11
0.5740485323
 21
-6.0773091544
  0
LINE
  5
47E
100
AcDbEntity
  8
ASSI
100
AcDbLine
 62
7
  6
CONTINUOUS
 10
-5.6244736383
 20
-2.9780480691
 11
-5.6667509046
 21
-2.9569094359
  0
LINE
  5
47F
100
AcDbEntity
  8
ASSI
100
AcDbLine
 62
7
  6
CONTINUOUS
 10
-3.9613994409
 20
-2.1469162823
 11
-4.0568897555
 21
-2.0947900223
  0
LWPOLYLINE
  5
480
100
AcDbEntity
  8
ASSI
100
AcDbPolyline
 62
7
  6
CONTINUOUS
 90
3
 70
0
 10
-3.9883738315
 20
-5.1765123597
 10
-3.9180187954
 20
-5.2380408377
 10
-3.9142463461
 20
-5.2410426803
  0
LINE
  5
481
100
AcDbEntity
  8
DRAFT
100
AcDbLine
 62
7
  6
CONTINUOUS
 10
-16.6264342843
 20
14.606263804
 11
-16.5120494263
 21
14.4576317926
  0
LINE
  5
482
100
AcDbEntity
  8
DRAFT
100
AcDbLine
 62
7
  6
CONTINUOUS
 10
-16.5120494263
 20
14.4576317926
 11
-16.398182372
 21
14.3082943604
  0
LINE
  5
483
100
AcDbEntity
  8
DRAFT
100
AcDbLine
 62
7
  6
CONTINUOUS
 10
-16.398182372
 20
14.3082943604
 11
-16.2848385412
 21
14.1582586153
  0
LINE
  5
484
100
AcDbEntity
  8
DRAFT
100
AcDbLine
 62
7
  6
CONTINUOUS
 10
-15.7638170006
 20
13.450236198
 11
-15.651341634
 21
13.293309663
  0
LWPOLYLINE
  5
485
100
AcDbEntity
  8
DRAFT
100
AcDbPolyline
 62
7
  6
CONTINUOUS
 90
3
 70
0
 10
-15.651341634
 20
13.293309663
 10
-15.5394476306
 20
13.1357070665
 10
-15.5115654312
 20
13.0962014332
  0
LWPOLYLINE
  5
486
100
AcDbEntity
  8
RACCORDO
100
AcDbPolyline
 62
7
  6
CONTINUOUS
 90
10
 70
0
 10
-11.284298105
 20
8.370912145
 10
-11.2126095227
 20
8.231603465
 10
-11.1414000252
 20
8.0920513537
 10
-11.0706696126
 20
7.9522558111
 10
-11.0004163733
 20
7.8122129953
 10
-10.9306422189
 20
7.6719267483
 10
-10.861352884
 20
7.5314085958
 10
-10.7925502801
 20
7.39066238
 10
-10.7242324958
 20
7.2496842587
 10
-10.6563995311
 20
7.1084742321
  0
LWPOLYLINE
  5
487
100
AcDbEntity
  8
RACCORDO
100
AcDbPolyline
 62
7
  6
CONTINUOUS
 90
10
 70
0
 10
-10.6563995311
 20
7.1084742321
 10
-10.6263893178
 20
7.0419523679
 10
-10.5997126634
 20
6.9749705631
 10
-10.5763695681
 20
6.9075288176
 10
-10.5562376079
 20
6.8391211932
 10
-10.5394392066
 20
6.7702536281
 10
-10.5263416358
 20
6.7024439373
 10
-10.5170673191
 20
6.6361980592
 10
-10.5114938328
 20
6.5710100553
 10
-10.5096211769
 20
6.5068799258
  0
LWPOLYLINE
  5
488
100
AcDbEntity
  8
RACCORDO
100
AcDbPolyline
 62
250
  6
CONTINUOUS
 90
10
 70
0
 10
-4.6892821898
 20
22.6366432205
 10
-4.6936873257
 20
22.7149543837
 10
-4.7088749686
 20
22.7961671553
 10
-4.734387297
 20
22.877817159
 10
-4.7694519758
 20
22.9574238673
 10
-4.8130074809
 20
23.0325710648
 10
-4.8637368157
 20
23.1009791462
 10
-4.9201032822
 20
23.160567417
 10
-4.9803953204
 20
23.2095188008
 10
-5.0427816014
 20
23.2463397088
  0
LINE
  5
489
100
AcDbEntity
  8
RACCORDO
100
AcDbLine
 62
250
  6
CONTINUOUS
 10
-2.5715113355
 20
22.9415484646
 11
-2.5715113355
 21
21.913035546
  0
LINE
  5
48A
100
AcDbEntity
  8
RACCORDO
100
AcDbLine
 62
7
  6
CONTINUOUS
 10
-2.454354048
 20
23.0816872593
 11
-2.454354048
 21
21.9184996634
  0
LINE
  5
48B
100
AcDbEntity
  8
0
100
AcDbLine
 62
7
  6
CONTINUOUS
 10
-1.4047851465
 20
-3.9869236675
 11
-1.4047851465
 21
-3.8201940577
  0
LINE
  5
48C
100
AcDbEntity
  8
0
100
AcDbLine
 62
7
  6
CONTINUOUS
 10
-2.2229095787
 20
20.742514157
 11
-2.2167474863
 21
21.0339667608
  0
LINE
  5
48D
100
AcDbEntity
  8
0
100
AcDbLine
 62
7
  6
CONTINUOUS
 10
-0.929261667
 20
-0.6315863651
 11
-0.9030718362
 21
-0.6068923822
  0
LWPOLYLINE
  5
48E
100
AcDbEntity
  8
RACCORDO
100
AcDbPolyline
 62
7
  6
CONTINUOUS
 90
3
 70
0
 10
-20.3541235739
 20
-17.8167467015
 10
-20.3538795237
 20
-17.8165336587
 10
-20.3545352673
 20
-17.8169938513
  0
LWPOLYLINE
  5
48F
100
AcDbEntity
  8
DRAFT
100
AcDbPolyline
 62
7
  6
CONTINUOUS
 90
15
 70
0
 10
-5.5575000202
 20
-6.0002636712
 10
-5.6541082272
 20
-6.0638553427
 10
-5.7424268702
 20
-6.1396557186
 10
-5.8224559492
 20
-6.2276647989
 10
-5.8959489825
 20
-6.3312385897
 10
-5.9611524518
 20
-6.4470210849
 10
-6.0128058019
 20
-6.5649442666
 10
-6.0497485114
 20
-6.6850330079
 10
-6.0731411017
 20
-6.8072624356
 10
-6.081204582
 20
-6.9214899124
 10
-6.0727208563
 20
-7.0270736878
 10
-6.0489080207
 20
-7.1246555123
 10
-6.0116413716
 20
-7.2060179995
 10
-5.9597594144
 20
-7.2698980108
 10
-5.9073937032
 20
-7.3100972292
  0
LINE
  5
490
100
AcDbEntity
  8
RACCORDO
100
AcDbLine
 62
7
  6
CONTINUOUS
 10
-20.39509027
 20
-14.2012414122
 11
-20.39620341
 21
-14.2018391327
  0
LINE
  5
491
100
AcDbEntity
  8
RACCORDO
100
AcDbLine
 62
7
  6
CONTINUOUS
 10
-20.3960265218
 20
-14.2017688238
 11
-20.3962471169
 21
-14.2018850963
  0
LINE
  5
492
100
AcDbEntity
  8
RACCORDO
100
AcDbLine
 62
7
  6
CONTINUOUS
 10
-5.5575000202
 20
-6.0002636712
 11
10.2518149438
 21
2.2992243053
  0
LINE
  5
493
100
AcDbEntity
  8
RACCORDO
100
AcDbLine
 62
7
  6
CONTINUOUS
 10
-5.5575000202
 20
-4.1796088827
 11
10.2518149438
 21
3.8919280262
  0
LINE
  5
494
100
AcDbEntity
  8
DRAFT
100
AcDbLine
 62
7
  6
CONTINUOUS
 10
-22.942357931
 20
-13.1495502038
 11
-22.5826332431
 21
-12.9678029863
  0
LINE
  5
495
100
AcDbEntity
  8
DRAFT
100
AcDbLine
 62
7
  6
CONTINUOUS
 10
9.720713117
 20
1.5731140417
 11
-5.7674814345
 21
-6.167208568
  0
LWPOLYLINE
  5
496
100
AcDbEntity
  8
RACCORDO
100
AcDbPolyline
 62
250
  6
CONTINUOUS
 90
3
 70
0
 10
-20.4102046685
 20
-10.5719483382
 10
-20.4292203186
 20
-10.5806998064
 10
-20.4519535558
 20
-10.5885449519
  0
LWPOLYLINE
  5
497
100
AcDbEntity
  8
RACCORDO
100
AcDbPolyline
 62
250
  6
CONTINUOUS
 90
40
 70
0
 10
-20.4675721386
 20
-3.3027679867
 10
-20.4932649927
 20
-3.3055938857
 10
-20.5204661717
 20
-3.3074108912
 10
-20.5490947013
 20
-3.3082448795
 10
-20.5790683039
 20
-3.308125889
 10
-20.6103731006
 20
-3.3070846539
 10
-20.6430336061
 20
-3.3051462657
 10
-20.677008915
 20
-3.3023342103
 10
-20.7122684123
 20
-3.2986709489
 10
-20.7488736528
 20
-3.294167618
 10
-20.786794638
 20
-3.2888407381
 10
-20.8259987712
 20
-3.2827055898
 10
-20.866567309
 20
-3.275757765
 10
-20.9084750105
 20
-3.268006503
 10
-20.9517003172
 20
-3.2594600379
 10
-20.9963549975
 20
-3.2500982446
 10
-21.0424480731
 20
-3.2399182565
 10
-21.0899499843
 20
-3.22892536
 10
-21.138933886
 20
-3.2171004393
 10
-21.1894006216
 20
-3.2044398452
 10
-21.2413406703
 20
-3.1909423703
 10
-21.2948238178
 20
-3.1765852359
 10
-21.3498451654
 20
-3.1613644848
 10
-21.4064097572
 20
-3.1452733432
 10
-21.4646139622
 20
-3.1282775613
 10
-21.5244638703
 20
-3.1103678663
 10
-21.5859645491
 20
-3.0915351493
 10
-21.6492231726
 20
-3.071737512
 10
-21.7142501345
 20
-3.0509621684
 10
-21.7810558681
 20
-3.0291961433
 10
-21.8497595434
 20
-3.0063893301
 10
-21.9203806033
 20
-2.9825234947
 10
-21.9929294308
 20
-2.9575835221
 10
-22.0675197613
 20
-2.9315183216
 10
-22.1441575876
 20
-2.9043149213
 10
-22.2228557569
 20
-2.8759583858
 10
-22.3037432779
 20
-2.8463908491
 10
-22.3868247916
 20
-2.8155983388
 10
-22.4721168461
 20
-2.783562316
 10
-22.559776571
 20
-2.7502101912
  0
LWPOLYLINE
  5
498
100
AcDbEntity
  8
0
100
AcDbPolyline
 62
250
  6
CONTINUOUS
 90
16
 70
0
 10
-18.4159906751
 20
6.9468561051
 10
-18.3775525078
 20
6.9293978281
 10
-18.33574156
 20
6.9138238886
 10
-18.2910058019
 20
6.9003011486
 10
-18.2438245408
 20
6.8889744934
 10
-18.1947032856
 20
6.8799652789
 10
-18.1441683306
 20
6.8733700319
 10
-18.0927611168
 20
6.8692594151
 10
-18.0410324307
 20
6.8676774703
 10
-17.989536503
 20
6.868641147
 10
-17.9388250708
 20
6.87214012
 10
-17.8894414658
 20
6.8781369007
 10
-17.8419147932
 20
6.8865672385
 10
-17.7967542628
 20
6.8973408092
 10
-17.7544437327
 20
6.9103421827
 10
-17.7154365261
 20
6.9254320598
  0
LWPOLYLINE
  5
499
100
AcDbEntity
  8
0
100
AcDbPolyline
 62
250
  6
CONTINUOUS
 90
3
 70
0
 10
-2.9127584688
 20
-1.4941502172
 10
-2.8273085201
 20
-1.5338112253
 10
-2.7752811755
 20
-1.5541462214
  0
LINE
  5
49A
100
AcDbEntity
  8
DRAFT
100
AcDbLine
 62
7
  6
CONTINUOUS
 10
2.7240915775
 20
-5.0028116241
 11
2.5347113522
 21
-4.9081215115
  0
LINE
  5
49B
100
AcDbEntity
  8
0
100
AcDbLine
 62
250
  6
CONTINUOUS
 10
-33.266005683
 20
14.3718485156
 11
-18.4160065854
 21
6.9468489668
  0
LWPOLYLINE
  5
49C
100
AcDbEntity
  8
RACCORDO
100
AcDbPolyline
 62
250
  6
CONTINUOUS
 90
9
 70
0
 10
-0.8463820544
 20
-0.5901667576
 10
-0.8612404004
 20
-0.5819299123
 10
-0.8795423706
 20
-0.5693955233
 10
-0.895223234
 20
-0.5559175263
 10
-0.9080920237
 20
-0.5416071167
 10
-0.91793913
 20
-0.5266321312
 10
-0.9245885168
 20
-0.5112238337
 10
-0.9279642266
 20
-0.495579387
 10
-0.9284178272
 20
-0.4873338641
  0
LINE
  5
49D
100
AcDbEntity
  8
0
100
AcDbLine
 62
250
  6
CONTINUOUS
 10
-3.2558117684
 20
-1.7942944065
 11
-3.3652077322
 21
-1.7316745648
  0
LWPOLYLINE
  5
49E
100
AcDbEntity
  8
0
100
AcDbPolyline
 62
250
  6
CONTINUOUS
 90
16
 70
0
 10
-17.7406890849
 20
8.1070986134
 10
-17.704301306
 20
8.0859557832
 10
-17.6681092427
 20
8.060413403
 10
-17.6325089622
 20
8.0307509954
 10
-17.5978900554
 20
7.9972931706
 10
-17.5646313738
 20
7.9604060735
 10
-17.5330968835
 20
7.9204933776
 10
-17.5036316816
 20
7.8779918665
 10
-17.4765582201
 20
7.833366655
 10
-17.4521727768
 20
7.7871060982
 10
-17.4307422135
 20
7.7397164478
 10
-17.4125010552
 20
7.6917163115
 10
-17.3976489237
 20
7.6436309781
 10
-17.3863483531
 20
7.5959866686
 10
-17.3787230108
 20
7.5493047776
 10
-17.3748563448
 20
7.5040961677
  0
LWPOLYLINE
  5
49F
100
AcDbEntity
  8
DRAFT
100
AcDbPolyline
 62
7
  6
CONTINUOUS
 90
10
 70
0
 10
-12.9601456034
 20
14.8614701153
 10
-12.813607985
 20
14.6569001906
 10
-12.6680850113
 20
14.4512183346
 10
-12.5235766824
 20
14.244424547
 10
-12.3800709901
 20
14.0365012121
 10
-12.2375799425
 20
13.8274659457
 10
-12.0961395641
 20
13.617371596
 10
-11.955761863
 20
13.4062357789
 10
-11.8164348312
 20
13.1940408785
 10
-11.6781584685
 20
12.9807868948
  0
LINE
  5
4A0
100
AcDbEntity
  8
0
100
AcDbLine
 62
7
  6
CONTINUOUS
 10
-0.6293360507
 20
21.5823708072
 11
-0.6005055075
 21
21.1994011198
  0
LINE
  5
4A1
100
AcDbEntity
  8
RACCORDO
100
AcDbLine
 62
7
  6
CONTINUOUS
 10
-0.9284178272
 20
2.626898174
 11
-0.9284178272
 21
2.5248981965
  0
LINE
  5
4A2
100
AcDbEntity
  8
RACCORDO
100
AcDbLine
 62
7
  6
CONTINUOUS
 10
-0.9284178272
 20
-0.4524218859
 11
-0.9284178272
 21
-0.4873338641
  0
LINE
  5
4A3
100
AcDbEntity
  8
RACCORDO
100
AcDbLine
 62
250
  6
CONTINUOUS
 10
-0.8405498615
 20
2.6730266195
 11
-0.8405498615
 21
2.5688107648
  0
LINE
  5
4A4
100
AcDbEntity
  8
RACCORDO
100
AcDbLine
 62
250
  6
CONTINUOUS
 10
-0.8405498615
 20
-0.4062934404
 11
-0.8405498615
 21
-0.5872520825
  0
LINE
  5
4A5
100
AcDbEntity
  8
RACCORDO
100
AcDbLine
 62
7
  6
CONTINUOUS
 10
-0.8365533664
 20
24.5476251196
 11
-0.8365533664
 21
23.9120783996
  0
LINE
  5
4A6
100
AcDbEntity
  8
RACCORDO
100
AcDbLine
 62
250
  6
CONTINUOUS
 10
-0.557707149
 20
-0.4458996586
 11
-0.557707149
 21
-0.2578082153
  0
LINE
  5
4A7
100
AcDbEntity
  8
RACCORDO
100
AcDbLine
 62
250
  6
CONTINUOUS
 10
-0.557707149
 20
2.7101631888
 11
-0.557707149
 21
2.8215118447
  0
LINE
  5
4A8
100
AcDbEntity
  8
RACCORDO
100
AcDbLine
 62
250
  6
CONTINUOUS
 10
-0.1334430803
 20
-0.2338710227
 11
-0.1334430803
 21
-0.0350803776
  0
LINE
  5
4A9
100
AcDbEntity
  8
RACCORDO
100
AcDbLine
 62
250
  6
CONTINUOUS
 10
-0.1334430803
 20
2.9221918247
 11
-0.1334430803
 21
3.0442396823
  0
LINE
  5
4AA
100
AcDbEntity
  8
RACCORDO
100
AcDbLine
 62
7
  6
CONTINUOUS
 10
0.3615316665
 20
0.0134957192
 11
0.3615316665
 21
0.2247687664
  0
LINE
  5
4AB
100
AcDbEntity
  8
RACCORDO
100
AcDbLine
 62
7
  6
CONTINUOUS
 10
0.3615316665
 20
3.1695585666
 11
0.3615316665
 21
3.3040888263
  0
LINE
  5
4AC
100
AcDbEntity
  8
0
100
AcDbLine
 62
7
  6
CONTINUOUS
 10
0.716535197
 20
-6.0061005478
 11
0.716535197
 21
-5.8626177166
  0
LWPOLYLINE
  5
4AD
100
AcDbEntity
  8
RACCORDO
100
AcDbPolyline
 62
7
  6
CONTINUOUS
 90
6
 70
0
 10
2.9767834579
 20
22.7339467812
 10
2.9802616391
 20
22.7796568277
 10
2.9804907148
 20
22.8153718561
 10
2.9788021364
 20
22.8395169949
 10
2.9792709369
 20
22.8517665575
 10
2.9800139887
 20
22.8530033366
  0
LINE
  5
4AE
100
AcDbEntity
  8
0
100
AcDbLine
 62
7
  6
CONTINUOUS
 10
-0.8000670414
 20
-3.5027324438
 11
-0.8858431686
 21
-3.7275791511
  0
LWPOLYLINE
  5
4AF
100
AcDbEntity
  8
DRAFT
100
AcDbPolyline
 62
7
  6
CONTINUOUS
 90
15
 70
0
 10
-2.0945044402
 20
-7.3383419794
 10
-2.1884469189
 20
-7.3999702256
 10
-2.2744626699
 20
-7.473610619
 10
-2.3525516931
 20
-7.5592631597
 10
-2.4244636502
 20
-7.6601851568
 10
-2.4884488795
 20
-7.773119301
 10
-2.5392583958
 20
-7.8882936648
 10
-2.5757547146
 20
-8.0057673754
 10
-2.5990753203
 20
-8.1254813054
 10
-2.6073836811
 20
-8.2374861455
 10
-2.5994868809
 20
-8.3411750796
 10
-2.5765778358
 20
-8.4371549238
 10
-2.5403987615
 20
-8.5172968164
 10
-2.4898131258
 20
-8.5803994863
 10
-2.4371901053
 20
-8.6211475988
  0
LINE
  5
4B0
100
AcDbEntity
  8
RACCORDO
100
AcDbLine
 62
7
  6
CONTINUOUS
 10
-20.3545352673
 20
-17.8169938513
 11
-20.356186251
 21
-17.8179872315
  0
LINE
  5
4B1
100
AcDbEntity
  8
RACCORDO
100
AcDbLine
 62
7
  6
CONTINUOUS
 10
-2.0945044402
 20
-7.3383419794
 11
10.2518149438
 21
-0.856838542
  0
LINE
  5
4B2
100
AcDbEntity
  8
RACCORDO
100
AcDbLine
 62
7
  6
CONTINUOUS
 10
-5.5575000202
 20
-7.2973003363
 11
10.2518149438
 21
0.7742365726
  0
LWPOLYLINE
  5
4B3
100
AcDbEntity
  8
RACCORDO
100
AcDbPolyline
 62
250
  6
CONTINUOUS
 90
4
 70
0
 10
-20.3962471169
 20
-14.2018850963
 10
-20.4011943101
 20
-14.2043907934
 10
-20.4191076672
 20
-14.2120726173
 10
-20.439020189
 20
-14.2186434812
  0
LINE
  5
4B4
100
AcDbEntity
  8
DRAFT
100
AcDbLine
 62
7
  6
CONTINUOUS
 10
9.720713117
 20
-1.5062060182
 11
-2.3201164258
 21
-7.5236862894
  0
LINE
  5
4B5
100
AcDbEntity
  8
DRAFT
100
AcDbLine
 62
7
  6
CONTINUOUS
 10
2.5026013701
 20
-2.034182688
 11
2.2437977725
 21
-1.9047808891
  0
LINE
  5
4B6
100
AcDbEntity
  8
0
100
AcDbLine
 62
250
  6
CONTINUOUS
 10
-32.6023739058
 20
15.5379410238
 11
-17.7406890849
 21
8.1070986134
  0
LINE
  5
4B7
100
AcDbEntity
  8
DRAFT
100
AcDbLine
 62
7
  6
CONTINUOUS
 10
7.7087918886
 20
-2.1918609208
 11
8.0286852319
 21
-2.3518075925
  0
LINE
  5
4B8
100
AcDbEntity
  8
DRAFT
100
AcDbLine
 62
250
  6
CONTINUOUS
 10
-2.5994322924
 20
1.0135902245
 11
-2.0945044402
 21
0.7445063251
  0
LWPOLYLINE
  5
4B9
100
AcDbEntity
  8
DRAFT
100
AcDbPolyline
 62
7
  6
CONTINUOUS
 90
6
 70
0
 10
-2.4371655308
 20
0.7319740626
 10
-2.4244627159
 20
0.7246663816
 10
-2.3525506288
 20
0.6982115349
 10
-2.2744617594
 20
0.6934226272
 10
-2.1884463632
 20
0.7088542239
 10
-2.0945044402
 20
0.7445063251
  0
LINE
  5
4BA
100
AcDbEntity
  8
DRAFT
100
AcDbLine
 62
7
  6
CONTINUOUS
 10
2.4803582018
 20
-2.0452988512
 11
2.4160368326
 21
-2.0042720253
  0
LINE
  5
4BB
100
AcDbEntity
  8
DRAFT
100
AcDbLine
 62
7
  6
CONTINUOUS
 10
2.4160368326
 20
-2.0042720253
 11
2.3582271922
 21
-1.961995599
  0
LWPOLYLINE
  5
4BC
100
AcDbEntity
  8
DRAFT
100
AcDbPolyline
 62
7
  6
CONTINUOUS
 90
3
 70
0
 10
-20.2550162806
 20
18.5089054539
 10
-20.2160311615
 20
18.4710689621
 10
-20.2105637718
 20
18.4665822261
  0
LINE
  5
4BD
100
AcDbEntity
  8
DRAFT
100
AcDbLine
 62
7
  6
CONTINUOUS
 10
-13.8053059903
 20
15.9938960249
 11
-13.6895935446
 21
15.8434552092
  0
LINE
  5
4BE
100
AcDbEntity
  8
DRAFT
100
AcDbLine
 62
7
  6
CONTINUOUS
 10
-13.6895935446
 20
15.8434552092
 11
-13.5744123114
 21
15.6922916951
  0
LINE
  5
4BF
100
AcDbEntity
  8
DRAFT
100
AcDbLine
 62
7
  6
CONTINUOUS
 10
-13.5744123114
 20
15.6922916951
 11
-13.459767918
 21
15.5404128678
  0
LWPOLYLINE
  5
4C0
100
AcDbEntity
  8
0
100
AcDbPolyline
 62
7
  6
CONTINUOUS
 90
3
 70
0
 10
-1.988395519
 20
2.0704368644
 10
-1.977943844
 20
2.0536852829
 10
-1.954433756
 20
2.0121402849
  0
LINE
  5
4C1
100
AcDbEntity
  8
0
100
AcDbLine
 62
7
  6
CONTINUOUS
 10
-1.3426753482
 20
2.3178703957
 11
-1.3821555823
 21
2.3886974011
  0
LINE
  5
4C2
100
AcDbEntity
  8
DRAFT
100
AcDbLine
 62
7
  6
CONTINUOUS
 10
3.049987575
 20
7.7947798114
 11
3.049987575
 21
7.6691941579
  0
LINE
  5
4C3
100
AcDbEntity
  8
DRAFT
100
AcDbLine
 62
7
  6
CONTINUOUS
 10
3.049987575
 20
4.7154597515
 11
3.049987575
 21
4.5131313106
  0
LINE
  5
4C4
100
AcDbEntity
  8
DRAFT
100
AcDbLine
 62
7
  6
CONTINUOUS
 10
3.049987575
 20
1.6361396916
 11
3.049987575
 21
1.3570684633
  0
LINE
  5
4C5
100
AcDbEntity
  8
DRAFT
100
AcDbLine
 62
7
  6
CONTINUOUS
 10
3.049987575
 20
-1.481551762
 11
3.049987575
 21
-1.7606229904
  0
LINE
  5
4C6
100
AcDbEntity
  8
DRAFT
100
AcDbLine
 62
7
  6
CONTINUOUS
 10
3.049987575
 20
-7.7936774567
 11
3.049987575
 21
-7.9192631102
  0
LWPOLYLINE
  5
4C7
100
AcDbEntity
  8
DRAFT
100
AcDbPolyline
 62
7
  6
CONTINUOUS
 90
15
 70
0
 10
1.3684911398
 20
-8.6764202876
 10
1.2758768443
 20
-8.7373829949
 10
1.1912094113
 20
-8.8100496827
 10
1.1144888407
 20
-8.8944203508
 10
1.0440341069
 20
-8.9937122636
 10
0.9815262356
 20
-9.1047081568
 10
0.9320083035
 20
-9.2177562376
 10
0.8965928547
 20
-9.3328803509
 10
0.8741673451
 20
-9.4500566519
 10
0.8664372198
 20
-9.5595618131
 10
0.8745702169
 20
-9.6607806151
 10
0.8973985984
 20
-9.7543282774
 10
0.9331245947
 20
-9.8323271314
 10
0.9828616829
 20
-9.8935662583
 10
1.033062526
 20
-9.9321035876
  0
LINE
  5
4C8
100
AcDbEntity
  8
RACCORDO
100
AcDbLine
 62
7
  6
CONTINUOUS
 10
-20.356186251
 20
-17.8179872315
 11
-20.3573826276
 21
-17.8186369125
  0
LINE
  5
4C9
100
AcDbEntity
  8
RACCORDO
100
AcDbLine
 62
7
  6
CONTINUOUS
 10
-20.3572086334
 20
-17.8185680251
 11
-20.3573205403
 21
-17.8186270571
  0
LINE
  5
4CA
100
AcDbEntity
  8
RACCORDO
100
AcDbLine
 62
7
  6
CONTINUOUS
 10
1.3684911398
 20
-8.6764202876
 11
10.2518149438
 21
-4.0129013893
  0
LINE
  5
4CB
100
AcDbEntity
  8
RACCORDO
100
AcDbLine
 62
7
  6
CONTINUOUS
 10
-2.0945044402
 20
-8.6085680358
 11
10.2518149438
 21
-2.3050834873
  0
LINE
  5
4CC
100
AcDbEntity
  8
DRAFT
100
AcDbLine
 62
7
  6
CONTINUOUS
 10
9.720713117
 20
-4.5855260782
 11
1.1276224023
 21
-8.8799771922
  0
LWPOLYLINE
  5
4CD
100
AcDbEntity
  8
RACCORDO
100
AcDbPolyline
 62
250
  6
CONTINUOUS
 90
3
 70
0
 10
-20.3573205403
 20
-17.8186270571
 10
-20.3731660328
 20
-17.8260335904
 10
-20.3914747314
 20
-17.8327146659
  0
LINE
  5
4CE
100
AcDbEntity
  8
RACCORDO
100
AcDbLine
 62
7
  6
CONTINUOUS
 10
10.2456984342
 20
-4.9613922378
 11
9.720713117
 21
-4.5855260782
  0
LWPOLYLINE
  5
4CF
100
AcDbEntity
  8
RACCORDO
100
AcDbPolyline
 62
7
  6
CONTINUOUS
 90
3
 70
0
 10
-5.3760115131
 20
21.6145574801
 10
-5.4125628264
 20
21.7106545584
 10
-5.4186154443
 20
21.7867477336
  0
LWPOLYLINE
  5
4D0
100
AcDbEntity
  8
0
100
AcDbPolyline
 62
7
  6
CONTINUOUS
 90
3
 70
0
 10
-3.2546478205
 20
21.3000583265
 10
-3.1975405324
 20
21.0735577494
 10
-3.1102672186
 20
20.7292660479
  0
LINE
  5
4D1
100
AcDbEntity
  8
DRAFT
100
AcDbLine
 62
7
  6
CONTINUOUS
 10
-8.4511343731
 20
-22.0936931455
 11
-7.6115595855
 21
-21.0547749248
  0
LWPOLYLINE
  5
4D2
100
AcDbEntity
  8
RACCORDO
100
AcDbPolyline
 62
7
  6
CONTINUOUS
 90
8
 70
0
 10
-10.6563995311
 20
-22.4478550117
 10
-10.7242324958
 20
-22.5212320736
 10
-10.7925502801
 20
-22.5938924106
 10
-10.861352884
 20
-22.6658360226
 10
-10.9306422189
 20
-22.7370648401
 10
-11.0004163733
 20
-22.8075769327
 10
-11.0706696126
 20
-22.8773665092
 10
-11.1414000252
 20
-22.9464316392
  0
LWPOLYLINE
  5
4D3
100
AcDbEntity
  8
RACCORDO
100
AcDbPolyline
 62
7
  6
CONTINUOUS
 90
3
 70
0
 10
-11.1414000252
 20
-22.9464316392
 10
-11.2126095227
 20
-23.014774253
 10
-11.284298105
 20
-23.0823943508
  0
LINE
  5
4D4
100
AcDbEntity
  8
RACCORDO
100
AcDbLine
 62
7
  6
CONTINUOUS
 10
1.3684911398
 20
-9.9198357352
 11
10.2518149438
 21
-5.3844035472
  0
LINE
  5
4D5
100
AcDbEntity
  8
DRAFT
100
AcDbLine
 62
7
  6
CONTINUOUS
 10
-26.9669644111
 20
18.8239009232
 11
-21.5573284103
 21
16.1190829228
  0
LINE
  5
4D6
100
AcDbEntity
  8
DRAFT
100
AcDbLine
 62
7
  6
CONTINUOUS
 10
-17.3146877232
 20
13.9977625792
 11
-11.9050517225
 21
11.2929445789
  0
LINE
  5
4D7
100
AcDbEntity
  8
DRAFT
100
AcDbLine
 62
7
  6
CONTINUOUS
 10
-22.2455818492
 20
17.4158375864
 11
-21.5573284103
 21
17.071710867
  0
LINE
  5
4D8
100
AcDbEntity
  8
DRAFT
100
AcDbLine
 62
7
  6
CONTINUOUS
 10
-17.3146877232
 20
14.9503905234
 11
-16.6264342843
 21
14.606263804
  0
LINE
  5
4D9
100
AcDbEntity
  8
DRAFT
100
AcDbLine
 62
7
  6
CONTINUOUS
 10
-16.4581703525
 20
15.4507370174
 11
-19.6349018892
 21
17.0391027857
  0
LINE
  5
4DA
100
AcDbEntity
  8
DRAFT
100
AcDbLine
 62
7
  6
CONTINUOUS
 10
-19.6349018892
 20
17.8593703364
 11
-15.7015803384
 21
15.8927095609
  0
LINE
  5
4DB
100
AcDbEntity
  8
DRAFT
100
AcDbLine
 62
250
  6
CONTINUOUS
 10
0.8740337545
 20
5.9321255578
 11
1.3684911398
 21
5.6686215329
  0
LWPOLYLINE
  5
4DC
100
AcDbEntity
  8
DRAFT
100
AcDbPolyline
 62
7
  6
CONTINUOUS
 90
6
 70
0
 10
1.0330385633
 20
5.6563075559
 10
1.0440350807
 20
5.6499279758
 10
1.1144898719
 20
5.6235942991
 10
1.1912102707
 20
5.6186702264
 10
1.27587736
 20
5.6336793043
 10
1.3684911398
 20
5.6686215329
  0
LINE
  5
4DD
100
AcDbEntity
  8
RACCORDO
100
AcDbLine
 62
7
  6
CONTINUOUS
 10
10.2456984342
 20
-1.8820721779
 11
9.720713117
 21
-1.5062060182
  0
LINE
  5
4DE
100
AcDbEntity
  8
RACCORDO
100
AcDbLine
 62
7
  6
CONTINUOUS
 10
10.2456984342
 20
1.1972478821
 11
9.720713117
 21
1.5731140417
  0
LINE
  5
4DF
100
AcDbEntity
  8
DRAFT
100
AcDbLine
 62
7
  6
CONTINUOUS
 10
8.3255201617
 20
10.5643001464
 11
8.3255201617
 21
10.3056747382
  0
LINE
  5
4E0
100
AcDbEntity
  8
DRAFT
100
AcDbLine
 62
7
  6
CONTINUOUS
 10
8.3255201617
 20
7.4849800864
 11
8.3255201617
 21
7.1496118909
  0
LINE
  5
4E1
100
AcDbEntity
  8
DRAFT
100
AcDbLine
 62
7
  6
CONTINUOUS
 10
8.3255201617
 20
4.4056600265
 11
8.3255201617
 21
3.9935490436
  0
LINE
  5
4E2
100
AcDbEntity
  8
DRAFT
100
AcDbLine
 62
7
  6
CONTINUOUS
 10
8.3255201617
 20
1.2879685729
 11
8.3255201617
 21
0.87585759
  0
LINE
  5
4E3
100
AcDbEntity
  8
DRAFT
100
AcDbLine
 62
7
  6
CONTINUOUS
 10
8.3255201617
 20
-5.0241571218
 11
8.3255201617
 21
-5.2827825299
  0
LINE
  5
4E4
100
AcDbEntity
  8
DRAFT
100
AcDbLine
 62
7
  6
CONTINUOUS
 10
8.6693091863
 20
-5.1109718033
 11
8.6693091863
 21
-4.843676634
  0
LINE
  5
4E5
100
AcDbEntity
  8
DRAFT
100
AcDbLine
 62
7
  6
CONTINUOUS
 10
8.6693091863
 20
-2.0316517434
 11
8.6693091863
 21
-1.6876137867
  0
LINE
  5
4E6
100
AcDbEntity
  8
DRAFT
100
AcDbLine
 62
7
  6
CONTINUOUS
 10
8.6693091863
 20
1.0476683166
 11
8.6693091863
 21
1.4684490606
  0
LINE
  5
4E7
100
AcDbEntity
  8
DRAFT
100
AcDbLine
 62
7
  6
CONTINUOUS
 10
8.6693091863
 20
4.1653597702
 11
8.6693091863
 21
4.5861405143
  0
LINE
  5
4E8
100
AcDbEntity
  8
DRAFT
100
AcDbLine
 62
7
  6
CONTINUOUS
 10
8.6693091863
 20
7.3214226175
 11
8.6693091863
 21
7.6654605742
  0
LINE
  5
4E9
100
AcDbEntity
  8
DRAFT
100
AcDbLine
 62
7
  6
CONTINUOUS
 10
8.6693091863
 20
10.4774854648
 11
8.6693091863
 21
10.7447806341
  0
LINE
  5
4EA
100
AcDbEntity
  8
0
100
AcDbLine
 62
7
  6
CONTINUOUS
 10
9.720713117
 20
-4.5855260782
 11
9.720713117
 21
-4.2917163308
  0
LINE
  5
4EB
100
AcDbEntity
  8
0
100
AcDbLine
 62
7
  6
CONTINUOUS
 10
9.720713117
 20
-1.5062060182
 11
9.720713117
 21
-1.1356534835
  0
LINE
  5
4EC
100
AcDbEntity
  8
0
100
AcDbLine
 62
7
  6
CONTINUOUS
 10
9.720713117
 20
1.5731140417
 11
9.720713117
 21
2.0204093639
  0
LINE
  5
4ED
100
AcDbEntity
  8
0
100
AcDbLine
 62
7
  6
CONTINUOUS
 10
9.720713117
 20
4.6908054953
 11
9.720713117
 21
5.1381008175
  0
LINE
  5
4EE
100
AcDbEntity
  8
0
100
AcDbLine
 62
7
  6
CONTINUOUS
 10
9.720713117
 20
7.8468683426
 11
9.720713117
 21
8.2174208774
  0
LINE
  5
4EF
100
AcDbEntity
  8
0
100
AcDbLine
 62
7
  6
CONTINUOUS
 10
9.720713117
 20
11.0029311899
 11
9.720713117
 21
11.2967409373
  0
LWPOLYLINE
  5
4F0
100
AcDbEntity
  8
RACCORDO
100
AcDbPolyline
 62
250
  6
CONTINUOUS
 90
6
 70
0
 10
10.3921428813
 20
16.4985011719
 10
10.3906415145
 20
16.4798633179
 10
10.376580979
 20
16.4373457431
 10
10.3481255739
 20
16.3966672301
 10
10.3061208428
 20
16.3590365293
 10
10.2518149438
 20
16.3255718257
  0
LWPOLYLINE
  5
4F1
100
AcDbEntity
  8
RACCORDO
100
AcDbPolyline
 62
7
  6
CONTINUOUS
 90
3
 70
0
 10
-11.284298105
 20
-23.0823943508
 10
-11.2982312972
 20
-23.0925727709
 10
-11.3004541815
 20
-23.0938296238
  0
LINE
  5
4F2
100
AcDbEntity
  8
RACCORDO
100
AcDbLine
 62
250
  6
CONTINUOUS
 10
-10.5096211769
 20
-21.335690826
 11
10.2518149438
 21
-10.1344771832
  0
LINE
  5
4F3
100
AcDbEntity
  8
DRAFT
100
AcDbLine
 62
7
  6
CONTINUOUS
 10
-19.4098558937
 20
18.7961709766
 11
-13.8053059903
 21
15.9938960249
  0
LINE
  5
4F4
100
AcDbEntity
  8
DRAFT
100
AcDbLine
 62
7
  6
CONTINUOUS
 10
-13.2841790705
 20
15.7691011467
 11
-17.6682411138
 21
17.9611321684
  0
LINE
  5
4F5
100
AcDbEntity
  8
DRAFT
100
AcDbLine
 62
7
  6
CONTINUOUS
 10
-12.9884973405
 20
15.9764029435
 11
-17.2459638406
 21
18.1051361935
  0
LINE
  5
4F6
100
AcDbEntity
  8
DRAFT
100
AcDbLine
 62
7
  6
CONTINUOUS
 10
-8.9531093868
 20
14.3229338309
 11
-11.9642257822
 21
15.8284920286
  0
LINE
  5
4F7
100
AcDbEntity
  8
DRAFT
100
AcDbLine
 62
7
  6
CONTINUOUS
 10
-15.7831524563
 20
17.7379553656
 11
-18.7942688517
 21
19.2435135633
  0
LINE
  5
4F8
100
AcDbEntity
  8
DRAFT
100
AcDbLine
 62
7
  6
CONTINUOUS
 10
-17.4621085483
 20
19.0193357229
 11
-7.2677719615
 21
13.9221674295
  0
LINE
  5
4F9
100
AcDbEntity
  8
RACCORDO
100
AcDbLine
 62
7
  6
CONTINUOUS
 10
10.2456984342
 20
4.3149393357
 11
9.720713117
 21
4.6908054953
  0
LINE
  5
4FA
100
AcDbEntity
  8
RACCORDO
100
AcDbLine
 62
250
  6
CONTINUOUS
 10
10.2453823415
 20
16.5456157741
 11
10.2518149438
 21
16.3255718257
  0
LWPOLYLINE
  5
4FB
100
AcDbEntity
  8
RACCORDO
100
AcDbPolyline
 62
7
  6
CONTINUOUS
 90
13
 70
0
 10
10.3920893562
 20
16.4985013649
 10
10.3906567285
 20
16.5986391658
 10
10.3536483513
 20
17.0226546108
 10
10.2683255501
 20
17.4533524389
 10
10.1370129706
 20
17.8839507417
 10
9.9626075856
 20
18.3062161338
 10
9.7493294663
 20
18.7106546227
 10
9.5013331909
 20
19.0897360546
 10
9.223063563
 20
19.4362690175
 10
8.9200886724
 20
19.7426460159
 10
8.59716974
 20
20.0030427762
 10
8.2587143107
 20
20.2121722438
 10
8.2056067021
 20
20.2394273059
  0
LINE
  5
4FC
100
AcDbEntity
  8
RACCORDO
100
AcDbLine
 62
250
  6
CONTINUOUS
 10
10.2518149438
 20
16.3255718257
 11
10.2518149438
 21
11.5755558788
  0
LINE
  5
4FD
100
AcDbEntity
  8
RACCORDO
100
AcDbLine
 62
250
  6
CONTINUOUS
 10
10.2518149438
 20
10.2040537209
 11
10.2518149438
 21
8.4962358189
  0
LINE
  5
4FE
100
AcDbEntity
  8
RACCORDO
100
AcDbLine
 62
250
  6
CONTINUOUS
 10
10.2518149438
 20
7.0479908736
 11
10.2518149438
 21
5.416915759
  0
LINE
  5
4FF
100
AcDbEntity
  8
RACCORDO
100
AcDbLine
 62
250
  6
CONTINUOUS
 10
10.2518149438
 20
3.8919280262
 11
10.2518149438
 21
2.2992243053
  0
LINE
  5
500
100
AcDbEntity
  8
RACCORDO
100
AcDbLine
 62
250
  6
CONTINUOUS
 10
10.2518149438
 20
0.7742365726
 11
10.2518149438
 21
-0.856838542
  0
LINE
  5
501
100
AcDbEntity
  8
RACCORDO
100
AcDbLine
 62
250
  6
CONTINUOUS
 10
10.2518149438
 20
-2.3050834873
 11
10.2518149438
 21
-4.0129013893
  0
LINE
  5
502
100
AcDbEntity
  8
RACCORDO
100
AcDbLine
 62
250
  6
CONTINUOUS
 10
10.2518149438
 20
-5.3844035472
 11
10.2518149438
 21
-10.1344771832
  0
LINE
  5
503
100
AcDbEntity
  8
RACCORDO
100
AcDbLine
 62
7
  6
CONTINUOUS
 10
10.3921450437
 20
16.4992364211
 11
10.3921450437
 21
11.7295154691
  0
LINE
  5
504
100
AcDbEntity
  8
RACCORDO
100
AcDbLine
 62
7
  6
CONTINUOUS
 10
10.3921450437
 20
10.3974233158
 11
10.3921450437
 21
8.6501954092
  0
LINE
  5
505
100
AcDbEntity
  8
RACCORDO
100
AcDbLine
 62
7
  6
CONTINUOUS
 10
10.3921450437
 20
7.2413604685
 11
10.3921450437
 21
5.5708753493
  0
LINE
  5
506
100
AcDbEntity
  8
RACCORDO
100
AcDbLine
 62
7
  6
CONTINUOUS
 10
10.3921450437
 20
4.0852976212
 11
10.3921450437
 21
2.4531838956
  0
LINE
  5
507
100
AcDbEntity
  8
RACCORDO
100
AcDbLine
 62
7
  6
CONTINUOUS
 10
10.3921450437
 20
0.9676061675
 11
10.3921450437
 21
-0.7028789517
  0
LINE
  5
508
100
AcDbEntity
  8
RACCORDO
100
AcDbLine
 62
7
  6
CONTINUOUS
 10
10.3921450437
 20
-2.1117138924
 11
10.3921450437
 21
-3.858941799
  0
LINE
  5
509
100
AcDbEntity
  8
RACCORDO
100
AcDbLine
 62
7
  6
CONTINUOUS
 10
10.3921450437
 20
-5.1910339523
 11
10.3921450437
 21
-9.9607549009
  0
LWPOLYLINE
  5
50A
100
AcDbEntity
  8
RACCORDO
100
AcDbPolyline
 62
250
  6
CONTINUOUS
 90
21
 70
0
 10
10.2518151136
 20
-10.134477091
 10
10.2500924649
 20
-10.2488562324
 10
10.2444613875
 20
-10.36067264
 10
10.2349724917
 20
-10.4697586566
 10
10.2217036553
 20
-10.5758002977
 10
10.2047084877
 20
-10.6788082735
 10
10.1839592544
 20
-10.779078003
 10
10.1595223901
 20
-10.8762765588
 10
10.1313988762
 20
-10.9704019854
 10
10.0993162225
 20
-11.0621258024
 10
10.0633275278
 20
-11.1509208597
 10
10.0232919971
 20
-11.2368119574
 10
9.9783476759
 20
-11.3209886489
 10
9.928082842
 20
-11.403206195
 10
9.8724232221
 20
-11.4826353234
 10
9.8107360744
 20
-11.5592228803
 10
9.7426510387
 20
-11.6323459641
 10
9.6679991099
 20
-11.7011436446
 10
9.586357487
 20
-11.764979129
 10
9.4975539549
 20
-11.8229375875
 10
9.4588703491
 20
-11.844881187
  0
LWPOLYLINE
  5
50B
100
AcDbEntity
  8
RACCORDO
100
AcDbPolyline
 62
250
  6
CONTINUOUS
 90
6
 70
0
 10
10.3921450437
 20
-9.9607549009
 10
10.3906415494
 20
-9.9801277798
 10
10.3765810747
 20
-10.0226453926
 10
10.3481256944
 20
-10.0633239585
 10
10.3061209353
 20
-10.100954724
 10
10.2518149438
 20
-10.1344194942
  0
LWPOLYLINE
  5
50C
100
AcDbEntity
  8
RACCORDO
100
AcDbPolyline
 62
7
  6
CONTINUOUS
 90
9
 70
0
 10
9.4588808321
 20
-11.8448755016
 10
9.6636579618
 20
-11.7114659
 10
9.8497227837
 20
-11.5425362355
 10
10.0117638971
 20
-11.3413939087
 10
10.1470878407
 20
-11.110876854
 10
10.254627079
 20
-10.8516115028
 10
10.3326282758
 20
-10.5646312843
 10
10.3789576726
 20
-10.252636501
 10
10.3921434593
 20
-9.9607456567
  0
LINE
  5
50D
100
AcDbEntity
  8
RACCORDO
100
AcDbLine
 62
250
  6
CONTINUOUS
 10
-11.5517674566
 20
-23.2267971717
 11
-11.2842981049
 21
-23.0823943508
  0
LINE
  5
50E
100
AcDbEntity
  8
RACCORDO
100
AcDbLine
 62
7
  6
CONTINUOUS
 10
-11.5517674566
 20
-23.2296973404
 11
-11.3003701142
 21
-23.0939923709
  0
LINE
  5
50F
100
AcDbEntity
  8
RACCORDO
100
AcDbLine
 62
7
  6
CONTINUOUS
 10
-11.1717966465
 20
-22.975604497
 11
9.4588703491
 21
-11.844881187
  0
LINE
  5
510
100
AcDbEntity
  8
RACCORDO
100
AcDbLine
 62
250
  6
CONTINUOUS
 10
-10.5096211769
 20
-21.9930390596
 11
-11.5517674566
 21
-22.5403410011
  0
LINE
  5
511
100
AcDbEntity
  8
RACCORDO
100
AcDbLine
 62
250
  6
CONTINUOUS
 10
-10.6563995311
 20
-22.4478550117
 11
-11.5517674566
 21
-22.9180043896
  0
LINE
  5
512
100
AcDbEntity
  8
DRAFT
100
AcDbLine
 62
7
  6
CONTINUOUS
 10
-11.5517674566
 20
-23.6979139139
 11
-8.9531093868
 21
-22.3622872033
  0
LINE
  5
513
100
AcDbEntity
  8
DRAFT
100
AcDbLine
 62
7
  6
CONTINUOUS
 10
-8.4511343731
 20
14.161092427
 11
-7.2677719615
 21
13.9221674295
  0
LINE
  5
514
100
AcDbEntity
  8
DRAFT
100
AcDbLine
 62
7
  6
CONTINUOUS
 10
-15.7831524563
 20
17.7379553656
 11
-17.2459638406
 21
18.1051361935
  0
LINE
  5
515
100
AcDbEntity
  8
RACCORDO
100
AcDbLine
 62
7
  6
CONTINUOUS
 10
10.2456984342
 20
7.471002183
 11
9.720713117
 21
7.8468683426
  0
LWPOLYLINE
  5
516
100
AcDbEntity
  8
RACCORDO
100
AcDbPolyline
 62
7
  6
CONTINUOUS
 90
3
 70
0
 10
-5.1827518541
 20
21.386667487
 10
-5.3022690161
 20
21.5069090282
 10
-5.3760115131
 20
21.6145574801
  0
LWPOLYLINE
  5
517
100
AcDbEntity
  8
0
100
AcDbPolyline
 62
250
  6
CONTINUOUS
 90
10
 70
0
 10
-17.5286635583
 20
-29.9739166245
 10
-17.5036294804
 20
-29.9612425074
 10
-17.4765561714
 20
-29.9418649164
 10
-17.4521709839
 20
-29.9177928687
 10
-17.430740752
 20
-29.8892898409
 10
-17.4124999636
 20
-29.85666779
 10
-17.3976482053
 20
-29.8202837533
 10
-17.38634797
 20
-29.7805359279
 10
-17.3787228813
 20
-29.7378593096
 10
-17.3748563448
 20
-29.6927209395
  0
LWPOLYLINE
  5
518
100
AcDbEntity
  8
DRAFT
100
AcDbPolyline
 62
7
  6
CONTINUOUS
 90
37
 70
0
 10
-15.7638170006
 20
13.450236198
 10
-15.7834808065
 20
13.4476458171
 10
-15.8035752573
 20
13.4468552366
 10
-15.8241003529
 20
13.4478644566
 10
-15.8451384553
 20
13.4506912446
 10
-15.8666072025
 20
13.4553178331
 10
-15.8882595091
 20
13.4616909188
 10
-15.9100976321
 20
13.4698307045
 10
-15.9321193144
 20
13.4797169875
 10
-15.9540706995
 20
13.4912358571
 10
-15.9759507448
 20
13.5044059757
 10
-15.9977604929
 20
13.519208681
 10
-16.0192492152
 20
13.5354740754
 10
-16.0404134989
 20
13.5532192307
 10
-16.0612567568
 20
13.5724270752
 10
-16.0815384986
 20
13.5928764965
 10
-16.1012521688
 20
13.6145817769
 10
-16.120404323
 20
13.6375286342
 10
-16.1387741373
 20
13.6614531088
 10
-16.1563527221
 20
13.6863667354
 10
-16.1731489669
 20
13.7122579794
 10
-16.1889687173
 20
13.7388282773
 10
-16.2038007386
 20
13.7660858401
 10
-16.2176562654
 20
13.7940224569
 10
-16.2303748473
 20
13.8223149313
 10
-16.2419430652
 20
13.8509669252
 10
-16.2523743382
 20
13.8799747769
 10
-16.2615484726
 20
13.9090043047
 10
-16.269451071
 20
13.9380596587
 10
-16.2760965308
 20
13.9671366889
 10
-16.2814078496
 20
13.995888764
 10
-16.2853692213
 20
14.0242975727
 10
-16.2879964519
 20
14.0523814262
 10
-16.2892599576
 20
14.0798486269
 10
-16.2891498771
 20
14.1066019425
 10
-16.2876760716
 20
14.1327386053
 10
-16.2848385412
 20
14.1582586153
  0
LINE
  5
519
100
AcDbEntity
  8
DRAFT
100
AcDbLine
 62
7
  6
CONTINUOUS
 10
-11.9642257822
 20
15.8284920286
 11
-12.9884973405
 21
15.9764029435
  0
LINE
  5
51A
100
AcDbEntity
  8
DRAFT
100
AcDbLine
 62
7
  6
CONTINUOUS
 10
-18.6875161977
 20
19.2792833393
 11
-17.4621085483
 21
19.0193357229
  0
LINE
  5
51B
100
AcDbEntity
  8
RACCORDO
100
AcDbLine
 62
7
  6
CONTINUOUS
 10
10.2456984342
 20
10.6270650303
 11
9.720713117
 21
11.0029311899
  0
LINE
  5
51C
100
AcDbEntity
  8
RACCORDO
100
AcDbLine
 62
7
  6
CONTINUOUS
 10
-5.0139594253
 20
21.2602195261
 11
-5.1827518541
 21
21.386667487
  0
LINE
  5
51D
100
AcDbEntity
  8
0
100
AcDbLine
 62
7
  6
CONTINUOUS
 10
-3.7035538105
 20
21.0756053315
 11
-3.3714564896
 21
20.7517657546
  0
LWPOLYLINE
  5
51E
100
AcDbEntity
  8
RACCORDO
100
AcDbPolyline
 62
250
  6
CONTINUOUS
 90
3
 70
0
 10
10.195070264
 20
16.9783544617
 10
10.2259953633
 20
16.7637779218
 10
10.2453823415
 20
16.5456157741
  0
LINE
  5
51F
100
AcDbEntity
  8
0
100
AcDbLine
 62
250
  6
CONTINUOUS
 10
-11.5517674566
 20
-27.24842475
 11
-17.3748563448
 21
-29.6927209395
  0
LINE
  5
520
100
AcDbEntity
  8
0
100
AcDbLine
 62
7
  6
CONTINUOUS
 10
-17.5291315271
 20
-29.9741123488
 11
-11.6930332103
 21
-27.5243560396
  0
LWPOLYLINE
  5
521
100
AcDbEntity
  8
0
100
AcDbPolyline
 62
250
  6
CONTINUOUS
 90
19
 70
0
 10
-17.3748563448
 20
-29.6927209395
 10
-17.4044821188
 20
-29.7036364248
 10
-17.4334231457
 20
-29.7114425074
 10
-17.4616794255
 20
-29.7161391873
 10
-17.4894403215
 20
-29.7177183093
 10
-17.5165164704
 20
-29.7161880287
 10
-17.5423397827
 20
-29.7115728109
 10
-17.5668745528
 20
-29.7038091106
 10
-17.5901564863
 20
-29.6929604732
 10
-17.611724611
 20
-29.6792420009
 10
-17.6315453339
 20
-29.6625959593
 10
-17.649652248
 20
-29.6430800827
 10
-17.6656851604
 20
-29.6210826765
 10
-17.6796044397
 20
-29.5965410066
 10
-17.6914497173
 20
-29.5695178071
 10
-17.7009796946
 20
-29.5405895849
 10
-17.7081139387
 20
-29.509948509
 10
-17.7129328825
 20
-29.4774024106
 10
-17.7154365259
 20
-29.4429512895
  0
LWPOLYLINE
  5
522
100
AcDbEntity
  8
RACCORDO
100
AcDbPolyline
 62
250
  6
CONTINUOUS
 90
6
 70
0
 10
-4.9922765297
 20
21.1133910096
 10
-4.6886701646
 20
20.9820396202
 10
-4.348595458
 20
20.8683464422
 10
-3.9889706816
 20
20.7779301714
 10
-3.6089622759
 20
20.7119702884
 10
-3.2094038004
 20
20.6692873126
  0
LINE
  5
523
100
AcDbEntity
  8
RACCORDO
100
AcDbLine
 62
250
  6
CONTINUOUS
 10
-5.2575429497
 20
21.2633124667
 11
-4.9922765297
 21
21.1133910096
  0
LINE
  5
524
100
AcDbEntity
  8
0
100
AcDbLine
 62
7
  6
CONTINUOUS
 10
-1.8588516939
 20
21.1257222489
 11
-2.2167474863
 21
21.0339667608
  0
LWPOLYLINE
  5
525
100
AcDbEntity
  8
RACCORDO
100
AcDbPolyline
 62
250
  6
CONTINUOUS
 90
6
 70
0
 10
-3.2094038004
 20
20.6692873126
 10
-2.809714204
 20
20.651961498
 10
-2.4085247509
 20
20.6617982969
 10
-2.007204177
 20
20.6969922571
 10
-1.6292776395
 20
20.7542072757
 10
-1.2825868575
 20
20.8323313185
  0
LINE
  5
526
100
AcDbEntity
  8
0
100
AcDbLine
 62
7
  6
CONTINUOUS
 10
-2.2167474863
 20
21.0339667608
 11
-3.2546478205
 21
21.3000583265
  0
LWPOLYLINE
  5
527
100
AcDbEntity
  8
0
100
AcDbPolyline
 62
250
  6
CONTINUOUS
 90
38
 70
0
 10
-0.7726260853
 20
21.6688350532
 10
-0.8803308857
 20
21.7034071439
 10
-0.9908362921
 20
21.7352272469
 10
-1.1041423045
 20
21.7642953623
 10
-1.220569236
 20
21.7906792529
 10
-1.3397967735
 20
21.8143111558
 10
-1.4608639771
 20
21.834987782
 10
-1.5837331496
 20
21.8526744496
 10
-1.7084419883
 20
21.8674058404
 10
-1.834142645
 20
21.8790827115
 10
-1.9608552225
 20
21.8876853877
 10
-2.0885596182
 20
21.8932335441
 10
-2.2163476755
 20
21.8956869628
 10
-2.344214591
 20
21.8950234009
 10
-2.4721651683
 20
21.8912651013
 10
-2.5993056618
 20
21.8844385743
 10
-2.7256317811
 20
21.8745223006
 10
-2.8511478167
 20
21.8615377997
 10
-2.9749728948
 20
21.8455761397
 10
-3.0970948092
 20
21.8266164223
 10
-3.2175257661
 20
21.8046795458
 10
-3.3354215097
 20
21.7799192733
 10
-3.4507642251
 20
21.7523157983
 10
-3.5635717272
 20
21.7218889273
 10
-3.673053205
 20
21.6888518431
 10
-3.7791854926
 20
21.6531861418
 10
-3.8819917559
 20
21.6149102274
 10
-3.9807506813
 20
21.5742924945
 10
-4.0754339311
 20
21.5313163576
 10
-4.166069843
 20
21.4859984023
 10
-4.2520221159
 20
21.4386567796
 10
-4.3332575784
 20
21.3892773211
 10
-4.4098094019
 20
21.3378741953
 10
-4.4811407995
 20
21.2848080583
 10
-4.5472149633
 20
21.2300673281
 10
-4.6080687011
 20
21.1736635868
 10
-4.66327565
 20
21.1159922363
 10
-4.6876219457
 20
21.0870110905
  0
LWPOLYLINE
  5
528
100
AcDbEntity
  8
0
100
AcDbPolyline
 62
7
  6
CONTINUOUS
 90
15
 70
0
 10
-0.6900166809
 20
21.6787577162
 10
-0.6822595974
 20
21.6756038108
 10
-0.6755302433
 20
21.6720081118
 10
-0.6691733844
 20
21.6677324661
 10
-0.6631849596
 20
21.6627842439
 10
-0.6576331153
 20
21.6572174904
 10
-0.6525225703
 20
21.6510257221
 10
-0.6478486058
 20
21.6442154226
 10
-0.6436652111
 20
21.6368600886
 10
-0.639977003
 20
21.6289493505
 10
-0.6367793649
 20
21.6204935778
 10
-0.6341124366
 20
21.6115973766
 10
-0.6319895981
 20
21.6022956154
 10
-0.6303974695
 20
21.5925534256
 10
-0.6293360507
 20
21.5823708072
  0
LINE
  5
529
100
AcDbEntity
  8
DRAFT
100
AcDbLine
 62
7
  6
CONTINUOUS
 10
1.0061450121
 20
21.9414055723
 11
-1.878699646
 21
23.3838279014
  0
LWPOLYLINE
  5
52A
100
AcDbEntity
  8
RACCORDO
100
AcDbPolyline
 62
250
  6
CONTINUOUS
 90
20
 70
0
 10
8.7241758542
 20
19.7123977906
 10
8.8124465238
 20
19.6289346486
 10
8.8998907623
 20
19.5411044986
 10
8.9865875716
 20
19.4486952439
 10
9.0738841705
 20
19.3499746239
 10
9.161722494
 20
19.244470673
 10
9.2494452819
 20
19.1324223526
 10
9.337300645
 20
19.0129265531
 10
9.4249025051
 20
18.8857262652
 10
9.5115972122
 20
18.7509437629
 10
9.5970765312
 20
18.6082105036
 10
9.6806334434
 20
18.4576728342
 10
9.7616162302
 20
18.2993882994
 10
9.8396257958
 20
18.1329033436
 10
9.9137753741
 20
17.9585393245
 10
9.9831584089
 20
17.7766745796
 10
10.0471020881
 20
17.5870546653
 10
10.1044644998
 20
17.390426898
 10
10.1541136227
 20
17.1875350165
 10
10.195070264
 20
16.9783544617
  0
LWPOLYLINE
  5
52B
100
AcDbEntity
  8
RACCORDO
100
AcDbPolyline
 62
7
  6
CONTINUOUS
 90
6
 70
0
 10
-1.5313723489
 20
24.9880246845
 10
-1.427895203
 20
24.9815439413
 10
-1.3259038196
 20
24.9668492349
 10
-1.2267693541
 20
24.9425448288
 10
-1.1308514811
 20
24.9067496856
 10
-1.0987710257
 20
24.8916236576
  0
LWPOLYLINE
  5
52C
100
AcDbEntity
  8
RACCORDO
100
AcDbPolyline
 62
250
  6
CONTINUOUS
 90
5
 70
0
 10
8.2056074799
 20
20.2394288829
 10
8.1635750366
 20
20.2542167408
 10
8.1086687807
 20
20.259159187
 10
8.050035636
 20
20.2502081447
 10
7.9894178706
 20
20.2276295748
  0
LWPOLYLINE
  5
52D
100
AcDbEntity
  8
RACCORDO
100
AcDbPolyline
 62
250
  6
CONTINUOUS
 90
5
 70
0
 10
-2.084116342
 20
25.3842964362
 10
-2.1272091462
 20
25.3996087678
 10
-2.1821153607
 20
25.4045511538
 10
-2.2407484248
 20
25.3956000876
 10
-2.3013660744
 20
25.3730215473
  0
LWPOLYLINE
  5
52E
100
AcDbEntity
  8
RACCORDO
100
AcDbPolyline
 62
250
  6
CONTINUOUS
 90
3
 70
0
 10
-2.6470069245
 20
25.5140201139
 10
-2.4775309286
 20
25.4531175206
 10
-2.3013660744
 20
25.3730215473
  0
LWPOLYLINE
  5
52F
100
AcDbEntity
  8
RACCORDO
100
AcDbPolyline
 62
7
  6
CONTINUOUS
 90
8
 70
0
 10
-2.0841425798
 20
25.3842435523
 10
-2.3244825205
 20
25.4894959796
 10
-2.5748733395
 20
25.5674266211
 10
-2.8212619096
 20
25.6121801459
 10
-3.0615781061
 20
25.6240212096
 10
-3.2929845002
 20
25.603578507
 10
-3.5126392116
 20
25.5519787005
 10
-3.704999104
 20
25.477147011
  0
LINE
  5
530
100
AcDbEntity
  8
DRAFT
100
AcDbLine
 62
7
  6
CONTINUOUS
 10
2.0971072545
 20
22.4452480891
 11
-0.8365533664
 21
23.9120783996
  0
LINE
  5
531
100
AcDbEntity
  8
RACCORDO
100
AcDbLine
 62
250
  6
CONTINUOUS
 10
-2.3013660744
 20
25.3730215473
 11
-1.5313723489
 21
24.9880246845
  0
LINE
  5
532
100
AcDbEntity
  8
RACCORDO
100
AcDbLine
 62
250
  6
CONTINUOUS
 10
2.9767834579
 20
22.7339467812
 11
7.9894649735
 21
20.2276060234
  0
LINE
  5
533
100
AcDbEntity
  8
RACCORDO
100
AcDbLine
 62
7
  6
CONTINUOUS
 10
-2.084116342
 20
25.3842964362
 11
-1.0989278553
 21
24.8917023227
  0
LINE
  5
534
100
AcDbEntity
  8
RACCORDO
100
AcDbLine
 62
7
  6
CONTINUOUS
 10
2.9792118449
 20
22.8526324726
 11
8.2068543104
 21
20.2388112399
  0
LWPOLYLINE
  5
535
100
AcDbEntity
  8
RACCORDO
100
AcDbPolyline
 62
250
  6
CONTINUOUS
 90
5
 70
0
 10
7.9894651438
 20
20.2276061072
 10
8.0840114125
 20
20.1781671425
 10
8.1780442843
 20
20.1242000951
 10
8.2714028261
 20
20.0658478342
 10
8.3637923035
 20
20.003353921
  0
LWPOLYLINE
  5
536
100
AcDbEntity
  8
RACCORDO
100
AcDbPolyline
 62
7
  6
CONTINUOUS
 90
6
 70
0
 10
-1.0987710257
 20
24.8916236576
 10
-1.0409938745
 20
24.8594825328
 10
-0.9631843672
 20
24.8013958339
 10
-0.9017493104
 20
24.7315655645
 10
-0.858502299
 20
24.6491549498
 10
-0.8365533664
 20
24.5550514745
  0
LWPOLYLINE
  5
537
100
AcDbEntity
  8
RACCORDO
100
AcDbPolyline
 62
250
  6
CONTINUOUS
 90
5
 70
0
 10
8.3637923035
 20
20.003353921
 10
8.4552007819
 20
19.9367898312
 10
8.5458876797
 20
19.8659910358
 10
8.6355467244
 20
19.7911929421
 10
8.7241758542
 20
19.7123977906
  0
ARC
  5
538
100
AcDbEntity
  8
RACCORDO
100
AcDbCircle
 62
7
  6
CONTINUOUS
 10
-0.6284178272
 20
-0.4873338641
 40
0.3
100
AcDbArc
 50
179.9837900926
 51
205.5127079339
  0
ELLIPSE
  5
539
100
AcDbEntity
  8
0
100
AcDbEllipse
 62
7
  6
CONTINUOUS
 10
1.4488437207
 20
-1.2493431012
 30
0.0
 11
0.5195280732
 21
1.8256651506
 31
0.0
 40
0.6808569061
 41
-3.5186627958
 42
-3.3642568439
  0
ELLIPSE
  5
53A
100
AcDbEntity
  8
RACCORDO
100
AcDbEllipse
 62
7
  6
CONTINUOUS
 10
-2.854354048
 20
23.0829698208
 30
0.0
 11
0.3999991055
 21
-0.0017028141
 31
0.0
 40
0.4967868151
 41
-0.7832833229
 42
0.0021148353
  0
ELLIPSE
  5
53B
100
AcDbEntity
  8
DRAFT
100
AcDbEllipse
 62
7
  6
CONTINUOUS
 10
-2.288668623
 20
20.7977962205
 30
0.0
 11
3.2499927321
 21
-0.0138353642
 31
0.0
 40
0.4967868151
 41
8.6414946379
 42
9.0091429838
  0
ELLIPSE
  5
53C
100
AcDbEntity
  8
0
100
AcDbEllipse
 62
7
  6
CONTINUOUS
 10
-11.9053747032
 20
-27.0712250752
 30
0.0
 11
-0.2234618187
 21
0.4480306886
 31
0.0
 40
0.6116748051
 41
-3.1815309152
 42
-2.2548620396
  0
ELLIPSE
  5
53D
100
AcDbEntity
  8
0
100
AcDbEllipse
 62
7
  6
CONTINUOUS
 10
-11.9053747032
 20
10.8594991241
 30
0.0
 11
-0.2230998035
 21
0.4477110033
 31
0.0
 40
0.6127700112
 41
-2.2535417632
 42
-0.6836588249
  0
ELLIPSE
  5
53E
100
AcDbEntity
  8
0
100
AcDbEllipse
 62
7
  6
CONTINUOUS
 10
-26.9666414303
 20
18.3901324876
 30
0.0
 11
-0.2234618187
 21
0.4480306886
 31
0.0
 40
0.6116748051
 41
-0.6831523243
 42
0.0399382621
  0
ELLIPSE
  5
53F
100
AcDbEntity
  8
DRAFT
100
AcDbEllipse
 62
7
  6
CONTINUOUS
 10
19.5103619847
 20
7.5392090417
 30
0.0
 11
39.0341541049
 21
-11.1074027807
 31
0.0
 40
0.1174506645
 41
2.9649957838
 42
2.9785380392
  0
ELLIPSE
  5
540
100
AcDbEntity
  8
DRAFT
100
AcDbEllipse
 62
7
  6
CONTINUOUS
 10
3.600459408
 20
14.7711171339
 30
0.0
 11
35.7687457996
 21
39.5064138767
 31
0.0
 40
0.3969795109
 41
-2.3112482026
 42
-2.2977059472
  0
ELLIPSE
  5
541
100
AcDbEntity
  8
DRAFT
100
AcDbEllipse
 62
7
  6
CONTINUOUS
 10
231.7070349701
 20
120.3792318705
 30
0.0
 11
991.5031618949
 21
513.5095669033
 31
0.0
 40
0.014858799
 41
1.8077430274
 42
1.8124171044
  0
ELLIPSE
  5
542
100
AcDbEntity
  8
DRAFT
100
AcDbEllipse
 62
7
  6
CONTINUOUS
 10
231.7070349701
 20
120.3792318705
 30
0.0
 11
991.5031618949
 21
513.5095669033
 31
0.0
 40
0.014858799
 41
4.4568271518
 42
4.4600515375
  0
ELLIPSE
  5
543
100
AcDbEntity
  8
DRAFT
100
AcDbEllipse
 62
7
  6
CONTINUOUS
 10
-25.2342836725
 20
0.0349292952
 30
0.0
 11
5.6459549881
 21
-2.876711272
 31
0.0
 40
0.1220100089
 41
-2.7851510572
 42
-0.5589771993
  0
ELLIPSE
  5
544
100
AcDbEntity
  8
DRAFT
100
AcDbEllipse
 62
7
  6
CONTINUOUS
 10
-25.2342836725
 20
-3.6023774007
 30
0.0
 11
5.6459549881
 21
-2.876711272
 31
0.0
 40
0.1220100089
 41
-2.7580898241
 42
-0.5844979133
  0
ELLIPSE
  5
545
100
AcDbEntity
  8
DRAFT
100
AcDbEllipse
 62
7
  6
CONTINUOUS
 10
-25.2342836725
 20
-7.2396840966
 30
0.0
 11
5.6459549881
 21
-2.876711272
 31
0.0
 40
0.1220100089
 41
-2.7467640196
 42
-0.5944989448
  0
ELLIPSE
  5
546
100
AcDbEntity
  8
DRAFT
100
AcDbEllipse
 62
7
  6
CONTINUOUS
 10
-25.2342836725
 20
-10.8769907925
 30
0.0
 11
5.6459549881
 21
-2.876711272
 31
0.0
 40
0.1220100089
 41
-2.7517252768
 42
-0.588478294
  0
ELLIPSE
  5
547
100
AcDbEntity
  8
DRAFT
100
AcDbEllipse
 62
7
  6
CONTINUOUS
 10
-25.2342836725
 20
-14.5142974884
 30
0.0
 11
5.6459549881
 21
-2.876711272
 31
0.0
 40
0.1220100089
 41
-2.7728976461
 42
-0.5664863387
  0
ELLIPSE
  5
548
100
AcDbEntity
  8
DRAFT
100
AcDbEllipse
 62
7
  6
CONTINUOUS
 10
3.600459408
 20
15.49416033
 30
0.0
 11
39.0341541049
 21
-11.1074027807
 31
0.0
 40
0.1174506645
 41
-1.8646217169
 42
-1.8510794614
  0
ELLIPSE
  5
549
100
AcDbEntity
  8
RACCORDO
100
AcDbEllipse
 62
7
  6
CONTINUOUS
 10
9.8921450437
 20
11.6728133105
 30
0.0
 11
0.4993103445
 21
0.0670578671
 31
0.0
 40
0.391486294
 41
-0.8204734959
 42
-0.0525280513
  0
ELLIPSE
  5
54A
100
AcDbEntity
  8
RACCORDO
100
AcDbEllipse
 62
7
  6
CONTINUOUS
 10
9.8921450437
 20
-3.9156439576
 30
0.0
 11
0.4993103445
 21
0.0670578671
 31
0.0
 40
0.391486294
 41
-0.8204734959
 42
-0.0525280513
  0
ELLIPSE
  5
54B
100
AcDbEntity
  8
RACCORDO
100
AcDbEllipse
 62
7
  6
CONTINUOUS
 10
9.8921450437
 20
-0.7595811103
 30
0.0
 11
0.4993103445
 21
0.0670578671
 31
0.0
 40
0.391486294
 41
-0.8204734959
 42
-0.0525280513
  0
ELLIPSE
  5
54C
100
AcDbEntity
  8
RACCORDO
100
AcDbEllipse
 62
7
  6
CONTINUOUS
 10
9.8921450437
 20
2.3964817371
 30
0.0
 11
0.4993103445
 21
0.0670578671
 31
0.0
 40
0.391486294
 41
-0.8204734959
 42
-0.0525280513
  0
ELLIPSE
  5
54D
100
AcDbEntity
  8
RACCORDO
100
AcDbEllipse
 62
7
  6
CONTINUOUS
 10
9.8921450437
 20
5.5141731907
 30
0.0
 11
0.4993103445
 21
0.0670578671
 31
0.0
 40
0.391486294
 41
-0.8204734959
 42
-0.0525280513
  0
ELLIPSE
  5
54E
100
AcDbEntity
  8
RACCORDO
100
AcDbEllipse
 62
7
  6
CONTINUOUS
 10
9.8921450437
 20
8.5934932506
 30
0.0
 11
0.4993103445
 21
0.0670578671
 31
0.0
 40
0.391486294
 41
-0.8204734959
 42
-0.0525280513
  0
ELLIPSE
  5
54F
100
AcDbEntity
  8
DRAFT
100
AcDbEllipse
 62
7
  6
CONTINUOUS
 10
-2.8189987089
 20
21.0557810649
 30
0.0
 11
2.5999840782
 21
-0.018395474
 31
0.0
 40
0.4946372042
 41
8.6603327454
 42
9.0998594971
  0
ELLIPSE
  5
550
100
AcDbEntity
  8
RACCORDO
100
AcDbEllipse
 62
7
  6
CONTINUOUS
 10
-12.8602596808
 20
7.115018921
 30
0.0
 11
-1.4309169638
 21
2.8622612915
 31
0.0
 40
0.6125552124
 41
4.8131346905
 42
4.9806096433
  0
ELLIPSE
  5
551
100
AcDbEntity
  8
RACCORDO
100
AcDbEllipse
 62
7
  6
CONTINUOUS
 10
9.8921450437
 20
-2.0550117338
 30
0.0
 11
0.4973166283
 21
-0.0875688669
 31
0.0
 40
0.5907547378
 41
-0.6642959393
 42
0.889047095
  0
ELLIPSE
  5
552
100
AcDbEntity
  8
RACCORDO
100
AcDbEllipse
 62
7
  6
CONTINUOUS
 10
9.8921450437
 20
1.0243083261
 30
0.0
 11
0.4973166283
 21
-0.0875688669
 31
0.0
 40
0.5907547378
 41
-0.6642959393
 42
0.889047095
  0
ELLIPSE
  5
553
100
AcDbEntity
  8
RACCORDO
100
AcDbEllipse
 62
7
  6
CONTINUOUS
 10
9.8921450437
 20
4.1419997798
 30
0.0
 11
0.4973166283
 21
-0.0875688669
 31
0.0
 40
0.5907547378
 41
-0.6642959393
 42
0.889047095
  0
ELLIPSE
  5
554
100
AcDbEntity
  8
RACCORDO
100
AcDbEllipse
 62
7
  6
CONTINUOUS
 10
9.8921450437
 20
7.2980626271
 30
0.0
 11
0.4973166283
 21
-0.0875688669
 31
0.0
 40
0.5907547378
 41
-0.6642959393
 42
0.889047095
  0
ELLIPSE
  5
555
100
AcDbEntity
  8
RACCORDO
100
AcDbEllipse
 62
7
  6
CONTINUOUS
 10
9.8921450437
 20
10.4541254744
 30
0.0
 11
0.4973166283
 21
-0.0875688669
 31
0.0
 40
0.5907547378
 41
-0.6642959393
 42
0.889047095
  0
ELLIPSE
  5
556
100
AcDbEntity
  8
RACCORDO
100
AcDbEllipse
 62
7
  6
CONTINUOUS
 10
9.8921450437
 20
-5.1343317937
 30
0.0
 11
0.4973166283
 21
-0.0875688669
 31
0.0
 40
0.5907547378
 41
-0.6642959393
 42
0.889047095
  0
ENDSEC
  0
SECTION
  2
OBJECTS
  0
DICTIONARY
  5
C
100
AcDbDictionary
280
0
281
1
  3
ACAD_GROUP
350
D
  3
ACAD_MLINESTYLE
350
17
  3
ACAD_LAYOUT
350
1A
  3
ACAD_PLOTSETTINGS
350
19
  3
ACAD_PLOTSTYLENAME
350
E
  0
DICTIONARY
  5
D
102
{ACAD_REACTORS
330
C
102
}
100
AcDbDictionary
280
0
281
1
  0
ACDBDICTIONARYWDFLT
  5
E
102
{ACAD_REACTORS
330
C
102
}
100
AcDbDictionary
281
1
  3
Normal
350
F
100
AcDbDictionaryWithDefault
340
F
  0
DICTIONARY
  5
17
102
{ACAD_REACTORS
330
C
102
}
100
AcDbDictionary
280
0
281
1
  3
Standard
350
18
  0
DICTIONARY
  5
19
102
{ACAD_REACTORS
330
C
102
}
100
AcDbDictionary
281
1
  0
DICTIONARY
  5
1A
102
{ACAD_REACTORS
330
C
102
}
100
AcDbDictionary
281
1
  3
Model
350
557
  3
Layout1
350
558
  0
ACDBPLACEHOLDER
  5
F
102
{ACAD_REACTORS
330
E
102
}
  0
MLINESTYLE
  5
18
102
{ACAD_REACTORS
330
17
102
}
100
AcDbMlineStyle
  2
STANDARD
 70
0
  3

 62
256
 51
90.0
 52
90.0
 71
2
 49
0.5
 62
256
  6
BYLAYER
 49
-0.5
 62
256
  6
BYLAYER
  0
LAYOUT
  5
557
102
{ACAD_REACTORS
330
1A
102
}
100
AcDbPlotSettings
  1

  2
none_device
  4
ISO_A4_(297.00_x_210.00_MM)
  6

 40
0.0
 41
0.0
 42
0.0
 43
0.0
 44
297.0
 45
210.0
 46
0.0
 47
0.0
 48
0.0
 49
0.0
140
0.0
141
0.0
142
1.0
143
1.0
 70
1024
 72
1
 73
0
 74
0
  7

 75
0
147
1.0
148
0.0
149
0.0
100
AcDbLayout
  1
Model
 70
0
 71
0
 10
0.0
 20
0.0
 11
297.0
 21
210.0
 12
0.0
 22
0.0
 32
0.0
 14
0.0
 24
0.0
 34
0.0
 15
0.0
 25
0.0
 35
0.0
146
0.0
 13
0.0
 23
0.0
 33
0.0
 16
1.0
 26
0.0
 36
0.0
 17
0.0
 27
1.0
 37
0.0
 76
0
330
217
345
0
346
0
  0
LAYOUT
  5
558
102
{ACAD_REACTORS
330
1A
102
}
100
AcDbPlotSettings
  1

  2
none_device
  4
ISO_A4_(297.00_x_210.00_MM)
  6

 40
0.0
 41
0.0
 42
0.0
 43
0.0
 44
297.0
 45
210.0
 46
0.0
 47
0.0
 48
0.0
 49
0.0
140
0.0
141
0.0
142
1.0
143
1.0
 70
0
 72
1
 73
0
 74
0
  7

 75
0
147
1.0
148
0.0
149
0.0
100
AcDbLayout
  1
Layout1
 70
0
 71
1
 10
0.0
 20
0.0
 11
297.0
 21
210.0
 12
0.0
 22
0.0
 32
0.0
 14
0.0
 24
0.0
 34
0.0
 15
0.0
 25
0.0
 35
0.0
146
0.0
 13
0.0
 23
0.0
 33
0.0
 16
1.0
 26
0.0
 36
0.0
 17
0.0
 27
1.0
 37
0.0
 76
0
330
218
345
0
346
0
  0
ENDSEC
  0
EOF
