  0
SECTION
  2
HEADER
  9
$ACADVER
  1
AC1024
  9
$DWGCODEPAGE
  3
ANSI_1252
  9
$EXTMAX
 10
297.0
 20
210.0
 30
0.0
  9
$EXTMIN
 10
0.0
 20
0.0
 30
0.0
  9
$LIMMIN
 10
0.0
 20
0.0
  9
$LIMMAX
 10
297.0
 20
210.0
  9
$VIEWCTR
 10
148.5
 20
105.0
  9
$VIEWSIZE
 40
210.0
  9
$CLAYER
  8
0
  9
$LTSCALE
 40
16.335
  9
$CELTYPE
  6
BYLAYER
  9
$DIMSCALE
 40
1.0
  9
$DIMASZ
 40
3.0
  9
$DIMEXO
 40
0.5
  9
$DIMDLI
 40
11.286
  9
$DIMEXE
 40
1.5
  9
$DIMCEN
 40
2.673
  9
$DIMLFAC
 40
1.0
  9
$DIMBLK
  1
_FILLED
  9
$DIMALT
 70
0
  9
$DIMALTF
 40
0.0393700787
  9
$DIMTXT
 40
3.0
  9
$DIMTOL
 70
1
  9
$DIMLIM
 70
0
  9
$DIMTFAC
 40
1.0
  9
$DIMTP
 40
0.01
  9
$DIMTM
 40
0.01
  9
$DIMGAP
 40
0.625
  9
$DIMDSEP
 70
44
  9
$AUNITS
 70
0
  9
$PDMODE
 70
3
  9
$PDSIZE
 40
3.0
  9
$HANDSEED
  5
4F1
  9
$TILEMODE
 70
1
  9
$MEASUREMENT
 70
1
  9
$INSUNITS
 70
4
  0
ENDSEC
  0
SECTION
  2
CLASSES
  0
CLASS
  1
ACDBDICTIONARYWDFLT
  2
AcDbDictionaryWithDefault
  3
AutoCAD 2000
 90
0
 91
1
280
0
281
0
  0
CLASS
  1
ACDBPLACEHOLDER
  2
AcDbPlaceHolder
  3
AutoCAD 2000
 90
0
 91
1
280
0
281
0
  0
CLASS
  1
LAYOUT
  2
AcDbLayout
  3
AutoCAD 2000
 90
0
 91
0
280
0
281
0
  0
ENDSEC
  0
SECTION
  2
TABLES
  0
TABLE
  2
VPORT
  5
8
100
AcDbSymbolTable
 70
2
  0
VPORT
  5
1F4
100
AcDbSymbolTableRecord
100
AcDbViewportTableRecord
  2
*ACTIVE
 70
0
 10
0.0
 20
0.0
 11
1.0
 21
1.0
 12
148.5
 22
105.0
 13
0.0
 23
0.0
 14
1.0
 24
1.0
 15
0.0
 25
0.0
 16
0.0
 26
0.0
 36
1.0
 17
0.0
 27
0.0
 37
0.0
 40
210.0
 41
1.4142857143
 42
50.0
 43
0.0
 44
0.0
 50
0.0
 51
0.0
 71
0
 72
100
 73
1
 74
1
 75
0
 76
0
 77
0
 78
0
  0
ENDTAB
  0
TABLE
  2
LTYPE
  5
5
100
AcDbSymbolTable
 70
6
  0
LTYPE
  5
14
100
AcDbSymbolTableRecord
100
AcDbLinetypeTableRecord
  2
BYBLOCK
 70
0
  3

 72
65
 73
0
 40
0.0
  0
LTYPE
  5
15
100
AcDbSymbolTableRecord
100
AcDbLinetypeTableRecord
  2
BYLAYER
 70
0
  3

 72
65
 73
0
 40
0.0
  0
LTYPE
  5
16
100
AcDbSymbolTableRecord
100
AcDbLinetypeTableRecord
  2
CONTINUOUS
 70
64
  3
Solid line
 72
65
 73
0
 40
0.0
  0
LTYPE
  5
1F5
100
AcDbSymbolTableRecord
100
AcDbLinetypeTableRecord
  2
CENTER
 70
64
  3
____ _ ____ _ ____ _ ____ _ ____ _ ____ _ ____
 72
65
 73
4
 40
0.6
 49
0.375
 74
0
 49
-0.075
 74
0
 49
0.075
 74
0
 49
-0.075
 74
0
  0
LTYPE
  5
1F6
100
AcDbSymbolTableRecord
100
AcDbLinetypeTableRecord
  2
HIDDEN
 70
64
  3
- - - - - - - - - - - - - - - - - - - -
 72
65
 73
2
 40
0.2
 49
0.1
 74
0
 49
-0.1
 74
0
  0
LTYPE
  5
1F7
100
AcDbSymbolTableRecord
100
AcDbLinetypeTableRecord
  2
PHANTOM
 70
64
  3
_____ _ _ _____ _ _ _____ _ _ _____
 72
65
 73
6
 40
0.8
 49
0.45
 74
0
 49
-0.05
 74
0
 49
0.1
 74
0
 49
-0.05
 74
0
 49
0.1
 74
0
 49
-0.05
 74
0
  0
LTYPE
  5
1F8
100
AcDbSymbolTableRecord
100
AcDbLinetypeTableRecord
  2
DOT
 70
64
  3
. . . . . . . . . . . . . . . . . . . .
 72
65
 73
2
 40
0.2
 49
0.1
 74
0
 49
-0.1
 74
0
  0
LTYPE
  5
1F9
100
AcDbSymbolTableRecord
100
AcDbLinetypeTableRecord
  2
DASHED
 70
64
  3
- - - - - - - - - - - - - - - - - - - -
 72
65
 73
2
 40
0.2
 49
0.1
 74
0
 49
-0.1
 74
0
  0
ENDTAB
  0
TABLE
  2
LAYER
  5
2
100
AcDbSymbolTable
 70
36
  0
LAYER
  5
10
100
AcDbSymbolTableRecord
100
AcDbLayerTableRecord
  2
0
 70
0
 62
7
  6
CONTINUOUS
370
-3
390
F
  0
LAYER
  5
1FA
100
AcDbSymbolTableRecord
100
AcDbLayerTableRecord
  2
DEFAULT_1
 70
0
 62
7
  6
CENTER
370
-3
390
F
  0
LAYER
  5
1FB
100
AcDbSymbolTableRecord
100
AcDbLayerTableRecord
  2
DEFAULT_2
 70
0
 62
7
  6
HIDDEN
370
-3
390
F
  0
LAYER
  5
1FC
100
AcDbSymbolTableRecord
100
AcDbLayerTableRecord
  2
DEFAULT_3
 70
0
 62
7
  6
PHANTOM
370
-3
390
F
  0
LAYER
  5
1FD
100
AcDbSymbolTableRecord
100
AcDbLayerTableRecord
  2
ASSI
 70
0
 62
7
  6
CONTINUOUS
370
-3
390
F
  0
LAYER
  5
1FE
100
AcDbSymbolTableRecord
100
AcDbLayerTableRecord
  2
COLOR5
 70
0
 62
7
  6
CONTINUOUS
370
-3
390
F
  0
LAYER
  5
1FF
100
AcDbSymbolTableRecord
100
AcDbLayerTableRecord
  2
COORDINATE
 70
0
 62
7
  6
CONTINUOUS
370
-3
390
F
  0
LAYER
  5
200
100
AcDbSymbolTableRecord
100
AcDbLayerTableRecord
  2
COORD_ORIGINE
 70
0
 62
7
  6
CONTINUOUS
370
-3
390
F
  0
LAYER
  5
201
100
AcDbSymbolTableRecord
100
AcDbLayerTableRecord
  2
COPY_PUBLISH
 70
0
 62
7
  6
CONTINUOUS
370
-3
390
F
  0
LAYER
  5
202
100
AcDbSymbolTableRecord
100
AcDbLayerTableRecord
  2
COSMETICHE
 70
0
 62
7
  6
CONTINUOUS
370
-3
390
F
  0
LAYER
  5
203
100
AcDbSymbolTableRecord
100
AcDbLayerTableRecord
  2
COSMETICI
 70
0
 62
7
  6
CONTINUOUS
370
-3
390
F
  0
LAYER
  5
204
100
AcDbSymbolTableRecord
100
AcDbLayerTableRecord
  2
CURVE
 70
0
 62
7
  6
CONTINUOUS
370
-3
390
F
  0
LAYER
  5
205
100
AcDbSymbolTableRecord
100
AcDbLayerTableRecord
  2
DRAFT
 70
0
 62
7
  6
CONTINUOUS
370
-3
390
F
  0
LAYER
  5
206
100
AcDbSymbolTableRecord
100
AcDbLayerTableRecord
  2
IGES
 70
0
 62
7
  6
CONTINUOUS
370
-3
390
F
  0
LAYER
  5
207
100
AcDbSymbolTableRecord
100
AcDbLayerTableRecord
  2
IMPORT_IGES
 70
0
 62
7
  6
CONTINUOUS
370
-3
390
F
  0
LAYER
  5
208
100
AcDbSymbolTableRecord
100
AcDbLayerTableRecord
  2
INTF_1
 70
0
 62
7
  6
CONTINUOUS
370
-3
390
F
  0
LAYER
  5
209
100
AcDbSymbolTableRecord
100
AcDbLayerTableRecord
  2
INTF_11
 70
0
 62
7
  6
CONTINUOUS
370
-3
390
F
  0
LAYER
  5
20A
100
AcDbSymbolTableRecord
100
AcDbLayerTableRecord
  2
INTF_2
 70
0
 62
7
  6
CONTINUOUS
370
-3
390
F
  0
LAYER
  5
20B
100
AcDbSymbolTableRecord
100
AcDbLayerTableRecord
  2
INTF_8
 70
0
 62
7
  6
CONTINUOUS
370
-3
390
F
  0
LAYER
  5
20C
100
AcDbSymbolTableRecord
100
AcDbLayerTableRecord
  2
NOTE
 70
0
 62
7
  6
CONTINUOUS
370
-3
390
F
  0
LAYER
  5
20D
100
AcDbSymbolTableRecord
100
AcDbLayerTableRecord
  2
PIANI
 70
0
 62
7
  6
CONTINUOUS
370
-3
390
F
  0
LAYER
  5
20E
100
AcDbSymbolTableRecord
100
AcDbLayerTableRecord
  2
PIANI_ORIGINE
 70
0
 62
7
  6
CONTINUOUS
370
-3
390
F
  0
LAYER
  5
20F
100
AcDbSymbolTableRecord
100
AcDbLayerTableRecord
  2
PIANI_RIFERIMENTO
 70
0
 62
7
  6
CONTINUOUS
370
-3
390
F
  0
LAYER
  5
210
100
AcDbSymbolTableRecord
100
AcDbLayerTableRecord
  2
PUNTI
 70
0
 62
7
  6
CONTINUOUS
370
-3
390
F
  0
LAYER
  5
211
100
AcDbSymbolTableRecord
100
AcDbLayerTableRecord
  2
RACCORDO
 70
0
 62
7
  6
CONTINUOUS
370
-3
390
F
  0
LAYER
  5
212
100
AcDbSymbolTableRecord
100
AcDbLayerTableRecord
  2
RGB__255__255__255__
 70
0
 62
7
  6
CONTINUOUS
370
-3
390
F
  0
LAYER
  5
213
100
AcDbSymbolTableRecord
100
AcDbLayerTableRecord
  2
RGB____0____0____0__
 70
0
 62
7
  6
CONTINUOUS
370
-3
390
F
  0
LAYER
  5
214
100
AcDbSymbolTableRecord
100
AcDbLayerTableRecord
  2
SCRITTE
 70
0
 62
7
  6
CONTINUOUS
370
-3
390
F
  0
LAYER
  5
215
100
AcDbSymbolTableRecord
100
AcDbLayerTableRecord
  2
SIMBOLI
 70
0
 62
7
  6
CONTINUOUS
370
-3
390
F
  0
LAYER
  5
216
100
AcDbSymbolTableRecord
100
AcDbLayerTableRecord
  2
SMUSSO
 70
0
 62
7
  6
CONTINUOUS
370
-3
390
F
  0
LAYER
  5
217
100
AcDbSymbolTableRecord
100
AcDbLayerTableRecord
  2
SNAPLINE
 70
0
 62
7
  6
CONTINUOUS
370
-3
390
F
  0
LAYER
  5
218
100
AcDbSymbolTableRecord
100
AcDbLayerTableRecord
  2
SUPERFICI
 70
0
 62
7
  6
CONTINUOUS
370
-3
390
F
  0
LAYER
  5
219
100
AcDbSymbolTableRecord
100
AcDbLayerTableRecord
  2
TRASH
 70
0
 62
7
  6
CONTINUOUS
370
-3
390
F
  0
LAYER
  5
21A
100
AcDbSymbolTableRecord
100
AcDbLayerTableRecord
  2
VARIANTE_COLORE
 70
0
 62
7
  6
CONTINUOUS
370
-3
390
F
  0
ENDTAB
  0
TABLE
  2
STYLE
  5
3
100
AcDbSymbolTable
 70
1
  0
STYLE
  5
11
100
AcDbSymbolTableRecord
100
AcDbTextStyleTableRecord
  2
STANDARD
 70
0
 40
0.0
 41
0.8
 50
0.0
 71
0
 42
0.2
  3
txt
  4

  0
STYLE
  5
21B
100
AcDbSymbolTableRecord
100
AcDbTextStyleTableRecord
  2
TEXTSTYLE_1
 70
0
 40
0.0
 41
0.8
 50
0.0
 71
0
 42
0.2
  3
gdt
  4

  0
ENDTAB
  0
TABLE
  2
VIEW
  5
6
100
AcDbSymbolTable
 70
0
  0
ENDTAB
  0
TABLE
  2
UCS
  5
7
100
AcDbSymbolTable
 70
0
  0
ENDTAB
  0
TABLE
  2
APPID
  5
9
100
AcDbSymbolTable
 70
1
  0
APPID
  5
21C
100
AcDbSymbolTableRecord
100
AcDbRegAppTableRecord
  2
ACAD
 70
0
  0
ENDTAB
  0
TABLE
  2
BLOCK_RECORD
  5
1
100
AcDbSymbolTable
 70
0
  0
BLOCK_RECORD
  5
21D
100
AcDbSymbolTableRecord
100
AcDbBlockTableRecord
  2
*Model_Space
  0
BLOCK_RECORD
  5
21E
100
AcDbSymbolTableRecord
100
AcDbBlockTableRecord
  2
*Paper_Space
  0
BLOCK_RECORD
  5
21F
100
AcDbSymbolTableRecord
100
AcDbBlockTableRecord
  2
_FILLED
  0
ENDTAB
  0
TABLE
  2
DIMSTYLE
  5
A
100
AcDbSymbolTable
 70
1
100
AcDbDimStyleTable
 71
0
  0
DIMSTYLE
105
220
100
AcDbSymbolTableRecord
100
AcDbDimStyleTableRecord
  2
STANDARD
 70
0
  3

  4

 40
1.0
 41
3.0
 42
0.5
 43
0.38
 44
1.5
 45
0.0
 46
0.0
 47
0.01
 48
0.01
140
3.0
141
0.09
142
0.0
143
25.4
144
1.0
145
0.0
146
1.0
147
0.625
 71
1
 72
0
 73
0
 74
0
 75
0
 76
0
 77
1
 78
8
 79
2
170
0
171
1
172
0
173
0
174
0
175
0
176
0
177
0
178
0
270
2
179
2
271
2
272
2
273
2
274
2
275
0
280
0
281
0
282
0
283
1
284
8
285
0
286
0
287
3
288
0
340
11
278
44
341
21F
342
21F
343
21F
344
21F
  0
ENDTAB
  0
ENDSEC
  0
SECTION
  2
BLOCKS
  0
BLOCK
  5
20
100
AcDbEntity
  8
0
100
AcDbBlockBegin
  2
*Model_Space
 70
0
 10
0.0
 20
0.0
 30
0.0
  3
*Model_Space
  1

  0
ENDBLK
  5
21
100
AcDbEntity
  8
0
100
AcDbBlockEnd
  0
BLOCK
  5
1C
100
AcDbEntity
  8
0
100
AcDbBlockBegin
  2
*Paper_Space
 70
0
 10
0.0
 20
0.0
 30
0.0
  3
*Paper_Space
  1

  0
ENDBLK
  5
1D
100
AcDbEntity
  8
0
100
AcDbBlockEnd
  0
BLOCK
  5
221
100
AcDbEntity
  8
0
100
AcDbBlockBegin
  2
_FILLED
 70
64
 10
0.0
 20
0.0
  3
_FILLED
  1

  0
SOLID
  5
222
100
AcDbEntity
  8
0
  6
BYBLOCK
 62
0
100
AcDbTrace
 10
0.0
 20
0.0
 11
-1.0
 21
0.3166666667
 12
-1.0
 22
-0.3166666667
 13
-1.0
 23
-0.3166666667
  0
ENDBLK
  5
223
100
AcDbEntity
  8
0
  6
BYBLOCK
 62
0
100
AcDbBlockEnd
  0
ENDSEC
  0
SECTION
  2
ENTITIES
  0
LWPOLYLINE
  5
224
100
AcDbEntity
  8
0
100
AcDbPolyline
 62
7
  6
CONTINUOUS
 90
24
 70
0
 10
-25.843253316
 20
-33.4069096209
 10
-25.8125388256
 20
-33.4238113205
 10
-25.7774610821
 20
-33.4411569145
 10
-25.7414466211
 20
-33.456939228
 10
-25.7045400745
 20
-33.4711167502
 10
-25.6667589691
 20
-33.4836592398
 10
-25.6281629083
 20
-33.4945229182
 10
-25.5888123243
 20
-33.5036677744
 10
-25.5487199634
 20
-33.5110654427
 10
-25.5079410385
 20
-33.5166795497
 10
-25.4665394801
 20
-33.5204765557
 10
-25.4245314077
 20
-33.5224278617
 10
-25.3819709967
 20
-33.5225022064
 10
-25.3389141127
 20
-33.5206727146
 10
-25.2953662739
 20
-33.516909389
 10
-25.2513741078
 20
-33.5111827166
 10
-25.2069875062
 20
-33.5034674685
 10
-25.1622030459
 20
-33.4937270356
 10
-25.1170640994
 20
-33.4819300209
 10
-25.0716103499
 20
-33.4680466072
 10
-25.0258214915
 20
-33.4520240092
 10
-24.9797156702
 20
-33.4338141024
 10
-24.93336149
 20
-33.4133903648
 10
-24.8990880977
 20
-33.396910605
  0
LINE
  5
225
100
AcDbEntity
  8
RACCORDO
100
AcDbLine
 62
7
  6
CONTINUOUS
 10
-40.675174547
 20
-24.8431442932
 11
-25.8431201009
 21
-33.4069866411
  0
LINE
  5
226
100
AcDbEntity
  8
0
100
AcDbLine
 62
7
  6
CONTINUOUS
 10
-40.6750497863
 20
-24.8432163039
 11
-40.6751745506
 21
-24.8431442911
  0
LINE
  5
227
100
AcDbEntity
  8
0
100
AcDbLine
 62
250
  6
CONTINUOUS
 10
-40.9812969724
 20
-24.2084678611
 11
-26.1564508948
 21
-32.7681481873
  0
LINE
  5
228
100
AcDbEntity
  8
0
100
AcDbLine
 62
7
  6
CONTINUOUS
 10
-25.843248039
 20
-33.4069127466
 11
-25.8431201907
 21
-33.4069865892
  0
LWPOLYLINE
  5
229
100
AcDbEntity
  8
0
100
AcDbPolyline
 62
250
  6
CONTINUOUS
 90
22
 70
0
 10
-40.6751745506
 20
-24.8431442911
 10
-40.7002671408
 20
-24.8276282816
 10
-40.7246685136
 20
-24.8104188801
 10
-40.748113459
 20
-24.7916731149
 10
-40.7705718524
 20
-24.7714154952
 10
-40.7920180345
 20
-24.749669559
 10
-40.8124303734
 20
-24.7264570916
 10
-40.8317897091
 20
-24.7017972904
 10
-40.8500648948
 20
-24.6757269958
 10
-40.8672203776
 20
-24.6482996577
 10
-40.8831860446
 20
-24.6196488943
 10
-40.8980037618
 20
-24.5897229968
 10
-40.9117788543
 20
-24.5582680147
 10
-40.924497738
 20
-24.5251963469
 10
-40.9360727986
 20
-24.4906055576
 10
-40.9464647632
 20
-24.454487284
 10
-40.9556395779
 20
-24.4167938787
 10
-40.9635312681
 20
-24.3776034959
 10
-40.9700695766
 20
-24.3371147771
 10
-40.9752216081
 20
-24.2954284071
 10
-40.978971944
 20
-24.2525307359
 10
-40.9812969724
 20
-24.2084678611
  0
LWPOLYLINE
  5
22A
100
AcDbEntity
  8
0
100
AcDbPolyline
 62
7
  6
CONTINUOUS
 90
37
 70
0
 10
-40.2454860896
 20
11.1484916203
 10
-40.276600908
 20
11.1274176476
 10
-40.3182537152
 20
11.0974438496
 10
-40.3590847535
 20
11.0660473537
 10
-40.39907461
 20
11.0332951274
 10
-40.4382219041
 20
10.9992395715
 10
-40.4765274777
 20
10.9639245249
 10
-40.5139792786
 20
10.9274012704
 10
-40.5505631623
 20
10.8897210148
 10
-40.5862635576
 20
10.8509313301
 10
-40.6210632195
 20
10.8110813917
 10
-40.6549442604
 20
10.7702177706
 10
-40.687883116
 20
10.7283918427
 10
-40.7198583457
 20
10.6856524648
 10
-40.7508485569
 20
10.6420442982
 10
-40.7808272147
 20
10.5976202971
 10
-40.8097706894
 20
10.5524269166
 10
-40.8376550451
 20
10.5065093943
 10
-40.8644513783
 20
10.4599218595
 10
-40.8901340635
 20
10.4127095076
 10
-40.914678036
 20
10.3649178069
 10
-40.9380527748
 20
10.316600008
 10
-40.9602318844
 20
10.2678002234
 10
-40.9811887174
 20
10.2185630766
 10
-41.0008920286
 20
10.1689389345
 10
-41.0193150106
 20
10.1189693904
 10
-41.0364278208
 20
10.068698423
 10
-41.0521985707
 20
10.0181734528
 10
-41.0665975361
 20
9.9674344589
 10
-41.0795917474
 20
9.9165222921
 10
-41.0911488353
 20
9.8654757139
 10
-41.1012333714
 20
9.8143339019
 10
-41.1098078395
 20
9.7631346158
 10
-41.1168350713
 20
9.7119000395
 10
-41.1222717762
 20
9.6606580676
 10
-41.1260713221
 20
9.6094599194
 10
-41.1277493438
 20
9.5731211372
  0
LINE
  5
22B
100
AcDbEntity
  8
RACCORDO
100
AcDbLine
 62
7
  6
CONTINUOUS
 10
-37.3086255707
 20
13.0744384497
 11
-34.9406581408
 21
14.6623500164
  0
LINE
  5
22C
100
AcDbEntity
  8
0
100
AcDbLine
 62
250
  6
CONTINUOUS
 10
-37.0915788991
 20
13.0273728895
 11
-34.6815120144
 21
14.643515508
  0
LINE
  5
22D
100
AcDbEntity
  8
0
100
AcDbLine
 62
7
  6
CONTINUOUS
 10
-40.2455003844
 20
11.1484821941
 11
-37.3588639259
 21
13.0521917907
  0
LINE
  5
22E
100
AcDbEntity
  8
0
100
AcDbLine
 62
250
  6
CONTINUOUS
 10
-39.9887309623
 20
11.1280717102
 11
-37.1007498595
 21
13.0326680871
  0
LWPOLYLINE
  5
22F
100
AcDbEntity
  8
0
100
AcDbPolyline
 62
250
  6
CONTINUOUS
 90
17
 70
0
 10
-40.2454860896
 20
11.1484916203
 10
-40.2375143815
 20
11.1534083123
 10
-40.2245244876
 20
11.1600992839
 10
-40.2108383933
 20
11.1656157097
 10
-40.1964935676
 20
11.1699424871
 10
-40.181529283
 20
11.1730677704
 10
-40.1659865078
 20
11.1749830035
 10
-40.1499077942
 20
11.175682943
 10
-40.1333371616
 20
11.1751656725
 10
-40.1163199761
 20
11.1734326082
 10
-40.0989028265
 20
11.1704884948
 10
-40.0811333965
 20
11.1663413926
 10
-40.0630603342
 20
11.1610026552
 10
-40.0447331191
 20
11.1544868988
 10
-40.0262019264
 20
11.1468119618
 10
-40.0075174897
 20
11.1379988563
 10
-39.9887309623
 20
11.1280717102
  0
LWPOLYLINE
  5
230
100
AcDbEntity
  8
0
100
AcDbPolyline
 62
250
  6
CONTINUOUS
 90
16
 70
0
 10
-41.1277229521
 20
-24.0055927986
 10
-41.1269109278
 20
-24.01741733
 10
-41.1246670812
 20
-24.0328729824
 10
-41.1210920707
 20
-24.0482075913
 10
-41.1161954789
 20
-24.0633800534
 10
-41.1099904307
 20
-24.0783497001
 10
-41.1024935583
 20
-24.0930764063
 10
-41.0937249565
 20
-24.1075206983
 10
-41.0837081288
 20
-24.1216438592
 10
-41.0724699247
 20
-24.135408033
 10
-41.0600404672
 20
-24.1487763259
 10
-41.0464530725
 20
-24.1617129051
 10
-41.0317441607
 20
-24.1741830951
 10
-41.0159531579
 20
-24.1861534707
 10
-40.9991223906
 20
-24.197591946
 10
-40.9812969724
 20
-24.2084678611
  0
LWPOLYLINE
  5
231
100
AcDbEntity
  8
0
100
AcDbPolyline
 62
7
  6
CONTINUOUS
 90
24
 70
0
 10
-41.1277229521
 20
-24.0055927986
 10
-41.1251008497
 20
-24.0545382627
 10
-41.120461359
 20
-24.10549555
 10
-41.1139820215
 20
-24.1550448592
 10
-41.1057258746
 20
-24.2031447497
 10
-41.0957486282
 20
-24.2498148968
 10
-41.0840881958
 20
-24.2951140653
 10
-41.0707935237
 20
-24.3390284391
 10
-41.0559164329
 20
-24.3815396686
 10
-41.0394875704
 20
-24.4226777925
 10
-41.0215562989
 20
-24.4624151119
 10
-41.0021732808
 20
-24.5007295976
 10
-40.9813662296
 20
-24.5376387222
 10
-40.9591884357
 20
-24.5731080515
 10
-40.9356956568
 20
-24.6071083449
 10
-40.9109178609
 20
-24.6396463587
 10
-40.8849174167
 20
-24.6706825738
 10
-40.8577551927
 20
-24.700187889
 10
-40.8294582564
 20
-24.7281705288
 10
-40.8000925876
 20
-24.7545963125
 10
-40.7697273843
 20
-24.779434154
 10
-40.7383934295
 20
-24.8026877311
 10
-40.7061480617
 20
-24.8243380529
 10
-40.6750496551
 20
-24.8432163797
  0
LWPOLYLINE
  5
232
100
AcDbEntity
  8
0
100
AcDbPolyline
 62
250
  6
CONTINUOUS
 90
22
 70
0
 10
-40.9812969724
 20
-24.2084678611
 10
-41.0354533006
 20
-22.6160295902
 10
-41.0835687246
 20
-21.0383868406
 10
-41.1258331619
 20
-19.475681928
 10
-41.1623005979
 20
-17.9342092382
 10
-41.1933316054
 20
-16.4079748439
 10
-41.2193884632
 20
-14.8785726767
 10
-41.2405457623
 20
-13.3395799619
 10
-41.2566842646
 20
-11.7974373442
 10
-41.267798765
 20
-10.2529269258
 10
-41.2738796349
 20
-8.712391351
 10
-41.2749915037
 20
-7.1695646388
 10
-41.271068958
 20
-5.6062167205
 10
-41.2618901008
 20
-4.0161338569
 10
-41.247285641
 20
-2.4053528403
 10
-41.2270883047
 20
-0.7739171979
 10
-41.2010674697
 20
0.8812719321
 10
-41.1690731441
 20
2.5572761572
 10
-41.1311534434
 20
4.2449415227
 10
-41.0873089102
 20
5.9412063148
 10
-41.0373859678
 20
7.6491597764
 10
-40.9812969724
 20
9.3688205483
  0
LWPOLYLINE
  5
233
100
AcDbEntity
  8
0
100
AcDbPolyline
 62
250
  6
CONTINUOUS
 90
17
 70
0
 10
-41.1277493438
 20
9.5731211372
 10
-41.1278175967
 20
9.565367479
 10
-41.1269109312
 20
9.5510403356
 10
-41.1246670872
 20
9.5367264764
 10
-41.1210920791
 20
9.5224642689
 10
-41.1161954894
 20
9.5082919417
 10
-41.1099904429
 20
9.4942474828
 10
-41.1024935718
 20
9.4803685372
 10
-41.0937249707
 20
9.4666923065
 10
-41.0837081433
 20
9.4532554487
 10
-41.0724699388
 20
9.4400939805
 10
-41.0600404804
 20
9.4272431801
 10
-41.0464530842
 20
9.4147374931
 10
-41.0317441703
 20
9.4026104402
 10
-41.0159531648
 20
9.3908945271
 10
-40.9991223943
 20
9.3796211573
 10
-40.9812969724
 20
9.3688205483
  0
LWPOLYLINE
  5
234
100
AcDbEntity
  8
0
100
AcDbPolyline
 62
7
  6
CONTINUOUS
 90
22
 70
0
 10
-41.127748719
 20
9.573139381
 10
-41.1807093205
 20
7.9542148554
 10
-41.2287567941
 20
6.3259177992
 10
-41.2714675358
 20
4.7005941645
 10
-41.3088406855
 20
3.0782723908
 10
-41.3408756736
 20
1.4589771007
 10
-41.3675720436
 20
-0.1572691348
 10
-41.3889293206
 20
-1.7704424309
 10
-41.4049471536
 20
-3.380517995
 10
-41.4156252651
 20
-4.9874717984
 10
-41.4209633814
 20
-6.5912795563
 10
-41.4209613723
 20
-8.1919160659
 10
-41.4156191977
 20
-9.7893559813
 10
-41.4049368521
 20
-11.3835743676
 10
-41.3889144821
 20
-12.9745471894
 10
-41.3675522876
 20
-14.5622504398
 10
-41.3408504991
 20
-16.1466594375
 10
-41.3088094675
 20
-17.7277508134
 10
-41.2714295546
 20
-19.3055025291
 10
-41.2287112004
 20
-20.8798910007
 10
-41.1806551368
 20
-22.4508889381
 10
-41.1277230552
 20
-24.0055899169
  0
LWPOLYLINE
  5
235
100
AcDbEntity
  8
0
100
AcDbPolyline
 62
250
  6
CONTINUOUS
 90
43
 70
0
 10
-40.9812969724
 20
9.3688205483
 10
-40.9790687841
 20
9.4141275445
 10
-40.9755236736
 20
9.4597064903
 10
-40.9707017525
 20
9.5054828132
 10
-40.9646656598
 20
9.5512384371
 10
-40.9574440653
 20
9.5970469745
 10
-40.9489915523
 20
9.643287484
 10
-40.9392810944
 20
9.6900646383
 10
-40.9283495684
 20
9.73716536
 10
-40.9162160418
 20
9.784503037
 10
-40.9028993953
 20
9.8320082967
 10
-40.8884133011
 20
9.8796358298
 10
-40.8727730007
 20
9.9273343969
 10
-40.855996618
 20
9.975049131
 10
-40.8381053598
 20
10.0227198469
 10
-40.8191207791
 20
10.0702873502
 10
-40.7990663349
 20
10.1176938778
 10
-40.7779663338
 20
10.1648827134
 10
-40.7558456472
 20
10.2117965423
 10
-40.7327314159
 20
10.2583787631
 10
-40.7086518165
 20
10.304573331
 10
-40.6836350678
 20
10.3503243679
 10
-40.6577113701
 20
10.3955774818
 10
-40.6309127462
 20
10.44027743
 10
-40.603271891
 20
10.4843680273
 10
-40.5748248043
 20
10.5277931595
 10
-40.5456043393
 20
10.570503835
 10
-40.5156396355
 20
10.6124554435
 10
-40.4849568212
 20
10.6536106162
 10
-40.4536028746
 20
10.6939054315
 10
-40.4216407347
 20
10.7332586503
 10
-40.3892195044
 20
10.7714991814
 10
-40.3562748187
 20
10.8087154342
 10
-40.3225371908
 20
10.8451913613
 10
-40.2879378261
 20
10.8809539509
 10
-40.2526036167
 20
10.9158250263
 10
-40.2165471596
 20
10.9497488133
 10
-40.1797446412
 20
10.9827010283
 10
-40.1422951998
 20
11.014545958
 10
-40.104403454
 20
11.0450757163
 10
-40.0661720991
 20
11.0741896979
 10
-40.0275974447
 20
11.1018742497
 10
-39.9887309623
 20
11.1280717102
  0
LINE
  5
236
100
AcDbEntity
  8
DRAFT
100
AcDbLine
 62
7
  6
CONTINUOUS
 10
-30.8226525238
 20
12.6303261256
 11
-27.9921715862
 21
14.228738293
  0
LINE
  5
237
100
AcDbEntity
  8
DRAFT
100
AcDbLine
 62
7
  6
CONTINUOUS
 10
-30.3016309832
 20
12.7513992527
 11
-27.4466255903
 21
14.3555103255
  0
LINE
  5
238
100
AcDbEntity
  8
DRAFT
100
AcDbLine
 62
7
  6
CONTINUOUS
 10
-26.1150645313
 20
15.1128464786
 11
-27.8847067042
 21
14.1261354203
  0
LINE
  5
239
100
AcDbEntity
  8
0
100
AcDbLine
 62
7
  6
CONTINUOUS
 10
-13.6368621164
 20
22.4936921691
 11
-13.6362672309
 21
22.49401241
  0
LINE
  5
23A
100
AcDbEntity
  8
RACCORDO
100
AcDbLine
 62
7
  6
CONTINUOUS
 10
-13.6362115793
 20
22.4940423376
 11
-31.5725680892
 21
12.8484502498
  0
LINE
  5
23B
100
AcDbEntity
  8
0
100
AcDbLine
 62
250
  6
CONTINUOUS
 10
-13.6362672309
 20
22.49401241
 11
-13.6142374865
 21
22.5054147835
  0
LINE
  5
23C
100
AcDbEntity
  8
0
100
AcDbLine
 62
7
  6
CONTINUOUS
 10
-11.554771499
 20
22.5741986286
 11
-11.9936611648
 21
22.357032428
  0
LWPOLYLINE
  5
23D
100
AcDbEntity
  8
0
100
AcDbPolyline
 62
250
  6
CONTINUOUS
 90
12
 70
0
 10
-13.6142374865
 20
22.5054147835
 10
-13.5343961387
 20
22.5398592734
 10
-13.448788658
 20
22.566250458
 10
-13.3571826627
 20
22.58408933
 10
-13.2601416404
 20
22.5927464373
 10
-13.1577879108
 20
22.5917290602
 10
-13.0502155489
 20
22.5804693074
 10
-12.9379834858
 20
22.5585477227
 10
-12.8220285271
 20
22.5259144596
 10
-12.7030365272
 20
22.4825665672
 10
-12.5813912019
 20
22.4283317518
 10
-12.4576816132
 20
22.3631969461
  0
LWPOLYLINE
  5
23E
100
AcDbEntity
  8
0
100
AcDbPolyline
 62
250
  6
CONTINUOUS
 90
23
 70
0
 10
-11.554771499
 20
22.5741986286
 10
-11.4582678348
 20
22.6151148189
 10
-11.3466352248
 20
22.6473046408
 10
-11.2291053113
 20
22.6662687439
 10
-11.1063248166
 20
22.6719027746
 10
-10.9789693448
 20
22.6641757386
 10
-10.847739635
 20
22.6431301587
 10
-10.7133577353
 20
22.6088818313
 10
-10.5765630429
 20
22.5616191914
 10
-10.438108271
 20
22.5016022959
 10
-10.2987552825
 20
22.4291613954
 10
-10.1592708768
 20
22.3446951098
 10
-10.0204225193
 20
22.2486681953
 10
-9.8829741546
 20
22.1416089916
 10
-9.7476820448
 20
22.0241065433
 10
-9.6152906489
 20
21.8968074084
 10
-9.4865284742
 20
21.7604120713
 10
-9.3621040238
 20
21.6156710409
 10
-9.2427019171
 20
21.4633807299
 10
-9.1289791606
 20
21.3043791182
 10
-9.0215614985
 20
21.1395411018
 10
-8.9210399717
 20
20.9697736757
 10
-8.8279676805
 20
20.796010964
  0
LWPOLYLINE
  5
23F
100
AcDbEntity
  8
DRAFT
100
AcDbPolyline
 62
7
  6
CONTINUOUS
 90
10
 70
0
 10
-28.8720310934
 20
13.9539043235
 10
-28.7761614413
 20
13.9883426981
 10
-28.6798158031
 20
14.0218066486
 10
-28.5829941787
 20
14.0542961748
 10
-28.4856927586
 20
14.0858124667
 10
-28.3879153523
 20
14.1163543344
 10
-28.2896733891
 20
14.1459182079
 10
-28.1909706785
 20
14.1745028972
 10
-28.0918034108
 20
14.2021095922
 10
-27.9921715862
 20
14.228738293
  0
LINE
  5
240
100
AcDbEntity
  8
DRAFT
100
AcDbLine
 62
7
  6
CONTINUOUS
 10
-29.3014040286
 20
11.5371085856
 11
-27.5747255263
 21
12.6025586524
  0
LINE
  5
241
100
AcDbEntity
  8
RACCORDO
100
AcDbLine
 62
7
  6
CONTINUOUS
 10
-31.7466555353
 20
9.9412811268
 11
-30.8807745623
 21
10.4578626923
  0
LINE
  5
242
100
AcDbEntity
  8
DRAFT
100
AcDbLine
 62
7
  6
CONTINUOUS
 10
-29.96003524
 20
12.8155112969
 11
-27.1243092845
 21
14.4158945042
  0
LINE
  5
243
100
AcDbEntity
  8
DRAFT
100
AcDbLine
 62
7
  6
CONTINUOUS
 10
-29.3014040286
 20
12.43522589
 11
-27.5747255263
 21
13.3808808636
  0
LWPOLYLINE
  5
244
100
AcDbEntity
  8
DRAFT
100
AcDbPolyline
 62
7
  6
CONTINUOUS
 90
22
 70
0
 10
-30.4021950299
 20
12.4537704641
 10
-30.4133160301
 20
12.4480590435
 10
-30.4301144754
 20
12.4412634761
 10
-30.4476954708
 20
12.4362105577
 10
-30.4660679734
 20
12.432920637
 10
-30.4852230262
 20
12.4313733653
 10
-30.5049392765
 20
12.4315858747
 10
-30.5252232324
 20
12.4335786193
 10
-30.5460683858
 20
12.437331145
 10
-30.5672338599
 20
12.4427992226
 10
-30.5887228718
 20
12.450002471
 10
-30.6105322043
 20
12.4589212713
 10
-30.6324113291
 20
12.4694525381
 10
-30.6543611818
 20
12.4816147996
 10
-30.6763808268
 20
12.4953895276
 10
-30.6982169292
 20
12.5106180522
 10
-30.7198672644
 20
12.5273169447
 10
-30.7413340569
 20
12.5454696338
 10
-30.7623706453
 20
12.5648677349
 10
-30.782894809
 20
12.5854417865
 10
-30.8029887685
 20
12.60726125
 10
-30.8226525238
 20
12.6303261256
  0
LINE
  5
245
100
AcDbEntity
  8
DRAFT
100
AcDbLine
 62
7
  6
CONTINUOUS
 10
-26.5585348298
 20
14.0892234249
 11
-26.6841391593
 21
14.0251266299
  0
LWPOLYLINE
  5
246
100
AcDbEntity
  8
0
100
AcDbPolyline
 62
250
  6
CONTINUOUS
 90
26
 70
0
 10
-8.0192375931
 20
20.532825662
 10
-7.9135466244
 20
20.5769688307
 10
-7.8112731826
 20
20.6058932942
 10
-7.7040717839
 20
20.6237678765
 10
-7.5924352694
 20
20.6305104044
 10
-7.4768769341
 20
20.6260898915
 10
-7.3579279528
 20
20.6105266717
 10
-7.2361349323
 20
20.5838922371
 10
-7.1120577551
 20
20.5463089704
 10
-6.986266836
 20
20.4979495966
 10
-6.8593402659
 20
20.4390362832
 10
-6.7318612073
 20
20.3698395679
 10
-6.6044160655
 20
20.2906776185
 10
-6.4775915934
 20
20.2019148958
 10
-6.3519711836
 20
20.1039598517
 10
-6.2281319793
 20
19.9972626702
 10
-6.1066430729
 20
19.8823137467
 10
-5.9880629689
 20
19.7596415733
 10
-5.8729367849
 20
19.629810133
 10
-5.7617935601
 20
19.4934160649
 10
-5.6551441752
 20
19.3510863002
 10
-5.5534789981
 20
19.2034752446
 10
-5.4572654229
 20
19.0512615201
 10
-5.366945769
 20
18.8951448939
 10
-5.2829352498
 20
18.735843059
 10
-5.2056200798
 20
18.5740883597
  0
LINE
  5
247
100
AcDbEntity
  8
DRAFT
100
AcDbLine
 62
7
  6
CONTINUOUS
 10
-24.9538343579
 20
13.8499126103
 11
-25.3536654947
 21
13.6951150068
  0
LINE
  5
248
100
AcDbEntity
  8
DRAFT
100
AcDbLine
 62
7
  6
CONTINUOUS
 10
-31.0749040932
 20
12.5611052957
 11
-31.0470218938
 21
12.5691081601
  0
LINE
  5
249
100
AcDbEntity
  8
0
100
AcDbLine
 62
250
  6
CONTINUOUS
 10
-9.065390355
 20
20.6569748869
 11
-8.8279676805
 21
20.796010964
  0
LINE
  5
24A
100
AcDbEntity
  8
0
100
AcDbLine
 62
7
  6
CONTINUOUS
 10
-8.1895446465
 20
19.9022126184
 11
-17.1802558428
 21
14.8024870692
  0
LINE
  5
24B
100
AcDbEntity
  8
RACCORDO
100
AcDbLine
 62
7
  6
CONTINUOUS
 10
-31.0026114935
 20
9.5116794222
 11
-30.9777123409
 21
9.5250786484
  0
LINE
  5
24C
100
AcDbEntity
  8
DRAFT
100
AcDbLine
 62
7
  6
CONTINUOUS
 10
-29.8214991554
 20
8.829719961
 11
-29.5094734595
 21
8.9949240908
  0
LINE
  5
24D
100
AcDbEntity
  8
0
100
AcDbLine
 62
7
  6
CONTINUOUS
 10
-8.0192375931
 20
20.532825662
 11
-8.4581875301
 21
20.3156296386
  0
LINE
  5
24E
100
AcDbEntity
  8
0
100
AcDbLine
 62
7
  6
CONTINUOUS
 10
-28.8087373412
 20
8.4907100327
 11
-28.7663551863
 21
8.5658569133
  0
LINE
  5
24F
100
AcDbEntity
  8
0
100
AcDbLine
 62
250
  6
CONTINUOUS
 10
-28.741503234
 20
8.4378299429
 11
-28.6931393036
 21
8.5235829803
  0
LINE
  5
250
100
AcDbEntity
  8
RACCORDO
100
AcDbLine
 62
7
  6
CONTINUOUS
 10
-27.5040148482
 20
7.4916335669
 11
-26.6969916919
 21
8.042198898
  0
LINE
  5
251
100
AcDbEntity
  8
DRAFT
100
AcDbLine
 62
7
  6
CONTINUOUS
 10
-21.0017598729
 20
10.3521621012
 11
-21.077002005
 21
10.3039128021
  0
LINE
  5
252
100
AcDbEntity
  8
DRAFT
100
AcDbLine
 62
7
  6
CONTINUOUS
 10
-22.0855338358
 20
11.5065687108
 11
-22.1986284821
 21
11.4352489815
  0
LINE
  5
253
100
AcDbEntity
  8
DRAFT
100
AcDbLine
 62
7
  6
CONTINUOUS
 10
-24.9995188866
 20
9.9513713243
 11
-23.3320848392
 21
10.9312333036
  0
LINE
  5
254
100
AcDbEntity
  8
DRAFT
100
AcDbLine
 62
7
  6
CONTINUOUS
 10
-23.999291932
 20
9.1125076713
 11
-21.1974430754
 21
10.747310662
  0
LINE
  5
255
100
AcDbEntity
  8
0
100
AcDbLine
 62
7
  6
CONTINUOUS
 10
-16.8221391649
 20
14.5957149876
 11
-16.8084713103
 21
14.6036066489
  0
LINE
  5
256
100
AcDbEntity
  8
0
100
AcDbLine
 62
7
  6
CONTINUOUS
 10
-15.9501650388
 20
14.843553851
 11
-7.6370215609
 21
19.6434668742
  0
LINE
  5
257
100
AcDbEntity
  8
DRAFT
100
AcDbLine
 62
7
  6
CONTINUOUS
 10
-24.3408876751
 20
9.5710859174
 11
-21.5197593811
 21
11.1798976315
  0
LINE
  5
258
100
AcDbEntity
  8
DRAFT
100
AcDbLine
 62
7
  6
CONTINUOUS
 10
-23.4782703914
 20
8.3897719291
 11
-20.6518970795
 21
9.9905557881
  0
LINE
  5
259
100
AcDbEntity
  8
0
100
AcDbLine
 62
7
  6
CONTINUOUS
 10
-4.7155623009
 20
18.1492801089
 11
-4.2715716528
 21
18.3689703174
  0
LWPOLYLINE
  5
25A
100
AcDbEntity
  8
0
100
AcDbPolyline
 62
7
  6
CONTINUOUS
 90
10
 70
0
 10
-5.0613918398
 20
18.0960583485
 10
-5.0095385863
 20
18.1216238984
 10
-4.958997344
 20
18.1414313339
 10
-4.909768113
 20
18.1554806552
 10
-4.8614920211
 20
18.1637940004
 10
-4.8145279406
 20
18.1663492313
 10
-4.7699524874
 20
18.1630799331
 10
-4.7278356086
 20
18.1539118109
 10
-4.6881073572
 20
18.1389191596
 10
-4.6722155479
 20
18.1308533343
  0
LWPOLYLINE
  5
25B
100
AcDbEntity
  8
0
100
AcDbPolyline
 62
7
  6
CONTINUOUS
 90
25
 70
0
 10
-4.2715716528
 20
18.3689703174
 10
-4.1712086454
 20
18.4125303678
 10
-4.0649239743
 20
18.4465607287
 10
-3.9531285239
 20
18.4705223041
 10
-3.8361562987
 20
18.4839420757
 10
-3.7145675427
 20
18.4863744713
 10
-3.5890996577
 20
18.4774905197
 10
-3.4598289458
 20
18.4569761333
 10
-3.327503153
 20
18.4246215202
 10
-3.1938566346
 20
18.3807172863
 10
-3.059421059
 20
18.3254584517
 10
-2.9245450962
 20
18.2589821948
 10
-2.7907539778
 20
18.1821262746
 10
-2.6587830765
 20
18.0955364959
 10
-2.5288074589
 20
17.9995246373
 10
-2.4015705219
 20
17.8948137228
 10
-2.2776454104
 20
17.7820797785
 10
-2.157353016
 20
17.6618005112
 10
-2.0411013728
 20
17.5345320848
 10
-1.9293474819
 20
17.4009065453
 10
-1.8224901064
 20
17.2615184837
 10
-1.7208753478
 20
17.1169087696
 10
-1.6248901656
 20
16.9676886334
 10
-1.5349391695
 20
16.8145328441
 10
-1.451387728
 20
16.6580963375
  0
LWPOLYLINE
  5
25C
100
AcDbEntity
  8
0
100
AcDbPolyline
 62
250
  6
CONTINUOUS
 90
25
 70
0
 10
-4.2715716528
 20
18.3689703174
 10
-4.1775124373
 20
18.4090093967
 10
-4.0758472602
 20
18.439220054
 10
-3.9691978754
 20
18.4583937825
 10
-3.8580546506
 20
18.4664424406
 10
-3.7429284666
 20
18.4633290494
 10
-3.6243483626
 20
18.4490678912
 10
-3.5028594562
 20
18.4237244708
 10
-3.3790202519
 20
18.3874152434
 10
-3.2533998422
 20
18.3403069871
 10
-3.1265753701
 20
18.2826159885
 10
-2.9991302283
 20
18.2146074827
 10
-2.8716511696
 20
18.1365945766
 10
-2.7447245996
 20
18.0489362685
 10
-2.6189336804
 20
17.9520354419
 10
-2.4948565032
 20
17.8463374946
 10
-2.3730634827
 20
17.7323284021
 10
-2.2541145015
 20
17.6105323199
 10
-2.1385561661
 20
17.4815089639
 10
-2.0269196516
 20
17.3458513874
 10
-1.919718253
 20
17.2041833171
 10
-1.8174448111
 20
17.0571560465
 10
-1.7205695024
 20
16.9054454974
 10
-1.6295376792
 20
16.7497491097
 10
-1.5447678343
 20
16.5907826527
  0
LINE
  5
25D
100
AcDbEntity
  8
RACCORDO
100
AcDbLine
 62
250
  6
CONTINUOUS
 10
-30.8807745623
 20
10.4578626923
 11
-30.9777123409
 21
9.5250786484
  0
LINE
  5
25E
100
AcDbEntity
  8
RACCORDO
100
AcDbLine
 62
250
  6
CONTINUOUS
 10
-30.3210922756
 20
10.4711044667
 11
-30.4198739114
 21
9.5205779018
  0
LINE
  5
25F
100
AcDbEntity
  8
DRAFT
100
AcDbLine
 62
7
  6
CONTINUOUS
 10
-20.9884661989
 20
10.3444865005
 11
-19.6986307665
 21
11.4080780396
  0
LINE
  5
260
100
AcDbEntity
  8
DRAFT
100
AcDbLine
 62
7
  6
CONTINUOUS
 10
-20.9783061297
 20
11.1688373456
 11
-20.6983413537
 21
11.3928442835
  0
LINE
  5
261
100
AcDbEntity
  8
DRAFT
100
AcDbLine
 62
7
  6
CONTINUOUS
 10
-17.1096659106
 20
9.9132421792
 11
-19.7720375722
 21
8.3214042391
  0
LINE
  5
262
100
AcDbEntity
  8
0
100
AcDbLine
 62
250
  6
CONTINUOUS
 10
-5.5019398364
 20
18.398566166
 11
-5.2056200798
 21
18.5740883597
  0
LINE
  5
263
100
AcDbEntity
  8
0
100
AcDbLine
 62
7
  6
CONTINUOUS
 10
-5.0613931802
 20
18.0960571667
 11
-14.2104073619
 21
13.0877337772
  0
LINE
  5
264
100
AcDbEntity
  8
DRAFT
100
AcDbLine
 62
7
  6
CONTINUOUS
 10
-39.23408309
 20
-1.1039603271
 11
-39.2324762512
 21
-1.1031593825
  0
LINE
  5
265
100
AcDbEntity
  8
0
100
AcDbLine
 62
250
  6
CONTINUOUS
 10
-0.7360377469
 20
16.3275973507
 11
-0.7094299361
 21
16.3402205131
  0
LWPOLYLINE
  5
266
100
AcDbEntity
  8
DRAFT
100
AcDbPolyline
 62
7
  6
CONTINUOUS
 90
34
 70
0
 10
-39.2324762512
 20
-1.1031593825
 10
-39.2170258816
 20
-1.0961815311
 10
-39.1993883318
 20
-1.0897136322
 10
-39.1811705403
 20
-1.0845566859
 10
-39.1623262559
 20
-1.0807053346
 10
-39.1429019099
 20
-1.078165036
 10
-39.1230366255
 20
-1.0769520683
 10
-39.1027436817
 20
-1.0770738595
 10
-39.08200996
 20
-1.0785230708
 10
-39.0609349889
 20
-1.0812938312
 10
-39.0394942966
 20
-1.0853988735
 10
-39.0177124767
 20
-1.0908255326
 10
-38.9957626494
 20
-1.0975298367
 10
-38.9736709323
 20
-1.1055101905
 10
-38.9514112859
 20
-1.1147682326
 10
-38.9290785852
 20
-1.1252648371
 10
-38.9066429047
 20
-1.1370225103
 10
-38.8841341962
 20
-1.1500187605
 10
-38.8617371375
 20
-1.1641469579
 10
-38.8394818267
 20
-1.1793949236
 10
-38.8173381391
 20
-1.1957748217
 10
-38.7954004059
 20
-1.2132165292
 10
-38.7736429627
 20
-1.2317482565
 10
-38.7520913958
 20
-1.2513417497
 10
-38.7309169015
 20
-1.2718421845
 10
-38.7101438951
 20
-1.2932339372
 10
-38.6897478396
 20
-1.3155325637
 10
-38.669826497
 20
-1.3386300059
 10
-38.6503670938
 20
-1.3625485414
 10
-38.6313822429
 20
-1.3872658033
 10
-38.6130077866
 20
-1.4126067672
 10
-38.5952889488
 20
-1.4385130598
 10
-38.5781803255
 20
-1.4650429542
 10
-38.561681817
 20
-1.4921963949
  0
LWPOLYLINE
  5
267
100
AcDbEntity
  8
0
100
AcDbPolyline
 62
7
  6
CONTINUOUS
 90
31
 70
0
 10
-0.7360377469
 20
16.3275973507
 10
-0.6221830703
 20
16.3761322595
 10
-0.5008766453
 20
16.4123967871
 10
-0.372716275
 20
16.4356442587
 10
-0.2380984322
 20
16.4452263489
 10
-0.0979083686
 20
16.4405312737
 10
0.0465284072
 20
16.4212090842
 10
0.1950205036
 20
16.3869257039
 10
0.3465653347
 20
16.3375287233
 10
0.4986045032
 20
16.2737661204
 10
0.6501619138
 20
16.1962350149
 10
0.8009177795
 20
16.1052406063
 10
0.9491968734
 20
16.0019851463
 10
1.0940184378
 20
15.8874874487
 10
1.235058227
 20
15.7623032867
 10
1.3715520035
 20
15.6273484896
 10
1.5027716797
 20
15.4835847025
 10
1.6281955499
 20
15.3318011905
 10
1.7473211829
 20
15.1727674656
 10
1.8595458683
 20
15.0074112506
 10
1.9643184871
 20
14.8366455229
 10
2.0611949548
 20
14.6612433356
 10
2.14965281
 20
14.4821426513
 10
2.2291919167
 20
14.3003119285
 10
2.2994093203
 20
14.1165537506
 10
2.3598768161
 20
13.9317531807
 10
2.4101420375
 20
13.7469574639
 10
2.4498154553
 20
13.5631434383
 10
2.4785474493
 20
13.3812350635
 10
2.4960079038
 20
13.2021734045
 10
2.5018910978
 20
13.02692014
  0
LWPOLYLINE
  5
268
100
AcDbEntity
  8
0
100
AcDbPolyline
 62
250
  6
CONTINUOUS
 90
32
 70
0
 10
-0.7094299361
 20
16.3402205131
 10
-0.602012274
 20
16.3810153059
 10
-0.4882895176
 20
16.408692729
 10
-0.3688874109
 20
16.4231004801
 10
-0.2444629604
 20
16.4241592739
 10
-0.1157007858
 20
16.4118632793
 10
0.0166906102
 20
16.3862801487
 10
0.15198272
 20
16.3475506597
 10
0.2894310846
 20
16.2958879372
 10
0.4282794421
 20
16.2315762489
 10
0.5677638479
 20
16.154969439
 10
0.7071168363
 20
16.0664890014
 10
0.8455716082
 20
15.9666217968
 10
0.9823663007
 20
15.8559173547
 10
1.1167482003
 20
15.7349848329
 10
1.2479779101
 20
15.6044896333
 10
1.375333382
 20
15.4651497626
 10
1.4981138767
 20
15.3177318942
 10
1.6156437901
 20
15.1630471931
 10
1.7272764002
 20
15.0019468313
 10
1.8323974454
 20
14.8353172793
 10
1.9304285388
 20
14.664075363
 10
2.0208303125
 20
14.4891632552
 10
2.1031053552
 20
14.3115433457
 10
2.1768009342
 20
14.1321929998
 10
2.2415115273
 20
13.9520991178
 10
2.2968810745
 20
13.772252645
 10
2.3426049149
 20
13.5936431601
 10
2.3784314539
 20
13.4172534795
 10
2.4041635687
 20
13.2440541741
 10
2.4196596844
 20
13.0749982311
 10
2.4248345455
 20
12.9110158522
  0
LWPOLYLINE
  5
269
100
AcDbEntity
  8
0
100
AcDbPolyline
 62
250
  6
CONTINUOUS
 90
3
 70
0
 10
-13.6723770066
 20
-17.1989971572
 10
-13.6580289612
 20
-17.1959668456
 10
-13.6396292735
 20
-17.1932081448
  0
LINE
  5
26A
100
AcDbEntity
  8
DRAFT
100
AcDbLine
 62
7
  6
CONTINUOUS
 10
-29.3014040286
 20
11.5371085856
 11
-29.3014040286
 21
12.43522589
  0
LINE
  5
26B
100
AcDbEntity
  8
DRAFT
100
AcDbLine
 62
7
  6
CONTINUOUS
 10
-29.7099459445
 20
-13.7821232076
 11
-29.7099404676
 21
-13.7765990216
  0
LINE
  5
26C
100
AcDbEntity
  8
DRAFT
100
AcDbLine
 62
7
  6
CONTINUOUS
 10
-29.6943234749
 20
-10.2900529804
 11
-29.6943162732
 21
-10.2891467551
  0
LINE
  5
26D
100
AcDbEntity
  8
DRAFT
100
AcDbLine
 62
7
  6
CONTINUOUS
 10
-29.6875191761
 20
-9.5095653452
 11
-29.6875008784
 21
-9.5076374633
  0
LWPOLYLINE
  5
26E
100
AcDbEntity
  8
0
100
AcDbPolyline
 62
250
  6
CONTINUOUS
 90
43
 70
0
 10
-25.1405125016
 20
2.5548964629
 10
-25.1790715511
 20
2.5300438652
 10
-25.2171648782
 20
2.5039184557
 10
-25.2547483433
 20
2.4765934895
 10
-25.2916639551
 20
2.4482344723
 10
-25.3279913133
 20
2.4188293512
 10
-25.3640389818
 20
2.3881471525
 10
-25.3998830825
 20
2.356114598
 10
-25.4353589456
 20
2.3228701708
 10
-25.4704071947
 20
2.2884673292
 10
-25.5049801395
 20
2.25295434
 10
-25.5390425943
 20
2.2163689048
 10
-25.5725551937
 20
2.1787519035
 10
-25.6054788238
 20
2.1401478801
 10
-25.6377731385
 20
2.1006048652
 10
-25.669397872
 20
2.0601705273
 10
-25.7003151515
 20
2.0188940607
 10
-25.7304881123
 20
1.976825574
 10
-25.759879298
 20
1.934015662
 10
-25.7884533857
 20
1.8905165901
 10
-25.8161764655
 20
1.84638094
 10
-25.8430146395
 20
1.801661004
 10
-25.8689363525
 20
1.7564099951
 10
-25.8939100223
 20
1.7106838524
 10
-25.9179034703
 20
1.6645399564
 10
-25.9408859903
 20
1.6180387408
 10
-25.9628326225
 20
1.5712323044
 10
-25.9837210625
 20
1.5241660327
 10
-26.0035334448
 20
1.4768777993
 10
-26.0222369164
 20
1.429443838
 10
-26.0397911368
 20
1.3819676152
 10
-26.0561257704
 20
1.3346634919
 10
-26.0712837457
 20
1.2874316575
 10
-26.0853688602
 20
1.2399061408
 10
-26.0983670992
 20
1.1920258332
 10
-26.1101944944
 20
1.1439779964
 10
-26.1208151904
 20
1.0957759768
 10
-26.1301959323
 20
1.0474038606
 10
-26.138268189
 20
0.9990236995
 10
-26.1449578348
 20
0.9509151517
 10
-26.1502299518
 20
0.9032171036
 10
-26.1540691728
 20
0.8559341809
 10
-26.1564508948
 20
0.8091402221
  0
LINE
  5
26F
100
AcDbEntity
  8
0
100
AcDbLine
 62
250
  6
CONTINUOUS
 10
-22.1499205239
 20
4.4002466066
 11
-25.1405125016
 21
2.5548964629
  0
LINE
  5
270
100
AcDbEntity
  8
0
100
AcDbLine
 62
7
  6
CONTINUOUS
 10
-16.3850468686
 20
9.6504713353
 11
-21.0842392998
 21
6.7926206564
  0
LINE
  5
271
100
AcDbEntity
  8
0
100
AcDbLine
 62
250
  6
CONTINUOUS
 10
-19.6194109008
 20
5.9468470974
 11
-22.1590914844
 21
4.4055418043
  0
LINE
  5
272
100
AcDbEntity
  8
0
100
AcDbLine
 62
250
  6
CONTINUOUS
 10
-1.7821905088
 20
16.4517465756
 11
-1.5447678343
 21
16.5907826527
  0
LINE
  5
273
100
AcDbEntity
  8
DRAFT
100
AcDbLine
 62
7
  6
CONTINUOUS
 10
-37.9612908838
 20
-1.838854595
 11
-37.959684045
 21
-1.8380536505
  0
LINE
  5
274
100
AcDbEntity
  8
DRAFT
100
AcDbLine
 62
7
  6
CONTINUOUS
 10
-36.6884986777
 20
-2.573748863
 11
-36.6868918389
 21
-2.5729479185
  0
LINE
  5
275
100
AcDbEntity
  8
0
100
AcDbLine
 62
7
  6
CONTINUOUS
 10
-1.1749241608
 20
16.110432759
 11
-0.7360377469
 21
16.3275973507
  0
LWPOLYLINE
  5
276
100
AcDbEntity
  8
DRAFT
100
AcDbPolyline
 62
7
  6
CONTINUOUS
 90
34
 70
0
 10
-37.959684045
 20
-1.8380536505
 10
-37.9442336755
 20
-1.8310757991
 10
-37.9265961257
 20
-1.8246079002
 10
-37.9083783342
 20
-1.8194509539
 10
-37.8895340497
 20
-1.8155996026
 10
-37.8701097037
 20
-1.8130593039
 10
-37.8502444194
 20
-1.8118463363
 10
-37.8299514755
 20
-1.8119681274
 10
-37.8092177539
 20
-1.8134173388
 10
-37.7881427828
 20
-1.8161880992
 10
-37.7667020905
 20
-1.8202931415
 10
-37.7449202706
 20
-1.8257198006
 10
-37.7229704433
 20
-1.8324241047
 10
-37.7008787262
 20
-1.8404044585
 10
-37.6786190798
 20
-1.8496625006
 10
-37.656286379
 20
-1.8601591051
 10
-37.6338506985
 20
-1.8719167783
 10
-37.6113419901
 20
-1.8849130285
 10
-37.5889449314
 20
-1.8990412259
 10
-37.5666896205
 20
-1.9142891916
 10
-37.544545933
 20
-1.9306690897
 10
-37.5226081998
 20
-1.9481107972
 10
-37.5008507566
 20
-1.9666425244
 10
-37.4792991896
 20
-1.9862360177
 10
-37.4581246953
 20
-2.0067364525
 10
-37.437351689
 20
-2.0281282052
 10
-37.4169556335
 20
-2.0504268317
 10
-37.3970342909
 20
-2.0735242739
 10
-37.3775748876
 20
-2.0974428094
 10
-37.3585900367
 20
-2.1221600713
 10
-37.3402155805
 20
-2.1475010352
 10
-37.3224967427
 20
-2.1734073278
 10
-37.3053881194
 20
-2.1999372222
 10
-37.2888896108
 20
-2.2270906629
  0
LWPOLYLINE
  5
277
100
AcDbEntity
  8
DRAFT
100
AcDbPolyline
 62
7
  6
CONTINUOUS
 90
34
 70
0
 10
-36.6868918389
 20
-2.5729479185
 10
-36.6714414693
 20
-2.5659700671
 10
-36.6538039195
 20
-2.5595021682
 10
-36.635586128
 20
-2.5543452219
 10
-36.6167418436
 20
-2.5504938706
 10
-36.5973174976
 20
-2.5479535719
 10
-36.5774522132
 20
-2.5467406043
 10
-36.5571592694
 20
-2.5468623954
 10
-36.5364255477
 20
-2.5483116068
 10
-36.5153505766
 20
-2.5510823672
 10
-36.4939098843
 20
-2.5551874095
 10
-36.4721280644
 20
-2.5606140686
 10
-36.4501782371
 20
-2.5673183727
 10
-36.42808652
 20
-2.5752987264
 10
-36.4058268736
 20
-2.5845567685
 10
-36.3834941729
 20
-2.5950533731
 10
-36.3610584924
 20
-2.6068110463
 10
-36.338549784
 20
-2.6198072965
 10
-36.3161527252
 20
-2.6339354939
 10
-36.2938974144
 20
-2.6491834596
 10
-36.2717537269
 20
-2.6655633577
 10
-36.2498159936
 20
-2.6830050652
 10
-36.2280585505
 20
-2.7015367924
 10
-36.2065069835
 20
-2.7211302857
 10
-36.1853324892
 20
-2.7416307205
 10
-36.1645594829
 20
-2.7630224732
 10
-36.1441634274
 20
-2.7853210997
 10
-36.1242420847
 20
-2.8084185419
 10
-36.1047826815
 20
-2.8323370774
 10
-36.0857978306
 20
-2.8570543393
 10
-36.0674233744
 20
-2.8823953032
 10
-36.0497045365
 20
-2.9083015958
 10
-36.0325959132
 20
-2.9348314902
 10
-36.0160974047
 20
-2.9619849309
  0
LWPOLYLINE
  5
278
100
AcDbEntity
  8
RACCORDO
100
AcDbPolyline
 62
250
  6
CONTINUOUS
 90
7
 70
0
 10
-10.5008756091
 20
-15.4102964103
 10
-10.5286628121
 20
-15.4099398969
 10
-10.5846199189
 20
-15.4046859324
 10
-10.64192461
 20
-15.3941014102
 10
-10.7026762172
 20
-15.3769876758
 10
-10.7675745176
 20
-15.3529451778
 10
-10.8013895514
 20
-15.3378192704
  0
LWPOLYLINE
  5
279
100
AcDbEntity
  8
RACCORDO
100
AcDbPolyline
 62
250
  6
CONTINUOUS
 90
8
 70
0
 10
-11.199701719
 20
-18.0348283557
 10
-11.1995013378
 20
-18.0348943118
 10
-11.1821866088
 20
-18.038858425
 10
-11.1649831811
 20
-18.0409785125
 10
-11.1483012402
 20
-18.040902632
 10
-11.1322775145
 20
-18.0385134695
 10
-11.1167752756
 20
-18.0339283391
 10
-11.1017945234
 20
-18.0271472407
  0
LWPOLYLINE
  5
27A
100
AcDbEntity
  8
DRAFT
100
AcDbPolyline
 62
7
  6
CONTINUOUS
 90
17
 70
0
 10
-30.3016309832
 20
12.7513992527
 10
-30.2987935925
 20
12.7243637864
 10
-30.2973197736
 20
12.6981775832
 10
-30.2972095266
 20
12.672840643
 10
-30.298472734
 20
12.6482718331
 10
-30.3010995132
 20
12.6245522863
 10
-30.3050602167
 20
12.6019254003
 10
-30.3103705363
 20
12.5803904156
 10
-30.3170147802
 20
12.5599480917
 10
-30.3249162254
 20
12.5408441044
 10
-30.3340892259
 20
12.5230972908
 10
-30.3445194277
 20
12.5066888139
 10
-30.3560870462
 20
12.491807838
 10
-30.3688056147
 20
12.4784717616
 10
-30.3826615998
 20
12.4666631862
 10
-30.3974946164
 20
12.4565190812
 10
-30.4021950299
 20
12.4537704641
  0
LWPOLYLINE
  5
27B
100
AcDbEntity
  8
0
100
AcDbPolyline
 62
250
  6
CONTINUOUS
 90
43
 70
0
 10
-25.4558674209
 20
-32.7550638368
 10
-25.4542881789
 20
-32.7835953765
 10
-25.4518608274
 20
-32.8112468879
 10
-25.4485853662
 20
-32.8380183708
 10
-25.4444601382
 20
-32.8638519198
 10
-25.4394868007
 20
-32.8888054404
 10
-25.433670325
 20
-32.9130526493
 10
-25.4270026093
 20
-32.9366827017
 10
-25.4194917555
 20
-32.9596064424
 10
-25.4111670412
 20
-32.9817301223
 10
-25.4020264152
 20
-33.0030466378
 10
-25.3920719287
 20
-33.0235630925
 10
-25.3813390132
 20
-33.0432070484
 10
-25.3698246296
 20
-33.0619760311
 10
-25.357531817
 20
-33.079872515
 10
-25.3445051233
 20
-33.096831485
 10
-25.3307418872
 20
-33.1128494935
 10
-25.31624477
 20
-33.1279299881
 10
-25.3010663033
 20
-33.142018296
 10
-25.2852041252
 20
-33.1551107563
 10
-25.2686605974
 20
-33.1672110301
 10
-25.2514953376
 20
-33.1782754271
 10
-25.233705648
 20
-33.1883003474
 10
-25.2152942263
 20
-33.1972893911
 10
-25.1963287825
 20
-33.2052096674
 10
-25.1768092996
 20
-33.2120569855
 10
-25.1567357946
 20
-33.2178355363
 10
-25.1361760278
 20
-33.2225250026
 10
-25.1151192599
 20
-33.2261214632
 10
-25.0935762302
 20
-33.2286288392
 10
-25.0716469173
 20
-33.2300385768
 10
-25.0494080934
 20
-33.2303613378
 10
-25.0267829863
 20
-33.2295864604
 10
-25.0036412583
 20
-33.2276734062
 10
-24.9799250541
 20
-33.224633864
 10
-24.9556922288
 20
-33.220456145
 10
-24.9309860104
 20
-33.2150646436
 10
-24.9057546648
 20
-33.208436062
 10
-24.8800499259
 20
-33.2005936981
 10
-24.8540702232
 20
-33.1915318397
 10
-24.8278816998
 20
-33.1812485827
 10
-24.8014182126
 20
-33.1697458311
 10
-24.7746797616
 20
-33.157023585
  0
LWPOLYLINE
  5
27C
100
AcDbEntity
  8
0
100
AcDbPolyline
 62
250
  6
CONTINUOUS
 90
23
 70
0
 10
-26.1564508948
 20
-32.7681481873
 10
-26.1541653348
 20
-32.810897354
 10
-26.1505315114
 20
-32.8523719003
 10
-26.145590273
 20
-32.8925439246
 10
-26.1394049957
 20
-32.9312678145
 10
-26.1320050658
 20
-32.9686510355
 10
-26.1233456566
 20
-33.0050214683
 10
-26.1134006373
 20
-33.0404507685
 10
-26.1022073024
 20
-33.0747713445
 10
-26.0897837547
 20
-33.1079262282
 10
-26.076147452
 20
-33.1398703547
 10
-26.0613129741
 20
-33.1705711727
 10
-26.0452975742
 20
-33.199993886
 10
-26.0281197668
 20
-33.228103848
 10
-26.0098005404
 20
-33.2548662357
 10
-25.9903626922
 20
-33.2802481137
 10
-25.9698294245
 20
-33.3042189254
 10
-25.9482252792
 20
-33.3267498512
 10
-25.9255770725
 20
-33.3478131898
 10
-25.9019119811
 20
-33.3673835677
 10
-25.8772581922
 20
-33.3854376295
 10
-25.851645834
 20
-33.4019533754
 10
-25.843248039
 20
-33.4069127466
  0
LWPOLYLINE
  5
27D
100
AcDbEntity
  8
0
100
AcDbPolyline
 62
250
  6
CONTINUOUS
 90
8
 70
0
 10
-26.4318840673
 20
-21.3064697769
 10
-26.4109672053
 20
-22.9142256548
 10
-26.3840182842
 20
-24.5388706096
 10
-26.3508909259
 20
-26.1773034862
 10
-26.3116256534
 20
-27.8204195777
 10
-26.2662205775
 20
-29.4651557518
 10
-26.2145248272
 20
-31.1144261162
 10
-26.1564508948
 20
-32.7681481873
  0
LINE
  5
27E
100
AcDbEntity
  8
DRAFT
100
AcDbLine
 62
7
  6
CONTINUOUS
 10
-27.5747255263
 20
12.6025586524
 11
-27.5747255263
 21
13.3808808636
  0
LINE
  5
27F
100
AcDbEntity
  8
DRAFT
100
AcDbLine
 62
7
  6
CONTINUOUS
 10
-26.5585348298
 20
13.9526042643
 11
-26.5585348298
 21
14.0892234249
  0
LWPOLYLINE
  5
280
100
AcDbEntity
  8
0
100
AcDbPolyline
 62
250
  6
CONTINUOUS
 90
15
 70
0
 10
-26.1564508948
 20
0.8091402221
 10
-26.2125163415
 20
-0.8468775304
 10
-26.2623404821
 20
-2.4810161481
 10
-26.3061131461
 20
-4.0933525824
 10
-26.3438805696
 20
-5.6776507791
 10
-26.3760109
 20
-7.2403249638
 10
-26.4029893338
 20
-8.8003268895
 10
-26.4248980572
 20
-10.3641692038
 10
-26.4416101111
 20
-11.9252697633
 10
-26.4531202431
 20
-13.4828410022
 10
-26.4594215256
 20
-15.0305279046
 10
-26.4605757638
 20
-16.5746722663
 10
-26.4565091152
 20
-18.1334327632
 10
-26.4470028359
 20
-19.7127807187
 10
-26.4318840673
 20
-21.3064697769
  0
LINE
  5
281
100
AcDbEntity
  8
RACCORDO
100
AcDbLine
 62
250
  6
CONTINUOUS
 10
-26.7385951178
 20
8.0138163122
 11
-26.7030681896
 21
8.3821027039
  0
LWPOLYLINE
  5
282
100
AcDbEntity
  8
0
100
AcDbPolyline
 62
250
  6
CONTINUOUS
 90
43
 70
0
 10
-24.7746797616
 20
1.9502356245
 10
-24.8005799163
 20
1.9336718354
 10
-24.8261116576
 20
1.9163554724
 10
-24.8512749854
 20
1.8982865354
 10
-24.8760196701
 20
1.8794917769
 10
-24.9003959414
 20
1.8599444445
 10
-24.9245544876
 20
1.8395642807
 10
-24.9485777647
 20
1.8182950609
 10
-24.9723833167
 20
1.7961930097
 10
-24.995874464
 20
1.7733465435
 10
-25.0190459279
 20
1.7497563436
 10
-25.0419029871
 20
1.7254217286
 10
-25.0643647988
 20
1.7004290711
 10
-25.0864306373
 20
1.6747753358
 10
-25.1081012282
 20
1.648463558
 10
-25.1292979053
 20
1.6215892164
 10
-25.1500189034
 20
1.5941502995
 10
-25.1702659878
 20
1.5661488187
 10
-25.189965788
 20
1.537686287
 10
-25.2091162079
 20
1.5087612231
 10
-25.2277193437
 20
1.4793751083
 10
-25.2457081135
 20
1.449633899
 10
-25.2630806376
 20
1.4195356111
 10
-25.2798387957
 20
1.3890822287
 10
-25.2959211457
 20
1.3583856611
 10
-25.3113240011
 20
1.3274479984
 10
-25.3260510484
 20
1.2962671506
 10
-25.3400519044
 20
1.2649487571
 10
-25.3533282712
 20
1.2334796618
 10
-25.3658784467
 20
1.2018730208
 10
-25.3776469413
 20
1.1702739431
 10
-25.3886062952
 20
1.1387852289
 10
-25.3987839682
 20
1.1073040779
 10
-25.4082068507
 20
1.075667198
 10
-25.4169130175
 20
1.0437872167
 10
-25.4248643938
 20
1.0117515066
 10
-25.4319736452
 20
0.9796588934
 10
-25.4382450841
 20
0.9474481938
 10
-25.4436743981
 20
0.9151805912
 10
-25.4481613159
 20
0.8831384614
 10
-25.4516724138
 20
0.8514159296
 10
-25.4542411154
 20
0.8199188705
 10
-25.4558674209
 20
0.7886472842
  0
LINE
  5
283
100
AcDbEntity
  8
0
100
AcDbLine
 62
250
  6
CONTINUOUS
 10
-21.796636258
 20
3.7878427099
 11
-24.7746797616
 21
1.9502356245
  0
LINE
  5
284
100
AcDbEntity
  8
0
100
AcDbLine
 62
250
  6
CONTINUOUS
 10
-19.2662208473
 20
5.3346842567
 11
-21.7968641251
 21
3.798863609
  0
LINE
  5
285
100
AcDbEntity
  8
0
100
AcDbLine
 62
250
  6
CONTINUOUS
 10
-19.2662208473
 20
4.9690982084
 11
-0.7992220241
 21
15.6317484941
  0
LINE
  5
286
100
AcDbEntity
  8
DRAFT
100
AcDbLine
 62
7
  6
CONTINUOUS
 10
-35.4157064716
 20
-3.308643131
 11
-35.4140996328
 21
-3.3078421865
  0
LINE
  5
287
100
AcDbEntity
  8
DRAFT
100
AcDbLine
 62
7
  6
CONTINUOUS
 10
-34.1429142654
 20
-4.043537399
 11
-34.1413074266
 21
-4.0427364544
  0
LWPOLYLINE
  5
288
100
AcDbEntity
  8
0
100
AcDbPolyline
 62
250
  6
CONTINUOUS
 90
31
 70
0
 10
-25.4558674209
 20
0.7886472842
 10
-25.4749320439
 20
0.779424202
 10
-25.4948765551
 20
0.7707824822
 10
-25.5156474946
 20
0.7627452883
 10
-25.5371891877
 20
0.7553341634
 10
-25.5594438934
 20
0.7485689724
 10
-25.5823519596
 20
0.7424678488
 10
-25.6058519831
 20
0.7370471464
 10
-25.6298809738
 20
0.7323213949
 10
-25.6543745238
 20
0.7283032613
 10
-25.6792669802
 20
0.7250035158
 10
-25.7044916204
 20
0.7224310033
 10
-25.7299808318
 20
0.7205926191
 10
-25.7556662925
 20
0.7194932909
 10
-25.7814791546
 20
0.7191359653
 10
-25.8073502287
 20
0.7195216002
 10
-25.8332101693
 20
0.7206491618
 10
-25.8589896608
 20
0.7225156279
 10
-25.8846196033
 20
0.7251159955
 10
-25.9100312977
 20
0.7284432944
 10
-25.9351566298
 20
0.7324886063
 10
-25.9599282532
 20
0.7372410878
 10
-25.9842797693
 20
0.7426880004
 10
-26.0081459058
 20
0.748814744
 10
-26.0314626913
 20
0.7556048963
 10
-26.0541676269
 20
0.7630402568
 10
-26.0761998539
 20
0.7711008957
 10
-26.0975003164
 20
0.779765207
 10
-26.1180119203
 20
0.7890099666
 10
-26.1376796857
 20
0.7988103948
 10
-26.1564508948
 20
0.8091402221
  0
LWPOLYLINE
  5
289
100
AcDbEntity
  8
DRAFT
100
AcDbPolyline
 62
7
  6
CONTINUOUS
 90
34
 70
0
 10
-35.4140996328
 20
-3.3078421865
 10
-35.3986492632
 20
-3.3008643351
 10
-35.3810117134
 20
-3.2943964362
 10
-35.3627939219
 20
-3.2892394899
 10
-35.3439496375
 20
-3.2853881386
 10
-35.3245252915
 20
-3.2828478399
 10
-35.3046600071
 20
-3.2816348723
 10
-35.2843670633
 20
-3.2817566634
 10
-35.2636333416
 20
-3.2832058748
 10
-35.2425583705
 20
-3.2859766351
 10
-35.2211176782
 20
-3.2900816775
 10
-35.1993358583
 20
-3.2955083366
 10
-35.177386031
 20
-3.3022126407
 10
-35.1552943139
 20
-3.3101929944
 10
-35.1330346675
 20
-3.3194510365
 10
-35.1107019667
 20
-3.329947641
 10
-35.0882662863
 20
-3.3417053142
 10
-35.0657575778
 20
-3.3547015645
 10
-35.0433605191
 20
-3.3688297619
 10
-35.0211052082
 20
-3.3840777276
 10
-34.9989615207
 20
-3.4004576257
 10
-34.9770237875
 20
-3.4178993332
 10
-34.9552663443
 20
-3.4364310604
 10
-34.9337147774
 20
-3.4560245537
 10
-34.9125402831
 20
-3.4765249885
 10
-34.8917672767
 20
-3.4979167412
 10
-34.8713712212
 20
-3.5202153677
 10
-34.8514498786
 20
-3.5433128099
 10
-34.8319904754
 20
-3.5672313454
 10
-34.8130056245
 20
-3.5919486073
 10
-34.7946311682
 20
-3.6172895712
 10
-34.7769123304
 20
-3.6431958638
 10
-34.7598037071
 20
-3.6697257582
 10
-34.7433051986
 20
-3.6968791989
  0
LWPOLYLINE
  5
28A
100
AcDbEntity
  8
DRAFT
100
AcDbPolyline
 62
7
  6
CONTINUOUS
 90
34
 70
0
 10
-34.1413074266
 20
-4.0427364544
 10
-34.1258570571
 20
-4.035758603
 10
-34.1082195073
 20
-4.0292907042
 10
-34.0900017158
 20
-4.0241337579
 10
-34.0711574313
 20
-4.0202824065
 10
-34.0517330853
 20
-4.0177421079
 10
-34.031867801
 20
-4.0165291402
 10
-34.0115748571
 20
-4.0166509314
 10
-33.9908411355
 20
-4.0181001428
 10
-33.9697661644
 20
-4.0208709031
 10
-33.9483254721
 20
-4.0249759455
 10
-33.9265436521
 20
-4.0304026046
 10
-33.9045938249
 20
-4.0371069087
 10
-33.8825021078
 20
-4.0450872624
 10
-33.8602424614
 20
-4.0543453045
 10
-33.8379097606
 20
-4.064841909
 10
-33.8154740801
 20
-4.0765995822
 10
-33.7929653717
 20
-4.0895958325
 10
-33.770568313
 20
-4.1037240298
 10
-33.7483130021
 20
-4.1189719956
 10
-33.7261693146
 20
-4.1353518937
 10
-33.7042315814
 20
-4.1527936012
 10
-33.6824741382
 20
-4.1713253284
 10
-33.6609225712
 20
-4.1909188217
 10
-33.6397480769
 20
-4.2114192565
 10
-33.6189750706
 20
-4.2328110091
 10
-33.5985790151
 20
-4.2551096357
 10
-33.5786576724
 20
-4.2782070779
 10
-33.5591982692
 20
-4.3021256133
 10
-33.5402134183
 20
-4.3268428753
 10
-33.5218389621
 20
-4.3521838392
 10
-33.5041201243
 20
-4.3780901318
 10
-33.487011501
 20
-4.4046200262
 10
-33.4705129924
 20
-4.4317734669
  0
LINE
  5
28B
100
AcDbEntity
  8
0
100
AcDbLine
 62
7
  6
CONTINUOUS
 10
-21.3384375434
 20
-13.2723405617
 11
-21.796636258
 21
-13.245226507
  0
LINE
  5
28C
100
AcDbEntity
  8
RACCORDO
100
AcDbLine
 62
7
  6
CONTINUOUS
 10
-21.693011173
 20
-13.2106460994
 11
-21.1958665347
 21
-13.2454902772
  0
LWPOLYLINE
  5
28D
100
AcDbEntity
  8
RACCORDO
100
AcDbPolyline
 62
7
  6
CONTINUOUS
 90
3
 70
0
 10
-11.210243205
 20
-18.1038621788
 10
-11.1770905498
 20
-18.1212706821
 10
-11.139099465
 20
-18.1369050923
  0
LINE
  5
28E
100
AcDbEntity
  8
RACCORDO
100
AcDbLine
 62
250
  6
CONTINUOUS
 10
-21.693011173
 20
-14.5407582384
 11
-21.796636258
 21
-14.4809264131
  0
LINE
  5
28F
100
AcDbEntity
  8
ASSI
100
AcDbLine
 62
250
  6
CONTINUOUS
 10
-21.1958665347
 20
-13.9611228341
 11
-21.3588436888
 21
-13.8670218679
  0
LINE
  5
290
100
AcDbEntity
  8
RACCORDO
100
AcDbLine
 62
7
  6
CONTINUOUS
 10
-21.796636258
 20
-13.1646117706
 11
-21.7421498499
 21
-13.1960715397
  0
LINE
  5
291
100
AcDbEntity
  8
0
100
AcDbLine
 62
250
  6
CONTINUOUS
 10
-21.3384375434
 20
-13.2723405617
 11
-21.4110631531
 21
-13.2304074449
  0
LINE
  5
292
100
AcDbEntity
  8
0
100
AcDbLine
 62
7
  6
CONTINUOUS
 10
-21.3781576742
 20
-13.2327137442
 11
-21.2800423241
 21
-13.2893643177
  0
LINE
  5
293
100
AcDbEntity
  8
0
100
AcDbLine
 62
250
  6
CONTINUOUS
 10
-13.4702558815
 20
-18.0975762343
 11
-13.9255394421
 21
-17.8345374239
  0
LINE
  5
294
100
AcDbEntity
  8
0
100
AcDbLine
 62
250
  6
CONTINUOUS
 10
-11.3924595513
 20
-19.2561938932
 11
-11.8412392383
 21
-18.9969126777
  0
LINE
  5
295
100
AcDbEntity
  8
0
100
AcDbLine
 62
7
  6
CONTINUOUS
 10
-13.8468400144
 20
-18.1158680354
 11
-13.8476781262
 21
-18.1153187378
  0
LINE
  5
296
100
AcDbEntity
  8
0
100
AcDbLine
 62
7
  6
CONTINUOUS
 10
-11.7643173281
 20
-19.2740940785
 11
-11.76513629
 21
-19.2735573064
  0
LWPOLYLINE
  5
297
100
AcDbEntity
  8
0
100
AcDbPolyline
 62
7
  6
CONTINUOUS
 90
28
 70
0
 10
-11.7642963871
 20
-19.2741053707
 10
-11.7701952147
 20
-19.2699768715
 10
-11.7841064679
 20
-19.2572929322
 10
-11.7971246674
 20
-19.240736473
 10
-11.8098185973
 20
-19.2186711703
 10
-11.8216454184
 20
-19.1901641793
 10
-11.8314436975
 20
-19.1558845342
 10
-11.838478891
 20
-19.1168095947
 10
-11.8423756865
 20
-19.0740326363
 10
-11.8429969878
 20
-19.0278179299
 10
-11.8401462981
 20
-18.9776962928
 10
-11.8335165842
 20
-18.9236907132
 10
-11.8229371759
 20
-18.8667322443
 10
-11.8083026228
 20
-18.8073704624
 10
-11.7895337366
 20
-18.7460674416
 10
-11.7666850197
 20
-18.6835895276
 10
-11.7399990927
 20
-18.6209086525
 10
-11.7096925743
 20
-18.5586810165
 10
-11.6760240639
 20
-18.4975474262
 10
-11.6394721619
 20
-18.4383821282
 10
-11.6004306462
 20
-18.3817521485
 10
-11.5593248781
 20
-18.328196546
 10
-11.5167949805
 20
-18.2784031163
 10
-11.4733349915
 20
-18.2327531236
 10
-11.4294410009
 20
-18.1915702975
 10
-11.3858679178
 20
-18.1552909523
 10
-11.3432823538
 20
-18.1241168218
 10
-11.3148212379
 20
-18.1056398486
  0
LWPOLYLINE
  5
298
100
AcDbEntity
  8
0
100
AcDbPolyline
 62
7
  6
CONTINUOUS
 90
28
 70
0
 10
-13.8468186432
 20
-18.1158795322
 10
-13.8529561728
 20
-18.1115805762
 10
-13.8672910132
 20
-18.0984931993
 10
-13.8806688941
 20
-18.0814511679
 10
-13.8936515172
 20
-18.0588335163
 10
-13.9056950995
 20
-18.0297222455
 10
-13.9156405432
 20
-17.9948022574
 10
-13.9227576796
 20
-17.9550737828
 10
-13.9266790087
 20
-17.9116555801
 10
-13.9272778219
 20
-17.8648123722
 10
-13.9243631984
 20
-17.8140524207
 10
-13.9176292146
 20
-17.7593939514
 10
-13.9069081811
 20
-17.7017808468
 10
-13.8920958818
 20
-17.6417608265
 10
-13.8731144522
 20
-17.579797734
 10
-13.8500203293
 20
-17.5166625415
 10
-13.8230572349
 20
-17.4533289523
 10
-13.7924433407
 20
-17.3904559726
 10
-13.7584385358
 20
-17.3286873111
 10
-13.7215220411
 20
-17.2688991868
 10
-13.6820890701
 20
-17.2116615134
 10
-13.640566265
 20
-17.1575165222
 10
-13.5975943109
 20
-17.1071547485
 10
-13.553669051
 20
-17.060961074
 10
-13.5092876875
 20
-17.0192625148
 10
-13.4652044344
 20
-16.9824982131
 10
-13.4220876038
 20
-16.9508742453
 10
-13.3926173221
 20
-16.9317208215
  0
LWPOLYLINE
  5
299
100
AcDbEntity
  8
0
100
AcDbPolyline
 62
250
  6
CONTINUOUS
 90
31
 70
0
 10
-24.7746797616
 20
1.9502356245
 10
-24.7761396433
 20
1.9712947054
 10
-24.7785464265
 20
1.9928646764
 10
-24.7818935221
 20
2.0148864845
 10
-24.7861717666
 20
2.0372998397
 10
-24.7913694473
 20
2.0600433799
 10
-24.7974723344
 20
2.0830548392
 10
-24.8044637198
 20
2.1062712182
 10
-24.8123244627
 20
2.1296289563
 10
-24.8210330427
 20
2.1530641059
 10
-24.8305656179
 20
2.1765125077
 10
-24.8408960905
 20
2.199909966
 10
-24.8519961784
 20
2.2231924244
 10
-24.8638354925
 20
2.2462961415
 10
-24.8763816196
 20
2.2691578652
 10
-24.8896002118
 20
2.291715006
 10
-24.9034550799
 20
2.3139058081
 10
-24.9179082929
 20
2.3356695187
 10
-24.9329202815
 20
2.3569465544
 10
-24.9484499468
 20
2.3776786639
 10
-24.9644547725
 20
2.3978090882
 10
-24.9808909415
 20
2.4172827151
 10
-24.9977134558
 20
2.4360462307
 10
-25.0148762596
 20
2.4540482655
 10
-25.0323323654
 20
2.4712395342
 10
-25.050033983
 20
2.4875729717
 10
-25.0679326498
 20
2.503003861
 10
-25.0859793638
 20
2.5174899563
 10
-25.1041247177
 20
2.5309915984
 10
-25.122319034
 20
2.5434718231
 10
-25.1405125016
 20
2.5548964629
  0
LINE
  5
29A
100
AcDbEntity
  8
DRAFT
100
AcDbLine
 62
7
  6
CONTINUOUS
 10
-24.9995188866
 20
9.0532540198
 11
-24.9995188866
 21
9.9513713243
  0
LINE
  5
29B
100
AcDbEntity
  8
DRAFT
100
AcDbLine
 62
7
  6
CONTINUOUS
 10
-25.3613238916
 20
13.2613496731
 11
-25.3536654947
 21
13.6951150068
  0
LWPOLYLINE
  5
29C
100
AcDbEntity
  8
0
100
AcDbPolyline
 62
250
  6
CONTINUOUS
 90
22
 70
0
 10
-25.4558674209
 20
0.7886472842
 10
-25.5115651592
 20
-0.8655848212
 10
-25.5614035439
 20
-2.4981144314
 10
-25.605382575
 20
-4.1089415465
 10
-25.6432787396
 20
-5.6917370113
 10
-25.6753155507
 20
-7.2528299811
 10
-25.7021635468
 20
-8.8112079206
 10
-25.724046121
 20
-10.3734760848
 10
-25.7407398803
 20
-11.9330292188
 10
-25.7522451845
 20
-13.4890390231
 10
-25.7586431383
 20
-15.0352308283
 10
-25.759852637
 20
-16.5778793039
 10
-25.7556307257
 20
-18.1349801588
 10
-25.7460765704
 20
-19.7127095645
 10
-25.7310910052
 20
-21.3048913495
 10
-25.7101335772
 20
-22.9109927082
 10
-25.6830993788
 20
-24.5339390926
 10
-25.6500933177
 20
-26.1708050506
 10
-25.6108896642
 20
-27.8122814202
 10
-25.5654131754
 20
-29.4552651475
 10
-25.5137390943
 20
-31.1028592863
 10
-25.4558674209
 20
-32.7550638368
  0
LINE
  5
29D
100
AcDbEntity
  8
ASSI
100
AcDbLine
 62
7
  6
CONTINUOUS
 10
-24.78920133
 20
12.9823314757
 11
-24.7729538706
 21
13.3598193931
  0
LINE
  5
29E
100
AcDbEntity
  8
ASSI
100
AcDbLine
 62
7
  6
CONTINUOUS
 10
-24.7914965973
 20
12.932338535
 11
-24.78920133
 21
12.9823314757
  0
LINE
  5
29F
100
AcDbEntity
  8
DRAFT
100
AcDbLine
 62
7
  6
CONTINUOUS
 10
-16.3850468686
 20
9.6504713353
 11
-16.2747913752
 21
9.8459629625
  0
LINE
  5
2A0
100
AcDbEntity
  8
RACCORDO
100
AcDbLine
 62
7
  6
CONTINUOUS
 10
-17.2561570198
 20
10.625003072
 11
-17.3471182607
 21
10.4651110668
  0
LINE
  5
2A1
100
AcDbEntity
  8
0
100
AcDbLine
 62
250
  6
CONTINUOUS
 10
-19.2662208473
 20
1.0504450525
 11
0.9722030385
 21
12.73589748
  0
LINE
  5
2A2
100
AcDbEntity
  8
DRAFT
100
AcDbLine
 62
7
  6
CONTINUOUS
 10
-32.8701220593
 20
-4.778431667
 11
-32.8685152205
 21
-4.7776307224
  0
LINE
  5
2A3
100
AcDbEntity
  8
DRAFT
100
AcDbLine
 62
7
  6
CONTINUOUS
 10
-31.5973298532
 20
-5.513325935
 11
-31.5957230144
 21
-5.5125249904
  0
LWPOLYLINE
  5
2A4
100
AcDbEntity
  8
DRAFT
100
AcDbPolyline
 62
7
  6
CONTINUOUS
 90
34
 70
0
 10
-32.8685152205
 20
-4.7776307224
 10
-32.8530648509
 20
-4.770652871
 10
-32.8354273011
 20
-4.7641849722
 10
-32.8172095096
 20
-4.7590280259
 10
-32.7983652252
 20
-4.7551766745
 10
-32.7789408792
 20
-4.7526363759
 10
-32.7590755948
 20
-4.7514234082
 10
-32.738782651
 20
-4.7515451994
 10
-32.7180489293
 20
-4.7529944107
 10
-32.6969739582
 20
-4.7557651711
 10
-32.6755332659
 20
-4.7598702135
 10
-32.653751446
 20
-4.7652968726
 10
-32.6318016187
 20
-4.7720011767
 10
-32.6097099016
 20
-4.7799815304
 10
-32.5874502552
 20
-4.7892395725
 10
-32.5651175545
 20
-4.799736177
 10
-32.542681874
 20
-4.8114938502
 10
-32.5201731655
 20
-4.8244901005
 10
-32.4977761068
 20
-4.8386182978
 10
-32.475520796
 20
-4.8538662635
 10
-32.4533771085
 20
-4.8702461617
 10
-32.4314393752
 20
-4.8876878692
 10
-32.4096819321
 20
-4.9062195964
 10
-32.3881303651
 20
-4.9258130897
 10
-32.3669558708
 20
-4.9463135245
 10
-32.3461828645
 20
-4.9677052771
 10
-32.325786809
 20
-4.9900039037
 10
-32.3058654663
 20
-5.0131013458
 10
-32.2864060631
 20
-5.0370198813
 10
-32.2674212122
 20
-5.0617371433
 10
-32.249046756
 20
-5.0870781072
 10
-32.2313279181
 20
-5.1129843998
 10
-32.2142192948
 20
-5.1395142941
 10
-32.1977207863
 20
-5.1666677349
  0
LWPOLYLINE
  5
2A5
100
AcDbEntity
  8
DRAFT
100
AcDbPolyline
 62
7
  6
CONTINUOUS
 90
34
 70
0
 10
-31.5957230144
 20
-5.5125249904
 10
-31.5802726448
 20
-5.505547139
 10
-31.562635095
 20
-5.4990792402
 10
-31.5444173035
 20
-5.4939222939
 10
-31.525573019
 20
-5.4900709425
 10
-31.506148673
 20
-5.4875306439
 10
-31.4862833887
 20
-5.4863176762
 10
-31.4659904449
 20
-5.4864394674
 10
-31.4452567232
 20
-5.4878886787
 10
-31.4241817521
 20
-5.4906594391
 10
-31.4027410598
 20
-5.4947644815
 10
-31.3809592399
 20
-5.5001911406
 10
-31.3590094126
 20
-5.5068954447
 10
-31.3369176955
 20
-5.5148757984
 10
-31.3146580491
 20
-5.5241338405
 10
-31.2923253483
 20
-5.534630445
 10
-31.2698896679
 20
-5.5463881182
 10
-31.2473809594
 20
-5.5593843685
 10
-31.2249839007
 20
-5.5735125658
 10
-31.2027285898
 20
-5.5887605315
 10
-31.1805849023
 20
-5.6051404297
 10
-31.1586471691
 20
-5.6225821372
 10
-31.1368897259
 20
-5.6411138644
 10
-31.115338159
 20
-5.6607073577
 10
-31.0941636647
 20
-5.6812077925
 10
-31.0733906583
 20
-5.7025995451
 10
-31.0529946028
 20
-5.7248981717
 10
-31.0330732602
 20
-5.7479956138
 10
-31.013613857
 20
-5.7719141493
 10
-30.9946290061
 20
-5.7966314113
 10
-30.9762545498
 20
-5.8219723751
 10
-30.958535712
 20
-5.8478786677
 10
-30.9414270887
 20
-5.8744085621
 10
-30.9249285802
 20
-5.9015620029
  0
LWPOLYLINE
  5
2A6
100
AcDbEntity
  8
RACCORDO
100
AcDbPolyline
 62
7
  6
CONTINUOUS
 90
5
 70
0
 10
-10.9905354486
 20
-12.9923629292
 10
-10.9664912116
 20
-12.9994699105
 10
-10.9325119585
 20
-13.0119526602
 10
-10.9014916389
 20
-13.0258052946
 10
-10.8751701055
 20
-13.0398094899
  0
LWPOLYLINE
  5
2A7
100
AcDbEntity
  8
RACCORDO
100
AcDbPolyline
 62
250
  6
CONTINUOUS
 90
13
 70
0
 10
-9.4876937582
 20
-16.9939697014
 10
-9.4684857263
 20
-17.0037243612
 10
-9.4472783703
 20
-17.0119836247
 10
-9.4244186277
 20
-17.0186123759
 10
-9.4002804678
 20
-17.0235021732
 10
-9.3752587739
 20
-17.026573023
 10
-9.3497628833
 20
-17.0277746884
 10
-9.3242098909
 20
-17.0270875108
 10
-9.2990178257
 20
-17.0245227321
 10
-9.2745988121
 20
-17.0201223103
 10
-9.2513523281
 20
-17.0139582331
 10
-9.2296586697
 20
-17.0061313405
 10
-9.20987273
 20
-16.996769675
  0
LINE
  5
2A8
100
AcDbEntity
  8
RACCORDO
100
AcDbLine
 62
7
  6
CONTINUOUS
 10
-11.262695634
 20
-18.0735768254
 11
-11.2102866476
 21
-18.1038371174
  0
LINE
  5
2A9
100
AcDbEntity
  8
RACCORDO
100
AcDbLine
 62
250
  6
CONTINUOUS
 10
-12.8315491385
 20
-16.6979771739
 11
-12.7999282198
 21
-16.7162312865
  0
LINE
  5
2AA
100
AcDbEntity
  8
0
100
AcDbLine
 62
250
  6
CONTINUOUS
 10
-13.4555956246
 20
-15.6551834699
 11
-13.9254794697
 21
-15.3839164266
  0
LINE
  5
2AB
100
AcDbEntity
  8
0
100
AcDbLine
 62
7
  6
CONTINUOUS
 10
-13.8442633988
 20
-15.6728090597
 11
-13.8451208447
 21
-15.6722419926
  0
LWPOLYLINE
  5
2AC
100
AcDbEntity
  8
0
100
AcDbPolyline
 62
7
  6
CONTINUOUS
 90
28
 70
0
 10
-13.844242623
 20
-15.6728196738
 10
-13.8508277628
 20
-15.6681575955
 10
-13.865813005
 20
-15.6543387016
 10
-13.8797383888
 20
-15.6364451405
 10
-13.8931359524
 20
-15.6129055724
 10
-13.9054629009
 20
-15.582846193
 10
-13.9155826214
 20
-15.5469649078
 10
-13.9227840285
 20
-15.5062709181
 10
-13.9267117779
 20
-15.4619049561
 10
-13.927251611
 20
-15.4141289817
 10
-13.924218088
 20
-15.3624116145
 10
-13.9173041997
 20
-15.3067629094
 10
-13.9063445473
 20
-15.248142475
 10
-13.8912339358
 20
-15.1870912789
 10
-13.8718948888
 20
-15.1240775627
 10
-13.8483845808
 20
-15.059876677
 10
-13.8209422259
 20
-14.9954546555
 10
-13.7897842003
 20
-14.9314730564
 10
-13.7551707694
 20
-14.8685834359
 10
-13.7175764289
 20
-14.8076617275
 10
-13.6773926399
 20
-14.7492802971
 10
-13.6350487467
 20
-14.6939946915
 10
-13.5911898383
 20
-14.6425103567
 10
-13.5463145838
 20
-14.5952223238
 10
-13.5009204165
 20
-14.5524659968
 10
-13.4557617075
 20
-14.5146918019
 10
-13.4115110658
 20
-14.4821190669
 10
-13.379866766
 20
-14.4615132328
  0
LINE
  5
2AD
100
AcDbEntity
  8
0
100
AcDbLine
 62
7
  6
CONTINUOUS
 10
-21.796636258
 20
-31.6736559535
 11
-21.796636258
 21
3.7878427099
  0
LWPOLYLINE
  5
2AE
100
AcDbEntity
  8
ASSI
100
AcDbPolyline
 62
7
  6
CONTINUOUS
 90
3
 70
0
 10
-21.3954687715
 20
11.0143069385
 10
-21.3950887803
 20
11.0226134278
 10
-21.3788413209
 20
11.4001013451
  0
LWPOLYLINE
  5
2AF
100
AcDbEntity
  8
0
100
AcDbPolyline
 62
250
  6
CONTINUOUS
 90
17
 70
0
 10
-24.7746797616
 20
-33.157023585
 10
-24.7761396436
 20
-33.178611919
 10
-24.7785464275
 20
-33.1995726053
 10
-24.7818935241
 20
-33.2198482589
 10
-24.7861717697
 20
-33.2393833701
 10
-24.7913694518
 20
-33.258124457
 10
-24.7974723404
 20
-33.2760202111
 10
-24.8044637272
 20
-33.2930216385
 10
-24.8123244718
 20
-33.3090821936
 10
-24.8210330533
 20
-33.3241579066
 10
-24.83056563
 20
-33.3382075042
 10
-24.840896104
 20
-33.3511925222
 10
-24.8519961932
 20
-33.3630774108
 10
-24.8638355083
 20
-33.3738296323
 10
-24.8763816363
 20
-33.3834197498
 10
-24.8896002291
 20
-33.3918215081
 10
-24.8990821874
 20
-33.3969076612
  0
LWPOLYLINE
  5
2B0
100
AcDbEntity
  8
DRAFT
100
AcDbPolyline
 62
7
  6
CONTINUOUS
 90
37
 70
0
 10
-21.1974430754
 20
10.747310662
 10
-21.1994333586
 20
10.7221422762
 10
-21.200076776
 20
10.6963403796
 10
-21.1993733275
 20
10.6699049723
 10
-21.1973120941
 20
10.6427616832
 10
-21.1939039947
 20
10.6149848833
 10
-21.1891817869
 20
10.5867976855
 10
-21.1831299041
 20
10.5581632387
 10
-21.1757639129
 20
10.5291183939
 10
-21.1671632708
 20
10.4999968173
 10
-21.1573157838
 20
10.4708066154
 10
-21.146233646
 20
10.4415396816
 10
-21.1340328975
 20
10.4125053625
 10
-21.1207003277
 20
10.3837035092
 10
-21.1062491472
 20
10.3551342706
 10
-21.0908350286
 20
10.3271074398
 10
-21.0744476017
 20
10.299629685
 10
-21.0570972366
 20
10.2726943381
 10
-21.0389707158
 20
10.2465911881
 10
-21.0200597093
 20
10.2213295795
 10
-21.0003725471
 20
10.1969001678
 10
-20.9801210016
 20
10.1735647089
 10
-20.9592985339
 20
10.1513349153
 10
-20.9379116828
 20
10.1301990746
 10
-20.9161918377
 20
10.1103838045
 10
-20.8941373795
 20
10.0919048623
 10
-20.8717499273
 20
10.0747464907
 10
-20.849265728
 20
10.0590880358
 10
-20.8266830674
 20
10.0449445867
 10
-20.8040036598
 20
10.0323010544
 10
-20.7814688949
 20
10.0212915177
 10
-20.7590808472
 20
10.0119332836
 10
-20.7368374422
 20
10.0042090452
 10
-20.7149738463
 20
9.9982009606
 10
-20.6935684483
 20
9.9939364159
 10
-20.6725428594
 20
9.9913880251
 10
-20.6518970795
 20
9.9905557881
  0
LINE
  5
2B1
100
AcDbEntity
  8
0
100
AcDbLine
 62
250
  6
CONTINUOUS
 10
1.4022273933
 20
12.2552651843
 11
2.4248345455
 21
12.9110158522
  0
LINE
  5
2B2
100
AcDbEntity
  8
0
100
AcDbLine
 62
250
  6
CONTINUOUS
 10
1.4022273933
 20
10.5406776031
 11
2.4248345455
 21
11.1964282709
  0
LINE
  5
2B3
100
AcDbEntity
  8
DRAFT
100
AcDbLine
 62
7
  6
CONTINUOUS
 10
-30.324537647
 20
-6.248220203
 11
-30.3229308082
 21
-6.2474192584
  0
LINE
  5
2B4
100
AcDbEntity
  8
DRAFT
100
AcDbLine
 62
7
  6
CONTINUOUS
 10
-29.0517454409
 20
-6.983114471
 11
-29.0501386021
 21
-6.9823135264
  0
LWPOLYLINE
  5
2B5
100
AcDbEntity
  8
DRAFT
100
AcDbPolyline
 62
7
  6
CONTINUOUS
 90
34
 70
0
 10
-30.3229308082
 20
-6.2474192584
 10
-30.3074804386
 20
-6.240441407
 10
-30.2898428888
 20
-6.2339735082
 10
-30.2716250974
 20
-6.2288165619
 10
-30.2527808129
 20
-6.2249652105
 10
-30.2333564669
 20
-6.2224249119
 10
-30.2134911826
 20
-6.2212119442
 10
-30.1931982387
 20
-6.2213337354
 10
-30.1724645171
 20
-6.2227829467
 10
-30.1513895459
 20
-6.2255537071
 10
-30.1299488537
 20
-6.2296587495
 10
-30.1081670337
 20
-6.2350854086
 10
-30.0862172065
 20
-6.2417897127
 10
-30.0641254894
 20
-6.2497700664
 10
-30.041865843
 20
-6.2590281085
 10
-30.0195331422
 20
-6.269524713
 10
-29.9970974617
 20
-6.2812823862
 10
-29.9745887533
 20
-6.2942786365
 10
-29.9521916946
 20
-6.3084068338
 10
-29.9299363837
 20
-6.3236547995
 10
-29.9077926962
 20
-6.3400346976
 10
-29.885854963
 20
-6.3574764052
 10
-29.8640975198
 20
-6.3760081324
 10
-29.8425459528
 20
-6.3956016256
 10
-29.8213714585
 20
-6.4161020604
 10
-29.8005984522
 20
-6.4374938131
 10
-29.7802023967
 20
-6.4597924396
 10
-29.760281054
 20
-6.4828898818
 10
-29.7408216508
 20
-6.5068084173
 10
-29.7218367999
 20
-6.5315256793
 10
-29.7034623437
 20
-6.5568666431
 10
-29.6857435059
 20
-6.5827729357
 10
-29.6686348826
 20
-6.6093028301
 10
-29.652136374
 20
-6.6364562708
  0
LWPOLYLINE
  5
2B6
100
AcDbEntity
  8
DRAFT
100
AcDbPolyline
 62
7
  6
CONTINUOUS
 90
34
 70
0
 10
-29.0501386021
 20
-6.9823135264
 10
-29.0346882325
 20
-6.975335675
 10
-29.0170506827
 20
-6.9688677761
 10
-28.9988328912
 20
-6.9637108299
 10
-28.9799886068
 20
-6.9598594785
 10
-28.9605642608
 20
-6.9573191799
 10
-28.9406989764
 20
-6.9561062122
 10
-28.9204060326
 20
-6.9562280034
 10
-28.8996723109
 20
-6.9576772147
 10
-28.8785973398
 20
-6.9604479751
 10
-28.8571566475
 20
-6.9645530175
 10
-28.8353748276
 20
-6.9699796766
 10
-28.8134250003
 20
-6.9766839807
 10
-28.7913332832
 20
-6.9846643344
 10
-28.7690736368
 20
-6.9939223765
 10
-28.7467409361
 20
-7.004418981
 10
-28.7243052556
 20
-7.0161766542
 10
-28.7017965471
 20
-7.0291729045
 10
-28.6793994884
 20
-7.0433011018
 10
-28.6571441776
 20
-7.0585490675
 10
-28.6350004901
 20
-7.0749289656
 10
-28.6130627568
 20
-7.0923706732
 10
-28.5913053136
 20
-7.1109024004
 10
-28.5697537467
 20
-7.1304958936
 10
-28.5485792524
 20
-7.1509963284
 10
-28.527806246
 20
-7.1723880811
 10
-28.5074101906
 20
-7.1946867076
 10
-28.4874888479
 20
-7.2177841498
 10
-28.4680294447
 20
-7.2417026853
 10
-28.4490445938
 20
-7.2664199472
 10
-28.4306701376
 20
-7.2917609111
 10
-28.4129512997
 20
-7.3176672037
 10
-28.3958426764
 20
-7.3441970981
 10
-28.3793441679
 20
-7.3713505388
  0
LINE
  5
2B7
100
AcDbEntity
  8
0
100
AcDbLine
 62
250
  6
CONTINUOUS
 10
-13.4555956246
 20
-13.3690666948
 11
-13.9254794697
 21
-13.0977996516
  0
LINE
  5
2B8
100
AcDbEntity
  8
RACCORDO
100
AcDbLine
 62
250
  6
CONTINUOUS
 10
-9.7000843806
 20
-14.7064257101
 11
-9.7386882629
 21
-14.6841363123
  0
LINE
  5
2B9
100
AcDbEntity
  8
RACCORDO
100
AcDbLine
 62
7
  6
CONTINUOUS
 10
-10.9151124477
 20
-13.1968763781
 11
-11.1255431089
 21
-13.0753763517
  0
LINE
  5
2BA
100
AcDbEntity
  8
RACCORDO
100
AcDbLine
 62
250
  6
CONTINUOUS
 10
-11.0525272595
 20
-13.0304804136
 11
-10.8391157383
 21
-13.1537015513
  0
LINE
  5
2BB
100
AcDbEntity
  8
RACCORDO
100
AcDbLine
 62
7
  6
CONTINUOUS
 10
-12.8315491385
 20
-11.9102207539
 11
-12.7535971269
 21
-11.9552292685
  0
LINE
  5
2BC
100
AcDbEntity
  8
RACCORDO
100
AcDbLine
 62
7
  6
CONTINUOUS
 10
-10.8751829354
 20
-13.0398020806
 11
-10.7578633861
 21
-13.107540918
  0
LINE
  5
2BD
100
AcDbEntity
  8
0
100
AcDbLine
 62
7
  6
CONTINUOUS
 10
-13.8442633988
 20
-13.3866922847
 11
-13.8451208447
 21
-13.3861252176
  0
LWPOLYLINE
  5
2BE
100
AcDbEntity
  8
0
100
AcDbPolyline
 62
7
  6
CONTINUOUS
 90
28
 70
0
 10
-13.844242623
 20
-13.3867028987
 10
-13.8508277628
 20
-13.3820408204
 10
-13.865813005
 20
-13.3682219266
 10
-13.8797383888
 20
-13.3503283655
 10
-13.8931359524
 20
-13.3267887974
 10
-13.9054629009
 20
-13.296729418
 10
-13.9155826214
 20
-13.2608481328
 10
-13.9227840285
 20
-13.2201541431
 10
-13.9267117779
 20
-13.1757881811
 10
-13.927251611
 20
-13.1280122067
 10
-13.924218088
 20
-13.0762948395
 10
-13.9173041997
 20
-13.0206461344
 10
-13.9063445473
 20
-12.9620257
 10
-13.8912339358
 20
-12.9009745039
 10
-13.8718948888
 20
-12.8379607877
 10
-13.8483845808
 20
-12.773759902
 10
-13.8209422259
 20
-12.7093378805
 10
-13.7897842003
 20
-12.6453562813
 10
-13.7551707694
 20
-12.5824666609
 10
-13.7175764289
 20
-12.5215449524
 10
-13.6773926399
 20
-12.4631635221
 10
-13.6350487467
 20
-12.4078779165
 10
-13.5911898383
 20
-12.3563935817
 10
-13.5463145838
 20
-12.3091055488
 10
-13.5009204165
 20
-12.2663492218
 10
-13.4557617075
 20
-12.2285750268
 10
-13.4115110658
 20
-12.1960022919
 10
-13.379866766
 20
-12.1753964577
  0
LINE
  5
2BF
100
AcDbEntity
  8
DRAFT
100
AcDbLine
 62
7
  6
CONTINUOUS
 10
-19.7720375722
 20
8.699682114
 11
-19.7720375722
 21
8.3214042391
  0
LINE
  5
2C0
100
AcDbEntity
  8
RACCORDO
100
AcDbLine
 62
7
  6
CONTINUOUS
 10
-19.2662208473
 20
-30.4267134828
 11
-19.2662208473
 21
5.3346842567
  0
LINE
  5
2C1
100
AcDbEntity
  8
DRAFT
100
AcDbLine
 62
7
  6
CONTINUOUS
 10
-20.9884661989
 20
10.3444865005
 11
-20.9783061297
 21
11.1688373456
  0
LINE
  5
2C2
100
AcDbEntity
  8
0
100
AcDbLine
 62
7
  6
CONTINUOUS
 10
1.2257224378
 20
9.5446672482
 11
1.9223476516
 21
10.0088478329
  0
LINE
  5
2C3
100
AcDbEntity
  8
DRAFT
100
AcDbLine
 62
7
  6
CONTINUOUS
 10
-38.5719478075
 20
-15.9415488731
 11
-38.9330011396
 21
-16.1385280064
  0
LINE
  5
2C4
100
AcDbEntity
  8
DRAFT
100
AcDbLine
 62
7
  6
CONTINUOUS
 10
-38.9330011396
 20
-16.1385280064
 11
-39.23408309
 21
-16.3026284187
  0
LINE
  5
2C5
100
AcDbEntity
  8
0
100
AcDbLine
 62
250
  6
CONTINUOUS
 10
-13.4702558815
 20
-10.9126377985
 11
-13.9255394421
 21
-10.6495989881
  0
LWPOLYLINE
  5
2C6
100
AcDbEntity
  8
RACCORDO
100
AcDbPolyline
 62
250
  6
CONTINUOUS
 90
10
 70
0
 10
-8.9756659408
 20
-14.2147902279
 10
-8.9728158461
 20
-14.2165662085
 10
-8.9385791249
 20
-14.2410182591
 10
-8.9067706419
 20
-14.2667278422
 10
-8.877396459
 20
-14.2933919549
 10
-8.8505520157
 20
-14.3206486398
 10
-8.8261963798
 20
-14.3482364632
 10
-8.8043693178
 20
-14.3757628821
 10
-8.7849019371
 20
-14.4030920797
 10
-8.769702456
 20
-14.4269350959
  0
LINE
  5
2C7
100
AcDbEntity
  8
0
100
AcDbLine
 62
7
  6
CONTINUOUS
 10
-13.8468400144
 20
-10.9309295996
 11
-13.8476781262
 21
-10.930380302
  0
LWPOLYLINE
  5
2C8
100
AcDbEntity
  8
0
100
AcDbPolyline
 62
250
  6
CONTINUOUS
 90
8
 70
0
 10
-6.0841776524
 20
-15.6521211036
 10
-6.0891297401
 20
-15.648783181
 10
-6.100652357
 20
-15.6440182705
 10
-6.1139577684
 20
-15.6420273795
 10
-6.1288232311
 20
-15.6428437042
 10
-6.1449999337
 20
-15.6464534454
 10
-6.1622171788
 20
-15.6527960737
 10
-6.180186868
 20
-15.6617653434
  0
LWPOLYLINE
  5
2C9
100
AcDbEntity
  8
0
100
AcDbPolyline
 62
7
  6
CONTINUOUS
 90
28
 70
0
 10
-13.8468186432
 20
-10.9309410964
 10
-13.8529561728
 20
-10.9266421404
 10
-13.8672910132
 20
-10.9135547635
 10
-13.8806688941
 20
-10.8965127322
 10
-13.8936515172
 20
-10.8738950805
 10
-13.9056950995
 20
-10.8447838097
 10
-13.9156405432
 20
-10.8098638216
 10
-13.9227576796
 20
-10.770135347
 10
-13.9266790087
 20
-10.7267171443
 10
-13.9272778219
 20
-10.6798739365
 10
-13.9243631984
 20
-10.6291139849
 10
-13.9176292146
 20
-10.5744555156
 10
-13.9069081811
 20
-10.516842411
 10
-13.8920958818
 20
-10.4568223907
 10
-13.8731144522
 20
-10.3948592982
 10
-13.8500203293
 20
-10.3317241058
 10
-13.8230572349
 20
-10.2683905165
 10
-13.7924433407
 20
-10.2055175369
 10
-13.7584385358
 20
-10.1437488754
 10
-13.7215220411
 20
-10.083960751
 10
-13.6820890701
 20
-10.0267230776
 10
-13.640566265
 20
-9.9725780864
 10
-13.5975943109
 20
-9.9222163127
 10
-13.553669051
 20
-9.8760226382
 10
-13.5092876875
 20
-9.834324079
 10
-13.4652044344
 20
-9.7975597773
 10
-13.4220876038
 20
-9.7659358096
 10
-13.3926173221
 20
-9.7467823857
  0
LINE
  5
2CA
100
AcDbEntity
  8
0
100
AcDbLine
 62
250
  6
CONTINUOUS
 10
-6.4398490278
 20
-15.4589728923
 11
-6.180186868
 21
-15.6617653434
  0
LINE
  5
2CB
100
AcDbEntity
  8
0
100
AcDbLine
 62
7
  6
CONTINUOUS
 10
-6.3842543423
 20
-15.4177653599
 11
-6.0841058694
 21
-15.6521770454
  0
LWPOLYLINE
  5
2CC
100
AcDbEntity
  8
RACCORDO
100
AcDbPolyline
 62
250
  6
CONTINUOUS
 90
5
 70
0
 10
-11.1017945234
 20
-18.0271472407
 10
-11.0878735817
 20
-18.0485875141
 10
-11.0718668228
 20
-18.0683412226
 10
-11.054036106
 20
-18.0860852095
 10
-11.0521868475
 20
-18.0875601854
  0
LINE
  5
2CD
100
AcDbEntity
  8
DRAFT
100
AcDbLine
 62
7
  6
CONTINUOUS
 10
-17.2561570198
 20
10.625003072
 11
-17.2561570198
 21
10.7461133333
  0
LINE
  5
2CE
100
AcDbEntity
  8
RACCORDO
100
AcDbLine
 62
7
  6
CONTINUOUS
 10
-16.8089403161
 20
14.5880941377
 11
-16.8027748061
 21
14.792020289
  0
LINE
  5
2CF
100
AcDbEntity
  8
RACCORDO
100
AcDbLine
 62
250
  6
CONTINUOUS
 10
-16.6588754855
 20
14.5014485853
 11
-16.6550508394
 21
14.627949939
  0
LWPOLYLINE
  5
2D0
100
AcDbEntity
  8
0
100
AcDbPolyline
 62
250
  6
CONTINUOUS
 90
9
 70
0
 10
-3.3940494932
 20
1.9488373647
 10
-3.3806207277
 20
1.9577131847
 10
-3.3435154119
 20
1.9892328631
 10
-3.3115718242
 20
2.0277619067
 10
-3.2851398127
 20
2.0728783498
 10
-3.2645088622
 20
2.1240880824
 10
-3.2499049255
 20
2.1808302602
 10
-3.2414879481
 20
2.2424834467
 10
-3.239350116
 20
2.3083724194
  0
LWPOLYLINE
  5
2D1
100
AcDbEntity
  8
0
100
AcDbPolyline
 62
250
  6
CONTINUOUS
 90
33
 70
0
 10
-3.239350116
 20
2.3083724194
 10
-3.3020458362
 20
2.2684344539
 10
-3.3636025746
 20
2.227443282
 10
-3.4240203311
 20
2.1853989036
 10
-3.4831583633
 20
2.1423411562
 10
-3.5411574136
 20
2.0982302022
 10
-3.5984397092
 20
2.052946529
 10
-3.6551380691
 20
2.0064197547
 10
-3.7111196743
 20
1.958720261
 10
-3.7664082954
 20
1.9099396808
 10
-3.8209831096
 20
1.8601113158
 10
-3.8748649396
 20
1.8092018642
 10
-3.9281400236
 20
1.7572030541
 10
-3.9808143837
 20
1.7041265157
 10
-4.0328819979
 20
1.6499606187
 10
-4.0844110386
 20
1.5946622008
 10
-4.1354004206
 20
1.5382509749
 10
-4.185851229
 20
1.4807072281
 10
-4.2358348919
 20
1.4219286595
 10
-4.2853821261
 20
1.3618940813
 10
-4.3344622148
 20
1.3006246813
 10
-4.383054435
 20
1.238081722
 10
-4.4310430255
 20
1.1744603822
 10
-4.4785437475
 20
1.1095654831
 10
-4.5258831612
 20
1.0427727507
 10
-4.5730547286
 20
0.9741930033
 10
-4.6200649877
 20
0.9037154226
 10
-4.667260113
 20
0.8303832804
 10
-4.7147311253
 20
0.7541884757
 10
-4.7623870039
 20
0.6751391095
 10
-4.8103008604
 20
0.5923027571
 10
-4.8584970654
 20
0.5053686103
 10
-4.9069512483
 20
0.4146474773
  0
LINE
  5
2D2
100
AcDbEntity
  8
0
100
AcDbLine
 62
250
  6
CONTINUOUS
 10
0.8916408041
 20
4.8630391705
 11
-3.239350116
 21
2.3083724194
  0
LINE
  5
2D3
100
AcDbEntity
  8
0
100
AcDbLine
 62
7
  6
CONTINUOUS
 10
0.7369414269
 20
4.5035041158
 11
-3.3940494932
 21
1.9488373647
  0
LWPOLYLINE
  5
2D4
100
AcDbEntity
  8
0
100
AcDbPolyline
 62
250
  6
CONTINUOUS
 90
7
 70
0
 10
-4.8157064744
 20
0.2830122448
 10
-4.8202874165
 20
0.2803679047
 10
-4.8328304589
 20
0.2806922028
 10
-4.8528947076
 20
0.284897352
 10
-4.8802640572
 20
0.2929380599
 10
-4.9146437216
 20
0.3047277228
 10
-4.9556634091
 20
0.3201393582
  0
LINE
  5
2D5
100
AcDbEntity
  8
DRAFT
100
AcDbLine
 62
7
  6
CONTINUOUS
 10
-37.2991555897
 20
-16.6764439931
 11
-37.4976685971
 21
-16.7847728233
  0
LINE
  5
2D6
100
AcDbEntity
  8
DRAFT
100
AcDbLine
 62
7
  6
CONTINUOUS
 10
-36.0263633836
 20
-17.411338261
 11
-36.2248763909
 21
-17.5196670913
  0
LINE
  5
2D7
100
AcDbEntity
  8
DRAFT
100
AcDbLine
 62
7
  6
CONTINUOUS
 10
-37.4976685971
 20
-16.7847728233
 11
-37.6821199932
 21
-16.8853693345
  0
LINE
  5
2D8
100
AcDbEntity
  8
DRAFT
100
AcDbLine
 62
7
  6
CONTINUOUS
 10
-36.2248763909
 20
-17.5196670913
 11
-36.4093277871
 21
-17.6202636025
  0
LINE
  5
2D9
100
AcDbEntity
  8
DRAFT
100
AcDbLine
 62
7
  6
CONTINUOUS
 10
-37.6821199932
 20
-16.8853693345
 11
-37.9612908838
 21
-17.0375226867
  0
LINE
  5
2DA
100
AcDbEntity
  8
DRAFT
100
AcDbLine
 62
7
  6
CONTINUOUS
 10
-36.4093277871
 20
-17.6202636025
 11
-36.6884986777
 21
-17.7724169547
  0
LWPOLYLINE
  5
2DB
100
AcDbEntity
  8
DRAFT
100
AcDbPolyline
 62
7
  6
CONTINUOUS
 90
34
 70
0
 10
-38.561681817
 20
-16.6908644866
 10
-38.5781803279
 20
-16.6983206976
 10
-38.5952889623
 20
-16.7044832073
 10
-38.6130078199
 20
-16.7093520755
 10
-38.6313823131
 20
-16.7129321753
 10
-38.6503672097
 20
-16.7152187413
 10
-38.6698266421
 20
-16.7161973752
 10
-38.6897479796
 20
-16.7158610231
 10
-38.7101440134
 20
-16.714216835
 10
-38.73091701
 20
-16.7112717184
 10
-38.7520915235
 20
-16.7070129877
 10
-38.7736431217
 20
-16.7014534015
 10
-38.7954005859
 20
-16.6946380293
 10
-38.8173383185
 20
-16.6865687669
 10
-38.8394819952
 20
-16.6772437653
 10
-38.8617372975
 20
-16.6667024719
 10
-38.884134354
 20
-16.6549224977
 10
-38.9066430626
 20
-16.6419262476
 10
-38.9290787455
 20
-16.6278203513
 10
-38.9514114552
 20
-16.6126170747
 10
-38.9736711128
 20
-16.5963041363
 10
-38.9957628309
 20
-16.5789513377
 10
-39.0177126371
 20
-16.5605306785
 10
-39.0394944258
 20
-16.5410701124
 10
-39.0609350989
 20
-16.5207233659
 10
-39.0820100802
 20
-16.4995059698
 10
-39.1027438242
 20
-16.4774023204
 10
-39.1230367735
 20
-16.4545194392
 10
-39.1429020282
 20
-16.4308352373
 10
-39.1623263277
 20
-16.4063717074
 10
-39.1811705745
 20
-16.3813019947
 10
-39.1993883457
 20
-16.35568378
 10
-39.2170258841
 20
-16.3294592746
 10
-39.23408309
 20
-16.3026284187
  0
LINE
  5
2DC
100
AcDbEntity
  8
0
100
AcDbLine
 62
250
  6
CONTINUOUS
 10
-40.9812969724
 20
9.3688205483
 11
-26.1564508948
 21
0.8091402221
  0
LINE
  5
2DD
100
AcDbEntity
  8
0
100
AcDbLine
 62
250
  6
CONTINUOUS
 10
-11.3924595513
 20
-7.2540808244
 11
-11.8412392383
 21
-6.9947996088
  0
LWPOLYLINE
  5
2DE
100
AcDbEntity
  8
0
100
AcDbPolyline
 62
250
  6
CONTINUOUS
 90
8
 70
0
 10
-6.0841776524
 20
-13.2869479712
 10
-6.0891297401
 20
-13.2836100486
 10
-6.100652357
 20
-13.278845138
 10
-6.1139577684
 20
-13.2768542471
 10
-6.1288232311
 20
-13.2776705717
 10
-6.1449999337
 20
-13.281280313
 10
-6.1622171788
 20
-13.2876229413
 10
-6.180186868
 20
-13.2965922109
  0
LINE
  5
2DF
100
AcDbEntity
  8
0
100
AcDbLine
 62
250
  6
CONTINUOUS
 10
-6.4398490278
 20
-13.0937997599
 11
-6.180186868
 21
-13.2965922109
  0
LINE
  5
2E0
100
AcDbEntity
  8
0
100
AcDbLine
 62
7
  6
CONTINUOUS
 10
-6.3842543423
 20
-13.0525922275
 11
-6.0841058694
 21
-13.2870039129
  0
LWPOLYLINE
  5
2E1
100
AcDbEntity
  8
0
100
AcDbPolyline
 62
250
  6
CONTINUOUS
 90
4
 70
0
 10
-6.180186868
 20
-15.6617653434
 10
-6.1421418164
 20
-15.694300149
 10
-6.1086885156
 20
-15.7277298521
 10
-6.0798269657
 20
-15.7620544528
  0
LWPOLYLINE
  5
2E2
100
AcDbEntity
  8
0
100
AcDbPolyline
 62
250
  6
CONTINUOUS
 90
4
 70
0
 10
-6.180186868
 20
-13.2965922109
 10
-6.1421418164
 20
-13.3291270165
 10
-6.1086885156
 20
-13.3625567197
 10
-6.0798269657
 20
-13.3968813204
  0
LWPOLYLINE
  5
2E3
100
AcDbEntity
  8
RACCORDO
100
AcDbPolyline
 62
250
  6
CONTINUOUS
 90
7
 70
0
 10
-9.4090164737
 20
-14.4813504187
 10
-9.380473063
 20
-14.5083400771
 10
-9.3473333231
 20
-14.5444108934
 10
-9.315727541
 20
-14.5837379746
 10
-9.2860556963
 20
-14.6258365173
 10
-9.2586571513
 20
-14.6702224648
 10
-9.2444684759
 20
-14.6966172687
  0
LWPOLYLINE
  5
2E4
100
AcDbEntity
  8
RACCORDO
100
AcDbPolyline
 62
250
  6
CONTINUOUS
 90
3
 70
0
 10
-10.4017261208
 20
-12.6303162316
 10
-10.3852575965
 20
-12.6461192914
 10
-10.3681205292
 20
-12.6646393187
  0
LWPOLYLINE
  5
2E5
100
AcDbEntity
  8
RACCORDO
100
AcDbPolyline
 62
250
  6
CONTINUOUS
 90
8
 70
0
 10
-10.3681205292
 20
-12.6646393187
 10
-10.3514266763
 20
-12.684892279
 10
-10.3352757188
 20
-12.7069106822
 10
-10.3199578675
 20
-12.7304633774
 10
-10.3056317023
 20
-12.7554782594
 10
-10.29250436
 20
-12.7818050042
 10
-10.2808152229
 20
-12.809202797
 10
-10.2727374039
 20
-12.8319338498
  0
LWPOLYLINE
  5
2E6
100
AcDbEntity
  8
RACCORDO
100
AcDbPolyline
 62
250
  6
CONTINUOUS
 90
5
 70
0
 10
-9.5497879434
 20
-17.1312112894
 10
-9.535867281
 20
-17.1526511876
 10
-9.5198608102
 20
-17.172404657
 10
-9.5020303567
 20
-17.1901485341
 10
-9.489355718
 20
-17.2002579875
  0
LWPOLYLINE
  5
2E7
100
AcDbEntity
  8
0
100
AcDbPolyline
 62
250
  6
CONTINUOUS
 90
18
 70
0
 10
-13.9796702319
 20
-15.5908992578
 10
-13.9834063132
 20
-15.5287587927
 10
-13.982291565
 20
-15.4635441192
 10
-13.9764127067
 20
-15.3953077102
 10
-13.9658387242
 20
-15.3254391738
 10
-13.9504558916
 20
-15.2538428385
 10
-13.9303779347
 20
-15.1806143757
 10
-13.9060150168
 20
-15.1074304083
 10
-13.8772352618
 20
-15.0342636804
 10
-13.8441705458
 20
-14.9611414478
 10
-13.8076266599
 20
-14.8898221002
 10
-13.7678062124
 20
-14.8206589049
 10
-13.724506595
 20
-14.7532985947
 10
-13.6779257745
 20
-14.6884397577
 10
-13.6277334502
 20
-14.6256460215
 10
-13.5742599227
 20
-14.5653537585
 10
-13.5186940609
 20
-14.5095706737
 10
-13.4614321544
 20
-14.4589660024
  0
LWPOLYLINE
  5
2E8
100
AcDbEntity
  8
0
100
AcDbPolyline
 62
250
  6
CONTINUOUS
 90
18
 70
0
 10
-13.9796702319
 20
-13.3047824828
 10
-13.9834063132
 20
-13.2426420177
 10
-13.982291565
 20
-13.1774273442
 10
-13.9764127067
 20
-13.1091909352
 10
-13.9658387242
 20
-13.0393223987
 10
-13.9504558915
 20
-12.9677260634
 10
-13.9303779347
 20
-12.8944976007
 10
-13.9060150168
 20
-12.8213136333
 10
-13.8772352618
 20
-12.7481469054
 10
-13.8441705458
 20
-12.6750246728
 10
-13.8076266599
 20
-12.6037053252
 10
-13.7678062124
 20
-12.5345421299
 10
-13.724506595
 20
-12.4671818197
 10
-13.6779257745
 20
-12.4023229826
 10
-13.6277334502
 20
-12.3395292464
 10
-13.5742599227
 20
-12.2792369834
 10
-13.5186940609
 20
-12.2234538987
 10
-13.4614321544
 20
-12.1728492274
  0
LWPOLYLINE
  5
2E9
100
AcDbEntity
  8
0
100
AcDbPolyline
 62
250
  6
CONTINUOUS
 90
17
 70
0
 10
-13.9797587602
 20
-18.0388011785
 10
-13.9834109428
 20
-17.9778098886
 10
-13.9823182071
 20
-17.9138164779
 10
-13.9765672171
 20
-17.8468744011
 10
-13.9662334356
 20
-17.7783566658
 10
-13.9512059867
 20
-17.7081755587
 10
-13.9315957462
 20
-17.636418793
 10
-13.9078108045
 20
-17.5647225166
 10
-13.879738568
 20
-17.493081512
 10
-13.8474916302
 20
-17.4215009967
 10
-13.8118158619
 20
-17.3516327714
 10
-13.7729119319
 20
-17.2838036863
 10
-13.7305791713
 20
-17.2176868913
 10
-13.6849614438
 20
-17.1539536365
 10
-13.6357048009
 20
-17.0921403376
 10
-13.5831631911
 20
-17.0327105789
 10
-13.5285423236
 20
-16.9777263627
  0
LINE
  5
2EA
100
AcDbEntity
  8
RACCORDO
100
AcDbLine
 62
250
  6
CONTINUOUS
 10
-14.5639069046
 20
13.2918399827
 11
-14.5639069046
 21
13.4205496392
  0
LINE
  5
2EB
100
AcDbEntity
  8
0
100
AcDbLine
 62
7
  6
CONTINUOUS
 10
-21.796636258
 20
-14.4350664055
 11
-21.3384375434
 21
-13.8405444898
  0
LINE
  5
2EC
100
AcDbEntity
  8
RACCORDO
100
AcDbLine
 62
7
  6
CONTINUOUS
 10
-21.1958665347
 20
-13.9611228341
 11
-21.693011173
 21
-14.5407582384
  0
LINE
  5
2ED
100
AcDbEntity
  8
0
100
AcDbLine
 62
250
  6
CONTINUOUS
 10
-11.3355747372
 20
-6.0539558585
 11
-11.2756135547
 21
-6.0133147789
  0
LWPOLYLINE
  5
2EE
100
AcDbEntity
  8
0
100
AcDbPolyline
 62
250
  6
CONTINUOUS
 90
10
 70
0
 10
-6.05600106
 20
-2.3542736545
 10
-6.0102445883
 20
-2.324441322
 10
-5.9691116228
 20
-2.2924429377
 10
-5.9329082964
 20
-2.2585166502
 10
-5.9019040534
 20
-2.2229149568
 10
-5.8763296435
 20
-2.1859028239
 10
-5.8563754049
 20
-2.1477557151
 10
-5.8421898474
 20
-2.1087575411
 10
-5.8338785473
 20
-2.0691985469
 10
-5.8314729003
 20
-2.0334040249
  0
LINE
  5
2EF
100
AcDbEntity
  8
0
100
AcDbLine
 62
250
  6
CONTINUOUS
 10
-11.2756135547
 20
-6.0133147789
 11
-6.05600106
 21
-2.8026555159
  0
LINE
  5
2F0
100
AcDbEntity
  8
0
100
AcDbLine
 62
7
  6
CONTINUOUS
 10
-11.3146954088
 20
-6.1034495714
 11
-6.0950828859
 21
-2.892790291
  0
LWPOLYLINE
  5
2F1
100
AcDbEntity
  8
0
100
AcDbPolyline
 62
7
  6
CONTINUOUS
 90
8
 70
0
 10
-6.4398490278
 20
-3.4568598235
 10
-6.4243536112
 20
-3.4476347391
 10
-6.410896797
 20
-3.4392596133
 10
-6.3998088824
 20
-3.4318549852
 10
-6.391374586
 20
-3.4256426489
 10
-6.3859373317
 20
-3.4207340923
 10
-6.3837572594
 20
-3.4171463155
 10
-6.3837169887
 20
-3.4167164831
  0
LINE
  5
2F2
100
AcDbEntity
  8
0
100
AcDbLine
 62
7
  6
CONTINUOUS
 10
-6.4398490278
 20
-3.4568598235
 11
-7.2065146942
 21
-3.9020548807
  0
LWPOLYLINE
  5
2F3
100
AcDbEntity
  8
0
100
AcDbPolyline
 62
250
  6
CONTINUOUS
 90
8
 70
0
 10
-5.6559738179
 20
-1.3961969883
 10
-5.6605547599
 20
-1.3988413285
 10
-5.6704803281
 20
-1.3988411966
 10
-5.6856499734
 20
-1.396142864
 10
-5.7059502014
 20
-1.3907665187
 10
-5.7312291322
 20
-1.3827523849
 10
-5.7612976369
 20
-1.3721604218
 10
-5.7959307526
 20
-1.3590698749
  0
LINE
  5
2F4
100
AcDbEntity
  8
0
100
AcDbLine
 62
7
  6
CONTINUOUS
 10
-11.619773695
 20
-6.4076963012
 11
-7.2065146942
 21
-3.9020548807
  0
LINE
  5
2F5
100
AcDbEntity
  8
DRAFT
100
AcDbLine
 62
7
  6
CONTINUOUS
 10
-34.7535711774
 20
-18.146232529
 11
-34.9520841848
 21
-18.2545613593
  0
LINE
  5
2F6
100
AcDbEntity
  8
DRAFT
100
AcDbLine
 62
7
  6
CONTINUOUS
 10
-33.4807789713
 20
-18.881126797
 11
-33.6792919787
 21
-18.9894556273
  0
LINE
  5
2F7
100
AcDbEntity
  8
DRAFT
100
AcDbLine
 62
7
  6
CONTINUOUS
 10
-34.9520841848
 20
-18.2545613593
 11
-35.136535581
 21
-18.3551578705
  0
LINE
  5
2F8
100
AcDbEntity
  8
DRAFT
100
AcDbLine
 62
7
  6
CONTINUOUS
 10
-33.6792919787
 20
-18.9894556273
 11
-33.8637433748
 21
-19.0900521385
  0
LINE
  5
2F9
100
AcDbEntity
  8
DRAFT
100
AcDbLine
 62
7
  6
CONTINUOUS
 10
-35.136535581
 20
-18.3551578705
 11
-35.4157064716
 21
-18.5073112227
  0
LINE
  5
2FA
100
AcDbEntity
  8
DRAFT
100
AcDbLine
 62
7
  6
CONTINUOUS
 10
-33.8637433748
 20
-19.0900521385
 11
-34.1429142654
 21
-19.2422054907
  0
LWPOLYLINE
  5
2FB
100
AcDbEntity
  8
0
100
AcDbPolyline
 62
250
  6
CONTINUOUS
 90
11
 70
0
 10
-11.3924588494
 20
-7.2540812298
 10
-11.4356063616
 20
-7.2745616732
 10
-11.4784660924
 20
-7.2910651503
 10
-11.5208024777
 20
-7.3033737376
 10
-11.562457983
 20
-7.3112544488
 10
-11.6031020168
 20
-7.3145767362
 10
-11.6422446612
 20
-7.3133365565
 10
-11.6797023012
 20
-7.3074416921
 10
-11.7151863218
 20
-7.2968305194
 10
-11.7481054285
 20
-7.2817046373
 10
-11.7643173281
 20
-7.2719810097
  0
LWPOLYLINE
  5
2FC
100
AcDbEntity
  8
DRAFT
100
AcDbPolyline
 62
7
  6
CONTINUOUS
 90
34
 70
0
 10
-37.2888896108
 20
-17.4257587545
 10
-37.3053881217
 20
-17.4332149656
 10
-37.3224967561
 20
-17.4393774753
 10
-37.3402156138
 20
-17.4442463435
 10
-37.358590107
 20
-17.4478264432
 10
-37.3775750036
 20
-17.4501130093
 10
-37.397034436
 20
-17.4510916432
 10
-37.4169557735
 20
-17.4507552911
 10
-37.4373518073
 20
-17.449111103
 10
-37.4581248039
 20
-17.4461659864
 10
-37.4792993174
 20
-17.4419072557
 10
-37.5008509156
 20
-17.4363476695
 10
-37.5226083798
 20
-17.4295322973
 10
-37.5445461123
 20
-17.4214630349
 10
-37.566689789
 20
-17.4121380333
 10
-37.5889450913
 20
-17.4015967399
 10
-37.6113421479
 20
-17.3898167657
 10
-37.6338508565
 20
-17.3768205155
 10
-37.6562865394
 20
-17.3627146193
 10
-37.6786192491
 20
-17.3475113427
 10
-37.7008789067
 20
-17.3311984043
 10
-37.7229706247
 20
-17.3138456057
 10
-37.744920431
 20
-17.2954249465
 10
-37.7667022196
 20
-17.2759643803
 10
-37.7881428928
 20
-17.2556176339
 10
-37.8092178741
 20
-17.2344002378
 10
-37.8299516181
 20
-17.2122965884
 10
-37.8502445674
 20
-17.1894137072
 10
-37.8701098221
 20
-17.1657295053
 10
-37.8895341216
 20
-17.1412659754
 10
-37.9083783684
 20
-17.1161962627
 10
-37.9265961396
 20
-17.090578048
 10
-37.944233678
 20
-17.0643535426
 10
-37.9612908838
 20
-17.0375226867
  0
LWPOLYLINE
  5
2FD
100
AcDbEntity
  8
DRAFT
100
AcDbPolyline
 62
7
  6
CONTINUOUS
 90
34
 70
0
 10
-36.0160974047
 20
-18.1606530225
 10
-36.0325959156
 20
-18.1681092336
 10
-36.04970455
 20
-18.1742717433
 10
-36.0674234076
 20
-18.1791406115
 10
-36.0857979009
 20
-18.1827207112
 10
-36.1047827974
 20
-18.1850072773
 10
-36.1242422299
 20
-18.1859859111
 10
-36.1441635673
 20
-18.1856495591
 10
-36.1645596011
 20
-18.184005371
 10
-36.1853325978
 20
-18.1810602544
 10
-36.2065071113
 20
-18.1768015237
 10
-36.2280587094
 20
-18.1712419375
 10
-36.2498161736
 20
-18.1644265653
 10
-36.2717539062
 20
-18.1563573029
 10
-36.2938975829
 20
-18.1470323013
 10
-36.3161528852
 20
-18.1364910079
 10
-36.3385499418
 20
-18.1247110337
 10
-36.3610586503
 20
-18.1117147835
 10
-36.3834943332
 20
-18.0976088873
 10
-36.4058270429
 20
-18.0824056107
 10
-36.4280867005
 20
-18.0660926723
 10
-36.4501784186
 20
-18.0487398737
 10
-36.4721282249
 20
-18.0303192145
 10
-36.4939100135
 20
-18.0108586483
 10
-36.5153506867
 20
-17.9905119019
 10
-36.536425668
 20
-17.9692945058
 10
-36.557159412
 20
-17.9471908563
 10
-36.5774523613
 20
-17.9243079752
 10
-36.597317616
 20
-17.9006237732
 10
-36.6167419154
 20
-17.8761602434
 10
-36.6355861622
 20
-17.8510905307
 10
-36.6538039335
 20
-17.825472316
 10
-36.6714414719
 20
-17.7992478106
 10
-36.6884986777
 20
-17.7724169547
  0
LINE
  5
2FE
100
AcDbEntity
  8
0
100
AcDbLine
 62
250
  6
CONTINUOUS
 10
-39.9887309623
 20
11.1280717102
 11
-25.1405125016
 21
2.5548964629
  0
LINE
  5
2FF
100
AcDbEntity
  8
0
100
AcDbLine
 62
7
  6
CONTINUOUS
 10
-11.7643173281
 20
-7.2719810097
 11
-11.76513629
 21
-7.2714442375
  0
LWPOLYLINE
  5
300
100
AcDbEntity
  8
0
100
AcDbPolyline
 62
250
  6
CONTINUOUS
 90
8
 70
0
 10
-6.0826144263
 20
-10.8431817229
 10
-6.0878105574
 20
-10.8396524128
 10
-6.0991709361
 20
-10.8350155029
 10
-6.1123389019
 20
-10.8331330527
 10
-6.1270940117
 20
-10.8340364459
 10
-6.1431892999
 20
-10.8377104293
 10
-6.1603554301
 20
-10.8440934014
 10
-6.1783051576
 20
-10.8530784441
  0
LWPOLYLINE
  5
301
100
AcDbEntity
  8
0
100
AcDbPolyline
 62
250
  6
CONTINUOUS
 90
8
 70
0
 10
-6.0826144263
 20
-8.5570649479
 10
-6.0878105574
 20
-8.5535356377
 10
-6.0991709361
 20
-8.5488987279
 10
-6.1123389019
 20
-8.5470162777
 10
-6.1270940117
 20
-8.5479196709
 10
-6.1431892999
 20
-8.5515936543
 10
-6.1603554301
 20
-8.5579766264
 10
-6.1783051576
 20
-8.5669616691
  0
LWPOLYLINE
  5
302
100
AcDbEntity
  8
0
100
AcDbPolyline
 62
7
  6
CONTINUOUS
 90
28
 70
0
 10
-11.7642963871
 20
-7.2719923019
 10
-11.7701952147
 20
-7.2678638027
 10
-11.7841064679
 20
-7.2551798634
 10
-11.7971246674
 20
-7.2386234041
 10
-11.8098185973
 20
-7.2165581014
 10
-11.8216454184
 20
-7.1880511105
 10
-11.8314436975
 20
-7.1537714654
 10
-11.838478891
 20
-7.1146965259
 10
-11.8423756865
 20
-7.0719195674
 10
-11.8429969878
 20
-7.0257048611
 10
-11.8401462981
 20
-6.9755832239
 10
-11.8335165842
 20
-6.9215776444
 10
-11.8229371759
 20
-6.8646191754
 10
-11.8083026228
 20
-6.8052573935
 10
-11.7895337366
 20
-6.7439543727
 10
-11.7666850197
 20
-6.6814764588
 10
-11.7399990927
 20
-6.6187955837
 10
-11.7096925743
 20
-6.5565679477
 10
-11.6760240639
 20
-6.4954343574
 10
-11.6394721619
 20
-6.4362690593
 10
-11.6004306462
 20
-6.3796390796
 10
-11.5593248781
 20
-6.3260834772
 10
-11.5167949805
 20
-6.2762900475
 10
-11.4733349915
 20
-6.2306400548
 10
-11.4294410009
 20
-6.1894572287
 10
-11.3858679178
 20
-6.1531778834
 10
-11.3432823538
 20
-6.122003753
 10
-11.3148212379
 20
-6.1035267798
  0
LINE
  5
303
100
AcDbEntity
  8
0
100
AcDbLine
 62
250
  6
CONTINUOUS
 10
-6.4398490278
 20
-10.644593172
 11
-6.1783051576
 21
-10.8530784441
  0
LINE
  5
304
100
AcDbEntity
  8
0
100
AcDbLine
 62
7
  6
CONTINUOUS
 10
-6.3843240835
 20
-10.6026788482
 11
-6.0825433859
 21
-10.8432382267
  0
LWPOLYLINE
  5
305
100
AcDbEntity
  8
0
100
AcDbPolyline
 62
250
  6
CONTINUOUS
 90
4
 70
0
 10
-6.1783051576
 20
-10.8530784441
 10
-6.1402134184
 20
-10.886311912
 10
-6.1067275966
 20
-10.9204132555
 10
-6.0778476921
 20
-10.9553824745
  0
LWPOLYLINE
  5
306
100
AcDbEntity
  8
DRAFT
100
AcDbPolyline
 62
7
  6
CONTINUOUS
 90
3
 70
0
 10
-24.1505335123
 20
9.3169936102
 10
-24.037015073
 20
9.163729571
 10
-23.999291932
 20
9.1125076713
  0
LINE
  5
307
100
AcDbEntity
  8
DRAFT
100
AcDbLine
 62
7
  6
CONTINUOUS
 10
-23.4782703914
 20
8.3897719291
 11
-23.3657950248
 21
8.2299027606
  0
LWPOLYLINE
  5
308
100
AcDbEntity
  8
DRAFT
100
AcDbPolyline
 62
7
  6
CONTINUOUS
 90
3
 70
0
 10
-23.3657950248
 20
8.2299027606
 10
-23.2539010213
 20
8.0694578391
 10
-23.226018822
 20
8.0292573097
  0
LWPOLYLINE
  5
309
100
AcDbEntity
  8
0
100
AcDbPolyline
 62
250
  6
CONTINUOUS
 90
3
 70
0
 10
-11.7974279169
 20
-11.2023876716
 10
-11.7947700122
 20
-11.2066249984
 10
-11.7063003319
 20
-11.3602448526
  0
LWPOLYLINE
  5
30A
100
AcDbEntity
  8
RACCORDO
100
AcDbPolyline
 62
7
  6
CONTINUOUS
 90
7
 70
0
 10
-8.8809571607
 20
-14.4901313004
 10
-8.8863678093
 20
-14.4810594667
 10
-8.918348525
 20
-14.4345789391
 10
-8.9540851455
 20
-14.3893692802
 10
-8.9930892606
 20
-14.3460902166
 10
-9.034484435
 20
-14.3057610672
 10
-9.0717331264
 20
-14.2738825455
  0
LWPOLYLINE
  5
30B
100
AcDbEntity
  8
RACCORDO
100
AcDbPolyline
 62
250
  6
CONTINUOUS
 90
11
 70
0
 10
-9.5477991112
 20
-14.8689187
 10
-9.5583499811
 20
-14.8508440022
 10
-9.5713801666
 20
-14.8307106849
 10
-9.5849185081
 20
-14.8120086197
 10
-9.5990434242
 20
-14.7942919204
 10
-9.6136397003
 20
-14.7774625853
 10
-9.6288225511
 20
-14.761618616
 10
-9.6450160383
 20
-14.746608132
 10
-9.6623615159
 20
-14.7323805062
 10
-9.68071763
 20
-14.7189863656
 10
-9.7000843806
 20
-14.7064257101
  0
LWPOLYLINE
  5
30C
100
AcDbEntity
  8
RACCORDO
100
AcDbPolyline
 62
250
  6
CONTINUOUS
 90
9
 70
0
 10
-9.3072514244
 20
-14.7322799767
 10
-9.3240323843
 20
-14.7028813961
 10
-9.3454979814
 20
-14.6690958212
 10
-9.3674673792
 20
-14.6377988915
 10
-9.3905316823
 20
-14.6079413061
 10
-9.4145005054
 20
-14.5797514198
 10
-9.4392777672
 20
-14.5533257835
 10
-9.4658259288
 20
-14.527779776
 10
-9.4736208604
 20
-14.5210895129
  0
LWPOLYLINE
  5
30D
100
AcDbEntity
  8
0
100
AcDbPolyline
 62
250
  6
CONTINUOUS
 90
3
 70
0
 10
-12.598753349
 20
-11.8672602847
 10
-12.6271292974
 20
-11.8175219235
 10
-12.6729270139
 20
-11.7407139884
  0
LWPOLYLINE
  5
30E
100
AcDbEntity
  8
0
100
AcDbPolyline
 62
250
  6
CONTINUOUS
 90
3
 70
0
 10
-11.945073866
 20
-11.4958955415
 10
-11.9603232268
 20
-11.4689178073
 10
-12.032352772
 20
-11.3468381141
  0
LWPOLYLINE
  5
30F
100
AcDbEntity
  8
0
100
AcDbPolyline
 62
250
  6
CONTINUOUS
 90
3
 70
0
 10
-12.2388065971
 20
-11.662769343
 10
-12.2520664661
 20
-11.6392990881
 10
-12.3201732306
 20
-11.523812971
  0
LWPOLYLINE
  5
310
100
AcDbEntity
  8
RACCORDO
100
AcDbPolyline
 62
250
  6
CONTINUOUS
 90
6
 70
0
 10
-11.2434024602
 20
-18.0617093147
 10
-11.2414060226
 20
-18.0675135794
 10
-11.2335716823
 20
-18.0818150103
 10
-11.2237203828
 20
-18.0936433931
 10
-11.2120132512
 20
-18.1028051604
 10
-11.2102866476
 20
-18.1038371174
  0
LWPOLYLINE
  5
311
100
AcDbEntity
  8
0
100
AcDbPolyline
 62
250
  6
CONTINUOUS
 90
17
 70
0
 10
-13.9797587602
 20
-10.8538627428
 10
-13.9834109428
 20
-10.7928714529
 10
-13.9823182071
 20
-10.7288780422
 10
-13.9765672171
 20
-10.6619359654
 10
-13.9662334356
 20
-10.5934182301
 10
-13.9512059867
 20
-10.5232371229
 10
-13.9315957462
 20
-10.4514803572
 10
-13.9078108045
 20
-10.3797840809
 10
-13.879738568
 20
-10.3081430762
 10
-13.8474916302
 20
-10.2365625609
 10
-13.8118158619
 20
-10.1666943356
 10
-13.7729119319
 20
-10.0988652505
 10
-13.7305791713
 20
-10.0327484556
 10
-13.6849614438
 20
-9.9690152007
 10
-13.6357048009
 20
-9.9072019018
 10
-13.583163191
 20
-9.8477721431
 10
-13.5285423236
 20
-9.7927879269
  0
LWPOLYLINE
  5
312
100
AcDbEntity
  8
0
100
AcDbPolyline
 62
250
  6
CONTINUOUS
 90
10
 70
0
 10
-13.353409885
 20
-18.3258304073
 10
-13.3548229442
 20
-18.2994536846
 10
-13.3596567559
 20
-18.2717843558
 10
-13.3677951444
 20
-18.2434868687
 10
-13.3790425768
 20
-18.2152407509
 10
-13.3931288986
 20
-18.187724201
 10
-13.4097158539
 20
-18.161597815
 10
-13.4284051467
 20
-18.1374888535
 10
-13.4487479785
 20
-18.1159761705
 10
-13.4702558815
 20
-18.0975762343
  0
LWPOLYLINE
  5
313
100
AcDbEntity
  8
0
100
AcDbPolyline
 62
250
  6
CONTINUOUS
 90
10
 70
0
 10
-13.353409885
 20
-11.1408919716
 10
-13.3548229442
 20
-11.1145152488
 10
-13.3596567559
 20
-11.08684592
 10
-13.3677951444
 20
-11.0585484329
 10
-13.3790425768
 20
-11.0303023151
 10
-13.3931288986
 20
-11.0027857652
 10
-13.4097158539
 20
-10.9766593792
 10
-13.4284051467
 20
-10.9525504178
 10
-13.4487479785
 20
-10.9310377347
 10
-13.4702558815
 20
-10.9126377985
  0
LWPOLYLINE
  5
314
100
AcDbEntity
  8
0
100
AcDbPolyline
 62
250
  6
CONTINUOUS
 90
10
 70
0
 10
-11.2756135547
 20
-19.4844480663
 10
-11.2770266142
 20
-19.4580713396
 10
-11.281860427
 20
-19.4304020076
 10
-11.2899988168
 20
-19.4021045185
 10
-11.3012462505
 20
-19.3738584001
 10
-11.315332573
 20
-19.3463418509
 10
-11.3319195284
 20
-19.3202154666
 10
-11.3506088204
 20
-19.2961065073
 10
-11.3709516507
 20
-19.2745938269
 10
-11.3924595513
 20
-19.2561938932
  0
LWPOLYLINE
  5
315
100
AcDbEntity
  8
0
100
AcDbPolyline
 62
250
  6
CONTINUOUS
 90
10
 70
0
 10
-13.3406313384
 20
-15.8819528805
 10
-13.3420184173
 20
-15.8558414974
 10
-13.3467610148
 20
-15.8284561306
 10
-13.3547473445
 20
-15.8004417494
 10
-13.3657892236
 20
-15.7724581333
 10
-13.3796265413
 20
-15.7451642484
 10
-13.3959334163
 20
-15.7192027397
 10
-13.4143258136
 20
-15.6951849165
 10
-13.4343705657
 20
-15.673676348
 10
-13.4555956246
 20
-15.6551834699
  0
LWPOLYLINE
  5
316
100
AcDbEntity
  8
0
100
AcDbPolyline
 62
250
  6
CONTINUOUS
 90
10
 70
0
 10
-13.3406313384
 20
-13.5958361055
 10
-13.3420184173
 20
-13.5697247223
 10
-13.3467610148
 20
-13.5423393555
 10
-13.3547473445
 20
-13.5143249744
 10
-13.3657892236
 20
-13.4863413583
 10
-13.3796265413
 20
-13.4590474734
 10
-13.3959334163
 20
-13.4330859647
 10
-13.4143258136
 20
-13.4090681415
 10
-13.4343705657
 20
-13.387559573
 10
-13.4555956246
 20
-13.3690666948
  0
LINE
  5
317
100
AcDbEntity
  8
0
100
AcDbLine
 62
7
  6
CONTINUOUS
 10
-13.3265238854
 20
-9.7061275455
 11
-13.3265238854
 21
-9.8304159078
  0
LINE
  5
318
100
AcDbEntity
  8
0
100
AcDbLine
 62
7
  6
CONTINUOUS
 10
-13.3265238854
 20
-12.1425972088
 11
-13.3265238854
 21
-12.2807172242
  0
LINE
  5
319
100
AcDbEntity
  8
0
100
AcDbLine
 62
7
  6
CONTINUOUS
 10
-13.3265238854
 20
-14.4287139838
 11
-13.3265238854
 21
-14.5668339992
  0
LINE
  5
31A
100
AcDbEntity
  8
0
100
AcDbLine
 62
7
  6
CONTINUOUS
 10
-13.3265238854
 20
-16.8910659813
 11
-13.3265238854
 21
-17.0153543435
  0
LINE
  5
31B
100
AcDbEntity
  8
0
100
AcDbLine
 62
7
  6
CONTINUOUS
 10
-12.8315491385
 20
-16.7341929722
 11
-12.8315491385
 21
-16.5865998437
  0
LINE
  5
31C
100
AcDbEntity
  8
0
100
AcDbLine
 62
7
  6
CONTINUOUS
 10
-12.8315491385
 20
-14.2856317058
 11
-12.8315491385
 21
-14.1243642325
  0
LINE
  5
31D
100
AcDbEntity
  8
0
100
AcDbLine
 62
7
  6
CONTINUOUS
 10
-12.8315491385
 20
-11.9995149308
 11
-12.8315491385
 21
-11.8382474575
  0
LINE
  5
31E
100
AcDbEntity
  8
0
100
AcDbLine
 62
7
  6
CONTINUOUS
 10
-12.8315491385
 20
-9.5492545365
 11
-12.8315491385
 21
-9.401661408
  0
LWPOLYLINE
  5
31F
100
AcDbEntity
  8
0
100
AcDbPolyline
 62
250
  6
CONTINUOUS
 90
6
 70
0
 10
-13.3406313384
 20
-12.0851674195
 10
-13.3420183254
 20
-12.1090216359
 10
-13.3467606524
 20
-12.1304250291
 10
-13.3547466404
 20
-12.1488735621
 10
-13.3657882244
 20
-12.1639327834
 10
-13.3797422574
 20
-12.1753200869
  0
LWPOLYLINE
  5
320
100
AcDbEntity
  8
0
100
AcDbPolyline
 62
250
  6
CONTINUOUS
 90
6
 70
0
 10
-13.3406313384
 20
-14.3712841946
 10
-13.3420183254
 20
-14.3951384109
 10
-13.3467606524
 20
-14.4165418041
 10
-13.3547466404
 20
-14.4349903371
 10
-13.3657882244
 20
-14.4500495584
 10
-13.3797422574
 20
-14.4614368619
  0
LWPOLYLINE
  5
321
100
AcDbEntity
  8
0
100
AcDbPolyline
 62
250
  6
CONTINUOUS
 90
6
 70
0
 10
-13.353409885
 20
-9.6565705356
 10
-13.3548228429
 20
-9.6806442658
 10
-13.3596563628
 20
-9.7022138066
 10
-13.3677943844
 20
-9.7207612406
 10
-13.3790415015
 20
-9.7358412154
 10
-13.392491739
 20
-9.746705328
  0
LWPOLYLINE
  5
322
100
AcDbEntity
  8
0
100
AcDbPolyline
 62
250
  6
CONTINUOUS
 90
6
 70
0
 10
-13.353409885
 20
-16.8415089713
 10
-13.3548228429
 20
-16.8655827015
 10
-13.3596563628
 20
-16.8871522424
 10
-13.3677943844
 20
-16.9056996763
 10
-13.3790415015
 20
-16.9207796512
 10
-13.392491739
 20
-16.9316437638
  0
LWPOLYLINE
  5
323
100
AcDbEntity
  8
0
100
AcDbPolyline
 62
250
  6
CONTINUOUS
 90
3
 70
0
 10
-11.4492551366
 20
-6.1484261246
 10
-11.3934552645
 20
-6.0989929737
 10
-11.3355747372
 20
-6.0539558585
  0
LWPOLYLINE
  5
324
100
AcDbEntity
  8
0
100
AcDbPolyline
 62
250
  6
CONTINUOUS
 90
3
 70
0
 10
-13.5285423236
 20
-9.7927879269
 10
-13.4722441017
 20
-9.7429365873
 10
-13.4138666221
 20
-9.6975307902
  0
LINE
  5
325
100
AcDbEntity
  8
0
100
AcDbLine
 62
250
  6
CONTINUOUS
 10
-13.4138666221
 20
-9.6975307902
 11
-13.353409885
 21
-9.6565705356
  0
LWPOLYLINE
  5
326
100
AcDbEntity
  8
0
100
AcDbPolyline
 62
250
  6
CONTINUOUS
 90
8
 70
0
 10
-6.05600106
 20
-2.8026555758
 10
-6.006848112
 20
-2.7701325686
 10
-5.9633092412
 20
-2.7360012568
 10
-5.9256726171
 20
-2.7005935068
 10
-5.8941077259
 20
-2.6642106604
 10
-5.8688716805
 20
-2.6272330167
 10
-5.8501774079
 20
-2.5901446786
 10
-5.8379197022
 20
-2.5531880329
  0
LWPOLYLINE
  5
327
100
AcDbEntity
  8
0
100
AcDbPolyline
 62
250
  6
CONTINUOUS
 90
8
 70
0
 10
-6.05600106
 20
-5.1678287082
 10
-6.006848112
 20
-5.1353057011
 10
-5.9633092412
 20
-5.1011743893
 10
-5.9256726171
 20
-5.0657666393
 10
-5.8941077259
 20
-5.0293837929
 10
-5.8688716805
 20
-4.9924061492
 10
-5.8501774079
 20
-4.955317811
 10
-5.8379197022
 20
-4.9183611654
  0
LWPOLYLINE
  5
328
100
AcDbEntity
  8
0
100
AcDbPolyline
 62
7
  6
CONTINUOUS
 90
11
 70
0
 10
-6.0953826836
 20
-2.8929736191
 10
-6.0545155313
 20
-2.8661769999
 10
-6.00635017
 20
-2.8294793322
 10
-5.9628454658
 20
-2.7898236413
 10
-5.9246920835
 20
-2.7473772332
 10
-5.8927344784
 20
-2.7028266346
 10
-5.8672129348
 20
-2.6564174704
 10
-5.8482983836
 20
-2.6082038431
 10
-5.836381246
 20
-2.5589988353
 10
-5.8315830029
 20
-2.5094453203
 10
-5.831479007
 20
-2.5006411337
  0
LWPOLYLINE
  5
329
100
AcDbEntity
  8
0
100
AcDbPolyline
 62
7
  6
CONTINUOUS
 90
11
 70
0
 10
-6.0953826836
 20
-5.2581467515
 10
-6.0545155313
 20
-5.2313501323
 10
-6.00635017
 20
-5.1946524647
 10
-5.9628454658
 20
-5.1549967738
 10
-5.9246920835
 20
-5.1125503657
 10
-5.8927344784
 20
-5.0679997671
 10
-5.8672129348
 20
-5.0215906028
 10
-5.8482983836
 20
-4.9733769755
 10
-5.836381246
 20
-4.9241719677
 10
-5.8315830029
 20
-4.8746184527
 10
-5.831479007
 20
-4.8658142662
  0
LINE
  5
32A
100
AcDbEntity
  8
0
100
AcDbLine
 62
250
  6
CONTINUOUS
 10
-13.353409885
 20
-9.6565705356
 11
-6.05600106
 21
-5.1678286484
  0
LINE
  5
32B
100
AcDbEntity
  8
0
100
AcDbLine
 62
7
  6
CONTINUOUS
 10
-13.392491739
 20
-9.746705328
 11
-6.0950828859
 21
-5.2579634235
  0
LWPOLYLINE
  5
32C
100
AcDbEntity
  8
0
100
AcDbPolyline
 62
7
  6
CONTINUOUS
 90
8
 70
0
 10
-6.4398490278
 20
-5.9088613241
 10
-6.4243536112
 20
-5.8996362397
 10
-6.410896797
 20
-5.8912611139
 10
-6.3998088824
 20
-5.8838564858
 10
-6.391374586
 20
-5.8776441496
 10
-6.3859373317
 20
-5.872735593
 10
-6.3837572594
 20
-5.8691478161
 10
-6.3837169887
 20
-5.8687179837
  0
LINE
  5
32D
100
AcDbEntity
  8
0
100
AcDbLine
 62
250
  6
CONTINUOUS
 10
-6.1728470565
 20
-4.2231042395
 11
-11.3924595513
 21
-7.2540808244
  0
LINE
  5
32E
100
AcDbEntity
  8
0
100
AcDbLine
 62
250
  6
CONTINUOUS
 10
-6.05600106
 20
-4.4513584126
 11
-11.2756135547
 21
-7.4823349974
  0
LINE
  5
32F
100
AcDbEntity
  8
0
100
AcDbLine
 62
7
  6
CONTINUOUS
 10
-6.4398490278
 20
-5.9088613241
 11
-7.2065146942
 21
-6.3540563813
  0
LINE
  5
330
100
AcDbEntity
  8
0
100
AcDbLine
 62
7
  6
CONTINUOUS
 10
-13.6885013295
 20
-10.0360305886
 11
-7.2065146942
 21
-6.3540563813
  0
LINE
  5
331
100
AcDbEntity
  8
DRAFT
100
AcDbLine
 62
7
  6
CONTINUOUS
 10
-32.2079867651
 20
-19.616021065
 11
-32.4064997725
 21
-19.7243498953
  0
LINE
  5
332
100
AcDbEntity
  8
DRAFT
100
AcDbLine
 62
7
  6
CONTINUOUS
 10
-32.4064997725
 20
-19.7243498953
 11
-32.5909511687
 21
-19.8249464065
  0
LINE
  5
333
100
AcDbEntity
  8
DRAFT
100
AcDbLine
 62
7
  6
CONTINUOUS
 10
-32.5909511687
 20
-19.8249464065
 11
-32.8701220593
 21
-19.9770997586
  0
LWPOLYLINE
  5
334
100
AcDbEntity
  8
0
100
AcDbPolyline
 62
250
  6
CONTINUOUS
 90
19
 70
0
 10
-11.2756135547
 20
-7.4823349974
 10
-11.3286445868
 20
-7.5105984184
 10
-11.3807907591
 20
-7.5332538991
 10
-11.4320520716
 20
-7.5503014398
 10
-11.4828257283
 20
-7.5618727042
 10
-11.5327145252
 20
-7.5678360285
 10
-11.5805268501
 20
-7.5677964207
 10
-11.62627525
 20
-7.5615365349
 10
-11.6699471778
 20
-7.5492737171
 10
-11.710313381
 20
-7.531265013
 10
-11.7471864298
 20
-7.5073750227
 10
-11.7807537539
 20
-7.4777391462
 10
-11.8103483896
 20
-7.4430206297
 10
-11.8358975844
 20
-7.4031170368
 10
-11.8574740907
 20
-7.3581308039
 10
-11.8746292018
 20
-7.309032486
 10
-11.8872740747
 20
-7.2557467204
 10
-11.8954975523
 20
-7.1983488697
 10
-11.8991174569
 20
-7.1380355778
  0
LWPOLYLINE
  5
335
100
AcDbEntity
  8
DRAFT
100
AcDbPolyline
 62
7
  6
CONTINUOUS
 90
34
 70
0
 10
-34.7433051986
 20
-18.8955472905
 10
-34.7598037095
 20
-18.9030035016
 10
-34.7769123439
 20
-18.9091660113
 10
-34.7946312015
 20
-18.9140348795
 10
-34.8130056947
 20
-18.9176149792
 10
-34.8319905913
 20
-18.9199015453
 10
-34.8514500237
 20
-18.9208801791
 10
-34.8713713612
 20
-18.9205438271
 10
-34.891767395
 20
-18.918899639
 10
-34.9125403916
 20
-18.9159545224
 10
-34.9337149051
 20
-18.9116957917
 10
-34.9552665033
 20
-18.9061362054
 10
-34.9770239675
 20
-18.8993208333
 10
-34.9989617001
 20
-18.8912515708
 10
-35.0211053768
 20
-18.8819265693
 10
-35.043360679
 20
-18.8713852759
 10
-35.0657577356
 20
-18.8596053017
 10
-35.0882664442
 20
-18.8466090515
 10
-35.1107021271
 20
-18.8325031553
 10
-35.1330348368
 20
-18.8172998787
 10
-35.1552944944
 20
-18.8009869403
 10
-35.1773862125
 20
-18.7836341416
 10
-35.1993360187
 20
-18.7652134825
 10
-35.2211178074
 20
-18.7457529163
 10
-35.2425584805
 20
-18.7254061699
 10
-35.2636334618
 20
-18.7041887738
 10
-35.2843672058
 20
-18.6820851243
 10
-35.3046601551
 20
-18.6592022432
 10
-35.3245254098
 20
-18.6355180412
 10
-35.3439497093
 20
-18.6110545114
 10
-35.3627939561
 20
-18.5859847987
 10
-35.3810117273
 20
-18.560366584
 10
-35.3986492657
 20
-18.5341420786
 10
-35.4157064716
 20
-18.5073112227
  0
LWPOLYLINE
  5
336
100
AcDbEntity
  8
DRAFT
100
AcDbPolyline
 62
7
  6
CONTINUOUS
 90
34
 70
0
 10
-33.4705129924
 20
-19.6304415585
 10
-33.4870115033
 20
-19.6378977696
 10
-33.5041201377
 20
-19.6440602793
 10
-33.5218389954
 20
-19.6489291474
 10
-33.5402134886
 20
-19.6525092472
 10
-33.5591983852
 20
-19.6547958133
 10
-33.5786578176
 20
-19.6557744471
 10
-33.598579155
 20
-19.6554380951
 10
-33.6189751888
 20
-19.653793907
 10
-33.6397481855
 20
-19.6508487903
 10
-33.660922699
 20
-19.6465900597
 10
-33.6824742972
 20
-19.6410304734
 10
-33.7042317614
 20
-19.6342151013
 10
-33.7261694939
 20
-19.6261458388
 10
-33.7483131706
 20
-19.6168208373
 10
-33.7705684729
 20
-19.6062795439
 10
-33.7929655295
 20
-19.5944995697
 10
-33.8154742381
 20
-19.5815033195
 10
-33.837909921
 20
-19.5673974233
 10
-33.8602426307
 20
-19.5521941467
 10
-33.8825022883
 20
-19.5358812083
 10
-33.9045940063
 20
-19.5185284096
 10
-33.9265438126
 20
-19.5001077505
 10
-33.9483256012
 20
-19.4806471843
 10
-33.9697662744
 20
-19.4603004379
 10
-33.9908412557
 20
-19.4390830417
 10
-34.0115749997
 20
-19.4169793923
 10
-34.031867949
 20
-19.3940965112
 10
-34.0517332037
 20
-19.3704123092
 10
-34.0711575032
 20
-19.3459487794
 10
-34.0900017499
 20
-19.3208790667
 10
-34.1082195212
 20
-19.295260852
 10
-34.1258570596
 20
-19.2690363465
 10
-34.1429142654
 20
-19.2422054907
  0
LINE
  5
337
100
AcDbEntity
  8
DRAFT
100
AcDbLine
 62
7
  6
CONTINUOUS
 10
-37.0915788991
 20
13.0273728895
 11
-31.7466555353
 21
9.9412811268
  0
LINE
  5
338
100
AcDbEntity
  8
DRAFT
100
AcDbLine
 62
7
  6
CONTINUOUS
 10
-27.5040148482
 20
7.4916335669
 11
-22.1590914844
 21
4.4055418043
  0
LINE
  5
339
100
AcDbEntity
  8
0
100
AcDbLine
 62
7
  6
CONTINUOUS
 10
-22.1499205239
 20
4.4002466066
 11
-37.1007498595
 21
13.0326680871
  0
LINE
  5
33A
100
AcDbEntity
  8
0
100
AcDbLine
 62
7
  6
CONTINUOUS
 10
-28.8231620964
 20
8.4422241215
 11
-29.6508053459
 21
8.920094961
  0
LINE
  5
33B
100
AcDbEntity
  8
0
100
AcDbLine
 62
7
  6
CONTINUOUS
 10
-28.741503234
 20
8.4378299429
 11
-27.3200793327
 21
7.6171175969
  0
LWPOLYLINE
  5
33C
100
AcDbEntity
  8
0
100
AcDbPolyline
 62
250
  6
CONTINUOUS
 90
8
 70
0
 10
-6.0841776524
 20
-6.1020095354
 10
-6.0891297401
 20
-6.0986716128
 10
-6.100652357
 20
-6.0939067023
 10
-6.1139577684
 20
-6.0919158113
 10
-6.1288232311
 20
-6.092732136
 10
-6.1449999337
 20
-6.0963418772
 10
-6.1622171788
 20
-6.1026845055
 10
-6.180186868
 20
-6.1116537752
  0
LINE
  5
33D
100
AcDbEntity
  8
0
100
AcDbLine
 62
250
  6
CONTINUOUS
 10
-6.4398490278
 20
-8.358476397
 11
-6.1783051576
 21
-8.5669616691
  0
LINE
  5
33E
100
AcDbEntity
  8
0
100
AcDbLine
 62
7
  6
CONTINUOUS
 10
-6.3843240835
 20
-8.3165620732
 11
-6.0825433859
 21
-8.5571214517
  0
LWPOLYLINE
  5
33F
100
AcDbEntity
  8
0
100
AcDbPolyline
 62
250
  6
CONTINUOUS
 90
4
 70
0
 10
-6.1783051576
 20
-8.5669616691
 10
-6.1402134184
 20
-8.600195137
 10
-6.1067275966
 20
-8.6342964804
 10
-6.0778476921
 20
-8.6692656995
  0
LWPOLYLINE
  5
340
100
AcDbEntity
  8
DRAFT
100
AcDbPolyline
 62
7
  6
CONTINUOUS
 90
7
 70
0
 10
-27.9921715862
 20
14.228738293
 10
-27.971525748
 20
14.2057290761
 10
-27.9504996485
 20
14.1839971754
 10
-27.9290932878
 20
14.163542591
 10
-27.9072281294
 20
14.144302022
 10
-27.8849827097
 20
14.1263387692
 10
-27.8717968023
 20
14.1166239644
  0
LINE
  5
341
100
AcDbEntity
  8
DRAFT
100
AcDbLine
 62
7
  6
CONTINUOUS
 10
-24.3408876751
 20
9.5710859174
 11
-24.2265028171
 21
9.4188342463
  0
LINE
  5
342
100
AcDbEntity
  8
DRAFT
100
AcDbLine
 62
7
  6
CONTINUOUS
 10
-24.2265028171
 20
9.4188342463
 11
-24.1505335123
 21
9.3169936102
  0
LWPOLYLINE
  5
343
100
AcDbEntity
  8
0
100
AcDbPolyline
 62
250
  6
CONTINUOUS
 90
16
 70
0
 10
-6.0798269657
 20
-15.7620544528
 10
-6.0554975813
 20
-15.7976498763
 10
-6.0357599478
 20
-15.8341401974
 10
-6.020792821
 20
-15.8703976402
 10
-6.0108716915
 20
-15.9064922908
 10
-6.0057210687
 20
-15.9423540632
 10
-6.004693236
 20
-15.9766449226
 10
-6.0077640621
 20
-16.0087873589
 10
-6.0149576782
 20
-16.0393588822
 10
-6.0256987624
 20
-16.0687539888
 10
-6.0394490367
 20
-16.0969557167
 10
-6.056746779
 20
-16.1239810279
 10
-6.0786315009
 20
-16.1502753044
 10
-6.1054497065
 20
-16.175987007
 10
-6.1368548917
 20
-16.200967675
 10
-6.1728470565
 20
-16.2252173084
  0
LWPOLYLINE
  5
344
100
AcDbEntity
  8
0
100
AcDbPolyline
 62
250
  6
CONTINUOUS
 90
16
 70
0
 10
-6.0798269657
 20
-13.3968813204
 10
-6.0554975813
 20
-13.4324767439
 10
-6.0357599478
 20
-13.468967065
 10
-6.020792821
 20
-13.5052245077
 10
-6.0108716915
 20
-13.5413191584
 10
-6.0057210687
 20
-13.5771809308
 10
-6.004693236
 20
-13.6114717902
 10
-6.0077640621
 20
-13.6436142264
 10
-6.0149576782
 20
-13.6741857498
 10
-6.0256987624
 20
-13.7035808564
 10
-6.0394490367
 20
-13.7317825843
 10
-6.056746779
 20
-13.7588078954
 10
-6.0786315009
 20
-13.785102172
 10
-6.1054497065
 20
-13.8108138746
 10
-6.1368548917
 20
-13.8357945426
 10
-6.1728470565
 20
-13.860044176
  0
LWPOLYLINE
  5
345
100
AcDbEntity
  8
RACCORDO
100
AcDbPolyline
 62
7
  6
CONTINUOUS
 90
7
 70
0
 10
-8.7366814332
 20
-14.4081781065
 10
-8.7450123303
 20
-14.390155566
 10
-8.77188045
 20
-14.342915605
 10
-8.8027041331
 20
-14.2977860844
 10
-8.8376918844
 20
-14.2546171821
 10
-8.876721982
 20
-14.2139660263
 10
-8.9170115057
 20
-14.1787110351
  0
LWPOLYLINE
  5
346
100
AcDbEntity
  8
RACCORDO
100
AcDbPolyline
 62
7
  6
CONTINUOUS
 90
8
 70
0
 10
-10.2110033084
 20
-12.7726202869
 10
-10.2228756173
 20
-12.7421375821
 10
-10.2392362812
 20
-12.709551236
 10
-10.2594325773
 20
-12.6777029887
 10
-10.2822078796
 20
-12.6487431067
 10
-10.3074351967
 20
-12.6226964785
 10
-10.3354027681
 20
-12.5994703286
 10
-10.3432175788
 20
-12.5943405373
  0
LINE
  5
347
100
AcDbEntity
  8
RACCORDO
100
AcDbLine
 62
7
  6
CONTINUOUS
 10
-10.2110192689
 20
-12.772572782
 11
-10.2110033085
 21
-12.7726202868
  0
LINE
  5
348
100
AcDbEntity
  8
RACCORDO
100
AcDbLine
 62
7
  6
CONTINUOUS
 10
-10.2110192689
 20
-12.772572782
 11
-10.2044999508
 21
-12.7931671684
  0
LWPOLYLINE
  5
349
100
AcDbEntity
  8
RACCORDO
100
AcDbPolyline
 62
250
  6
CONTINUOUS
 90
5
 70
0
 10
-10.2110033085
 20
-12.7726202868
 10
-10.2104291489
 20
-12.7799333404
 10
-10.2130981061
 20
-12.7880019737
 10
-10.2189026946
 20
-12.7968837852
 10
-10.2276349307
 20
-12.8063104842
  0
LWPOLYLINE
  5
34A
100
AcDbEntity
  8
0
100
AcDbPolyline
 62
250
  6
CONTINUOUS
 90
10
 70
0
 10
-11.2756135547
 20
-7.4823349974
 10
-11.2770266142
 20
-7.4559582707
 10
-11.281860427
 20
-7.4282889387
 10
-11.2899988168
 20
-7.3999914496
 10
-11.3012462505
 20
-7.3717453313
 10
-11.315332573
 20
-7.3442287821
 10
-11.3319195284
 20
-7.3181023977
 10
-11.3506088204
 20
-7.2939934385
 10
-11.3709516507
 20
-7.2724807581
 10
-11.3924595513
 20
-7.2540808244
  0
LINE
  5
34B
100
AcDbEntity
  8
RACCORDO
100
AcDbLine
 62
250
  6
CONTINUOUS
 10
-11.4722757413
 20
-15.9620825267
 11
-11.4722757413
 21
-15.7504910851
  0
LINE
  5
34C
100
AcDbEntity
  8
RACCORDO
100
AcDbLine
 62
250
  6
CONTINUOUS
 10
-11.1944547131
 20
-15.804271362
 11
-11.1944547131
 21
-15.5795993457
  0
LWPOLYLINE
  5
34D
100
AcDbEntity
  8
0
100
AcDbPolyline
 62
250
  6
CONTINUOUS
 90
16
 70
0
 10
-11.8991174569
 20
-7.1380355778
 10
-11.8980482431
 20
-7.074753374
 10
-11.8923754562
 20
-7.008555729
 10
-11.882173555
 20
-6.9407996978
 10
-11.8673334689
 20
-6.8713998693
 10
-11.8479642684
 20
-6.8004416546
 10
-11.8244676236
 20
-6.7295383426
 10
-11.7967346076
 20
-6.6586868152
 10
-11.7648741473
 20
-6.5878901904
 10
-11.7296146935
 20
-6.5187711112
 10
-11.691157614
 20
-6.451652098
 10
-11.649301541
 20
-6.3862106306
 10
-11.604170822
 20
-6.3231017912
 10
-11.5554089093
 20
-6.2618561383
 10
-11.5033723505
 20
-6.2029431136
 10
-11.4492551366
 20
-6.1484261246
  0
LWPOLYLINE
  5
34E
100
AcDbEntity
  8
0
100
AcDbPolyline
 62
250
  6
CONTINUOUS
 90
16
 70
0
 10
-11.8991174569
 20
-19.1401486467
 10
-11.8980482431
 20
-19.0768664429
 10
-11.8923754562
 20
-19.0106687978
 10
-11.882173555
 20
-18.9429127666
 10
-11.8673334689
 20
-18.8735129381
 10
-11.8479642684
 20
-18.8025547235
 10
-11.8244676236
 20
-18.7316514115
 10
-11.7967346076
 20
-18.660799884
 10
-11.7648741473
 20
-18.5900032592
 10
-11.7296146935
 20
-18.5208841801
 10
-11.691157614
 20
-18.4537651669
 10
-11.649301541
 20
-18.3883236994
 10
-11.604170822
 20
-18.3252148601
 10
-11.5554089093
 20
-18.2639692072
 10
-11.5033723505
 20
-18.2050561825
 10
-11.4492551366
 20
-18.1505391934
  0
LWPOLYLINE
  5
34F
100
AcDbEntity
  8
RACCORDO
100
AcDbPolyline
 62
250
  6
CONTINUOUS
 90
7
 70
0
 10
-9.9909203182
 20
-14.8392879036
 10
-9.9909575303
 20
-14.8402355237
 10
-9.9998481641
 20
-14.9196525774
 10
-10.0143038417
 20
-14.993799325
 10
-10.0344862043
 20
-15.0629157457
 10
-10.0602336107
 20
-15.1267618604
 10
-10.0856291834
 20
-15.1744232567
  0
LWPOLYLINE
  5
350
100
AcDbEntity
  8
0
100
AcDbPolyline
 62
250
  6
CONTINUOUS
 90
6
 70
0
 10
-11.2756135547
 20
-6.0133147789
 10
-11.2770265126
 20
-6.0373885091
 10
-11.2818600325
 20
-6.05895805
 10
-11.2899980541
 20
-6.077505484
 10
-11.3012451712
 20
-6.0925854588
 10
-11.3146954088
 20
-6.1034495714
  0
LWPOLYLINE
  5
351
100
AcDbEntity
  8
0
100
AcDbPolyline
 62
250
  6
CONTINUOUS
 90
6
 70
0
 10
-11.2756135547
 20
-18.0154278478
 10
-11.2770265126
 20
-18.039501578
 10
-11.2818600325
 20
-18.0610711189
 10
-11.2899980541
 20
-18.0796185528
 10
-11.3012451712
 20
-18.0946985276
 10
-11.3146954088
 20
-18.1055626402
  0
LINE
  5
352
100
AcDbEntity
  8
0
100
AcDbLine
 62
250
  6
CONTINUOUS
 10
-13.4614321544
 20
-12.1728492274
 11
-13.4020779136
 21
-12.1267537343
  0
LINE
  5
353
100
AcDbEntity
  8
0
100
AcDbLine
 62
250
  6
CONTINUOUS
 10
-13.4020779136
 20
-12.1267537343
 11
-13.3406313384
 21
-12.0851674195
  0
LWPOLYLINE
  5
354
100
AcDbEntity
  8
0
100
AcDbPolyline
 62
250
  6
CONTINUOUS
 90
8
 70
0
 10
-6.05600106
 20
-7.6059987386
 10
-6.0069246033
 20
-7.5735718434
 10
-5.9634327687
 20
-7.5395877311
 10
-5.9258169531
 20
-7.5043750573
 10
-5.8942511532
 20
-7.468236292
 10
-5.8689963976
 20
-7.4315456483
 10
-5.8502701067
 20
-7.3947737276
 10
-5.8379727033
 20
-7.3581623933
  0
LWPOLYLINE
  5
355
100
AcDbEntity
  8
0
100
AcDbPolyline
 62
7
  6
CONTINUOUS
 90
11
 70
0
 10
-6.0954356546
 20
-7.6963491081
 10
-6.0548521671
 20
-7.6697830263
 10
-6.006776441
 20
-7.633296684
 10
-5.963221723
 20
-7.5938165662
 10
-5.924946178
 20
-7.5515121132
 10
-5.8928846346
 20
-7.5071285186
 10
-5.8672799771
 20
-7.460898584
 10
-5.8482981574
 20
-7.4128386138
 10
-5.8363559613
 20
-7.3637992323
 10
-5.8315757474
 20
-7.3144247371
 10
-5.8314790251
 20
-7.3059703979
  0
LINE
  5
356
100
AcDbEntity
  8
0
100
AcDbLine
 62
250
  6
CONTINUOUS
 10
-13.3406313384
 20
-12.0851674195
 11
-6.05600106
 21
-7.6059986795
  0
LINE
  5
357
100
AcDbEntity
  8
0
100
AcDbLine
 62
7
  6
CONTINUOUS
 10
-13.3797422574
 20
-12.1753200869
 11
-6.0951119486
 21
-7.6961513281
  0
LWPOLYLINE
  5
358
100
AcDbEntity
  8
0
100
AcDbPolyline
 62
7
  6
CONTINUOUS
 90
8
 70
0
 10
-6.4398490278
 20
-8.358476397
 10
-6.4243959743
 20
-8.3492547901
 10
-6.4109609434
 20
-8.3408517981
 10
-6.3998764844
 20
-8.3333852972
 10
-6.3914306755
 20
-8.3270697819
 10
-6.3859707301
 20
-8.3220198736
 10
-6.3837619721
 20
-8.3182662071
 10
-6.3837169887
 20
-8.3177845154
  0
LINE
  5
359
100
AcDbEntity
  8
0
100
AcDbLine
 62
7
  6
CONTINUOUS
 10
-6.4398490278
 20
-8.358476397
 11
-7.2065146942
 21
-8.8038517248
  0
LINE
  5
35A
100
AcDbEntity
  8
0
100
AcDbLine
 62
250
  6
CONTINUOUS
 10
-6.1709653462
 20
-9.1372421323
 11
-13.4555956246
 21
-13.3690666948
  0
LINE
  5
35B
100
AcDbEntity
  8
0
100
AcDbLine
 62
250
  6
CONTINUOUS
 10
-6.1728470565
 20
-6.6751057402
 11
-13.4702558815
 21
-10.9126377985
  0
LINE
  5
35C
100
AcDbEntity
  8
0
100
AcDbLine
 62
250
  6
CONTINUOUS
 10
-6.05600106
 20
-6.9033599132
 11
-13.353409885
 21
-11.1408919716
  0
LINE
  5
35D
100
AcDbEntity
  8
0
100
AcDbLine
 62
7
  6
CONTINUOUS
 10
-13.6964798194
 20
-12.4908945267
 11
-7.2065146942
 21
-8.8038517248
  0
LINE
  5
35E
100
AcDbEntity
  8
DRAFT
100
AcDbLine
 62
7
  6
CONTINUOUS
 10
-30.935194559
 20
-20.350915333
 11
-31.1337075664
 21
-20.4592441632
  0
LINE
  5
35F
100
AcDbEntity
  8
DRAFT
100
AcDbLine
 62
7
  6
CONTINUOUS
 10
-29.6624023529
 20
-21.085809601
 11
-29.8609153603
 21
-21.1941384312
  0
LINE
  5
360
100
AcDbEntity
  8
DRAFT
100
AcDbLine
 62
7
  6
CONTINUOUS
 10
-31.1337075664
 20
-20.4592441632
 11
-31.3181589626
 21
-20.5598406744
  0
LINE
  5
361
100
AcDbEntity
  8
DRAFT
100
AcDbLine
 62
7
  6
CONTINUOUS
 10
-29.8609153603
 20
-21.1941384312
 11
-30.0453667564
 21
-21.2947349424
  0
LINE
  5
362
100
AcDbEntity
  8
DRAFT
100
AcDbLine
 62
7
  6
CONTINUOUS
 10
-31.3181589626
 20
-20.5598406744
 11
-31.5973298532
 21
-20.7119940266
  0
LINE
  5
363
100
AcDbEntity
  8
DRAFT
100
AcDbLine
 62
7
  6
CONTINUOUS
 10
-30.0453667564
 20
-21.2947349424
 11
-30.324537647
 21
-21.4468882946
  0
LWPOLYLINE
  5
364
100
AcDbEntity
  8
0
100
AcDbPolyline
 62
250
  6
CONTINUOUS
 90
18
 70
0
 10
-13.353409885
 20
-11.1408919716
 10
-13.4068771802
 20
-11.1694049045
 10
-13.4594761952
 20
-11.1922707852
 10
-13.5112069297
 20
-11.2094896136
 10
-13.5624729934
 20
-11.2212016236
 10
-13.6128707767
 20
-11.2272665813
 10
-13.6611894515
 20
-11.2272637849
 10
-13.7074463235
 20
-11.2209690244
 10
-13.7516240869
 20
-11.2086065098
 10
-13.7924599968
 20
-11.1904281695
 10
-13.8297593188
 20
-11.166293645
 10
-13.8637167874
 20
-11.1363432948
 10
-13.8936538602
 20
-11.1012501229
 10
-13.9194954661
 20
-11.0609112932
 10
-13.9413166763
 20
-11.0154296418
 10
-13.9586641619
 20
-10.9657866808
 10
-13.9714483233
 20
-10.9119053666
 10
-13.9797587602
 20
-10.8538627428
  0
LWPOLYLINE
  5
365
100
AcDbEntity
  8
0
100
AcDbPolyline
 62
250
  6
CONTINUOUS
 90
11
 70
0
 10
-13.4702551922
 20
-10.9126381967
 10
-13.5138542022
 20
-10.9333673237
 10
-13.5571837947
 20
-10.9500916052
 10
-13.6000058125
 20
-10.9625852134
 10
-13.6421611478
 20
-10.970606537
 10
-13.6833135005
 20
-10.974017195
 10
-13.7229634394
 20
-10.9728071148
 10
-13.7609267861
 20
-10.9668761953
 10
-13.7969048649
 20
-10.9561559116
 10
-13.8302846211
 20
-10.9408508368
 10
-13.8468400144
 20
-10.9309295996
  0
LWPOLYLINE
  5
366
100
AcDbEntity
  8
0
100
AcDbPolyline
 62
250
  6
CONTINUOUS
 90
11
 70
0
 10
-13.4555949084
 20
-13.3690671083
 10
-13.500185073
 20
-13.390133088
 10
-13.5445502806
 20
-13.4071795366
 10
-13.5884528348
 20
-13.4199567507
 10
-13.6317473123
 20
-13.4281932599
 10
-13.6740775761
 20
-13.4317277266
 10
-13.7148940664
 20
-13.4305429435
 10
-13.7540151964
 20
-13.4245196322
 10
-13.7911281857
 20
-13.4135696189
 10
-13.8255527287
 20
-13.3979158824
 10
-13.8442633988
 20
-13.3866922847
  0
LWPOLYLINE
  5
367
100
AcDbEntity
  8
DRAFT
100
AcDbPolyline
 62
7
  6
CONTINUOUS
 90
34
 70
0
 10
-32.1977207863
 20
-20.3653358265
 10
-32.2142192972
 20
-20.3727920375
 10
-32.2313279316
 20
-20.3789545473
 10
-32.2490467892
 20
-20.3838234154
 10
-32.2674212824
 20
-20.3874035152
 10
-32.286406179
 20
-20.3896900813
 10
-32.3058656115
 20
-20.3906687151
 10
-32.3257869489
 20
-20.3903323631
 10
-32.3461829827
 20
-20.388688175
 10
-32.3669559794
 20
-20.3857430583
 10
-32.3881304929
 20
-20.3814843277
 10
-32.409682091
 20
-20.3759247414
 10
-32.4314395552
 20
-20.3691093693
 10
-32.4533772878
 20
-20.3610401068
 10
-32.4755209645
 20
-20.3517151053
 10
-32.4977762668
 20
-20.3411738119
 10
-32.5201733233
 20
-20.3293938377
 10
-32.5426820319
 20
-20.3163975875
 10
-32.5651177148
 20
-20.3022916913
 10
-32.5874504245
 20
-20.2870884147
 10
-32.6097100821
 20
-20.2707754762
 10
-32.6318018002
 20
-20.2534226776
 10
-32.6537516064
 20
-20.2350020184
 10
-32.6755333951
 20
-20.2155414523
 10
-32.6969740683
 20
-20.1951947058
 10
-32.7180490496
 20
-20.1739773097
 10
-32.7387827936
 20
-20.1518736603
 10
-32.7590757429
 20
-20.1289907792
 10
-32.7789409975
 20
-20.1053065772
 10
-32.798365297
 20
-20.0808430474
 10
-32.8172095438
 20
-20.0557733347
 10
-32.835427315
 20
-20.03015512
 10
-32.8530648535
 20
-20.0039306145
 10
-32.8701220593
 20
-19.9770997586
  0
LWPOLYLINE
  5
368
100
AcDbEntity
  8
DRAFT
100
AcDbPolyline
 62
7
  6
CONTINUOUS
 90
34
 70
0
 10
-30.9249285802
 20
-21.1002300945
 10
-30.941427091
 20
-21.1076863055
 10
-30.9585357254
 20
-21.1138488153
 10
-30.9762545831
 20
-21.1187176834
 10
-30.9946290763
 20
-21.1222977832
 10
-31.0136139729
 20
-21.1245843492
 10
-31.0330734053
 20
-21.1255629831
 10
-31.0529947428
 20
-21.1252266311
 10
-31.0733907766
 20
-21.123582443
 10
-31.0941637732
 20
-21.1206373263
 10
-31.1153382867
 20
-21.1163785957
 10
-31.1368898849
 20
-21.1108190094
 10
-31.1586473491
 20
-21.1040036373
 10
-31.1805850817
 20
-21.0959343748
 10
-31.2027287583
 20
-21.0866093733
 10
-31.2249840606
 20
-21.0760680798
 10
-31.2473811172
 20
-21.0642881057
 10
-31.2698898258
 20
-21.0512918555
 10
-31.2923255087
 20
-21.0371859593
 10
-31.3146582184
 20
-21.0219826827
 10
-31.336917876
 20
-21.0056697442
 10
-31.359009594
 20
-20.9883169456
 10
-31.3809594003
 20
-20.9698962864
 10
-31.402741189
 20
-20.9504357203
 10
-31.4241818621
 20
-20.9300889738
 10
-31.4452568434
 20
-20.9088715777
 10
-31.4659905874
 20
-20.8867679283
 10
-31.4862835367
 20
-20.8638850471
 10
-31.5061487914
 20
-20.8402008452
 10
-31.5255730909
 20
-20.8157373154
 10
-31.5444173377
 20
-20.7906676027
 10
-31.5626351089
 20
-20.765049388
 10
-31.5802726473
 20
-20.7388248825
 10
-31.5973298532
 20
-20.7119940266
  0
LINE
  5
369
100
AcDbEntity
  8
RACCORDO
100
AcDbLine
 62
7
  6
CONTINUOUS
 10
-30.4198739114
 20
9.5205779018
 11
-27.2298305909
 21
7.6786868691
  0
LINE
  5
36A
100
AcDbEntity
  8
RACCORDO
100
AcDbLine
 62
7
  6
CONTINUOUS
 10
-30.3210922756
 20
10.4711044667
 11
-26.7030681896
 21
8.3821027039
  0
LINE
  5
36B
100
AcDbEntity
  8
DRAFT
100
AcDbLine
 62
7
  6
CONTINUOUS
 10
-34.6815120144
 20
14.643515508
 11
-29.3014040286
 21
11.5371085856
  0
LINE
  5
36C
100
AcDbEntity
  8
DRAFT
100
AcDbLine
 62
7
  6
CONTINUOUS
 10
-24.9995188866
 20
9.0532540198
 11
-19.6194109008
 21
5.9468470974
  0
LWPOLYLINE
  5
36D
100
AcDbEntity
  8
0
100
AcDbPolyline
 62
250
  6
CONTINUOUS
 90
8
 70
0
 10
-6.0841776524
 20
-3.6500080348
 10
-6.0891297401
 20
-3.6466701121
 10
-6.100652357
 20
-3.6419052016
 10
-6.1139577684
 20
-3.6399143107
 10
-6.1288232311
 20
-3.6407306353
 10
-6.1449999337
 20
-3.6443403766
 10
-6.1622171788
 20
-3.6506830049
 10
-6.180186868
 20
-3.6596522745
  0
LINE
  5
36E
100
AcDbEntity
  8
0
100
AcDbLine
 62
250
  6
CONTINUOUS
 10
-6.4398490278
 20
-5.9088613241
 11
-6.180186868
 21
-6.1116537752
  0
LINE
  5
36F
100
AcDbEntity
  8
0
100
AcDbLine
 62
7
  6
CONTINUOUS
 10
-6.3842543423
 20
-5.8676537917
 11
-6.0841058694
 21
-6.1020654772
  0
LINE
  5
370
100
AcDbEntity
  8
0
100
AcDbLine
 62
250
  6
CONTINUOUS
 10
-6.4398490278
 20
-3.4568598235
 11
-6.180186868
 21
-3.6596522745
  0
LINE
  5
371
100
AcDbEntity
  8
0
100
AcDbLine
 62
7
  6
CONTINUOUS
 10
-6.3842543423
 20
-3.4156522911
 11
-6.0841058694
 21
-3.6500639765
  0
LWPOLYLINE
  5
372
100
AcDbEntity
  8
0
100
AcDbPolyline
 62
250
  6
CONTINUOUS
 90
4
 70
0
 10
-6.180186868
 20
-6.1116537752
 10
-6.1421418164
 20
-6.1441885808
 10
-6.1086885156
 20
-6.1776182839
 10
-6.0798269657
 20
-6.2119428846
  0
LINE
  5
373
100
AcDbEntity
  8
DRAFT
100
AcDbLine
 62
7
  6
CONTINUOUS
 10
-21.5197593811
 20
11.1798976315
 11
-21.4118576478
 21
11.0362437131
  0
LINE
  5
374
100
AcDbEntity
  8
DRAFT
100
AcDbLine
 62
7
  6
CONTINUOUS
 10
-21.4118576478
 20
11.0362437131
 11
-21.3044173582
 21
10.8920460153
  0
LINE
  5
375
100
AcDbEntity
  8
DRAFT
100
AcDbLine
 62
7
  6
CONTINUOUS
 10
-21.3044173582
 20
10.8920460153
 11
-21.1974430754
 21
10.747310662
  0
LWPOLYLINE
  5
376
100
AcDbEntity
  8
DRAFT
100
AcDbPolyline
 62
7
  6
CONTINUOUS
 90
10
 70
0
 10
-20.6518970795
 20
9.9905557881
 10
-20.5522652548
 20
9.8488747535
 10
-20.4530979872
 20
9.7067521836
 10
-20.3543952766
 20
9.5641880782
 10
-20.2561533133
 20
9.421176848
 10
-20.1583759071
 20
9.2777240824
 10
-20.0610744869
 20
9.1338465495
 10
-19.9642528626
 20
8.9895498384
 10
-19.8679072244
 20
8.8448283599
 10
-19.7720375722
 20
8.699682114
  0
LWPOLYLINE
  5
377
100
AcDbEntity
  8
0
100
AcDbPolyline
 62
250
  6
CONTINUOUS
 90
16
 70
0
 10
-6.0778476921
 20
-10.9553824745
 10
-6.0535172032
 20
-10.9916024483
 10
-6.0337926317
 20
-11.0286902976
 10
-6.0188434832
 20
-11.0654973849
 10
-6.0089456036
 20
-11.1020876591
 10
-6.003823147
 20
-11.1383971713
 10
-6.0028180806
 20
-11.1730854362
 10
-6.0059021305
 20
-11.205568784
 10
-6.0131035705
 20
-11.2364308847
 10
-6.0238491896
 20
-11.2660822634
 10
-6.0376012099
 20
-11.294512633
 10
-6.0548974092
 20
-11.3217322807
 10
-6.0767779103
 20
-11.3481825933
 10
-6.1035894206
 20
-11.3740106997
 10
-6.1349852325
 20
-11.3990694711
 10
-6.1709653462
 20
-11.4233589073
  0
LWPOLYLINE
  5
378
100
AcDbEntity
  8
0
100
AcDbPolyline
 62
250
  6
CONTINUOUS
 90
16
 70
0
 10
-6.0778476921
 20
-8.6692656995
 10
-6.0535172032
 20
-8.7054856733
 10
-6.0337926317
 20
-8.7425735226
 10
-6.0188434832
 20
-8.7793806099
 10
-6.0089456036
 20
-8.8159708841
 10
-6.003823147
 20
-8.8522803962
 10
-6.0028180806
 20
-8.8869686612
 10
-6.0059021305
 20
-8.919452009
 10
-6.0131035705
 20
-8.9503141096
 10
-6.0238491896
 20
-8.9799654884
 10
-6.0376012099
 20
-9.008395858
 10
-6.0548974092
 20
-9.0356155057
 10
-6.0767779103
 20
-9.0620658183
 10
-6.1035894206
 20
-9.0878939247
 10
-6.1349852325
 20
-9.112952696
 10
-6.1709653462
 20
-9.1372421323
  0
LWPOLYLINE
  5
379
100
AcDbEntity
  8
RACCORDO
100
AcDbPolyline
 62
7
  6
CONTINUOUS
 90
9
 70
0
 10
-15.4038107938
 20
14.3956351338
 10
-15.4126949907
 20
14.4296714731
 10
-15.4256704975
 20
14.4642111005
 10
-15.44192804
 20
14.4966825823
 10
-15.4612205058
 20
14.526832648
 10
-15.4834397976
 20
14.554605841
 10
-15.5082412573
 20
14.5796540814
 10
-15.5352838659
 20
14.6017466642
 10
-15.5654244866
 20
14.6214087882
  0
LINE
  5
37A
100
AcDbEntity
  8
0
100
AcDbLine
 62
7
  6
CONTINUOUS
 10
-7.2065146942
 20
-15.9041679496
 11
-7.2076186116
 21
-15.5792402023
  0
LINE
  5
37B
100
AcDbEntity
  8
RACCORDO
100
AcDbLine
 62
250
  6
CONTINUOUS
 10
-9.4876937582
 20
-16.9939697014
 11
-9.4876937582
 21
-16.9817474569
  0
LINE
  5
37C
100
AcDbEntity
  8
RACCORDO
100
AcDbLine
 62
250
  6
CONTINUOUS
 10
-9.20987273
 20
-16.996769675
 11
-9.20987273
 21
-16.8108557175
  0
LINE
  5
37D
100
AcDbEntity
  8
RACCORDO
100
AcDbLine
 62
7
  6
CONTINUOUS
 10
-8.7656851467
 20
-16.5376295
 11
-8.7656851467
 21
-16.7873291154
  0
LINE
  5
37E
100
AcDbEntity
  8
RACCORDO
100
AcDbLine
 62
250
  6
CONTINUOUS
 10
-8.690970524
 20
-16.4916714532
 11
-8.690960681
 21
-16.6023674934
  0
LINE
  5
37F
100
AcDbEntity
  8
RACCORDO
100
AcDbLine
 62
7
  6
CONTINUOUS
 10
-8.6807482719
 20
-16.4853835979
 11
-8.6807482719
 21
-16.5326877676
  0
LWPOLYLINE
  5
380
100
AcDbEntity
  8
RACCORDO
100
AcDbPolyline
 62
250
  6
CONTINUOUS
 90
4
 70
0
 10
-9.7000843806
 20
-14.7064257101
 10
-9.6988475052
 20
-14.6841619554
 10
-9.6951585145
 20
-14.6608593269
 10
-9.6941058018
 20
-14.6567129946
  0
LINE
  5
381
100
AcDbEntity
  8
RACCORDO
100
AcDbLine
 62
250
  6
CONTINUOUS
 10
-8.690960681
 20
-16.6023674934
 11
-8.6930638003
 21
-16.6268437276
  0
LWPOLYLINE
  5
382
100
AcDbEntity
  8
RACCORDO
100
AcDbPolyline
 62
250
  6
CONTINUOUS
 90
3
 70
0
 10
-9.2127210653
 20
-17.0431978095
 10
-9.2109374801
 20
-17.0257403923
 10
-9.20987273
 20
-16.996769675
  0
LINE
  5
383
100
AcDbEntity
  8
0
100
AcDbLine
 62
250
  6
CONTINUOUS
 10
-4.9556634091
 20
0.3201393582
 11
-5.7959307526
 21
-1.3590698749
  0
LINE
  5
384
100
AcDbEntity
  8
0
100
AcDbLine
 62
7
  6
CONTINUOUS
 10
-4.8157064744
 20
0.2830122448
 11
-5.6559738179
 21
-1.3961969883
  0
LWPOLYLINE
  5
385
100
AcDbEntity
  8
0
100
AcDbPolyline
 62
7
  6
CONTINUOUS
 90
16
 70
0
 10
-4.8157062823
 20
0.2830126289
 10
-4.7757750249
 20
0.3610897701
 10
-4.6922884675
 20
0.5143024566
 10
-4.6039795548
 20
0.6637721204
 10
-4.5113868188
 20
0.8087633607
 10
-4.4150037054
 20
0.9486950613
 10
-4.3152770552
 20
1.0831018302
 10
-4.2127512473
 20
1.2114323866
 10
-4.1080238401
 20
1.3331381065
 10
-4.0016586729
 20
1.4477781075
 10
-3.8942617078
 20
1.5549264156
 10
-3.7864782768
 20
1.6541863067
 10
-3.6790189028
 20
1.7451803848
 10
-3.5726025259
 20
1.8276128743
 10
-3.4678742901
 20
1.9013245686
 10
-3.3941234352
 20
1.9487916545
  0
LINE
  5
386
100
AcDbEntity
  8
0
100
AcDbLine
 62
250
  6
CONTINUOUS
 10
-4.9069512483
 20
0.4146474773
 11
-4.9556634091
 21
0.3201393582
  0
LINE
  5
387
100
AcDbEntity
  8
0
100
AcDbLine
 62
250
  6
CONTINUOUS
 10
-13.4614321544
 20
-14.4589660024
 11
-13.4020779136
 21
-14.4128705093
  0
LINE
  5
388
100
AcDbEntity
  8
0
100
AcDbLine
 62
250
  6
CONTINUOUS
 10
-13.4020779136
 20
-14.4128705093
 11
-13.3406313384
 21
-14.3712841946
  0
LWPOLYLINE
  5
389
100
AcDbEntity
  8
0
100
AcDbPolyline
 62
250
  6
CONTINUOUS
 90
8
 70
0
 10
-6.05600106
 20
-9.8921155137
 10
-6.0069246033
 20
-9.8596886184
 10
-5.9634327687
 20
-9.8257045061
 10
-5.9258169531
 20
-9.7904918324
 10
-5.8942511532
 20
-9.754353067
 10
-5.8689963976
 20
-9.7176624233
 10
-5.8502701067
 20
-9.6808905026
 10
-5.8379727033
 20
-9.6442791683
  0
LWPOLYLINE
  5
38A
100
AcDbEntity
  8
0
100
AcDbPolyline
 62
7
  6
CONTINUOUS
 90
11
 70
0
 10
-6.0954356546
 20
-9.9824658832
 10
-6.0548521671
 20
-9.9558998013
 10
-6.006776441
 20
-9.9194134591
 10
-5.963221723
 20
-9.8799333412
 10
-5.924946178
 20
-9.8376288882
 10
-5.8928846346
 20
-9.7932452936
 10
-5.8672799771
 20
-9.747015359
 10
-5.8482981574
 20
-9.6989553889
 10
-5.8363559613
 20
-9.6499160073
 10
-5.8315757474
 20
-9.6005415121
 10
-5.8314790251
 20
-9.592087173
  0
LINE
  5
38B
100
AcDbEntity
  8
0
100
AcDbLine
 62
250
  6
CONTINUOUS
 10
-13.3406313384
 20
-14.3712841946
 11
-6.05600106
 21
-9.8921154545
  0
LINE
  5
38C
100
AcDbEntity
  8
0
100
AcDbLine
 62
7
  6
CONTINUOUS
 10
-13.3797422574
 20
-14.4614368619
 11
-6.0951119486
 21
-9.9822681031
  0
LWPOLYLINE
  5
38D
100
AcDbEntity
  8
0
100
AcDbPolyline
 62
7
  6
CONTINUOUS
 90
8
 70
0
 10
-6.4398490278
 20
-10.644593172
 10
-6.4243959743
 20
-10.6353715651
 10
-6.4109609434
 20
-10.6269685732
 10
-6.3998764844
 20
-10.6195020722
 10
-6.3914306755
 20
-10.6131865569
 10
-6.3859707301
 20
-10.6081366486
 10
-6.3837619721
 20
-10.6043829822
 10
-6.3837169887
 20
-10.6039012904
  0
LINE
  5
38E
100
AcDbEntity
  8
0
100
AcDbLine
 62
250
  6
CONTINUOUS
 10
-6.05600106
 20
-9.3640115429
 11
-13.3406313384
 21
-13.5958361055
  0
LINE
  5
38F
100
AcDbEntity
  8
0
100
AcDbLine
 62
7
  6
CONTINUOUS
 10
-6.4398490278
 20
-10.644593172
 11
-7.2065146942
 21
-11.0899684998
  0
LINE
  5
390
100
AcDbEntity
  8
0
100
AcDbLine
 62
250
  6
CONTINUOUS
 10
-6.1709653462
 20
-11.4233589073
 11
-13.4555956246
 21
-15.6551834699
  0
LINE
  5
391
100
AcDbEntity
  8
0
100
AcDbLine
 62
250
  6
CONTINUOUS
 10
-6.05600106
 20
-11.6501283179
 11
-13.3406313384
 21
-15.8819528805
  0
LINE
  5
392
100
AcDbEntity
  8
0
100
AcDbLine
 62
7
  6
CONTINUOUS
 10
-13.6964798194
 20
-14.7770113017
 11
-7.2065146942
 21
-11.0899684998
  0
LINE
  5
393
100
AcDbEntity
  8
DRAFT
100
AcDbLine
 62
7
  6
CONTINUOUS
 10
-28.3896101467
 20
-21.820703869
 11
-28.5881231541
 21
-21.9290326992
  0
LINE
  5
394
100
AcDbEntity
  8
DRAFT
100
AcDbLine
 62
7
  6
CONTINUOUS
 10
-28.5881231541
 20
-21.9290326992
 11
-28.7725745503
 21
-22.0296292104
  0
LINE
  5
395
100
AcDbEntity
  8
DRAFT
100
AcDbLine
 62
7
  6
CONTINUOUS
 10
-28.7725745503
 20
-22.0296292104
 11
-29.0517454409
 21
-22.1817825626
  0
LWPOLYLINE
  5
396
100
AcDbEntity
  8
0
100
AcDbPolyline
 62
250
  6
CONTINUOUS
 90
18
 70
0
 10
-13.3406313384
 20
-13.5958361055
 10
-13.3948372646
 20
-13.6248145236
 10
-13.4482397306
 20
-13.6480987473
 10
-13.5008387365
 20
-13.6656887765
 10
-13.5530583322
 20
-13.6777491931
 10
-13.6044744676
 20
-13.6841154152
 10
-13.6538149926
 20
-13.6842936977
 10
-13.7011038182
 20
-13.6780388839
 10
-13.7463170333
 20
-13.6655961305
 10
-13.7881107542
 20
-13.6472071621
 10
-13.8262695759
 20
-13.6227199711
 10
-13.8610089034
 20
-13.5922865652
 10
-13.8916310676
 20
-13.5566046921
 10
-13.918055437
 20
-13.5155754202
 10
-13.9403626431
 20
-13.4692976811
 10
-13.9580969112
 20
-13.418766017
 10
-13.9711700405
 20
-13.3639012124
 10
-13.9796702319
 20
-13.3047824828
  0
LWPOLYLINE
  5
397
100
AcDbEntity
  8
0
100
AcDbPolyline
 62
250
  6
CONTINUOUS
 90
18
 70
0
 10
-13.3406313384
 20
-15.8819528805
 10
-13.3948372646
 20
-15.9109312986
 10
-13.4482397306
 20
-15.9342155223
 10
-13.5008387365
 20
-15.9518055515
 10
-13.5530583322
 20
-15.9638659681
 10
-13.6044744676
 20
-15.9702321902
 10
-13.6538149926
 20
-15.9704104727
 10
-13.7011038182
 20
-15.9641556589
 10
-13.7463170333
 20
-15.9517129055
 10
-13.7881107542
 20
-15.9333239371
 10
-13.8262695759
 20
-15.9088367461
 10
-13.8610089034
 20
-15.8784033402
 10
-13.8916310676
 20
-15.8427214671
 10
-13.918055437
 20
-15.8016921952
 10
-13.9403626431
 20
-15.7554144561
 10
-13.9580969112
 20
-15.704882792
 10
-13.9711700405
 20
-15.6500179874
 10
-13.9796702319
 20
-15.5908992578
  0
LWPOLYLINE
  5
398
100
AcDbEntity
  8
0
100
AcDbPolyline
 62
250
  6
CONTINUOUS
 90
11
 70
0
 10
-13.4555949084
 20
-15.6551838833
 10
-13.500185073
 20
-15.676249863
 10
-13.5445502806
 20
-15.6932963116
 10
-13.5884528348
 20
-15.7060735257
 10
-13.6317473123
 20
-15.7143100349
 10
-13.6740775761
 20
-15.7178445016
 10
-13.7148940664
 20
-15.7166597185
 10
-13.7540151964
 20
-15.7106364073
 10
-13.7911281857
 20
-15.6996863939
 10
-13.8255527287
 20
-15.6840326575
 10
-13.8442633988
 20
-15.6728090597
  0
LWPOLYLINE
  5
399
100
AcDbEntity
  8
DRAFT
100
AcDbPolyline
 62
7
  6
CONTINUOUS
 90
34
 70
0
 10
-29.652136374
 20
-21.8351243625
 10
-29.6686348849
 20
-21.8425805735
 10
-29.6857435193
 20
-21.8487430833
 10
-29.703462377
 20
-21.8536119514
 10
-29.7218368702
 20
-21.8571920512
 10
-29.7408217668
 20
-21.8594786172
 10
-29.7602811992
 20
-21.8604572511
 10
-29.7802025366
 20
-21.860120899
 10
-29.8005985704
 20
-21.858476711
 10
-29.8213715671
 20
-21.8555315943
 10
-29.8425460806
 20
-21.8512728637
 10
-29.8640976788
 20
-21.8457132774
 10
-29.885855143
 20
-21.8388979053
 10
-29.9077928755
 20
-21.8308286428
 10
-29.9299365522
 20
-21.8215036412
 10
-29.9521918545
 20
-21.8109623478
 10
-29.9745889111
 20
-21.7991823737
 10
-29.9970976197
 20
-21.7861861235
 10
-30.0195333026
 20
-21.7720802273
 10
-30.0418660122
 20
-21.7568769507
 10
-30.0641256699
 20
-21.7405640122
 10
-30.0862173879
 20
-21.7232112136
 10
-30.1081671942
 20
-21.7047905544
 10
-30.1299489828
 20
-21.6853299883
 10
-30.151389656
 20
-21.6649832418
 10
-30.1724646373
 20
-21.6437658457
 10
-30.1931983813
 20
-21.6216621963
 10
-30.2134913306
 20
-21.5987793151
 10
-30.2333565853
 20
-21.5750951132
 10
-30.2527808848
 20
-21.5506315834
 10
-30.2716251315
 20
-21.5255618707
 10
-30.2898429028
 20
-21.499943656
 10
-30.3074804412
 20
-21.4737191505
 10
-30.324537647
 20
-21.4468882946
  0
LWPOLYLINE
  5
39A
100
AcDbEntity
  8
DRAFT
100
AcDbPolyline
 62
7
  6
CONTINUOUS
 90
34
 70
0
 10
-28.3793441679
 20
-22.5700186305
 10
-28.3958426788
 20
-22.5774748415
 10
-28.4129513132
 20
-22.5836373513
 10
-28.4306701708
 20
-22.5885062194
 10
-28.449044664
 20
-22.5920863192
 10
-28.4680295606
 20
-22.5943728852
 10
-28.4874889931
 20
-22.5953515191
 10
-28.5074103305
 20
-22.595015167
 10
-28.5278063643
 20
-22.593370979
 10
-28.548579361
 20
-22.5904258623
 10
-28.5697538745
 20
-22.5861671316
 10
-28.5913054726
 20
-22.5806075454
 10
-28.6130629368
 20
-22.5737921733
 10
-28.6350006694
 20
-22.5657229108
 10
-28.6571443461
 20
-22.5563979092
 10
-28.6793996484
 20
-22.5458566158
 10
-28.7017967049
 20
-22.5340766417
 10
-28.7243054135
 20
-22.5210803915
 10
-28.7467410964
 20
-22.5069744953
 10
-28.7690738061
 20
-22.4917712187
 10
-28.7913334637
 20
-22.4754582802
 10
-28.8134251818
 20
-22.4581054816
 10
-28.835374988
 20
-22.4396848224
 10
-28.8571567767
 20
-22.4202242563
 10
-28.8785974498
 20
-22.3998775098
 10
-28.8996724312
 20
-22.3786601137
 10
-28.9204061751
 20
-22.3565564643
 10
-28.9406991245
 20
-22.3336735831
 10
-28.9605643791
 20
-22.3099893812
 10
-28.9799886786
 20
-22.2855258514
 10
-28.9988329254
 20
-22.2604561387
 10
-29.0170506966
 20
-22.2348379239
 10
-29.034688235
 20
-22.2086134185
 10
-29.0517454409
 20
-22.1817825626
  0
LINE
  5
39B
100
AcDbEntity
  8
DRAFT
100
AcDbLine
 62
7
  6
CONTINUOUS
 10
-29.96003524
 20
12.8155112969
 11
-29.3014040286
 21
12.43522589
  0
LINE
  5
39C
100
AcDbEntity
  8
DRAFT
100
AcDbLine
 62
7
  6
CONTINUOUS
 10
-24.9995188866
 20
9.9513713243
 11
-24.3408876751
 21
9.5710859174
  0
LINE
  5
39D
100
AcDbEntity
  8
DRAFT
100
AcDbLine
 62
7
  6
CONTINUOUS
 10
-27.5747255263
 20
12.6025586524
 11
-24.0001530278
 21
10.5386452917
  0
LWPOLYLINE
  5
39E
100
AcDbEntity
  8
0
100
AcDbPolyline
 62
250
  6
CONTINUOUS
 90
4
 70
0
 10
-6.180186868
 20
-3.6596522745
 10
-6.1421418164
 20
-3.6921870801
 10
-6.1086885156
 20
-3.7256167833
 10
-6.0798269657
 20
-3.759941384
  0
LWPOLYLINE
  5
39F
100
AcDbEntity
  8
0
100
AcDbPolyline
 62
250
  6
CONTINUOUS
 90
16
 70
0
 10
-6.0798269657
 20
-6.2119428846
 10
-6.0554975813
 20
-6.2475383081
 10
-6.0357599478
 20
-6.2840286292
 10
-6.020792821
 20
-6.3202860719
 10
-6.0108716915
 20
-6.3563807226
 10
-6.0057210687
 20
-6.392242495
 10
-6.004693236
 20
-6.4265333544
 10
-6.0077640621
 20
-6.4586757907
 10
-6.0149576782
 20
-6.489247314
 10
-6.0256987624
 20
-6.5186424206
 10
-6.0394490367
 20
-6.5468441485
 10
-6.056746779
 20
-6.5738694597
 10
-6.0786315009
 20
-6.6001637362
 10
-6.1054497065
 20
-6.6258754388
 10
-6.1368548917
 20
-6.6508561068
 10
-6.1728470565
 20
-6.6751057402
  0
LWPOLYLINE
  5
3A0
100
AcDbEntity
  8
0
100
AcDbPolyline
 62
250
  6
CONTINUOUS
 90
16
 70
0
 10
-6.0798269657
 20
-3.759941384
 10
-6.0554975813
 20
-3.7955368075
 10
-6.0357599478
 20
-3.8320271286
 10
-6.020792821
 20
-3.8682845713
 10
-6.0108716915
 20
-3.904379222
 10
-6.0057210687
 20
-3.9402409943
 10
-6.004693236
 20
-3.9745318538
 10
-6.0077640621
 20
-4.00667429
 10
-6.0149576782
 20
-4.0372458134
 10
-6.0256987624
 20
-4.06664092
 10
-6.0394490367
 20
-4.0948426479
 10
-6.056746779
 20
-4.121867959
 10
-6.0786315009
 20
-4.1481622356
 10
-6.1054497065
 20
-4.1738739382
 10
-6.1368548917
 20
-4.1988546062
 10
-6.1728470565
 20
-4.2231042395
  0
LWPOLYLINE
  5
3A1
100
AcDbEntity
  8
RACCORDO
100
AcDbPolyline
 62
250
  6
CONTINUOUS
 90
5
 70
0
 10
-15.534373429
 20
14.471020363
 10
-15.5356116613
 20
14.47463343
 10
-15.5454333512
 20
14.4980551173
 10
-15.5566992214
 20
14.5204923624
 10
-15.5693258059
 20
14.5417789335
  0
LWPOLYLINE
  5
3A2
100
AcDbEntity
  8
0
100
AcDbPolyline
 62
250
  6
CONTINUOUS
 90
10
 70
0
 10
-6.05600106
 20
-16.4534714815
 10
-6.0574140179
 20
-16.4270957835
 10
-6.0622475378
 20
-16.399427264
 10
-6.0703855594
 20
-16.3711302862
 10
-6.0816326765
 20
-16.3428843038
 10
-6.0957188286
 20
-16.3153675459
 10
-6.1123057856
 20
-16.2892407319
 10
-6.1309952696
 20
-16.2651312064
 10
-6.1513385173
 20
-16.243617876
 10
-6.1728470565
 20
-16.2252173084
  0
LWPOLYLINE
  5
3A3
100
AcDbEntity
  8
0
100
AcDbPolyline
 62
250
  6
CONTINUOUS
 90
10
 70
0
 10
-6.05600106
 20
-14.088298349
 10
-6.0574140179
 20
-14.0619226511
 10
-6.0622475378
 20
-14.0342541315
 10
-6.0703855594
 20
-14.0059571537
 10
-6.0816326765
 20
-13.9777111713
 10
-6.0957188286
 20
-13.9501944135
 10
-6.1123057856
 20
-13.9240675995
 10
-6.1309952696
 20
-13.899958074
 10
-6.1513385173
 20
-13.8784447435
 10
-6.1728470565
 20
-13.860044176
  0
LWPOLYLINE
  5
3A4
100
AcDbEntity
  8
0
100
AcDbPolyline
 62
250
  6
CONTINUOUS
 90
10
 70
0
 10
-6.05600106
 20
-6.9033599132
 10
-6.0574140179
 20
-6.8769842153
 10
-6.0622475378
 20
-6.8493156957
 10
-6.0703855594
 20
-6.8210187179
 10
-6.0816326765
 20
-6.7927727356
 10
-6.0957188286
 20
-6.7652559777
 10
-6.1123057856
 20
-6.7391291637
 10
-6.1309952696
 20
-6.7150196382
 10
-6.1513385173
 20
-6.6935063077
 10
-6.1728470565
 20
-6.6751057402
  0
LWPOLYLINE
  5
3A5
100
AcDbEntity
  8
0
100
AcDbPolyline
 62
250
  6
CONTINUOUS
 90
10
 70
0
 10
-6.05600106
 20
-4.4513584126
 10
-6.0574140179
 20
-4.4249827147
 10
-6.0622475378
 20
-4.3973141951
 10
-6.0703855594
 20
-4.3690172173
 10
-6.0816326765
 20
-4.3407712349
 10
-6.0957188286
 20
-4.3132544771
 10
-6.1123057856
 20
-4.2871276631
 10
-6.1309952696
 20
-4.2630181376
 10
-6.1513385173
 20
-4.2415048071
 10
-6.1728470565
 20
-4.2231042395
  0
LWPOLYLINE
  5
3A6
100
AcDbEntity
  8
0
100
AcDbPolyline
 62
250
  6
CONTINUOUS
 90
10
 70
0
 10
-6.05600106
 20
-11.6501283179
 10
-6.057388047
 20
-11.6240179014
 10
-6.062130374
 20
-11.5966332982
 10
-6.070116362
 20
-11.5686193992
 10
-6.081157946
 20
-11.5406359144
 10
-6.0949951033
 20
-11.513341838
 10
-6.1113019774
 20
-11.4873799287
 10
-6.1296945514
 20
-11.4633615736
 10
-6.1497396912
 20
-11.4418523904
 10
-6.1709653462
 20
-11.4233589073
  0
LWPOLYLINE
  5
3A7
100
AcDbEntity
  8
0
100
AcDbPolyline
 62
250
  6
CONTINUOUS
 90
10
 70
0
 10
-6.05600106
 20
-9.3640115429
 10
-6.057388047
 20
-9.3379011264
 10
-6.062130374
 20
-9.3105165232
 10
-6.070116362
 20
-9.2825026242
 10
-6.081157946
 20
-9.2545191394
 10
-6.0949951033
 20
-9.227225063
 10
-6.1113019774
 20
-9.2012631536
 10
-6.1296945514
 20
-9.1772447986
 10
-6.1497396912
 20
-9.1557356154
 10
-6.1709653462
 20
-9.1372421323
  0
LWPOLYLINE
  5
3A8
100
AcDbEntity
  8
0
100
AcDbPolyline
 62
7
  6
CONTINUOUS
 90
11
 70
0
 10
-5.8314751895
 20
-16.1133144294
 10
-5.8333625874
 20
-16.0712507604
 10
-5.8409663159
 20
-16.0187573372
 10
-5.8544774141
 20
-15.9661998272
 10
-5.8738649782
 20
-15.914218315
 10
-5.898939021
 20
-15.8634067348
 10
-5.9296040478
 20
-15.8139851923
 10
-5.9656862707
 20
-15.7663284234
 10
-6.0066217736
 20
-15.7211039063
 10
-6.0519201176
 20
-15.6786457953
 10
-6.0841776491
 20
-15.6521211062
  0
LWPOLYLINE
  5
3A9
100
AcDbEntity
  8
0
100
AcDbPolyline
 62
7
  6
CONTINUOUS
 90
11
 70
0
 10
-5.8314751895
 20
-13.748141297
 10
-5.8333625874
 20
-13.706077628
 10
-5.8409663159
 20
-13.6535842047
 10
-5.8544774141
 20
-13.6010266948
 10
-5.8738649782
 20
-13.5490451825
 10
-5.898939021
 20
-13.4982336024
 10
-5.9296040478
 20
-13.4488120598
 10
-5.9656862707
 20
-13.401155291
 10
-6.0066217736
 20
-13.3559307738
 10
-6.0519201176
 20
-13.3134726628
 10
-6.0841776491
 20
-13.2869479738
  0
LWPOLYLINE
  5
3AA
100
AcDbEntity
  8
0
100
AcDbPolyline
 62
7
  6
CONTINUOUS
 90
11
 70
0
 10
-5.8314751895
 20
-6.5632028612
 10
-5.8333625874
 20
-6.5211391922
 10
-5.8409663159
 20
-6.4686457689
 10
-5.8544774141
 20
-6.416088259
 10
-5.8738649782
 20
-6.3641067467
 10
-5.898939021
 20
-6.3132951666
 10
-5.9296040478
 20
-6.2638736241
 10
-5.9656862707
 20
-6.2162168552
 10
-6.0066217736
 20
-6.1709923381
 10
-6.0519201176
 20
-6.1285342271
 10
-6.0841776491
 20
-6.102009538
  0
LWPOLYLINE
  5
3AB
100
AcDbEntity
  8
0
100
AcDbPolyline
 62
7
  6
CONTINUOUS
 90
11
 70
0
 10
-5.8314751895
 20
-4.1112013606
 10
-5.8333625874
 20
-4.0691376916
 10
-5.8409663159
 20
-4.0166442683
 10
-5.8544774141
 20
-3.9640867584
 10
-5.8738649782
 20
-3.9121052461
 10
-5.898939021
 20
-3.861293666
 10
-5.9296040478
 20
-3.8118721234
 10
-5.9656862707
 20
-3.7642153546
 10
-6.0066217736
 20
-3.7189908374
 10
-6.0519201176
 20
-3.6765327264
 10
-6.0841776491
 20
-3.6500080374
  0
LWPOLYLINE
  5
3AC
100
AcDbEntity
  8
0
100
AcDbPolyline
 62
7
  6
CONTINUOUS
 90
11
 70
0
 10
-5.8314751583
 20
-11.3080531785
 10
-5.8327721882
 20
-11.2728892517
 10
-5.8396619376
 20
-11.219520776
 10
-5.8525789852
 20
-11.1659472736
 10
-5.8715095851
 20
-11.1128441552
 10
-5.8962761483
 20
-11.0608374743
 10
-5.9267983253
 20
-11.0101444201
 10
-5.9628980427
 20
-10.9611775198
 10
-6.0039632487
 20
-10.914687587
 10
-6.0494629067
 20
-10.871038382
 10
-6.0826144224
 20
-10.8431817261
  0
LWPOLYLINE
  5
3AD
100
AcDbEntity
  8
0
100
AcDbPolyline
 62
7
  6
CONTINUOUS
 90
11
 70
0
 10
-5.8314751583
 20
-9.0219364035
 10
-5.8327721882
 20
-8.9867724767
 10
-5.8396619376
 20
-8.933404001
 10
-5.8525789852
 20
-8.8798304986
 10
-5.8715095851
 20
-8.8267273802
 10
-5.8962761483
 20
-8.7747206992
 10
-5.9267983253
 20
-8.7240276451
 10
-5.9628980427
 20
-8.6750607448
 10
-6.0039632487
 20
-8.628570812
 10
-6.0494629067
 20
-8.584921607
 10
-6.0826144224
 20
-8.5570649511
  0
LINE
  5
3AE
100
AcDbEntity
  8
0
100
AcDbLine
 62
7
  6
CONTINUOUS
 10
-7.2065146942
 20
-3.9020548807
 11
-7.2076186116
 21
-3.5771271334
  0
LINE
  5
3AF
100
AcDbEntity
  8
0
100
AcDbLine
 62
7
  6
CONTINUOUS
 10
-7.2065146942
 20
-13.5389948171
 11
-7.2078055124
 21
-13.127353667
  0
LINE
  5
3B0
100
AcDbEntity
  8
0
100
AcDbLine
 62
7
  6
CONTINUOUS
 10
-7.2065146942
 20
-11.0899684998
 11
-7.2078418791
 21
-10.666462761
  0
LINE
  5
3B1
100
AcDbEntity
  8
0
100
AcDbLine
 62
7
  6
CONTINUOUS
 10
-7.2065146942
 20
-8.8038517248
 11
-7.2078418791
 21
-8.380345986
  0
LINE
  5
3B2
100
AcDbEntity
  8
0
100
AcDbLine
 62
7
  6
CONTINUOUS
 10
-7.2065146942
 20
-6.3540563813
 11
-7.2078055124
 21
-5.9424152313
  0
LINE
  5
3B3
100
AcDbEntity
  8
0
100
AcDbLine
 62
250
  6
CONTINUOUS
 10
-6.4398490278
 20
-3.1048609396
 11
-6.4398490278
 21
-3.4568598235
  0
LINE
  5
3B4
100
AcDbEntity
  8
0
100
AcDbLine
 62
250
  6
CONTINUOUS
 10
-6.4398490278
 20
-5.470034072
 11
-6.4398490278
 21
-5.9088613241
  0
LINE
  5
3B5
100
AcDbEntity
  8
0
100
AcDbLine
 62
250
  6
CONTINUOUS
 10
-6.4398490278
 20
-7.9081230397
 11
-6.4398490278
 21
-8.358476397
  0
LINE
  5
3B6
100
AcDbEntity
  8
0
100
AcDbLine
 62
250
  6
CONTINUOUS
 10
-6.4398490278
 20
-10.1942398147
 11
-6.4398490278
 21
-10.644593172
  0
LINE
  5
3B7
100
AcDbEntity
  8
0
100
AcDbLine
 62
250
  6
CONTINUOUS
 10
-6.4398490278
 20
-12.6549725078
 11
-6.4398490278
 21
-13.0937997599
  0
LINE
  5
3B8
100
AcDbEntity
  8
0
100
AcDbLine
 62
250
  6
CONTINUOUS
 10
-6.4398490278
 20
-15.1069740084
 11
-6.4398490278
 21
-15.4589728923
  0
LINE
  5
3B9
100
AcDbEntity
  8
0
100
AcDbLine
 62
7
  6
CONTINUOUS
 10
-6.3837169878
 20
-3.0703333086
 11
-6.3837169878
 21
-3.4167537707
  0
LINE
  5
3BA
100
AcDbEntity
  8
0
100
AcDbLine
 62
7
  6
CONTINUOUS
 10
-6.3837169878
 20
-5.4355064411
 11
-6.3837169878
 21
-5.8687552713
  0
LINE
  5
3BB
100
AcDbEntity
  8
0
100
AcDbLine
 62
7
  6
CONTINUOUS
 10
-6.3837169878
 20
-7.8736086074
 11
-6.3837169878
 21
-8.3178223849
  0
LINE
  5
3BC
100
AcDbEntity
  8
0
100
AcDbLine
 62
7
  6
CONTINUOUS
 10
-6.3837169878
 20
-10.1597253824
 11
-6.3837169878
 21
-10.6039391599
  0
LINE
  5
3BD
100
AcDbEntity
  8
0
100
AcDbLine
 62
7
  6
CONTINUOUS
 10
-6.3837169878
 20
-12.6204448769
 11
-6.3837169878
 21
-13.0536937071
  0
LINE
  5
3BE
100
AcDbEntity
  8
0
100
AcDbLine
 62
7
  6
CONTINUOUS
 10
-6.3837169878
 20
-15.0724463775
 11
-6.3837169878
 21
-15.4188668396
  0
LINE
  5
3BF
100
AcDbEntity
  8
0
100
AcDbLine
 62
250
  6
CONTINUOUS
 10
-6.05600106
 20
-2.3542736545
 11
-6.05600106
 21
-2.8026555159
  0
LINE
  5
3C0
100
AcDbEntity
  8
0
100
AcDbLine
 62
250
  6
CONTINUOUS
 10
-6.05600106
 20
-4.4513584126
 11
-6.05600106
 21
-5.1678286484
  0
LINE
  5
3C1
100
AcDbEntity
  8
0
100
AcDbLine
 62
250
  6
CONTINUOUS
 10
-6.05600106
 20
-6.9033599132
 11
-6.05600106
 21
-7.6059986795
  0
LINE
  5
3C2
100
AcDbEntity
  8
0
100
AcDbLine
 62
250
  6
CONTINUOUS
 10
-6.05600106
 20
-9.3640115429
 11
-6.05600106
 21
-9.8921154545
  0
LINE
  5
3C3
100
AcDbEntity
  8
0
100
AcDbLine
 62
250
  6
CONTINUOUS
 10
-6.05600106
 20
-11.6501283179
 11
-6.05600106
 21
-12.3527670841
  0
LINE
  5
3C4
100
AcDbEntity
  8
0
100
AcDbLine
 62
250
  6
CONTINUOUS
 10
-6.05600106
 20
-14.088298349
 11
-6.05600106
 21
-14.8047685848
  0
LINE
  5
3C5
100
AcDbEntity
  8
0
100
AcDbLine
 62
250
  6
CONTINUOUS
 10
-6.05600106
 20
-16.4534714815
 11
-6.05600106
 21
-17.9730762047
  0
LINE
  5
3C6
100
AcDbEntity
  8
0
100
AcDbLine
 62
7
  6
CONTINUOUS
 10
-5.8314729064
 20
-16.1132302627
 11
-5.8314729003
 21
-16.1132952926
  0
LINE
  5
3C7
100
AcDbEntity
  8
0
100
AcDbLine
 62
7
  6
CONTINUOUS
 10
-5.8314729003
 20
-2.0334040249
 11
-5.8314729003
 21
-2.5010891366
  0
LINE
  5
3C8
100
AcDbEntity
  8
0
100
AcDbLine
 62
7
  6
CONTINUOUS
 10
-5.8314729003
 20
-4.1111926583
 11
-5.8314729003
 21
-4.8662622691
  0
LINE
  5
3C9
100
AcDbEntity
  8
0
100
AcDbLine
 62
7
  6
CONTINUOUS
 10
-5.8314729064
 20
-6.5631186945
 11
-5.8314729003
 21
-7.3064233354
  0
LINE
  5
3CA
100
AcDbEntity
  8
0
100
AcDbLine
 62
7
  6
CONTINUOUS
 10
-5.8314729003
 20
-9.0218553784
 11
-5.8314729003
 21
-9.5925401104
  0
LINE
  5
3CB
100
AcDbEntity
  8
0
100
AcDbLine
 62
7
  6
CONTINUOUS
 10
-5.8314729003
 20
-11.3079721534
 11
-5.8314729003
 21
-12.0512007048
  0
LINE
  5
3CC
100
AcDbEntity
  8
0
100
AcDbLine
 62
7
  6
CONTINUOUS
 10
-5.8314729064
 20
-13.7480571302
 11
-5.8314729003
 21
-14.5032022055
  0
LINE
  5
3CD
100
AcDbEntity
  8
0
100
AcDbLine
 62
7
  6
CONTINUOUS
 10
-5.8314729003
 20
-16.1133057272
 11
-5.8314729003
 21
-17.6522065888
  0
LWPOLYLINE
  5
3CE
100
AcDbEntity
  8
0
100
AcDbPolyline
 62
250
  6
CONTINUOUS
 90
11
 70
0
 10
-5.8314729003
 20
-4.1111822237
 10
-5.8317959657
 20
-4.1258502
 10
-5.8362900215
 20
-4.1674406413
 10
-5.8456467492
 20
-4.2068805651
 10
-5.8598033301
 20
-4.2451368589
 10
-5.8784963268
 20
-4.2818611943
 10
-5.9016213795
 20
-4.3170056501
 10
-5.9303803243
 20
-4.3518179419
 10
-5.9656946872
 20
-4.3863689173
 10
-6.0074889024
 20
-4.4197148888
 10
-6.05600106
 20
-4.4513583667
  0
LWPOLYLINE
  5
3CF
100
AcDbEntity
  8
0
100
AcDbPolyline
 62
250
  6
CONTINUOUS
 90
11
 70
0
 10
-5.8314729003
 20
-6.5631837244
 10
-5.8317959657
 20
-6.5778517006
 10
-5.8362900215
 20
-6.6194421419
 10
-5.8456467492
 20
-6.6588820658
 10
-5.8598033301
 20
-6.6971383596
 10
-5.8784963268
 20
-6.7338626949
 10
-5.9016213795
 20
-6.7690071507
 10
-5.9303803243
 20
-6.8038194425
 10
-5.9656946872
 20
-6.8383704179
 10
-6.0074889024
 20
-6.8717163895
 10
-6.05600106
 20
-6.9033598673
  0
LWPOLYLINE
  5
3D0
100
AcDbEntity
  8
0
100
AcDbPolyline
 62
250
  6
CONTINUOUS
 90
11
 70
0
 10
-5.8314729003
 20
-13.7481221601
 10
-5.8317959657
 20
-13.7627901364
 10
-5.8362900215
 20
-13.8043805777
 10
-5.8456467492
 20
-13.8438205015
 10
-5.8598033301
 20
-13.8820767953
 10
-5.8784963268
 20
-13.9188011307
 10
-5.9016213795
 20
-13.9539455865
 10
-5.9303803243
 20
-13.9887578783
 10
-5.9656946872
 20
-14.0233088537
 10
-6.0074889024
 20
-14.0566548252
 10
-6.05600106
 20
-14.0882983031
  0
LWPOLYLINE
  5
3D1
100
AcDbEntity
  8
0
100
AcDbPolyline
 62
250
  6
CONTINUOUS
 90
11
 70
0
 10
-5.8314729003
 20
-16.1132952926
 10
-5.8317959657
 20
-16.1279632689
 10
-5.8362900215
 20
-16.1695537101
 10
-5.8456467492
 20
-16.208993634
 10
-5.8598033301
 20
-16.2472499278
 10
-5.8784963268
 20
-16.2839742631
 10
-5.9016213795
 20
-16.3191187189
 10
-5.9303803243
 20
-16.3539310108
 10
-5.9656946872
 20
-16.3884819861
 10
-6.0074889024
 20
-16.4218279577
 10
-6.05600106
 20
-16.4534714356
  0
LWPOLYLINE
  5
3D2
100
AcDbEntity
  8
0
100
AcDbPolyline
 62
250
  6
CONTINUOUS
 90
11
 70
0
 10
-5.8314729004
 20
-9.0218521728
 10
-5.8318047056
 20
-9.0368463243
 10
-5.8363185552
 20
-9.0787706139
 10
-5.8456857472
 20
-9.1184934842
 10
-5.8598461793
 20
-9.1569992949
 10
-5.8785401215
 20
-9.1939472754
 10
-5.9016637093
 20
-9.2292821612
 10
-5.9304178186
 20
-9.2642465631
 10
-5.9657230465
 20
-9.2989099544
 10
-6.0075046733
 20
-9.3323306634
 10
-6.05600106
 20
-9.3640114967
  0
LWPOLYLINE
  5
3D3
100
AcDbEntity
  8
0
100
AcDbPolyline
 62
250
  6
CONTINUOUS
 90
11
 70
0
 10
-5.8314729004
 20
-11.3079689479
 10
-5.8318047056
 20
-11.3229630993
 10
-5.8363185552
 20
-11.3648873889
 10
-5.8456857472
 20
-11.4046102592
 10
-5.8598461793
 20
-11.4431160699
 10
-5.8785401215
 20
-11.4800640505
 10
-5.9016637093
 20
-11.5153989362
 10
-5.9304178186
 20
-11.5503633381
 10
-5.9657230465
 20
-11.5850267294
 10
-6.0075046733
 20
-11.6184474384
 10
-6.05600106
 20
-11.6501282717
  0
LWPOLYLINE
  5
3D4
100
AcDbEntity
  8
0
100
AcDbPolyline
 62
7
  6
CONTINUOUS
 90
12
 70
0
 10
-5.8314729005
 20
-2.0333938202
 10
-5.830545383
 20
-1.9953659829
 10
-5.8271755546
 20
-1.9490342076
 10
-5.8209814514
 20
-1.8979110821
 10
-5.8116395398
 20
-1.8423445233
 10
-5.7989136068
 20
-1.782879839
 10
-5.7826641101
 20
-1.720200825
 10
-5.7628026374
 20
-1.6548964173
 10
-5.739251304
 20
-1.587419895
 10
-5.7119734356
 20
-1.5182806193
 10
-5.681015112
 20
-1.4480956604
 10
-5.655973609
 20
-1.3961965708
  0
LWPOLYLINE
  5
3D5
100
AcDbEntity
  8
0
100
AcDbPolyline
 62
250
  6
CONTINUOUS
 90
13
 70
0
 10
-6.05600106
 20
-17.9730762047
 10
-6.0591801877
 20
-18.1016759406
 10
-6.0697682738
 20
-18.2233805085
 10
-6.0873583135
 20
-18.3379091715
 10
-6.1113624217
 20
-18.4444344505
 10
-6.1414217921
 20
-18.5434907879
 10
-6.1778017076
 20
-18.6366225171
 10
-6.2206635794
 20
-18.7239721381
 10
-6.269649067
 20
-18.8045851096
 10
-6.3245483599
 20
-18.8780916484
 10
-6.3851906028
 20
-18.9442331275
 10
-6.4513119668
 20
-19.0026931504
 10
-6.5281268438
 20
-19.0566457891
  0
LWPOLYLINE
  5
3D6
100
AcDbEntity
  8
0
100
AcDbPolyline
 62
250
  6
CONTINUOUS
 90
10
 70
0
 10
-6.05600106
 20
-2.3542736545
 10
-6.0525639558
 20
-2.2502824348
 10
-6.0426040258
 20
-2.1440446494
 10
-6.0261212699
 20
-2.0355602982
 10
-6.0029051192
 20
-1.9240296197
 10
-5.9731661426
 20
-1.8102523756
 10
-5.937536047
 20
-1.6966278505
 10
-5.8962254012
 20
-1.5839558062
 10
-5.8490236364
 20
-1.471436481
 10
-5.7959307526
 20
-1.3590698749
  0
LWPOLYLINE
  5
3D7
100
AcDbEntity
  8
0
100
AcDbPolyline
 62
250
  6
CONTINUOUS
 90
9
 70
0
 10
-5.831472905
 20
-17.6522570827
 10
-5.8322140806
 20
-17.6720853198
 10
-5.840054791
 20
-17.7196828461
 10
-5.8563750355
 20
-17.7665574423
 10
-5.8809999708
 20
-17.8122068743
 10
-5.9136657642
 20
-17.8561420233
 10
-5.9540224287
 20
-17.8978921454
 10
-6.00163758
 20
-17.9370099145
 10
-6.05600106
 20
-17.9730762037
  0
LINE
  5
3D8
100
AcDbEntity
  8
0
100
AcDbLine
 62
250
  6
CONTINUOUS
 10
-5.8320645673
 20
-2.5168261169
 11
-5.8314729003
 21
-2.5011269267
  0
LINE
  5
3D9
100
AcDbEntity
  8
0
100
AcDbLine
 62
250
  6
CONTINUOUS
 10
-5.8320645673
 20
-4.8819992494
 11
-5.8314729003
 21
-4.8663000592
  0
LINE
  5
3DA
100
AcDbEntity
  8
0
100
AcDbLine
 62
250
  6
CONTINUOUS
 10
-5.8320645673
 20
-12.0669376852
 11
-5.8314729003
 21
-12.0512384949
  0
LINE
  5
3DB
100
AcDbEntity
  8
0
100
AcDbLine
 62
250
  6
CONTINUOUS
 10
-5.8320645673
 20
-14.5189391858
 11
-5.8314729003
 21
-14.5032399956
  0
LINE
  5
3DC
100
AcDbEntity
  8
0
100
AcDbLine
 62
250
  6
CONTINUOUS
 10
-5.8320792592
 20
-7.3221733686
 11
-5.8314729003
 21
-7.3064640419
  0
LINE
  5
3DD
100
AcDbEntity
  8
0
100
AcDbLine
 62
250
  6
CONTINUOUS
 10
-5.8320792592
 20
-9.6082901437
 11
-5.8314729003
 21
-9.5925808169
  0
LWPOLYLINE
  5
3DE
100
AcDbEntity
  8
0
100
AcDbPolyline
 62
250
  6
CONTINUOUS
 90
8
 70
0
 10
-5.1162662796
 20
18.6497734737
 10
-5.1165150823
 20
18.6435135805
 10
-5.1212912193
 20
18.6357709142
 10
-5.1303553119
 20
18.626269876
 10
-5.1435624242
 20
18.6151623881
 10
-5.1607013729
 20
18.6026260602
 10
-5.1814981047
 20
18.5888613495
 10
-5.2056200777
 20
18.5740883552
  0
LWPOLYLINE
  5
3DF
100
AcDbEntity
  8
0
100
AcDbPolyline
 62
250
  6
CONTINUOUS
 90
6
 70
0
 10
-6.05600106
 20
-7.6059986795
 10
-6.0573882474
 20
-7.6298544511
 10
-6.0621311306
 20
-7.6512587074
 10
-6.0701178476
 20
-7.6697074674
 10
-6.0811601706
 20
-7.6847664146
 10
-6.0951119486
 20
-7.6961513281
  0
LWPOLYLINE
  5
3E0
100
AcDbEntity
  8
0
100
AcDbPolyline
 62
250
  6
CONTINUOUS
 90
6
 70
0
 10
-6.05600106
 20
-9.8921154545
 10
-6.0573882474
 20
-9.9159712261
 10
-6.0621311306
 20
-9.9373754824
 10
-6.0701178476
 20
-9.9558242424
 10
-6.0811601706
 20
-9.9708831896
 10
-6.0951119486
 20
-9.9822681031
  0
LWPOLYLINE
  5
3E1
100
AcDbEntity
  8
0
100
AcDbPolyline
 62
250
  6
CONTINUOUS
 90
6
 70
0
 10
-6.05600106
 20
-2.8026555159
 10
-6.0574142203
 20
-2.8267307929
 10
-6.0622483001
 20
-2.8483011891
 10
-6.0703870554
 20
-2.8668488424
 10
-6.0816349177
 20
-2.8819285366
 10
-6.0950828859
 20
-2.892790291
  0
LWPOLYLINE
  5
3E2
100
AcDbEntity
  8
0
100
AcDbPolyline
 62
250
  6
CONTINUOUS
 90
6
 70
0
 10
-6.05600106
 20
-5.1678286484
 10
-6.0574142203
 20
-5.1919039254
 10
-6.0622483001
 20
-5.2134743216
 10
-6.0703870554
 20
-5.2320219748
 10
-6.0816349177
 20
-5.247101669
 10
-6.0950828859
 20
-5.2579634235
  0
LWPOLYLINE
  5
3E3
100
AcDbEntity
  8
0
100
AcDbPolyline
 62
250
  6
CONTINUOUS
 90
6
 70
0
 10
-6.05600106
 20
-12.3527670841
 10
-6.0574142203
 20
-12.3768423612
 10
-6.0622483001
 20
-12.3984127574
 10
-6.0703870554
 20
-12.4169604106
 10
-6.0816349177
 20
-12.4320401048
 10
-6.0950828859
 20
-12.4429018593
  0
LWPOLYLINE
  5
3E4
100
AcDbEntity
  8
0
100
AcDbPolyline
 62
250
  6
CONTINUOUS
 90
6
 70
0
 10
-6.05600106
 20
-14.8047685848
 10
-6.0574142203
 20
-14.8288438618
 10
-6.0622483001
 20
-14.850414258
 10
-6.0703870554
 20
-14.8689619112
 10
-6.0816349177
 20
-14.8840416054
 10
-6.0950828859
 20
-14.8949033599
  0
LWPOLYLINE
  5
3E5
100
AcDbEntity
  8
RACCORDO
100
AcDbPolyline
 62
250
  6
CONTINUOUS
 90
3
 70
0
 10
-8.6808751447
 20
-16.5377246975
 10
-8.6839156596
 20
-16.5577907606
 10
-8.7656851467
 20
-16.7873291154
  0
LINE
  5
3E6
100
AcDbEntity
  8
0
100
AcDbLine
 62
250
  6
CONTINUOUS
 10
-5.8379197022
 20
-2.5531880329
 11
-5.8320645673
 21
-2.5168261169
  0
LINE
  5
3E7
100
AcDbEntity
  8
0
100
AcDbLine
 62
250
  6
CONTINUOUS
 10
-5.8379197022
 20
-4.9183611654
 11
-5.8320645673
 21
-4.8819992494
  0
LINE
  5
3E8
100
AcDbEntity
  8
0
100
AcDbLine
 62
250
  6
CONTINUOUS
 10
-5.8379197022
 20
-12.1032996012
 11
-5.8320645673
 21
-12.0669376852
  0
LINE
  5
3E9
100
AcDbEntity
  8
0
100
AcDbLine
 62
250
  6
CONTINUOUS
 10
-5.8379727033
 20
-7.3581623933
 11
-5.8320792592
 21
-7.3221733686
  0
LINE
  5
3EA
100
AcDbEntity
  8
0
100
AcDbLine
 62
250
  6
CONTINUOUS
 10
-5.8379727033
 20
-9.6442791683
 11
-5.8320792592
 21
-9.6082901437
  0
LWPOLYLINE
  5
3EB
100
AcDbEntity
  8
RACCORDO
100
AcDbPolyline
 62
250
  6
CONTINUOUS
 90
3
 70
0
 10
-8.6930638003
 20
-16.6268437276
 10
-8.6974243718
 20
-16.6508013947
 10
-8.7046529619
 20
-16.6754328909
  0
LWPOLYLINE
  5
3EC
100
AcDbEntity
  8
RACCORDO
100
AcDbPolyline
 62
7
  6
CONTINUOUS
 90
7
 70
0
 10
-8.7046992065
 20
-16.6755408358
 10
-8.7034121924
 20
-16.6718749953
 10
-8.6948145139
 20
-16.6436422173
 10
-8.6883271441
 20
-16.6149888354
 10
-8.6838849509
 20
-16.5860971131
 10
-8.6813929544
 20
-16.5570684093
 10
-8.6807482733
 20
-16.5327044538
  0
LINE
  5
3ED
100
AcDbEntity
  8
RACCORDO
100
AcDbLine
 62
7
  6
CONTINUOUS
 10
-8.7400514604
 20
-16.7748381823
 11
-8.7046481874
 21
-16.6754194831
  0
LWPOLYLINE
  5
3EE
100
AcDbEntity
  8
0
100
AcDbPolyline
 62
250
  6
CONTINUOUS
 90
3
 70
0
 10
-13.5285423236
 20
-16.9777263627
 10
-13.4722441017
 20
-16.9278750231
 10
-13.4138666221
 20
-16.882469226
  0
LINE
  5
3EF
100
AcDbEntity
  8
0
100
AcDbLine
 62
250
  6
CONTINUOUS
 10
-13.4138666221
 20
-16.882469226
 11
-13.353409885
 21
-16.8415089713
  0
LWPOLYLINE
  5
3F0
100
AcDbEntity
  8
0
100
AcDbPolyline
 62
250
  6
CONTINUOUS
 90
8
 70
0
 10
-6.05600106
 20
-12.352767144
 10
-6.006848112
 20
-12.3202441368
 10
-5.9633092412
 20
-12.286112825
 10
-5.9256726171
 20
-12.250705075
 10
-5.8941077259
 20
-12.2143222286
 10
-5.8688716805
 20
-12.177344585
 10
-5.8501774079
 20
-12.1402562468
 10
-5.8379197022
 20
-12.1032996012
  0
LWPOLYLINE
  5
3F1
100
AcDbEntity
  8
0
100
AcDbPolyline
 62
7
  6
CONTINUOUS
 90
11
 70
0
 10
-6.0953826836
 20
-12.4430851873
 10
-6.0545155313
 20
-12.4162885681
 10
-6.00635017
 20
-12.3795909005
 10
-5.9628454658
 20
-12.3399352096
 10
-5.9246920835
 20
-12.2974888014
 10
-5.8927344784
 20
-12.2529382029
 10
-5.8672129348
 20
-12.2065290386
 10
-5.8482983836
 20
-12.1583154113
 10
-5.836381246
 20
-12.1091104035
 10
-5.8315830029
 20
-12.0595568885
 10
-5.831479007
 20
-12.0507527019
  0
LINE
  5
3F2
100
AcDbEntity
  8
0
100
AcDbLine
 62
250
  6
CONTINUOUS
 10
-13.353409885
 20
-16.8415089713
 11
-6.05600106
 21
-12.3527670841
  0
LINE
  5
3F3
100
AcDbEntity
  8
0
100
AcDbLine
 62
7
  6
CONTINUOUS
 10
-13.392491739
 20
-16.9316437638
 11
-6.0950828859
 21
-12.4429018593
  0
LWPOLYLINE
  5
3F4
100
AcDbEntity
  8
0
100
AcDbPolyline
 62
7
  6
CONTINUOUS
 90
8
 70
0
 10
-6.4398490278
 20
-13.0937997599
 10
-6.4243536112
 20
-13.0845746755
 10
-6.410896797
 20
-13.0761995497
 10
-6.3998088824
 20
-13.0687949216
 10
-6.391374586
 20
-13.0625825854
 10
-6.3859373317
 20
-13.0576740288
 10
-6.3837572594
 20
-13.0540862519
 10
-6.3837169887
 20
-13.0536564195
  0
LINE
  5
3F5
100
AcDbEntity
  8
0
100
AcDbLine
 62
7
  6
CONTINUOUS
 10
-6.4398490278
 20
-13.0937997599
 11
-7.2065146942
 21
-13.5389948171
  0
LINE
  5
3F6
100
AcDbEntity
  8
0
100
AcDbLine
 62
250
  6
CONTINUOUS
 10
-6.1728470565
 20
-13.860044176
 11
-13.4702558815
 21
-18.0975762343
  0
LINE
  5
3F7
100
AcDbEntity
  8
0
100
AcDbLine
 62
250
  6
CONTINUOUS
 10
-6.05600106
 20
-14.088298349
 11
-13.353409885
 21
-18.3258304073
  0
LINE
  5
3F8
100
AcDbEntity
  8
0
100
AcDbLine
 62
7
  6
CONTINUOUS
 10
-13.6885013295
 20
-17.2209690243
 11
-7.2065146942
 21
-13.5389948171
  0
LWPOLYLINE
  5
3F9
100
AcDbEntity
  8
0
100
AcDbPolyline
 62
250
  6
CONTINUOUS
 90
18
 70
0
 10
-13.353409885
 20
-18.3258304073
 10
-13.4068771802
 20
-18.3543433403
 10
-13.4594761952
 20
-18.377209221
 10
-13.5112069297
 20
-18.3944280494
 10
-13.5624729934
 20
-18.4061400593
 10
-13.6128707767
 20
-18.412205017
 10
-13.6611894515
 20
-18.4122022206
 10
-13.7074463235
 20
-18.4059074601
 10
-13.7516240869
 20
-18.3935449456
 10
-13.7924599968
 20
-18.3753666053
 10
-13.8297593188
 20
-18.3512320808
 10
-13.8637167874
 20
-18.3212817306
 10
-13.8936538602
 20
-18.2861885587
 10
-13.9194954661
 20
-18.245849729
 10
-13.9413166763
 20
-18.2003680776
 10
-13.9586641619
 20
-18.1507251166
 10
-13.9714483233
 20
-18.0968438023
 10
-13.9797587602
 20
-18.0388011785
  0
LWPOLYLINE
  5
3FA
100
AcDbEntity
  8
0
100
AcDbPolyline
 62
250
  6
CONTINUOUS
 90
11
 70
0
 10
-13.4702551922
 20
-18.0975766325
 10
-13.5138542022
 20
-18.1183057595
 10
-13.5571837947
 20
-18.135030041
 10
-13.6000058125
 20
-18.1475236492
 10
-13.6421611478
 20
-18.1555449728
 10
-13.6833135005
 20
-18.1589556308
 10
-13.7229634394
 20
-18.1577455506
 10
-13.7609267861
 20
-18.1518146311
 10
-13.796904865
 20
-18.1410943474
 10
-13.8302846211
 20
-18.1257892726
 10
-13.8468400144
 20
-18.1158680354
  0
LWPOLYLINE
  5
3FB
100
AcDbEntity
  8
RACCORDO
100
AcDbPolyline
 62
250
  6
CONTINUOUS
 90
9
 70
0
 10
-8.8062616981
 20
-16.803786941
 10
-8.8468593975
 20
-16.8208130384
 10
-8.8874782447
 20
-16.8384074077
 10
-8.9281297821
 20
-16.8565760686
 10
-8.9688024675
 20
-16.8753130013
 10
-9.0094616741
 20
-16.8946001469
 10
-9.0500958599
 20
-16.9144314856
 10
-9.090716567
 20
-16.9348130372
 10
-9.1313237955
 20
-16.9557448017
  0
LINE
  5
3FC
100
AcDbEntity
  8
RACCORDO
100
AcDbLine
 62
250
  6
CONTINUOUS
 10
-8.7656851467
 20
-16.7873291154
 11
-8.8062616981
 21
-16.803786941
  0
LWPOLYLINE
  5
3FD
100
AcDbEntity
  8
DRAFT
100
AcDbPolyline
 62
7
  6
CONTINUOUS
 90
37
 70
0
 10
-23.4782703914
 20
8.3897719291
 10
-23.4979341911
 20
8.3894141015
 10
-23.5180286312
 20
8.3907987313
 10
-23.5385537116
 20
8.3939258185
 10
-23.5595917928
 20
8.3988208445
 10
-23.5810605142
 20
8.4054583278
 10
-23.6027127949
 20
8.413761825
 10
-23.6245508913
 20
8.4237506202
 10
-23.6465725468
 20
8.4354054291
 10
-23.6685239105
 20
8.4485919555
 10
-23.690403941
 20
8.4633276829
 10
-23.7122136797
 20
8.4795951277
 10
-23.7337024001
 20
8.4972075429
 10
-23.7548666909
 20
8.5161806629
 10
-23.7757099635
 20
8.5364987533
 10
-23.7959917247
 20
8.5579278642
 10
-23.8157054198
 20
8.5804807678
 10
-23.8348576035
 20
8.604144692
 10
-23.8532274467
 20
8.6286473705
 10
-23.8708060592
 20
8.6539987368
 10
-23.8876023311
 20
8.6801888574
 10
-23.9034221041
 20
8.7069156664
 10
-23.9182541422
 20
8.7341857138
 10
-23.9321096814
 20
8.7619924497
 10
-23.9448282707
 20
8.790014158
 10
-23.9563964897
 20
8.8182528658
 10
-23.9668277588
 20
8.8467065461
 10
-23.976001888
 20
8.8750474023
 10
-23.9839044807
 20
8.9032778196
 10
-23.9905499335
 20
8.9313954129
 10
-23.9958612467
 20
8.9590652292
 10
-23.9998226151
 20
8.9862683302
 10
-24.0024498438
 20
9.0130236543
 10
-24.0037133483
 20
9.0390530642
 10
-24.0036032671
 20
9.0642638475
 10
-24.0021294616
 20
9.0887487165
 10
-23.999291932
 20
9.1125076713
  0
LINE
  5
3FE
100
AcDbEntity
  8
DRAFT
100
AcDbLine
 62
7
  6
CONTINUOUS
 10
-27.5747255263
 20
13.3808808636
 11
-23.3320848392
 21
10.9312333036
  0
LINE
  5
3FF
100
AcDbEntity
  8
DRAFT
100
AcDbLine
 62
7
  6
CONTINUOUS
 10
-21.0017598729
 20
10.3521621012
 11
-20.9884661989
 21
10.3444865005
  0
LINE
  5
400
100
AcDbEntity
  8
DRAFT
100
AcDbLine
 62
7
  6
CONTINUOUS
 10
-26.6841391593
 20
14.0251266299
 11
-22.1986284821
 21
11.4352489815
  0
LINE
  5
401
100
AcDbEntity
  8
DRAFT
100
AcDbLine
 62
7
  6
CONTINUOUS
 10
-27.1243092845
 20
14.4158945042
 11
-26.5585348298
 21
14.0892234249
  0
LINE
  5
402
100
AcDbEntity
  8
DRAFT
100
AcDbLine
 62
7
  6
CONTINUOUS
 10
-22.0855338358
 20
11.5065687108
 11
-21.5197593811
 21
11.1798976315
  0
LINE
  5
403
100
AcDbEntity
  8
ASSI
100
AcDbLine
 62
7
  6
CONTINUOUS
 10
-25.3536654947
 20
13.6951150068
 11
-24.9531303034
 21
13.4638510073
  0
LINE
  5
404
100
AcDbEntity
  8
ASSI
100
AcDbLine
 62
7
  6
CONTINUOUS
 10
-24.7729538706
 20
13.3598193931
 11
-21.5590177537
 21
11.5041329593
  0
LINE
  5
405
100
AcDbEntity
  8
ASSI
100
AcDbLine
 62
7
  6
CONTINUOUS
 10
-21.3788413209
 20
11.4001013451
 11
-20.9783061297
 21
11.1688373456
  0
LINE
  5
406
100
AcDbEntity
  8
DRAFT
100
AcDbLine
 62
7
  6
CONTINUOUS
 10
-20.6983413537
 20
11.3928442835
 11
-24.9538343579
 21
13.8499126103
  0
LINE
  5
407
100
AcDbEntity
  8
DRAFT
100
AcDbLine
 62
7
  6
CONTINUOUS
 10
-26.1150645313
 20
15.1128464786
 11
-23.5260996754
 21
13.6180106182
  0
LINE
  5
408
100
AcDbEntity
  8
DRAFT
100
AcDbLine
 62
7
  6
CONTINUOUS
 10
-19.6986307665
 20
11.4080780396
 11
-17.1096659106
 21
9.9132421792
  0
LINE
  5
409
100
AcDbEntity
  8
0
100
AcDbLine
 62
250
  6
CONTINUOUS
 10
-5.8379197022
 20
-14.5553011018
 11
-5.8320645673
 21
-14.5189391858
  0
LWPOLYLINE
  5
40A
100
AcDbEntity
  8
0
100
AcDbPolyline
 62
250
  6
CONTINUOUS
 90
7
 70
0
 10
1.3512889985
 20
12.1855871269
 10
1.3539809382
 20
12.1983281349
 10
1.3591051932
 20
12.2108179435
 10
1.3665984555
 20
12.2229022463
 10
1.3763681488
 20
12.2344317464
 10
1.3882935727
 20
12.2452640018
 10
1.4022273933
 20
12.2552651843
  0
LWPOLYLINE
  5
40B
100
AcDbEntity
  8
0
100
AcDbPolyline
 62
250
  6
CONTINUOUS
 90
3
 70
0
 10
-11.4492551366
 20
-18.1505391934
 10
-11.3934552645
 20
-18.1011060426
 10
-11.3355747372
 20
-18.0560689273
  0
LWPOLYLINE
  5
40C
100
AcDbEntity
  8
RACCORDO
100
AcDbPolyline
 62
250
  6
CONTINUOUS
 90
13
 70
0
 10
-9.5497879434
 20
-17.1312112894
 10
-9.5398174592
 20
-17.1243961124
 10
-9.5307953953
 20
-17.1168343507
 10
-9.5227217518
 20
-17.1085260042
 10
-9.5156659407
 20
-17.0995015878
 10
-9.5095585498
 20
-17.0897305867
 10
-9.5041913433
 20
-17.079121456
 10
-9.499473492
 20
-17.0677812048
 10
-9.4954958249
 20
-17.0556028241
 10
-9.492322593
 20
-17.0421737406
 10
-9.489975213
 20
-17.0273564302
 10
-9.4884322681
 20
-17.0112884171
 10
-9.4876937582
 20
-16.9939697014
  0
LINE
  5
40D
100
AcDbEntity
  8
0
100
AcDbLine
 62
250
  6
CONTINUOUS
 10
-11.3355747372
 20
-18.0560689273
 11
-11.2756135547
 21
-18.0154278478
  0
LWPOLYLINE
  5
40E
100
AcDbEntity
  8
0
100
AcDbPolyline
 62
250
  6
CONTINUOUS
 90
8
 70
0
 10
-6.05600106
 20
-14.8047686446
 10
-6.006848112
 20
-14.7722456375
 10
-5.9633092412
 20
-14.7381143257
 10
-5.9256726171
 20
-14.7027065757
 10
-5.8941077259
 20
-14.6663237293
 10
-5.8688716805
 20
-14.6293460856
 10
-5.8501774079
 20
-14.5922577474
 10
-5.8379197022
 20
-14.5553011018
  0
LWPOLYLINE
  5
40F
100
AcDbEntity
  8
0
100
AcDbPolyline
 62
7
  6
CONTINUOUS
 90
11
 70
0
 10
-6.0953826836
 20
-14.8950866879
 10
-6.0545155313
 20
-14.8682900687
 10
-6.00635017
 20
-14.8315924011
 10
-5.9628454658
 20
-14.7919367102
 10
-5.9246920835
 20
-14.7494903021
 10
-5.8927344784
 20
-14.7049397035
 10
-5.8672129348
 20
-14.6585305392
 10
-5.8482983836
 20
-14.6103169119
 10
-5.836381246
 20
-14.5611119041
 10
-5.8315830029
 20
-14.5115583891
 10
-5.831479007
 20
-14.5027542026
  0
LINE
  5
410
100
AcDbEntity
  8
0
100
AcDbLine
 62
250
  6
CONTINUOUS
 10
-11.2756135547
 20
-18.0154278478
 11
-6.05600106
 21
-14.8047685848
  0
LINE
  5
411
100
AcDbEntity
  8
0
100
AcDbLine
 62
7
  6
CONTINUOUS
 10
-11.3146954088
 20
-18.1055626402
 11
-6.0950828859
 21
-14.8949033599
  0
LINE
  5
412
100
AcDbEntity
  8
0
100
AcDbLine
 62
7
  6
CONTINUOUS
 10
-8.0367400839
 20
-16.3755309773
 11
-7.4523473416
 21
-16.0262282963
  0
LWPOLYLINE
  5
413
100
AcDbEntity
  8
0
100
AcDbPolyline
 62
7
  6
CONTINUOUS
 90
8
 70
0
 10
-6.4398490278
 20
-15.4589728923
 10
-6.4243536112
 20
-15.4497478079
 10
-6.410896797
 20
-15.4413726822
 10
-6.3998088824
 20
-15.4339680541
 10
-6.391374586
 20
-15.4277557178
 10
-6.3859373317
 20
-15.4228471612
 10
-6.3837572594
 20
-15.4192593843
 10
-6.3837169887
 20
-15.4188295519
  0
LINE
  5
414
100
AcDbEntity
  8
0
100
AcDbLine
 62
7
  6
CONTINUOUS
 10
-6.4398490278
 20
-15.4589728923
 11
-7.2065146942
 21
-15.9041679496
  0
LINE
  5
415
100
AcDbEntity
  8
0
100
AcDbLine
 62
250
  6
CONTINUOUS
 10
-6.1728470565
 20
-16.2252173084
 11
-11.3924595513
 21
-19.2561938932
  0
LINE
  5
416
100
AcDbEntity
  8
0
100
AcDbLine
 62
250
  6
CONTINUOUS
 10
-6.05600106
 20
-16.4534714815
 11
-11.2756135547
 21
-19.4844480663
  0
LINE
  5
417
100
AcDbEntity
  8
RACCORDO
100
AcDbLine
 62
250
  6
CONTINUOUS
 10
-11.1017945234
 20
-18.0271472407
 11
-9.5497879434
 21
-17.1312112894
  0
LINE
  5
418
100
AcDbEntity
  8
0
100
AcDbLine
 62
7
  6
CONTINUOUS
 10
-11.619773695
 20
-18.4098093701
 11
-7.2065146942
 21
-15.9041679496
  0
LWPOLYLINE
  5
419
100
AcDbEntity
  8
0
100
AcDbPolyline
 62
250
  6
CONTINUOUS
 90
19
 70
0
 10
-11.2756135547
 20
-19.4844480663
 10
-11.3286445869
 20
-19.5127114872
 10
-11.3807907591
 20
-19.535366968
 10
-11.4320520716
 20
-19.5524145086
 10
-11.4828257283
 20
-19.5639857731
 10
-11.5327145252
 20
-19.5699490973
 10
-11.5805268501
 20
-19.5699094896
 10
-11.62627525
 20
-19.5636496038
 10
-11.6699471778
 20
-19.5513867859
 10
-11.710313381
 20
-19.5333780819
 10
-11.7471864298
 20
-19.5094880916
 10
-11.7807537539
 20
-19.4798522151
 10
-11.8103483896
 20
-19.4451336986
 10
-11.8358975844
 20
-19.4052301057
 10
-11.8574740907
 20
-19.3602438727
 10
-11.8746292018
 20
-19.3111455549
 10
-11.8872740747
 20
-19.2578597892
 10
-11.8954975523
 20
-19.2004619386
 10
-11.8991174569
 20
-19.1401486467
  0
LINE
  5
41A
100
AcDbEntity
  8
RACCORDO
100
AcDbLine
 62
250
  6
CONTINUOUS
 10
-9.20987273
 20
-16.996769675
 11
-9.1313237955
 21
-16.9557448017
  0
LWPOLYLINE
  5
41B
100
AcDbEntity
  8
0
100
AcDbPolyline
 62
250
  6
CONTINUOUS
 90
11
 70
0
 10
-11.3924588494
 20
-19.2561942987
 10
-11.4356063617
 20
-19.276674742
 10
-11.4784660924
 20
-19.2931782192
 10
-11.5208024777
 20
-19.3054868065
 10
-11.562457983
 20
-19.3133675177
 10
-11.6031020168
 20
-19.3166898051
 10
-11.6422446612
 20
-19.3154496254
 10
-11.6797023012
 20
-19.3095547609
 10
-11.7151863218
 20
-19.2989435882
 10
-11.7481054285
 20
-19.2838177061
 10
-11.7643173281
 20
-19.2740940785
  0
LINE
  5
41C
100
AcDbEntity
  8
DRAFT
100
AcDbLine
 62
7
  6
CONTINUOUS
 10
-19.6986307665
 20
11.4080780396
 11
-20.6983413537
 21
11.3928442835
  0
LINE
  5
41D
100
AcDbEntity
  8
DRAFT
100
AcDbLine
 62
7
  6
CONTINUOUS
 10
-16.2747913752
 20
9.8459629625
 11
-17.1096659106
 21
9.9132421792
  0
LINE
  5
41E
100
AcDbEntity
  8
DRAFT
100
AcDbLine
 62
7
  6
CONTINUOUS
 10
-17.933459616
 20
10.8036572167
 11
-17.2561570198
 21
10.7461133333
  0
LINE
  5
41F
100
AcDbEntity
  8
DRAFT
100
AcDbLine
 62
7
  6
CONTINUOUS
 10
-25.2505266416
 20
15.0284400129
 11
-23.5918584008
 21
14.0707457587
  0
LINE
  5
420
100
AcDbEntity
  8
DRAFT
100
AcDbLine
 62
7
  6
CONTINUOUS
 10
-17.933459616
 20
10.8036572167
 11
-16.2747913752
 21
9.8459629625
  0
LINE
  5
421
100
AcDbEntity
  8
DRAFT
100
AcDbLine
 62
7
  6
CONTINUOUS
 10
-22.9026302716
 20
14.006316222
 11
-17.2561570198
 21
10.7461133333
  0
LWPOLYLINE
  5
422
100
AcDbEntity
  8
RACCORDO
100
AcDbPolyline
 62
250
  6
CONTINUOUS
 90
7
 70
0
 10
-15.5693258059
 20
14.5417789335
 10
-15.5832195575
 20
14.5617571236
 10
-15.598277541
 20
14.5802789194
 10
-15.6143881954
 20
14.5972070975
 10
-15.6314321609
 20
14.6124162413
 10
-15.6492831632
 20
14.62579367
 10
-15.6678089485
 20
14.6372402737
  0
LWPOLYLINE
  5
423
100
AcDbEntity
  8
0
100
AcDbPolyline
 62
7
  6
CONTINUOUS
 90
7
 70
0
 10
-7.6456461414
 20
19.6741511718
 10
-7.6446850242
 20
19.668598673
 10
-7.6435333819
 20
19.6632215538
 10
-7.6421912144
 20
19.6580198144
 10
-7.6406585217
 20
19.6529934546
 10
-7.6389353039
 20
19.6481424746
 10
-7.6370215609
 20
19.6434668742
  0
LWPOLYLINE
  5
424
100
AcDbEntity
  8
0
100
AcDbPolyline
 62
250
  6
CONTINUOUS
 90
4
 70
0
 10
1.3809348164
 20
10.2222130977
 10
1.3544289173
 20
10.0744141607
 10
1.3175250517
 20
9.9353362349
 10
1.2835447122
 20
9.8418398026
  0
LWPOLYLINE
  5
425
100
AcDbEntity
  8
0
100
AcDbPolyline
 62
250
  6
CONTINUOUS
 90
11
 70
0
 10
0.9694027062
 20
9.1379322812
 10
0.9578543113
 20
9.0738720315
 10
0.9468153853
 20
9.0096986305
 10
0.936342952
 20
8.9454227944
 10
0.9266413413
 20
8.879570981
 10
0.9175337297
 20
8.8119271677
 10
0.9091969405
 20
8.7427073772
 10
0.9023657734
 20
8.6710861353
 10
0.8972851616
 20
8.596788284
 10
0.8937101718
 20
8.5200889815
 10
0.8916408041
 20
8.4409882275
  0
LWPOLYLINE
  5
426
100
AcDbEntity
  8
0
100
AcDbPolyline
 62
250
  6
CONTINUOUS
 90
10
 70
0
 10
1.3512889985
 20
12.1855871269
 10
1.3447618806
 20
12.14975685
 10
1.3334180829
 20
12.114329287
 10
1.3173266171
 20
12.0795199666
 10
1.2965853779
 20
12.0455406565
 10
1.2713205477
 20
12.0125980747
 10
1.2416858288
 20
11.9808926322
 10
1.2078615082
 20
11.9506172137
 10
1.1700533613
 20
11.9219560041
 10
1.1284913993
 20
11.8950833681
  0
LWPOLYLINE
  5
427
100
AcDbEntity
  8
0
100
AcDbPolyline
 62
250
  6
CONTINUOUS
 90
10
 70
0
 10
1.3512889985
 20
10.4709995456
 10
1.34476188
 20
10.4351694138
 10
1.3334180856
 20
10.3997419706
 10
1.3173266316
 20
10.3649327442
 10
1.2965854265
 20
10.3309535149
 10
1.2713206512
 20
10.2980109845
 10
1.2416859719
 20
10.2663055232
 10
1.2078616487
 20
10.2360300067
 10
1.1700534573
 20
10.2073686378
 10
1.1284913993
 20
10.1804957868
  0
LINE
  5
428
100
AcDbEntity
  8
0
100
AcDbLine
 62
250
  6
CONTINUOUS
 10
0.9941657166
 20
9.2672511661
 11
0.9694027062
 21
9.1379322812
  0
LINE
  5
429
100
AcDbEntity
  8
0
100
AcDbLine
 62
250
  6
CONTINUOUS
 10
1.0646356577
 20
9.6230625412
 11
1.0352762352
 21
9.4732596024
  0
LWPOLYLINE
  5
42A
100
AcDbEntity
  8
0
100
AcDbPolyline
 62
7
  6
CONTINUOUS
 90
8
 70
0
 10
1.2047395603
 20
9.4392507358
 10
1.2459515317
 20
9.6456786045
 10
1.2670664553
 20
9.7533301351
 10
1.2876505758
 20
9.8638936294
 10
1.3070391691
 20
9.9780850583
 10
1.3242406574
 20
10.0953624485
 10
1.3382473596
 20
10.2155718602
 10
1.3428372422
 20
10.2657533827
  0
LINE
  5
42B
100
AcDbEntity
  8
0
100
AcDbLine
 62
250
  6
CONTINUOUS
 10
1.0352762352
 20
9.4732596024
 11
0.9941657166
 21
9.2672511661
  0
LWPOLYLINE
  5
42C
100
AcDbEntity
  8
0
100
AcDbPolyline
 62
250
  6
CONTINUOUS
 90
7
 70
0
 10
1.3512889985
 20
10.4709995456
 10
1.3539809382
 20
10.4837405535
 10
1.3591051931
 20
10.4962303621
 10
1.3665984554
 20
10.5083146648
 10
1.3763681487
 20
10.519844165
 10
1.3882935726
 20
10.5306764205
 10
1.4022273933
 20
10.5406776031
  0
LWPOLYLINE
  5
42D
100
AcDbEntity
  8
0
100
AcDbPolyline
 62
7
  6
CONTINUOUS
 90
13
 70
0
 10
-6.5287647847
 20
-19.0570398688
 10
-6.452842476
 20
-19.0064794543
 10
-6.3541736292
 20
-18.9285517797
 10
-6.2615706183
 20
-18.8401569958
 10
-6.1760156125
 20
-18.7415956184
 10
-6.0984056337
 20
-18.6332637552
 10
-6.0294612454
 20
-18.5155328564
 10
-5.9698700237
 20
-18.3888111096
 10
-5.920263507
 20
-18.2535482581
 10
-5.8811023904
 20
-18.109897062
 10
-5.8529046876
 20
-17.957967358
 10
-5.8362191334
 20
-17.7981886934
 10
-5.831472905
 20
-17.6522570827
  0
LINE
  5
42E
100
AcDbEntity
  8
0
100
AcDbLine
 62
250
  6
CONTINUOUS
 10
-19.2662208473
 20
-26.1424742786
 11
-6.05600106
 21
-17.9730762047
  0
LINE
  5
42F
100
AcDbEntity
  8
RACCORDO
100
AcDbLine
 62
7
  6
CONTINUOUS
 10
-19.2662208473
 20
-26.9340741963
 11
-6.5281267612
 21
-19.056645738
  0
LINE
  5
430
100
AcDbEntity
  8
0
100
AcDbLine
 62
7
  6
CONTINUOUS
 10
-6.5281268438
 20
-19.0566457891
 11
-6.5287729444
 21
-19.0570449237
  0
LINE
  5
431
100
AcDbEntity
  8
RACCORDO
100
AcDbLine
 62
250
  6
CONTINUOUS
 10
-15.6678089485
 20
14.6372402737
 11
-15.8276316979
 21
14.60788048
  0
LINE
  5
432
100
AcDbEntity
  8
RACCORDO
100
AcDbLine
 62
250
  6
CONTINUOUS
 10
-13.9737435275
 20
13.6591081312
 11
-14.1451324431
 21
13.6364264969
  0
LINE
  5
433
100
AcDbEntity
  8
RACCORDO
100
AcDbLine
 62
7
  6
CONTINUOUS
 10
-14.0850420076
 20
13.6845342804
 11
-14.1577201131
 21
13.6749172897
  0
LINE
  5
434
100
AcDbEntity
  8
DRAFT
100
AcDbLine
 62
7
  6
CONTINUOUS
 10
-22.9026302716
 20
14.006316222
 11
-23.5918584008
 21
14.0707457587
  0
LINE
  5
435
100
AcDbEntity
  8
DRAFT
100
AcDbLine
 62
7
  6
CONTINUOUS
 10
-23.5260996754
 20
13.6180106182
 11
-24.9538343579
 21
13.8499126103
  0
LINE
  5
436
100
AcDbEntity
  8
0
100
AcDbLine
 62
7
  6
CONTINUOUS
 10
-14.2104073619
 20
13.0877337772
 11
-17.1802558428
 21
14.8024870692
  0
LINE
  5
437
100
AcDbEntity
  8
RACCORDO
100
AcDbLine
 62
7
  6
CONTINUOUS
 10
-16.6550508394
 20
14.627949939
 11
-14.5639069046
 21
13.4205496392
  0
LINE
  5
438
100
AcDbEntity
  8
RACCORDO
100
AcDbLine
 62
250
  6
CONTINUOUS
 10
-14.1451324431
 20
13.6364264969
 11
-15.8276316979
 21
14.60788048
  0
LINE
  5
439
100
AcDbEntity
  8
RACCORDO
100
AcDbLine
 62
7
  6
CONTINUOUS
 10
-14.1544448667
 20
13.6742669057
 11
-15.6634116358
 21
14.5455254064
  0
LINE
  5
43A
100
AcDbEntity
  8
RACCORDO
100
AcDbLine
 62
250
  6
CONTINUOUS
 10
-16.2248584738
 20
14.9588736881
 11
-15.6678089485
 21
14.6372402737
  0
LINE
  5
43B
100
AcDbEntity
  8
RACCORDO
100
AcDbLine
 62
250
  6
CONTINUOUS
 10
-13.9737435275
 20
13.6591081312
 11
-13.5809457273
 21
13.4323116043
  0
LINE
  5
43C
100
AcDbEntity
  8
RACCORDO
100
AcDbLine
 62
7
  6
CONTINUOUS
 10
-16.1227351686
 20
14.9431936811
 11
-15.5654389965
 21
14.6214178559
  0
LINE
  5
43D
100
AcDbEntity
  8
RACCORDO
100
AcDbLine
 62
7
  6
CONTINUOUS
 10
-13.8695703586
 20
13.6422445586
 11
-13.5424637322
 21
13.4533772921
  0
LWPOLYLINE
  5
43E
100
AcDbEntity
  8
RACCORDO
100
AcDbPolyline
 62
7
  6
CONTINUOUS
 90
6
 70
0
 10
-14.1544521063
 20
13.6742710857
 10
-14.1519619864
 20
13.6719314082
 10
-14.149500574
 20
13.6669703532
 10
-14.147639136
 20
13.659523191
 10
-14.1462151799
 20
13.6493891411
 10
-14.1451324431
 20
13.6364264969
  0
LWPOLYLINE
  5
43F
100
AcDbEntity
  8
0
100
AcDbPolyline
 62
7
  6
CONTINUOUS
 90
8
 70
0
 10
-7.6475268713
 20
19.6999965897
 10
-7.6608605601
 20
19.7488098981
 10
-7.6781507467
 20
19.7933319414
 10
-7.6993974311
 20
19.8335627197
 10
-7.7248530895
 20
19.8699720118
 10
-7.7542652457
 20
19.9020900387
 10
-7.7868764706
 20
19.9285074643
 10
-7.797595046
 20
19.9354007604
  0
LWPOLYLINE
  5
440
100
AcDbEntity
  8
0
100
AcDbPolyline
 62
7
  6
CONTINUOUS
 90
7
 70
0
 10
-7.6456461414
 20
19.6741511718
 10
-7.646538847
 20
19.6779928948
 10
-7.6471998524
 20
19.6820209565
 10
-7.6476291575
 20
19.6862353568
 10
-7.6478267623
 20
19.6906360958
 10
-7.6477926669
 20
19.6952231734
 10
-7.6475268713
 20
19.6999965897
  0
LINE
  5
441
100
AcDbEntity
  8
0
100
AcDbLine
 62
250
  6
CONTINUOUS
 10
0.8916408041
 20
8.4409882275
 11
0.8916408041
 21
4.8630391705
  0
LINE
  5
442
100
AcDbEntity
  8
0
100
AcDbLine
 62
7
  6
CONTINUOUS
 10
1.1161681283
 20
8.7625254523
 11
1.1161689638
 21
5.1839088001
  0
LINE
  5
443
100
AcDbEntity
  8
0
100
AcDbLine
 62
250
  6
CONTINUOUS
 10
1.1284913993
 20
11.8950833681
 11
1.1284913993
 21
10.1804782965
  0
LINE
  5
444
100
AcDbEntity
  8
0
100
AcDbLine
 62
250
  6
CONTINUOUS
 10
1.3512889985
 20
12.1855871269
 11
1.3512889985
 21
10.4709995456
  0
LINE
  5
445
100
AcDbEntity
  8
0
100
AcDbLine
 62
250
  6
CONTINUOUS
 10
1.4022273933
 20
12.2552651843
 11
1.4022273933
 21
10.5406776031
  0
LWPOLYLINE
  5
446
100
AcDbEntity
  8
0
100
AcDbPolyline
 62
7
  6
CONTINUOUS
 90
10
 70
0
 10
1.1161681283
 20
8.7625254522
 10
1.1162474801
 20
8.7767275308
 10
1.1182067115
 20
8.8405673907
 10
1.1228774451
 20
8.9108018234
 10
1.1303610221
 20
8.9872654104
 10
1.1406107771
 20
9.069256323
 10
1.1534015028
 20
9.1556297717
 10
1.1685598148
 20
9.2463400607
 10
1.1858399826
 20
9.3412344959
 10
1.2047395603
 20
9.4392507358
  0
LWPOLYLINE
  5
447
100
AcDbEntity
  8
0
100
AcDbPolyline
 62
250
  6
CONTINUOUS
 90
3
 70
0
 10
1.3512889985
 20
10.4709995456
 10
1.3492708743
 20
10.3700801606
 10
1.3428499803
 20
10.2657038923
  0
LWPOLYLINE
  5
448
100
AcDbEntity
  8
0
100
AcDbPolyline
 62
250
  6
CONTINUOUS
 90
10
 70
0
 10
0.8916408041
 20
4.8630391705
 10
0.8902866549
 20
4.8077019652
 10
0.8845384766
 20
4.7552353937
 10
0.8744382374
 20
4.7060424506
 10
0.8600576501
 20
4.6604918041
 10
0.8415066818
 20
4.6189454071
 10
0.8189417622
 20
4.5817466197
 10
0.7925569474
 20
4.5491899031
 10
0.7625483118
 20
4.521495474
 10
0.7369414269
 20
4.5035041158
  0
LWPOLYLINE
  5
449
100
AcDbEntity
  8
0
100
AcDbPolyline
 62
7
  6
CONTINUOUS
 90
13
 70
0
 10
2.5018910978
 20
11.3123325587
 10
2.497452201
 20
11.1649352786
 10
2.484202907
 20
11.0230351757
 10
2.4622462678
 20
10.8870226773
 10
2.4315865473
 20
10.7569029186
 10
2.3923949641
 20
10.6334747898
 10
2.3452769673
 20
10.5181540873
 10
2.2907955177
 20
10.4114565938
 10
2.2292276531
 20
10.3132147817
 10
2.1610585935
 20
10.223667688
 10
2.0868220084
 20
10.1430154769
 10
2.0070561805
 20
10.0713772948
 10
1.9223476516
 20
10.0088478329
  0
LWPOLYLINE
  5
44A
100
AcDbEntity
  8
0
100
AcDbPolyline
 62
250
  6
CONTINUOUS
 90
8
 70
0
 10
1.1284913993
 20
10.1804782965
 10
1.1259584271
 20
10.0996345935
 10
1.1211097994
 20
10.0191234473
 10
1.1139455162
 20
9.9389448581
 10
1.103986126
 20
9.858787619
 10
1.0917110802
 20
9.7789629368
 10
1.0785587329
 20
9.700404432
 10
1.0646356577
 20
9.6230625412
  0
LWPOLYLINE
  5
44B
100
AcDbEntity
  8
0
100
AcDbPolyline
 62
250
  6
CONTINUOUS
 90
3
 70
0
 10
1.4022273933
 20
10.5406776031
 10
1.3968969171
 20
10.3779198314
 10
1.3809348164
 20
10.2222130977
  0
LWPOLYLINE
  5
44C
100
AcDbEntity
  8
0
100
AcDbPolyline
 62
250
  6
CONTINUOUS
 90
11
 70
0
 10
2.4248345455
 20
11.1964282709
 10
2.4196596822
 20
11.0384216591
 10
2.4041635615
 20
10.8872602238
 10
2.3784314414
 20
10.7437757141
 10
2.3426049005
 20
10.6087576333
 10
2.2968810633
 20
10.4829489124
 10
2.2415115199
 20
10.3670418177
 10
2.1768009266
 20
10.2616741096
 10
2.1031053453
 20
10.1674255707
 10
2.0208303
 20
10.0848148183
 10
1.9223476516
 20
10.0088478329
  0
LWPOLYLINE
  5
44D
100
AcDbEntity
  8
0
100
AcDbPolyline
 62
250
  6
CONTINUOUS
 90
9
 70
0
 10
1.1161689638
 20
8.7618578572
 10
1.1154277072
 20
8.7419781031
 10
1.1075868302
 20
8.6943806494
 10
1.0912664592
 20
8.6475061672
 10
1.0666414557
 20
8.6018568841
 10
1.0339756596
 20
8.5579219006
 10
0.9936190621
 20
8.5161719494
 10
0.9460040564
 20
8.4770543524
 10
0.8916408041
 20
8.4409882275
  0
LWPOLYLINE
  5
44E
100
AcDbEntity
  8
0
100
AcDbPolyline
 62
250
  6
CONTINUOUS
 90
10
 70
0
 10
1.1161689638
 20
5.1839079829
 10
1.113885424
 20
5.1490332152
 10
1.1056924326
 20
5.1093996549
 10
1.0915955785
 20
5.07030341
 10
1.0716795228
 20
5.0320177064
 10
1.0460909135
 20
4.9948516983
 10
1.0150351246
 20
4.9591084272
 10
0.9787557098
 20
4.9250621901
 10
0.9375206249
 20
4.8929593004
 10
0.8916408041
 20
4.8630391705
  0
LINE
  5
44F
100
AcDbEntity
  8
0
100
AcDbLine
 62
7
  6
CONTINUOUS
 10
1.3428499803
 20
10.2657038923
 11
1.3420472845
 21
10.2562986416
  0
LWPOLYLINE
  5
450
100
AcDbEntity
  8
0
100
AcDbPolyline
 62
250
  6
CONTINUOUS
 90
7
 70
0
 10
2.5018910978
 20
13.02692014
 10
2.5003816533
 20
13.0095659406
 10
2.4942021173
 20
12.9879549641
 10
2.4833484986
 20
12.9669670447
 10
2.4679943478
 20
12.9469377813
 10
2.4483851792
 20
12.9281874439
 10
2.4248345455
 20
12.9110158522
  0
LWPOLYLINE
  5
451
100
AcDbEntity
  8
0
100
AcDbPolyline
 62
250
  6
CONTINUOUS
 90
7
 70
0
 10
2.5018910978
 20
11.3123325587
 10
2.5003816533
 20
11.2949783595
 10
2.4942021173
 20
11.2733673829
 10
2.4833484987
 20
11.2523794635
 10
2.4679943478
 20
11.2323502001
 10
2.4483851792
 20
11.2135998626
 10
2.4248345455
 20
11.1964282709
  0
LWPOLYLINE
  5
452
100
AcDbEntity
  8
0
100
AcDbPolyline
 62
250
  6
CONTINUOUS
 90
31
 70
0
 10
-25.4558674209
 20
-32.7550638368
 10
-25.4749320401
 20
-32.7660249892
 10
-25.4948765475
 20
-32.7764001209
 10
-25.5156474833
 20
-32.786161422
 10
-25.5371891728
 20
-32.795282728
 10
-25.559443875
 20
-32.8037395901
 10
-25.5823519381
 20
-32.8115093402
 10
-25.6058519587
 20
-32.8185711521
 10
-25.6298809469
 20
-32.824906097
 10
-25.6543744947
 20
-32.8304971946
 10
-25.6792669492
 20
-32.8353294584
 10
-25.704491588
 20
-32.8393899358
 10
-25.7299807985
 20
-32.842667743
 10
-25.7556662587
 20
-32.845154094
 10
-25.7814791206
 20
-32.8468423243
 10
-25.807350195
 20
-32.8477279088
 10
-25.8332101363
 20
-32.8478084736
 10
-25.858989629
 20
-32.8470838027
 10
-25.8846195729
 20
-32.8455558387
 10
-25.9100312691
 20
-32.843228677
 10
-25.9351566033
 20
-32.8401085553
 10
-25.9599282289
 20
-32.836203837
 10
-25.9842797475
 20
-32.8315249884
 10
-26.0081458867
 20
-32.8260845505
 10
-26.0314626749
 20
-32.8198971063
 10
-26.0541676134
 20
-32.8129792406
 10
-26.0761998433
 20
-32.8053494962
 10
-26.0975003086
 20
-32.7970283241
 10
-26.1180119152
 20
-32.7880380286
 10
-26.1376796833
 20
-32.7784027074
 10
-26.1564508948
 20
-32.7681481873
  0
LINE
  5
453
100
AcDbEntity
  8
DRAFT
100
AcDbLine
 62
7
  6
CONTINUOUS
 10
-31.0470218938
 20
12.5691081601
 11
-30.9911479853
 21
12.5848801967
  0
LINE
  5
454
100
AcDbEntity
  8
DRAFT
100
AcDbLine
 62
7
  6
CONTINUOUS
 10
-30.9911479853
 20
12.5848801967
 11
-30.9351278904
 21
12.6003406912
  0
LINE
  5
455
100
AcDbEntity
  8
DRAFT
100
AcDbLine
 62
7
  6
CONTINUOUS
 10
-30.9351278904
 20
12.6003406912
 11
-30.8789626498
 21
12.615489358
  0
LINE
  5
456
100
AcDbEntity
  8
DRAFT
100
AcDbLine
 62
7
  6
CONTINUOUS
 10
-30.8789626498
 20
12.615489358
 11
-30.8226525238
 21
12.6303261256
  0
LINE
  5
457
100
AcDbEntity
  8
DRAFT
100
AcDbLine
 62
7
  6
CONTINUOUS
 10
-30.3016309832
 20
12.7513992527
 11
-30.2261265652
 21
12.7665854545
  0
LINE
  5
458
100
AcDbEntity
  8
DRAFT
100
AcDbLine
 62
7
  6
CONTINUOUS
 10
-27.4466255903
 20
14.3555103255
 11
-27.3753611802
 21
14.3697659461
  0
LINE
  5
459
100
AcDbEntity
  8
DRAFT
100
AcDbLine
 62
7
  6
CONTINUOUS
 10
-30.2261265652
 20
12.7665854545
 11
-30.1503894028
 21
12.7812352055
  0
LINE
  5
45A
100
AcDbEntity
  8
DRAFT
100
AcDbLine
 62
7
  6
CONTINUOUS
 10
-27.3753611802
 20
14.3697659461
 11
-27.3038894871
 21
14.3835434702
  0
LINE
  5
45B
100
AcDbEntity
  8
DRAFT
100
AcDbLine
 62
7
  6
CONTINUOUS
 10
-30.1503894028
 20
12.7812352055
 11
-30.0744200981
 21
12.7953483927
  0
LINE
  5
45C
100
AcDbEntity
  8
DRAFT
100
AcDbLine
 62
7
  6
CONTINUOUS
 10
-27.3038894871
 20
14.3835434702
 11
-27.2322110178
 21
14.3968428028
  0
LWPOLYLINE
  5
45D
100
AcDbEntity
  8
DRAFT
100
AcDbPolyline
 62
7
  6
CONTINUOUS
 90
3
 70
0
 10
-27.2322110178
 20
14.3968428028
 10
-27.1603278005
 20
14.4096635641
 10
-27.1243092845
 20
14.4158945042
  0
LWPOLYLINE
  5
45E
100
AcDbEntity
  8
DRAFT
100
AcDbPolyline
 62
7
  6
CONTINUOUS
 90
3
 70
0
 10
-30.0744200981
 20
12.7953483927
 10
-29.9982210598
 20
12.808924564
 10
-29.96003524
 20
12.8155112969
  0
LINE
  5
45F
100
AcDbEntity
  8
RACCORDO
100
AcDbLine
 62
7
  6
CONTINUOUS
 10
-16.2248584738
 20
14.9588736881
 11
-16.6595141364
 21
14.888537421
  0
LINE
  5
460
100
AcDbEntity
  8
DRAFT
100
AcDbLine
 62
7
  6
CONTINUOUS
 10
-26.1150645313
 20
15.1128464786
 11
-25.2505266416
 21
15.0284400129
  0
LWPOLYLINE
  5
461
100
AcDbEntity
  8
RACCORDO
100
AcDbPolyline
 62
7
  6
CONTINUOUS
 90
6
 70
0
 10
-15.8276316979
 20
14.60788048
 10
-15.7898555283
 20
14.5985479844
 10
-15.7539722184
 20
14.5871080924
 10
-15.7200916368
 20
14.5738093478
 10
-15.6883066004
 20
14.5589646547
 10
-15.6634106602
 20
14.5455304881
  0
LWPOLYLINE
  5
462
100
AcDbEntity
  8
RACCORDO
100
AcDbPolyline
 62
250
  6
CONTINUOUS
 90
5
 70
0
 10
-13.8748561985
 20
13.645142011
 10
-13.8967432918
 20
13.6542148235
 10
-13.9206917432
 20
13.659676395
 10
-13.9464368161
 20
13.6613452102
 10
-13.9737435275
 20
13.6591081312
  0
LWPOLYLINE
  5
463
100
AcDbEntity
  8
RACCORDO
100
AcDbPolyline
 62
250
  6
CONTINUOUS
 90
7
 70
0
 10
-13.9737435275
 20
13.6591081312
 10
-13.9916696559
 20
13.6687097497
 10
-14.0099999375
 20
13.6762275338
 10
-14.0285987588
 20
13.6816058639
 10
-14.0473285218
 20
13.6848049488
 10
-14.0660506546
 20
13.6858011191
 10
-14.0850420076
 20
13.6845342804
  0
LWPOLYLINE
  5
464
100
AcDbEntity
  8
RACCORDO
100
AcDbPolyline
 62
7
  6
CONTINUOUS
 90
7
 70
0
 10
-13.8689277038
 20
13.6418713608
 10
-13.8873469207
 20
13.6518061645
 10
-13.9256985485
 20
13.6680849803
 10
-13.9661389027
 20
13.6795995928
 10
-14.0080173095
 20
13.6860692087
 10
-14.0507919107
 20
13.6873192282
 10
-14.0850406995
 20
13.6845242401
  0
LINE
  5
465
100
AcDbEntity
  8
RACCORDO
100
AcDbLine
 62
250
  6
CONTINUOUS
 10
-13.8695706752
 20
13.6422447414
 11
-13.8748561985
 21
13.645142011
  0
LWPOLYLINE
  5
466
100
AcDbEntity
  8
RACCORDO
100
AcDbPolyline
 62
250
  6
CONTINUOUS
 90
11
 70
0
 10
-15.5654386405
 20
14.6214176503
 10
-15.5688951163
 20
14.6233443733
 10
-15.5798362767
 20
14.6285925137
 10
-15.5908965044
 20
14.6327195926
 10
-15.6020425983
 20
14.6358235387
 10
-15.6132094347
 20
14.6379824429
 10
-15.6243324406
 20
14.6392736276
 10
-15.635396037
 20
14.6397764002
 10
-15.6463654635
 20
14.6395600027
 10
-15.6571830626
 20
14.6386920571
 10
-15.6678089485
 20
14.6372402737
  0
LWPOLYLINE
  5
467
100
AcDbEntity
  8
0
100
AcDbPolyline
 62
250
  6
CONTINUOUS
 90
9
 70
0
 10
-8.7345875742
 20
20.8633246487
 10
-8.7344629221
 20
20.8630027859
 10
-8.7358248711
 20
20.8591183355
 10
-8.7414433818
 20
20.8531275847
 10
-8.7512286135
 20
20.845126326
 10
-8.7650240993
 20
20.8352425002
 10
-8.7826092478
 20
20.8236341507
 10
-8.803702871
 20
20.810486896
 10
-8.8279676796
 20
20.7960109622
  0
LINE
  5
468
100
AcDbEntity
  8
0
100
AcDbLine
 62
250
  6
CONTINUOUS
 10
2.4248345455
 20
12.9110158522
 11
2.4248345455
 21
11.1964282709
  0
LINE
  5
469
100
AcDbEntity
  8
0
100
AcDbLine
 62
7
  6
CONTINUOUS
 10
2.5018910978
 20
13.02692014
 11
2.5018910978
 21
11.3123325587
  0
LINE
  5
46A
100
AcDbEntity
  8
0
100
AcDbLine
 62
250
  6
CONTINUOUS
 10
-24.7746797616
 20
-33.157023585
 11
-21.796636258
 21
-31.6736559535
  0
LINE
  5
46B
100
AcDbEntity
  8
0
100
AcDbLine
 62
7
  6
CONTINUOUS
 10
-24.8990821874
 20
-33.3969076612
 11
-21.9092646935
 21
-31.9076753886
  0
LINE
  5
46C
100
AcDbEntity
  8
0
100
AcDbLine
 62
250
  6
CONTINUOUS
 10
-21.796636258
 20
-31.6639628014
 11
-19.2662208473
 21
-30.4267134828
  0
LINE
  5
46D
100
AcDbEntity
  8
RACCORDO
100
AcDbLine
 62
7
  6
CONTINUOUS
 10
-21.8664923065
 20
-31.8769904158
 11
-19.3798857393
 21
-30.661161478
  0
LWPOLYLINE
  5
46E
100
AcDbEntity
  8
0
100
AcDbPolyline
 62
250
  6
CONTINUOUS
 90
15
 70
0
 10
-8.8279676805
 20
20.796010964
 10
-8.8004931212
 20
20.745537573
 10
-8.770230783
 20
20.6967076224
 10
-8.7374682051
 20
20.6499850808
 10
-8.7025166704
 20
20.6058138777
 10
-8.6657082872
 20
20.5646137368
 10
-8.6273928406
 20
20.5267761753
 10
-8.5879344229
 20
20.4926607293
 10
-8.5477079307
 20
20.4625915164
 10
-8.5070955445
 20
20.4368542126
 10
-8.466483134
 20
20.4156933612
 10
-8.4262566003
 20
20.3993100396
 10
-8.3867981703
 20
20.3878599219
 10
-8.3484827612
 20
20.3814518042
 10
-8.3267214238
 20
20.3806801446
  0
LWPOLYLINE
  5
46F
100
AcDbEntity
  8
0
100
AcDbPolyline
 62
7
  6
CONTINUOUS
 90
14
 70
0
 10
-8.7345875742
 20
20.8633246487
 10
-8.7029665382
 20
20.8050432172
 10
-8.668397732
 20
20.7487310988
 10
-8.631368912
 20
20.6950828883
 10
-8.5923268531
 20
20.6446190795
 10
-8.5519210022
 20
20.5980113803
 10
-8.5110685372
 20
20.5560373543
 10
-8.4704809447
 20
20.5190502925
 10
-8.4307703705
 20
20.4871980624
 10
-8.3928470143
 20
20.4607342446
 10
-8.3575587891
 20
20.4396662255
 10
-8.3252943536
 20
20.4236023584
 10
-8.2965251572
 20
20.4121509885
 10
-8.2756084183
 20
20.4059712783
  0
LWPOLYLINE
  5
470
100
AcDbEntity
  8
0
100
AcDbPolyline
 62
7
  6
CONTINUOUS
 90
25
 70
0
 10
-8.7345875742
 20
20.8633246487
 10
-8.8186150699
 20
21.0206104123
 10
-8.9090696401
 20
21.1745093616
 10
-9.0055719779
 20
21.324361428
 10
-9.1077099754
 20
21.4694965469
 10
-9.2150792679
 20
21.6092941144
 10
-9.3273037601
 20
21.7431926154
 10
-9.4439703402
 20
21.8706012544
 10
-9.5646132481
 20
21.9908988055
 10
-9.6888013552
 20
22.1035274074
 10
-9.8162092916
 20
22.2080273875
 10
-9.9462545565
 20
22.3037376134
 10
-10.0781631807
 20
22.3899392222
 10
-10.2117398164
 20
22.4663379119
 10
-10.3462671655
 20
22.53233078
 10
-10.4802478413
 20
22.5871230183
 10
-10.6133063296
 20
22.6305941859
 10
-10.7449498844
 20
22.6625907802
 10
-10.8735687626
 20
22.6828641454
 10
-10.9983921244
 20
22.6916187255
 10
-11.1193785811
 20
22.6891688886
 10
-11.2359861429
 20
22.6758066876
 10
-11.3477031463
 20
22.6519010875
 10
-11.4541106136
 20
22.6178706978
 10
-11.554771499
 20
22.5741986286
  0
LWPOLYLINE
  5
471
100
AcDbEntity
  8
0
100
AcDbPolyline
 62
250
  6
CONTINUOUS
 90
8
 70
0
 10
-5.2056200798
 20
18.5740883597
 10
-5.1781799856
 20
18.5182828192
 10
-5.1472343134
 20
18.4640273018
 10
-5.1131299987
 20
18.4119300794
 10
-5.0762493807
 20
18.3625752162
 10
-5.037005942
 20
18.3165160565
 10
-4.9958396784
 20
18.2742690128
 10
-4.9532121304
 20
18.2363077328
  0
LWPOLYLINE
  5
472
100
AcDbEntity
  8
0
100
AcDbPolyline
 62
7
  6
CONTINUOUS
 90
25
 70
0
 10
-5.0906207089
 20
18.5967297789
 10
-5.1966379522
 20
18.8171916862
 10
-5.2844255474
 20
18.9816333767
 10
-5.379212254
 20
19.1423338962
 10
-5.4805424365
 20
19.298515725
 10
-5.5879685684
 20
19.4494626486
 10
-5.7010719213
 20
19.5945265591
 10
-5.8193796612
 20
19.7330107134
 10
-5.9423768293
 20
19.8642048189
 10
-6.0696031203
 20
19.9874872504
 10
-6.2006641859
 20
20.1023021339
 10
-6.334924159
 20
20.2078979326
 10
-6.471606209
 20
20.3034949842
 10
-6.6104777991
 20
20.3887304898
 10
-6.7507287171
 20
20.4628774404
 10
-6.8907809234
 20
20.52501216
 10
-7.0302529278
 20
20.5749630585
 10
-7.1685266892
 20
20.6124748399
 10
-7.3037453803
 20
20.6371769845
 10
-7.4350576997
 20
20.6492602712
 10
-7.5623874812
 20
20.6490511113
 10
-7.685020613
 20
20.6368567419
 10
-7.8023456294
 20
20.613095659
 10
-7.9139174524
 20
20.5782367355
 10
-8.0192375931
 20
20.532825662
  0
LWPOLYLINE
  5
473
100
AcDbEntity
  8
0
100
AcDbPolyline
 62
250
  6
CONTINUOUS
 90
11
 70
0
 10
1.1747956207
 20
13.2428187612
 10
1.1822545758
 20
13.2021174571
 10
1.1855737327
 20
13.149167244
 10
1.1819445748
 20
13.0954031714
 10
1.1713990828
 20
13.0412988197
 10
1.1540301595
 20
12.987330753
 10
1.1299908091
 20
12.9339743316
 10
1.0994927954
 20
12.8816995367
 10
1.0628047701
 20
12.8309668135
 10
1.0202499028
 20
12.7822230156
 10
0.9722030387
 20
12.7358974792
  0
LWPOLYLINE
  5
474
100
AcDbEntity
  8
0
100
AcDbPolyline
 62
7
  6
CONTINUOUS
 90
14
 70
0
 10
-0.9924532536
 20
16.2007208582
 10
-1.0145219931
 20
16.2073395056
 10
-1.0434244352
 20
16.2189718114
 10
-1.0756865229
 20
16.2351661992
 10
-1.1108755604
 20
16.2563019753
 10
-1.1486000832
 20
16.2827421772
 10
-1.1880316444
 20
16.3144648809
 10
-1.2283570215
 20
16.3512820443
 10
-1.2689937345
 20
16.3930799343
 10
-1.3092210567
 20
16.4395056154
 10
-1.3481506596
 20
16.4898293971
 10
-1.3851361954
 20
16.5434080907
 10
-1.4197148863
 20
16.5997252465
 10
-1.451387728
 20
16.6580963375
  0
LWPOLYLINE
  5
475
100
AcDbEntity
  8
0
100
AcDbPolyline
 62
250
  6
CONTINUOUS
 90
15
 70
0
 10
-1.5447678343
 20
16.5907826527
 10
-1.5172933075
 20
16.5403093177
 10
-1.4870310081
 20
16.4914794193
 10
-1.4542684746
 20
16.4447569248
 10
-1.4193169964
 20
16.4005857713
 10
-1.3825086736
 20
16.3593856702
 10
-1.3441932645
 20
16.321548114
 10
-1.3047348344
 20
16.2874326256
 10
-1.2645083008
 20
16.2573633544
 10
-1.2238958903
 20
16.2316260121
 10
-1.1832835041
 20
16.2104651504
 10
-1.1430570119
 20
16.1940818183
 10
-1.1035985942
 20
16.1826316727
 10
-1.0652831476
 20
16.1762235168
 10
-1.043521579
 20
16.1754518326
  0
LWPOLYLINE
  5
476
100
AcDbEntity
  8
0
100
AcDbPolyline
 62
250
  6
CONTINUOUS
 90
9
 70
0
 10
-1.451387728
 20
16.6580963375
 10
-1.4512630759
 20
16.6577744747
 10
-1.4526250249
 20
16.6538900243
 10
-1.4582435355
 20
16.6478992735
 10
-1.4680287672
 20
16.6398980148
 10
-1.481824253
 20
16.630014189
 10
-1.4994094015
 20
16.6184058393
 10
-1.5205030247
 20
16.6052585846
 10
-1.5447678332
 20
16.5907826506
  0
LINE
  5
477
100
AcDbEntity
  8
0
100
AcDbLine
 62
250
  6
CONTINUOUS
 10
1.2133918322
 20
13.3276528391
 11
1.2704263074
 21
13.1423986935
  0
LINE
  5
478
100
AcDbEntity
  8
0
100
AcDbLine
 62
250
  6
CONTINUOUS
 10
1.0128949374
 20
12.5757981848
 11
1.0378166648
 21
12.4811366956
  0
LWPOLYLINE
  5
479
100
AcDbEntity
  8
0
100
AcDbPolyline
 62
7
  6
CONTINUOUS
 90
3
 70
0
 10
1.2386861435
 20
12.9953291039
 10
1.1892081713
 20
13.1845835653
 10
1.1747956207
 20
13.2428187612
  0
LWPOLYLINE
  5
47A
100
AcDbEntity
  8
0
100
AcDbPolyline
 62
250
  6
CONTINUOUS
 90
17
 70
0
 10
1.0378166648
 20
12.4811366956
 10
1.0493153476
 20
12.4366414835
 10
1.0600354292
 20
12.3937578736
 10
1.070030635
 20
12.3525463188
 10
1.0792118744
 20
12.312533278
 10
1.0875463378
 20
12.2736785473
 10
1.0950668348
 20
12.2360223305
 10
1.1017827044
 20
12.1992116988
 10
1.1076760271
 20
12.163222596
 10
1.1127647223
 20
12.1280790783
 10
1.1171118879
 20
12.0935003848
 10
1.1207110583
 20
12.0594760637
 10
1.1235686991
 20
12.0260165667
 10
1.1257673042
 20
11.9928724892
 10
1.1273343716
 20
11.9599606961
 10
1.1282424033
 20
11.9273643224
 10
1.1284913993
 20
11.8950833681
  0
LWPOLYLINE
  5
47B
100
AcDbEntity
  8
0
100
AcDbPolyline
 62
7
  6
CONTINUOUS
 90
23
 70
0
 10
1.1515479488
 20
13.3380032693
 10
1.1308406964
 20
13.4188565352
 10
1.1068833147
 20
13.5070999519
 10
1.0793459163
 20
13.6017915617
 10
1.0479953025
 20
13.7018380894
 10
1.0124680779
 20
13.8066771273
 10
0.9723972621
 20
13.9157677255
 10
0.9275455876
 20
14.028316949
 10
0.8776387472
 20
14.1437111812
 10
0.8223979888
 20
14.2613586339
 10
0.7616118413
 20
14.3805949978
 10
0.6951544246
 20
14.5006592009
 10
0.6228074967
 20
14.6209828325
 10
0.5442367661
 20
14.7412018175
 10
0.4594121998
 20
14.8604615015
 10
0.3682267558
 20
14.9780507522
 10
0.2702041198
 20
15.0937284532
 10
0.1653551516
 20
15.206562739
 10
0.0537939834
 20
15.3155549186
 10
-0.0648776203
 20
15.4201905464
 10
-0.1906747703
 20
15.519473394
 10
-0.3229595481
 20
15.6119638678
 10
-0.3926956767
 20
15.6560613993
  0
LWPOLYLINE
  5
47C
100
AcDbEntity
  8
0
100
AcDbPolyline
 62
250
  6
CONTINUOUS
 90
6
 70
0
 10
1.2704263074
 20
13.1423986935
 10
1.3175250755
 20
12.9584185895
 10
1.3544289348
 20
12.7767250094
 10
1.3809348256
 20
12.5983177474
 10
1.3968969197
 20
12.4241784135
 10
1.4022273933
 20
12.2552651843
  0
LWPOLYLINE
  5
47D
100
AcDbEntity
  8
0
100
AcDbPolyline
 62
250
  6
CONTINUOUS
 90
17
 70
0
 10
1.2386820989
 20
12.9953359981
 10
1.2519726617
 20
12.9428451882
 10
1.2666359517
 20
12.8812809798
 10
1.2798743541
 20
12.8215452762
 10
1.2917573632
 20
12.7635817768
 10
1.3023400314
 20
12.7073977554
 10
1.3116888713
 20
12.6529400829
 10
1.3198864088
 20
12.600071533
 10
1.3269860138
 20
12.5487943303
 10
1.3330471306
 20
12.499064997
 10
1.3381475658
 20
12.4506884815
 10
1.3423338202
 20
12.4036660476
 10
1.3456553824
 20
12.3579613584
 10
1.3481744443
 20
12.3133354288
 10
1.3499312959
 20
12.2697032125
 10
1.350957026
 20
12.2271252769
 10
1.3512889985
 20
12.1855871269
  0
LINE
  5
47E
100
AcDbEntity
  8
0
100
AcDbLine
 62
250
  6
CONTINUOUS
 10
0.9722030385
 20
12.73589748
 11
1.0128949374
 21
12.5757981848
  0
LINE
  5
47F
100
AcDbEntity
  8
0
100
AcDbLine
 62
7
  6
CONTINUOUS
 10
1.1744532354
 20
13.2442447311
 11
1.1515479488
 21
13.3380032693
  0
LINE
  5
480
100
AcDbEntity
  8
0
100
AcDbLine
 62
7
  6
CONTINUOUS
 10
1.1744532351
 20
13.2442447322
 11
1.1747956207
 21
13.2428187612
  0
LWPOLYLINE
  5
481
100
AcDbEntity
  8
0
100
AcDbPolyline
 62
7
  6
CONTINUOUS
 90
3
 70
0
 10
-4.6871580845
 20
18.1633347477
 10
-4.6904159515
 20
18.1647198313
 10
-4.7196837309
 20
18.1797602731
  0
LWPOLYLINE
  5
482
100
AcDbEntity
  8
0
100
AcDbPolyline
 62
250
  6
CONTINUOUS
 90
9
 70
0
 10
-12.0838150394
 20
22.4063773607
 10
-12.1205344572
 20
22.4228043597
 10
-12.1625553742
 20
22.4339483583
 10
-12.2073288329
 20
22.4385085275
 10
-12.2544507622
 20
22.4364437154
 10
-12.3034958958
 20
22.4277725596
 10
-12.3540216119
 20
22.4125733183
 10
-12.4055719275
 20
22.3909831641
 10
-25.9668930394
 20
15.0983802163
  0
LWPOLYLINE
  5
483
100
AcDbEntity
  8
0
100
AcDbPolyline
 62
7
  6
CONTINUOUS
 90
14
 70
0
 10
-12.0838150392
 20
22.4063773606
 10
-12.1608382223
 20
22.4467483457
 10
-12.3020934651
 20
22.5117477734
 10
-12.4417456252
 20
22.5643942795
 10
-12.578300498
 20
22.6045381173
 10
-12.7115857959
 20
22.6327606621
 10
-12.8428046217
 20
22.6497731341
 10
-12.9714266664
 20
22.6557846051
 10
-13.0964392547
 20
22.6511320712
 10
-13.2183344428
 20
22.6361342631
 10
-13.3364105075
 20
22.6110979316
 10
-13.4498240607
 20
22.5764853646
 10
-13.5588017054
 20
22.5324593295
 10
-13.6368201993
 20
22.4937136188
  0
LWPOLYLINE
  5
484
100
AcDbEntity
  8
0
100
AcDbPolyline
 62
250
  6
CONTINUOUS
 90
9
 70
0
 10
-10.911791585
 20
21.7230636472
 10
-10.9291547612
 20
21.7322312311
 10
-10.9742931482
 20
21.7492349596
 10
-11.0230452108
 20
21.758533815
 10
-11.0748886045
 20
21.7600281665
 10
-11.1292678632
 20
21.7537020032
 10
-11.1856003509
 20
21.7396231056
 10
-11.2432825039
 20
21.7179423193
 10
-11.301696298
 20
21.6888919388
  0
LWPOLYLINE
  5
485
100
AcDbEntity
  8
0
100
AcDbPolyline
 62
250
  6
CONTINUOUS
 90
9
 70
0
 10
-1.577141405
 20
16.3333537929
 10
-1.5947466309
 20
16.3426609637
 10
-1.6398850184
 20
16.359664691
 10
-1.6886370813
 20
16.3689635453
 10
-1.7404804749
 20
16.370457896
 10
-1.7948597331
 20
16.3641317323
 10
-1.8511922199
 20
16.3500528347
 10
-1.9088743718
 20
16.3283720491
 10
-1.9672881644
 20
16.2993216701
  0
LWPOLYLINE
  5
486
100
AcDbEntity
  8
0
100
AcDbPolyline
 62
250
  6
CONTINUOUS
 90
9
 70
0
 10
-3.6283497003
 20
17.517695755
 10
-3.6459549197
 20
17.5270029226
 10
-3.6910933067
 20
17.544006651
 10
-3.7398453693
 20
17.5533055064
 10
-3.791688763
 20
17.554799858
 10
-3.8460680217
 20
17.5484736947
 10
-3.9024005094
 20
17.5343947971
 10
-3.9600826624
 20
17.5127140107
 10
-4.0184964565
 20
17.4836636303
  0
LWPOLYLINE
  5
487
100
AcDbEntity
  8
0
100
AcDbPolyline
 62
250
  6
CONTINUOUS
 90
9
 70
0
 10
-8.8603407859
 20
20.5385818355
 10
-8.8779469165
 20
20.5478894425
 10
-8.9230853812
 20
20.5648930143
 10
-8.9718374825
 20
20.5741917225
 10
-9.0236808693
 20
20.5756859577
 10
-9.0780600679
 20
20.5693597295
 10
-9.1343924398
 20
20.5552808391
 10
-9.1920744252
 20
20.5336001517
 10
-9.2504880059
 20
20.5045499786
  0
LWPOLYLINE
  5
488
100
AcDbEntity
  8
0
100
AcDbPolyline
 62
7
  6
CONTINUOUS
 90
10
 70
0
 10
-7.797595046
 20
19.9354007604
 10
-7.8227182144
 20
19.9488037785
 10
-7.8617590271
 20
19.9633994912
 10
-7.9031471296
 20
19.9721467966
 10
-7.9469512156
 20
19.9749707046
 10
-7.9931025915
 20
19.9719462052
 10
-8.0405433975
 20
19.9631504625
 10
-8.0889210137
 20
19.9486091978
 10
-8.1385880599
 20
19.9282966899
 10
-8.1895445363
 20
19.9022129386
  0
LINE
  5
489
100
AcDbEntity
  8
0
100
AcDbLine
 62
7
  6
CONTINUOUS
 10
-11.9834032379
 20
22.3514179416
 11
-12.0838150394
 21
22.4063773607
  0
LINE
  5
48A
100
AcDbEntity
  8
0
100
AcDbLine
 62
250
  6
CONTINUOUS
 10
-12.4576816132
 20
22.3631969461
 11
-12.3275032652
 21
22.2919654234
  0
LINE
  5
48B
100
AcDbEntity
  8
0
100
AcDbLine
 62
250
  6
CONTINUOUS
 10
-1.777064342
 20
16.1923351066
 11
-1.5303660645
 21
16.0571820937
  0
LINE
  5
48C
100
AcDbEntity
  8
0
100
AcDbLine
 62
250
  6
CONTINUOUS
 10
-9.0667693125
 20
20.4011464202
 11
-8.7678802993
 21
20.2372573829
  0
LINE
  5
48D
100
AcDbEntity
  8
0
100
AcDbLine
 62
250
  6
CONTINUOUS
 10
-5.0613931802
 20
18.0960571667
 11
-4.9471328084
 21
18.0329640692
  0
LINE
  5
48E
100
AcDbEntity
  8
0
100
AcDbLine
 62
250
  6
CONTINUOUS
 10
-1.5303660645
 20
16.0571820937
 11
-1.3869797292
 21
15.9778356957
  0
LINE
  5
48F
100
AcDbEntity
  8
0
100
AcDbLine
 62
250
  6
CONTINUOUS
 10
-12.3275032652
 20
22.2919654234
 11
-12.2046675058
 21
22.2237889347
  0
LINE
  5
490
100
AcDbEntity
  8
0
100
AcDbLine
 62
250
  6
CONTINUOUS
 10
-1.8534658554
 20
16.2347356301
 11
-1.777064342
 21
16.1923351066
  0
LWPOLYLINE
  5
491
100
AcDbEntity
  8
0
100
AcDbPolyline
 62
250
  6
CONTINUOUS
 90
5
 70
0
 10
-8.7678802993
 20
20.2372573829
 10
-8.6493659789
 20
20.1713568592
 10
-8.5905843016
 20
20.1382472765
 10
-8.5322028147
 20
20.1049946317
 10
-8.4742909422
 20
20.0715916034
  0
LWPOLYLINE
  5
492
100
AcDbEntity
  8
0
100
AcDbPolyline
 62
250
  6
CONTINUOUS
 90
5
 70
0
 10
-4.9471328084
 20
18.0329640692
 10
-4.8345658606
 20
17.9696417189
 10
-4.7789184519
 20
17.9378967045
 10
-4.7236675859
 20
17.9060389852
 10
-4.6689949409
 20
17.8741399612
  0
LWPOLYLINE
  5
493
100
AcDbEntity
  8
0
100
AcDbPolyline
 62
250
  6
CONTINUOUS
 90
3
 70
0
 10
-12.2046675058
 20
22.2237889347
 10
-12.0896391111
 20
22.1588935916
 10
-12.0358266811
 20
22.1280203942
  0
LWPOLYLINE
  5
494
100
AcDbEntity
  8
0
100
AcDbPolyline
 62
250
  6
CONTINUOUS
 90
5
 70
0
 10
-1.3869797292
 20
15.9778356957
 10
-1.2824375522
 20
15.918835712
 10
-1.2275663911
 20
15.887451842
 10
-1.1711271256
 20
15.8547874999
 10
-1.1131963423
 20
15.8208351285
  0
LINE
  5
495
100
AcDbEntity
  8
0
100
AcDbLine
 62
250
  6
CONTINUOUS
 10
-1.9295133351
 20
16.2777084503
 11
-1.8534658554
 21
16.2347356301
  0
LWPOLYLINE
  5
496
100
AcDbEntity
  8
0
100
AcDbPolyline
 62
250
  6
CONTINUOUS
 90
3
 70
0
 10
-9.2504880059
 20
20.5045499786
 10
-9.188765911
 20
20.4695175452
 10
-9.0667693125
 20
20.4011464202
  0
LINE
  5
497
100
AcDbEntity
  8
0
100
AcDbLine
 62
250
  6
CONTINUOUS
 10
-11.301696298
 20
21.6888919388
 11
-9.2504880059
 21
20.5045499786
  0
LINE
  5
498
100
AcDbEntity
  8
0
100
AcDbLine
 62
250
  6
CONTINUOUS
 10
-4.0184964565
 20
17.4836636303
 11
-1.9295133351
 21
16.2777084503
  0
LINE
  5
499
100
AcDbEntity
  8
0
100
AcDbLine
 62
7
  6
CONTINUOUS
 10
-7.3929724635
 20
19.4904247046
 11
-5.0164181432
 21
18.1182320253
  0
LINE
  5
49A
100
AcDbEntity
  8
0
100
AcDbLine
 62
7
  6
CONTINUOUS
 10
-10.911791585
 20
21.7230636472
 11
-8.8603407859
 21
20.5385818355
  0
LINE
  5
49B
100
AcDbEntity
  8
0
100
AcDbLine
 62
7
  6
CONTINUOUS
 10
-8.8595030115
 20
20.5380960845
 11
-8.8603407859
 21
20.5385818355
  0
LINE
  5
49C
100
AcDbEntity
  8
0
100
AcDbLine
 62
7
  6
CONTINUOUS
 10
-1.5762230107
 20
16.3328210829
 11
-3.6283497003
 21
17.517695755
  0
LWPOLYLINE
  5
49D
100
AcDbEntity
  8
0
100
AcDbPolyline
 62
7
  6
CONTINUOUS
 90
3
 70
0
 10
-3.6278781137
 20
17.517422824
 10
-3.6843154654
 20
17.5503450043
 10
-3.7987360912
 20
17.6187023653
  0
LWPOLYLINE
  5
49E
100
AcDbEntity
  8
0
100
AcDbPolyline
 62
7
  6
CONTINUOUS
 90
4
 70
0
 10
-10.911791585
 20
21.7230636472
 10
-10.9791972708
 20
21.7624617848
 10
-11.1042899812
 20
21.8374560957
 10
-11.3711779327
 20
21.9997694603
  0
LWPOLYLINE
  5
49F
100
AcDbEntity
  8
0
100
AcDbPolyline
 62
250
  6
CONTINUOUS
 90
10
 70
0
 10
-0.3926956767
 20
15.6560613993
 10
-0.4014637584
 20
15.6611866697
 10
-0.4426183373
 20
15.6801220873
 10
-0.4870802992
 20
15.6926756204
 10
-0.5344483872
 20
15.6987339697
 10
-0.5842951157
 20
15.6982424529
 10
-0.636170618
 20
15.6912055021
 10
-0.689606724
 20
15.6776866238
 10
-0.7441211869
 20
15.657807821
 10
-0.7992220243
 20
15.6317484943
  0
LINE
  5
4A0
100
AcDbEntity
  8
0
100
AcDbLine
 62
250
  6
CONTINUOUS
 10
-12.0358266811
 20
22.1280203942
 11
-11.9351049528
 21
22.0693420331
  0
LWPOLYLINE
  5
4A1
100
AcDbEntity
  8
0
100
AcDbPolyline
 62
250
  6
CONTINUOUS
 90
5
 70
0
 10
-8.4742909422
 20
20.0715916034
 10
-8.3595596057
 20
20.0043365504
 10
-8.3025959249
 20
19.970458112
 10
-8.2459242718
 20
19.9364168014
 10
-8.1895446465
 20
19.9022126184
  0
LWPOLYLINE
  5
4A2
100
AcDbEntity
  8
0
100
AcDbPolyline
 62
250
  6
CONTINUOUS
 90
3
 70
0
 10
-11.44280673
 20
21.7721100304
 10
-11.3977550395
 20
21.7453283067
 10
-11.301696298
 20
21.6888919388
  0
LINE
  5
4A3
100
AcDbEntity
  8
0
100
AcDbLine
 62
250
  6
CONTINUOUS
 10
-4.6689949409
 20
17.8741399612
 11
-4.5602694924
 21
17.8097384678
  0
LWPOLYLINE
  5
4A4
100
AcDbEntity
  8
0
100
AcDbPolyline
 62
7
  6
CONTINUOUS
 90
8
 70
0
 10
-0.5855522884
 20
15.7731208322
 10
-0.7213660344
 20
15.8539450076
 10
-0.8630442036
 20
15.9362035277
 10
-1.0101968541
 20
16.0194057778
 10
-1.163196671
 20
16.1040161614
 10
-1.3204759554
 20
16.1900702018
 10
-1.4787032918
 20
16.277452285
 10
-1.5762230107
 20
16.3328210829
  0
LINE
  5
4A5
100
AcDbEntity
  8
0
100
AcDbLine
 62
250
  6
CONTINUOUS
 10
-11.9351049528
 20
22.0693420331
 11
-11.843559282
 21
22.0150136738
  0
LINE
  5
4A6
100
AcDbEntity
  8
0
100
AcDbLine
 62
250
  6
CONTINUOUS
 10
-1.1131963423
 20
15.8208351285
 11
-0.9925578409
 21
15.7490782697
  0
LWPOLYLINE
  5
4A7
100
AcDbEntity
  8
0
100
AcDbPolyline
 62
7
  6
CONTINUOUS
 90
5
 70
0
 10
-11.3711779327
 20
21.9997694603
 10
-11.514307318
 20
22.0853371323
 10
-11.6645009667
 20
22.172890504
 10
-11.8213575732
 20
22.2617696586
 10
-11.9834032379
 20
22.3514179416
  0
LWPOLYLINE
  5
4A8
100
AcDbEntity
  8
0
100
AcDbPolyline
 62
250
  6
CONTINUOUS
 90
3
 70
0
 10
-4.2185759328
 20
17.6024331443
 10
-4.1544764633
 20
17.5640840873
 10
-4.0184964565
 20
17.4836636303
  0
LWPOLYLINE
  5
4A9
100
AcDbEntity
  8
0
100
AcDbPolyline
 62
7
  6
CONTINUOUS
 90
3
 70
0
 10
-4.7196837309
 20
18.1797602731
 10
-4.7514019659
 20
18.1988719951
 10
-4.7849982078
 20
18.2221345538
  0
LINE
  5
4AA
100
AcDbEntity
  8
0
100
AcDbLine
 62
250
  6
CONTINUOUS
 10
-11.843559282
 20
22.0150136738
 11
-11.7595663381
 21
21.964506805
  0
LWPOLYLINE
  5
4AB
100
AcDbEntity
  8
0
100
AcDbPolyline
 62
7
  6
CONTINUOUS
 90
10
 70
0
 10
-7.7976077647
 20
19.9353788463
 10
-7.841537873
 20
19.9619545027
 10
-7.9626187338
 20
20.034403358
 10
-8.0893223694
 20
20.1086471811
 10
-8.2204959671
 20
20.1836806638
 10
-8.3556415911
 20
20.2592428555
 10
-8.4947180195
 20
20.3357166045
 10
-8.6364023226
 20
20.4132356132
 10
-8.7782300691
 20
20.4918433132
 10
-8.8595030117
 20
20.5380960846
  0
LINE
  5
4AC
100
AcDbEntity
  8
0
100
AcDbLine
 62
250
  6
CONTINUOUS
 10
-4.5602694924
 20
17.8097384678
 11
-4.4512282333
 21
17.7439810801
  0
LINE
  5
4AD
100
AcDbEntity
  8
0
100
AcDbLine
 62
250
  6
CONTINUOUS
 10
-11.5262205136
 20
21.8224820159
 11
-11.44280673
 21
21.7721100304
  0
LWPOLYLINE
  5
4AE
100
AcDbEntity
  8
0
100
AcDbPolyline
 62
250
  6
CONTINUOUS
 90
3
 70
0
 10
-0.9925578409
 20
15.7490782697
 10
-0.8653080221
 20
15.672149591
 10
-0.7992220241
 20
15.6317484941
  0
LWPOLYLINE
  5
4AF
100
AcDbEntity
  8
0
100
AcDbPolyline
 62
7
  6
CONTINUOUS
 90
7
 70
0
 10
-3.7987360912
 20
17.6187023653
 10
-4.0430335618
 20
17.7673334599
 10
-4.1728357212
 20
17.8454983187
 10
-4.3095073945
 20
17.926117624
 10
-4.4528470738
 20
18.0085115158
 10
-4.6009727472
 20
18.0915080209
 10
-4.6722273999
 20
18.1308327124
  0
LINE
  5
4B0
100
AcDbEntity
  8
0
100
AcDbLine
 62
7
  6
CONTINUOUS
 10
-0.3923122644
 20
15.6558274923
 11
-0.5855522884
 21
15.7731208322
  0
LINE
  5
4B1
100
AcDbEntity
  8
0
100
AcDbLine
 62
250
  6
CONTINUOUS
 10
-11.7595663381
 20
21.964506805
 11
-11.5262205136
 21
21.8224820159
  0
LINE
  5
4B2
100
AcDbEntity
  8
0
100
AcDbLine
 62
250
  6
CONTINUOUS
 10
-4.4512282333
 20
17.7439810801
 11
-4.2185759328
 21
17.6024331443
  0
LWPOLYLINE
  5
4B3
100
AcDbEntity
  8
0
100
AcDbPolyline
 62
7
  6
CONTINUOUS
 90
5
 70
0
 10
-7.5011542618
 20
19.5558621817
 10
-7.4741925949
 20
19.5390682798
 10
-7.447163107
 20
19.5225794454
 10
-7.4201090541
 20
19.5063760779
 10
-7.3930304361
 20
19.4904581773
  0
LWPOLYLINE
  5
4B4
100
AcDbEntity
  8
0
100
AcDbPolyline
 62
250
  6
CONTINUOUS
 90
25
 70
0
 10
-0.7992220241
 20
15.6317484941
 10
-0.6824699215
 20
15.5584810637
 10
-0.5678781703
 20
15.4776389606
 10
-0.4559464887
 20
15.3900130055
 10
-0.3477006974
 20
15.2969976156
 10
-0.2429187039
 20
15.1988394895
 10
-0.140269845
 20
15.0942263534
 10
-0.0396176112
 20
14.9827825512
 10
0.0579782401
 20
14.8656692462
 10
0.1519620796
 20
14.743584232
 10
0.2418912226
 20
14.6170149895
 10
0.3274370864
 20
14.4865444883
 10
0.4082878107
 20
14.3530887847
 10
0.4835815639
 20
14.2180902893
 10
0.5536751579
 20
14.0813160706
 10
0.6198467271
 20
13.941085169
 10
0.6821402287
 20
13.796205491
 10
0.7392446473
 20
13.6489897237
 10
0.790466492
 20
13.5030109898
 10
0.835943058
 20
13.3582697504
 10
0.8751781387
 20
13.2161421163
 10
0.9076930562
 20
13.0820927222
 10
0.9341266083
 20
12.9580516289
 10
0.9553942079
 20
12.8426156591
 10
0.9722030385
 20
12.73589748
  0
LINE
  5
4B5
100
AcDbEntity
  8
0
100
AcDbLine
 62
7
  6
CONTINUOUS
 10
-7.5551336679
 20
19.5902475843
 11
-7.5011542618
 21
19.5558621817
  0
LINE
  5
4B6
100
AcDbEntity
  8
0
100
AcDbLine
 62
7
  6
CONTINUOUS
 10
-7.6096203944
 20
19.6255004458
 11
-7.5551336679
 21
19.5902475843
  0
LINE
  5
4B7
100
AcDbEntity
  8
0
100
AcDbLine
 62
7
  6
CONTINUOUS
 10
-7.6370215609
 20
19.6434668742
 11
-7.6096203944
 21
19.6255004458
  0
LINE
  5
4B8
100
AcDbEntity
  8
0
100
AcDbLine
 62
250
  6
CONTINUOUS
 10
-7.6502235663
 20
19.7098689221
 11
-7.548889878
 21
19.6389470754
  0
LWPOLYLINE
  5
4B9
100
AcDbEntity
  8
0
100
AcDbPolyline
 62
250
  6
CONTINUOUS
 90
4
 70
0
 10
-4.9532121304
 20
18.2363077328
 10
-4.909601193
 20
18.2030577888
 10
-4.8654957875
 20
18.1748919403
 10
-4.8456637417
 20
18.1646551885
  0
LINE
  5
4BA
100
AcDbEntity
  8
0
100
AcDbLine
 62
250
  6
CONTINUOUS
 10
-7.548889878
 20
19.6389470754
 11
-7.4194926096
 21
19.5380473193
  0
LWPOLYLINE
  5
4BB
100
AcDbEntity
  8
0
100
AcDbPolyline
 62
7
  6
CONTINUOUS
 90
10
 70
0
 10
-4.7849982078
 20
18.2221345538
 10
-4.8199783669
 20
18.2495783844
 10
-4.8559574868
 20
18.2812550722
 10
-4.8923885722
 20
18.3170162218
 10
-4.9286262005
 20
18.3565035086
 10
-4.9642333835
 20
18.3994710139
 10
-4.9987463357
 20
18.4455693374
 10
-5.0315711824
 20
18.4941546258
 10
-5.0622893623
 20
18.5446808057
 10
-5.0906207089
 20
18.5967297789
  0
LINE
  5
4BC
100
AcDbEntity
  8
0
100
AcDbLine
 62
250
  6
CONTINUOUS
 10
-7.4194926096
 20
19.5380473193
 11
-7.3057994965
 21
19.440092126
  0
LWPOLYLINE
  5
4BD
100
AcDbEntity
  8
0
100
AcDbPolyline
 62
250
  6
CONTINUOUS
 90
5
 70
0
 10
0.9831109868
 20
13.8866001975
 10
0.9860753731
 20
13.8808646141
 10
1.0708241663
 20
13.697904305
 10
1.1467355327
 20
13.5131615881
 10
1.2133918322
 20
13.3276528391
  0
ARC
  5
4BE
100
AcDbEntity
  8
0
100
AcDbCircle
 62
7
  6
CONTINUOUS
 10
0.3161689638
 20
5.1839088001
 40
0.8
100
AcDbArc
 50
301.7330613198
 51
359.9999414719
  0
ELLIPSE
  5
4BF
100
AcDbEntity
  8
RACCORDO
100
AcDbEllipse
 62
7
  6
CONTINUOUS
 10
-16.3262356769
 20
14.598804669
 30
0.0
 11
0.205149055
 21
0.3434207638
 31
0.0
 40
0.5671684152
 41
0.0084265951
 42
0.444807088
  0
ELLIPSE
  5
4C0
100
AcDbEntity
  8
RACCORDO
100
AcDbEllipse
 62
7
  6
CONTINUOUS
 10
-14.2104073619
 20
13.4745324743
 30
0.0
 11
0.4982268152
 21
-0.121206575
 31
0.0
 40
0.3471086493
 41
-2.2717988864
 42
-0.7681422162
  0
ELLIPSE
  5
4C1
100
AcDbEntity
  8
RACCORDO
100
AcDbEllipse
 62
7
  6
CONTINUOUS
 10
-16.3058005456
 20
14.6843862371
 30
0.0
 11
0.4951872221
 21
-0.1209063952
 31
0.0
 40
0.3512396294
 41
2.4482482836
 42
4.0187400239
  0
ELLIPSE
  5
4C2
100
AcDbEntity
  8
0
100
AcDbEllipse
 62
7
  6
CONTINUOUS
 10
-37.1004268788
 20
12.6236862238
 30
0.0
 11
-0.2498600223
 21
0.43379745
 31
0.0
 40
0.5768037941
 41
-0.7837728977
 42
0.0348934093
  0
ELLIPSE
  5
4C3
100
AcDbEntity
  8
DRAFT
100
AcDbEllipse
 62
7
  6
CONTINUOUS
 10
296.4047090859
 20
205.706922784
 30
0.0
 11
231.2591722458
 21
443.6729627604
 31
0.0
 40
0.5463614449
 41
-3.9691353676
 42
-3.9319030361
  0
ELLIPSE
  5
4C4
100
AcDbEntity
  8
DRAFT
100
AcDbEllipse
 62
7
  6
CONTINUOUS
 10
297.677501292
 20
204.972028516
 30
0.0
 11
231.2591722458
 21
443.6729627604
 31
0.0
 40
0.5463614449
 41
-3.9691353676
 42
-3.9319030361
  0
ELLIPSE
  5
4C5
100
AcDbEntity
  8
DRAFT
100
AcDbEllipse
 62
7
  6
CONTINUOUS
 10
298.9502934981
 20
204.237134248
 30
0.0
 11
231.2591722458
 21
443.6729627604
 31
0.0
 40
0.5463614449
 41
-3.9691353676
 42
-3.9319030361
  0
ELLIPSE
  5
4C6
100
AcDbEntity
  8
DRAFT
100
AcDbEllipse
 62
7
  6
CONTINUOUS
 10
300.2230857043
 20
203.50223998
 30
0.0
 11
231.2591722458
 21
443.6729627604
 31
0.0
 40
0.5463614449
 41
-3.9691353676
 42
-3.9319030361
  0
ELLIPSE
  5
4C7
100
AcDbEntity
  8
DRAFT
100
AcDbEllipse
 62
7
  6
CONTINUOUS
 10
301.4958779104
 20
202.767345712
 30
0.0
 11
231.2591722458
 21
443.6729627604
 31
0.0
 40
0.5463614449
 41
-3.9691353676
 42
-3.9319030361
  0
ELLIPSE
  5
4C8
100
AcDbEntity
  8
DRAFT
100
AcDbEllipse
 62
7
  6
CONTINUOUS
 10
302.7686701165
 20
202.032451444
 30
0.0
 11
231.2591722458
 21
443.6729627604
 31
0.0
 40
0.5463614449
 41
-3.9691353676
 42
-3.9319030361
  0
ELLIPSE
  5
4C9
100
AcDbEntity
  8
DRAFT
100
AcDbEllipse
 62
7
  6
CONTINUOUS
 10
304.0414623227
 20
201.297557176
 30
0.0
 11
231.2591722458
 21
443.6729627604
 31
0.0
 40
0.5463614449
 41
-3.9691353676
 42
-3.9319030361
  0
ELLIPSE
  5
4CA
100
AcDbEntity
  8
DRAFT
100
AcDbEllipse
 62
7
  6
CONTINUOUS
 10
305.3142545288
 20
200.562662908
 30
0.0
 11
231.2591722458
 21
443.6729627604
 31
0.0
 40
0.5463614449
 41
-3.9517212979
 42
-3.9319030361
  0
ELLIPSE
  5
4CB
100
AcDbEntity
  8
DRAFT
100
AcDbEllipse
 62
7
  6
CONTINUOUS
 10
305.3142545288
 20
200.562662908
 30
0.0
 11
231.2591722458
 21
443.6729627604
 31
0.0
 40
0.5463614449
 41
-3.9602509773
 42
-3.9517348211
  0
ELLIPSE
  5
4CC
100
AcDbEntity
  8
DRAFT
100
AcDbEllipse
 62
7
  6
CONTINUOUS
 10
305.3142545288
 20
200.562662908
 30
0.0
 11
231.2591722458
 21
443.6729627604
 31
0.0
 40
0.5463614449
 41
-3.9621522559
 42
-3.9602531859
  0
ELLIPSE
  5
4CD
100
AcDbEntity
  8
DRAFT
100
AcDbEllipse
 62
7
  6
CONTINUOUS
 10
305.3142545288
 20
200.562662908
 30
0.0
 11
231.2591722458
 21
443.6729627604
 31
0.0
 40
0.5463614449
 41
-3.9691353676
 42
-3.96215695
  0
ELLIPSE
  5
4CE
100
AcDbEntity
  8
DRAFT
100
AcDbEllipse
 62
7
  6
CONTINUOUS
 10
306.587046735
 20
199.82776864
 30
0.0
 11
231.2591722458
 21
443.6729627604
 31
0.0
 40
0.5463614449
 41
-3.9691353676
 42
-3.9319030361
  0
ELLIPSE
  5
4CF
100
AcDbEntity
  8
0
100
AcDbEllipse
 62
7
  6
CONTINUOUS
 10
-22.1502435047
 20
3.9916377134
 30
0.0
 11
-0.2496303025
 21
0.4334023309
 31
0.0
 40
0.5778584463
 41
-2.3545649475
 42
-0.7846820092
  0
ELLIPSE
  5
4D0
100
AcDbEntity
  8
0
100
AcDbEllipse
 62
7
  6
CONTINUOUS
 10
-22.1502435047
 20
-31.469114172
 30
0.0
 11
-0.2498600223
 21
0.43379745
 31
0.0
 40
0.5768037941
 41
-3.1764860629
 42
-2.355482613
  0
ELLIPSE
  5
4D1
100
AcDbEntity
  8
DRAFT
100
AcDbEllipse
 62
7
  6
CONTINUOUS
 10
339.1477437246
 20
181.0276302796
 30
0.0
 11
270.6502667019
 21
420.8455709112
 31
0.0
 40
0.6067084637
 41
-3.9164892544
 42
-3.8792569229
  0
ELLIPSE
  5
4D2
100
AcDbEntity
  8
DRAFT
100
AcDbEllipse
 62
7
  6
CONTINUOUS
 10
340.4205359307
 20
180.2927360116
 30
0.0
 11
270.6502667019
 21
420.8455709112
 31
0.0
 40
0.6067084637
 41
-3.9164892544
 42
-3.8792569229
  0
ELLIPSE
  5
4D3
100
AcDbEntity
  8
DRAFT
100
AcDbEllipse
 62
7
  6
CONTINUOUS
 10
341.6933281368
 20
179.5578417436
 30
0.0
 11
270.6502667019
 21
420.8455709112
 31
0.0
 40
0.6067084637
 41
-3.9164892544
 42
-3.8792569229
  0
ELLIPSE
  5
4D4
100
AcDbEntity
  8
DRAFT
100
AcDbEllipse
 62
7
  6
CONTINUOUS
 10
332.7837826939
 20
184.7021016196
 30
0.0
 11
270.6502667019
 21
420.8455709112
 31
0.0
 40
0.6067084637
 41
-3.9164892544
 42
-3.8792569229
  0
ELLIPSE
  5
4D5
100
AcDbEntity
  8
DRAFT
100
AcDbEllipse
 62
7
  6
CONTINUOUS
 10
342.966120343
 20
178.8229474756
 30
0.0
 11
270.6502667019
 21
420.8455709112
 31
0.0
 40
0.6067084637
 41
-3.9164892544
 42
-3.8792569229
  0
ELLIPSE
  5
4D6
100
AcDbEntity
  8
DRAFT
100
AcDbEllipse
 62
7
  6
CONTINUOUS
 10
334.0565749
 20
183.9672073516
 30
0.0
 11
270.6502667019
 21
420.8455709112
 31
0.0
 40
0.6067084637
 41
-3.9164892544
 42
-3.8792569229
  0
ELLIPSE
  5
4D7
100
AcDbEntity
  8
DRAFT
100
AcDbEllipse
 62
7
  6
CONTINUOUS
 10
335.3293671062
 20
183.2323130836
 30
0.0
 11
270.6502667019
 21
420.8455709112
 31
0.0
 40
0.6067084637
 41
-3.9164892544
 42
-3.8792569229
  0
ELLIPSE
  5
4D8
100
AcDbEntity
  8
DRAFT
100
AcDbEllipse
 62
7
  6
CONTINUOUS
 10
336.6021593123
 20
182.4974188156
 30
0.0
 11
270.6502667019
 21
420.8455709112
 31
0.0
 40
0.6067084637
 41
-3.9164892544
 42
-3.8792569229
  0
ELLIPSE
  5
4D9
100
AcDbEntity
  8
0
100
AcDbEllipse
 62
7
  6
CONTINUOUS
 10
-21.4730674968
 20
-13.6398016573
 30
0.0
 11
0.189858298
 21
0.352204673
 31
0.0
 40
0.5568425968
 41
4.4265411387
 42
6.5365770484
  0
ELLIPSE
  5
4DA
100
AcDbEntity
  8
DRAFT
100
AcDbEllipse
 62
7
  6
CONTINUOUS
 10
337.8749515184
 20
181.7625245476
 30
0.0
 11
270.6502667019
 21
420.8455709112
 31
0.0
 40
0.6067084637
 41
-3.9164892544
 42
-3.8792569229
  0
ELLIPSE
  5
4DB
100
AcDbEntity
  8
RACCORDO
100
AcDbEllipse
 62
7
  6
CONTINUOUS
 10
-19.6198954334
 20
-30.2219461616
 30
0.0
 11
-0.2500125069
 21
0.433896272
 31
0.0
 40
0.5765407173
 41
-3.1808199814
 42
-2.3559018685
  0
ELLIPSE
  5
4DC
100
AcDbEntity
  8
RACCORDO
100
AcDbEllipse
 62
7
  6
CONTINUOUS
 10
-19.6198954334
 20
5.5383314822
 30
0.0
 11
-0.2496682101
 21
0.4333034053
 31
0.0
 40
0.578122598
 41
-2.3545265006
 42
-0.7851001699
  0
ELLIPSE
  5
4DD
100
AcDbEntity
  8
RACCORDO
100
AcDbEllipse
 62
7
  6
CONTINUOUS
 10
-34.6810274818
 20
14.2344403667
 30
0.0
 11
-0.2500125069
 21
0.433896272
 31
0.0
 40
0.5765407173
 41
-0.7837355456
 42
0.0392273283
  0
ELLIPSE
  5
4DE
100
AcDbEntity
  8
RACCORDO
100
AcDbEllipse
 62
7
  6
CONTINUOUS
 10
-30.7049896307
 20
9.3561276133
 30
0.0
 11
0.4016095111
 21
0.0025963874
 31
0.0
 40
0.5770513848
 41
0.7776701213
 42
2.3135601837
  0
ELLIPSE
  5
4DF
100
AcDbEntity
  8
DRAFT
100
AcDbEllipse
 62
7
  6
CONTINUOUS
 10
174.6310345791
 20
109.7350031428
 30
0.0
 11
1050.8718009986
 21
586.0730947528
 31
0.0
 40
0.0130861934
 41
1.7583759104
 42
1.7606468229
  0
ELLIPSE
  5
4E0
100
AcDbEntity
  8
ASSI
100
AcDbEllipse
 62
7
  6
CONTINUOUS
 10
-24.7109430625
 20
23.5610997962
 30
0.0
 11
0.1752805434
 21
11.7963976426
 31
0.0
 40
0.0151114175
 41
-3.684759074
 42
-3.6073599475
  0
ELLIPSE
  5
4E1
100
AcDbEntity
  8
RACCORDO
100
AcDbEllipse
 62
7
  6
CONTINUOUS
 10
-21.5882145238
 20
-14.6980277995
 30
0.0
 11
0.1560437266
 21
0.2562850948
 31
0.0
 40
0.5922410672
 41
1.3015027065
 42
2.0831062358
  0
ELLIPSE
  5
4E2
100
AcDbEntity
  8
ASSI
100
AcDbEllipse
 62
7
  6
CONTINUOUS
 10
-24.7109430625
 20
13.4965897569
 30
0.0
 11
0.249991121
 21
-0.0037145729
 31
0.0
 40
0.5672251703
 41
-2.8825047169
 42
-1.8130280697
  0
ELLIPSE
  5
4E3
100
AcDbEntity
  8
ASSI
100
AcDbEllipse
 62
7
  6
CONTINUOUS
 10
-21.3168305128
 20
11.5368717089
 30
0.0
 11
0.249991121
 21
-0.0037145729
 31
0.0
 40
0.5672251703
 41
-2.8825047169
 42
-1.8130280697
  0
ELLIPSE
  5
4E4
100
AcDbEntity
  8
0
100
AcDbEllipse
 62
7
  6
CONTINUOUS
 10
-22.159576017
 20
3.9970261891
 30
0.0
 11
-0.2496682101
 21
0.4333034053
 31
0.0
 40
0.578122598
 41
5.3916093138
 42
5.4980851373
  0
ELLIPSE
  5
4E5
100
AcDbEntity
  8
0
100
AcDbEllipse
 62
7
  6
CONTINUOUS
 10
-37.0910943664
 20
12.6182977481
 30
0.0
 11
-0.2500125069
 21
0.433896272
 31
0.0
 40
0.5765407173
 41
-0.7837355456
 42
-0.1562077286
  0
ELLIPSE
  5
4E6
100
AcDbEntity
  8
RACCORDO
100
AcDbEllipse
 62
7
  6
CONTINUOUS
 10
-30.6081185282
 20
10.2882700668
 30
0.0
 11
0.4026940675
 21
0.0246563847
 31
0.0
 40
0.6056903747
 41
0.7409930873
 42
2.2768831497
  0
ELLIPSE
  5
4E7
100
AcDbEntity
  8
RACCORDO
100
AcDbEllipse
 62
7
  6
CONTINUOUS
 10
-26.9896667598
 20
8.1990213656
 30
0.0
 11
0.4023877664
 21
0.0246891769
 31
0.0
 40
0.6066033494
 41
5.4889004155
 42
7.0247904779
  0
ELLIPSE
  5
4E8
100
AcDbEntity
  8
ASSI
100
AcDbEllipse
 62
7
  6
CONTINUOUS
 10
-21.3705276167
 20
-13.6990068989
 30
0.0
 11
0.2600728777
 21
0.4271418247
 31
0.0
 40
0.5922410672
 41
-1.8400899471
 42
0.2969773926
  0
ELLIPSE
  5
4E9
100
AcDbEntity
  8
RACCORDO
100
AcDbEllipse
 62
7
  6
CONTINUOUS
 10
-21.5882145238
 20
-12.9385361264
 30
0.0
 11
0.1560437266
 21
0.2562850948
 31
0.0
 40
0.5922410672
 41
-3.6262187902
 42
-2.8446152609
  0
ELLIPSE
  5
4EA
100
AcDbEntity
  8
ASSI
100
AcDbEllipse
 62
7
  6
CONTINUOUS
 10
-21.3168305128
 20
21.6013817483
 30
0.0
 11
0.1752805434
 21
11.7963976426
 31
0.0
 40
0.0151114175
 41
2.5984262331
 42
2.6504714269
  0
ELLIPSE
  5
4EB
100
AcDbEntity
  8
DRAFT
100
AcDbEllipse
 62
7
  6
CONTINUOUS
 10
176.7485885866
 20
108.512353998
 30
0.0
 11
1014.8110524744
 21
606.8988729072
 31
0.0
 40
0.0130859057
 41
1.7578482228
 42
1.7601191353
  0
ELLIPSE
  5
4EC
100
AcDbEntity
  8
0
100
AcDbEllipse
 62
7
  6
CONTINUOUS
 10
-7.3514661993
 20
-16.1989334121
 30
0.0
 11
-0.1000124468
 21
0.1732154818
 31
0.0
 40
0.5772877058
 41
-0.3965574219
 42
0.0087255559
  0
ELLIPSE
  5
4ED
100
AcDbEntity
  8
0
100
AcDbEllipse
 62
7
  6
CONTINUOUS
 10
-28.7397577275
 20
8.2058894416
 30
0.0
 11
-0.0665744355
 21
0.2435178446
 31
0.0
 40
0.5124699816
 41
5.8054642694
 42
6.4237711037
  0
ELLIPSE
  5
4EE
100
AcDbEntity
  8
0
100
AcDbEllipse
 62
7
  6
CONTINUOUS
 10
-28.5767855119
 20
8.494851947
 30
0.0
 11
0.2432796388
 21
0.0746182756
 31
0.0
 40
0.5223703236
 41
2.6387727002
 42
2.975840751
  0
ENDSEC
  0
SECTION
  2
OBJECTS
  0
DICTIONARY
  5
C
100
AcDbDictionary
280
0
281
1
  3
ACAD_GROUP
350
D
  3
ACAD_MLINESTYLE
350
17
  3
ACAD_LAYOUT
350
1A
  3
ACAD_PLOTSETTINGS
350
19
  3
ACAD_PLOTSTYLENAME
350
E
  0
DICTIONARY
  5
D
102
{ACAD_REACTORS
330
C
102
}
100
AcDbDictionary
280
0
281
1
  0
ACDBDICTIONARYWDFLT
  5
E
102
{ACAD_REACTORS
330
C
102
}
100
AcDbDictionary
281
1
  3
Normal
350
F
100
AcDbDictionaryWithDefault
340
F
  0
DICTIONARY
  5
17
102
{ACAD_REACTORS
330
C
102
}
100
AcDbDictionary
280
0
281
1
  3
Standard
350
18
  0
DICTIONARY
  5
19
102
{ACAD_REACTORS
330
C
102
}
100
AcDbDictionary
281
1
  0
DICTIONARY
  5
1A
102
{ACAD_REACTORS
330
C
102
}
100
AcDbDictionary
281
1
  3
Model
350
4EF
  3
Layout1
350
4F0
  0
ACDBPLACEHOLDER
  5
F
102
{ACAD_REACTORS
330
E
102
}
  0
MLINESTYLE
  5
18
102
{ACAD_REACTORS
330
17
102
}
100
AcDbMlineStyle
  2
STANDARD
 70
0
  3

 62
256
 51
90.0
 52
90.0
 71
2
 49
0.5
 62
256
  6
BYLAYER
 49
-0.5
 62
256
  6
BYLAYER
  0
LAYOUT
  5
4EF
102
{ACAD_REACTORS
330
1A
102
}
100
AcDbPlotSettings
  1

  2
none_device
  4
ISO_A4_(297.00_x_210.00_MM)
  6

 40
0.0
 41
0.0
 42
0.0
 43
0.0
 44
297.0
 45
210.0
 46
0.0
 47
0.0
 48
0.0
 49
0.0
140
0.0
141
0.0
142
1.0
143
1.0
 70
1024
 72
1
 73
0
 74
0
  7

 75
0
147
1.0
148
0.0
149
0.0
100
AcDbLayout
  1
Model
 70
0
 71
0
 10
0.0
 20
0.0
 11
297.0
 21
210.0
 12
0.0
 22
0.0
 32
0.0
 14
0.0
 24
0.0
 34
0.0
 15
0.0
 25
0.0
 35
0.0
146
0.0
 13
0.0
 23
0.0
 33
0.0
 16
1.0
 26
0.0
 36
0.0
 17
0.0
 27
1.0
 37
0.0
 76
0
330
21D
345
0
346
0
  0
LAYOUT
  5
4F0
102
{ACAD_REACTORS
330
1A
102
}
100
AcDbPlotSettings
  1

  2
none_device
  4
ISO_A4_(297.00_x_210.00_MM)
  6

 40
0.0
 41
0.0
 42
0.0
 43
0.0
 44
297.0
 45
210.0
 46
0.0
 47
0.0
 48
0.0
 49
0.0
140
0.0
141
0.0
142
1.0
143
1.0
 70
0
 72
1
 73
0
 74
0
  7

 75
0
147
1.0
148
0.0
149
0.0
100
AcDbLayout
  1
Layout1
 70
0
 71
1
 10
0.0
 20
0.0
 11
297.0
 21
210.0
 12
0.0
 22
0.0
 32
0.0
 14
0.0
 24
0.0
 34
0.0
 15
0.0
 25
0.0
 35
0.0
146
0.0
 13
0.0
 23
0.0
 33
0.0
 16
1.0
 26
0.0
 36
0.0
 17
0.0
 27
1.0
 37
0.0
 76
0
330
21E
345
0
346
0
  0
ENDSEC
  0
EOF
