  0
SECTION
  2
HEADER
  9
$ACADVER
  1
AC1024
  9
$DWGCODEPAGE
  3
ANSI_1252
  9
$EXTMAX
 10
297.0
 20
210.0
 30
0.0
  9
$EXTMIN
 10
0.0
 20
0.0
 30
0.0
  9
$LIMMIN
 10
0.0
 20
0.0
  9
$LIMMAX
 10
297.0
 20
210.0
  9
$VIEWCTR
 10
148.5
 20
105.0
  9
$VIEWSIZE
 40
210.0
  9
$CLAYER
  8
0
  9
$LTSCALE
 40
16.335
  9
$CELTYPE
  6
BYLAYER
  9
$DIMSCALE
 40
1.0
  9
$DIMASZ
 40
3.0
  9
$DIMEXO
 40
0.5
  9
$DIMDLI
 40
11.286
  9
$DIMEXE
 40
1.5
  9
$DIMCEN
 40
2.673
  9
$DIMLFAC
 40
1.0
  9
$DIMBLK
  1
_FILLED
  9
$DIMALT
 70
0
  9
$DIMALTF
 40
0.0393700787
  9
$DIMTXT
 40
3.0
  9
$DIMTOL
 70
1
  9
$DIMLIM
 70
0
  9
$DIMTFAC
 40
1.0
  9
$DIMTP
 40
0.01
  9
$DIMTM
 40
0.01
  9
$DIMGAP
 40
0.625
  9
$DIMDSEP
 70
44
  9
$AUNITS
 70
0
  9
$PDMODE
 70
3
  9
$PDSIZE
 40
3.0
  9
$HANDSEED
  5
31C
  9
$TILEMODE
 70
1
  9
$MEASUREMENT
 70
1
  9
$INSUNITS
 70
4
  0
ENDSEC
  0
SECTION
  2
CLASSES
  0
CLASS
  1
ACDBDICTIONARYWDFLT
  2
AcDbDictionaryWithDefault
  3
AutoCAD 2000
 90
0
 91
1
280
0
281
0
  0
CLASS
  1
ACDBPLACEHOLDER
  2
AcDbPlaceHolder
  3
AutoCAD 2000
 90
0
 91
1
280
0
281
0
  0
CLASS
  1
LAYOUT
  2
AcDbLayout
  3
AutoCAD 2000
 90
0
 91
0
280
0
281
0
  0
ENDSEC
  0
SECTION
  2
TABLES
  0
TABLE
  2
VPORT
  5
8
100
AcDbSymbolTable
 70
2
  0
VPORT
  5
1F4
100
AcDbSymbolTableRecord
100
AcDbViewportTableRecord
  2
*ACTIVE
 70
0
 10
0.0
 20
0.0
 11
1.0
 21
1.0
 12
148.5
 22
105.0
 13
0.0
 23
0.0
 14
1.0
 24
1.0
 15
0.0
 25
0.0
 16
0.0
 26
0.0
 36
1.0
 17
0.0
 27
0.0
 37
0.0
 40
210.0
 41
1.4142857143
 42
50.0
 43
0.0
 44
0.0
 50
0.0
 51
0.0
 71
0
 72
100
 73
1
 74
1
 75
0
 76
0
 77
0
 78
0
  0
ENDTAB
  0
TABLE
  2
LTYPE
  5
5
100
AcDbSymbolTable
 70
6
  0
LTYPE
  5
14
100
AcDbSymbolTableRecord
100
AcDbLinetypeTableRecord
  2
BYBLOCK
 70
0
  3

 72
65
 73
0
 40
0.0
  0
LTYPE
  5
15
100
AcDbSymbolTableRecord
100
AcDbLinetypeTableRecord
  2
BYLAYER
 70
0
  3

 72
65
 73
0
 40
0.0
  0
LTYPE
  5
16
100
AcDbSymbolTableRecord
100
AcDbLinetypeTableRecord
  2
CONTINUOUS
 70
64
  3
Solid line
 72
65
 73
0
 40
0.0
  0
LTYPE
  5
1F5
100
AcDbSymbolTableRecord
100
AcDbLinetypeTableRecord
  2
CENTER
 70
64
  3
____ _ ____ _ ____ _ ____ _ ____ _ ____ _ ____
 72
65
 73
4
 40
0.6
 49
0.375
 74
0
 49
-0.075
 74
0
 49
0.075
 74
0
 49
-0.075
 74
0
  0
LTYPE
  5
1F6
100
AcDbSymbolTableRecord
100
AcDbLinetypeTableRecord
  2
HIDDEN
 70
64
  3
- - - - - - - - - - - - - - - - - - - -
 72
65
 73
2
 40
0.2
 49
0.1
 74
0
 49
-0.1
 74
0
  0
LTYPE
  5
1F7
100
AcDbSymbolTableRecord
100
AcDbLinetypeTableRecord
  2
PHANTOM
 70
64
  3
_____ _ _ _____ _ _ _____ _ _ _____
 72
65
 73
6
 40
0.8
 49
0.45
 74
0
 49
-0.05
 74
0
 49
0.1
 74
0
 49
-0.05
 74
0
 49
0.1
 74
0
 49
-0.05
 74
0
  0
LTYPE
  5
1F8
100
AcDbSymbolTableRecord
100
AcDbLinetypeTableRecord
  2
DOT
 70
64
  3
. . . . . . . . . . . . . . . . . . . .
 72
65
 73
2
 40
0.2
 49
0.1
 74
0
 49
-0.1
 74
0
  0
LTYPE
  5
1F9
100
AcDbSymbolTableRecord
100
AcDbLinetypeTableRecord
  2
DASHED
 70
64
  3
- - - - - - - - - - - - - - - - - - - -
 72
65
 73
2
 40
0.2
 49
0.1
 74
0
 49
-0.1
 74
0
  0
ENDTAB
  0
TABLE
  2
LAYER
  5
2
100
AcDbSymbolTable
 70
36
  0
LAYER
  5
10
100
AcDbSymbolTableRecord
100
AcDbLayerTableRecord
  2
0
 70
0
 62
7
  6
CONTINUOUS
370
-3
390
F
  0
LAYER
  5
1FA
100
AcDbSymbolTableRecord
100
AcDbLayerTableRecord
  2
DEFAULT_1
 70
0
 62
7
  6
CENTER
370
-3
390
F
  0
LAYER
  5
1FB
100
AcDbSymbolTableRecord
100
AcDbLayerTableRecord
  2
DEFAULT_2
 70
0
 62
7
  6
HIDDEN
370
-3
390
F
  0
LAYER
  5
1FC
100
AcDbSymbolTableRecord
100
AcDbLayerTableRecord
  2
DEFAULT_3
 70
0
 62
7
  6
PHANTOM
370
-3
390
F
  0
LAYER
  5
1FD
100
AcDbSymbolTableRecord
100
AcDbLayerTableRecord
  2
ASSI
 70
0
 62
7
  6
CONTINUOUS
370
-3
390
F
  0
LAYER
  5
1FE
100
AcDbSymbolTableRecord
100
AcDbLayerTableRecord
  2
COORDINATE
 70
0
 62
7
  6
CONTINUOUS
370
-3
390
F
  0
LAYER
  5
1FF
100
AcDbSymbolTableRecord
100
AcDbLayerTableRecord
  2
COORD_ORIGINE
 70
0
 62
7
  6
CONTINUOUS
370
-3
390
F
  0
LAYER
  5
200
100
AcDbSymbolTableRecord
100
AcDbLayerTableRecord
  2
CURVE
 70
0
 62
7
  6
CONTINUOUS
370
-3
390
F
  0
LAYER
  5
201
100
AcDbSymbolTableRecord
100
AcDbLayerTableRecord
  2
DRAFT
 70
0
 62
7
  6
CONTINUOUS
370
-3
390
F
  0
LAYER
  5
202
100
AcDbSymbolTableRecord
100
AcDbLayerTableRecord
  2
IMPORT_FEATURES
 70
0
 62
7
  6
CONTINUOUS
370
-3
390
F
  0
LAYER
  5
203
100
AcDbSymbolTableRecord
100
AcDbLayerTableRecord
  2
INTF_1
 70
0
 62
7
  6
CONTINUOUS
370
-3
390
F
  0
LAYER
  5
204
100
AcDbSymbolTableRecord
100
AcDbLayerTableRecord
  2
INTF_8
 70
0
 62
7
  6
CONTINUOUS
370
-3
390
F
  0
LAYER
  5
205
100
AcDbSymbolTableRecord
100
AcDbLayerTableRecord
  2
NOTE
 70
0
 62
7
  6
CONTINUOUS
370
-3
390
F
  0
LAYER
  5
206
100
AcDbSymbolTableRecord
100
AcDbLayerTableRecord
  2
PIANI
 70
0
 62
7
  6
CONTINUOUS
370
-3
390
F
  0
LAYER
  5
207
100
AcDbSymbolTableRecord
100
AcDbLayerTableRecord
  2
PIANI_ORIGINE
 70
0
 62
7
  6
CONTINUOUS
370
-3
390
F
  0
LAYER
  5
208
100
AcDbSymbolTableRecord
100
AcDbLayerTableRecord
  2
PUNTI
 70
0
 62
7
  6
CONTINUOUS
370
-3
390
F
  0
LAYER
  5
209
100
AcDbSymbolTableRecord
100
AcDbLayerTableRecord
  2
RACCORDO
 70
0
 62
7
  6
CONTINUOUS
370
-3
390
F
  0
LAYER
  5
20A
100
AcDbSymbolTableRecord
100
AcDbLayerTableRecord
  2
SMUSSO
 70
0
 62
7
  6
CONTINUOUS
370
-3
390
F
  0
LAYER
  5
20B
100
AcDbSymbolTableRecord
100
AcDbLayerTableRecord
  2
SNAPLINE
 70
0
 62
7
  6
CONTINUOUS
370
-3
390
F
  0
LAYER
  5
20C
100
AcDbSymbolTableRecord
100
AcDbLayerTableRecord
  2
SUPERFICI
 70
0
 62
7
  6
CONTINUOUS
370
-3
390
F
  0
LAYER
  5
20D
100
AcDbSymbolTableRecord
100
AcDbLayerTableRecord
  2
TRASH
 70
0
 62
7
  6
CONTINUOUS
370
-3
390
F
  0
LAYER
  5
20E
100
AcDbSymbolTableRecord
100
AcDbLayerTableRecord
  2
XSEC_DATUMS
 70
0
 62
7
  6
CONTINUOUS
370
-3
390
F
  0
ENDTAB
  0
TABLE
  2
STYLE
  5
3
100
AcDbSymbolTable
 70
1
  0
STYLE
  5
11
100
AcDbSymbolTableRecord
100
AcDbTextStyleTableRecord
  2
STANDARD
 70
0
 40
0.0
 41
0.8
 50
0.0
 71
0
 42
0.2
  3
txt
  4

  0
STYLE
  5
20F
100
AcDbSymbolTableRecord
100
AcDbTextStyleTableRecord
  2
TEXTSTYLE_1
 70
0
 40
0.0
 41
0.8
 50
0.0
 71
0
 42
0.2
  3
gdt
  4

  0
ENDTAB
  0
TABLE
  2
VIEW
  5
6
100
AcDbSymbolTable
 70
0
  0
ENDTAB
  0
TABLE
  2
UCS
  5
7
100
AcDbSymbolTable
 70
0
  0
ENDTAB
  0
TABLE
  2
APPID
  5
9
100
AcDbSymbolTable
 70
1
  0
APPID
  5
210
100
AcDbSymbolTableRecord
100
AcDbRegAppTableRecord
  2
ACAD
 70
0
  0
ENDTAB
  0
TABLE
  2
BLOCK_RECORD
  5
1
100
AcDbSymbolTable
 70
0
  0
BLOCK_RECORD
  5
211
100
AcDbSymbolTableRecord
100
AcDbBlockTableRecord
  2
*Model_Space
  0
BLOCK_RECORD
  5
212
100
AcDbSymbolTableRecord
100
AcDbBlockTableRecord
  2
*Paper_Space
  0
BLOCK_RECORD
  5
213
100
AcDbSymbolTableRecord
100
AcDbBlockTableRecord
  2
_FILLED
  0
ENDTAB
  0
TABLE
  2
DIMSTYLE
  5
A
100
AcDbSymbolTable
 70
1
100
AcDbDimStyleTable
 71
0
  0
DIMSTYLE
105
214
100
AcDbSymbolTableRecord
100
AcDbDimStyleTableRecord
  2
STANDARD
 70
0
  3

  4

 40
1.0
 41
3.0
 42
0.5
 43
0.38
 44
1.5
 45
0.0
 46
0.0
 47
0.01
 48
0.01
140
3.0
141
0.09
142
0.0
143
25.4
144
1.0
145
0.0
146
1.0
147
0.625
 71
1
 72
0
 73
0
 74
0
 75
0
 76
0
 77
1
 78
8
 79
2
170
0
171
1
172
0
173
0
174
0
175
0
176
0
177
0
178
0
270
2
179
2
271
2
272
2
273
2
274
2
275
0
280
0
281
0
282
0
283
1
284
8
285
0
286
0
287
3
288
0
340
11
278
44
341
213
342
213
343
213
344
213
  0
ENDTAB
  0
ENDSEC
  0
SECTION
  2
BLOCKS
  0
BLOCK
  5
20
100
AcDbEntity
  8
0
100
AcDbBlockBegin
  2
*Model_Space
 70
0
 10
0.0
 20
0.0
 30
0.0
  3
*Model_Space
  1

  0
ENDBLK
  5
21
100
AcDbEntity
  8
0
100
AcDbBlockEnd
  0
BLOCK
  5
1C
100
AcDbEntity
  8
0
100
AcDbBlockBegin
  2
*Paper_Space
 70
0
 10
0.0
 20
0.0
 30
0.0
  3
*Paper_Space
  1

  0
ENDBLK
  5
1D
100
AcDbEntity
  8
0
100
AcDbBlockEnd
  0
BLOCK
  5
215
100
AcDbEntity
  8
0
100
AcDbBlockBegin
  2
_FILLED
 70
64
 10
0.0
 20
0.0
  3
_FILLED
  1

  0
SOLID
  5
216
100
AcDbEntity
  8
0
  6
BYBLOCK
 62
0
100
AcDbTrace
 10
0.0
 20
0.0
 11
-1.0
 21
0.3166666667
 12
-1.0
 22
-0.3166666667
 13
-1.0
 23
-0.3166666667
  0
ENDBLK
  5
217
100
AcDbEntity
  8
0
  6
BYBLOCK
 62
0
100
AcDbBlockEnd
  0
ENDSEC
  0
SECTION
  2
ENTITIES
  0
LWPOLYLINE
  5
218
100
AcDbEntity
  8
0
100
AcDbPolyline
 62
7
  6
CONTINUOUS
 90
15
 70
0
 10
-11.9543414497
 20
20.9370722094
 10
-12.0264540791
 20
20.8905851479
 10
-12.0941873938
 20
20.8381268493
 10
-12.1583071494
 20
20.7795754156
 10
-12.2185843283
 20
20.7153247167
 10
-12.2743828934
 20
20.6462763189
 10
-12.3256546875
 20
20.5727108892
 10
-12.372195923
 20
20.4948919473
 10
-12.413295867
 20
20.4140910893
 10
-12.4488128428
 20
20.3306010342
 10
-12.478538143
 20
20.2447016376
 10
-12.5019211063
 20
20.1577399358
 10
-12.5187310063
 20
20.0702791141
 10
-12.528825518
 20
19.9821712416
 10
-12.5312626467
 20
19.9369659361
  0
LINE
  5
219
100
AcDbEntity
  8
0
100
AcDbLine
 62
7
  6
CONTINUOUS
 10
-11.9544984828
 20
20.9370009353
 11
-6.3196377149
 21
24.2226408767
  0
LINE
  5
21A
100
AcDbEntity
  8
0
100
AcDbLine
 62
250
  6
CONTINUOUS
 10
-11.7211444344
 20
20.9282335427
 11
-6.0857349398
 21
24.214193442
  0
LWPOLYLINE
  5
21B
100
AcDbEntity
  8
0
100
AcDbPolyline
 62
250
  6
CONTINUOUS
 90
8
 70
0
 10
-11.9543502191
 20
20.9370872907
 10
-11.9289070409
 20
20.9493057106
 10
-11.8983999813
 20
20.9581976316
 10
-11.8657506353
 20
20.9621307148
 10
-11.8313163002
 20
20.9610619187
 10
-11.7954738076
 20
20.9550029398
 10
-11.7586153992
 20
20.9440200842
 10
-11.7211444344
 20
20.9282335427
  0
LINE
  5
21C
100
AcDbEntity
  8
DRAFT
100
AcDbLine
 62
7
  6
CONTINUOUS
 10
1.1270233445
 20
24.0423643556
 11
1.20473651
 21
24.0678667579
  0
LINE
  5
21D
100
AcDbEntity
  8
DRAFT
100
AcDbLine
 62
7
  6
CONTINUOUS
 10
-1.7059481211
 20
22.6997206598
 11
-1.6304437031
 21
22.7243176622
  0
LINE
  5
21E
100
AcDbEntity
  8
DRAFT
100
AcDbLine
 62
7
  6
CONTINUOUS
 10
1.20473651
 20
24.0678667579
 11
1.2826977484
 21
24.0927917541
  0
LINE
  5
21F
100
AcDbEntity
  8
DRAFT
100
AcDbLine
 62
7
  6
CONTINUOUS
 10
-1.6304437031
 20
22.7243176622
 11
-1.5547065407
 21
22.7483718221
  0
LINE
  5
220
100
AcDbEntity
  8
DRAFT
100
AcDbLine
 62
7
  6
CONTINUOUS
 10
1.2826977484
 20
24.0927917541
 11
1.3609063985
 21
24.117139137
  0
LINE
  5
221
100
AcDbEntity
  8
DRAFT
100
AcDbLine
 62
7
  6
CONTINUOUS
 10
-1.5547065407
 20
22.7483718221
 11
-1.478737236
 21
22.7718829519
  0
LWPOLYLINE
  5
222
100
AcDbEntity
  8
DRAFT
100
AcDbPolyline
 62
7
  6
CONTINUOUS
 90
3
 70
0
 10
1.3609063985
 20
24.117139137
 10
1.4393598155
 20
24.1409080776
 10
1.4786784769
 20
24.1525756839
  0
LWPOLYLINE
  5
223
100
AcDbEntity
  8
DRAFT
100
AcDbPolyline
 62
7
  6
CONTINUOUS
 90
3
 70
0
 10
-1.478737236
 20
22.7718829519
 10
-1.4025381977
 20
22.7948503013
 10
-1.3643523779
 20
22.8061301052
  0
LWPOLYLINE
  5
224
100
AcDbEntity
  8
DRAFT
100
AcDbPolyline
 62
7
  6
CONTINUOUS
 90
21
 70
0
 10
-1.8313562198
 20
22.3578204464
 10
-1.8344315577
 20
22.3563158145
 10
-1.8520125295
 20
22.3489795554
 10
-1.8703850079
 20
22.3434243019
 10
-1.8895400361
 20
22.3396294786
 10
-1.9092562659
 20
22.3376381462
 10
-1.9295402061
 20
22.3374712675
 10
-1.9503853479
 20
22.3391078796
 10
-1.9715508166
 20
22.3425281553
 10
-1.9930398308
 20
22.3477525426
 10
-2.0148491719
 20
22.3547605934
 10
-2.0367283099
 20
22.3634711358
 10
-2.0586781812
 20
22.3739037187
 10
-2.0806978493
 20
22.3860387932
 10
-2.1025339747
 20
22.3997365406
 10
-2.1241843323
 20
22.4150147891
 10
-2.1456511472
 20
22.4318557105
 10
-2.166687754
 20
22.450066001
 10
-2.1872119312
 20
22.4695812259
 10
-2.2073059004
 20
22.4904658199
 10
-2.2269696616
 20
22.512719783
  0
LINE
  5
225
100
AcDbEntity
  8
DRAFT
100
AcDbLine
 62
7
  6
CONTINUOUS
 10
-1.7059481211
 20
22.6997206598
 11
1.1270233445
 21
24.0423643556
  0
LINE
  5
226
100
AcDbEntity
  8
DRAFT
100
AcDbLine
 62
7
  6
CONTINUOUS
 10
-1.3643523779
 20
22.8061301052
 11
1.4786784769
 21
24.1525756839
  0
LINE
  5
227
100
AcDbEntity
  8
DRAFT
100
AcDbLine
 62
7
  6
CONTINUOUS
 10
2.2714387405
 20
24.6476340815
 11
0.5295701758
 21
23.8235255962
  0
LINE
  5
228
100
AcDbEntity
  8
DRAFT
100
AcDbLine
 62
7
  6
CONTINUOUS
 10
-2.4914311961
 20
22.4170415701
 11
-0.054175998
 21
23.5691321105
  0
LINE
  5
229
100
AcDbEntity
  8
DRAFT
100
AcDbLine
 62
7
  6
CONTINUOUS
 10
-2.2269696616
 20
22.512719783
 11
0.6531067855
 21
23.8722700214
  0
LWPOLYLINE
  5
22A
100
AcDbEntity
  8
DRAFT
100
AcDbPolyline
 62
7
  6
CONTINUOUS
 90
6
 70
0
 10
-0.0541758535
 20
23.5691318153
 10
0.072813848
 20
23.6281252882
 10
0.2163743107
 20
23.6923589473
 10
0.3609372687
 20
23.7544581537
 10
0.5065147604
 20
23.8144285117
 10
0.6531067855
 20
23.8722700214
  0
LINE
  5
22B
100
AcDbEntity
  8
DRAFT
100
AcDbLine
 62
7
  6
CONTINUOUS
 10
-2.4792212311
 20
22.4109365876
 11
-2.4234203291
 21
22.4341049341
  0
LINE
  5
22C
100
AcDbEntity
  8
DRAFT
100
AcDbLine
 62
7
  6
CONTINUOUS
 10
-2.4234203291
 20
22.4341049341
 11
-2.3674733274
 21
22.4569592307
  0
LINE
  5
22D
100
AcDbEntity
  8
DRAFT
100
AcDbLine
 62
7
  6
CONTINUOUS
 10
-2.3674733274
 20
22.4569592307
 11
-2.3113804861
 21
22.4794993723
  0
LINE
  5
22E
100
AcDbEntity
  8
DRAFT
100
AcDbLine
 62
7
  6
CONTINUOUS
 10
-0.676098939
 20
22.4620033858
 11
1.2463275821
 21
23.2307657541
  0
LWPOLYLINE
  5
22F
100
AcDbEntity
  8
DRAFT
100
AcDbPolyline
 62
7
  6
CONTINUOUS
 90
3
 70
0
 10
-2.3113804861
 20
22.4794993723
 10
-2.2551428462
 20
22.501724939
 10
-2.2269696616
 20
22.512719783
  0
LINE
  5
230
100
AcDbEntity
  8
0
100
AcDbLine
 62
7
  6
CONTINUOUS
 10
3.2129883575
 20
23.524629768
 11
3.62888275
 21
23.6702359624
  0
LWPOLYLINE
  5
231
100
AcDbEntity
  8
0
100
AcDbPolyline
 62
250
  6
CONTINUOUS
 90
16
 70
0
 10
2.4652228934
 20
-24.0676466476
 10
2.5036617639
 20
-24.0848444779
 10
2.5454735865
 20
-24.0997706085
 10
2.5902103677
 20
-24.1122651132
 10
2.6373927743
 20
-24.1221941192
 10
2.6865152696
 20
-24.1294512421
 10
2.7370515296
 20
-24.1339587254
 10
2.7884600826
 20
-24.1356682738
 10
2.8401901106
 20
-24.1345615702
 10
2.8916873513
 20
-24.1306504724
 10
2.9424000365
 20
-24.1239768859
 10
2.9917848042
 20
-24.114612315
 10
3.0393125203
 20
-24.1026570966
 10
3.0844739481
 20
-24.0882393251
 10
3.1267852047
 20
-24.07151348
 10
3.1657929454
 20
-24.0526587706
  0
LWPOLYLINE
  5
232
100
AcDbEntity
  8
0
100
AcDbPolyline
 62
7
  6
CONTINUOUS
 90
11
 70
0
 10
2.7260157533
 20
-24.57318796
 10
2.7638541414
 20
-24.5907625883
 10
2.8248401033
 20
-24.6135673398
 10
2.8879291498
 20
-24.6306577995
 10
2.9527688848
 20
-24.6419131439
 10
3.0194284112
 20
-24.6472240049
 10
3.0874718354
 20
-24.646357532
 10
3.1563238963
 20
-24.639168435
 10
3.2259843057
 20
-24.6254677752
 10
3.2962032074
 20
-24.605009191
 10
3.3521044062
 20
-24.583801612
  0
LINE
  5
233
100
AcDbEntity
  8
0
100
AcDbLine
 62
7
  6
CONTINUOUS
 10
2.7267542573
 20
-24.5735597896
 11
-12.1277704282
 21
-17.1462974468
  0
LINE
  5
234
100
AcDbEntity
  8
0
100
AcDbLine
 62
250
  6
CONTINUOUS
 10
2.4652228859
 20
-24.0676466518
 11
-12.3847762117
 21
-16.6426471029
  0
LINE
  5
235
100
AcDbEntity
  8
0
100
AcDbLine
 62
250
  6
CONTINUOUS
 10
-12.1277710577
 20
-17.1462971321
 11
-12.1406052429
 21
-17.1395614303
  0
LWPOLYLINE
  5
236
100
AcDbEntity
  8
0
100
AcDbPolyline
 62
250
  6
CONTINUOUS
 90
12
 70
0
 10
2.725962953
 20
-24.5731629911
 10
2.7137145484
 20
-24.5667224101
 10
2.6709130449
 20
-24.5393834632
 10
2.6315169312
 20
-24.5062745935
 10
2.5957897654
 20
-24.4676172568
 10
2.5639737145
 20
-24.4236693402
 10
2.5362806519
 20
-24.3747200294
 10
2.5128985207
 20
-24.3210992358
 10
2.493991416
 20
-24.26317748
 10
2.4796865946
 20
-24.2013487214
 10
2.470076025
 20
-24.1360252662
 10
2.4652228859
 20
-24.0676466518
  0
LWPOLYLINE
  5
237
100
AcDbEntity
  8
0
100
AcDbPolyline
 62
250
  6
CONTINUOUS
 90
11
 70
0
 10
-12.1406052429
 20
-17.1395614303
 10
-12.1826710776
 20
-17.1125853287
 10
-12.2213767105
 20
-17.0798211165
 10
-12.2564681228
 20
-17.0414887677
 10
-12.2877275419
 20
-16.9978267452
 10
-12.3149477606
 20
-16.9491099643
 10
-12.337930303
 20
-16.8956752758
 10
-12.356512322
 20
-16.8379044376
 10
-12.3705697635
 20
-16.7761978925
 10
-12.3800115488
 20
-16.7109652661
 10
-12.3847762117
 20
-16.6426471029
  0
LINE
  5
238
100
AcDbEntity
  8
DRAFT
100
AcDbLine
 62
7
  6
CONTINUOUS
 10
4.4504252246
 20
23.5637371248
 11
4.269487802
 21
23.4732684135
  0
LINE
  5
239
100
AcDbEntity
  8
DRAFT
100
AcDbLine
 62
7
  6
CONTINUOUS
 10
-0.676098939
 20
21.5093754416
 11
1.2463275821
 21
22.4293953046
  0
LINE
  5
23A
100
AcDbEntity
  8
RACCORDO
100
AcDbLine
 62
250
  6
CONTINUOUS
 10
9.6151654673
 20
-16.2281553731
 11
9.3294620148
 21
-16.28065789
  0
LINE
  5
23B
100
AcDbEntity
  8
RACCORDO
100
AcDbLine
 62
250
  6
CONTINUOUS
 10
9.490229895
 20
-15.9763321745
 11
9.3294620148
 21
-16.0058758089
  0
LINE
  5
23C
100
AcDbEntity
  8
DRAFT
100
AcDbLine
 62
7
  6
CONTINUOUS
 10
3.5665417481
 20
20.3406830422
 11
5.1796491329
 21
21.2641049786
  0
LINE
  5
23D
100
AcDbEntity
  8
DRAFT
100
AcDbLine
 62
7
  6
CONTINUOUS
 10
4.254795187
 20
19.9965563228
 11
7.0686185816
 21
21.3576056316
  0
LINE
  5
23E
100
AcDbEntity
  8
DRAFT
100
AcDbLine
 62
7
  6
CONTINUOUS
 10
4.5963909301
 20
19.5485511341
 11
5.8602273436
 21
20.1534255438
  0
LWPOLYLINE
  5
23F
100
AcDbEntity
  8
DRAFT
100
AcDbPolyline
 62
7
  6
CONTINUOUS
 90
3
 70
0
 10
5.8602273436
 20
20.1534255438
 10
7.1100156063
 20
20.7485157198
 10
7.420273714
 20
20.8957391709
  0
LWPOLYLINE
  5
240
100
AcDbEntity
  8
0
100
AcDbPolyline
 62
250
  6
CONTINUOUS
 90
8
 70
0
 10
-12.5303938439
 20
-16.4762413065
 10
-12.5245740951
 20
-16.5031459085
 10
-12.513471673
 20
-16.5294577657
 10
-12.4972055346
 20
-16.5548949592
 10
-12.4759499639
 20
-16.5791849416
 10
-12.449932704
 20
-16.6020674574
 10
-12.4194325174
 20
-16.6232973314
 10
-12.3847761989
 20
-16.6426470959
  0
LWPOLYLINE
  5
241
100
AcDbEntity
  8
0
100
AcDbPolyline
 62
7
  6
CONTINUOUS
 90
13
 70
0
 10
-12.5312294499
 20
-16.4652075529
 10
-12.5247497947
 20
-16.5491143663
 10
-12.5121218818
 20
-16.6260293812
 10
-12.4934882355
 20
-16.6993433918
 10
-12.4691019608
 20
-16.7688056068
 10
-12.4393622271
 20
-16.8339666253
 10
-12.404867926
 20
-16.8942547994
 10
-12.3659431184
 20
-16.9497094864
 10
-12.3226349335
 20
-17.0005665638
 10
-12.275507796
 20
-17.0464020705
 10
-12.2249689099
 20
-17.0870706997
 10
-12.170653201
 20
-17.1228959858
 10
-12.1273134432
 20
-17.1465248471
  0
LINE
  5
242
100
AcDbEntity
  8
0
100
AcDbLine
 62
7
  6
CONTINUOUS
 10
-12.5312405384
 20
-16.4649910801
 11
-12.5312329275
 21
-16.4652076761
  0
LWPOLYLINE
  5
243
100
AcDbEntity
  8
0
100
AcDbPolyline
 62
250
  6
CONTINUOUS
 90
10
 70
0
 10
-12.3847762117
 20
-16.6426471029
 10
-12.5060755918
 20
-12.6621215239
 10
-12.5970595574
 20
-8.6646638007
 10
-12.6577200251
 20
-4.6506230383
 10
-12.6880516055
 20
-0.6203498087
 10
-12.6880516056
 20
3.425804007
 10
-12.6577200253
 20
7.4874852509
 10
-12.5970595576
 20
11.5643393488
 10
-12.5060755919
 20
15.6560103395
 10
-12.3847762117
 20
19.7621410344
  0
LWPOLYLINE
  5
244
100
AcDbEntity
  8
0
100
AcDbPolyline
 62
7
  6
CONTINUOUS
 90
10
 70
0
 10
-12.5312604328
 20
19.9371368152
 10
-12.6511154301
 20
15.8864960838
 10
-12.7428047193
 20
11.7784457833
 10
-12.8039291229
 20
7.6852832318
 10
-12.8344801529
 20
3.6074166851
 10
-12.8344559386
 20
-0.4548157664
 10
-12.8038558959
 20
-4.5011022537
 10
-12.7426806607
 20
-8.5311065826
 10
-12.6509374903
 20
-12.5444292277
 10
-12.5312405384
 20
-16.4649910801
  0
LWPOLYLINE
  5
245
100
AcDbEntity
  8
0
100
AcDbPolyline
 62
250
  6
CONTINUOUS
 90
19
 70
0
 10
-12.3847762117
 20
19.7621410344
 10
-12.3800115489
 20
19.8353104297
 10
-12.3705697635
 20
19.9101507772
 10
-12.3565123221
 20
19.986160066
 10
-12.3379303031
 20
20.0628404382
 10
-12.3149477606
 20
20.1396645506
 10
-12.2877275419
 20
20.2160792598
 10
-12.2564681227
 20
20.2915503944
 10
-12.2213767105
 20
20.3655946765
 10
-12.1826710777
 20
20.4377438664
 10
-12.1406052429
 20
20.5075253081
 10
-12.0954686783
 20
20.5744573513
 10
-12.047562647
 20
20.638080506
 10
-11.9972118175
 20
20.6979682423
 10
-11.9447572664
 20
20.7537180041
 10
-11.8905511646
 20
20.8049458888
 10
-11.8349604146
 20
20.8513065426
 10
-11.7783634947
 20
20.8924939375
 10
-11.7211444344
 20
20.9282335427
  0
LINE
  5
246
100
AcDbEntity
  8
0
100
AcDbLine
 62
7
  6
CONTINUOUS
 10
7.8882627896
 20
21.5405459426
 11
7.5970504009
 21
21.3325987463
  0
LINE
  5
247
100
AcDbEntity
  8
DRAFT
100
AcDbLine
 62
7
  6
CONTINUOUS
 10
5.1174124707
 20
18.8405287168
 11
7.894190273
 21
20.2517282777
  0
LINE
  5
248
100
AcDbEntity
  8
DRAFT
100
AcDbLine
 62
7
  6
CONTINUOUS
 10
9.7537260835
 20
20.9120866953
 11
8.0363907798
 21
20.0534190435
  0
LINE
  5
249
100
AcDbEntity
  8
DRAFT
100
AcDbLine
 62
7
  6
CONTINUOUS
 10
9.7786266974
 20
20.8940401031
 11
8.0426770598
 21
20.0446194379
  0
LWPOLYLINE
  5
24A
100
AcDbEntity
  8
0
100
AcDbPolyline
 62
250
  6
CONTINUOUS
 90
9
 70
0
 10
-12.5312626467
 20
19.9369659361
 10
-12.5303902894
 20
19.9189733125
 10
-12.5245703024
 20
19.8944695163
 10
-12.5134677004
 20
19.8702452665
 10
-12.4972014418
 20
19.8465601121
 10
-12.4759458102
 20
19.8236678263
 10
-12.4499285477
 20
19.8018136867
 10
-12.4194284146
 20
19.7812318483
 10
-12.3847722028
 20
19.7621428338
  0
LINE
  5
24B
100
AcDbEntity
  8
DRAFT
100
AcDbLine
 62
7
  6
CONTINUOUS
 10
8.9948698667
 20
21.2915148037
 11
7.6775740148
 21
20.3508680811
  0
LWPOLYLINE
  5
24C
100
AcDbEntity
  8
RACCORDO
100
AcDbPolyline
 62
7
  6
CONTINUOUS
 90
20
 70
0
 10
12.2822788108
 20
19.3925374444
 10
12.2958177863
 20
19.4000330082
 10
12.3079781067
 20
19.4085423845
 10
12.318689549
 20
19.4180099165
 10
12.3279501597
 20
19.4283472893
 10
12.3356223678
 20
19.4395080645
 10
12.3414476278
 20
19.4514869389
 10
12.3453450486
 20
19.4642591884
 10
12.3472984928
 20
19.4776714813
 10
12.3472034665
 20
19.491524335
 10
12.344998074
 20
19.5057911786
 10
12.3407608725
 20
19.520325361
 10
12.3346900918
 20
19.5347782177
 10
12.3268473128
 20
19.5490690205
 10
12.3173179697
 20
19.5631893938
 10
12.306391205
 20
19.5769376143
 10
12.2941973159
 20
19.5902429276
 10
12.2807678625
 20
19.6031519571
 10
12.2662304441
 20
19.6156370657
 10
12.249304206
 20
19.6286630028
  0
LINE
  5
24D
100
AcDbEntity
  8
RACCORDO
100
AcDbLine
 62
7
  6
CONTINUOUS
 10
12.2822788108
 20
19.3925374444
 11
7.9545452652
 21
17.1940533395
  0
LINE
  5
24E
100
AcDbEntity
  8
DRAFT
100
AcDbLine
 62
7
  6
CONTINUOUS
 10
9.1766702601
 20
18.3721874822
 11
11.9825137954
 21
19.7920965541
  0
LINE
  5
24F
100
AcDbEntity
  8
0
100
AcDbLine
 62
250
  6
CONTINUOUS
 10
-9.8478056576
 20
8.5773820394
 11
-9.6496305856
 21
8.6726552824
  0
LWPOLYLINE
  5
250
100
AcDbEntity
  8
0
100
AcDbPolyline
 62
250
  6
CONTINUOUS
 90
8
 70
0
 10
-9.8374305639
 20
8.8951864111
 10
-9.8361589763
 20
8.8616202434
 10
-9.8312263723
 20
8.8303863423
 10
-9.822718411
 20
8.802027113
 10
-9.8107828411
 20
8.7770350397
 10
-9.7956269347
 20
8.7558441328
 10
-9.7775138879
 20
8.7388223917
 10
-9.7595634236
 20
8.7276217213
  0
LWPOLYLINE
  5
251
100
AcDbEntity
  8
0
100
AcDbPolyline
 62
250
  6
CONTINUOUS
 90
10
 70
0
 10
-10.3111834901
 20
-4.8870419796
 10
-10.3245623781
 20
-3.2592859832
 10
-10.3327413664
 20
-1.6638974216
 10
-10.3360368085
 20
-0.1010587155
 10
-10.3347556576
 20
1.4290415308
 10
-10.3292031735
 20
2.92624569
 10
-10.3196825965
 20
4.3904271239
 10
-10.3064850009
 20
5.8214402193
 10
-10.2898895997
 20
7.2191200947
 10
-10.2701712362
 20
8.5833198816
  0
LWPOLYLINE
  5
252
100
AcDbEntity
  8
0
100
AcDbPolyline
 62
250
  6
CONTINUOUS
 90
10
 70
0
 10
-9.888793519
 20
-4.8848976228
 10
-9.9016489218
 20
-3.2578247285
 10
-9.9099284335
 20
-1.6634541489
 10
-9.9136320542
 20
-0.1017858842
 10
-9.912461799
 20
1.4273316604
 10
-9.9067156527
 20
2.9237468901
 10
-9.8972875699
 20
4.3870050213
 10
-9.8844755356
 20
5.8169544593
 10
-9.8679815648
 20
7.2137467986
 10
-9.8478056576
 20
8.5773820394
  0
LWPOLYLINE
  5
253
100
AcDbEntity
  8
0
100
AcDbPolyline
 62
250
  6
CONTINUOUS
 90
13
 70
0
 10
-9.8816133599
 20
-5.6164018539
 10
-9.8801504227
 20
-5.5816391321
 10
-9.8750632757
 20
-5.5455917577
 10
-9.8664395031
 20
-5.5088799348
 10
-9.8544275363
 20
-5.4721352927
 10
-9.8392340879
 20
-5.4359899844
 10
-9.8211205829
 20
-5.401065813
 10
-9.8003986915
 20
-5.367963601
 10
-9.7774249403
 20
-5.3372527956
 10
-9.7525945492
 20
-5.3094616551
 10
-9.7263346902
 20
-5.2850682452
 10
-9.6990971493
 20
-5.2644922006
 10
-9.6713505115
 20
-5.2480874625
  0
LWPOLYLINE
  5
254
100
AcDbEntity
  8
0
100
AcDbPolyline
 62
250
  6
CONTINUOUS
 90
19
 70
0
 10
-10.2701712362
 20
8.5833198816
 10
-10.2676408963
 20
8.6300639625
 10
-10.2617694757
 20
8.674119377
 10
-10.2525572376
 20
8.7154859991
 10
-10.2397545954
 20
8.7545819964
 10
-10.2236115577
 20
8.7909889995
 10
-10.2048781666
 20
8.8234518932
 10
-10.1834719445
 20
8.851604074
 10
-10.1594765895
 20
8.8758115641
 10
-10.1338918748
 20
8.8959179662
 10
-10.1070225826
 20
8.9117784104
 10
-10.0785650915
 20
8.9235372143
 10
-10.0486065751
 20
8.9314717584
 10
-10.0171798392
 20
8.935827346
 10
-9.9842527838
 20
8.9363583383
 10
-9.9498151549
 20
8.9326057355
 10
-9.9138637021
 20
8.9244164581
 10
-9.8764021315
 20
8.9119433691
 10
-9.8374305639
 20
8.8951864111
  0
LWPOLYLINE
  5
255
100
AcDbEntity
  8
0
100
AcDbPolyline
 62
250
  6
CONTINUOUS
 90
10
 70
0
 10
-9.8478059698
 20
8.5773818893
 10
-9.8463633189
 20
8.6005425147
 10
-9.8431993121
 20
8.622727418
 10
-9.8383216972
 20
8.6437488236
 10
-9.8317097333
 20
8.6635252311
 10
-9.8234257993
 20
8.681768475
 10
-9.8136966801
 20
8.6980704634
 10
-9.8026941826
 20
8.7123215265
 10
-9.7905225114
 20
8.7245409786
 10
-9.7774071878
 20
8.7346545023
  0
LINE
  5
256
100
AcDbEntity
  8
0
100
AcDbLine
 62
250
  6
CONTINUOUS
 10
3.1405403865
 20
13.4973911322
 11
8.9761777488
 21
16.6832370977
  0
LINE
  5
257
100
AcDbEntity
  8
0
100
AcDbLine
 62
250
  6
CONTINUOUS
 10
3.5063731265
 20
12.8943886865
 11
9.3294620148
 21
16.0733840711
  0
LWPOLYLINE
  5
258
100
AcDbEntity
  8
RACCORDO
100
AcDbPolyline
 62
7
  6
CONTINUOUS
 90
15
 70
0
 10
12.5218081696
 20
17.58489528
 10
12.5302972273
 20
17.5894064909
 10
12.5705644561
 20
17.614132485
 10
12.6098150608
 20
17.6439268706
 10
12.6474314776
 20
17.6784646221
 10
12.6821167586
 20
17.7164420958
 10
12.7135318349
 20
17.7570539494
 10
12.7418990284
 20
17.800312845
 10
12.7669529146
 20
17.845625333
 10
12.7885383344
 20
17.8925846735
 10
12.8065261789
 20
17.9409207196
 10
12.82071449
 20
17.9901969429
 10
12.830887374
 20
18.040114305
 10
12.8368192858
 20
18.0904392484
 10
12.8382946401
 20
18.1302914274
  0
LINE
  5
259
100
AcDbEntity
  8
RACCORDO
100
AcDbLine
 62
250
  6
CONTINUOUS
 10
12.5737362916
 20
17.6930396154
 11
9.6151654673
 21
16.1611947284
  0
LINE
  5
25A
100
AcDbEntity
  8
RACCORDO
100
AcDbLine
 62
7
  6
CONTINUOUS
 10
12.5218262988
 20
17.5848999001
 11
9.5896566626
 21
16.0667246283
  0
LWPOLYLINE
  5
25B
100
AcDbEntity
  8
0
100
AcDbPolyline
 62
250
  6
CONTINUOUS
 90
4
 70
0
 10
-0.2782233882
 20
-9.9037488154
 10
-0.289043346
 20
-9.9065763982
 10
-0.3043578894
 20
-9.9084978386
 10
-0.3203573434
 20
-9.9085067695
  0
LWPOLYLINE
  5
25C
100
AcDbEntity
  8
0
100
AcDbPolyline
 62
250
  6
CONTINUOUS
 90
5
 70
0
 10
-0.3203573434
 20
-9.9085067695
 10
-0.3372582805
 20
-9.906530807
 10
-0.3550780071
 20
-9.9024219493
 10
-0.3735975549
 20
-9.8960805882
 10
-0.3926823861
 20
-9.8874213097
  0
LINE
  5
25D
100
AcDbEntity
  8
RACCORDO
100
AcDbLine
 62
7
  6
CONTINUOUS
 10
9.3294620148
 20
-15.8959482343
 11
9.490229895
 21
-15.9763321745
  0
LINE
  5
25E
100
AcDbEntity
  8
0
100
AcDbLine
 62
250
  6
CONTINUOUS
 10
-0.6029454459
 20
-10.255735811
 11
-9.8816132501
 21
-5.6164019088
  0
LINE
  5
25F
100
AcDbEntity
  8
RACCORDO
100
AcDbLine
 62
250
  6
CONTINUOUS
 10
10.3621284812
 20
-15.2956210574
 11
9.3294620148
 21
-14.7792878242
  0
LINE
  5
260
100
AcDbEntity
  8
RACCORDO
100
AcDbLine
 62
7
  6
CONTINUOUS
 10
10.3869301463
 20
-15.2834347932
 11
9.3294620148
 21
-14.7547007274
  0
LINE
  5
261
100
AcDbEntity
  8
0
100
AcDbLine
 62
250
  6
CONTINUOUS
 10
-0.3926825974
 20
-9.8874214195
 11
-9.6713505115
 21
-5.2480874625
  0
LWPOLYLINE
  5
262
100
AcDbEntity
  8
0
100
AcDbPolyline
 62
250
  6
CONTINUOUS
 90
19
 70
0
 10
-9.6713502529
 20
-5.2480873327
 10
-9.6905478294
 20
-5.2376314431
 10
-9.7096697167
 20
-5.2251417991
 10
-9.7285621586
 20
-5.2107038249
 10
-9.7471675089
 20
-5.1943344178
 10
-9.7652294787
 20
-5.1762227794
 10
-9.7823286862
 20
-5.1568119695
 10
-9.7983046548
 20
-5.1363874639
 10
-9.813129362
 20
-5.1150941651
 10
-9.82665246
 20
-5.0932515511
 10
-9.8387264236
 20
-5.0712778019
 10
-9.8494596068
 20
-5.0491682704
 10
-9.8590478915
 20
-5.0265726019
 10
-9.8674266325
 20
-5.0036091538
 10
-9.8745102843
 20
-4.9804655485
 10
-9.8803211547
 20
-4.9568704798
 10
-9.8847435787
 20
-4.9328639624
 10
-9.8876092251
 20
-4.9087973115
 10
-9.8887935998
 20
-4.8848976634
  0
LWPOLYLINE
  5
263
100
AcDbEntity
  8
0
100
AcDbPolyline
 62
250
  6
CONTINUOUS
 90
19
 70
0
 10
-9.8816132501
 20
-5.6164019088
 10
-9.9201719071
 20
-5.5949719279
 10
-9.9579587792
 20
-5.5698678991
 10
-9.9949737208
 20
-5.5410897472
 10
-10.031655288
 20
-5.5081277858
 10
-10.0675643267
 20
-5.4714913928
 10
-10.1013840763
 20
-5.4327090646
 10
-10.1328557626
 20
-5.3918028671
 10
-10.162237283
 20
-5.3487502823
 10
-10.1889870829
 20
-5.3050130332
 10
-10.2128644096
 20
-5.2610710034
 10
-10.2341093389
 20
-5.2164439607
 10
-10.2529017397
 20
-5.171153548
 10
-10.2694237846
 20
-5.1251501817
 10
-10.2834925043
 20
-5.0784830355
 10
-10.2947400438
 20
-5.0313218825
 10
-10.3030434722
 20
-4.9837231533
 10
-10.3085247869
 20
-4.9356299375
 10
-10.3111834901
 20
-4.8870419796
  0
LINE
  5
264
100
AcDbEntity
  8
0
100
AcDbLine
 62
7
  6
CONTINUOUS
 10
-8.984603618
 20
8.3401417986
 11
-8.984603618
 21
-4.4310446101
  0
LINE
  5
265
100
AcDbEntity
  8
RACCORDO
100
AcDbLine
 62
250
  6
CONTINUOUS
 10
12.5218262988
 20
17.5848999001
 11
12.5302972273
 21
17.5894064909
  0
LINE
  5
266
100
AcDbEntity
  8
DRAFT
100
AcDbLine
 62
7
  6
CONTINUOUS
 10
-4.8008733488
 20
6.2482766641
 11
-8.984603618
 21
4.1646893981
  0
LWPOLYLINE
  5
267
100
AcDbEntity
  8
RACCORDO
100
AcDbPolyline
 62
250
  6
CONTINUOUS
 90
9
 70
0
 10
12.5291942429
 20
-14.3772982316
 10
12.5046345486
 20
-14.3670977865
 10
12.4770010881
 20
-14.3600015963
 10
12.4483553553
 20
-14.3567962248
 10
12.4189814055
 20
-14.3573418521
 10
12.3895901423
 20
-14.361389149
 10
12.3606124079
 20
-14.3685571693
 10
12.3321511584
 20
-14.378513331
 10
12.304416635
 20
-14.3909137201
  0
LWPOLYLINE
  5
268
100
AcDbEntity
  8
RACCORDO
100
AcDbPolyline
 62
250
  6
CONTINUOUS
 90
7
 70
0
 10
12.6511338962
 20
-14.4382680582
 10
12.6298564143
 20
-14.4292525219
 10
12.6023031326
 20
-14.4218470204
 10
12.5737428495
 20
-14.4184901309
 10
12.5444341542
 20
-14.419020491
 10
12.5150721563
 20
-14.4231740081
 10
12.4860911603
 20
-14.4305583093
  0
LWPOLYLINE
  5
269
100
AcDbEntity
  8
RACCORDO
100
AcDbPolyline
 62
250
  6
CONTINUOUS
 90
7
 70
0
 10
12.304416635
 20
-14.3909137201
 10
12.2861192319
 20
-14.3830857268
 10
12.2681349023
 20
-14.3783552598
 10
12.2507713631
 20
-14.3768032584
 10
12.2343257092
 20
-14.378456278
 10
12.2190793304
 20
-14.383286035
 10
12.2162872033
 20
-14.384582751
  0
LWPOLYLINE
  5
26A
100
AcDbEntity
  8
0
100
AcDbPolyline
 62
250
  6
CONTINUOUS
 90
13
 70
0
 10
-10.3111834901
 20
-4.8870419796
 10
-10.2818530663
 20
-4.8998831275
 10
-10.2494297125
 20
-4.9106603726
 10
-10.2144620637
 20
-4.9191913531
 10
-10.1775418063
 20
-4.9253317168
 10
-10.139293667
 20
-4.9289775627
 10
-10.1003648416
 20
-4.9300671994
 10
-10.0614140435
 20
-4.9285821894
 10
-10.0231003582
 20
-4.9245476604
 10
-9.9860720905
 20
-4.9180318805
 10
-9.9509557946
 20
-4.9091451032
 10
-9.9183456724
 20
-4.8980377013
 10
-9.888793519
 20
-4.8848976228
  0
LWPOLYLINE
  5
26B
100
AcDbEntity
  8
RACCORDO
100
AcDbPolyline
 62
7
  6
CONTINUOUS
 90
11
 70
0
 10
12.5297622161
 20
-14.3775863257
 10
12.510137914
 20
-14.3685517878
 10
12.4773379516
 20
-14.3568863256
 10
12.4427383534
 20
-14.3487432278
 10
12.4067421759
 20
-14.3443792521
 10
12.3698636871
 20
-14.3439721966
 10
12.3324115649
 20
-14.3476117067
 10
12.2947352384
 20
-14.3553161083
 10
12.2572870493
 20
-14.3670128511
 10
12.2203175918
 20
-14.3826326383
 10
12.2162890781
 20
-14.3845865718
  0
LINE
  5
26C
100
AcDbEntity
  8
0
100
AcDbLine
 62
7
  6
CONTINUOUS
 10
-8.772479661
 20
-4.796904317
 11
-0.2784113019
 21
-9.0439384966
  0
LINE
  5
26D
100
AcDbEntity
  8
RACCORDO
100
AcDbLine
 62
250
  6
CONTINUOUS
 10
12.304416635
 20
-14.3909137201
 11
12.4298683315
 21
-14.4536395683
  0
LINE
  5
26E
100
AcDbEntity
  8
RACCORDO
100
AcDbLine
 62
7
  6
CONTINUOUS
 10
12.5291940738
 20
-14.377298147
 11
12.6511329638
 21
-14.438267592
  0
LWPOLYLINE
  5
26F
100
AcDbEntity
  8
0
100
AcDbPolyline
 62
250
  6
CONTINUOUS
 90
7
 70
0
 10
-0.1839277281
 20
-9.9506698656
 10
-0.2096696534
 20
-9.9359747364
 10
-0.2313864351
 20
-9.919681652
 10
-0.2487106593
 20
-9.9020663442
 10
-0.2613492477
 20
-9.8834269168
 10
-0.2690884255
 20
-9.8640787833
 10
-0.2717973215
 20
-9.8443493279
  0
LINE
  5
270
100
AcDbEntity
  8
RACCORDO
100
AcDbLine
 62
250
  6
CONTINUOUS
 10
9.3294620148
 20
15.9178426594
 11
9.6151654673
 21
16.1611947284
  0
LINE
  5
271
100
AcDbEntity
  8
RACCORDO
100
AcDbLine
 62
7
  6
CONTINUOUS
 10
9.3294620148
 20
15.8471333304
 11
9.5889260941
 21
16.0681356318
  0
LINE
  5
272
100
AcDbEntity
  8
RACCORDO
100
AcDbLine
 62
7
  6
CONTINUOUS
 10
-2.5032196351
 20
5.0994498072
 11
-8.984603618
 21
1.7318135677
  0
LINE
  5
273
100
AcDbEntity
  8
RACCORDO
100
AcDbLine
 62
7
  6
CONTINUOUS
 10
-3.2232772885
 20
5.4594786339
 11
-8.984603618
 21
2.5902147467
  0
LINE
  5
274
100
AcDbEntity
  8
DRAFT
100
AcDbLine
 62
7
  6
CONTINUOUS
 10
-4.6774230801
 20
-0.0902419967
 11
-4.6774230801
 21
3.9697641825
  0
LWPOLYLINE
  5
275
100
AcDbEntity
  8
RACCORDO
100
AcDbPolyline
 62
250
  6
CONTINUOUS
 90
7
 70
0
 10
12.5315983421
 20
17.5909112011
 10
12.5440064585
 20
17.6019539263
 10
12.5544616399
 20
17.6157437326
 10
12.5627849953
 20
17.6320446727
 10
12.5688341098
 20
17.6505778328
 10
12.5725054812
 20
17.6710261056
 10
12.5737362916
 20
17.6930396154
  0
LINE
  5
276
100
AcDbEntity
  8
RACCORDO
100
AcDbLine
 62
250
  6
CONTINUOUS
 10
9.3294620148
 20
8.845861194
 11
9.6123047272
 21
8.9842594745
  0
LINE
  5
277
100
AcDbEntity
  8
0
100
AcDbLine
 62
7
  6
CONTINUOUS
 10
-0.2958455297
 20
-5.0325640335
 11
-2.6559979263
 21
-3.8524878352
  0
LWPOLYLINE
  5
278
100
AcDbEntity
  8
RACCORDO
100
AcDbPolyline
 62
250
  6
CONTINUOUS
 90
6
 70
0
 10
12.7821655475
 20
-15.8156872919
 10
12.7935759433
 20
-15.8242994131
 10
12.8024445989
 20
-15.8316422355
 10
12.8085998922
 20
-15.8375813262
 10
12.811915228
 20
-15.8420073984
 10
12.8122917733
 20
-15.8448420573
  0
LINE
  5
279
100
AcDbEntity
  8
DRAFT
100
AcDbLine
 62
7
  6
CONTINUOUS
 10
-2.6559979263
 20
-3.8524878352
 11
-2.6559979263
 21
-2.1854331548
  0
LINE
  5
27A
100
AcDbEntity
  8
RACCORDO
100
AcDbLine
 62
250
  6
CONTINUOUS
 10
-2.3269624479
 20
0.1035023059
 11
-2.3269624479
 21
-1.3687507732
  0
LINE
  5
27B
100
AcDbEntity
  8
RACCORDO
100
AcDbLine
 62
7
  6
CONTINUOUS
 10
-2.2409375826
 20
0.2086386955
 11
-2.2409375826
 21
-1.2651978258
  0
LWPOLYLINE
  5
27C
100
AcDbEntity
  8
RACCORDO
100
AcDbPolyline
 62
250
  6
CONTINUOUS
 90
7
 70
0
 10
-2.2409375826
 20
0.2086386955
 10
-2.2433086441
 20
0.1898170661
 10
-2.2507130168
 20
0.1706594203
 10
-2.2630282675
 20
0.1521444203
 10
-2.2800460103
 20
0.1345853575
 10
-2.3014782886
 20
0.1182793483
 10
-2.3269624479
 20
0.1035023059
  0
LINE
  5
27D
100
AcDbEntity
  8
RACCORDO
100
AcDbLine
 62
7
  6
CONTINUOUS
 10
-3.0166863884
 20
0.7081620046
 11
-8.984603618
 21
-2.1609315846
  0
LINE
  5
27E
100
AcDbEntity
  8
DRAFT
100
AcDbLine
 62
7
  6
CONTINUOUS
 10
-2.6559979263
 20
-2.1854331548
 11
-0.2940898828
 21
-3.3663871766
  0
LINE
  5
27F
100
AcDbEntity
  8
DRAFT
100
AcDbLine
 62
7
  6
CONTINUOUS
 10
-1.8891296717
 20
-1.8101954584
 11
-0.2918189219
 21
-2.6088508333
  0
LINE
  5
280
100
AcDbEntity
  8
RACCORDO
100
AcDbLine
 62
7
  6
CONTINUOUS
 10
-2.2409375826
 20
-1.2037298703
 11
-1.4539163983
 21
-1.5972404624
  0
LWPOLYLINE
  5
281
100
AcDbEntity
  8
0
100
AcDbPolyline
 62
250
  6
CONTINUOUS
 90
8
 70
0
 10
-0.5595266785
 20
4.2562344683
 10
-0.5582550036
 20
4.222667392
 10
-0.5533221479
 20
4.1914328985
 10
-0.5448138405
 20
4.1630733832
 10
-0.5328779049
 20
4.1380813057
 10
-0.5177216783
 20
4.116890615
 10
-0.499608399
 20
4.0998692285
 10
-0.481612343
 20
4.0886461617
  0
LINE
  5
282
100
AcDbEntity
  8
DRAFT
100
AcDbLine
 62
7
  6
CONTINUOUS
 10
-1.4539163983
 20
-1.5972404624
 11
-1.4539163983
 21
-2.0278020951
  0
LINE
  5
283
100
AcDbEntity
  8
DRAFT
100
AcDbLine
 62
7
  6
CONTINUOUS
 10
-0.676098939
 20
21.5093754416
 11
-0.676098939
 21
22.4620033858
  0
LWPOLYLINE
  5
284
100
AcDbEntity
  8
0
100
AcDbPolyline
 62
250
  6
CONTINUOUS
 90
10
 70
0
 10
-0.1436246602
 20
3.5200467191
 10
-0.1666677341
 20
1.8667680074
 10
-0.1843187726
 20
0.2529537096
 10
-0.1969118413
 20
-1.3215355773
 10
-0.2047761005
 20
-2.8568262874
 10
-0.2082278313
 20
-4.3530685064
 10
-0.207570115
 20
-5.8104356466
 10
-0.2031035879
 20
-7.2290752901
 10
-0.1951267367
 20
-8.6091091773
 10
-0.1839277151
 20
-9.9506697399
  0
LWPOLYLINE
  5
285
100
AcDbEntity
  8
0
100
AcDbPolyline
 62
7
  6
CONTINUOUS
 90
10
 70
0
 10
-0.2314960783
 20
3.625729836
 10
-0.2518940533
 20
2.181773285
 10
-0.2692310014
 20
0.6622180645
 10
-0.2823012641
 20
-0.8552362476
 10
-0.2911045921
 20
-2.3705681077
 10
-0.2956408741
 20
-3.8837594846
 10
-0.2959100599
 20
-5.3947944459
 10
-0.2919121035
 20
-6.9036560302
 10
-0.2836470565
 20
-8.4103240938
 10
-0.271796636
 20
-9.8444243576
  0
LWPOLYLINE
  5
286
100
AcDbEntity
  8
0
100
AcDbPolyline
 62
7
  6
CONTINUOUS
 90
6
 70
0
 10
-0.2717963076
 20
-9.8444577389
 10
-0.2723199656
 20
-9.8657230372
 10
-0.2742631951
 20
-9.8849228599
 10
-0.2770332789
 20
-9.8995979919
 10
-0.2798865817
 20
-9.9095496462
 10
-0.2816484279
 20
-9.9140908819
  0
LWPOLYLINE
  5
287
100
AcDbEntity
  8
0
100
AcDbPolyline
 62
250
  6
CONTINUOUS
 90
19
 70
0
 10
-0.1839277151
 20
-9.9506697399
 10
-0.1852521679
 20
-9.9968134073
 10
-0.189934812
 20
-10.0402775291
 10
-0.1979759106
 20
-10.0810622405
 10
-0.20961142
 20
-10.1195789286
 10
-0.2246058056
 20
-10.1554164223
 10
-0.2422524807
 20
-10.1873412183
 10
-0.2626436322
 20
-10.2149918249
 10
-0.2856882931
 20
-10.2387303617
 10
-0.3104056126
 20
-10.2584089833
 10
-0.336500147
 20
-10.273887346
 10
-0.3642685005
 20
-10.2853063916
 10
-0.3936179001
 20
-10.2929402061
 10
-0.424510338
 20
-10.2970311777
 10
-0.4569845278
 20
-10.2973372821
 10
-0.4910627103
 20
-10.2934059518
 10
-0.5267524668
 20
-10.2850864171
 10
-0.5640466716
 20
-10.2725296827
 10
-0.6029454459
 20
-10.255735811
  0
LWPOLYLINE
  5
288
100
AcDbEntity
  8
0
100
AcDbPolyline
 62
250
  6
CONTINUOUS
 90
13
 70
0
 10
-0.6029454459
 20
-10.255735811
 10
-0.6014826002
 20
-10.2209740809
 10
-0.5963957064
 20
-10.1849275453
 10
-0.5877722795
 20
-10.1482163497
 10
-0.575760677
 20
-10.1114720743
 10
-0.5605675471
 20
-10.0753268686
 10
-0.5424542725
 20
-10.0404025756
 10
-0.5217324747
 20
-10.0073000337
 10
-0.4987586518
 20
-9.9765887399
 10
-0.4739280461
 20
-9.9487970521
 10
-0.4476678439
 20
-9.9244030991
 10
-0.4204298266
 20
-9.9038265551
 10
-0.3926825974
 20
-9.8874214195
  0
LINE
  5
289
100
AcDbEntity
  8
RACCORDO
100
AcDbLine
 62
250
  6
CONTINUOUS
 10
9.336742382
 20
10.4896305731
 11
9.3294620148
 21
10.4819465174
  0
LINE
  5
28A
100
AcDbEntity
  8
RACCORDO
100
AcDbLine
 62
250
  6
CONTINUOUS
 10
9.5167698209
 20
10.273553202
 11
9.3294620148
 21
10.07585938
  0
LINE
  5
28B
100
AcDbEntity
  8
0
100
AcDbLine
 62
250
  6
CONTINUOUS
 10
-9.888793519
 20
-4.8848976228
 11
-8.984603618
 21
-4.4310446101
  0
LINE
  5
28C
100
AcDbEntity
  8
RACCORDO
100
AcDbLine
 62
250
  6
CONTINUOUS
 10
-8.984603618
 20
-2.7406435859
 11
-2.5390864049
 21
0.4693620128
  0
LINE
  5
28D
100
AcDbEntity
  8
RACCORDO
100
AcDbLine
 62
250
  6
CONTINUOUS
 10
-8.984603618
 20
-3.212145566
 11
-2.3269624479
 21
0.1035023059
  0
LINE
  5
28E
100
AcDbEntity
  8
RACCORDO
100
AcDbLine
 62
7
  6
CONTINUOUS
 10
-2.3269624479
 20
-1.3687507732
 11
-8.9187750526
 21
-4.6516146099
  0
LWPOLYLINE
  5
28F
100
AcDbEntity
  8
RACCORDO
100
AcDbPolyline
 62
250
  6
CONTINUOUS
 90
7
 70
0
 10
-2.5390864049
 20
0.4693620128
 10
-2.5115672828
 20
0.4806292636
 10
-2.4845451344
 20
0.4872941732
 10
-2.4584772003
 20
0.4892439648
 10
-2.4338045749
 20
0.4864456462
 10
-2.4109447428
 20
0.4789465676
 10
-2.406773504
 20
0.4769668528
  0
LINE
  5
290
100
AcDbEntity
  8
RACCORDO
100
AcDbLine
 62
250
  6
CONTINUOUS
 10
-3.0166863884
 20
0.7081620046
 11
-2.5390864049
 21
0.4693620128
  0
LINE
  5
291
100
AcDbEntity
  8
RACCORDO
100
AcDbLine
 62
7
  6
CONTINUOUS
 10
-2.8832188103
 20
0.715189506
 11
-2.406773504
 21
0.4769668528
  0
LWPOLYLINE
  5
292
100
AcDbEntity
  8
RACCORDO
100
AcDbPolyline
 62
250
  6
CONTINUOUS
 90
16
 70
0
 10
-2.5390864049
 20
0.4693620128
 10
-2.5166593225
 20
0.4568980403
 10
-2.4944990519
 20
0.4416961284
 10
-2.4728499958
 20
0.4239235873
 10
-2.4519480628
 20
0.4037730889
 10
-2.432027058
 20
0.3814690028
 10
-2.4133145842
 20
0.3572678448
 10
-2.3960201309
 20
0.3314460266
 10
-2.3803268483
 20
0.304282922
 10
-2.3663998593
 20
0.2760664611
 10
-2.3543743331
 20
0.2470583854
 10
-2.3444079355
 20
0.2176249544
 10
-2.3366413817
 20
0.1882251843
 10
-2.3311366218
 20
0.1592240167
 10
-2.3279091326
 20
0.1308849879
 10
-2.3269624479
 20
0.1035023059
  0
LWPOLYLINE
  5
293
100
AcDbEntity
  8
RACCORDO
100
AcDbPolyline
 62
7
  6
CONTINUOUS
 90
5
 70
0
 10
12.347481077
 20
-16.6648926081
 10
12.3473978938
 20
-16.6647952728
 10
12.3457323504
 20
-16.6653375594
 10
12.3420566812
 20
-16.6669248856
 10
12.33636168
 20
-16.6696759341
  0
LWPOLYLINE
  5
294
100
AcDbEntity
  8
DRAFT
100
AcDbPolyline
 62
7
  6
CONTINUOUS
 90
18
 70
0
 10
-1.7059481211
 20
22.6997206598
 10
-1.7031107298
 20
22.6713633124
 10
-1.7016369109
 20
22.643753461
 10
-1.7015266643
 20
22.6168911056
 10
-1.7027898724
 20
22.5906890766
 10
-1.7054166529
 20
22.5652345435
 10
-1.7093773586
 20
22.5407890151
 10
-1.7146876823
 20
22.5173499222
 10
-1.7213319312
 20
22.494919834
 10
-1.7292333804
 20
22.4737679663
 10
-1.7384063843
 20
22.4539126873
 10
-1.7488365884
 20
22.4353356288
 10
-1.760404205
 20
22.4182509032
 10
-1.7731227663
 20
22.4026754446
 10
-1.78697874
 20
22.3885923189
 10
-1.8018117417
 20
22.376164836
 10
-1.8176331357
 20
22.3654125038
 10
-1.8313562198
 20
22.3578204464
  0
LINE
  5
295
100
AcDbEntity
  8
0
100
AcDbLine
 62
250
  6
CONTINUOUS
 10
2.4652228859
 20
-24.0676466518
 11
2.3396177681
 21
-20.0849682053
  0
LWPOLYLINE
  5
296
100
AcDbEntity
  8
0
100
AcDbPolyline
 62
250
  6
CONTINUOUS
 90
9
 70
0
 10
2.3396177681
 20
-20.0849682053
 10
2.245404499
 20
-16.0858958315
 10
2.1825911625
 20
-12.0707786353
 10
2.1511831477
 20
-8.0399671886
 10
2.1511831477
 20
-3.9938133725
 10
2.1825911625
 20
0.0673296547
 10
2.245404499
 20
4.1431073188
 10
2.339617768
 20
8.2331636587
 10
2.4652228859
 20
12.3371414856
  0
LINE
  5
297
100
AcDbEntity
  8
DRAFT
100
AcDbLine
 62
7
  6
CONTINUOUS
 10
1.2463275821
 20
22.4293953046
 11
1.2463275821
 21
23.2307657541
  0
LWPOLYLINE
  5
298
100
AcDbEntity
  8
0
100
AcDbPolyline
 62
250
  6
CONTINUOUS
 90
19
 70
0
 10
2.4652228859
 20
12.3371414856
 10
2.470076025
 20
12.4102865315
 10
2.4796865947
 20
12.4850545705
 10
2.493991416
 20
12.5609428868
 10
2.5128985207
 20
12.6374444299
 10
2.5362806519
 20
12.7140407592
 10
2.5639737145
 20
12.7902055862
 10
2.5957897654
 20
12.8654197479
 10
2.6315169312
 20
12.9391834934
 10
2.6709130449
 20
13.0110090207
 10
2.7137145484
 20
13.0804101506
 10
2.7596366393
 20
13.1469220088
 10
2.8083738258
 20
13.2101110121
 10
2.8596099475
 20
13.2695569144
 10
2.9129975787
 20
13.3248481426
 10
2.9681593256
 20
13.3756026452
 10
3.0247194427
 20
13.42147678
 10
3.0823078166
 20
13.4621642428
 10
3.1405403865
 20
13.4973911322
  0
LINE
  5
299
100
AcDbEntity
  8
RACCORDO
100
AcDbLine
 62
7
  6
CONTINUOUS
 10
9.5167698209
 20
9.7329272112
 11
9.3784564786
 21
9.5822959594
  0
LINE
  5
29A
100
AcDbEntity
  8
0
100
AcDbLine
 62
250
  6
CONTINUOUS
 10
-9.6713505115
 20
-5.2480874625
 11
-8.772479661
 21
-4.796904317
  0
LINE
  5
29B
100
AcDbEntity
  8
DRAFT
100
AcDbLine
 62
7
  6
CONTINUOUS
 10
-1.4539163983
 20
-1.5972404624
 11
-1.8891296717
 21
-1.8101954584
  0
LINE
  5
29C
100
AcDbEntity
  8
DRAFT
100
AcDbLine
 62
7
  6
CONTINUOUS
 10
-8.3869635861
 20
-4.9896623545
 11
-2.6559979263
 21
-2.1854331548
  0
LWPOLYLINE
  5
29D
100
AcDbEntity
  8
0
100
AcDbPolyline
 62
250
  6
CONTINUOUS
 90
5
 70
0
 10
-0.1667160378
 20
3.7137900274
 10
-0.1565552516
 20
3.6660854087
 10
-0.1493813801
 20
3.6179214193
 10
-0.1450713489
 20
3.5692417769
 10
-0.1436246602
 20
3.5200467191
  0
LWPOLYLINE
  5
29E
100
AcDbEntity
  8
0
100
AcDbPolyline
 62
250
  6
CONTINUOUS
 90
10
 70
0
 10
3.1657929454
 20
-24.0526587706
 10
3.0403023859
 20
-20.0733903779
 10
2.946184471
 20
-16.0784382603
 10
2.8834392005
 20
-12.0678024179
 10
2.8520665807
 20
-8.0411255809
 10
2.8520666054
 20
-3.9987650191
 10
2.8834392561
 20
0.0582074587
 10
2.9461845266
 20
4.1294345827
 10
3.040302423
 20
8.2152736227
 10
3.1657929454
 20
12.3157245786
  0
LINE
  5
29F
100
AcDbEntity
  8
DRAFT
100
AcDbLine
 62
7
  6
CONTINUOUS
 10
3.2129883575
 20
23.2854207437
 11
3.2129883575
 21
23.524629768
  0
LINE
  5
2A0
100
AcDbEntity
  8
DRAFT
100
AcDbLine
 62
7
  6
CONTINUOUS
 10
3.5665417481
 20
19.3880550981
 11
3.5665417481
 21
20.3406830422
  0
LWPOLYLINE
  5
2A1
100
AcDbEntity
  8
0
100
AcDbPolyline
 62
250
  6
CONTINUOUS
 90
19
 70
0
 10
3.1657929454
 20
12.3157245786
 10
3.1682965889
 20
12.3525934401
 10
3.1731155328
 20
12.3897931385
 10
3.1802497769
 20
12.4273236738
 10
3.1897797541
 20
12.4654548881
 10
3.2016250316
 20
12.5039169393
 10
3.2155443108
 20
12.5419003009
 10
3.2315772232
 20
12.5793805107
 10
3.2496841374
 20
12.6163820309
 10
3.2695048603
 20
12.6521687221
 10
3.2910729851
 20
12.6867152903
 10
3.3143549186
 20
12.7200470295
 10
3.3388896886
 20
12.7515036818
 10
3.364713001
 20
12.7810561825
 10
3.3917891498
 20
12.8087335964
 10
3.4195500457
 20
12.83396286
 10
3.4478063256
 20
12.8565529524
 10
3.4767473525
 20
12.8766948945
 10
3.5063731265
 20
12.8943886865
  0
LINE
  5
2A2
100
AcDbEntity
  8
RACCORDO
100
AcDbLine
 62
250
  6
CONTINUOUS
 10
12.7935759433
 20
19.0510568759
 11
12.7821655475
 21
19.0282512339
  0
LINE
  5
2A3
100
AcDbEntity
  8
0
100
AcDbLine
 62
7
  6
CONTINUOUS
 10
-6.6586552755
 20
-5.8538165098
 11
-2.6559979263
 21
-3.8524878352
  0
LWPOLYLINE
  5
2A4
100
AcDbEntity
  8
0
100
AcDbPolyline
 62
250
  6
CONTINUOUS
 90
13
 70
0
 10
-10.2701712204
 20
8.5833200044
 10
-10.2408401705
 20
8.5704009669
 10
-10.2084166296
 20
8.5594105562
 10
-10.1734493084
 20
8.550534715
 10
-10.1365299577
 20
8.5439236008
 10
-10.0982833209
 20
8.5396890403
 10
-10.0593565582
 20
8.5379026455
 10
-10.0204083484
 20
8.538594609
 10
-9.9820977296
 20
8.5417531871
 10
-9.9450729149
 20
8.5473249024
 10
-9.9099603581
 20
8.5552154486
 10
-9.8773541536
 20
8.5652912845
 10
-9.8478059696
 20
8.5773818968
  0
LINE
  5
2A5
100
AcDbEntity
  8
0
100
AcDbLine
 62
7
  6
CONTINUOUS
 10
-9.7595068969
 20
8.7275934381
 11
-0.4816030125
 21
4.0886414959
  0
LINE
  5
2A6
100
AcDbEntity
  8
0
100
AcDbLine
 62
250
  6
CONTINUOUS
 10
-9.8374305639
 20
8.8951864111
 11
-0.5595267882
 21
4.2562345232
  0
LWPOLYLINE
  5
2A7
100
AcDbEntity
  8
0
100
AcDbPolyline
 62
7
  6
CONTINUOUS
 90
20
 70
0
 10
-0.481612349
 20
4.0886461647
 10
-0.467991518
 20
4.0811407575
 10
-0.4520151446
 20
4.0707254236
 10
-0.4343201648
 20
4.0573252191
 10
-0.41536317
 20
4.0408719003
 10
-0.3955135485
 20
4.0212996397
 10
-0.3752428349
 20
3.9987081196
 10
-0.3548995656
 20
3.9731399261
 10
-0.3349658642
 20
3.9448703164
 10
-0.3160273027
 20
3.9144805863
 10
-0.2984214487
 20
3.8823581068
 10
-0.2824542066
 20
3.848942172
 10
-0.2685078402
 20
3.8150223556
 10
-0.2567308569
 20
3.7811072116
 10
-0.2472158368
 20
3.7477047224
 10
-0.2400566976
 20
3.7156412175
 10
-0.2351539518
 20
3.6853548988
 10
-0.2323608508
 20
3.6573058032
 10
-0.2314568159
 20
3.6322655077
 10
-0.2314959429
 20
3.6257385629
  0
LWPOLYLINE
  5
2A8
100
AcDbEntity
  8
0
100
AcDbPolyline
 62
250
  6
CONTINUOUS
 90
6
 70
0
 10
-0.5595267882
 20
4.2562345232
 10
-0.5210291252
 20
4.2347762257
 10
-0.4834145833
 20
4.2095877969
 10
-0.4466830167
 20
4.1806693061
 10
-0.4104032099
 20
4.14750727
 10
-0.3750057804
 20
4.1106154559
  0
LWPOLYLINE
  5
2A9
100
AcDbEntity
  8
0
100
AcDbPolyline
 62
250
  6
CONTINUOUS
 90
7
 70
0
 10
-0.1436246602
 20
3.5200467191
 10
-0.1693661989
 20
3.5346638754
 10
-0.1910833443
 20
3.5507435545
 10
-0.2084086206
 20
3.5680136723
 10
-0.2210488671
 20
3.5861820013
 10
-0.228790198
 20
3.6049411152
 10
-0.2314960783
 20
3.625729836
  0
LWPOLYLINE
  5
2AA
100
AcDbEntity
  8
0
100
AcDbPolyline
 62
250
  6
CONTINUOUS
 90
10
 70
0
 10
-0.3750057804
 20
4.1106154559
 10
-0.3417832827
 20
4.0715348324
 10
-0.3109967203
 20
4.0302864721
 10
-0.282384213
 20
3.9868497191
 10
-0.2564541881
 20
3.9427028544
 10
-0.2334370421
 20
3.8983309119
 10
-0.2131017017
 20
3.8532491799
 10
-0.1952645717
 20
3.8074812345
 10
-0.1797415978
 20
3.7609785479
 10
-0.1667160378
 20
3.7137900274
  0
LINE
  5
2AB
100
AcDbEntity
  8
DRAFT
100
AcDbLine
 62
7
  6
CONTINUOUS
 10
7.5970504009
 20
20.4329301066
 11
7.5970504009
 21
21.3325987463
  0
LWPOLYLINE
  5
2AC
100
AcDbEntity
  8
DRAFT
100
AcDbPolyline
 62
7
  6
CONTINUOUS
 90
19
 70
0
 10
7.420273714
 20
20.8957391709
 10
7.4224723781
 20
20.8477481895
 10
7.428452166
 20
20.7993967588
 10
7.4382130776
 20
20.7506848788
 10
7.4519534747
 20
20.7010499117
 10
7.4694749956
 20
20.6510544953
 10
7.490182555
 20
20.6023865432
 10
7.5141787748
 20
20.5551028013
 10
7.541361033
 20
20.5091465238
 10
7.5708263793
 20
20.4660353866
 10
7.6026495356
 20
20.4258617429
 10
7.6367557798
 20
20.3885332394
 10
7.6720179959
 20
20.3552904928
 10
7.7084835228
 20
20.3262651106
 10
7.7461050215
 20
20.3013254853
 10
7.7836133591
 20
20.28131741
 10
7.8205854915
 20
20.2665228158
 10
7.8574444627
 20
20.2566597717
 10
7.894190273
 20
20.2517282777
  0
LINE
  5
2AD
100
AcDbEntity
  8
0
100
AcDbLine
 62
7
  6
CONTINUOUS
 10
9.3294620148
 20
16.0733840711
 11
9.3294620148
 21
-21.8581322312
  0
LWPOLYLINE
  5
2AE
100
AcDbEntity
  8
RACCORDO
100
AcDbPolyline
 62
250
  6
CONTINUOUS
 90
8
 70
0
 10
9.5448774848
 20
10.3366701945
 10
9.5446410943
 20
10.3307381368
 10
9.5430857522
 20
10.320362074
 10
9.5401295867
 20
10.3101923168
 10
9.5358951022
 20
10.3003852344
 10
9.5305210181
 20
10.2910115662
 10
9.5241080817
 20
10.2820605937
 10
9.5167698209
 20
10.273553202
  0
LWPOLYLINE
  5
2AF
100
AcDbEntity
  8
RACCORDO
100
AcDbPolyline
 62
250
  6
CONTINUOUS
 90
7
 70
0
 10
9.670883371
 20
9.0549701526
 10
9.6691723433
 20
9.0419175334
 10
9.6640685363
 20
9.0290882481
 10
9.6556592775
 20
9.0167018093
 10
9.6440884518
 20
9.0049701526
 10
9.6295540391
 20
8.9940940097
 10
9.6123047272
 20
8.9842594745
  0
LINE
  5
2B0
100
AcDbEntity
  8
0
100
AcDbLine
 62
250
  6
CONTINUOUS
 10
-0.3926825974
 20
-9.8874214195
 11
-0.271959662
 21
-9.8246954749
  0
LWPOLYLINE
  5
2B1
100
AcDbEntity
  8
0
100
AcDbPolyline
 62
7
  6
CONTINUOUS
 90
7
 70
0
 10
-9.7851247928
 20
8.737246415
 10
-9.7856150801
 20
8.7372500711
 10
-9.7858237078
 20
8.7372285354
 10
-9.782071272
 20
8.7364549806
 10
-9.7747753086
 20
8.7342020426
 10
-9.7644366358
 20
8.7299582774
 10
-9.7595634286
 20
8.7276217238
  0
LWPOLYLINE
  5
2B2
100
AcDbEntity
  8
RACCORDO
100
AcDbPolyline
 62
7
  6
CONTINUOUS
 90
10
 70
0
 10
9.5448758661
 20
10.3367737493
 10
9.5428338877
 20
10.3668962948
 10
9.5369389719
 20
10.3958831037
 10
9.5272357463
 20
10.4240592472
 10
9.5138971112
 20
10.4508621224
 10
9.4969389716
 20
10.4761409221
 10
9.4764220803
 20
10.4995857082
 10
9.4527192225
 20
10.5206433631
 10
9.4260889607
 20
10.5390591114
 10
9.4052900262
 20
10.5505590444
  0
LWPOLYLINE
  5
2B3
100
AcDbEntity
  8
RACCORDO
100
AcDbPolyline
 62
250
  6
CONTINUOUS
 90
5
 70
0
 10
9.5167698209
 20
10.273553202
 10
9.5153152815
 20
10.2965745398
 10
9.5107958578
 20
10.3199238396
 10
9.5032885854
 20
10.3432031031
 10
9.4929214287
 20
10.3660155255
  0
LWPOLYLINE
  5
2B4
100
AcDbEntity
  8
RACCORDO
100
AcDbPolyline
 62
7
  6
CONTINUOUS
 90
7
 70
0
 10
9.6151654673
 20
16.1611947284
 10
9.6162608516
 20
16.1404632087
 10
9.6149725828
 20
16.1213188214
 10
9.6112831313
 20
16.1040545469
 10
9.6051873053
 20
16.0889098258
 10
9.5967840852
 20
16.0761353048
 10
9.5889190111
 20
16.0681295987
  0
LWPOLYLINE
  5
2B5
100
AcDbEntity
  8
RACCORDO
100
AcDbPolyline
 62
7
  6
CONTINUOUS
 90
14
 70
0
 10
9.6708819397
 20
9.0547405975
 10
9.6699570773
 20
9.0861802026
 10
9.6639381979
 20
9.1416293603
 10
9.6525370741
 20
9.1970960192
 10
9.6360113012
 20
9.2520650652
 10
9.6147590201
 20
9.3055667698
 10
9.5891305448
 20
9.3570570323
 10
9.5592872215
 20
9.4061969803
 10
9.5255593471
 20
9.4523419661
 10
9.4876360342
 20
9.4954918323
 10
9.4460114657
 20
9.5345699611
 10
9.4024262306
 20
9.5678024018
 10
9.3577551037
 20
9.5948132591
 10
9.3481791782
 20
9.5997459101
  0
LINE
  5
2B6
100
AcDbEntity
  8
RACCORDO
100
AcDbLine
 62
250
  6
CONTINUOUS
 10
9.5167698209
 20
10.273553202
 11
9.5167698209
 21
9.7329272112
  0
LINE
  5
2B7
100
AcDbEntity
  8
RACCORDO
100
AcDbLine
 62
7
  6
CONTINUOUS
 10
9.544877426
 20
10.3367638162
 11
9.5448774848
 21
9.7971477139
  0
LINE
  5
2B8
100
AcDbEntity
  8
RACCORDO
100
AcDbLine
 62
250
  6
CONTINUOUS
 10
9.6123047272
 20
8.9842594745
 11
9.6123047272
 21
-8.5511219937
  0
LINE
  5
2B9
100
AcDbEntity
  8
RACCORDO
100
AcDbLine
 62
7
  6
CONTINUOUS
 10
9.670883371
 20
9.0549701526
 11
9.670883371
 21
-8.480411313
  0
LWPOLYLINE
  5
2BA
100
AcDbEntity
  8
RACCORDO
100
AcDbPolyline
 62
250
  6
CONTINUOUS
 90
12
 70
0
 10
9.6123047272
 20
-8.5511219937
 10
9.6114252405
 20
-8.5826248657
 10
9.6084392921
 20
-8.6143580406
 10
9.6030849658
 20
-8.6459531787
 10
9.5950476926
 20
-8.6771857495
 10
9.5841177676
 20
-8.7073629884
 10
9.570356923
 20
-8.7354778345
 10
9.553727165
 20
-8.7611276067
 10
9.5342133355
 20
-8.7839223094
 10
9.5122264787
 20
-8.803175504
 10
9.4879309721
 20
-8.8186939854
 10
9.4848680963
 20
-8.8202973623
  0
LWPOLYLINE
  5
2BB
100
AcDbEntity
  8
RACCORDO
100
AcDbPolyline
 62
7
  6
CONTINUOUS
 90
13
 70
0
 10
9.6151654673
 20
-16.2281553731
 10
9.6163864129
 20
-16.2039035873
 10
9.6150877825
 20
-16.1788867476
 10
9.6113180742
 20
-16.1535035728
 10
9.6051985495
 20
-16.128140041
 10
9.5968245769
 20
-16.1032332437
 10
9.5862687026
 20
-16.0792628212
 10
9.5737336755
 20
-16.0566440039
 10
9.5594603179
 20
-16.0357346908
 10
9.5436245748
 20
-16.016904788
 10
9.5264810483
 20
-16.0004890889
 10
9.5083632283
 20
-15.9867747911
 10
9.4895909953
 20
-15.9760127246
  0
LWPOLYLINE
  5
2BC
100
AcDbEntity
  8
RACCORDO
100
AcDbPolyline
 62
250
  6
CONTINUOUS
 90
7
 70
0
 10
12.8382975874
 20
19.097717071
 10
12.8368420581
 20
19.0856745095
 10
12.8320719613
 20
19.0729607989
 10
12.824059498
 20
19.0606613272
 10
12.8129387384
 20
19.0489818979
 10
12.7988957626
 20
19.038117939
 10
12.7821655475
 20
19.0282512339
  0
LWPOLYLINE
  5
2BD
100
AcDbEntity
  8
RACCORDO
100
AcDbPolyline
 62
250
  6
CONTINUOUS
 90
7
 70
0
 10
12.8382975874
 20
18.1302304887
 10
12.8368418906
 20
18.1181872363
 10
12.8320716449
 20
18.1054735965
 10
12.8240590971
 20
18.0931742404
 10
12.8129383465
 20
18.0814949607
 10
12.7988954983
 20
18.0706311726
 10
12.7821655475
 20
18.0607646429
  0
LWPOLYLINE
  5
2BE
100
AcDbEntity
  8
RACCORDO
100
AcDbPolyline
 62
250
  6
CONTINUOUS
 90
7
 70
0
 10
9.670883371
 20
-8.4804112284
 10
9.6691723641
 20
-8.4934638532
 10
9.6640685725
 20
-8.5062931503
 10
9.6556593211
 20
-8.5186796043
 10
9.644088493
 20
-8.5304112785
 10
9.6295540661
 20
-8.5412874401
 10
9.6123047272
 20
-8.5511219938
  0
LWPOLYLINE
  5
2BF
100
AcDbEntity
  8
RACCORDO
100
AcDbPolyline
 62
250
  6
CONTINUOUS
 90
13
 70
0
 10
12.5737362916
 20
-14.6963104861
 10
12.5725054812
 20
-14.6731083966
 10
12.5688341097
 20
-14.6491147215
 10
12.5627849952
 20
-14.6247399994
 10
12.5544616397
 20
-14.6004012883
 10
12.5440064581
 20
-14.5765150305
 10
12.5315983416
 20
-14.5534899264
 10
12.5174495964
 20
-14.531719942
 10
12.5018023114
 20
-14.5115775677
 10
12.4849242161
 20
-14.4934074451
 10
12.4671040994
 20
-14.47752047
 10
12.4486468684
 20
-14.4641884731
 10
12.4298683315
 20
-14.4536395683
  0
LWPOLYLINE
  5
2C0
100
AcDbEntity
  8
RACCORDO
100
AcDbPolyline
 62
7
  6
CONTINUOUS
 90
11
 70
0
 10
12.8382970889
 20
-14.7787465789
 10
12.8379419632
 20
-14.7595526104
 10
12.8336769387
 20
-14.7108130603
 10
12.82460263
 20
-14.6641537486
 10
12.8107420622
 20
-14.6199732401
 10
12.7923499812
 20
-14.5789925325
 10
12.7697877275
 20
-14.5417598825
 10
12.7432775017
 20
-14.5084209482
 10
12.7131374448
 20
-14.4792408102
 10
12.6798951723
 20
-14.4546303664
 10
12.6513258786
 20
-14.4383693674
  0
LWPOLYLINE
  5
2C1
100
AcDbEntity
  8
RACCORDO
100
AcDbPolyline
 62
250
  6
CONTINUOUS
 90
19
 70
0
 10
12.7821655475
 20
-14.8482007009
 10
12.7818414718
 20
-14.8288955198
 10
12.7799809699
 20
-14.8099515822
 10
12.7765840419
 20
-14.7913688881
 10
12.7716923462
 20
-14.7727807774
 10
12.7652642243
 20
-14.7545539103
 10
12.757174701
 20
-14.7377882671
 10
12.7472731641
 20
-14.7225991539
 10
12.7357102257
 20
-14.7088712646
 10
12.7228127465
 20
-14.6973586609
 10
12.7084517414
 20
-14.6882555222
 10
12.6927561955
 20
-14.681367669
 10
12.6764399249
 20
-14.676866625
 10
12.659488958
 20
-14.6749583022
 10
12.6419172663
 20
-14.6754367885
 10
12.6244805808
 20
-14.6778558713
 10
12.6074308116
 20
-14.682066813
 10
12.5905160485
 20
-14.6882183513
 10
12.5737362916
 20
-14.6963104861
  0
LINE
  5
2C2
100
AcDbEntity
  8
RACCORDO
100
AcDbLine
 62
250
  6
CONTINUOUS
 10
12.7821655475
 20
19.0282512339
 11
12.7821655475
 21
18.0607646429
  0
LINE
  5
2C3
100
AcDbEntity
  8
RACCORDO
100
AcDbLine
 62
250
  6
CONTINUOUS
 10
12.7821655475
 20
-15.8156872919
 11
12.7821655475
 21
-14.8482007009
  0
LINE
  5
2C4
100
AcDbEntity
  8
RACCORDO
100
AcDbLine
 62
7
  6
CONTINUOUS
 10
12.8382975874
 20
19.097717071
 11
12.8382975874
 21
18.1302304887
  0
LINE
  5
2C5
100
AcDbEntity
  8
RACCORDO
100
AcDbLine
 62
7
  6
CONTINUOUS
 10
12.8382975874
 20
-15.7462214549
 11
12.8382975874
 21
-14.7787348661
  0
LWPOLYLINE
  5
2C6
100
AcDbEntity
  8
RACCORDO
100
AcDbPolyline
 62
250
  6
CONTINUOUS
 90
19
 70
0
 10
12.7821655475
 20
18.0607646429
 10
12.7816913933
 20
18.0398042561
 10
12.7796423667
 20
18.0178680103
 10
12.7760184679
 20
17.9949559056
 10
12.7708282413
 20
17.9707640734
 10
12.7640631424
 20
17.9455963823
 10
12.7556975377
 20
17.9203644382
 10
12.745604691
 20
17.8950463743
 10
12.7339113385
 20
17.8696640575
 10
12.720972056
 20
17.8451946941
 10
12.7066890894
 20
17.8217051033
 10
12.6911601927
 20
17.7991284659
 10
12.6750332031
 20
17.7782415301
 10
12.6582748331
 20
17.7591890466
 10
12.6409183701
 20
17.7418262647
 10
12.6237115145
 20
17.726495681
 10
12.6069034996
 20
17.713311461
 10
12.5902450919
 20
17.7021594391
 10
12.5737362916
 20
17.6930396154
  0
LWPOLYLINE
  5
2C7
100
AcDbEntity
  8
RACCORDO
100
AcDbPolyline
 62
7
  6
CONTINUOUS
 90
11
 70
0
 10
9.4849179867
 20
-8.8202674138
 10
9.5125410725
 20
-8.804313939
 10
9.545850841
 20
-8.7794652868
 10
9.5760292557
 20
-8.7500861979
 10
9.6025546593
 20
-8.716590493
 10
9.6251189341
 20
-8.6792357322
 10
9.6434952189
 20
-8.6381871426
 10
9.6573231521
 20
-8.593997983
 10
9.6663535174
 20
-8.5473685689
 10
9.6705569153
 20
-8.4987004079
 10
9.6708828478
 20
-8.4804100903
  0
LINE
  5
2C8
100
AcDbEntity
  8
RACCORDO
100
AcDbLine
 62
250
  6
CONTINUOUS
 10
9.3294620148
 20
-8.6955664256
 11
9.6123047272
 21
-8.5511219937
  0
LINE
  5
2C9
100
AcDbEntity
  8
RACCORDO
100
AcDbLine
 62
7
  6
CONTINUOUS
 10
9.3294620148
 20
-8.899661484
 11
9.4847299024
 21
-8.820368008
  0
LWPOLYLINE
  5
2CA
100
AcDbEntity
  8
0
100
AcDbPolyline
 62
250
  6
CONTINUOUS
 90
16
 70
0
 10
2.4652387962
 20
12.337148624
 10
2.5036769635
 20
12.319690347
 10
2.5454879113
 20
12.3041164074
 10
2.5902236694
 20
12.2905936674
 10
2.6374049305
 20
12.2792670122
 10
2.6865261857
 20
12.2702577978
 10
2.7370611407
 20
12.2636625507
 10
2.7884683545
 20
12.2595519339
 10
2.8401970407
 20
12.2579699891
 10
2.8916929683
 20
12.2589336658
 10
2.9424044005
 20
12.2624326388
 10
2.9917880055
 20
12.2684294195
 10
3.0393146781
 20
12.2768597574
 10
3.0844752086
 20
12.2876333281
 10
3.1267857386
 20
12.3006347016
 10
3.1657929453
 20
12.3157245787
  0
LWPOLYLINE
  5
2CB
100
AcDbEntity
  8
RACCORDO
100
AcDbPolyline
 62
250
  6
CONTINUOUS
 90
4
 70
0
 10
9.3481794376
 20
9.5997464293
 10
9.3454133156
 20
9.6010588936
 10
9.3301734241
 20
9.6060583004
 10
9.3294620148
 20
9.6061389877
  0
LINE
  5
2CC
100
AcDbEntity
  8
0
100
AcDbLine
 62
250
  6
CONTINUOUS
 10
-12.3847762117
 20
19.7621410344
 11
2.4652228859
 21
12.3371414856
  0
LINE
  5
2CD
100
AcDbEntity
  8
RACCORDO
100
AcDbLine
 62
7
  6
CONTINUOUS
 10
9.3294620148
 20
9.6091051427
 11
9.3481940538
 21
9.5997391232
  0
LWPOLYLINE
  5
2CE
100
AcDbEntity
  8
RACCORDO
100
AcDbPolyline
 62
250
  6
CONTINUOUS
 90
7
 70
0
 10
9.4050308835
 20
10.5506894371
 10
9.4022499758
 20
10.5520092837
 10
9.3870100889
 20
10.5570086502
 10
9.3705616807
 20
10.5588741798
 10
9.3531830741
 20
10.5575743087
 10
9.3351683323
 20
10.5531310346
 10
9.3294620148
 20
10.5507946763
  0
LINE
  5
2CF
100
AcDbEntity
  8
0
100
AcDbLine
 62
250
  6
CONTINUOUS
 10
-11.7211444344
 20
20.9282335427
 11
3.1405403865
 21
13.4973911322
  0
LINE
  5
2D0
100
AcDbEntity
  8
RACCORDO
100
AcDbLine
 62
7
  6
CONTINUOUS
 10
9.3294620148
 20
10.5884738715
 11
9.4050308835
 21
10.5506894371
  0
LWPOLYLINE
  5
2D1
100
AcDbEntity
  8
0
100
AcDbPolyline
 62
250
  6
CONTINUOUS
 90
16
 70
0
 10
3.1405403865
 20
13.4973911322
 10
3.1769281653
 20
13.476248302
 10
3.2131202286
 20
13.4507059218
 10
3.2487205091
 20
13.4210435142
 10
3.2833394159
 20
13.3875856894
 10
3.3165980975
 20
13.3506985924
 10
3.3481325878
 20
13.3107858964
 10
3.3775977897
 20
13.2682843853
 10
3.4046712512
 20
13.2236591738
 10
3.4290566945
 20
13.177398617
 10
3.4504872578
 20
13.1300089666
 10
3.4687284161
 20
13.0820088303
 10
3.4835805476
 20
13.0339234969
 10
3.4948811182
 20
12.9862791874
 10
3.5025064605
 20
12.9395972964
 10
3.5063731265
 20
12.8943886865
  0
LWPOLYLINE
  5
2D2
100
AcDbEntity
  8
RACCORDO
100
AcDbPolyline
 62
250
  6
CONTINUOUS
 90
5
 70
0
 10
9.427050779
 20
10.445076567
 10
9.4058885139
 20
10.4601072345
 10
9.3835265887
 20
10.4726783822
 10
9.3603461715
 20
10.4825757299
 10
9.336742382
 20
10.4896305731
  0
LWPOLYLINE
  5
2D3
100
AcDbEntity
  8
RACCORDO
100
AcDbPolyline
 62
250
  6
CONTINUOUS
 90
4
 70
0
 10
9.3294620148
 20
9.5511039479
 10
9.3413072203
 20
9.5423554689
 10
9.3701229226
 20
9.517969277
 10
9.3992484323
 20
9.4898791804
  0
LWPOLYLINE
  5
2D4
100
AcDbEntity
  8
RACCORDO
100
AcDbPolyline
 62
250
  6
CONTINUOUS
 90
16
 70
0
 10
9.3294620148
 20
10.5378820238
 10
9.3326108963
 20
10.5353585167
 10
9.3358795775
 20
10.5323313196
 10
9.3387274192
 20
10.5291795385
 10
9.3411340604
 20
10.5258932757
 10
9.3431198621
 20
10.5224824288
 10
9.3446100429
 20
10.5190314109
 10
9.3455750974
 20
10.5155373282
 10
9.3460445309
 20
10.5120030744
 10
9.3460320786
 20
10.5085217435
 10
9.3455098318
 20
10.5050984685
 10
9.3445056992
 20
10.5017281163
 10
9.3431171418
 20
10.4984883812
 10
9.3413766467
 20
10.4954051614
 10
9.3392517267
 20
10.4924525587
 10
9.336742382
 20
10.4896305731
  0
LWPOLYLINE
  5
2D5
100
AcDbEntity
  8
RACCORDO
100
AcDbPolyline
 62
250
  6
CONTINUOUS
 90
14
 70
0
 10
9.3992484323
 20
9.4898791804
 10
9.4278417719
 20
9.4585807506
 10
9.4555889968
 20
9.4241867545
 10
9.4821734329
 20
9.3868379338
 10
9.506868959
 20
9.3473971678
 10
9.5294521326
 20
9.306178048
 10
9.5496914867
 20
9.2635507632
 10
9.567095557
 20
9.2206571818
 10
9.5816101584
 20
9.1779724647
 10
9.5932663738
 20
9.1357991584
 10
9.6019884017
 20
9.0950349089
 10
9.6079180153
 20
9.0561442083
 10
9.6112893775
 20
9.0191623483
 10
9.6123047272
 20
8.9842594745
  0
LINE
  5
2D6
100
AcDbEntity
  8
DRAFT
100
AcDbLine
 62
7
  6
CONTINUOUS
 10
5.3138631381
 20
18.5654632005
 11
5.3696640401
 21
18.486493952
  0
LWPOLYLINE
  5
2D7
100
AcDbEntity
  8
RACCORDO
100
AcDbPolyline
 62
250
  6
CONTINUOUS
 90
5
 70
0
 10
9.4929214287
 20
10.3660155255
 10
9.4798711001
 20
10.38797226
 10
9.4643600479
 20
10.4086990449
 10
9.4466526644
 20
10.4278425837
 10
9.427050779
 20
10.445076567
  0
LINE
  5
2D8
100
AcDbEntity
  8
DRAFT
100
AcDbLine
 62
7
  6
CONTINUOUS
 10
4.254795187
 20
19.9965563228
 11
4.369180045
 21
19.8479243114
  0
LINE
  5
2D9
100
AcDbEntity
  8
DRAFT
100
AcDbLine
 62
7
  6
CONTINUOUS
 10
4.369180045
 20
19.8479243114
 11
4.4830470993
 21
19.6985868792
  0
LINE
  5
2DA
100
AcDbEntity
  8
DRAFT
100
AcDbLine
 62
7
  6
CONTINUOUS
 10
4.4830470993
 20
19.6985868792
 11
4.5963909301
 21
19.5485511341
  0
LINE
  5
2DB
100
AcDbEntity
  8
DRAFT
100
AcDbLine
 62
7
  6
CONTINUOUS
 10
5.1174124707
 20
18.8405287168
 11
5.2298878373
 21
18.6836021818
  0
LINE
  5
2DC
100
AcDbEntity
  8
DRAFT
100
AcDbLine
 62
7
  6
CONTINUOUS
 10
5.2298878373
 20
18.6836021818
 11
5.3138631381
 21
18.5654632005
  0
LINE
  5
2DD
100
AcDbEntity
  8
RACCORDO
100
AcDbLine
 62
250
  6
CONTINUOUS
 10
12.4298683315
 20
-14.4536395683
 11
9.4895909953
 21
-15.9760127246
  0
LINE
  5
2DE
100
AcDbEntity
  8
RACCORDO
100
AcDbLine
 62
7
  6
CONTINUOUS
 10
12.2162184259
 20
-14.3846165003
 11
9.3294620148
 21
-15.8030203125
  0
LINE
  5
2DF
100
AcDbEntity
  8
RACCORDO
100
AcDbLine
 62
250
  6
CONTINUOUS
 10
12.304416635
 20
-14.3909137201
 11
9.3294620148
 21
-15.8526536017
  0
LWPOLYLINE
  5
2E0
100
AcDbEntity
  8
RACCORDO
100
AcDbPolyline
 62
250
  6
CONTINUOUS
 90
3
 70
0
 10
12.4860911603
 20
-14.4305583093
 10
12.4576163024
 20
-14.4408320008
 10
12.4298683315
 20
-14.4536395683
  0
LWPOLYLINE
  5
2E1
100
AcDbEntity
  8
DRAFT
100
AcDbPolyline
 62
7
  6
CONTINUOUS
 90
37
 70
0
 10
5.1174124707
 20
18.8405287168
 10
5.097748665
 20
18.837938336
 10
5.0776542145
 20
18.8371477555
 10
5.0571291193
 20
18.8381569753
 10
5.0360910175
 20
18.8409837631
 10
5.014622271
 20
18.8456103513
 10
4.9929699652
 20
18.8519834366
 10
4.971131843
 20
18.8601232217
 10
4.9491101615
 20
18.870009504
 10
4.927158777
 20
18.881528373
 10
4.9052787322
 20
18.8946984909
 10
4.8834689843
 20
18.9095011955
 10
4.8619802621
 20
18.9257665895
 10
4.8408159782
 20
18.9435117445
 10
4.8199727199
 20
18.9627195889
 10
4.7996909775
 20
18.9831690103
 10
4.7799773065
 20
19.0048742911
 10
4.7608251515
 20
19.0278211491
 10
4.7424553363
 20
19.0517456245
 10
4.7248767508
 20
19.076659252
 10
4.7080805051
 20
19.102550497
 10
4.6922607541
 20
19.1291207959
 10
4.6774287323
 20
19.1563783597
 10
4.6635732052
 20
19.1843149773
 10
4.6508546231
 20
19.2126074524
 10
4.6392864051
 20
19.2412594466
 10
4.6288551322
 20
19.2702672982
 10
4.6196809981
 20
19.2992968259
 10
4.6117783997
 20
19.3283521796
 10
4.6051329401
 20
19.3574292094
 10
4.5998216215
 20
19.386181284
 10
4.59586025
 20
19.4145900921
 10
4.5932330194
 20
19.4426739452
 10
4.5919695137
 20
19.4701411456
 10
4.5920795943
 20
19.496894461
 10
4.5935533997
 20
19.5230311239
 10
4.5963909301
 20
19.5485511341
  0
LWPOLYLINE
  5
2E2
100
AcDbEntity
  8
DRAFT
100
AcDbPolyline
 62
7
  6
CONTINUOUS
 90
3
 70
0
 10
0.6531067855
 20
23.8722700214
 10
0.6898525958
 20
23.8404557052
 10
0.6943007731
 20
23.8371978099
  0
LINE
  5
2E3
100
AcDbEntity
  8
DRAFT
100
AcDbLine
 62
7
  6
CONTINUOUS
 10
7.0686185816
 20
21.3576056316
 11
7.18639066
 21
21.2043970062
  0
LINE
  5
2E4
100
AcDbEntity
  8
DRAFT
100
AcDbLine
 62
7
  6
CONTINUOUS
 10
7.18639066
 20
21.2043970062
 11
7.3036110211
 21
21.050438914
  0
LINE
  5
2E5
100
AcDbEntity
  8
DRAFT
100
AcDbLine
 62
7
  6
CONTINUOUS
 10
7.3036110211
 20
21.050438914
 11
7.420273714
 21
20.8957391709
  0
LWPOLYLINE
  5
2E6
100
AcDbEntity
  8
DRAFT
100
AcDbPolyline
 62
7
  6
CONTINUOUS
 90
10
 70
0
 10
7.894190273
 20
20.2517282777
 10
8.0407822982
 20
20.0472947428
 10
8.1863597898
 20
19.8417468932
 10
8.3309227479
 20
19.6350847287
 10
8.4744832105
 20
19.427290607
 10
8.6170291396
 20
19.2183821705
 10
8.7585244206
 20
19.008412347
 10
8.8989570152
 20
18.7973987791
 10
9.0383389617
 20
18.5853238242
 10
9.1766702601
 20
18.3721874822
  0
LINE
  5
2E7
100
AcDbEntity
  8
RACCORDO
100
AcDbLine
 62
250
  6
CONTINUOUS
 10
12.2822788108
 20
-16.6976213716
 11
12.7821655475
 21
-15.8156872919
  0
LINE
  5
2E8
100
AcDbEntity
  8
RACCORDO
100
AcDbLine
 62
7
  6
CONTINUOUS
 10
12.347503424
 20
-16.6648531822
 11
12.8122915227
 21
-15.8448424998
  0
LWPOLYLINE
  5
2E9
100
AcDbEntity
  8
RACCORDO
100
AcDbPolyline
 62
250
  6
CONTINUOUS
 90
5
 70
0
 10
12.8129387384
 20
-15.794956628
 10
12.824059498
 20
-15.7832771986
 10
12.8320719613
 20
-15.770977727
 10
12.8368420581
 20
-15.7582640164
 10
12.8382975874
 20
-15.7462214549
  0
LWPOLYLINE
  5
2EA
100
AcDbEntity
  8
RACCORDO
100
AcDbPolyline
 62
7
  6
CONTINUOUS
 90
5
 70
0
 10
12.3338698383
 20
-16.6735074016
 10
12.3401042189
 20
-16.6698278731
 10
12.3445503709
 20
-16.6670309989
 10
12.3470110441
 20
-16.6653255642
 10
12.347481077
 20
-16.6648926081
  0
LWPOLYLINE
  5
2EB
100
AcDbEntity
  8
RACCORDO
100
AcDbPolyline
 62
250
  6
CONTINUOUS
 90
7
 70
0
 10
12.7821655475
 20
-14.8482007009
 10
12.7988957183
 20
-14.8383340263
 10
12.8129386727
 20
-14.827470097
 10
12.8240594309
 20
-14.8157906934
 10
12.8320719084
 20
-14.8034912415
 10
12.8368420301
 20
-14.7907775429
 10
12.838297586
 20
-14.7787465789
  0
LWPOLYLINE
  5
2EC
100
AcDbEntity
  8
RACCORDO
100
AcDbPolyline
 62
250
  6
CONTINUOUS
 90
3
 70
0
 10
12.7821655475
 20
-15.8156872919
 10
12.7988957626
 20
-15.8058205868
 10
12.8129387384
 20
-15.794956628
  0
LINE
  5
2ED
100
AcDbEntity
  8
RACCORDO
100
AcDbLine
 62
7
  6
CONTINUOUS
 10
12.3162663297
 20
-16.6837105607
 11
12.3338698383
 21
-16.6735074016
  0
LINE
  5
2EE
100
AcDbEntity
  8
RACCORDO
100
AcDbLine
 62
7
  6
CONTINUOUS
 10
12.2794238859
 20
-16.7044389393
 11
12.3162663297
 21
-16.6837105607
  0
LINE
  5
2EF
100
AcDbEntity
  8
RACCORDO
100
AcDbLine
 62
7
  6
CONTINUOUS
 10
12.2165936937
 20
-16.7391213296
 11
12.233480614
 21
-16.7297187155
  0
LWPOLYLINE
  5
2F0
100
AcDbEntity
  8
RACCORDO
100
AcDbPolyline
 62
7
  6
CONTINUOUS
 90
3
 70
0
 10
12.233480614
 20
-16.7297187155
 10
12.2649324705
 20
-16.7124725853
 10
12.2794238859
 20
-16.7044389393
  0
LINE
  5
2F1
100
AcDbEntity
  8
DRAFT
100
AcDbLine
 62
7
  6
CONTINUOUS
 10
9.3294620148
 20
-18.2666473126
 11
11.9825137954
 21
-16.8663867679
  0
LINE
  5
2F2
100
AcDbEntity
  8
RACCORDO
100
AcDbLine
 62
7
  6
CONTINUOUS
 10
9.3294620148
 20
-18.2553248377
 11
12.2822788108
 21
-16.6976213716
  0
LWPOLYLINE
  5
2F3
100
AcDbEntity
  8
RACCORDO
100
AcDbPolyline
 62
7
  6
CONTINUOUS
 90
3
 70
0
 10
12.3085564345
 20
-16.6837428668
 10
12.2961544347
 20
-16.6901895375
 10
12.2822788108
 20
-16.6976213716
  0
LINE
  5
2F4
100
AcDbEntity
  8
RACCORDO
100
AcDbLine
 62
250
  6
CONTINUOUS
 10
12.5737362916
 20
-14.6963104861
 11
9.6151654673
 21
-16.2281553731
  0
LINE
  5
2F5
100
AcDbEntity
  8
RACCORDO
100
AcDbLine
 62
7
  6
CONTINUOUS
 10
12.33636168
 20
-16.6696759341
 11
12.3085564345
 21
-16.6837428668
  0
LINE
  5
2F6
100
AcDbEntity
  8
DRAFT
100
AcDbLine
 62
7
  6
CONTINUOUS
 10
-6.0857349398
 20
24.214193442
 11
-0.676098939
 21
21.5093754416
  0
LINE
  5
2F7
100
AcDbEntity
  8
DRAFT
100
AcDbLine
 62
7
  6
CONTINUOUS
 10
3.5665417481
 20
19.3880550981
 11
8.9761777488
 21
16.6832370977
  0
LINE
  5
2F8
100
AcDbEntity
  8
DRAFT
100
AcDbLine
 62
7
  6
CONTINUOUS
 10
-1.3643523779
 20
22.8061301052
 11
-0.676098939
 21
22.4620033858
  0
LINE
  5
2F9
100
AcDbEntity
  8
DRAFT
100
AcDbLine
 62
7
  6
CONTINUOUS
 10
3.5665417481
 20
20.3406830422
 11
4.254795187
 21
19.9965563228
  0
LINE
  5
2FA
100
AcDbEntity
  8
DRAFT
100
AcDbLine
 62
7
  6
CONTINUOUS
 10
4.4324151439
 20
20.8363515237
 11
1.2463275821
 21
22.4293953046
  0
LINE
  5
2FB
100
AcDbEntity
  8
DRAFT
100
AcDbLine
 62
7
  6
CONTINUOUS
 10
1.2463275821
 20
23.2307657541
 11
5.1796491329
 21
21.2641049786
  0
LINE
  5
2FC
100
AcDbEntity
  8
DRAFT
100
AcDbLine
 62
7
  6
CONTINUOUS
 10
1.4786784769
 20
24.1525756839
 11
7.0686185816
 21
21.3576056316
  0
LINE
  5
2FD
100
AcDbEntity
  8
0
100
AcDbLine
 62
7
  6
CONTINUOUS
 10
7.5970504009
 20
21.3325987463
 11
3.2129883575
 21
23.524629768
  0
LWPOLYLINE
  5
2FE
100
AcDbEntity
  8
0
100
AcDbPolyline
 62
250
  6
CONTINUOUS
 90
10
 70
0
 10
3.3525659131
 20
-24.5836241056
 10
3.3775999909
 20
-24.5709499886
 10
3.4046732999
 20
-24.5515723976
 10
3.4290584874
 20
-24.5275003499
 10
3.4504887193
 20
-24.4989973221
 10
3.4687295077
 20
-24.4663752712
 10
3.483581266
 20
-24.4299912345
 10
3.4948815013
 20
-24.3902434091
 10
3.50250659
 20
-24.3475667908
 10
3.5063731265
 20
-24.3024284207
  0
LINE
  5
2FF
100
AcDbEntity
  8
0
100
AcDbLine
 62
250
  6
CONTINUOUS
 10
9.3294620148
 20
-21.8581322312
 11
3.5063731265
 21
-24.3024284207
  0
LINE
  5
300
100
AcDbEntity
  8
0
100
AcDbLine
 62
7
  6
CONTINUOUS
 10
9.188196261
 20
-22.1340635208
 11
3.3525659131
 21
-24.5836241056
  0
LWPOLYLINE
  5
301
100
AcDbEntity
  8
0
100
AcDbPolyline
 62
250
  6
CONTINUOUS
 90
19
 70
0
 10
3.5063731265
 20
-24.3024284207
 10
3.4767473525
 20
-24.313343906
 10
3.4478063256
 20
-24.3211499886
 10
3.4195500458
 20
-24.3258466685
 10
3.3917891498
 20
-24.3274257905
 10
3.3647130009
 20
-24.3258955098
 10
3.3388896886
 20
-24.3212802921
 10
3.3143549185
 20
-24.3135165918
 10
3.291072985
 20
-24.3026679544
 10
3.2695048603
 20
-24.2889494821
 10
3.2496841374
 20
-24.2723034405
 10
3.2315772233
 20
-24.2527875639
 10
3.2155443109
 20
-24.2307901577
 10
3.2016250316
 20
-24.2062484878
 10
3.189779754
 20
-24.1792252882
 10
3.1802497767
 20
-24.150297066
 10
3.1731155326
 20
-24.1196559902
 10
3.1682965888
 20
-24.0871098918
 10
3.1657929454
 20
-24.0526587706
  0
LINE
  5
302
100
AcDbEntity
  8
DRAFT
100
AcDbLine
 62
7
  6
CONTINUOUS
 10
8.9948698667
 20
21.2915148037
 11
7.8882627896
 21
21.5405459426
  0
LINE
  5
303
100
AcDbEntity
  8
DRAFT
100
AcDbLine
 62
7
  6
CONTINUOUS
 10
5.2092814414
 20
23.1843090164
 11
3.62888275
 21
23.6702359624
  0
LINE
  5
304
100
AcDbEntity
  8
0
100
AcDbLine
 62
7
  6
CONTINUOUS
 10
7.8882627896
 20
21.5405459426
 11
3.62888275
 21
23.6702359624
  0
LINE
  5
305
100
AcDbEntity
  8
DRAFT
100
AcDbLine
 62
7
  6
CONTINUOUS
 10
11.9825137954
 20
19.7920965541
 11
9.7786266974
 21
20.8940401031
  0
LINE
  5
306
100
AcDbEntity
  8
DRAFT
100
AcDbLine
 62
7
  6
CONTINUOUS
 10
4.4481867105
 20
23.5592600965
 11
2.2714387405
 21
24.6476340815
  0
LINE
  5
307
100
AcDbEntity
  8
DRAFT
100
AcDbLine
 62
7
  6
CONTINUOUS
 10
9.7537260835
 20
20.9120866953
 11
4.4504252246
 21
23.5637371248
  0
LWPOLYLINE
  5
308
100
AcDbEntity
  8
RACCORDO
100
AcDbPolyline
 62
7
  6
CONTINUOUS
 90
3
 70
0
 10
12.249304206
 20
19.6286630028
 10
12.234093586
 20
19.6392535932
 10
12.2165936937
 20
19.650376749
  0
LINE
  5
309
100
AcDbEntity
  8
DRAFT
100
AcDbLine
 62
7
  6
CONTINUOUS
 10
9.7537260835
 20
20.9120866953
 11
9.7786266974
 21
20.8940401031
  0
LINE
  5
30A
100
AcDbEntity
  8
RACCORDO
100
AcDbLine
 62
250
  6
CONTINUOUS
 10
12.2822788108
 20
19.3925374444
 11
12.7821655475
 21
19.0282512339
  0
LINE
  5
30B
100
AcDbEntity
  8
RACCORDO
100
AcDbLine
 62
7
  6
CONTINUOUS
 10
12.2493180287
 20
19.6286529466
 11
12.7560867254
 21
19.2593515938
  0
LINE
  5
30C
100
AcDbEntity
  8
RACCORDO
100
AcDbLine
 62
250
  6
CONTINUOUS
 10
12.7560867254
 20
19.2593515938
 11
12.7563098164
 21
19.2591886446
  0
LWPOLYLINE
  5
30D
100
AcDbEntity
  8
RACCORDO
100
AcDbPolyline
 62
250
  6
CONTINUOUS
 90
11
 70
0
 10
12.7563098164
 20
19.2591886446
 10
12.7716132423
 20
19.2459822503
 10
12.7850361658
 20
19.2299967274
 10
12.7959849354
 20
19.2117611824
 10
12.8042672599
 20
19.1915845307
 10
12.809736166
 20
19.1698207422
 10
12.8123012053
 20
19.1468219426
 10
12.811915228
 20
19.1229942095
 10
12.8085998922
 20
19.0988114241
 10
12.8024445989
 20
19.0747061812
 10
12.7935759433
 20
19.0510568759
  0
ARC
  5
30E
100
AcDbEntity
  8
RACCORDO
100
AcDbCircle
 62
7
  6
CONTINUOUS
 10
-2.5409375826
 20
0.2086386955
 40
0.3
100
AcDbArc
 50
0.0
 51
63.4301254848
  0
ARC
  5
30F
100
AcDbEntity
  8
RACCORDO
100
AcDbCircle
 62
7
  6
CONTINUOUS
 10
12.6382975874
 20
19.097717071
 40
0.2
100
AcDbArc
 50
0.0
 51
53.8386292323
  0
ARC
  5
310
100
AcDbEntity
  8
RACCORDO
100
AcDbCircle
 62
7
  6
CONTINUOUS
 10
12.6382975874
 20
-15.7462214549
 40
0.2
100
AcDbArc
 50
330.4552615572
 51
360.0
  0
ELLIPSE
  5
311
100
AcDbEntity
  8
0
100
AcDbEllipse
 62
7
  6
CONTINUOUS
 10
8.9758547681
 20
-21.6809325563
 30
0.0
 11
-0.2234618187
 21
0.4480306886
 31
0.0
 40
0.6116748051
 41
-3.1815309152
 42
-2.2548620396
  0
ELLIPSE
  5
312
100
AcDbEntity
  8
0
100
AcDbEllipse
 62
7
  6
CONTINUOUS
 10
8.9758547681
 20
16.2497916429
 30
0.0
 11
-0.2230998035
 21
0.4477110033
 31
0.0
 40
0.6127700112
 41
-2.2535417632
 42
-0.6836588249
  0
ELLIPSE
  5
313
100
AcDbEntity
  8
RACCORDO
100
AcDbEllipse
 62
7
  6
CONTINUOUS
 10
13.7983829345
 20
15.596963047
 30
0.0
 11
27.4617631667
 21
-16.9727751518
 31
0.0
 40
0.0815186111
 41
1.6786949413
 42
1.6872243121
  0
ELLIPSE
  5
314
100
AcDbEntity
  8
RACCORDO
100
AcDbEllipse
 62
7
  6
CONTINUOUS
 10
13.7983829345
 20
14.7655935098
 30
0.0
 11
20.3978736915
 21
33.0053707864
 31
0.0
 40
0.5586607408
 41
-2.3718813102
 42
-2.3633519394
  0
ELLIPSE
  5
315
100
AcDbEntity
  8
RACCORDO
100
AcDbEllipse
 62
7
  6
CONTINUOUS
 10
9.2448774848
 20
9.7955444859
 30
0.0
 11
0.2999980272
 21
0.0021530184
 31
0.0
 40
0.5053247124
 41
-0.4399588989
 42
-0.0036267645
  0
ELLIPSE
  5
316
100
AcDbEntity
  8
0
100
AcDbEllipse
 62
7
  6
CONTINUOUS
 10
-6.085411959
 20
23.7804250065
 30
0.0
 11
-0.2234618187
 21
0.4480306886
 31
0.0
 40
0.6116748051
 41
-0.6831523243
 42
0.0399382621
  0
ELLIPSE
  5
317
100
AcDbEntity
  8
0
100
AcDbEllipse
 62
7
  6
CONTINUOUS
 10
-8.772463506
 20
-4.5370948803
 30
0.0
 11
-0.134160177
 21
0.2683303662
 31
0.0
 40
0.6124181287
 41
0.886131956
 42
2.4568521304
  0
ELLIPSE
  5
318
100
AcDbEntity
  8
RACCORDO
100
AcDbEllipse
 62
7
  6
CONTINUOUS
 10
-3.0185537211
 20
0.4474467648
 30
0.0
 11
0.1360559951
 21
0.2673790137
 31
0.0
 40
0.6176975122
 41
0.0043582221
 42
0.6803507382
  0
ELLIPSE
  5
319
100
AcDbEntity
  8
RACCORDO
100
AcDbEllipse
 62
7
  6
CONTINUOUS
 10
-2.5409375826
 20
-1.2635945979
 30
0.0
 11
0.2999981629
 21
-0.0021225547
 31
0.0
 40
0.4946372042
 41
-0.7731718616
 42
0.0034996204
  0
ENDSEC
  0
SECTION
  2
OBJECTS
  0
DICTIONARY
  5
C
100
AcDbDictionary
280
0
281
1
  3
ACAD_GROUP
350
D
  3
ACAD_MLINESTYLE
350
17
  3
ACAD_LAYOUT
350
1A
  3
ACAD_PLOTSETTINGS
350
19
  3
ACAD_PLOTSTYLENAME
350
E
  0
DICTIONARY
  5
D
102
{ACAD_REACTORS
330
C
102
}
100
AcDbDictionary
280
0
281
1
  0
ACDBDICTIONARYWDFLT
  5
E
102
{ACAD_REACTORS
330
C
102
}
100
AcDbDictionary
281
1
  3
Normal
350
F
100
AcDbDictionaryWithDefault
340
F
  0
DICTIONARY
  5
17
102
{ACAD_REACTORS
330
C
102
}
100
AcDbDictionary
280
0
281
1
  3
Standard
350
18
  0
DICTIONARY
  5
19
102
{ACAD_REACTORS
330
C
102
}
100
AcDbDictionary
281
1
  0
DICTIONARY
  5
1A
102
{ACAD_REACTORS
330
C
102
}
100
AcDbDictionary
281
1
  3
Model
350
31A
  3
Layout1
350
31B
  0
ACDBPLACEHOLDER
  5
F
102
{ACAD_REACTORS
330
E
102
}
  0
MLINESTYLE
  5
18
102
{ACAD_REACTORS
330
17
102
}
100
AcDbMlineStyle
  2
STANDARD
 70
0
  3

 62
256
 51
90.0
 52
90.0
 71
2
 49
0.5
 62
256
  6
BYLAYER
 49
-0.5
 62
256
  6
BYLAYER
  0
LAYOUT
  5
31A
102
{ACAD_REACTORS
330
1A
102
}
100
AcDbPlotSettings
  1

  2
none_device
  4
ISO_A4_(297.00_x_210.00_MM)
  6

 40
0.0
 41
0.0
 42
0.0
 43
0.0
 44
297.0
 45
210.0
 46
0.0
 47
0.0
 48
0.0
 49
0.0
140
0.0
141
0.0
142
1.0
143
1.0
 70
1024
 72
1
 73
0
 74
0
  7

 75
0
147
1.0
148
0.0
149
0.0
100
AcDbLayout
  1
Model
 70
0
 71
0
 10
0.0
 20
0.0
 11
297.0
 21
210.0
 12
0.0
 22
0.0
 32
0.0
 14
0.0
 24
0.0
 34
0.0
 15
0.0
 25
0.0
 35
0.0
146
0.0
 13
0.0
 23
0.0
 33
0.0
 16
1.0
 26
0.0
 36
0.0
 17
0.0
 27
1.0
 37
0.0
 76
0
330
211
345
0
346
0
  0
LAYOUT
  5
31B
102
{ACAD_REACTORS
330
1A
102
}
100
AcDbPlotSettings
  1

  2
none_device
  4
ISO_A4_(297.00_x_210.00_MM)
  6

 40
0.0
 41
0.0
 42
0.0
 43
0.0
 44
297.0
 45
210.0
 46
0.0
 47
0.0
 48
0.0
 49
0.0
140
0.0
141
0.0
142
1.0
143
1.0
 70
0
 72
1
 73
0
 74
0
  7

 75
0
147
1.0
148
0.0
149
0.0
100
AcDbLayout
  1
Layout1
 70
0
 71
1
 10
0.0
 20
0.0
 11
297.0
 21
210.0
 12
0.0
 22
0.0
 32
0.0
 14
0.0
 24
0.0
 34
0.0
 15
0.0
 25
0.0
 35
0.0
146
0.0
 13
0.0
 23
0.0
 33
0.0
 16
1.0
 26
0.0
 36
0.0
 17
0.0
 27
1.0
 37
0.0
 76
0
330
212
345
0
346
0
  0
ENDSEC
  0
EOF
