  0
SECTION
  2
HEADER
  9
$ACADVER
  1
AC1024
  9
$DWGCODEPAGE
  3
ANSI_1252
  9
$EXTMAX
 10
297.0
 20
210.0
 30
0.0
  9
$EXTMIN
 10
0.0
 20
0.0
 30
0.0
  9
$LIMMIN
 10
0.0
 20
0.0
  9
$LIMMAX
 10
297.0
 20
210.0
  9
$VIEWCTR
 10
148.5
 20
105.0
  9
$VIEWSIZE
 40
210.0
  9
$CLAYER
  8
0
  9
$LTSCALE
 40
16.335
  9
$CELTYPE
  6
BYLAYER
  9
$DIMSCALE
 40
1.0
  9
$DIMASZ
 40
3.0
  9
$DIMEXO
 40
0.5
  9
$DIMDLI
 40
11.286
  9
$DIMEXE
 40
1.5
  9
$DIMCEN
 40
2.673
  9
$DIMLFAC
 40
1.0
  9
$DIMBLK
  1
_FILLED
  9
$DIMALT
 70
0
  9
$DIMALTF
 40
0.0393700787
  9
$DIMTXT
 40
3.0
  9
$DIMTOL
 70
1
  9
$DIMLIM
 70
0
  9
$DIMTFAC
 40
1.0
  9
$DIMTP
 40
0.01
  9
$DIMTM
 40
0.01
  9
$DIMGAP
 40
0.625
  9
$DIMDSEP
 70
44
  9
$AUNITS
 70
0
  9
$PDMODE
 70
3
  9
$PDSIZE
 40
3.0
  9
$HANDSEED
  5
322
  9
$TILEMODE
 70
1
  9
$MEASUREMENT
 70
1
  9
$INSUNITS
 70
4
  0
ENDSEC
  0
SECTION
  2
CLASSES
  0
CLASS
  1
ACDBDICTIONARYWDFLT
  2
AcDbDictionaryWithDefault
  3
AutoCAD 2000
 90
0
 91
1
280
0
281
0
  0
CLASS
  1
ACDBPLACEHOLDER
  2
AcDbPlaceHolder
  3
AutoCAD 2000
 90
0
 91
1
280
0
281
0
  0
CLASS
  1
LAYOUT
  2
AcDbLayout
  3
AutoCAD 2000
 90
0
 91
0
280
0
281
0
  0
ENDSEC
  0
SECTION
  2
TABLES
  0
TABLE
  2
VPORT
  5
8
100
AcDbSymbolTable
 70
2
  0
VPORT
  5
1F4
100
AcDbSymbolTableRecord
100
AcDbViewportTableRecord
  2
*ACTIVE
 70
0
 10
0.0
 20
0.0
 11
1.0
 21
1.0
 12
148.5
 22
105.0
 13
0.0
 23
0.0
 14
1.0
 24
1.0
 15
0.0
 25
0.0
 16
0.0
 26
0.0
 36
1.0
 17
0.0
 27
0.0
 37
0.0
 40
210.0
 41
1.4142857143
 42
50.0
 43
0.0
 44
0.0
 50
0.0
 51
0.0
 71
0
 72
100
 73
1
 74
1
 75
0
 76
0
 77
0
 78
0
  0
ENDTAB
  0
TABLE
  2
LTYPE
  5
5
100
AcDbSymbolTable
 70
6
  0
LTYPE
  5
14
100
AcDbSymbolTableRecord
100
AcDbLinetypeTableRecord
  2
BYBLOCK
 70
0
  3

 72
65
 73
0
 40
0.0
  0
LTYPE
  5
15
100
AcDbSymbolTableRecord
100
AcDbLinetypeTableRecord
  2
BYLAYER
 70
0
  3

 72
65
 73
0
 40
0.0
  0
LTYPE
  5
16
100
AcDbSymbolTableRecord
100
AcDbLinetypeTableRecord
  2
CONTINUOUS
 70
64
  3
Solid line
 72
65
 73
0
 40
0.0
  0
LTYPE
  5
1F5
100
AcDbSymbolTableRecord
100
AcDbLinetypeTableRecord
  2
CENTER
 70
64
  3
____ _ ____ _ ____ _ ____ _ ____ _ ____ _ ____
 72
65
 73
4
 40
0.6
 49
0.375
 74
0
 49
-0.075
 74
0
 49
0.075
 74
0
 49
-0.075
 74
0
  0
LTYPE
  5
1F6
100
AcDbSymbolTableRecord
100
AcDbLinetypeTableRecord
  2
HIDDEN
 70
64
  3
- - - - - - - - - - - - - - - - - - - -
 72
65
 73
2
 40
0.2
 49
0.1
 74
0
 49
-0.1
 74
0
  0
LTYPE
  5
1F7
100
AcDbSymbolTableRecord
100
AcDbLinetypeTableRecord
  2
PHANTOM
 70
64
  3
_____ _ _ _____ _ _ _____ _ _ _____
 72
65
 73
6
 40
0.8
 49
0.45
 74
0
 49
-0.05
 74
0
 49
0.1
 74
0
 49
-0.05
 74
0
 49
0.1
 74
0
 49
-0.05
 74
0
  0
LTYPE
  5
1F8
100
AcDbSymbolTableRecord
100
AcDbLinetypeTableRecord
  2
DOT
 70
64
  3
. . . . . . . . . . . . . . . . . . . .
 72
65
 73
2
 40
0.2
 49
0.1
 74
0
 49
-0.1
 74
0
  0
LTYPE
  5
1F9
100
AcDbSymbolTableRecord
100
AcDbLinetypeTableRecord
  2
DASHED
 70
64
  3
- - - - - - - - - - - - - - - - - - - -
 72
65
 73
2
 40
0.2
 49
0.1
 74
0
 49
-0.1
 74
0
  0
ENDTAB
  0
TABLE
  2
LAYER
  5
2
100
AcDbSymbolTable
 70
36
  0
LAYER
  5
10
100
AcDbSymbolTableRecord
100
AcDbLayerTableRecord
  2
0
 70
0
 62
7
  6
CONTINUOUS
370
-3
390
F
  0
LAYER
  5
1FA
100
AcDbSymbolTableRecord
100
AcDbLayerTableRecord
  2
DEFAULT_1
 70
0
 62
7
  6
CENTER
370
-3
390
F
  0
LAYER
  5
1FB
100
AcDbSymbolTableRecord
100
AcDbLayerTableRecord
  2
DEFAULT_2
 70
0
 62
7
  6
HIDDEN
370
-3
390
F
  0
LAYER
  5
1FC
100
AcDbSymbolTableRecord
100
AcDbLayerTableRecord
  2
DEFAULT_3
 70
0
 62
7
  6
PHANTOM
370
-3
390
F
  0
LAYER
  5
1FD
100
AcDbSymbolTableRecord
100
AcDbLayerTableRecord
  2
ASSI
 70
0
 62
7
  6
CONTINUOUS
370
-3
390
F
  0
LAYER
  5
1FE
100
AcDbSymbolTableRecord
100
AcDbLayerTableRecord
  2
COORDINATE
 70
0
 62
7
  6
CONTINUOUS
370
-3
390
F
  0
LAYER
  5
1FF
100
AcDbSymbolTableRecord
100
AcDbLayerTableRecord
  2
COORD_ORIGINE
 70
0
 62
7
  6
CONTINUOUS
370
-3
390
F
  0
LAYER
  5
200
100
AcDbSymbolTableRecord
100
AcDbLayerTableRecord
  2
COSMETICHE
 70
0
 62
7
  6
CONTINUOUS
370
-3
390
F
  0
LAYER
  5
201
100
AcDbSymbolTableRecord
100
AcDbLayerTableRecord
  2
CURVE
 70
0
 62
7
  6
CONTINUOUS
370
-3
390
F
  0
LAYER
  5
202
100
AcDbSymbolTableRecord
100
AcDbLayerTableRecord
  2
DRAFT
 70
0
 62
7
  6
CONTINUOUS
370
-3
390
F
  0
LAYER
  5
203
100
AcDbSymbolTableRecord
100
AcDbLayerTableRecord
  2
IMPORT
 70
0
 62
7
  6
CONTINUOUS
370
-3
390
F
  0
LAYER
  5
204
100
AcDbSymbolTableRecord
100
AcDbLayerTableRecord
  2
INTF_1
 70
0
 62
7
  6
CONTINUOUS
370
-3
390
F
  0
LAYER
  5
205
100
AcDbSymbolTableRecord
100
AcDbLayerTableRecord
  2
INTF_11
 70
0
 62
7
  6
CONTINUOUS
370
-3
390
F
  0
LAYER
  5
206
100
AcDbSymbolTableRecord
100
AcDbLayerTableRecord
  2
INTF_8
 70
0
 62
7
  6
CONTINUOUS
370
-3
390
F
  0
LAYER
  5
207
100
AcDbSymbolTableRecord
100
AcDbLayerTableRecord
  2
NOTE
 70
0
 62
7
  6
CONTINUOUS
370
-3
390
F
  0
LAYER
  5
208
100
AcDbSymbolTableRecord
100
AcDbLayerTableRecord
  2
PIANI
 70
0
 62
7
  6
CONTINUOUS
370
-3
390
F
  0
LAYER
  5
209
100
AcDbSymbolTableRecord
100
AcDbLayerTableRecord
  2
PIANI_ORIGINE
 70
0
 62
7
  6
CONTINUOUS
370
-3
390
F
  0
LAYER
  5
20A
100
AcDbSymbolTableRecord
100
AcDbLayerTableRecord
  2
PUNTI
 70
0
 62
7
  6
CONTINUOUS
370
-3
390
F
  0
LAYER
  5
20B
100
AcDbSymbolTableRecord
100
AcDbLayerTableRecord
  2
RACCORDO
 70
0
 62
7
  6
CONTINUOUS
370
-3
390
F
  0
LAYER
  5
20C
100
AcDbSymbolTableRecord
100
AcDbLayerTableRecord
  2
RGB____0____0____0__
 70
0
 62
7
  6
CONTINUOUS
370
-3
390
F
  0
LAYER
  5
20D
100
AcDbSymbolTableRecord
100
AcDbLayerTableRecord
  2
SMUSSO
 70
0
 62
7
  6
CONTINUOUS
370
-3
390
F
  0
LAYER
  5
20E
100
AcDbSymbolTableRecord
100
AcDbLayerTableRecord
  2
SNAPLINE
 70
0
 62
7
  6
CONTINUOUS
370
-3
390
F
  0
LAYER
  5
20F
100
AcDbSymbolTableRecord
100
AcDbLayerTableRecord
  2
SUPERFICI
 70
0
 62
7
  6
CONTINUOUS
370
-3
390
F
  0
LAYER
  5
210
100
AcDbSymbolTableRecord
100
AcDbLayerTableRecord
  2
TRASH
 70
0
 62
7
  6
CONTINUOUS
370
-3
390
F
  0
ENDTAB
  0
TABLE
  2
STYLE
  5
3
100
AcDbSymbolTable
 70
1
  0
STYLE
  5
11
100
AcDbSymbolTableRecord
100
AcDbTextStyleTableRecord
  2
STANDARD
 70
0
 40
0.0
 41
0.8
 50
0.0
 71
0
 42
0.2
  3
txt
  4

  0
STYLE
  5
211
100
AcDbSymbolTableRecord
100
AcDbTextStyleTableRecord
  2
TEXTSTYLE_1
 70
0
 40
0.0
 41
0.8
 50
0.0
 71
0
 42
0.2
  3
gdt
  4

  0
ENDTAB
  0
TABLE
  2
VIEW
  5
6
100
AcDbSymbolTable
 70
0
  0
ENDTAB
  0
TABLE
  2
UCS
  5
7
100
AcDbSymbolTable
 70
0
  0
ENDTAB
  0
TABLE
  2
APPID
  5
9
100
AcDbSymbolTable
 70
1
  0
APPID
  5
212
100
AcDbSymbolTableRecord
100
AcDbRegAppTableRecord
  2
ACAD
 70
0
  0
ENDTAB
  0
TABLE
  2
BLOCK_RECORD
  5
1
100
AcDbSymbolTable
 70
0
  0
BLOCK_RECORD
  5
213
100
AcDbSymbolTableRecord
100
AcDbBlockTableRecord
  2
*Model_Space
  0
BLOCK_RECORD
  5
214
100
AcDbSymbolTableRecord
100
AcDbBlockTableRecord
  2
*Paper_Space
  0
BLOCK_RECORD
  5
215
100
AcDbSymbolTableRecord
100
AcDbBlockTableRecord
  2
_FILLED
  0
ENDTAB
  0
TABLE
  2
DIMSTYLE
  5
A
100
AcDbSymbolTable
 70
1
100
AcDbDimStyleTable
 71
0
  0
DIMSTYLE
105
216
100
AcDbSymbolTableRecord
100
AcDbDimStyleTableRecord
  2
STANDARD
 70
0
  3

  4

 40
1.0
 41
3.0
 42
0.5
 43
0.38
 44
1.5
 45
0.0
 46
0.0
 47
0.01
 48
0.01
140
3.0
141
0.09
142
0.0
143
25.4
144
1.0
145
0.0
146
1.0
147
0.625
 71
1
 72
0
 73
0
 74
0
 75
0
 76
0
 77
1
 78
8
 79
2
170
0
171
1
172
0
173
0
174
0
175
0
176
0
177
0
178
0
270
2
179
2
271
2
272
2
273
2
274
2
275
0
280
0
281
0
282
0
283
1
284
8
285
0
286
0
287
3
288
0
340
11
278
44
341
215
342
215
343
215
344
215
  0
ENDTAB
  0
ENDSEC
  0
SECTION
  2
BLOCKS
  0
BLOCK
  5
20
100
AcDbEntity
  8
0
100
AcDbBlockBegin
  2
*Model_Space
 70
0
 10
0.0
 20
0.0
 30
0.0
  3
*Model_Space
  1

  0
ENDBLK
  5
21
100
AcDbEntity
  8
0
100
AcDbBlockEnd
  0
BLOCK
  5
1C
100
AcDbEntity
  8
0
100
AcDbBlockBegin
  2
*Paper_Space
 70
0
 10
0.0
 20
0.0
 30
0.0
  3
*Paper_Space
  1

  0
ENDBLK
  5
1D
100
AcDbEntity
  8
0
100
AcDbBlockEnd
  0
BLOCK
  5
217
100
AcDbEntity
  8
0
100
AcDbBlockBegin
  2
_FILLED
 70
64
 10
0.0
 20
0.0
  3
_FILLED
  1

  0
SOLID
  5
218
100
AcDbEntity
  8
0
  6
BYBLOCK
 62
0
100
AcDbTrace
 10
0.0
 20
0.0
 11
-1.0
 21
0.3166666667
 12
-1.0
 22
-0.3166666667
 13
-1.0
 23
-0.3166666667
  0
ENDBLK
  5
219
100
AcDbEntity
  8
0
  6
BYBLOCK
 62
0
100
AcDbBlockEnd
  0
ENDSEC
  0
SECTION
  2
ENTITIES
  0
LWPOLYLINE
  5
21A
100
AcDbEntity
  8
0
100
AcDbPolyline
 62
7
  6
CONTINUOUS
 90
15
 70
0
 10
-18.086607369
 20
20.2077173527
 10
-18.1545272931
 20
20.1641840066
 10
-18.2224263503
 20
20.1121433153
 10
-18.2867521989
 20
20.0539735671
 10
-18.3472707328
 20
19.9900589609
 10
-18.4033428015
 20
19.9213092667
 10
-18.4549119501
 20
19.847988335
 10
-18.5017825707
 20
19.7703651215
 10
-18.5432305815
 20
19.6897120007
 10
-18.5791103448
 20
19.606317824
 10
-18.6092249482
 20
19.5204721913
 10
-18.6329926859
 20
19.4335201101
 10
-18.6502074655
 20
19.3460146177
 10
-18.6607041303
 20
19.2578121028
 10
-18.6635214287
 20
19.2076477161
  0
LWPOLYLINE
  5
21B
100
AcDbEntity
  8
0
100
AcDbPolyline
 62
250
  6
CONTINUOUS
 90
19
 70
0
 10
-17.8534145098
 20
20.1988712176
 10
-17.9106284757
 20
20.1631350262
 10
-17.9672224889
 20
20.1219503831
 10
-18.0228124885
 20
20.0755911896
 10
-18.0770221247
 20
20.0243606316
 10
-18.1294818884
 20
19.9686054696
 10
-18.1798330958
 20
19.9087171102
 10
-18.2277293093
 20
19.8451076204
 10
-18.2728533804
 20
19.7781967524
 10
-18.3149155635
 20
19.7084259622
 10
-18.353632221
 20
19.6362607068
 10
-18.3887386299
 20
19.5621865828
 10
-18.420004875
 20
19.4866975182
 10
-18.4472203912
 20
19.410293918
 10
-18.4701959269
 20
19.333494291
 10
-18.4887757142
 20
19.2568290892
 10
-18.5028352718
 20
19.1808181411
 10
-18.5122798557
 20
19.1059671091
 10
-18.5170462871
 20
19.0327787094
  0
LINE
  5
21C
100
AcDbEntity
  8
0
100
AcDbLine
 62
7
  6
CONTINUOUS
 10
-12.4519077903
 20
23.4932785516
 11
-18.0867685252
 21
20.2076386295
  0
LINE
  5
21D
100
AcDbEntity
  8
0
100
AcDbLine
 62
250
  6
CONTINUOUS
 10
-12.2180050151
 20
23.484831117
 11
-17.8534145098
 21
20.1988712176
  0
LINE
  5
21E
100
AcDbEntity
  8
0
100
AcDbLine
 62
7
  6
CONTINUOUS
 10
-5.0052467308
 20
23.3130020306
 11
-7.8382181964
 21
21.9703583347
  0
LINE
  5
21F
100
AcDbEntity
  8
0
100
AcDbLine
 62
250
  6
CONTINUOUS
 10
-7.6763727604
 20
22.0223281638
 11
-4.8335096023
 21
23.3684834368
  0
LINE
  5
220
100
AcDbEntity
  8
0
100
AcDbLine
 62
250
  6
CONTINUOUS
 10
-7.2855653135
 20
21.9712392103
 11
-4.4422419922
 21
23.3175385558
  0
LINE
  5
221
100
AcDbEntity
  8
0
100
AcDbLine
 62
7
  6
CONTINUOUS
 10
-8.6237012715
 20
21.6876792451
 11
-6.1864460734
 21
22.8397697854
  0
LINE
  5
222
100
AcDbEntity
  8
RACCORDO
100
AcDbLine
 62
7
  6
CONTINUOUS
 10
-4.0231376889
 20
23.8393416687
 11
-5.5910526895
 21
23.098758966
  0
LINE
  5
223
100
AcDbEntity
  8
0
100
AcDbLine
 62
7
  6
CONTINUOUS
 10
-5.4791632898
 20
23.1429076964
 11
-8.359239737
 21
21.7833574579
  0
LWPOLYLINE
  5
224
100
AcDbEntity
  8
0
100
AcDbPolyline
 62
7
  6
CONTINUOUS
 90
6
 70
0
 10
-6.1864459288
 20
22.8397694902
 10
-6.0594562273
 20
22.8987629632
 10
-5.9158957647
 20
22.9629966223
 10
-5.7713328066
 20
23.0250958287
 10
-5.625755315
 20
23.0850661867
 10
-5.4791632898
 20
23.1429076964
  0
LWPOLYLINE
  5
225
100
AcDbEntity
  8
0
100
AcDbPolyline
 62
7
  6
CONTINUOUS
 90
11
 70
0
 10
-7.9636610558
 20
21.6285271892
 10
-7.9842254569
 20
21.6196377312
 10
-8.0215704626
 20
21.6104656455
 10
-8.0620212745
 20
21.6082704289
 10
-8.1037492499
 20
21.6131513195
 10
-8.1468130083
 20
21.625433098
 10
-8.19115393
 20
21.6447909838
 10
-8.2347675139
 20
21.6703498731
 10
-8.2769855929
 20
21.7018180646
 10
-8.3184763339
 20
21.7394872595
 10
-8.359239737
 20
21.7833574579
  0
LINE
  5
226
100
AcDbEntity
  8
0
100
AcDbLine
 62
7
  6
CONTINUOUS
 10
-8.6076434744
 20
21.6796503466
 11
-8.359239737
 21
21.7833574579
  0
LINE
  5
227
100
AcDbEntity
  8
0
100
AcDbLine
 62
7
  6
CONTINUOUS
 10
-5.0052467308
 20
23.3130020306
 11
-4.9481351501
 21
23.3318079314
  0
LINE
  5
228
100
AcDbEntity
  8
0
100
AcDbLine
 62
7
  6
CONTINUOUS
 10
-7.8382181964
 20
21.9703583347
 11
-7.7844059371
 21
21.9879520521
  0
LINE
  5
229
100
AcDbEntity
  8
0
100
AcDbLine
 62
7
  6
CONTINUOUS
 10
-4.9481351501
 20
23.3318079314
 11
-4.8908894406
 21
23.3503017335
  0
LINE
  5
22A
100
AcDbEntity
  8
0
100
AcDbLine
 62
7
  6
CONTINUOUS
 10
-7.7844059371
 20
21.9879520521
 11
-7.730457413
 21
22.0052753428
  0
LINE
  5
22B
100
AcDbEntity
  8
0
100
AcDbLine
 62
7
  6
CONTINUOUS
 10
-4.8908894406
 20
23.3503017335
 11
-4.8335096023
 21
23.3684834368
  0
LINE
  5
22C
100
AcDbEntity
  8
0
100
AcDbLine
 62
7
  6
CONTINUOUS
 10
-7.730457413
 20
22.0052753428
 11
-7.6763726243
 21
22.0223282069
  0
LWPOLYLINE
  5
22D
100
AcDbEntity
  8
0
100
AcDbPolyline
 62
7
  6
CONTINUOUS
 90
11
 70
0
 10
-3.4063626152
 20
-25.3024971509
 10
-3.3630146717
 20
-25.3224044873
 10
-3.3032378458
 20
-25.3442553186
 10
-3.2414335969
 20
-25.3606566543
 10
-3.1779346382
 20
-25.3714759275
 10
-3.1126991691
 20
-25.3765931647
 10
-3.0461395605
 20
-25.3757956078
 10
-2.9787892637
 20
-25.3689523865
 10
-2.9106611606
 20
-25.35588342
 10
-2.8419945514
 20
-25.3363577611
 10
-2.7801394193
 20
-25.3131478161
  0
LINE
  5
22E
100
AcDbEntity
  8
0
100
AcDbLine
 62
7
  6
CONTINUOUS
 10
-3.405516667
 20
-25.3029216901
 11
-18.2600413525
 21
-17.8756593474
  0
LINE
  5
22F
100
AcDbEntity
  8
0
100
AcDbLine
 62
250
  6
CONTINUOUS
 10
-3.6670471895
 20
-24.7970089768
 11
-18.5170462871
 21
-17.372009428
  0
LWPOLYLINE
  5
230
100
AcDbEntity
  8
0
100
AcDbPolyline
 62
250
  6
CONTINUOUS
 90
8
 70
0
 10
-18.5170303768
 20
-17.372000656
 10
-18.5516862696
 20
-17.3526512417
 10
-18.5821862416
 20
-17.3314218143
 10
-18.6082035105
 20
-17.3085398297
 10
-18.6294593224
 20
-17.2842504499
 10
-18.6457259386
 20
-17.2588139159
 10
-18.6568290753
 20
-17.2325027598
 10
-18.6626497717
 20
-17.2055988842
  0
LWPOLYLINE
  5
231
100
AcDbEntity
  8
0
100
AcDbPolyline
 62
250
  6
CONTINUOUS
 90
3
 70
0
 10
-18.3149155635
 20
-17.8419665217
 10
-18.2728533804
 20
-17.8689358084
 10
-18.2600408085
 20
-17.8756596194
  0
LINE
  5
232
100
AcDbEntity
  8
0
100
AcDbLine
 62
7
  6
CONTINUOUS
 10
-7.0205010487
 20
20.8860791338
 11
-6.9362801002
 21
20.9305711999
  0
LINE
  5
233
100
AcDbEntity
  8
0
100
AcDbLine
 62
7
  6
CONTINUOUS
 10
-4.2627846021
 20
23.2278098607
 11
-5.7217893936
 21
22.5041327283
  0
LINE
  5
234
100
AcDbEntity
  8
0
100
AcDbLine
 62
7
  6
CONTINUOUS
 10
-5.5477729303
 20
22.4171244966
 11
-5.1910023135
 21
22.5834714878
  0
LINE
  5
235
100
AcDbEntity
  8
RACCORDO
100
AcDbLine
 62
7
  6
CONTINUOUS
 10
-1.6028880256
 20
22.8540318868
 11
3.7602895697
 21
25.3309250299
  0
LINE
  5
236
100
AcDbEntity
  8
RACCORDO
100
AcDbLine
 62
250
  6
CONTINUOUS
 10
-1.4806579575
 20
22.7929168527
 11
3.9760992823
 21
25.3130281767
  0
LINE
  5
237
100
AcDbEntity
  8
0
100
AcDbLine
 62
7
  6
CONTINUOUS
 10
-4.2627846021
 20
22.274792196
 11
-4.4323384465
 21
22.2041395543
  0
LINE
  5
238
100
AcDbEntity
  8
0
100
AcDbLine
 62
7
  6
CONTINUOUS
 10
-2.4578762382
 20
22.7799116053
 11
-2.9192817179
 21
22.6220623622
  0
LWPOLYLINE
  5
239
100
AcDbEntity
  8
0
100
AcDbPolyline
 62
7
  6
CONTINUOUS
 90
13
 70
0
 10
-18.6634875805
 20
-17.1946132715
 10
-18.6574622558
 20
-17.2747651367
 10
-18.6451259759
 20
-17.3518439511
 10
-18.6268600727
 20
-17.4250160179
 10
-18.6029480433
 20
-17.4942450954
 10
-18.5735565986
 20
-17.559568234
 10
-18.5390697942
 20
-17.6205528871
 10
-18.4998128186
 20
-17.6769859076
 10
-18.4558283746
 20
-17.7289466501
 10
-18.4075267977
 20
-17.7759933759
 10
-18.355363019
 20
-17.8177966139
 10
-18.2993729701
 20
-17.854345014
 10
-18.2593873688
 20
-17.8759844759
  0
LWPOLYLINE
  5
23A
100
AcDbEntity
  8
0
100
AcDbPolyline
 62
250
  6
CONTINUOUS
 90
10
 70
0
 10
-18.5170462871
 20
-17.372009428
 10
-18.5122798557
 20
-17.4403446885
 10
-18.5028352718
 20
-17.5055851509
 10
-18.4887757142
 20
-17.5672912776
 10
-18.4701959269
 20
-17.6250493747
 10
-18.4472203912
 20
-17.6784668706
 10
-18.420004875
 20
-17.7271774082
 10
-18.3887386299
 20
-17.7708504219
 10
-18.353632221
 20
-17.8091973801
 10
-18.3149155635
 20
-17.8419665217
  0
LINE
  5
23B
100
AcDbEntity
  8
0
100
AcDbLine
 62
7
  6
CONTINUOUS
 10
-18.6634875805
 20
-17.1946132715
 11
-18.6634967902
 21
-17.1943528852
  0
LWPOLYLINE
  5
23C
100
AcDbEntity
  8
0
100
AcDbPolyline
 62
250
  6
CONTINUOUS
 90
10
 70
0
 10
-18.5170462871
 20
19.0327787094
 10
-18.6383456672
 20
14.926648014
 10
-18.729329633
 20
10.8349770228
 10
-18.7899901006
 20
6.7581229245
 10
-18.820321681
 20
2.6964416802
 10
-18.820321681
 20
-1.3497121359
 10
-18.7899901006
 20
-5.3799853655
 10
-18.7293296329
 20
-9.3940261275
 10
-18.6383456672
 20
-13.39148385
 10
-18.5170462871
 20
-17.372009428
  0
LWPOLYLINE
  5
23D
100
AcDbEntity
  8
0
100
AcDbPolyline
 62
7
  6
CONTINUOUS
 90
10
 70
0
 10
-18.6635305079
 20
19.2077745115
 10
-18.7832671886
 20
15.1616852671
 10
-18.8749807242
 20
11.0541312939
 10
-18.9361370109
 20
6.9614614768
 10
-18.966727581
 20
2.8840838716
 10
-18.9667505749
 20
-1.177663715
 10
-18.9362054031
 20
-5.2234697
 10
-18.8750927222
 20
-9.2529978023
 10
-18.7834197975
 20
-13.2658482991
 10
-18.6635106194
 20
-17.19435337
  0
LINE
  5
23E
100
AcDbEntity
  8
0
100
AcDbLine
 62
7
  6
CONTINUOUS
 10
-2.3535962929
 20
18.5526267558
 11
-2.2750589878
 21
18.5999606437
  0
LINE
  5
23F
100
AcDbEntity
  8
0
100
AcDbLine
 62
7
  6
CONTINUOUS
 10
-0.9802551046
 20
20.1333655838
 11
-0.6475611222
 21
20.3117508922
  0
LINE
  5
240
100
AcDbEntity
  8
0
100
AcDbLine
 62
7
  6
CONTINUOUS
 10
-0.3905455887
 20
18.4270798913
 11
-1.0148576047
 21
18.1111663918
  0
LINE
  5
241
100
AcDbEntity
  8
0
100
AcDbLine
 62
250
  6
CONTINUOUS
 10
0.7249989001
 20
20.7339181097
 11
-2.0885320281
 21
19.3727225676
  0
LINE
  5
242
100
AcDbEntity
  8
0
100
AcDbLine
 62
250
  6
CONTINUOUS
 10
1.1162665102
 20
20.3935953806
 11
-1.6977245813
 21
19.0330040743
  0
LINE
  5
243
100
AcDbEntity
  8
0
100
AcDbLine
 62
7
  6
CONTINUOUS
 10
-0.5870089692
 20
19.2735972962
 11
-1.5358791452
 21
18.8191888091
  0
LWPOLYLINE
  5
244
100
AcDbEntity
  8
0
100
AcDbPolyline
 62
7
  6
CONTINUOUS
 90
3
 70
0
 10
1.2880036387
 20
20.1663768458
 10
0.9776016458
 20
20.0190850166
 10
-0.5870089692
 20
19.2735972962
  0
LINE
  5
245
100
AcDbEntity
  8
0
100
AcDbLine
 62
7
  6
CONTINUOUS
 10
0.5455415099
 20
20.8236468047
 11
-0.9653021796
 21
20.1258891213
  0
LWPOLYLINE
  5
246
100
AcDbEntity
  8
DRAFT
100
AcDbPolyline
 62
7
  6
CONTINUOUS
 90
28
 70
0
 10
6.3458399359
 20
19.923023426
 10
6.515808657
 20
19.9827232998
 10
6.6922018781
 20
20.0355721163
 10
6.8750195992
 20
20.0815698756
 10
7.0654495949
 20
20.1209049569
 10
7.2623040906
 20
20.153388981
 10
7.462019763
 20
20.17845681
 10
7.6643026576
 20
20.1959693884
 10
7.869446729
 20
20.2060657718
 10
8.0747705173
 20
20.2085979893
 10
8.2807502265
 20
20.2034275321
 10
8.4869096525
 20
20.190692909
 10
8.689138724
 20
20.170661675
 10
8.8868184646
 20
20.1432914278
 10
9.0805678507
 20
20.1086245696
 10
9.2681337402
 20
20.0670558628
 10
9.4499884305
 20
20.0183277021
 10
9.6256596243
 20
19.9626976927
 10
9.7914772865
 20
19.9013334131
 10
9.9467564085
 20
19.834354888
 10
10.0921819991
 20
19.7616420927
 10
10.2261390493
 20
19.6840025317
 10
10.3488676085
 20
19.6010937006
 10
10.4601276273
 20
19.5132581037
 10
10.5575839488
 20
19.4223307585
 10
10.6407213624
 20
19.3285478138
 10
10.7100550787
 20
19.2316731207
 10
10.7369153638
 20
19.1831739772
  0
LINE
  5
247
100
AcDbEntity
  8
0
100
AcDbLine
 62
7
  6
CONTINUOUS
 10
1.7804788116
 20
20.6607340804
 11
1.4647803255
 21
20.4300313405
  0
LINE
  5
248
100
AcDbEntity
  8
0
100
AcDbLine
 62
7
  6
CONTINUOUS
 10
1.5619395117
 20
19.6082640402
 11
2.9429376806
 21
20.5811190337
  0
LINE
  5
249
100
AcDbEntity
  8
DRAFT
100
AcDbLine
 62
7
  6
CONTINUOUS
 10
9.557511871
 20
21.5859152494
 11
6.3458399359
 21
19.923023426
  0
LINE
  5
24A
100
AcDbEntity
  8
0
100
AcDbLine
 62
7
  6
CONTINUOUS
 10
1.7619201976
 20
19.5223659527
 11
1.1521486057
 21
19.2110533066
  0
LINE
  5
24B
100
AcDbEntity
  8
0
100
AcDbLine
 62
7
  6
CONTINUOUS
 10
1.1521486057
 20
19.2110533066
 11
0.5381924231
 21
18.8984508118
  0
LWPOLYLINE
  5
24C
100
AcDbEntity
  8
SMUSSO
100
AcDbPolyline
 62
7
  6
CONTINUOUS
 90
13
 70
0
 10
5.3555821584
 20
19.9119331625
 10
5.3083937241
 20
19.8879218732
 10
5.2626302702
 20
19.8634116415
 10
5.2183070302
 20
19.8384242876
 10
5.1754634455
 20
19.8129977825
 10
5.1340849526
 20
19.7871383818
 10
5.0941110582
 20
19.7608175064
 10
5.0555852605
 20
19.7340728136
 10
5.0184960086
 20
19.7069055125
 10
4.9827220939
 20
19.6792244152
 10
4.9482540934
 20
19.6510099829
 10
4.9151662771
 20
19.6223100976
 10
4.8959493602
 20
19.6046131939
  0
LWPOLYLINE
  5
24D
100
AcDbEntity
  8
0
100
AcDbPolyline
 62
7
  6
CONTINUOUS
 90
3
 70
0
 10
0.5381924231
 20
18.8984508118
 10
-0.0799385565
 20
18.5845332336
 10
-0.3905455887
 20
18.4270798913
  0
LINE
  5
24E
100
AcDbEntity
  8
DRAFT
100
AcDbLine
 62
7
  6
CONTINUOUS
 10
5.3555821584
 20
19.4446747785
 11
6.3458399359
 21
19.9466236647
  0
LWPOLYLINE
  5
24F
100
AcDbEntity
  8
SMUSSO
100
AcDbPolyline
 62
7
  6
CONTINUOUS
 90
29
 70
0
 10
5.0080357353
 20
20.9579002663
 10
4.9519143567
 20
20.9296271008
 10
4.8974994517
 20
20.9008067032
 10
4.8447910202
 20
20.8714390735
 10
4.7938002096
 20
20.8415194605
 10
4.7445158725
 20
20.8110526154
 10
4.696904567
 20
20.7800527915
 10
4.6509836113
 20
20.7485473948
 10
4.6067356872
 20
20.7165090194
 10
4.5640753978
 20
20.6838697005
 10
4.5229410354
 20
20.6505929602
 10
4.4833943076
 20
20.6167152765
 10
4.4455349404
 20
20.5822781179
 10
4.4093172837
 20
20.5472146081
 10
4.3747869876
 20
20.5115916235
 10
4.3421807278
 20
20.4756512616
 10
4.3115734779
 20
20.4394496045
 10
4.2828902643
 20
20.40293057
 10
4.2561428418
 20
20.3661680094
 10
4.23135104
 20
20.3292054749
 10
4.2084950294
 20
20.2919994143
 10
4.1875270762
 20
20.2544930221
 10
4.1684100435
 20
20.2166222236
 10
4.1511810683
 20
20.1784510934
 10
4.1359038274
 20
20.1401150502
 10
4.1225992528
 20
20.1016711945
 10
4.1112464126
 20
20.0630624258
 10
4.1018461883
 20
20.0242528613
 10
4.0979036964
 20
20.0036360258
  0
LINE
  5
250
100
AcDbEntity
  8
RACCORDO
100
AcDbLine
 62
7
  6
CONTINUOUS
 10
8.862585201
 20
22.8697852174
 11
5.0080357353
 21
20.9579002663
  0
LINE
  5
251
100
AcDbEntity
  8
SMUSSO
100
AcDbLine
 62
7
  6
CONTINUOUS
 10
9.557511871
 20
21.996121277
 11
5.3555821584
 21
19.9119331625
  0
LINE
  5
252
100
AcDbEntity
  8
RACCORDO
100
AcDbLine
 62
7
  6
CONTINUOUS
 10
5.7477252078
 20
18.9539102204
 11
3.0444001848
 21
17.6428251572
  0
LWPOLYLINE
  5
253
100
AcDbEntity
  8
0
100
AcDbPolyline
 62
250
  6
CONTINUOUS
 90
19
 70
0
 10
-2.9917296889
 20
12.7680288072
 10
-3.0499673927
 20
12.7327985238
 10
-3.1075586507
 20
12.6921082979
 10
-3.164119433
 20
12.6462326603
 10
-3.2192774298
 20
12.5954807231
 10
-3.2726595702
 20
12.540194756
 10
-3.3238951791
 20
12.4807494093
 10
-3.3726423495
 20
12.4175468241
 10
-3.4185772432
 20
12.3510139455
 10
-3.4613825833
 20
12.2816022565
 10
-3.500767561
 20
12.209792739
 10
-3.5364794943
 20
12.1360587174
 10
-3.5682886063
 20
12.0608624294
 10
-3.5959865346
 20
11.9846865749
 10
-3.6193759586
 20
11.9080659033
 10
-3.6382854926
 20
11.8315492885
 10
-3.6525882363
 20
11.7556626509
 10
-3.6621959574
 20
11.6809052713
 10
-3.6670471895
 20
11.6077791606
  0
LINE
  5
254
100
AcDbEntity
  8
0
100
AcDbLine
 62
250
  6
CONTINUOUS
 10
2.8439076735
 20
15.9538747727
 11
-2.9917296889
 21
12.7680288072
  0
LWPOLYLINE
  5
255
100
AcDbEntity
  8
RACCORDO
100
AcDbPolyline
 62
7
  6
CONTINUOUS
 90
15
 70
0
 10
5.7477252078
 20
18.9539102204
 10
5.7737806904
 20
18.9675882067
 10
5.7960741259
 20
18.9818552624
 10
5.8146055143
 20
18.9967113876
 10
5.8295128624
 20
19.012320629
 10
5.8406581633
 20
19.0285189398
 10
5.8476273962
 20
19.0448141804
 10
5.8502323041
 20
19.0610850217
 10
5.8486611439
 20
19.0774527928
 10
5.8430646659
 20
19.0937893407
 10
5.8332798818
 20
19.1101932547
 10
5.8194697799
 20
19.1265659456
 10
5.8022740759
 20
19.1424834917
 10
5.7819060084
 20
19.1578045859
 10
5.7655727432
 20
19.1682955355
  0
LINE
  5
256
100
AcDbEntity
  8
0
100
AcDbLine
 62
7
  6
CONTINUOUS
 10
5.9619794538
 20
19.021940183
 11
6.4569542007
 21
19.2694275565
  0
LINE
  5
257
100
AcDbEntity
  8
RACCORDO
100
AcDbLine
 62
7
  6
CONTINUOUS
 10
8.8704567743
 20
19.3518790612
 11
7.7481436963
 21
18.7907225222
  0
LINE
  5
258
100
AcDbEntity
  8
RACCORDO
100
AcDbLine
 62
7
  6
CONTINUOUS
 10
9.5775876317
 20
18.9983377087
 11
8.4552504775
 21
18.4371691316
  0
LINE
  5
259
100
AcDbEntity
  8
RACCORDO
100
AcDbLine
 62
7
  6
CONTINUOUS
 10
9.6039605079
 20
18.65993788
 11
13.5954633257
 21
20.503346155
  0
LWPOLYLINE
  5
25A
100
AcDbEntity
  8
RACCORDO
100
AcDbPolyline
 62
7
  6
CONTINUOUS
 90
11
 70
0
 10
9.5770266582
 20
18.9980572219
 10
9.5890302736
 20
19.0034792889
 10
9.600852487
 20
19.0076375668
 10
9.6124932983
 20
19.0105320556
 10
9.6240717748
 20
19.0121663758
 10
9.6354688492
 20
19.0125369069
 10
9.6463273196
 20
19.0116327872
 10
9.6565704731
 20
19.0094216751
 10
9.6662750225
 20
19.0059359122
 10
9.6753139053
 20
19.0012616615
 10
9.6826165658
 20
18.996240295
  0
LWPOLYLINE
  5
25B
100
AcDbEntity
  8
0
100
AcDbPolyline
 62
7
  6
CONTINUOUS
 90
4
 70
0
 10
-10.2731922422
 20
-9.3575898457
 10
-10.1726897534
 20
-9.4027153096
 10
-10.0740244359
 20
-9.4373826049
 10
-10.060896696
 20
-9.4406648232
  0
LWPOLYLINE
  5
25C
100
AcDbEntity
  8
RACCORDO
100
AcDbPolyline
 62
250
  6
CONTINUOUS
 90
34
 70
0
 10
-11.1459968851
 20
-9.8033208661
 10
-11.2400623162
 20
-9.7520131161
 10
-11.3335592364
 20
-9.6924720996
 10
-11.425961472
 20
-9.6250795335
 10
-11.5167523731
 20
-9.5502691317
 10
-11.6054339541
 20
-9.4684940619
 10
-11.691527405
 20
-9.3802175654
 10
-11.7745590527
 20
-9.2859778489
 10
-11.8540915766
 20
-9.1863186523
 10
-11.9297232532
 20
-9.0817406074
 10
-12.0010458596
 20
-8.9728488931
 10
-12.0676846692
 20
-8.8602541348
 10
-12.1293077276
 20
-8.744478773
 10
-12.1855868449
 20
-8.6261543908
 10
-12.2362089817
 20
-8.5059543152
 10
-12.2808887786
 20
-8.3844738102
 10
-12.3193809241
 20
-8.2623734058
 10
-12.351464107
 20
-8.1403520268
 10
-12.3769295239
 20
-8.019068075
 10
-12.3956336096
 20
-7.8991753472
 10
-12.4074630671
 20
-7.781378715
 10
-12.4123210667
 20
-7.6663999504
 10
-12.4101864875
 20
-7.5548849187
 10
-12.4010816476
 20
-7.4474601599
 10
-12.3850573037
 20
-7.3447772675
 10
-12.3622260169
 20
-7.2474250989
 10
-12.3327331675
 20
-7.1559153363
 10
-12.2967436425
 20
-7.0707319006
 10
-12.2544760808
 20
-6.9923507855
 10
-12.2061771103
 20
-6.9211899167
 10
-12.1520924599
 20
-6.8576021571
 10
-12.0925316693
 20
-6.8019492437
 10
-12.0278242404
 20
-6.7545366626
 10
-11.9626923498
 20
-6.7177518986
  0
LWPOLYLINE
  5
25D
100
AcDbEntity
  8
RACCORDO
100
AcDbPolyline
 62
250
  6
CONTINUOUS
 90
43
 70
0
 10
-11.3562487532
 20
-10.1725395226
 10
-11.4667739098
 20
-10.1120544905
 10
-11.5755632231
 20
-10.0428007918
 10
-11.6826158605
 20
-9.9647779934
 10
-11.7885401418
 20
-9.8773937219
 10
-11.8927244141
 20
-9.7812386175
 10
-11.9933372964
 20
-9.6780864612
 10
-12.0902504385
 20
-9.5678822003
 10
-12.1835863203
 20
-9.4506778387
 10
-12.2718898472
 20
-9.3284077661
 10
-12.3550764911
 20
-9.2010164099
 10
-12.4332235453
 20
-9.0685555933
 10
-12.5051194504
 20
-8.9331212181
 10
-12.5706809754
 20
-8.7946553576
 10
-12.6299840776
 20
-8.6532121804
 10
-12.6820576167
 20
-8.5110565828
 10
-12.7267948062
 20
-8.3681529396
 10
-12.7642964966
 20
-8.2245338231
 10
-12.7939054665
 20
-8.0825677023
 10
-12.8154876175
 20
-7.9422470764
 10
-12.829173653
 20
-7.8035777166
 10
-12.834706699
 20
-7.6689496264
 10
-12.8319322807
 20
-7.5384405888
 10
-12.821004871
 20
-7.411972845
 10
-12.8021344534
 20
-7.2917048557
 10
-12.7751894427
 20
-7.1777774815
 10
-12.7403048131
 20
-7.0700516273
 10
-12.6980935303
 20
-6.9702674343
 10
-12.6484538971
 20
-6.8785647322
 10
-12.5914935385
 20
-6.7948067508
 10
-12.5281418651
 20
-6.7203199911
 10
-12.4583207233
 20
-6.6552420323
 10
-12.3821155336
 20
-6.5994390285
 10
-12.3007027081
 20
-6.5538311797
 10
-12.2140011211
 20
-6.5185558209
 10
-12.1220991345
 20
-6.493479323
 10
-12.026428201
 20
-6.4791158507
 10
-11.9268685078
 20
-6.4756470713
 10
-11.8235457489
 20
-6.4828943231
 10
-11.718259685
 20
-6.5008312998
 10
-11.6116114321
 20
-6.5294498433
 10
-11.5030032165
 20
-6.5687598177
 10
-11.3924358731
 20
-6.6187616492
  0
LWPOLYLINE
  5
25E
100
AcDbEntity
  8
0
100
AcDbPolyline
 62
7
  6
CONTINUOUS
 90
26
 70
0
 10
-11.4198955103
 20
4.0371782934
 10
-11.4299952361
 20
4.0132023719
 10
-11.4614636196
 20
3.9129642456
 10
-11.4855617224
 20
3.8052399245
 10
-11.5016933662
 20
3.6927235969
 10
-11.5096598251
 20
3.5757741406
 10
-11.5096598251
 20
3.4540326779
 10
-11.5016933662
 20
3.3291167628
 10
-11.4855617224
 20
3.2004687913
 10
-11.4614636196
 20
3.0686463675
 10
-11.4299952361
 20
2.9369398576
 10
-11.3911385871
 20
2.8058407079
 10
-11.3449116573
 20
2.6748574721
 10
-11.291964579
 20
2.5458061778
 10
-11.2319884943
 20
2.4182921291
 10
-11.165292261
 20
2.2927100218
 10
-11.0934525848
 20
2.1720599707
 10
-11.0165641986
 20
2.0567721562
 10
-10.9345323694
 20
1.9464163977
 10
-10.8486496038
 20
1.8427022684
 10
-10.7586754821
 20
1.7455398364
 10
-10.664850424
 20
1.6550190334
 10
-10.5691881945
 20
1.5731192276
 10
-10.4723600485
 20
1.5005002083
 10
-10.3736947311
 20
1.4365021862
 10
-10.2731922422
 20
1.3811251612
  0
LWPOLYLINE
  5
25F
100
AcDbEntity
  8
RACCORDO
100
AcDbPolyline
 62
250
  6
CONTINUOUS
 90
32
 70
0
 10
5.9110080551
 20
19.0800314216
 10
5.9170369906
 20
19.0841847316
 10
5.9876633349
 20
19.1279725316
 10
6.0628047692
 20
19.170038995
 10
6.1419007917
 20
19.2100650069
 10
6.2249962733
 20
19.2480399032
 10
6.3120463432
 20
19.2839743478
 10
6.4023558872
 20
19.3175812171
 10
6.495962382
 20
19.3488404976
 10
6.5928283509
 20
19.3777722027
 10
6.6921462496
 20
19.4041492487
 10
6.7938741283
 20
19.4279402395
 10
6.8980539369
 20
19.4491765712
 10
7.0040039808
 20
19.4677253486
 10
7.1116806531
 20
19.4835780238
 10
7.2211275607
 20
19.4967431448
 10
7.3317938297
 20
19.5071134605
 10
7.4438798727
 20
19.5146822378
 10
7.557185277
 20
19.5194562098
 10
7.670557931
 20
19.5213483246
 10
7.7842426869
 20
19.5202700846
 10
7.8979946925
 20
19.5163099874
 10
8.0099272789
 20
19.509646474
 10
8.119998375
 20
19.500152666
 10
8.2282500518
 20
19.4879554418
 10
8.3329218539
 20
19.4736138775
 10
8.4338639116
 20
19.4570096076
 10
8.5312260945
 20
19.4382609975
 10
8.6236975569
 20
19.4182822206
 10
8.71084135
 20
19.3973780011
 10
8.7930944224
 20
19.3752436146
 10
8.8704567743
 20
19.3518790612
  0
LWPOLYLINE
  5
260
100
AcDbEntity
  8
0
100
AcDbPolyline
 62
250
  6
CONTINUOUS
 90
19
 70
0
 10
-2.6258969489
 20
12.1650263614
 10
-2.6554661974
 20
12.1473738511
 10
-2.6843617476
 20
12.1272705544
 10
-2.7125835994
 20
12.1047164712
 10
-2.7403229364
 20
12.0795207492
 10
-2.7673885751
 20
12.0518742407
 10
-2.7932069642
 20
12.0223495032
 10
-2.817742254
 20
11.9909153437
 10
-2.8410302942
 20
11.9576029551
 10
-2.8626050827
 20
11.9230784739
 10
-2.8824296817
 20
11.8873235982
 10
-2.9005410291
 20
11.8503566298
 10
-2.9165839359
 20
11.812898611
 10
-2.9305221029
 20
11.7749276026
 10
-2.9423918293
 20
11.7364655436
 10
-2.9519468243
 20
11.6982992934
 10
-2.959104991
 20
11.6606911381
 10
-2.9639484262
 20
11.6233787915
 10
-2.96647713
 20
11.5863622536
  0
LINE
  5
261
100
AcDbEntity
  8
0
100
AcDbLine
 62
250
  6
CONTINUOUS
 10
3.1971919394
 20
15.3440217461
 11
-2.6258969489
 21
12.1650263614
  0
LWPOLYLINE
  5
262
100
AcDbEntity
  8
RACCORDO
100
AcDbPolyline
 62
250
  6
CONTINUOUS
 90
10
 70
0
 10
9.0954789916
 20
16.8716703876
 10
9.1300904383
 20
16.8887570114
 10
9.1614837274
 20
16.9039088965
 10
9.1893188024
 20
16.9169614683
 10
9.213297741
 20
16.9277743818
 10
9.2331523613
 20
16.9362259595
 10
9.2486561362
 20
16.9422196426
 10
9.2596446884
 20
16.9456926206
 10
9.2660061332
 20
16.9466105708
 10
9.2676022491
 20
16.9458807046
  0
LWPOLYLINE
  5
263
100
AcDbEntity
  8
0
100
AcDbPolyline
 62
250
  6
CONTINUOUS
 90
16
 70
0
 10
-2.96647713
 20
11.5863622536
 10
-3.0054848708
 20
11.5712713613
 10
-3.0477961274
 20
11.5582690057
 10
-3.0929575552
 20
11.5474945008
 10
-3.1404852711
 20
11.5390632903
 10
-3.1898700385
 20
11.5330657106
 10
-3.2405827233
 20
11.5295660228
 10
-3.2920799637
 20
11.5286017243
 10
-3.3438099912
 20
11.5301831473
 10
-3.3952185437
 20
11.5342933474
 10
-3.4457548031
 20
11.5408882859
 10
-3.4948772979
 20
11.5498973012
 10
-3.5420597039
 20
11.5612238659
 10
-3.5867964846
 20
11.5747466213
 10
-3.6286083067
 20
11.5903206777
 10
-3.6670471767
 20
11.6077791664
  0
LWPOLYLINE
  5
264
100
AcDbEntity
  8
RACCORDO
100
AcDbPolyline
 62
7
  6
CONTINUOUS
 90
32
 70
0
 10
-11.3143759641
 20
-6.7789423094
 10
-11.2779492958
 20
-6.7978376791
 10
-11.1842042485
 20
-6.8525791246
 10
-11.0893130636
 20
-6.9169516308
 10
-10.9940983785
 20
-6.9907708331
 10
-10.8994238175
 20
-7.0736486902
 10
-10.8061679872
 20
-7.1650761227
 10
-10.7150945196
 20
-7.2645343233
 10
-10.6269377304
 20
-7.3713953606
 10
-10.5424357634
 20
-7.4849488738
 10
-10.4622344813
 20
-7.6045012173
 10
-10.3869866456
 20
-7.7291846437
 10
-10.3173573942
 20
-7.8579875754
 10
-10.253841238
 20
-7.9900529621
 10
-10.1969106335
 20
-8.1243727642
 10
-10.1470791574
 20
-8.2596482301
 10
-10.1046381615
 20
-8.3948765308
 10
-10.0697762706
 20
-8.5290767896
 10
-10.0426942399
 20
-8.6609420038
 10
-10.0235119667
 20
-8.7886383
 10
-10.011921514
 20
-8.9122061134
 10
-10.0077696356
 20
-9.0328875797
 10
-10.011250221
 20
-9.1499383257
 10
-10.022427443
 20
-9.2618623182
 10
-10.0413892808
 20
-9.3681234946
 10
-10.0681695417
 20
-9.46771002
 10
-10.1024395866
 20
-9.5589695597
 10
-10.1434938494
 20
-9.6401960319
 10
-10.1902215456
 20
-9.7101160532
 10
-10.2421571182
 20
-9.7689805741
 10
-10.2998694964
 20
-9.8175946716
 10
-10.3614302442
 20
-9.8548325443
  0
LINE
  5
265
100
AcDbEntity
  8
RACCORDO
100
AcDbLine
 62
250
  6
CONTINUOUS
 10
-11.3924358731
 20
-6.6187616492
 11
-11.2819366073
 21
-6.6792707378
  0
LWPOLYLINE
  5
266
100
AcDbEntity
  8
RACCORDO
100
AcDbPolyline
 62
250
  6
CONTINUOUS
 90
42
 70
0
 10
-11.2819366073
 20
-6.6792707378
 10
-11.173239793
 20
-6.7485812306
 10
-11.0663445977
 20
-6.8266927028
 10
-10.9606418215
 20
-6.91419736
 10
-10.8567373308
 20
-7.0105012953
 10
-10.7564523022
 20
-7.113824613
 10
-10.6599105557
 20
-7.2242197116
 10
-10.5669824012
 20
-7.3416311929
 10
-10.4791087939
 20
-7.4641174875
 10
-10.3963679735
 20
-7.5917305843
 10
-10.3186744668
 20
-7.7244147898
 10
-10.2472244622
 20
-7.8600674184
 10
-10.1820945152
 20
-7.9987426599
 10
-10.1232007983
 20
-8.1403825886
 10
-10.0715005618
 20
-8.2827171802
 10
-10.0270947822
 20
-8.4257792693
 10
-9.9898765473
 20
-8.5695329579
 10
-9.9604937348
 20
-8.7116063823
 10
-9.9390769872
 20
-8.8520057326
 10
-9.925492265
 20
-8.990723049
 10
-9.9199935673
 20
-9.1253668586
 10
-9.9227353591
 20
-9.2558597658
 10
-9.9335631704
 20
-9.3822791383
 10
-9.9522710337
 20
-9.5024674181
 10
-9.9789942599
 20
-9.6162857429
 10
-10.013600925
 20
-9.7238747005
 10
-10.055487353
 20
-9.8234975332
 10
-10.1047617696
 20
-9.9150174894
 10
-10.1613218771
 20
-9.9985743693
 10
-10.2242506776
 20
-10.0728475209
 10
-10.2936342412
 20
-10.1377030865
 10
-10.3693937665
 20
-10.1932786793
 10
-10.4503665896
 20
-10.2386617067
 10
-10.5366418068
 20
-10.2737188033
 10
-10.6281375592
 20
-10.2985870856
 10
-10.7234355596
 20
-10.3127601063
 10
-10.8226625148
 20
-10.3160597658
 10
-10.9256975994
 20
-10.3086672182
 10
-11.0307512746
 20
-10.2906149228
 10
-11.1372282233
 20
-10.2619143213
 10
-11.2457271045
 20
-10.2225557098
 10
-11.3562487532
 20
-10.1725395226
  0
LWPOLYLINE
  5
267
100
AcDbEntity
  8
0
100
AcDbPolyline
 62
7
  6
CONTINUOUS
 90
25
 70
0
 10
-11.4299952361
 20
-6.725512635
 10
-11.4614636196
 20
-6.8257507614
 10
-11.4855617224
 20
-6.9334750824
 10
-11.5016933662
 20
-7.0459914101
 10
-11.5096598251
 20
-7.1629408663
 10
-11.5096598251
 20
-7.284682329
 10
-11.5016933662
 20
-7.4095982441
 10
-11.4855617224
 20
-7.5382462156
 10
-11.4614636196
 20
-7.6700686394
 10
-11.4299952361
 20
-7.8017751493
 10
-11.3911385871
 20
-7.932874299
 10
-11.3449116573
 20
-8.0638575348
 10
-11.291964579
 20
-8.1929088292
 10
-11.2319884943
 20
-8.3204228778
 10
-11.165292261
 20
-8.4460049851
 10
-11.0934525848
 20
-8.5666550363
 10
-11.0165641986
 20
-8.6819428508
 10
-10.9345323694
 20
-8.7922986092
 10
-10.8486496038
 20
-8.8960127386
 10
-10.7586754821
 20
-8.9931751706
 10
-10.664850424
 20
-9.0836959735
 10
-10.5691881945
 20
-9.1655957793
 10
-10.4723600485
 20
-9.2382147986
 10
-10.3736947311
 20
-9.3022128207
 10
-10.2731922422
 20
-9.3575898457
  0
LWPOLYLINE
  5
268
100
AcDbEntity
  8
RACCORDO
100
AcDbPolyline
 62
250
  6
CONTINUOUS
 90
5
 70
0
 10
10.0793393313
 20
15.2356877897
 10
10.1038667788
 20
15.2483977845
 10
10.1213918409
 20
15.2577161151
 10
10.131621276
 20
15.2634868611
 10
10.1344436925
 20
15.2655715717
  0
LINE
  5
269
100
AcDbEntity
  8
RACCORDO
100
AcDbLine
 62
250
  6
CONTINUOUS
 10
3.1971919394
 20
11.7198578047
 11
9.9683895713
 21
15.1795960605
  0
LWPOLYLINE
  5
26A
100
AcDbEntity
  8
RACCORDO
100
AcDbPolyline
 62
250
  6
CONTINUOUS
 90
3
 70
0
 10
9.9683895713
 20
15.1795960605
 10
10.0110292217
 20
15.2009966901
 10
10.0793393313
 20
15.2356877897
  0
LINE
  5
26B
100
AcDbEntity
  8
RACCORDO
100
AcDbLine
 62
7
  6
CONTINUOUS
 10
-11.9340955567
 20
4.0348704986
 11
-11.9321090818
 21
4.0358404724
  0
LWPOLYLINE
  5
26C
100
AcDbEntity
  8
RACCORDO
100
AcDbPolyline
 62
7
  6
CONTINUOUS
 90
11
 70
0
 10
-11.9340290648
 20
4.0349014198
 10
-11.9011409637
 20
4.049602407
 10
-11.8378955279
 20
4.070378256
 10
-11.7717677671
 20
4.0830710424
 10
-11.7018054505
 20
4.087947144
 10
-11.6278774008
 20
4.0848098033
 10
-11.5508780431
 20
4.0735528018
 10
-11.4715658346
 20
4.0542280434
 10
-11.3906867664
 20
4.0270423382
 10
-11.3089658027
 20
3.9923535666
 10
-11.2784644169
 20
3.9776012187
  0
LWPOLYLINE
  5
26D
100
AcDbEntity
  8
0
100
AcDbPolyline
 62
7
  6
CONTINUOUS
 90
10
 70
0
 10
-7.8382181964
 20
21.9703583347
 10
-7.834072756
 20
21.9133455105
 10
-7.8352145399
 20
21.8603749913
 10
-7.8416435483
 20
21.811446777
 10
-7.8536199238
 20
21.7659359849
 10
-7.8708835238
 20
21.7244674978
 10
-7.8926539199
 20
21.688915964
 10
-7.9191379661
 20
21.6595529611
 10
-7.9501288084
 20
21.6361069116
 10
-7.9636610558
 20
21.6285271892
  0
LINE
  5
26E
100
AcDbEntity
  8
0
100
AcDbLine
 62
7
  6
CONTINUOUS
 10
-7.140582106
 20
21.0327222028
 11
-7.140582106
 21
20.9461196624
  0
LINE
  5
26F
100
AcDbEntity
  8
0
100
AcDbLine
 62
7
  6
CONTINUOUS
 10
8.4223199999
 20
18.4067572834
 11
8.4552504775
 21
18.4371691316
  0
LWPOLYLINE
  5
270
100
AcDbEntity
  8
RACCORDO
100
AcDbPolyline
 62
250
  6
CONTINUOUS
 90
6
 70
0
 10
10.2704454371
 20
14.0932212617
 10
10.3122499897
 20
14.1175055345
 10
10.3473582551
 20
14.143685382
 10
10.375183144
 20
14.1713230183
 10
10.3952593614
 20
14.1999562796
 10
10.4072511875
 20
14.2291063534
  0
LINE
  5
271
100
AcDbEntity
  8
RACCORDO
100
AcDbLine
 62
250
  6
CONTINUOUS
 10
10.2802707174
 20
13.9520274326
 11
3.1971919394
 21
10.338297933
  0
LINE
  5
272
100
AcDbEntity
  8
RACCORDO
100
AcDbLine
 62
250
  6
CONTINUOUS
 10
18.4819492444
 20
18.0601031957
 11
10.6041760199
 21
14.1526696006
  0
LINE
  5
273
100
AcDbEntity
  8
RACCORDO
100
AcDbLine
 62
250
  6
CONTINUOUS
 10
18.8354487871
 20
17.4504066724
 11
10.9576755626
 21
13.5429730773
  0
LWPOLYLINE
  5
274
100
AcDbEntity
  8
RACCORDO
100
AcDbPolyline
 62
250
  6
CONTINUOUS
 90
11
 70
0
 10
10.6041760199
 20
14.1526696006
 10
10.5880856421
 20
14.1448777986
 10
10.5714220108
 20
14.1378346814
 10
10.5542351576
 20
14.1316763094
 10
10.5366258975
 20
14.1265521084
 10
10.5186222603
 20
14.1225935249
 10
10.5001853998
 20
14.1199417887
 10
10.4814182911
 20
14.118774468
 10
10.4624317594
 20
14.1192732472
 10
10.4432349636
 20
14.1216454468
 10
10.4275441907
 20
14.1252798467
  0
LWPOLYLINE
  5
275
100
AcDbEntity
  8
RACCORDO
100
AcDbPolyline
 62
250
  6
CONTINUOUS
 90
22
 70
0
 10
10.9576755626
 20
13.5429730773
 10
10.9246880946
 20
13.5272035053
 10
10.8907701989
 20
13.5135027398
 10
10.8559218756
 20
13.5018707808
 10
10.8200516743
 20
13.4919982234
 10
10.7832510454
 20
13.4841944726
 10
10.7457943398
 20
13.4793877432
 10
10.707577779
 20
13.4774903434
 10
10.6687051415
 20
13.478589965
 10
10.6297621129
 20
13.4838778985
 10
10.5905701242
 20
13.4933299589
 10
10.5513077444
 20
13.5069703312
 10
10.5130963673
 20
13.5260628604
 10
10.4757373266
 20
13.5508495317
 10
10.4394292886
 20
13.5810883601
 10
10.4058896447
 20
13.6173172353
 10
10.3751705674
 20
13.6600684104
 10
10.3472198842
 20
13.7088096323
 10
10.3235984702
 20
13.7624820324
 10
10.3048266168
 20
13.8207326543
 10
10.2903840326
 20
13.8839144544
 10
10.2802707174
 20
13.9520274326
  0
LWPOLYLINE
  5
276
100
AcDbEntity
  8
0
100
AcDbPolyline
 62
250
  6
CONTINUOUS
 90
19
 70
0
 10
-2.96647713
 20
-24.7820210957
 10
-2.9639484261
 20
-24.8165956927
 10
-2.9591049908
 20
-24.8492307882
 10
-2.9519468242
 20
-24.8799263823
 10
-2.9423918292
 20
-24.9088654812
 10
-2.9305221029
 20
-24.9358650787
 10
-2.916583936
 20
-24.9603761557
 10
-2.9005410292
 20
-24.9823417196
 10
-2.8824296818
 20
-25.001818763
 10
-2.8626050827
 20
-25.0184292459
 10
-2.8410302941
 20
-25.0321191959
 10
-2.8177422539
 20
-25.0429425853
 10
-2.7932069641
 20
-25.0506832909
 10
-2.767388575
 20
-25.0552755001
 10
-2.7403229364
 20
-25.0567850253
 10
-2.7125835994
 20
-25.0551931811
 10
-2.6843617477
 20
-25.0504937388
 10
-2.6554661975
 20
-25.042692927
 10
-2.6258969489
 20
-25.0317907457
  0
LWPOLYLINE
  5
277
100
AcDbEntity
  8
0
100
AcDbPolyline
 62
250
  6
CONTINUOUS
 90
12
 70
0
 10
-3.6670471895
 20
-24.7970089768
 10
-3.6621959574
 20
-24.8653704246
 10
-3.6525882363
 20
-24.9306860188
 10
-3.6382854925
 20
-24.9925152151
 10
-3.6193759586
 20
-25.0504498108
 10
-3.5959865346
 20
-25.10408794
 10
-3.5682886064
 20
-25.1530435757
 10
-3.5364794943
 20
-25.1969804446
 10
-3.500767561
 20
-25.235623054
 10
-3.4613825833
 20
-25.2687269386
 10
-3.4185772432
 20
-25.2960727929
 10
-3.4063199532
 20
-25.3025188622
  0
LINE
  5
278
100
AcDbEntity
  8
0
100
AcDbLine
 62
7
  6
CONTINUOUS
 10
-4.2627846021
 20
22.1193626321
 11
-4.2627846021
 21
23.2278098607
  0
LWPOLYLINE
  5
279
100
AcDbEntity
  8
0
100
AcDbPolyline
 62
250
  6
CONTINUOUS
 90
10
 70
0
 10
-3.6670471895
 20
11.6077791606
 10
-3.7926523075
 20
7.5038013325
 10
-3.8868655766
 20
3.4137449919
 10
-3.9496789131
 20
-0.6620326725
 10
-3.9810869278
 20
-4.7231756997
 10
-3.9810869277
 20
-8.7693295154
 10
-3.9496789128
 20
-12.8001409617
 10
-3.8868655762
 20
-16.8152581574
 10
-3.7926523072
 20
-20.8143305308
 10
-3.6670471895
 20
-24.7970089768
  0
LWPOLYLINE
  5
27A
100
AcDbEntity
  8
RACCORDO
100
AcDbPolyline
 62
250
  6
CONTINUOUS
 90
8
 70
0
 10
10.2802615473
 20
13.9520318614
 10
10.3217527625
 20
13.9833754802
 10
10.3565304913
 20
14.0171008564
 10
10.3840127093
 20
14.0526435788
 10
10.4037394868
 20
14.0894088224
 10
10.4153806853
 20
14.1267813029
 10
10.4187414829
 20
14.1641355736
 10
10.4179224424
 20
14.1773294647
  0
LINE
  5
27B
100
AcDbEntity
  8
RACCORDO
100
AcDbLine
 62
250
  6
CONTINUOUS
 10
-10.3851032248
 20
0.8716977654
 11
-10.388627253
 21
0.8698999418
  0
LWPOLYLINE
  5
27C
100
AcDbEntity
  8
RACCORDO
100
AcDbPolyline
 62
250
  6
CONTINUOUS
 90
11
 70
0
 10
-10.388627253
 20
0.8698999418
 10
-10.4004594519
 20
0.8640526922
 10
-10.4756707482
 20
0.8332430343
 10
-10.5548075517
 20
0.8114183155
 10
-10.6374929395
 20
0.7987185577
 10
-10.7232919427
 20
0.7952555186
 10
-10.8117280914
 20
0.8010916688
 10
-10.9023388204
 20
0.8162398334
 10
-10.9946308783
 20
0.8406646238
 10
-11.0880810945
 20
0.8742744001
 10
-11.1821622928
 20
0.9169248944
  0
LWPOLYLINE
  5
27D
100
AcDbEntity
  8
RACCORDO
100
AcDbPolyline
 62
250
  6
CONTINUOUS
 90
34
 70
0
 10
-11.1821622928
 20
0.9169248944
 10
-11.2761297342
 20
0.9682944861
 10
-11.3693300031
 20
1.0279975265
 10
-11.4612366448
 20
1.0956518734
 10
-11.5513267562
 20
1.1708262715
 10
-11.6391081557
 20
1.2530641385
 10
-11.7241199099
 20
1.3418930621
 10
-11.8058858174
 20
1.4367756125
 10
-11.8839709099
 20
1.5371664563
 10
-11.9579987274
 20
1.6425524456
 10
-12.027559063
 20
1.7523290125
 10
-12.0922792142
 20
1.8658843564
 10
-12.1518584951
 20
1.9826811071
 10
-12.2059667177
 20
2.1020884104
 10
-12.2542929376
 20
2.2234319569
 10
-12.296589049
 20
2.3460992621
 10
-12.3326079324
 20
2.469430741
 10
-12.3621299507
 20
2.5927264802
 10
-12.384988523
 20
2.7153081523
 10
-12.4010384189
 20
2.8365228735
 10
-12.4101675871
 20
2.9556647589
 10
-12.4123256039
 20
3.0719893315
 10
-12.407491101
 20
3.1848508267
 10
-12.3956861002
 20
3.2936223326
 10
-12.3770076884
 20
3.3976289855
 10
-12.3515696857
 20
3.4962812169
 10
-12.3195157877
 20
3.5890677312
 10
-12.2810529779
 20
3.6754832757
 10
-12.2364015355
 20
3.7550510249
 10
-12.1858063146
 20
3.8273537928
 10
-12.129550277
 20
3.8920201927
 10
-12.0679450287
 20
3.9486876534
 10
-12.001318103
 20
3.9970518719
 10
-11.9340955567
 20
4.0348704986
  0
LWPOLYLINE
  5
27E
100
AcDbEntity
  8
RACCORDO
100
AcDbPolyline
 62
250
  6
CONTINUOUS
 90
43
 70
0
 10
-11.3924358731
 20
0.554142247
 10
-11.5028634628
 20
0.6146871737
 10
-11.6113557909
 20
0.6840999096
 10
-11.7179120248
 20
0.7623808625
 10
-11.8231345958
 20
0.8501256223
 10
-11.9264177391
 20
0.9467402312
 10
-12.0259477384
 20
1.0504410636
 10
-12.1215936816
 20
1.1612840639
 10
-12.2134806106
 20
1.279216158
 10
-12.3001787827
 20
1.4022901701
 10
-12.3816016301
 20
1.5305622533
 10
-12.4578284871
 20
1.6639797838
 10
-12.5276792659
 20
1.8004320253
 10
-12.5910687999
 20
1.9399774733
 10
-12.6480749835
 20
2.0825611686
 10
-12.6977639568
 20
2.2259013919
 10
-12.7400274067
 20
2.3700346458
 10
-12.7749677105
 20
2.5149272999
 10
-12.8019695039
 20
2.6581912339
 10
-12.8208973908
 20
2.7998350145
 10
-12.8318833704
 20
2.9398517023
 10
-12.8347163152
 20
3.0758283883
 10
-12.8292417582
 20
3.2076876781
 10
-12.8156141614
 20
3.3355069432
 10
-12.7940892263
 20
3.457103759
 10
-12.7645366632
 20
3.5723367523
 10
-12.7270901486
 20
3.6813456346
 10
-12.6824044779
 20
3.7823680887
 10
-12.6303794716
 20
3.8752633397
 10
-12.5711212371
 20
3.9601692831
 10
-12.5055964628
 20
4.0357404216
 10
-12.4337289063
 20
4.1018379836
 10
-12.3556020787
 20
4.1585972275
 10
-12.2724239395
 20
4.205082913
 10
-12.1841153607
 20
4.2411566905
 10
-12.0907627078
 20
4.266953423
 10
-11.99382299
 20
4.2819473024
 10
-11.8931789815
 20
4.2859554885
 10
-11.7889537896
 20
4.2791579946
 10
-11.6829649704
 20
4.2615732713
 10
-11.5758195717
 20
4.2332068947
 10
-11.4669138877
 20
4.1940516846
 10
-11.3562487532
 20
4.1441072403
  0
LINE
  5
27F
100
AcDbEntity
  8
0
100
AcDbLine
 62
7
  6
CONTINUOUS
 10
-2.9192817179
 20
22.6220623622
 11
-2.9192817179
 21
21.731850511
  0
LINE
  5
280
100
AcDbEntity
  8
0
100
AcDbLine
 62
7
  6
CONTINUOUS
 10
-2.2335152357
 20
18.4925862272
 11
-2.2335152357
 21
18.5791887676
  0
LWPOLYLINE
  5
281
100
AcDbEntity
  8
0
100
AcDbPolyline
 62
250
  6
CONTINUOUS
 90
10
 70
0
 10
-2.96647713
 20
11.5863622536
 10
-3.0919675618
 20
7.485918317
 10
-3.186085408
 20
3.4000838642
 10
-3.2488306686
 20
-0.6711411048
 10
-3.2802033735
 20
-4.7281147628
 10
-3.2802034929
 20
-8.7704789369
 10
-3.2488309371
 20
-12.7971591091
 10
-3.1860856765
 20
-16.8077971066
 10
-3.0919677408
 20
-20.8027511021
 10
-2.96647713
 20
-24.7820210957
  0
LWPOLYLINE
  5
282
100
AcDbEntity
  8
0
100
AcDbPolyline
 62
7
  6
CONTINUOUS
 90
4
 70
0
 10
-10.2731922422
 20
1.3811251612
 10
-10.1726897534
 20
1.3359996973
 10
-10.0740244359
 20
1.3013324021
 10
-10.0696858862
 20
1.300247671
  0
LINE
  5
283
100
AcDbEntity
  8
RACCORDO
100
AcDbLine
 62
250
  6
CONTINUOUS
 10
-11.3562487532
 20
4.1441072403
 11
-11.2458664756
 21
4.0835507687
  0
LWPOLYLINE
  5
284
100
AcDbEntity
  8
RACCORDO
100
AcDbPolyline
 62
250
  6
CONTINUOUS
 90
42
 70
0
 10
-11.2458664756
 20
4.0835507687
 10
-11.1374830991
 20
4.0140941016
 10
-11.0310977912
 20
3.9357376384
 10
-10.9261072487
 20
3.8478864976
 10
-10.8231114417
 20
3.7511371605
 10
-10.7239138577
 20
3.6472773551
 10
-10.6286405352
 20
3.5362531843
 10
-10.5371595654
 20
3.4181213667
 10
-10.4508875573
 20
3.2948355347
 10
-10.3699045786
 20
3.166342346
 10
-10.2941233268
 20
3.0326986281
 10
-10.2247101583
 20
2.8960228846
 10
-10.1617436229
 20
2.7562595294
 10
-10.1051378971
 20
2.613467664
 10
-10.0558144142
 20
2.4699370382
 10
-10.0138761525
 20
2.3256339311
 10
-9.9792141977
 20
2.1805949468
 10
-9.952434608
 20
2.037214136
 10
-9.9336697197
 20
1.8954848787
 10
-9.9227838016
 20
1.7554154602
 10
-9.9199839557
 20
1.61942077
 10
-9.9254246443
 20
1.4875785972
 10
-9.9389514034
 20
1.3598111787
 10
-9.9603113818
 20
1.238298409
 10
-9.9896381952
 20
1.1231801335
 10
-10.0268016168
 20
1.0143148832
 10
-10.0711561758
 20
0.9134590521
 10
-10.1228081025
 20
0.8207502033
 10
-10.1816570943
 20
0.7360479053
 10
-10.2467503416
 20
0.6606903586
 10
-10.3181719469
 20
0.5948121681
 10
-10.3958450749
 20
0.5382751952
 10
-10.4785771492
 20
0.4920077219
 10
-10.5664554618
 20
0.4561440004
 10
-10.659399957
 20
0.4305462482
 10
-10.7559678471
 20
0.4157342975
 10
-10.8562835828
 20
0.4118874969
 10
-10.9602285946
 20
0.4188236222
 10
-11.0659956116
 20
0.4365201224
 10
-11.1729834063
 20
0.464968895
 10
-11.2817965484
 20
0.5041764062
 10
-11.3924358731
 20
0.554142247
  0
LWPOLYLINE
  5
285
100
AcDbEntity
  8
0
100
AcDbPolyline
 62
250
  6
CONTINUOUS
 90
16
 70
0
 10
-2.6258969489
 20
12.1650263614
 10
-2.6297634434
 20
12.2102336871
 10
-2.6373884486
 20
12.2569144323
 10
-2.648688573
 20
12.3045577872
 10
-2.6635402076
 20
12.3526424011
 10
-2.6817808734
 20
12.4006420747
 10
-2.7032109954
 20
12.4480315183
 10
-2.7275960979
 20
12.4942921282
 10
-2.7546693563
 20
12.5389176307
 10
-2.7841345045
 20
12.5814196146
 10
-2.8156691147
 20
12.6213329347
 10
-2.8489280983
 20
12.658220758
 10
-2.8835474574
 20
12.6916793282
 10
-2.9191483208
 20
12.7213424447
 10
-2.955341095
 20
12.7468854612
 10
-2.9917296922
 20
12.7680288054
  0
LWPOLYLINE
  5
286
100
AcDbEntity
  8
0
100
AcDbPolyline
 62
250
  6
CONTINUOUS
 90
10
 70
0
 10
-2.6258969489
 20
-25.0317907457
 10
-2.6297636149
 20
-25.0769300437
 10
-2.6373889571
 20
-25.1196073399
 10
-2.6486895278
 20
-25.1593555959
 10
-2.6635416593
 20
-25.1957398275
 10
-2.6817828176
 20
-25.2283618645
 10
-2.7032133809
 20
-25.256864708
 10
-2.7275988241
 20
-25.2809364378
 10
-2.7546722857
 20
-25.3003136253
 10
-2.7797041953
 20
-25.3129864445
  0
LWPOLYLINE
  5
287
100
AcDbEntity
  8
RACCORDO
100
AcDbPolyline
 62
7
  6
CONTINUOUS
 90
32
 70
0
 10
-11.2782142153
 20
3.9774702326
 10
-11.2413079607
 20
3.9582992345
 10
-11.1475308004
 20
3.9032720884
 10
-11.0528529466
 20
3.838484781
 10
-10.9581142651
 20
3.7641444475
 10
-10.8641714463
 20
3.6806501452
 10
-10.7718759384
 20
3.5884997373
 10
-10.6819917494
 20
3.4882257558
 10
-10.5952505359
 20
3.3804709646
 10
-10.5123607108
 20
3.2659239595
 10
-10.4339587696
 20
3.1452801926
 10
-10.3606957232
 20
3.0194271273
 10
-10.2932192274
 20
2.8893739634
 10
-10.2320117575
 20
2.7559826301
 10
-10.1775380053
 20
2.6202824933
 10
-10.1302952863
 20
2.4835919475
 10
-10.090563271
 20
2.3469494449
 10
-10.0585061853
 20
2.2113291889
 10
-10.0342914906
 20
2.0779902789
 10
-10.0180015366
 20
1.9487277876
 10
-10.0093535579
 20
1.8235762624
 10
-10.0082391801
 20
1.7013992522
 10
-10.0148319804
 20
1.5829150989
 10
-10.0291575192
 20
1.4696550474
 10
-10.0512621927
 20
1.3622769815
 10
-10.081092584
 20
1.2618433412
 10
-10.1182896912
 20
1.1698158943
 10
-10.1622263449
 20
1.0876383652
 10
-10.2118767021
 20
1.0165175763
 10
-10.2667919815
 20
0.9563623996
 10
-10.3275065543
 20
0.9065197037
 10
-10.388708007
 20
0.8698610237
  0
LINE
  5
288
100
AcDbEntity
  8
0
100
AcDbLine
 62
7
  6
CONTINUOUS
 10
1.4647803255
 20
20.4300313405
 11
1.4647803255
 21
19.7035687211
  0
LINE
  5
289
100
AcDbEntity
  8
RACCORDO
100
AcDbLine
 62
7
  6
CONTINUOUS
 10
-11.9626923498
 20
-6.7177518986
 11
-11.9604317716
 21
-6.7166472083
  0
LWPOLYLINE
  5
28A
100
AcDbEntity
  8
RACCORDO
100
AcDbPolyline
 62
7
  6
CONTINUOUS
 90
11
 70
0
 10
-11.9626243897
 20
-6.7177203219
 10
-11.925716372
 20
-6.701491587
 10
-11.8641063163
 20
-6.6822151937
 10
-11.7993240409
 20
-6.6708139775
 10
-11.7305010846
 20
-6.6670765317
 10
-11.6575387303
 20
-6.6712010741
 10
-11.5814338681
 20
-6.6832683656
 10
-11.5031490027
 20
-6.7031419464
 10
-11.423515584
 20
-6.7305064678
 10
-11.3432348532
 20
-6.7649355433
 10
-11.314660946
 20
-6.7787940203
  0
LINE
  5
28B
100
AcDbEntity
  8
0
100
AcDbLine
 62
7
  6
CONTINUOUS
 10
3.1971919394
 20
15.3440217461
 11
3.1971919394
 21
-22.5874945563
  0
LWPOLYLINE
  5
28C
100
AcDbEntity
  8
RACCORDO
100
AcDbPolyline
 62
250
  6
CONTINUOUS
 90
10
 70
0
 10
9.0954788654
 20
16.8716703625
 10
9.1093292656
 20
16.9179204821
 10
9.1197286156
 20
16.9610925613
 10
9.1262915993
 20
17.0006614615
 10
9.1285203232
 20
17.0362727983
 10
9.1263787298
 20
17.0674222702
 10
9.1202776591
 20
17.0934688783
 10
9.1103084472
 20
17.1140623727
 10
9.0962564391
 20
17.1291310377
 10
9.091552912
 20
17.1323679254
  0
LINE
  5
28D
100
AcDbEntity
  8
RACCORDO
100
AcDbLine
 62
250
  6
CONTINUOUS
 10
-10.3573969395
 20
-9.8527796661
 11
-10.3613489425
 21
-9.8547932472
  0
LWPOLYLINE
  5
28E
100
AcDbEntity
  8
RACCORDO
100
AcDbPolyline
 62
250
  6
CONTINUOUS
 90
11
 70
0
 10
-10.3613489425
 20
-9.8547932472
 10
-10.372293776
 20
-9.8601919907
 10
-10.4459016175
 20
-9.8901925005
 10
-10.5235885966
 20
-9.9112856719
 10
-10.6050023724
 20
-9.9233445058
 10
-10.6897104283
 20
-9.9262588265
 10
-10.7772340141
 20
-9.9199652306
 10
-10.8671281097
 20
-9.9044603027
 10
-10.958905465
 20
-9.8797827841
 10
-11.0520373548
 20
-9.8460214972
 10
-11.1459968851
 20
-9.8033208661
  0
LINE
  5
28F
100
AcDbEntity
  8
SMUSSO
100
AcDbLine
 62
250
  6
CONTINUOUS
 10
5.3555821584
 20
19.9119331625
 11
5.3555821584
 21
19.4446747785
  0
LINE
  5
290
100
AcDbEntity
  8
DRAFT
100
AcDbLine
 62
250
  6
CONTINUOUS
 10
6.0958299532
 20
19.2361367943
 11
6.0958299532
 21
19.8198968314
  0
LINE
  5
291
100
AcDbEntity
  8
DRAFT
100
AcDbLine
 62
7
  6
CONTINUOUS
 10
6.3458399359
 20
19.9466236647
 11
6.3458399359
 21
19.923023426
  0
LINE
  5
292
100
AcDbEntity
  8
0
100
AcDbLine
 62
7
  6
CONTINUOUS
 10
7.1639231408
 20
18.9159430864
 11
7.1639231408
 21
18.3178013834
  0
LINE
  5
293
100
AcDbEntity
  8
0
100
AcDbLine
 62
7
  6
CONTINUOUS
 10
7.6873199999
 20
18.7742572834
 11
7.6873199999
 21
18.2376665498
  0
LINE
  5
294
100
AcDbEntity
  8
0
100
AcDbLine
 62
7
  6
CONTINUOUS
 10
7.7481436963
 20
18.7907225222
 11
7.7481436963
 21
18.2405345951
  0
LINE
  5
295
100
AcDbEntity
  8
0
100
AcDbLine
 62
7
  6
CONTINUOUS
 10
8.4223199999
 20
18.4067572834
 11
8.4223199999
 21
18.3122822016
  0
LINE
  5
296
100
AcDbEntity
  8
RACCORDO
100
AcDbLine
 62
250
  6
CONTINUOUS
 10
10.4072511875
 20
14.2291063534
 11
10.410958092
 21
14.2582857843
  0
LWPOLYLINE
  5
297
100
AcDbEntity
  8
0
100
AcDbPolyline
 62
250
  6
CONTINUOUS
 90
9
 70
0
 10
-18.5170462795
 20
19.0327787128
 10
-18.5517025984
 20
19.0518678189
 10
-18.5822027852
 20
19.0724497674
 10
-18.6082200452
 20
19.0943040327
 10
-18.629475616
 20
19.1171964566
 10
-18.6457417542
 20
19.140881758
 10
-18.6568441762
 20
19.1651061604
 10
-18.6626639246
 20
19.189610111
 10
-18.6635346287
 20
19.2076481417
  0
LINE
  5
298
100
AcDbEntity
  8
RACCORDO
100
AcDbLine
 62
7
  6
CONTINUOUS
 10
9.0542295434
 20
18.7366586645
 11
9.0141735152
 21
19.2656281684
  0
LINE
  5
299
100
AcDbEntity
  8
SMUSSO
100
AcDbLine
 62
7
  6
CONTINUOUS
 10
9.557511871
 20
21.996121277
 11
9.557511871
 21
21.5859152494
  0
LINE
  5
29A
100
AcDbEntity
  8
0
100
AcDbLine
 62
250
  6
CONTINUOUS
 10
-18.5170462871
 20
19.0327787094
 11
-3.6670471895
 21
11.6077791606
  0
LINE
  5
29B
100
AcDbEntity
  8
0
100
AcDbLine
 62
250
  6
CONTINUOUS
 10
-17.8534145098
 20
20.1988712176
 11
-2.9917296889
 21
12.7680288072
  0
LWPOLYLINE
  5
29C
100
AcDbEntity
  8
0
100
AcDbPolyline
 62
7
  6
CONTINUOUS
 90
10
 70
0
 10
-1.6977247174
 20
19.0330042535
 10
-1.7369691484
 20
19.082299845
 10
-1.7774457519
 20
19.1288712868
 10
-1.8191545278
 20
19.1727185789
 10
-1.8623455193
 20
19.214059233
 10
-1.9067686833
 20
19.2526757373
 10
-1.9516738899
 20
19.2879155569
 10
-1.996811096
 20
19.3195611799
 10
-2.0424303448
 20
19.3478301182
 10
-2.0885316363
 20
19.3727223717
  0
LINE
  5
29D
100
AcDbEntity
  8
0
100
AcDbLine
 62
7
  6
CONTINUOUS
 10
-1.6977247174
 20
19.0330042535
 11
-1.5896914046
 21
18.8905947859
  0
LINE
  5
29E
100
AcDbEntity
  8
0
100
AcDbLine
 62
7
  6
CONTINUOUS
 10
-1.5896914046
 20
18.8905947859
 11
-1.5358791452
 21
18.8191888091
  0
LINE
  5
29F
100
AcDbEntity
  8
0
100
AcDbLine
 62
7
  6
CONTINUOUS
 10
-1.0148576047
 20
18.1111663918
 11
-0.7664538673
 21
17.759055543
  0
LWPOLYLINE
  5
2A0
100
AcDbEntity
  8
RACCORDO
100
AcDbPolyline
 62
7
  6
CONTINUOUS
 90
4
 70
0
 10
10.4179224424
 20
14.1773294647
 10
10.4172354168
 20
14.1840319231
 10
10.415155009
 20
14.2059809405
 10
10.4131662221
 20
14.2297281443
  0
LWPOLYLINE
  5
2A1
100
AcDbEntity
  8
RACCORDO
100
AcDbPolyline
 62
250
  6
CONTINUOUS
 90
10
 70
0
 10
10.2704668095
 20
14.0932130647
 10
10.259977544
 20
14.2112291239
 10
10.2434657438
 20
14.3311222883
 10
10.2210042256
 20
14.4523774244
 10
10.1926949306
 20
14.5744620413
 10
10.1586596103
 20
14.6968648414
 10
10.1190335303
 20
14.8190979983
 10
10.0739795994
 20
14.9406500246
 10
10.0236934123
 20
15.0609879827
 10
9.9683895716
 20
15.1795960607
  0
LWPOLYLINE
  5
2A2
100
AcDbEntity
  8
RACCORDO
100
AcDbPolyline
 62
7
  6
CONTINUOUS
 90
10
 70
0
 10
10.4107645726
 20
14.2631091862
 10
10.4048254387
 20
14.3363924879
 10
10.3883715623
 20
14.4678465381
 10
10.3646313524
 20
14.5994666923
 10
10.3338295786
 20
14.7308077012
 10
10.2962292596
 20
14.8613808777
 10
10.2521290961
 20
14.990528454
 10
10.2018305876
 20
15.1176899524
 10
10.1456477399
 20
15.2423961273
 10
10.1344319638
 20
15.2655669973
  0
LWPOLYLINE
  5
2A3
100
AcDbEntity
  8
RACCORDO
100
AcDbPolyline
 62
7
  6
CONTINUOUS
 90
3
 70
0
 10
10.4131662221
 20
14.2297281443
 10
10.4112810707
 20
14.2555329834
 10
10.4107777116
 20
14.263127673
  0
LINE
  5
2A4
100
AcDbEntity
  8
RACCORDO
100
AcDbLine
 62
250
  6
CONTINUOUS
 10
10.2802707174
 20
13.9520274326
 11
10.2769087984
 21
13.9976532884
  0
LWPOLYLINE
  5
2A5
100
AcDbEntity
  8
RACCORDO
100
AcDbPolyline
 62
250
  6
CONTINUOUS
 90
3
 70
0
 10
10.2769087984
 20
13.9976532884
 10
10.2720495138
 20
14.068792458
 10
10.2704668095
 20
14.0932130647
  0
LINE
  5
2A6
100
AcDbEntity
  8
RACCORDO
100
AcDbLine
 62
250
  6
CONTINUOUS
 10
10.410958092
 20
14.2582857843
 11
10.4107645726
 21
14.2631091862
  0
LWPOLYLINE
  5
2A7
100
AcDbEntity
  8
RACCORDO
100
AcDbPolyline
 62
250
  6
CONTINUOUS
 90
13
 70
0
 10
10.9576755626
 20
13.5429730773
 10
10.9553906585
 20
13.6013678723
 10
10.946993145
 20
13.6617341842
 10
10.9326266586
 20
13.7230395231
 10
10.912536927
 20
13.7842353396
 10
10.8870675655
 20
13.844274962
 10
10.8566541978
 20
13.9021314986
 10
10.8218170095
 20
13.9568153933
 10
10.7831518471
 20
14.0073913573
 10
10.7413200237
 20
14.0529943684
 10
10.6970370152
 20
14.0928444554
 10
10.651060224
 20
14.1262600401
 10
10.6041760199
 20
14.1526696006
  0
LWPOLYLINE
  5
2A8
100
AcDbEntity
  8
RACCORDO
100
AcDbPolyline
 62
250
  6
CONTINUOUS
 90
8
 70
0
 10
10.9576755626
 20
-12.750229846
 10
10.9553906698
 20
-12.8048351731
 10
10.9469931882
 20
-12.855536251
 10
10.9326267456
 20
-12.901465906
 10
10.9125370604
 20
-12.9418385735
 10
10.8870677397
 20
-12.9759637332
 10
10.8566544019
 20
-13.0032577204
 10
10.8354175726
 20
-13.0166056889
  0
LINE
  5
2A9
100
AcDbEntity
  8
RACCORDO
100
AcDbLine
 62
250
  6
CONTINUOUS
 10
10.2704668095
 20
-14.0024830927
 11
10.2736595275
 21
-13.9559392041
  0
LINE
  5
2AA
100
AcDbEntity
  8
RACCORDO
100
AcDbLine
 62
250
  6
CONTINUOUS
 10
10.2736595275
 20
-13.9559392041
 11
10.2802707174
 21
-13.8607574533
  0
LWPOLYLINE
  5
2AB
100
AcDbEntity
  8
RACCORDO
100
AcDbPolyline
 62
7
  6
CONTINUOUS
 90
4
 70
0
 10
10.4106230262
 20
-13.8286996293
 10
10.412801076
 20
-13.799094213
 10
10.4154094596
 20
-13.7670682061
 10
10.4183669125
 20
-13.734147333
  0
LWPOLYLINE
  5
2AC
100
AcDbEntity
  8
RACCORDO
100
AcDbPolyline
 62
7
  6
CONTINUOUS
 90
19
 70
0
 10
10.4184056872
 20
-13.73387471
 10
10.4227719903
 20
-13.6970891478
 10
10.430992663
 20
-13.6491073101
 10
10.4425567526
 20
-13.5984364181
 10
10.4575351101
 20
-13.5458689202
 10
10.4758180031
 20
-13.4923959043
 10
10.4972682442
 20
-13.4387469934
 10
10.5216948904
 20
-13.3856111301
 10
10.5487179926
 20
-13.3338643984
 10
10.5779684105
 20
-13.2841509638
 10
10.6090255408
 20
-13.2370767718
 10
10.6412597975
 20
-13.1933832267
 10
10.6741693612
 20
-13.1534719374
 10
10.7071229948
 20
-13.1177835166
 10
10.7391287712
 20
-13.0869417488
 10
10.7695929644
 20
-13.0609769583
 10
10.7978066877
 20
-13.0399078972
 10
10.8225817177
 20
-13.0238993008
 10
10.8354010508
 20
-13.016614603
  0
LWPOLYLINE
  5
2AD
100
AcDbEntity
  8
RACCORDO
100
AcDbPolyline
 62
250
  6
CONTINUOUS
 90
4
 70
0
 10
10.2802707174
 20
-13.8607574532
 10
10.2910257329
 20
-13.7791363322
 10
10.306152409
 20
-13.69851082
 10
10.3256507459
 20
-13.6188809167
  0
LWPOLYLINE
  5
2AE
100
AcDbEntity
  8
0
100
AcDbPolyline
 62
250
  6
CONTINUOUS
 90
8
 70
0
 10
-17.8534145098
 20
20.1988712176
 10
-17.8908860882
 20
20.214657987
 10
-17.9277450163
 20
20.2256408917
 10
-17.9635879217
 20
20.2316997639
 10
-17.9980225628
 20
20.2327683239
 10
-18.030672096
 20
20.2288349033
 10
-18.0611792043
 20
20.219942584
 10
-18.0866139438
 20
20.2077286603
  0
LWPOLYLINE
  5
2AF
100
AcDbEntity
  8
0
100
AcDbPolyline
 62
7
  6
CONTINUOUS
 90
10
 70
0
 10
1.7619201976
 20
19.5223659527
 10
1.9085122228
 20
19.3179324178
 10
2.0540897144
 20
19.1123845681
 10
2.1986526725
 20
18.9057224037
 10
2.3422131352
 20
18.697928282
 10
2.4847590643
 20
18.4890198455
 10
2.6262543452
 20
18.279050022
 10
2.7666869399
 20
18.068036454
 10
2.9060688864
 20
17.8559614991
 10
3.0444001848
 20
17.6428251572
  0
LINE
  5
2B0
100
AcDbEntity
  8
0
100
AcDbLine
 62
7
  6
CONTINUOUS
 10
6.6584535586
 20
18.6737031307
 11
6.4569542007
 21
19.2694275565
  0
LINE
  5
2B1
100
AcDbEntity
  8
SMUSSO
100
AcDbLine
 62
250
  6
CONTINUOUS
 10
5.0080357353
 20
20.9579002663
 11
5.3555821584
 21
19.9119331625
  0
LWPOLYLINE
  5
2B2
100
AcDbEntity
  8
RACCORDO
100
AcDbPolyline
 62
7
  6
CONTINUOUS
 90
12
 70
0
 10
9.0141735152
 20
19.2656281684
 10
9.0127155416
 20
19.2787902304
 10
9.0103093704
 20
19.2912287589
 10
9.0069550016
 20
19.3029437537
 10
9.0026046395
 20
19.3140546395
 10
8.9973060798
 20
19.3244419918
 10
8.9912027097
 20
19.3337475365
 10
8.9842959437
 20
19.3418874093
 10
8.9765843672
 20
19.3489454746
 10
8.9682071241
 20
19.3548150521
 10
8.9591682413
 20
19.3594893028
 10
8.9519073877
 20
19.3622319698
  0
LWPOLYLINE
  5
2B3
100
AcDbEntity
  8
RACCORDO
100
AcDbPolyline
 62
250
  6
CONTINUOUS
 90
12
 70
0
 10
10.3256507459
 20
-13.6188809167
 10
10.3501275174
 20
-13.5393664475
 10
10.3789759496
 20
-13.4608475872
 10
10.4103757202
 20
-13.3859648593
 10
10.4442690218
 20
-13.3153247532
 10
10.4807136619
 20
-13.2483207795
 10
10.5180627409
 20
-13.1857739939
 10
10.5561514156
 20
-13.128005265
 10
10.5951445292
 20
-13.0746937241
 10
10.6338897125
 20
-13.0256978204
 10
10.6721549538
 20
-12.9812190586
 10
10.7101722647
 20
-12.941055934
  0
LWPOLYLINE
  5
2B4
100
AcDbEntity
  8
0
100
AcDbPolyline
 62
7
  6
CONTINUOUS
 90
10
 70
0
 10
1.1162665102
 20
20.3935953806
 10
1.0767945064
 20
20.4431688722
 10
1.0361822718
 20
20.4899238993
 10
0.9944298062
 20
20.5338604618
 10
0.9513508602
 20
20.5751405587
 10
0.9071316833
 20
20.613602191
 10
0.862331024
 20
20.6487593619
 10
0.8171351318
 20
20.6804500725
 10
0.7713577571
 20
20.7088363218
 10
0.7249989001
 20
20.7339181097
  0
LINE
  5
2B5
100
AcDbEntity
  8
0
100
AcDbLine
 62
7
  6
CONTINUOUS
 10
1.1162665102
 20
20.3935953806
 11
1.2308920579
 21
20.2422943274
  0
LINE
  5
2B6
100
AcDbEntity
  8
0
100
AcDbLine
 62
7
  6
CONTINUOUS
 10
1.2308920579
 20
20.2422943274
 11
1.2880036387
 21
20.1663768458
  0
LWPOLYLINE
  5
2B7
100
AcDbEntity
  8
RACCORDO
100
AcDbPolyline
 62
250
  6
CONTINUOUS
 90
3
 70
0
 10
10.4037404092
 20
-13.7759016111
 10
10.415383928
 20
-13.7499931316
 10
10.4183967475
 20
-13.7339701911
  0
LWPOLYLINE
  5
2B8
100
AcDbEntity
  8
RACCORDO
100
AcDbPolyline
 62
250
  6
CONTINUOUS
 90
7
 70
0
 10
10.119035612
 20
-14.5766386844
 10
10.1586604972
 20
-14.4939414613
 10
10.1926944062
 20
-14.4055428687
 10
10.2210031354
 20
-14.3117920138
 10
10.243464887
 20
-14.213076524
 10
10.25997714
 20
-14.1098268899
 10
10.2704668095
 20
-14.0024830927
  0
LINE
  5
2B9
100
AcDbEntity
  8
RACCORDO
100
AcDbLine
 62
250
  6
CONTINUOUS
 10
10.0739819057
 20
-14.6532855079
 11
10.119035612
 21
-14.5766386844
  0
LWPOLYLINE
  5
2BA
100
AcDbEntity
  8
RACCORDO
100
AcDbPolyline
 62
250
  6
CONTINUOUS
 90
8
 70
0
 10
10.7101722647
 20
-12.941055934
 10
10.7474853104
 20
-12.9044623822
 10
10.7838673788
 20
-12.8714912012
 10
10.8195451821
 20
-12.8420895929
 10
10.8547425219
 20
-12.815353099
 10
10.8895339989
 20
-12.7909802335
 10
10.9238450125
 20
-12.7692724825
 10
10.9576755626
 20
-12.750229846
  0
LINE
  5
2BB
100
AcDbEntity
  8
RACCORDO
100
AcDbLine
 62
250
  6
CONTINUOUS
 10
10.9576755626
 20
-12.750229846
 11
18.8354487871
 21
-8.4999904619
  0
LINE
  5
2BC
100
AcDbEntity
  8
RACCORDO
100
AcDbLine
 62
7
  6
CONTINUOUS
 10
10.8354175726
 20
-13.0166056889
 11
18.7131907972
 21
-8.7663663048
  0
LINE
  5
2BD
100
AcDbEntity
  8
RACCORDO
100
AcDbLine
 62
250
  6
CONTINUOUS
 10
3.1971919394
 20
-17.5817707432
 11
10.2802707174
 21
-13.8607574532
  0
LWPOLYLINE
  5
2BE
100
AcDbEntity
  8
RACCORDO
100
AcDbPolyline
 62
250
  6
CONTINUOUS
 90
5
 70
0
 10
10.280251087
 20
-13.860747968
 10
10.3217453008
 20
-13.8431047778
 10
10.3565259864
 20
-13.8228503199
 10
10.3840110264
 20
-13.8003235891
 10
10.4037404092
 20
-13.7759016111
  0
LINE
  5
2BF
100
AcDbEntity
  8
0
100
AcDbLine
 62
7
  6
CONTINUOUS
 10
7.7481436963
 20
18.7907225222
 11
7.6873199999
 21
18.7742572834
  0
LWPOLYLINE
  5
2C0
100
AcDbEntity
  8
0
100
AcDbPolyline
 62
7
  6
CONTINUOUS
 90
10
 70
0
 10
-7.2855657054
 20
21.9712394062
 10
-7.3316669968
 20
21.9924484442
 10
-7.3772862456
 20
22.0097987548
 10
-7.4224234517
 20
22.0232903378
 10
-7.4673286584
 20
22.0329557249
 10
-7.5117518223
 20
22.0387623845
 10
-7.5549428139
 20
22.0406127219
 10
-7.5966515898
 20
22.0384742057
 10
-7.6371281932
 20
22.0323793674
 10
-7.6763726243
 20
22.0223282069
  0
LINE
  5
2C1
100
AcDbEntity
  8
0
100
AcDbLine
 62
7
  6
CONTINUOUS
 10
-12.2180050151
 20
23.484831117
 11
-7.0205010487
 21
20.8860791338
  0
LINE
  5
2C2
100
AcDbEntity
  8
0
100
AcDbLine
 62
7
  6
CONTINUOUS
 10
-2.3535962929
 20
18.5526267558
 11
2.8439076735
 21
15.9538747727
  0
LINE
  5
2C3
100
AcDbEntity
  8
0
100
AcDbLine
 62
7
  6
CONTINUOUS
 10
-7.140582106
 20
21.0327222028
 11
-2.2335152357
 21
18.5791887676
  0
LINE
  5
2C4
100
AcDbEntity
  8
0
100
AcDbLine
 62
7
  6
CONTINUOUS
 10
-7.2855657054
 20
21.9712394062
 11
-2.0885316363
 21
19.3727223717
  0
LINE
  5
2C5
100
AcDbEntity
  8
0
100
AcDbLine
 62
7
  6
CONTINUOUS
 10
-0.6148181029
 20
20.2877542825
 11
-0.6475611222
 21
20.3117508922
  0
LWPOLYLINE
  5
2C6
100
AcDbEntity
  8
RACCORDO
100
AcDbPolyline
 62
7
  6
CONTINUOUS
 90
8
 70
0
 10
10.4350458948
 20
14.1050338198
 10
10.435379669
 20
14.1045202023
 10
10.4343265775
 20
14.106576276
 10
10.4314580977
 20
14.1133857199
 10
10.4276162674
 20
14.1249928195
 10
10.4235977712
 20
14.1409954544
 10
10.4199728688
 20
14.1611051171
 10
10.4179282587
 20
14.1773300583
  0
LWPOLYLINE
  5
2C7
100
AcDbEntity
  8
RACCORDO
100
AcDbPolyline
 62
7
  6
CONTINUOUS
 90
10
 70
0
 10
9.26760404
 20
16.9458774205
 10
9.3673377387
 20
16.7610908948
 10
9.4662297408
 20
16.5758012817
 10
9.5642744599
 20
16.3900190876
 10
9.661466322
 20
16.2037549097
 10
9.7577998673
 20
16.0170192421
 10
9.8532697471
 20
15.8298224741
 10
9.9478705908
 20
15.6421751485
 10
10.041597009
 20
15.4540879622
 10
10.1344436925
 20
15.2655715717
  0
LWPOLYLINE
  5
2C8
100
AcDbEntity
  8
RACCORDO
100
AcDbPolyline
 62
250
  6
CONTINUOUS
 90
13
 70
0
 10
9.9683895713
 20
15.1795960605
 10
9.8983053897
 20
15.3221042388
 10
9.8277243285
 20
15.4643648511
 10
9.7566487473
 20
15.6063732919
 10
9.6850777906
 20
15.7481313366
 10
9.6130170361
 20
15.8896280031
 10
9.540478716
 20
16.0308396676
 10
9.4674654631
 20
16.1717618436
 10
9.3939798964
 20
16.3123901101
 10
9.320034642
 20
16.4527011762
 10
9.2456359001
 20
16.5926844622
 10
9.1707832282
 20
16.7323419774
 10
9.0954795001
 20
16.8716694508
  0
LINE
  5
2C9
100
AcDbEntity
  8
RACCORDO
100
AcDbLine
 62
7
  6
CONTINUOUS
 10
9.3776226154
 20
22.5267027914
 11
9.557511871
 21
21.996121277
  0
LINE
  5
2CA
100
AcDbEntity
  8
RACCORDO
100
AcDbLine
 62
250
  6
CONTINUOUS
 10
18.8354487871
 20
17.4504066724
 11
18.8354487871
 21
-8.4999904619
  0
LINE
  5
2CB
100
AcDbEntity
  8
RACCORDO
100
AcDbLine
 62
7
  6
CONTINUOUS
 10
18.9757788869
 20
17.624071265
 11
18.9757788869
 21
-8.3263258693
  0
LWPOLYLINE
  5
2CC
100
AcDbEntity
  8
RACCORDO
100
AcDbPolyline
 62
250
  6
CONTINUOUS
 90
9
 70
0
 10
18.9757788869
 20
17.624071265
 10
18.9753156015
 20
17.6133117257
 10
18.9704150534
 20
17.5875505078
 10
18.9602148215
 20
17.5621805846
 10
18.9448241944
 20
17.5374737772
 10
18.9244080718
 20
17.5136948018
 10
18.8991851984
 20
17.4910984337
 10
18.8694258198
 20
17.4699267774
 10
18.8354487871
 20
17.4504066724
  0
LWPOLYLINE
  5
2CD
100
AcDbEntity
  8
RACCORDO
100
AcDbPolyline
 62
7
  6
CONTINUOUS
 90
9
 70
0
 10
10.0467600731
 20
-14.7280566789
 10
10.1255753547
 20
-14.6365197546
 10
10.1964862331
 20
-14.5344744106
 10
10.2592378023
 20
-14.4211076387
 10
10.3125150167
 20
-14.2972267563
 10
10.3550476142
 20
-14.164938951
 10
10.3864156518
 20
-14.0253079191
 10
10.406512948
 20
-13.8782926738
 10
10.4105999277
 20
-13.8286631129
  0
LWPOLYLINE
  5
2CE
100
AcDbEntity
  8
RACCORDO
100
AcDbPolyline
 62
250
  6
CONTINUOUS
 90
3
 70
0
 10
9.9683895716
 20
-14.7870989709
 10
10.0236951009
 20
-14.723540563
 10
10.0739819057
 20
-14.6532855079
  0
LINE
  5
2CF
100
AcDbEntity
  8
RACCORDO
100
AcDbLine
 62
7
  6
CONTINUOUS
 10
10.0461956593
 20
-14.7286767249
 11
10.0467751321
 21
-14.7280709851
  0
LWPOLYLINE
  5
2D0
100
AcDbEntity
  8
RACCORDO
100
AcDbPolyline
 62
250
  6
CONTINUOUS
 90
8
 70
0
 10
9.2953667315
 20
-15.4337255487
 10
9.3940666395
 20
-15.3454047928
 10
9.4919242782
 20
-15.2557259032
 10
9.5889340549
 20
-15.1646929862
 10
9.6850913405
 20
-15.0723092941
 10
9.780390572
 20
-14.9785790069
 10
9.8748252946
 20
-14.8835072969
 10
9.9683895713
 20
-14.7870989704
  0
LINE
  5
2D1
100
AcDbEntity
  8
RACCORDO
100
AcDbLine
 62
250
  6
CONTINUOUS
 10
9.1958311523
 20
-15.5206832765
 11
9.2953667315
 21
-15.4337255487
  0
LINE
  5
2D2
100
AcDbEntity
  8
RACCORDO
100
AcDbLine
 62
250
  6
CONTINUOUS
 10
9.0954660671
 20
-15.6062736067
 11
9.1958311523
 21
-15.5206832765
  0
LWPOLYLINE
  5
2D3
100
AcDbEntity
  8
RACCORDO
100
AcDbPolyline
 62
7
  6
CONTINUOUS
 90
10
 70
0
 10
9.1503123211
 20
-15.569361927
 10
9.2533172375
 20
-15.481521275
 10
9.3554722718
 20
-15.3922780185
 10
9.4567704654
 20
-15.3016366344
 10
9.5572044629
 20
-15.2096021082
 10
9.6567678836
 20
-15.1161786823
 10
9.7554552971
 20
-15.0213697779
 10
9.8532604065
 20
-14.9251796978
 10
9.950176074
 20
-14.8276137036
 10
10.0461956593
 20
-14.7286767249
  0
LINE
  5
2D4
100
AcDbEntity
  8
RACCORDO
100
AcDbLine
 62
250
  6
CONTINUOUS
 10
9.1503123212
 20
-15.569361927
 11
9.1300903838
 21
-15.5850027611
  0
LWPOLYLINE
  5
2D5
100
AcDbEntity
  8
RACCORDO
100
AcDbPolyline
 62
250
  6
CONTINUOUS
 90
5
 70
0
 10
9.0954660671
 20
-15.6062736067
 10
8.5328472584
 20
-15.9819295788
 10
7.9718576838
 20
-16.3434880852
 10
7.4126824764
 20
-16.6909644905
 10
6.8555065205
 20
-17.0243801963
  0
LWPOLYLINE
  5
2D6
100
AcDbEntity
  8
RACCORDO
100
AcDbPolyline
 62
250
  6
CONTINUOUS
 90
3
 70
0
 10
9.9683895713
 20
-14.7870989704
 10
10.0110301296
 20
-14.7599794916
 10
10.0461956593
 20
-14.7286767249
  0
LWPOLYLINE
  5
2D7
100
AcDbEntity
  8
RACCORDO
100
AcDbPolyline
 62
250
  6
CONTINUOUS
 90
8
 70
0
 10
18.7131907972
 20
-8.7663663048
 10
18.7344276265
 20
-8.7530183363
 10
18.7648409643
 20
-8.7257243491
 10
18.7903102849
 20
-8.6915991894
 10
18.8103999701
 20
-8.6512265219
 10
18.8247664128
 20
-8.6052968669
 10
18.8331638943
 20
-8.554595789
 10
18.8354487871
 20
-8.4999904619
  0
LINE
  5
2D8
100
AcDbEntity
  8
RACCORDO
100
AcDbLine
 62
250
  6
CONTINUOUS
 10
9.1300903838
 20
-15.5850027611
 11
9.0954789259
 21
-15.6062627732
  0
LWPOLYLINE
  5
2D9
100
AcDbEntity
  8
RACCORDO
100
AcDbPolyline
 62
250
  6
CONTINUOUS
 90
7
 70
0
 10
10.2704592797
 20
-14.0024787153
 10
10.3122649428
 20
-13.9774387975
 10
10.3473739488
 20
-13.9493335168
 10
10.3751991632
 20
-13.9186328809
 10
10.39527526
 20
-13.8858502992
 10
10.407266503
 20
-13.8515339976
 10
10.4106230262
 20
-13.8286996293
  0
LINE
  5
2DA
100
AcDbEntity
  8
RACCORDO
100
AcDbLine
 62
250
  6
CONTINUOUS
 10
6.8555065205
 20
-17.0243801963
 11
6.300514328
 21
-17.3437625026
  0
LINE
  5
2DB
100
AcDbEntity
  8
RACCORDO
100
AcDbLine
 62
250
  6
CONTINUOUS
 10
6.300514328
 20
-17.3437625026
 11
5.7478899168
 21
-17.6491444673
  0
LWPOLYLINE
  5
2DC
100
AcDbEntity
  8
RACCORDO
100
AcDbPolyline
 62
7
  6
CONTINUOUS
 90
10
 70
0
 10
5.7518111109
 20
-17.6470639605
 10
6.0175335115
 20
-17.5018186876
 10
6.4130170062
 20
-17.2803073371
 10
6.8096290593
 20
-17.0517620953
 10
7.207280853
 20
-16.8161920302
 10
7.6058864245
 20
-16.5736069555
 10
8.0053636556
 20
-16.3240107132
 10
8.4056234056
 20
-16.067411159
 10
8.8065690823
 20
-15.8038238138
 10
9.1087317864
 20
-15.6008390772
  0
LINE
  5
2DD
100
AcDbEntity
  8
RACCORDO
100
AcDbLine
 62
7
  6
CONTINUOUS
 10
5.7518189336
 20
-17.6470677656
 11
3.1971919394
 21
-18.9959742479
  0
LINE
  5
2DE
100
AcDbEntity
  8
RACCORDO
100
AcDbLine
 62
250
  6
CONTINUOUS
 10
3.1971919394
 20
-18.3432274354
 11
9.9683895713
 21
-14.7870989704
  0
LINE
  5
2DF
100
AcDbEntity
  8
RACCORDO
100
AcDbLine
 62
250
  6
CONTINUOUS
 10
9.1083823201
 20
-15.601074681
 11
9.0954787818
 21
-15.6062633863
  0
LWPOLYLINE
  5
2E0
100
AcDbEntity
  8
RACCORDO
100
AcDbPolyline
 62
7
  6
CONTINUOUS
 90
16
 70
0
 10
10.2512116517
 20
21.239065359
 10
10.3014705077
 20
21.2520309483
 10
10.4410250731
 20
21.2718157692
 10
10.5866481141
 20
21.2764257025
 10
10.7369433478
 20
21.2652896751
 10
10.8905892041
 20
21.2381584546
 10
11.0471778488
 20
21.194768435
 10
11.2055559862
 20
21.135080422
 10
11.3633403073
 20
21.0598960441
 10
11.5195429083
 20
20.9698200718
 10
11.6736137329
 20
20.8652591905
 10
11.8238239549
 20
20.7475469572
 10
11.9691659824
 20
20.6177871915
 10
12.1092009393
 20
20.4766487985
 10
12.2430487771
 20
20.3252454557
 10
12.3503276349
 20
20.1895073675
  0
LWPOLYLINE
  5
2E1
100
AcDbEntity
  8
RACCORDO
100
AcDbPolyline
 62
250
  6
CONTINUOUS
 90
24
 70
0
 10
10.2540552719
 20
21.237643549
 10
10.2870149429
 20
21.2451345997
 10
10.3881117248
 20
21.2583741006
 10
10.4932871534
 20
21.2625283543
 10
10.6003814407
 20
21.2574571642
 10
10.7089502584
 20
21.2433607367
 10
10.8185615884
 20
21.2204695723
 10
10.9268608519
 20
21.1896636902
 10
11.0331853616
 20
21.1517431748
 10
11.1373433802
 20
21.1073675828
 10
11.2376697009
 20
21.0579293973
 10
11.3333943774
 20
21.0046411504
 10
11.4247777164
 20
20.9481571825
 10
11.5117824017
 20
20.8892134191
 10
11.5941142786
 20
20.8287001332
 10
11.6718919443
 20
20.7671951669
 10
11.7457436866
 20
20.7047731607
 10
11.8156708002
 20
20.6419312842
 10
11.8816641916
 20
20.5791610195
 10
11.9443315122
 20
20.5163096026
 10
12.0036948549
 20
20.4537244992
 10
12.0597959816
 20
20.3917226796
 10
12.1132419267
 20
20.329943146
 10
12.1442170246
 20
20.2925626726
  0
LWPOLYLINE
  5
2E2
100
AcDbEntity
  8
0
100
AcDbPolyline
 62
7
  6
CONTINUOUS
 90
19
 70
0
 10
-1.0148576047
 20
18.1111663918
 10
-1.0556210078
 20
18.1080595965
 10
-1.0971117488
 20
18.1118811425
 10
-1.1393298277
 20
18.12263103
 10
-1.1829434116
 20
18.1406857246
 10
-1.2272843334
 20
18.1656687606
 10
-1.2703480917
 20
18.1964507404
 10
-1.3120760671
 20
18.2332978252
 10
-1.3525268791
 20
18.2759438537
 10
-1.3898718848
 20
18.3224609451
 10
-1.4239685333
 20
18.3730267741
 10
-1.4549593756
 20
18.4274636659
 10
-1.4814434217
 20
18.4833107149
 10
-1.5032138179
 20
18.5406326448
 10
-1.5204774178
 20
18.5993647319
 10
-1.5324537934
 20
18.6568518996
 10
-1.5388828018
 20
18.7122091222
 10
-1.5400245857
 20
18.7663214254
 10
-1.5358791452
 20
18.8191888091
  0
LWPOLYLINE
  5
2E3
100
AcDbEntity
  8
SMUSSO
100
AcDbPolyline
 62
7
  6
CONTINUOUS
 90
33
 70
0
 10
7.303449452
 20
18.232480394
 10
7.3541324057
 20
18.2317827166
 10
7.4352391509
 20
18.2316449813
 10
7.5158491099
 20
18.2325003465
 10
7.5961478705
 20
18.2343387371
 10
7.6760789218
 20
18.2371364946
 10
7.7555989888
 20
18.2408861377
 10
7.8347513465
 20
18.2455951477
 10
7.9136093088
 20
18.2512623095
 10
7.9922900285
 20
18.2578966133
 10
8.0706763529
 20
18.2654890689
 10
8.1484901371
 20
18.2740114917
 10
8.2255996211
 20
18.2834471185
 10
8.302136565
 20
18.2938127125
 10
8.3782181043
 20
18.3051303781
 10
8.4539336796
 20
18.3174088623
 10
8.5291938503
 20
18.3306394182
 10
8.6038474308
 20
18.3448179101
 10
8.6780106732
 20
18.3599797808
 10
8.7515673253
 20
18.3760895873
 10
8.8240174446
 20
18.3930368657
 10
8.8952233596
 20
18.4108007505
 10
8.9653227418
 20
18.429402107
 10
9.0342286636
 20
18.4487930676
 10
9.1018652278
 20
18.4689442492
 10
9.1683083315
 20
18.4898850347
 10
9.2336987393
 20
18.5116557053
 10
9.2980928388
 20
18.5342641323
 10
9.3614342422
 20
18.5577024442
 10
9.4236945508
 20
18.5819873082
 10
9.4848642981
 20
18.60712428
 10
9.5449529505
 20
18.6331078039
 10
9.6039605079
 20
18.65993788
  0
LINE
  5
2E4
100
AcDbEntity
  8
RACCORDO
100
AcDbLine
 62
250
  6
CONTINUOUS
 10
10.4117675493
 20
14.2488738359
 11
10.6041760199
 21
14.1526696006
  0
LINE
  5
2E5
100
AcDbEntity
  8
0
100
AcDbLine
 62
7
  6
CONTINUOUS
 10
-0.9653021796
 20
20.1258891213
 11
-5.7217893936
 21
22.5041327283
  0
LINE
  5
2E6
100
AcDbEntity
  8
0
100
AcDbLine
 62
7
  6
CONTINUOUS
 10
-0.6475611222
 20
20.3117508922
 11
-5.1910023135
 21
22.5834714878
  0
LINE
  5
2E7
100
AcDbEntity
  8
0
100
AcDbLine
 62
7
  6
CONTINUOUS
 10
-0.3113721005
 20
20.4278957023
 11
-2.9192817179
 21
21.731850511
  0
LINE
  5
2E8
100
AcDbEntity
  8
0
100
AcDbLine
 62
7
  6
CONTINUOUS
 10
0.7249989001
 20
20.7339181097
 11
0.5455415099
 21
20.8236468047
  0
LINE
  5
2E9
100
AcDbEntity
  8
0
100
AcDbLine
 62
7
  6
CONTINUOUS
 10
-4.2627846021
 20
23.2278098607
 11
-4.4422419922
 21
23.3175385558
  0
LINE
  5
2EA
100
AcDbEntity
  8
0
100
AcDbLine
 62
7
  6
CONTINUOUS
 10
1.4647803255
 20
20.4300313405
 11
-2.9192817179
 21
22.6220623622
  0
LINE
  5
2EB
100
AcDbEntity
  8
0
100
AcDbLine
 62
7
  6
CONTINUOUS
 10
1.7804788116
 20
20.6607340804
 11
-2.4578762382
 21
22.7799116053
  0
LWPOLYLINE
  5
2EC
100
AcDbEntity
  8
RACCORDO
100
AcDbPolyline
 62
250
  6
CONTINUOUS
 90
7
 70
0
 10
5.7478896038
 20
18.9539899549
 10
6.3004565318
 20
18.6138254686
 10
6.8554161475
 20
18.2706986411
 10
7.4125837132
 20
17.9247598177
 10
7.9717739602
 20
17.5761656439
 10
8.5328012101
 20
17.2250790867
 10
9.0954795001
 20
16.8716694508
  0
LINE
  5
2ED
100
AcDbEntity
  8
0
100
AcDbLine
 62
7
  6
CONTINUOUS
 10
2.6390674074
 20
20.8171074447
 11
2.9429376806
 21
20.5811190337
  0
LINE
  5
2EE
100
AcDbEntity
  8
0
100
AcDbLine
 62
7
  6
CONTINUOUS
 10
6.668948394
 20
18.668455713
 11
6.8239977541
 21
18.5252650291
  0
LINE
  5
2EF
100
AcDbEntity
  8
0
100
AcDbLine
 62
7
  6
CONTINUOUS
 10
8.508652021
 20
18.3270282144
 11
8.4223199999
 21
18.4067572834
  0
LWPOLYLINE
  5
2F0
100
AcDbEntity
  8
RACCORDO
100
AcDbPolyline
 62
250
  6
CONTINUOUS
 90
13
 70
0
 10
18.8354487871
 20
17.4504066724
 10
18.8331638943
 20
17.5088013422
 10
18.8247664128
 20
17.5691675486
 10
18.8103999701
 20
17.630472809
 10
18.7903102849
 20
17.6916685797
 10
18.7648409643
 20
17.7517081894
 10
18.7344276265
 20
17.8095647417
 10
18.6995904507
 20
17.864248678
 10
18.6609252799
 20
17.9148247036
 10
18.6190934296
 20
17.9604277836
 10
18.5748103773
 20
18.0002779388
 10
18.5288335249
 20
18.033693586
 10
18.4819492444
 20
18.0601031957
  0
LWPOLYLINE
  5
2F1
100
AcDbEntity
  8
RACCORDO
100
AcDbPolyline
 62
250
  6
CONTINUOUS
 90
9
 70
0
 10
18.975778858
 20
-8.3264109551
 10
18.9753627129
 20
-8.3365239188
 10
18.9705600574
 20
-8.3623522254
 10
18.9604225706
 20
-8.3878085902
 10
18.9450543453
 20
-8.412611071
 10
18.9246247191
 20
-8.4364819165
 10
18.8993582778
 20
-8.4591608229
 10
18.8695255874
 20
-8.4804066402
 10
18.8354487871
 20
-8.4999904619
  0
LWPOLYLINE
  5
2F2
100
AcDbEntity
  8
0
100
AcDbPolyline
 62
250
  6
CONTINUOUS
 90
16
 70
0
 10
-2.96647713
 20
-24.7820210957
 10
-3.005484736
 20
-24.8008755075
 10
-3.0477958096
 20
-24.8176010625
 10
-3.0929570115
 20
-24.8320185558
 10
-3.1404844649
 20
-24.8439735123
 10
-3.18986894
 20
-24.8533378412
 10
-3.2405813099
 20
-24.860011209
 10
-3.2920782203
 20
-24.8639221145
 10
-3.3438079108
 20
-24.8650286543
 10
-3.3952161269
 20
-24.8633189727
 10
-3.4457520587
 20
-24.8588113878
 10
-3.494874242
 20
-24.8515541958
 10
-3.5420563605
 20
-24.8416251534
 10
-3.5867928844
 20
-24.8291306445
 10
-3.6286044869
 20
-24.8142045409
 10
-3.6670431805
 20
-24.7970067672
  0
LINE
  5
2F3
100
AcDbEntity
  8
0
100
AcDbLine
 62
7
  6
CONTINUOUS
 10
2.6390674074
 20
20.8171074447
 11
1.7804788116
 21
20.6607340804
  0
LWPOLYLINE
  5
2F4
100
AcDbEntity
  8
0
100
AcDbPolyline
 62
7
  6
CONTINUOUS
 90
19
 70
0
 10
1.7619201976
 20
19.5223659527
 10
1.7251747378
 20
19.527297719
 10
1.6883166266
 20
19.5371603622
 10
1.6513458642
 20
19.5519538822
 10
1.6138400574
 20
19.5719596007
 10
1.5762215994
 20
19.596896196
 10
1.5397576692
 20
19.6259197034
 10
1.5044942268
 20
19.6591630214
 10
1.4703853122
 20
19.6964932516
 10
1.4385602251
 20
19.7366677332
 10
1.4090948448
 20
19.7797773832
 10
1.3819132921
 20
19.8257312848
 10
1.357917229
 20
19.8730140266
 10
1.3372085359
 20
19.9216837476
 10
1.3196853324
 20
19.971682309
 10
1.3059436388
 20
20.0213198823
 10
1.2961821288
 20
20.0700331915
 10
1.2902021287
 20
20.1183855127
 10
1.2880036387
 20
20.1663768458
  0
LWPOLYLINE
  5
2F5
100
AcDbEntity
  8
0
100
AcDbPolyline
 62
7
  6
CONTINUOUS
 90
5
 70
0
 10
9.0223145948
 20
19.1581614195
 10
9.0451863692
 20
19.1536516907
 10
9.1905120505
 20
19.1211126612
 10
9.3327071212
 20
19.0852822645
 10
9.4717909004
 20
19.0461808118
  0
LWPOLYLINE
  5
2F6
100
AcDbEntity
  8
RACCORDO
100
AcDbPolyline
 62
7
  6
CONTINUOUS
 90
8
 70
0
 10
8.9494636919
 20
19.3629750657
 10
8.9392205385
 20
19.3651861778
 10
8.928362068
 20
19.3660902975
 10
8.9169649936
 20
19.3657197664
 10
8.9053865171
 20
19.3640854462
 10
8.8937457058
 20
19.3611909574
 10
8.8819234924
 20
19.3570326795
 10
8.869919877
 20
19.3516106125
  0
LINE
  5
2F7
100
AcDbEntity
  8
0
100
AcDbLine
 62
7
  6
CONTINUOUS
 10
7.6873199999
 20
18.7742572834
 11
7.1639231408
 21
18.9159430864
  0
LWPOLYLINE
  5
2F8
100
AcDbEntity
  8
RACCORDO
100
AcDbPolyline
 62
7
  6
CONTINUOUS
 90
28
 70
0
 10
8.9519073877
 20
19.3622319698
 10
8.8556030202
 20
19.3915192655
 10
8.7407751191
 20
19.4225200939
 10
8.6231810172
 20
19.450189699
 10
8.5031576612
 20
19.474483469
 10
8.3810328816
 20
19.4953656307
 10
8.2571339099
 20
19.512806331
 10
8.1318295401
 20
19.5267772207
 10
8.0054416416
 20
19.5372632587
 10
7.8782378799
 20
19.5442562012
 10
7.7505620687
 20
19.5477454005
 10
7.6227658316
 20
19.5477273965
 10
7.4951306829
 20
19.5442037488
 10
7.3680049133
 20
19.5371808574
 10
7.2417338365
 20
19.5266725004
 10
7.1165913988
 20
19.5126909663
 10
6.9929208017
 20
19.4952586884
 10
6.8710623821
 20
19.4744051141
 10
6.751277158
 20
19.4501499405
 10
6.633894002
 20
19.4225274468
 10
6.5192510627
 20
19.3915809374
 10
6.4076072074
 20
19.357336124
 10
6.2992532436
 20
19.3198266884
 10
6.1945435222
 20
19.2791130386
 10
6.0937974116
 20
19.2352519007
 10
5.9972173633
 20
19.1882472869
 10
5.9052068437
 20
19.1381995329
 10
5.8601918675
 20
19.1108105678
  0
LINE
  5
2F9
100
AcDbEntity
  8
0
100
AcDbLine
 62
7
  6
CONTINUOUS
 10
9.4717909004
 20
19.0461808118
 11
9.5982893955
 21
19.0067360397
  0
LWPOLYLINE
  5
2FA
100
AcDbEntity
  8
0
100
AcDbPolyline
 62
7
  6
CONTINUOUS
 90
5
 70
0
 10
9.7216709555
 20
18.9645043018
 10
9.7380143973
 20
18.9588728135
 10
9.8651541151
 20
18.9106662678
 10
9.9875328758
 20
18.859729674
 10
10.0121910372
 20
18.8484722667
  0
LWPOLYLINE
  5
2FB
100
AcDbEntity
  8
0
100
AcDbPolyline
 62
7
  6
CONTINUOUS
 90
10
 70
0
 10
-4.4422419922
 20
23.3175385558
 10
-4.4886008493
 20
23.338815625
 10
-4.534378224
 20
23.3562067504
 10
-4.5795741162
 20
23.369711932
 10
-4.6243747755
 20
23.3793554204
 10
-4.6685939524
 20
23.385112965
 10
-4.7116728984
 20
23.3869118141
 10
-4.7534253639
 20
23.3847277171
 10
-4.7940375986
 20
23.3785849247
 10
-4.8335096023
 20
23.3684834368
  0
LWPOLYLINE
  5
2FC
100
AcDbEntity
  8
RACCORDO
100
AcDbPolyline
 62
7
  6
CONTINUOUS
 90
16
 70
0
 10
-3.5469732779
 20
23.8260745129
 10
-3.5758316288
 20
23.8396625525
 10
-3.6056941169
 20
23.8516047128
 10
-3.6365607423
 20
23.8619009938
 10
-3.6687156352
 20
23.8706587727
 10
-3.7018746654
 20
23.8777706724
 10
-3.7351854425
 20
23.8829145611
 10
-3.7684500362
 20
23.8860085719
 10
-3.8018663768
 20
23.8871345718
 10
-3.835175865
 20
23.8862160299
 10
-3.8686305973
 20
23.8831635348
 10
-3.9019784771
 20
23.878066498
 10
-3.9342046151
 20
23.8711166227
 10
-3.9649707148
 20
23.8623778099
 10
-3.9946150728
 20
23.8517861586
 10
-4.0231376889
 20
23.8393416687
  0
LINE
  5
2FD
100
AcDbEntity
  8
0
100
AcDbLine
 62
7
  6
CONTINUOUS
 10
6.668948394
 20
18.668455713
 11
5.9619794538
 21
19.021940183
  0
LINE
  5
2FE
100
AcDbEntity
  8
RACCORDO
100
AcDbLine
 62
7
  6
CONTINUOUS
 10
5.7310130673
 20
19.1870813403
 11
2.9429376806
 21
20.5811190337
  0
LINE
  5
2FF
100
AcDbEntity
  8
RACCORDO
100
AcDbLine
 62
7
  6
CONTINUOUS
 10
-1.3831097803
 20
22.7441427641
 11
-3.5469732779
 21
23.8260745129
  0
LINE
  5
300
100
AcDbEntity
  8
0
100
AcDbLine
 62
7
  6
CONTINUOUS
 10
2.6390674074
 20
20.8171074447
 11
-1.2030159827
 21
22.7381491398
  0
LINE
  5
301
100
AcDbEntity
  8
0
100
AcDbLine
 62
7
  6
CONTINUOUS
 10
7.1639231408
 20
18.9159430864
 11
6.4569542007
 21
19.2694275565
  0
LWPOLYLINE
  5
302
100
AcDbEntity
  8
RACCORDO
100
AcDbPolyline
 62
7
  6
CONTINUOUS
 90
3
 70
0
 10
5.7655727432
 20
19.1682955355
 10
5.7581523389
 20
19.1726705355
 10
5.7310130673
 20
19.1870813403
  0
LWPOLYLINE
  5
303
100
AcDbEntity
  8
RACCORDO
100
AcDbPolyline
 62
7
  6
CONTINUOUS
 90
7
 70
0
 10
8.3875127589
 20
17.5671340055
 10
7.9915991774
 20
17.8107155085
 10
7.5965487
 20
18.0531165078
 10
7.2024513313
 20
18.2942868147
 10
6.8093903871
 20
18.5341802138
 10
6.4174529675
 20
18.7727479281
 10
5.7653978533
 20
19.1682268944
  0
LINE
  5
304
100
AcDbEntity
  8
RACCORDO
100
AcDbLine
 62
7
  6
CONTINUOUS
 10
9.0913182454
 20
17.132513655
 11
8.3875127589
 21
17.5671340055
  0
LWPOLYLINE
  5
305
100
AcDbEntity
  8
RACCORDO
100
AcDbPolyline
 62
250
  6
CONTINUOUS
 90
7
 70
0
 10
9.5775876317
 20
18.9983377087
 10
9.6242695392
 20
18.9596848968
 10
9.6685023987
 20
18.9185844706
 10
9.71028621
 20
18.87503643
 10
9.7502324777
 20
18.8288228764
 10
9.7877296973
 20
18.7801617085
 10
9.8055763418
 20
18.7530507533
  0
LWPOLYLINE
  5
306
100
AcDbEntity
  8
RACCORDO
100
AcDbPolyline
 62
7
  6
CONTINUOUS
 90
5
 70
0
 10
9.8948877339
 20
18.7942977139
 10
9.8550055729
 20
18.8399031162
 10
9.800456241
 20
18.8951242859
 10
9.7408081179
 20
18.9489500297
 10
9.682619206
 20
18.9962447201
  0
LINE
  5
307
100
AcDbEntity
  8
0
100
AcDbLine
 62
250
  6
CONTINUOUS
 10
-2.6258969489
 20
-25.0317907457
 11
3.1971919394
 21
-22.5874945563
  0
LINE
  5
308
100
AcDbEntity
  8
0
100
AcDbLine
 62
7
  6
CONTINUOUS
 10
3.0559261857
 20
-22.8634258458
 11
-2.780132042
 21
-25.3131654437
  0
LINE
  5
309
100
AcDbEntity
  8
0
100
AcDbLine
 62
7
  6
CONTINUOUS
 10
-1.2030159827
 20
22.7381491398
 11
-2.4578762382
 21
22.7799116053
  0
LWPOLYLINE
  5
30A
100
AcDbEntity
  8
RACCORDO
100
AcDbPolyline
 62
250
  6
CONTINUOUS
 90
7
 70
0
 10
4.1807262509
 20
25.3300250732
 10
4.1502562118
 20
25.3396153961
 10
4.1178540907
 20
25.3442490754
 10
4.083867054
 20
25.3438764645
 10
4.0486592492
 20
25.3385015556
 10
4.0126079036
 20
25.3281819372
 10
3.9760992823
 20
25.3130281767
  0
LWPOLYLINE
  5
30B
100
AcDbEntity
  8
RACCORDO
100
AcDbPolyline
 62
250
  6
CONTINUOUS
 90
6
 70
0
 10
3.9760992823
 20
25.3130281767
 10
3.9307194517
 20
25.3327506226
 10
3.8860102462
 20
25.3446780043
 10
3.8427363567
 20
25.34860632
 10
3.8016379245
 20
25.3444683813
 10
3.7603014836
 20
25.3309305316
  0
LINE
  5
30C
100
AcDbEntity
  8
RACCORDO
100
AcDbLine
 62
250
  6
CONTINUOUS
 10
4.1935357226
 20
25.3242098416
 11
4.1807262509
 21
25.3300250732
  0
LWPOLYLINE
  5
30D
100
AcDbEntity
  8
RACCORDO
100
AcDbPolyline
 62
250
  6
CONTINUOUS
 90
8
 70
0
 10
18.6993267062
 20
18.0713143368
 10
18.6871431161
 20
18.0768668249
 10
18.6566180078
 20
18.0865739056
 10
18.6241314144
 20
18.0912962425
 10
18.5900457558
 20
18.0909785688
 10
18.5547336287
 20
18.0856259074
 10
18.5185714662
 20
18.0752968146
 10
18.4819492444
 20
18.0601031957
  0
LINE
  5
30E
100
AcDbEntity
  8
RACCORDO
100
AcDbLine
 62
250
  6
CONTINUOUS
 10
18.6993856847
 20
18.0712848605
 11
18.6993267062
 21
18.0713143368
  0
LINE
  5
30F
100
AcDbEntity
  8
ASSI
100
AcDbLine
 62
7
  6
CONTINUOUS
 10
12.6218987903
 20
20.0537217898
 11
9.557511871
 21
21.5859152494
  0
LINE
  5
310
100
AcDbEntity
  8
RACCORDO
100
AcDbLine
 62
250
  6
CONTINUOUS
 10
3.9760992823
 20
25.3130281767
 11
8.862585201
 21
22.8697852174
  0
LINE
  5
311
100
AcDbEntity
  8
RACCORDO
100
AcDbLine
 62
250
  6
CONTINUOUS
 10
13.5954633257
 20
20.503346155
 11
18.4819492444
 21
18.0601031957
  0
LINE
  5
312
100
AcDbEntity
  8
RACCORDO
100
AcDbLine
 62
7
  6
CONTINUOUS
 10
4.1935357226
 20
25.3242098416
 11
9.0800216413
 21
22.8809668822
  0
LINE
  5
313
100
AcDbEntity
  8
RACCORDO
100
AcDbLine
 62
7
  6
CONTINUOUS
 10
13.7787736848
 20
20.5315908604
 11
18.6993856847
 21
18.0712848605
  0
ARC
  5
314
100
AcDbEntity
  8
RACCORDO
100
AcDbCircle
 62
7
  6
CONTINUOUS
 10
8.8281559872
 20
-15.1869814563
 40
0.5
100
AcDbArc
 50
304.1339465231
 51
310.1160266228
  0
ARC
  5
315
100
AcDbEntity
  8
RACCORDO
100
AcDbCircle
 62
7
  6
CONTINUOUS
 10
8.8281560904
 20
16.7073713322
 40
0.5
100
AcDbArc
 50
28.4908960622
 51
58.2438339031
  0
ARC
  5
316
100
AcDbEntity
  8
RACCORDO
100
AcDbCircle
 62
7
  6
CONTINUOUS
 10
3.9699289248
 20
24.8769962461
 40
0.5
100
AcDbArc
 50
63.4349488229
 51
114.7875540508
  0
ARC
  5
317
100
AcDbEntity
  8
RACCORDO
100
AcDbCircle
 62
7
  6
CONTINUOUS
 10
18.4757788869
 20
-8.3263258693
 40
0.5
100
AcDbArc
 50
298.3311206083
 51
359.9902498828
  0
ARC
  5
318
100
AcDbEntity
  8
RACCORDO
100
AcDbCircle
 62
7
  6
CONTINUOUS
 10
18.4757788869
 20
17.624071265
 40
0.5
100
AcDbArc
 50
0.0
 51
63.4425043173
  0
ELLIPSE
  5
319
100
AcDbEntity
  8
0
100
AcDbEllipse
 62
7
  6
CONTINUOUS
 10
-12.2176820344
 20
23.0510626814
 30
0.0
 11
-0.2234618187
 21
0.4480306886
 31
0.0
 40
0.6116748051
 41
-0.6831523243
 42
0.0399382621
  0
ELLIPSE
  5
31A
100
AcDbEntity
  8
0
100
AcDbEllipse
 62
7
  6
CONTINUOUS
 10
2.8435846927
 20
15.5204293179
 30
0.0
 11
-0.2230998035
 21
0.4477110033
 31
0.0
 40
0.6127700112
 41
-2.2535417632
 42
-0.6836588249
  0
ELLIPSE
  5
31B
100
AcDbEntity
  8
0
100
AcDbEllipse
 62
7
  6
CONTINUOUS
 10
2.8435846927
 20
-22.4102948814
 30
0.0
 11
-0.2234618187
 21
0.4480306886
 31
0.0
 40
0.6116748051
 41
-3.1815309152
 42
-2.2548620396
  0
ELLIPSE
  5
31C
100
AcDbEntity
  8
DRAFT
100
AcDbEllipse
 62
7
  6
CONTINUOUS
 10
8.0408733905
 20
17.9955830337
 30
0.0
 11
2.7999338239
 21
-0.0393479794
 31
0.0
 40
0.4892375088
 41
0.7445903341
 42
1.2222216513
  0
ELLIPSE
  5
31D
100
AcDbEntity
  8
DRAFT
100
AcDbEllipse
 62
7
  6
CONTINUOUS
 10
7.3337666093
 20
18.4891567945
 30
0.0
 11
2.7499831596
 21
-0.0194567514
 31
0.0
 40
0.4946372042
 41
2.3771474383
 42
2.4135344603
  0
ELLIPSE
  5
31E
100
AcDbEntity
  8
RACCORDO
100
AcDbEllipse
 62
7
  6
CONTINUOUS
 10
13.4123816409
 20
20.155769888
 30
0.0
 11
0.3844411895
 21
0.3625425262
 31
0.0
 40
0.3387915654
 41
0.1234442882
 42
0.7907100735
  0
ELLIPSE
  5
31F
100
AcDbEntity
  8
RACCORDO
100
AcDbEllipse
 62
7
  6
CONTINUOUS
 10
9.0333261709
 20
22.345297623
 30
0.0
 11
-0.101414107
 21
0.5477079641
 31
0.0
 40
0.681940014
 41
4.9216045036
 42
6.4749475379
  0
ENDSEC
  0
SECTION
  2
OBJECTS
  0
DICTIONARY
  5
C
100
AcDbDictionary
280
0
281
1
  3
ACAD_GROUP
350
D
  3
ACAD_MLINESTYLE
350
17
  3
ACAD_LAYOUT
350
1A
  3
ACAD_PLOTSETTINGS
350
19
  3
ACAD_PLOTSTYLENAME
350
E
  0
DICTIONARY
  5
D
102
{ACAD_REACTORS
330
C
102
}
100
AcDbDictionary
280
0
281
1
  0
ACDBDICTIONARYWDFLT
  5
E
102
{ACAD_REACTORS
330
C
102
}
100
AcDbDictionary
281
1
  3
Normal
350
F
100
AcDbDictionaryWithDefault
340
F
  0
DICTIONARY
  5
17
102
{ACAD_REACTORS
330
C
102
}
100
AcDbDictionary
280
0
281
1
  3
Standard
350
18
  0
DICTIONARY
  5
19
102
{ACAD_REACTORS
330
C
102
}
100
AcDbDictionary
281
1
  0
DICTIONARY
  5
1A
102
{ACAD_REACTORS
330
C
102
}
100
AcDbDictionary
281
1
  3
Model
350
320
  3
Layout1
350
321
  0
ACDBPLACEHOLDER
  5
F
102
{ACAD_REACTORS
330
E
102
}
  0
MLINESTYLE
  5
18
102
{ACAD_REACTORS
330
17
102
}
100
AcDbMlineStyle
  2
STANDARD
 70
0
  3

 62
256
 51
90.0
 52
90.0
 71
2
 49
0.5
 62
256
  6
BYLAYER
 49
-0.5
 62
256
  6
BYLAYER
  0
LAYOUT
  5
320
102
{ACAD_REACTORS
330
1A
102
}
100
AcDbPlotSettings
  1

  2
none_device
  4
ISO_A4_(297.00_x_210.00_MM)
  6

 40
0.0
 41
0.0
 42
0.0
 43
0.0
 44
297.0
 45
210.0
 46
0.0
 47
0.0
 48
0.0
 49
0.0
140
0.0
141
0.0
142
1.0
143
1.0
 70
1024
 72
1
 73
0
 74
0
  7

 75
0
147
1.0
148
0.0
149
0.0
100
AcDbLayout
  1
Model
 70
0
 71
0
 10
0.0
 20
0.0
 11
297.0
 21
210.0
 12
0.0
 22
0.0
 32
0.0
 14
0.0
 24
0.0
 34
0.0
 15
0.0
 25
0.0
 35
0.0
146
0.0
 13
0.0
 23
0.0
 33
0.0
 16
1.0
 26
0.0
 36
0.0
 17
0.0
 27
1.0
 37
0.0
 76
0
330
213
345
0
346
0
  0
LAYOUT
  5
321
102
{ACAD_REACTORS
330
1A
102
}
100
AcDbPlotSettings
  1

  2
none_device
  4
ISO_A4_(297.00_x_210.00_MM)
  6

 40
0.0
 41
0.0
 42
0.0
 43
0.0
 44
297.0
 45
210.0
 46
0.0
 47
0.0
 48
0.0
 49
0.0
140
0.0
141
0.0
142
1.0
143
1.0
 70
0
 72
1
 73
0
 74
0
  7

 75
0
147
1.0
148
0.0
149
0.0
100
AcDbLayout
  1
Layout1
 70
0
 71
1
 10
0.0
 20
0.0
 11
297.0
 21
210.0
 12
0.0
 22
0.0
 32
0.0
 14
0.0
 24
0.0
 34
0.0
 15
0.0
 25
0.0
 35
0.0
146
0.0
 13
0.0
 23
0.0
 33
0.0
 16
1.0
 26
0.0
 36
0.0
 17
0.0
 27
1.0
 37
0.0
 76
0
330
214
345
0
346
0
  0
ENDSEC
  0
EOF
