0
SECTION
2
HEADER
9
$ACADVER
1
AC1015
9
$DWGCODEPAGE
3
ANSI_1252
9
$EXTMAX
10
297.0000000000
20
210.0000000000
30
0.0000000000
9
$EXTMIN
10
0.0000000000
20
0.0000000000
30
0.0000000000
9
$LIMMIN
10
0.0000000000
20
0.0000000000
9
$LIMMAX
10
297.0000000000
20
210.0000000000
9
$VIEWCTR
10
148.5000000000
20
105.0000000000
9
$VIEWSIZE
40
210.0000000000
9
$CLAYER
8
0
9
$LTSCALE
40
16.3350000000
9
$CELTYPE
6
BYLAYER
9
$DIMSCALE
40
1
9
$DIMASZ
40
3.0000000000
9
$DIMEXO
40
1.8562500000
9
$DIMDLI
40
11.2860000000
9
$DIMEXE
40
5.3460000000
9
$DIMCEN
40
2.6730000000
9
$DIMLFAC
40
1.0000000000
9
$DIMBLK
1
_FILLED
9
$DIMTXT
40
3.0000000000
9
$DIMTOL
70
1
9
$DIMLIM
70
0
9
$DIMTFAC
40
1.0000000000
9
$DIMTP
40
0.0100000000
9
$DIMTM
40
0.0100000000
9
$PDMODE
70
3
9
$PDSIZE
40
3.0000000000
9
$HANDSEED
5
3B1
9
$MEASUREMENT
70
1
9
$INSUNITS
70
4
0
ENDSEC
0
SECTION
2
CLASSES
0
CLASS
1
ACDBDICTIONARYWDFLT
2
AcDbDictionaryWithDefault
3
AutoCAD 2000
90
0
280
0
281
0
0
CLASS
1
ACDBPLACEHOLDER
2
AcDbPlaceHolder
3
AutoCAD 2000
90
0
280
0
281
0
0
CLASS
1
LAYOUT
2
AcDbLayout
3
AutoCAD 2000
90
0
280
0
281
0
0
ENDSEC
0
SECTION
2
TABLES
0
TABLE
2
VPORT
5
8
100
AcDbSymbolTable
70
2
0
VPORT
5
1F4
100
AcDbSymbolTableRecord
100
AcDbViewportTableRecord
2
*ACTIVE
70
0
10
0.0
20
0.0
11
1.0
21
1.0
12
148.5000000000
22
105.0000000000
13
0.0
23
0.0
14
1.0
24
1.0
15
0.0
25
0.0
16
0.0
26
0.0
36
1.0
17
0.0
27
0.0
37
0.0
40
210.0000000000
41
1.4142857143
42
50.0
43
0.0
44
0.0
50
0.0
51
0.0
71
0
72
100
73
1
74
1
75
0
76
0
77
0
78
0
0
ENDTAB
0
TABLE
2
LTYPE
5
5
100
AcDbSymbolTable
70
6
0
LTYPE
5
14
100
AcDbSymbolTableRecord
100
AcDbLinetypeTableRecord
2
BYBLOCK
70
0
3

72
65
73
0
40
0.0
0
LTYPE
5
15
100
AcDbSymbolTableRecord
100
AcDbLinetypeTableRecord
2
BYLAYER
70
0
3

72
65
73
0
40
0.0
0
LTYPE
5
16
100
AcDbSymbolTableRecord
100
AcDbLinetypeTableRecord
2
CONTINUOUS
70
64
3
Solid line
72
65
73
0
40
0
0
LTYPE
5
1F5
100
AcDbSymbolTableRecord
100
AcDbLinetypeTableRecord
2
CENTER
70
64
3
____ _ ____ _ ____ _ ____ _ ____ _ ____ _ ____
72
65
73
4
40
0.6
49
0.375
74
0
49
-0.075
74
0
49
0.075
74
0
49
-0.075
74
0
0
LTYPE
5
1F6
100
AcDbSymbolTableRecord
100
AcDbLinetypeTableRecord
2
HIDDEN
70
64
3
- - - - - - - - - - - - - - - - - - - -
72
65
73
2
40
0.2
49
0.1
74
0
49
-0.1
74
0
0
LTYPE
5
1F7
100
AcDbSymbolTableRecord
100
AcDbLinetypeTableRecord
2
PHANTOM
70
64
3
_____ _ _ _____ _ _ _____ _ _ _____
72
65
73
6
40
0.8
49
0.45
74
0
49
-0.05
74
0
49
0.1
74
0
49
-0.05
74
0
49
0.1
74
0
49
-0.05
74
0
0
LTYPE
5
1F8
100
AcDbSymbolTableRecord
100
AcDbLinetypeTableRecord
2
DOT
70
64
3
. . . . . . . . . . . . . . . . . . . .
72
65
73
2
40
0.2
49
0.1
74
0
49
-0.1
74
0
0
LTYPE
5
1F9
100
AcDbSymbolTableRecord
100
AcDbLinetypeTableRecord
2
DASHED
70
64
3
- - - - - - - - - - - - - - - - - - - -
72
65
73
2
40
0.2
49
0.1
74
0
49
-0.1
74
0
0
ENDTAB
0
TABLE
2
LAYER
5
2
100
AcDbSymbolTable
70
36
0
LAYER
5
10
100
AcDbSymbolTableRecord
100
AcDbLayerTableRecord
2
0
70
0
62
7
6
CONTINUOUS
370
-3
390
F
0
LAYER
5
1FA
100
AcDbSymbolTableRecord
100
AcDbLayerTableRecord
2
DEFAULT_1
70
0
62
7
6
CENTER
370
-3
390
F
0
LAYER
5
1FB
100
AcDbSymbolTableRecord
100
AcDbLayerTableRecord
2
DEFAULT_2
70
0
62
9
6
HIDDEN
370
-3
390
F
0
LAYER
5
1FC
100
AcDbSymbolTableRecord
100
AcDbLayerTableRecord
2
DEFAULT_3
70
0
62
7
6
PHANTOM
370
-3
390
F
0
LAYER
5
1FD
100
AcDbSymbolTableRecord
100
AcDbLayerTableRecord
2
_BLACK_HOLE
70
0
62
7
6
CONTINUOUS
370
-3
390
F
0
LAYER
5
1FE
100
AcDbSymbolTableRecord
100
AcDbLayerTableRecord
2
ASSI
70
0
62
7
6
CONTINUOUS
370
-3
390
F
0
LAYER
5
1FF
100
AcDbSymbolTableRecord
100
AcDbLayerTableRecord
2
COORDINATE
70
0
62
7
6
CONTINUOUS
370
-3
390
F
0
LAYER
5
200
100
AcDbSymbolTableRecord
100
AcDbLayerTableRecord
2
COORD_ORIGINE
70
0
62
7
6
CONTINUOUS
370
-3
390
F
0
LAYER
5
201
100
AcDbSymbolTableRecord
100
AcDbLayerTableRecord
2
COPY_PUBLISH
70
0
62
7
6
CONTINUOUS
370
-3
390
F
0
LAYER
5
202
100
AcDbSymbolTableRecord
100
AcDbLayerTableRecord
2
COSMETIC
70
0
62
7
6
CONTINUOUS
370
-3
390
F
0
LAYER
5
203
100
AcDbSymbolTableRecord
100
AcDbLayerTableRecord
2
CURVE
70
0
62
7
6
CONTINUOUS
370
-3
390
F
0
LAYER
5
204
100
AcDbSymbolTableRecord
100
AcDbLayerTableRecord
2
DRAFT
70
0
62
7
6
CONTINUOUS
370
-3
390
F
0
LAYER
5
205
100
AcDbSymbolTableRecord
100
AcDbLayerTableRecord
2
IMPORTATE
70
0
62
7
6
CONTINUOUS
370
-3
390
F
0
LAYER
5
206
100
AcDbSymbolTableRecord
100
AcDbLayerTableRecord
2
IMPORT_IGES
70
0
62
7
6
CONTINUOUS
370
-3
390
F
0
LAYER
5
207
100
AcDbSymbolTableRecord
100
AcDbLayerTableRecord
2
PIANI
70
0
62
7
6
CONTINUOUS
370
-3
390
F
0
LAYER
5
208
100
AcDbSymbolTableRecord
100
AcDbLayerTableRecord
2
PIANI_ORIGINE
70
0
62
7
6
CONTINUOUS
370
-3
390
F
0
LAYER
5
209
100
AcDbSymbolTableRecord
100
AcDbLayerTableRecord
2
PUNTI
70
0
62
7
6
CONTINUOUS
370
-3
390
F
0
LAYER
5
20A
100
AcDbSymbolTableRecord
100
AcDbLayerTableRecord
2
RACCORDO
70
0
62
7
6
CONTINUOUS
370
-3
390
F
0
LAYER
5
20B
100
AcDbSymbolTableRecord
100
AcDbLayerTableRecord
2
SMUSSO
70
0
62
7
6
CONTINUOUS
370
-3
390
F
0
LAYER
5
20C
100
AcDbSymbolTableRecord
100
AcDbLayerTableRecord
2
TRASH
70
0
62
7
6
CONTINUOUS
370
-3
390
F
0
ENDTAB
0
TABLE
2
STYLE
5
3
100
AcDbSymbolTable
70
1
0
STYLE
5
11
100
AcDbSymbolTableRecord
100
AcDbTextStyleTableRecord
2
STANDARD
70
0
40
0.0
41
0.8000000000
50
0.0
71
0
42
0.2
3
txt
4

0
ENDTAB
0
TABLE
2
VIEW
5
6
100
AcDbSymbolTable
70
0
0
ENDTAB
0
TABLE
2
UCS
5
7
100
AcDbSymbolTable
70
0
0
ENDTAB
0
TABLE
2
APPID
5
9
100
AcDbSymbolTable
70
1
0
APPID
5
20D
100
AcDbSymbolTableRecord
100
AcDbRegAppTableRecord
2
ACAD
70
0
0
ENDTAB
0
TABLE
2
BLOCK_RECORD
5
1
100
AcDbSymbolTable
70
0
0
BLOCK_RECORD
5
1F
100
AcDbSymbolTableRecord
100
AcDbBlockTableRecord
2
*MODEL_SPACE
0
BLOCK_RECORD
5
1B
100
AcDbSymbolTableRecord
100
AcDbBlockTableRecord
2
*PAPER_SPACE
0
ENDTAB
0
TABLE
2
DIMSTYLE
5
A
100
AcDbSymbolTable
70
1
100
AcDbDimStyleTable
71
0
0
DIMSTYLE
105
20E
100
AcDbSymbolTableRecord
100
AcDbDimStyleTableRecord
2
STANDARD
70
0
3

4

40
1.0
41
3.0000000000
42
0.0625
43
0.38
44
0.18
45
0.0
46
0.0
47
0.0100000000
48
0.0100000000
140
3.0000000000
141
0.09
142
0.0
143
25.4
144
1.0000000000
145
0.0
146
1.0000000000
147
0.09
71
1
72
0
73
0
74
0
75
0
76
0
77
1
78
8
170
0
171
2
172
0
173
0
174
0
175
0
176
0
177
0
178
0
270
2
271
2
272
2
273
2
274
2
275
0
280
0
281
0
282
0
283
1
284
8
285
0
286
0
287
3
288
0
340
11
0
ENDTAB
0
ENDSEC
0
SECTION
2
BLOCKS
0
BLOCK
5
20
100
AcDbEntity
8
0
100
AcDbBlockBegin
2
*MODEL_SPACE
70
0
10
0.0
20
0.0
30
0.0
3
*MODEL_SPACE
1

0
ENDBLK
5
21
100
AcDbEntity
8
0
100
AcDbBlockEnd
0
BLOCK
5
1C
100
AcDbEntity
8
0
100
AcDbBlockBegin
2
*PAPER_SPACE
70
0
10
0.0
20
0.0
30
0.0
3
*PAPER_SPACE
1

0
ENDBLK
5
1D
100
AcDbEntity
8
0
100
AcDbBlockEnd
0
ENDSEC
0
SECTION
2
ENTITIES
0
LWPOLYLINE
5
20F
100
AcDbEntity
8
0
100
AcDbPolyline
62
9
6
CONTINUOUS
90
4
70
0
10
-22.6049726197
20
26.5106469426
10
-22.7739494242
20
26.4147789759
10
-22.9263801364
20
26.2948656475
10
-23.0628842308
20
26.1496724612
0
LWPOLYLINE
5
210
100
AcDbEntity
8
0
100
AcDbPolyline
62
9
6
CONTINUOUS
90
4
70
0
10
-23.1752942908
20
25.9832004599
10
-23.2521213734
20
25.8108065530
10
-23.2922919998
20
25.6406189501
10
-23.2985029466
20
25.5739247073
0
LINE
5
211
100
AcDbEntity
8
0
100
AcDbLine
62
9
6
CONTINUOUS
10
-23.0628842308
20
26.1496724612
11
-23.1752942908
21
25.9832004599
0
LINE
5
212
100
AcDbEntity
8
0
100
AcDbLine
62
9
6
CONTINUOUS
10
-22.6053762429
20
26.5104756448
11
-15.6540214190
21
29.7643979762
0
LINE
5
213
100
AcDbEntity
8
0
100
AcDbLine
62
9
6
CONTINUOUS
10
-22.4160631573
20
26.4014500304
11
-15.4623014950
21
29.6564990005
0
LINE
5
214
100
AcDbEntity
8
0
100
AcDbLine
62
9
6
CONTINUOUS
10
-1.6560823179
20
31.3449336224
11
-6.3149770438
21
29.4429478151
0
LINE
5
215
100
AcDbEntity
8
0
100
AcDbLine
62
9
6
CONTINUOUS
10
-1.6072601530
20
31.3593188267
11
-6.3034937484
21
29.4420894897
0
LINE
5
216
100
AcDbEntity
8
0
100
AcDbLine
62
9
6
CONTINUOUS
10
-0.9001533718
20
31.4932934229
11
-5.9831987026
21
29.4181488563
0
LINE
5
217
100
AcDbEntity
8
0
100
AcDbLine
62
9
6
CONTINUOUS
10
-1.6563660890
20
31.3447103023
11
-1.6072601530
21
31.3593188267
0
LWPOLYLINE
5
218
100
AcDbEntity
8
0
100
AcDbPolyline
62
9
6
CONTINUOUS
90
6
70
0
10
-1.0666091612
20
-31.4507737618
10
-0.9311632017
20
-31.4837050180
10
-0.7841139844
20
-31.4931011516
10
-0.6312963722
20
-31.4774314766
10
-0.4840921032
20
-31.4393547701
10
-0.4694960831
20
-31.4343586281
0
LINE
5
219
100
AcDbEntity
8
0
100
AcDbLine
62
9
6
CONTINUOUS
10
-1.1908728283
20
-31.3953226220
11
-1.0666091612
21
-31.4507737618
0
LINE
5
21A
100
AcDbEntity
8
0
100
AcDbLine
62
9
6
CONTINUOUS
10
-11.6371111951
20
24.9716167987
11
-9.4720476856
21
25.9481450155
0
LINE
5
21B
100
AcDbEntity
8
0
100
AcDbLine
62
9
6
CONTINUOUS
10
-11.6371111951
20
25.7494342580
11
-9.4720476856
21
26.6178906660
0
LINE
5
21C
100
AcDbEntity
8
0
100
AcDbLine
62
9
6
CONTINUOUS
10
-23.2985590206
20
-4.1736979821
11
-23.2984853544
21
-4.1750438493
0
LWPOLYLINE
5
21D
100
AcDbEntity
8
0
100
AcDbPolyline
62
9
6
CONTINUOUS
90
10
70
0
10
-23.2986152535
20
25.5719307033
10
-23.4393015541
20
22.4354117642
10
-23.5562027959
20
19.0124997642
10
-23.6340911210
20
15.6053617072
10
-23.6729560635
20
12.2143500633
10
-23.6727957573
20
8.8397551603
10
-23.6336100829
20
5.4818426655
10
-23.5554006242
20
2.1409012036
10
-23.4381775791
20
-1.1827257087
10
-23.2985590206
20
-4.1736979821
0
LINE
5
21E
100
AcDbEntity
8
0
100
AcDbLine
62
9
6
CONTINUOUS
10
-6.2373689339
20
25.4293779693
11
-6.6421957440
21
25.2641081162
0
LINE
5
21F
100
AcDbEntity
8
0
100
AcDbLine
62
9
6
CONTINUOUS
10
-4.6623689339
20
23.5004047969
11
-5.0671957440
21
23.3351349437
0
LINE
5
220
100
AcDbEntity
8
0
100
AcDbLine
62
9
6
CONTINUOUS
10
-8.6371111951
20
22.0751996438
11
-6.4720476856
21
22.9436560518
0
LWPOLYLINE
5
221
100
AcDbEntity
8
0
100
AcDbPolyline
62
9
6
CONTINUOUS
90
5
70
0
10
-23.2984806696
20
-4.1750435835
10
-23.2884547440
20
-4.2638074538
10
-23.2638557869
20
-4.3632694352
10
-23.2258033408
20
-4.4570802321
10
-23.1755367665
20
-4.5428783247
0
LINE
5
222
100
AcDbEntity
8
0
100
AcDbLine
62
9
6
CONTINUOUS
10
-3.3233679116
20
23.3071054369
11
-3.7373689339
21
23.0647492482
0
LINE
5
223
100
AcDbEntity
8
0
100
AcDbLine
62
9
6
CONTINUOUS
10
-1.9553941147
20
23.4008104843
11
-3.7373689339
21
22.3576424670
0
LINE
5
224
100
AcDbEntity
8
0
100
AcDbLine
62
9
6
CONTINUOUS
10
-3.7103892781
20
22.3245992719
11
-4.3278253585
21
21.9634857433
0
LINE
5
225
100
AcDbEntity
8
0
100
AcDbLine
62
9
6
CONTINUOUS
10
-4.3774562054
20
21.9903743345
11
-4.2837725008
21
22.0286205468
0
LINE
5
226
100
AcDbEntity
8
0
100
AcDbLine
62
9
6
CONTINUOUS
10
4.0929963764
20
25.3779588766
11
12.9218254380
21
28.9823132478
0
LINE
5
227
100
AcDbEntity
8
0
100
AcDbLine
62
9
6
CONTINUOUS
10
4.5498466282
20
24.8184338738
11
13.6777543841
21
28.5448866107
0
LINE
5
228
100
AcDbEntity
8
0
100
AcDbLine
62
9
6
CONTINUOUS
10
-8.1504425213
20
21.4791546815
11
-4.6915019589
21
22.8750059071
0
LWPOLYLINE
5
229
100
AcDbEntity
8
0
100
AcDbPolyline
62
9
6
CONTINUOUS
90
3
70
0
10
-1.3938924262
20
-31.2234603175
10
-1.3004546080
20
-31.3192733061
10
-1.1908728283
20
-31.3953226220
0
LINE
5
22A
100
AcDbEntity
8
0
100
AcDbLine
62
9
6
CONTINUOUS
10
-1.3901874083
20
-31.2280820601
11
-23.1416856937
21
-4.5880460899
0
LINE
5
22B
100
AcDbEntity
8
0
100
AcDbLine
62
9
6
CONTINUOUS
10
-1.4813321982
20
-30.9780019980
11
-23.2318672607
21
-4.3391457301
0
LINE
5
22C
100
AcDbEntity
8
0
100
AcDbLine
62
9
6
CONTINUOUS
10
-23.1755367665
20
-4.5428783247
11
-23.1407430456
21
-4.5891655765
0
LWPOLYLINE
5
22D
100
AcDbEntity
8
0
100
AcDbPolyline
62
9
6
CONTINUOUS
90
20
70
0
10
-20.3912957271
20
10.8330635280
10
-20.3460777375
20
10.8533266785
10
-20.2072914336
20
10.8689562940
10
-20.0075757695
20
10.8299785810
10
-19.7509249755
20
10.7215317497
10
-19.4467244722
20
10.5356037867
10
-19.1056561085
20
10.2690208691
10
-18.7402268437
20
9.9241650395
10
-18.3552422301
20
9.5005162676
10
-17.9530620527
20
8.9949385890
10
-17.5441445460
20
8.4146801176
10
-17.1397457149
20
7.7722079772
10
-16.7466958473
20
7.0772227929
10
-16.3700494526
20
6.3374181668
10
-16.0166840014
20
5.5651898096
10
-15.6914321516
20
4.7714134420
10
-15.3985339630
20
3.9669282500
10
-15.1426135633
20
3.1650348840
10
-14.9260859110
20
2.3745879968
10
-14.7519572839
20
1.6084878309
0
LINE
5
22E
100
AcDbEntity
8
0
100
AcDbLine
62
9
6
CONTINUOUS
10
-4.8230852292
20
17.5325021158
11
2.1273851078
21
20.4355371823
0
LINE
5
22F
100
AcDbEntity
8
0
100
AcDbLine
62
9
6
CONTINUOUS
10
-3.1792596636
20
19.4212326246
11
0.1840263630
21
20.7805662265
0
LINE
5
230
100
AcDbEntity
8
0
100
AcDbLine
62
9
6
CONTINUOUS
10
-1.3902096897
20
-31.2280547710
11
-1.3938236559
21
-31.2235592024
0
LINE
5
231
100
AcDbEntity
8
0
100
AcDbLine
62
9
6
CONTINUOUS
10
-16.7305068042
20
3.3519316410
11
-16.7305068042
21
3.7064939508
0
LINE
5
232
100
AcDbEntity
8
0
100
AcDbLine
62
9
6
CONTINUOUS
10
-16.7305068042
20
5.2556872893
11
-16.7305068042
21
5.6102495992
0
LINE
5
233
100
AcDbEntity
8
0
100
AcDbLine
62
9
6
CONTINUOUS
10
-16.6305068042
20
5.4877751120
11
-16.6305068042
21
5.1332128022
0
LINE
5
234
100
AcDbEntity
8
0
100
AcDbLine
62
9
6
CONTINUOUS
10
-16.6305068042
20
3.5840194637
11
-16.6305068042
21
3.2294571539
0
LINE
5
235
100
AcDbEntity
8
0
100
AcDbLine
62
9
6
CONTINUOUS
10
-5.0512328333
20
16.9055960515
11
-4.9630730894
21
16.9425503487
0
LINE
5
236
100
AcDbEntity
8
0
100
AcDbLine
62
9
6
CONTINUOUS
10
-20.3900445887
20
10.8337297058
11
-20.3474310588
21
10.8514307341
0
LINE
5
237
100
AcDbEntity
8
0
100
AcDbLine
62
9
6
CONTINUOUS
10
-4.9630730894
20
17.1511762479
11
2.3981428427
21
20.1563800679
0
LINE
5
238
100
AcDbEntity
8
0
100
AcDbLine
62
9
6
CONTINUOUS
10
-4.4630730894
20
16.5388038122
11
2.8981428427
21
19.5440076322
0
LINE
5
239
100
AcDbEntity
8
0
100
AcDbLine
62
9
6
CONTINUOUS
10
-4.3331692789
20
16.0261513958
11
2.8981428427
21
18.9783222073
0
LINE
5
23A
100
AcDbEntity
8
0
100
AcDbLine
62
9
6
CONTINUOUS
10
-19.6411139653
20
9.6919312627
11
-18.8404908758
21
10.0187842703
0
LINE
5
23B
100
AcDbEntity
8
0
100
AcDbLine
62
9
6
CONTINUOUS
10
-4.1465667385
20
15.7976108915
11
3.1713479235
21
18.7851370420
0
LINE
5
23C
100
AcDbEntity
8
0
100
AcDbLine
62
9
6
CONTINUOUS
10
-14.4956715115
20
-0.6544777373
11
-14.4956962761
21
-0.6486164126
0
LINE
5
23D
100
AcDbEntity
8
0
100
AcDbLine
62
9
6
CONTINUOUS
10
-14.4956715115
20
-0.6544777373
11
-14.4997920473
21
-0.8889072099
0
LINE
5
23E
100
AcDbEntity
8
0
100
AcDbLine
62
9
6
CONTINUOUS
10
-14.4997920473
20
-0.8889072099
11
-14.5361203879
21
-1.3611911808
0
LWPOLYLINE
5
23F
100
AcDbEntity
8
0
100
AcDbPolyline
62
9
6
CONTINUOUS
90
7
70
0
10
-14.5361203879
20
-1.3611911808
10
-14.6024716384
20
-1.7393138164
10
-14.6855441991
20
-2.0163603989
10
-14.7743660523
20
-2.2075775245
10
-14.8639985195
20
-2.3318732413
10
-14.9473858048
20
-2.3950828115
10
-14.9812260556
20
-2.4061576649
0
LINE
5
240
100
AcDbEntity
8
0
100
AcDbLine
62
9
6
CONTINUOUS
10
-1.9630730894
20
13.4769416337
11
5.3981428427
21
16.4821454537
0
LWPOLYLINE
5
241
100
AcDbEntity
8
0
100
AcDbPolyline
62
9
6
CONTINUOUS
90
5
70
0
10
-14.7519572839
20
1.6084878309
10
-14.6233706069
20
0.8857433213
10
-14.5401830035
20
0.2185013030
10
-14.5001707854
20
-0.3879758965
10
-14.4956449445
20
-0.6486164832
0
LINE
5
242
100
AcDbEntity
8
0
100
AcDbLine
62
9
6
CONTINUOUS
10
-11.6371111951
20
24.9716167987
11
-11.6371111951
21
25.7494342580
0
LINE
5
243
100
AcDbEntity
8
0
100
AcDbLine
62
9
6
CONTINUOUS
10
-0.3871111951
20
11.1932369955
11
1.7779523144
21
12.1697652123
0
LINE
5
244
100
AcDbEntity
8
0
100
AcDbLine
62
9
6
CONTINUOUS
10
5.3242350338
20
15.6354761362
11
5.8981428427
21
15.8697730180
0
LINE
5
245
100
AcDbEntity
8
0
100
AcDbLine
62
9
6
CONTINUOUS
10
-16.3459040373
20
6.2846519037
11
-17.2852499611
21
5.9011655362
0
LINE
5
246
100
AcDbEntity
8
0
100
AcDbLine
62
9
6
CONTINUOUS
10
-17.3923402350
20
5.3623783982
11
-17.4789427754
21
5.3270230592
0
LINE
5
247
100
AcDbEntity
8
0
100
AcDbLine
62
9
6
CONTINUOUS
10
-16.1464173918
20
5.8487031033
11
-16.7305068042
21
5.6102495992
0
LINE
5
248
100
AcDbEntity
8
0
100
AcDbLine
62
9
6
CONTINUOUS
10
-16.0834550168
20
5.7111080690
11
-16.6305068042
21
5.4877751120
0
LINE
5
249
100
AcDbEntity
8
0
100
AcDbLine
62
9
6
CONTINUOUS
10
-17.2282293617
20
5.1613844479
11
-16.8089687965
21
5.3325468569
0
LINE
5
24A
100
AcDbEntity
8
0
100
AcDbLine
62
9
6
CONTINUOUS
10
-16.7305068042
20
5.2556872893
11
-16.6305068042
21
5.2965121184
0
LINE
5
24B
100
AcDbEntity
8
0
100
AcDbLine
62
9
6
CONTINUOUS
10
-17.2282293617
20
5.0199630917
11
-16.6305068042
21
5.2639823039
0
LINE
5
24C
100
AcDbEntity
8
0
100
AcDbLine
62
9
6
CONTINUOUS
10
-0.3871111951
20
11.9710544548
11
1.7779523144
21
12.8395108628
0
LINE
5
24D
100
AcDbEntity
8
0
100
AcDbLine
62
9
6
CONTINUOUS
10
-5.6200733703
20
-9.6776683627
11
-5.0739560727
21
-9.9547169096
0
LINE
5
24E
100
AcDbEntity
8
0
100
AcDbLine
62
9
6
CONTINUOUS
10
-15.8820708331
20
3.3712623376
11
-16.1327842467
21
3.6783223052
0
LINE
5
24F
100
AcDbEntity
8
0
100
AcDbLine
62
9
6
CONTINUOUS
10
-17.2282293617
20
5.0199630917
11
-17.4789427754
21
5.3270230592
0
LINE
5
250
100
AcDbEntity
8
0
100
AcDbLine
62
9
6
CONTINUOUS
10
-9.4720476856
20
25.9481450155
11
-9.4720476856
21
26.6178906660
0
LINE
5
251
100
AcDbEntity
8
0
100
AcDbLine
62
9
6
CONTINUOUS
10
-8.6371111951
20
21.2973821845
11
-8.6371111951
21
22.0751996438
0
LINE
5
252
100
AcDbEntity
8
0
100
AcDbLine
62
9
6
CONTINUOUS
10
-6.8888531974
20
25.5662005672
11
-6.8643485898
21
26.1873947634
0
LINE
5
253
100
AcDbEntity
8
0
100
AcDbLine
62
9
6
CONTINUOUS
10
-16.7305068042
20
3.7064939508
11
-16.1460298568
21
3.9451056654
0
LINE
5
254
100
AcDbEntity
8
0
100
AcDbLine
62
9
6
CONTINUOUS
10
-16.6305068042
20
3.5840194637
11
-16.1128638850
21
3.7953463005
0
LINE
5
255
100
AcDbEntity
8
0
100
AcDbLine
62
9
6
CONTINUOUS
10
-16.1327842467
20
3.6783223052
11
-16.0461817064
21
3.7136776442
0
LINE
5
256
100
AcDbEntity
8
0
100
AcDbLine
62
9
6
CONTINUOUS
10
-16.6305068042
20
3.3927564701
11
-16.7305068042
21
3.3519316410
0
LINE
5
257
100
AcDbEntity
8
0
100
AcDbLine
62
9
6
CONTINUOUS
10
-15.3260130371
20
3.7396933385
11
-15.8820708331
21
3.5126836939
0
LINE
5
258
100
AcDbEntity
8
0
100
AcDbLine
62
9
6
CONTINUOUS
10
-15.2860817586
20
3.6145738584
11
-15.8820708331
21
3.3712623376
0
LINE
5
259
100
AcDbEntity
8
0
100
AcDbLine
62
9
6
CONTINUOUS
10
-15.1862273116
20
3.3016929053
11
-16.0757636474
21
2.9385412169
0
LINE
5
25A
100
AcDbEntity
8
0
100
AcDbLine
62
9
6
CONTINUOUS
10
5.3376310661
20
11.2529560830
11
4.9328042560
21
11.0876862298
0
LINE
5
25B
100
AcDbEntity
8
0
100
AcDbLine
62
9
6
CONTINUOUS
10
22.6777543841
20
17.5221827681
11
13.5498466282
21
13.7957300313
0
LINE
5
25C
100
AcDbEntity
8
0
100
AcDbLine
62
9
6
CONTINUOUS
10
-17.4789427754
20
5.4684444154
11
-17.2282293617
21
5.1613844479
0
LINE
5
25D
100
AcDbEntity
8
0
100
AcDbLine
62
9
6
CONTINUOUS
10
-16.1327842467
20
3.8197436614
11
-15.8820708331
21
3.5126836939
0
LINE
5
25E
100
AcDbEntity
8
0
100
AcDbLine
62
9
6
CONTINUOUS
10
-6.8373689339
20
26.1543515683
11
-6.8373689339
21
26.8614583495
0
LINE
5
25F
100
AcDbEntity
8
0
100
AcDbLine
62
9
6
CONTINUOUS
10
-6.5873689339
20
25.8580386743
11
-6.5873689339
21
25.2864910676
0
LINE
5
260
100
AcDbEntity
8
0
100
AcDbLine
62
9
6
CONTINUOUS
10
-4.9630730894
20
16.8051111710
11
-4.9630730894
21
17.1511762479
0
LINE
5
261
100
AcDbEntity
8
0
100
AcDbLine
62
9
6
CONTINUOUS
10
-4.0003453769
20
22.6750341765
11
-4.0572111024
21
22.1211138503
0
LINE
5
262
100
AcDbEntity
8
0
100
AcDbLine
62
9
6
CONTINUOUS
10
6.9126310661
20
9.3239829105
11
6.5295301639
21
9.1675826221
0
LINE
5
263
100
AcDbEntity
8
0
100
AcDbLine
62
9
6
CONTINUOUS
10
3.0995574787
20
7.7007748783
11
6.5584980411
21
9.0966261040
0
LINE
5
264
100
AcDbEntity
8
0
100
AcDbLine
62
9
6
CONTINUOUS
10
2.6128888049
20
8.2968198407
11
4.7779523144
21
9.1652762487
0
LINE
5
265
100
AcDbEntity
8
0
100
AcDbLine
62
9
6
CONTINUOUS
10
-3.2456825690
20
-14.4317731216
11
-3.2456962761
21
-14.4269962158
0
LINE
5
266
100
AcDbEntity
8
0
100
AcDbLine
62
9
6
CONTINUOUS
10
-4.4630730894
20
16.5388038122
11
-4.4630730894
21
16.1852504216
0
LINE
5
267
100
AcDbEntity
8
0
100
AcDbLine
62
9
6
CONTINUOUS
10
-3.9873689339
20
22.6737020087
11
-3.9873689339
21
22.1626050120
0
LINE
5
268
100
AcDbEntity
8
0
100
AcDbLine
62
9
6
CONTINUOUS
10
-3.7373689339
20
22.3576424670
11
-3.7373689339
21
23.0647492482
0
LINE
5
269
100
AcDbEntity
8
0
100
AcDbLine
62
9
6
CONTINUOUS
10
-3.2456715115
20
-14.4328575404
11
-3.2497920473
21
-14.6672870130
0
LINE
5
26A
100
AcDbEntity
8
0
100
AcDbLine
62
9
6
CONTINUOUS
10
-6.0749786082
20
-8.5633826484
11
-5.8787884168
21
-7.9832883381
0
LINE
5
26B
100
AcDbEntity
8
0
100
AcDbLine
62
9
6
CONTINUOUS
10
7.9266320884
20
9.5287256338
11
7.5126310661
21
9.2863694450
0
LINE
5
26C
100
AcDbEntity
8
0
100
AcDbLine
62
9
6
CONTINUOUS
10
9.2946058853
20
9.6224306812
11
7.5126310661
21
8.5792626638
0
LINE
5
26D
100
AcDbEntity
8
0
100
AcDbLine
62
9
6
CONTINUOUS
10
7.5396107219
20
8.5462194687
11
6.9221746415
21
8.1851059402
0
LINE
5
26E
100
AcDbEntity
8
0
100
AcDbLine
62
9
6
CONTINUOUS
10
23.6777543841
20
14.8832243344
11
21.9457035765
21
14.1761175532
0
LINE
5
26F
100
AcDbEntity
8
0
100
AcDbLine
62
9
6
CONTINUOUS
10
21.9457035765
20
14.1761175532
11
15.4158720320
21
11.5103249881
0
LINE
5
270
100
AcDbEntity
8
0
100
AcDbLine
62
9
6
CONTINUOUS
10
22.9027543841
20
14.4181880473
11
22.5819641710
21
14.2872259912
0
LINE
5
271
100
AcDbEntity
8
0
100
AcDbLine
62
9
6
CONTINUOUS
10
-15.1055402892
20
-1.4179099346
11
-14.5221636343
21
-1.1797474125
0
LINE
5
272
100
AcDbEntity
8
0
100
AcDbLine
62
9
6
CONTINUOUS
10
23.6777543841
20
13.4690107720
11
21.9457035765
21
12.7619039908
0
LINE
5
273
100
AcDbEntity
8
0
100
AcDbLine
62
9
6
CONTINUOUS
10
-14.9420470234
20
-2.3907815728
11
-14.9824563697
21
-2.4069605459
0
LINE
5
274
100
AcDbEntity
8
0
100
AcDbLine
62
9
6
CONTINUOUS
10
-1.9630730894
20
13.1233882431
11
-1.9630730894
21
13.4769416337
0
LINE
5
275
100
AcDbEntity
8
0
100
AcDbLine
62
9
6
CONTINUOUS
10
-0.3871111951
20
11.1932369955
11
-0.3871111951
21
11.9710544548
0
LINE
5
276
100
AcDbEntity
8
0
100
AcDbLine
62
9
6
CONTINUOUS
10
-3.2497920473
20
-14.6672870130
11
-3.2861203879
21
-15.1395709839
0
LWPOLYLINE
5
277
100
AcDbEntity
8
0
100
AcDbPolyline
62
9
6
CONTINUOUS
90
7
70
0
10
-3.2861203879
20
-15.1395709839
10
-3.3524716384
20
-15.5176936195
10
-3.4355441991
20
-15.7947402021
10
-3.5243660523
20
-15.9859573276
10
-3.6139985195
20
-16.1102530444
10
-3.6973858048
20
-16.1734626147
10
-3.7312260556
20
-16.1845374681
0
LWPOLYLINE
5
278
100
AcDbEntity
8
0
100
AcDbPolyline
62
9
6
CONTINUOUS
90
24
70
0
10
-9.1412957271
20
-2.9453162751
10
-9.0960777375
20
-2.9250531247
10
-8.9572914336
20
-2.9094235092
10
-8.7575757695
20
-2.9484012222
10
-8.5009249755
20
-3.0568480535
10
-8.1967244722
20
-3.2427760164
10
-7.8556561085
20
-3.5093589341
10
-7.4902268437
20
-3.8542147636
10
-7.1052422301
20
-4.2778635356
10
-6.7030620527
20
-4.7834412141
10
-6.2941445460
20
-5.3636996856
10
-5.8897457149
20
-6.0061718260
10
-5.4966958473
20
-6.7011570102
10
-5.1200494526
20
-7.4409616363
10
-4.7666840014
20
-8.2131899935
10
-4.4414321516
20
-9.0069663611
10
-4.1485339630
20
-9.8114515531
10
-3.8926135633
20
-10.6133449191
10
-3.6760859110
20
-11.4037918063
10
-3.5019572839
20
-12.1698919723
10
-3.3733706069
20
-12.8926364819
10
-3.2901830035
20
-13.5598785002
10
-3.2501707854
20
-14.1663556997
10
-3.2456449445
20
-14.4269962864
0
LINE
5
279
100
AcDbEntity
8
0
100
AcDbLine
62
9
6
CONTINUOUS
10
-0.6572650406
20
-0.2475263707
11
6.4380791048
21
2.8341201795
0
LINE
5
27A
100
AcDbEntity
8
0
100
AcDbLine
62
9
6
CONTINUOUS
10
12.7064194527
20
5.8004054593
11
6.3441708790
21
3.0514648045
0
LINE
5
27B
100
AcDbEntity
8
0
100
AcDbLine
62
9
6
CONTINUOUS
10
-9.1400445887
20
-2.9446500974
11
-9.0974310588
21
-2.9269490690
0
LINE
5
27C
100
AcDbEntity
8
0
100
AcDbLine
62
9
6
CONTINUOUS
10
8.0707403364
20
5.6428528214
11
11.4340263630
21
7.0021864233
0
LINE
5
27D
100
AcDbEntity
8
0
100
AcDbLine
62
9
6
CONTINUOUS
10
-23.2318672607
20
25.3852393134
11
-1.4813321982
21
-1.2536169544
0
LINE
5
27E
100
AcDbEntity
8
0
100
AcDbLine
62
9
6
CONTINUOUS
10
-22.4160631573
20
26.4014500304
11
-0.6572650406
21
-0.2475263707
0
LINE
5
27F
100
AcDbEntity
8
0
100
AcDbLine
62
9
6
CONTINUOUS
10
1.7779523144
20
12.1697652123
11
1.7779523144
21
12.8395108628
0
LINE
5
280
100
AcDbEntity
8
0
100
AcDbLine
62
9
6
CONTINUOUS
10
2.1273851078
20
20.5221664790
11
2.1273851078
21
20.4355371823
0
LINE
5
281
100
AcDbEntity
8
0
100
AcDbLine
62
9
6
CONTINUOUS
10
2.6128888049
20
7.5190023813
11
2.6128888049
21
8.2968198407
0
LINE
5
282
100
AcDbEntity
8
0
100
AcDbLine
62
9
6
CONTINUOUS
10
2.8981428427
20
19.5440076322
11
2.8981428427
21
18.9783222073
0
LINE
5
283
100
AcDbEntity
8
0
100
AcDbLine
62
9
6
CONTINUOUS
10
-0.3921980966
20
-0.9005682142
11
6.6878888049
21
2.1744518170
0
LINE
5
284
100
AcDbEntity
8
0
100
AcDbLine
62
9
6
CONTINUOUS
10
18.9998466282
20
7.1208704822
11
7.3431446932
21
2.3620418448
0
LINE
5
285
100
AcDbEntity
8
0
100
AcDbLine
62
9
6
CONTINUOUS
10
-8.1686583741
20
-4.9375374473
11
-6.9698128379
21
-4.4481108067
0
LINE
5
286
100
AcDbEntity
8
0
100
AcDbLine
62
9
6
CONTINUOUS
10
7.6030485216
20
0.3134466001
11
19.7069534094
21
5.2548450784
0
LINE
5
287
100
AcDbEntity
8
0
100
AcDbLine
62
9
6
CONTINUOUS
10
7.2755507981
20
0.9339848173
11
6.6878888049
21
0.7261154704
0
LINE
5
288
100
AcDbEntity
8
0
100
AcDbLine
62
9
6
CONTINUOUS
10
4.4126310661
20
12.3759717652
11
4.4126310661
21
13.0830785463
0
LINE
5
289
100
AcDbEntity
8
0
100
AcDbLine
62
9
6
CONTINUOUS
10
4.6626310661
20
12.0796588711
11
4.6626310661
21
11.4185794585
0
LINE
5
28A
100
AcDbEntity
8
0
100
AcDbLine
62
9
6
CONTINUOUS
10
4.3611468026
20
11.7878207640
11
4.3856514102
21
12.4090149603
0
LINE
5
28B
100
AcDbEntity
8
0
100
AcDbLine
62
9
6
CONTINUOUS
10
7.8700476423
20
-0.5712266118
11
6.6878888049
21
-1.0680249622
0
LINE
5
28C
100
AcDbEntity
8
0
100
AcDbLine
62
9
6
CONTINUOUS
10
7.9738356119
20
-1.1296180772
11
6.6878888049
21
-1.6696824667
0
LINE
5
28D
100
AcDbEntity
8
0
100
AcDbLine
62
9
6
CONTINUOUS
10
7.9673411500
20
-1.0161241806
11
19.9998466282
21
3.8961256108
0
LINE
5
28E
100
AcDbEntity
8
0
100
AcDbLine
62
9
6
CONTINUOUS
10
-5.7687557867
20
-7.8462257378
11
-5.5206507459
21
-7.7449372790
0
LINE
5
28F
100
AcDbEntity
8
0
100
AcDbLine
62
9
6
CONTINUOUS
10
5.8981428427
20
15.8697730180
11
5.8981428427
21
15.5925790740
0
LINE
5
290
100
AcDbEntity
8
0
100
AcDbLine
62
9
6
CONTINUOUS
10
6.6878888049
20
-28.7965015533
11
6.6878888049
21
2.1744518170
0
LINE
5
291
100
AcDbEntity
8
0
100
AcDbLine
62
9
6
CONTINUOUS
10
7.2626310661
20
8.8953222055
11
7.2626310661
21
8.3842252089
0
LINE
5
292
100
AcDbEntity
8
0
100
AcDbLine
62
9
6
CONTINUOUS
10
7.5126310661
20
8.5792626638
11
7.5126310661
21
9.2863694450
0
LINE
5
293
100
AcDbEntity
8
0
100
AcDbLine
62
9
6
CONTINUOUS
10
7.9738356119
20
-1.1296180772
11
7.9738356119
21
-24.3997044854
0
LINE
5
294
100
AcDbEntity
8
0
100
AcDbLine
62
9
6
CONTINUOUS
10
7.3431446932
20
2.3620418448
11
7.0869269106
21
1.1909190196
0
LINE
5
295
100
AcDbEntity
8
0
100
AcDbLine
62
9
6
CONTINUOUS
10
13.3773851078
20
6.6388987338
11
12.7064194527
21
5.8004054593
0
LINE
5
296
100
AcDbEntity
8
0
100
AcDbLine
62
9
6
CONTINUOUS
10
-4.8994374988
20
-9.9756119673
11
-4.6510863013
21
-9.8742230155
0
LINE
5
297
100
AcDbEntity
8
0
100
AcDbLine
62
9
6
CONTINUOUS
10
11.9171859549
20
6.8187400602
11
13.3773851078
21
6.7437866759
0
LINE
5
298
100
AcDbEntity
8
0
100
AcDbLine
62
9
6
CONTINUOUS
10
7.0869269106
20
1.1909190196
11
6.6878888049
21
1.6796388930
0
LINE
5
299
100
AcDbEntity
8
0
100
AcDbLine
62
9
6
CONTINUOUS
10
-15.4623014950
20
29.6564990005
11
-11.6371111951
21
24.9716167987
0
LINE
5
29A
100
AcDbEntity
8
0
100
AcDbLine
62
9
6
CONTINUOUS
10
-8.6371111951
20
21.2973821845
11
-0.3871111951
21
11.1932369955
0
LINE
5
29B
100
AcDbEntity
8
0
100
AcDbLine
62
9
6
CONTINUOUS
10
2.6128888049
20
7.5190023813
11
6.4380791048
21
2.8341201795
0
LINE
5
29C
100
AcDbEntity
8
0
100
AcDbLine
62
9
6
CONTINUOUS
10
-4.9630730894
20
17.1511762479
11
-4.4630730894
21
16.5388038122
0
LINE
5
29D
100
AcDbEntity
8
0
100
AcDbLine
62
9
6
CONTINUOUS
10
-1.9630730894
20
13.4769416337
11
-1.7055443162
21
13.1615345894
0
LINE
5
29E
100
AcDbEntity
8
0
100
AcDbLine
62
9
6
CONTINUOUS
10
7.3431446932
20
2.3620418448
11
6.6665152199
21
3.1907403221
0
LINE
5
29F
100
AcDbEntity
8
0
100
AcDbLine
62
9
6
CONTINUOUS
10
-12.1237798689
20
26.3454792203
11
-11.6371111951
21
25.7494342580
0
LINE
5
2A0
100
AcDbEntity
8
0
100
AcDbLine
62
9
6
CONTINUOUS
10
-8.6371111951
20
22.0751996438
11
-8.1504425213
21
21.4791546815
0
LINE
5
2A1
100
AcDbEntity
8
0
100
AcDbLine
62
9
6
CONTINUOUS
10
-0.8737798689
20
12.5670994172
11
-0.3871111951
21
11.9710544548
0
LINE
5
2A2
100
AcDbEntity
8
0
100
AcDbLine
62
9
6
CONTINUOUS
10
2.6128888049
20
8.2968198407
11
3.0995574787
21
7.7007748783
0
LINE
5
2A3
100
AcDbEntity
8
0
100
AcDbLine
62
9
6
CONTINUOUS
10
7.0869269106
20
1.1909190196
11
7.1957007194
21
0.9038694594
0
LINE
5
2A4
100
AcDbEntity
8
0
100
AcDbLine
62
9
6
CONTINUOUS
10
7.9266320884
20
9.5287256338
11
9.2946058853
21
9.6224306812
0
LINE
5
2A5
100
AcDbEntity
8
0
100
AcDbLine
62
9
6
CONTINUOUS
10
-9.4720476856
20
25.9481450155
11
-6.8839788955
21
22.7784210380
0
LINE
5
2A6
100
AcDbEntity
8
0
100
AcDbLine
62
9
6
CONTINUOUS
10
1.7779523144
20
12.1697652123
11
4.3660211045
21
9.0000412348
0
LINE
5
2A7
100
AcDbEntity
8
0
100
AcDbLine
62
9
6
CONTINUOUS
10
-9.4720476856
20
26.6178906660
11
-6.4720476856
21
22.9436560518
0
LINE
5
2A8
100
AcDbEntity
8
0
100
AcDbLine
62
9
6
CONTINUOUS
10
1.7779523144
20
12.8395108628
11
4.7779523144
21
9.1652762487
0
LINE
5
2A9
100
AcDbEntity
8
0
100
AcDbLine
62
9
6
CONTINUOUS
10
-8.6545172011
20
27.7286885003
11
-4.6915019589
21
22.8750059071
0
LINE
5
2AA
100
AcDbEntity
8
0
100
AcDbLine
62
9
6
CONTINUOUS
10
2.5954827989
20
13.9503086971
11
6.5584980411
21
9.0966261040
0
LINE
5
2AB
100
AcDbEntity
8
0
100
AcDbLine
62
9
6
CONTINUOUS
10
13.3773851078
20
6.7437866759
11
13.3773851078
21
6.6388987338
0
LINE
5
2AC
100
AcDbEntity
8
0
100
AcDbLine
62
9
6
CONTINUOUS
10
-4.5779958805
20
-13.7328283952
11
-3.3320373173
21
-13.2241679418
0
LINE
5
2AD
100
AcDbEntity
8
0
100
AcDbLine
62
9
6
CONTINUOUS
10
3.9444557074
20
12.2981610458
11
4.3856514102
21
12.4090149603
0
LINE
5
2AE
100
AcDbEntity
8
0
100
AcDbLine
62
9
6
CONTINUOUS
10
4.4126310661
20
13.0830785463
11
4.9204785012
21
13.2104968222
0
LINE
5
2AF
100
AcDbEntity
8
0
100
AcDbLine
62
9
6
CONTINUOUS
10
-6.8643485898
20
26.1873947634
11
-6.8373689339
21
26.1543515683
0
LINE
5
2B0
100
AcDbEntity
8
0
100
AcDbLine
62
9
6
CONTINUOUS
10
4.3856514102
20
12.4090149603
11
4.4126310661
21
12.3759717652
0
LINE
5
2B1
100
AcDbEntity
8
0
100
AcDbLine
62
9
6
CONTINUOUS
10
7.5396107219
20
8.5462194687
11
7.5126310661
21
8.5792626638
0
LINE
5
2B2
100
AcDbEntity
8
0
100
AcDbLine
62
9
6
CONTINUOUS
10
-3.7103892781
20
22.3245992719
11
-3.7373689339
21
22.3576424670
0
LINE
5
2B3
100
AcDbEntity
8
0
100
AcDbLine
62
9
6
CONTINUOUS
10
7.2626310661
20
8.8953222055
11
4.6626310661
21
12.0796588711
0
LINE
5
2B4
100
AcDbEntity
8
0
100
AcDbLine
62
9
6
CONTINUOUS
10
-3.9873689339
20
22.6737020087
11
-6.5873689339
21
25.8580386743
0
LINE
5
2B5
100
AcDbEntity
8
0
100
AcDbLine
62
9
6
CONTINUOUS
10
7.5126310661
20
9.2863694450
11
4.4126310661
21
13.0830785463
0
LINE
5
2B6
100
AcDbEntity
8
0
100
AcDbLine
62
9
6
CONTINUOUS
10
-3.7373689339
20
23.0647492482
11
-6.8373689339
21
26.8614583495
0
LINE
5
2B7
100
AcDbEntity
8
0
100
AcDbLine
62
9
6
CONTINUOUS
10
7.9266320884
20
9.5287256338
11
4.9204785012
21
13.2104968222
0
LINE
5
2B8
100
AcDbEntity
8
0
100
AcDbLine
62
9
6
CONTINUOUS
10
-3.3233679116
20
23.3071054369
11
-6.3295214988
21
26.9888766254
0
LINE
5
2B9
100
AcDbEntity
8
0
100
AcDbLine
62
9
6
CONTINUOUS
10
-6.7908736947
20
29.3230393007
11
-4.6514532170
21
26.7027950429
0
LINE
5
2BA
100
AcDbEntity
8
0
100
AcDbLine
62
9
6
CONTINUOUS
10
-1.9553941147
20
23.4008104843
11
0.1840263630
21
20.7805662265
0
LINE
5
2BB
100
AcDbEntity
8
0
100
AcDbLine
62
9
6
CONTINUOUS
10
4.4591263053
20
15.5446594976
11
6.5985467830
21
12.9244152397
0
LINE
5
2BC
100
AcDbEntity
8
0
100
AcDbLine
62
9
6
CONTINUOUS
10
9.2946058853
20
9.6224306812
11
11.4340263630
21
7.0021864233
0
LINE
5
2BD
100
AcDbEntity
8
0
100
AcDbLine
62
9
6
CONTINUOUS
10
-3.6920470234
20
-16.1691613760
11
-3.7324563697
21
-16.1853403491
0
LINE
5
2BE
100
AcDbEntity
8
0
100
AcDbLine
62
9
6
CONTINUOUS
10
6.1689005776
20
15.5723411348
11
4.6789709520
21
15.6837067631
0
LINE
5
2BF
100
AcDbEntity
8
0
100
AcDbLine
62
9
6
CONTINUOUS
10
4.9204785012
20
13.2104968222
11
6.5985467830
21
12.9244152397
0
LINE
5
2C0
100
AcDbEntity
8
0
100
AcDbLine
62
9
6
CONTINUOUS
10
3.1713479235
20
18.7851370420
11
2.8981428427
21
19.1197435635
0
LINE
5
2C1
100
AcDbEntity
8
0
100
AcDbLine
62
9
6
CONTINUOUS
10
2.3981428427
20
20.1563800679
11
2.8981428427
21
19.5440076322
0
LINE
5
2C2
100
AcDbEntity
8
0
100
AcDbLine
62
9
6
CONTINUOUS
10
5.3981428427
20
16.4821454537
11
5.8981428427
21
15.8697730180
0
LINE
5
2C3
100
AcDbEntity
8
0
100
AcDbLine
62
9
6
CONTINUOUS
10
-5.0810994224
20
29.3507209379
11
2.1273851078
21
20.5221664790
0
LINE
5
2C4
100
AcDbEntity
8
0
100
AcDbLine
62
9
6
CONTINUOUS
10
6.1689005776
20
15.5723411348
11
13.3773851078
21
6.7437866759
0
LINE
5
2C5
100
AcDbEntity
8
0
100
AcDbLine
62
9
6
CONTINUOUS
10
2.1384694672
20
20.4308540493
11
2.2203115614
21
20.3577693886
0
LINE
5
2C6
100
AcDbEntity
8
0
100
AcDbLine
62
9
6
CONTINUOUS
10
19.9998466282
20
3.8961256108
11
19.9998466282
21
-18.8325107180
0
LINE
5
2C7
100
AcDbEntity
8
0
100
AcDbLine
62
9
6
CONTINUOUS
10
19.9998466282
20
-7.2317466255
11
23.6777543841
21
4.1352012603
0
LINE
5
2C8
100
AcDbEntity
8
0
100
AcDbLine
62
9
6
CONTINUOUS
10
0.6671859549
20
20.5971198633
11
2.1273851078
21
20.5221664790
0
LINE
5
2C9
100
AcDbEntity
8
0
100
AcDbLine
62
9
6
CONTINUOUS
10
18.9998466282
20
7.1208704822
11
13.5498466282
21
13.7957300313
0
LINE
5
2CA
100
AcDbEntity
8
0
100
AcDbLine
62
9
6
CONTINUOUS
10
4.5498466282
20
24.8184338738
11
-0.9001533718
21
31.4932934229
0
LINE
5
2CB
100
AcDbEntity
8
0
100
AcDbLine
62
9
6
CONTINUOUS
10
18.9998466282
20
7.1208704822
11
19.7069534094
21
5.2548450784
0
LINE
5
2CC
100
AcDbEntity
8
0
100
AcDbLine
62
9
6
CONTINUOUS
10
23.6777543841
20
4.1352012603
11
23.6777543841
21
13.4690107720
0
LINE
5
2CD
100
AcDbEntity
8
0
100
AcDbLine
62
9
6
CONTINUOUS
10
-3.3233679116
20
23.3071054369
11
-1.9553941147
21
23.4008104843
0
LINE
5
2CE
100
AcDbEntity
8
0
100
AcDbLine
62
9
6
CONTINUOUS
10
12.1681286258
20
-22.5570499415
11
11.9171859549
21
-22.7831684020
0
LINE
5
2CF
100
AcDbEntity
8
0
100
AcDbLine
62
9
6
CONTINUOUS
10
6.6878888049
20
-25.2520857407
11
7.0956173398
21
-25.0766865590
0
LINE
5
2D0
100
AcDbEntity
8
0
100
AcDbLine
62
9
6
CONTINUOUS
10
7.8700476423
20
-24.7038683841
11
6.6878888049
21
-25.2119091512
0
LINE
5
2D1
100
AcDbEntity
8
0
100
AcDbLine
62
9
6
CONTINUOUS
10
19.9998466282
20
-18.8325107180
11
7.9738356119
21
-23.7421091565
0
LINE
5
2D2
100
AcDbEntity
8
0
100
AcDbLine
62
9
6
CONTINUOUS
10
19.7557755742
20
-19.4594060462
11
7.9738356119
21
-24.2693628942
0
LINE
5
2D3
100
AcDbEntity
8
0
100
AcDbLine
62
9
6
CONTINUOUS
10
-6.3295214988
20
26.9888766254
11
-4.6514532170
21
26.7027950429
0
LINE
5
2D4
100
AcDbEntity
8
0
100
AcDbLine
62
9
6
CONTINUOUS
10
21.9457035765
20
12.7619039908
11
21.8207035765
21
12.9149970997
0
LINE
5
2D5
100
AcDbEntity
8
0
100
AcDbLine
62
9
6
CONTINUOUS
10
-7.3055442926
20
26.0765408489
11
-6.8643485898
21
26.1873947634
0
LINE
5
2D6
100
AcDbEntity
8
0
100
AcDbLine
62
9
6
CONTINUOUS
10
-6.8373689339
20
26.8614583495
11
-6.3295214988
21
26.9888766254
0
LINE
5
2D7
100
AcDbEntity
8
0
100
AcDbLine
62
9
6
CONTINUOUS
10
-5.0810994224
20
29.3507209379
11
-6.5710290480
21
29.4620865663
0
LINE
5
2D8
100
AcDbEntity
8
0
100
AcDbLine
62
9
6
CONTINUOUS
10
22.9027543841
20
14.4181880473
11
23.6777543841
21
13.4690107720
0
LINE
5
2D9
100
AcDbEntity
8
0
100
AcDbLine
62
9
6
CONTINUOUS
10
13.6777543841
20
28.5448866107
11
22.6777543841
21
17.5221827681
0
LINE
5
2DA
100
AcDbEntity
8
0
100
AcDbLine
62
9
6
CONTINUOUS
10
6.6878888049
20
-28.7965015533
11
-0.3921980966
21
-31.2716422036
0
LINE
5
2DB
100
AcDbEntity
8
0
100
AcDbLine
62
9
6
CONTINUOUS
10
6.6237497454
20
-28.9546296581
11
-0.4695992862
21
-31.4344066410
0
LINE
5
2DC
100
AcDbEntity
8
0
100
AcDbLine
62
9
6
CONTINUOUS
10
-1.6072601530
20
31.3593188267
11
-0.9001533718
21
31.4932934229
0
SPLINE
5
2DD
100
AcDbEntity
8
0
100
AcDbSpline
62
9
6
CONTINUOUS
70
0
71
3
72
9
73
5
74
3
42
0.0000001000
43
0.0000001000
44
0.0000000001
12
-0.0480684425
22
0.0591257932
32
0.0000000000
13
0.0000000000
23
0.0756022901
33
0.0000000000
40
0.0000000000
40
0.0000000000
40
0.0000000000
40
0.0000000000
40
0.1967610561
40
1.0000000000
40
1.0000000000
40
1.0000000000
40
1.0000000000
10
2.9273701907
20
18.9089696948
30
0.0000000000
10
2.9242175249
20
18.9128475793
30
0.0000000000
10
2.9089537015
20
18.9333135492
30
0.0000000000
10
2.8981428427
20
18.9580799727
30
0.0000000000
10
2.8981428427
20
18.9783222073
30
0.0000000000
11
2.9273701907
21
18.9089696948
31
0.0000000000
11
2.9183832690
21
18.9210678827
31
0.0000000000
11
2.8981428427
21
18.9783222073
31
0.0000000000
0
SPLINE
5
2DE
100
AcDbEntity
8
0
100
AcDbSpline
62
9
6
CONTINUOUS
70
0
71
3
72
11
73
7
74
5
42
0.0000001000
43
0.0000001000
44
0.0000000001
12
0.8522694929
22
0.3714421148
32
0.0000000000
13
0.5811799782
23
-0.7117971977
33
0.0000000000
40
0.0000000000
40
0.0000000000
40
0.0000000000
40
0.0000000000
40
0.0549034926
40
0.2824857480
40
0.5939355953
40
1.0000000000
40
1.0000000000
40
1.0000000000
40
1.0000000000
10
12.9225396719
20
28.9811432527
30
0.0000000000
10
12.9381371958
20
28.9879410759
30
0.0000000000
10
13.0210292485
20
29.0151122455
30
0.0000000000
10
13.2113904802
20
28.9718028019
30
0.0000000000
10
13.4480092460
20
28.8032044547
30
0.0000000000
10
13.5990888834
20
28.6412317791
30
0.0000000000
10
13.6777543841
20
28.5448866107
30
0.0000000000
11
12.9225396719
21
28.9811432527
31
0.0000000000
11
12.9706476029
21
28.9966984521
31
0.0000000000
11
13.1777703843
21
28.9677838230
31
0.0000000000
11
13.4189398675
21
28.8136819199
31
0.0000000000
11
13.6777543841
21
28.5448866107
31
0.0000000000
0
SPLINE
5
2DF
100
AcDbEntity
8
0
100
AcDbSpline
62
9
6
CONTINUOUS
70
0
71
3
72
15
73
11
74
9
42
0.0000001000
43
0.0000001000
44
0.0000000001
12
-1.6045471238
22
-0.6550536203
32
0.0000000000
13
1.1065006056
23
-1.3481540362
33
0.0000000000
40
0.0000000000
40
0.0000000000
40
0.0000000000
40
0.0000000000
40
0.1590443471
40
0.3232112817
40
0.4842611710
40
0.6345136427
40
0.7684321788
40
0.8845608109
40
0.9877265436
40
1.0000000000
40
1.0000000000
40
1.0000000000
40
1.0000000000
10
21.9457035765
20
14.1761175532
30
0.0000000000
10
21.8606388599
20
14.1413900281
30
0.0000000000
10
21.6946755139
20
14.0530608220
30
0.0000000000
10
21.4733045891
20
13.8799202797
30
0.0000000000
10
21.2881700425
20
13.6750139597
30
0.0000000000
10
21.1534982199
20
13.4537996558
30
0.0000000000
10
21.0796861464
20
13.2320602844
30
0.0000000000
10
21.0740821250
20
13.0240033747
30
0.0000000000
10
21.1254474903
20
12.8953444830
30
0.0000000000
10
21.1664924073
20
12.8422496417
30
0.0000000000
10
21.1710192697
20
12.8367341384
30
0.0000000000
11
21.9457035765
21
14.1761175532
31
0.0000000000
11
21.7017160252
21
14.0478672594
31
0.0000000000
11
21.4774948942
21
13.8727214557
31
0.0000000000
11
21.2912052462
21
13.6648694133
31
0.0000000000
11
21.1579391604
21
13.4411500686
31
0.0000000000
11
21.0884930626
21
13.2196878324
31
0.0000000000
11
21.0884930626
21
13.0184242579
31
0.0000000000
11
21.1579391604
21
12.8536645232
31
0.0000000000
11
21.1710192697
21
12.8367341384
31
0.0000000000
0
SPLINE
5
2E0
100
AcDbEntity
8
0
100
AcDbSpline
62
9
6
CONTINUOUS
70
0
71
3
72
9
73
5
74
3
42
0.0000001000
43
0.0000001000
44
0.0000000001
12
0.0595445121
22
0.1768256950
32
0.0000000000
13
0.1701150968
23
0.0613677512
33
0.0000000000
40
0.0000000000
40
0.0000000000
40
0.0000000000
40
0.0000000000
40
0.8051048373
40
1.0000000000
40
1.0000000000
40
1.0000000000
40
1.0000000000
10
-5.8787886777
20
-7.9832882503
30
0.0000000000
10
-5.8628088195
20
-7.9358338428
30
0.0000000000
10
-5.8329816327
20
-7.8780502748
30
0.0000000000
10
-5.7792428005
20
-7.8517773879
30
0.0000000000
10
-5.7681912640
20
-7.8477906286
30
0.0000000000
11
-5.8787886777
21
-7.9832882503
31
0.0000000000
11
-5.7992814145
21
-7.8632152106
31
0.0000000000
11
-5.7681912640
21
-7.8477906286
31
0.0000000000
0
SPLINE
5
2E1
100
AcDbEntity
8
0
100
AcDbSpline
62
9
6
CONTINUOUS
70
0
71
3
72
11
73
7
74
5
42
0.0000001000
43
0.0000001000
44
0.0000000001
12
0.0000000000
22
1.6765280374
32
0.0000000000
13
1.5672712629
23
0.6517253098
33
0.0000000000
40
0.0000000000
40
0.0000000000
40
0.0000000000
40
0.0000000000
40
0.3585413440
40
0.6471224446
40
0.8745971316
40
1.0000000000
40
1.0000000000
40
1.0000000000
40
1.0000000000
10
-8.7483271273
20
-6.4264138517
30
0.0000000000
10
-8.7483271273
20
-6.2260456465
30
0.0000000000
10
-8.7263671668
20
-5.8631006015
30
0.0000000000
10
-8.6029070351
20
-5.3865803456
30
0.0000000000
10
-8.4060672338
20
-5.0736665272
30
0.0000000000
10
-8.2335828569
20
-4.9658524713
30
0.0000000000
10
-8.1680694196
20
-4.9386097302
30
0.0000000000
11
-8.7483271273
21
-6.4264138517
31
0.0000000000
11
-8.7026921682
21
-5.8270440080
31
0.0000000000
11
-8.5675410170
21
-5.3624899753
31
0.0000000000
11
-8.3480674565
21
-5.0506043046
31
0.0000000000
11
-8.1680694196
21
-4.9386097302
31
0.0000000000
0
SPLINE
5
2E2
100
AcDbEntity
8
0
100
AcDbSpline
62
9
6
CONTINUOUS
70
0
71
3
72
11
73
7
74
5
42
0.0000001000
43
0.0000001000
44
0.0000000001
12
0.0000000000
22
-1.4466840367
32
0.0000000000
13
-1.3626445581
23
-0.5470105692
33
0.0000000000
40
0.0000000000
40
0.0000000000
40
0.0000000000
40
0.0000000000
40
0.3799914398
40
0.6805950201
40
0.9147938612
40
1.0000000000
40
1.0000000000
40
1.0000000000
40
1.0000000000
10
-4.3233271273
20
-11.8459099076
30
0.0000000000
10
-4.3233271273
20
-12.0291524243
30
0.0000000000
10
-4.3445655510
20
-12.3587272221
30
0.0000000000
10
-4.4640133451
20
-12.7872183778
30
0.0000000000
10
-4.6472559671
20
-13.0398700034
30
0.0000000000
10
-4.7854619848
20
-13.1140220091
30
0.0000000000
10
-4.8241638786
20
-13.1295582286
30
0.0000000000
11
-4.3233271273
21
-11.8459099076
31
0.0000000000
11
-4.3681245458
21
-12.3938091416
31
0.0000000000
11
-4.5005589391
21
-12.8080317328
31
0.0000000000
11
-4.7148422888
21
-13.0704741663
31
0.0000000000
11
-4.8241638786
21
-13.1295582286
31
0.0000000000
0
SPLINE
5
2E3
100
AcDbEntity
8
0
100
AcDbSpline
62
9
6
CONTINUOUS
70
0
71
3
72
11
73
7
74
5
42
0.0000001000
43
0.0000001000
44
0.0000000001
12
0.0000000000
22
2.1170985903
32
0.0000000000
13
1.9941139875
23
0.8005032719
33
0.0000000000
40
0.0000000000
40
0.0000000000
40
0.0000000000
40
0.0000000000
40
0.3799914398
40
0.6805950201
40
0.9147938612
40
1.0000000000
40
1.0000000000
40
1.0000000000
40
1.0000000000
10
-20.3733271273
20
7.8112452782
30
0.0000000000
10
-20.3733271273
20
8.0794050587
30
0.0000000000
10
-20.3422465072
20
8.5617096408
30
0.0000000000
10
-20.1674448573
20
9.1887698687
30
0.0000000000
10
-19.8992849226
20
9.5585039550
30
0.0000000000
10
-19.6970322138
20
9.6670190852
30
0.0000000000
10
-19.6403952961
20
9.6897550162
30
0.0000000000
11
-20.3733271273
21
7.8112452782
31
0.0000000000
11
-20.3077699295
21
8.6130490352
31
0.0000000000
11
-20.1139635002
21
9.2192284370
31
0.0000000000
11
-19.8003781104
21
9.6032905349
31
0.0000000000
11
-19.6403952961
21
9.6897550162
31
0.0000000000
0
SPLINE
5
2E4
100
AcDbEntity
8
0
100
AcDbSpline
62
9
6
CONTINUOUS
70
0
71
3
72
11
73
7
74
5
42
0.0000001000
43
0.0000001000
44
0.0000000001
12
0.0000000000
22
-1.8530046729
32
0.0000000000
13
-1.7322471853
23
-0.7203279740
33
0.0000000000
40
0.0000000000
40
0.0000000000
40
0.0000000000
40
0.0000000000
40
0.3585413440
40
0.6471224446
40
0.8745971316
40
1.0000000000
40
1.0000000000
40
1.0000000000
40
1.0000000000
10
-14.7483271273
20
0.9220553766
30
0.0000000000
10
-14.7483271273
20
0.7005957814
30
0.0000000000
10
-14.7725986625
20
0.2994459949
30
0.0000000000
10
-14.9090545976
20
-0.2272342880
30
0.0000000000
10
-15.1266143779
20
-0.5730864030
30
0.0000000000
10
-15.3172550050
20
-0.6922493070
30
0.0000000000
10
-15.3896645936
20
-0.7223597050
30
0.0000000000
11
-14.7483271273
21
0.9220553766
31
0.0000000000
11
-14.7987657662
21
0.2595939704
31
0.0000000000
11
-14.9481433544
21
-0.2538604868
31
0.0000000000
11
-15.1907193950
21
-0.5985762281
31
0.0000000000
11
-15.3896645936
21
-0.7223597050
31
0.0000000000
0
SPLINE
5
2E5
100
AcDbEntity
8
0
100
AcDbSpline
62
9
6
CONTINUOUS
70
0
71
3
72
9
73
5
74
3
42
0.0000001000
43
0.0000001000
44
0.0000000001
12
-0.1865684529
22
0.0970622333
32
0.0000000000
13
-0.1232721672
23
0.1509769546
33
0.0000000000
40
0.0000000000
40
0.0000000000
40
0.0000000000
40
0.0000000000
40
0.1227405928
40
1.0000000000
40
1.0000000000
40
1.0000000000
40
1.0000000000
10
-5.6204546867
20
-9.6775264952
30
0.0000000000
10
-5.6280878609
20
-9.6735553365
30
0.0000000000
10
-5.6889097490
20
-9.6379576694
30
0.0000000000
10
-5.7310621218
20
-9.5914636069
30
0.0000000000
10
-5.7671093446
20
-9.5473149556
30
0.0000000000
11
-5.6204546867
21
-9.6775264952
31
0.0000000000
11
-5.6427372291
21
-9.6646526221
31
0.0000000000
11
-5.7671093446
21
-9.5473149556
31
0.0000000000
0
SPLINE
5
2E6
100
AcDbEntity
8
0
100
AcDbSpline
62
9
6
CONTINUOUS
70
0
71
3
72
13
73
9
74
7
42
0.0000001000
43
0.0000001000
44
0.0000000001
12
-1.2951607710
22
1.7009428777
32
0.0000000000
13
-0.0897190353
23
2.1360240145
33
0.0000000000
40
0.0000000000
40
0.0000000000
40
0.0000000000
40
0.0000000000
40
0.1584689070
40
0.3317830333
40
0.5115315861
40
0.6887733966
40
0.8546613831
40
1.0000000000
40
1.0000000000
40
1.0000000000
40
1.0000000000
10
-16.7305068042
20
3.3519316410
30
0.0000000000
10
-16.7989210415
20
3.4417804939
30
0.0000000000
10
-16.9299562403
20
3.6392770154
30
0.0000000000
10
-17.1016817243
20
3.9613165134
30
0.0000000000
10
-17.2505673918
20
4.3091583050
30
0.0000000000
10
-17.3681446801
20
4.6632539451
30
0.0000000000
10
-17.4475584431
20
5.0026544711
30
0.0000000000
10
-17.4745962285
20
5.2235408005
30
0.0000000000
10
-17.4789427754
20
5.3270230592
30
0.0000000000
11
-16.7305068042
21
3.3519316410
31
0.0000000000
11
-16.9196098612
21
3.6330365180
31
0.0000000000
11
-17.0948463193
21
3.9595090818
31
0.0000000000
11
-17.2462128654
21
4.3127281588
31
0.0000000000
11
-17.3649950551
21
4.6725560961
31
0.0000000000
11
-17.4442056743
21
5.0182503810
31
0.0000000000
11
-17.4789427754
21
5.3270230592
31
0.0000000000
0
SPLINE
5
2E7
100
AcDbEntity
8
0
100
AcDbSpline
62
9
6
CONTINUOUS
70
0
71
3
72
10
73
6
74
4
42
0.0000001000
43
0.0000001000
44
0.0000000001
12
-0.0223205809
22
-0.3184519361
32
0.0000000000
13
-0.3014902064
23
-0.1129970367
33
0.0000000000
40
0.0000000000
40
0.0000000000
40
0.0000000000
40
0.0000000000
40
0.5326287515
40
0.9171207937
40
1.0000000000
40
1.0000000000
40
1.0000000000
40
1.0000000000
10
-16.1327842467
20
3.6783223052
30
0.0000000000
10
-16.1367471078
20
3.6217834194
30
0.0000000000
10
-16.1509324538
20
3.5251755970
30
0.0000000000
10
-16.2116210550
20
3.4270797622
30
0.0000000000
10
-16.2565861969
20
3.4053948536
30
0.0000000000
10
-16.2649152866
20
3.4022731521
30
0.0000000000
11
-16.1327842467
21
3.6783223052
31
0.0000000000
11
-16.1672120605
21
3.5118114213
31
0.0000000000
11
-16.2411608474
21
3.4138454574
31
0.0000000000
11
-16.2649152866
21
3.4022731521
31
0.0000000000
0
SPLINE
5
2E8
100
AcDbEntity
8
0
100
AcDbSpline
62
9
6
CONTINUOUS
70
0
71
3
72
10
73
6
74
4
42
0.0000001000
43
0.0000001000
44
0.0000000001
12
0.0231267009
22
0.4939501304
32
0.0000000000
13
0.4604558496
23
0.1972684324
33
0.0000000000
40
0.0000000000
40
0.0000000000
40
0.0000000000
40
0.0000000000
40
0.4577749281
40
0.8038019199
40
1.0000000000
40
1.0000000000
40
1.0000000000
40
1.0000000000
10
-17.4789427754
20
5.4684444154
30
0.0000000000
10
-17.4754138341
20
5.5438170772
30
0.0000000000
10
-17.4586433849
20
5.6756673272
30
0.0000000000
10
-17.3913436371
20
5.8325324839
30
0.0000000000
10
-17.3149130545
20
5.8875388032
30
0.0000000000
10
-17.2847995366
20
5.9004400324
30
0.0000000000
11
-17.4789427754
21
5.4684444154
31
0.0000000000
11
-17.4442056743
21
5.6921289209
31
0.0000000000
11
-17.3649950551
21
5.8437976064
31
0.0000000000
11
-17.2847995366
21
5.9004400324
31
0.0000000000
0
SPLINE
5
2E9
100
AcDbEntity
8
0
100
AcDbSpline
62
9
6
CONTINUOUS
70
0
71
3
72
12
73
8
74
6
42
0.0000001000
43
0.0000001000
44
0.0000000001
12
0.8436791366
22
-1.1422102039
32
0.0000000000
13
0.0847943370
23
-1.4174796492
33
0.0000000000
40
0.0000000000
40
0.0000000000
40
0.0000000000
40
0.0000000000
40
0.1933580665
40
0.4041374058
40
0.6183655698
40
0.8216967544
40
1.0000000000
40
1.0000000000
40
1.0000000000
40
1.0000000000
10
-16.6305068042
20
5.1332128022
30
0.0000000000
10
-16.5761294154
20
5.0595942834
30
0.0000000000
10
-16.4735846712
20
4.8974372791
30
0.0000000000
10
-16.3437898379
20
4.6346356683
30
0.0000000000
10
-16.2380738230
20
4.3561019566
30
0.0000000000
10
-16.1644972886
20
4.0833791282
30
0.0000000000
10
-16.1378239486
20
3.9039907354
30
0.0000000000
10
-16.1327842467
20
3.8197436614
30
0.0000000000
11
-16.6305068042
21
5.1332128022
31
0.0000000000
11
-16.4820605683
21
4.9022301283
31
0.0000000000
11
-16.3488679167
21
4.6341892510
31
0.0000000000
11
-16.2411608474
21
4.3496878808
31
0.0000000000
11
-16.1672120605
21
4.0705851219
31
0.0000000000
11
-16.1327842467
21
3.8197436614
31
0.0000000000
0
SPLINE
5
2EA
100
AcDbEntity
8
0
100
AcDbSpline
62
9
6
CONTINUOUS
70
0
71
3
72
10
73
6
74
4
42
0.0000001000
43
0.0000001000
44
0.0000000001
12
0.4038740053
22
0.1513699776
32
0.0000000000
13
0.2882876936
23
-0.3158610930
33
0.0000000000
40
0.0000000000
40
0.0000000000
40
0.0000000000
40
0.0000000000
40
0.1945912754
40
0.5344976165
40
1.0000000000
40
1.0000000000
40
1.0000000000
40
1.0000000000
10
-17.0960983219
20
5.4374336010
30
0.0000000000
10
-17.0699015360
20
5.4472520266
30
0.0000000000
10
-16.9882881187
20
5.4545566584
30
0.0000000000
10
-16.8591573340
20
5.3830293894
30
0.0000000000
10
-16.7752396737
20
5.3046986532
30
0.0000000000
10
-16.7305068042
20
5.2556872893
30
0.0000000000
11
-17.0960983219
21
5.4374336010
31
0.0000000000
11
-17.0121456918
21
5.4465353045
31
0.0000000000
11
-16.8789530402
21
5.3883221477
31
0.0000000000
11
-16.7305068042
21
5.2556872893
31
0.0000000000
0
SPLINE
5
2EB
100
AcDbEntity
8
0
100
AcDbSpline
62
9
6
CONTINUOUS
70
0
71
3
72
11
73
7
74
5
42
0.0000001000
43
0.0000001000
44
0.0000000001
12
-0.6130294031
22
-0.2626339735
32
0.0000000000
13
-0.4349583131
23
0.4941924076
33
0.0000000000
40
0.0000000000
40
0.0000000000
40
0.0000000000
40
0.0000000000
40
0.0611938146
40
0.2926550229
40
0.6012293348
40
1.0000000000
40
1.0000000000
40
1.0000000000
40
1.0000000000
10
-16.0762140719
20
2.9392667206
30
0.0000000000
10
-16.0887186078
20
2.9339095291
30
0.0000000000
10
-16.1505475720
20
2.9140633830
30
0.0000000000
10
-16.2881602065
20
2.9403446750
30
0.0000000000
10
-16.4619416298
20
3.0534436005
30
0.0000000000
10
-16.5726905990
20
3.1637673422
30
0.0000000000
10
-16.6305068042
20
3.2294571539
30
0.0000000000
11
-16.0762140719
21
2.9392667206
31
0.0000000000
11
-16.1148007430
21
2.9270369645
31
0.0000000000
11
-16.2661672892
21
2.9445886896
31
0.0000000000
11
-16.4414037473
21
3.0473560325
31
0.0000000000
11
-16.6305068042
21
3.2294571539
31
0.0000000000
0
SPLINE
5
2EC
100
AcDbEntity
8
0
100
AcDbSpline
62
9
6
CONTINUOUS
70
0
71
3
72
12
73
8
74
6
42
0.0000001000
43
0.0000001000
44
0.0000000001
12
-0.6690506149
22
0.8194163093
32
0.0000000000
13
0.4065539097
23
0.9992778690
33
0.0000000000
40
0.0000000000
40
0.0000000000
40
0.0000000000
40
0.0000000000
40
0.2125432678
40
0.4506610799
40
0.6829338008
40
0.8792417715
40
1.0000000000
40
1.0000000000
40
1.0000000000
40
1.0000000000
10
-5.7671093446
20
-9.5473149556
30
0.0000000000
10
-5.8145100793
20
-9.4892611489
30
0.0000000000
10
-5.9009193236
20
-9.3546105689
30
0.0000000000
10
-6.0009728868
20
-9.1352487786
30
0.0000000000
10
-6.0714896649
20
-8.9092985986
30
0.0000000000
10
-6.0950159437
20
-8.7175871428
30
0.0000000000
10
-6.0925718120
20
-8.6028453914
30
0.0000000000
10
-6.0762069020
20
-8.5626217163
30
0.0000000000
11
-5.7671093446
21
-9.5473149556
31
0.0000000000
11
-5.8914814601
21
-9.3600044008
31
0.0000000000
11
-5.9969190485
21
-9.1312372916
31
0.0000000000
11
-6.0673701927
21
-8.8958413466
31
0.0000000000
11
-6.0921093446
21
-8.6896534646
31
0.0000000000
11
-6.0762069020
21
-8.5626217163
31
0.0000000000
0
SPLINE
5
2ED
100
AcDbEntity
8
0
100
AcDbSpline
62
9
6
CONTINUOUS
70
0
71
3
72
9
73
5
74
3
42
0.0000001000
43
0.0000001000
44
0.0000000001
12
-0.1686523907
22
-0.0608400908
32
0.0000000000
13
-0.1589146947
23
0.0818252458
33
0.0000000000
40
0.0000000000
40
0.0000000000
40
0.0000000000
40
0.0000000000
40
0.5333227710
40
1.0000000000
40
1.0000000000
40
1.0000000000
40
1.0000000000
10
-4.9000020214
20
-9.9740470765
30
0.0000000000
10
-4.9299840749
20
-9.9848628785
30
0.0000000000
10
-4.9941794423
20
-9.9894975628
30
0.0000000000
10
-5.0501561670
20
-9.9692337156
30
0.0000000000
10
-5.0748767901
20
-9.9565050559
30
0.0000000000
11
-4.9000020214
21
-9.9740470765
31
0.0000000000
11
-4.9961201227
21
-9.9827244754
31
0.0000000000
11
-5.0748767901
21
-9.9565050559
31
0.0000000000
0
SPLINE
5
2EE
100
AcDbEntity
8
0
100
AcDbSpline
62
9
6
CONTINUOUS
70
0
71
3
72
14
73
10
74
8
42
0.0000001000
43
0.0000001000
44
0.0000000001
12
3.9455504924
22
1.6406956331
32
0.0000000000
13
2.0450897063
23
-3.6932834825
33
0.0000000000
40
0.0000000000
40
0.0000000000
40
0.0000000000
40
0.0000000000
40
0.0313678287
40
0.1258094985
40
0.2445672080
40
0.3936726774
40
0.5727503072
40
0.7779696215
40
1.0000000000
40
1.0000000000
40
1.0000000000
40
1.0000000000
10
-19.3569896609
20
8.9963810331
30
0.0000000000
10
-19.3157352103
20
9.0135360529
30
0.0000000000
10
-19.1442041908
20
9.0664099864
30
0.0000000000
10
-18.7883098260
20
9.0261413601
30
0.0000000000
10
-18.3304044420
20
8.7904449132
30
0.0000000000
10
-17.8428718454
20
8.3881562340
30
0.0000000000
10
-17.3387638607
20
7.8298015436
30
0.0000000000
10
-16.8373583491
20
7.1381103522
30
0.0000000000
10
-16.5271894092
20
6.6225153313
30
0.0000000000
10
-16.3758320620
20
6.3491749547
30
0.0000000000
11
-19.3569896609
21
8.9963810331
31
0.0000000000
11
-19.2294824279
21
9.0353273490
31
0.0000000000
11
-18.8316989889
21
9.0098175786
31
0.0000000000
11
-18.3778711372
21
8.7970485711
31
0.0000000000
11
-17.8854392226
21
8.4051969203
31
0.0000000000
11
-17.3733271273
21
7.8493212653
31
0.0000000000
11
-16.8612150320
21
7.1507835957
31
0.0000000000
11
-16.3758320620
21
6.3491749547
31
0.0000000000
0
SPLINE
5
2EF
100
AcDbEntity
8
0
100
AcDbSpline
62
9
6
CONTINUOUS
70
0
71
3
72
9
73
5
74
3
42
0.0000001000
43
0.0000001000
44
0.0000000001
12
0.1590377495
22
-1.0472421331
32
0.0000000000
13
0.0000000000
23
-1.0588560687
33
0.0000000000
40
0.0000000000
40
0.0000000000
40
0.0000000000
40
0.0000000000
40
0.2561529080
40
1.0000000000
40
1.0000000000
40
1.0000000000
40
1.0000000000
10
-14.8353842982
20
1.9769493465
30
0.0000000000
10
-14.8218049708
20
1.8875313072
30
0.0000000000
10
-14.7739983667
20
1.5376203334
30
0.0000000000
10
-14.7483271273
20
1.1845977125
30
0.0000000000
10
-14.7483271273
20
0.9220553766
30
0.0000000000
11
-14.8353842982
21
1.9769493465
31
0.0000000000
11
-14.7987657662
21
1.7080657116
31
0.0000000000
11
-14.7483271273
21
0.9220553766
31
0.0000000000
0
SPLINE
5
2F0
100
AcDbEntity
8
0
100
AcDbSpline
62
9
6
CONTINUOUS
70
0
71
3
72
14
73
10
74
8
42
0.0000001000
43
0.0000001000
44
0.0000000001
12
3.6047208057
22
1.4470540889
32
0.0000000000
13
1.6840199831
23
-3.4376920910
33
0.0000000000
40
0.0000000000
40
0.0000000000
40
0.0000000000
40
0.0000000000
40
0.0470785547
40
0.1394212382
40
0.2584680018
40
0.4076168787
40
0.5846790112
40
0.7844652038
40
1.0000000000
40
1.0000000000
40
1.0000000000
40
1.0000000000
10
-7.9224903760
20
-5.5408076140
30
0.0000000000
10
-7.8659220274
20
-5.5180992090
30
0.0000000000
10
-7.6867978869
20
-5.4777064390
30
0.0000000000
10
-7.3562384341
20
-5.5634471576
30
0.0000000000
10
-6.9660728091
20
-5.8126785725
30
0.0000000000
10
-6.5530117223
20
-6.2065221494
30
0.0000000000
10
-6.1321856681
20
-6.7308077074
30
0.0000000000
10
-5.7200374884
20
-7.3654945973
30
0.0000000000
10
-5.4693154286
20
-7.8328386733
30
0.0000000000
10
-5.3483271273
20
-8.0798194281
30
0.0000000000
11
-7.9224903760
21
-5.5408076140
31
0.0000000000
11
-7.7450448703
21
-5.5006993939
31
0.0000000000
11
-7.3983271273
21
-5.5690924417
31
0.0000000000
11
-7.0068119657
21
-5.8020817152
31
0.0000000000
11
-6.5876104770
21
-6.1894844651
31
0.0000000000
11
-6.1590437776
21
-6.7143693322
31
0.0000000000
11
-5.7398422888
21
-7.3537963292
31
0.0000000000
11
-5.3483271273
21
-8.0798194281
31
0.0000000000
0
SPLINE
5
2F1
100
AcDbEntity
8
0
100
AcDbSpline
62
9
6
CONTINUOUS
70
0
71
3
72
8
73
4
74
2
42
0.0000001000
43
0.0000001000
44
0.0000000001
12
0.0098072784
22
-0.0200201921
32
0.0000000000
13
0.0097673080
23
-0.0200396284
33
0.0000000000
40
0.0000000000
40
0.0000000000
40
0.0000000000
40
0.0000000000
40
1.0000000000
40
1.0000000000
40
1.0000000000
40
1.0000000000
10
-5.3483271273
20
-8.0798194281
30
0.0000000000
10
-5.3450580345
20
-8.0864928254
30
0.0000000000
10
-5.3417956045
20
-8.0931694702
30
0.0000000000
10
-5.3385398352
20
-8.0998493464
30
0.0000000000
11
-5.3483271273
21
-8.0798194281
31
0.0000000000
11
-5.3385398352
21
-8.0998493464
31
0.0000000000
0
SPLINE
5
2F2
100
AcDbEntity
8
0
100
AcDbSpline
62
9
6
CONTINUOUS
70
0
71
3
72
12
73
8
74
6
42
0.0000001000
43
0.0000001000
44
0.0000000001
12
1.7130783719
22
-3.5147303844
32
0.0000000000
13
0.0000000000
23
-3.9090061388
33
0.0000000000
40
0.0000000000
40
0.0000000000
40
0.0000000000
40
0.0000000000
40
0.2128706738
40
0.4306688759
40
0.6394090663
40
0.8313755338
40
1.0000000000
40
1.0000000000
40
1.0000000000
40
1.0000000000
10
-5.3385398352
20
-8.0998493464
30
0.0000000000
10
-5.2169851195
20
-8.3492436881
30
0.0000000000
10
-4.9898454828
20
-8.8629180660
30
0.0000000000
10
-4.7083101980
20
-9.6478495394
30
0.0000000000
10
-4.4944883533
20
-10.4258293962
30
0.0000000000
10
-4.3598114627
20
-11.1562634398
30
0.0000000000
10
-4.3233271273
20
-11.6261918831
30
0.0000000000
10
-4.3233271273
20
-11.8459099076
30
0.0000000000
11
-5.3385398352
21
-8.0998493464
31
0.0000000000
11
-5.0016093842
21
-8.8607079355
31
0.0000000000
11
-4.7148422888
21
-9.6623332766
31
0.0000000000
11
-4.5005589391
21
-10.4496605773
31
0.0000000000
11
-4.3681245458
21
-11.1882798566
31
0.0000000000
11
-4.3233271273
21
-11.8459099076
31
0.0000000000
0
SPLINE
5
2F3
100
AcDbEntity
8
0
100
AcDbSpline
62
9
6
CONTINUOUS
70
0
71
3
72
19
73
15
74
13
42
0.0000001000
43
0.0000001000
44
0.0000000001
12
-10.6941093207
22
-4.2929689853
32
0.0000000000
13
0.0000000000
23
11.3536557635
33
0.0000000000
40
0.0000000000
40
0.0000000000
40
0.0000000000
40
0.0000000000
40
0.0232229576
40
0.0687738509
40
0.1274973602
40
0.2010696707
40
0.2884110604
40
0.3869617977
40
0.4932810224
40
0.6034078471
40
0.7131446527
40
0.8183176132
40
0.9150391964
40
1.0000000000
40
1.0000000000
40
1.0000000000
40
1.0000000000
10
-15.1062589584
20
-1.4157336881
30
0.0000000000
10
-15.1890419075
20
-1.4489655003
30
0.0000000000
10
-15.4511747961
20
-1.5080768709
30
0.0000000000
10
-15.9349203367
20
-1.3826026486
30
0.0000000000
10
-16.5058944221
20
-1.0178737488
30
0.0000000000
10
-17.1103740614
20
-0.4415172948
30
0.0000000000
10
-17.7262170674
20
0.3257298632
30
0.0000000000
10
-18.3293607451
20
1.2545399460
30
0.0000000000
10
-18.8935018925
20
2.3060948967
30
0.0000000000
10
-19.3942605816
20
3.4356485801
30
0.0000000000
10
-19.8099372676
20
4.5945715687
30
0.0000000000
10
-20.1228472842
20
5.7330786762
30
0.0000000000
10
-20.3199354169
20
6.8020065448
30
0.0000000000
10
-20.3733271273
20
7.4897067057
30
0.0000000000
10
-20.3733271273
20
7.8112452782
30
0.0000000000
11
-15.1062589584
21
-1.4157336881
31
0.0000000000
11
-15.3659353082
21
-1.4744286442
31
0.0000000000
11
-15.8733271273
21
-1.3743412572
31
0.0000000000
11
-16.4462761441
21
-1.0333813448
31
0.0000000000
11
-17.0597417375
21
-0.4664504914
31
0.0000000000
11
-17.6869125171
21
0.3016737044
31
0.0000000000
11
-18.3003781104
21
1.2374205294
31
0.0000000000
11
-18.8733271273
21
2.2998933570
31
0.0000000000
11
-19.3807189463
21
3.4426570263
31
0.0000000000
11
-19.8003781104
21
4.6157672816
31
0.0000000000
11
-20.1139635002
21
5.7679535753
31
0.0000000000
11
-20.3077699295
21
6.8488598376
31
0.0000000000
11
-20.3733271273
21
7.8112452782
31
0.0000000000
0
SPLINE
5
2F4
100
AcDbEntity
8
0
100
AcDbSpline
62
9
6
CONTINUOUS
70
0
71
3
72
20
73
16
74
14
42
0.0000001000
43
0.0000001000
44
0.0000000001
12
-8.4043056211
22
-3.4947994098
32
0.0000000000
13
0.0000000000
23
8.9901820712
33
0.0000000000
40
0.0000000000
40
0.0000000000
40
0.0000000000
40
0.0000000000
40
0.0133236904
40
0.0534384073
40
0.1038815211
40
0.1672150445
40
0.2432794389
40
0.3304476848
40
0.4262220539
40
0.5275600032
40
0.6311037070
40
0.7333763093
40
0.8309691777
40
0.9207340957
40
1.0000000000
40
1.0000000000
40
1.0000000000
40
1.0000000000
10
-4.5785848349
20
-13.7317561123
30
0.0000000000
10
-4.6159102902
20
-13.7472773207
30
0.0000000000
10
-4.7711050222
20
-13.7951156415
30
0.0000000000
10
-5.0931046856
20
-13.7586821224
30
0.0000000000
10
-5.5074000330
20
-13.5454329562
30
0.0000000000
10
-5.9485009537
20
-13.1814574846
30
0.0000000000
10
-6.4045986542
20
-12.6762794314
30
0.0000000000
10
-6.8608327239
20
-12.0469024501
30
0.0000000000
10
-7.2999391548
20
-11.3158305540
30
0.0000000000
10
-7.7052541073
20
-10.5103043327
30
0.0000000000
10
-8.0612725387
20
-9.6606984821
30
0.0000000000
10
-8.3544710699
20
-8.7992605163
30
0.0000000000
10
-8.5738874448
20
-7.9585777290
30
0.0000000000
10
-8.7114850339
20
-7.1705927638
30
0.0000000000
10
-8.7483271273
20
-6.6639521556
30
0.0000000000
10
-8.7483271273
20
-6.4264138517
30
0.0000000000
11
-4.5785848349
21
-13.7317561123
31
0.0000000000
11
-4.6939485219
21
-13.7669932553
31
0.0000000000
11
-5.0538478238
21
-13.7439129868
31
0.0000000000
11
-5.4644539754
21
-13.5514076943
31
0.0000000000
11
-5.9099876125
21
-13.1968752484
31
0.0000000000
11
-6.3733271273
21
-12.6939401319
31
0.0000000000
11
-6.8366666421
21
-12.0619298595
31
0.0000000000
11
-7.2822002791
21
-11.3251322313
31
0.0000000000
11
-7.6928064307
21
-10.5118619672
31
0.0000000000
11
-8.0527057326
21
-9.6533725873
31
0.0000000000
11
-8.3480674565
21
-8.7826553569
31
0.0000000000
11
-8.5675410170
21
-7.9331714509
31
0.0000000000
11
-8.7026921682
21
-7.1375660595
31
0.0000000000
11
-8.7483271273
21
-6.4264138517
31
0.0000000000
0
SPLINE
5
2F5
100
AcDbEntity
8
0
100
AcDbSpline
62
9
6
CONTINUOUS
70
0
71
3
72
9
73
5
74
3
42
0.0000001000
43
0.0000001000
44
0.0000000001
12
0.0000000000
22
0.2966516247
32
0.0000000000
13
-0.1899627424
23
0.2323600941
33
0.0000000000
40
0.0000000000
40
0.0000000000
40
0.0000000000
40
0.0000000000
40
0.6931363860
40
1.0000000000
40
1.0000000000
40
1.0000000000
40
1.0000000000
10
22.6867289803
20
13.9756572715
30
0.0000000000
10
22.6867289803
20
14.0441972832
30
0.0000000000
10
22.6687306215
20
14.1456426040
30
0.0000000000
10
22.6144410790
20
14.2305050997
30
0.0000000000
10
22.5950101944
20
14.2542727192
30
0.0000000000
11
22.6867289803
21
13.9756572715
31
0.0000000000
11
22.6443426800
21
14.1768611491
31
0.0000000000
11
22.5950101944
21
14.2542727192
31
0.0000000000
0
SPLINE
5
2F6
100
AcDbEntity
8
0
100
AcDbSpline
62
9
6
CONTINUOUS
70
0
71
3
72
12
73
8
74
6
42
0.0000001000
43
0.0000001000
44
0.0000000001
12
1.3289777729
22
0.5425529039
32
0.0000000000
13
0.0000000000
23
1.4354600567
33
0.0000000000
40
0.0000000000
40
0.0000000000
40
0.0000000000
40
0.0000000000
40
0.2116630164
40
0.4296163438
40
0.6406525462
40
0.8330909670
40
1.0000000000
40
1.0000000000
40
1.0000000000
40
1.0000000000
10
21.8207035765
20
12.9149970997
30
0.0000000000
10
21.9144687245
20
12.9532765611
30
0.0000000000
10
22.0964388773
20
13.0524913167
30
0.0000000000
10
22.3342876285
20
13.2484887427
30
0.0000000000
10
22.5250695249
20
13.4792967618
30
0.0000000000
10
22.6513680109
20
13.7237180024
30
0.0000000000
10
22.6867289803
20
13.8957935215
30
0.0000000000
10
22.6867289803
20
13.9756572715
30
0.0000000000
11
21.8207035765
21
12.9149970997
31
0.0000000000
11
22.0883201438
21
13.0588593751
31
0.0000000000
11
22.3297405369
21
13.2578559470
31
0.0000000000
11
22.5213328457
21
13.4925076446
31
0.0000000000
11
22.6443426800
21
13.7398451247
31
0.0000000000
11
22.6867289803
21
13.9756572715
31
0.0000000000
0
SPLINE
5
2F7
100
AcDbEntity
8
0
100
AcDbSpline
62
9
6
CONTINUOUS
70
0
71
3
72
13
73
9
74
7
42
0.0000001000
43
0.0000001000
44
0.0000000001
12
1.8112104487
22
-2.2182707081
32
0.0000000000
13
0.0000000000
23
-2.8637751699
33
0.0000000000
40
0.0000000000
40
0.0000000000
40
0.0000000000
40
0.0000000000
40
0.1562921165
40
0.3304734036
40
0.5125198825
40
0.6915879158
40
0.8571218728
40
1.0000000000
40
1.0000000000
40
1.0000000000
40
1.0000000000
10
22.6777543841
20
17.5221827681
30
0.0000000000
10
22.7721136889
20
17.4066166935
30
0.0000000000
10
22.9528352875
20
17.1468143860
30
0.0000000000
10
23.1881542365
20
16.7171076060
30
0.0000000000
10
23.3911621969
20
16.2473902121
30
0.0000000000
10
23.5482499847
20
15.7690043593
30
0.0000000000
10
23.6491353201
20
15.3139977188
30
0.0000000000
10
23.6777543841
20
15.0196146120
30
0.0000000000
10
23.6777543841
20
14.8832243344
30
0.0000000000
11
22.6777543841
21
17.5221827681
31
0.0000000000
11
22.9365689006
21
17.1570145738
31
0.0000000000
11
23.1777383838
21
16.7203743016
31
0.0000000000
11
23.3848611652
21
16.2419438020
31
0.0000000000
11
23.5437890254
21
15.7543818737
31
0.0000000000
11
23.6436814238
21
15.2909740172
31
0.0000000000
11
23.6777543841
21
14.8832243344
31
0.0000000000
0
SPLINE
5
2F8
100
AcDbEntity
8
0
100
AcDbSpline
62
9
6
CONTINUOUS
70
0
71
3
72
11
73
7
74
5
42
0.0000001000
43
0.0000001000
44
0.0000000001
12
0.0000000000
22
-0.7053655156
32
0.0000000000
13
-0.6588137611
23
-0.2753711043
33
0.0000000000
40
0.0000000000
40
0.0000000000
40
0.0000000000
40
0.0000000000
40
0.3589320021
40
0.6476190671
40
0.8751959276
40
1.0000000000
40
1.0000000000
40
1.0000000000
40
1.0000000000
10
19.9998466282
20
-18.8325107180
30
0.0000000000
10
19.9998466282
20
-18.9169034703
30
0.0000000000
10
19.9906087969
20
-19.0696912023
30
0.0000000000
10
19.9385795559
20
-19.2704245041
30
0.0000000000
10
19.8559102178
20
-19.4017249442
30
0.0000000000
10
19.7833721076
20
-19.4475001463
30
0.0000000000
10
19.7559645608
20
-19.4589559581
30
0.0000000000
11
19.9998466282
21
-18.8325107180
31
0.0000000000
11
19.9806181812
21
-19.0849577352
31
0.0000000000
11
19.9237261607
21
-19.2804786660
31
0.0000000000
11
19.8313553236
21
-19.4117640887
31
0.0000000000
11
19.7559645608
21
-19.4589559581
31
0.0000000000
0
SPLINE
5
2F9
100
AcDbEntity
8
0
100
AcDbSpline
62
9
6
CONTINUOUS
70
0
71
3
72
11
73
7
74
5
42
0.0000001000
43
0.0000001000
44
0.0000000001
12
0.4948126097
22
-1.3057899096
32
0.0000000000
13
0.0000000000
23
-1.3963977968
33
0.0000000000
40
0.0000000000
40
0.0000000000
40
0.0000000000
40
0.0000000000
40
0.2773370035
40
0.5417931301
40
0.7850444758
40
1.0000000000
40
1.0000000000
40
1.0000000000
40
1.0000000000
10
19.7069534094
20
5.2548450784
30
0.0000000000
10
19.7526966915
20
5.1341304582
30
0.0000000000
10
19.8340303305
20
4.8951643790
30
0.0000000000
10
19.9263954924
20
4.5412422119
30
0.0000000000
10
19.9843288429
20
4.2095018173
30
0.0000000000
10
19.9998466282
20
3.9961800843
30
0.0000000000
10
19.9998466282
20
3.8961256108
30
0.0000000000
11
19.7069534094
21
5.2548450784
31
0.0000000000
11
19.8313553236
21
4.8880967037
31
0.0000000000
11
19.9237261607
21
4.5305498631
31
0.0000000000
11
19.9806181812
21
4.1956725115
31
0.0000000000
11
19.9998466282
21
3.8961256108
31
0.0000000000
0
SPLINE
5
2FA
100
AcDbEntity
8
0
100
AcDbSpline
62
9
6
CONTINUOUS
70
0
71
3
72
10
73
6
74
4
42
0.0000001000
43
0.0000001000
44
0.0000000001
12
0.4813474889
22
0.1736425130
32
0.0000000000
13
0.3249150438
23
-0.3874966895
33
0.0000000000
40
0.0000000000
40
0.0000000000
40
0.0000000000
40
0.0000000000
40
0.1868632587
40
0.5414480186
40
1.0000000000
40
1.0000000000
40
1.0000000000
40
1.0000000000
10
-5.7681912640
20
-7.8477906286
30
0.0000000000
10
-5.7382092106
20
-7.8369748266
30
0.0000000000
10
-5.6390057857
20
-7.8298126811
30
0.0000000000
10
-5.4920354806
20
-7.9264002366
30
0.0000000000
10
-5.3960135039
20
-8.0237065071
30
0.0000000000
10
-5.3463500248
20
-8.0829356320
30
0.0000000000
11
-5.7681912640
21
-7.8477906286
31
0.0000000000
11
-5.6720731628
21
-7.8391132297
31
0.0000000000
11
-5.5117814145
21
-7.9199270508
31
0.0000000000
11
-5.3463500248
21
-8.0829356320
31
0.0000000000
0
SPLINE
5
2FB
100
AcDbEntity
8
0
100
AcDbSpline
62
9
6
CONTINUOUS
70
0
71
3
72
14
73
10
74
8
42
0.0000001000
43
0.0000001000
44
0.0000000001
12
0.7954723088
22
-0.9742506306
32
0.0000000000
13
-1.2039217066
23
0.6263402398
33
0.0000000000
40
0.0000000000
40
0.0000000000
40
0.0000000000
40
0.0000000000
40
0.1787644930
40
0.3790390555
40
0.5743974671
40
0.7395068833
40
0.8569199299
40
0.9319710265
40
1.0000000000
40
1.0000000000
40
1.0000000000
40
1.0000000000
10
-5.7671093446
20
-8.6280761401
30
0.0000000000
10
-5.7197086099
20
-8.6861299468
30
0.0000000000
10
-5.6332993656
20
-8.8207805268
30
0.0000000000
10
-5.5332458024
20
-9.0401423171
30
0.0000000000
10
-5.4627290244
20
-9.2660924971
30
0.0000000000
10
-5.4383958588
20
-9.4643791296
30
0.0000000000
10
-5.4429497407
20
-9.6185569749
30
0.0000000000
10
-5.5312190078
20
-9.7108908393
30
0.0000000000
10
-5.5931541674
20
-9.6917295898
30
0.0000000000
10
-5.6204546867
20
-9.6775264952
30
0.0000000000
11
-5.7671093446
21
-8.6280761401
31
0.0000000000
11
-5.6427372291
21
-8.8153866949
31
0.0000000000
11
-5.5372996407
21
-9.0441538041
31
0.0000000000
11
-5.4668484965
21
-9.2795497490
31
0.0000000000
11
-5.4421093446
21
-9.4857376310
31
0.0000000000
11
-5.4668484965
21
-9.6313272141
31
0.0000000000
11
-5.5372996407
21
-9.6941538041
31
0.0000000000
11
-5.6204546867
21
-9.6775264952
31
0.0000000000
0
SPLINE
5
2FC
100
AcDbEntity
8
0
100
AcDbSpline
62
9
6
CONTINUOUS
70
0
71
3
72
11
73
7
74
5
42
0.0000001000
43
0.0000001000
44
0.0000000001
12
0.0378044783
22
-0.5032870868
32
0.0000000000
13
-0.4795844160
23
-0.1730064977
33
0.0000000000
40
0.0000000000
40
0.0000000000
40
0.0000000000
40
0.0000000000
40
0.1986303014
40
0.6320840631
40
0.9308680425
40
1.0000000000
40
1.0000000000
40
1.0000000000
40
1.0000000000
10
-4.7632439936
20
-9.5152436528
30
0.0000000000
10
-4.7607409553
20
-9.5485663414
30
0.0000000000
10
-4.7561588121
20
-9.6546342069
30
0.0000000000
10
-4.7678365150
20
-9.8096151465
30
0.0000000000
10
-4.8332115032
20
-9.9428095583
30
0.0000000000
10
-4.8889504849
20
-9.9700603172
30
0.0000000000
10
-4.9000020214
20
-9.9740470765
30
0.0000000000
11
-4.7632439936
21
-9.5152436528
31
0.0000000000
11
-4.7590966427
21
-9.6151471536
31
0.0000000000
11
-4.7872391459
21
-9.8319639813
31
0.0000000000
11
-4.8689118710
21
-9.9586224945
31
0.0000000000
11
-4.9000020214
21
-9.9740470765
31
0.0000000000
0
SPLINE
5
2FD
100
AcDbEntity
8
0
100
AcDbSpline
62
9
6
CONTINUOUS
70
0
71
3
72
20
73
16
74
14
42
0.0000001000
43
0.0000001000
44
0.0000000001
12
-9.2889693707
22
-3.8626730319
32
0.0000000000
13
0.0000000000
23
9.9365170261
33
0.0000000000
40
0.0000000000
40
0.0000000000
40
0.0000000000
40
0.0000000000
40
0.0133236904
40
0.0534384073
40
0.1038815211
40
0.1672150445
40
0.2432794389
40
0.3304476848
40
0.4262220539
40
0.5275600032
40
0.6311037070
40
0.7333763093
40
0.8309691777
40
0.9207340957
40
1.0000000000
40
1.0000000000
40
1.0000000000
40
1.0000000000
10
-15.3896645936
20
-0.7223597050
30
0.0000000000
10
-15.4309190442
20
-0.7395147248
30
0.0000000000
10
-15.6024500638
20
-0.7923886583
30
0.0000000000
10
-15.9583444285
20
-0.7521200320
30
0.0000000000
10
-16.4162498126
20
-0.5164235851
30
0.0000000000
10
-16.9037824091
20
-0.1141349059
30
0.0000000000
10
-17.4078903939
20
0.4442197845
30
0.0000000000
10
-17.9121491025
20
1.1398469743
30
0.0000000000
10
-18.3974772630
20
1.9478738068
30
0.0000000000
10
-18.8454569473
20
2.8381922619
30
0.0000000000
10
-19.2389510031
20
3.7772303073
30
0.0000000000
10
-19.5630125375
20
4.7293459538
30
0.0000000000
10
-19.8055253729
20
5.6585216661
30
0.0000000000
10
-19.9576069188
20
6.5294524170
30
0.0000000000
10
-19.9983271273
20
7.0894236156
30
0.0000000000
10
-19.9983271273
20
7.3519659514
30
0.0000000000
11
-15.3896645936
21
-0.7223597050
31
0.0000000000
11
-15.5171718267
21
-0.7613060209
31
0.0000000000
11
-15.9149552656
21
-0.7357962505
31
0.0000000000
11
-16.3687831173
21
-0.5230272430
31
0.0000000000
11
-16.8612150320
21
-0.1311755922
31
0.0000000000
11
-17.3733271273
21
0.4247000628
31
0.0000000000
11
-17.8854392226
21
1.1232377324
31
0.0000000000
11
-18.3778711372
21
1.9375930055
31
0.0000000000
11
-18.8316989889
21
2.8364706659
31
0.0000000000
11
-19.2294824279
21
3.7853273490
31
0.0000000000
11
-19.5559348596
21
4.7476990247
31
0.0000000000
11
-19.7985109001
21
5.6866022891
31
0.0000000000
11
-19.9478884883
21
6.5659556165
31
0.0000000000
11
-19.9983271273
21
7.3519659514
31
0.0000000000
0
SPLINE
5
2FE
100
AcDbEntity
8
0
100
AcDbSpline
62
9
6
CONTINUOUS
70
0
71
3
72
19
73
15
74
13
42
0.0000001000
43
0.0000001000
44
0.0000000001
12
-7.3076413692
22
-2.9335288066
32
0.0000000000
13
0.0000000000
23
7.7583314384
33
0.0000000000
40
0.0000000000
40
0.0000000000
40
0.0000000000
40
0.0000000000
40
0.0232229576
40
0.0687738509
40
0.1274973602
40
0.2010696707
40
0.2884110604
40
0.3869617977
40
0.4932810224
40
0.6034078471
40
0.7131446527
40
0.8183176132
40
0.9150391964
40
1.0000000000
40
1.0000000000
40
1.0000000000
40
1.0000000000
10
-4.8241638786
20
-13.1295582286
30
0.0000000000
10
-4.8807322271
20
-13.1522666336
30
0.0000000000
10
-5.0598563676
20
-13.1926594035
30
0.0000000000
10
-5.3904158204
20
-13.1069186849
30
0.0000000000
10
-5.7805814454
20
-12.8576872700
30
0.0000000000
10
-6.1936425322
20
-12.4638436931
30
0.0000000000
10
-6.6144685864
20
-11.9395581351
30
0.0000000000
10
-7.0266167661
20
-11.3048712452
30
0.0000000000
10
-7.4121132168
20
-10.5863086956
30
0.0000000000
10
-7.7542983210
20
-9.8144470120
30
0.0000000000
10
-8.0383440565
20
-9.0225163031
30
0.0000000000
10
-8.2521659012
20
-8.2445364463
30
0.0000000000
10
-8.3868427918
20
-7.5141024027
30
0.0000000000
10
-8.4233271273
20
-7.0441739594
30
0.0000000000
10
-8.4233271273
20
-6.8244559349
30
0.0000000000
11
-4.8241638786
21
-13.1295582286
31
0.0000000000
11
-5.0016093842
21
-13.1696664486
31
0.0000000000
11
-5.3483271273
21
-13.1012734008
31
0.0000000000
11
-5.7398422888
21
-12.8682841273
31
0.0000000000
11
-6.1590437776
21
-12.4808813775
31
0.0000000000
11
-6.5876104770
21
-11.9559965103
31
0.0000000000
11
-7.0068119657
21
-11.3165695133
31
0.0000000000
11
-7.3983271273
21
-10.5905464144
31
0.0000000000
11
-7.7450448703
21
-9.8096579070
31
0.0000000000
11
-8.0318119657
21
-9.0080325660
31
0.0000000000
11
-8.2460953154
21
-8.2207052653
31
0.0000000000
11
-8.3785297088
21
-7.4820859860
31
0.0000000000
11
-8.4233271273
21
-6.8244559349
31
0.0000000000
0
SPLINE
5
2FF
100
AcDbEntity
8
0
100
AcDbSpline
62
9
6
CONTINUOUS
70
0
71
3
72
11
73
7
74
5
42
0.0000001000
43
0.0000001000
44
0.0000000001
12
1.7477533225
22
0.7016059573
32
0.0000000000
13
1.3618305357
23
-1.2634858947
33
0.0000000000
40
0.0000000000
40
0.0000000000
40
0.0000000000
40
0.0000000000
40
0.1420960521
40
0.4208117192
40
0.7801276589
40
1.0000000000
40
1.0000000000
40
1.0000000000
40
1.0000000000
10
-19.6403952961
20
9.6897550162
30
0.0000000000
10
-19.5576123470
20
9.7229868284
30
0.0000000000
10
-19.2954794585
20
9.7820981990
30
0.0000000000
10
-18.8117339178
20
9.6566239767
30
0.0000000000
10
-18.3615968913
20
9.3690838122
30
0.0000000000
10
-18.0887405188
20
9.1361298561
30
0.0000000000
10
-17.9889308961
20
9.0435279889
30
0.0000000000
11
-19.6403952961
21
9.6897550162
31
0.0000000000
11
-19.3807189463
21
9.7484499723
31
0.0000000000
11
-18.8733271273
21
9.6483625853
31
0.0000000000
11
-18.3003781104
21
9.3074026729
31
0.0000000000
11
-17.9889308961
21
9.0435279889
31
0.0000000000
0
SPLINE
5
300
100
AcDbEntity
8
0
100
AcDbSpline
62
9
6
CONTINUOUS
70
0
71
3
72
9
73
5
74
3
42
0.0000001000
43
0.0000001000
44
0.0000000001
12
-0.1320505972
22
0.1615226692
32
0.0000000000
13
-0.1935878801
23
0.0761319846
33
0.0000000000
40
0.0000000000
40
0.0000000000
40
0.0000000000
40
0.0000000000
40
0.4876962681
40
1.0000000000
40
1.0000000000
40
1.0000000000
40
1.0000000000
10
22.5950101944
20
14.2542727192
30
0.0000000000
10
22.5735433333
20
14.2805307202
30
0.0000000000
10
22.5225905866
20
14.3286815716
30
0.0000000000
10
22.4610783125
20
14.3611283320
30
0.0000000000
10
22.4280197147
20
14.3741292320
30
0.0000000000
11
22.5950101944
21
14.2542727192
31
0.0000000000
11
22.5213328457
21
14.3237615201
31
0.0000000000
11
22.4280197147
21
14.3741292320
31
0.0000000000
0
SPLINE
5
301
100
AcDbEntity
8
0
100
AcDbSpline
62
9
6
CONTINUOUS
70
0
71
3
72
20
73
16
74
14
42
0.0000001000
43
0.0000001000
44
0.0000000001
12
8.4043056211
22
3.4947994098
32
0.0000000000
13
0.0000000000
23
-8.9901820712
33
0.0000000000
40
0.0000000000
40
0.0000000000
40
0.0000000000
40
0.0000000000
40
0.0133236904
40
0.0534384073
40
0.1038815211
40
0.1672150445
40
0.2432794389
40
0.3304476848
40
0.4262220539
40
0.5275600032
40
0.6311037070
40
0.7333763093
40
0.8309691777
40
0.9207340957
40
1.0000000000
40
1.0000000000
40
1.0000000000
40
1.0000000000
10
-8.1680694196
20
-4.9386097302
30
0.0000000000
10
-8.1307439643
20
-4.9230885218
30
0.0000000000
10
-7.9755492323
20
-4.8752502010
30
0.0000000000
10
-7.6535495690
20
-4.9116837201
30
0.0000000000
10
-7.2392542215
20
-5.1249328863
30
0.0000000000
10
-6.7981533008
20
-5.4889083580
30
0.0000000000
10
-6.3420556003
20
-5.9940864112
30
0.0000000000
10
-5.8858215307
20
-6.6234633925
30
0.0000000000
10
-5.4467150997
20
-7.3545352885
30
0.0000000000
10
-5.0414001473
20
-8.1600615098
30
0.0000000000
10
-4.6853817158
20
-9.0096673604
30
0.0000000000
10
-4.3921831847
20
-9.8711053263
30
0.0000000000
10
-4.1727668098
20
-10.7117881136
30
0.0000000000
10
-4.0351692206
20
-11.4997730787
30
0.0000000000
10
-3.9983271273
20
-12.0064136870
30
0.0000000000
10
-3.9983271273
20
-12.2439519908
30
0.0000000000
11
-8.1680694196
21
-4.9386097302
31
0.0000000000
11
-8.0527057326
21
-4.9033725873
31
0.0000000000
11
-7.6928064307
21
-4.9264528557
31
0.0000000000
11
-7.2822002791
21
-5.1189581482
31
0.0000000000
11
-6.8366666421
21
-5.4734905942
31
0.0000000000
11
-6.3733271273
21
-5.9764257106
31
0.0000000000
11
-5.9099876125
21
-6.6084359831
31
0.0000000000
11
-5.4644539754
21
-7.3452336112
31
0.0000000000
11
-5.0538478238
21
-8.1585038753
31
0.0000000000
11
-4.6939485219
21
-9.0169932553
31
0.0000000000
11
-4.3985867980
21
-9.8877104856
31
0.0000000000
11
-4.1791132376
21
-10.7371943916
31
0.0000000000
11
-4.0439620863
21
-11.5327997830
31
0.0000000000
11
-3.9983271273
21
-12.2439519908
31
0.0000000000
0
SPLINE
5
302
100
AcDbEntity
8
0
100
AcDbSpline
62
9
6
CONTINUOUS
70
0
71
3
72
11
73
7
74
5
42
0.0000001000
43
0.0000001000
44
0.0000000001
12
0.5283833180
22
-0.6437792254
32
0.0000000000
13
0.7662137091
23
0.3128054369
33
0.0000000000
40
0.0000000000
40
0.0000000000
40
0.0000000000
40
0.0000000000
40
0.1869173865
40
0.4218747752
40
0.6929717467
40
1.0000000000
40
1.0000000000
40
1.0000000000
40
1.0000000000
10
21.1710192697
20
12.8367341384
30
0.0000000000
10
21.2039406126
20
12.7966229616
30
0.0000000000
10
21.2976994004
20
12.7215526524
30
0.0000000000
10
21.4867042593
20
12.6706666207
30
0.0000000000
10
21.7132951714
20
12.6831757070
30
0.0000000000
10
21.8672871576
20
12.7298906219
30
0.0000000000
10
21.9457035765
20
12.7619039908
30
0.0000000000
11
21.1710192697
21
12.8367341384
31
0.0000000000
11
21.2912052462
21
12.7387564818
31
0.0000000000
11
21.4774948942
21
12.6830093001
31
0.0000000000
11
21.7017160252
21
12.6909392831
31
0.0000000000
11
21.9457035765
21
12.7619039908
31
0.0000000000
0
SPLINE
5
303
100
AcDbEntity
8
0
100
AcDbSpline
62
9
6
CONTINUOUS
70
0
71
3
72
9
73
5
74
3
42
0.0000001000
43
0.0000001000
44
0.0000000001
12
0.1484171805
22
-0.1069013627
32
0.0000000000
13
0.1776092055
23
-0.0412492811
33
0.0000000000
40
0.0000000000
40
0.0000000000
40
0.0000000000
40
0.0000000000
40
0.2988439598
40
1.0000000000
40
1.0000000000
40
1.0000000000
40
1.0000000000
10
21.1199734862
20
12.9207525398
30
0.0000000000
10
21.1347580122
20
12.9101035976
30
0.0000000000
10
21.1865790375
20
12.8777565371
30
0.0000000000
10
21.2441309523
20
12.8572727381
30
0.0000000000
10
21.2856415414
20
12.8476320106
30
0.0000000000
11
21.1199734862
21
12.9207525398
31
0.0000000000
11
21.1662426256
21
12.8918296310
31
0.0000000000
11
21.2856415414
21
12.8476320106
31
0.0000000000
0
SPLINE
5
304
100
AcDbEntity
8
0
100
AcDbSpline
62
9
6
CONTINUOUS
70
0
71
3
72
10
73
6
74
4
42
0.0000001000
43
0.0000001000
44
0.0000000001
12
0.5353395860
22
-0.1243312416
32
0.0000000000
13
0.5053912240
23
0.2063251032
33
0.0000000000
40
0.0000000000
40
0.0000000000
40
0.0000000000
40
0.0000000000
40
0.1236073093
40
0.5345946163
40
1.0000000000
40
1.0000000000
40
1.0000000000
40
1.0000000000
10
21.2856415414
20
12.8476320106
30
0.0000000000
10
21.3076988367
20
12.8425092605
30
0.0000000000
10
21.4045091295
20
12.8261194279
30
0.0000000000
10
21.5883249338
20
12.8362767897
30
0.0000000000
10
21.7422996443
20
12.8829888285
30
0.0000000000
10
21.8207035765
20
12.9149970997
30
0.0000000000
11
21.2856415414
21
12.8476320106
31
0.0000000000
11
21.3525450622
21
12.8360965674
31
0.0000000000
11
21.5767561947
21
12.8440391616
31
0.0000000000
11
21.8207035765
21
12.9149970997
31
0.0000000000
0
SPLINE
5
305
100
AcDbEntity
8
0
100
AcDbSpline
62
9
6
CONTINUOUS
70
0
71
3
72
11
73
7
74
5
42
0.0000001000
43
0.0000001000
44
0.0000000001
12
0.1517284540
22
0.3729367314
32
0.0000000000
13
0.2496938611
23
-0.3058112759
33
0.0000000000
40
0.0000000000
40
0.0000000000
40
0.0000000000
40
0.0000000000
40
0.0504836610
40
0.2895807248
40
0.5669029753
40
1.0000000000
40
1.0000000000
40
1.0000000000
40
1.0000000000
10
-6.0762069020
20
-8.5626217163
30
0.0000000000
10
-6.0736536328
20
-8.5563459791
30
0.0000000000
10
-6.0568526698
20
-8.5208330514
30
0.0000000000
10
-5.9965544064
20
-8.4577581913
30
0.0000000000
10
-5.8638133817
20
-8.5170230295
30
0.0000000000
10
-5.8031565674
20
-8.5839274888
30
0.0000000000
10
-5.7671093446
20
-8.6280761401
30
0.0000000000
11
-6.0762069020
21
-8.5626217163
31
0.0000000000
11
-6.0673701927
21
-8.5440638816
31
0.0000000000
11
-5.9969190485
21
-8.4812372916
31
0.0000000000
11
-5.8914814601
21
-8.5107384736
31
0.0000000000
11
-5.7671093446
21
-8.6280761401
31
0.0000000000
0
SPLINE
5
306
100
AcDbEntity
8
0
100
AcDbSpline
62
9
6
CONTINUOUS
70
0
71
3
72
11
73
7
74
5
42
0.0000001000
43
0.0000001000
44
0.0000000001
12
0.0000000000
22
-1.6765280374
32
0.0000000000
13
-1.5672712629
23
-0.6517253098
33
0.0000000000
40
0.0000000000
40
0.0000000000
40
0.0000000000
40
0.0000000000
40
0.3585413440
40
0.6471224446
40
0.8745971316
40
1.0000000000
40
1.0000000000
40
1.0000000000
40
1.0000000000
10
-3.9983271273
20
-12.2439519908
30
0.0000000000
10
-3.9983271273
20
-12.4443201961
30
0.0000000000
10
-4.0202870877
20
-12.8072652410
30
0.0000000000
10
-4.1437472195
20
-13.2837854969
30
0.0000000000
10
-4.3405870207
20
-13.5966993153
30
0.0000000000
10
-4.5130713976
20
-13.7045133712
30
0.0000000000
10
-4.5785848349
20
-13.7317561123
30
0.0000000000
11
-3.9983271273
21
-12.2439519908
31
0.0000000000
11
-4.0439620863
21
-12.8433218346
31
0.0000000000
11
-4.1791132376
21
-13.3078758673
31
0.0000000000
11
-4.3985867980
21
-13.6197615380
31
0.0000000000
11
-4.5785848349
21
-13.7317561123
31
0.0000000000
0
SPLINE
5
307
100
AcDbEntity
8
0
100
AcDbSpline
62
9
6
CONTINUOUS
70
0
71
3
72
11
73
7
74
5
42
0.0000001000
43
0.0000001000
44
0.0000000001
12
0.0000000000
22
1.4466840367
32
0.0000000000
13
1.3626445581
23
0.5470105692
33
0.0000000000
40
0.0000000000
40
0.0000000000
40
0.0000000000
40
0.0000000000
40
0.3799914398
40
0.6805950201
40
0.9147938612
40
1.0000000000
40
1.0000000000
40
1.0000000000
40
1.0000000000
10
-8.4233271273
20
-6.8244559349
30
0.0000000000
10
-8.4233271273
20
-6.6412134182
30
0.0000000000
10
-8.4020887035
20
-6.3116386205
30
0.0000000000
10
-8.2826409094
20
-5.8831474647
30
0.0000000000
10
-8.0993982874
20
-5.6304958391
30
0.0000000000
10
-7.9611922698
20
-5.5563438335
30
0.0000000000
10
-7.9224903760
20
-5.5408076140
30
0.0000000000
11
-8.4233271273
21
-6.8244559349
31
0.0000000000
11
-8.3785297088
21
-6.2765567010
31
0.0000000000
11
-8.2460953154
21
-5.8623341097
31
0.0000000000
11
-8.0318119657
21
-5.5998916762
31
0.0000000000
11
-7.9224903760
21
-5.5408076140
31
0.0000000000
0
SPLINE
5
308
100
AcDbEntity
8
0
100
AcDbSpline
62
9
6
CONTINUOUS
70
0
71
3
72
8
73
4
74
2
42
0.0000001000
43
0.0000001000
44
0.0000000001
12
-0.1027454319
22
-0.3696091019
32
0.0000000000
13
-0.1773028828
23
-0.3447298446
33
0.0000000000
40
0.0000000000
40
0.0000000000
40
0.0000000000
40
0.0000000000
40
1.0000000000
40
1.0000000000
40
1.0000000000
40
1.0000000000
10
-14.4950061467
20
-0.5867329997
30
0.0000000000
10
-14.5292546239
20
-0.7099360336
30
0.0000000000
10
-14.5735897934
20
-0.8302971607
30
0.0000000000
10
-14.6326907543
20
-0.9452071089
30
0.0000000000
11
-14.4950061467
21
-0.5867329997
31
0.0000000000
11
-14.6326907543
21
-0.9452071089
31
0.0000000000
0
SPLINE
5
309
100
AcDbEntity
8
0
100
AcDbSpline
62
9
6
CONTINUOUS
70
0
71
3
72
9
73
5
74
3
42
0.0000001000
43
0.0000001000
44
0.0000000001
12
-0.3131304523
22
-0.6088192728
32
0.0000000000
13
-0.6369299382
23
-0.2556847315
33
0.0000000000
40
0.0000000000
40
0.0000000000
40
0.0000000000
40
0.0000000000
40
0.7332347828
40
1.0000000000
40
1.0000000000
40
1.0000000000
40
1.0000000000
10
-14.6326907543
20
-0.9452071089
30
0.0000000000
10
-14.7092234674
20
-1.0940095980
30
0.0000000000
10
-14.8473693319
20
-1.2844826269
30
0.0000000000
10
-15.0496220407
20
-1.3929977571
30
0.0000000000
10
-15.1062589584
20
-1.4157336881
30
0.0000000000
11
-14.6326907543
21
-0.9452071089
31
0.0000000000
11
-14.9462761441
21
-1.3292692068
31
0.0000000000
11
-15.1062589584
21
-1.4157336881
31
0.0000000000
0
SPLINE
5
30A
100
AcDbEntity
8
0
100
AcDbSpline
62
9
6
CONTINUOUS
70
0
71
3
72
11
73
7
74
5
42
0.0000001000
43
0.0000001000
44
0.0000000001
12
0.0000000000
22
1.8530046729
32
0.0000000000
13
1.7322471853
23
0.7203279740
33
0.0000000000
40
0.0000000000
40
0.0000000000
40
0.0000000000
40
0.0000000000
40
0.3585413440
40
0.6471224446
40
0.8745971316
40
1.0000000000
40
1.0000000000
40
1.0000000000
40
1.0000000000
10
-19.9983271273
20
7.3519659514
30
0.0000000000
10
-19.9983271273
20
7.5734255467
30
0.0000000000
10
-19.9740555920
20
7.9745753332
30
0.0000000000
10
-19.8375996569
20
8.5012556161
30
0.0000000000
10
-19.6200398766
20
8.8471077311
30
0.0000000000
10
-19.4293992495
20
8.9662706351
30
0.0000000000
10
-19.3569896609
20
8.9963810331
30
0.0000000000
11
-19.9983271273
21
7.3519659514
31
0.0000000000
11
-19.9478884883
21
8.0144273577
31
0.0000000000
11
-19.7985109001
21
8.5278818149
31
0.0000000000
11
-19.5559348596
21
8.8725975562
31
0.0000000000
11
-19.3569896609
21
8.9963810331
31
0.0000000000
0
SPLINE
5
30B
100
AcDbEntity
8
0
100
AcDbSpline
62
9
6
CONTINUOUS
70
0
71
3
72
10
73
6
74
4
42
0.0000001000
43
0.0000001000
44
0.0000000001
12
-0.4038740053
22
-0.1513699776
32
0.0000000000
13
-0.2882876936
23
0.3158610930
33
0.0000000000
40
0.0000000000
40
0.0000000000
40
0.0000000000
40
0.0000000000
40
0.1945912754
40
0.5344976165
40
1.0000000000
40
1.0000000000
40
1.0000000000
40
1.0000000000
10
-16.2649152866
20
3.4022731521
30
0.0000000000
10
-16.2911120725
20
3.3924547264
30
0.0000000000
10
-16.3727254897
20
3.3851500946
30
0.0000000000
10
-16.5018562745
20
3.4566773636
30
0.0000000000
10
-16.5857739347
20
3.5350080998
30
0.0000000000
10
-16.6305068042
20
3.5840194637
30
0.0000000000
11
-16.2649152866
21
3.4022731521
31
0.0000000000
11
-16.3488679167
21
3.3931714486
31
0.0000000000
11
-16.4820605683
21
3.4513846053
31
0.0000000000
11
-16.6305068042
21
3.5840194637
31
0.0000000000
0
SPLINE
5
30C
100
AcDbEntity
8
0
100
AcDbSpline
62
9
6
CONTINUOUS
70
0
71
3
72
11
73
7
74
5
42
0.0000001000
43
0.0000001000
44
0.0000000001
12
-0.2732695828
22
0.0517760301
32
0.0000000000
13
-0.1768377460
23
0.2175163467
33
0.0000000000
40
0.0000000000
40
0.0000000000
40
0.0000000000
40
0.0000000000
40
0.2651766622
40
0.5393136669
40
0.8065372116
40
1.0000000000
40
1.0000000000
40
1.0000000000
40
1.0000000000
10
3.1713479235
20
18.7851370420
30
0.0000000000
10
3.1471930182
20
18.7897136403
30
0.0000000000
10
3.0986249522
20
18.8022684751
30
0.0000000000
10
3.0291227201
20
18.8304676352
30
0.0000000000
10
2.9705825765
20
18.8661833633
30
0.0000000000
10
2.9387740319
20
18.8949425885
30
0.0000000000
10
2.9273701907
20
18.9089696948
30
0.0000000000
11
3.1713479235
21
18.7851370420
31
0.0000000000
11
3.0999379961
21
18.8035833040
31
0.0000000000
11
3.0294303985
21
18.8326030178
31
0.0000000000
11
2.9663524681
21
18.8719110023
31
0.0000000000
11
2.9273701907
21
18.9089696948
31
0.0000000000
0
SPLINE
5
30D
100
AcDbEntity
8
0
100
AcDbSpline
62
9
6
CONTINUOUS
70
0
71
3
72
12
73
8
74
6
42
0.0000001000
43
0.0000001000
44
0.0000000001
12
-0.8436791366
22
1.1422102039
32
0.0000000000
13
-0.0847943370
23
1.4174796492
33
0.0000000000
40
0.0000000000
40
0.0000000000
40
0.0000000000
40
0.0000000000
40
0.1933580665
40
0.4041374058
40
0.6183655698
40
0.8216967544
40
1.0000000000
40
1.0000000000
40
1.0000000000
40
1.0000000000
10
-16.7305068042
20
3.7064939508
30
0.0000000000
10
-16.7848841931
20
3.7801124697
30
0.0000000000
10
-16.8874289372
20
3.9422694739
30
0.0000000000
10
-17.0172237706
20
4.2050710847
30
0.0000000000
10
-17.1229397855
20
4.4836047964
30
0.0000000000
10
-17.1965163199
20
4.7563276249
30
0.0000000000
10
-17.2231896599
20
4.9357160176
30
0.0000000000
10
-17.2282293617
20
5.0199630917
30
0.0000000000
11
-16.7305068042
21
3.7064939508
31
0.0000000000
11
-16.8789530402
21
3.9374766247
31
0.0000000000
11
-17.0121456918
21
4.2055175020
31
0.0000000000
11
-17.1198527611
21
4.4900188722
31
0.0000000000
11
-17.1938015480
21
4.7691216311
31
0.0000000000
11
-17.2282293617
21
5.0199630917
31
0.0000000000
0
SPLINE
5
30E
100
AcDbEntity
8
0
100
AcDbSpline
62
9
6
CONTINUOUS
70
0
71
3
72
10
73
6
74
4
42
0.0000001000
43
0.0000001000
44
0.0000000001
12
-0.0231267009
22
-0.4939501304
32
0.0000000000
13
-0.4604558496
23
-0.1972684324
33
0.0000000000
40
0.0000000000
40
0.0000000000
40
0.0000000000
40
0.0000000000
40
0.4577749281
40
0.8038019199
40
1.0000000000
40
1.0000000000
40
1.0000000000
40
1.0000000000
10
-15.8820708331
20
3.3712623376
30
0.0000000000
10
-15.8855997744
20
3.2958896758
30
0.0000000000
10
-15.9023702236
20
3.1640394258
30
0.0000000000
10
-15.9696699713
20
3.0071742691
30
0.0000000000
10
-16.0461005540
20
2.9521679499
30
0.0000000000
10
-16.0762140719
20
2.9392667206
30
0.0000000000
11
-15.8820708331
21
3.3712623376
31
0.0000000000
11
-15.9168079341
21
3.1475778321
31
0.0000000000
11
-15.9960185534
21
2.9959091466
31
0.0000000000
11
-16.0762140719
21
2.9392667206
31
0.0000000000
0
SPLINE
5
30F
100
AcDbEntity
8
0
100
AcDbSpline
62
9
6
CONTINUOUS
70
0
71
3
72
10
73
6
74
4
42
0.0000001000
43
0.0000001000
44
0.0000000001
12
0.0223205809
22
0.3184519361
32
0.0000000000
13
0.3014902064
23
0.1129970367
33
0.0000000000
40
0.0000000000
40
0.0000000000
40
0.0000000000
40
0.0000000000
40
0.5326287515
40
0.9171207937
40
1.0000000000
40
1.0000000000
40
1.0000000000
40
1.0000000000
10
-17.2282293617
20
5.1613844479
30
0.0000000000
10
-17.2242665007
20
5.2179233336
30
0.0000000000
10
-17.2100811547
20
5.3145311560
30
0.0000000000
10
-17.1493925535
20
5.4126269908
30
0.0000000000
10
-17.1044274116
20
5.4343118994
30
0.0000000000
10
-17.0960983219
20
5.4374336010
30
0.0000000000
11
-17.2282293617
21
5.1613844479
31
0.0000000000
11
-17.1938015480
21
5.3278953317
31
0.0000000000
11
-17.1198527611
21
5.4258612957
31
0.0000000000
11
-17.0960983219
21
5.4374336010
31
0.0000000000
0
SPLINE
5
310
100
AcDbEntity
8
0
100
AcDbSpline
62
9
6
CONTINUOUS
70
0
71
3
72
13
73
9
74
7
42
0.0000001000
43
0.0000001000
44
0.0000000001
12
1.2951607710
22
-1.7009428777
32
0.0000000000
13
0.0897190353
23
-2.1360240145
33
0.0000000000
40
0.0000000000
40
0.0000000000
40
0.0000000000
40
0.0000000000
40
0.1584689070
40
0.3317830333
40
0.5115315861
40
0.6887733966
40
0.8546613831
40
1.0000000000
40
1.0000000000
40
1.0000000000
40
1.0000000000
10
-16.6305068042
20
5.4877751120
30
0.0000000000
10
-16.5620925670
20
5.3979262591
30
0.0000000000
10
-16.4310573681
20
5.2004297376
30
0.0000000000
10
-16.2593318841
20
4.8783902397
30
0.0000000000
10
-16.1104462167
20
4.5305484481
30
0.0000000000
10
-15.9928689284
20
4.1764528080
30
0.0000000000
10
-15.9134551653
20
3.8370522819
30
0.0000000000
10
-15.8864173799
20
3.6161659525
30
0.0000000000
10
-15.8820708331
20
3.5126836939
30
0.0000000000
11
-16.6305068042
21
5.4877751120
31
0.0000000000
11
-16.4414037473
21
5.2066702350
31
0.0000000000
11
-16.2661672892
21
4.8801976713
31
0.0000000000
11
-16.1148007430
21
4.5269785942
31
0.0000000000
11
-15.9960185534
21
4.1671506569
31
0.0000000000
11
-15.9168079341
21
3.8214563720
31
0.0000000000
11
-15.8820708331
21
3.5126836939
31
0.0000000000
0
SPLINE
5
311
100
AcDbEntity
8
0
100
AcDbSpline
62
9
6
CONTINUOUS
70
0
71
3
72
11
73
7
74
5
42
0.0000001000
43
0.0000001000
44
0.0000000001
12
0.6130294031
22
0.2626339735
32
0.0000000000
13
0.4349583131
23
-0.4941924076
33
0.0000000000
40
0.0000000000
40
0.0000000000
40
0.0000000000
40
0.0000000000
40
0.0611938146
40
0.2926550229
40
0.6012293348
40
1.0000000000
40
1.0000000000
40
1.0000000000
40
1.0000000000
10
-17.2847995366
20
5.9004400324
30
0.0000000000
10
-17.2722950007
20
5.9057972240
30
0.0000000000
10
-17.2104660365
20
5.9256433700
30
0.0000000000
10
-17.0728534019
20
5.8993620780
30
0.0000000000
10
-16.8990719786
20
5.7862631525
30
0.0000000000
10
-16.7883230095
20
5.6759394108
30
0.0000000000
10
-16.7305068042
20
5.6102495992
30
0.0000000000
11
-17.2847995366
21
5.9004400324
31
0.0000000000
11
-17.2462128654
21
5.9126697886
31
0.0000000000
11
-17.0948463193
21
5.8951180635
31
0.0000000000
11
-16.9196098612
21
5.7923507205
31
0.0000000000
11
-16.7305068042
21
5.6102495992
31
0.0000000000
0
SPLINE
5
312
100
AcDbEntity
8
0
100
AcDbSpline
62
9
6
CONTINUOUS
70
0
71
3
72
11
73
7
74
5
42
0.0000001000
43
0.0000001000
44
0.0000000001
12
0.0000000000
22
-0.1798959201
32
0.0000000000
13
-0.1710359103
23
-0.0616373176
33
0.0000000000
40
0.0000000000
40
0.0000000000
40
0.0000000000
40
0.0000000000
40
0.3517826234
40
0.6350590820
40
0.8584014142
40
1.0000000000
40
1.0000000000
40
1.0000000000
40
1.0000000000
10
6.6878888049
20
-28.7965015533
30
0.0000000000
10
6.6878888049
20
-28.8175963062
30
0.0000000000
10
6.6855822278
20
-28.8558146704
30
0.0000000000
10
6.6726144388
20
-28.9060059007
30
0.0000000000
10
6.6513379148
20
-28.9399681072
30
0.0000000000
10
6.6318480233
20
-28.9516066596
30
0.0000000000
10
6.6237752090
20
-28.9545159119
30
0.0000000000
11
6.6878888049
21
-28.7965015533
31
0.0000000000
11
6.6830973603
21
-28.8596041638
31
0.0000000000
11
6.6689028696
21
-28.9085476668
31
0.0000000000
11
6.6458415218
21
-28.9414486699
31
0.0000000000
11
6.6237752090
21
-28.9545159119
31
0.0000000000
0
SPLINE
5
313
100
AcDbEntity
8
0
100
AcDbSpline
62
9
6
CONTINUOUS
70
0
71
3
72
15
73
11
74
9
42
0.0000001000
43
0.0000001000
44
0.0000000001
12
0.4528260812
22
-0.5545964206
32
0.0000000000
13
0.0000000000
23
-0.7159809003
33
0.0000000000
40
0.0000000000
40
0.0000000000
40
0.0000000000
40
0.0000000000
40
0.1152101203
40
0.2418078048
40
0.3757572546
40
0.5126043847
40
0.6477412721
40
0.7766744705
40
0.8952604757
40
1.0000000000
40
1.0000000000
40
1.0000000000
40
1.0000000000
10
6.4380791048
20
2.8341201795
30
0.0000000000
10
6.4554691539
20
2.8128218060
30
0.0000000000
10
6.4893958036
20
2.7659996347
30
0.0000000000
10
6.5356038025
20
2.6890449235
30
0.0000000000
10
6.5782497097
20
2.6042373646
30
0.0000000000
10
6.6156935472
20
2.5148036361
30
0.0000000000
10
6.6465164293
20
2.4241393337
30
0.0000000000
10
6.6695713340
20
2.3356746285
30
0.0000000000
10
6.6840225832
20
2.2527587019
30
0.0000000000
10
6.6878888049
20
2.1994489833
30
0.0000000000
10
6.6878888049
20
2.1744518170
30
0.0000000000
11
6.4380791048
21
2.8341201795
31
0.0000000000
11
6.4868467327
21
2.7675917710
31
0.0000000000
11
6.5337364958
21
2.6900209259
31
0.0000000000
11
6.5769400719
21
2.6043981045
31
0.0000000000
11
6.6147936799
21
2.5140257010
31
0.0000000000
11
6.6458432278
21
2.4223876146
31
0.0000000000
11
6.6689035589
21
2.3330005813
31
0.0000000000
11
6.6830974712
21
2.2492900961
31
0.0000000000
11
6.6878888049
21
2.1744518170
31
0.0000000000
0
SPLINE
5
314
100
AcDbEntity
8
0
100
AcDbSpline
62
9
6
CONTINUOUS
70
0
71
3
72
9
73
5
74
3
42
0.0000001000
43
0.0000001000
44
0.0000000001
12
0.1503602472
22
0.0619347827
32
0.0000000000
13
0.1016784379
23
-0.1245301453
33
0.0000000000
40
0.0000000000
40
0.0000000000
40
0.0000000000
40
0.0000000000
40
0.3948277178
40
1.0000000000
40
1.0000000000
40
1.0000000000
40
1.0000000000
10
5.9679488706
20
15.6051714057
30
0.0000000000
10
5.9877376683
20
15.6133225954
30
0.0000000000
10
6.0404697420
20
15.6263174292
30
0.0000000000
10
6.0998005707
20
15.6063851209
30
0.0000000000
10
6.1203115614
20
15.5812643902
30
0.0000000000
11
5.9679488706
21
15.6051714057
31
0.0000000000
11
6.0304065098
21
15.6184510597
31
0.0000000000
11
6.1203115614
21
15.5812643902
31
0.0000000000
0
SPLINE
5
315
100
AcDbEntity
8
0
100
AcDbSpline
62
9
6
CONTINUOUS
70
0
71
3
72
10
73
6
74
4
42
0.0000001000
43
0.0000001000
44
0.0000000001
12
0.1759002883
22
0.1192816363
32
0.0000000000
13
0.0820291208
23
-0.2363941664
33
0.0000000000
40
0.0000000000
40
0.0000000000
40
0.0000000000
40
0.0000000000
40
0.0219104388
40
0.3903704032
40
1.0000000000
40
1.0000000000
40
1.0000000000
40
1.0000000000
10
7.2762776617
20
0.9329638261
30
0.0000000000
10
7.2775623458
20
0.9338349971
30
0.0000000000
10
7.3010094982
20
0.9469371163
30
0.0000000000
10
7.3835235673
20
0.8570634023
30
0.0000000000
10
7.4093871762
20
0.7950248512
30
0.0000000000
10
7.4260563028
20
0.7469872244
30
0.0000000000
11
7.2762776617
21
0.9329638261
31
0.0000000000
11
7.2802220055
21
0.9351539707
31
0.0000000000
11
7.3558407889
21
0.8824089432
31
0.0000000000
11
7.4260563028
21
0.7469872244
31
0.0000000000
0
SPLINE
5
316
100
AcDbEntity
8
0
100
AcDbSpline
62
9
6
CONTINUOUS
70
0
71
3
72
9
73
5
74
3
42
0.0000001000
43
0.0000001000
44
0.0000000001
12
-0.4077025715
22
-0.1753880022
32
0.0000000000
13
-0.4077095172
23
-0.1753718556
33
0.0000000000
40
0.0000000000
40
0.0000000000
40
0.0000000000
40
0.0000000000
40
0.7990117108
40
1.0000000000
40
1.0000000000
40
1.0000000000
40
1.0000000000
10
7.0955950851
20
-25.0766961328
30
0.0000000000
10
6.9870087087
20
-25.1234084887
30
0.0000000000
10
6.8511069248
20
-25.1818690020
30
0.0000000000
10
6.7152039847
20
-25.2403268271
30
0.0000000000
10
6.6878890386
20
-25.2520760568
30
0.0000000000
11
7.0955950851
21
-25.0766961328
31
0.0000000000
11
6.7698337369
21
-25.2168280420
31
0.0000000000
11
6.6878890386
21
-25.2520760568
31
0.0000000000
0
SPLINE
5
317
100
AcDbEntity
8
0
100
AcDbSpline
62
9
6
CONTINUOUS
70
0
71
3
72
12
73
8
74
6
42
0.0000001000
43
0.0000001000
44
0.0000000001
12
0.2136215802
22
0.1007717788
32
0.0000000000
13
0.1473861483
23
-0.1805104293
33
0.0000000000
40
0.0000000000
40
0.0000000000
40
0.0000000000
40
0.0000000000
40
0.0666994659
40
0.2294477998
40
0.4341082137
40
0.6911721709
40
1.0000000000
40
1.0000000000
40
1.0000000000
40
1.0000000000
10
-15.6538621466
20
29.7643156207
30
0.0000000000
10
-15.6491126649
20
29.7665560953
30
0.0000000000
10
-15.6319245516
20
29.7723571535
30
0.0000000000
10
-15.5970290808
20
29.7684834725
30
0.0000000000
10
-15.5534297887
20
29.7460826646
30
0.0000000000
10
-15.5070106417
20
29.7078073188
30
0.0000000000
10
-15.4774738097
20
29.6750812152
30
0.0000000000
10
-15.4623014950
20
29.6564990005
30
0.0000000000
11
-15.6538621466
21
29.7643156207
31
0.0000000000
11
-15.6390135203
21
29.7692655511
31
0.0000000000
11
-15.6011599065
21
29.7669147292
31
0.0000000000
11
-15.5579572189
21
29.7467104812
31
0.0000000000
11
-15.5110685643
21
29.7094258697
31
0.0000000000
11
-15.4623014950
21
29.6564990005
31
0.0000000000
0
SPLINE
5
318
100
AcDbEntity
8
0
100
AcDbSpline
62
9
6
CONTINUOUS
70
0
71
3
72
8
73
4
74
2
42
0.0000001000
43
0.0000001000
44
0.0000000001
12
-0.3304589271
22
-0.1421714689
32
0.0000000000
13
-0.3304635061
23
-0.1421608255
33
0.0000000000
40
0.0000000000
40
0.0000000000
40
0.0000000000
40
0.0000000000
40
1.0000000000
40
1.0000000000
40
1.0000000000
40
1.0000000000
10
7.4260563029
20
-24.9345299883
30
0.0000000000
10
7.3159033271
20
-24.9819204779
30
0.0000000000
10
7.2057495871
20
-25.0293091910
30
0.0000000000
10
7.0955950851
20
-25.0766961328
30
0.0000000000
11
7.4260563029
21
-24.9345299883
31
0.0000000000
11
7.0955950851
21
-25.0766961328
31
0.0000000000
0
SPLINE
5
319
100
AcDbEntity
8
0
100
AcDbSpline
62
9
6
CONTINUOUS
70
0
71
3
72
10
73
6
74
4
42
0.0000001000
43
0.0000001000
44
0.0000000001
12
0.2456970844
22
-0.0651509353
32
0.0000000000
13
0.2429354283
23
-0.0747935782
33
0.0000000000
40
0.0000000000
40
0.0000000000
40
0.0000000000
40
0.0000000000
40
0.3305382417
40
0.6638577799
40
1.0000000000
40
1.0000000000
40
1.0000000000
40
1.0000000000
10
-8.8988495152
20
27.7987311290
30
0.0000000000
10
-8.8717787544
20
27.7915528371
30
0.0000000000
10
-8.8175063757
20
27.7767674872
30
0.0000000000
10
-8.7360567521
20
27.7534134878
30
0.0000000000
10
-8.6817374858
20
27.7370689267
30
0.0000000000
10
-8.6545172011
20
27.7286885003
30
0.0000000000
11
-8.8988495152
21
27.7987311290
31
0.0000000000
11
-8.8177836872
21
27.7766513375
31
0.0000000000
11
-8.7363382561
21
27.7533034144
31
0.0000000000
11
-8.6545172011
21
27.7286885003
31
0.0000000000
0
SPLINE
5
31A
100
AcDbEntity
8
0
100
AcDbSpline
62
9
6
CONTINUOUS
70
0
71
3
72
8
73
4
74
2
42
0.0000001000
43
0.0000001000
44
0.0000000001
12
0.3862568130
22
0.1541358548
32
0.0000000000
13
0.3862529816
23
0.1541454560
33
0.0000000000
40
0.0000000000
40
0.0000000000
40
0.0000000000
40
0.0000000000
40
1.0000000000
40
1.0000000000
40
1.0000000000
40
1.0000000000
10
-12.3653245353
20
26.4149709851
30
0.0000000000
10
-12.2365722643
20
26.4663496034
30
0.0000000000
10
-12.1078206280
20
26.5177298121
30
0.0000000000
10
-11.9790696341
20
26.5691116308
30
0.0000000000
11
-12.3653245353
21
26.4149709851
31
0.0000000000
11
-11.9790696341
21
26.5691116308
31
0.0000000000
0
SPLINE
5
31B
100
AcDbEntity
8
0
100
AcDbSpline
62
9
6
CONTINUOUS
70
0
71
3
72
8
73
4
74
2
42
0.0000001000
43
0.0000001000
44
0.0000000001
12
0.3859847971
22
0.1540384292
32
0.0000000000
13
0.3859809240
23
0.1540481342
33
0.0000000000
40
0.0000000000
40
0.0000000000
40
0.0000000000
40
0.0000000000
40
1.0000000000
40
1.0000000000
40
1.0000000000
40
1.0000000000
10
-11.9790696341
20
26.5691116308
30
0.0000000000
10
-11.8504080351
20
26.6204577738
30
0.0000000000
10
-11.7217470776
20
26.6718055246
30
0.0000000000
10
-11.5930867696
20
26.7231549027
30
0.0000000000
11
-11.9790696341
21
26.5691116308
31
0.0000000000
11
-11.5930867696
21
26.7231549027
31
0.0000000000
0
SPLINE
5
31C
100
AcDbEntity
8
0
100
AcDbSpline
62
9
6
CONTINUOUS
70
0
71
3
72
10
73
6
74
4
42
0.0000001000
43
0.0000001000
44
0.0000000001
12
1.9258763519
22
0.7686329564
32
0.0000000000
13
1.9257761674
23
0.7688839301
33
0.0000000000
40
0.0000000000
40
0.0000000000
40
0.0000000000
40
0.0000000000
40
0.2002790595
40
0.8002804272
40
1.0000000000
40
1.0000000000
40
1.0000000000
40
1.0000000000
10
-11.5930867696
20
26.7231549027
30
0.0000000000
10
-11.4645158682
20
26.7744685979
30
0.0000000000
10
-10.9507714098
20
26.9795157280
30
0.0000000000
10
-10.3088289597
20
27.2357676367
30
0.0000000000
10
-9.7954650256
20
27.4407249219
30
0.0000000000
10
-9.6672599611
20
27.4919119785
30
0.0000000000
11
-11.5930867696
21
26.7231549027
31
0.0000000000
11
-11.2073760187
21
26.8771008828
31
0.0000000000
11
-10.0518772112
21
27.3383559595
31
0.0000000000
11
-9.6672599611
21
27.4919119785
31
0.0000000000
0
SPLINE
5
31D
100
AcDbEntity
8
0
100
AcDbSpline
62
9
6
CONTINUOUS
70
0
71
3
72
8
73
4
74
2
42
0.0000001000
43
0.0000001000
44
0.0000000001
12
0.3843446678
22
0.1534531602
32
0.0000000000
13
0.3843405112
23
0.1534635704
33
0.0000000000
40
0.0000000000
40
0.0000000000
40
0.0000000000
40
0.0000000000
40
1.0000000000
40
1.0000000000
40
1.0000000000
40
1.0000000000
10
-9.6672599611
20
27.4919119785
30
0.0000000000
10
-9.5391450718
20
27.5430630319
30
0.0000000000
10
-9.4110308704
20
27.5942158081
30
0.0000000000
10
-9.2829173667
20
27.6453703316
30
0.0000000000
11
-9.6672599611
21
27.4919119785
31
0.0000000000
11
-9.2829173667
21
27.6453703316
31
0.0000000000
0
SPLINE
5
31E
100
AcDbEntity
8
0
100
AcDbSpline
62
9
6
CONTINUOUS
70
0
71
3
72
8
73
4
74
2
42
0.0000001000
43
0.0000001000
44
0.0000000001
12
0.1077100438
22
0.0430076128
32
0.0000000000
13
0.1077097144
23
0.0430084378
33
0.0000000000
40
0.0000000000
40
0.0000000000
40
0.0000000000
40
0.0000000000
40
1.0000000000
40
1.0000000000
40
1.0000000000
40
1.0000000000
10
-9.2829173667
20
27.6453703316
30
0.0000000000
10
-9.2470140188
20
27.6597062025
30
0.0000000000
10
-9.2111107256
20
27.6740422107
30
0.0000000000
10
-9.1752074875
20
27.6883783566
30
0.0000000000
11
-9.2829173667
21
27.6453703316
31
0.0000000000
11
-9.1752074875
21
27.6883783566
31
0.0000000000
0
SPLINE
5
31F
100
AcDbEntity
8
0
100
AcDbSpline
62
9
6
CONTINUOUS
70
0
71
3
72
8
73
4
74
2
42
0.0000001000
43
0.0000001000
44
0.0000000001
12
0.0419980393
22
0.0167697972
32
0.0000000000
13
0.0419979891
23
0.0167699229
33
0.0000000000
40
0.0000000000
40
0.0000000000
40
0.0000000000
40
0.0000000000
40
1.0000000000
40
1.0000000000
40
1.0000000000
40
1.0000000000
10
-9.1752074875
20
27.6883783566
30
0.0000000000
10
-9.1612081411
20
27.6939682890
30
0.0000000000
10
-9.1472088030
20
27.6995582423
30
0.0000000000
10
-9.1332094733
20
27.7051482166
30
0.0000000000
11
-9.1752074875
21
27.6883783566
31
0.0000000000
11
-9.1332094733
21
27.7051482166
31
0.0000000000
0
SPLINE
5
320
100
AcDbEntity
8
0
100
AcDbSpline
62
9
6
CONTINUOUS
70
0
71
3
72
8
73
4
74
2
42
0.0000001000
43
0.0000001000
44
0.0000000001
12
0.2343607429
22
0.0935809471
32
0.0000000000
13
0.2343591711
23
0.0935848832
33
0.0000000000
40
0.0000000000
40
0.0000000000
40
0.0000000000
40
0.0000000000
40
1.0000000000
40
1.0000000000
40
1.0000000000
40
1.0000000000
10
-9.1332094733
20
27.7051482166
30
0.0000000000
10
-9.0550892257
20
27.7363418657
30
0.0000000000
10
-8.9769692389
20
27.7675361679
30
0.0000000000
10
-8.8988495152
20
27.7987311290
30
0.0000000000
11
-9.1332094733
21
27.7051482166
31
0.0000000000
11
-8.8988495152
21
27.7987311290
31
0.0000000000
0
SPLINE
5
321
100
AcDbEntity
8
0
100
AcDbSpline
62
9
6
CONTINUOUS
70
0
71
3
72
10
73
6
74
4
42
0.0000001000
43
0.0000001000
44
0.0000000001
12
0.9210617854
22
-0.0075106361
32
0.0000000000
13
0.9031976030
23
-0.1806801379
33
0.0000000000
40
0.0000000000
40
0.0000000000
40
0.0000000000
40
0.0000000000
40
0.3239632919
40
0.6569400453
40
1.0000000000
40
1.0000000000
40
1.0000000000
40
1.0000000000
10
-10.1667594963
20
27.9791372085
30
0.0000000000
10
-10.0672960936
20
27.9783261517
30
0.0000000000
10
-9.8656000541
20
27.9696890593
30
0.0000000000
10
-9.5601679364
20
27.9366458764
30
0.0000000000
10
-9.3554194847
20
27.9016936387
30
0.0000000000
10
-9.2521358418
20
27.8810322653
30
0.0000000000
11
-10.1667594963
21
27.9791372085
31
0.0000000000
11
-9.8686216384
21
27.9666290385
31
0.0000000000
11
-9.5636685464
21
27.9339189664
31
0.0000000000
11
-9.2521358418
21
27.8810322653
31
0.0000000000
0
SPLINE
5
322
100
AcDbEntity
8
0
100
AcDbSpline
62
9
6
CONTINUOUS
70
0
71
3
72
8
73
4
74
2
42
0.0000001000
43
0.0000001000
44
0.0000000001
12
-0.2376849725
22
-0.0938870520
32
0.0000000000
13
-0.2376841843
23
-0.0938890474
33
0.0000000000
40
0.0000000000
40
0.0000000000
40
0.0000000000
40
0.0000000000
40
1.0000000000
40
1.0000000000
40
1.0000000000
40
1.0000000000
10
-6.5710290480
20
29.4620865663
30
0.0000000000
10
-6.6502573722
20
29.4307908823
30
0.0000000000
10
-6.7294855582
20
29.3994948485
30
0.0000000000
10
-6.8087136197
20
29.3681984994
30
0.0000000000
11
-6.5710290480
21
29.4620865663
31
0.0000000000
11
-6.8087136197
21
29.3681984994
31
0.0000000000
0
SPLINE
5
323
100
AcDbEntity
8
0
100
AcDbSpline
62
9
6
CONTINUOUS
70
0
71
3
72
8
73
4
74
2
42
0.0000001000
43
0.0000001000
44
0.0000000001
12
-2.3443176502
22
-0.9260428982
32
0.0000000000
13
-2.3442840123
23
-0.9261280523
33
0.0000000000
40
0.0000000000
40
0.0000000000
40
0.0000000000
40
0.0000000000
40
1.0000000000
40
1.0000000000
40
1.0000000000
40
1.0000000000
10
-6.8087136197
20
29.3681984994
30
0.0000000000
10
-7.5901528364
20
29.0595175333
30
0.0000000000
10
-8.3715799333
20
28.7508058865
30
0.0000000000
10
-9.1530079374
20
28.4420965358
30
0.0000000000
11
-6.8087136197
21
29.3681984994
31
0.0000000000
11
-9.1530079374
21
28.4420965358
31
0.0000000000
0
SPLINE
5
324
100
AcDbEntity
8
0
100
AcDbSpline
62
9
6
CONTINUOUS
70
0
71
3
72
8
73
4
74
2
42
0.0000001000
43
0.0000001000
44
0.0000000001
12
-0.2774700798
22
-0.1096167628
32
0.0000000000
13
-0.2774702209
23
-0.1096164058
33
0.0000000000
40
0.0000000000
40
0.0000000000
40
0.0000000000
40
0.0000000000
40
1.0000000000
40
1.0000000000
40
1.0000000000
40
1.0000000000
10
-9.1530079374
20
28.4420965358
30
0.0000000000
10
-9.2454979640
20
28.4055576148
30
0.0000000000
10
-9.3379880033
20
28.3690187260
30
0.0000000000
10
-9.4304780769
20
28.3324799241
30
0.0000000000
11
-9.1530079374
21
28.4420965358
31
0.0000000000
11
-9.4304780769
21
28.3324799241
31
0.0000000000
0
SPLINE
5
325
100
AcDbEntity
8
0
100
AcDbSpline
62
9
6
CONTINUOUS
70
0
71
3
72
8
73
4
74
2
42
0.0000001000
43
0.0000001000
44
0.0000000001
12
-0.7576283694
22
-0.2993059887
32
0.0000000000
13
-0.7576312234
23
-0.2992987645
33
0.0000000000
40
0.0000000000
40
0.0000000000
40
0.0000000000
40
0.0000000000
40
1.0000000000
40
1.0000000000
40
1.0000000000
40
1.0000000000
10
-9.4304780769
20
28.3324799241
30
0.0000000000
10
-9.6830208668
20
28.2327112612
30
0.0000000000
10
-9.9355639124
20
28.1329432458
30
0.0000000000
10
-10.1881076535
20
28.0331769910
30
0.0000000000
11
-9.4304780769
21
28.3324799241
31
0.0000000000
11
-10.1881076535
21
28.0331769910
31
0.0000000000
0
SPLINE
5
326
100
AcDbEntity
8
0
100
AcDbSpline
62
9
6
CONTINUOUS
70
0
71
3
72
8
73
4
74
2
42
0.0000001000
43
0.0000001000
44
0.0000000001
12
-2.4362744471
22
-0.9624391253
32
0.0000000000
13
-2.4362745427
23
-0.9624388807
33
0.0000000000
40
0.0000000000
40
0.0000000000
40
0.0000000000
40
0.0000000000
40
1.0000000000
40
1.0000000000
40
1.0000000000
40
1.0000000000
10
-10.1881076535
20
28.0331769910
30
0.0000000000
10
-11.0001991359
20
27.7123639492
30
0.0000000000
10
-11.8122979496
20
27.3915694656
30
0.0000000000
10
-12.6243894638
20
27.0707565054
30
0.0000000000
11
-10.1881076535
21
28.0331769910
31
0.0000000000
11
-12.6243894638
21
27.0707565054
31
0.0000000000
0
SPLINE
5
327
100
AcDbEntity
8
0
100
AcDbSpline
62
9
6
CONTINUOUS
70
0
71
3
72
8
73
4
74
2
42
0.0000001000
43
0.0000001000
44
0.0000000001
12
-0.4325846004
22
-0.1708905262
32
0.0000000000
13
-0.4325829737
23
-0.1708946437
33
0.0000000000
40
0.0000000000
40
0.0000000000
40
0.0000000000
40
0.0000000000
40
1.0000000000
40
1.0000000000
40
1.0000000000
40
1.0000000000
10
-12.6243894638
20
27.0707565054
30
0.0000000000
10
-12.7685843306
20
27.0137929967
30
0.0000000000
10
-12.9127789672
20
26.9568289053
30
0.0000000000
10
-13.0569732918
20
26.8998640241
30
0.0000000000
11
-12.6243894638
21
27.0707565054
31
0.0000000000
11
-13.0569732918
21
26.8998640241
31
0.0000000000
0
SPLINE
5
328
100
AcDbEntity
8
0
100
AcDbSpline
62
9
6
CONTINUOUS
70
0
71
3
72
8
73
4
74
2
42
0.0000001000
43
0.0000001000
44
0.0000000001
12
-0.1168480748
22
-0.0461615721
32
0.0000000000
13
-0.1168479334
23
-0.0461619302
33
0.0000000000
40
0.0000000000
40
0.0000000000
40
0.0000000000
40
0.0000000000
40
1.0000000000
40
1.0000000000
40
1.0000000000
40
1.0000000000
10
-13.0569732918
20
26.8998640241
30
0.0000000000
10
-13.0959226501
20
26.8844768334
30
0.0000000000
10
-13.1348719856
20
26.8690895851
30
0.0000000000
10
-13.1738212967
20
26.8537022750
30
0.0000000000
11
-13.0569732918
21
26.8998640241
31
0.0000000000
11
-13.1738212967
21
26.8537022750
31
0.0000000000
0
SPLINE
5
329
100
AcDbEntity
8
0
100
AcDbSpline
62
9
6
CONTINUOUS
70
0
71
3
72
10
73
6
74
4
42
0.0000001000
43
0.0000001000
44
0.0000000001
12
0.2463207406
22
-0.5275242986
32
0.0000000000
13
0.2423461409
23
-0.5293620131
33
0.0000000000
40
0.0000000000
40
0.0000000000
40
0.0000000000
40
0.0000000000
40
0.3330690372
40
0.6664071007
40
1.0000000000
40
1.0000000000
40
1.0000000000
40
1.0000000000
10
-4.6915019589
20
22.8750059071
30
0.0000000000
10
-4.6641546882
20
22.8164385704
30
0.0000000000
10
-4.6095853419
20
22.6991877514
30
0.0000000000
10
-4.5281411633
20
22.5230381799
30
0.0000000000
10
-4.4741179620
20
22.4054228415
30
0.0000000000
10
-4.4471696447
20
22.3465590386
30
0.0000000000
11
-4.6915019589
21
22.8750059071
31
0.0000000000
11
-4.6096809038
21
22.6992009861
31
0.0000000000
11
-4.5282354727
21
22.5230491613
31
0.0000000000
11
-4.4471696447
21
22.3465590386
31
0.0000000000
0
SPLINE
5
32A
100
AcDbEntity
8
0
100
AcDbSpline
62
9
6
CONTINUOUS
70
0
71
3
72
10
73
6
74
4
42
0.0000001000
43
0.0000001000
44
0.0000000001
12
0.9462578467
22
-2.1285547664
32
0.0000000000
13
0.8829529237
23
-2.1555842458
33
0.0000000000
40
0.0000000000
40
0.0000000000
40
0.0000000000
40
0.0000000000
40
0.3329307689
40
0.6663391978
40
1.0000000000
40
1.0000000000
40
1.0000000000
40
1.0000000000
10
-4.0938833181
20
21.5634889416
30
0.0000000000
10
-3.9888705339
20
21.3272684832
30
0.0000000000
10
-3.7810331663
20
20.8534448024
30
0.0000000000
10
-3.4761481799
20
20.1393242680
30
0.0000000000
10
-3.2774619239
20
19.6609772808
30
0.0000000000
10
-3.1792596636
20
19.4212326246
30
0.0000000000
11
-4.0938833181
21
21.5634889416
31
0.0000000000
11
-3.7823506135
21
20.8532794781
31
0.0000000000
11
-3.4773975215
21
20.1390100794
31
0.0000000000
11
-3.1792596636
21
19.4212326246
31
0.0000000000
0
SPLINE
5
32B
100
AcDbEntity
8
0
100
AcDbSpline
62
9
6
CONTINUOUS
70
0
71
3
72
9
73
5
74
3
42
0.0000001000
43
0.0000001000
44
0.0000000001
12
-3.9266617982
22
-1.6561086303
32
0.0000000000
13
-3.9267078294
23
-1.6559994884
33
0.0000000000
40
0.0000000000
40
0.0000000000
40
0.0000000000
40
0.0000000000
40
0.9056902160
40
1.0000000000
40
1.0000000000
40
1.0000000000
40
1.0000000000
10
11.9171859549
20
-22.7831684020
30
0.0000000000
10
10.7317395642
20
-23.2831421964
30
0.0000000000
10
9.4228150395
20
-23.8350900605
30
0.0000000000
10
8.1139110953
20
-24.3870867258
30
0.0000000000
10
7.9904687729
20
-24.4391457105
30
0.0000000000
11
11.9171859549
21
-22.7831684020
31
0.0000000000
11
8.3607961748
21
-24.2829697873
31
0.0000000000
11
7.9904687729
21
-24.4391457105
31
0.0000000000
0
SPLINE
5
32C
100
AcDbEntity
8
0
100
AcDbSpline
62
9
6
CONTINUOUS
70
0
71
3
72
10
73
6
74
4
42
0.0000001000
43
0.0000001000
44
0.0000000001
12
0.2456970844
22
-0.0651509353
32
0.0000000000
13
0.2429354283
23
-0.0747935782
33
0.0000000000
40
0.0000000000
40
0.0000000000
40
0.0000000000
40
0.0000000000
40
0.3305382417
40
0.6638577799
40
1.0000000000
40
1.0000000000
40
1.0000000000
40
1.0000000000
10
2.3511504848
20
14.0203513258
30
0.0000000000
10
2.3782212456
20
14.0131730340
30
0.0000000000
10
2.4324936243
20
13.9983876840
30
0.0000000000
10
2.5139432479
20
13.9750336846
30
0.0000000000
10
2.5682625142
20
13.9586891236
30
0.0000000000
10
2.5954827989
20
13.9503086971
30
0.0000000000
11
2.3511504848
21
14.0203513258
31
0.0000000000
11
2.4322163128
21
13.9982715343
31
0.0000000000
11
2.5136617439
21
13.9749236112
31
0.0000000000
11
2.5954827989
21
13.9503086971
31
0.0000000000
0
SPLINE
5
32D
100
AcDbEntity
8
0
100
AcDbSpline
62
9
6
CONTINUOUS
70
0
71
3
72
8
73
4
74
2
42
0.0000001000
43
0.0000001000
44
0.0000000001
12
0.3862568130
22
0.1541358548
32
0.0000000000
13
0.3862529816
23
0.1541454560
33
0.0000000000
40
0.0000000000
40
0.0000000000
40
0.0000000000
40
0.0000000000
40
1.0000000000
40
1.0000000000
40
1.0000000000
40
1.0000000000
10
-1.1153245353
20
12.6365911820
30
0.0000000000
10
-0.9865722643
20
12.6879698003
30
0.0000000000
10
-0.8578206280
20
12.7393500089
30
0.0000000000
10
-0.7290696341
20
12.7907318276
30
0.0000000000
11
-1.1153245353
21
12.6365911820
31
0.0000000000
11
-0.7290696341
21
12.7907318276
31
0.0000000000
0
SPLINE
5
32E
100
AcDbEntity
8
0
100
AcDbSpline
62
9
6
CONTINUOUS
70
0
71
3
72
8
73
4
74
2
42
0.0000001000
43
0.0000001000
44
0.0000000001
12
0.3859847971
22
0.1540384292
32
0.0000000000
13
0.3859809240
23
0.1540481342
33
0.0000000000
40
0.0000000000
40
0.0000000000
40
0.0000000000
40
0.0000000000
40
1.0000000000
40
1.0000000000
40
1.0000000000
40
1.0000000000
10
-0.7290696341
20
12.7907318276
30
0.0000000000
10
-0.6004080351
20
12.8420779707
30
0.0000000000
10
-0.4717470776
20
12.8934257215
30
0.0000000000
10
-0.3430867696
20
12.9447750996
30
0.0000000000
11
-0.7290696341
21
12.7907318276
31
0.0000000000
11
-0.3430867696
21
12.9447750996
31
0.0000000000
0
SPLINE
5
32F
100
AcDbEntity
8
0
100
AcDbSpline
62
9
6
CONTINUOUS
70
0
71
3
72
10
73
6
74
4
42
0.0000001000
43
0.0000001000
44
0.0000000001
12
1.9258763519
22
0.7686329564
32
0.0000000000
13
1.9257761674
23
0.7688839301
33
0.0000000000
40
0.0000000000
40
0.0000000000
40
0.0000000000
40
0.0000000000
40
0.2002790595
40
0.8002804272
40
1.0000000000
40
1.0000000000
40
1.0000000000
40
1.0000000000
10
-0.3430867696
20
12.9447750996
30
0.0000000000
10
-0.2145158682
20
12.9960887947
30
0.0000000000
10
0.2992285902
20
13.2011359249
30
0.0000000000
10
0.9411710403
20
13.4573878336
30
0.0000000000
10
1.4545349744
20
13.6623451187
30
0.0000000000
10
1.5827400389
20
13.7135321754
30
0.0000000000
11
-0.3430867696
21
12.9447750996
31
0.0000000000
11
0.0426239813
21
13.0987210796
31
0.0000000000
11
1.1981227888
21
13.5599761564
31
0.0000000000
11
1.5827400389
21
13.7135321754
31
0.0000000000
0
SPLINE
5
330
100
AcDbEntity
8
0
100
AcDbSpline
62
9
6
CONTINUOUS
70
0
71
3
72
8
73
4
74
2
42
0.0000001000
43
0.0000001000
44
0.0000000001
12
0.3843446678
22
0.1534531602
32
0.0000000000
13
0.3843405112
23
0.1534635704
33
0.0000000000
40
0.0000000000
40
0.0000000000
40
0.0000000000
40
0.0000000000
40
1.0000000000
40
1.0000000000
40
1.0000000000
40
1.0000000000
10
1.5827400389
20
13.7135321754
30
0.0000000000
10
1.7108549282
20
13.7646832288
30
0.0000000000
10
1.8389691296
20
13.8158360050
30
0.0000000000
10
1.9670826333
20
13.8669905284
30
0.0000000000
11
1.5827400389
21
13.7135321754
31
0.0000000000
11
1.9670826333
21
13.8669905284
31
0.0000000000
0
SPLINE
5
331
100
AcDbEntity
8
0
100
AcDbSpline
62
9
6
CONTINUOUS
70
0
71
3
72
8
73
4
74
2
42
0.0000001000
43
0.0000001000
44
0.0000000001
12
0.1077100438
22
0.0430076128
32
0.0000000000
13
0.1077097144
23
0.0430084378
33
0.0000000000
40
0.0000000000
40
0.0000000000
40
0.0000000000
40
0.0000000000
40
1.0000000000
40
1.0000000000
40
1.0000000000
40
1.0000000000
10
1.9670826333
20
13.8669905284
30
0.0000000000
10
2.0029859812
20
13.8813263993
30
0.0000000000
10
2.0388892744
20
13.8956624075
30
0.0000000000
10
2.0747925125
20
13.9099985534
30
0.0000000000
11
1.9670826333
21
13.8669905284
31
0.0000000000
11
2.0747925125
21
13.9099985534
31
0.0000000000
0
SPLINE
5
332
100
AcDbEntity
8
0
100
AcDbSpline
62
9
6
CONTINUOUS
70
0
71
3
72
8
73
4
74
2
42
0.0000001000
43
0.0000001000
44
0.0000000001
12
0.0419980393
22
0.0167697972
32
0.0000000000
13
0.0419979891
23
0.0167699229
33
0.0000000000
40
0.0000000000
40
0.0000000000
40
0.0000000000
40
0.0000000000
40
1.0000000000
40
1.0000000000
40
1.0000000000
40
1.0000000000
10
2.0747925125
20
13.9099985534
30
0.0000000000
10
2.0887918589
20
13.9155884858
30
0.0000000000
10
2.1027911970
20
13.9211784392
30
0.0000000000
10
2.1167905267
20
13.9267684135
30
0.0000000000
11
2.0747925125
21
13.9099985534
31
0.0000000000
11
2.1167905267
21
13.9267684135
31
0.0000000000
0
SPLINE
5
333
100
AcDbEntity
8
0
100
AcDbSpline
62
9
6
CONTINUOUS
70
0
71
3
72
8
73
4
74
2
42
0.0000001000
43
0.0000001000
44
0.0000000001
12
0.2343607429
22
0.0935809471
32
0.0000000000
13
0.2343591711
23
0.0935848832
33
0.0000000000
40
0.0000000000
40
0.0000000000
40
0.0000000000
40
0.0000000000
40
1.0000000000
40
1.0000000000
40
1.0000000000
40
1.0000000000
10
2.1167905267
20
13.9267684135
30
0.0000000000
10
2.1949107743
20
13.9579620625
30
0.0000000000
10
2.2730307611
20
13.9891563648
30
0.0000000000
10
2.3511504848
20
14.0203513258
30
0.0000000000
11
2.1167905267
21
13.9267684135
31
0.0000000000
11
2.3511504848
21
14.0203513258
31
0.0000000000
0
SPLINE
5
334
100
AcDbEntity
8
0
100
AcDbSpline
62
9
6
CONTINUOUS
70
0
71
3
72
10
73
6
74
4
42
0.0000001000
43
0.0000001000
44
0.0000000001
12
0.9210617854
22
-0.0075106361
32
0.0000000000
13
0.9031976030
23
-0.1806801379
33
0.0000000000
40
0.0000000000
40
0.0000000000
40
0.0000000000
40
0.0000000000
40
0.3239632919
40
0.6569400453
40
1.0000000000
40
1.0000000000
40
1.0000000000
40
1.0000000000
10
1.0832405037
20
14.2007574053
30
0.0000000000
10
1.1827039064
20
14.1999463485
30
0.0000000000
10
1.3843999459
20
14.1913092561
30
0.0000000000
10
1.6898320636
20
14.1582660732
30
0.0000000000
10
1.8945805153
20
14.1233138355
30
0.0000000000
10
1.9978641582
20
14.1026524622
30
0.0000000000
11
1.0832405037
21
14.2007574053
31
0.0000000000
11
1.3813783616
21
14.1882492354
31
0.0000000000
11
1.6863314536
21
14.1555391632
31
0.0000000000
11
1.9978641582
21
14.1026524622
31
0.0000000000
0
SPLINE
5
335
100
AcDbEntity
8
0
100
AcDbSpline
62
9
6
CONTINUOUS
70
0
71
3
72
8
73
4
74
2
42
0.0000001000
43
0.0000001000
44
0.0000000001
12
-0.2376849725
22
-0.0938870520
32
0.0000000000
13
-0.2376841843
23
-0.0938890474
33
0.0000000000
40
0.0000000000
40
0.0000000000
40
0.0000000000
40
0.0000000000
40
1.0000000000
40
1.0000000000
40
1.0000000000
40
1.0000000000
10
4.6789709520
20
15.6837067631
30
0.0000000000
10
4.5997426278
20
15.6524110791
30
0.0000000000
10
4.5205144418
20
15.6211150454
30
0.0000000000
10
4.4412863803
20
15.5898186962
30
0.0000000000
11
4.6789709520
21
15.6837067631
31
0.0000000000
11
4.4412863803
21
15.5898186962
31
0.0000000000
0
SPLINE
5
336
100
AcDbEntity
8
0
100
AcDbSpline
62
9
6
CONTINUOUS
70
0
71
3
72
8
73
4
74
2
42
0.0000001000
43
0.0000001000
44
0.0000000001
12
-2.3443176502
22
-0.9260428982
32
0.0000000000
13
-2.3442840123
23
-0.9261280523
33
0.0000000000
40
0.0000000000
40
0.0000000000
40
0.0000000000
40
0.0000000000
40
1.0000000000
40
1.0000000000
40
1.0000000000
40
1.0000000000
10
4.4412863803
20
15.5898186962
30
0.0000000000
10
3.6598471636
20
15.2811377302
30
0.0000000000
10
2.8784200667
20
14.9724260834
30
0.0000000000
10
2.0969920626
20
14.6637167326
30
0.0000000000
11
4.4412863803
21
15.5898186962
31
0.0000000000
11
2.0969920626
21
14.6637167326
31
0.0000000000
0
SPLINE
5
337
100
AcDbEntity
8
0
100
AcDbSpline
62
9
6
CONTINUOUS
70
0
71
3
72
8
73
4
74
2
42
0.0000001000
43
0.0000001000
44
0.0000000001
12
-0.2774700798
22
-0.1096167628
32
0.0000000000
13
-0.2774702209
23
-0.1096164058
33
0.0000000000
40
0.0000000000
40
0.0000000000
40
0.0000000000
40
0.0000000000
40
1.0000000000
40
1.0000000000
40
1.0000000000
40
1.0000000000
10
2.0969920626
20
14.6637167326
30
0.0000000000
10
2.0045020360
20
14.6271778117
30
0.0000000000
10
1.9120119967
20
14.5906389229
30
0.0000000000
10
1.8195219231
20
14.5541001210
30
0.0000000000
11
2.0969920626
21
14.6637167326
31
0.0000000000
11
1.8195219231
21
14.5541001210
31
0.0000000000
0
SPLINE
5
338
100
AcDbEntity
8
0
100
AcDbSpline
62
9
6
CONTINUOUS
70
0
71
3
72
8
73
4
74
2
42
0.0000001000
43
0.0000001000
44
0.0000000001
12
-0.7576283694
22
-0.2993059887
32
0.0000000000
13
-0.7576312234
23
-0.2992987645
33
0.0000000000
40
0.0000000000
40
0.0000000000
40
0.0000000000
40
0.0000000000
40
1.0000000000
40
1.0000000000
40
1.0000000000
40
1.0000000000
10
1.8195219231
20
14.5541001210
30
0.0000000000
10
1.5669791332
20
14.4543314581
30
0.0000000000
10
1.3144360876
20
14.3545634426
30
0.0000000000
10
1.0618923465
20
14.2547971878
30
0.0000000000
11
1.8195219231
21
14.5541001210
31
0.0000000000
11
1.0618923465
21
14.2547971878
31
0.0000000000
0
SPLINE
5
339
100
AcDbEntity
8
0
100
AcDbSpline
62
9
6
CONTINUOUS
70
0
71
3
72
8
73
4
74
2
42
0.0000001000
43
0.0000001000
44
0.0000000001
12
-2.2291832225
22
-0.8806286801
32
0.0000000000
13
-2.2291864264
23
-0.8806205677
33
0.0000000000
40
0.0000000000
40
0.0000000000
40
0.0000000000
40
0.0000000000
40
1.0000000000
40
1.0000000000
40
1.0000000000
40
1.0000000000
10
1.0618923465
20
14.2547971878
30
0.0000000000
10
0.3188312723
20
13.9612542944
30
0.0000000000
10
-0.4242359396
20
13.6677269381
30
0.0000000000
10
-1.1672980818
20
13.3741867488
30
0.0000000000
11
1.0618923465
21
14.2547971878
31
0.0000000000
11
-1.1672980818
21
13.3741867488
31
0.0000000000
0
SPLINE
5
33A
100
AcDbEntity
8
0
100
AcDbSpline
62
9
6
CONTINUOUS
70
0
71
3
72
8
73
4
74
2
42
0.0000001000
43
0.0000001000
44
0.0000000001
12
-0.2070915223
22
-0.0818096915
32
0.0000000000
13
-0.2070912327
23
-0.0818104244
33
0.0000000000
40
0.0000000000
40
0.0000000000
40
0.0000000000
40
0.0000000000
40
1.0000000000
40
1.0000000000
40
1.0000000000
40
1.0000000000
10
-1.1672980818
20
13.3741867488
30
0.0000000000
10
-1.2363285892
20
13.3469168516
30
0.0000000000
10
-1.3053590529
20
13.3196468437
30
0.0000000000
10
-1.3743894638
20
13.2923767022
30
0.0000000000
11
-1.1672980818
21
13.3741867488
31
0.0000000000
11
-1.3743894638
21
13.2923767022
31
0.0000000000
0
SPLINE
5
33B
100
AcDbEntity
8
0
100
AcDbSpline
62
9
6
CONTINUOUS
70
0
71
3
72
8
73
4
74
2
42
0.0000001000
43
0.0000001000
44
0.0000000001
12
-0.4325846004
22
-0.1708905262
32
0.0000000000
13
-0.4325829737
23
-0.1708946437
33
0.0000000000
40
0.0000000000
40
0.0000000000
40
0.0000000000
40
0.0000000000
40
1.0000000000
40
1.0000000000
40
1.0000000000
40
1.0000000000
10
-1.3743894638
20
13.2923767022
30
0.0000000000
10
-1.5185843306
20
13.2354131935
30
0.0000000000
10
-1.6627789672
20
13.1784491022
30
0.0000000000
10
-1.8069732918
20
13.1214842209
30
0.0000000000
11
-1.3743894638
21
13.2923767022
31
0.0000000000
11
-1.8069732918
21
13.1214842209
31
0.0000000000
0
SPLINE
5
33C
100
AcDbEntity
8
0
100
AcDbSpline
62
9
6
CONTINUOUS
70
0
71
3
72
8
73
4
74
2
42
0.0000001000
43
0.0000001000
44
0.0000000001
12
-0.1168480748
22
-0.0461615721
32
0.0000000000
13
-0.1168479334
23
-0.0461619302
33
0.0000000000
40
0.0000000000
40
0.0000000000
40
0.0000000000
40
0.0000000000
40
1.0000000000
40
1.0000000000
40
1.0000000000
40
1.0000000000
10
-1.8069732918
20
13.1214842209
30
0.0000000000
10
-1.8459226501
20
13.1060970303
30
0.0000000000
10
-1.8848719856
20
13.0907097819
30
0.0000000000
10
-1.9238212967
20
13.0753224719
30
0.0000000000
11
-1.8069732918
21
13.1214842209
31
0.0000000000
11
-1.9238212967
21
13.0753224719
31
0.0000000000
0
SPLINE
5
33D
100
AcDbEntity
8
0
100
AcDbSpline
62
9
6
CONTINUOUS
70
0
71
3
72
10
73
6
74
4
42
0.0000001000
43
0.0000001000
44
0.0000000001
12
0.2463207406
22
-0.5275242986
32
0.0000000000
13
0.2423461409
23
-0.5293620131
33
0.0000000000
40
0.0000000000
40
0.0000000000
40
0.0000000000
40
0.0000000000
40
0.3330690372
40
0.6664071007
40
1.0000000000
40
1.0000000000
40
1.0000000000
40
1.0000000000
10
6.5584980411
20
9.0966261040
30
0.0000000000
10
6.5858453118
20
9.0380587672
30
0.0000000000
10
6.6404146581
20
8.9208079482
30
0.0000000000
10
6.7218588367
20
8.7446583767
30
0.0000000000
10
6.7758820380
20
8.6270430383
30
0.0000000000
10
6.8028303553
20
8.5681792354
30
0.0000000000
11
6.5584980411
21
9.0966261040
31
0.0000000000
11
6.6403190962
21
8.9208211830
31
0.0000000000
11
6.7217645273
21
8.7446693581
31
0.0000000000
11
6.8028303553
21
8.5681792354
31
0.0000000000
0
SPLINE
5
33E
100
AcDbEntity
8
0
100
AcDbSpline
62
9
6
CONTINUOUS
70
0
71
3
72
10
73
6
74
4
42
0.0000001000
43
0.0000001000
44
0.0000000001
12
0.9462578467
22
-2.1285547664
32
0.0000000000
13
0.8829529237
23
-2.1555842458
33
0.0000000000
40
0.0000000000
40
0.0000000000
40
0.0000000000
40
0.0000000000
40
0.3329307689
40
0.6663391978
40
1.0000000000
40
1.0000000000
40
1.0000000000
40
1.0000000000
10
7.1561166819
20
7.7851091384
30
0.0000000000
10
7.2611294661
20
7.5488886801
30
0.0000000000
10
7.4689668337
20
7.0750649992
30
0.0000000000
10
7.7738518201
20
6.3609444648
30
0.0000000000
10
7.9725380761
20
5.8825974776
30
0.0000000000
10
8.0707403364
20
5.6428528214
30
0.0000000000
11
7.1561166819
21
7.7851091384
31
0.0000000000
11
7.4676493865
21
7.0748996750
31
0.0000000000
11
7.7726024785
21
6.3606302762
31
0.0000000000
11
8.0707403364
21
5.6428528214
31
0.0000000000
0
SPLINE
5
33F
100
AcDbEntity
8
0
100
AcDbSpline
62
9
6
CONTINUOUS
70
0
71
3
72
10
73
6
74
4
42
0.0000001000
43
0.0000001000
44
0.0000000001
12
-0.0550506327
22
-0.8799324197
32
0.0000000000
13
0.7637006244
23
-0.4405371625
33
0.0000000000
40
0.0000000000
40
0.0000000000
40
0.0000000000
40
0.0000000000
40
0.3290968531
40
0.7130271281
40
1.0000000000
40
1.0000000000
40
1.0000000000
40
1.0000000000
10
-4.4471696447
20
22.3465590386
30
0.0000000000
10
-4.4532086414
20
22.2500313752
30
0.0000000000
10
-4.4073084508
20
22.0388931169
30
0.0000000000
10
-4.2887493120
20
21.7738660334
30
0.0000000000
10
-4.1669371053
20
21.6056296798
30
0.0000000000
10
-4.0938833181
20
21.5634889416
30
0.0000000000
11
-4.4471696447
21
22.3465590386
31
0.0000000000
11
-4.4026078220
21
22.0598522589
31
0.0000000000
11
-4.2634113711
21
21.7513040581
31
0.0000000000
11
-4.0938833181
21
21.5634889416
31
0.0000000000
0
SPLINE
5
340
100
AcDbEntity
8
0
100
AcDbSpline
62
9
6
CONTINUOUS
70
0
71
3
72
8
73
4
74
2
42
0.0000001000
43
0.0000001000
44
0.0000000001
12
0.0208238005
22
-0.2074041168
32
0.0000000000
13
-0.1469797224
23
-0.0824480635
33
0.0000000000
40
0.0000000000
40
0.0000000000
40
0.0000000000
40
0.0000000000
40
1.0000000000
40
1.0000000000
40
1.0000000000
40
1.0000000000
10
-12.3653245353
20
26.4149709851
30
0.0000000000
10
-12.3583832685
20
26.3458362795
30
0.0000000000
10
-12.3548092532
20
26.2375889737
30
0.0000000000
10
-12.4038024940
20
26.2101062858
30
0.0000000000
11
-12.3653245353
21
26.4149709851
31
0.0000000000
11
-12.4038024940
21
26.2101062858
31
0.0000000000
0
SPLINE
5
341
100
AcDbEntity
8
0
100
AcDbSpline
62
9
6
CONTINUOUS
70
0
71
3
72
8
73
4
74
2
42
0.0000001000
43
0.0000001000
44
0.0000000001
12
-0.0173510840
22
-0.0097330656
32
0.0000000000
13
-0.0211995605
23
-0.0034220411
33
0.0000000000
40
0.0000000000
40
0.0000000000
40
0.0000000000
40
0.0000000000
40
1.0000000000
40
1.0000000000
40
1.0000000000
40
1.0000000000
10
-12.4038024940
20
26.2101062858
30
0.0000000000
10
-12.4095861887
20
26.2068619306
30
0.0000000000
10
-12.4161024610
20
26.2047431118
30
0.0000000000
10
-12.4231689812
20
26.2036024314
30
0.0000000000
11
-12.4038024940
21
26.2101062858
31
0.0000000000
11
-12.4231689812
21
26.2036024314
31
0.0000000000
0
SPLINE
5
342
100
AcDbEntity
8
0
100
AcDbSpline
62
9
6
CONTINUOUS
70
0
71
3
72
8
73
4
74
2
42
0.0000001000
43
0.0000001000
44
0.0000000001
12
0.1015733674
22
-0.1902107958
32
0.0000000000
13
0.1535292663
23
-0.1589622519
33
0.0000000000
40
0.0000000000
40
0.0000000000
40
0.0000000000
40
0.0000000000
40
1.0000000000
40
1.0000000000
40
1.0000000000
40
1.0000000000
10
-9.2521358418
20
27.8810322653
30
0.0000000000
10
-9.2182780527
20
27.8176286667
30
0.0000000000
10
-9.1899406119
20
27.7527719317
30
0.0000000000
10
-9.1387641898
20
27.6997845144
30
0.0000000000
11
-9.2521358418
21
27.8810322653
31
0.0000000000
11
-9.1387641898
21
27.6997845144
31
0.0000000000
0
SPLINE
5
343
100
AcDbEntity
8
0
100
AcDbSpline
62
9
6
CONTINUOUS
70
0
71
3
72
8
73
4
74
2
42
0.0000001000
43
0.0000001000
44
0.0000000001
12
0.0208238005
22
-0.2074041168
32
0.0000000000
13
-0.1469797224
23
-0.0824480635
33
0.0000000000
40
0.0000000000
40
0.0000000000
40
0.0000000000
40
0.0000000000
40
1.0000000000
40
1.0000000000
40
1.0000000000
40
1.0000000000
10
-1.1153245353
20
12.6365911820
30
0.0000000000
10
-1.1083832685
20
12.5674564764
30
0.0000000000
10
-1.1048092532
20
12.4592091705
30
0.0000000000
10
-1.1538024940
20
12.4317264827
30
0.0000000000
11
-1.1153245353
21
12.6365911820
31
0.0000000000
11
-1.1538024940
21
12.4317264827
31
0.0000000000
0
SPLINE
5
344
100
AcDbEntity
8
0
100
AcDbSpline
62
9
6
CONTINUOUS
70
0
71
3
72
8
73
4
74
2
42
0.0000001000
43
0.0000001000
44
0.0000000001
12
-0.0173510840
22
-0.0097330656
32
0.0000000000
13
-0.0211995605
23
-0.0034220411
33
0.0000000000
40
0.0000000000
40
0.0000000000
40
0.0000000000
40
0.0000000000
40
1.0000000000
40
1.0000000000
40
1.0000000000
40
1.0000000000
10
-1.1538024940
20
12.4317264827
30
0.0000000000
10
-1.1595861887
20
12.4284821275
30
0.0000000000
10
-1.1661024610
20
12.4263633086
30
0.0000000000
10
-1.1731689812
20
12.4252226283
30
0.0000000000
11
-1.1538024940
21
12.4317264827
31
0.0000000000
11
-1.1731689812
21
12.4252226283
31
0.0000000000
0
SPLINE
5
345
100
AcDbEntity
8
0
100
AcDbSpline
62
9
6
CONTINUOUS
70
0
71
3
72
8
73
4
74
2
42
0.0000001000
43
0.0000001000
44
0.0000000001
12
0.1015733674
22
-0.1902107958
32
0.0000000000
13
0.1535292663
23
-0.1589622519
33
0.0000000000
40
0.0000000000
40
0.0000000000
40
0.0000000000
40
0.0000000000
40
1.0000000000
40
1.0000000000
40
1.0000000000
40
1.0000000000
10
1.9978641582
20
14.1026524622
30
0.0000000000
10
2.0317219473
20
14.0392488636
30
0.0000000000
10
2.0600593881
20
13.9743921285
30
0.0000000000
10
2.1112358102
20
13.9214047112
30
0.0000000000
11
1.9978641582
21
14.1026524622
31
0.0000000000
11
2.1112358102
21
13.9214047112
31
0.0000000000
0
SPLINE
5
346
100
AcDbEntity
8
0
100
AcDbSpline
62
9
6
CONTINUOUS
70
0
71
3
72
10
73
6
74
4
42
0.0000001000
43
0.0000001000
44
0.0000000001
12
-0.0550506327
22
-0.8799324197
32
0.0000000000
13
0.7637006244
23
-0.4405371625
33
0.0000000000
40
0.0000000000
40
0.0000000000
40
0.0000000000
40
0.0000000000
40
0.3290968531
40
0.7130271281
40
1.0000000000
40
1.0000000000
40
1.0000000000
40
1.0000000000
10
6.8028303553
20
8.5681792354
30
0.0000000000
10
6.7967913586
20
8.4716515720
30
0.0000000000
10
6.8426915492
20
8.2605133137
30
0.0000000000
10
6.9612506880
20
7.9954862302
30
0.0000000000
10
7.0830628947
20
7.8272498767
30
0.0000000000
10
7.1561166819
20
7.7851091384
30
0.0000000000
11
6.8028303553
21
8.5681792354
31
0.0000000000
11
6.8473921780
21
8.2814724557
31
0.0000000000
11
6.9865886289
21
7.9729242550
31
0.0000000000
11
7.1561166819
21
7.7851091384
31
0.0000000000
0
SPLINE
5
347
100
AcDbEntity
8
0
100
AcDbSpline
62
9
6
CONTINUOUS
70
0
71
3
72
10
73
6
74
4
42
0.0000001000
43
0.0000001000
44
0.0000000001
12
-0.4270176831
22
-0.2614582759
32
0.0000000000
13
-0.4595897805
23
-0.1987001896
33
0.0000000000
40
0.0000000000
40
0.0000000000
40
0.0000000000
40
0.0000000000
40
0.3346997380
40
0.6678093678
40
1.0000000000
40
1.0000000000
40
1.0000000000
40
1.0000000000
10
7.8700476423
20
-24.7038683841
30
0.0000000000
10
7.8224067401
20
-24.7330383895
30
0.0000000000
10
7.7259867138
20
-24.7890471029
30
0.0000000000
10
7.5778371854
20
-24.8660304839
30
0.0000000000
10
7.4769467761
20
-24.9125278744
30
0.0000000000
10
7.4260563028
20
-24.9345299883
30
0.0000000000
11
7.8700476423
21
-24.7038683841
31
0.0000000000
11
7.7251252273
21
-24.7880253604
31
0.0000000000
11
7.5771178061
21
-24.8649180512
31
0.0000000000
11
7.4260563028
21
-24.9345299883
31
0.0000000000
0
SPLINE
5
348
100
AcDbEntity
8
0
100
AcDbSpline
62
9
6
CONTINUOUS
70
0
71
3
72
9
73
5
74
3
42
0.0000001000
43
0.0000001000
44
0.0000000001
12
0.0000000000
22
-0.3304872208
32
0.0000000000
13
-0.2818509082
23
-0.1725742409
33
0.0000000000
40
0.0000000000
40
0.0000000000
40
0.0000000000
40
0.0000000000
40
0.5941480016
40
1.0000000000
40
1.0000000000
40
1.0000000000
40
1.0000000000
10
7.9738356119
20
-24.3997044854
30
0.0000000000
10
7.9738356119
20
-24.4651572594
30
0.0000000000
10
7.9670229353
20
-24.5752358229
30
0.0000000000
10
7.9081775605
20
-24.6805218506
30
0.0000000000
10
7.8700476423
20
-24.7038683841
30
0.0000000000
11
7.9738356119
21
-24.3997044854
31
0.0000000000
11
7.9473719766
21
-24.5942713545
31
0.0000000000
11
7.8700476423
21
-24.7038683841
31
0.0000000000
0
SPLINE
5
349
100
AcDbEntity
8
0
100
AcDbSpline
62
9
6
CONTINUOUS
70
0
71
3
72
9
73
5
74
3
42
0.0000001000
43
0.0000001000
44
0.0000000001
12
0.1768339451
22
-0.5414264329
32
0.0000000000
13
-0.0000000000
23
-0.5695724944
33
0.0000000000
40
0.0000000000
40
0.0000000000
40
0.0000000000
40
0.0000000000
40
0.5385061192
40
1.0000000000
40
1.0000000000
40
1.0000000000
40
1.0000000000
10
7.8700476423
20
-0.5712266118
30
0.0000000000
10
7.9017896962
20
-0.6684137608
30
0.0000000000
10
7.9506823483
20
-0.8522830637
30
0.0000000000
10
7.9738356119
20
-1.0420000036
30
0.0000000000
10
7.9738356119
20
-1.1296180772
30
0.0000000000
11
7.8700476423
21
-0.5712266118
31
0.0000000000
11
7.9469835454
21
-0.8681389998
31
0.0000000000
11
7.9738356119
21
-1.1296180772
31
0.0000000000
0
SPLINE
5
34A
100
AcDbEntity
8
0
100
AcDbSpline
62
9
6
CONTINUOUS
70
0
71
3
72
8
73
4
74
2
42
0.0000001000
43
0.0000001000
44
0.0000000001
12
0.1016393417
22
-0.2929075310
32
0.0000000000
13
0.1004534859
23
-0.2933170091
33
0.0000000000
40
0.0000000000
40
0.0000000000
40
0.0000000000
40
0.0000000000
40
1.0000000000
40
1.0000000000
40
1.0000000000
40
1.0000000000
10
7.4260563028
20
0.7469872244
30
0.0000000000
10
7.4599360834
20
0.6493513807
30
0.0000000000
10
7.4936188522
20
0.5516469696
30
0.0000000000
10
7.5271033475
20
0.4538746332
30
0.0000000000
11
7.4260563028
21
0.7469872244
31
0.0000000000
11
7.5271033475
21
0.4538746332
31
0.0000000000
0
SPLINE
5
34B
100
AcDbEntity
8
0
100
AcDbSpline
62
9
6
CONTINUOUS
70
0
71
3
72
10
73
6
74
4
42
0.0000001000
43
0.0000001000
44
0.0000000001
12
0.3502295548
22
-1.0226453026
32
0.0000000000
13
0.3356011471
23
-1.0275364941
33
0.0000000000
40
0.0000000000
40
0.0000000000
40
0.0000000000
40
0.0000000000
40
0.1432287550
40
0.5721940342
40
1.0000000000
40
1.0000000000
40
1.0000000000
40
1.0000000000
10
7.5271033475
20
0.4538746332
30
0.0000000000
10
7.5438243285
20
0.4050505621
30
0.0000000000
10
7.6104265613
20
0.2099323808
30
0.0000000000
10
7.7254411038
20
-0.1315378597
30
0.0000000000
10
7.8221902514
20
-0.4246978644
30
0.0000000000
10
7.8700476423
20
-0.5712266118
30
0.0000000000
11
7.5271033475
21
0.4538746332
31
0.0000000000
11
7.5771178059
21
0.3073516851
31
0.0000000000
11
7.7251252272
21
-0.1320836660
31
0.0000000000
11
7.8700476423
21
-0.5712266118
31
0.0000000000
0
SPLINE
5
34C
100
AcDbEntity
8
0
100
AcDbSpline
62
9
6
CONTINUOUS
70
0
71
3
72
8
73
4
74
2
42
0.0000001000
43
0.0000001000
44
0.0000000001
12
0.0719502229
22
-0.0881206665
32
0.0000000000
13
-0.0022702461
23
-0.1173923736
33
0.0000000000
40
0.0000000000
40
0.0000000000
40
0.0000000000
40
0.0000000000
40
1.0000000000
40
1.0000000000
40
1.0000000000
40
1.0000000000
10
2.2203115614
20
20.3577693886
30
0.0000000000
10
2.2442949691
20
20.3283958331
30
0.0000000000
10
2.2514453734
20
20.2872675183
30
0.0000000000
10
2.2506886247
20
20.2481367271
30
0.0000000000
11
2.2203115614
21
20.3577693886
31
0.0000000000
11
2.2506886247
21
20.2481367271
31
0.0000000000
0
SPLINE
5
34D
100
AcDbEntity
8
0
100
AcDbSpline
62
9
6
CONTINUOUS
70
0
71
3
72
8
73
4
74
2
42
0.0000001000
43
0.0000001000
44
0.0000000001
12
-0.0018633963
22
-0.0963545387
32
0.0000000000
13
-0.0280523938
23
-0.0890752997
33
0.0000000000
40
0.0000000000
40
0.0000000000
40
0.0000000000
40
0.0000000000
40
1.0000000000
40
1.0000000000
40
1.0000000000
40
1.0000000000
10
2.2506886247
20
20.2481367271
30
0.0000000000
10
2.2500674926
20
20.2160185475
30
0.0000000000
10
2.2441193356
20
20.1852460935
30
0.0000000000
10
2.2347685376
20
20.1555543270
30
0.0000000000
11
2.2506886247
21
20.2481367271
31
0.0000000000
11
2.2347685376
21
20.1555543270
31
0.0000000000
0
SPLINE
5
34E
100
AcDbEntity
8
0
100
AcDbSpline
62
9
6
CONTINUOUS
70
0
71
3
72
9
73
5
74
3
42
0.0000001000
43
0.0000001000
44
0.0000000001
12
-0.0259569429
22
-0.0824215745
32
0.0000000000
13
-0.0395866052
23
-0.0771728999
33
0.0000000000
40
0.0000000000
40
0.0000000000
40
0.0000000000
40
0.0000000000
40
0.5795539378
40
1.0000000000
40
1.0000000000
40
1.0000000000
40
1.0000000000
10
2.2347685376
20
20.1555543270
30
0.0000000000
10
2.2297540548
20
20.1396317443
30
0.0000000000
10
2.2194133333
20
20.1126941286
30
0.0000000000
10
2.2070428851
20
20.0865600909
30
0.0000000000
10
2.2014948743
20
20.0757444103
30
0.0000000000
11
2.2347685376
21
20.1555543270
31
0.0000000000
11
2.2170862928
21
20.1086780498
31
0.0000000000
11
2.2014948743
21
20.0757444103
31
0.0000000000
0
SPLINE
5
34F
100
AcDbEntity
8
0
100
AcDbSpline
62
9
6
CONTINUOUS
70
0
71
3
72
11
73
7
74
5
42
0.0000001000
43
0.0000001000
44
0.0000000001
12
0.4391581875
22
-0.5607351487
32
0.0000000000
13
0.0472613880
23
-0.7106688271
33
0.0000000000
40
0.0000000000
40
0.0000000000
40
0.0000000000
40
0.0000000000
40
0.2424090535
40
0.5144591528
40
0.7788890820
40
1.0000000000
40
1.0000000000
40
1.0000000000
40
1.0000000000
10
-0.6572650406
20
-0.2475263707
30
0.0000000000
10
-0.6217797337
20
-0.2928354629
30
0.0000000000
10
-0.5561272923
20
-0.3965090851
30
0.0000000000
10
-0.4765797750
20
-0.5638501676
30
0.0000000000
10
-0.4183768761
20
-0.7343409965
30
0.0000000000
10
-0.3956814329
20
-0.8481893353
30
0.0000000000
10
-0.3921980966
20
-0.9005682142
30
0.0000000000
11
-0.6572650406
21
-0.2475263707
31
0.0000000000
11
-0.5628208506
21
-0.3920579677
31
0.0000000000
11
-0.4792922842
21
-0.5668941527
31
0.0000000000
11
-0.4193812164
21
-0.7454482500
31
0.0000000000
11
-0.3921980966
21
-0.9005682142
31
0.0000000000
0
SPLINE
5
350
100
AcDbEntity
8
0
100
AcDbSpline
62
9
6
CONTINUOUS
70
0
71
3
72
11
73
7
74
5
42
0.0000001000
43
0.0000001000
44
0.0000000001
12
0.0029251816
22
4.2961813067
32
0.0000000000
13
3.7491839139
23
-2.1676298896
33
0.0000000000
40
0.0000000000
40
0.0000000000
40
0.0000000000
40
0.0000000000
40
0.3839072650
40
0.6423398091
40
0.8932955633
40
1.0000000000
40
1.0000000000
40
1.0000000000
40
1.0000000000
10
-11.0903429947
20
-4.9722554917
30
0.0000000000
10
-11.0899686619
20
-4.4224770865
30
0.0000000000
10
-11.0447304947
20
-3.5041732360
30
0.0000000000
10
-10.2411495896
20
-2.2908709801
30
0.0000000000
10
-9.2431602719
20
-2.4092952491
30
0.0000000000
10
-8.7709073822
20
-2.6326267122
30
0.0000000000
10
-8.6375558630
20
-2.7097252877
30
0.0000000000
11
-11.0903429947
21
-4.9722554917
31
0.0000000000
11
-10.8456471992
21
-3.3411724521
31
0.0000000000
11
-10.1399831064
21
-2.4839997521
31
0.0000000000
11
-9.0622249875
21
-2.5131281001
31
0.0000000000
11
-8.6375558630
21
-2.7097252877
31
0.0000000000
0
SPLINE
5
351
100
AcDbEntity
8
0
100
AcDbSpline
62
9
6
CONTINUOUS
70
0
71
3
72
13
73
9
74
7
42
0.0000001000
43
0.0000001000
44
0.0000000001
12
11.2162456318
22
-6.4847897140
32
0.0000000000
13
0.9367966486
23
-12.8279356135
33
0.0000000000
40
0.0000000000
40
0.0000000000
40
0.0000000000
40
0.0000000000
40
0.0884943287
40
0.2576798149
40
0.4600203465
40
0.6754351588
40
0.8809247948
40
1.0000000000
40
1.0000000000
40
1.0000000000
40
1.0000000000
10
-8.6375558630
20
-2.7097252877
30
0.0000000000
10
-8.3066978203
20
-2.9010143252
30
0.0000000000
10
-7.4784597562
20
-3.6456825082
30
0.0000000000
10
-6.2417271209
20
-5.1902599322
30
0.0000000000
10
-5.0182244980
20
-7.3985679003
30
0.0000000000
10
-4.0101808050
20
-9.8774786258
30
0.0000000000
10
-3.4035155671
20
-12.1148908436
30
0.0000000000
10
-3.2021265122
20
-13.4977507808
30
0.0000000000
10
-3.1649434278
20
-14.0069138027
30
0.0000000000
11
-8.6375558630
21
-2.7097252877
31
0.0000000000
11
-7.7537976968
21
-3.4267083564
31
0.0000000000
11
-6.3773879461
21
-5.1101229247
31
0.0000000000
11
-5.0912589875
21
-7.3704502846
31
0.0000000000
11
-4.0485804797
21
-9.9352658173
31
0.0000000000
11
-3.3718706370
21
-12.4881908633
31
0.0000000000
11
-3.1649434278
21
-14.0069138027
31
0.0000000000
0
SPLINE
5
352
100
AcDbEntity
8
0
100
AcDbSpline
62
9
6
CONTINUOUS
70
0
71
3
72
8
73
4
74
2
42
0.0000001000
43
0.0000001000
44
0.0000000001
12
0.0306987891
22
-0.4203709419
32
0.0000000000
13
0.0130997289
23
-0.4209939843
33
0.0000000000
40
0.0000000000
40
0.0000000000
40
0.0000000000
40
0.0000000000
40
1.0000000000
40
1.0000000000
40
1.0000000000
40
1.0000000000
10
-3.1649434278
20
-14.0069138027
30
0.0000000000
10
-3.1547104981
20
-14.1470374500
30
0.0000000000
10
-3.1472572611
20
-14.2872992602
30
0.0000000000
10
-3.1428906848
20
-14.4276305883
30
0.0000000000
11
-3.1649434278
21
-14.0069138027
31
0.0000000000
11
-3.1428906848
21
-14.4276305883
31
0.0000000000
0
SPLINE
5
353
100
AcDbEntity
8
0
100
AcDbSpline
62
9
6
CONTINUOUS
70
0
71
3
72
8
73
4
74
2
42
0.0000001000
43
0.0000001000
44
0.0000000001
12
0.0088276340
22
-0.2836990611
32
0.0000000000
13
0.0001356633
23
-0.2838254555
33
0.0000000000
40
0.0000000000
40
0.0000000000
40
0.0000000000
40
0.0000000000
40
1.0000000000
40
1.0000000000
40
1.0000000000
40
1.0000000000
10
-3.1428906848
20
-14.4276305883
30
0.0000000000
10
-3.1399481402
20
-14.5221969420
30
0.0000000000
10
-3.1384072885
20
-14.6167948647
30
0.0000000000
10
-3.1383620674
20
-14.7114033498
30
0.0000000000
11
-3.1428906848
21
-14.4276305883
31
0.0000000000
11
-3.1383620674
21
-14.7114033498
31
0.0000000000
0
SPLINE
5
354
100
AcDbEntity
8
0
100
AcDbSpline
62
9
6
CONTINUOUS
70
0
71
3
72
14
73
10
74
8
42
0.0000001000
43
0.0000001000
44
0.0000000001
12
-12.2907979691
22
-4.1914306092
32
0.0000000000
13
-0.0047547085
23
13.4460967193
33
0.0000000000
40
0.0000000000
40
0.0000000000
40
0.0000000000
40
0.0000000000
40
0.0644266154
40
0.1702207576
40
0.3155766273
40
0.4895474248
40
0.6745046825
40
0.8506324860
40
1.0000000000
40
1.0000000000
40
1.0000000000
40
1.0000000000
10
-3.7328975752
20
-16.1840465742
30
0.0000000000
10
-3.9968490796
20
-16.2740598035
30
0.0000000000
10
-4.8546691260
20
-16.1356057090
30
0.0000000000
10
-5.9157736840
20
-15.1862873184
30
0.0000000000
10
-7.1160907527
20
-13.6963287521
30
0.0000000000
10
-8.2374401686
20
-11.7250191198
30
0.0000000000
10
-9.1803356845
20
-9.5142496101
30
0.0000000000
10
-9.8147813053
20
-7.3110181669
30
0.0000000000
10
-10.0094382425
20
-5.8536424132
30
0.0000000000
10
-10.0096749755
20
-5.1841723999
30
0.0000000000
11
-3.7328975752
21
-16.1840465742
31
0.0000000000
11
-4.6053054607
21
-16.1157330293
31
0.0000000000
11
-5.7587316700
21
-15.2831668414
31
0.0000000000
11
-6.9956096498
21
-13.7698649090
31
0.0000000000
11
-8.1741027994
21
-11.7491860612
31
0.0000000000
11
-9.1466940227
21
-9.4602991728
31
0.0000000000
11
-9.7865827159
21
-7.1801536714
31
0.0000000000
11
-10.0096749755
21
-5.1841723999
31
0.0000000000
0
SPLINE
5
355
100
AcDbEntity
8
0
100
AcDbSpline
62
9
6
CONTINUOUS
70
0
71
3
72
11
73
7
74
5
42
0.0000001000
43
0.0000001000
44
0.0000000001
12
0.0029251816
22
4.2961813067
32
0.0000000000
13
3.7491839139
23
-2.1676298896
33
0.0000000000
40
0.0000000000
40
0.0000000000
40
0.0000000000
40
0.0000000000
40
0.3839072650
40
0.6423398091
40
0.8932955633
40
1.0000000000
40
1.0000000000
40
1.0000000000
40
1.0000000000
10
-22.3403429947
20
8.8061243114
30
0.0000000000
10
-22.3399686619
20
9.3559027166
30
0.0000000000
10
-22.2947304947
20
10.2742065671
30
0.0000000000
10
-21.4911495896
20
11.4875088231
30
0.0000000000
10
-20.4931602719
20
11.3690845541
30
0.0000000000
10
-20.0209073822
20
11.1457530909
30
0.0000000000
10
-19.8875558630
20
11.0686545155
30
0.0000000000
11
-22.3403429947
21
8.8061243114
31
0.0000000000
11
-22.0956471992
21
10.4372073510
31
0.0000000000
11
-21.3899831064
21
11.2943800511
31
0.0000000000
11
-20.3122249875
21
11.2652517031
31
0.0000000000
11
-19.8875558630
21
11.0686545155
31
0.0000000000
0
SPLINE
5
356
100
AcDbEntity
8
0
100
AcDbSpline
62
9
6
CONTINUOUS
70
0
71
3
72
12
73
8
74
6
42
0.0000001000
43
0.0000001000
44
0.0000000001
12
9.8806688814
22
-5.7126120480
32
0.0000000000
13
2.1275150035
23
-11.1463772224
33
0.0000000000
40
0.0000000000
40
0.0000000000
40
0.0000000000
40
0.0000000000
40
0.1004561675
40
0.2925105712
40
0.5222016105
40
0.7667341898
40
1.0000000000
40
1.0000000000
40
1.0000000000
40
1.0000000000
10
-19.8875558630
20
11.0686545155
30
0.0000000000
10
-19.5566978203
20
10.8773654780
30
0.0000000000
10
-18.7284597562
20
10.1326972950
30
0.0000000000
10
-17.4917271209
20
8.5881198710
30
0.0000000000
10
-16.2682244980
20
6.3798119029
30
0.0000000000
10
-15.2601808050
20
3.9009011773
30
0.0000000000
10
-14.7872961406
20
2.1568785110
30
0.0000000000
10
-14.6218706370
20
1.2901889398
30
0.0000000000
11
-19.8875558630
21
11.0686545155
31
0.0000000000
11
-19.0037976968
21
10.3516714468
31
0.0000000000
11
-17.6273879461
21
8.6682568785
31
0.0000000000
11
-16.3412589875
21
6.4079295186
31
0.0000000000
11
-15.2985804797
21
3.8431139858
31
0.0000000000
11
-14.6218706370
21
1.2901889398
31
0.0000000000
0
SPLINE
5
357
100
AcDbEntity
8
0
100
AcDbSpline
62
9
6
CONTINUOUS
70
0
71
3
72
8
73
4
74
2
42
0.0000001000
43
0.0000001000
44
0.0000000001
12
0.2875776538
22
-1.5066634100
32
0.0000000000
13
0.1115492532
23
-1.5274890658
33
0.0000000000
40
0.0000000000
40
0.0000000000
40
0.0000000000
40
0.0000000000
40
1.0000000000
40
1.0000000000
40
1.0000000000
40
1.0000000000
10
-14.6218706370
20
1.2901889398
30
0.0000000000
10
-14.5260114190
20
0.7879678032
30
0.0000000000
10
-14.4521265122
20
0.2806290224
30
0.0000000000
10
-14.4149434278
20
-0.2285339995
30
0.0000000000
11
-14.6218706370
21
1.2901889398
31
0.0000000000
11
-14.4149434278
21
-0.2285339995
31
0.0000000000
0
SPLINE
5
358
100
AcDbEntity
8
0
100
AcDbSpline
62
9
6
CONTINUOUS
70
0
71
3
72
8
73
4
74
2
42
0.0000001000
43
0.0000001000
44
0.0000000001
12
0.0307778478
22
-0.4214535251
32
0.0000000000
13
0.0130856412
23
-0.4220792477
33
0.0000000000
40
0.0000000000
40
0.0000000000
40
0.0000000000
40
0.0000000000
40
1.0000000000
40
1.0000000000
40
1.0000000000
40
1.0000000000
10
-14.4149434278
20
-0.2285339995
30
0.0000000000
10
-14.4046841452
20
-0.3690185079
30
0.0000000000
10
-14.3972188909
20
-0.5096418917
30
0.0000000000
10
-14.3928570104
20
-0.6503349743
30
0.0000000000
11
-14.4149434278
21
-0.2285339995
31
0.0000000000
11
-14.3928570104
21
-0.6503349743
31
0.0000000000
0
SPLINE
5
359
100
AcDbEntity
8
0
100
AcDbSpline
62
9
6
CONTINUOUS
70
0
71
3
72
8
73
4
74
2
42
0.0000001000
43
0.0000001000
44
0.0000000001
12
0.0087618766
22
-0.2826155935
32
0.0000000000
13
0.0001351449
23
-0.2827407847
33
0.0000000000
40
0.0000000000
40
0.0000000000
40
0.0000000000
40
0.0000000000
40
1.0000000000
40
1.0000000000
40
1.0000000000
40
1.0000000000
10
-14.3928570104
20
-0.6503349743
30
0.0000000000
10
-14.3899363849
20
-0.7445401721
30
0.0000000000
10
-14.3884071157
20
-0.8387766185
30
0.0000000000
10
-14.3883620674
20
-0.9330235467
30
0.0000000000
11
-14.3928570104
21
-0.6503349743
31
0.0000000000
11
-14.3883620674
21
-0.9330235467
31
0.0000000000
0
SPLINE
5
35A
100
AcDbEntity
8
0
100
AcDbSpline
62
9
6
CONTINUOUS
70
0
71
3
72
14
73
10
74
8
42
0.0000001000
43
0.0000001000
44
0.0000000001
12
-12.2907979691
22
-4.1914306092
32
0.0000000000
13
-0.0047547085
23
13.4460967193
33
0.0000000000
40
0.0000000000
40
0.0000000000
40
0.0000000000
40
0.0000000000
40
0.0644266154
40
0.1702207576
40
0.3155766273
40
0.4895474248
40
0.6745046825
40
0.8506324860
40
1.0000000000
40
1.0000000000
40
1.0000000000
40
1.0000000000
10
-14.9828975752
20
-2.4056667711
30
0.0000000000
10
-15.2468490796
20
-2.4956800003
30
0.0000000000
10
-16.1046691260
20
-2.3572259059
30
0.0000000000
10
-17.1657736840
20
-1.4079075152
30
0.0000000000
10
-18.3660907527
20
0.0820510510
30
0.0000000000
10
-19.4874401686
20
2.0533606834
30
0.0000000000
10
-20.4303356845
20
4.2641301930
30
0.0000000000
10
-21.0647813053
20
6.4673616363
30
0.0000000000
10
-21.2594382425
20
7.9247373900
30
0.0000000000
10
-21.2596749755
20
8.5942074032
30
0.0000000000
11
-14.9828975752
21
-2.4056667711
31
0.0000000000
11
-15.8553054607
21
-2.3373532262
31
0.0000000000
11
-17.0087316700
21
-1.5047870383
31
0.0000000000
11
-18.2456096498
21
0.0085148942
31
0.0000000000
11
-19.4241027994
21
2.0291937419
31
0.0000000000
11
-20.3966940227
21
4.3180806304
31
0.0000000000
11
-21.0365827159
21
6.5982261318
31
0.0000000000
11
-21.2596749755
21
8.5942074032
31
0.0000000000
0
SPLINE
5
35B
100
AcDbEntity
8
0
100
AcDbSpline
62
9
6
CONTINUOUS
70
0
71
3
72
8
73
4
74
2
42
0.0000001000
43
0.0000001000
44
0.0000000001
12
-0.0087659224
22
0.1681200130
32
0.0000000000
13
-0.0086624727
23
0.1681258678
33
0.0000000000
40
0.0000000000
40
0.0000000000
40
0.0000000000
40
0.0000000000
40
1.0000000000
40
1.0000000000
40
1.0000000000
40
1.0000000000
10
-23.2318672607
20
-4.3391457301
30
0.0000000000
10
-23.2347892349
20
-4.2831057258
30
0.0000000000
10
-23.2376939614
20
-4.2270647394
30
0.0000000000
10
-23.2405814522
20
-4.1710227834
30
0.0000000000
11
-23.2318672607
21
-4.3391457301
31
0.0000000000
11
-23.2405814522
21
-4.1710227834
31
0.0000000000
0
SPLINE
5
35C
100
AcDbEntity
8
0
100
AcDbSpline
62
9
6
CONTINUOUS
70
0
71
3
72
10
73
6
74
4
42
0.0000001000
43
0.0000001000
44
0.0000000001
12
-1.5214136295
22
29.5284033877
32
0.0000000000
13
1.4744321777
23
29.5307000281
33
0.0000000000
40
0.0000000000
40
0.0000000000
40
0.0000000000
40
0.0000000000
40
0.3247215711
40
0.6599115196
40
1.0000000000
40
1.0000000000
40
1.0000000000
40
1.0000000000
10
-23.2405814522
20
-4.1710227834
30
0.0000000000
10
-23.4052600603
20
-0.9748529366
30
0.0000000000
10
-23.6259971015
20
5.5269332312
30
0.0000000000
10
-23.6235755197
20
15.3844678844
30
0.0000000000
10
-23.3990130603
20
22.0375556810
30
0.0000000000
10
-23.2318672607
20
25.3852393134
30
0.0000000000
11
-23.2405814522
21
-4.1710227834
31
0.0000000000
11
-23.5686612120
21
5.4245959626
31
0.0000000000
11
-23.5686612121
21
15.3353198798
31
0.0000000000
11
-23.2318672607
21
25.3852393134
31
0.0000000000
0
SPLINE
5
35D
100
AcDbEntity
8
0
100
AcDbSpline
62
9
6
CONTINUOUS
70
0
71
3
72
10
73
6
74
4
42
0.0000001000
43
0.0000001000
44
0.0000000001
12
0.0237833907
22
0.4753659431
32
0.0000000000
13
0.2553165696
23
0.4023017966
33
0.0000000000
40
0.0000000000
40
0.0000000000
40
0.0000000000
40
0.0000000000
40
0.3968066149
40
0.8421553152
40
1.0000000000
40
1.0000000000
40
1.0000000000
40
1.0000000000
10
-23.2318672607
20
25.3852393134
30
0.0000000000
10
-23.2287214585
20
25.4481154303
30
0.0000000000
10
-23.2017725164
20
25.5807387997
30
0.0000000000
10
-23.1365929654
20
25.7263768584
30
0.0000000000
10
-23.0875750071
20
25.8087289333
30
0.0000000000
10
-23.0741415526
20
25.8298960000
30
0.0000000000
11
-23.2318672607
21
25.3852393134
31
0.0000000000
11
-23.1971223648
21
25.5708801267
31
0.0000000000
11
-23.1125648420
21
25.7652525271
31
0.0000000000
11
-23.0741415526
21
25.8298960000
31
0.0000000000
0
SPLINE
5
35E
100
AcDbEntity
8
0
100
AcDbSpline
62
9
6
CONTINUOUS
70
0
71
3
72
8
73
4
74
2
42
0.0000001000
43
0.0000001000
44
0.0000000001
12
0.0412904759
22
0.0650613185
32
0.0000000000
13
0.0449223265
23
0.0626278496
33
0.0000000000
40
0.0000000000
40
0.0000000000
40
0.0000000000
40
0.0000000000
40
1.0000000000
40
1.0000000000
40
1.0000000000
40
1.0000000000
10
-23.0741415526
20
25.8298960000
30
0.0000000000
10
-23.0603780607
20
25.8515831062
30
0.0000000000
10
-23.0459780580
20
25.8728681974
30
0.0000000000
10
-23.0310039492
20
25.8937441472
30
0.0000000000
11
-23.0741415526
21
25.8298960000
31
0.0000000000
11
-23.0310039492
21
25.8937441472
31
0.0000000000
0
SPLINE
5
35F
100
AcDbEntity
8
0
100
AcDbSpline
62
9
6
CONTINUOUS
70
0
71
3
72
10
73
6
74
4
42
0.0000001000
43
0.0000001000
44
0.0000000001
12
0.2829587819
22
0.3944831318
32
0.0000000000
13
0.3892555782
23
0.2898350302
33
0.0000000000
40
0.0000000000
40
0.0000000000
40
0.0000000000
40
0.0000000000
40
0.1620618834
40
0.6621175553
40
1.0000000000
40
1.0000000000
40
1.0000000000
40
1.0000000000
10
-23.0310039492
20
25.8937441472
30
0.0000000000
10
-23.0157183381
20
25.9150543737
30
0.0000000000
10
-22.9508235168
20
26.0003772576
30
0.0000000000
10
-22.8394042883
20
26.1183017399
30
0.0000000000
10
-22.7347950242
20
26.2047224962
30
0.0000000000
10
-22.6909541488
20
26.2373658857
30
0.0000000000
11
-23.0310039492
21
25.8937441472
31
0.0000000000
11
-22.9834187751
21
25.9563882236
31
0.0000000000
11
-22.8173296940
21
26.1330124916
31
0.0000000000
11
-22.6909541488
21
26.2373658857
31
0.0000000000
0
SPLINE
5
360
100
AcDbEntity
8
0
100
AcDbSpline
62
9
6
CONTINUOUS
70
0
71
3
72
9
73
5
74
3
42
0.0000001000
43
0.0000001000
44
0.0000000001
12
0.1942568753
22
0.1446413372
32
0.0000000000
13
0.2142105704
23
0.1129638170
33
0.0000000000
40
0.0000000000
40
0.0000000000
40
0.0000000000
40
0.0000000000
40
0.3368115325
40
1.0000000000
40
1.0000000000
40
1.0000000000
40
1.0000000000
10
-22.6909541488
20
26.2373658857
30
0.0000000000
10
-22.6691448302
20
26.2536048425
30
0.0000000000
10
-22.6031734436
20
26.3001991474
30
0.0000000000
10
-22.5337664645
20
26.3417799514
30
0.0000000000
10
-22.4864124712
20
26.3667520516
30
0.0000000000
11
-22.6909541488
21
26.2373658857
31
0.0000000000
11
-22.6243152420
21
26.2844230994
31
0.0000000000
11
-22.4864124712
21
26.3667520516
31
0.0000000000
0
SPLINE
5
361
100
AcDbEntity
8
0
100
AcDbSpline
62
9
6
CONTINUOUS
70
0
71
3
72
8
73
4
74
2
42
0.0000001000
43
0.0000001000
44
0.0000000001
12
0.0694225328
22
0.0366099314
32
0.0000000000
13
0.0712542776
23
0.0327394892
33
0.0000000000
40
0.0000000000
40
0.0000000000
40
0.0000000000
40
0.0000000000
40
1.0000000000
40
1.0000000000
40
1.0000000000
40
1.0000000000
10
-22.4864124712
20
26.3667520516
30
0.0000000000
10
-22.4632716269
20
26.3789553621
30
0.0000000000
10
-22.4398145832
20
26.3905368673
30
0.0000000000
10
-22.4160631573
20
26.4014500304
30
0.0000000000
11
-22.4864124712
21
26.3667520516
31
0.0000000000
11
-22.4160631573
21
26.4014500304
31
0.0000000000
0
SPLINE
5
362
100
AcDbEntity
8
0
100
AcDbSpline
62
9
6
CONTINUOUS
70
0
71
3
72
9
73
5
74
3
42
0.0000001000
43
0.0000001000
44
0.0000000001
12
-0.1785075579
22
-0.0288147581
32
0.0000000000
13
-0.1425982516
23
0.1564763556
33
0.0000000000
40
0.0000000000
40
0.0000000000
40
0.0000000000
40
0.0000000000
40
0.6209406334
40
1.0000000000
40
1.0000000000
40
1.0000000000
40
1.0000000000
10
-12.4231689812
20
26.2036024314
30
0.0000000000
10
-12.4601165132
20
26.1976383467
30
0.0000000000
10
-12.5438442623
20
26.2310969867
30
0.0000000000
10
-12.5989934802
20
26.2792652646
30
0.0000000000
10
-12.6170112145
20
26.2990365407
30
0.0000000000
11
-12.4231689812
21
26.2036024314
31
0.0000000000
11
-12.5530774900
21
26.2448615599
31
0.0000000000
11
-12.6170112145
21
26.2990365407
31
0.0000000000
0
SPLINE
5
363
100
AcDbEntity
8
0
100
AcDbSpline
62
9
6
CONTINUOUS
70
0
71
3
72
8
73
4
74
2
42
0.0000001000
43
0.0000001000
44
0.0000000001
12
-0.1615470046
22
0.1772692599
32
0.0000000000
13
-0.1044632097
23
0.2102100330
33
0.0000000000
40
0.0000000000
40
0.0000000000
40
0.0000000000
40
0.0000000000
40
1.0000000000
40
1.0000000000
40
1.0000000000
40
1.0000000000
10
-12.6170112145
20
26.2990365407
30
0.0000000000
10
-12.6708602160
20
26.3581262940
30
0.0000000000
10
-12.6989213299
20
26.4307271344
30
0.0000000000
10
-12.7337423998
20
26.5007971454
30
0.0000000000
11
-12.6170112145
21
26.2990365407
31
0.0000000000
11
-12.7337423998
21
26.5007971454
31
0.0000000000
0
SPLINE
5
364
100
AcDbEntity
8
0
100
AcDbSpline
62
9
6
CONTINUOUS
70
0
71
3
72
9
73
5
74
3
42
0.0000001000
43
0.0000001000
44
0.0000000001
12
-0.1785075579
22
-0.0288147581
32
0.0000000000
13
-0.1425982516
23
0.1564763556
33
0.0000000000
40
0.0000000000
40
0.0000000000
40
0.0000000000
40
0.0000000000
40
0.6209406334
40
1.0000000000
40
1.0000000000
40
1.0000000000
40
1.0000000000
10
-1.1731689812
20
12.4252226283
30
0.0000000000
10
-1.2101165132
20
12.4192585435
30
0.0000000000
10
-1.2938442623
20
12.4527171836
30
0.0000000000
10
-1.3489934802
20
12.5008854615
30
0.0000000000
10
-1.3670112145
20
12.5206567375
30
0.0000000000
11
-1.1731689812
21
12.4252226283
31
0.0000000000
11
-1.3030774900
21
12.4664817567
31
0.0000000000
11
-1.3670112145
21
12.5206567375
31
0.0000000000
0
SPLINE
5
365
100
AcDbEntity
8
0
100
AcDbSpline
62
9
6
CONTINUOUS
70
0
71
3
72
8
73
4
74
2
42
0.0000001000
43
0.0000001000
44
0.0000000001
12
-0.1615470046
22
0.1772692599
32
0.0000000000
13
-0.1044632097
23
0.2102100330
33
0.0000000000
40
0.0000000000
40
0.0000000000
40
0.0000000000
40
0.0000000000
40
1.0000000000
40
1.0000000000
40
1.0000000000
40
1.0000000000
10
-1.3670112145
20
12.5206567375
30
0.0000000000
10
-1.4208602160
20
12.5797464909
30
0.0000000000
10
-1.4489213299
20
12.6523473313
30
0.0000000000
10
-1.4837423998
20
12.7224173423
30
0.0000000000
11
-1.3670112145
21
12.5206567375
31
0.0000000000
11
-1.4837423998
21
12.7224173423
31
0.0000000000
0
SPLINE
5
366
100
AcDbEntity
8
0
100
AcDbSpline
62
9
6
CONTINUOUS
70
0
71
3
72
8
73
4
74
2
42
0.0000001000
43
0.0000001000
44
0.0000000001
12
-0.0005387569
22
-1.1812415723
32
0.0000000000
13
-0.2533332469
23
-1.1640776364
33
0.0000000000
40
0.0000000000
40
0.0000000000
40
0.0000000000
40
0.0000000000
40
1.0000000000
40
1.0000000000
40
1.0000000000
40
1.0000000000
10
-14.3883620674
20
-0.9330235467
30
0.0000000000
10
-14.3885416530
20
-1.3267707374
30
0.0000000000
10
-14.3998211591
20
-1.7179710328
30
0.0000000000
10
-14.4842655748
20
-2.1059969116
30
0.0000000000
11
-14.3883620674
21
-0.9330235467
31
0.0000000000
11
-14.4842655748
21
-2.1059969116
31
0.0000000000
0
SPLINE
5
367
100
AcDbEntity
8
0
100
AcDbSpline
62
9
6
CONTINUOUS
70
0
71
3
72
16
73
12
74
10
42
0.0000001000
43
0.0000001000
44
0.0000000001
12
-3.5557753078
22
-16.3389470836
32
0.0000000000
13
-0.0116070835
23
16.5798570615
33
0.0000000000
40
0.0000000000
40
0.0000000000
40
0.0000000000
40
0.0000000000
40
0.0278054174
40
0.0929136243
40
0.1557376367
40
0.2511419204
40
0.3822942303
40
0.5393612090
40
0.7063683721
40
0.8654048583
40
1.0000000000
40
1.0000000000
40
1.0000000000
40
1.0000000000
10
-14.4842655748
20
-2.1059969116
30
0.0000000000
10
-14.5172221804
20
-2.2574339929
30
0.0000000000
10
-14.6645876565
20
-2.7618552370
30
0.0000000000
10
-15.1892208551
20
-3.5975958399
30
0.0000000000
10
-16.5916044622
20
-3.4002166757
30
0.0000000000
10
-17.7939251326
20
-2.3272296629
30
0.0000000000
10
-19.1291870622
20
-0.6697156193
30
0.0000000000
10
-20.3756318128
20
1.5259002776
30
0.0000000000
10
-21.4220998261
20
3.9885794240
30
0.0000000000
10
-22.1251858466
20
6.4411067903
30
0.0000000000
10
-22.3398222424
20
8.0622682415
30
0.0000000000
10
-22.3403429947
20
8.8061243114
30
0.0000000000
11
-14.4842655748
21
-2.1059969116
31
0.0000000000
11
-14.6202572094
21
-2.5588203176
31
0.0000000000
11
-15.2933574272
21
-3.4027539770
31
0.0000000000
11
-16.3340331112
21
-3.3585657726
31
0.0000000000
11
-17.6183147680
21
-2.4351592971
31
0.0000000000
11
-18.9946698002
21
-0.7516983069
31
0.0000000000
11
-20.3048736544
21
1.4988474677
31
0.0000000000
11
-21.3846355269
21
4.0485982889
31
0.0000000000
11
-22.0939815743
21
6.5881961867
31
0.0000000000
11
-22.3403429947
21
8.8061243114
31
0.0000000000
0
SPLINE
5
368
100
AcDbEntity
8
0
100
AcDbSpline
62
9
6
CONTINUOUS
70
0
71
3
72
10
73
6
74
4
42
0.0000001000
43
0.0000001000
44
0.0000000001
12
0.1956344180
22
0.1124408633
32
0.0000000000
13
0.1480298724
23
-0.1740384675
33
0.0000000000
40
0.0000000000
40
0.0000000000
40
0.0000000000
40
0.0000000000
40
0.0632974718
40
0.4226634683
40
1.0000000000
40
1.0000000000
40
1.0000000000
40
1.0000000000
10
-22.6042697145
20
26.5094263930
30
0.0000000000
10
-22.6001419932
20
26.5117988004
30
0.0000000000
10
-22.5714454241
20
26.5241124593
30
0.0000000000
10
-22.4910745984
20
26.4840912665
30
0.0000000000
10
-22.4445508417
20
26.4349429521
30
0.0000000000
10
-22.4160631573
20
26.4014500304
30
0.0000000000
11
-22.6042697145
21
26.5094263930
31
0.0000000000
11
-22.5914286132
21
26.5148314115
31
0.0000000000
11
-22.5128261498
21
26.4910984492
31
0.0000000000
11
-22.4160631573
21
26.4014500304
31
0.0000000000
0
SPLINE
5
369
100
AcDbEntity
8
0
100
AcDbSpline
62
9
6
CONTINUOUS
70
0
71
3
72
10
73
6
74
4
42
0.0000001000
43
0.0000001000
44
0.0000000001
12
0.1795072432
22
-0.4040398643
32
0.0000000000
13
0.1772305873
23
-0.4050436781
33
0.0000000000
40
0.0000000000
40
0.0000000000
40
0.0000000000
40
0.0000000000
40
0.3332115506
40
0.6665475876
40
1.0000000000
40
1.0000000000
40
1.0000000000
40
1.0000000000
10
3.7095200096
20
6.3619958405
30
0.0000000000
10
3.7294579719
20
6.3171189240
30
0.0000000000
10
3.7692570447
20
6.2273108436
30
0.0000000000
10
3.8287133652
20
6.0924628707
30
0.0000000000
10
3.8681894826
20
6.0024736008
30
0.0000000000
10
3.8878888049
20
5.9574526703
30
0.0000000000
11
3.7095200096
21
6.3619958405
31
0.0000000000
11
3.7692074760
21
6.2273089957
31
0.0000000000
11
3.8286642931
21
6.0924600203
31
0.0000000000
11
3.8878888049
21
5.9574526703
31
0.0000000000
0
SPLINE
5
36A
100
AcDbEntity
8
0
100
AcDbSpline
62
9
6
CONTINUOUS
70
0
71
3
72
9
73
5
74
3
42
0.0000001000
43
0.0000001000
44
0.0000000001
12
-0.0105896306
22
-0.2031810360
32
0.0000000000
13
0.1269736800
23
-0.1553675311
33
0.0000000000
40
0.0000000000
40
0.0000000000
40
0.0000000000
40
0.0000000000
40
0.2907255997
40
1.0000000000
40
1.0000000000
40
1.0000000000
40
1.0000000000
10
-23.2982786451
20
25.5719131779
30
0.0000000000
10
-23.2993048707
20
25.5522232017
30
0.0000000000
10
-23.2948788095
20
25.4841079719
30
0.0000000000
10
-23.2618820777
20
25.4219738879
30
0.0000000000
10
-23.2318623508
20
25.3852411504
30
0.0000000000
11
-23.2982786451
21
25.5719131779
31
0.0000000000
11
-23.2943164998
21
25.5131230543
31
0.0000000000
11
-23.2318623508
21
25.3852411504
31
0.0000000000
0
SPLINE
5
36B
100
AcDbEntity
8
0
100
AcDbSpline
62
9
6
CONTINUOUS
70
0
71
3
72
9
73
5
74
3
42
0.0000001000
43
0.0000001000
44
0.0000000001
12
0.0094404152
22
-0.1799500785
32
0.0000000000
13
0.1126612014
23
-0.1380881963
33
0.0000000000
40
0.0000000000
40
0.0000000000
40
0.0000000000
40
0.0000000000
40
0.1892576108
40
1.0000000000
40
1.0000000000
40
1.0000000000
40
1.0000000000
10
-23.2983444740
20
-4.1750364586
30
0.0000000000
10
-23.2977489172
20
-4.1863887659
30
0.0000000000
10
-23.2907155184
20
-4.2461193049
30
0.0000000000
10
-23.2623136489
20
-4.3018277385
30
0.0000000000
10
-23.2318672450
20
-4.3391457232
30
0.0000000000
11
-23.2983444740
21
-4.1750364586
31
0.0000000000
11
-23.2943212834
21
-4.2088536185
31
0.0000000000
11
-23.2318672450
21
-4.3391457232
31
0.0000000000
0
SPLINE
5
36C
100
AcDbEntity
8
0
100
AcDbSpline
62
9
6
CONTINUOUS
70
0
71
3
72
10
73
6
74
4
42
0.0000001000
43
0.0000001000
44
0.0000000001
12
0.2434841966
22
-0.5212691478
32
0.0000000000
13
0.2396073221
23
-0.5230625294
33
0.0000000000
40
0.0000000000
40
0.0000000000
40
0.0000000000
40
0.0000000000
40
0.3330714697
40
0.6664094111
40
1.0000000000
40
1.0000000000
40
1.0000000000
40
1.0000000000
10
3.0995574787
20
7.7007748783
30
0.0000000000
10
3.1265900251
20
7.6429015846
30
0.0000000000
10
3.1805330826
20
7.5270415266
30
0.0000000000
10
3.2610480420
20
7.3529844611
30
0.0000000000
10
3.3144585626
20
7.2367683727
30
0.0000000000
10
3.3411021451
20
7.1786054603
30
0.0000000000
11
3.0995574787
21
7.7007748783
31
0.0000000000
11
3.1804397875
21
7.5270545791
31
0.0000000000
11
3.2609559537
21
7.3529953449
31
0.0000000000
11
3.3411021451
21
7.1786054603
31
0.0000000000
0
SPLINE
5
36D
100
AcDbEntity
8
0
100
AcDbSpline
62
9
6
CONTINUOUS
70
0
71
3
72
9
73
5
74
3
42
0.0000001000
43
0.0000001000
44
0.0000000001
12
0.1682940075
22
0.0690199177
32
0.0000000000
13
0.0117342853
23
0.1856477744
33
0.0000000000
40
0.0000000000
40
0.0000000000
40
0.0000000000
40
0.0000000000
40
0.3649709998
40
1.0000000000
40
1.0000000000
40
1.0000000000
40
1.0000000000
10
-0.4696682632
20
-31.4339403551
30
0.0000000000
10
-0.4491941191
20
-31.4255435990
30
0.0000000000
10
-0.4005408884
20
-31.3744606157
30
0.0000000000
10
-0.3946819671
20
-31.3109394438
30
0.0000000000
10
-0.3921980966
20
-31.2716422036
30
0.0000000000
11
-0.4696682632
21
-31.4339403551
31
0.0000000000
11
-0.4193804485
21
-31.3865991697
31
0.0000000000
11
-0.3921980966
21
-31.2716422036
31
0.0000000000
0
SPLINE
5
36E
100
AcDbEntity
8
0
100
AcDbSpline
62
9
6
CONTINUOUS
70
0
71
3
72
9
73
5
74
3
42
0.0000001000
43
0.0000001000
44
0.0000000001
12
-0.1641170348
22
0.2080837764
32
0.0000000000
13
-0.0138824961
23
0.2630061349
33
0.0000000000
40
0.0000000000
40
0.0000000000
40
0.0000000000
40
0.0000000000
40
0.3886187680
40
1.0000000000
40
1.0000000000
40
1.0000000000
40
1.0000000000
10
-1.3937546111
20
-31.2235047464
30
0.0000000000
10
-1.4150142644
20
-31.1965496594
30
0.0000000000
10
-1.4605211424
20
-31.1197614840
30
0.0000000000
10
-1.4785030324
20
-31.0316010029
30
0.0000000000
10
-1.4813321982
20
-30.9780019980
30
0.0000000000
11
-1.3937546111
21
-31.2235047464
31
0.0000000000
11
-1.4462269693
21
-31.1351495098
31
0.0000000000
11
-1.4813321982
21
-30.9780019980
31
0.0000000000
0
SPLINE
5
36F
100
AcDbEntity
8
0
100
AcDbSpline
62
9
6
CONTINUOUS
70
0
71
3
72
10
73
6
74
4
42
0.0000001000
43
0.0000001000
44
0.0000000001
12
0.2428799155
22
-0.0647252643
32
0.0000000000
13
0.2401787389
23
-0.0741227803
33
0.0000000000
40
0.0000000000
40
0.0000000000
40
0.0000000000
40
0.0000000000
40
0.3305731147
40
0.6638930540
40
1.0000000000
40
1.0000000000
40
1.0000000000
40
1.0000000000
10
-1.1153245353
20
12.6365911820
30
0.0000000000
10
-1.0885613453
20
12.6294590379
30
0.0000000000
10
-1.0349074962
20
12.6147766184
30
0.0000000000
10
-0.9543873115
20
12.5916064797
30
0.0000000000
10
-0.9006884497
20
12.5754038109
30
0.0000000000
10
-0.8737798689
20
12.5670994172
30
0.0000000000
11
-1.1153245353
21
12.6365911820
31
0.0000000000
11
-1.0351783439
21
12.6146637928
31
0.0000000000
11
-0.9546621777
21
12.5914995037
31
0.0000000000
11
-0.8737798689
21
12.5670994172
31
0.0000000000
0
SPLINE
5
370
100
AcDbEntity
8
0
100
AcDbSpline
62
9
6
CONTINUOUS
70
0
71
3
72
9
73
5
74
3
42
0.0000001000
43
0.0000001000
44
0.0000000001
12
-0.1699416695
22
0.2089720037
32
0.0000000000
13
-0.0139578974
23
0.2673568087
33
0.0000000000
40
0.0000000000
40
0.0000000000
40
0.0000000000
40
0.0000000000
40
0.4004848728
40
1.0000000000
40
1.0000000000
40
1.0000000000
40
1.0000000000
10
-23.1415970506
20
-4.5880310759
30
0.0000000000
10
-23.1642834066
20
-4.5601343672
30
0.0000000000
10
-23.2110284904
20
-4.4822136566
30
0.0000000000
10
-23.2290779372
20
-4.3925738805
30
0.0000000000
10
-23.2318672607
20
-4.3391457301
30
0.0000000000
11
-23.1415970506
21
-4.5880310759
31
0.0000000000
11
-23.1971223648
21
-4.4958426364
31
0.0000000000
11
-23.2318672607
21
-4.3391457301
31
0.0000000000
0
SPLINE
5
371
100
AcDbEntity
8
0
100
AcDbSpline
62
9
6
CONTINUOUS
70
0
71
3
72
10
73
6
74
4
42
0.0000001000
43
0.0000001000
44
0.0000000001
12
0.1788973301
22
-0.0293543147
32
0.0000000000
13
0.1778147117
23
-0.0353250449
33
0.0000000000
40
0.0000000000
40
0.0000000000
40
0.0000000000
40
0.0000000000
40
0.3313662122
40
0.6646888076
40
1.0000000000
40
1.0000000000
40
1.0000000000
40
1.0000000000
10
-1.6621111951
20
12.7547867065
30
0.0000000000
10
-1.6423510182
20
12.7515443639
30
0.0000000000
10
-1.6027506687
20
12.7448147582
30
0.0000000000
10
-1.5432911824
20
12.7340223575
30
0.0000000000
10
-1.5036168208
20
12.7263656366
30
0.0000000000
10
-1.4837423998
20
12.7224173423
30
0.0000000000
11
-1.6621111951
21
12.7547867065
31
0.0000000000
11
-1.6028866833
21
12.7447242224
31
0.0000000000
11
-1.5434298662
21
12.7339343341
31
0.0000000000
11
-1.4837423998
21
12.7224173423
31
0.0000000000
0
SPLINE
5
372
100
AcDbEntity
8
0
100
AcDbSpline
62
9
6
CONTINUOUS
70
0
71
3
72
8
73
4
74
2
42
0.0000001000
43
0.0000001000
44
0.0000000001
12
-0.0005387569
22
-1.1812415723
32
0.0000000000
13
-0.2533332469
23
-1.1640776364
33
0.0000000000
40
0.0000000000
40
0.0000000000
40
0.0000000000
40
0.0000000000
40
1.0000000000
40
1.0000000000
40
1.0000000000
40
1.0000000000
10
-3.1383620674
20
-14.7114033498
30
0.0000000000
10
-3.1385416530
20
-15.1051505406
30
0.0000000000
10
-3.1498211591
20
-15.4963508360
30
0.0000000000
10
-3.2342655748
20
-15.8843767148
30
0.0000000000
11
-3.1383620674
21
-14.7114033498
31
0.0000000000
11
-3.2342655748
21
-15.8843767148
31
0.0000000000
0
SPLINE
5
373
100
AcDbEntity
8
0
100
AcDbSpline
62
9
6
CONTINUOUS
70
0
71
3
72
16
73
12
74
10
42
0.0000001000
43
0.0000001000
44
0.0000000001
12
-3.5557753078
22
-16.3389470836
32
0.0000000000
13
-0.0116070835
23
16.5798570615
33
0.0000000000
40
0.0000000000
40
0.0000000000
40
0.0000000000
40
0.0000000000
40
0.0278054174
40
0.0929136243
40
0.1557376367
40
0.2511419204
40
0.3822942303
40
0.5393612090
40
0.7063683721
40
0.8654048583
40
1.0000000000
40
1.0000000000
40
1.0000000000
40
1.0000000000
10
-3.2342655748
20
-15.8843767148
30
0.0000000000
10
-3.2672221804
20
-16.0358137961
30
0.0000000000
10
-3.4145876565
20
-16.5402350402
30
0.0000000000
10
-3.9392208551
20
-17.3759756431
30
0.0000000000
10
-5.3416044622
20
-17.1785964788
30
0.0000000000
10
-6.5439251326
20
-16.1056094661
30
0.0000000000
10
-7.8791870622
20
-14.4480954225
30
0.0000000000
10
-9.1256318128
20
-12.2524795256
30
0.0000000000
10
-10.1720998261
20
-9.7898003792
30
0.0000000000
10
-10.8751858466
20
-7.3372730129
30
0.0000000000
10
-11.0898222424
20
-5.7161115617
30
0.0000000000
10
-11.0903429947
20
-4.9722554917
30
0.0000000000
11
-3.2342655748
21
-15.8843767148
31
0.0000000000
11
-3.3702572094
21
-16.3372001207
31
0.0000000000
11
-4.0433574272
21
-17.1811337801
31
0.0000000000
11
-5.0840331112
21
-17.1369455757
31
0.0000000000
11
-6.3683147680
21
-16.2135391003
31
0.0000000000
11
-7.7446698002
21
-14.5300781101
31
0.0000000000
11
-9.0548736544
21
-12.2795323354
31
0.0000000000
11
-10.1346355269
21
-9.7297815143
31
0.0000000000
11
-10.8439815743
21
-7.1901836164
31
0.0000000000
11
-11.0903429947
21
-4.9722554917
31
0.0000000000
0
SPLINE
5
374
100
AcDbEntity
8
0
100
AcDbSpline
62
9
6
CONTINUOUS
70
0
71
3
72
11
73
7
74
5
42
0.0000001000
43
0.0000001000
44
0.0000000001
12
-0.3513555789
22
-0.1229000807
32
0.0000000000
13
-0.2675375095
23
0.2613289922
33
0.0000000000
40
0.0000000000
40
0.0000000000
40
0.0000000000
40
0.0000000000
40
0.2922502654
40
0.5558380514
40
0.7891928558
40
1.0000000000
40
1.0000000000
40
1.0000000000
40
1.0000000000
10
-0.3921980966
20
-31.2716422036
30
0.0000000000
10
-0.4264260170
20
-31.2836147307
30
0.0000000000
10
-0.4936710682
20
-31.3009764234
30
0.0000000000
10
-0.5923549639
20
-31.3052837818
30
0.0000000000
10
-0.6793354194
20
-31.2857283038
30
0.0000000000
10
-0.7270069150
20
-31.2554553976
30
0.0000000000
10
-0.7458065211
20
-31.2370920581
30
0.0000000000
11
-0.3921980966
21
-31.2716422036
31
0.0000000000
11
-0.4977631959
21
-31.2979107641
31
0.0000000000
11
-0.5958352586
21
-31.3008226332
31
0.0000000000
11
-0.6801978062
21
-31.2801366883
31
0.0000000000
11
-0.7458065211
21
-31.2370920581
31
0.0000000000
0
SPLINE
5
375
100
AcDbEntity
8
0
100
AcDbSpline
62
9
6
CONTINUOUS
70
0
71
3
72
9
73
5
74
3
42
0.0000001000
43
0.0000001000
44
0.0000000001
12
-0.0923872083
22
0.0902432563
32
0.0000000000
13
-0.0210700727
23
0.1275298247
33
0.0000000000
40
0.0000000000
40
0.0000000000
40
0.0000000000
40
0.0000000000
40
0.5918436196
40
1.0000000000
40
1.0000000000
40
1.0000000000
40
1.0000000000
10
-0.7458065211
20
-31.2370920581
30
0.0000000000
10
-0.7640327811
20
-31.2192887596
30
0.0000000000
10
-0.7887520581
20
-31.1828625815
30
0.0000000000
10
-0.8004166439
20
-31.1410228913
30
0.0000000000
10
-0.8032832721
20
-31.1236721874
30
0.0000000000
11
-0.7458065211
21
-31.2370920581
31
0.0000000000
11
-0.7887198913
21
-31.1742753185
31
0.0000000000
11
-0.8032832721
21
-31.1236721874
31
0.0000000000
0
SPLINE
5
376
100
AcDbEntity
8
0
100
AcDbSpline
62
9
6
CONTINUOUS
70
0
71
3
72
8
73
4
74
2
42
0.0000001000
43
0.0000001000
44
0.0000000001
12
-0.0045913322
22
0.0277897377
32
0.0000000000
13
-0.0014796794
23
0.0279707674
33
0.0000000000
40
0.0000000000
40
0.0000000000
40
0.0000000000
40
0.0000000000
40
1.0000000000
40
1.0000000000
40
1.0000000000
40
1.0000000000
10
-0.8032832721
20
-31.1236721874
30
0.0000000000
10
-0.8048137162
20
-31.1144089415
30
0.0000000000
10
-0.8058042125
20
-31.1050677204
30
0.0000000000
10
-0.8062974390
20
-31.0957441313
30
0.0000000000
11
-0.8032832721
21
-31.1236721874
31
0.0000000000
11
-0.8062974390
21
-31.0957441313
31
0.0000000000
0
SPLINE
5
377
100
AcDbEntity
8
0
100
AcDbSpline
62
9
6
CONTINUOUS
70
0
71
3
72
8
73
4
74
2
42
0.0000001000
43
0.0000001000
44
0.0000000001
12
-0.1979472255
22
-0.0850722609
32
0.0000000000
13
-0.1979473156
23
-0.0850720511
33
0.0000000000
40
0.0000000000
40
0.0000000000
40
0.0000000000
40
0.0000000000
40
1.0000000000
40
1.0000000000
40
1.0000000000
40
1.0000000000
10
7.9738356119
20
-24.3997044854
30
0.0000000000
10
7.9078532034
20
-24.4280619057
30
0.0000000000
10
7.8418707754
20
-24.4564192806
30
0.0000000000
10
7.7758883368
20
-24.4847766309
30
0.0000000000
11
7.9738356119
21
-24.3997044854
31
0.0000000000
11
7.7758883368
21
-24.4847766309
31
0.0000000000
0
SPLINE
5
378
100
AcDbEntity
8
0
100
AcDbSpline
62
9
6
CONTINUOUS
70
0
71
3
72
9
73
5
74
3
42
0.0000001000
43
0.0000001000
44
0.0000000001
12
-0.4584464838
22
-0.1970270855
32
0.0000000000
13
-0.4584464866
23
-0.1970270790
33
0.0000000000
40
0.0000000000
40
0.0000000000
40
0.0000000000
40
0.0000000000
40
0.9707263272
40
1.0000000000
40
1.0000000000
40
1.0000000000
40
1.0000000000
10
7.7758883368
20
-24.4847766309
30
0.0000000000
10
7.6275463130
20
-24.5485297573
30
0.0000000000
10
7.4747307636
20
-24.6142053250
30
0.0000000000
10
7.3219152666
20
-24.6798810147
30
0.0000000000
10
7.3174417958
20
-24.6818035835
30
0.0000000000
11
7.7758883368
21
-24.4847766309
31
0.0000000000
11
7.3308622084
21
-24.6760358775
31
0.0000000000
11
7.3174417958
21
-24.6818035835
31
0.0000000000
0
SPLINE
5
379
100
AcDbEntity
8
0
100
AcDbSpline
62
9
6
CONTINUOUS
70
0
71
3
72
8
73
4
74
2
42
0.0000001000
43
0.0000001000
44
0.0000000001
12
-0.6295529786
22
-0.2705637148
32
0.0000000000
13
-0.6295532935
23
-0.2705629822
33
0.0000000000
40
0.0000000000
40
0.0000000000
40
0.0000000000
40
0.0000000000
40
1.0000000000
40
1.0000000000
40
1.0000000000
40
1.0000000000
10
7.3174417958
20
-24.6818035835
30
0.0000000000
10
7.1075908030
20
-24.7719914884
30
0.0000000000
10
6.8977399027
20
-24.8621796089
30
0.0000000000
10
6.6878888049
20
-24.9523672696
30
0.0000000000
11
7.3174417958
21
-24.6818035835
31
0.0000000000
11
6.6878888049
21
-24.9523672696
31
0.0000000000
0
SPLINE
5
37A
100
AcDbEntity
8
0
100
AcDbSpline
62
9
6
CONTINUOUS
70
0
71
3
72
8
73
4
74
2
42
0.0000001000
43
0.0000001000
44
0.0000000001
12
-0.6562304242
22
-0.2318318744
32
0.0000000000
13
-0.6562147447
23
-0.2318762530
33
0.0000000000
40
0.0000000000
40
0.0000000000
40
0.0000000000
40
0.0000000000
40
1.0000000000
40
1.0000000000
40
1.0000000000
40
1.0000000000
10
7.4260563029
20
0.7469872244
30
0.0000000000
10
7.2073128281
20
0.6697099329
30
0.0000000000
10
6.9885719733
20
0.5924252253
30
0.0000000000
10
6.7698337251
20
0.5151331409
30
0.0000000000
11
7.4260563029
21
0.7469872244
31
0.0000000000
11
6.7698337251
21
0.5151331409
31
0.0000000000
0
SPLINE
5
37B
100
AcDbEntity
8
0
100
AcDbSpline
62
9
6
CONTINUOUS
70
0
71
3
72
8
73
4
74
2
42
0.0000001000
43
0.0000001000
44
0.0000000001
12
-0.0819452420
22
-0.0289556975
32
0.0000000000
13
-0.0819449982
23
-0.0289563874
33
0.0000000000
40
0.0000000000
40
0.0000000000
40
0.0000000000
40
0.0000000000
40
1.0000000000
40
1.0000000000
40
1.0000000000
40
1.0000000000
10
6.7698337251
20
0.5151331409
30
0.0000000000
10
6.7425186444
20
0.5054812418
30
0.0000000000
10
6.7152036044
20
0.4958292276
30
0.0000000000
10
6.6878886050
20
0.4861770984
30
0.0000000000
11
6.7698337251
21
0.5151331409
31
0.0000000000
11
6.6878886050
21
0.4861770984
31
0.0000000000
0
SPLINE
5
37C
100
AcDbEntity
8
0
100
AcDbSpline
62
9
6
CONTINUOUS
70
0
71
3
72
8
73
4
74
2
42
0.0000001000
43
0.0000001000
44
0.0000000001
12
1.0324713944
22
0.4110163065
32
0.0000000000
13
1.0324718859
23
0.4110150718
33
0.0000000000
40
0.0000000000
40
0.0000000000
40
0.0000000000
40
0.0000000000
40
1.0000000000
40
1.0000000000
40
1.0000000000
40
1.0000000000
10
-10.1667594963
20
27.9791372085
30
0.0000000000
10
-9.8226023648
20
28.1161426440
30
0.0000000000
10
-9.4784450820
20
28.2531476993
30
0.0000000000
10
-9.1342877867
20
28.3901527232
30
0.0000000000
11
-10.1667594963
21
27.9791372085
31
0.0000000000
11
-9.1342877867
21
28.3901527232
31
0.0000000000
0
SPLINE
5
37D
100
AcDbEntity
8
0
100
AcDbSpline
62
9
6
CONTINUOUS
70
0
71
3
72
9
73
5
74
3
42
0.0000001000
43
0.0000001000
44
0.0000000001
12
2.3434143092
22
0.9328860318
32
0.0000000000
13
2.3434148790
23
0.9328846004
33
0.0000000000
40
0.0000000000
40
0.0000000000
40
0.0000000000
40
0.0000000000
40
0.2797077790
40
1.0000000000
40
1.0000000000
40
1.0000000000
40
1.0000000000
10
-9.1342877867
20
28.3901527232
30
0.0000000000
10
-8.9157973828
20
28.4771312166
30
0.0000000000
10
-8.1346592618
20
28.7880931820
30
0.0000000000
10
-7.3535215307
20
29.0990561271
30
0.0000000000
10
-6.7908736947
20
29.3230393007
30
0.0000000000
11
-9.1342877867
21
28.3901527232
31
0.0000000000
11
-8.4788165955
21
28.6510882546
31
0.0000000000
11
-6.7908736947
21
29.3230393007
31
0.0000000000
0
SPLINE
5
37E
100
AcDbEntity
8
0
100
AcDbSpline
62
9
6
CONTINUOUS
70
0
71
3
72
10
73
6
74
4
42
0.0000001000
43
0.0000001000
44
0.0000000001
12
-0.2212444842
22
-0.1368165879
32
0.0000000000
13
-0.2184048010
23
-0.1413054969
33
0.0000000000
40
0.0000000000
40
0.0000000000
40
0.0000000000
40
0.0000000000
40
0.3351469320
40
0.6684762623
40
1.0000000000
40
1.0000000000
40
1.0000000000
40
1.0000000000
10
-6.5710290480
20
29.4620865663
30
0.0000000000
10
-6.5957455181
20
29.4468020130
30
0.0000000000
10
-6.6449428721
20
29.4161512141
30
0.0000000000
10
-6.7182270006
20
29.3698025723
30
0.0000000000
10
-6.7667382361
20
29.3386546762
30
0.0000000000
10
-6.7908736947
20
29.3230393007
30
0.0000000000
11
-6.5710290480
21
29.4620865663
31
0.0000000000
11
-6.6450241933
21
29.4159843797
31
0.0000000000
11
-6.7183060481
21
29.3696352181
31
0.0000000000
11
-6.7908736947
21
29.3230393007
31
0.0000000000
0
SPLINE
5
37F
100
AcDbEntity
8
0
100
AcDbSpline
62
9
6
CONTINUOUS
70
0
71
3
72
8
73
4
74
2
42
0.0000001000
43
0.0000001000
44
0.0000000001
12
0.3878002314
22
0.1537843881
32
0.0000000000
13
0.3878036471
23
0.1537757746
33
0.0000000000
40
0.0000000000
40
0.0000000000
40
0.0000000000
40
0.0000000000
40
1.0000000000
40
1.0000000000
40
1.0000000000
40
1.0000000000
10
-12.7337423998
20
26.5007971454
30
0.0000000000
10
-12.6044756560
20
26.5520586081
30
0.0000000000
10
-12.4752083467
20
26.6033186449
30
0.0000000000
10
-12.3459404644
20
26.6545772364
30
0.0000000000
11
-12.7337423998
21
26.5007971454
31
0.0000000000
11
-12.3459404644
21
26.6545772364
31
0.0000000000
0
SPLINE
5
380
100
AcDbEntity
8
0
100
AcDbSpline
62
9
6
CONTINUOUS
70
0
71
3
72
8
73
4
74
2
42
0.0000001000
43
0.0000001000
44
0.0000000001
12
0.3875610798
22
0.1536795894
32
0.0000000000
13
0.3875645367
23
0.1536708715
33
0.0000000000
40
0.0000000000
40
0.0000000000
40
0.0000000000
40
0.0000000000
40
1.0000000000
40
1.0000000000
40
1.0000000000
40
1.0000000000
10
-12.3459404644
20
26.6545772364
30
0.0000000000
10
-12.2167534377
20
26.7058037662
30
0.0000000000
10
-12.0875658388
20
26.7570288526
30
0.0000000000
10
-11.9583776599
20
26.8082524765
30
0.0000000000
11
-12.3459404644
21
26.6545772364
31
0.0000000000
11
-11.9583776599
21
26.8082524765
31
0.0000000000
0
SPLINE
5
381
100
AcDbEntity
8
0
100
AcDbSpline
62
9
6
CONTINUOUS
70
0
71
3
72
10
73
6
74
4
42
0.0000001000
43
0.0000001000
44
0.0000000001
12
2.7061541858
22
1.0730008369
32
0.0000000000
13
2.7063324803
23
1.0725510596
33
0.0000000000
40
0.0000000000
40
0.0000000000
40
0.0000000000
40
0.0000000000
40
0.1431263878
40
0.5719683560
40
1.0000000000
40
1.0000000000
40
1.0000000000
40
1.0000000000
10
-11.9583776599
20
26.8082524765
30
0.0000000000
10
-11.8292703021
20
26.8594440544
30
0.0000000000
10
-11.3133231339
20
27.0640123917
30
0.0000000000
10
-10.4112513092
20
27.4216278104
30
0.0000000000
10
-9.6382678221
20
27.7280036676
30
0.0000000000
10
-9.2521358418
20
27.8810322653
30
0.0000000000
11
-11.9583776599
21
26.8082524765
31
0.0000000000
11
-11.5710538413
21
26.9618228089
31
0.0000000000
11
-10.4105148422
21
27.4219037290
31
0.0000000000
11
-9.2521358418
21
27.8810322653
31
0.0000000000
0
SPLINE
5
382
100
AcDbEntity
8
0
100
AcDbSpline
62
9
6
CONTINUOUS
70
0
71
3
72
10
73
6
74
4
42
0.0000001000
43
0.0000001000
44
0.0000000001
12
3.4610986227
22
1.3911415030
32
0.0000000000
13
3.4623835970
23
1.3879402669
33
0.0000000000
40
0.0000000000
40
0.0000000000
40
0.0000000000
40
0.0000000000
40
0.3339916603
40
0.6673264620
40
1.0000000000
40
1.0000000000
40
1.0000000000
40
1.0000000000
10
-7.9088978549
20
20.9569852635
30
0.0000000000
10
-7.5235718297
20
21.1118618169
30
0.0000000000
10
-6.7536325878
20
21.4211983643
30
0.0000000000
10
-5.5997257665
20
21.8843962081
30
0.0000000000
10
-4.8311174451
20
22.1926487055
30
0.0000000000
10
-4.4471696447
20
22.3465590386
30
0.0000000000
11
-7.9088978549
21
20.9569852635
31
0.0000000000
11
-6.7528513513
21
21.4214446419
31
0.0000000000
11
-5.5989384930
21
21.8846421019
31
0.0000000000
11
-4.4471696447
21
22.3465590386
31
0.0000000000
0
SPLINE
5
383
100
AcDbEntity
8
0
100
AcDbSpline
62
9
6
CONTINUOUS
70
0
71
3
72
9
73
5
74
3
42
0.0000001000
43
0.0000001000
44
0.0000000001
12
6.4709975033
22
2.7698458280
32
0.0000000000
13
6.4711255700
23
2.7695466192
33
0.0000000000
40
0.0000000000
40
0.0000000000
40
0.0000000000
40
0.0000000000
40
0.4504138622
40
1.0000000000
40
1.0000000000
40
1.0000000000
40
1.0000000000
10
-5.8038527898
20
17.8273703824
30
0.0000000000
10
-4.8323104640
20
18.2432293681
30
0.0000000000
10
-2.6752741711
20
19.1664245783
30
0.0000000000
10
-0.5182943482
20
20.0897517200
30
0.0000000000
10
0.6671859549
20
20.5971198633
30
0.0000000000
11
-5.8038527898
21
17.8273703824
31
0.0000000000
11
-2.8892038252
21
19.0748959737
31
0.0000000000
11
0.6671859549
21
20.5971198633
31
0.0000000000
0
SPLINE
5
384
100
AcDbEntity
8
0
100
AcDbSpline
62
9
6
CONTINUOUS
70
0
71
3
72
10
73
6
74
4
42
0.0000001000
43
0.0000001000
44
0.0000000001
12
0.4826826911
22
-0.1846989673
32
0.0000000000
13
0.4836316670
23
-0.1821996144
33
0.0000000000
40
0.0000000000
40
0.0000000000
40
0.0000000000
40
0.0000000000
40
0.3327930977
40
0.6661270257
40
1.0000000000
40
1.0000000000
40
1.0000000000
40
1.0000000000
10
0.1840263630
20
20.7805662265
30
0.0000000000
10
0.2375708524
20
20.7600773793
30
0.0000000000
10
0.3447824589
20
20.7191593817
30
0.0000000000
10
0.5058360003
20
20.6580108028
30
0.0000000000
10
0.6133621072
20
20.6173970391
30
0.0000000000
10
0.6671859549
20
20.5971198633
30
0.0000000000
11
0.1840263630
21
20.7805662265
31
0.0000000000
11
0.3447130124
21
20.7192388471
31
0.0000000000
11
0.5057666748
21
20.6580899375
31
0.0000000000
11
0.6671859549
21
20.5971198633
31
0.0000000000
0
SPLINE
5
385
100
AcDbEntity
8
0
100
AcDbSpline
62
9
6
CONTINUOUS
70
0
71
3
72
10
73
6
74
4
42
0.0000001000
43
0.0000001000
44
0.0000000001
12
3.4472430953
22
1.4215470471
32
0.0000000000
13
3.4459227053
23
1.4247447752
33
0.0000000000
40
0.0000000000
40
0.0000000000
40
0.0000000000
40
0.0000000000
40
0.3339992613
40
0.6673341520
40
1.0000000000
40
1.0000000000
40
1.0000000000
40
1.0000000000
10
-7.5404799904
20
20.1403756437
30
0.0000000000
10
-7.1566877746
20
20.2986408649
30
0.0000000000
10
-6.3899128964
20
20.6149683950
30
0.0000000000
10
-5.2410445845
20
21.0893329735
30
0.0000000000
10
-4.4759969177
20
21.4055009653
30
0.0000000000
10
-4.0938833181
20
21.5634889416
30
0.0000000000
11
-7.5404799904
21
20.1403756437
31
0.0000000000
11
-6.3891735287
21
20.6153414718
31
0.0000000000
11
-5.2403008620
21
21.0897106727
31
0.0000000000
11
-4.0938833181
21
21.5634889416
31
0.0000000000
0
SPLINE
5
386
100
AcDbEntity
8
0
100
AcDbSpline
62
9
6
CONTINUOUS
70
0
71
3
72
9
73
5
74
3
42
0.0000001000
43
0.0000001000
44
0.0000000001
12
3.2825382127
22
1.3087641602
32
0.0000000000
13
3.2825396964
23
1.3087604390
33
0.0000000000
40
0.0000000000
40
0.0000000000
40
0.0000000000
40
0.0000000000
40
0.5284419351
40
1.0000000000
40
1.0000000000
40
1.0000000000
40
1.0000000000
10
-12.1237798689
20
26.3454792203
30
0.0000000000
10
-11.5455695871
20
26.5760145088
30
0.0000000000
10
-10.4513895664
20
27.0122676827
30
0.0000000000
10
-9.3572101292
20
27.4485223199
30
0.0000000000
10
-8.8412407735
20
27.6542411666
30
0.0000000000
11
-12.1237798689
21
26.3454792203
31
0.0000000000
11
-10.3891485350
21
27.0370838603
31
0.0000000000
11
-8.8412407735
21
27.6542411666
31
0.0000000000
0
SPLINE
5
387
100
AcDbEntity
8
0
100
AcDbSpline
62
9
6
CONTINUOUS
70
0
71
3
72
8
73
4
74
2
42
0.0000001000
43
0.0000001000
44
0.0000000001
12
0.1867235623
22
0.0744473591
32
0.0000000000
13
0.1867235831
23
0.0744473068
33
0.0000000000
40
0.0000000000
40
0.0000000000
40
0.0000000000
40
0.0000000000
40
1.0000000000
40
1.0000000000
40
1.0000000000
40
1.0000000000
10
-8.8412407735
20
27.6542411666
30
0.0000000000
10
-8.7789995861
20
27.6790569529
30
0.0000000000
10
-8.7167583954
20
27.7038727313
30
0.0000000000
10
-8.6545172011
20
27.7286885003
30
0.0000000000
11
-8.8412407735
21
27.6542411666
31
0.0000000000
11
-8.6545172011
21
27.7286885003
31
0.0000000000
0
SPLINE
5
388
100
AcDbEntity
8
0
100
AcDbSpline
62
9
6
CONTINUOUS
70
0
71
3
72
9
73
5
74
3
42
0.0000001000
43
0.0000001000
44
0.0000000001
12
3.2825382127
22
1.3087641602
32
0.0000000000
13
3.2825396964
23
1.3087604390
33
0.0000000000
40
0.0000000000
40
0.0000000000
40
0.0000000000
40
0.0000000000
40
0.5284419351
40
1.0000000000
40
1.0000000000
40
1.0000000000
40
1.0000000000
10
-0.8737798689
20
12.5670994172
30
0.0000000000
10
-0.2955695871
20
12.7976347056
30
0.0000000000
10
0.7986104336
20
13.2338878795
30
0.0000000000
10
1.8927898708
20
13.6701425168
30
0.0000000000
10
2.4087592265
20
13.8758613634
30
0.0000000000
11
-0.8737798689
21
12.5670994172
31
0.0000000000
11
0.8608514650
21
13.2587040571
31
0.0000000000
11
2.4087592265
21
13.8758613634
31
0.0000000000
0
SPLINE
5
389
100
AcDbEntity
8
0
100
AcDbSpline
62
9
6
CONTINUOUS
70
0
71
3
72
8
73
4
74
2
42
0.0000001000
43
0.0000001000
44
0.0000000001
12
0.1867235623
22
0.0744473591
32
0.0000000000
13
0.1867235831
23
0.0744473068
33
0.0000000000
40
0.0000000000
40
0.0000000000
40
0.0000000000
40
0.0000000000
40
1.0000000000
40
1.0000000000
40
1.0000000000
40
1.0000000000
10
2.4087592265
20
13.8758613634
30
0.0000000000
10
2.4710004139
20
13.9006771498
30
0.0000000000
10
2.5332416046
20
13.9254929282
30
0.0000000000
10
2.5954827989
20
13.9503086971
30
0.0000000000
11
2.4087592265
21
13.8758613634
31
0.0000000000
11
2.5954827989
21
13.9503086971
31
0.0000000000
0
SPLINE
5
38A
100
AcDbEntity
8
0
100
AcDbSpline
62
9
6
CONTINUOUS
70
0
71
3
72
8
73
4
74
2
42
0.0000001000
43
0.0000001000
44
0.0000000001
12
0.2968005668
22
0.1241231336
32
0.0000000000
13
0.2968303176
23
0.1240519389
33
0.0000000000
40
0.0000000000
40
0.0000000000
40
0.0000000000
40
0.0000000000
40
1.0000000000
40
1.0000000000
40
1.0000000000
40
1.0000000000
10
-5.3747975545
20
17.3019188052
30
0.0000000000
10
-5.2758640323
20
17.3432931830
30
0.0000000000
10
-5.1769256111
20
17.3846558419
30
0.0000000000
10
-5.0779821720
20
17.4260064882
30
0.0000000000
11
-5.3747975545
21
17.3019188052
31
0.0000000000
11
-5.0779821720
21
17.4260064882
31
0.0000000000
0
SPLINE
5
38B
100
AcDbEntity
8
0
100
AcDbSpline
62
9
6
CONTINUOUS
70
0
71
3
72
8
73
4
74
2
42
0.0000001000
43
0.0000001000
44
0.0000000001
12
0.2548857671
22
0.1065223858
32
0.0000000000
13
0.2549081940
23
0.1064686834
33
0.0000000000
40
0.0000000000
40
0.0000000000
40
0.0000000000
40
0.0000000000
40
1.0000000000
40
1.0000000000
40
1.0000000000
40
1.0000000000
10
-5.0779821720
20
17.4260064882
30
0.0000000000
10
-4.9930202496
20
17.4615139502
30
0.0000000000
10
-4.9080546272
20
17.4970125546
30
0.0000000000
10
-4.8230852292
20
17.5325021158
30
0.0000000000
11
-5.0779821720
21
17.4260064882
31
0.0000000000
11
-4.8230852292
21
17.5325021158
31
0.0000000000
0
SPLINE
5
38C
100
AcDbEntity
8
0
100
AcDbSpline
62
9
6
CONTINUOUS
70
0
71
3
72
8
73
4
74
2
42
0.0000001000
43
0.0000001000
44
0.0000000001
12
1.0324713944
22
0.4110163065
32
0.0000000000
13
1.0324718859
23
0.4110150718
33
0.0000000000
40
0.0000000000
40
0.0000000000
40
0.0000000000
40
0.0000000000
40
1.0000000000
40
1.0000000000
40
1.0000000000
40
1.0000000000
10
1.0832405037
20
14.2007574053
30
0.0000000000
10
1.4273976352
20
14.3377628408
30
0.0000000000
10
1.7715549180
20
14.4747678961
30
0.0000000000
10
2.1157122133
20
14.6117729201
30
0.0000000000
11
1.0832405037
21
14.2007574053
31
0.0000000000
11
2.1157122133
21
14.6117729201
31
0.0000000000
0
SPLINE
5
38D
100
AcDbEntity
8
0
100
AcDbSpline
62
9
6
CONTINUOUS
70
0
71
3
72
9
73
5
74
3
42
0.0000001000
43
0.0000001000
44
0.0000000001
12
2.3434143092
22
0.9328860318
32
0.0000000000
13
2.3434148790
23
0.9328846004
33
0.0000000000
40
0.0000000000
40
0.0000000000
40
0.0000000000
40
0.0000000000
40
0.2797077790
40
1.0000000000
40
1.0000000000
40
1.0000000000
40
1.0000000000
10
2.1157122133
20
14.6117729201
30
0.0000000000
10
2.3342026172
20
14.6987514134
30
0.0000000000
10
3.1153407382
20
15.0097133789
30
0.0000000000
10
3.8964784693
20
15.3206763240
30
0.0000000000
10
4.4591263053
20
15.5446594976
30
0.0000000000
11
2.1157122133
21
14.6117729201
31
0.0000000000
11
2.7711834045
21
14.8727084514
31
0.0000000000
11
4.4591263053
21
15.5446594976
31
0.0000000000
0
SPLINE
5
38E
100
AcDbEntity
8
0
100
AcDbSpline
62
9
6
CONTINUOUS
70
0
71
3
72
10
73
6
74
4
42
0.0000001000
43
0.0000001000
44
0.0000000001
12
-0.2212444842
22
-0.1368165879
32
0.0000000000
13
-0.2184048010
23
-0.1413054969
33
0.0000000000
40
0.0000000000
40
0.0000000000
40
0.0000000000
40
0.0000000000
40
0.3351469320
40
0.6684762623
40
1.0000000000
40
1.0000000000
40
1.0000000000
40
1.0000000000
10
4.6789709520
20
15.6837067631
30
0.0000000000
10
4.6542544819
20
15.6684222099
30
0.0000000000
10
4.6050571279
20
15.6377714109
30
0.0000000000
10
4.5317729994
20
15.5914227691
30
0.0000000000
10
4.4832617639
20
15.5602748731
30
0.0000000000
10
4.4591263053
20
15.5446594976
30
0.0000000000
11
4.6789709520
21
15.6837067631
31
0.0000000000
11
4.6049758067
21
15.6376045766
31
0.0000000000
11
4.5316939519
21
15.5912554149
31
0.0000000000
11
4.4591263053
21
15.5446594976
31
0.0000000000
0
SPLINE
5
38F
100
AcDbEntity
8
0
100
AcDbSpline
62
9
6
CONTINUOUS
70
0
71
3
72
8
73
4
74
2
42
0.0000001000
43
0.0000001000
44
0.0000000001
12
0.3878002314
22
0.1537843881
32
0.0000000000
13
0.3878036471
23
0.1537757746
33
0.0000000000
40
0.0000000000
40
0.0000000000
40
0.0000000000
40
0.0000000000
40
1.0000000000
40
1.0000000000
40
1.0000000000
40
1.0000000000
10
-1.4837423998
20
12.7224173423
30
0.0000000000
10
-1.3544756560
20
12.7736788050
30
0.0000000000
10
-1.2252083467
20
12.8249388417
30
0.0000000000
10
-1.0959404644
20
12.8761974332
30
0.0000000000
11
-1.4837423998
21
12.7224173423
31
0.0000000000
11
-1.0959404644
21
12.8761974332
31
0.0000000000
0
SPLINE
5
390
100
AcDbEntity
8
0
100
AcDbSpline
62
9
6
CONTINUOUS
70
0
71
3
72
8
73
4
74
2
42
0.0000001000
43
0.0000001000
44
0.0000000001
12
0.3875610798
22
0.1536795894
32
0.0000000000
13
0.3875645367
23
0.1536708715
33
0.0000000000
40
0.0000000000
40
0.0000000000
40
0.0000000000
40
0.0000000000
40
1.0000000000
40
1.0000000000
40
1.0000000000
40
1.0000000000
10
-1.0959404644
20
12.8761974332
30
0.0000000000
10
-0.9667534377
20
12.9274239630
30
0.0000000000
10
-0.8375658388
20
12.9786490495
30
0.0000000000
10
-0.7083776599
20
13.0298726733
30
0.0000000000
11
-1.0959404644
21
12.8761974332
31
0.0000000000
11
-0.7083776599
21
13.0298726733
31
0.0000000000
0
SPLINE
5
391
100
AcDbEntity
8
0
100
AcDbSpline
62
9
6
CONTINUOUS
70
0
71
3
72
10
73
6
74
4
42
0.0000001000
43
0.0000001000
44
0.0000000001
12
2.7061541858
22
1.0730008369
32
0.0000000000
13
2.7063324803
23
1.0725510596
33
0.0000000000
40
0.0000000000
40
0.0000000000
40
0.0000000000
40
0.0000000000
40
0.1431263878
40
0.5719683560
40
1.0000000000
40
1.0000000000
40
1.0000000000
40
1.0000000000
10
-0.7083776599
20
13.0298726733
30
0.0000000000
10
-0.5792703021
20
13.0810642513
30
0.0000000000
10
-0.0633231339
20
13.2856325886
30
0.0000000000
10
0.8387486908
20
13.6432480072
30
0.0000000000
10
1.6117321779
20
13.9496238644
30
0.0000000000
10
1.9978641582
20
14.1026524622
30
0.0000000000
11
-0.7083776599
21
13.0298726733
31
0.0000000000
11
-0.3210538413
21
13.1834430058
31
0.0000000000
11
0.8394851578
21
13.6435239259
31
0.0000000000
11
1.9978641582
21
14.1026524622
31
0.0000000000
0
SPLINE
5
392
100
AcDbEntity
8
0
100
AcDbSpline
62
9
6
CONTINUOUS
70
0
71
3
72
10
73
6
74
4
42
0.0000001000
43
0.0000001000
44
0.0000000001
12
3.4610986227
22
1.3911415030
32
0.0000000000
13
3.4623835970
23
1.3879402669
33
0.0000000000
40
0.0000000000
40
0.0000000000
40
0.0000000000
40
0.0000000000
40
0.3339916603
40
0.6673264620
40
1.0000000000
40
1.0000000000
40
1.0000000000
40
1.0000000000
10
3.3411021451
20
7.1786054603
30
0.0000000000
10
3.7264281703
20
7.3334820138
30
0.0000000000
10
4.4963674122
20
7.6428185611
30
0.0000000000
10
5.6502742335
20
8.1060164050
30
0.0000000000
10
6.4188825549
20
8.4142689024
30
0.0000000000
10
6.8028303553
20
8.5681792354
30
0.0000000000
11
3.3411021451
21
7.1786054603
31
0.0000000000
11
4.4971486487
21
7.6430648387
31
0.0000000000
11
5.6510615070
21
8.1062622987
31
0.0000000000
11
6.8028303553
21
8.5681792354
31
0.0000000000
0
SPLINE
5
393
100
AcDbEntity
8
0
100
AcDbSpline
62
9
6
CONTINUOUS
70
0
71
3
72
9
73
5
74
3
42
0.0000001000
43
0.0000001000
44
0.0000000001
12
6.4709975033
22
2.7698458280
32
0.0000000000
13
6.4711255700
23
2.7695466192
33
0.0000000000
40
0.0000000000
40
0.0000000000
40
0.0000000000
40
0.0000000000
40
0.4504138622
40
1.0000000000
40
1.0000000000
40
1.0000000000
40
1.0000000000
10
5.4461472102
20
4.0489905793
30
0.0000000000
10
6.4176895360
20
4.4648495649
30
0.0000000000
10
8.5747258289
20
5.3880447752
30
0.0000000000
10
10.7317056518
20
6.3113719168
30
0.0000000000
10
11.9171859549
20
6.8187400602
30
0.0000000000
11
5.4461472102
21
4.0489905793
31
0.0000000000
11
8.3607961748
21
5.2965161706
31
0.0000000000
11
11.9171859549
21
6.8187400602
31
0.0000000000
0
SPLINE
5
394
100
AcDbEntity
8
0
100
AcDbSpline
62
9
6
CONTINUOUS
70
0
71
3
72
10
73
6
74
4
42
0.0000001000
43
0.0000001000
44
0.0000000001
12
0.4826826911
22
-0.1846989673
32
0.0000000000
13
0.4836316670
23
-0.1821996144
33
0.0000000000
40
0.0000000000
40
0.0000000000
40
0.0000000000
40
0.0000000000
40
0.3327930977
40
0.6661270257
40
1.0000000000
40
1.0000000000
40
1.0000000000
40
1.0000000000
10
11.4340263630
20
7.0021864233
30
0.0000000000
10
11.4875708524
20
6.9816975762
30
0.0000000000
10
11.5947824589
20
6.9407795785
30
0.0000000000
10
11.7558360003
20
6.8796309996
30
0.0000000000
10
11.8633621072
20
6.8390172359
30
0.0000000000
10
11.9171859549
20
6.8187400602
30
0.0000000000
11
11.4340263630
21
7.0021864233
31
0.0000000000
11
11.5947130124
21
6.9408590439
31
0.0000000000
11
11.7557666748
21
6.8797101344
31
0.0000000000
11
11.9171859549
21
6.8187400602
31
0.0000000000
0
SPLINE
5
395
100
AcDbEntity
8
0
100
AcDbSpline
62
9
6
CONTINUOUS
70
0
71
3
72
10
73
6
74
4
42
0.0000001000
43
0.0000001000
44
0.0000000001
12
3.4472430953
22
1.4215470471
32
0.0000000000
13
3.4459227053
23
1.4247447752
33
0.0000000000
40
0.0000000000
40
0.0000000000
40
0.0000000000
40
0.0000000000
40
0.3339992613
40
0.6673341520
40
1.0000000000
40
1.0000000000
40
1.0000000000
40
1.0000000000
10
3.7095200096
20
6.3619958405
30
0.0000000000
10
4.0933122254
20
6.5202610618
30
0.0000000000
10
4.8600871036
20
6.8365885918
30
0.0000000000
10
6.0089554155
20
7.3109531703
30
0.0000000000
10
6.7740030823
20
7.6271211622
30
0.0000000000
10
7.1561166819
20
7.7851091384
30
0.0000000000
11
3.7095200096
21
6.3619958405
31
0.0000000000
11
4.8608264713
21
6.8369616686
31
0.0000000000
11
6.0096991380
21
7.3113308695
31
0.0000000000
11
7.1561166819
21
7.7851091384
31
0.0000000000
0
SPLINE
5
396
100
AcDbEntity
8
0
100
AcDbSpline
62
9
6
CONTINUOUS
70
0
71
3
72
9
73
5
74
3
42
0.0000001000
43
0.0000001000
44
0.0000000001
12
6.1162188539
22
2.4533550324
32
0.0000000000
13
6.1162188539
23
2.4533550324
33
0.0000000000
40
0.0000000000
40
0.0000000000
40
0.0000000000
40
0.0000000000
40
0.5757966612
40
1.0000000000
40
1.0000000000
40
1.0000000000
40
1.0000000000
10
-4.8230852292
20
17.5325021158
30
0.0000000000
10
-3.6491857641
20
18.0033799946
30
0.0000000000
10
-1.6104461461
20
18.8211650054
30
0.0000000000
10
0.4282934719
20
19.6389500162
30
0.0000000000
10
1.2931336248
20
19.9858571482
30
0.0000000000
11
-4.8230852292
21
17.5325021158
31
0.0000000000
11
-1.3013868339
21
18.9451357522
31
0.0000000000
11
1.2931336248
21
19.9858571482
31
0.0000000000
0
SPLINE
5
397
100
AcDbEntity
8
0
100
AcDbSpline
62
9
6
CONTINUOUS
70
0
71
3
72
8
73
4
74
2
42
0.0000001000
43
0.0000001000
44
0.0000000001
12
0.3914463823
22
0.1570180817
32
0.0000000000
13
0.3914463823
23
0.1570180817
33
0.0000000000
40
0.0000000000
40
0.0000000000
40
0.0000000000
40
0.0000000000
40
1.0000000000
40
1.0000000000
40
1.0000000000
40
1.0000000000
10
1.2931336248
20
19.9858571482
30
0.0000000000
10
1.4236157522
20
20.0381965087
30
0.0000000000
10
1.5540978796
20
20.0905358693
30
0.0000000000
10
1.6845800070
20
20.1428752299
30
0.0000000000
11
1.2931336248
21
19.9858571482
31
0.0000000000
11
1.6845800070
21
20.1428752299
31
0.0000000000
0
SPLINE
5
398
100
AcDbEntity
8
0
100
AcDbSpline
62
9
6
CONTINUOUS
70
0
71
3
72
8
73
4
74
2
42
0.0000001000
43
0.0000001000
44
0.0000000001
12
0.1567255614
22
0.0628662011
32
0.0000000000
13
0.1567255614
23
0.0628662011
33
0.0000000000
40
0.0000000000
40
0.0000000000
40
0.0000000000
40
0.0000000000
40
1.0000000000
40
1.0000000000
40
1.0000000000
40
1.0000000000
10
1.6845800070
20
20.1428752299
30
0.0000000000
10
1.7368218608
20
20.1638306303
30
0.0000000000
10
1.7890637146
20
20.1847860307
30
0.0000000000
10
1.8413055684
20
20.2057414310
30
0.0000000000
11
1.6845800070
21
20.1428752299
31
0.0000000000
11
1.8413055684
21
20.2057414310
31
0.0000000000
0
SPLINE
5
399
100
AcDbEntity
8
0
100
AcDbSpline
62
9
6
CONTINUOUS
70
0
71
3
72
8
73
4
74
2
42
0.0000001000
43
0.0000001000
44
0.0000000001
12
0.3258299735
22
0.1306978420
32
0.0000000000
13
0.3258299735
23
0.1306978420
33
0.0000000000
40
0.0000000000
40
0.0000000000
40
0.0000000000
40
0.0000000000
40
1.0000000000
40
1.0000000000
40
1.0000000000
40
1.0000000000
10
1.8413055684
20
20.2057414310
30
0.0000000000
10
1.9499155596
20
20.2493073784
30
0.0000000000
10
2.0585255508
20
20.2928733257
30
0.0000000000
10
2.1671355419
20
20.3364392730
30
0.0000000000
11
1.8413055684
21
20.2057414310
31
0.0000000000
11
2.1671355419
21
20.3364392730
31
0.0000000000
0
SPLINE
5
39A
100
AcDbEntity
8
0
100
AcDbSpline
62
9
6
CONTINUOUS
70
0
71
3
72
8
73
4
74
2
42
0.0000001000
43
0.0000001000
44
0.0000000001
12
0.0531760195
22
0.0213301156
32
0.0000000000
13
0.0531760195
23
0.0213301156
33
0.0000000000
40
0.0000000000
40
0.0000000000
40
0.0000000000
40
0.0000000000
40
1.0000000000
40
1.0000000000
40
1.0000000000
40
1.0000000000
10
2.1671355419
20
20.3364392730
30
0.0000000000
10
2.1848608818
20
20.3435493115
30
0.0000000000
10
2.2025862216
20
20.3506593501
30
0.0000000000
10
2.2203115614
20
20.3577693886
30
0.0000000000
11
2.1671355419
21
20.3364392730
31
0.0000000000
11
2.2203115614
21
20.3577693886
31
0.0000000000
0
SPLINE
5
39B
100
AcDbEntity
8
0
100
AcDbSpline
62
9
6
CONTINUOUS
70
0
71
3
72
8
73
4
74
2
42
0.0000001000
43
0.0000001000
44
0.0000000001
12
-0.1895900920
22
0.2318731787
32
0.0000000000
13
-0.0028864057
23
0.3024693761
33
0.0000000000
40
0.0000000000
40
0.0000000000
40
0.0000000000
40
0.0000000000
40
1.0000000000
40
1.0000000000
40
1.0000000000
40
1.0000000000
10
-3.1382776353
20
-14.7113688194
30
0.0000000000
10
-3.2014743326
20
-14.6340777598
30
0.0000000000
10
-3.2447204338
20
-14.5325962470
30
0.0000000000
10
-3.2456825690
20
-14.4317731216
30
0.0000000000
11
-3.1382776353
21
-14.7113688194
31
0.0000000000
11
-3.2456825690
21
-14.4317731216
31
0.0000000000
0
SPLINE
5
39C
100
AcDbEntity
8
0
100
AcDbSpline
62
9
6
CONTINUOUS
70
0
71
3
72
10
73
6
74
4
42
0.0000001000
43
0.0000001000
44
0.0000000001
12
0.7332242942
22
-0.8992785282
32
0.0000000000
13
1.0803023959
23
0.4233987130
33
0.0000000000
40
0.0000000000
40
0.0000000000
40
0.0000000000
40
0.0000000000
40
0.3054659869
40
0.6522081659
40
1.0000000000
40
1.0000000000
40
1.0000000000
40
1.0000000000
10
-11.0902584898
20
-4.9722210540
30
0.0000000000
10
-11.0156001289
20
-5.0637873883
30
0.0000000000
10
-10.7943937808
20
-5.2087373876
30
0.0000000000
10
-10.4072405032
20
-5.2787939418
30
0.0000000000
10
-10.1347030940
20
-5.2335279799
30
0.0000000000
10
-10.0094629768
20
-5.1844431083
30
0.0000000000
11
-11.0902584898
21
-4.9722210540
31
0.0000000000
11
-10.8015277282
21
-5.1777908164
31
0.0000000000
11
-10.4067380614
21
-5.2553106706
31
0.0000000000
11
-10.0094629768
21
-5.1844431083
31
0.0000000000
0
SPLINE
5
39D
100
AcDbEntity
8
0
100
AcDbSpline
62
9
6
CONTINUOUS
70
0
71
3
72
10
73
6
74
4
42
0.0000001000
43
0.0000001000
44
0.0000000001
12
0.7332242942
22
-0.8992785282
32
0.0000000000
13
1.0803023959
23
0.4233987130
33
0.0000000000
40
0.0000000000
40
0.0000000000
40
0.0000000000
40
0.0000000000
40
0.3054659869
40
0.6522081659
40
1.0000000000
40
1.0000000000
40
1.0000000000
40
1.0000000000
10
-22.3402584898
20
8.8061587492
30
0.0000000000
10
-22.2656001289
20
8.7145924148
30
0.0000000000
10
-22.0443937808
20
8.5696424156
30
0.0000000000
10
-21.6572405032
20
8.4995858613
30
0.0000000000
10
-21.3847030940
20
8.5448518232
30
0.0000000000
10
-21.2594629768
20
8.5939366949
30
0.0000000000
11
-22.3402584898
21
8.8061587492
31
0.0000000000
11
-22.0515277282
21
8.6005889868
31
0.0000000000
11
-21.6567380614
21
8.5230691326
31
0.0000000000
11
-21.2594629768
21
8.5939366949
31
0.0000000000
0
SPLINE
5
39E
100
AcDbEntity
8
0
100
AcDbSpline
62
9
6
CONTINUOUS
70
0
71
3
72
10
73
6
74
4
42
0.0000001000
43
0.0000001000
44
0.0000000001
12
0.2428799155
22
-0.0647252643
32
0.0000000000
13
0.2401787389
23
-0.0741227803
33
0.0000000000
40
0.0000000000
40
0.0000000000
40
0.0000000000
40
0.0000000000
40
0.3305731147
40
0.6638930540
40
1.0000000000
40
1.0000000000
40
1.0000000000
40
1.0000000000
10
-12.3653245353
20
26.4149709851
30
0.0000000000
10
-12.3385613453
20
26.4078388411
30
0.0000000000
10
-12.2849074962
20
26.3931564216
30
0.0000000000
10
-12.2043873115
20
26.3699862828
30
0.0000000000
10
-12.1506884497
20
26.3537836141
30
0.0000000000
10
-12.1237798689
20
26.3454792203
30
0.0000000000
11
-12.3653245353
21
26.4149709851
31
0.0000000000
11
-12.2851783439
21
26.3930435960
31
0.0000000000
11
-12.2046621777
21
26.3698793068
31
0.0000000000
11
-12.1237798689
21
26.3454792203
31
0.0000000000
0
SPLINE
5
39F
100
AcDbEntity
8
0
100
AcDbSpline
62
9
6
CONTINUOUS
70
0
71
3
72
10
73
6
74
4
42
0.0000001000
43
0.0000001000
44
0.0000000001
12
0.1788973301
22
-0.0293543147
32
0.0000000000
13
0.1778147117
23
-0.0353250449
33
0.0000000000
40
0.0000000000
40
0.0000000000
40
0.0000000000
40
0.0000000000
40
0.3313662122
40
0.6646888076
40
1.0000000000
40
1.0000000000
40
1.0000000000
40
1.0000000000
10
-12.9121111951
20
26.5331665097
30
0.0000000000
10
-12.8923510182
20
26.5299241670
30
0.0000000000
10
-12.8527506687
20
26.5231945614
30
0.0000000000
10
-12.7932911824
20
26.5124021606
30
0.0000000000
10
-12.7536168208
20
26.5047454397
30
0.0000000000
10
-12.7337423998
20
26.5007971454
30
0.0000000000
11
-12.9121111951
21
26.5331665097
31
0.0000000000
11
-12.8528866833
21
26.5231040255
31
0.0000000000
11
-12.7934298662
21
26.5123141372
31
0.0000000000
11
-12.7337423998
21
26.5007971454
31
0.0000000000
0
SPLINE
5
3A0
100
AcDbEntity
8
0
100
AcDbSpline
62
9
6
CONTINUOUS
70
0
71
3
72
10
73
6
74
4
42
0.0000001000
43
0.0000001000
44
0.0000000001
12
0.1795072432
22
-0.4040398643
32
0.0000000000
13
0.1772305873
23
-0.4050436781
33
0.0000000000
40
0.0000000000
40
0.0000000000
40
0.0000000000
40
0.0000000000
40
0.3332115506
40
0.6665475876
40
1.0000000000
40
1.0000000000
40
1.0000000000
40
1.0000000000
10
-7.5404799904
20
20.1403756437
30
0.0000000000
10
-7.5205420281
20
20.0954987271
30
0.0000000000
10
-7.4807429553
20
20.0056906467
30
0.0000000000
10
-7.4212866348
20
19.8708426738
30
0.0000000000
10
-7.3818105174
20
19.7808534040
30
0.0000000000
10
-7.3621111951
20
19.7358324735
30
0.0000000000
11
-7.5404799904
21
20.1403756437
31
0.0000000000
11
-7.4807925240
21
20.0056887988
31
0.0000000000
11
-7.4213357069
21
19.8708398235
31
0.0000000000
11
-7.3621111951
21
19.7358324735
31
0.0000000000
0
SPLINE
5
3A1
100
AcDbEntity
8
0
100
AcDbSpline
62
9
6
CONTINUOUS
70
0
71
3
72
8
73
4
74
2
42
0.0000001000
43
0.0000001000
44
0.0000000001
12
-0.1889103926
22
0.2310418901
32
0.0000000000
13
-0.0037814923
23
0.3013981499
33
0.0000000000
40
0.0000000000
40
0.0000000000
40
0.0000000000
40
0.0000000000
40
1.0000000000
40
1.0000000000
40
1.0000000000
40
1.0000000000
10
-14.3882776353
20
-0.9329890162
30
0.0000000000
10
-14.4512477661
20
-0.8559750528
30
0.0000000000
10
-14.4944100942
20
-0.7549437757
30
0.0000000000
10
-14.4956705916
20
-0.6544777257
30
0.0000000000
11
-14.3882776353
21
-0.9329890162
31
0.0000000000
11
-14.4956705916
21
-0.6544777257
31
0.0000000000
0
SPLINE
5
3A2
100
AcDbEntity
8
0
100
AcDbSpline
62
9
6
CONTINUOUS
70
0
71
3
72
10
73
6
74
4
42
0.0000001000
43
0.0000001000
44
0.0000000001
12
-1.5225603756
22
28.6559662486
32
0.0000000000
13
1.3636114293
23
28.6644649318
33
0.0000000000
40
0.0000000000
40
0.0000000000
40
0.0000000000
40
0.0000000000
40
0.3407457623
40
0.6861106380
40
1.0000000000
40
1.0000000000
40
1.0000000000
40
1.0000000000
10
-1.4813321982
20
-30.9780019980
30
0.0000000000
10
-1.6542675301
20
-27.7232023101
30
0.0000000000
10
-1.8834209041
20
-21.1625691044
30
0.0000000000
10
-1.8811632039
20
-11.5953825300
30
0.0000000000
10
-1.6752031195
20
-5.2914390296
30
0.0000000000
10
-1.5325287456
20
-2.2922821596
30
0.0000000000
11
-1.4813321982
21
-30.9780019980
31
0.0000000000
11
-1.8249765363
21
-21.2058703317
31
0.0000000000
11
-1.8249765364
21
-11.2951464139
31
0.0000000000
11
-1.5325287456
21
-2.2922821596
31
0.0000000000
0
SPLINE
5
3A3
100
AcDbEntity
8
0
100
AcDbSpline
62
9
6
CONTINUOUS
70
0
71
3
72
8
73
4
74
2
42
0.0000001000
43
0.0000001000
44
0.0000000001
12
0.0494153980
22
1.0387606853
32
0.0000000000
13
0.0529750159
23
1.0385672835
33
0.0000000000
40
0.0000000000
40
0.0000000000
40
0.0000000000
40
0.0000000000
40
1.0000000000
40
1.0000000000
40
1.0000000000
40
1.0000000000
10
-1.5325287456
20
-2.2922821596
30
0.0000000000
10
-1.5160569463
20
-1.9460285978
30
0.0000000000
10
-1.4989905368
20
-1.5998060489
30
0.0000000000
10
-1.4813321982
20
-1.2536169544
30
0.0000000000
11
-1.5325287456
21
-2.2922821596
31
0.0000000000
11
-1.4813321982
21
-1.2536169544
31
0.0000000000
0
SPLINE
5
3A4
100
AcDbEntity
8
0
100
AcDbSpline
62
9
6
CONTINUOUS
70
0
71
3
72
10
73
6
74
4
42
0.0000001000
43
0.0000001000
44
0.0000000001
12
0.2434841966
22
-0.5212691478
32
0.0000000000
13
0.2396073221
23
-0.5230625294
33
0.0000000000
40
0.0000000000
40
0.0000000000
40
0.0000000000
40
0.0000000000
40
0.3330714697
40
0.6664094111
40
1.0000000000
40
1.0000000000
40
1.0000000000
40
1.0000000000
10
-8.1504425213
20
21.4791546815
30
0.0000000000
10
-8.1234099749
20
21.4212813878
30
0.0000000000
10
-8.0694669174
20
21.3054213298
30
0.0000000000
10
-7.9889519580
20
21.1313642643
30
0.0000000000
10
-7.9355414374
20
21.0151481759
30
0.0000000000
10
-7.9088978549
20
20.9569852635
30
0.0000000000
11
-8.1504425213
21
21.4791546815
31
0.0000000000
11
-8.0695602125
21
21.3054343823
31
0.0000000000
11
-7.9890440463
21
21.1313751481
31
0.0000000000
11
-7.9088978549
21
20.9569852635
31
0.0000000000
0
SPLINE
5
3A5
100
AcDbEntity
8
0
100
AcDbSpline
62
9
6
CONTINUOUS
70
0
71
3
72
10
73
6
74
4
42
0.0000001000
43
0.0000001000
44
0.0000000001
12
-0.8469117599
22
0.3702715429
32
0.0000000000
13
0.1219938194
23
0.9162303491
33
0.0000000000
40
0.0000000000
40
0.0000000000
40
0.0000000000
40
0.0000000000
40
0.2809972427
40
0.6737255370
40
1.0000000000
40
1.0000000000
40
1.0000000000
40
1.0000000000
10
-7.5404799904
20
20.1403756437
30
0.0000000000
10
-7.6198066135
20
20.1750574046
30
0.0000000000
10
-7.7514949554
20
20.3564273852
30
0.0000000000
10
-7.8743391768
20
20.6309905821
30
0.0000000000
10
-7.9221656775
20
20.8573377418
30
0.0000000000
10
-7.9088978549
20
20.9569852635
30
0.0000000000
11
-7.5404799904
21
20.1403756437
31
0.0000000000
11
-7.7211449002
21
20.3269769015
31
0.0000000000
11
-7.8704198962
21
20.6578691991
31
0.0000000000
11
-7.9088978549
21
20.9569852635
31
0.0000000000
0
SPLINE
5
3A6
100
AcDbEntity
8
0
100
AcDbSpline
62
9
6
CONTINUOUS
70
0
71
3
72
10
73
6
74
4
42
0.0000001000
43
0.0000001000
44
0.0000000001
12
-1.5339290160
22
28.8696941111
32
0.0000000000
13
1.3969567000
23
28.8770364401
33
0.0000000000
40
0.0000000000
40
0.0000000000
40
0.0000000000
40
0.0000000000
40
0.3378845887
40
0.6803509673
40
1.0000000000
40
1.0000000000
40
1.0000000000
40
1.0000000000
10
-0.8062974390
20
-31.0957441313
30
0.0000000000
10
-0.9790610972
20
-27.8442025578
30
0.0000000000
10
-1.2079882404
20
-21.2901225020
30
0.0000000000
10
-1.2057136682
20
-11.6515796670
30
0.0000000000
10
-0.9946572099
20
-5.2730978677
30
0.0000000000
10
-0.8458119240
20
-2.1962589464
30
0.0000000000
11
-0.8062974390
21
-31.0957441313
31
0.0000000000
11
-1.1496013261
21
-21.3333944442
31
0.0000000000
11
-1.1496012585
21
-11.4325488351
31
0.0000000000
11
-0.8458119240
21
-2.1962589464
31
0.0000000000
0
SPLINE
5
3A7
100
AcDbEntity
8
0
100
AcDbSpline
62
9
6
CONTINUOUS
70
0
71
3
72
8
73
4
74
2
42
0.0000001000
43
0.0000001000
44
0.0000000001
12
0.0384701838
22
0.7952321637
32
0.0000000000
13
0.0405575805
23
0.7951176857
33
0.0000000000
40
0.0000000000
40
0.0000000000
40
0.0000000000
40
0.0000000000
40
1.0000000000
40
1.0000000000
40
1.0000000000
40
1.0000000000
10
-0.8458119240
20
-2.1962589464
30
0.0000000000
10
-0.8329885294
20
-1.9311815585
30
0.0000000000
10
-0.8198166325
20
-1.6661227013
30
0.0000000000
10
-0.8062974390
20
-1.4010834728
30
0.0000000000
11
-0.8458119240
21
-2.1962589464
31
0.0000000000
11
-0.8062974390
21
-1.4010834728
31
0.0000000000
0
SPLINE
5
3A8
100
AcDbEntity
8
0
100
AcDbSpline
62
9
6
CONTINUOUS
70
0
71
3
72
10
73
6
74
4
42
0.0000001000
43
0.0000001000
44
0.0000000001
12
0.2581744150
22
-0.3159526394
32
0.0000000000
13
0.4079428272
23
-0.0314559194
33
0.0000000000
40
0.0000000000
40
0.0000000000
40
0.0000000000
40
0.0000000000
40
0.3983371592
40
0.8441036411
40
1.0000000000
40
1.0000000000
40
1.0000000000
40
1.0000000000
10
-1.4813321890
20
-30.9780019939
30
0.0000000000
10
-1.4470520346
20
-31.0199538862
30
0.0000000000
10
-1.3529100693
20
-31.0917204565
30
0.0000000000
10
-1.2214871573
20
-31.1336406973
30
0.0000000000
10
-1.1399783528
20
-31.1438035243
30
0.0000000000
10
-1.1187794190
20
-31.1454381454
30
0.0000000000
11
-1.4813321890
21
-30.9780019939
31
0.0000000000
11
-1.3544601870
21
-31.0795859854
31
0.0000000000
11
-1.1820541279
21
-31.1375259348
31
0.0000000000
11
-1.1187794190
21
-31.1454381454
31
0.0000000000
0
SPLINE
5
3A9
100
AcDbEntity
8
0
100
AcDbSpline
62
9
6
CONTINUOUS
70
0
71
3
72
9
73
5
74
3
42
0.0000001000
43
0.0000001000
44
0.0000000001
12
0.2560435547
22
-0.0197431720
32
0.0000000000
13
0.2452024537
23
0.0763780000
33
0.0000000000
40
0.0000000000
40
0.0000000000
40
0.0000000000
40
0.0000000000
40
0.5027095209
40
1.0000000000
40
1.0000000000
40
1.0000000000
40
1.0000000000
10
-1.1187794190
20
-31.1454381454
30
0.0000000000
10
-1.0758742414
20
-31.1487465056
30
0.0000000000
10
-0.9898805841
20
-31.1471900413
30
0.0000000000
10
-0.9053687049
20
-31.1298519195
30
0.0000000000
10
-0.8647230897
20
-31.1171912354
30
0.0000000000
11
-1.1187794190
21
-31.1454381454
31
0.0000000000
11
-0.9897890512
21
-31.1431933158
31
0.0000000000
11
-0.8647230897
21
-31.1171912354
31
0.0000000000
0
SPLINE
5
3AA
100
AcDbEntity
8
0
100
AcDbSpline
62
9
6
CONTINUOUS
70
0
71
3
72
8
73
4
74
2
42
0.0000001000
43
0.0000001000
44
0.0000000001
12
0.0595314978
22
0.0185434390
32
0.0000000000
13
0.0572017016
23
0.0243665757
33
0.0000000000
40
0.0000000000
40
0.0000000000
40
0.0000000000
40
0.0000000000
40
1.0000000000
40
1.0000000000
40
1.0000000000
40
1.0000000000
10
-0.8647230897
20
-31.1171912354
30
0.0000000000
10
-0.8448792571
20
-31.1110100891
30
0.0000000000
10
-0.8253646728
20
-31.1038663232
30
0.0000000000
10
-0.8062974390
20
-31.0957441313
30
0.0000000000
11
-0.8647230897
21
-31.1171912354
31
0.0000000000
11
-0.8062974390
21
-31.0957441313
31
0.0000000000
0
SPLINE
5
3AB
100
AcDbEntity
8
0
100
AcDbSpline
62
9
6
CONTINUOUS
70
0
71
3
72
10
73
6
74
4
42
0.0000001000
43
0.0000001000
44
0.0000000001
12
-0.8469117599
22
0.3702715429
32
0.0000000000
13
0.1219938194
23
0.9162303491
33
0.0000000000
40
0.0000000000
40
0.0000000000
40
0.0000000000
40
0.0000000000
40
0.2809972427
40
0.6737255370
40
1.0000000000
40
1.0000000000
40
1.0000000000
40
1.0000000000
10
3.7095200096
20
6.3619958405
30
0.0000000000
10
3.6301933865
20
6.3966776014
30
0.0000000000
10
3.4985050446
20
6.5780475820
30
0.0000000000
10
3.3756608232
20
6.8526107789
30
0.0000000000
10
3.3278343225
20
7.0789579386
30
0.0000000000
10
3.3411021451
20
7.1786054603
30
0.0000000000
11
3.7095200096
21
6.3619958405
31
0.0000000000
11
3.5288550998
21
6.5485970984
31
0.0000000000
11
3.3795801038
21
6.8794893959
31
0.0000000000
11
3.3411021451
21
7.1786054603
31
0.0000000000
0
SPLINE
5
3AC
100
AcDbEntity
8
0
100
AcDbSpline
62
9
6
CONTINUOUS
70
0
71
3
72
13
73
9
74
7
42
0.0000001000
43
0.0000001000
44
0.0000000001
12
0.0686337197
22
1.3551977289
32
0.0000000000
13
1.2408603241
23
0.5491239642
33
0.0000000000
40
0.0000000000
40
0.0000000000
40
0.0000000000
40
0.0000000000
40
0.1389403629
40
0.2946628897
40
0.4642790907
40
0.6426698258
40
0.8235255464
40
1.0000000000
40
1.0000000000
40
1.0000000000
40
1.0000000000
10
-1.4813321982
20
-1.2536169544
30
0.0000000000
10
-1.4781535336
20
-1.1908530663
30
0.0000000000
10
-1.4509720643
20
-1.0585715708
30
0.0000000000
10
-1.3635459100
20
-0.8662720135
30
0.0000000000
10
-1.2326556895
20
-0.6784083162
30
0.0000000000
10
-1.0658059557
20
-0.5056809799
30
0.0000000000
10
-0.8726806643
20
-0.3579346124
30
0.0000000000
10
-0.7302584231
20
-0.2798284879
30
0.0000000000
10
-0.6572650406
20
-0.2475263707
30
0.0000000000
11
-1.4813321982
21
-1.2536169544
31
0.0000000000
11
-1.4462269693
21
-1.0683811347
31
0.0000000000
11
-1.3608300569
21
-0.8751007949
31
0.0000000000
11
-1.2303354805
21
-0.6855119985
31
0.0000000000
11
-1.0625966468
21
-0.5109871175
31
0.0000000000
11
-0.8676157823
21
-0.3619628661
31
0.0000000000
11
-0.6572650406
21
-0.2475263707
31
0.0000000000
0
SPLINE
5
3AD
100
AcDbEntity
8
0
100
AcDbSpline
62
9
6
CONTINUOUS
70
0
71
3
72
13
73
9
74
7
42
0.0000001000
43
0.0000001000
44
0.0000000001
12
0.0344037176
22
0.6773126710
32
0.0000000000
13
0.6220938807
23
0.2700653138
33
0.0000000000
40
0.0000000000
40
0.0000000000
40
0.0000000000
40
0.0000000000
40
0.1385594556
40
0.2942281603
40
0.4638317016
40
0.6423312698
40
0.8234598725
40
1.0000000000
40
1.0000000000
40
1.0000000000
40
1.0000000000
10
-0.8062974390
20
-1.4010834728
30
0.0000000000
10
-0.8047084522
20
-1.3698007811
30
0.0000000000
10
-0.7910844029
20
-1.3037870710
30
0.0000000000
10
-0.7471675404
20
-1.2078762248
30
0.0000000000
10
-0.6813439919
20
-1.1142443250
30
0.0000000000
10
-0.5974087310
20
-1.0283193343
30
0.0000000000
10
-0.5003277495
20
-0.9550364182
30
0.0000000000
10
-0.4288062743
20
-0.9164606692
30
0.0000000000
10
-0.3921980966
20
-0.9005682142
30
0.0000000000
11
-0.8062974390
21
-1.4010834728
31
0.0000000000
11
-0.7887198912
21
-1.3087730459
31
0.0000000000
11
-0.7458065213
21
-1.2123160272
31
0.0000000000
11
-0.6801978062
21
-1.1178399789
31
0.0000000000
11
-0.5958352585
21
-1.0310212730
31
0.0000000000
11
-0.4977631959
21
-0.9570533361
31
0.0000000000
11
-0.3921980966
21
-0.9005682142
31
0.0000000000
0
SPLINE
5
3AE
100
AcDbEntity
8
0
100
AcDbSpline
62
9
6
CONTINUOUS
70
0
71
3
72
11
73
7
74
5
42
0.0000001000
43
0.0000001000
44
0.0000000001
12
0.4601544217
22
-0.5640906010
32
0.0000000000
13
0.6853925921
23
0.2453106042
33
0.0000000000
40
0.0000000000
40
0.0000000000
40
0.0000000000
40
0.0000000000
40
0.2253432611
40
0.4781594805
40
0.7430920958
40
1.0000000000
40
1.0000000000
40
1.0000000000
40
1.0000000000
10
-1.4813127121
20
-1.2536096662
30
0.0000000000
10
-1.4467484795
20
-1.2959810048
30
0.0000000000
10
-1.3527124599
20
-1.3693000311
30
0.0000000000
10
-1.1808842294
20
-1.4308671633
30
0.0000000000
10
-0.9914492189
20
-1.4458350123
30
0.0000000000
10
-0.8649916972
20
-1.4220908837
30
0.0000000000
10
-0.8062974391
20
-1.4010834727
30
0.0000000000
11
-1.4813127121
21
-1.2536096662
31
0.0000000000
11
-1.3544439203
21
-1.3576022536
31
0.0000000000
11
-1.1820432691
21
-1.4220204278
31
0.0000000000
11
-0.9897842057
21
-1.4372712025
31
0.0000000000
11
-0.8062974391
21
-1.4010834727
31
0.0000000000
0
SPLINE
5
3AF
100
AcDbEntity
8
0
100
AcDbSpline
62
9
6
CONTINUOUS
70
0
71
3
72
10
73
6
74
4
42
0.0000001000
43
0.0000001000
44
0.0000000001
12
0.0008555295
22
2.4934890091
32
0.0000000000
13
2.2214567834
23
0.9549683153
33
0.0000000000
40
0.0000000000
40
0.0000000000
40
0.0000000000
40
0.0000000000
40
0.5950158005
40
0.9950287373
40
1.0000000000
40
1.0000000000
40
1.0000000000
40
1.0000000000
10
-10.0096749755
20
-5.1841723999
30
0.0000000000
10
-10.0095052909
20
-4.6896172803
30
0.0000000000
10
-9.9684403467
20
-3.8631025867
30
0.0000000000
10
-9.4425250625
20
-3.0775487739
30
0.0000000000
10
-9.1436726446
20
-2.9463560679
30
0.0000000000
10
-9.1399914961
20
-2.9447736017
30
0.0000000000
11
-10.0096749755
21
-5.1841723999
31
0.0000000000
11
-9.7879496775
21
-3.7171682935
31
0.0000000000
11
-9.1509966538
21
-2.9496050706
31
0.0000000000
11
-9.1399914961
21
-2.9447736017
31
0.0000000000
0
SPLINE
5
3B0
100
AcDbEntity
8
0
100
AcDbSpline
62
9
6
CONTINUOUS
70
0
71
3
72
10
73
6
74
4
42
0.0000001000
43
0.0000001000
44
0.0000000001
12
0.0008555295
22
2.4934890091
32
0.0000000000
13
2.2214567834
23
0.9549683153
33
0.0000000000
40
0.0000000000
40
0.0000000000
40
0.0000000000
40
0.0000000000
40
0.5950158005
40
0.9950287373
40
1.0000000000
40
1.0000000000
40
1.0000000000
40
1.0000000000
10
-21.2596749755
20
8.5942074032
30
0.0000000000
10
-21.2595052909
20
9.0887625228
30
0.0000000000
10
-21.2184403467
20
9.9152772165
30
0.0000000000
10
-20.6925250625
20
10.7008310292
30
0.0000000000
10
-20.3936726446
20
10.8320237353
30
0.0000000000
10
-20.3899914961
20
10.8336062014
30
0.0000000000
11
-21.2596749755
21
8.5942074032
31
0.0000000000
11
-21.0379496775
21
10.0612115097
31
0.0000000000
11
-20.4009966538
21
10.8287747326
31
0.0000000000
11
-20.3899914961
21
10.8336062014
31
0.0000000000
0
ENDSEC
0
SECTION
2
OBJECTS
0
DICTIONARY
5
C
100
AcDbDictionary
280
0
281
1
3
ACAD_GROUP
350
D
3
ACAD_MLINESTYLE
350
17
3
ACAD_LAYOUT
350
1A
3
ACAD_PLOTSETTINGS
350
19
3
ACAD_PLOTSTYLENAME
350
E
0
DICTIONARY
5
D
102
{ACAD_REACTORS
330
C
102
}
100
AcDbDictionary
280
0
281
1
0
ACDBDICTIONARYWDFLT
5
E
102
{ACAD_REACTORS
330
C
102
}
100
AcDbDictionary
281
1
3
Normal
350
F
100
AcDbDictionaryWithDefault
340
F
0
DICTIONARY
5
17
102
{ACAD_REACTORS
330
C
102
}
100
AcDbDictionary
280
0
281
1
3
Standard
350
18
0
DICTIONARY
5
19
102
{ACAD_REACTORS
330
C
102
}
100
AcDbDictionary
281
1
0
DICTIONARY
5
1A
102
{ACAD_REACTORS
330
C
102
}
100
AcDbDictionary
281
1
3
Layout1
350
1E
3
Model
350
22
0
ACDBPLACEHOLDER
5
F
102
{ACAD_REACTORS
330
E
102
}
0
MLINESTYLE
5
18
102
{ACAD_REACTORS
330
17
102
}
100
AcDbMlineStyle
2
STANDARD
70
0
3

62
256
51
90.0
52
90.0
71
2
49
0.5
62
256
6
BYLAYER
49
-0.5
62
256
6
BYLAYER
0
LAYOUT
5
1E
102
{ACAD_REACTORS
330
1A
102
}
100
AcDbPlotSettings
1

2

4

6

40
0.0
41
0.0
42
0.0
43
0.0
44
0.0
45
0.0
46
0.0
47
0.0
48
0.0
49
0.0
140
0.0
141
0.0
142
1.0
143
1.0
70
0
72
0
73
0
74
0
7

75
0
147
1.0
148
0.0
149
0.0
100
AcDbLayout
1
Layout1
70
0
71
0
10
0.0
20
0.0
11
0.0
21
0.0
12
0.0
22
0.0
32
0.0
14
0.0
24
0.0
34
0.0
15
0.0
25
0.0
35
0.0
146
0.0
13
0.0
23
0.0
33
0.0
16
0.0
26
0.0
36
0.0
17
0.0
27
0.0
37
0.0
76
0
330
1B
331
0
345
0
346
0
0
LAYOUT
5
22
102
{ACAD_REACTORS
330
1A
102
}
100
AcDbPlotSettings
1

2

4

6

40
0.0
41
0.0
42
0.0
43
0.0
44
0.0
45
0.0
46
0.0
47
0.0
48
0.0
49
0.0
140
0.0
141
0.0
142
1.0
143
1.0
70
0
72
0
73
0
74
0
7

75
0
147
1.0
148
0.0
149
0.0
100
AcDbLayout
1
Model
70
0
71
0
10
0.0
20
0.0
11
0.0
21
0.0
12
0.0
22
0.0
32
0.0
14
0.0
24
0.0
34
0.0
15
0.0
25
0.0
35
0.0
146
0.0
13
0.0
23
0.0
33
0.0
16
0.0
26
0.0
36
0.0
17
0.0
27
0.0
37
0.0
76
0
330
1F
331
0
345
0
346
0
0
ENDSEC
0
EOF
