  0
SECTION
  2
HEADER
  9
$ACADVER
  1
AC1024
  9
$DWGCODEPAGE
  3
ANSI_1252
  9
$EXTMAX
 10
210.0
 20
297.0
 30
0.0
  9
$EXTMIN
 10
0.0
 20
0.0
 30
0.0
  9
$LIMMIN
 10
0.0
 20
0.0
  9
$LIMMAX
 10
210.0
 20
297.0
  9
$VIEWCTR
 10
105.0
 20
148.5
  9
$VIEWSIZE
 40
297.0
  9
$CLAYER
  8
0
  9
$LTSCALE
 40
19.36
  9
$CELTYPE
  6
BYLAYER
  9
$DIMSCALE
 40
1.0
  9
$DIMASZ
 40
3.0
  9
$DIMEXO
 40
0.5
  9
$DIMDLI
 40
13.376
  9
$DIMEXE
 40
1.5
  9
$DIMCEN
 40
3.168
  9
$DIMLFAC
 40
1.0
  9
$DIMBLK
  1
_FILLED
  9
$DIMALT
 70
0
  9
$DIMALTF
 40
0.0393700787
  9
$DIMTXT
 40
3.0
  9
$DIMTOL
 70
1
  9
$DIMLIM
 70
0
  9
$DIMTFAC
 40
1.0
  9
$DIMTP
 40
0.01
  9
$DIMTM
 40
0.01
  9
$DIMGAP
 40
0.625
  9
$DIMDSEP
 70
44
  9
$AUNITS
 70
0
  9
$PDMODE
 70
3
  9
$PDSIZE
 40
3.0
  9
$HANDSEED
  5
63B
  9
$TILEMODE
 70
1
  9
$MEASUREMENT
 70
1
  9
$INSUNITS
 70
4
  0
ENDSEC
  0
SECTION
  2
CLASSES
  0
CLASS
  1
ACDBDICTIONARYWDFLT
  2
AcDbDictionaryWithDefault
  3
AutoCAD 2000
 90
0
 91
1
280
0
281
0
  0
CLASS
  1
ACDBPLACEHOLDER
  2
AcDbPlaceHolder
  3
AutoCAD 2000
 90
0
 91
1
280
0
281
0
  0
CLASS
  1
LAYOUT
  2
AcDbLayout
  3
AutoCAD 2000
 90
0
 91
0
280
0
281
0
  0
ENDSEC
  0
SECTION
  2
TABLES
  0
TABLE
  2
VPORT
  5
8
100
AcDbSymbolTable
 70
2
  0
VPORT
  5
1F4
100
AcDbSymbolTableRecord
100
AcDbViewportTableRecord
  2
*ACTIVE
 70
0
 10
0.0
 20
0.0
 11
1.0
 21
1.0
 12
105.0
 22
148.5
 13
0.0
 23
0.0
 14
1.0
 24
1.0
 15
0.0
 25
0.0
 16
0.0
 26
0.0
 36
1.0
 17
0.0
 27
0.0
 37
0.0
 40
297.0
 41
0.7070707071
 42
50.0
 43
0.0
 44
0.0
 50
0.0
 51
0.0
 71
0
 72
100
 73
1
 74
1
 75
0
 76
0
 77
0
 78
0
  0
ENDTAB
  0
TABLE
  2
LTYPE
  5
5
100
AcDbSymbolTable
 70
6
  0
LTYPE
  5
14
100
AcDbSymbolTableRecord
100
AcDbLinetypeTableRecord
  2
BYBLOCK
 70
0
  3

 72
65
 73
0
 40
0.0
  0
LTYPE
  5
15
100
AcDbSymbolTableRecord
100
AcDbLinetypeTableRecord
  2
BYLAYER
 70
0
  3

 72
65
 73
0
 40
0.0
  0
LTYPE
  5
16
100
AcDbSymbolTableRecord
100
AcDbLinetypeTableRecord
  2
CONTINUOUS
 70
64
  3
Solid line
 72
65
 73
0
 40
0.0
  0
LTYPE
  5
1F5
100
AcDbSymbolTableRecord
100
AcDbLinetypeTableRecord
  2
CENTER
 70
64
  3
____ _ ____ _ ____ _ ____ _ ____ _ ____ _ ____
 72
65
 73
4
 40
0.6
 49
0.375
 74
0
 49
-0.075
 74
0
 49
0.075
 74
0
 49
-0.075
 74
0
  0
LTYPE
  5
1F6
100
AcDbSymbolTableRecord
100
AcDbLinetypeTableRecord
  2
HIDDEN
 70
64
  3
- - - - - - - - - - - - - - - - - - - -
 72
65
 73
2
 40
0.2
 49
0.1
 74
0
 49
-0.1
 74
0
  0
LTYPE
  5
1F7
100
AcDbSymbolTableRecord
100
AcDbLinetypeTableRecord
  2
PHANTOM
 70
64
  3
_____ _ _ _____ _ _ _____ _ _ _____
 72
65
 73
6
 40
0.8
 49
0.45
 74
0
 49
-0.05
 74
0
 49
0.1
 74
0
 49
-0.05
 74
0
 49
0.1
 74
0
 49
-0.05
 74
0
  0
LTYPE
  5
1F8
100
AcDbSymbolTableRecord
100
AcDbLinetypeTableRecord
  2
DOT
 70
64
  3
. . . . . . . . . . . . . . . . . . . .
 72
65
 73
2
 40
0.2
 49
0.1
 74
0
 49
-0.1
 74
0
  0
LTYPE
  5
1F9
100
AcDbSymbolTableRecord
100
AcDbLinetypeTableRecord
  2
DASHED
 70
64
  3
- - - - - - - - - - - - - - - - - - - -
 72
65
 73
2
 40
0.2
 49
0.1
 74
0
 49
-0.1
 74
0
  0
ENDTAB
  0
TABLE
  2
LAYER
  5
2
100
AcDbSymbolTable
 70
36
  0
LAYER
  5
10
100
AcDbSymbolTableRecord
100
AcDbLayerTableRecord
  2
0
 70
0
 62
7
  6
CONTINUOUS
370
-3
390
F
  0
LAYER
  5
1FA
100
AcDbSymbolTableRecord
100
AcDbLayerTableRecord
  2
DEFAULT_1
 70
0
 62
7
  6
CENTER
370
-3
390
F
  0
LAYER
  5
1FB
100
AcDbSymbolTableRecord
100
AcDbLayerTableRecord
  2
DEFAULT_2
 70
0
 62
7
  6
HIDDEN
370
-3
390
F
  0
LAYER
  5
1FC
100
AcDbSymbolTableRecord
100
AcDbLayerTableRecord
  2
DEFAULT_3
 70
0
 62
7
  6
PHANTOM
370
-3
390
F
  0
LAYER
  5
1FD
100
AcDbSymbolTableRecord
100
AcDbLayerTableRecord
  2
0603_C_REF_90000
 70
0
 62
7
  6
CONTINUOUS
370
-3
390
F
  0
LAYER
  5
1FE
100
AcDbSymbolTableRecord
100
AcDbLayerTableRecord
  2
0603_C_REF_90000_1
 70
0
 62
7
  6
CONTINUOUS
370
-3
390
F
  0
LAYER
  5
1FF
100
AcDbSymbolTableRecord
100
AcDbLayerTableRecord
  2
0603_C_REF_90000_1_1
 70
0
 62
7
  6
CONTINUOUS
370
-3
390
F
  0
LAYER
  5
200
100
AcDbSymbolTableRecord
100
AcDbLayerTableRecord
  2
0603_C_REF_90000_1_2
 70
0
 62
7
  6
CONTINUOUS
370
-3
390
F
  0
LAYER
  5
201
100
AcDbSymbolTableRecord
100
AcDbLayerTableRecord
  2
0603_C_REF_90000_2
 70
0
 62
7
  6
CONTINUOUS
370
-3
390
F
  0
LAYER
  5
202
100
AcDbSymbolTableRecord
100
AcDbLayerTableRecord
  2
0603_C_REF_90000_2_1
 70
0
 62
7
  6
CONTINUOUS
370
-3
390
F
  0
LAYER
  5
203
100
AcDbSymbolTableRecord
100
AcDbLayerTableRecord
  2
0603_C_REF_90000_3
 70
0
 62
7
  6
CONTINUOUS
370
-3
390
F
  0
LAYER
  5
204
100
AcDbSymbolTableRecord
100
AcDbLayerTableRecord
  2
0603_C_REF_90000_3_1
 70
0
 62
7
  6
CONTINUOUS
370
-3
390
F
  0
LAYER
  5
205
100
AcDbSymbolTableRecord
100
AcDbLayerTableRecord
  2
0603_C_REF_90000_4
 70
0
 62
7
  6
CONTINUOUS
370
-3
390
F
  0
LAYER
  5
206
100
AcDbSymbolTableRecord
100
AcDbLayerTableRecord
  2
0603_C_REF_90000_4_1
 70
0
 62
7
  6
CONTINUOUS
370
-3
390
F
  0
LAYER
  5
207
100
AcDbSymbolTableRecord
100
AcDbLayerTableRecord
  2
0603_C_REF_90000_5
 70
0
 62
7
  6
CONTINUOUS
370
-3
390
F
  0
LAYER
  5
208
100
AcDbSymbolTableRecord
100
AcDbLayerTableRecord
  2
0603_C_REF_90000_5_1
 70
0
 62
7
  6
CONTINUOUS
370
-3
390
F
  0
LAYER
  5
209
100
AcDbSymbolTableRecord
100
AcDbLayerTableRecord
  2
0603_R_REF_55000
 70
0
 62
7
  6
CONTINUOUS
370
-3
390
F
  0
LAYER
  5
20A
100
AcDbSymbolTableRecord
100
AcDbLayerTableRecord
  2
0603_R_REF_55000_1
 70
0
 62
7
  6
CONTINUOUS
370
-3
390
F
  0
LAYER
  5
20B
100
AcDbSymbolTableRecord
100
AcDbLayerTableRecord
  2
0603_R_REF_55000_1_1
 70
0
 62
7
  6
CONTINUOUS
370
-3
390
F
  0
LAYER
  5
20C
100
AcDbSymbolTableRecord
100
AcDbLayerTableRecord
  2
0603_R_REF_55000_1_2
 70
0
 62
7
  6
CONTINUOUS
370
-3
390
F
  0
LAYER
  5
20D
100
AcDbSymbolTableRecord
100
AcDbLayerTableRecord
  2
0603_R_REF_55000_2
 70
0
 62
7
  6
CONTINUOUS
370
-3
390
F
  0
LAYER
  5
20E
100
AcDbSymbolTableRecord
100
AcDbLayerTableRecord
  2
0603_R_REF_55000_2_1
 70
0
 62
7
  6
CONTINUOUS
370
-3
390
F
  0
LAYER
  5
20F
100
AcDbSymbolTableRecord
100
AcDbLayerTableRecord
  2
0603_R_REF_55000_3
 70
0
 62
7
  6
CONTINUOUS
370
-3
390
F
  0
LAYER
  5
210
100
AcDbSymbolTableRecord
100
AcDbLayerTableRecord
  2
0603_R_REF_55000_3_1
 70
0
 62
7
  6
CONTINUOUS
370
-3
390
F
  0
LAYER
  5
211
100
AcDbSymbolTableRecord
100
AcDbLayerTableRecord
  2
06___PRT_ALL_SURFS
 70
0
 62
7
  6
CONTINUOUS
370
-3
390
F
  0
LAYER
  5
212
100
AcDbSymbolTableRecord
100
AcDbLayerTableRecord
  2
06___PRT_ALL_SURFS_1
 70
0
 62
7
  6
CONTINUOUS
370
-3
390
F
  0
LAYER
  5
213
100
AcDbSymbolTableRecord
100
AcDbLayerTableRecord
  2
06___PRT_ALL_SURFS_17
 70
0
 62
7
  6
CONTINUOUS
370
-3
390
F
  0
LAYER
  5
214
100
AcDbSymbolTableRecord
100
AcDbLayerTableRecord
  2
06___PRT_ALL_SURFS_19
 70
0
 62
7
  6
CONTINUOUS
370
-3
390
F
  0
LAYER
  5
215
100
AcDbSymbolTableRecord
100
AcDbLayerTableRecord
  2
06___PRT_ALL_SURFS_2
 70
0
 62
7
  6
CONTINUOUS
370
-3
390
F
  0
LAYER
  5
216
100
AcDbSymbolTableRecord
100
AcDbLayerTableRecord
  2
06___PRT_ALL_SURFS_21
 70
0
 62
7
  6
CONTINUOUS
370
-3
390
F
  0
LAYER
  5
217
100
AcDbSymbolTableRecord
100
AcDbLayerTableRecord
  2
06___PRT_ALL_SURFS_22
 70
0
 62
7
  6
CONTINUOUS
370
-3
390
F
  0
LAYER
  5
218
100
AcDbSymbolTableRecord
100
AcDbLayerTableRecord
  2
06___PRT_ALL_SURFS_23
 70
0
 62
7
  6
CONTINUOUS
370
-3
390
F
  0
LAYER
  5
219
100
AcDbSymbolTableRecord
100
AcDbLayerTableRecord
  2
06___PRT_ALL_SURFS_24
 70
0
 62
7
  6
CONTINUOUS
370
-3
390
F
  0
LAYER
  5
21A
100
AcDbSymbolTableRecord
100
AcDbLayerTableRecord
  2
06___PRT_ALL_SURFS_4
 70
0
 62
7
  6
CONTINUOUS
370
-3
390
F
  0
LAYER
  5
21B
100
AcDbSymbolTableRecord
100
AcDbLayerTableRecord
  2
06___PRT_ALL_SURFS_5
 70
0
 62
7
  6
CONTINUOUS
370
-3
390
F
  0
LAYER
  5
21C
100
AcDbSymbolTableRecord
100
AcDbLayerTableRecord
  2
06___PRT_ALL_SURFS_6
 70
0
 62
7
  6
CONTINUOUS
370
-3
390
F
  0
LAYER
  5
21D
100
AcDbSymbolTableRecord
100
AcDbLayerTableRecord
  2
06___PRT_ALL_SURFS_7
 70
0
 62
7
  6
CONTINUOUS
370
-3
390
F
  0
LAYER
  5
21E
100
AcDbSymbolTableRecord
100
AcDbLayerTableRecord
  2
0805_C_REF_145000
 70
0
 62
7
  6
CONTINUOUS
370
-3
390
F
  0
LAYER
  5
21F
100
AcDbSymbolTableRecord
100
AcDbLayerTableRecord
  2
0805_C_REF_145000_1
 70
0
 62
7
  6
CONTINUOUS
370
-3
390
F
  0
LAYER
  5
220
100
AcDbSymbolTableRecord
100
AcDbLayerTableRecord
  2
0805_R_REF_60000
 70
0
 62
7
  6
CONTINUOUS
370
-3
390
F
  0
LAYER
  5
221
100
AcDbSymbolTableRecord
100
AcDbLayerTableRecord
  2
0805_R_REF_60000_1
 70
0
 62
7
  6
CONTINUOUS
370
-3
390
F
  0
LAYER
  5
222
100
AcDbSymbolTableRecord
100
AcDbLayerTableRecord
  2
0805_R_REF_60000_2
 70
0
 62
7
  6
CONTINUOUS
370
-3
390
F
  0
LAYER
  5
223
100
AcDbSymbolTableRecord
100
AcDbLayerTableRecord
  2
1206_C_REF_180000
 70
0
 62
7
  6
CONTINUOUS
370
-3
390
F
  0
LAYER
  5
224
100
AcDbSymbolTableRecord
100
AcDbLayerTableRecord
  2
1206_C_REF_180000_1
 70
0
 62
7
  6
CONTINUOUS
370
-3
390
F
  0
LAYER
  5
225
100
AcDbSymbolTableRecord
100
AcDbLayerTableRecord
  2
1206_C_REF_180000_1_2
 70
0
 62
7
  6
CONTINUOUS
370
-3
390
F
  0
LAYER
  5
226
100
AcDbSymbolTableRecord
100
AcDbLayerTableRecord
  2
1206_C_REF_180000_1_3
 70
0
 62
7
  6
CONTINUOUS
370
-3
390
F
  0
LAYER
  5
227
100
AcDbSymbolTableRecord
100
AcDbLayerTableRecord
  2
1206_C_REF_180000_2_2
 70
0
 62
7
  6
CONTINUOUS
370
-3
390
F
  0
LAYER
  5
228
100
AcDbSymbolTableRecord
100
AcDbLayerTableRecord
  2
1206_C_REF_180000_2_3
 70
0
 62
7
  6
CONTINUOUS
370
-3
390
F
  0
LAYER
  5
229
100
AcDbSymbolTableRecord
100
AcDbLayerTableRecord
  2
1206_R_REF_65000
 70
0
 62
7
  6
CONTINUOUS
370
-3
390
F
  0
LAYER
  5
22A
100
AcDbSymbolTableRecord
100
AcDbLayerTableRecord
  2
1206_R_REF_65000_1
 70
0
 62
7
  6
CONTINUOUS
370
-3
390
F
  0
LAYER
  5
22B
100
AcDbSymbolTableRecord
100
AcDbLayerTableRecord
  2
1206_R_REF_65000_1_1
 70
0
 62
7
  6
CONTINUOUS
370
-3
390
F
  0
LAYER
  5
22C
100
AcDbSymbolTableRecord
100
AcDbLayerTableRecord
  2
1206_R_REF_65000_1_2
 70
0
 62
7
  6
CONTINUOUS
370
-3
390
F
  0
LAYER
  5
22D
100
AcDbSymbolTableRecord
100
AcDbLayerTableRecord
  2
1206_R_REF_65000_2
 70
0
 62
7
  6
CONTINUOUS
370
-3
390
F
  0
LAYER
  5
22E
100
AcDbSymbolTableRecord
100
AcDbLayerTableRecord
  2
1206_R_REF_65000_2_1
 70
0
 62
7
  6
CONTINUOUS
370
-3
390
F
  0
LAYER
  5
22F
100
AcDbSymbolTableRecord
100
AcDbLayerTableRecord
  2
1210_R_H1_REF_100000
 70
0
 62
7
  6
CONTINUOUS
370
-3
390
F
  0
LAYER
  5
230
100
AcDbSymbolTableRecord
100
AcDbLayerTableRecord
  2
1210_R_H1_REF_100000_1
 70
0
 62
7
  6
CONTINUOUS
370
-3
390
F
  0
LAYER
  5
231
100
AcDbSymbolTableRecord
100
AcDbLayerTableRecord
  2
2125-R1-RF-VIMAR_60000
 70
0
 62
7
  6
CONTINUOUS
370
-3
390
F
  0
LAYER
  5
232
100
AcDbSymbolTableRecord
100
AcDbLayerTableRecord
  2
43000943A0
 70
0
 62
7
  6
CONTINUOUS
370
-3
390
F
  0
LAYER
  5
233
100
AcDbSymbolTableRecord
100
AcDbLayerTableRecord
  2
43000943B0
 70
0
 62
7
  6
CONTINUOUS
370
-3
390
F
  0
LAYER
  5
234
100
AcDbSymbolTableRecord
100
AcDbLayerTableRecord
  2
43000943D0
 70
0
 62
7
  6
CONTINUOUS
370
-3
390
F
  0
LAYER
  5
235
100
AcDbSymbolTableRecord
100
AcDbLayerTableRecord
  2
43001021B0
 70
0
 62
7
  6
CONTINUOUS
370
-3
390
F
  0
LAYER
  5
236
100
AcDbSymbolTableRecord
100
AcDbLayerTableRecord
  2
ASSI
 70
0
 62
7
  6
CONTINUOUS
370
-3
390
F
  0
LAYER
  5
237
100
AcDbSymbolTableRecord
100
AcDbLayerTableRecord
  2
CAP-E-5_0-9_0-2_5_950000
 70
0
 62
7
  6
CONTINUOUS
370
-3
390
F
  0
LAYER
  5
238
100
AcDbSymbolTableRecord
100
AcDbLayerTableRecord
  2
CAP-E-6_3-11-2_5_1120000
 70
0
 62
7
  6
CONTINUOUS
370
-3
390
F
  0
LAYER
  5
239
100
AcDbSymbolTableRecord
100
AcDbLayerTableRecord
  2
CAP-E-6_3-11-2_5_1120000_1
 70
0
 62
7
  6
CONTINUOUS
370
-3
390
F
  0
LAYER
  5
23A
100
AcDbSymbolTableRecord
100
AcDbLayerTableRecord
  2
CAP-RND-8_0-12_5-7_0-10_0-0_0_1
 70
0
 62
7
  6
CONTINUOUS
370
-3
390
F
  0
LAYER
  5
23B
100
AcDbSymbolTableRecord
100
AcDbLayerTableRecord
  2
CAP-RND-8_0-12_5-7_0-10_0-0_0_2
 70
0
 62
7
  6
CONTINUOUS
370
-3
390
F
  0
LAYER
  5
23C
100
AcDbSymbolTableRecord
100
AcDbLayerTableRecord
  2
CN_STH_USB_TYPE-C_24P_90_SHORT
 70
0
 62
7
  6
CONTINUOUS
370
-3
390
F
  0
LAYER
  5
23D
100
AcDbSymbolTableRecord
100
AcDbLayerTableRecord
  2
COLOR16
 70
0
 62
7
  6
CONTINUOUS
370
-3
390
F
  0
LAYER
  5
23E
100
AcDbSymbolTableRecord
100
AcDbLayerTableRecord
  2
COLOR17
 70
0
 62
7
  6
CONTINUOUS
370
-3
390
F
  0
LAYER
  5
23F
100
AcDbSymbolTableRecord
100
AcDbLayerTableRecord
  2
COLOR26
 70
0
 62
7
  6
CONTINUOUS
370
-3
390
F
  0
LAYER
  5
240
100
AcDbSymbolTableRecord
100
AcDbLayerTableRecord
  2
COLOR27
 70
0
 62
7
  6
CONTINUOUS
370
-3
390
F
  0
LAYER
  5
241
100
AcDbSymbolTableRecord
100
AcDbLayerTableRecord
  2
COLOR28
 70
0
 62
7
  6
CONTINUOUS
370
-3
390
F
  0
LAYER
  5
242
100
AcDbSymbolTableRecord
100
AcDbLayerTableRecord
  2
COLOR32
 70
0
 62
7
  6
CONTINUOUS
370
-3
390
F
  0
LAYER
  5
243
100
AcDbSymbolTableRecord
100
AcDbLayerTableRecord
  2
COLOR34
 70
0
 62
7
  6
CONTINUOUS
370
-3
390
F
  0
LAYER
  5
244
100
AcDbSymbolTableRecord
100
AcDbLayerTableRecord
  2
COLOR36
 70
0
 62
7
  6
CONTINUOUS
370
-3
390
F
  0
LAYER
  5
245
100
AcDbSymbolTableRecord
100
AcDbLayerTableRecord
  2
COLOR37
 70
0
 62
7
  6
CONTINUOUS
370
-3
390
F
  0
LAYER
  5
246
100
AcDbSymbolTableRecord
100
AcDbLayerTableRecord
  2
COLOR40
 70
0
 62
7
  6
CONTINUOUS
370
-3
390
F
  0
LAYER
  5
247
100
AcDbSymbolTableRecord
100
AcDbLayerTableRecord
  2
COLOR42
 70
0
 62
7
  6
CONTINUOUS
370
-3
390
F
  0
LAYER
  5
248
100
AcDbSymbolTableRecord
100
AcDbLayerTableRecord
  2
COLOR44
 70
0
 62
7
  6
CONTINUOUS
370
-3
390
F
  0
LAYER
  5
249
100
AcDbSymbolTableRecord
100
AcDbLayerTableRecord
  2
COLOR45
 70
0
 62
7
  6
CONTINUOUS
370
-3
390
F
  0
LAYER
  5
24A
100
AcDbSymbolTableRecord
100
AcDbLayerTableRecord
  2
COLOR46
 70
0
 62
7
  6
CONTINUOUS
370
-3
390
F
  0
LAYER
  5
24B
100
AcDbSymbolTableRecord
100
AcDbLayerTableRecord
  2
COLOR47
 70
0
 62
7
  6
CONTINUOUS
370
-3
390
F
  0
LAYER
  5
24C
100
AcDbSymbolTableRecord
100
AcDbLayerTableRecord
  2
COLOR53
 70
0
 62
7
  6
CONTINUOUS
370
-3
390
F
  0
LAYER
  5
24D
100
AcDbSymbolTableRecord
100
AcDbLayerTableRecord
  2
COLOR56
 70
0
 62
7
  6
CONTINUOUS
370
-3
390
F
  0
LAYER
  5
24E
100
AcDbSymbolTableRecord
100
AcDbLayerTableRecord
  2
COLOR57
 70
0
 62
7
  6
CONTINUOUS
370
-3
390
F
  0
LAYER
  5
24F
100
AcDbSymbolTableRecord
100
AcDbLayerTableRecord
  2
COLOR6
 70
0
 62
7
  6
CONTINUOUS
370
-3
390
F
  0
LAYER
  5
250
100
AcDbSymbolTableRecord
100
AcDbLayerTableRecord
  2
COLOR7
 70
0
 62
7
  6
CONTINUOUS
370
-3
390
F
  0
LAYER
  5
251
100
AcDbSymbolTableRecord
100
AcDbLayerTableRecord
  2
COORDINATE
 70
0
 62
7
  6
CONTINUOUS
370
-3
390
F
  0
LAYER
  5
252
100
AcDbSymbolTableRecord
100
AcDbLayerTableRecord
  2
COORD_ORIGINE
 70
0
 62
7
  6
CONTINUOUS
370
-3
390
F
  0
LAYER
  5
253
100
AcDbSymbolTableRecord
100
AcDbLayerTableRecord
  2
COPY_PUBLISH
 70
0
 62
7
  6
CONTINUOUS
370
-3
390
F
  0
LAYER
  5
254
100
AcDbSymbolTableRecord
100
AcDbLayerTableRecord
  2
COSMETICI
 70
0
 62
7
  6
CONTINUOUS
370
-3
390
F
  0
LAYER
  5
255
100
AcDbSymbolTableRecord
100
AcDbLayerTableRecord
  2
CR_MR2P5_MSB_SW_PTH_1000000
 70
0
 62
7
  6
CONTINUOUS
370
-3
390
F
  0
LAYER
  5
256
100
AcDbSymbolTableRecord
100
AcDbLayerTableRecord
  2
CURVE
 70
0
 62
7
  6
CONTINUOUS
370
-3
390
F
  0
LAYER
  5
257
100
AcDbSymbolTableRecord
100
AcDbLayerTableRecord
  2
DRAFT
 70
0
 62
7
  6
CONTINUOUS
370
-3
390
F
  0
LAYER
  5
258
100
AcDbSymbolTableRecord
100
AcDbLayerTableRecord
  2
E2_MARK_10000
 70
0
 62
7
  6
CONTINUOUS
370
-3
390
F
  0
LAYER
  5
259
100
AcDbSymbolTableRecord
100
AcDbLayerTableRecord
  2
E2_MARK_10000_1
 70
0
 62
7
  6
CONTINUOUS
370
-3
390
F
  0
LAYER
  5
25A
100
AcDbSymbolTableRecord
100
AcDbLayerTableRecord
  2
E2_MARK_10000_2
 70
0
 62
7
  6
CONTINUOUS
370
-3
390
F
  0
LAYER
  5
25B
100
AcDbSymbolTableRecord
100
AcDbLayerTableRecord
  2
FIDUCIAL_1_2_MM_RUOTATO_45_1000
 70
0
 62
7
  6
CONTINUOUS
370
-3
390
F
  0
LAYER
  5
25C
100
AcDbSymbolTableRecord
100
AcDbLayerTableRecord
  2
FIDUCIAL_1_2_MM_RUOTATO_45_100_
 70
0
 62
7
  6
CONTINUOUS
370
-3
390
F
  0
LAYER
  5
25D
100
AcDbSymbolTableRecord
100
AcDbLayerTableRecord
  2
FIDUCIAL_1_2_MM_RUOTATO_45_10_1
 70
0
 62
7
  6
CONTINUOUS
370
-3
390
F
  0
LAYER
  5
25E
100
AcDbSymbolTableRecord
100
AcDbLayerTableRecord
  2
FIDUCIAL_1_2_MM_RUOTATO_45_10_2
 70
0
 62
7
  6
CONTINUOUS
370
-3
390
F
  0
LAYER
  5
25F
100
AcDbSymbolTableRecord
100
AcDbLayerTableRecord
  2
FIDUCIAL_1_2_MM_RUOTATO_45_10_3
 70
0
 62
7
  6
CONTINUOUS
370
-3
390
F
  0
LAYER
  5
260
100
AcDbSymbolTableRecord
100
AcDbLayerTableRecord
  2
FIDUCIAL_1_2_MM_RUOTATO_45_10__
 70
0
 62
7
  6
CONTINUOUS
370
-3
390
F
  0
LAYER
  5
261
100
AcDbSymbolTableRecord
100
AcDbLayerTableRecord
  2
GEOMETRIA_SOLIDA
 70
0
 62
7
  6
CONTINUOUS
370
-3
390
F
  0
LAYER
  5
262
100
AcDbSymbolTableRecord
100
AcDbLayerTableRecord
  2
GEOMETRIA_SOLIDA_1
 70
0
 62
7
  6
CONTINUOUS
370
-3
390
F
  0
LAYER
  5
263
100
AcDbSymbolTableRecord
100
AcDbLayerTableRecord
  2
GEOMETRIA_SOLIDA_1_1
 70
0
 62
7
  6
CONTINUOUS
370
-3
390
F
  0
LAYER
  5
264
100
AcDbSymbolTableRecord
100
AcDbLayerTableRecord
  2
GEOMETRIA_SOLIDA_1_2
 70
0
 62
7
  6
CONTINUOUS
370
-3
390
F
  0
LAYER
  5
265
100
AcDbSymbolTableRecord
100
AcDbLayerTableRecord
  2
GEOMETRIA_SOLIDA_2
 70
0
 62
7
  6
CONTINUOUS
370
-3
390
F
  0
LAYER
  5
266
100
AcDbSymbolTableRecord
100
AcDbLayerTableRecord
  2
GEOMETRIA_SOLIDA_3
 70
0
 62
7
  6
CONTINUOUS
370
-3
390
F
  0
LAYER
  5
267
100
AcDbSymbolTableRecord
100
AcDbLayerTableRecord
  2
IMPORT
 70
0
 62
7
  6
CONTINUOUS
370
-3
390
F
  0
LAYER
  5
268
100
AcDbSymbolTableRecord
100
AcDbLayerTableRecord
  2
IMPORT_IGES
 70
0
 62
7
  6
CONTINUOUS
370
-3
390
F
  0
LAYER
  5
269
100
AcDbSymbolTableRecord
100
AcDbLayerTableRecord
  2
IND-RAD-7_8-9_5-5_0-0_7_950000
 70
0
 62
7
  6
CONTINUOUS
370
-3
390
F
  0
LAYER
  5
26A
100
AcDbSymbolTableRecord
100
AcDbLayerTableRecord
  2
INTFCLR_17071
 70
0
 62
7
  6
CONTINUOUS
370
-3
390
F
  0
LAYER
  5
26B
100
AcDbSymbolTableRecord
100
AcDbLayerTableRecord
  2
INTFCLR_22671
 70
0
 62
7
  6
CONTINUOUS
370
-3
390
F
  0
LAYER
  5
26C
100
AcDbSymbolTableRecord
100
AcDbLayerTableRecord
  2
INTFCLR_22853
 70
0
 62
7
  6
CONTINUOUS
370
-3
390
F
  0
LAYER
  5
26D
100
AcDbSymbolTableRecord
100
AcDbLayerTableRecord
  2
INTFCLR_23215
 70
0
 62
7
  6
CONTINUOUS
370
-3
390
F
  0
LAYER
  5
26E
100
AcDbSymbolTableRecord
100
AcDbLayerTableRecord
  2
INTFCLR_23397
 70
0
 62
7
  6
CONTINUOUS
370
-3
390
F
  0
LAYER
  5
26F
100
AcDbSymbolTableRecord
100
AcDbLayerTableRecord
  2
INTFCLR_3
 70
0
 62
7
  6
CONTINUOUS
370
-3
390
F
  0
LAYER
  5
270
100
AcDbSymbolTableRecord
100
AcDbLayerTableRecord
  2
INTFCLR_30785
 70
0
 62
7
  6
CONTINUOUS
370
-3
390
F
  0
LAYER
  5
271
100
AcDbSymbolTableRecord
100
AcDbLayerTableRecord
  2
INTFCLR_31339
 70
0
 62
7
  6
CONTINUOUS
370
-3
390
F
  0
LAYER
  5
272
100
AcDbSymbolTableRecord
100
AcDbLayerTableRecord
  2
INTFCLR_31521
 70
0
 62
7
  6
CONTINUOUS
370
-3
390
F
  0
LAYER
  5
273
100
AcDbSymbolTableRecord
100
AcDbLayerTableRecord
  2
INTFCLR_33
 70
0
 62
7
  6
CONTINUOUS
370
-3
390
F
  0
LAYER
  5
274
100
AcDbSymbolTableRecord
100
AcDbLayerTableRecord
  2
INTFCLR_8687
 70
0
 62
7
  6
CONTINUOUS
370
-3
390
F
  0
LAYER
  5
275
100
AcDbSymbolTableRecord
100
AcDbLayerTableRecord
  2
INTFCLR_8913
 70
0
 62
7
  6
CONTINUOUS
370
-3
390
F
  0
LAYER
  5
276
100
AcDbSymbolTableRecord
100
AcDbLayerTableRecord
  2
INTFCLR_9095
 70
0
 62
7
  6
CONTINUOUS
370
-3
390
F
  0
LAYER
  5
277
100
AcDbSymbolTableRecord
100
AcDbLayerTableRecord
  2
INTF_1
 70
0
 62
7
  6
CONTINUOUS
370
-3
390
F
  0
LAYER
  5
278
100
AcDbSymbolTableRecord
100
AcDbLayerTableRecord
  2
INTF_11
 70
0
 62
7
  6
CONTINUOUS
370
-3
390
F
  0
LAYER
  5
279
100
AcDbSymbolTableRecord
100
AcDbLayerTableRecord
  2
INTF_2
 70
0
 62
7
  6
CONTINUOUS
370
-3
390
F
  0
LAYER
  5
27A
100
AcDbSymbolTableRecord
100
AcDbLayerTableRecord
  2
INTF_8
 70
0
 62
7
  6
CONTINUOUS
370
-3
390
F
  0
LAYER
  5
27B
100
AcDbSymbolTableRecord
100
AcDbLayerTableRecord
  2
INTF_BLANK
 70
0
 62
7
  6
CONTINUOUS
370
-3
390
F
  0
LAYER
  5
27C
100
AcDbSymbolTableRecord
100
AcDbLayerTableRecord
  2
INTF_GREEN
 70
0
 62
7
  6
CONTINUOUS
370
-3
390
F
  0
LAYER
  5
27D
100
AcDbSymbolTableRecord
100
AcDbLayerTableRecord
  2
LIVELLO_1
 70
0
 62
7
  6
CONTINUOUS
370
-3
390
F
  0
LAYER
  5
27E
100
AcDbSymbolTableRecord
100
AcDbLayerTableRecord
  2
LOGO_RESIST-RESTYLING_10000
 70
0
 62
7
  6
CONTINUOUS
370
-3
390
F
  0
LAYER
  5
27F
100
AcDbSymbolTableRecord
100
AcDbLayerTableRecord
  2
MSBR-1
 70
0
 62
7
  6
CONTINUOUS
370
-3
390
F
  0
LAYER
  5
280
100
AcDbSymbolTableRecord
100
AcDbLayerTableRecord
  2
MSBR-10
 70
0
 62
7
  6
CONTINUOUS
370
-3
390
F
  0
LAYER
  5
281
100
AcDbSymbolTableRecord
100
AcDbLayerTableRecord
  2
MSBR-10_1
 70
0
 62
7
  6
CONTINUOUS
370
-3
390
F
  0
LAYER
  5
282
100
AcDbSymbolTableRecord
100
AcDbLayerTableRecord
  2
MSBR-10_1_1
 70
0
 62
7
  6
CONTINUOUS
370
-3
390
F
  0
LAYER
  5
283
100
AcDbSymbolTableRecord
100
AcDbLayerTableRecord
  2
MSBR-11
 70
0
 62
7
  6
CONTINUOUS
370
-3
390
F
  0
LAYER
  5
284
100
AcDbSymbolTableRecord
100
AcDbLayerTableRecord
  2
MSBR-11_1
 70
0
 62
7
  6
CONTINUOUS
370
-3
390
F
  0
LAYER
  5
285
100
AcDbSymbolTableRecord
100
AcDbLayerTableRecord
  2
MSBR-11_1_1
 70
0
 62
7
  6
CONTINUOUS
370
-3
390
F
  0
LAYER
  5
286
100
AcDbSymbolTableRecord
100
AcDbLayerTableRecord
  2
MSBR-12
 70
0
 62
7
  6
CONTINUOUS
370
-3
390
F
  0
LAYER
  5
287
100
AcDbSymbolTableRecord
100
AcDbLayerTableRecord
  2
MSBR-12_1_1
 70
0
 62
7
  6
CONTINUOUS
370
-3
390
F
  0
LAYER
  5
288
100
AcDbSymbolTableRecord
100
AcDbLayerTableRecord
  2
MSBR-13
 70
0
 62
7
  6
CONTINUOUS
370
-3
390
F
  0
LAYER
  5
289
100
AcDbSymbolTableRecord
100
AcDbLayerTableRecord
  2
MSBR-13_1
 70
0
 62
7
  6
CONTINUOUS
370
-3
390
F
  0
LAYER
  5
28A
100
AcDbSymbolTableRecord
100
AcDbLayerTableRecord
  2
MSBR-13_1_1
 70
0
 62
7
  6
CONTINUOUS
370
-3
390
F
  0
LAYER
  5
28B
100
AcDbSymbolTableRecord
100
AcDbLayerTableRecord
  2
MSBR-14
 70
0
 62
7
  6
CONTINUOUS
370
-3
390
F
  0
LAYER
  5
28C
100
AcDbSymbolTableRecord
100
AcDbLayerTableRecord
  2
MSBR-14_1
 70
0
 62
7
  6
CONTINUOUS
370
-3
390
F
  0
LAYER
  5
28D
100
AcDbSymbolTableRecord
100
AcDbLayerTableRecord
  2
MSBR-14_1_1
 70
0
 62
7
  6
CONTINUOUS
370
-3
390
F
  0
LAYER
  5
28E
100
AcDbSymbolTableRecord
100
AcDbLayerTableRecord
  2
MSBR-15
 70
0
 62
7
  6
CONTINUOUS
370
-3
390
F
  0
LAYER
  5
28F
100
AcDbSymbolTableRecord
100
AcDbLayerTableRecord
  2
MSBR-15_1_1
 70
0
 62
7
  6
CONTINUOUS
370
-3
390
F
  0
LAYER
  5
290
100
AcDbSymbolTableRecord
100
AcDbLayerTableRecord
  2
MSBR-16
 70
0
 62
7
  6
CONTINUOUS
370
-3
390
F
  0
LAYER
  5
291
100
AcDbSymbolTableRecord
100
AcDbLayerTableRecord
  2
MSBR-16_1_1
 70
0
 62
7
  6
CONTINUOUS
370
-3
390
F
  0
LAYER
  5
292
100
AcDbSymbolTableRecord
100
AcDbLayerTableRecord
  2
MSBR-17
 70
0
 62
7
  6
CONTINUOUS
370
-3
390
F
  0
LAYER
  5
293
100
AcDbSymbolTableRecord
100
AcDbLayerTableRecord
  2
MSBR-17_1_1
 70
0
 62
7
  6
CONTINUOUS
370
-3
390
F
  0
LAYER
  5
294
100
AcDbSymbolTableRecord
100
AcDbLayerTableRecord
  2
MSBR-18
 70
0
 62
7
  6
CONTINUOUS
370
-3
390
F
  0
LAYER
  5
295
100
AcDbSymbolTableRecord
100
AcDbLayerTableRecord
  2
MSBR-18_1
 70
0
 62
7
  6
CONTINUOUS
370
-3
390
F
  0
LAYER
  5
296
100
AcDbSymbolTableRecord
100
AcDbLayerTableRecord
  2
MSBR-18_1_1
 70
0
 62
7
  6
CONTINUOUS
370
-3
390
F
  0
LAYER
  5
297
100
AcDbSymbolTableRecord
100
AcDbLayerTableRecord
  2
MSBR-19
 70
0
 62
7
  6
CONTINUOUS
370
-3
390
F
  0
LAYER
  5
298
100
AcDbSymbolTableRecord
100
AcDbLayerTableRecord
  2
MSBR-19_1
 70
0
 62
7
  6
CONTINUOUS
370
-3
390
F
  0
LAYER
  5
299
100
AcDbSymbolTableRecord
100
AcDbLayerTableRecord
  2
MSBR-19_1_1
 70
0
 62
7
  6
CONTINUOUS
370
-3
390
F
  0
LAYER
  5
29A
100
AcDbSymbolTableRecord
100
AcDbLayerTableRecord
  2
MSBR-1_1
 70
0
 62
7
  6
CONTINUOUS
370
-3
390
F
  0
LAYER
  5
29B
100
AcDbSymbolTableRecord
100
AcDbLayerTableRecord
  2
MSBR-1_1_1
 70
0
 62
7
  6
CONTINUOUS
370
-3
390
F
  0
LAYER
  5
29C
100
AcDbSymbolTableRecord
100
AcDbLayerTableRecord
  2
MSBR-2
 70
0
 62
7
  6
CONTINUOUS
370
-3
390
F
  0
LAYER
  5
29D
100
AcDbSymbolTableRecord
100
AcDbLayerTableRecord
  2
MSBR-20
 70
0
 62
7
  6
CONTINUOUS
370
-3
390
F
  0
LAYER
  5
29E
100
AcDbSymbolTableRecord
100
AcDbLayerTableRecord
  2
MSBR-20_1
 70
0
 62
7
  6
CONTINUOUS
370
-3
390
F
  0
LAYER
  5
29F
100
AcDbSymbolTableRecord
100
AcDbLayerTableRecord
  2
MSBR-20_1_1
 70
0
 62
7
  6
CONTINUOUS
370
-3
390
F
  0
LAYER
  5
2A0
100
AcDbSymbolTableRecord
100
AcDbLayerTableRecord
  2
MSBR-21
 70
0
 62
7
  6
CONTINUOUS
370
-3
390
F
  0
LAYER
  5
2A1
100
AcDbSymbolTableRecord
100
AcDbLayerTableRecord
  2
MSBR-21_1
 70
0
 62
7
  6
CONTINUOUS
370
-3
390
F
  0
LAYER
  5
2A2
100
AcDbSymbolTableRecord
100
AcDbLayerTableRecord
  2
MSBR-21_1_1
 70
0
 62
7
  6
CONTINUOUS
370
-3
390
F
  0
LAYER
  5
2A3
100
AcDbSymbolTableRecord
100
AcDbLayerTableRecord
  2
MSBR-22
 70
0
 62
7
  6
CONTINUOUS
370
-3
390
F
  0
LAYER
  5
2A4
100
AcDbSymbolTableRecord
100
AcDbLayerTableRecord
  2
MSBR-22_1_1
 70
0
 62
7
  6
CONTINUOUS
370
-3
390
F
  0
LAYER
  5
2A5
100
AcDbSymbolTableRecord
100
AcDbLayerTableRecord
  2
MSBR-23
 70
0
 62
7
  6
CONTINUOUS
370
-3
390
F
  0
LAYER
  5
2A6
100
AcDbSymbolTableRecord
100
AcDbLayerTableRecord
  2
MSBR-23_1
 70
0
 62
7
  6
CONTINUOUS
370
-3
390
F
  0
LAYER
  5
2A7
100
AcDbSymbolTableRecord
100
AcDbLayerTableRecord
  2
MSBR-23_1_1
 70
0
 62
7
  6
CONTINUOUS
370
-3
390
F
  0
LAYER
  5
2A8
100
AcDbSymbolTableRecord
100
AcDbLayerTableRecord
  2
MSBR-24
 70
0
 62
7
  6
CONTINUOUS
370
-3
390
F
  0
LAYER
  5
2A9
100
AcDbSymbolTableRecord
100
AcDbLayerTableRecord
  2
MSBR-24_1_1
 70
0
 62
7
  6
CONTINUOUS
370
-3
390
F
  0
LAYER
  5
2AA
100
AcDbSymbolTableRecord
100
AcDbLayerTableRecord
  2
MSBR-25
 70
0
 62
7
  6
CONTINUOUS
370
-3
390
F
  0
LAYER
  5
2AB
100
AcDbSymbolTableRecord
100
AcDbLayerTableRecord
  2
MSBR-25_1
 70
0
 62
7
  6
CONTINUOUS
370
-3
390
F
  0
LAYER
  5
2AC
100
AcDbSymbolTableRecord
100
AcDbLayerTableRecord
  2
MSBR-25_1_1
 70
0
 62
7
  6
CONTINUOUS
370
-3
390
F
  0
LAYER
  5
2AD
100
AcDbSymbolTableRecord
100
AcDbLayerTableRecord
  2
MSBR-26
 70
0
 62
7
  6
CONTINUOUS
370
-3
390
F
  0
LAYER
  5
2AE
100
AcDbSymbolTableRecord
100
AcDbLayerTableRecord
  2
MSBR-26_1
 70
0
 62
7
  6
CONTINUOUS
370
-3
390
F
  0
LAYER
  5
2AF
100
AcDbSymbolTableRecord
100
AcDbLayerTableRecord
  2
MSBR-26_1_1
 70
0
 62
7
  6
CONTINUOUS
370
-3
390
F
  0
LAYER
  5
2B0
100
AcDbSymbolTableRecord
100
AcDbLayerTableRecord
  2
MSBR-27
 70
0
 62
7
  6
CONTINUOUS
370
-3
390
F
  0
LAYER
  5
2B1
100
AcDbSymbolTableRecord
100
AcDbLayerTableRecord
  2
MSBR-27_1
 70
0
 62
7
  6
CONTINUOUS
370
-3
390
F
  0
LAYER
  5
2B2
100
AcDbSymbolTableRecord
100
AcDbLayerTableRecord
  2
MSBR-27_1_1
 70
0
 62
7
  6
CONTINUOUS
370
-3
390
F
  0
LAYER
  5
2B3
100
AcDbSymbolTableRecord
100
AcDbLayerTableRecord
  2
MSBR-28
 70
0
 62
7
  6
CONTINUOUS
370
-3
390
F
  0
LAYER
  5
2B4
100
AcDbSymbolTableRecord
100
AcDbLayerTableRecord
  2
MSBR-28_1
 70
0
 62
7
  6
CONTINUOUS
370
-3
390
F
  0
LAYER
  5
2B5
100
AcDbSymbolTableRecord
100
AcDbLayerTableRecord
  2
MSBR-28_1_1
 70
0
 62
7
  6
CONTINUOUS
370
-3
390
F
  0
LAYER
  5
2B6
100
AcDbSymbolTableRecord
100
AcDbLayerTableRecord
  2
MSBR-29
 70
0
 62
7
  6
CONTINUOUS
370
-3
390
F
  0
LAYER
  5
2B7
100
AcDbSymbolTableRecord
100
AcDbLayerTableRecord
  2
MSBR-29_1
 70
0
 62
7
  6
CONTINUOUS
370
-3
390
F
  0
LAYER
  5
2B8
100
AcDbSymbolTableRecord
100
AcDbLayerTableRecord
  2
MSBR-29_1_1
 70
0
 62
7
  6
CONTINUOUS
370
-3
390
F
  0
LAYER
  5
2B9
100
AcDbSymbolTableRecord
100
AcDbLayerTableRecord
  2
MSBR-2_1
 70
0
 62
7
  6
CONTINUOUS
370
-3
390
F
  0
LAYER
  5
2BA
100
AcDbSymbolTableRecord
100
AcDbLayerTableRecord
  2
MSBR-2_1_1
 70
0
 62
7
  6
CONTINUOUS
370
-3
390
F
  0
LAYER
  5
2BB
100
AcDbSymbolTableRecord
100
AcDbLayerTableRecord
  2
MSBR-3
 70
0
 62
7
  6
CONTINUOUS
370
-3
390
F
  0
LAYER
  5
2BC
100
AcDbSymbolTableRecord
100
AcDbLayerTableRecord
  2
MSBR-30
 70
0
 62
7
  6
CONTINUOUS
370
-3
390
F
  0
LAYER
  5
2BD
100
AcDbSymbolTableRecord
100
AcDbLayerTableRecord
  2
MSBR-30_1
 70
0
 62
7
  6
CONTINUOUS
370
-3
390
F
  0
LAYER
  5
2BE
100
AcDbSymbolTableRecord
100
AcDbLayerTableRecord
  2
MSBR-30_1_1
 70
0
 62
7
  6
CONTINUOUS
370
-3
390
F
  0
LAYER
  5
2BF
100
AcDbSymbolTableRecord
100
AcDbLayerTableRecord
  2
MSBR-31
 70
0
 62
7
  6
CONTINUOUS
370
-3
390
F
  0
LAYER
  5
2C0
100
AcDbSymbolTableRecord
100
AcDbLayerTableRecord
  2
MSBR-31_1_1
 70
0
 62
7
  6
CONTINUOUS
370
-3
390
F
  0
LAYER
  5
2C1
100
AcDbSymbolTableRecord
100
AcDbLayerTableRecord
  2
MSBR-32
 70
0
 62
7
  6
CONTINUOUS
370
-3
390
F
  0
LAYER
  5
2C2
100
AcDbSymbolTableRecord
100
AcDbLayerTableRecord
  2
MSBR-32_1_1
 70
0
 62
7
  6
CONTINUOUS
370
-3
390
F
  0
LAYER
  5
2C3
100
AcDbSymbolTableRecord
100
AcDbLayerTableRecord
  2
MSBR-33
 70
0
 62
7
  6
CONTINUOUS
370
-3
390
F
  0
LAYER
  5
2C4
100
AcDbSymbolTableRecord
100
AcDbLayerTableRecord
  2
MSBR-33_1
 70
0
 62
7
  6
CONTINUOUS
370
-3
390
F
  0
LAYER
  5
2C5
100
AcDbSymbolTableRecord
100
AcDbLayerTableRecord
  2
MSBR-33_1_1
 70
0
 62
7
  6
CONTINUOUS
370
-3
390
F
  0
LAYER
  5
2C6
100
AcDbSymbolTableRecord
100
AcDbLayerTableRecord
  2
MSBR-34
 70
0
 62
7
  6
CONTINUOUS
370
-3
390
F
  0
LAYER
  5
2C7
100
AcDbSymbolTableRecord
100
AcDbLayerTableRecord
  2
MSBR-34_1
 70
0
 62
7
  6
CONTINUOUS
370
-3
390
F
  0
LAYER
  5
2C8
100
AcDbSymbolTableRecord
100
AcDbLayerTableRecord
  2
MSBR-34_1_1
 70
0
 62
7
  6
CONTINUOUS
370
-3
390
F
  0
LAYER
  5
2C9
100
AcDbSymbolTableRecord
100
AcDbLayerTableRecord
  2
MSBR-35
 70
0
 62
7
  6
CONTINUOUS
370
-3
390
F
  0
LAYER
  5
2CA
100
AcDbSymbolTableRecord
100
AcDbLayerTableRecord
  2
MSBR-35_1_1
 70
0
 62
7
  6
CONTINUOUS
370
-3
390
F
  0
LAYER
  5
2CB
100
AcDbSymbolTableRecord
100
AcDbLayerTableRecord
  2
MSBR-36
 70
0
 62
7
  6
CONTINUOUS
370
-3
390
F
  0
LAYER
  5
2CC
100
AcDbSymbolTableRecord
100
AcDbLayerTableRecord
  2
MSBR-36_1
 70
0
 62
7
  6
CONTINUOUS
370
-3
390
F
  0
LAYER
  5
2CD
100
AcDbSymbolTableRecord
100
AcDbLayerTableRecord
  2
MSBR-36_1_1
 70
0
 62
7
  6
CONTINUOUS
370
-3
390
F
  0
LAYER
  5
2CE
100
AcDbSymbolTableRecord
100
AcDbLayerTableRecord
  2
MSBR-37
 70
0
 62
7
  6
CONTINUOUS
370
-3
390
F
  0
LAYER
  5
2CF
100
AcDbSymbolTableRecord
100
AcDbLayerTableRecord
  2
MSBR-37_1_1
 70
0
 62
7
  6
CONTINUOUS
370
-3
390
F
  0
LAYER
  5
2D0
100
AcDbSymbolTableRecord
100
AcDbLayerTableRecord
  2
MSBR-38
 70
0
 62
7
  6
CONTINUOUS
370
-3
390
F
  0
LAYER
  5
2D1
100
AcDbSymbolTableRecord
100
AcDbLayerTableRecord
  2
MSBR-38_1
 70
0
 62
7
  6
CONTINUOUS
370
-3
390
F
  0
LAYER
  5
2D2
100
AcDbSymbolTableRecord
100
AcDbLayerTableRecord
  2
MSBR-38_1_1
 70
0
 62
7
  6
CONTINUOUS
370
-3
390
F
  0
LAYER
  5
2D3
100
AcDbSymbolTableRecord
100
AcDbLayerTableRecord
  2
MSBR-39
 70
0
 62
7
  6
CONTINUOUS
370
-3
390
F
  0
LAYER
  5
2D4
100
AcDbSymbolTableRecord
100
AcDbLayerTableRecord
  2
MSBR-39_1
 70
0
 62
7
  6
CONTINUOUS
370
-3
390
F
  0
LAYER
  5
2D5
100
AcDbSymbolTableRecord
100
AcDbLayerTableRecord
  2
MSBR-39_1_1
 70
0
 62
7
  6
CONTINUOUS
370
-3
390
F
  0
LAYER
  5
2D6
100
AcDbSymbolTableRecord
100
AcDbLayerTableRecord
  2
MSBR-3_1
 70
0
 62
7
  6
CONTINUOUS
370
-3
390
F
  0
LAYER
  5
2D7
100
AcDbSymbolTableRecord
100
AcDbLayerTableRecord
  2
MSBR-3_1_1
 70
0
 62
7
  6
CONTINUOUS
370
-3
390
F
  0
LAYER
  5
2D8
100
AcDbSymbolTableRecord
100
AcDbLayerTableRecord
  2
MSBR-4
 70
0
 62
7
  6
CONTINUOUS
370
-3
390
F
  0
LAYER
  5
2D9
100
AcDbSymbolTableRecord
100
AcDbLayerTableRecord
  2
MSBR-40
 70
0
 62
7
  6
CONTINUOUS
370
-3
390
F
  0
LAYER
  5
2DA
100
AcDbSymbolTableRecord
100
AcDbLayerTableRecord
  2
MSBR-40_1
 70
0
 62
7
  6
CONTINUOUS
370
-3
390
F
  0
LAYER
  5
2DB
100
AcDbSymbolTableRecord
100
AcDbLayerTableRecord
  2
MSBR-40_1_1
 70
0
 62
7
  6
CONTINUOUS
370
-3
390
F
  0
LAYER
  5
2DC
100
AcDbSymbolTableRecord
100
AcDbLayerTableRecord
  2
MSBR-41
 70
0
 62
7
  6
CONTINUOUS
370
-3
390
F
  0
LAYER
  5
2DD
100
AcDbSymbolTableRecord
100
AcDbLayerTableRecord
  2
MSBR-41_1
 70
0
 62
7
  6
CONTINUOUS
370
-3
390
F
  0
LAYER
  5
2DE
100
AcDbSymbolTableRecord
100
AcDbLayerTableRecord
  2
MSBR-41_1_1
 70
0
 62
7
  6
CONTINUOUS
370
-3
390
F
  0
LAYER
  5
2DF
100
AcDbSymbolTableRecord
100
AcDbLayerTableRecord
  2
MSBR-42
 70
0
 62
7
  6
CONTINUOUS
370
-3
390
F
  0
LAYER
  5
2E0
100
AcDbSymbolTableRecord
100
AcDbLayerTableRecord
  2
MSBR-42_1_1
 70
0
 62
7
  6
CONTINUOUS
370
-3
390
F
  0
LAYER
  5
2E1
100
AcDbSymbolTableRecord
100
AcDbLayerTableRecord
  2
MSBR-43
 70
0
 62
7
  6
CONTINUOUS
370
-3
390
F
  0
LAYER
  5
2E2
100
AcDbSymbolTableRecord
100
AcDbLayerTableRecord
  2
MSBR-43_1
 70
0
 62
7
  6
CONTINUOUS
370
-3
390
F
  0
LAYER
  5
2E3
100
AcDbSymbolTableRecord
100
AcDbLayerTableRecord
  2
MSBR-43_1_1
 70
0
 62
7
  6
CONTINUOUS
370
-3
390
F
  0
LAYER
  5
2E4
100
AcDbSymbolTableRecord
100
AcDbLayerTableRecord
  2
MSBR-44
 70
0
 62
7
  6
CONTINUOUS
370
-3
390
F
  0
LAYER
  5
2E5
100
AcDbSymbolTableRecord
100
AcDbLayerTableRecord
  2
MSBR-44_1
 70
0
 62
7
  6
CONTINUOUS
370
-3
390
F
  0
LAYER
  5
2E6
100
AcDbSymbolTableRecord
100
AcDbLayerTableRecord
  2
MSBR-44_1_1
 70
0
 62
7
  6
CONTINUOUS
370
-3
390
F
  0
LAYER
  5
2E7
100
AcDbSymbolTableRecord
100
AcDbLayerTableRecord
  2
MSBR-45
 70
0
 62
7
  6
CONTINUOUS
370
-3
390
F
  0
LAYER
  5
2E8
100
AcDbSymbolTableRecord
100
AcDbLayerTableRecord
  2
MSBR-45_1
 70
0
 62
7
  6
CONTINUOUS
370
-3
390
F
  0
LAYER
  5
2E9
100
AcDbSymbolTableRecord
100
AcDbLayerTableRecord
  2
MSBR-45_1_1
 70
0
 62
7
  6
CONTINUOUS
370
-3
390
F
  0
LAYER
  5
2EA
100
AcDbSymbolTableRecord
100
AcDbLayerTableRecord
  2
MSBR-46
 70
0
 62
7
  6
CONTINUOUS
370
-3
390
F
  0
LAYER
  5
2EB
100
AcDbSymbolTableRecord
100
AcDbLayerTableRecord
  2
MSBR-46_1_1
 70
0
 62
7
  6
CONTINUOUS
370
-3
390
F
  0
LAYER
  5
2EC
100
AcDbSymbolTableRecord
100
AcDbLayerTableRecord
  2
MSBR-47
 70
0
 62
7
  6
CONTINUOUS
370
-3
390
F
  0
LAYER
  5
2ED
100
AcDbSymbolTableRecord
100
AcDbLayerTableRecord
  2
MSBR-47_1
 70
0
 62
7
  6
CONTINUOUS
370
-3
390
F
  0
LAYER
  5
2EE
100
AcDbSymbolTableRecord
100
AcDbLayerTableRecord
  2
MSBR-47_1_1
 70
0
 62
7
  6
CONTINUOUS
370
-3
390
F
  0
LAYER
  5
2EF
100
AcDbSymbolTableRecord
100
AcDbLayerTableRecord
  2
MSBR-48
 70
0
 62
7
  6
CONTINUOUS
370
-3
390
F
  0
LAYER
  5
2F0
100
AcDbSymbolTableRecord
100
AcDbLayerTableRecord
  2
MSBR-48_1_1
 70
0
 62
7
  6
CONTINUOUS
370
-3
390
F
  0
LAYER
  5
2F1
100
AcDbSymbolTableRecord
100
AcDbLayerTableRecord
  2
MSBR-49
 70
0
 62
7
  6
CONTINUOUS
370
-3
390
F
  0
LAYER
  5
2F2
100
AcDbSymbolTableRecord
100
AcDbLayerTableRecord
  2
MSBR-49_1_1
 70
0
 62
7
  6
CONTINUOUS
370
-3
390
F
  0
LAYER
  5
2F3
100
AcDbSymbolTableRecord
100
AcDbLayerTableRecord
  2
MSBR-4_1
 70
0
 62
7
  6
CONTINUOUS
370
-3
390
F
  0
LAYER
  5
2F4
100
AcDbSymbolTableRecord
100
AcDbLayerTableRecord
  2
MSBR-4_1_1
 70
0
 62
7
  6
CONTINUOUS
370
-3
390
F
  0
LAYER
  5
2F5
100
AcDbSymbolTableRecord
100
AcDbLayerTableRecord
  2
MSBR-5
 70
0
 62
7
  6
CONTINUOUS
370
-3
390
F
  0
LAYER
  5
2F6
100
AcDbSymbolTableRecord
100
AcDbLayerTableRecord
  2
MSBR-50
 70
0
 62
7
  6
CONTINUOUS
370
-3
390
F
  0
LAYER
  5
2F7
100
AcDbSymbolTableRecord
100
AcDbLayerTableRecord
  2
MSBR-50_1
 70
0
 62
7
  6
CONTINUOUS
370
-3
390
F
  0
LAYER
  5
2F8
100
AcDbSymbolTableRecord
100
AcDbLayerTableRecord
  2
MSBR-50_1_1
 70
0
 62
7
  6
CONTINUOUS
370
-3
390
F
  0
LAYER
  5
2F9
100
AcDbSymbolTableRecord
100
AcDbLayerTableRecord
  2
MSBR-51
 70
0
 62
7
  6
CONTINUOUS
370
-3
390
F
  0
LAYER
  5
2FA
100
AcDbSymbolTableRecord
100
AcDbLayerTableRecord
  2
MSBR-51_1
 70
0
 62
7
  6
CONTINUOUS
370
-3
390
F
  0
LAYER
  5
2FB
100
AcDbSymbolTableRecord
100
AcDbLayerTableRecord
  2
MSBR-51_1_1
 70
0
 62
7
  6
CONTINUOUS
370
-3
390
F
  0
LAYER
  5
2FC
100
AcDbSymbolTableRecord
100
AcDbLayerTableRecord
  2
MSBR-52
 70
0
 62
7
  6
CONTINUOUS
370
-3
390
F
  0
LAYER
  5
2FD
100
AcDbSymbolTableRecord
100
AcDbLayerTableRecord
  2
MSBR-52_1
 70
0
 62
7
  6
CONTINUOUS
370
-3
390
F
  0
LAYER
  5
2FE
100
AcDbSymbolTableRecord
100
AcDbLayerTableRecord
  2
MSBR-52_1_1
 70
0
 62
7
  6
CONTINUOUS
370
-3
390
F
  0
LAYER
  5
2FF
100
AcDbSymbolTableRecord
100
AcDbLayerTableRecord
  2
MSBR-5_1
 70
0
 62
7
  6
CONTINUOUS
370
-3
390
F
  0
LAYER
  5
300
100
AcDbSymbolTableRecord
100
AcDbLayerTableRecord
  2
MSBR-5_1_1
 70
0
 62
7
  6
CONTINUOUS
370
-3
390
F
  0
LAYER
  5
301
100
AcDbSymbolTableRecord
100
AcDbLayerTableRecord
  2
MSBR-6
 70
0
 62
7
  6
CONTINUOUS
370
-3
390
F
  0
LAYER
  5
302
100
AcDbSymbolTableRecord
100
AcDbLayerTableRecord
  2
MSBR-6_1_1
 70
0
 62
7
  6
CONTINUOUS
370
-3
390
F
  0
LAYER
  5
303
100
AcDbSymbolTableRecord
100
AcDbLayerTableRecord
  2
MSBR-7
 70
0
 62
7
  6
CONTINUOUS
370
-3
390
F
  0
LAYER
  5
304
100
AcDbSymbolTableRecord
100
AcDbLayerTableRecord
  2
MSBR-7_1_1
 70
0
 62
7
  6
CONTINUOUS
370
-3
390
F
  0
LAYER
  5
305
100
AcDbSymbolTableRecord
100
AcDbLayerTableRecord
  2
MSBR-8
 70
0
 62
7
  6
CONTINUOUS
370
-3
390
F
  0
LAYER
  5
306
100
AcDbSymbolTableRecord
100
AcDbLayerTableRecord
  2
MSBR-8_1
 70
0
 62
7
  6
CONTINUOUS
370
-3
390
F
  0
LAYER
  5
307
100
AcDbSymbolTableRecord
100
AcDbLayerTableRecord
  2
MSBR-8_1_1
 70
0
 62
7
  6
CONTINUOUS
370
-3
390
F
  0
LAYER
  5
308
100
AcDbSymbolTableRecord
100
AcDbLayerTableRecord
  2
MSBR-9
 70
0
 62
7
  6
CONTINUOUS
370
-3
390
F
  0
LAYER
  5
309
100
AcDbSymbolTableRecord
100
AcDbLayerTableRecord
  2
MSBR-9_1_1
 70
0
 62
7
  6
CONTINUOUS
370
-3
390
F
  0
LAYER
  5
30A
100
AcDbSymbolTableRecord
100
AcDbLayerTableRecord
  2
NO-PB_MARK_10000
 70
0
 62
7
  6
CONTINUOUS
370
-3
390
F
  0
LAYER
  5
30B
100
AcDbSymbolTableRecord
100
AcDbLayerTableRecord
  2
NONE
 70
0
 62
7
  6
CONTINUOUS
370
-3
390
F
  0
LAYER
  5
30C
100
AcDbSymbolTableRecord
100
AcDbLayerTableRecord
  2
NOTE
 70
0
 62
7
  6
CONTINUOUS
370
-3
390
F
  0
LAYER
  5
30D
100
AcDbSymbolTableRecord
100
AcDbLayerTableRecord
  2
PIANI
 70
0
 62
7
  6
CONTINUOUS
370
-3
390
F
  0
LAYER
  5
30E
100
AcDbSymbolTableRecord
100
AcDbLayerTableRecord
  2
PIANI_ORIGINE
 70
0
 62
7
  6
CONTINUOUS
370
-3
390
F
  0
LAYER
  5
30F
100
AcDbSymbolTableRecord
100
AcDbLayerTableRecord
  2
PRT0003
 70
0
 62
7
  6
CONTINUOUS
370
-3
390
F
  0
LAYER
  5
310
100
AcDbSymbolTableRecord
100
AcDbLayerTableRecord
  2
PTC_EPCOS_B57153S0100M051_13000
 70
0
 62
7
  6
CONTINUOUS
370
-3
390
F
  0
LAYER
  5
311
100
AcDbSymbolTableRecord
100
AcDbLayerTableRecord
  2
PUNTI
 70
0
 62
7
  6
CONTINUOUS
370
-3
390
F
  0
LAYER
  5
312
100
AcDbSymbolTableRecord
100
AcDbLayerTableRecord
  2
RACCORDO
 70
0
 62
7
  6
CONTINUOUS
370
-3
390
F
  0
LAYER
  5
313
100
AcDbSymbolTableRecord
100
AcDbLayerTableRecord
  2
RGB__255__255__255__
 70
0
 62
7
  6
CONTINUOUS
370
-3
390
F
  0
LAYER
  5
314
100
AcDbSymbolTableRecord
100
AcDbLayerTableRecord
  2
SIMBOLI
 70
0
 62
7
  6
CONTINUOUS
370
-3
390
F
  0
LAYER
  5
315
100
AcDbSymbolTableRecord
100
AcDbLayerTableRecord
  2
SMUSSO
 70
0
 62
7
  6
CONTINUOUS
370
-3
390
F
  0
LAYER
  5
316
100
AcDbSymbolTableRecord
100
AcDbLayerTableRecord
  2
SNAPLINE
 70
0
 62
7
  6
CONTINUOUS
370
-3
390
F
  0
LAYER
  5
317
100
AcDbSymbolTableRecord
100
AcDbLayerTableRecord
  2
SUB_SMA_143000
 70
0
 62
7
  6
CONTINUOUS
370
-3
390
F
  0
LAYER
  5
318
100
AcDbSymbolTableRecord
100
AcDbLayerTableRecord
  2
SUB_SMA_143000_1
 70
0
 62
7
  6
CONTINUOUS
370
-3
390
F
  0
LAYER
  5
319
100
AcDbSymbolTableRecord
100
AcDbLayerTableRecord
  2
SUPERFICI
 70
0
 62
7
  6
CONTINUOUS
370
-3
390
F
  0
LAYER
  5
31A
100
AcDbSymbolTableRecord
100
AcDbLayerTableRecord
  2
TRASH
 70
0
 62
7
  6
CONTINUOUS
370
-3
390
F
  0
LAYER
  5
31B
100
AcDbSymbolTableRecord
100
AcDbLayerTableRecord
  2
UMT-250_REF_300000
 70
0
 62
7
  6
CONTINUOUS
370
-3
390
F
  0
LAYER
  5
31C
100
AcDbSymbolTableRecord
100
AcDbLayerTableRecord
  2
VG_CAP-E-8_0-12_0-3_5-0_6_14000
 70
0
 62
7
  6
CONTINUOUS
370
-3
390
F
  0
LAYER
  5
31D
100
AcDbSymbolTableRecord
100
AcDbLayerTableRecord
  2
VG_CAP-E-8_0-12_0-3_5-0_6_1400_
 70
0
 62
7
  6
CONTINUOUS
370
-3
390
F
  0
LAYER
  5
31E
100
AcDbSymbolTableRecord
100
AcDbLayerTableRecord
  2
VG_CAP-E-8_0-12_0-3_5-0_6_140_1
 70
0
 62
7
  6
CONTINUOUS
370
-3
390
F
  0
LAYER
  5
31F
100
AcDbSymbolTableRecord
100
AcDbLayerTableRecord
  2
VG_CAP-E-8_0-12_0-3_5-0_6_140__
 70
0
 62
7
  6
CONTINUOUS
370
-3
390
F
  0
LAYER
  5
320
100
AcDbSymbolTableRecord
100
AcDbLayerTableRecord
  2
VG_CN_STH_USB_TYPE-C_24P_RIGHT_
 70
0
 62
7
  6
CONTINUOUS
370
-3
390
F
  0
LAYER
  5
321
100
AcDbSymbolTableRecord
100
AcDbLayerTableRecord
  2
VG_CN_STH_USB_TYPE-C_24P_RIGH_1
 70
0
 62
7
  6
CONTINUOUS
370
-3
390
F
  0
LAYER
  5
322
100
AcDbSymbolTableRecord
100
AcDbLayerTableRecord
  2
VG_DB_SOPA-4_150000
 70
0
 62
7
  6
CONTINUOUS
370
-3
390
F
  0
LAYER
  5
323
100
AcDbSymbolTableRecord
100
AcDbLayerTableRecord
  2
VG_INSOP24D-9_4-13_43-1_6-0_75-
 70
0
 62
7
  6
CONTINUOUS
370
-3
390
F
  0
LAYER
  5
324
100
AcDbSymbolTableRecord
100
AcDbLayerTableRecord
  2
VG_POWER56_110000
 70
0
 62
7
  6
CONTINUOUS
370
-3
390
F
  0
LAYER
  5
325
100
AcDbSymbolTableRecord
100
AcDbLayerTableRecord
  2
VG_TRA_RM7_85-265_1X5_3_15W_2_1
 70
0
 62
7
  6
CONTINUOUS
370
-3
390
F
  0
LAYER
  5
326
100
AcDbSymbolTableRecord
100
AcDbLayerTableRecord
  2
_43001021B0_ASM
 70
0
 62
7
  6
CONTINUOUS
370
-3
390
F
  0
LAYER
  5
327
100
AcDbSymbolTableRecord
100
AcDbLayerTableRecord
  2
___SHELL
 70
0
 62
7
  6
CONTINUOUS
370
-3
390
F
  0
LAYER
  5
328
100
AcDbSymbolTableRecord
100
AcDbLayerTableRecord
  2
___SHELL_1
 70
0
 62
7
  6
CONTINUOUS
370
-3
390
F
  0
LAYER
  5
329
100
AcDbSymbolTableRecord
100
AcDbLayerTableRecord
  2
___SHELL_10
 70
0
 62
7
  6
CONTINUOUS
370
-3
390
F
  0
LAYER
  5
32A
100
AcDbSymbolTableRecord
100
AcDbLayerTableRecord
  2
___SHELL_10_1
 70
0
 62
7
  6
CONTINUOUS
370
-3
390
F
  0
LAYER
  5
32B
100
AcDbSymbolTableRecord
100
AcDbLayerTableRecord
  2
___SHELL_11
 70
0
 62
7
  6
CONTINUOUS
370
-3
390
F
  0
LAYER
  5
32C
100
AcDbSymbolTableRecord
100
AcDbLayerTableRecord
  2
___SHELL_11_1
 70
0
 62
7
  6
CONTINUOUS
370
-3
390
F
  0
LAYER
  5
32D
100
AcDbSymbolTableRecord
100
AcDbLayerTableRecord
  2
___SHELL_12
 70
0
 62
7
  6
CONTINUOUS
370
-3
390
F
  0
LAYER
  5
32E
100
AcDbSymbolTableRecord
100
AcDbLayerTableRecord
  2
___SHELL_12_1
 70
0
 62
7
  6
CONTINUOUS
370
-3
390
F
  0
LAYER
  5
32F
100
AcDbSymbolTableRecord
100
AcDbLayerTableRecord
  2
___SHELL_13
 70
0
 62
7
  6
CONTINUOUS
370
-3
390
F
  0
LAYER
  5
330
100
AcDbSymbolTableRecord
100
AcDbLayerTableRecord
  2
___SHELL_13_1
 70
0
 62
7
  6
CONTINUOUS
370
-3
390
F
  0
LAYER
  5
331
100
AcDbSymbolTableRecord
100
AcDbLayerTableRecord
  2
___SHELL_14
 70
0
 62
7
  6
CONTINUOUS
370
-3
390
F
  0
LAYER
  5
332
100
AcDbSymbolTableRecord
100
AcDbLayerTableRecord
  2
___SHELL_14_1
 70
0
 62
7
  6
CONTINUOUS
370
-3
390
F
  0
LAYER
  5
333
100
AcDbSymbolTableRecord
100
AcDbLayerTableRecord
  2
___SHELL_15
 70
0
 62
7
  6
CONTINUOUS
370
-3
390
F
  0
LAYER
  5
334
100
AcDbSymbolTableRecord
100
AcDbLayerTableRecord
  2
___SHELL_15_1
 70
0
 62
7
  6
CONTINUOUS
370
-3
390
F
  0
LAYER
  5
335
100
AcDbSymbolTableRecord
100
AcDbLayerTableRecord
  2
___SHELL_16
 70
0
 62
7
  6
CONTINUOUS
370
-3
390
F
  0
LAYER
  5
336
100
AcDbSymbolTableRecord
100
AcDbLayerTableRecord
  2
___SHELL_16_1
 70
0
 62
7
  6
CONTINUOUS
370
-3
390
F
  0
LAYER
  5
337
100
AcDbSymbolTableRecord
100
AcDbLayerTableRecord
  2
___SHELL_17
 70
0
 62
7
  6
CONTINUOUS
370
-3
390
F
  0
LAYER
  5
338
100
AcDbSymbolTableRecord
100
AcDbLayerTableRecord
  2
___SHELL_17_1
 70
0
 62
7
  6
CONTINUOUS
370
-3
390
F
  0
LAYER
  5
339
100
AcDbSymbolTableRecord
100
AcDbLayerTableRecord
  2
___SHELL_18
 70
0
 62
7
  6
CONTINUOUS
370
-3
390
F
  0
LAYER
  5
33A
100
AcDbSymbolTableRecord
100
AcDbLayerTableRecord
  2
___SHELL_18_1
 70
0
 62
7
  6
CONTINUOUS
370
-3
390
F
  0
LAYER
  5
33B
100
AcDbSymbolTableRecord
100
AcDbLayerTableRecord
  2
___SHELL_19
 70
0
 62
7
  6
CONTINUOUS
370
-3
390
F
  0
LAYER
  5
33C
100
AcDbSymbolTableRecord
100
AcDbLayerTableRecord
  2
___SHELL_19_1
 70
0
 62
7
  6
CONTINUOUS
370
-3
390
F
  0
LAYER
  5
33D
100
AcDbSymbolTableRecord
100
AcDbLayerTableRecord
  2
___SHELL_1_1
 70
0
 62
7
  6
CONTINUOUS
370
-3
390
F
  0
LAYER
  5
33E
100
AcDbSymbolTableRecord
100
AcDbLayerTableRecord
  2
___SHELL_2
 70
0
 62
7
  6
CONTINUOUS
370
-3
390
F
  0
LAYER
  5
33F
100
AcDbSymbolTableRecord
100
AcDbLayerTableRecord
  2
___SHELL_20
 70
0
 62
7
  6
CONTINUOUS
370
-3
390
F
  0
LAYER
  5
340
100
AcDbSymbolTableRecord
100
AcDbLayerTableRecord
  2
___SHELL_20_1
 70
0
 62
7
  6
CONTINUOUS
370
-3
390
F
  0
LAYER
  5
341
100
AcDbSymbolTableRecord
100
AcDbLayerTableRecord
  2
___SHELL_21
 70
0
 62
7
  6
CONTINUOUS
370
-3
390
F
  0
LAYER
  5
342
100
AcDbSymbolTableRecord
100
AcDbLayerTableRecord
  2
___SHELL_21_1
 70
0
 62
7
  6
CONTINUOUS
370
-3
390
F
  0
LAYER
  5
343
100
AcDbSymbolTableRecord
100
AcDbLayerTableRecord
  2
___SHELL_22
 70
0
 62
7
  6
CONTINUOUS
370
-3
390
F
  0
LAYER
  5
344
100
AcDbSymbolTableRecord
100
AcDbLayerTableRecord
  2
___SHELL_22_1
 70
0
 62
7
  6
CONTINUOUS
370
-3
390
F
  0
LAYER
  5
345
100
AcDbSymbolTableRecord
100
AcDbLayerTableRecord
  2
___SHELL_23
 70
0
 62
7
  6
CONTINUOUS
370
-3
390
F
  0
LAYER
  5
346
100
AcDbSymbolTableRecord
100
AcDbLayerTableRecord
  2
___SHELL_23_1
 70
0
 62
7
  6
CONTINUOUS
370
-3
390
F
  0
LAYER
  5
347
100
AcDbSymbolTableRecord
100
AcDbLayerTableRecord
  2
___SHELL_24
 70
0
 62
7
  6
CONTINUOUS
370
-3
390
F
  0
LAYER
  5
348
100
AcDbSymbolTableRecord
100
AcDbLayerTableRecord
  2
___SHELL_24_1
 70
0
 62
7
  6
CONTINUOUS
370
-3
390
F
  0
LAYER
  5
349
100
AcDbSymbolTableRecord
100
AcDbLayerTableRecord
  2
___SHELL_25
 70
0
 62
7
  6
CONTINUOUS
370
-3
390
F
  0
LAYER
  5
34A
100
AcDbSymbolTableRecord
100
AcDbLayerTableRecord
  2
___SHELL_25_1
 70
0
 62
7
  6
CONTINUOUS
370
-3
390
F
  0
LAYER
  5
34B
100
AcDbSymbolTableRecord
100
AcDbLayerTableRecord
  2
___SHELL_26
 70
0
 62
7
  6
CONTINUOUS
370
-3
390
F
  0
LAYER
  5
34C
100
AcDbSymbolTableRecord
100
AcDbLayerTableRecord
  2
___SHELL_26_1
 70
0
 62
7
  6
CONTINUOUS
370
-3
390
F
  0
LAYER
  5
34D
100
AcDbSymbolTableRecord
100
AcDbLayerTableRecord
  2
___SHELL_27
 70
0
 62
7
  6
CONTINUOUS
370
-3
390
F
  0
LAYER
  5
34E
100
AcDbSymbolTableRecord
100
AcDbLayerTableRecord
  2
___SHELL_27_1
 70
0
 62
7
  6
CONTINUOUS
370
-3
390
F
  0
LAYER
  5
34F
100
AcDbSymbolTableRecord
100
AcDbLayerTableRecord
  2
___SHELL_28
 70
0
 62
7
  6
CONTINUOUS
370
-3
390
F
  0
LAYER
  5
350
100
AcDbSymbolTableRecord
100
AcDbLayerTableRecord
  2
___SHELL_28_1
 70
0
 62
7
  6
CONTINUOUS
370
-3
390
F
  0
LAYER
  5
351
100
AcDbSymbolTableRecord
100
AcDbLayerTableRecord
  2
___SHELL_29
 70
0
 62
7
  6
CONTINUOUS
370
-3
390
F
  0
LAYER
  5
352
100
AcDbSymbolTableRecord
100
AcDbLayerTableRecord
  2
___SHELL_29_1
 70
0
 62
7
  6
CONTINUOUS
370
-3
390
F
  0
LAYER
  5
353
100
AcDbSymbolTableRecord
100
AcDbLayerTableRecord
  2
___SHELL_2_1
 70
0
 62
7
  6
CONTINUOUS
370
-3
390
F
  0
LAYER
  5
354
100
AcDbSymbolTableRecord
100
AcDbLayerTableRecord
  2
___SHELL_3
 70
0
 62
7
  6
CONTINUOUS
370
-3
390
F
  0
LAYER
  5
355
100
AcDbSymbolTableRecord
100
AcDbLayerTableRecord
  2
___SHELL_30
 70
0
 62
7
  6
CONTINUOUS
370
-3
390
F
  0
LAYER
  5
356
100
AcDbSymbolTableRecord
100
AcDbLayerTableRecord
  2
___SHELL_30_1
 70
0
 62
7
  6
CONTINUOUS
370
-3
390
F
  0
LAYER
  5
357
100
AcDbSymbolTableRecord
100
AcDbLayerTableRecord
  2
___SHELL_31
 70
0
 62
7
  6
CONTINUOUS
370
-3
390
F
  0
LAYER
  5
358
100
AcDbSymbolTableRecord
100
AcDbLayerTableRecord
  2
___SHELL_31_1
 70
0
 62
7
  6
CONTINUOUS
370
-3
390
F
  0
LAYER
  5
359
100
AcDbSymbolTableRecord
100
AcDbLayerTableRecord
  2
___SHELL_32
 70
0
 62
7
  6
CONTINUOUS
370
-3
390
F
  0
LAYER
  5
35A
100
AcDbSymbolTableRecord
100
AcDbLayerTableRecord
  2
___SHELL_32_1
 70
0
 62
7
  6
CONTINUOUS
370
-3
390
F
  0
LAYER
  5
35B
100
AcDbSymbolTableRecord
100
AcDbLayerTableRecord
  2
___SHELL_33
 70
0
 62
7
  6
CONTINUOUS
370
-3
390
F
  0
LAYER
  5
35C
100
AcDbSymbolTableRecord
100
AcDbLayerTableRecord
  2
___SHELL_33_1
 70
0
 62
7
  6
CONTINUOUS
370
-3
390
F
  0
LAYER
  5
35D
100
AcDbSymbolTableRecord
100
AcDbLayerTableRecord
  2
___SHELL_34
 70
0
 62
7
  6
CONTINUOUS
370
-3
390
F
  0
LAYER
  5
35E
100
AcDbSymbolTableRecord
100
AcDbLayerTableRecord
  2
___SHELL_34_1
 70
0
 62
7
  6
CONTINUOUS
370
-3
390
F
  0
LAYER
  5
35F
100
AcDbSymbolTableRecord
100
AcDbLayerTableRecord
  2
___SHELL_35
 70
0
 62
7
  6
CONTINUOUS
370
-3
390
F
  0
LAYER
  5
360
100
AcDbSymbolTableRecord
100
AcDbLayerTableRecord
  2
___SHELL_35_1
 70
0
 62
7
  6
CONTINUOUS
370
-3
390
F
  0
LAYER
  5
361
100
AcDbSymbolTableRecord
100
AcDbLayerTableRecord
  2
___SHELL_36
 70
0
 62
7
  6
CONTINUOUS
370
-3
390
F
  0
LAYER
  5
362
100
AcDbSymbolTableRecord
100
AcDbLayerTableRecord
  2
___SHELL_36_1
 70
0
 62
7
  6
CONTINUOUS
370
-3
390
F
  0
LAYER
  5
363
100
AcDbSymbolTableRecord
100
AcDbLayerTableRecord
  2
___SHELL_37
 70
0
 62
7
  6
CONTINUOUS
370
-3
390
F
  0
LAYER
  5
364
100
AcDbSymbolTableRecord
100
AcDbLayerTableRecord
  2
___SHELL_37_1
 70
0
 62
7
  6
CONTINUOUS
370
-3
390
F
  0
LAYER
  5
365
100
AcDbSymbolTableRecord
100
AcDbLayerTableRecord
  2
___SHELL_38
 70
0
 62
7
  6
CONTINUOUS
370
-3
390
F
  0
LAYER
  5
366
100
AcDbSymbolTableRecord
100
AcDbLayerTableRecord
  2
___SHELL_38_1
 70
0
 62
7
  6
CONTINUOUS
370
-3
390
F
  0
LAYER
  5
367
100
AcDbSymbolTableRecord
100
AcDbLayerTableRecord
  2
___SHELL_39
 70
0
 62
7
  6
CONTINUOUS
370
-3
390
F
  0
LAYER
  5
368
100
AcDbSymbolTableRecord
100
AcDbLayerTableRecord
  2
___SHELL_39_1
 70
0
 62
7
  6
CONTINUOUS
370
-3
390
F
  0
LAYER
  5
369
100
AcDbSymbolTableRecord
100
AcDbLayerTableRecord
  2
___SHELL_3_1
 70
0
 62
7
  6
CONTINUOUS
370
-3
390
F
  0
LAYER
  5
36A
100
AcDbSymbolTableRecord
100
AcDbLayerTableRecord
  2
___SHELL_4
 70
0
 62
7
  6
CONTINUOUS
370
-3
390
F
  0
LAYER
  5
36B
100
AcDbSymbolTableRecord
100
AcDbLayerTableRecord
  2
___SHELL_40
 70
0
 62
7
  6
CONTINUOUS
370
-3
390
F
  0
LAYER
  5
36C
100
AcDbSymbolTableRecord
100
AcDbLayerTableRecord
  2
___SHELL_40_1
 70
0
 62
7
  6
CONTINUOUS
370
-3
390
F
  0
LAYER
  5
36D
100
AcDbSymbolTableRecord
100
AcDbLayerTableRecord
  2
___SHELL_41
 70
0
 62
7
  6
CONTINUOUS
370
-3
390
F
  0
LAYER
  5
36E
100
AcDbSymbolTableRecord
100
AcDbLayerTableRecord
  2
___SHELL_41_1
 70
0
 62
7
  6
CONTINUOUS
370
-3
390
F
  0
LAYER
  5
36F
100
AcDbSymbolTableRecord
100
AcDbLayerTableRecord
  2
___SHELL_42
 70
0
 62
7
  6
CONTINUOUS
370
-3
390
F
  0
LAYER
  5
370
100
AcDbSymbolTableRecord
100
AcDbLayerTableRecord
  2
___SHELL_42_1
 70
0
 62
7
  6
CONTINUOUS
370
-3
390
F
  0
LAYER
  5
371
100
AcDbSymbolTableRecord
100
AcDbLayerTableRecord
  2
___SHELL_43
 70
0
 62
7
  6
CONTINUOUS
370
-3
390
F
  0
LAYER
  5
372
100
AcDbSymbolTableRecord
100
AcDbLayerTableRecord
  2
___SHELL_43_1
 70
0
 62
7
  6
CONTINUOUS
370
-3
390
F
  0
LAYER
  5
373
100
AcDbSymbolTableRecord
100
AcDbLayerTableRecord
  2
___SHELL_44
 70
0
 62
7
  6
CONTINUOUS
370
-3
390
F
  0
LAYER
  5
374
100
AcDbSymbolTableRecord
100
AcDbLayerTableRecord
  2
___SHELL_44_1
 70
0
 62
7
  6
CONTINUOUS
370
-3
390
F
  0
LAYER
  5
375
100
AcDbSymbolTableRecord
100
AcDbLayerTableRecord
  2
___SHELL_45
 70
0
 62
7
  6
CONTINUOUS
370
-3
390
F
  0
LAYER
  5
376
100
AcDbSymbolTableRecord
100
AcDbLayerTableRecord
  2
___SHELL_45_1
 70
0
 62
7
  6
CONTINUOUS
370
-3
390
F
  0
LAYER
  5
377
100
AcDbSymbolTableRecord
100
AcDbLayerTableRecord
  2
___SHELL_46
 70
0
 62
7
  6
CONTINUOUS
370
-3
390
F
  0
LAYER
  5
378
100
AcDbSymbolTableRecord
100
AcDbLayerTableRecord
  2
___SHELL_46_1
 70
0
 62
7
  6
CONTINUOUS
370
-3
390
F
  0
LAYER
  5
379
100
AcDbSymbolTableRecord
100
AcDbLayerTableRecord
  2
___SHELL_47
 70
0
 62
7
  6
CONTINUOUS
370
-3
390
F
  0
LAYER
  5
37A
100
AcDbSymbolTableRecord
100
AcDbLayerTableRecord
  2
___SHELL_47_1
 70
0
 62
7
  6
CONTINUOUS
370
-3
390
F
  0
LAYER
  5
37B
100
AcDbSymbolTableRecord
100
AcDbLayerTableRecord
  2
___SHELL_48
 70
0
 62
7
  6
CONTINUOUS
370
-3
390
F
  0
LAYER
  5
37C
100
AcDbSymbolTableRecord
100
AcDbLayerTableRecord
  2
___SHELL_48_1
 70
0
 62
7
  6
CONTINUOUS
370
-3
390
F
  0
LAYER
  5
37D
100
AcDbSymbolTableRecord
100
AcDbLayerTableRecord
  2
___SHELL_49
 70
0
 62
7
  6
CONTINUOUS
370
-3
390
F
  0
LAYER
  5
37E
100
AcDbSymbolTableRecord
100
AcDbLayerTableRecord
  2
___SHELL_49_1
 70
0
 62
7
  6
CONTINUOUS
370
-3
390
F
  0
LAYER
  5
37F
100
AcDbSymbolTableRecord
100
AcDbLayerTableRecord
  2
___SHELL_4_1
 70
0
 62
7
  6
CONTINUOUS
370
-3
390
F
  0
LAYER
  5
380
100
AcDbSymbolTableRecord
100
AcDbLayerTableRecord
  2
___SHELL_5
 70
0
 62
7
  6
CONTINUOUS
370
-3
390
F
  0
LAYER
  5
381
100
AcDbSymbolTableRecord
100
AcDbLayerTableRecord
  2
___SHELL_50
 70
0
 62
7
  6
CONTINUOUS
370
-3
390
F
  0
LAYER
  5
382
100
AcDbSymbolTableRecord
100
AcDbLayerTableRecord
  2
___SHELL_50_1
 70
0
 62
7
  6
CONTINUOUS
370
-3
390
F
  0
LAYER
  5
383
100
AcDbSymbolTableRecord
100
AcDbLayerTableRecord
  2
___SHELL_51
 70
0
 62
7
  6
CONTINUOUS
370
-3
390
F
  0
LAYER
  5
384
100
AcDbSymbolTableRecord
100
AcDbLayerTableRecord
  2
___SHELL_51_1
 70
0
 62
7
  6
CONTINUOUS
370
-3
390
F
  0
LAYER
  5
385
100
AcDbSymbolTableRecord
100
AcDbLayerTableRecord
  2
___SHELL_52
 70
0
 62
7
  6
CONTINUOUS
370
-3
390
F
  0
LAYER
  5
386
100
AcDbSymbolTableRecord
100
AcDbLayerTableRecord
  2
___SHELL_52_1
 70
0
 62
7
  6
CONTINUOUS
370
-3
390
F
  0
LAYER
  5
387
100
AcDbSymbolTableRecord
100
AcDbLayerTableRecord
  2
___SHELL_5_1
 70
0
 62
7
  6
CONTINUOUS
370
-3
390
F
  0
LAYER
  5
388
100
AcDbSymbolTableRecord
100
AcDbLayerTableRecord
  2
___SHELL_6
 70
0
 62
7
  6
CONTINUOUS
370
-3
390
F
  0
LAYER
  5
389
100
AcDbSymbolTableRecord
100
AcDbLayerTableRecord
  2
___SHELL_6_1
 70
0
 62
7
  6
CONTINUOUS
370
-3
390
F
  0
LAYER
  5
38A
100
AcDbSymbolTableRecord
100
AcDbLayerTableRecord
  2
___SHELL_7
 70
0
 62
7
  6
CONTINUOUS
370
-3
390
F
  0
LAYER
  5
38B
100
AcDbSymbolTableRecord
100
AcDbLayerTableRecord
  2
___SHELL_7_1
 70
0
 62
7
  6
CONTINUOUS
370
-3
390
F
  0
LAYER
  5
38C
100
AcDbSymbolTableRecord
100
AcDbLayerTableRecord
  2
___SHELL_8
 70
0
 62
7
  6
CONTINUOUS
370
-3
390
F
  0
LAYER
  5
38D
100
AcDbSymbolTableRecord
100
AcDbLayerTableRecord
  2
___SHELL_8_1
 70
0
 62
7
  6
CONTINUOUS
370
-3
390
F
  0
LAYER
  5
38E
100
AcDbSymbolTableRecord
100
AcDbLayerTableRecord
  2
___SHELL_9
 70
0
 62
7
  6
CONTINUOUS
370
-3
390
F
  0
LAYER
  5
38F
100
AcDbSymbolTableRecord
100
AcDbLayerTableRecord
  2
___SHELL_9_1
 70
0
 62
7
  6
CONTINUOUS
370
-3
390
F
  0
ENDTAB
  0
TABLE
  2
STYLE
  5
3
100
AcDbSymbolTable
 70
1
  0
STYLE
  5
11
100
AcDbSymbolTableRecord
100
AcDbTextStyleTableRecord
  2
STANDARD
 70
0
 40
0.0
 41
0.8
 50
0.0
 71
0
 42
0.2
  3
txt
  4

  0
STYLE
  5
390
100
AcDbSymbolTableRecord
100
AcDbTextStyleTableRecord
  2
TEXTSTYLE_1
 70
0
 40
0.0
 41
0.8
 50
0.0
 71
0
 42
0.2
  3
gdt
  4

  0
ENDTAB
  0
TABLE
  2
VIEW
  5
6
100
AcDbSymbolTable
 70
0
  0
ENDTAB
  0
TABLE
  2
UCS
  5
7
100
AcDbSymbolTable
 70
0
  0
ENDTAB
  0
TABLE
  2
APPID
  5
9
100
AcDbSymbolTable
 70
1
  0
APPID
  5
391
100
AcDbSymbolTableRecord
100
AcDbRegAppTableRecord
  2
ACAD
 70
0
  0
ENDTAB
  0
TABLE
  2
BLOCK_RECORD
  5
1
100
AcDbSymbolTable
 70
0
  0
BLOCK_RECORD
  5
392
100
AcDbSymbolTableRecord
100
AcDbBlockTableRecord
  2
*Model_Space
  0
BLOCK_RECORD
  5
393
100
AcDbSymbolTableRecord
100
AcDbBlockTableRecord
  2
*Paper_Space
  0
BLOCK_RECORD
  5
394
100
AcDbSymbolTableRecord
100
AcDbBlockTableRecord
  2
_FILLED
  0
ENDTAB
  0
TABLE
  2
DIMSTYLE
  5
A
100
AcDbSymbolTable
 70
1
100
AcDbDimStyleTable
 71
0
  0
DIMSTYLE
105
395
100
AcDbSymbolTableRecord
100
AcDbDimStyleTableRecord
  2
STANDARD
 70
0
  3

  4

 40
1.0
 41
3.0
 42
0.5
 43
0.38
 44
1.5
 45
0.0
 46
0.0
 47
0.01
 48
0.01
140
3.0
141
0.09
142
0.0
143
25.4
144
1.0
145
0.0
146
1.0
147
0.625
 71
1
 72
0
 73
0
 74
0
 75
0
 76
0
 77
1
 78
8
 79
2
170
0
171
1
172
0
173
0
174
0
175
0
176
0
177
0
178
0
270
2
179
2
271
2
272
2
273
2
274
2
275
0
280
0
281
0
282
0
283
1
284
8
285
0
286
0
287
3
288
0
340
11
278
44
341
394
342
394
343
394
344
394
  0
ENDTAB
  0
ENDSEC
  0
SECTION
  2
BLOCKS
  0
BLOCK
  5
20
100
AcDbEntity
  8
0
100
AcDbBlockBegin
  2
*Model_Space
 70
0
 10
0.0
 20
0.0
 30
0.0
  3
*Model_Space
  1

  0
ENDBLK
  5
21
100
AcDbEntity
  8
0
100
AcDbBlockEnd
  0
BLOCK
  5
1C
100
AcDbEntity
  8
0
100
AcDbBlockBegin
  2
*Paper_Space
 70
0
 10
0.0
 20
0.0
 30
0.0
  3
*Paper_Space
  1

  0
ENDBLK
  5
1D
100
AcDbEntity
  8
0
100
AcDbBlockEnd
  0
BLOCK
  5
396
100
AcDbEntity
  8
0
100
AcDbBlockBegin
  2
_FILLED
 70
64
 10
0.0
 20
0.0
  3
_FILLED
  1

  0
SOLID
  5
397
100
AcDbEntity
  8
0
  6
BYBLOCK
 62
0
100
AcDbTrace
 10
0.0
 20
0.0
 11
-1.0
 21
0.3166666667
 12
-1.0
 22
-0.3166666667
 13
-1.0
 23
-0.3166666667
  0
ENDBLK
  5
398
100
AcDbEntity
  8
0
  6
BYBLOCK
 62
0
100
AcDbBlockEnd
  0
ENDSEC
  0
SECTION
  2
ENTITIES
  0
LWPOLYLINE
  5
399
100
AcDbEntity
  8
ASSI
100
AcDbPolyline
 62
7
  6
CONTINUOUS
 90
13
 70
0
 10
-8.3989140912
 20
-29.9219147802
 10
-8.3467066698
 20
-29.9462599591
 10
-8.2927268241
 20
-29.9660377593
 10
-8.2367757606
 20
-29.9813020241
 10
-8.179200601
 20
-29.9918905754
 10
-8.1203989179
 20
-29.9976827559
 10
-8.0601395796
 20
-29.9985908455
 10
-7.9986844849
 20
-29.9944208148
 10
-7.9364605756
 20
-29.9850271232
 10
-7.8733575334
 20
-29.9702022098
 10
-7.809491483
 20
-29.9496963253
 10
-7.7453035893
 20
-29.9233452115
 10
-7.7169767624
 20
-29.9098287105
  0
LWPOLYLINE
  5
39A
100
AcDbEntity
  8
0
100
AcDbPolyline
 62
7
  6
CONTINUOUS
 90
11
 70
0
 10
-8.4259730369
 20
-29.9070625875
 10
-8.36577191
 20
-29.9379952671
 10
-8.2976319003
 20
-29.9644523885
 10
-8.2270234866
 20
-29.9834503758
 10
-8.1535112733
 20
-29.9950296055
 10
-8.0776912495
 20
-29.99884163
 10
-8.000433212
 20
-29.9946098143
 10
-7.9214114341
 20
-29.981977155
 10
-7.8408453282
 20
-29.9604622009
 10
-7.7597052137
 20
-29.9297686233
 10
-7.7171666546
 20
-29.9099228177
  0
LINE
  5
39B
100
AcDbEntity
  8
ASSI
100
AcDbLine
 62
7
  6
CONTINUOUS
 10
-8.4254417444
 20
-29.9073704629
 11
-8.3989140912
 21
-29.9219147802
  0
LINE
  5
39C
100
AcDbEntity
  8
ASSI
100
AcDbLine
 62
7
  6
CONTINUOUS
 10
-8.425241027
 20
-29.9074974114
 11
-23.2788445168
 21
-21.3312129158
  0
LINE
  5
39D
100
AcDbEntity
  8
0
100
AcDbLine
 62
7
  6
CONTINUOUS
 10
-8.425241027
 20
-29.9074974114
 11
-23.2788445168
 21
-21.3312129158
  0
LINE
  5
39E
100
AcDbEntity
  8
ASSI
100
AcDbLine
 62
250
  6
CONTINUOUS
 10
-8.6335005779
 20
-29.4826808913
 11
-23.4834996755
 21
-20.9084775266
  0
LINE
  5
39F
100
AcDbEntity
  8
0
100
AcDbLine
 62
250
  6
CONTINUOUS
 10
-8.6335005779
 20
-29.4826808913
 11
-23.4834996755
 21
-20.9084775266
  0
LINE
  5
3A0
100
AcDbEntity
  8
CURVE
100
AcDbLine
 62
250
  6
CONTINUOUS
 10
-10.5594642409
 20
-26.9458163994
 11
-12.7783653197
 21
-25.6646507258
  0
LINE
  5
3A1
100
AcDbEntity
  8
CURVE
100
AcDbLine
 62
250
  6
CONTINUOUS
 10
-15.4855741546
 20
-24.1015422738
 11
-15.1219192603
 21
-24.3115120521
  0
LINE
  5
3A2
100
AcDbEntity
  8
CURVE
100
AcDbLine
 62
250
  6
CONTINUOUS
 10
-12.3655735236
 20
-25.4159995064
 11
-11.0015694075
 21
-26.2035583881
  0
LINE
  5
3A3
100
AcDbEntity
  8
CURVE
100
AcDbLine
 62
250
  6
CONTINUOUS
 10
-15.1491188838
 20
-23.4874187373
 11
-15.5127737781
 21
-23.277448959
  0
LINE
  5
3A4
100
AcDbEntity
  8
CURVE
100
AcDbLine
 62
250
  6
CONTINUOUS
 10
-11.0246450202
 20
-25.4825623352
 11
-12.3886491364
 21
-24.6950034536
  0
LINE
  5
3A5
100
AcDbEntity
  8
CURVE
100
AcDbLine
 62
250
  6
CONTINUOUS
 10
-15.5321896577
 20
-22.6588109828
 11
-14.9867073161
 21
-22.9737656503
  0
LWPOLYLINE
  5
3A6
100
AcDbEntity
  8
0
100
AcDbPolyline
 62
7
  6
CONTINUOUS
 90
11
 70
0
 10
-23.6299215897
 20
-20.7056242939
 10
-23.6231160602
 20
-20.7888300256
 10
-23.6086933609
 20
-20.8700568877
 10
-23.587257477
 20
-20.9464252602
 10
-23.5594864671
 20
-21.0172869986
 10
-23.5258946842
 20
-21.0827431895
 10
-23.4866012747
 20
-21.1432780088
 10
-23.4422088975
 20
-21.198346197
 10
-23.3932631795
 20
-21.2476501235
 10
-23.3395204627
 20
-21.2915824152
 10
-23.2780154868
 20
-21.3316801533
  0
LWPOLYLINE
  5
3A7
100
AcDbEntity
  8
ASSI
100
AcDbPolyline
 62
7
  6
CONTINUOUS
 90
12
 70
0
 10
-23.6299216986
 20
-20.7056213117
 10
-23.623203812
 20
-20.7881461633
 10
-23.6090214263
 20
-20.8686153164
 10
-23.5879581201
 20
-20.9443270503
 10
-23.5606677567
 20
-21.0146565755
 10
-23.5276481432
 20
-21.0796978526
 10
-23.4890240073
 20
-21.1399141017
 10
-23.4453817148
 20
-21.1947773097
 10
-23.3972502581
 20
-21.2439996682
 10
-23.3444058545
 20
-21.2879623522
 10
-23.2870747586
 20
-21.3263696334
 10
-23.2779938204
 20
-21.3316925888
  0
LINE
  5
3A8
100
AcDbEntity
  8
0
100
AcDbLine
 62
7
  6
CONTINUOUS
 10
-23.7497297599
 20
-17.018561096
 11
-23.629924503
 21
-20.7056402602
  0
LWPOLYLINE
  5
3A9
100
AcDbEntity
  8
0
100
AcDbPolyline
 62
7
  6
CONTINUOUS
 90
8
 70
0
 10
-23.7499020058
 20
9.781840896
 10
-23.8415401222
 20
5.900508647
 10
-23.9026564672
 20
2.0349202982
 10
-23.9332038473
 20
-1.8129069086
 10
-23.9331802033
 20
-5.6426543607
 10
-23.9025847498
 20
-9.4540285403
 10
-23.8414179087
 20
-13.2467129026
 10
-23.7497297599
 20
-17.018561096
  0
LWPOLYLINE
  5
3AA
100
AcDbEntity
  8
ASSI
100
AcDbPolyline
 62
7
  6
CONTINUOUS
 90
10
 70
0
 10
-23.6299519191
 20
13.6174913174
 10
-23.7499540837
 20
9.7801755997
 10
-23.8415852611
 20
5.8982192744
 10
-23.9026718026
 20
2.0336296992
 10
-23.9332050432
 20
-1.8132077437
 10
-23.9331829262
 20
-5.641974691
 10
-23.9026046669
 20
-9.4523778238
 10
-23.8414706853
 20
-13.2441008474
 10
-23.7497880131
 20
-17.0167683178
 10
-23.6299245031
 20
-20.7056402586
  0
LINE
  5
3AB
100
AcDbEntity
  8
0
100
AcDbLine
 62
7
  6
CONTINUOUS
 10
-23.6299519191
 20
13.6174913187
 11
-23.7499020058
 21
9.781840896
  0
LWPOLYLINE
  5
3AC
100
AcDbEntity
  8
ASSI
100
AcDbPolyline
 62
7
  6
CONTINUOUS
 90
16
 70
0
 10
-23.0764610932
 20
14.6046378249
 10
-23.1149354851
 20
14.5780004087
 10
-23.1797272724
 20
14.5270138736
 10
-23.2406408998
 20
14.4713652348
 10
-23.297886666
 20
14.4113076648
 10
-23.3514133234
 20
14.3471600757
 10
-23.4008583215
 20
14.2796389323
 10
-23.4461492617
 20
14.2090243878
 10
-23.4871801418
 20
14.135532393
 10
-23.5235296138
 20
14.0599531073
 10
-23.555050694
 20
13.9824837897
 10
-23.5815599433
 20
13.9033278402
 10
-23.6026576202
 20
13.8231830405
 10
-23.6180771282
 20
13.7422798245
 10
-23.627534007
 20
13.6605598401
 10
-23.6299573628
 20
13.617235512
  0
LWPOLYLINE
  5
3AD
100
AcDbEntity
  8
0
100
AcDbPolyline
 62
7
  6
CONTINUOUS
 90
16
 70
0
 10
-23.0764519766
 20
14.6046438187
 10
-23.1131382356
 20
14.5793028609
 10
-23.1782779697
 20
14.5282433616
 10
-23.2395168921
 20
14.4724654856
 10
-23.2970685971
 20
14.4122246171
 10
-23.3508789213
 20
14.347843451
 10
-23.4005759949
 20
14.2800505016
 10
-23.4460866438
 20
14.2091289226
 10
-23.4873020445
 20
14.1352974865
 10
-23.5237909957
 20
14.059363569
 10
-23.5554048435
 20
13.9815275887
 10
-23.581957877
 20
13.9019953696
 10
-23.6030432878
 20
13.8214796474
 10
-23.6183926972
 20
13.7402148974
 10
-23.627717583
 20
13.6581406561
 10
-23.6299577609
 20
13.6172235625
  0
LINE
  5
3AE
100
AcDbEntity
  8
ASSI
100
AcDbLine
 62
7
  6
CONTINUOUS
 10
-23.0766373209
 20
14.6045401687
 11
-17.4425724699
 21
18.3201529514
  0
LINE
  5
3AF
100
AcDbEntity
  8
0
100
AcDbLine
 62
7
  6
CONTINUOUS
 10
-23.0766373209
 20
14.6045401687
 11
-17.4425724699
 21
18.3201529514
  0
LINE
  5
3B0
100
AcDbEntity
  8
ASSI
100
AcDbLine
 62
250
  6
CONTINUOUS
 10
-22.8198678982
 20
14.5841296852
 11
-17.1844584035
 21
18.3006292478
  0
LINE
  5
3B1
100
AcDbEntity
  8
0
100
AcDbLine
 62
250
  6
CONTINUOUS
 10
-22.8198678982
 20
14.5841296852
 11
-17.1844584035
 21
18.3006292478
  0
LINE
  5
3B2
100
AcDbEntity
  8
CURVE
100
AcDbLine
 62
250
  6
CONTINUOUS
 10
-12.904746519
 20
-21.3159508006
 11
-10.6858454403
 21
-22.5971164741
  0
LINE
  5
3B3
100
AcDbEntity
  8
CURVE
100
AcDbLine
 62
250
  6
CONTINUOUS
 10
-11.4458862809
 20
-21.7494723142
 11
-12.164402785
 21
-21.3346098899
  0
LINE
  5
3B4
100
AcDbEntity
  8
0
100
AcDbLine
 62
7
  6
CONTINUOUS
 10
-13.2890407972
 20
16.0945344915
 11
-12.7233553722
 21
16.4211541662
  0
LINE
  5
3B5
100
AcDbEntity
  8
0
100
AcDbLine
 62
250
  6
CONTINUOUS
 10
-13.267631647
 20
16.1024661993
 11
-12.7019422002
 21
16.4290866562
  0
LINE
  5
3B6
100
AcDbEntity
  8
0
100
AcDbLine
 62
250
  6
CONTINUOUS
 10
-13.2890407972
 20
16.0945344915
 11
-13.2887280023
 21
16.094713969
  0
LINE
  5
3B7
100
AcDbEntity
  8
0
100
AcDbLine
 62
250
  6
CONTINUOUS
 10
-12.8770243807
 20
16.2519734285
 11
-13.0793158986
 21
16.1373085636
  0
LINE
  5
3B8
100
AcDbEntity
  8
0
100
AcDbLine
 62
250
  6
CONTINUOUS
 10
-12.4211572758
 20
16.4484761793
 11
-13.0045334757
 21
16.1177698087
  0
LINE
  5
3B9
100
AcDbEntity
  8
0
100
AcDbLine
 62
7
  6
CONTINUOUS
 10
-12.4938485656
 20
16.5801495467
 11
-12.8046715848
 21
16.4085673896
  0
LINE
  5
3BA
100
AcDbEntity
  8
0
100
AcDbLine
 62
250
  6
CONTINUOUS
 10
-12.4694217786
 20
16.5360147938
 11
-12.6428261488
 21
16.4404081219
  0
LINE
  5
3BB
100
AcDbEntity
  8
0
100
AcDbLine
 62
250
  6
CONTINUOUS
 10
-9.7999629908
 20
18.0078123992
 11
-10.1160128833
 21
17.8335603913
  0
LINE
  5
3BC
100
AcDbEntity
  8
0
100
AcDbLine
 62
7
  6
CONTINUOUS
 10
-8.7583786959
 20
19.0698062556
 11
-11.7280966653
 21
17.436626779
  0
LINE
  5
3BD
100
AcDbEntity
  8
0
100
AcDbLine
 62
7
  6
CONTINUOUS
 10
11.0258153819
 20
29.9988435683
 11
10.9566587685
 21
29.9608568235
  0
LINE
  5
3BE
100
AcDbEntity
  8
0
100
AcDbLine
 62
7
  6
CONTINUOUS
 10
-8.7841506124
 20
19.1167218111
 11
-8.8125153
 21
19.1011403617
  0
LINE
  5
3BF
100
AcDbEntity
  8
0
100
AcDbLine
 62
7
  6
CONTINUOUS
 10
-8.8134930343
 20
19.1029205579
 11
-13.815714108
 21
16.3555585119
  0
LINE
  5
3C0
100
AcDbEntity
  8
0
100
AcDbLine
 62
7
  6
CONTINUOUS
 10
-12.8059977989
 20
16.5720720508
 11
-13.3256931254
 21
16.2874942626
  0
LINE
  5
3C1
100
AcDbEntity
  8
ASSI
100
AcDbLine
 62
250
  6
CONTINUOUS
 10
-12.447274108
 20
-16.1564105369
 11
-17.1848895419
 21
-13.4209707616
  0
LINE
  5
3C2
100
AcDbEntity
  8
0
100
AcDbLine
 62
250
  6
CONTINUOUS
 10
-12.447274108
 20
-16.1564105369
 11
-17.1848895419
 21
-13.4209707616
  0
LINE
  5
3C3
100
AcDbEntity
  8
0
100
AcDbLine
 62
7
  6
CONTINUOUS
 10
-9.2292379905
 20
17.814692568
 11
-10.688242782
 21
16.9722785946
  0
LINE
  5
3C4
100
AcDbEntity
  8
ASSI
100
AcDbLine
 62
7
  6
CONTINUOUS
 10
-9.3710066965
 20
16.6266723452
 11
-9.7316679188
 21
16.4266383206
  0
LINE
  5
3C5
100
AcDbEntity
  8
0
100
AcDbLine
 62
7
  6
CONTINUOUS
 10
-9.3710066965
 20
16.6266723452
 11
-9.7316679188
 21
16.4266383206
  0
LINE
  5
3C6
100
AcDbEntity
  8
ASSI
100
AcDbLine
 62
7
  6
CONTINUOUS
 10
-9.9327695943
 20
16.9510507288
 11
-10.3079412794
 21
16.7526972733
  0
LINE
  5
3C7
100
AcDbEntity
  8
0
100
AcDbLine
 62
7
  6
CONTINUOUS
 10
-9.9327695943
 20
16.9510507288
 11
-10.3079412794
 21
16.7526972733
  0
LINE
  5
3C8
100
AcDbEntity
  8
0
100
AcDbLine
 62
7
  6
CONTINUOUS
 10
-9.2292379905
 20
16.9162078433
 11
-9.5731090458
 21
16.7433721729
  0
LINE
  5
3C9
100
AcDbEntity
  8
0
100
AcDbLine
 62
7
  6
CONTINUOUS
 10
-7.4243296266
 20
17.5233246955
 11
-7.8857351063
 21
17.3410443463
  0
LINE
  5
3CA
100
AcDbEntity
  8
0
100
AcDbLine
 62
7
  6
CONTINUOUS
 10
-13.3256931254
 20
16.2874942626
 11
-13.3430976184
 21
16.282488618
  0
LINE
  5
3CB
100
AcDbEntity
  8
ASSI
100
AcDbLine
 62
250
  6
CONTINUOUS
 10
-12.2388650812
 20
-15.7877445697
 11
-16.9764805151
 21
-13.0523047944
  0
LINE
  5
3CC
100
AcDbEntity
  8
0
100
AcDbLine
 62
250
  6
CONTINUOUS
 10
-12.2388650812
 20
-15.7877445697
 11
-16.9764805151
 21
-13.0523047944
  0
LINE
  5
3CD
100
AcDbEntity
  8
ASSI
100
AcDbLine
 62
7
  6
CONTINUOUS
 10
-11.2497642096
 20
-14.7335805645
 11
-15.5931990212
 21
-12.2257357403
  0
LINE
  5
3CE
100
AcDbEntity
  8
0
100
AcDbLine
 62
7
  6
CONTINUOUS
 10
-11.2497642096
 20
-14.7335805645
 11
-15.5931990212
 21
-12.2257357403
  0
LINE
  5
3CF
100
AcDbEntity
  8
IMPORT_IGES
100
AcDbLine
 62
7
  6
CONTINUOUS
 10
-12.5144560959
 20
-13.7885871009
 11
-11.8780599928
 21
-14.1560342349
  0
LINE
  5
3D0
100
AcDbEntity
  8
CURVE
100
AcDbLine
 62
250
  6
CONTINUOUS
 10
-14.947032283
 20
-24.2105547725
 11
-14.9606320887
 21
-23.7985081301
  0
LINE
  5
3D1
100
AcDbEntity
  8
CURVE
100
AcDbLine
 62
250
  6
CONTINUOUS
 10
-15.89584459
 20
-22.4488411825
 11
-15.8492290874
 21
-23.8915724604
  0
LINE
  5
3D2
100
AcDbEntity
  8
CURVE
100
AcDbLine
 62
250
  6
CONTINUOUS
 10
-15.5127737781
 20
-23.277448959
 11
-15.5321896574
 21
-22.6588109899
  0
LINE
  5
3D3
100
AcDbEntity
  8
ASSI
100
AcDbLine
 62
7
  6
CONTINUOUS
 10
-16.6624990093
 20
-10.3736538342
 11
-16.6624990093
 21
-10.1055464084
  0
LINE
  5
3D4
100
AcDbEntity
  8
0
100
AcDbLine
 62
7
  6
CONTINUOUS
 10
-16.6624990093
 20
-10.3736538342
 11
-16.6624990093
 21
-10.1055464084
  0
LINE
  5
3D5
100
AcDbEntity
  8
ASSI
100
AcDbLine
 62
7
  6
CONTINUOUS
 10
-16.6624990093
 20
-2.6988332324
 11
-16.6624990093
 21
-2.3960643683
  0
LINE
  5
3D6
100
AcDbEntity
  8
0
100
AcDbLine
 62
7
  6
CONTINUOUS
 10
-16.6624990093
 20
-2.6988332324
 11
-16.6624990093
 21
-2.3960643683
  0
LINE
  5
3D7
100
AcDbEntity
  8
IMPORT_IGES
100
AcDbLine
 62
7
  6
CONTINUOUS
 10
-16.12070068
 20
-4.0852143156
 11
-16.12070068
 21
-3.5217890097
  0
LINE
  5
3D8
100
AcDbEntity
  8
0
100
AcDbLine
 62
7
  6
CONTINUOUS
 10
14.7562005845
 20
26.2147103051
 11
5.5453266708
 21
20.9214908898
  0
LINE
  5
3D9
100
AcDbEntity
  8
0
100
AcDbLine
 62
7
  6
CONTINUOUS
 10
14.3778718627
 20
28.0634081674
 11
-3.0541245182
 21
18.2693071378
  0
LINE
  5
3DA
100
AcDbEntity
  8
ASSI
100
AcDbLine
 62
7
  6
CONTINUOUS
 10
-6.3879016532
 20
14.9042648803
 11
-6.7469090749
 21
14.7032759719
  0
LINE
  5
3DB
100
AcDbEntity
  8
0
100
AcDbLine
 62
7
  6
CONTINUOUS
 10
-6.3879016532
 20
14.9042648803
 11
-6.7469090749
 21
14.7032759719
  0
LINE
  5
3DC
100
AcDbEntity
  8
0
100
AcDbLine
 62
7
  6
CONTINUOUS
 10
-1.1954722204
 20
17.1961445954
 11
16.3782841269
 21
26.9083951971
  0
LINE
  5
3DD
100
AcDbEntity
  8
0
100
AcDbLine
 62
7
  6
CONTINUOUS
 10
-4.4209118785
 20
15.0384253334
 11
-5.931755568
 21
14.22594249
  0
LINE
  5
3DE
100
AcDbEntity
  8
0
100
AcDbLine
 62
7
  6
CONTINUOUS
 10
-2.327385981
 20
15.3565899252
 11
-3.1859745768
 21
15.0761516089
  0
LINE
  5
3DF
100
AcDbEntity
  8
ASSI
100
AcDbLine
 62
7
  6
CONTINUOUS
 10
-17.201923517
 20
-9.795357654
 11
-17.1533944869
 21
-9.8221094842
  0
LINE
  5
3E0
100
AcDbEntity
  8
0
100
AcDbLine
 62
7
  6
CONTINUOUS
 10
-17.2015008044
 20
-9.7955906761
 11
-17.153398619
 21
-9.8221070945
  0
LINE
  5
3E1
100
AcDbEntity
  8
IMPORT_IGES
100
AcDbLine
 62
7
  6
CONTINUOUS
 10
-11.4802196096
 20
-13.6508480181
 11
-11.8780599928
 21
-13.4211399669
  0
LINE
  5
3E2
100
AcDbEntity
  8
ASSI
100
AcDbLine
 62
7
  6
CONTINUOUS
 10
-17.1533344829
 20
-9.8221441575
 11
-12.4157190499
 21
-12.5575839323
  0
LINE
  5
3E3
100
AcDbEntity
  8
0
100
AcDbLine
 62
7
  6
CONTINUOUS
 10
-17.1533344829
 20
-9.8221441575
 11
-12.4157190499
 21
-12.5575839323
  0
LINE
  5
3E4
100
AcDbEntity
  8
ASSI
100
AcDbLine
 62
250
  6
CONTINUOUS
 10
-17.2154568165
 20
-9.6859995406
 11
-12.4778413826
 21
-12.4214393159
  0
LINE
  5
3E5
100
AcDbEntity
  8
0
100
AcDbLine
 62
250
  6
CONTINUOUS
 10
-17.2154568165
 20
-9.6859995406
 11
-12.4778413826
 21
-12.4214393159
  0
LINE
  5
3E6
100
AcDbEntity
  8
0
100
AcDbLine
 62
7
  6
CONTINUOUS
 10
-12.4156264795
 20
-12.5576373153
 11
-12.3985237666
 21
-12.5676967663
  0
LWPOLYLINE
  5
3E7
100
AcDbEntity
  8
ASSI
100
AcDbPolyline
 62
7
  6
CONTINUOUS
 90
24
 70
0
 10
-12.4156316101
 20
-12.5576343601
 10
-12.3957019127
 20
-12.5693565103
 10
-12.3211129763
 20
-12.6169428578
 10
-12.2451456165
 20
-12.6713916298
 10
-12.168254722
 20
-12.7327073603
 10
-12.0911628774
 20
-12.8006400284
 10
-12.014775817
 20
-12.874604682
 10
-11.93963825
 20
-12.954222372
 10
-11.8662177911
 20
-13.0391527127
 10
-11.795207176
 20
-13.1286973924
 10
-11.7271147588
 20
-13.2222540497
 10
-11.6623098773
 20
-13.3193603553
 10
-11.6012008536
 20
-13.4194418484
 10
-11.5441457213
 20
-13.521901703
 10
-11.4914810653
 20
-13.6261249271
 10
-11.4435215381
 20
-13.7314691445
 10
-11.4004788485
 20
-13.8373989516
 10
-11.3626204933
 20
-13.9431640222
 10
-11.3302317383
 20
-14.0477693664
 10
-11.3033756003
 20
-14.1506480558
 10
-11.2821057959
 20
-14.251145727
 10
-11.2664902163
 20
-14.348145883
 10
-11.2563878225
 20
-14.4408776867
 10
-11.2515597751
 20
-14.5289579946
  0
LWPOLYLINE
  5
3E8
100
AcDbEntity
  8
0
100
AcDbPolyline
 62
7
  6
CONTINUOUS
 90
23
 70
0
 10
-12.3985237666
 20
-12.5676967663
 10
-12.3243780396
 20
-12.614737883
 10
-12.2481521133
 20
-12.6691217638
 10
-12.1709618402
 20
-12.7304407851
 10
-12.0935410957
 20
-12.7984452443
 10
-12.0168122519
 20
-12.8725437478
 10
-11.941327659
 20
-12.9523535953
 10
-11.8675606969
 20
-13.0375319041
 10
-11.7962150111
 20
-13.127371677
 10
-11.7278062102
 20
-13.221262599
 10
-11.6627076394
 20
-13.3187376128
 10
-11.601332514
 20
-13.4192161916
 10
-11.5440434782
 20
-13.5220943216
 10
-11.4911812981
 20
-13.6267494866
 10
-11.4430639699
 20
-13.7325321817
 10
-11.399905265
 20
-13.8389014686
 10
-11.361976387
 20
-13.9450964626
 10
-11.3295658524
 20
-14.0501073768
 10
-11.3027358222
 20
-14.1533615063
 10
-11.2815397018
 20
-14.2541958498
 10
-11.266043714
 20
-14.3514749414
 10
-11.2561010422
 20
-14.4444173505
 10
-11.2515117025
 20
-14.5317827394
  0
LINE
  5
3E9
100
AcDbEntity
  8
CURVE
100
AcDbLine
 62
250
  6
CONTINUOUS
 10
-12.3886491364
 20
-24.6950034536
 11
-12.3655735241
 21
-25.4159994925
  0
LINE
  5
3EA
100
AcDbEntity
  8
CURVE
100
AcDbLine
 62
250
  6
CONTINUOUS
 10
-12.164402785
 20
-21.3346098899
 11
-12.1560147164
 21
-21.6886323872
  0
LINE
  5
3EB
100
AcDbEntity
  8
IMPORT_IGES
100
AcDbLine
 62
7
  6
CONTINUOUS
 10
-14.5650657614
 20
-3.6070960387
 11
-14.5650657614
 21
-3.8074668057
  0
LINE
  5
3EC
100
AcDbEntity
  8
0
100
AcDbLine
 62
7
  6
CONTINUOUS
 10
-13.3890359652
 20
15.9114221266
 11
-13.3890359652
 21
15.9213322006
  0
LINE
  5
3ED
100
AcDbEntity
  8
0
100
AcDbLine
 62
250
  6
CONTINUOUS
 10
-13.3304573214
 20
15.829767208
 11
-13.3304573214
 21
15.839677282
  0
LINE
  5
3EE
100
AcDbEntity
  8
IMPORT_IGES
100
AcDbLine
 62
7
  6
CONTINUOUS
 10
-12.5144560959
 20
-13.7885871009
 11
-12.5144560959
 21
-14.0033633196
  0
LINE
  5
3EF
100
AcDbEntity
  8
0
100
AcDbLine
 62
7
  6
CONTINUOUS
 10
-3.1859745768
 20
15.0761516089
 11
-3.5016730629
 21
14.8097418677
  0
LINE
  5
3F0
100
AcDbEntity
  8
0
100
AcDbLine
 62
7
  6
CONTINUOUS
 10
-2.0235157078
 20
15.1811807739
 11
-3.5016730629
 21
13.9704691242
  0
LINE
  5
3F1
100
AcDbEntity
  8
0
100
AcDbLine
 62
250
  6
CONTINUOUS
 10
-6.8318508019
 20
13.1667905838
 11
-6.8086391166
 21
13.1814209914
  0
LINE
  5
3F2
100
AcDbEntity
  8
0
100
AcDbLine
 62
250
  6
CONTINUOUS
 10
-6.6050619183
 20
12.9088243933
 11
-7.1707433214
 21
12.5821992921
  0
LINE
  5
3F3
100
AcDbEntity
  8
0
100
AcDbLine
 62
250
  6
CONTINUOUS
 10
-6.542232222
 20
12.7367903727
 11
-7.107917647
 21
12.410170698
  0
LINE
  5
3F4
100
AcDbEntity
  8
0
100
AcDbLine
 62
7
  6
CONTINUOUS
 10
17.443206353
 20
24.6632668504
 11
8.2323324393
 21
19.3700474352
  0
LINE
  5
3F5
100
AcDbEntity
  8
0
100
AcDbLine
 62
250
  6
CONTINUOUS
 10
-4.7885720499
 20
14.0442406014
 11
-3.8501868782
 21
14.57248624
  0
LINE
  5
3F6
100
AcDbEntity
  8
0
100
AcDbLine
 62
7
  6
CONTINUOUS
 10
17.0648776312
 20
26.5119647128
 11
-0.3671187497
 21
16.7178636832
  0
LINE
  5
3F7
100
AcDbEntity
  8
0
100
AcDbLine
 62
250
  6
CONTINUOUS
 10
-6.6909026438
 20
12.3180631593
 11
-6.542232222
 21
12.4009071864
  0
LINE
  5
3F8
100
AcDbEntity
  8
0
100
AcDbLine
 62
7
  6
CONTINUOUS
 10
-6.7349715848
 20
12.2250111599
 11
-6.5845405781
 21
12.3088362424
  0
LINE
  5
3F9
100
AcDbEntity
  8
0
100
AcDbLine
 62
7
  6
CONTINUOUS
 10
1.4915335481
 20
15.6447011408
 11
19.0652898954
 21
25.3569517425
  0
LINE
  5
3FA
100
AcDbEntity
  8
ASSI
100
AcDbLine
 62
250
  6
CONTINUOUS
 10
-12.4778413826
 20
-8.4952475143
 11
-17.2154568165
 21
-5.759807739
  0
LINE
  5
3FB
100
AcDbEntity
  8
0
100
AcDbLine
 62
250
  6
CONTINUOUS
 10
-12.4778413826
 20
-8.4952475143
 11
-17.2154568165
 21
-5.759807739
  0
LINE
  5
3FC
100
AcDbEntity
  8
ASSI
100
AcDbLine
 62
250
  6
CONTINUOUS
 10
-12.2694140154
 20
-8.1311782449
 11
-17.0070294493
 21
-5.3957384696
  0
LINE
  5
3FD
100
AcDbEntity
  8
0
100
AcDbLine
 62
250
  6
CONTINUOUS
 10
-12.2694140154
 20
-8.1311782449
 11
-17.0070294493
 21
-5.3957384696
  0
LINE
  5
3FE
100
AcDbEntity
  8
CURVE
100
AcDbLine
 62
250
  6
CONTINUOUS
 10
-11.0015694075
 20
-26.2035583881
 11
-11.0246450198
 21
-25.4825623492
  0
LINE
  5
3FF
100
AcDbEntity
  8
CURVE
100
AcDbLine
 62
250
  6
CONTINUOUS
 10
-11.4374982122
 20
-22.103494817
 11
-11.4458862808
 21
-21.7494723196
  0
LINE
  5
400
100
AcDbEntity
  8
0
100
AcDbLine
 62
7
  6
CONTINUOUS
 10
-11.2515117025
 20
-14.5317827394
 11
-11.2510834695
 21
-14.5569419611
  0
LINE
  5
401
100
AcDbEntity
  8
ASSI
100
AcDbLine
 62
7
  6
CONTINUOUS
 10
-11.2515597751
 20
-14.5289579946
 11
-11.251083432
 21
-14.5569479387
  0
LINE
  5
402
100
AcDbEntity
  8
ASSI
100
AcDbLine
 62
7
  6
CONTINUOUS
 10
-11.2510827592
 20
-14.5570471509
 11
-11.2451975292
 21
-15.2888180687
  0
LINE
  5
403
100
AcDbEntity
  8
0
100
AcDbLine
 62
7
  6
CONTINUOUS
 10
-11.2510827592
 20
-14.5570471509
 11
-11.2451975292
 21
-15.2888180687
  0
LINE
  5
404
100
AcDbEntity
  8
0
100
AcDbLine
 62
7
  6
CONTINUOUS
 10
-11.2452246998
 20
-6.8481695166
 11
-11.2451968676
 21
-6.8738140986
  0
LINE
  5
405
100
AcDbEntity
  8
ASSI
100
AcDbLine
 62
7
  6
CONTINUOUS
 10
-11.2452277905
 20
-6.845315498
 11
-11.245196922
 21
-6.8738197092
  0
LINE
  5
406
100
AcDbEntity
  8
IMPORT_IGES
100
AcDbLine
 62
7
  6
CONTINUOUS
 10
-11.8780599928
 20
-14.3708104536
 11
-11.8780599928
 21
-14.1560342349
  0
LINE
  5
407
100
AcDbEntity
  8
IMPORT_IGES
100
AcDbLine
 62
7
  6
CONTINUOUS
 10
-11.5952172804
 20
-13.4301977659
 11
-11.5952172804
 21
-13.5844498043
  0
LINE
  5
408
100
AcDbEntity
  8
ASSI
100
AcDbLine
 62
7
  6
CONTINUOUS
 10
-11.2451977712
 20
-6.8739120548
 11
-11.2510828952
 21
-7.6127072914
  0
LINE
  5
409
100
AcDbEntity
  8
0
100
AcDbLine
 62
7
  6
CONTINUOUS
 10
-11.2451977712
 20
-6.8739120548
 11
-11.2510828952
 21
-7.6127072914
  0
LINE
  5
40A
100
AcDbEntity
  8
ASSI
100
AcDbLine
 62
7
  6
CONTINUOUS
 10
-11.2451968196
 20
-15.2888952494
 11
-11.2457627751
 21
-15.3422093233
  0
LINE
  5
40B
100
AcDbEntity
  8
0
100
AcDbLine
 62
7
  6
CONTINUOUS
 10
-11.2451967684
 20
-15.2889005842
 11
-11.2457627751
 21
-15.3422093233
  0
LINE
  5
40C
100
AcDbEntity
  8
ASSI
100
AcDbLine
 62
7
  6
CONTINUOUS
 10
-11.2510833811
 20
-7.6127782698
 11
-11.2525206513
 21
-7.6667487774
  0
LINE
  5
40D
100
AcDbEntity
  8
0
100
AcDbLine
 62
7
  6
CONTINUOUS
 10
-11.2510834129
 20
-7.6127831971
 11
-11.2525206513
 21
-7.6667487774
  0
LWPOLYLINE
  5
40E
100
AcDbEntity
  8
0
100
AcDbPolyline
 62
7
  6
CONTINUOUS
 90
11
 70
0
 10
-11.2457627751
 20
-15.3422093233
 10
-11.2495550708
 20
-15.4094539302
 10
-11.2569609983
 20
-15.4747139422
 10
-11.2680269141
 20
-15.5371301753
 10
-11.2827327347
 20
-15.5959481067
 10
-11.300820489
 20
-15.6501794348
 10
-11.3219615998
 20
-15.6992543888
 10
-11.3459052653
 20
-15.7429969243
 10
-11.3723196161
 20
-15.7812024693
 10
-11.4008958956
 20
-15.8138791169
 10
-11.4314465994
 20
-15.8411909315
  0
LWPOLYLINE
  5
40F
100
AcDbEntity
  8
ASSI
100
AcDbPolyline
 62
7
  6
CONTINUOUS
 90
11
 70
0
 10
-11.2457684024
 20
-15.3427394277
 10
-11.2496202119
 20
-15.4102250213
 10
-11.2570511057
 20
-15.4753369356
 10
-11.2681292211
 20
-15.5376113161
 10
-11.2828341811
 20
-15.5962971635
 10
-11.3009086515
 20
-15.6504111148
 10
-11.3220257108
 20
-15.6993861616
 10
-11.3459359945
 20
-15.7430468237
 10
-11.37230908
 20
-15.7811889154
 10
-11.4008376242
 20
-15.8138200875
 10
-11.4313350053
 20
-15.8411033714
  0
LWPOLYLINE
  5
410
100
AcDbEntity
  8
0
100
AcDbPolyline
 62
7
  6
CONTINUOUS
 90
11
 70
0
 10
-11.2525206513
 20
-7.6667487774
 10
-11.25745401
 20
-7.7349064804
 10
-11.2660303378
 20
-7.8011826526
 10
-11.2782949301
 20
-7.8646985321
 10
-11.2942352942
 20
-7.9247115881
 10
-11.3136152497
 20
-7.9802725741
 10
-11.336138633
 20
-8.0308139217
 10
-11.361578434
 20
-8.0761130178
 10
-11.3896204237
 20
-8.1159152479
 10
-11.4199681749
 20
-8.1501728701
 10
-11.4524401631
 20
-8.1789891209
  0
LWPOLYLINE
  5
411
100
AcDbEntity
  8
ASSI
100
AcDbPolyline
 62
7
  6
CONTINUOUS
 90
11
 70
0
 10
-11.2525349268
 20
-7.6672848338
 10
-11.2575323635
 20
-7.7356866909
 10
-11.266131581
 20
-7.8018134626
 10
-11.2784062688
 20
-7.8651861512
 10
-11.294343664
 20
-7.925065684
 10
-11.3137081992
 20
-7.9805075506
 10
-11.3362052612
 20
-8.0309469003
 10
-11.3616091745
 20
-8.0761618504
 10
-11.389607079
 20
-8.1158983483
 10
-11.419903919
 20
-8.1501084263
 10
-11.4523190577
 20
-8.1788945401
  0
LINE
  5
412
100
AcDbEntity
  8
0
100
AcDbLine
 62
7
  6
CONTINUOUS
 10
20.1302121215
 20
23.1118233958
 11
10.9193382078
 21
17.8186039805
  0
LINE
  5
413
100
AcDbEntity
  8
0
100
AcDbLine
 62
7
  6
CONTINUOUS
 10
1.0095117086
 20
13.4299487564
 11
-1.9220532036
 21
11.7747401828
  0
LINE
  5
414
100
AcDbEntity
  8
0
100
AcDbLine
 62
7
  6
CONTINUOUS
 10
19.7518833997
 20
24.9605212581
 11
2.3198870188
 21
15.1664202285
  0
LINE
  5
415
100
AcDbEntity
  8
0
100
AcDbLine
 62
7
  6
CONTINUOUS
 10
4.1785393166
 20
14.0932576861
 11
21.7522956639
 21
23.8055082878
  0
LINE
  5
416
100
AcDbEntity
  8
ASSI
100
AcDbLine
 62
7
  6
CONTINUOUS
 10
-17.1600516993
 20
-2.109546138
 11
-17.1228950089
 21
-2.130237396
  0
LINE
  5
417
100
AcDbEntity
  8
0
100
AcDbLine
 62
7
  6
CONTINUOUS
 10
-17.1590816602
 20
-2.1100863188
 11
-17.122901549
 21
-2.1302336084
  0
LINE
  5
418
100
AcDbEntity
  8
ASSI
100
AcDbLine
 62
7
  6
CONTINUOUS
 10
-11.2467875564
 20
-7.0604786449
 11
-15.5931990212
 21
-4.5509151384
  0
LINE
  5
419
100
AcDbEntity
  8
0
100
AcDbLine
 62
7
  6
CONTINUOUS
 10
-11.2467875564
 20
-7.0604786449
 11
-15.5931990212
 21
-4.5509151384
  0
LINE
  5
41A
100
AcDbEntity
  8
IMPORT_IGES
100
AcDbLine
 62
7
  6
CONTINUOUS
 10
-16.12070068
 20
-3.5217890097
 11
-16.5663901606
 21
-3.2644534894
  0
LINE
  5
41B
100
AcDbEntity
  8
ASSI
100
AcDbLine
 62
7
  6
CONTINUOUS
 10
-17.1227855487
 20
-2.1303006892
 11
-12.3851701158
 21
-4.8657404639
  0
LINE
  5
41C
100
AcDbEntity
  8
0
100
AcDbLine
 62
7
  6
CONTINUOUS
 10
-17.1227855487
 20
-2.1303006892
 11
-12.3851701158
 21
-4.8657404639
  0
LINE
  5
41D
100
AcDbEntity
  8
ASSI
100
AcDbLine
 62
250
  6
CONTINUOUS
 10
-17.1848895419
 20
-1.9895381955
 11
-12.447274108
 21
-4.7249779708
  0
LINE
  5
41E
100
AcDbEntity
  8
0
100
AcDbLine
 62
250
  6
CONTINUOUS
 10
-17.1848895419
 20
-1.9895381955
 11
-12.447274108
 21
-4.7249779708
  0
LINE
  5
41F
100
AcDbEntity
  8
0
100
AcDbLine
 62
7
  6
CONTINUOUS
 10
-12.3850780598
 20
-4.8657935507
 11
-12.3679682538
 21
-4.8758614323
  0
LWPOLYLINE
  5
420
100
AcDbEntity
  8
ASSI
100
AcDbPolyline
 62
7
  6
CONTINUOUS
 90
24
 70
0
 10
-12.3850831796
 20
-4.8657906017
 10
-12.3651598444
 20
-4.8775139673
 10
-12.2908480559
 20
-4.9250230825
 10
-12.2152894061
 20
-4.9794180292
 10
-12.1389484643
 20
-5.0406925689
 10
-12.0625390892
 20
-5.108597777
 10
-11.9869389298
 20
-5.1825659638
 10
-11.9126862655
 20
-5.2622203132
 10
-11.8402473128
 20
-5.3472176522
 10
-11.7702928536
 20
-5.4368762076
 10
-11.703320942
 20
-5.5305999281
 10
-11.6396998977
 20
-5.6279228332
 10
-11.5798293818
 20
-5.7282751767
 10
-11.5240611725
 20
-5.8310597214
 10
-11.4727245361
 20
-5.9356623907
 10
-11.4261234871
 20
-6.0414492565
 10
-11.384466986
 20
-6.1478791101
 10
-11.3480119902
 20
-6.2542063862
 10
-11.3170249746
 20
-6.3594620069
 10
-11.2915683474
 20
-6.4630744447
 10
-11.2716927256
 20
-6.5643884122
 10
-11.2574526004
 20
-6.6623180299
 10
-11.2487074499
 20
-6.7560958766
 10
-11.2452277905
 20
-6.845315498
  0
LWPOLYLINE
  5
421
100
AcDbEntity
  8
0
100
AcDbPolyline
 62
7
  6
CONTINUOUS
 90
23
 70
0
 10
-12.3679682538
 20
-4.8758614323
 10
-12.2940929828
 20
-4.9228245937
 10
-12.218272086
 20
-4.9771538622
 10
-12.1416300521
 20
-5.0384305182
 10
-12.0648918179
 20
-5.1064059635
 10
-11.9889508423
 20
-5.1805066509
 10
-11.914352843
 20
-5.2603522057
 10
-11.841569947
 20
-5.3455968259
 10
-11.7712835142
 20
-5.4355503667
 10
-11.7039986447
 20
-5.5296090726
 10
-11.6400878039
 20
-5.6273020852
 10
-11.579955688
 20
-5.7280533198
 10
-11.5239586087
 20
-5.8312583358
 10
-11.4724299269
 20
-5.9362955178
 10
-11.4256770335
 20
-6.0425235235
 10
-11.3839108991
 20
-6.1493954427
 10
-11.3473919454
 20
-6.2561552875
 10
-11.3163896296
 20
-6.3618193775
 10
-11.2909654992
 20
-6.4658100766
 10
-11.2711696533
 20
-6.5674637986
 10
-11.2570545812
 20
-6.6656768419
 10
-11.2484740526
 20
-6.7596713943
 10
-11.2452246998
 20
-6.8481695166
  0
LINE
  5
422
100
AcDbEntity
  8
0
100
AcDbLine
 62
7
  6
CONTINUOUS
 10
-9.2292379905
 20
17.814692568
 11
-9.2292379905
 21
16.5448168711
  0
LINE
  5
423
100
AcDbEntity
  8
0
100
AcDbLine
 62
7
  6
CONTINUOUS
 10
-7.8857351063
 20
17.3410443463
 11
-7.8857351063
 21
16.5017716028
  0
LINE
  5
424
100
AcDbEntity
  8
0
100
AcDbLine
 62
250
  6
CONTINUOUS
 10
-7.3907603594
 20
12.410170698
 11
-7.3907603594
 21
12.400260624
  0
LINE
  5
425
100
AcDbEntity
  8
ASSI
100
AcDbLine
 62
250
  6
CONTINUOUS
 10
-8.2299312468
 20
-8.5541310687
 11
-8.2227605629
 21
-7.6791762024
  0
LINE
  5
426
100
AcDbEntity
  8
0
100
AcDbLine
 62
250
  6
CONTINUOUS
 10
-8.2299312468
 20
-8.5541310687
 11
-8.2227605629
 21
-7.6791762024
  0
LINE
  5
427
100
AcDbEntity
  8
ASSI
100
AcDbLine
 62
250
  6
CONTINUOUS
 10
-8.2338383092
 20
-8.556266735
 11
-8.2256093061
 21
-7.6807264658
  0
LINE
  5
428
100
AcDbEntity
  8
0
100
AcDbLine
 62
250
  6
CONTINUOUS
 10
-8.2338383092
 20
-8.556266735
 11
-8.2256093061
 21
-7.6807264658
  0
LINE
  5
429
100
AcDbEntity
  8
ASSI
100
AcDbLine
 62
250
  6
CONTINUOUS
 10
-8.7959104659
 20
-0.5531589662
 11
-8.7745974441
 21
0.3213350341
  0
LINE
  5
42A
100
AcDbEntity
  8
0
100
AcDbLine
 62
250
  6
CONTINUOUS
 10
-8.7959104659
 20
-0.5531589662
 11
-8.7745974441
 21
0.3213350341
  0
LINE
  5
42B
100
AcDbEntity
  8
ASSI
100
AcDbLine
 62
250
  6
CONTINUOUS
 10
-8.1138368473
 20
-1.3342806388
 11
-8.0924587949
 21
-0.4571349207
  0
LINE
  5
42C
100
AcDbEntity
  8
0
100
AcDbLine
 62
250
  6
CONTINUOUS
 10
-8.1138368473
 20
-1.3342806388
 11
-8.0924587949
 21
-0.4571349207
  0
LINE
  5
42D
100
AcDbEntity
  8
ASSI
100
AcDbLine
 62
250
  6
CONTINUOUS
 10
-8.117636262
 20
-1.3362817505
 11
-8.0960824541
 21
-0.4590347269
  0
LINE
  5
42E
100
AcDbEntity
  8
0
100
AcDbLine
 62
250
  6
CONTINUOUS
 10
-8.117636262
 20
-1.3362817505
 11
-8.0960824541
 21
-0.4590347269
  0
LINE
  5
42F
100
AcDbEntity
  8
ASSI
100
AcDbLine
 62
250
  6
CONTINUOUS
 10
-8.7996455208
 20
-0.5551185442
 11
-8.7767525693
 21
0.3202094579
  0
LINE
  5
430
100
AcDbEntity
  8
0
100
AcDbLine
 62
250
  6
CONTINUOUS
 10
-8.7996455208
 20
-0.5551185442
 11
-8.7767525693
 21
0.3202094579
  0
LINE
  5
431
100
AcDbEntity
  8
ASSI
100
AcDbLine
 62
250
  6
CONTINUOUS
 10
-7.9581830773
 20
6.0031791302
 11
-2.1225457149
 21
9.6040696316
  0
LINE
  5
432
100
AcDbEntity
  8
0
100
AcDbLine
 62
250
  6
CONTINUOUS
 10
-7.9581830773
 20
6.0031791302
 11
-2.1225457149
 21
9.6040696316
  0
LINE
  5
433
100
AcDbEntity
  8
ASSI
100
AcDbLine
 62
250
  6
CONTINUOUS
 10
-7.5923503373
 20
5.3985182919
 11
-1.769261449
 21
8.9916657348
  0
LINE
  5
434
100
AcDbEntity
  8
0
100
AcDbLine
 62
250
  6
CONTINUOUS
 10
-7.5923503373
 20
5.3985182919
 11
-1.769261449
 21
8.9916657348
  0
LINE
  5
435
100
AcDbEntity
  8
0
100
AcDbLine
 62
7
  6
CONTINUOUS
 10
2.5750573825
 20
12.6904106904
 11
2.4312568816
 21
12.6091272216
  0
LINE
  5
436
100
AcDbEntity
  8
0
100
AcDbLine
 62
250
  6
CONTINUOUS
 10
-7.107917647
 20
12.410170698
 11
-7.107917647
 21
12.400260624
  0
LINE
  5
437
100
AcDbEntity
  8
0
100
AcDbLine
 62
7
  6
CONTINUOUS
 10
-6.542232222
 20
12.4009071864
 11
-6.542232222
 21
12.7367903727
  0
LINE
  5
438
100
AcDbEntity
  8
IMPORT_IGES
100
AcDbLine
 62
7
  6
CONTINUOUS
 10
-16.4950413981
 20
-2.4927522943
 11
-16.6624990093
 21
-2.5894402203
  0
LINE
  5
439
100
AcDbEntity
  8
IMPORT_IGES
100
AcDbLine
 62
7
  6
CONTINUOUS
 10
-16.442061348
 20
-2.5233423112
 11
-16.6624990093
 21
-2.6506202541
  0
LINE
  5
43A
100
AcDbEntity
  8
IMPORT_IGES
100
AcDbLine
 62
7
  6
CONTINUOUS
 10
-16.12070068
 20
-3.5217890097
 11
-15.4167565153
 21
-3.1153404715
  0
LINE
  5
43B
100
AcDbEntity
  8
ASSI
100
AcDbLine
 62
250
  6
CONTINUOUS
 10
-18.0860710392
 20
-2.7577604294
 11
-17.043175719
 21
-2.1762664071
  0
LINE
  5
43C
100
AcDbEntity
  8
0
100
AcDbLine
 62
250
  6
CONTINUOUS
 10
-18.0860710392
 20
-2.7577604294
 11
-17.043175719
 21
-2.1762664071
  0
LINE
  5
43D
100
AcDbEntity
  8
ASSI
100
AcDbLine
 62
250
  6
CONTINUOUS
 10
-18.0921615069
 20
-3.4959795807
 11
-16.6624990093
 21
-2.6988332324
  0
LINE
  5
43E
100
AcDbEntity
  8
0
100
AcDbLine
 62
250
  6
CONTINUOUS
 10
-18.0921615069
 20
-3.4959795807
 11
-16.6624990093
 21
-2.6988332324
  0
LINE
  5
43F
100
AcDbEntity
  8
0
100
AcDbLine
 62
7
  6
CONTINUOUS
 10
-17.745305996
 20
-2.0383820179
 11
-17.7451668541
 21
-2.0383055702
  0
LINE
  5
440
100
AcDbEntity
  8
ASSI
100
AcDbLine
 62
7
  6
CONTINUOUS
 10
-17.7452938569
 20
-2.0383753463
 11
-17.7451668541
 21
-2.0383055702
  0
LWPOLYLINE
  5
441
100
AcDbEntity
  8
0
100
AcDbPolyline
 62
7
  6
CONTINUOUS
 90
12
 70
0
 10
-17.7453227451
 20
-2.0384030902
 10
-17.7092836019
 20
-2.0212987147
 10
-17.6670603313
 20
-2.0072839983
 10
-17.6212702223
 20
-1.9980772152
 10
-17.5719309942
 20
-1.9938526907
 10
-17.5192299708
 20
-1.9948094287
 10
-17.4635091248
 20
-2.001098474
 10
-17.4050644242
 20
-2.0128072517
 10
-17.3445425662
 20
-2.0299017068
 10
-17.2828811194
 20
-2.052100537
 10
-17.220740775
 20
-2.0790294608
 10
-17.1590816602
 20
-2.1100863188
  0
LWPOLYLINE
  5
442
100
AcDbEntity
  8
ASSI
100
AcDbPolyline
 62
7
  6
CONTINUOUS
 90
12
 70
0
 10
-17.7453105811
 20
-2.0383964059
 10
-17.7091742809
 20
-2.0212545764
 10
-17.6670509547
 20
-2.0072815244
 10
-17.6213806013
 20
-1.9980928838
 10
-17.5721811118
 20
-1.9938609193
 10
-17.5196382785
 20
-1.9947824386
 10
-17.4640910636
 20
-2.0010072097
 10
-17.4058327526
 20
-2.0126217735
 10
-17.3455051893
 20
-2.0295924385
 10
-17.2840388175
 20
-2.0516414338
 10
-17.2220897588
 20
-2.0783979274
 10
-17.1600516993
 20
-2.109546138
  0
LINE
  5
443
100
AcDbEntity
  8
0
100
AcDbLine
 62
250
  6
CONTINUOUS
 10
6.7424588188
 20
-14.8843375663
 11
6.0175821557
 21
-14.2482744065
  0
LINE
  5
444
100
AcDbEntity
  8
0
100
AcDbLine
 62
7
  6
CONTINUOUS
 10
-3.5016730629
 20
14.8097418677
 11
-3.5016730629
 21
13.9704691242
  0
LINE
  5
445
100
AcDbEntity
  8
ASSI
100
AcDbLine
 62
7
  6
CONTINUOUS
 10
23.9370134482
 20
18.4492628384
 11
19.2693613421
 21
15.6105936553
  0
LINE
  5
446
100
AcDbEntity
  8
0
100
AcDbLine
 62
7
  6
CONTINUOUS
 10
18.0754575063
 20
14.1461107306
 11
6.7424588188
 21
7.2849975865
  0
LINE
  5
447
100
AcDbEntity
  8
ASSI
100
AcDbLine
 62
250
  6
CONTINUOUS
 10
-17.0070294493
 20
-5.3957384696
 11
-15.5931990212
 21
-4.5509151384
  0
LINE
  5
448
100
AcDbEntity
  8
0
100
AcDbLine
 62
250
  6
CONTINUOUS
 10
-17.0070294493
 20
-5.3957384696
 11
-15.5931990212
 21
-4.5509151384
  0
LINE
  5
449
100
AcDbEntity
  8
IMPORT_IGES
100
AcDbLine
 62
7
  6
CONTINUOUS
 10
-14.5650657614
 20
-3.8074668057
 11
-15.7149982393
 21
-4.4714234065
  0
LINE
  5
44A
100
AcDbEntity
  8
IMPORT_IGES
100
AcDbLine
 62
7
  6
CONTINUOUS
 10
-15.4932476319
 20
-4.6086258179
 11
-14.1618623437
 21
-3.8399006387
  0
LINE
  5
44B
100
AcDbEntity
  8
0
100
AcDbLine
 62
7
  6
CONTINUOUS
 10
17.1992595822
 20
12.8260735443
 11
6.0802869767
 21
6.4061071915
  0
LINE
  5
44C
100
AcDbEntity
  8
0
100
AcDbLine
 62
250
  6
CONTINUOUS
 10
6.7424588188
 20
-10.8019861823
 11
6.0175821557
 21
-10.1659230225
  0
LINE
  5
44D
100
AcDbEntity
  8
ASSI
100
AcDbLine
 62
7
  6
CONTINUOUS
 10
-1.769261449
 20
8.9916657348
 11
-1.769261449
 21
-26.7693586869
  0
LINE
  5
44E
100
AcDbEntity
  8
0
100
AcDbLine
 62
7
  6
CONTINUOUS
 10
-1.769261449
 20
8.9916657348
 11
-1.769261449
 21
-26.7693586869
  0
LINE
  5
44F
100
AcDbEntity
  8
ASSI
100
AcDbLine
 62
7
  6
CONTINUOUS
 10
-11.4523190577
 20
-8.1788945401
 11
-11.4844261026
 21
-8.201046707
  0
LINE
  5
450
100
AcDbEntity
  8
0
100
AcDbLine
 62
7
  6
CONTINUOUS
 10
-11.4524401631
 20
-8.1789891209
 11
-11.484436982
 21
-8.2010532924
  0
LINE
  5
451
100
AcDbEntity
  8
ASSI
100
AcDbLine
 62
7
  6
CONTINUOUS
 10
23.9370134482
 20
14.3669114545
 11
19.2693613421
 21
11.5282422714
  0
LINE
  5
452
100
AcDbEntity
  8
0
100
AcDbLine
 62
7
  6
CONTINUOUS
 10
18.0754575063
 20
12.2183564704
 11
6.7424588188
 21
5.5274193536
  0
LINE
  5
453
100
AcDbEntity
  8
ASSI
100
AcDbLine
 62
7
  6
CONTINUOUS
 10
23.9370134482
 20
14.9244790411
 11
19.2693613421
 21
12.1815490653
  0
LINE
  5
454
100
AcDbEntity
  8
0
100
AcDbLine
 62
7
  6
CONTINUOUS
 10
18.5193363066
 20
12.6146041207
 11
23.2284523563
 21
15.3335933352
  0
LINE
  5
455
100
AcDbEntity
  8
ASSI
100
AcDbLine
 62
250
  6
CONTINUOUS
 10
-18.0921615069
 20
-10.4359769335
 11
-17.0737153981
 21
-9.8681152193
  0
LINE
  5
456
100
AcDbEntity
  8
0
100
AcDbLine
 62
250
  6
CONTINUOUS
 10
-18.0921615069
 20
-10.4359769335
 11
-17.0737153981
 21
-9.8681152193
  0
LINE
  5
457
100
AcDbEntity
  8
0
100
AcDbLine
 62
7
  6
CONTINUOUS
 10
-17.7691420836
 20
-9.7262940739
 11
-17.7690137467
 21
-9.7262235636
  0
LINE
  5
458
100
AcDbEntity
  8
ASSI
100
AcDbLine
 62
7
  6
CONTINUOUS
 10
-17.769131037
 20
-9.7262880028
 11
-17.7690137467
 21
-9.7262235636
  0
LINE
  5
459
100
AcDbEntity
  8
0
100
AcDbLine
 62
250
  6
CONTINUOUS
 10
11.5625298035
 20
1.7120490256
 11
11.8425440888
 21
1.7870918342
  0
LINE
  5
45A
100
AcDbEntity
  8
ASSI
100
AcDbLine
 62
250
  6
CONTINUOUS
 10
-23.4834996755
 20
13.4131801491
 11
-8.6335005779
 21
4.8389767843
  0
LINE
  5
45B
100
AcDbEntity
  8
0
100
AcDbLine
 62
250
  6
CONTINUOUS
 10
-23.4834996755
 20
13.4131801491
 11
-8.6335005779
 21
4.8389767843
  0
LINE
  5
45C
100
AcDbEntity
  8
0
100
AcDbLine
 62
250
  6
CONTINUOUS
 10
6.7424588188
 20
-6.7196347983
 11
6.0175821557
 21
-6.0835716385
  0
LINE
  5
45D
100
AcDbEntity
  8
ASSI
100
AcDbLine
 62
7
  6
CONTINUOUS
 10
-11.4842393729
 20
-8.2009431747
 11
-11.4844791901
 21
-8.2010884762
  0
LINE
  5
45E
100
AcDbEntity
  8
0
100
AcDbLine
 62
7
  6
CONTINUOUS
 10
-11.4842393729
 20
-8.2009431747
 11
-11.4844900582
 21
-8.2010950568
  0
LINE
  5
45F
100
AcDbEntity
  8
0
100
AcDbLine
 62
7
  6
CONTINUOUS
 10
18.0754575063
 20
10.0637593466
 11
6.7424588188
 21
3.2026462025
  0
LINE
  5
460
100
AcDbEntity
  8
ASSI
100
AcDbLine
 62
250
  6
CONTINUOUS
 10
-12.2694140154
 20
-8.1311782449
 11
-11.2504205479
 21
-7.5222866561
  0
LINE
  5
461
100
AcDbEntity
  8
0
100
AcDbLine
 62
250
  6
CONTINUOUS
 10
-12.2694140154
 20
-8.1311782449
 11
-11.2504205479
 21
-7.5222866561
  0
LINE
  5
462
100
AcDbEntity
  8
ASSI
100
AcDbLine
 62
250
  6
CONTINUOUS
 10
-16.9764805151
 20
-13.0523047944
 11
-15.5931990212
 21
-12.2257357403
  0
LINE
  5
463
100
AcDbEntity
  8
0
100
AcDbLine
 62
250
  6
CONTINUOUS
 10
-16.9764805151
 20
-13.0523047944
 11
-15.5931990212
 21
-12.2257357403
  0
LINE
  5
464
100
AcDbEntity
  8
0
100
AcDbLine
 62
7
  6
CONTINUOUS
 10
18.0754575063
 20
8.1360050865
 11
6.7424588188
 21
1.4450679696
  0
LINE
  5
465
100
AcDbEntity
  8
ASSI
100
AcDbLine
 62
7
  6
CONTINUOUS
 10
19.2693613421
 20
8.0991976813
 11
23.9370134482
 21
10.8421276571
  0
LINE
  5
466
100
AcDbEntity
  8
0
100
AcDbLine
 62
7
  6
CONTINUOUS
 10
17.1992595822
 20
8.7437221603
 11
6.0802869767
 21
2.3237558075
  0
LINE
  5
467
100
AcDbEntity
  8
0
100
AcDbLine
 62
7
  6
CONTINUOUS
 10
18.5193363066
 20
8.5322527368
 11
23.2284523563
 21
11.2512419512
  0
LINE
  5
468
100
AcDbEntity
  8
ASSI
100
AcDbLine
 62
250
  6
CONTINUOUS
 10
-18.0860710392
 20
-11.1674042803
 11
-16.6624990093
 21
-10.3736538342
  0
LINE
  5
469
100
AcDbEntity
  8
0
100
AcDbLine
 62
250
  6
CONTINUOUS
 10
-18.0860710392
 20
-11.1674042803
 11
-16.6624990093
 21
-10.3736538342
  0
LWPOLYLINE
  5
46A
100
AcDbEntity
  8
0
100
AcDbPolyline
 62
7
  6
CONTINUOUS
 90
12
 70
0
 10
-17.7691668433
 20
-9.7263195704
 10
-17.7353857719
 20
-9.7102951773
 10
-17.6954945718
 20
-9.6970660689
 10
-17.6518876373
 20
-9.6882948134
 10
-17.604546144
 20
-9.6842038517
 10
-17.5536661187
 20
-9.6850378409
 10
-17.4996361409
 20
-9.6909789109
 10
-17.4427547631
 20
-9.7021326972
 10
-17.3836586647
 20
-9.718482879
 10
-17.3233026809
 20
-9.7397649576
 10
-17.2623460749
 20
-9.7656219653
 10
-17.2015008044
 20
-9.7955906761
  0
LWPOLYLINE
  5
46B
100
AcDbEntity
  8
ASSI
100
AcDbPolyline
 62
7
  6
CONTINUOUS
 90
12
 70
0
 10
-17.7691557725
 20
-9.726313487
 10
-17.7352463253
 20
-9.7102389098
 10
-17.6954034917
 20
-9.6970420006
 10
-17.6518562011
 20
-9.6882903421
 10
-17.6045859499
 20
-9.684205205
 10
-17.5537883852
 20
-9.6850300148
 10
-17.4998511955
 20
-9.6909458915
 10
-17.443071843
 20
-9.7020576411
 10
-17.38408401
 20
-9.7183488894
 10
-17.3238383037
 20
-9.7395567755
 10
-17.2629911551
 20
-9.7653262478
 10
-17.201923517
 20
-9.795357654
  0
LINE
  5
46C
100
AcDbEntity
  8
ASSI
100
AcDbLine
 62
250
  6
CONTINUOUS
 10
-22.8198678982
 20
14.5841296852
 11
-7.9581830773
 21
6.0031791302
  0
LINE
  5
46D
100
AcDbEntity
  8
0
100
AcDbLine
 62
250
  6
CONTINUOUS
 10
-22.8198678982
 20
14.5841296852
 11
-7.9581830773
 21
6.0031791302
  0
LINE
  5
46E
100
AcDbEntity
  8
0
100
AcDbLine
 62
250
  6
CONTINUOUS
 10
6.7424588188
 20
-2.6372834144
 11
6.0175821557
 21
-2.0012202546
  0
LINE
  5
46F
100
AcDbEntity
  8
0
100
AcDbLine
 62
250
  6
CONTINUOUS
 10
-7.1707433214
 20
12.5821992921
 11
-7.2015278096
 21
12.6236881777
  0
LINE
  5
470
100
AcDbEntity
  8
0
100
AcDbLine
 62
7
  6
CONTINUOUS
 10
-3.0541245182
 20
18.2693071378
 11
-2.8140213686
 21
17.1027683702
  0
LINE
  5
471
100
AcDbEntity
  8
0
100
AcDbLine
 62
7
  6
CONTINUOUS
 10
23.9370134482
 20
9.5300537912
 11
6.7424588188
 21
-0.8797051815
  0
LINE
  5
472
100
AcDbEntity
  8
0
100
AcDbLine
 62
7
  6
CONTINUOUS
 10
17.1194857318
 20
5.4026528875
 11
20.4013645683
 21
7.2975685961
  0
LINE
  5
473
100
AcDbEntity
  8
0
100
AcDbLine
 62
7
  6
CONTINUOUS
 10
14.3202462501
 20
3.6231130381
 11
20.4013645683
 21
7.1342745407
  0
LINE
  5
474
100
AcDbEntity
  8
0
100
AcDbLine
 62
7
  6
CONTINUOUS
 10
6.0802869767
 20
-1.7585955765
 11
23.2284523563
 21
8.142557044
  0
LINE
  5
475
100
AcDbEntity
  8
0
100
AcDbLine
 62
7
  6
CONTINUOUS
 10
11.5637620101
 20
-2.0431903756
 11
12.1107611536
 21
-2.3590208256
  0
LINE
  5
476
100
AcDbEntity
  8
0
100
AcDbLine
 62
7
  6
CONTINUOUS
 10
15.0151987642
 20
-4.0360067008
 11
15.6459503842
 21
-4.400194781
  0
LINE
  5
477
100
AcDbEntity
  8
0
100
AcDbLine
 62
7
  6
CONTINUOUS
 10
18.4666355182
 20
-6.0288230259
 11
19.1811396148
 21
-6.4413687364
  0
LINE
  5
478
100
AcDbEntity
  8
0
100
AcDbLine
 62
7
  6
CONTINUOUS
 10
-0.3671187497
 20
16.7178636832
 11
-0.1270156001
 21
15.5513249156
  0
LINE
  5
479
100
AcDbEntity
  8
0
100
AcDbLine
 62
7
  6
CONTINUOUS
 10
2.3198870188
 20
15.1664202285
 11
2.5599901684
 21
13.9998814609
  0
LINE
  5
47A
100
AcDbEntity
  8
ASSI
100
AcDbLine
 62
7
  6
CONTINUOUS
 10
-11.4313350053
 20
-15.8411033714
 11
-11.4615744258
 21
-15.8620134845
  0
LINE
  5
47B
100
AcDbEntity
  8
0
100
AcDbLine
 62
7
  6
CONTINUOUS
 10
-11.4314465994
 20
-15.8411909315
 11
-11.4615857591
 21
-15.8620203444
  0
LINE
  5
47C
100
AcDbEntity
  8
ASSI
100
AcDbLine
 62
7
  6
CONTINUOUS
 10
-11.4613968604
 20
-15.8619154946
 11
-11.4616341055
 21
-15.8620592344
  0
LINE
  5
47D
100
AcDbEntity
  8
0
100
AcDbLine
 62
7
  6
CONTINUOUS
 10
-11.4613968604
 20
-15.8619154946
 11
-11.4616454275
 21
-15.8620660896
  0
LINE
  5
47E
100
AcDbEntity
  8
0
100
AcDbLine
 62
7
  6
CONTINUOUS
 10
23.9370134482
 20
5.4477024073
 11
6.7424588188
 21
-4.9620565654
  0
LINE
  5
47F
100
AcDbEntity
  8
ASSI
100
AcDbLine
 62
250
  6
CONTINUOUS
 10
-12.2388650812
 20
-15.7877445697
 11
-11.2460176466
 21
-15.1944763387
  0
LINE
  5
480
100
AcDbEntity
  8
0
100
AcDbLine
 62
250
  6
CONTINUOUS
 10
-12.2388650812
 20
-15.7877445697
 11
-11.2460176466
 21
-15.1944763387
  0
LINE
  5
481
100
AcDbEntity
  8
0
100
AcDbLine
 62
7
  6
CONTINUOUS
 10
23.9370134482
 20
7.5142825525
 11
6.7424588188
 21
-2.6372834144
  0
LINE
  5
482
100
AcDbEntity
  8
IMPORT_IGES
100
AcDbLine
 62
7
  6
CONTINUOUS
 10
-11.8780599928
 20
-13.4211399669
 11
-12.5144560959
 21
-13.7885871009
  0
LINE
  5
483
100
AcDbEntity
  8
IMPORT_IGES
100
AcDbLine
 62
7
  6
CONTINUOUS
 10
-11.8780599928
 20
-14.1560342349
 11
-11.3877496865
 21
-13.8729352091
  0
LINE
  5
484
100
AcDbEntity
  8
0
100
AcDbLine
 62
7
  6
CONTINUOUS
 10
18.3257625372
 20
-2.852902197
 11
17.6315232536
 21
-2.4520571356
  0
LINE
  5
485
100
AcDbEntity
  8
0
100
AcDbLine
 62
7
  6
CONTINUOUS
 10
14.7905733066
 20
-0.8117282416
 11
14.1800864995
 21
-0.4592408104
  0
LINE
  5
486
100
AcDbEntity
  8
0
100
AcDbLine
 62
7
  6
CONTINUOUS
 10
-13.289904811
 20
15.738727403
 11
-7.3502078491
 21
12.3092208191
  0
LINE
  5
487
100
AcDbEntity
  8
0
100
AcDbLine
 62
250
  6
CONTINUOUS
 10
-13.3304573214
 20
15.829767208
 11
-7.3907603594
 21
12.400260624
  0
LINE
  5
488
100
AcDbEntity
  8
0
100
AcDbLine
 62
250
  6
CONTINUOUS
 10
-13.1434475925
 20
15.8742482062
 11
-7.5777347704
 21
12.6606753774
  0
LINE
  5
489
100
AcDbEntity
  8
ASSI
100
AcDbLine
 62
7
  6
CONTINUOUS
 10
-17.1844584035
 20
18.3006292478
 11
-13.3218148431
 21
16.0703872664
  0
LINE
  5
48A
100
AcDbEntity
  8
0
100
AcDbLine
 62
7
  6
CONTINUOUS
 10
-17.1844584035
 20
18.3006292478
 11
-13.3218148431
 21
16.0703872664
  0
LINE
  5
48B
100
AcDbEntity
  8
ASSI
100
AcDbLine
 62
7
  6
CONTINUOUS
 10
-6.6977649836
 20
12.2457438963
 11
-2.1225457149
 21
9.6040696316
  0
LINE
  5
48C
100
AcDbEntity
  8
0
100
AcDbLine
 62
7
  6
CONTINUOUS
 10
-6.6977649836
 20
12.2457438963
 11
-2.1225457149
 21
9.6040696316
  0
LINE
  5
48D
100
AcDbEntity
  8
0
100
AcDbLine
 62
250
  6
CONTINUOUS
 10
-13.0045334757
 20
16.1177698087
 11
-7.4387778002
 21
12.9041722369
  0
LINE
  5
48E
100
AcDbEntity
  8
0
100
AcDbLine
 62
7
  6
CONTINUOUS
 10
19.1022464767
 20
-2.4045693391
 11
18.3896114444
 21
-1.9931028028
  0
LINE
  5
48F
100
AcDbEntity
  8
0
100
AcDbLine
 62
7
  6
CONTINUOUS
 10
15.5670572462
 20
-0.3633953837
 11
14.9381746904
 21
-0.0002864777
  0
LINE
  5
490
100
AcDbEntity
  8
0
100
AcDbLine
 62
7
  6
CONTINUOUS
 10
12.0318680156
 20
1.6777785717
 11
11.8425440888
 21
1.7870918342
  0
LINE
  5
491
100
AcDbEntity
  8
0
100
AcDbLine
 62
7
  6
CONTINUOUS
 10
11.971166977
 20
2.2858081359
 11
12.528052199
 21
1.9642695881
  0
LINE
  5
492
100
AcDbEntity
  8
0
100
AcDbLine
 62
7
  6
CONTINUOUS
 10
15.422603731
 20
0.2929918107
 11
16.0632414296
 21
-0.0769043673
  0
LINE
  5
493
100
AcDbEntity
  8
0
100
AcDbLine
 62
7
  6
CONTINUOUS
 10
18.8740404851
 20
-1.6998245144
 11
19.5984306602
 21
-2.1180783228
  0
LINE
  5
494
100
AcDbEntity
  8
0
100
AcDbLine
 62
250
  6
CONTINUOUS
 10
-13.2916323396
 20
15.7397422386
 11
-13.289904811
 21
15.738727403
  0
LINE
  5
495
100
AcDbEntity
  8
0
100
AcDbLine
 62
250
  6
CONTINUOUS
 10
-7.1791946031
 20
12.2070221946
 11
-7.1761705547
 21
12.2052457092
  0
LINE
  5
496
100
AcDbEntity
  8
0
100
AcDbLine
 62
250
  6
CONTINUOUS
 10
-7.3502078491
 20
12.3092208191
 11
-7.1791946031
 21
12.2070221946
  0
LINE
  5
497
100
AcDbEntity
  8
0
100
AcDbLine
 62
250
  6
CONTINUOUS
 10
-7.107917647
 20
12.400260624
 11
-6.936904401
 21
12.2980619996
  0
LINE
  5
498
100
AcDbEntity
  8
0
100
AcDbLine
 62
250
  6
CONTINUOUS
 10
6.7424588188
 20
1.4450679696
 11
6.0175821557
 21
2.0811311294
  0
LINE
  5
499
100
AcDbEntity
  8
0
100
AcDbLine
 62
7
  6
CONTINUOUS
 10
9.7240521724
 20
4.4276237442
 11
9.7240521724
 21
5.0077332684
  0
LINE
  5
49A
100
AcDbEntity
  8
0
100
AcDbLine
 62
7
  6
CONTINUOUS
 10
9.7240521724
 20
8.5099751282
 11
9.7240521724
 21
9.0900846524
  0
LINE
  5
49B
100
AcDbEntity
  8
0
100
AcDbLine
 62
7
  6
CONTINUOUS
 10
9.8654735286
 20
4.5092788018
 11
9.8654735286
 21
5.0933512018
  0
LINE
  5
49C
100
AcDbEntity
  8
0
100
AcDbLine
 62
7
  6
CONTINUOUS
 10
9.8654735286
 20
8.5916301858
 11
9.8654735286
 21
9.1757025857
  0
LINE
  5
49D
100
AcDbEntity
  8
0
100
AcDbLine
 62
250
  6
CONTINUOUS
 10
10.0370372846
 20
23.403863938
 11
10.0370372846
 21
23.5027453996
  0
LINE
  5
49E
100
AcDbEntity
  8
0
100
AcDbLine
 62
7
  6
CONTINUOUS
 10
23.9370134482
 20
3.4319311685
 11
6.7424588188
 21
-6.7196347983
  0
LINE
  5
49F
100
AcDbEntity
  8
0
100
AcDbLine
 62
7
  6
CONTINUOUS
 10
6.0802869767
 20
-5.8409469604
 11
23.2284523563
 21
4.06020566
  0
LINE
  5
4A0
100
AcDbEntity
  8
0
100
AcDbLine
 62
7
  6
CONTINUOUS
 10
-6.8858468427
 20
13.252457309
 11
-12.4211572758
 21
16.4484761793
  0
LINE
  5
4A1
100
AcDbEntity
  8
IMPORT_IGES
100
AcDbLine
 62
7
  6
CONTINUOUS
 10
6.3558276449
 20
6.9231117276
 11
6.6657670295
 21
6.7441566114
  0
LINE
  5
4A2
100
AcDbEntity
  8
0
100
AcDbLine
 62
7
  6
CONTINUOUS
 10
-10.688242782
 20
16.9722785946
 11
-5.931755568
 21
14.22594249
  0
LINE
  5
4A3
100
AcDbEntity
  8
ASSI
100
AcDbLine
 62
7
  6
CONTINUOUS
 10
-9.7316679188
 20
16.4266383206
 11
-6.7469090749
 21
14.7032759719
  0
LINE
  5
4A4
100
AcDbEntity
  8
0
100
AcDbLine
 62
7
  6
CONTINUOUS
 10
-9.7316679188
 20
16.4266383206
 11
-6.7469090749
 21
14.7032759719
  0
LINE
  5
4A5
100
AcDbEntity
  8
0
100
AcDbLine
 62
7
  6
CONTINUOUS
 10
18.3257625372
 20
1.2294491869
 11
17.6315232536
 21
1.6302942484
  0
LINE
  5
4A6
100
AcDbEntity
  8
0
100
AcDbLine
 62
7
  6
CONTINUOUS
 10
14.7905733066
 20
3.2706231423
 11
14.1800864995
 21
3.6231105735
  0
LINE
  5
4A7
100
AcDbEntity
  8
0
100
AcDbLine
 62
7
  6
CONTINUOUS
 10
14.2485081319
 20
3.6645337285
 11
14.3202462501
 21
3.6231130381
  0
LINE
  5
4A8
100
AcDbEntity
  8
0
100
AcDbLine
 62
7
  6
CONTINUOUS
 10
-7.8857351063
 20
16.5017716028
 11
-4.9026379048
 21
14.7793686657
  0
LINE
  5
4A9
100
AcDbEntity
  8
0
100
AcDbLine
 62
7
  6
CONTINUOUS
 10
-3.5912900849
 20
14.0222128695
 11
-3.5016730629
 21
13.9704691242
  0
LINE
  5
4AA
100
AcDbEntity
  8
ASSI
100
AcDbLine
 62
7
  6
CONTINUOUS
 10
-9.9327695943
 20
16.9510507288
 11
-5.559637671
 21
14.4260554528
  0
LINE
  5
4AB
100
AcDbEntity
  8
0
100
AcDbLine
 62
7
  6
CONTINUOUS
 10
-9.9327695943
 20
16.9510507288
 11
-5.559637671
 21
14.4260554528
  0
LINE
  5
4AC
100
AcDbEntity
  8
0
100
AcDbLine
 62
250
  6
CONTINUOUS
 10
6.7424588188
 20
5.5274193536
 11
6.0175821557
 21
6.1634825134
  0
LINE
  5
4AD
100
AcDbEntity
  8
IMPORT_IGES
100
AcDbLine
 62
7
  6
CONTINUOUS
 10
11.5625298035
 20
1.4067881091
 11
11.5625298035
 21
2.0384150178
  0
LINE
  5
4AE
100
AcDbEntity
  8
0
100
AcDbLine
 62
7
  6
CONTINUOUS
 10
11.7039511597
 20
21.2886600721
 11
11.7039511597
 21
21.3650850163
  0
LINE
  5
4AF
100
AcDbEntity
  8
0
100
AcDbLine
 62
7
  6
CONTINUOUS
 10
11.7718334107
 20
21.4040949574
 11
11.7718334107
 21
21.3261756391
  0
LINE
  5
4B0
100
AcDbEntity
  8
0
100
AcDbLine
 62
7
  6
CONTINUOUS
 10
12.4435848528
 20
21.790130833
 11
12.4435848528
 21
21.6974234371
  0
LINE
  5
4B1
100
AcDbEntity
  8
0
100
AcDbLine
 62
7
  6
CONTINUOUS
 10
12.514295531
 20
21.8307661883
 11
12.514295531
 21
21.7365021527
  0
LINE
  5
4B2
100
AcDbEntity
  8
0
100
AcDbLine
 62
7
  6
CONTINUOUS
 10
12.7264275653
 20
21.9526722543
 11
12.7264275653
 21
21.8537382995
  0
LINE
  5
4B3
100
AcDbEntity
  8
0
100
AcDbLine
 62
7
  6
CONTINUOUS
 10
12.7264275653
 20
18.8570852975
 11
12.7264275653
 21
18.8316569432
  0
LINE
  5
4B4
100
AcDbEntity
  8
0
100
AcDbLine
 62
7
  6
CONTINUOUS
 10
23.9370134482
 20
1.3653510233
 11
6.7424588188
 21
-9.0444079494
  0
LINE
  5
4B5
100
AcDbEntity
  8
0
100
AcDbLine
 62
7
  6
CONTINUOUS
 10
23.9370134482
 20
-0.6504202155
 11
6.7424588188
 21
-10.8019861823
  0
LINE
  5
4B6
100
AcDbEntity
  8
0
100
AcDbLine
 62
7
  6
CONTINUOUS
 10
6.0802869767
 20
-9.9232983444
 11
23.2284523563
 21
-0.022145724
  0
LINE
  5
4B7
100
AcDbEntity
  8
CURVE
100
AcDbLine
 62
250
  6
CONTINUOUS
 10
-16.2466492925
 20
-22.6513507951
 11
-15.89584459
 21
-22.4488411825
  0
LINE
  5
4B8
100
AcDbEntity
  8
0
100
AcDbLine
 62
7
  6
CONTINUOUS
 10
-9.4086953806
 20
17.9183090159
 11
-9.2292379905
 21
17.814692568
  0
LINE
  5
4B9
100
AcDbEntity
  8
0
100
AcDbLine
 62
7
  6
CONTINUOUS
 10
-4.4209118785
 20
15.0384253334
 11
-4.2414544883
 21
14.9348088855
  0
LINE
  5
4BA
100
AcDbEntity
  8
0
100
AcDbLine
 62
7
  6
CONTINUOUS
 10
19.1022464767
 20
1.6777820449
 11
18.3896114444
 21
2.0892485811
  0
LINE
  5
4BB
100
AcDbEntity
  8
0
100
AcDbLine
 62
7
  6
CONTINUOUS
 10
15.5670572462
 20
3.7189560003
 11
15.0266488408
 21
4.0309810406
  0
LINE
  5
4BC
100
AcDbEntity
  8
0
100
AcDbLine
 62
7
  6
CONTINUOUS
 10
-7.8857351063
 20
17.3410443463
 11
-3.5016730629
 21
14.8097418677
  0
LINE
  5
4BD
100
AcDbEntity
  8
0
100
AcDbLine
 62
7
  6
CONTINUOUS
 10
-7.4243296266
 20
17.5233246955
 11
-3.1859745768
 21
15.0761516089
  0
LINE
  5
4BE
100
AcDbEntity
  8
0
100
AcDbLine
 62
7
  6
CONTINUOUS
 10
15.5228334464
 20
4.3174718132
 11
16.0632414296
 21
4.0054470166
  0
LINE
  5
4BF
100
AcDbEntity
  8
0
100
AcDbLine
 62
7
  6
CONTINUOUS
 10
18.8740404851
 20
2.3825268696
 11
19.5984306602
 21
1.9642730612
  0
LINE
  5
4C0
100
AcDbEntity
  8
0
100
AcDbLine
 62
7
  6
CONTINUOUS
 10
2.4312568816
 20
12.6091272216
 11
-8.8125153
 21
19.1011403617
  0
LINE
  5
4C1
100
AcDbEntity
  8
0
100
AcDbLine
 62
7
  6
CONTINUOUS
 10
23.9370134482
 20
-4.7327715994
 11
23.2284523563
 21
-4.1044971079
  0
LINE
  5
4C2
100
AcDbEntity
  8
0
100
AcDbLine
 62
7
  6
CONTINUOUS
 10
13.3274683293
 20
25.3936597312
 11
13.3274683293
 21
25.222342029
  0
LINE
  5
4C3
100
AcDbEntity
  8
0
100
AcDbLine
 62
7
  6
CONTINUOUS
 10
14.3202462501
 20
3.6231130381
 11
14.3202462501
 21
3.7079647179
  0
LINE
  5
4C4
100
AcDbEntity
  8
0
100
AcDbLine
 62
7
  6
CONTINUOUS
 10
15.4841440119
 20
20.3413735604
 11
15.4841440119
 21
20.4418641549
  0
LINE
  5
4C5
100
AcDbEntity
  8
0
100
AcDbLine
 62
250
  6
CONTINUOUS
 10
15.5930384563
 20
7.8163086348
 11
15.5930384563
 21
8.5608775019
  0
LINE
  5
4C6
100
AcDbEntity
  8
0
100
AcDbLine
 62
250
  6
CONTINUOUS
 10
15.5930384563
 20
11.8986600188
 11
15.5930384563
 21
12.6432288859
  0
LINE
  5
4C7
100
AcDbEntity
  8
0
100
AcDbLine
 62
7
  6
CONTINUOUS
 10
23.9370134482
 20
-2.7170003607
 11
6.7424588188
 21
-13.1267593334
  0
LINE
  5
4C8
100
AcDbEntity
  8
0
100
AcDbLine
 62
7
  6
CONTINUOUS
 10
19.0176073431
 20
-6.3469472523
 11
9.72899681
 21
-11.898926815
  0
LINE
  5
4C9
100
AcDbEntity
  8
0
100
AcDbLine
 62
7
  6
CONTINUOUS
 10
6.0802869767
 20
-14.0056497284
 11
23.2284523563
 21
-4.1044971079
  0
LINE
  5
4CA
100
AcDbEntity
  8
CURVE
100
AcDbLine
 62
250
  6
CONTINUOUS
 10
-15.1219192603
 20
-24.3115120521
 11
-14.947032283
 21
-24.2105547725
  0
LINE
  5
4CB
100
AcDbEntity
  8
0
100
AcDbLine
 62
7
  6
CONTINUOUS
 10
18.3257625372
 20
5.3118005709
 11
17.7853564788
 21
5.6238242561
  0
LINE
  5
4CC
100
AcDbEntity
  8
0
100
AcDbLine
 62
7
  6
CONTINUOUS
 10
19.1022464767
 20
5.7601334288
 11
18.561841079
 21
6.0721567326
  0
LINE
  5
4CD
100
AcDbEntity
  8
0
100
AcDbLine
 62
7
  6
CONTINUOUS
 10
19.0580256846
 20
6.3586475052
 11
19.5984306602
 21
6.0466244452
  0
LINE
  5
4CE
100
AcDbEntity
  8
0
100
AcDbLine
 62
7
  6
CONTINUOUS
 10
23.9370134482
 20
-0.6504202155
 11
23.2284523563
 21
-0.022145724
  0
LINE
  5
4CF
100
AcDbEntity
  8
0
100
AcDbLine
 62
7
  6
CONTINUOUS
 10
15.7101957438
 20
7.8839538994
 11
15.7101957438
 21
8.6318057203
  0
LINE
  5
4D0
100
AcDbEntity
  8
0
100
AcDbLine
 62
7
  6
CONTINUOUS
 10
15.7101957438
 20
11.9663052834
 11
15.7101957438
 21
12.7141571042
  0
LINE
  5
4D1
100
AcDbEntity
  8
0
100
AcDbLine
 62
7
  6
CONTINUOUS
 10
15.7316313854
 20
20.5840878985
 11
15.7316313854
 21
20.478149065
  0
LINE
  5
4D2
100
AcDbEntity
  8
0
100
AcDbLine
 62
7
  6
CONTINUOUS
 10
23.9370134482
 20
-4.7327715994
 11
6.7424588188
 21
-14.8843375663
  0
LINE
  5
4D3
100
AcDbEntity
  8
0
100
AcDbLine
 62
7
  6
CONTINUOUS
 10
-6.1694693711
 20
17.5749607221
 11
-7.4243296266
 21
17.5233246955
  0
LINE
  5
4D4
100
AcDbEntity
  8
0
100
AcDbLine
 62
250
  6
CONTINUOUS
 10
20.4013645683
 20
7.2975685961
 11
20.3236105645
 21
7.3424627834
  0
LINE
  5
4D5
100
AcDbEntity
  8
0
100
AcDbLine
 62
250
  6
CONTINUOUS
 10
19.2693613421
 20
8.0991976813
 11
18.5193363066
 21
8.5322527368
  0
LINE
  5
4D6
100
AcDbEntity
  8
IMPORT_IGES
100
AcDbLine
 62
7
  6
CONTINUOUS
 10
18.8177336235
 20
10.5838634329
 11
18.8177336235
 21
8.7045439009
  0
LINE
  5
4D7
100
AcDbEntity
  8
0
100
AcDbLine
 62
250
  6
CONTINUOUS
 10
20.4013645683
 20
7.1342745407
 11
20.4013645683
 21
7.2975685961
  0
LINE
  5
4D8
100
AcDbEntity
  8
0
100
AcDbLine
 62
7
  6
CONTINUOUS
 10
22.3999923232
 20
-8.2270897401
 11
-1.769261449
 21
-22.8797091868
  0
LINE
  5
4D9
100
AcDbEntity
  8
0
100
AcDbLine
 62
250
  6
CONTINUOUS
 10
23.6247059681
 20
-7.3388970903
 11
22.3348031248
 21
-8.1193471181
  0
LINE
  5
4DA
100
AcDbEntity
  8
0
100
AcDbLine
 62
7
  6
CONTINUOUS
 10
-13.3256931254
 20
16.2874942626
 11
-13.3432859605
 21
16.2828964053
  0
LINE
  5
4DB
100
AcDbEntity
  8
0
100
AcDbLine
 62
7
  6
CONTINUOUS
 10
-12.7133814876
 20
16.4268550075
 11
-12.701946222
 21
16.4290858739
  0
LINE
  5
4DC
100
AcDbEntity
  8
0
100
AcDbLine
 62
250
  6
CONTINUOUS
 10
20.1587462173
 20
9.4788290832
 11
18.8177336235
 21
10.253112948
  0
LINE
  5
4DD
100
AcDbEntity
  8
0
100
AcDbLine
 62
7
  6
CONTINUOUS
 10
20.2759114114
 20
9.546478913
 11
18.8177336235
 21
10.3884124924
  0
LINE
  5
4DE
100
AcDbEntity
  8
0
100
AcDbLine
 62
7
  6
CONTINUOUS
 10
18.8159482896
 20
10.5807713431
 11
20.1156934287
 21
9.8303147894
  0
LINE
  5
4DF
100
AcDbEntity
  8
0
100
AcDbLine
 62
250
  6
CONTINUOUS
 10
19.2693613421
 20
12.1815490653
 11
18.5193363066
 21
12.6146041207
  0
LINE
  5
4E0
100
AcDbEntity
  8
0
100
AcDbLine
 62
7
  6
CONTINUOUS
 10
23.9370134482
 20
3.4319311685
 11
23.2284523563
 21
4.06020566
  0
LINE
  5
4E1
100
AcDbEntity
  8
0
100
AcDbLine
 62
7
  6
CONTINUOUS
 10
14.3778718627
 20
28.0634081674
 11
14.7562005845
 21
26.2147103051
  0
LINE
  5
4E2
100
AcDbEntity
  8
0
100
AcDbLine
 62
7
  6
CONTINUOUS
 10
22.1770484256
 20
-4.7115655933
 11
22.1770484256
 21
-3.7825011591
  0
LINE
  5
4E3
100
AcDbEntity
  8
0
100
AcDbLine
 62
7
  6
CONTINUOUS
 10
22.1770484256
 20
-0.6292142093
 11
22.1770484256
 21
0.2998502249
  0
LINE
  5
4E4
100
AcDbEntity
  8
0
100
AcDbLine
 62
7
  6
CONTINUOUS
 10
22.1770484256
 20
3.4531371747
 11
22.1770484256
 21
4.3822016089
  0
LINE
  5
4E5
100
AcDbEntity
  8
0
100
AcDbLine
 62
7
  6
CONTINUOUS
 10
22.1770484256
 20
7.5354885586
 11
22.1770484256
 21
8.4645529928
  0
LINE
  5
4E6
100
AcDbEntity
  8
0
100
AcDbLine
 62
7
  6
CONTINUOUS
 10
22.1770484256
 20
10.6441734659
 11
22.1770484256
 21
13.2965749428
  0
LINE
  5
4E7
100
AcDbEntity
  8
0
100
AcDbLine
 62
7
  6
CONTINUOUS
 10
22.1770484256
 20
14.7265248498
 11
22.1770484256
 21
17.3789263268
  0
LINE
  5
4E8
100
AcDbEntity
  8
0
100
AcDbLine
 62
7
  6
CONTINUOUS
 10
23.2284523563
 20
18.0183458613
 11
23.2284523563
 21
15.3335933352
  0
LINE
  5
4E9
100
AcDbEntity
  8
0
100
AcDbLine
 62
7
  6
CONTINUOUS
 10
23.2284523563
 20
13.9359944773
 11
23.2284523563
 21
11.2512419512
  0
LINE
  5
4EA
100
AcDbEntity
  8
0
100
AcDbLine
 62
7
  6
CONTINUOUS
 10
23.2284523563
 20
-4.1044971079
 11
23.2284523563
 21
-3.1459704819
  0
LINE
  5
4EB
100
AcDbEntity
  8
0
100
AcDbLine
 62
7
  6
CONTINUOUS
 10
23.2284523563
 20
-0.022145724
 11
23.2284523563
 21
0.9363809021
  0
LINE
  5
4EC
100
AcDbEntity
  8
0
100
AcDbLine
 62
7
  6
CONTINUOUS
 10
23.2284523563
 20
4.06020566
 11
23.2284523563
 21
5.018732286
  0
LINE
  5
4ED
100
AcDbEntity
  8
0
100
AcDbLine
 62
7
  6
CONTINUOUS
 10
23.2284523563
 20
8.142557044
 11
23.2284523563
 21
9.10108367
  0
LINE
  5
4EE
100
AcDbEntity
  8
ASSI
100
AcDbLine
 62
250
  6
CONTINUOUS
 10
-1.769261449
 20
-26.7693586869
 11
-7.5923503373
 21
-29.6698474011
  0
LINE
  5
4EF
100
AcDbEntity
  8
0
100
AcDbLine
 62
250
  6
CONTINUOUS
 10
-1.769261449
 20
-26.7693586869
 11
-7.5923503373
 21
-29.6698474011
  0
LINE
  5
4F0
100
AcDbEntity
  8
ASSI
100
AcDbLine
 62
7
  6
CONTINUOUS
 10
-1.8818898845
 20
-27.0033781221
 11
-7.7167527296
 21
-29.9097314606
  0
LINE
  5
4F1
100
AcDbEntity
  8
0
100
AcDbLine
 62
7
  6
CONTINUOUS
 10
-1.8818898845
 20
-27.0033781221
 11
-7.7167527296
 21
-29.9097314606
  0
LINE
  5
4F2
100
AcDbEntity
  8
0
100
AcDbLine
 62
7
  6
CONTINUOUS
 10
23.9370134482
 20
10.8421276571
 11
23.2284523563
 21
11.2512419512
  0
LINE
  5
4F3
100
AcDbEntity
  8
IMPORT_IGES
100
AcDbLine
 62
7
  6
CONTINUOUS
 10
6.3897089601
 20
21.388144247
 11
6.373574003
 21
21.397460369
  0
LINE
  5
4F4
100
AcDbEntity
  8
0
100
AcDbLine
 62
7
  6
CONTINUOUS
 10
7.1885890654
 20
21.8658256503
 11
7.2206012038
 21
21.8473422428
  0
LINE
  5
4F5
100
AcDbEntity
  8
0
100
AcDbLine
 62
7
  6
CONTINUOUS
 10
9.8755948339
 20
20.3143821957
 11
9.9076069723
 21
20.2958987882
  0
LINE
  5
4F6
100
AcDbEntity
  8
0
100
AcDbLine
 62
7
  6
CONTINUOUS
 10
12.5626006024
 20
18.762938741
 11
12.5946127408
 21
18.7444553335
  0
LINE
  5
4F7
100
AcDbEntity
  8
0
100
AcDbLine
 62
7
  6
CONTINUOUS
 10
7.3303439187
 20
21.947288012
 11
7.3651175613
 21
21.9272101465
  0
LINE
  5
4F8
100
AcDbEntity
  8
0
100
AcDbLine
 62
7
  6
CONTINUOUS
 10
10.0173496872
 20
20.3958445573
 11
10.0521233298
 21
20.3757666919
  0
LINE
  5
4F9
100
AcDbEntity
  8
0
100
AcDbLine
 62
7
  6
CONTINUOUS
 10
12.7043554557
 20
18.8444011027
 11
12.7391290983
 21
18.8243232372
  0
LINE
  5
4FA
100
AcDbEntity
  8
0
100
AcDbLine
 62
7
  6
CONTINUOUS
 10
13.4261299543
 20
19.2039987229
 11
13.3782286922
 21
19.2316563113
  0
LINE
  5
4FB
100
AcDbEntity
  8
0
100
AcDbLine
 62
7
  6
CONTINUOUS
 10
23.9370134482
 20
7.5142825525
 11
23.2284523563
 21
8.142557044
  0
LINE
  5
4FC
100
AcDbEntity
  8
0
100
AcDbLine
 62
7
  6
CONTINUOUS
 10
17.0648776312
 20
26.5119647128
 11
17.443206353
 21
24.6632668504
  0
LINE
  5
4FD
100
AcDbEntity
  8
0
100
AcDbLine
 62
7
  6
CONTINUOUS
 10
23.9370134482
 20
-6.4957497129
 11
23.9370134482
 21
-4.7327715994
  0
LINE
  5
4FE
100
AcDbEntity
  8
0
100
AcDbLine
 62
7
  6
CONTINUOUS
 10
23.9370134482
 20
-2.7170003607
 11
23.9370134482
 21
-0.6504202155
  0
LINE
  5
4FF
100
AcDbEntity
  8
0
100
AcDbLine
 62
7
  6
CONTINUOUS
 10
23.9370134482
 20
1.3653510233
 11
23.9370134482
 21
3.4319311685
  0
LINE
  5
500
100
AcDbEntity
  8
0
100
AcDbLine
 62
7
  6
CONTINUOUS
 10
23.9370134482
 20
5.4477024073
 11
23.9370134482
 21
7.5142825525
  0
LINE
  5
501
100
AcDbEntity
  8
0
100
AcDbLine
 62
7
  6
CONTINUOUS
 10
23.9370134482
 20
9.5300537912
 11
23.9370134482
 21
10.8421276571
  0
LINE
  5
502
100
AcDbEntity
  8
ASSI
100
AcDbLine
 62
7
  6
CONTINUOUS
 10
23.9370134482
 20
14.3669114545
 11
23.9370134482
 21
14.9244790411
  0
LINE
  5
503
100
AcDbEntity
  8
ASSI
100
AcDbLine
 62
7
  6
CONTINUOUS
 10
23.9370134482
 20
18.4492628384
 11
23.9370134482
 21
19.4577346726
  0
LINE
  5
504
100
AcDbEntity
  8
0
100
AcDbLine
 62
7
  6
CONTINUOUS
 10
14.5830285044
 20
19.92401947
 11
14.6544002837
 21
19.8828102991
  0
LINE
  5
505
100
AcDbEntity
  8
0
100
AcDbLine
 62
7
  6
CONTINUOUS
 10
14.653905931
 20
19.9647506508
 11
14.7266584624
 21
19.922744251
  0
LINE
  5
506
100
AcDbEntity
  8
0
100
AcDbLine
 62
7
  6
CONTINUOUS
 10
14.8665793078
 20
20.0869678104
 11
14.9434748961
 21
20.0425692614
  0
LINE
  5
507
100
AcDbEntity
  8
0
100
AcDbLine
 62
7
  6
CONTINUOUS
 10
23.9370134482
 20
14.9244790411
 11
23.2284523563
 21
15.3335933352
  0
LINE
  5
508
100
AcDbEntity
  8
0
100
AcDbLine
 62
7
  6
CONTINUOUS
 10
19.7518833997
 20
24.9605212581
 11
20.1302121215
 21
23.1118233958
  0
LINE
  5
509
100
AcDbEntity
  8
0
100
AcDbLine
 62
7
  6
CONTINUOUS
 10
14.3516839781
 20
22.7519468134
 11
14.234751783
 21
22.8194619974
  0
LINE
  5
50A
100
AcDbEntity
  8
0
100
AcDbLine
 62
7
  6
CONTINUOUS
 10
14.9657842283
 20
23.0913333058
 11
14.8371174418
 21
23.1656238958
  0
LINE
  5
50B
100
AcDbEntity
  8
0
100
AcDbLine
 62
7
  6
CONTINUOUS
 10
19.235232938
 20
22.4144372219
 11
19.076327894
 21
22.5061870027
  0
LINE
  5
50C
100
AcDbEntity
  8
0
100
AcDbLine
 62
7
  6
CONTINUOUS
 10
16.5482271695
 20
23.9658806765
 11
16.3893221255
 21
24.0576304573
  0
LINE
  5
50D
100
AcDbEntity
  8
0
100
AcDbLine
 62
7
  6
CONTINUOUS
 10
13.8612214009
 20
25.5173241312
 11
13.702316357
 21
25.609073912
  0
LINE
  5
50E
100
AcDbEntity
  8
0
100
AcDbLine
 62
7
  6
CONTINUOUS
 10
20.3096477197
 20
23.0082195302
 11
20.1302121215
 21
23.1118233958
  0
LINE
  5
50F
100
AcDbEntity
  8
0
100
AcDbLine
 62
7
  6
CONTINUOUS
 10
17.6226419512
 20
24.5596629849
 11
17.443206353
 21
24.6632668504
  0
LINE
  5
510
100
AcDbEntity
  8
0
100
AcDbLine
 62
7
  6
CONTINUOUS
 10
14.9356361827
 20
26.1111064395
 11
14.7562005845
 21
26.2147103051
  0
LINE
  5
511
100
AcDbEntity
  8
0
100
AcDbLine
 62
7
  6
CONTINUOUS
 10
11.0258153819
 20
29.9988435683
 11
14.3778718627
 21
28.0634081674
  0
LINE
  5
512
100
AcDbEntity
  8
0
100
AcDbLine
 62
7
  6
CONTINUOUS
 10
16.3782841269
 20
26.9083951971
 11
17.0648776312
 21
26.5119647128
  0
LINE
  5
513
100
AcDbEntity
  8
0
100
AcDbLine
 62
7
  6
CONTINUOUS
 10
19.0652898954
 20
25.3569517425
 11
19.7518833997
 21
24.9605212581
  0
LINE
  5
514
100
AcDbEntity
  8
0
100
AcDbLine
 62
7
  6
CONTINUOUS
 10
21.7522956639
 20
23.8055082878
 11
21.9930823075
 21
23.6664810976
  0
ARC
  5
515
100
AcDbEntity
  8
0
100
AcDbCircle
 62
7
  6
CONTINUOUS
 10
-42.1998576494
 20
-13.9143375877
 40
47.7726935358
100
AcDbArc
 50
32.5296236057
 51
35.2870603591
  0
ARC
  5
516
100
AcDbEntity
  8
0
100
AcDbCircle
 62
7
  6
CONTINUOUS
 10
-44.6751724217
 20
-15.2953137638
 40
47.3794655601
100
AcDbArc
 50
34.7193194164
 51
35.2461842875
  0
ARC
  5
517
100
AcDbEntity
  8
0
100
AcDbCircle
 62
7
  6
CONTINUOUS
 10
-18.7224900547
 20
-0.3866189556
 40
47.2896336943
100
AcDbArc
 50
26.4291008581
 51
30.5728621343
  0
ARC
  5
518
100
AcDbEntity
  8
0
100
AcDbCircle
 62
7
  6
CONTINUOUS
 10
-44.1453663612
 20
-14.9135943798
 40
46.7264533648
100
AcDbArc
 50
36.3313394488
 51
36.5434158577
  0
ARC
  5
519
100
AcDbEntity
  8
0
100
AcDbCircle
 62
7
  6
CONTINUOUS
 10
-41.2405116187
 20
-13.2351324618
 40
46.5972106683
100
AcDbArc
 50
36.2832730419
 51
36.6386100102
  0
ARC
  5
51A
100
AcDbEntity
  8
0
100
AcDbCircle
 62
250
  6
CONTINUOUS
 10
-44.5663547904
 20
-15.1327656183
 40
46.5462245798
100
AcDbArc
 50
36.6068032558
 51
36.9307533658
  0
ARC
  5
51B
100
AcDbEntity
  8
0
100
AcDbCircle
 62
7
  6
CONTINUOUS
 10
-43.9807063244
 20
-14.7912080109
 40
46.521291403
100
AcDbArc
 50
36.6651784599
 51
36.9620990578
  0
ARC
  5
51C
100
AcDbEntity
  8
0
100
AcDbCircle
 62
7
  6
CONTINUOUS
 10
-43.8718196394
 20
-14.7105559804
 40
46.3857888073
100
AcDbArc
 50
36.5431229988
 51
36.6655814266
  0
ARC
  5
51D
100
AcDbEntity
  8
0
100
AcDbCircle
 62
250
  6
CONTINUOUS
 10
-44.5334723176
 20
-15.1177808495
 40
46.2316900838
100
AcDbArc
 50
36.5436255894
 51
36.9310238763
  0
ARC
  5
51E
100
AcDbEntity
  8
0
100
AcDbCircle
 62
7
  6
CONTINUOUS
 10
17.5968363638
 20
-0.3156303504
 40
9.2553491382
100
AcDbArc
 50
301.2622009116
 51
310.6385518434
  0
ARC
  5
51F
100
AcDbEntity
  8
IMPORT_IGES
100
AcDbCircle
 62
7
  6
CONTINUOUS
 10
6.8457772541
 20
3.7989827945
 40
2.5875506976
100
AcDbArc
 50
15.6270657257
 51
21.0300294025
  0
ARC
  5
520
100
AcDbEntity
  8
ASSI
100
AcDbCircle
 62
250
  6
CONTINUOUS
 10
-13.3980356008
 20
-14.0134222985
 40
1.8387950446
100
AcDbArc
 50
55.9301278046
 51
59.9713309033
  0
ARC
  5
521
100
AcDbEntity
  8
0
100
AcDbCircle
 62
250
  6
CONTINUOUS
 10
-13.3980356008
 20
-14.0134222985
 40
1.8387950446
100
AcDbArc
 50
55.9301278046
 51
59.9713309033
  0
ARC
  5
522
100
AcDbEntity
  8
ASSI
100
AcDbCircle
 62
250
  6
CONTINUOUS
 10
-13.3505872925
 20
-6.2876842278
 40
1.8050001537
100
AcDbArc
 50
55.7650972641
 51
59.9701923289
  0
ARC
  5
523
100
AcDbEntity
  8
0
100
AcDbCircle
 62
250
  6
CONTINUOUS
 10
-13.3505872925
 20
-6.2876842278
 40
1.8050001537
100
AcDbArc
 50
55.7650972641
 51
59.9701923289
  0
ARC
  5
524
100
AcDbEntity
  8
ASSI
100
AcDbCircle
 62
250
  6
CONTINUOUS
 10
-23.4477874928
 20
-20.6989938981
 40
0.182236245
100
AcDbArc
 50
182.0898523035
 51
186.2295222254
  0
ARC
  5
525
100
AcDbEntity
  8
0
100
AcDbCircle
 62
250
  6
CONTINUOUS
 10
-23.4477874928
 20
-20.6989938981
 40
0.1822362451
100
AcDbArc
 50
182.0898528199
 51
186.2295222254
  0
ARC
  5
526
100
AcDbEntity
  8
IMPORT_IGES
100
AcDbCircle
 62
7
  6
CONTINUOUS
 10
-13.8830496799
 20
-13.1330800284
 40
0.1206903628
100
AcDbArc
 50
294.0849736647
 51
300.0553006901
  0
ARC
  5
527
100
AcDbEntity
  8
0
100
AcDbCircle
 62
7
  6
CONTINUOUS
 10
-362.0580038429
 20
619.6887634292
 40
704.2863030692
100
AcDbArc
 50
300.3702033161
 51
300.6323837543
  0
ARC
  5
528
100
AcDbEntity
  8
0
100
AcDbCircle
 62
250
  6
CONTINUOUS
 10
-11.2910414593
 20
5.313470376
 40
10.7220071284
100
AcDbArc
 50
99.948721837
 51
100.4518758433
  0
ARC
  5
529
100
AcDbEntity
  8
0
100
AcDbCircle
 62
250
  6
CONTINUOUS
 10
-11.2589260914
 20
5.7709205146
 40
10.5250092747
100
AcDbArc
 50
99.95987721
 51
100.3027723444
  0
ARC
  5
52A
100
AcDbEntity
  8
0
100
AcDbCircle
 62
7
  6
CONTINUOUS
 10
-10.6963921783
 20
6.1153222966
 40
10.5069501998
100
AcDbArc
 50
99.8752145205
 51
100.6758272945
  0
ARC
  5
52B
100
AcDbEntity
  8
0
100
AcDbCircle
 62
250
  6
CONTINUOUS
 10
-11.2706772477
 20
5.8351933803
 40
10.4596710279
100
AcDbArc
 50
100.3024081015
 51
101.0064457617
  0
ARC
  5
52C
100
AcDbEntity
  8
0
100
AcDbCircle
 62
7
  6
CONTINUOUS
 10
-10.7114388467
 20
6.1954949487
 40
10.425377827
100
AcDbArc
 50
100.6761895844
 51
101.0069843235
  0
ARC
  5
52D
100
AcDbEntity
  8
0
100
AcDbCircle
 62
7
  6
CONTINUOUS
 10
-10.72049997
 20
6.2415751041
 40
10.378415267
100
AcDbArc
 50
101.0707950979
 51
101.5847919782
  0
ARC
  5
52E
100
AcDbEntity
  8
0
100
AcDbCircle
 62
7
  6
CONTINUOUS
 10
-7.8672425365
 20
7.8254385534
 40
10.3641760642
100
AcDbArc
 50
100.7474819533
 51
101.7154373433
  0
ARC
  5
52F
100
AcDbEntity
  8
0
100
AcDbCircle
 62
250
  6
CONTINUOUS
 10
-11.3976090204
 20
5.9084227512
 40
10.1175945318
100
AcDbArc
 50
100.4696050665
 51
101.013385788
  0
ARC
  5
530
100
AcDbEntity
  8
0
100
AcDbCircle
 62
7
  6
CONTINUOUS
 10
-10.8182996297
 20
6.6563823958
 40
9.9521519253
100
AcDbArc
 50
104.6973139873
 51
106.0838392319
  0
ARC
  5
531
100
AcDbEntity
  8
0
100
AcDbCircle
 62
7
  6
CONTINUOUS
 10
-8.0135700159
 20
8.4186350857
 40
9.7530447763
100
AcDbArc
 50
104.439809844
 51
112.3868489487
  0
ARC
  5
532
100
AcDbEntity
  8
IMPORT_IGES
100
AcDbCircle
 62
7
  6
CONTINUOUS
 10
15.2040975439
 20
9.0185169116
 40
4.3357322289
100
AcDbArc
 50
62.3338225891
 51
63.2359993156
  0
ARC
  5
533
100
AcDbEntity
  8
IMPORT_IGES
100
AcDbCircle
 62
7
  6
CONTINUOUS
 10
15.2742007865
 20
9.1516183738
 40
4.1852982608
100
AcDbArc
 50
60.0161331512
 51
62.3377462386
  0
ARC
  5
534
100
AcDbEntity
  8
IMPORT_IGES
100
AcDbCircle
 62
7
  6
CONTINUOUS
 10
15.4037914924
 20
9.3767910133
 40
3.9254975877
100
AcDbArc
 50
56.283839272
 51
60.0110900647
  0
ARC
  5
535
100
AcDbEntity
  8
IMPORT_IGES
100
AcDbCircle
 62
250
  6
CONTINUOUS
 10
15.542411859
 20
10.3756100201
 40
2.6984094707
100
AcDbArc
 50
58.6464368786
 51
60.6307841661
  0
ARC
  5
536
100
AcDbEntity
  8
IMPORT_IGES
100
AcDbCircle
 62
7
  6
CONTINUOUS
 10
16.702953172
 20
10.581398077
 40
2.1147553974
100
AcDbArc
 50
0.0880504873
 51
14.2452128172
  0
ARC
  5
537
100
AcDbEntity
  8
0
100
AcDbCircle
 62
250
  6
CONTINUOUS
 10
-6.6562361139
 20
11.6777274661
 40
1.0388430842
100
AcDbArc
 50
129.279665653
 51
130.6364281956
  0
ARC
  5
538
100
AcDbEntity
  8
0
100
AcDbCircle
 62
250
  6
CONTINUOUS
 10
-6.7850832684
 20
11.9152724684
 40
0.7704057791
100
AcDbArc
 50
120.0392672092
 51
121.6999110726
  0
ARC
  5
539
100
AcDbEntity
  8
0
100
AcDbCircle
 62
7
  6
CONTINUOUS
 10
-12.7333543064
 20
16.7725007619
 40
0.7655694487
100
AcDbArc
 50
219.3105864485
 51
223.8990592925
  0
ARC
  5
53A
100
AcDbEntity
  8
0
100
AcDbCircle
 62
7
  6
CONTINUOUS
 10
-13.3522840535
 20
16.3373146598
 40
0.5522285463
100
AcDbArc
 50
3.9416074336
 51
7.4134052784
  0
ARC
  5
53B
100
AcDbEntity
  8
0
100
AcDbCircle
 62
250
  6
CONTINUOUS
 10
-6.8992391188
 20
12.6912259088
 40
0.4273810061
100
AcDbArc
 50
294.545133221
 51
299.1745893546
  0
ARC
  5
53C
100
AcDbEntity
  8
0
100
AcDbCircle
 62
250
  6
CONTINUOUS
 10
-13.1129667974
 20
15.9379969369
 40
0.2378602396
100
AcDbArc
 50
173.258282374
 51
179.4518026409
  0
ARC
  5
53D
100
AcDbEntity
  8
0
100
AcDbCircle
 62
250
  6
CONTINUOUS
 10
-13.1258820531
 20
15.939577086
 40
0.2248487937
100
AcDbArc
 50
166.7915532723
 51
173.2718009365
  0
ARC
  5
53E
100
AcDbEntity
  8
0
100
AcDbCircle
 62
7
  6
CONTINUOUS
 10
-13.1890359652
 20
15.9213322006
 40
0.2
100
AcDbArc
 50
119.8982859922
 51
179.9999999204
  0
ARC
  5
53F
100
AcDbEntity
  8
0
100
AcDbCircle
 62
7
  6
CONTINUOUS
 10
-13.1890359652
 20
15.9114221266
 40
0.2
100
AcDbArc
 50
179.8599417628
 51
239.1373443264
  0
ARC
  5
540
100
AcDbEntity
  8
0
100
AcDbCircle
 62
250
  6
CONTINUOUS
 10
-13.1977388804
 20
15.9817967349
 40
0.13944934
100
AcDbArc
 50
120.079782748
 51
128.9159590961
  0
ARC
  5
541
100
AcDbEntity
  8
0
100
AcDbCircle
 62
250
  6
CONTINUOUS
 10
-13.322077485
 20
15.9213607004
 40
0.0669584862
100
AcDbArc
 50
180.0243869725
 51
188.0259142772
  0
ARC
  5
542
100
AcDbEntity
  8
0
100
AcDbCircle
 62
7
  6
CONTINUOUS
 10
341.3277930233
 20
-609.3760271477
 40
712.7770141858
100
AcDbArc
 50
118.9490122537
 51
119.2087461805
  0
ARC
  5
543
100
AcDbEntity
  8
ASSI
100
AcDbCircle
 62
250
  6
CONTINUOUS
 10
478.9243366796
 20
-12.8790234962
 40
487.879669801
100
AcDbArc
 50
177.9187697718
 51
178.4497148093
  0
ARC
  5
544
100
AcDbEntity
  8
0
100
AcDbCircle
 62
250
  6
CONTINUOUS
 10
478.9243366796
 20
-12.8790234962
 40
487.879669801
100
AcDbArc
 50
177.9187697718
 51
178.4497148093
  0
ARC
  5
545
100
AcDbEntity
  8
ASSI
100
AcDbCircle
 62
250
  6
CONTINUOUS
 10
478.391693495
 20
-12.8585605621
 40
486.6457689006
100
AcDbArc
 50
177.9183603742
 51
178.5399700627
  0
ARC
  5
546
100
AcDbEntity
  8
0
100
AcDbCircle
 62
250
  6
CONTINUOUS
 10
478.391693495
 20
-12.8585605621
 40
486.6457689006
100
AcDbArc
 50
177.9183603742
 51
178.5399700627
  0
ARC
  5
547
100
AcDbEntity
  8
ASSI
100
AcDbCircle
 62
250
  6
CONTINUOUS
 10
466.4552292129
 20
-12.5828147626
 40
475.4070481539
100
AcDbArc
 50
178.5502743988
 51
179.5198212245
  0
ARC
  5
548
100
AcDbEntity
  8
0
100
AcDbCircle
 62
250
  6
CONTINUOUS
 10
466.4552292129
 20
-12.5828147626
 40
475.4070481539
100
AcDbArc
 50
178.5502743988
 51
179.5198212245
  0
ARC
  5
549
100
AcDbEntity
  8
ASSI
100
AcDbCircle
 62
250
  6
CONTINUOUS
 10
467.0522387105
 20
-12.5961097634
 40
475.3032650932
100
AcDbArc
 50
178.6425488135
 51
179.4074609654
  0
ARC
  5
54A
100
AcDbEntity
  8
0
100
AcDbCircle
 62
250
  6
CONTINUOUS
 10
467.0522387105
 20
-12.5961097634
 40
475.3032650932
100
AcDbArc
 50
178.6425488135
 51
179.4074609654
  0
SPLINE
  5
54B
100
AcDbEntity
  8
0
100
AcDbSpline
 62
7
  6
CONTINUOUS
 70
0
 71
3
 72
9
 73
5
 74
0
 42
0.0000001
 43
0.0000001
 44
0.0000000001
 40
0.0
 40
0.0
 40
0.0
 40
0.0
 40
0.4795964804
 40
1.0
 40
1.0
 40
1.0
 40
1.0
 10
20.4013645683
 20
7.2975685961
 30
0.0
 10
20.4312659401
 20
7.3148332734
 30
0.0
 10
20.4842139889
 20
7.3666788923
 30
0.0
 10
20.5184605351
 20
7.4314181606
 30
0.0
 10
20.5299058062
 20
7.4670926702
 30
0.0
  0
SPLINE
  5
54C
100
AcDbEntity
  8
IMPORT_IGES
100
AcDbSpline
 62
7
  6
CONTINUOUS
 70
0
 71
3
 72
9
 73
5
 74
0
 42
0.0000001
 43
0.0000001
 44
0.0000000001
 40
0.0
 40
0.0
 40
0.0
 40
0.0
 40
0.4750414318
 40
1.0
 40
1.0
 40
1.0
 40
1.0
 10
-11.29987461
 20
-6.4948801547
 30
0.0
 10
-11.2997834053
 20
-6.5043717255
 30
0.0
 10
-11.2950040717
 20
-6.5244424254
 30
0.0
 10
-11.2832826142
 20
-6.5411133929
 30
0.0
 10
-11.2761687994
 20
-6.5488219383
 30
0.0
  0
SPLINE
  5
54D
100
AcDbEntity
  8
IMPORT_IGES
100
AcDbSpline
 62
7
  6
CONTINUOUS
 70
0
 71
3
 72
9
 73
5
 74
0
 42
0.0000001
 43
0.0000001
 44
0.0000000001
 40
0.0
 40
0.0
 40
0.0
 40
0.0
 40
0.2595937701
 40
1.0
 40
1.0
 40
1.0
 40
1.0
 10
-11.2919208331
 20
-6.4625243707
 30
0.0
 10
-11.2932303008
 20
-6.4651102473
 30
0.0
 10
-11.2977746356
 20
-6.4753102483
 30
0.0
 10
-11.2999540451
 20
-6.4866134348
 30
0.0
 10
-11.29987461
 20
-6.4948801547
 30
0.0
  0
SPLINE
  5
54E
100
AcDbEntity
  8
ASSI
100
AcDbSpline
 62
7
  6
CONTINUOUS
 70
0
 71
3
 72
13
 73
9
 74
0
 42
0.0000001
 43
0.0000001
 44
0.0000000001
 40
0.0
 40
0.0
 40
0.0
 40
0.0
 40
0.1142258101
 40
0.2375599144
 40
0.5000060653
 40
0.7624488966
 40
0.885779122
 40
1.0
 40
1.0
 40
1.0
 40
1.0
 10
-15.5931990212
 20
-12.2257357403
 30
0.0
 10
-15.6663797872
 20
-12.1834820832
 30
0.0
 10
-15.8109777788
 20
-12.0820945156
 30
0.0
 10
-16.0817108533
 20
-11.8287450538
 30
0.0
 10
-16.3676546415
 20
-11.4381331001
 30
0.0
 10
-16.562962287
 20
-10.9951951751
 30
0.0
 10
-16.6469977103
 20
-10.6340666515
 30
0.0
 10
-16.6624990093
 20
-10.4581534166
 30
0.0
 10
-16.6624990093
 20
-10.3736538342
 30
0.0
  0
SPLINE
  5
54F
100
AcDbEntity
  8
ASSI
100
AcDbSpline
 62
7
  6
CONTINUOUS
 70
0
 71
3
 72
13
 73
9
 74
0
 42
0.0000001
 43
0.0000001
 44
0.0000000001
 40
0.0
 40
0.0
 40
0.0
 40
0.0
 40
0.1142258101
 40
0.2375599144
 40
0.5000060653
 40
0.7624488966
 40
0.885779122
 40
1.0
 40
1.0
 40
1.0
 40
1.0
 10
-15.5931990212
 20
-4.5509151384
 30
0.0
 10
-15.6663797872
 20
-4.5086614813
 30
0.0
 10
-15.8109777788
 20
-4.4072739138
 30
0.0
 10
-16.0817108533
 20
-4.153924452
 30
0.0
 10
-16.3676546415
 20
-3.7633124982
 30
0.0
 10
-16.562962287
 20
-3.3203745732
 30
0.0
 10
-16.6469977103
 20
-2.9592460496
 30
0.0
 10
-16.6624990093
 20
-2.7833328147
 30
0.0
 10
-16.6624990093
 20
-2.6988332324
 30
0.0
  0
SPLINE
  5
550
100
AcDbEntity
  8
ASSI
100
AcDbSpline
 62
250
  6
CONTINUOUS
 70
0
 71
3
 72
15
 73
11
 74
0
 42
0.0000001
 43
0.0000001
 44
0.0000000001
 40
0.0
 40
0.0
 40
0.0
 40
0.0
 40
0.143057667
 40
0.2723321572
 40
0.3899604746
 40
0.5008385072
 40
0.6115690375
 40
0.728800497
 40
0.8575300311
 40
1.0
 40
1.0
 40
1.0
 40
1.0
 10
-7.5923503373
 20
-29.6698474011
 30
0.0
 10
-7.6133652853
 20
-29.6803207729
 30
0.0
 10
-7.6550951501
 20
-29.6971293439
 30
0.0
 10
-7.7185812081
 20
-29.7086932577
 30
0.0
 10
-7.7779037957
 20
-29.7044753549
 30
0.0
 10
-7.8306742832
 20
-29.683985847
 30
0.0
 10
-7.8741429711
 20
-29.6478173822
 30
0.0
 10
-7.9064287078
 20
-29.5980730439
 30
0.0
 10
-7.9267902317
 20
-29.5370950619
 30
0.0
 10
-7.9320497781
 20
-29.4925992447
 30
0.0
 10
-7.9329305184
 20
-29.4692321015
 30
0.0
  0
SPLINE
  5
551
100
AcDbEntity
  8
ASSI
100
AcDbSpline
 62
250
  6
CONTINUOUS
 70
0
 71
3
 72
9
 73
5
 74
0
 42
0.0000001
 43
0.0000001
 44
0.0000000001
 40
0.0
 40
0.0
 40
0.0
 40
0.0
 40
0.2475900349
 40
1.0
 40
1.0
 40
1.0
 40
1.0
 10
-8.6335005779
 20
-29.4826808913
 30
0.0
 10
-8.6987112762
 20
-27.7600862397
 30
0.0
 10
-8.9207240076
 20
-20.8011210944
 30
0.0
 10
-8.9789210076
 20
-13.8370365915
 30
0.0
 10
-8.93512366
 20
-8.5986172538
 30
0.0
  0
SPLINE
  5
552
100
AcDbEntity
  8
ASSI
100
AcDbSpline
 62
250
  6
CONTINUOUS
 70
0
 71
3
 72
9
 73
5
 74
0
 42
0.0000001
 43
0.0000001
 44
0.0000000001
 40
0.0
 40
0.0
 40
0.0
 40
0.0
 40
0.2475845608
 40
1.0
 40
1.0
 40
1.0
 40
1.0
 10
-7.9329305184
 20
-29.4692321015
 30
0.0
 10
-7.9982310122
 20
-27.7442926497
 30
0.0
 10
-8.2204566844
 20
-20.7756973259
 30
0.0
 10
-8.2782537635
 20
-13.8019661969
 30
0.0
 10
-8.2338383092
 20
-8.556266735
 30
0.0
  0
SPLINE
  5
553
100
AcDbEntity
  8
ASSI
100
AcDbSpline
 62
250
  6
CONTINUOUS
 70
0
 71
3
 72
11
 73
7
 74
0
 42
0.0000001
 43
0.0000001
 44
0.0000000001
 40
0.0
 40
0.0
 40
0.0
 40
0.0
 40
0.2354292219
 40
0.4963044424
 40
0.7591925313
 40
1.0
 40
1.0
 40
1.0
 40
1.0
 10
-8.6335005703
 20
-29.4826808866
 30
0.0
 10
-8.5840294374
 20
-29.5112047838
 30
0.0
 10
-8.468610037
 20
-29.5522492601
 30
0.0
 10
-8.2837730497
 20
-29.5692434969
 30
0.0
 10
-8.0984541061
 20
-29.544815355
 30
0.0
 10
-7.9828983923
 20
-29.4994795931
 30
0.0
 10
-7.9329305184
 20
-29.4692321015
 30
0.0
  0
SPLINE
  5
554
100
AcDbEntity
  8
ASSI
100
AcDbSpline
 62
250
  6
CONTINUOUS
 70
0
 71
3
 72
11
 73
7
 74
0
 42
0.0000001
 43
0.0000001
 44
0.0000000001
 40
0.0
 40
0.0
 40
0.0
 40
0.0
 40
0.2379940153
 40
0.4988661959
 40
0.7603483924
 40
1.0
 40
1.0
 40
1.0
 40
1.0
 10
-8.6335005779
 20
4.8389767843
 30
0.0
 10
-8.6295419847
 20
4.9491258878
 30
0.0
 10
-8.5839136038
 20
5.178918323
 30
0.0
 10
-8.4385129373
 20
5.5022593156
 30
0.0
 10
-8.2294889091
 20
5.7895644624
 30
0.0
 10
-8.0522056621
 20
5.9442040238
 30
0.0
 10
-7.9581830773
 20
6.0031791302
 30
0.0
  0
SPLINE
  5
555
100
AcDbEntity
  8
ASSI
100
AcDbSpline
 62
250
  6
CONTINUOUS
 70
0
 71
3
 72
11
 73
7
 74
0
 42
0.0000001
 43
0.0000001
 44
0.0000000001
 40
0.0
 40
0.0
 40
0.0
 40
0.0
 40
0.2377325506
 40
0.4983582977
 40
0.7598661986
 40
1.0
 40
1.0
 40
1.0
 40
1.0
 10
-7.9329305184
 20
4.8181039165
 30
0.0
 10
-7.930939534
 20
4.8731475371
 30
0.0
 10
-7.9079116318
 20
4.9879785369
 30
0.0
 10
-7.8345403583
 20
5.1493532476
 30
0.0
 10
-7.7290554273
 20
5.2925154186
 30
0.0
 10
-7.6397037294
 20
5.3693118563
 30
0.0
 10
-7.5923503373
 20
5.3985182919
 30
0.0
  0
SPLINE
  5
556
100
AcDbEntity
  8
ASSI
100
AcDbSpline
 62
250
  6
CONTINUOUS
 70
0
 71
3
 72
11
 73
7
 74
0
 42
0.0000001
 43
0.0000001
 44
0.0000000001
 40
0.0
 40
0.0
 40
0.0
 40
0.0
 40
0.2380660563
 40
0.5015435169
 40
0.7641864361
 40
1.0
 40
1.0
 40
1.0
 40
1.0
 10
-8.6334846676
 20
4.8389852006
 30
0.0
 10
-8.5837609683
 20
4.8102314227
 30
0.0
 10
-8.4687679746
 20
4.7672264167
 30
0.0
 10
-8.2847956876
 20
4.7427499043
 30
0.0
 10
-8.1002331066
 20
4.7561165443
 30
0.0
 10
-7.9836193287
 20
4.7922633711
 30
0.0
 10
-7.9329305185
 20
4.8181039166
 30
0.0
  0
SPLINE
  5
557
100
AcDbEntity
  8
ASSI
100
AcDbSpline
 62
250
  6
CONTINUOUS
 70
0
 71
3
 72
11
 73
7
 74
0
 42
0.0000001
 43
0.0000001
 44
0.0000000001
 40
0.0
 40
0.0
 40
0.0
 40
0.0
 40
0.237884453
 40
0.5022304351
 40
0.7653705117
 40
1.0
 40
1.0
 40
1.0
 40
1.0
 10
-7.9581830773
 20
6.0031791302
 30
0.0
 10
-7.9085882126
 20
5.9734759179
 30
0.0
 10
-7.8143569773
 20
5.8932037726
 30
0.0
 10
-7.7019217516
 20
5.7435785982
 30
0.0
 10
-7.6218183365
 20
5.57530978
 30
0.0
 10
-7.5950491778
 20
5.4554728204
 30
0.0
 10
-7.5923503373
 20
5.3985182919
 30
0.0
  0
SPLINE
  5
558
100
AcDbEntity
  8
ASSI
100
AcDbSpline
 62
250
  6
CONTINUOUS
 70
0
 71
3
 72
11
 73
7
 74
0
 42
0.0000001
 43
0.0000001
 44
0.0000000001
 40
0.0
 40
0.0
 40
0.0
 40
0.0
 40
0.2185949445
 40
0.4516015978
 40
0.7104463949
 40
1.0
 40
1.0
 40
1.0
 40
1.0
 10
-11.4844843634
 20
-8.201082825
 30
0.0
 10
-11.535882722
 20
-8.2321962413
 30
0.0
 10
-11.654354941
 20
-8.2779136645
 30
0.0
 10
-11.852296668
 20
-8.285460671
 30
0.0
 10
-12.0633493293
 20
-8.2359815635
 30
0.0
 10
-12.2004912064
 20
-8.1709709409
 30
0.0
 10
-12.2694140159
 20
-8.1311782452
 30
0.0
  0
SPLINE
  5
559
100
AcDbEntity
  8
ASSI
100
AcDbSpline
 62
250
  6
CONTINUOUS
 70
0
 71
3
 72
8
 73
4
 74
0
 42
0.0000001
 43
0.0000001
 44
0.0000000001
 40
0.0
 40
0.0
 40
0.0
 40
0.0
 40
1.0
 40
1.0
 40
1.0
 40
1.0
 10
-18.5065893183
 20
-11.1678032255
 30
0.0
 10
-18.5088161568
 20
-10.9238494547
 30
0.0
 10
-18.5108473374
 20
-10.6798938199
 30
0.0
 10
-18.5126833798
 20
-10.435936795
 30
0.0
  0
SPLINE
  5
55A
100
AcDbEntity
  8
ASSI
100
AcDbSpline
 62
250
  6
CONTINUOUS
 70
0
 71
3
 72
9
 73
5
 74
0
 42
0.0000001
 43
0.0000001
 44
0.0000000001
 40
0.0
 40
0.0
 40
0.0
 40
0.0
 40
0.2459939215
 40
1.0
 40
1.0
 40
1.0
 40
1.0
 10
-23.4834996755
 20
-20.9084775266
 30
0.0
 10
-23.5864072042
 20
-18.0957114316
 30
0.0
 10
-23.897278446
 20
-6.6576556865
 30
0.0
 10
-23.785721524
 20
4.7911822273
 30
0.0
 10
-23.4834996755
 20
13.4131801491
 30
0.0
  0
SPLINE
  5
55B
100
AcDbEntity
  8
ASSI
100
AcDbSpline
 62
250
  6
CONTINUOUS
 70
0
 71
3
 72
13
 73
9
 74
0
 42
0.0000001
 43
0.0000001
 44
0.0000000001
 40
0.0
 40
0.0
 40
0.0
 40
0.0
 40
0.1144104319
 40
0.237960323
 40
0.5008375041
 40
0.763172088
 40
0.8861633543
 40
1.0
 40
1.0
 40
1.0
 40
1.0
 10
-17.1848895419
 20
-13.4209707616
 30
0.0
 10
-17.2743521824
 20
-13.3693075819
 30
0.0
 10
-17.4512763702
 20
-13.2455936659
 30
0.0
 10
-17.7832381393
 20
-12.9369314172
 30
0.0
 10
-18.1353666638
 20
-12.4620481811
 30
0.0
 10
-18.3783017165
 20
-11.9235380415
 30
0.0
 10
-18.4848035747
 20
-11.4844675656
 30
0.0
 10
-18.5056455966
 20
-11.2705892947
 30
0.0
 10
-18.5065893183
 20
-11.1678032255
 30
0.0
  0
SPLINE
  5
55C
100
AcDbEntity
  8
ASSI
100
AcDbSpline
 62
250
  6
CONTINUOUS
 70
0
 71
3
 72
11
 73
7
 74
0
 42
0.0000001
 43
0.0000001
 44
0.0000000001
 40
0.0
 40
0.0
 40
0.0
 40
0.0
 40
0.2385247852
 40
0.4998956045
 40
0.7613224476
 40
1.0
 40
1.0
 40
1.0
 40
1.0
 10
-23.4834996755
 20
13.4131801491
 30
0.0
 10
-23.479611669
 20
13.5234650732
 30
0.0
 10
-23.4347704717
 20
13.7535335251
 30
0.0
 10
-23.2920676007
 20
14.0780720411
 30
0.0
 10
-23.0869052328
 20
14.3672946181
 30
0.0
 10
-22.9125147278
 20
14.5240459927
 30
0.0
 10
-22.8198678982
 20
14.5841296852
 30
0.0
  0
SPLINE
  5
55D
100
AcDbEntity
  8
ASSI
100
AcDbSpline
 62
250
  6
CONTINUOUS
 70
0
 71
3
 72
15
 73
11
 74
0
 42
0.0000001
 43
0.0000001
 44
0.0000000001
 40
0.0
 40
0.0
 40
0.0
 40
0.0
 40
0.1450845631
 40
0.2745448203
 40
0.3906096352
 40
0.4988860412
 40
0.6073533459
 40
0.7239327683
 40
0.8540958564
 40
1.0
 40
1.0
 40
1.0
 40
1.0
 10
-11.1573299564
 20
-15.4111734732
 30
0.0
 10
-11.1565160244
 20
-15.5041763592
 30
0.0
 10
-11.1689202572
 20
-15.680899676
 30
0.0
 10
-11.2380865368
 20
-15.923848587
 30
0.0
 10
-11.3567710943
 20
-16.1210244002
 30
0.0
 10
-11.5229365014
 20
-16.261612086
 30
0.0
 10
-11.728018377
 20
-16.3354353122
 30
0.0
 10
-11.9589547023
 20
-16.340323724
 30
0.0
 10
-12.2055303849
 20
-16.2799126441
 30
0.0
 10
-12.3662719998
 20
-16.2031744489
 30
0.0
 10
-12.447274108
 20
-16.1564105369
 30
0.0
  0
SPLINE
  5
55E
100
AcDbEntity
  8
ASSI
100
AcDbSpline
 62
250
  6
CONTINUOUS
 70
0
 71
3
 72
8
 73
4
 74
0
 42
0.0000001
 43
0.0000001
 44
0.0000000001
 40
0.0
 40
0.0
 40
0.0
 40
0.0
 40
1.0
 40
1.0
 40
1.0
 40
1.0
 10
-11.1632150464
 20
-14.6794277002
 30
0.0
 10
-11.1614419927
 20
-14.9233444021
 30
0.0
 10
-11.1594804695
 20
-15.1672598072
 30
0.0
 10
-11.1573299564
 20
-15.4111734732
 30
0.0
  0
SPLINE
  5
55F
100
AcDbEntity
  8
ASSI
100
AcDbSpline
 62
250
  6
CONTINUOUS
 70
0
 71
3
 72
12
 73
8
 74
0
 42
0.0000001
 43
0.0000001
 44
0.0000000001
 40
0.0
 40
0.0
 40
0.0
 40
0.0
 40
0.2424662254
 40
0.5054001574
 40
0.7652500658
 40
0.8869992449
 40
1.0
 40
1.0
 40
1.0
 40
1.0
 10
-12.3679361836
 20
-12.4902471914
 30
0.0
 10
-12.1950990066
 20
-12.6068469622
 30
0.0
 10
-11.8716409296
 20
-12.9055525528
 30
0.0
 10
-11.4949808883
 20
-13.4498728641
 30
0.0
 10
-11.2765845362
 20
-13.9647659177
 30
0.0
 10
-11.1821396185
 20
-14.3803444465
 30
0.0
 10
-11.1639261188
 20
-14.5822639488
 30
0.0
 10
-11.1632150464
 20
-14.6794277002
 30
0.0
  0
SPLINE
  5
560
100
AcDbEntity
  8
ASSI
100
AcDbSpline
 62
250
  6
CONTINUOUS
 70
0
 71
3
 72
11
 73
7
 74
0
 42
0.0000001
 43
0.0000001
 44
0.0000000001
 40
0.0
 40
0.0
 40
0.0
 40
0.0
 40
0.2132209415
 40
0.4443021539
 40
0.7054016721
 40
1.0
 40
1.0
 40
1.0
 40
1.0
 10
-23.6299362569
 20
13.617234783
 30
0.0
 10
-23.6305537879
 20
13.5985583571
 30
0.0
 10
-23.6244112294
 20
13.5591054784
 30
0.0
 10
-23.5944731494
 20
13.5039634988
 30
0.0
 10
-23.5462919848
 20
13.4537823916
 30
0.0
 10
-23.5058633498
 20
13.4260773505
 30
0.0
 10
-23.4834956665
 20
13.4131822704
 30
0.0
  0
SPLINE
  5
561
100
AcDbEntity
  8
ASSI
100
AcDbSpline
 62
250
  6
CONTINUOUS
 70
0
 71
3
 72
11
 73
7
 74
0
 42
0.0000001
 43
0.0000001
 44
0.0000000001
 40
0.0
 40
0.0
 40
0.0
 40
0.0
 40
0.2130245493
 40
0.4440586154
 40
0.7052794106
 40
1.0
 40
1.0
 40
1.0
 40
1.0
 10
-23.0764576802
 20
14.6046326625
 30
0.0
 10
-23.0604566176
 20
14.6151474766
 30
0.0
 10
-23.0226187437
 20
14.630793408
 30
0.0
 10
-22.9583343369
 20
14.6337597299
 30
0.0
 10
-22.8887359796
 20
14.6179538325
 30
0.0
 10
-22.8430136985
 20
14.5970125116
 30
0.0
 10
-22.8198678982
 20
14.5841296852
 30
0.0
  0
SPLINE
  5
562
100
AcDbEntity
  8
ASSI
100
AcDbSpline
 62
250
  6
CONTINUOUS
 70
0
 71
3
 72
11
 73
7
 74
0
 42
0.0000001
 43
0.0000001
 44
0.0000000001
 40
0.0
 40
0.0
 40
0.0
 40
0.0
 40
0.22185764
 40
0.4579965639
 40
0.716528317
 40
1.0
 40
1.0
 40
1.0
 40
1.0
 10
-23.6289476664
 20
-20.7187686424
 30
0.0
 10
-23.6269619059
 20
-20.7369619149
 30
0.0
 10
-23.6170064563
 20
-20.7740689289
 30
0.0
 10
-23.5861904232
 20
-20.8252397679
 30
0.0
 10
-23.5408186067
 20
-20.8713179642
 30
0.0
 10
-23.5037433148
 20
-20.8967726732
 30
0.0
 10
-23.4834996627
 20
-20.9084775186
 30
0.0
  0
SPLINE
  5
563
100
AcDbEntity
  8
ASSI
100
AcDbSpline
 62
250
  6
CONTINUOUS
 70
0
 71
3
 72
15
 73
11
 74
0
 42
0.0000001
 43
0.0000001
 44
0.0000000001
 40
0.0
 40
0.0
 40
0.0
 40
0.0
 40
0.1447937732
 40
0.2742193736
 40
0.3904995031
 40
0.4991371186
 40
0.6079199881
 40
0.7245933835
 40
0.8545589738
 40
1.0
 40
1.0
 40
1.0
 40
1.0
 10
-18.5126833798
 20
-10.435936795
 30
0.0
 10
-18.5133779228
 20
-10.3427494712
 30
0.0
 10
-18.5005902218
 20
-10.1655413421
 30
0.0
 10
-18.4304372005
 20
-9.921888397
 30
0.0
 10
-18.3105196924
 20
-9.7239957917
 30
0.0
 10
-18.1431391579
 20
-9.5826930876
 30
0.0
 10
-17.936942328
 20
-9.5080724256
 30
0.0
 10
-17.7049670613
 20
-9.5024702053
 30
0.0
 10
-17.4576018442
 20
-9.5624628912
 30
0.0
 10
-17.2965233968
 20
-9.6391980026
 30
0.0
 10
-17.2154568165
 20
-9.6859995406
 30
0.0
  0
SPLINE
  5
564
100
AcDbEntity
  8
ASSI
100
AcDbSpline
 62
250
  6
CONTINUOUS
 70
0
 71
3
 72
8
 73
4
 74
0
 42
0.0000001
 43
0.0000001
 44
0.0000000001
 40
0.0
 40
0.0
 40
0.0
 40
0.0
 40
1.0
 40
1.0
 40
1.0
 40
1.0
 10
-18.5126833798
 20
-3.4917729439
 30
0.0
 10
-18.510845712
 20
-3.2455506272
 30
0.0
 10
-18.5088141872
 20
-2.9993296813
 30
0.0
 10
-18.5065893183
 20
-2.7531105589
 30
0.0
  0
SPLINE
  5
565
100
AcDbEntity
  8
ASSI
100
AcDbSpline
 62
250
  6
CONTINUOUS
 70
0
 71
3
 72
13
 73
9
 74
0
 42
0.0000001
 43
0.0000001
 44
0.0000000001
 40
0.0
 40
0.0
 40
0.0
 40
0.0
 40
0.114176413
 40
0.2373925029
 40
0.4996749534
 40
0.7620520269
 40
0.8854527509
 40
1.0
 40
1.0
 40
1.0
 40
1.0
 10
-17.2154568165
 20
-5.759807739
 30
0.0
 10
-17.3048764066
 20
-5.7081692849
 30
0.0
 10
-17.4814852539
 20
-5.5842402118
 30
0.0
 10
-17.8117667196
 20
-5.2742097631
 30
0.0
 10
-18.1598637192
 20
-4.7959096881
 30
0.0
 10
-18.396002131
 20
-4.2533326417
 30
0.0
 10
-18.4960585091
 20
-3.8109185383
 30
0.0
 10
-18.513451004
 20
-3.5953643408
 30
0.0
 10
-18.5126833798
 20
-3.4917729439
 30
0.0
  0
SPLINE
  5
566
100
AcDbEntity
  8
ASSI
100
AcDbSpline
 62
250
  6
CONTINUOUS
 70
0
 71
3
 72
15
 73
11
 74
0
 42
0.0000001
 43
0.0000001
 44
0.0000000001
 40
0.0
 40
0.0
 40
0.0
 40
0.0
 40
0.145024648
 40
0.2749773587
 40
0.3919113522
 40
0.5010889019
 40
0.6100573011
 40
0.7264426878
 40
0.8556668364
 40
1.0
 40
1.0
 40
1.0
 40
1.0
 10
-11.1632150464
 20
-7.7352638491
 30
0.0
 10
-11.1638993487
 20
-7.8293704949
 30
0.0
 10
-11.1793864365
 20
-8.0083107864
 30
0.0
 10
-11.2532659385
 20
-8.2539472396
 30
0.0
 10
-11.3762206339
 20
-8.4534141493
 30
0.0
 10
-11.5458610336
 20
-8.5960516842
 30
0.0
 10
-11.7537797675
 20
-8.6718765906
 30
0.0
 10
-11.9871003688
 20
-8.6783458912
 30
0.0
 10
-12.2353264707
 20
-8.6187990467
 30
0.0
 10
-12.3967278834
 20
-8.5420756462
 30
0.0
 10
-12.4778413826
 20
-8.4952475143
 30
0.0
  0
SPLINE
  5
567
100
AcDbEntity
  8
ASSI
100
AcDbSpline
 62
250
  6
CONTINUOUS
 70
0
 71
3
 72
8
 73
4
 74
0
 42
0.0000001
 43
0.0000001
 44
0.0000000001
 40
0.0
 40
0.0
 40
0.0
 40
0.0
 40
1.0
 40
1.0
 40
1.0
 40
1.0
 10
-11.1573299564
 20
-6.9964808066
 30
0.0
 10
-11.1594784999
 20
-7.2427402615
 30
0.0
 10
-11.1614403673
 20
-7.4890014162
 30
0.0
 10
-11.1632150464
 20
-7.7352638491
 30
0.0
  0
SPLINE
  5
568
100
AcDbEntity
  8
ASSI
100
AcDbSpline
 62
250
  6
CONTINUOUS
 70
0
 71
3
 72
11
 73
7
 74
0
 42
0.0000001
 43
0.0000001
 44
0.0000000001
 40
0.0
 40
0.0
 40
0.0
 40
0.0
 40
0.2420174288
 40
0.5045157317
 40
0.7645477635
 40
1.0
 40
1.0
 40
1.0
 40
1.0
 10
-12.3351174828
 20
-4.7954219785
 30
0.0
 10
-12.1630152137
 20
-4.9122358683
 30
0.0
 10
-11.8418005003
 20
-5.2120988087
 30
0.0
 10
-11.4709002305
 20
-5.7599829659
 30
0.0
 10
-11.2230527671
 20
-6.3672886932
 30
0.0
 10
-11.1555744457
 20
-6.7941292444
 30
0.0
 10
-11.1573299564
 20
-6.9964808066
 30
0.0
  0
SPLINE
  5
569
100
AcDbEntity
  8
ASSI
100
AcDbSpline
 62
250
  6
CONTINUOUS
 70
0
 71
3
 72
15
 73
11
 74
0
 42
0.0000001
 43
0.0000001
 44
0.0000000001
 40
0.0
 40
0.0
 40
0.0
 40
0.0
 40
0.14470503
 40
0.2745947179
 40
0.3917221813
 40
0.5012515833
 40
0.6105427576
 40
0.727043425
 40
0.8560987484
 40
1.0
 40
1.0
 40
1.0
 40
1.0
 10
-18.5065893183
 20
-2.7531105589
 30
0.0
 10
-18.5057311968
 20
-2.6589039096
 30
0.0
 10
-18.4897643265
 20
-2.4796484944
 30
0.0
 10
-18.4148061441
 20
-2.2335731802
 30
0.0
 10
-18.2905869739
 20
-2.0336307182
 30
0.0
 10
-18.1197566477
 20
-1.8904791064
 30
0.0
 10
-17.9108053996
 20
-1.8140014992
 30
0.0
 10
-17.6765669877
 20
-1.8068853254
 30
0.0
 10
-17.4276828614
 20
-1.8660110173
 30
0.0
 10
-17.2660261237
 20
-1.942696366
 30
0.0
 10
-17.1848895419
 20
-1.9895381955
 30
0.0
  0
SPLINE
  5
56A
100
AcDbEntity
  8
ASSI
100
AcDbSpline
 62
250
  6
CONTINUOUS
 70
0
 71
3
 72
11
 73
7
 74
0
 42
0.0000001
 43
0.0000001
 44
0.0000000001
 40
0.0
 40
0.0
 40
0.0
 40
0.0
 40
0.2209959513
 40
0.4554439067
 40
0.7136114861
 40
1.0
 40
1.0
 40
1.0
 40
1.0
 10
-8.4254427437
 20
-29.9073807816
 30
0.0
 10
-8.4568476229
 20
-29.8892210459
 30
0.0
 10
-8.5157422082
 20
-29.8407971885
 30
0.0
 10
-8.5804258357
 20
-29.7413660063
 30
0.0
 10
-8.6212364116
 20
-29.6190181548
 30
0.0
 10
-8.6317404423
 20
-29.529659659
 30
0.0
 10
-8.6335005779
 20
-29.4826808913
 30
0.0
  0
SPLINE
  5
56B
100
AcDbEntity
  8
ASSI
100
AcDbSpline
 62
250
  6
CONTINUOUS
 70
0
 71
3
 72
11
 73
7
 74
0
 42
0.0000001
 43
0.0000001
 44
0.0000000001
 40
0.0
 40
0.0
 40
0.0
 40
0.0
 40
0.2183326969
 40
0.4518587011
 40
0.7113466574
 40
1.0
 40
1.0
 40
1.0
 40
1.0
 10
-7.716762205
 20
-29.9097124434
 30
0.0
 10
-7.698358033
 20
-29.9005372305
 30
0.0
 10
-7.6633982558
 20
-29.8745965015
 30
0.0
 10
-7.6247949661
 20
-29.8186715222
 30
0.0
 10
-7.6001721119
 20
-29.7485718519
 30
0.0
 10
-7.5935727555
 20
-29.6970078062
 30
0.0
 10
-7.5923503373
 20
-29.6698474011
 30
0.0
  0
SPLINE
  5
56C
100
AcDbEntity
  8
ASSI
100
AcDbSpline
 62
250
  6
CONTINUOUS
 70
0
 71
3
 72
11
 73
7
 74
0
 42
0.0000001
 43
0.0000001
 44
0.0000000001
 40
0.0
 40
0.0
 40
0.0
 40
0.0
 40
0.219245227
 40
0.4530873662
 40
0.711894026
 40
1.0
 40
1.0
 40
1.0
 40
1.0
 10
-23.2788442306
 20
-21.331212987
 30
0.0
 10
-23.3097956919
 20
-21.3133441354
 30
0.0
 10
-23.3678792795
 20
-21.2653210493
 30
0.0
 10
-23.4314192336
 20
-21.1664664631
 30
0.0
 10
-23.4714821554
 20
-21.0445343976
 30
0.0
 10
-23.4817736224
 20
-20.9554099696
 30
0.0
 10
-23.4834996755
 20
-20.9084775266
 30
0.0
  0
SPLINE
  5
56D
100
AcDbEntity
  8
ASSI
100
AcDbSpline
 62
250
  6
CONTINUOUS
 70
0
 71
3
 72
11
 73
7
 74
0
 42
0.0000001
 43
0.0000001
 44
0.0000000001
 40
0.0
 40
0.0
 40
0.0
 40
0.0
 40
0.236995284
 40
0.4992054243
 40
0.7618468899
 40
1.0
 40
1.0
 40
1.0
 40
1.0
 10
-17.2154568165
 20
-5.759807739
 30
0.0
 10
-17.2153142613
 20
-5.7254958148
 30
0.0
 10
-17.2023994535
 20
-5.6532214424
 30
0.0
 10
-17.157780347
 20
-5.551476658
 30
0.0
 10
-17.0925147843
 20
-5.46136174
 30
0.0
 10
-17.0366277226
 20
-5.413424688
 30
0.0
 10
-17.0070294493
 20
-5.3957384696
 30
0.0
  0
SPLINE
  5
56E
100
AcDbEntity
  8
ASSI
100
AcDbSpline
 62
250
  6
CONTINUOUS
 70
0
 71
3
 72
11
 73
7
 74
0
 42
0.0000001
 43
0.0000001
 44
0.0000000001
 40
0.0
 40
0.0
 40
0.0
 40
0.0
 40
0.2369951935
 40
0.4992052884
 40
0.7618468175
 40
1.0
 40
1.0
 40
1.0
 40
1.0
 10
-12.4778413826
 20
-8.4952475143
 30
0.0
 10
-12.4776988275
 20
-8.4609356031
 30
0.0
 10
-12.4647840302
 20
-8.3886612497
 30
0.0
 10
-12.4201649358
 20
-8.2869164711
 30
0.0
 10
-12.3548993737
 20
-8.1968015361
 30
0.0
 10
-12.2990122983
 20
-8.1488644677
 30
0.0
 10
-12.2694140154
 20
-8.1311782449
 30
0.0
  0
SPLINE
  5
56F
100
AcDbEntity
  8
ASSI
100
AcDbSpline
 62
250
  6
CONTINUOUS
 70
0
 71
3
 72
11
 73
7
 74
0
 42
0.0000001
 43
0.0000001
 44
0.0000000001
 40
0.0
 40
0.0
 40
0.0
 40
0.0
 40
0.2901611114
 40
0.5503343909
 40
0.7832103048
 40
1.0
 40
1.0
 40
1.0
 40
1.0
 10
-11.1632150464
 20
-7.7352638488
 30
0.0
 10
-11.1764068135
 20
-7.7276493682
 30
0.0
 10
-11.2003331476
 20
-7.7111332425
 30
0.0
 10
-11.2290049819
 20
-7.6811553575
 30
0.0
 10
-11.2470245685
 20
-7.6479459611
 30
0.0
 10
-11.2511588853
 20
-7.6241581242
 30
0.0
 10
-11.2510831955
 20
-7.6127782711
 30
0.0
  0
SPLINE
  5
570
100
AcDbEntity
  8
ASSI
100
AcDbSpline
 62
250
  6
CONTINUOUS
 70
0
 71
3
 72
11
 73
7
 74
0
 42
0.0000001
 43
0.0000001
 44
0.0000000001
 40
0.0
 40
0.0
 40
0.0
 40
0.0
 40
0.2903894952
 40
0.5506236045
 40
0.7833989152
 40
1.0
 40
1.0
 40
1.0
 40
1.0
 10
-11.1573299564
 20
-6.9964808066
 30
0.0
 10
-11.1705405509
 20
-6.9888559472
 30
0.0
 10
-11.1944956085
 20
-6.9723226485
 30
0.0
 10
-11.223191862
 20
-6.9423173793
 30
0.0
 10
-11.2412013186
 20
-6.9090865144
 30
0.0
 10
-11.2452988823
 20
-6.8852888997
 30
0.0
 10
-11.2451975468
 20
-6.8739120567
 30
0.0
  0
SPLINE
  5
571
100
AcDbEntity
  8
ASSI
100
AcDbSpline
 62
250
  6
CONTINUOUS
 70
0
 71
3
 72
11
 73
7
 74
0
 42
0.0000001
 43
0.0000001
 44
0.0000000001
 40
0.0
 40
0.0
 40
0.0
 40
0.0
 40
0.2899743668
 40
0.5501559195
 40
0.7831045189
 40
1.0
 40
1.0
 40
1.0
 40
1.0
 10
-12.447274108
 20
-4.7249779708
 30
0.0
 10
-12.4474612708
 20
-4.7405198057
 30
0.0
 10
-12.4454057281
 20
-4.7701279617
 30
0.0
 10
-12.4339469195
 20
-4.8109039468
 30
0.0
 10
-12.4140594997
 20
-4.8439812387
 30
0.0
 10
-12.3952392868
 20
-4.8599290821
 30
0.0
 10
-12.3851699688
 20
-4.8657402092
 30
0.0
  0
SPLINE
  5
572
100
AcDbEntity
  8
ASSI
100
AcDbSpline
 62
250
  6
CONTINUOUS
 70
0
 71
3
 72
11
 73
7
 74
0
 42
0.0000001
 43
0.0000001
 44
0.0000000001
 40
0.0
 40
0.0
 40
0.0
 40
0.0
 40
0.2899488527
 40
0.550136701
 40
0.7831060589
 40
1.0
 40
1.0
 40
1.0
 40
1.0
 10
-17.1848895419
 20
-1.9895381955
 30
0.0
 10
-17.1850765429
 20
-2.0050665888
 30
0.0
 10
-17.1830246432
 20
-2.0346504766
 30
0.0
 10
-17.1715869306
 20
-2.0753973154
 30
0.0
 10
-17.1517366584
 20
-2.1084617512
 30
0.0
 10
-17.1329488999
 20
-2.1244177925
 30
0.0
 10
-17.1228948743
 20
-2.1302371631
 30
0.0
  0
SPLINE
  5
573
100
AcDbEntity
  8
ASSI
100
AcDbSpline
 62
250
  6
CONTINUOUS
 70
0
 71
3
 72
11
 73
7
 74
0
 42
0.0000001
 43
0.0000001
 44
0.0000000001
 40
0.0
 40
0.0
 40
0.0
 40
0.0
 40
0.2370290534
 40
0.499552568
 40
0.7623188831
 40
1.0
 40
1.0
 40
1.0
 40
1.0
 10
-18.5065893183
 20
-2.7531105592
 30
0.0
 10
-18.4768125883
 20
-2.7703095192
 30
0.0
 10
-18.4077061445
 20
-2.7956560178
 30
0.0
 10
-18.2970879183
 20
-2.8086531804
 30
0.0
 10
-18.1861158768
 20
-2.7980838052
 30
0.0
 10
-18.1163368511
 20
-2.7742818182
 30
0.0
 10
-18.0860710763
 20
-2.7577604518
 30
0.0
  0
SPLINE
  5
574
100
AcDbEntity
  8
ASSI
100
AcDbSpline
 62
250
  6
CONTINUOUS
 70
0
 71
3
 72
8
 73
4
 74
0
 42
0.0000001
 43
0.0000001
 44
0.0000000001
 40
0.0
 40
0.0
 40
0.0
 40
0.0
 40
1.0
 40
1.0
 40
1.0
 40
1.0
 10
-18.0860710392
 20
-11.1674042803
 30
0.0
 10
-18.0882965644
 20
-10.9235968698
 30
0.0
 10
-18.0903265473
 20
-10.6797875963
 30
0.0
 10
-18.0921615069
 20
-10.4359769335
 30
0.0
  0
SPLINE
  5
575
100
AcDbEntity
  8
ASSI
100
AcDbSpline
 62
250
  6
CONTINUOUS
 70
0
 71
3
 72
11
 73
7
 74
0
 42
0.0000001
 43
0.0000001
 44
0.0000000001
 40
0.0
 40
0.0
 40
0.0
 40
0.0
 40
0.29056174
 40
0.5497193063
 40
0.7823010207
 40
1.0
 40
1.0
 40
1.0
 40
1.0
 10
-18.0921614771
 20
-10.4359769169
 30
0.0
 10
-18.0928696013
 20
-10.3569005916
 30
0.0
 10
-18.0820750188
 20
-10.2066452834
 30
0.0
 10
-18.0217403258
 20
-10.0003686744
 30
0.0
 10
-17.9184788282
 20
-9.8338722691
 30
0.0
 10
-17.821054755
 20
-9.7548305817
 30
0.0
 10
-17.7691285542
 20
-9.7262976688
 30
0.0
  0
SPLINE
  5
576
100
AcDbEntity
  8
ASSI
100
AcDbSpline
 62
250
  6
CONTINUOUS
 70
0
 71
3
 72
11
 73
7
 74
0
 42
0.0000001
 43
0.0000001
 44
0.0000000001
 40
0.0
 40
0.0
 40
0.0
 40
0.0
 40
0.2369721079
 40
0.4994397534
 40
0.762211509
 40
1.0
 40
1.0
 40
1.0
 40
1.0
 10
-18.5126833798
 20
-3.4917729439
 30
0.0
 10
-18.4829098683
 20
-3.5089689432
 30
0.0
 10
-18.413797755
 20
-3.5342900612
 30
0.0
 10
-18.3031677567
 20
-3.5471907914
 30
0.0
 10
-18.1921848418
 20
-3.5364787896
 30
0.0
 10
-18.1224184116
 20
-3.5125579818
 30
0.0
 10
-18.0921615069
 20
-3.4959795807
 30
0.0
  0
SPLINE
  5
577
100
AcDbEntity
  8
ASSI
100
AcDbSpline
 62
250
  6
CONTINUOUS
 70
0
 71
3
 72
11
 73
7
 74
0
 42
0.0000001
 43
0.0000001
 44
0.0000000001
 40
0.0
 40
0.0
 40
0.0
 40
0.0
 40
0.235827857
 40
0.4980104629
 40
0.7612755277
 40
1.0
 40
1.0
 40
1.0
 40
1.0
 10
-17.1848895419
 20
-13.4209707616
 30
0.0
 10
-17.1853108435
 20
-13.3864727413
 30
0.0
 10
-17.1730665911
 20
-13.3134208916
 30
0.0
 10
-17.1286712949
 20
-13.2103842529
 30
0.0
 10
-17.0629865781
 20
-13.1189034667
 30
0.0
 10
-17.0064603608
 20
-13.0702190184
 30
0.0
 10
-16.9764805151
 20
-13.0523047944
 30
0.0
  0
SPLINE
  5
578
100
AcDbEntity
  8
ASSI
100
AcDbSpline
 62
250
  6
CONTINUOUS
 70
0
 71
3
 72
11
 73
7
 74
0
 42
0.0000001
 43
0.0000001
 44
0.0000000001
 40
0.0
 40
0.0
 40
0.0
 40
0.0
 40
0.2358277641
 40
0.4980103233
 40
0.7612754534
 40
1.0
 40
1.0
 40
1.0
 40
1.0
 10
-12.447274108
 20
-16.1564105369
 30
0.0
 10
-12.4476954095
 20
-16.1219125301
 30
0.0
 10
-12.435451168
 20
-16.0488607003
 30
0.0
 10
-12.3910558845
 20
-15.9458240675
 30
0.0
 10
-12.3253711683
 20
-15.8543432636
 30
0.0
 10
-12.2688449369
 20
-15.8056587983
 30
0.0
 10
-12.2388650812
 20
-15.7877445697
 30
0.0
  0
SPLINE
  5
579
100
AcDbEntity
  8
ASSI
100
AcDbSpline
 62
250
  6
CONTINUOUS
 70
0
 71
3
 72
11
 73
7
 74
0
 42
0.0000001
 43
0.0000001
 44
0.0000000001
 40
0.0
 40
0.0
 40
0.0
 40
0.0
 40
0.2879708588
 40
0.5474890605
 40
0.7812763876
 40
1.0
 40
1.0
 40
1.0
 40
1.0
 10
-11.1573299564
 20
-15.4111734729
 30
0.0
 10
-11.1703896431
 20
-15.4036302886
 30
0.0
 10
-11.194120645
 20
-15.3872102006
 30
0.0
 10
-11.2226170359
 20
-15.3573440321
 30
0.0
 10
-11.2407010798
 20
-15.3241582536
 30
0.0
 10
-11.2450876771
 20
-15.3003497248
 30
0.0
 10
-11.2451968069
 20
-15.2888952493
 30
0.0
  0
SPLINE
  5
57A
100
AcDbEntity
  8
ASSI
100
AcDbSpline
 62
250
  6
CONTINUOUS
 70
0
 71
3
 72
11
 73
7
 74
0
 42
0.0000001
 43
0.0000001
 44
0.0000000001
 40
0.0
 40
0.0
 40
0.0
 40
0.0
 40
0.2881919123
 40
0.547767387
 40
0.7814566894
 40
1.0
 40
1.0
 40
1.0
 40
1.0
 10
-11.1632150464
 20
-14.6794277002
 30
0.0
 10
-11.1762946079
 20
-14.6718735024
 30
0.0
 10
-11.2000562292
 20
-14.6554343603
 30
0.0
 10
-11.2285784505
 20
-14.6255362348
 30
0.0
 10
-11.2466516758
 20
-14.5923231457
 30
0.0
 10
-11.2510002101
 20
-14.568500855
 30
0.0
 10
-11.2510827336
 20
-14.5570471507
 30
0.0
  0
SPLINE
  5
57B
100
AcDbEntity
  8
ASSI
100
AcDbSpline
 62
250
  6
CONTINUOUS
 70
0
 71
3
 72
11
 73
7
 74
0
 42
0.0000001
 43
0.0000001
 44
0.0000000001
 40
0.0
 40
0.0
 40
0.0
 40
0.0
 40
0.2889060683
 40
0.5486699646
 40
0.78206159
 40
1.0
 40
1.0
 40
1.0
 40
1.0
 10
-12.4778413826
 20
-12.4214393159
 30
0.0
 10
-12.4777785803
 20
-12.4364828423
 30
0.0
 10
-12.4753321989
 20
-12.4651312491
 30
0.0
 10
-12.4636415576
 20
-12.504517696
 30
0.0
 10
-12.4439423713
 20
-12.5364661167
 30
0.0
 10
-12.4255472751
 20
-12.5519103311
 30
0.0
 10
-12.4157190257
 20
-12.5575838903
 30
0.0
  0
SPLINE
  5
57C
100
AcDbEntity
  8
ASSI
100
AcDbSpline
 62
250
  6
CONTINUOUS
 70
0
 71
3
 72
11
 73
7
 74
0
 42
0.0000001
 43
0.0000001
 44
0.0000000001
 40
0.0
 40
0.0
 40
0.0
 40
0.0
 40
0.2888924286
 40
0.5486598279
 40
0.7820626212
 40
1.0
 40
1.0
 40
1.0
 40
1.0
 10
-17.2154568165
 20
-9.6859995406
 30
0.0
 10
-17.2153940447
 20
-9.7010357595
 30
0.0
 10
-17.2129498617
 20
-9.7296709683
 30
0.0
 10
-17.2012709068
 20
-9.7690416185
 30
0.0
 10
-17.1815919716
 20
-9.8009830866
 30
0.0
 10
-17.1632143962
 20
-9.8164315453
 30
0.0
 10
-17.1533944656
 20
-9.8221094472
 30
0.0
  0
SPLINE
  5
57D
100
AcDbEntity
  8
ASSI
100
AcDbSpline
 62
250
  6
CONTINUOUS
 70
0
 71
3
 72
11
 73
7
 74
0
 42
0.0000001
 43
0.0000001
 44
0.0000000001
 40
0.0
 40
0.0
 40
0.0
 40
0.0
 40
0.236438039
 40
0.4983786106
 40
0.7612004871
 40
1.0
 40
1.0
 40
1.0
 40
1.0
 10
-18.5126833798
 20
-10.4359367953
 30
0.0
 10
-18.4829406772
 20
-10.4531048045
 30
0.0
 10
-18.4137772138
 20
-10.4781877827
 30
0.0
 10
-18.3030426256
 20
-10.4901807368
 30
0.0
 10
-18.1919685194
 20
-10.4781258025
 30
0.0
 10
-18.122330823
 20
-10.45308994
 30
0.0
 10
-18.0921614771
 20
-10.4359769188
 30
0.0
  0
SPLINE
  5
57E
100
AcDbEntity
  8
ASSI
100
AcDbSpline
 62
250
  6
CONTINUOUS
 70
0
 71
3
 72
11
 73
7
 74
0
 42
0.0000001
 43
0.0000001
 44
0.0000000001
 40
0.0
 40
0.0
 40
0.0
 40
0.0
 40
0.2363816938
 40
0.4982664208
 40
0.7610936112
 40
1.0
 40
1.0
 40
1.0
 40
1.0
 10
-18.5065893183
 20
-11.1678032255
 30
0.0
 10
-18.4768499469
 20
-11.1849682524
 30
0.0
 10
-18.4076813293
 20
-11.2100261787
 30
0.0
 10
-18.29693639
 20
-11.2219233464
 30
0.0
 10
-18.1858538169
 20
-11.2097266711
 30
0.0
 10
-18.1162307344
 20
-11.184573495
 30
0.0
 10
-18.0860710392
 20
-11.1674042803
 30
0.0
  0
SPLINE
  5
57F
100
AcDbEntity
  8
ASSI
100
AcDbSpline
 62
250
  6
CONTINUOUS
 70
0
 71
3
 72
13
 73
9
 74
0
 42
0.0000001
 43
0.0000001
 44
0.0000000001
 40
0.0
 40
0.0
 40
0.0
 40
0.0
 40
0.1144342049
 40
0.2380164714
 40
0.500951977
 40
0.7632868517
 40
0.8862380561
 40
1.0
 40
1.0
 40
1.0
 40
1.0
 10
-16.9764805145
 20
-13.052304794
 30
0.0
 10
-17.0513954781
 20
-13.0090463966
 30
0.0
 10
-17.1995766337
 20
-12.9054966743
 30
0.0
 10
-17.4777717014
 20
-12.6472682203
 30
0.0
 10
-17.7731895632
 20
-12.2501059274
 30
0.0
 10
-17.9774619439
 20
-11.7996617692
 30
0.0
 10
-18.0673423367
 20
-11.4323377061
 30
0.0
 10
-18.0851308649
 20
-11.2533984154
 30
0.0
 10
-18.0860710667
 20
-11.1674042956
 30
0.0
  0
SPLINE
  5
580
100
AcDbEntity
  8
ASSI
100
AcDbSpline
 62
250
  6
CONTINUOUS
 70
0
 71
3
 72
12
 73
8
 74
0
 42
0.0000001
 43
0.0000001
 44
0.0000000001
 40
0.0
 40
0.0
 40
0.0
 40
0.0
 40
0.1142255431
 40
0.2374856168
 40
0.4998733614
 40
0.7624210672
 40
1.0
 40
1.0
 40
1.0
 40
1.0
 10
-17.0070294491
 20
-5.3957384695
 30
0.0
 10
-17.0819009872
 20
-5.352504975
 30
0.0
 10
-17.2297691133
 20
-5.2487339876
 30
0.0
 10
-17.5062665243
 20
-4.9891871027
 30
0.0
 10
-17.7978079069
 20
-4.5882331279
 30
0.0
 10
-18.0294225514
 20
-4.0552978747
 30
0.0
 10
-18.0937573313
 20
-3.6757961645
 30
0.0
 10
-18.0921614856
 20
-3.4959795688
 30
0.0
  0
SPLINE
  5
581
100
AcDbEntity
  8
ASSI
100
AcDbSpline
 62
250
  6
CONTINUOUS
 70
0
 71
3
 72
8
 73
4
 74
0
 42
0.0000001
 43
0.0000001
 44
0.0000000001
 40
0.0
 40
0.0
 40
0.0
 40
0.0
 40
1.0
 40
1.0
 40
1.0
 40
1.0
 10
-18.0921615069
 20
-3.4959795807
 30
0.0
 10
-18.0903249229
 20
-3.2499050094
 30
0.0
 10
-18.088294596
 20
-3.0038318082
 30
0.0
 10
-18.0860710392
 20
-2.7577604294
 30
0.0
  0
SPLINE
  5
582
100
AcDbEntity
  8
ASSI
100
AcDbSpline
 62
250
  6
CONTINUOUS
 70
0
 71
3
 72
11
 73
7
 74
0
 42
0.0000001
 43
0.0000001
 44
0.0000000001
 40
0.0
 40
0.0
 40
0.0
 40
0.0
 40
0.2888892484
 40
0.5478651417
 40
0.7813056607
 40
1.0
 40
1.0
 40
1.0
 40
1.0
 10
-18.0860710763
 20
-2.75776045
 30
0.0
 10
-18.0852048198
 20
-2.6776393496
 30
0.0
 10
-18.0711799289
 20
-2.5252876846
 30
0.0
 10
-18.0059577528
 20
-2.3165494212
 30
0.0
 10
-17.8983387753
 20
-2.1479865268
 30
0.0
 10
-17.7984427254
 20
-2.067591883
 30
0.0
 10
-17.7452832751
 20
-2.0383805405
 30
0.0
  0
SPLINE
  5
583
100
AcDbEntity
  8
ASSI
100
AcDbSpline
 62
250
  6
CONTINUOUS
 70
0
 71
3
 72
11
 73
7
 74
0
 42
0.0000001
 43
0.0000001
 44
0.0000000001
 40
0.0
 40
0.0
 40
0.0
 40
0.0
 40
0.2162150171
 40
0.4484381585
 40
0.7081758444
 40
1.0
 40
1.0
 40
1.0
 40
1.0
 10
-11.4616318642
 20
-15.8620491031
 30
0.0
 10
-11.5119864465
 20
-15.8925291751
 30
0.0
 10
-11.6288111582
 20
-15.9369728754
 30
0.0
 10
-11.824289836
 20
-15.9428619959
 30
0.0
 10
-12.0336185141
 20
-15.8924870945
 30
0.0
 10
-12.1700643303
 20
-15.8274669101
 30
0.0
 10
-12.2388650789
 20
-15.7877445683
 30
0.0
  0
SPLINE
  5
584
100
AcDbEntity
  8
CURVE
100
AcDbSpline
 62
250
  6
CONTINUOUS
 70
0
 71
3
 72
23
 73
19
 74
0
 42
0.0000001
 43
0.0000001
 44
0.0000000001
 40
0.0
 40
0.0
 40
0.0
 40
0.0
 40
0.25
 40
0.375
 40
0.4375
 40
0.5
 40
0.5625
 40
0.625
 40
0.640625
 40
0.65625
 40
0.6640625
 40
0.671875
 40
0.6875
 40
0.71875
 40
0.75
 40
0.8125
 40
0.875
 40
1.0
 40
1.0
 40
1.0
 40
1.0
 10
-10.6858454403
 20
-22.5971164741
 30
0.0
 10
-10.6768012666
 20
-22.9479935724
 30
0.0
 10
-10.6633400043
 20
-23.4743720361
 30
0.0
 10
-10.6472677044
 20
-24.0882603869
 30
0.0
 10
-10.6369938273
 20
-24.4383775723
 30
0.0
 10
-10.6294331412
 20
-24.7010762733
 30
0.0
 10
-10.6218384212
 20
-24.9636698052
 30
0.0
 10
-10.6161359416
 20
-25.1608473524
 30
0.0
 10
-10.6123556568
 20
-25.2919445854
 30
0.0
 10
-10.6107467132
 20
-25.3470946526
 30
0.0
 10
-10.6095386012
 20
-25.3899872246
 30
0.0
 10
-10.6080413775
 20
-25.4373687476
 30
0.0
 10
-10.6052869056
 20
-25.5223720836
 30
0.0
 10
-10.6014220326
 20
-25.6427172207
 30
0.0
 10
-10.5951990672
 20
-25.8358775896
 30
0.0
 10
-10.5874337776
 20
-26.0771197302
 30
0.0
 10
-10.5750017818
 20
-26.4632241071
 30
0.0
 10
-10.5656794798
 20
-26.7527760756
 30
0.0
 10
-10.5594642351
 20
-26.9458165688
 30
0.0
  0
SPLINE
  5
585
100
AcDbEntity
  8
CURVE
100
AcDbSpline
 62
250
  6
CONTINUOUS
 70
0
 71
3
 72
23
 73
19
 74
0
 42
0.0000001
 43
0.0000001
 44
0.0000000001
 40
0.0
 40
0.0
 40
0.0
 40
0.0
 40
0.25
 40
0.375
 40
0.4375
 40
0.5
 40
0.5625
 40
0.625
 40
0.640625
 40
0.65625
 40
0.6640625
 40
0.671875
 40
0.6875
 40
0.71875
 40
0.75
 40
0.8125
 40
0.875
 40
1.0
 40
1.0
 40
1.0
 40
1.0
 10
-12.7783653196
 20
-25.6646507259
 30
0.0
 10
-12.7896748885
 20
-25.3151679662
 30
0.0
 10
-12.8067441367
 20
-24.7910101985
 30
0.0
 10
-12.8262911275
 20
-24.1792605013
 30
0.0
 10
-12.8363708196
 20
-23.8290237962
 30
0.0
 10
-12.8440765515
 20
-23.5664143701
 30
0.0
 10
-12.8517434404
 20
-23.3038652577
 30
0.0
 10
-12.8575006642
 20
-23.1067214053
 30
0.0
 10
-12.8613391899
 20
-22.9756600192
 30
0.0
 10
-12.8629359879
 20
-22.9205024764
 30
0.0
 10
-12.8642195991
 20
-22.8776563739
 30
0.0
 10
-12.865480589
 20
-22.8301294502
 30
0.0
 10
-12.8676768086
 20
-22.7447825129
 30
0.0
 10
-12.8708197501
 20
-22.6239930308
 30
0.0
 10
-12.8758453913
 20
-22.4300957153
 30
0.0
 10
-12.8821284927
 20
-22.1879412958
 30
0.0
 10
-12.8921808656
 20
-21.8003722737
 30
0.0
 10
-12.8997202778
 20
-21.5097229461
 30
0.0
 10
-12.9047465232
 20
-21.3159506302
 30
0.0
  0
SPLINE
  5
586
100
AcDbEntity
  8
0
100
AcDbSpline
 62
7
  6
CONTINUOUS
 70
0
 71
3
 72
13
 73
9
 74
0
 42
0.0000001
 43
0.0000001
 44
0.0000000001
 40
0.0
 40
0.0
 40
0.0
 40
0.0
 40
0.1142258101
 40
0.2375599144
 40
0.5000060653
 40
0.7624488966
 40
0.885779122
 40
1.0
 40
1.0
 40
1.0
 40
1.0
 10
-15.5931990212
 20
-12.2257357403
 30
0.0
 10
-15.6663797872
 20
-12.1834820832
 30
0.0
 10
-15.8109777788
 20
-12.0820945156
 30
0.0
 10
-16.0817108533
 20
-11.8287450538
 30
0.0
 10
-16.3676546415
 20
-11.4381331001
 30
0.0
 10
-16.562962287
 20
-10.9951951751
 30
0.0
 10
-16.6469977103
 20
-10.6340666515
 30
0.0
 10
-16.6624990093
 20
-10.4581534166
 30
0.0
 10
-16.6624990093
 20
-10.3736538342
 30
0.0
  0
SPLINE
  5
587
100
AcDbEntity
  8
0
100
AcDbSpline
 62
7
  6
CONTINUOUS
 70
0
 71
3
 72
13
 73
9
 74
0
 42
0.0000001
 43
0.0000001
 44
0.0000000001
 40
0.0
 40
0.0
 40
0.0
 40
0.0
 40
0.1142258101
 40
0.2375599144
 40
0.5000060653
 40
0.7624488966
 40
0.885779122
 40
1.0
 40
1.0
 40
1.0
 40
1.0
 10
-15.5931990212
 20
-4.5509151384
 30
0.0
 10
-15.6663797872
 20
-4.5086614813
 30
0.0
 10
-15.8109777788
 20
-4.4072739138
 30
0.0
 10
-16.0817108533
 20
-4.153924452
 30
0.0
 10
-16.3676546415
 20
-3.7633124982
 30
0.0
 10
-16.562962287
 20
-3.3203745732
 30
0.0
 10
-16.6469977103
 20
-2.9592460496
 30
0.0
 10
-16.6624990093
 20
-2.7833328147
 30
0.0
 10
-16.6624990093
 20
-2.6988332324
 30
0.0
  0
SPLINE
  5
588
100
AcDbEntity
  8
0
100
AcDbSpline
 62
250
  6
CONTINUOUS
 70
0
 71
3
 72
15
 73
11
 74
0
 42
0.0000001
 43
0.0000001
 44
0.0000000001
 40
0.0
 40
0.0
 40
0.0
 40
0.0
 40
0.143057667
 40
0.2723321572
 40
0.3899604746
 40
0.5008385072
 40
0.6115690375
 40
0.728800497
 40
0.8575300311
 40
1.0
 40
1.0
 40
1.0
 40
1.0
 10
-7.5923503373
 20
-29.6698474011
 30
0.0
 10
-7.6133652853
 20
-29.6803207729
 30
0.0
 10
-7.6550951501
 20
-29.6971293439
 30
0.0
 10
-7.7185812081
 20
-29.7086932577
 30
0.0
 10
-7.7779037957
 20
-29.7044753549
 30
0.0
 10
-7.8306742832
 20
-29.683985847
 30
0.0
 10
-7.8741429711
 20
-29.6478173822
 30
0.0
 10
-7.9064287078
 20
-29.5980730439
 30
0.0
 10
-7.9267902317
 20
-29.5370950619
 30
0.0
 10
-7.9320497781
 20
-29.4925992447
 30
0.0
 10
-7.9329305184
 20
-29.4692321015
 30
0.0
  0
SPLINE
  5
589
100
AcDbEntity
  8
0
100
AcDbSpline
 62
250
  6
CONTINUOUS
 70
0
 71
3
 72
15
 73
11
 74
0
 42
0.0000001
 43
0.0000001
 44
0.0000000001
 40
0.0
 40
0.0
 40
0.0
 40
0.0
 40
0.14470503
 40
0.2745947179
 40
0.3917221813
 40
0.5012515833
 40
0.6105427576
 40
0.727043425
 40
0.8560987484
 40
1.0
 40
1.0
 40
1.0
 40
1.0
 10
-18.5065893183
 20
-2.7531105589
 30
0.0
 10
-18.5057311968
 20
-2.6589039096
 30
0.0
 10
-18.4897643265
 20
-2.4796484944
 30
0.0
 10
-18.4148061441
 20
-2.2335731802
 30
0.0
 10
-18.2905869739
 20
-2.0336307182
 30
0.0
 10
-18.1197566477
 20
-1.8904791064
 30
0.0
 10
-17.9108053996
 20
-1.8140014992
 30
0.0
 10
-17.6765669877
 20
-1.8068853254
 30
0.0
 10
-17.4276828614
 20
-1.8660110173
 30
0.0
 10
-17.2660261237
 20
-1.942696366
 30
0.0
 10
-17.1848895419
 20
-1.9895381955
 30
0.0
  0
SPLINE
  5
58A
100
AcDbEntity
  8
0
100
AcDbSpline
 62
250
  6
CONTINUOUS
 70
0
 71
3
 72
9
 73
5
 74
0
 42
0.0000001
 43
0.0000001
 44
0.0000000001
 40
0.0
 40
0.0
 40
0.0
 40
0.0
 40
0.2475900349
 40
1.0
 40
1.0
 40
1.0
 40
1.0
 10
-8.6335005779
 20
-29.4826808913
 30
0.0
 10
-8.6987112762
 20
-27.7600862397
 30
0.0
 10
-8.9207240076
 20
-20.8011210944
 30
0.0
 10
-8.9789210076
 20
-13.8370365915
 30
0.0
 10
-8.93512366
 20
-8.5986172538
 30
0.0
  0
SPLINE
  5
58B
100
AcDbEntity
  8
0
100
AcDbSpline
 62
250
  6
CONTINUOUS
 70
0
 71
3
 72
9
 73
5
 74
0
 42
0.0000001
 43
0.0000001
 44
0.0000000001
 40
0.0
 40
0.0
 40
0.0
 40
0.0
 40
0.2475845608
 40
1.0
 40
1.0
 40
1.0
 40
1.0
 10
-7.9329305184
 20
-29.4692321015
 30
0.0
 10
-7.9982310122
 20
-27.7442926497
 30
0.0
 10
-8.2204566844
 20
-20.7756973259
 30
0.0
 10
-8.2782537635
 20
-13.8019661969
 30
0.0
 10
-8.2338383092
 20
-8.556266735
 30
0.0
  0
SPLINE
  5
58C
100
AcDbEntity
  8
0
100
AcDbSpline
 62
250
  6
CONTINUOUS
 70
0
 71
3
 72
11
 73
7
 74
0
 42
0.0000001
 43
0.0000001
 44
0.0000000001
 40
0.0
 40
0.0
 40
0.0
 40
0.0
 40
0.2354292219
 40
0.4963044424
 40
0.7591925313
 40
1.0
 40
1.0
 40
1.0
 40
1.0
 10
-8.6335005703
 20
-29.4826808866
 30
0.0
 10
-8.5840294374
 20
-29.5112047838
 30
0.0
 10
-8.468610037
 20
-29.5522492601
 30
0.0
 10
-8.2837730497
 20
-29.5692434969
 30
0.0
 10
-8.0984541061
 20
-29.544815355
 30
0.0
 10
-7.9828983923
 20
-29.4994795931
 30
0.0
 10
-7.9329305184
 20
-29.4692321015
 30
0.0
  0
SPLINE
  5
58D
100
AcDbEntity
  8
0
100
AcDbSpline
 62
250
  6
CONTINUOUS
 70
0
 71
3
 72
11
 73
7
 74
0
 42
0.0000001
 43
0.0000001
 44
0.0000000001
 40
0.0
 40
0.0
 40
0.0
 40
0.0
 40
0.2379940153
 40
0.4988661959
 40
0.7603483924
 40
1.0
 40
1.0
 40
1.0
 40
1.0
 10
-8.6335005779
 20
4.8389767843
 30
0.0
 10
-8.6295419847
 20
4.9491258878
 30
0.0
 10
-8.5839136038
 20
5.178918323
 30
0.0
 10
-8.4385129373
 20
5.5022593156
 30
0.0
 10
-8.2294889091
 20
5.7895644624
 30
0.0
 10
-8.0522056621
 20
5.9442040238
 30
0.0
 10
-7.9581830773
 20
6.0031791302
 30
0.0
  0
SPLINE
  5
58E
100
AcDbEntity
  8
0
100
AcDbSpline
 62
250
  6
CONTINUOUS
 70
0
 71
3
 72
11
 73
7
 74
0
 42
0.0000001
 43
0.0000001
 44
0.0000000001
 40
0.0
 40
0.0
 40
0.0
 40
0.0
 40
0.2377325506
 40
0.4983582977
 40
0.7598661986
 40
1.0
 40
1.0
 40
1.0
 40
1.0
 10
-7.9329305184
 20
4.8181039165
 30
0.0
 10
-7.930939534
 20
4.8731475371
 30
0.0
 10
-7.9079116318
 20
4.9879785369
 30
0.0
 10
-7.8345403583
 20
5.1493532476
 30
0.0
 10
-7.7290554273
 20
5.2925154186
 30
0.0
 10
-7.6397037294
 20
5.3693118563
 30
0.0
 10
-7.5923503373
 20
5.3985182919
 30
0.0
  0
SPLINE
  5
58F
100
AcDbEntity
  8
0
100
AcDbSpline
 62
250
  6
CONTINUOUS
 70
0
 71
3
 72
11
 73
7
 74
0
 42
0.0000001
 43
0.0000001
 44
0.0000000001
 40
0.0
 40
0.0
 40
0.0
 40
0.0
 40
0.2380660563
 40
0.5015435169
 40
0.7641864361
 40
1.0
 40
1.0
 40
1.0
 40
1.0
 10
-8.6334846676
 20
4.8389852006
 30
0.0
 10
-8.5837609683
 20
4.8102314227
 30
0.0
 10
-8.4687679746
 20
4.7672264167
 30
0.0
 10
-8.2847956876
 20
4.7427499043
 30
0.0
 10
-8.1002331066
 20
4.7561165443
 30
0.0
 10
-7.9836193287
 20
4.7922633711
 30
0.0
 10
-7.9329305185
 20
4.8181039166
 30
0.0
  0
SPLINE
  5
590
100
AcDbEntity
  8
0
100
AcDbSpline
 62
250
  6
CONTINUOUS
 70
0
 71
3
 72
11
 73
7
 74
0
 42
0.0000001
 43
0.0000001
 44
0.0000000001
 40
0.0
 40
0.0
 40
0.0
 40
0.0
 40
0.237884453
 40
0.5022304351
 40
0.7653705117
 40
1.0
 40
1.0
 40
1.0
 40
1.0
 10
-7.9581830773
 20
6.0031791302
 30
0.0
 10
-7.9085882126
 20
5.9734759179
 30
0.0
 10
-7.8143569773
 20
5.8932037726
 30
0.0
 10
-7.7019217516
 20
5.7435785982
 30
0.0
 10
-7.6218183365
 20
5.57530978
 30
0.0
 10
-7.5950491778
 20
5.4554728204
 30
0.0
 10
-7.5923503373
 20
5.3985182919
 30
0.0
  0
SPLINE
  5
591
100
AcDbEntity
  8
0
100
AcDbSpline
 62
250
  6
CONTINUOUS
 70
0
 71
3
 72
9
 73
5
 74
0
 42
0.0000001
 43
0.0000001
 44
0.0000000001
 40
0.0
 40
0.0
 40
0.0
 40
0.0
 40
0.2459939215
 40
1.0
 40
1.0
 40
1.0
 40
1.0
 10
-23.4834996755
 20
-20.9084775266
 30
0.0
 10
-23.5864072042
 20
-18.0957114316
 30
0.0
 10
-23.897278446
 20
-6.6576556865
 30
0.0
 10
-23.785721524
 20
4.7911822273
 30
0.0
 10
-23.4834996755
 20
13.4131801491
 30
0.0
  0
SPLINE
  5
592
100
AcDbEntity
  8
0
100
AcDbSpline
 62
250
  6
CONTINUOUS
 70
0
 71
3
 72
11
 73
7
 74
0
 42
0.0000001
 43
0.0000001
 44
0.0000000001
 40
0.0
 40
0.0
 40
0.0
 40
0.0
 40
0.2385247852
 40
0.4998956045
 40
0.7613224476
 40
1.0
 40
1.0
 40
1.0
 40
1.0
 10
-23.4834996755
 20
13.4131801491
 30
0.0
 10
-23.479611669
 20
13.5234650732
 30
0.0
 10
-23.4347704717
 20
13.7535335251
 30
0.0
 10
-23.2920676007
 20
14.0780720411
 30
0.0
 10
-23.0869052328
 20
14.3672946181
 30
0.0
 10
-22.9125147278
 20
14.5240459927
 30
0.0
 10
-22.8198678982
 20
14.5841296852
 30
0.0
  0
SPLINE
  5
593
100
AcDbEntity
  8
0
100
AcDbSpline
 62
250
  6
CONTINUOUS
 70
0
 71
3
 72
11
 73
7
 74
0
 42
0.0000001
 43
0.0000001
 44
0.0000000001
 40
0.0
 40
0.0
 40
0.0
 40
0.0
 40
0.2132208643
 40
0.4443034377
 40
0.7054033721
 40
1.0
 40
1.0
 40
1.0
 40
1.0
 10
-23.6299366515
 20
13.6172228339
 30
0.0
 10
-23.630552698
 20
13.5985472051
 30
0.0
 10
-23.624407705
 20
13.5590965458
 30
0.0
 10
-23.5944688257
 20
13.5039582257
 30
0.0
 10
-23.5462890147
 20
13.453780262
 30
0.0
 10
-23.5058622165
 20
13.4260766971
 30
0.0
 10
-23.4834956665
 20
13.4131822704
 30
0.0
  0
SPLINE
  5
594
100
AcDbEntity
  8
0
100
AcDbSpline
 62
250
  6
CONTINUOUS
 70
0
 71
3
 72
11
 73
7
 74
0
 42
0.0000001
 43
0.0000001
 44
0.0000000001
 40
0.0
 40
0.0
 40
0.0
 40
0.0
 40
0.2130244871
 40
0.444059779
 40
0.7052809417
 40
1.0
 40
1.0
 40
1.0
 40
1.0
 10
-23.0764485621
 20
14.6046386538
 30
0.0
 10
-23.0604474059
 20
14.6151519228
 30
0.0
 10
-23.0226100985
 20
14.6307948808
 30
0.0
 10
-22.9583281728
 20
14.6337588322
 30
0.0
 10
-22.8887329139
 20
14.6179525072
 30
0.0
 10
-22.8430126538
 20
14.5970119302
 30
0.0
 10
-22.8198678982
 20
14.5841296852
 30
0.0
  0
SPLINE
  5
595
100
AcDbEntity
  8
0
100
AcDbSpline
 62
250
  6
CONTINUOUS
 70
0
 71
3
 72
11
 73
7
 74
0
 42
0.0000001
 43
0.0000001
 44
0.0000000001
 40
0.0
 40
0.0
 40
0.0
 40
0.0
 40
0.22185764
 40
0.4579965639
 40
0.716528317
 40
1.0
 40
1.0
 40
1.0
 40
1.0
 10
-23.6289476664
 20
-20.7187686424
 30
0.0
 10
-23.6269619059
 20
-20.7369619149
 30
0.0
 10
-23.6170064563
 20
-20.7740689289
 30
0.0
 10
-23.5861904232
 20
-20.8252397679
 30
0.0
 10
-23.5408186067
 20
-20.8713179642
 30
0.0
 10
-23.5037433148
 20
-20.8967726732
 30
0.0
 10
-23.4834996627
 20
-20.9084775186
 30
0.0
  0
SPLINE
  5
596
100
AcDbEntity
  8
0
100
AcDbSpline
 62
250
  6
CONTINUOUS
 70
0
 71
3
 72
11
 73
7
 74
0
 42
0.0000001
 43
0.0000001
 44
0.0000000001
 40
0.0
 40
0.0
 40
0.0
 40
0.0
 40
0.2209905491
 40
0.4554646449
 40
0.7136431691
 40
1.0
 40
1.0
 40
1.0
 40
1.0
 10
-8.4259726477
 20
-29.9070737248
 30
0.0
 10
-8.4573051324
 20
-29.8888798733
 30
0.0
 10
-8.5160493323
 20
-29.8404238619
 30
0.0
 10
-8.5805570632
 20
-29.7410536464
 30
0.0
 10
-8.6212613879
 20
-29.6188410955
 30
0.0
 10
-8.631742803
 20
-29.5295966492
 30
0.0
 10
-8.6335005779
 20
-29.4826808913
 30
0.0
  0
SPLINE
  5
597
100
AcDbEntity
  8
0
100
AcDbSpline
 62
250
  6
CONTINUOUS
 70
0
 71
3
 72
11
 73
7
 74
0
 42
0.0000001
 43
0.0000001
 44
0.0000000001
 40
0.0
 40
0.0
 40
0.0
 40
0.0
 40
0.2183326969
 40
0.4518587011
 40
0.7113466574
 40
1.0
 40
1.0
 40
1.0
 40
1.0
 10
-7.716762205
 20
-29.9097124434
 30
0.0
 10
-7.698358033
 20
-29.9005372305
 30
0.0
 10
-7.6633982558
 20
-29.8745965015
 30
0.0
 10
-7.6247949661
 20
-29.8186715222
 30
0.0
 10
-7.6001721119
 20
-29.7485718519
 30
0.0
 10
-7.5935727555
 20
-29.6970078062
 30
0.0
 10
-7.5923503373
 20
-29.6698474011
 30
0.0
  0
SPLINE
  5
598
100
AcDbEntity
  8
0
100
AcDbSpline
 62
250
  6
CONTINUOUS
 70
0
 71
3
 72
11
 73
7
 74
0
 42
0.0000001
 43
0.0000001
 44
0.0000000001
 40
0.0
 40
0.0
 40
0.0
 40
0.0
 40
0.219245227
 40
0.4530873662
 40
0.711894026
 40
1.0
 40
1.0
 40
1.0
 40
1.0
 10
-23.2788442306
 20
-21.331212987
 30
0.0
 10
-23.3097956919
 20
-21.3133441354
 30
0.0
 10
-23.3678792795
 20
-21.2653210493
 30
0.0
 10
-23.4314192336
 20
-21.1664664631
 30
0.0
 10
-23.4714821554
 20
-21.0445343976
 30
0.0
 10
-23.4817736224
 20
-20.9554099696
 30
0.0
 10
-23.4834996755
 20
-20.9084775266
 30
0.0
  0
SPLINE
  5
599
100
AcDbEntity
  8
0
100
AcDbSpline
 62
250
  6
CONTINUOUS
 70
0
 71
3
 72
11
 73
7
 74
0
 42
0.0000001
 43
0.0000001
 44
0.0000000001
 40
0.0
 40
0.0
 40
0.0
 40
0.0
 40
0.218594843
 40
0.4516018657
 40
0.7104468228
 40
1.0
 40
1.0
 40
1.0
 40
1.0
 10
-11.4844952328
 20
-8.2010894045
 30
0.0
 10
-11.5358935393
 20
-8.2322010861
 30
0.0
 10
-11.6543648916
 20
-8.2779152421
 30
0.0
 10
-11.852303661
 20
-8.2854596077
 30
0.0
 10
-12.0633527557
 20
-8.235980036
 30
0.0
 10
-12.2004923578
 20
-8.1709702761
 30
0.0
 10
-12.2694140159
 20
-8.1311782452
 30
0.0
  0
SPLINE
  5
59A
100
AcDbEntity
  8
0
100
AcDbSpline
 62
250
  6
CONTINUOUS
 70
0
 71
3
 72
11
 73
7
 74
0
 42
0.0000001
 43
0.0000001
 44
0.0000000001
 40
0.0
 40
0.0
 40
0.0
 40
0.0
 40
0.236995284
 40
0.4992054243
 40
0.7618468899
 40
1.0
 40
1.0
 40
1.0
 40
1.0
 10
-17.2154568165
 20
-5.759807739
 30
0.0
 10
-17.2153142613
 20
-5.7254958148
 30
0.0
 10
-17.2023994535
 20
-5.6532214424
 30
0.0
 10
-17.157780347
 20
-5.551476658
 30
0.0
 10
-17.0925147843
 20
-5.46136174
 30
0.0
 10
-17.0366277226
 20
-5.413424688
 30
0.0
 10
-17.0070294493
 20
-5.3957384696
 30
0.0
  0
SPLINE
  5
59B
100
AcDbEntity
  8
0
100
AcDbSpline
 62
250
  6
CONTINUOUS
 70
0
 71
3
 72
11
 73
7
 74
0
 42
0.0000001
 43
0.0000001
 44
0.0000000001
 40
0.0
 40
0.0
 40
0.0
 40
0.0
 40
0.2369951935
 40
0.4992052884
 40
0.7618468175
 40
1.0
 40
1.0
 40
1.0
 40
1.0
 10
-12.4778413826
 20
-8.4952475143
 30
0.0
 10
-12.4776988275
 20
-8.4609356031
 30
0.0
 10
-12.4647840302
 20
-8.3886612497
 30
0.0
 10
-12.4201649358
 20
-8.2869164711
 30
0.0
 10
-12.3548993737
 20
-8.1968015361
 30
0.0
 10
-12.2990122983
 20
-8.1488644677
 30
0.0
 10
-12.2694140154
 20
-8.1311782449
 30
0.0
  0
SPLINE
  5
59C
100
AcDbEntity
  8
0
100
AcDbSpline
 62
250
  6
CONTINUOUS
 70
0
 71
3
 72
11
 73
7
 74
0
 42
0.0000001
 43
0.0000001
 44
0.0000000001
 40
0.0
 40
0.0
 40
0.0
 40
0.0
 40
0.2901600945
 40
0.5503336293
 40
0.7832103701
 40
1.0
 40
1.0
 40
1.0
 40
1.0
 10
-11.1632150464
 20
-7.7352638488
 30
0.0
 10
-11.1764063594
 20
-7.7276496303
 30
0.0
 10
-11.2003319518
 20
-7.7111341082
 30
0.0
 10
-11.2290032252
 20
-7.6811575072
 30
0.0
 10
-11.2470231128
 20
-7.6479496098
 30
0.0
 10
-11.2511583412
 20
-7.6241627
 30
0.0
 10
-11.2510832282
 20
-7.6127831984
 30
0.0
  0
SPLINE
  5
59D
100
AcDbEntity
  8
0
100
AcDbSpline
 62
250
  6
CONTINUOUS
 70
0
 71
3
 72
11
 73
7
 74
0
 42
0.0000001
 43
0.0000001
 44
0.0000000001
 40
0.0
 40
0.0
 40
0.0
 40
0.0
 40
0.2903894952
 40
0.5506236045
 40
0.7833989152
 40
1.0
 40
1.0
 40
1.0
 40
1.0
 10
-11.1573299564
 20
-6.9964808066
 30
0.0
 10
-11.1705405509
 20
-6.9888559472
 30
0.0
 10
-11.1944956085
 20
-6.9723226485
 30
0.0
 10
-11.223191862
 20
-6.9423173793
 30
0.0
 10
-11.2412013186
 20
-6.9090865144
 30
0.0
 10
-11.2452988823
 20
-6.8852888997
 30
0.0
 10
-11.2451975468
 20
-6.8739120567
 30
0.0
  0
SPLINE
  5
59E
100
AcDbEntity
  8
0
100
AcDbSpline
 62
250
  6
CONTINUOUS
 70
0
 71
3
 72
11
 73
7
 74
0
 42
0.0000001
 43
0.0000001
 44
0.0000000001
 40
0.0
 40
0.0
 40
0.0
 40
0.0
 40
0.2899743668
 40
0.5501559195
 40
0.7831045189
 40
1.0
 40
1.0
 40
1.0
 40
1.0
 10
-12.447274108
 20
-4.7249779708
 30
0.0
 10
-12.4474612708
 20
-4.7405198057
 30
0.0
 10
-12.4454057281
 20
-4.7701279617
 30
0.0
 10
-12.4339469195
 20
-4.8109039468
 30
0.0
 10
-12.4140594997
 20
-4.8439812387
 30
0.0
 10
-12.3952392868
 20
-4.8599290821
 30
0.0
 10
-12.3851699688
 20
-4.8657402092
 30
0.0
  0
SPLINE
  5
59F
100
AcDbEntity
  8
0
100
AcDbSpline
 62
250
  6
CONTINUOUS
 70
0
 71
3
 72
11
 73
7
 74
0
 42
0.0000001
 43
0.0000001
 44
0.0000000001
 40
0.0
 40
0.0
 40
0.0
 40
0.0
 40
0.2899473242
 40
0.5501355513
 40
0.7831061503
 40
1.0
 40
1.0
 40
1.0
 40
1.0
 10
-17.1848895419
 20
-1.9895381955
 30
0.0
 10
-17.1850765332
 20
-2.0050657853
 30
0.0
 10
-17.1830248507
 20
-2.0346482224
 30
0.0
 10
-17.1715883987
 20
-2.0753933188
 30
0.0
 10
-17.1517403459
 20
-2.1084569854
 30
0.0
 10
-17.1329545266
 20
-2.1244135144
 30
0.0
 10
-17.1229014152
 20
-2.1302333768
 30
0.0
  0
SPLINE
  5
5A0
100
AcDbEntity
  8
0
100
AcDbSpline
 62
250
  6
CONTINUOUS
 70
0
 71
3
 72
11
 73
7
 74
0
 42
0.0000001
 43
0.0000001
 44
0.0000000001
 40
0.0
 40
0.0
 40
0.0
 40
0.0
 40
0.2370290534
 40
0.499552568
 40
0.7623188831
 40
1.0
 40
1.0
 40
1.0
 40
1.0
 10
-18.5065893183
 20
-2.7531105592
 30
0.0
 10
-18.4768125883
 20
-2.7703095192
 30
0.0
 10
-18.4077061445
 20
-2.7956560178
 30
0.0
 10
-18.2970879183
 20
-2.8086531804
 30
0.0
 10
-18.1861158768
 20
-2.7980838052
 30
0.0
 10
-18.1163368511
 20
-2.7742818182
 30
0.0
 10
-18.0860710763
 20
-2.7577604518
 30
0.0
  0
SPLINE
  5
5A1
100
AcDbEntity
  8
0
100
AcDbSpline
 62
250
  6
CONTINUOUS
 70
0
 71
3
 72
11
 73
7
 74
0
 42
0.0000001
 43
0.0000001
 44
0.0000000001
 40
0.0
 40
0.0
 40
0.0
 40
0.0
 40
0.2369721079
 40
0.4994397534
 40
0.762211509
 40
1.0
 40
1.0
 40
1.0
 40
1.0
 10
-18.5126833798
 20
-3.4917729439
 30
0.0
 10
-18.4829098683
 20
-3.5089689432
 30
0.0
 10
-18.413797755
 20
-3.5342900612
 30
0.0
 10
-18.3031677567
 20
-3.5471907914
 30
0.0
 10
-18.1921848418
 20
-3.5364787896
 30
0.0
 10
-18.1224184116
 20
-3.5125579818
 30
0.0
 10
-18.0921615069
 20
-3.4959795807
 30
0.0
  0
SPLINE
  5
5A2
100
AcDbEntity
  8
0
100
AcDbSpline
 62
250
  6
CONTINUOUS
 70
0
 71
3
 72
11
 73
7
 74
0
 42
0.0000001
 43
0.0000001
 44
0.0000000001
 40
0.0
 40
0.0
 40
0.0
 40
0.0
 40
0.235827857
 40
0.4980104629
 40
0.7612755277
 40
1.0
 40
1.0
 40
1.0
 40
1.0
 10
-17.1848895419
 20
-13.4209707616
 30
0.0
 10
-17.1853108435
 20
-13.3864727413
 30
0.0
 10
-17.1730665911
 20
-13.3134208916
 30
0.0
 10
-17.1286712949
 20
-13.2103842529
 30
0.0
 10
-17.0629865781
 20
-13.1189034667
 30
0.0
 10
-17.0064603608
 20
-13.0702190184
 30
0.0
 10
-16.9764805151
 20
-13.0523047944
 30
0.0
  0
SPLINE
  5
5A3
100
AcDbEntity
  8
0
100
AcDbSpline
 62
250
  6
CONTINUOUS
 70
0
 71
3
 72
11
 73
7
 74
0
 42
0.0000001
 43
0.0000001
 44
0.0000000001
 40
0.0
 40
0.0
 40
0.0
 40
0.0
 40
0.2358277641
 40
0.4980103233
 40
0.7612754534
 40
1.0
 40
1.0
 40
1.0
 40
1.0
 10
-12.447274108
 20
-16.1564105369
 30
0.0
 10
-12.4476954095
 20
-16.1219125301
 30
0.0
 10
-12.435451168
 20
-16.0488607003
 30
0.0
 10
-12.3910558845
 20
-15.9458240675
 30
0.0
 10
-12.3253711683
 20
-15.8543432636
 30
0.0
 10
-12.2688449369
 20
-15.8056587983
 30
0.0
 10
-12.2388650812
 20
-15.7877445697
 30
0.0
  0
SPLINE
  5
5A4
100
AcDbEntity
  8
0
100
AcDbSpline
 62
250
  6
CONTINUOUS
 70
0
 71
3
 72
11
 73
7
 74
0
 42
0.0000001
 43
0.0000001
 44
0.0000000001
 40
0.0
 40
0.0
 40
0.0
 40
0.0
 40
0.2879698482
 40
0.5474883177
 40
0.7812764738
 40
1.0
 40
1.0
 40
1.0
 40
1.0
 10
-11.1573299564
 20
-15.4111734729
 30
0.0
 10
-11.1703891588
 20
-15.4036305683
 30
0.0
 10
-11.1941193661
 20
-15.3872111299
 30
0.0
 10
-11.2226151488
 20
-15.357346344
 30
0.0
 10
-11.2406994957
 20
-15.3241621828
 30
0.0
 10
-11.2450870265
 20
-15.3003546647
 30
0.0
 10
-11.245196756
 20
-15.2889005841
 30
0.0
  0
SPLINE
  5
5A5
100
AcDbEntity
  8
0
100
AcDbSpline
 62
250
  6
CONTINUOUS
 70
0
 71
3
 72
11
 73
7
 74
0
 42
0.0000001
 43
0.0000001
 44
0.0000000001
 40
0.0
 40
0.0
 40
0.0
 40
0.0
 40
0.2881919123
 40
0.547767387
 40
0.7814566894
 40
1.0
 40
1.0
 40
1.0
 40
1.0
 10
-11.1632150464
 20
-14.6794277002
 30
0.0
 10
-11.1762946079
 20
-14.6718735024
 30
0.0
 10
-11.2000562292
 20
-14.6554343603
 30
0.0
 10
-11.2285784505
 20
-14.6255362348
 30
0.0
 10
-11.2466516758
 20
-14.5923231457
 30
0.0
 10
-11.2510002101
 20
-14.568500855
 30
0.0
 10
-11.2510827336
 20
-14.5570471507
 30
0.0
  0
SPLINE
  5
5A6
100
AcDbEntity
  8
0
100
AcDbSpline
 62
250
  6
CONTINUOUS
 70
0
 71
3
 72
11
 73
7
 74
0
 42
0.0000001
 43
0.0000001
 44
0.0000000001
 40
0.0
 40
0.0
 40
0.0
 40
0.0
 40
0.2889060683
 40
0.5486699646
 40
0.78206159
 40
1.0
 40
1.0
 40
1.0
 40
1.0
 10
-12.4778413826
 20
-12.4214393159
 30
0.0
 10
-12.4777785803
 20
-12.4364828423
 30
0.0
 10
-12.4753321989
 20
-12.4651312491
 30
0.0
 10
-12.4636415576
 20
-12.504517696
 30
0.0
 10
-12.4439423713
 20
-12.5364661167
 30
0.0
 10
-12.4255472751
 20
-12.5519103311
 30
0.0
 10
-12.4157190257
 20
-12.5575838903
 30
0.0
  0
SPLINE
  5
5A7
100
AcDbEntity
  8
0
100
AcDbSpline
 62
250
  6
CONTINUOUS
 70
0
 71
3
 72
11
 73
7
 74
0
 42
0.0000001
 43
0.0000001
 44
0.0000000001
 40
0.0
 40
0.0
 40
0.0
 40
0.0
 40
0.2888914866
 40
0.5486591313
 40
0.7820626944
 40
1.0
 40
1.0
 40
1.0
 40
1.0
 10
-17.2154568165
 20
-9.6859995406
 30
0.0
 10
-17.2153940468
 20
-9.7010352561
 30
0.0
 10
-17.2129500147
 20
-9.7296695558
 30
0.0
 10
-17.2012718648
 20
-9.769039118
 30
0.0
 10
-17.1815943242
 20
-9.8009801072
 30
0.0
 10
-17.1632179553
 20
-9.8164288571
 30
0.0
 10
-17.1533985978
 20
-9.8221070578
 30
0.0
  0
SPLINE
  5
5A8
100
AcDbEntity
  8
0
100
AcDbSpline
 62
250
  6
CONTINUOUS
 70
0
 71
3
 72
11
 73
7
 74
0
 42
0.0000001
 43
0.0000001
 44
0.0000000001
 40
0.0
 40
0.0
 40
0.0
 40
0.0
 40
0.236438039
 40
0.4983786106
 40
0.7612004871
 40
1.0
 40
1.0
 40
1.0
 40
1.0
 10
-18.5126833798
 20
-10.4359367953
 30
0.0
 10
-18.4829406772
 20
-10.4531048045
 30
0.0
 10
-18.4137772138
 20
-10.4781877827
 30
0.0
 10
-18.3030426256
 20
-10.4901807368
 30
0.0
 10
-18.1919685194
 20
-10.4781258025
 30
0.0
 10
-18.122330823
 20
-10.45308994
 30
0.0
 10
-18.0921614771
 20
-10.4359769188
 30
0.0
  0
SPLINE
  5
5A9
100
AcDbEntity
  8
0
100
AcDbSpline
 62
250
  6
CONTINUOUS
 70
0
 71
3
 72
11
 73
7
 74
0
 42
0.0000001
 43
0.0000001
 44
0.0000000001
 40
0.0
 40
0.0
 40
0.0
 40
0.0
 40
0.2363816938
 40
0.4982664208
 40
0.7610936112
 40
1.0
 40
1.0
 40
1.0
 40
1.0
 10
-18.5065893183
 20
-11.1678032255
 30
0.0
 10
-18.4768499469
 20
-11.1849682524
 30
0.0
 10
-18.4076813293
 20
-11.2100261787
 30
0.0
 10
-18.29693639
 20
-11.2219233464
 30
0.0
 10
-18.1858538169
 20
-11.2097266711
 30
0.0
 10
-18.1162307344
 20
-11.184573495
 30
0.0
 10
-18.0860710392
 20
-11.1674042803
 30
0.0
  0
SPLINE
  5
5AA
100
AcDbEntity
  8
0
100
AcDbSpline
 62
250
  6
CONTINUOUS
 70
0
 71
3
 72
8
 73
4
 74
0
 42
0.0000001
 43
0.0000001
 44
0.0000000001
 40
0.0
 40
0.0
 40
0.0
 40
0.0
 40
1.0
 40
1.0
 40
1.0
 40
1.0
 10
-18.5065893183
 20
-11.1678032255
 30
0.0
 10
-18.5088161568
 20
-10.9238494547
 30
0.0
 10
-18.5108473374
 20
-10.6798938199
 30
0.0
 10
-18.5126833798
 20
-10.435936795
 30
0.0
  0
SPLINE
  5
5AB
100
AcDbEntity
  8
0
100
AcDbSpline
 62
250
  6
CONTINUOUS
 70
0
 71
3
 72
13
 73
9
 74
0
 42
0.0000001
 43
0.0000001
 44
0.0000000001
 40
0.0
 40
0.0
 40
0.0
 40
0.0
 40
0.1144104319
 40
0.237960323
 40
0.5008375041
 40
0.763172088
 40
0.8861633543
 40
1.0
 40
1.0
 40
1.0
 40
1.0
 10
-17.1848895419
 20
-13.4209707616
 30
0.0
 10
-17.2743521824
 20
-13.3693075819
 30
0.0
 10
-17.4512763702
 20
-13.2455936659
 30
0.0
 10
-17.7832381393
 20
-12.9369314172
 30
0.0
 10
-18.1353666638
 20
-12.4620481811
 30
0.0
 10
-18.3783017165
 20
-11.9235380415
 30
0.0
 10
-18.4848035747
 20
-11.4844675656
 30
0.0
 10
-18.5056455966
 20
-11.2705892947
 30
0.0
 10
-18.5065893183
 20
-11.1678032255
 30
0.0
  0
SPLINE
  5
5AC
100
AcDbEntity
  8
0
100
AcDbSpline
 62
250
  6
CONTINUOUS
 70
0
 71
3
 72
15
 73
11
 74
0
 42
0.0000001
 43
0.0000001
 44
0.0000000001
 40
0.0
 40
0.0
 40
0.0
 40
0.0
 40
0.1450845631
 40
0.2745448203
 40
0.3906096352
 40
0.4988860412
 40
0.6073533459
 40
0.7239327683
 40
0.8540958564
 40
1.0
 40
1.0
 40
1.0
 40
1.0
 10
-11.1573299564
 20
-15.4111734732
 30
0.0
 10
-11.1565160244
 20
-15.5041763592
 30
0.0
 10
-11.1689202572
 20
-15.680899676
 30
0.0
 10
-11.2380865368
 20
-15.923848587
 30
0.0
 10
-11.3567710943
 20
-16.1210244002
 30
0.0
 10
-11.5229365014
 20
-16.261612086
 30
0.0
 10
-11.728018377
 20
-16.3354353122
 30
0.0
 10
-11.9589547023
 20
-16.340323724
 30
0.0
 10
-12.2055303849
 20
-16.2799126441
 30
0.0
 10
-12.3662719998
 20
-16.2031744489
 30
0.0
 10
-12.447274108
 20
-16.1564105369
 30
0.0
  0
SPLINE
  5
5AD
100
AcDbEntity
  8
0
100
AcDbSpline
 62
250
  6
CONTINUOUS
 70
0
 71
3
 72
8
 73
4
 74
0
 42
0.0000001
 43
0.0000001
 44
0.0000000001
 40
0.0
 40
0.0
 40
0.0
 40
0.0
 40
1.0
 40
1.0
 40
1.0
 40
1.0
 10
-18.0860710392
 20
-11.1674042803
 30
0.0
 10
-18.0882965644
 20
-10.9235968698
 30
0.0
 10
-18.0903265473
 20
-10.6797875963
 30
0.0
 10
-18.0921615069
 20
-10.4359769335
 30
0.0
  0
SPLINE
  5
5AE
100
AcDbEntity
  8
0
100
AcDbSpline
 62
250
  6
CONTINUOUS
 70
0
 71
3
 72
8
 73
4
 74
0
 42
0.0000001
 43
0.0000001
 44
0.0000000001
 40
0.0
 40
0.0
 40
0.0
 40
0.0
 40
1.0
 40
1.0
 40
1.0
 40
1.0
 10
-11.1632150464
 20
-14.6794277002
 30
0.0
 10
-11.1614419927
 20
-14.9233444021
 30
0.0
 10
-11.1594804695
 20
-15.1672598072
 30
0.0
 10
-11.1573299564
 20
-15.4111734732
 30
0.0
  0
SPLINE
  5
5AF
100
AcDbEntity
  8
0
100
AcDbSpline
 62
250
  6
CONTINUOUS
 70
0
 71
3
 72
11
 73
7
 74
0
 42
0.0000001
 43
0.0000001
 44
0.0000000001
 40
0.0
 40
0.0
 40
0.0
 40
0.0
 40
0.2905612918
 40
0.5497190191
 40
0.7823011183
 40
1.0
 40
1.0
 40
1.0
 40
1.0
 10
-18.0921614771
 20
-10.4359769169
 30
0.0
 10
-18.0928695894
 20
-10.3569019196
 30
0.0
 10
-18.0820753732
 20
-10.2066490073
 30
0.0
 10
-18.0217428343
 20
-10.000375254
 30
0.0
 10
-17.918485089
 20
-9.8338800843
 30
0.0
 10
-17.8210642808
 20
-9.7548374877
 30
0.0
 10
-17.7691396007
 20
-9.7263037389
 30
0.0
  0
SPLINE
  5
5B0
100
AcDbEntity
  8
0
100
AcDbSpline
 62
250
  6
CONTINUOUS
 70
0
 71
3
 72
11
 73
7
 74
0
 42
0.0000001
 43
0.0000001
 44
0.0000000001
 40
0.0
 40
0.0
 40
0.0
 40
0.0
 40
0.2382939845
 40
0.4967239028
 40
0.756899473
 40
1.0
 40
1.0
 40
1.0
 40
1.0
 10
-12.3679361836
 20
-12.4902471914
 30
0.0
 10
-12.2137598927
 20
-12.5942579169
 30
0.0
 10
-11.9217969962
 20
-12.8555609786
 30
0.0
 10
-11.5678463685
 20
-13.3325884688
 30
0.0
 10
-11.3058936434
 20
-13.8698416404
 30
0.0
 10
-11.204705519
 20
-14.253297849
 30
0.0
 10
-11.1801252919
 20
-14.4414302265
 30
0.0
  0
SPLINE
  5
5B1
100
AcDbEntity
  8
0
100
AcDbSpline
 62
250
  6
CONTINUOUS
 70
0
 71
3
 72
9
 73
5
 74
0
 42
0.0000001
 43
0.0000001
 44
0.0000000001
 40
0.0
 40
0.0
 40
0.0
 40
0.0
 40
0.2569192042
 40
1.0
 40
1.0
 40
1.0
 40
1.0
 10
-11.1801252919
 20
-14.4414302265
 30
0.0
 10
-11.1774771736
 20
-14.4616984196
 30
0.0
 10
-11.1682882315
 20
-14.5407264481
 30
0.0
 10
-11.1636476877
 20
-14.6203098832
 30
0.0
 10
-11.1632150464
 20
-14.6794277002
 30
0.0
  0
SPLINE
  5
5B2
100
AcDbEntity
  8
0
100
AcDbSpline
 62
250
  6
CONTINUOUS
 70
0
 71
3
 72
13
 73
9
 74
0
 42
0.0000001
 43
0.0000001
 44
0.0000000001
 40
0.0
 40
0.0
 40
0.0
 40
0.0
 40
0.1144342049
 40
0.2380164714
 40
0.500951977
 40
0.7632868517
 40
0.8862380561
 40
1.0
 40
1.0
 40
1.0
 40
1.0
 10
-16.9764805145
 20
-13.052304794
 30
0.0
 10
-17.0513954781
 20
-13.0090463966
 30
0.0
 10
-17.1995766337
 20
-12.9054966743
 30
0.0
 10
-17.4777717014
 20
-12.6472682203
 30
0.0
 10
-17.7731895632
 20
-12.2501059274
 30
0.0
 10
-17.9774619439
 20
-11.7996617692
 30
0.0
 10
-18.0673423367
 20
-11.4323377061
 30
0.0
 10
-18.0851308649
 20
-11.2533984154
 30
0.0
 10
-18.0860710667
 20
-11.1674042956
 30
0.0
  0
SPLINE
  5
5B3
100
AcDbEntity
  8
0
100
AcDbSpline
 62
250
  6
CONTINUOUS
 70
0
 71
3
 72
15
 73
11
 74
0
 42
0.0000001
 43
0.0000001
 44
0.0000000001
 40
0.0
 40
0.0
 40
0.0
 40
0.0
 40
0.1447937732
 40
0.2742193736
 40
0.3904995031
 40
0.4991371186
 40
0.6079199881
 40
0.7245933835
 40
0.8545589738
 40
1.0
 40
1.0
 40
1.0
 40
1.0
 10
-18.5126833798
 20
-10.435936795
 30
0.0
 10
-18.5133779228
 20
-10.3427494712
 30
0.0
 10
-18.5005902218
 20
-10.1655413421
 30
0.0
 10
-18.4304372005
 20
-9.921888397
 30
0.0
 10
-18.3105196924
 20
-9.7239957917
 30
0.0
 10
-18.1431391579
 20
-9.5826930876
 30
0.0
 10
-17.936942328
 20
-9.5080724256
 30
0.0
 10
-17.7049670613
 20
-9.5024702053
 30
0.0
 10
-17.4576018442
 20
-9.5624628912
 30
0.0
 10
-17.2965233968
 20
-9.6391980026
 30
0.0
 10
-17.2154568165
 20
-9.6859995406
 30
0.0
  0
SPLINE
  5
5B4
100
AcDbEntity
  8
0
100
AcDbSpline
 62
250
  6
CONTINUOUS
 70
0
 71
3
 72
8
 73
4
 74
0
 42
0.0000001
 43
0.0000001
 44
0.0000000001
 40
0.0
 40
0.0
 40
0.0
 40
0.0
 40
1.0
 40
1.0
 40
1.0
 40
1.0
 10
-18.5126833798
 20
-3.4917729439
 30
0.0
 10
-18.510845712
 20
-3.2455506272
 30
0.0
 10
-18.5088141872
 20
-2.9993296813
 30
0.0
 10
-18.5065893183
 20
-2.7531105589
 30
0.0
  0
SPLINE
  5
5B5
100
AcDbEntity
  8
0
100
AcDbSpline
 62
250
  6
CONTINUOUS
 70
0
 71
3
 72
13
 73
9
 74
0
 42
0.0000001
 43
0.0000001
 44
0.0000000001
 40
0.0
 40
0.0
 40
0.0
 40
0.0
 40
0.114176413
 40
0.2373925029
 40
0.4996749534
 40
0.7620520269
 40
0.8854527509
 40
1.0
 40
1.0
 40
1.0
 40
1.0
 10
-17.2154568165
 20
-5.759807739
 30
0.0
 10
-17.3048764066
 20
-5.7081692849
 30
0.0
 10
-17.4814852539
 20
-5.5842402118
 30
0.0
 10
-17.8117667196
 20
-5.2742097631
 30
0.0
 10
-18.1598637192
 20
-4.7959096881
 30
0.0
 10
-18.396002131
 20
-4.2533326417
 30
0.0
 10
-18.4960585091
 20
-3.8109185383
 30
0.0
 10
-18.513451004
 20
-3.5953643408
 30
0.0
 10
-18.5126833798
 20
-3.4917729439
 30
0.0
  0
SPLINE
  5
5B6
100
AcDbEntity
  8
0
100
AcDbSpline
 62
250
  6
CONTINUOUS
 70
0
 71
3
 72
15
 73
11
 74
0
 42
0.0000001
 43
0.0000001
 44
0.0000000001
 40
0.0
 40
0.0
 40
0.0
 40
0.0
 40
0.145024648
 40
0.2749773587
 40
0.3919113522
 40
0.5010889019
 40
0.6100573011
 40
0.7264426878
 40
0.8556668364
 40
1.0
 40
1.0
 40
1.0
 40
1.0
 10
-11.1632150464
 20
-7.7352638491
 30
0.0
 10
-11.1638993487
 20
-7.8293704949
 30
0.0
 10
-11.1793864365
 20
-8.0083107864
 30
0.0
 10
-11.2532659385
 20
-8.2539472396
 30
0.0
 10
-11.3762206339
 20
-8.4534141493
 30
0.0
 10
-11.5458610336
 20
-8.5960516842
 30
0.0
 10
-11.7537797675
 20
-8.6718765906
 30
0.0
 10
-11.9871003688
 20
-8.6783458912
 30
0.0
 10
-12.2353264707
 20
-8.6187990467
 30
0.0
 10
-12.3967278834
 20
-8.5420756462
 30
0.0
 10
-12.4778413826
 20
-8.4952475143
 30
0.0
  0
SPLINE
  5
5B7
100
AcDbEntity
  8
0
100
AcDbSpline
 62
250
  6
CONTINUOUS
 70
0
 71
3
 72
8
 73
4
 74
0
 42
0.0000001
 43
0.0000001
 44
0.0000000001
 40
0.0
 40
0.0
 40
0.0
 40
0.0
 40
1.0
 40
1.0
 40
1.0
 40
1.0
 10
-11.1573299564
 20
-6.9964808066
 30
0.0
 10
-11.1594784999
 20
-7.2427402615
 30
0.0
 10
-11.1614403673
 20
-7.4890014162
 30
0.0
 10
-11.1632150464
 20
-7.7352638491
 30
0.0
  0
SPLINE
  5
5B8
100
AcDbEntity
  8
0
100
AcDbSpline
 62
250
  6
CONTINUOUS
 70
0
 71
3
 72
11
 73
7
 74
0
 42
0.0000001
 43
0.0000001
 44
0.0000000001
 40
0.0
 40
0.0
 40
0.0
 40
0.0
 40
0.2162149557
 40
0.4484385218
 40
0.7081763615
 40
1.0
 40
1.0
 40
1.0
 40
1.0
 10
-11.4616431869
 20
-15.8620559567
 30
0.0
 10
-11.5119977549
 20
-15.8925342001
 30
0.0
 10
-11.6288215958
 20
-15.9369744464
 30
0.0
 10
-11.8242971941
 20
-15.9428608243
 30
0.0
 10
-12.0336221351
 20
-15.8924854682
 30
0.0
 10
-12.1700655538
 20
-15.8274662037
 30
0.0
 10
-12.2388650789
 20
-15.7877445683
 30
0.0
  0
SPLINE
  5
5B9
100
AcDbEntity
  8
0
100
AcDbSpline
 62
250
  6
CONTINUOUS
 70
0
 71
3
 72
11
 73
7
 74
0
 42
0.0000001
 43
0.0000001
 44
0.0000000001
 40
0.0
 40
0.0
 40
0.0
 40
0.0
 40
0.2370162104
 40
0.4995654817
 40
0.7622748128
 40
1.0
 40
1.0
 40
1.0
 40
1.0
 10
-17.0070294491
 20
-5.3957384695
 30
0.0
 10
-17.1622911367
 20
-5.3060848375
 30
0.0
 10
-17.4559512495
 20
-5.058426765
 30
0.0
 10
-17.7975869878
 20
-4.5885252389
 30
0.0
 10
-18.0294792788
 20
-4.0552228666
 30
0.0
 10
-18.0937573313
 20
-3.6757961645
 30
0.0
 10
-18.0921614856
 20
-3.4959795688
 30
0.0
  0
SPLINE
  5
5BA
100
AcDbEntity
  8
0
100
AcDbSpline
 62
250
  6
CONTINUOUS
 70
0
 71
3
 72
11
 73
7
 74
0
 42
0.0000001
 43
0.0000001
 44
0.0000000001
 40
0.0
 40
0.0
 40
0.0
 40
0.0
 40
0.2420174288
 40
0.5045157317
 40
0.7645477635
 40
1.0
 40
1.0
 40
1.0
 40
1.0
 10
-12.3351174828
 20
-4.7954219785
 30
0.0
 10
-12.1630152137
 20
-4.9122358683
 30
0.0
 10
-11.8418005003
 20
-5.2120988087
 30
0.0
 10
-11.4709002305
 20
-5.7599829659
 30
0.0
 10
-11.2230527671
 20
-6.3672886932
 30
0.0
 10
-11.1555744457
 20
-6.7941292444
 30
0.0
 10
-11.1573299564
 20
-6.9964808066
 30
0.0
  0
SPLINE
  5
5BB
100
AcDbEntity
  8
0
100
AcDbSpline
 62
250
  6
CONTINUOUS
 70
0
 71
3
 72
8
 73
4
 74
0
 42
0.0000001
 43
0.0000001
 44
0.0000000001
 40
0.0
 40
0.0
 40
0.0
 40
0.0
 40
1.0
 40
1.0
 40
1.0
 40
1.0
 10
-18.0921615069
 20
-3.4959795807
 30
0.0
 10
-18.0903249229
 20
-3.2499050094
 30
0.0
 10
-18.088294596
 20
-3.0038318082
 30
0.0
 10
-18.0860710392
 20
-2.7577604294
 30
0.0
  0
SPLINE
  5
5BC
100
AcDbEntity
  8
0
100
AcDbSpline
 62
250
  6
CONTINUOUS
 70
0
 71
3
 72
11
 73
7
 74
0
 42
0.0000001
 43
0.0000001
 44
0.0000000001
 40
0.0
 40
0.0
 40
0.0
 40
0.0
 40
0.2888887721
 40
0.5478648151
 40
0.7813057269
 40
1.0
 40
1.0
 40
1.0
 40
1.0
 10
-18.0860710763
 20
-2.75776045
 30
0.0
 10
-18.0852048355
 20
-2.6776408001
 30
0.0
 10
-18.0711804003
 20
-2.5252917561
 30
0.0
 10
-18.0059606313
 20
-2.3165565954
 30
0.0
 10
-17.8983457361
 20
-2.1479950393
 30
0.0
 10
-17.7984532139
 20
-2.0675994466
 30
0.0
 10
-17.7452954141
 20
-2.0383872111
 30
0.0
  0
SPLINE
  5
5BD
100
AcDbEntity
  8
IMPORT_IGES
100
AcDbSpline
 62
7
  6
CONTINUOUS
 70
0
 71
3
 72
9
 73
5
 74
0
 42
0.0000001
 43
0.0000001
 44
0.0000000001
 40
0.0
 40
0.0
 40
0.0
 40
0.0
 40
0.2523591082
 40
1.0
 40
1.0
 40
1.0
 40
1.0
 10
17.5827530215
 20
12.6420104494
 30
0.0
 10
17.6090163511
 20
12.6244576344
 30
0.0
 10
17.7121996913
 20
12.5535873351
 30
0.0
 10
17.8117156907
 20
12.4773457271
 30
0.0
 10
17.8835115186
 20
12.4173153139
 30
0.0
  0
SPLINE
  5
5BE
100
AcDbEntity
  8
IMPORT_IGES
100
AcDbSpline
 62
7
  6
CONTINUOUS
 70
0
 71
3
 72
9
 73
5
 74
0
 42
0.0000001
 43
0.0000001
 44
0.0000000001
 40
0.0
 40
0.0
 40
0.0
 40
0.0
 40
0.2545928448
 40
1.0
 40
1.0
 40
1.0
 40
1.0
 10
16.4658760848
 20
13.1718289195
 30
0.0
 10
16.526140973
 20
13.1523081497
 30
0.0
 10
16.7614519392
 20
13.0714223878
 30
0.0
 10
16.9909504669
 20
12.9732832789
 30
0.0
 10
17.1565498879
 20
12.8897575145
 30
0.0
  0
SPLINE
  5
5BF
100
AcDbEntity
  8
IMPORT_IGES
100
AcDbSpline
 62
7
  6
CONTINUOUS
 70
0
 71
3
 72
11
 73
7
 74
0
 42
0.0000001
 43
0.0000001
 44
0.0000000001
 40
0.0
 40
0.0
 40
0.0
 40
0.0
 40
0.2290259677
 40
0.4733462177
 40
0.7313630759
 40
1.0
 40
1.0
 40
1.0
 40
1.0
 10
6.1158513822
 20
-1.665738348
 30
0.0
 10
6.2943809529
 20
-1.5908435925
 30
0.0
 10
6.6502736074
 20
-1.4037914147
 30
0.0
 10
7.1528179062
 20
-1.0409048839
 30
0.0
 10
7.6317189431
 20
-0.5967491717
 30
0.0
 10
7.9235578108
 20
-0.2592693072
 30
0.0
 10
8.0632386987
 20
-0.0802223323
 30
0.0
  0
SPLINE
  5
5C0
100
AcDbEntity
  8
IMPORT_IGES
100
AcDbSpline
 62
7
  6
CONTINUOUS
 70
0
 71
3
 72
13
 73
9
 74
0
 42
0.0000001
 43
0.0000001
 44
0.0000000001
 40
0.0
 40
0.0
 40
0.0
 40
0.0
 40
0.3086919201
 40
0.5783583144
 40
0.6962671454
 40
0.8032865579
 40
0.9027977006
 40
1.0
 40
1.0
 40
1.0
 40
1.0
 10
-14.9505108747
 20
-11.0941826296
 30
0.0
 10
-14.9760729109
 20
-11.1612540349
 30
0.0
 10
-15.0110167878
 20
-11.2922861747
 30
0.0
 10
-15.0148648975
 20
-11.456593381
 30
0.0
 10
-14.9878533391
 20
-11.5690500801
 30
0.0
 10
-14.9544484348
 20
-11.6376026891
 30
0.0
 10
-14.9065208388
 20
-11.6907666183
 30
0.0
 10
-14.8669357965
 20
-11.7150274147
 30
0.0
 10
-14.8462708216
 20
-11.7241811188
 30
0.0
  0
SPLINE
  5
5C1
100
AcDbEntity
  8
IMPORT_IGES
100
AcDbSpline
 62
7
  6
CONTINUOUS
 70
0
 71
3
 72
10
 73
6
 74
0
 42
0.0000001
 43
0.0000001
 44
0.0000000001
 40
0.0
 40
0.0
 40
0.0
 40
0.0
 40
0.2921482462
 40
0.5660254857
 40
1.0
 40
1.0
 40
1.0
 40
1.0
 10
7.2480634954
 20
-0.9418698866
 30
0.0
 10
7.2398604272
 20
-0.9554465695
 30
0.0
 10
7.2264114152
 20
-0.9834509476
 30
0.0
 10
7.2119111935
 20
-1.0353744381
 30
0.0
 10
7.213727011
 20
-1.0775404491
 30
0.0
 10
7.2255596323
 20
-1.097917008
 30
0.0
  0
SPLINE
  5
5C2
100
AcDbEntity
  8
IMPORT_IGES
100
AcDbSpline
 62
7
  6
CONTINUOUS
 70
0
 71
3
 72
12
 73
8
 74
0
 42
0.0000001
 43
0.0000001
 44
0.0000000001
 40
0.0
 40
0.0
 40
0.0
 40
0.0
 40
0.254727706
 40
0.5368958805
 40
0.6725698191
 40
0.797116994
 40
1.0
 40
1.0
 40
1.0
 40
1.0
 10
8.8048133584
 20
-0.0094616056
 30
0.0
 10
8.7851217449
 20
-0.0208314165
 30
0.0
 10
8.7496903325
 20
-0.0548895727
 30
0.0
 10
8.7185092109
 20
-0.1069198369
 30
0.0
 10
8.7034167005
 20
-0.1532206649
 30
0.0
 10
8.6969198261
 20
-0.1939437956
 30
0.0
 10
8.701389038
 20
-0.2248777997
 30
0.0
 10
8.7104832439
 20
-0.2405392937
 30
0.0
  0
SPLINE
  5
5C3
100
AcDbEntity
  8
IMPORT_IGES
100
AcDbSpline
 62
7
  6
CONTINUOUS
 70
0
 71
3
 72
11
 73
7
 74
0
 42
0.0000001
 43
0.0000001
 44
0.0000000001
 40
0.0
 40
0.0
 40
0.0
 40
0.0
 40
0.2394365203
 40
0.5074996978
 40
0.7699108108
 40
1.0
 40
1.0
 40
1.0
 40
1.0
 10
-13.8226036452
 20
-12.9926015651
 30
0.0
 10
-13.8386027514
 20
-13.0018393461
 30
0.0
 10
-13.868488253
 20
-13.0281990389
 30
0.0
 10
-13.9032972894
 20
-13.0769044308
 30
0.0
 10
-13.9250594513
 20
-13.1319508485
 30
0.0
 10
-13.9297638812
 20
-13.1704782134
 30
0.0
 10
-13.928099689
 20
-13.1881533391
 30
0.0
  0
SPLINE
  5
5C4
100
AcDbEntity
  8
IMPORT_IGES
100
AcDbSpline
 62
7
  6
CONTINUOUS
 70
0
 71
3
 72
15
 73
11
 74
0
 42
0.0000001
 43
0.0000001
 44
0.0000000001
 40
0.0
 40
0.0
 40
0.0
 40
0.0
 40
0.1277541914
 40
0.2706123466
 40
0.4187369806
 40
0.5632105803
 40
0.6968737905
 40
0.813781749
 40
0.9130580954
 40
1.0
 40
1.0
 40
1.0
 40
1.0
 10
-13.8226036452
 20
-12.0128372431
 30
0.0
 10
-13.8335986336
 20
-12.0191856786
 30
0.0
 10
-13.8549452985
 20
-12.0359927835
 30
0.0
 10
-13.882587539
 20
-12.0673042234
 30
0.0
 10
-13.9056413735
 20
-12.1041990598
 30
0.0
 10
-13.9214320602
 20
-12.1437407562
 30
0.0
 10
-13.9293911064
 20
-12.1824391657
 30
0.0
 10
-13.9285359505
 20
-12.2175969115
 30
0.0
 10
-13.9185823818
 20
-12.2466829587
 30
0.0
 10
-13.905156318
 20
-12.2606770029
 30
0.0
 10
-13.8976729044
 20
-12.2649958488
 30
0.0
  0
SPLINE
  5
5C5
100
AcDbEntity
  8
IMPORT_IGES
100
AcDbSpline
 62
7
  6
CONTINUOUS
 70
0
 71
3
 72
15
 73
11
 74
0
 42
0.0000001
 43
0.0000001
 44
0.0000000001
 40
0.0
 40
0.0
 40
0.0
 40
0.0
 40
0.1277541914
 40
0.2706123466
 40
0.4187369806
 40
0.5632105803
 40
0.6968737905
 40
0.813781749
 40
0.9130580954
 40
1.0
 40
1.0
 40
1.0
 40
1.0
 10
-13.8226036452
 20
-12.5027194041
 30
0.0
 10
-13.8335986336
 20
-12.5090678396
 30
0.0
 10
-13.8549452985
 20
-12.5258749445
 30
0.0
 10
-13.882587539
 20
-12.5571863844
 30
0.0
 10
-13.9056413735
 20
-12.5940812208
 30
0.0
 10
-13.9214320602
 20
-12.6336229172
 30
0.0
 10
-13.9293911064
 20
-12.6723213267
 30
0.0
 10
-13.9285359505
 20
-12.7074790725
 30
0.0
 10
-13.9185823818
 20
-12.7365651197
 30
0.0
 10
-13.905156318
 20
-12.7505591639
 30
0.0
 10
-13.8976729044
 20
-12.7548780099
 30
0.0
  0
SPLINE
  5
5C6
100
AcDbEntity
  8
IMPORT_IGES
100
AcDbSpline
 62
7
  6
CONTINUOUS
 70
0
 71
3
 72
9
 73
5
 74
0
 42
0.0000001
 43
0.0000001
 44
0.0000000001
 40
0.0
 40
0.0
 40
0.0
 40
0.0
 40
0.4533487368
 40
1.0
 40
1.0
 40
1.0
 40
1.0
 10
-13.7474592041
 20
-12.4953638803
 30
0.0
 10
-13.7576788396
 20
-12.4894784037
 30
0.0
 10
-13.7854238285
 20
-12.4857678104
 30
0.0
 10
-13.8102886362
 20
-12.4956089473
 30
0.0
 10
-13.8226036452
 20
-12.5027194041
 30
0.0
  0
SPLINE
  5
5C7
100
AcDbEntity
  8
IMPORT_IGES
100
AcDbSpline
 62
7
  6
CONTINUOUS
 70
0
 71
3
 72
9
 73
5
 74
0
 42
0.0000001
 43
0.0000001
 44
0.0000000001
 40
0.0
 40
0.0
 40
0.0
 40
0.0
 40
0.4533487368
 40
1.0
 40
1.0
 40
1.0
 40
1.0
 10
-13.7474592041
 20
-12.0054817193
 30
0.0
 10
-13.7576788396
 20
-11.9995962427
 30
0.0
 10
-13.7854238285
 20
-11.9958856493
 30
0.0
 10
-13.8102886362
 20
-12.0057267863
 30
0.0
 10
-13.8226036452
 20
-12.0128372431
 30
0.0
  0
SPLINE
  5
5C8
100
AcDbEntity
  8
IMPORT_IGES
100
AcDbSpline
 62
7
  6
CONTINUOUS
 70
0
 71
3
 72
9
 73
5
 74
0
 42
0.0000001
 43
0.0000001
 44
0.0000000001
 40
0.0
 40
0.0
 40
0.0
 40
0.0
 40
0.4533487368
 40
1.0
 40
1.0
 40
1.0
 40
1.0
 10
-13.7474592041
 20
-12.9852460413
 30
0.0
 10
-13.7576788396
 20
-12.9793605647
 30
0.0
 10
-13.7854238285
 20
-12.9756499714
 30
0.0
 10
-13.8102886362
 20
-12.9854911083
 30
0.0
 10
-13.8226036452
 20
-12.9926015651
 30
0.0
  0
SPLINE
  5
5C9
100
AcDbEntity
  8
IMPORT_IGES
100
AcDbSpline
 62
7
  6
CONTINUOUS
 70
0
 71
3
 72
9
 73
5
 74
0
 42
0.0000001
 43
0.0000001
 44
0.0000000001
 40
0.0
 40
0.0
 40
0.0
 40
0.0
 40
0.4566898095
 40
1.0
 40
1.0
 40
1.0
 40
1.0
 10
8.8787459442
 20
-0.0041234597
 30
0.0
 10
8.8686908874
 20
0.0018391391
 30
0.0
 10
8.8417217284
 20
0.0068518181
 30
0.0
 10
8.8168572506
 20
-0.0025076867
 30
0.0
 10
8.8048133584
 20
-0.0094616056
 30
0.0
  0
SPLINE
  5
5CA
100
AcDbEntity
  8
IMPORT_IGES
100
AcDbSpline
 62
7
  6
CONTINUOUS
 70
0
 71
3
 72
9
 73
5
 74
0
 42
0.0000001
 43
0.0000001
 44
0.0000000001
 40
0.0
 40
0.0
 40
0.0
 40
0.0
 40
0.4757908425
 40
1.0
 40
1.0
 40
1.0
 40
1.0
 10
7.3938217101
 20
-0.861500102
 30
0.0
 10
7.3869240545
 20
-0.8574098265
 30
0.0
 10
7.3702109541
 20
-0.8522823991
 30
0.0
 10
7.3530594869
 20
-0.854217428
 30
0.0
 10
7.3445198269
 20
-0.856483844
 30
0.0
  0
SPLINE
  5
5CB
100
AcDbEntity
  8
IMPORT_IGES
100
AcDbSpline
 62
7
  6
CONTINUOUS
 70
0
 71
3
 72
9
 73
5
 74
0
 42
0.0000001
 43
0.0000001
 44
0.0000000001
 40
0.0
 40
0.0
 40
0.0
 40
0.0
 40
0.4535161717
 40
1.0
 40
1.0
 40
1.0
 40
1.0
 10
-13.8976729044
 20
-12.7548780099
 30
0.0
 10
-13.8874653694
 20
-12.7607690074
 30
0.0
 10
-13.8597697094
 20
-12.7645671198
 30
0.0
 10
-13.8349022749
 20
-12.7547614946
 30
0.0
 10
-13.8226036452
 20
-12.747660495
 30
0.0
  0
SPLINE
  5
5CC
100
AcDbEntity
  8
IMPORT_IGES
100
AcDbSpline
 62
7
  6
CONTINUOUS
 70
0
 71
3
 72
9
 73
5
 74
0
 42
0.0000001
 43
0.0000001
 44
0.0000000001
 40
0.0
 40
0.0
 40
0.0
 40
0.0
 40
0.4535161717
 40
1.0
 40
1.0
 40
1.0
 40
1.0
 10
-13.8976729044
 20
-12.2649958488
 30
0.0
 10
-13.8874653694
 20
-12.2708868464
 30
0.0
 10
-13.8597697094
 20
-12.2746849588
 30
0.0
 10
-13.8349022749
 20
-12.2648793336
 30
0.0
 10
-13.8226036452
 20
-12.2577783339
 30
0.0
  0
SPLINE
  5
5CD
100
AcDbEntity
  8
IMPORT_IGES
100
AcDbSpline
 62
7
  6
CONTINUOUS
 70
0
 71
3
 72
9
 73
5
 74
0
 42
0.0000001
 43
0.0000001
 44
0.0000000001
 40
0.0
 40
0.0
 40
0.0
 40
0.0
 40
0.2435390777
 40
1.0
 40
1.0
 40
1.0
 40
1.0
 10
9.3966866915
 20
4.2385949569
 30
0.0
 10
9.3927963698
 20
4.2596835639
 30
0.0
 10
9.3759705221
 20
4.3461127408
 30
0.0
 10
9.3556289843
 20
4.4318889266
 30
0.0
 10
9.3376528416
 20
4.4960263507
 30
0.0
  0
SPLINE
  5
5CE
100
AcDbEntity
  8
IMPORT_IGES
100
AcDbSpline
 62
7
  6
CONTINUOUS
 70
0
 71
3
 72
9
 73
5
 74
0
 42
0.0000001
 43
0.0000001
 44
0.0000000001
 40
0.0
 40
0.0
 40
0.0
 40
0.0
 40
0.4714211214
 40
1.0
 40
1.0
 40
1.0
 40
1.0
 10
-14.5155682878
 20
-11.6862877981
 30
0.0
 10
-14.4742471794
 20
-11.6624289166
 30
0.0
 10
-14.3930594453
 20
-11.6006463422
 30
0.0
 10
-14.3231125817
 20
-11.5270572916
 30
0.0
 10
-14.2887958643
 20
-11.4860135759
 30
0.0
  0
SPLINE
  5
5CF
100
AcDbEntity
  8
IMPORT_IGES
100
AcDbSpline
 62
250
  6
CONTINUOUS
 70
0
 71
3
 72
9
 73
5
 74
0
 42
0.0000001
 43
0.0000001
 44
0.0000000001
 40
0.0
 40
0.0
 40
0.0
 40
0.0
 40
0.241413232
 40
1.0
 40
1.0
 40
1.0
 40
1.0
 10
9.7018413716
 20
4.4144763036
 30
0.0
 10
9.6978455332
 20
4.4609540036
 30
0.0
 10
9.6855567334
 20
4.6538355
 30
0.0
 10
9.6897413239
 20
4.8476393567
 30
0.0
 10
9.7005918547
 20
4.9938216769
 30
0.0
  0
SPLINE
  5
5D0
100
AcDbEntity
  8
IMPORT_IGES
100
AcDbSpline
 62
250
  6
CONTINUOUS
 70
0
 71
3
 72
10
 73
6
 74
0
 42
0.0000001
 43
0.0000001
 44
0.0000000001
 40
0.0
 40
0.0
 40
0.0
 40
0.0
 40
0.5310867601
 40
0.7745298587
 40
1.0
 40
1.0
 40
1.0
 40
1.0
 10
7.8537903795
 20
-0.2138294214
 30
0.0
 10
7.6134213723
 20
-0.4951306413
 30
0.0
 10
7.2230567513
 20
-0.8755324969
 30
0.0
 10
6.6460348598
 20
-1.2682346547
 30
0.0
 10
6.3528431646
 20
-1.4155024082
 30
0.0
 10
6.2072338268
 20
-1.4744424007
 30
0.0
  0
SPLINE
  5
5D1
100
AcDbEntity
  8
IMPORT_IGES
100
AcDbSpline
 62
250
  6
CONTINUOUS
 70
0
 71
3
 72
9
 73
5
 74
0
 42
0.0000001
 43
0.0000001
 44
0.0000000001
 40
0.0
 40
0.0
 40
0.0
 40
0.0
 40
0.2402131146
 40
1.0
 40
1.0
 40
1.0
 40
1.0
 10
9.0791658017
 20
4.6208311664
 30
0.0
 10
9.0978708772
 20
4.5857073851
 30
0.0
 10
9.1708047349
 20
4.436875818
 30
0.0
 10
9.2241796954
 20
4.2787680746
 30
0.0
 10
9.2549411306
 20
4.1567178066
 30
0.0
  0
SPLINE
  5
5D2
100
AcDbEntity
  8
IMPORT_IGES
100
AcDbSpline
 62
7
  6
CONTINUOUS
 70
0
 71
3
 72
11
 73
7
 74
0
 42
0.0000001
 43
0.0000001
 44
0.0000000001
 40
0.0
 40
0.0
 40
0.0
 40
0.0
 40
0.3086660685
 40
0.5753880471
 40
0.8010771804
 40
1.0
 40
1.0
 40
1.0
 40
1.0
 10
7.4140097241
 20
-0.9895669924
 30
0.0
 10
7.4188674618
 20
-0.9760728144
 30
0.0
 10
7.4259135331
 20
-0.9500548511
 30
0.0
 10
7.4264644785
 20
-0.9123068674
 30
0.0
 10
7.4160476344
 20
-0.8811266942
 30
0.0
 10
7.401771795
 20
-0.8662144628
 30
0.0
 10
7.3938217101
 20
-0.861500102
 30
0.0
  0
SPLINE
  5
5D3
100
AcDbEntity
  8
IMPORT_IGES
100
AcDbSpline
 62
7
  6
CONTINUOUS
 70
0
 71
3
 72
11
 73
7
 74
0
 42
0.0000001
 43
0.0000001
 44
0.0000000001
 40
0.0
 40
0.0
 40
0.0
 40
0.0
 40
0.3086657398
 40
0.5753873392
 40
0.8010766198
 40
1.0
 40
1.0
 40
1.0
 40
1.0
 10
8.8989346342
 20
-0.1321884723
 30
0.0
 10
8.9037921878
 20
-0.1186944604
 30
0.0
 10
8.9108379479
 20
-0.092676841
 30
0.0
 10
8.9113885481
 20
-0.0549294161
 30
0.0
 10
8.900971635
 20
-0.023749753
 30
0.0
 10
8.8866959388
 20
-0.0088377669
 30
0.0
 10
8.8787459442
 20
-0.0041234597
 30
0.0
  0
SPLINE
  5
5D4
100
AcDbEntity
  8
IMPORT_IGES
100
AcDbSpline
 62
7
  6
CONTINUOUS
 70
0
 71
3
 72
15
 73
11
 74
0
 42
0.0000001
 43
0.0000001
 44
0.0000000001
 40
0.0
 40
0.0
 40
0.0
 40
0.0
 40
0.1275988675
 40
0.2700690083
 40
0.4178838036
 40
0.5624712348
 40
0.6964607986
 40
0.8136522203
 40
0.9130707129
 40
1.0
 40
1.0
 40
1.0
 40
1.0
 10
-13.8226036452
 20
-13.237542656
 30
0.0
 10
-13.8116171035
 20
-13.2311990975
 30
0.0
 10
-13.7902725724
 20
-13.2144670344
 30
0.0
 10
-13.7626076332
 20
-13.1832544241
 30
0.0
 10
-13.7396243462
 20
-13.146356356
 30
0.0
 10
-13.7238560141
 20
-13.1067765107
 30
0.0
 10
-13.7158371382
 20
-13.068001334
 30
0.0
 10
-13.7166358806
 20
-13.0327530064
 30
0.0
 10
-13.7265381399
 20
-13.0035914009
 30
0.0
 10
-13.7399695593
 20
-12.9895593193
 30
0.0
 10
-13.7474592041
 20
-12.9852460413
 30
0.0
  0
SPLINE
  5
5D5
100
AcDbEntity
  8
IMPORT_IGES
100
AcDbSpline
 62
7
  6
CONTINUOUS
 70
0
 71
3
 72
15
 73
11
 74
0
 42
0.0000001
 43
0.0000001
 44
0.0000000001
 40
0.0
 40
0.0
 40
0.0
 40
0.0
 40
0.1275988675
 40
0.2700690083
 40
0.4178838036
 40
0.5624712348
 40
0.6964607986
 40
0.8136522203
 40
0.9130707129
 40
1.0
 40
1.0
 40
1.0
 40
1.0
 10
-13.8226036452
 20
-12.2577783339
 30
0.0
 10
-13.8116171035
 20
-12.2514347755
 30
0.0
 10
-13.7902725724
 20
-12.2347027124
 30
0.0
 10
-13.7626076332
 20
-12.2034901021
 30
0.0
 10
-13.7396243462
 20
-12.166592034
 30
0.0
 10
-13.7238560141
 20
-12.1270121887
 30
0.0
 10
-13.7158371382
 20
-12.088237012
 30
0.0
 10
-13.7166358806
 20
-12.0529886844
 30
0.0
 10
-13.7265381399
 20
-12.0238270789
 30
0.0
 10
-13.7399695593
 20
-12.0097949973
 30
0.0
 10
-13.7474592041
 20
-12.0054817193
 30
0.0
  0
SPLINE
  5
5D6
100
AcDbEntity
  8
IMPORT_IGES
100
AcDbSpline
 62
7
  6
CONTINUOUS
 70
0
 71
3
 72
15
 73
11
 74
0
 42
0.0000001
 43
0.0000001
 44
0.0000000001
 40
0.0
 40
0.0
 40
0.0
 40
0.0
 40
0.1275988675
 40
0.2700690083
 40
0.4178838036
 40
0.5624712348
 40
0.6964607986
 40
0.8136522203
 40
0.9130707129
 40
1.0
 40
1.0
 40
1.0
 40
1.0
 10
-13.8226036452
 20
-12.747660495
 30
0.0
 10
-13.8116171035
 20
-12.7413169365
 30
0.0
 10
-13.7902725724
 20
-12.7245848734
 30
0.0
 10
-13.7626076332
 20
-12.6933722631
 30
0.0
 10
-13.7396243462
 20
-12.656474195
 30
0.0
 10
-13.7238560141
 20
-12.6168943497
 30
0.0
 10
-13.7158371382
 20
-12.578119173
 30
0.0
 10
-13.7166358806
 20
-12.5428708454
 30
0.0
 10
-13.7265381399
 20
-12.5137092399
 30
0.0
 10
-13.7399695593
 20
-12.4996771583
 30
0.0
 10
-13.7474592041
 20
-12.4953638803
 30
0.0
  0
SPLINE
  5
5D7
100
AcDbEntity
  8
IMPORT_IGES
100
AcDbSpline
 62
250
  6
CONTINUOUS
 70
0
 71
3
 72
9
 73
5
 74
0
 42
0.0000001
 43
0.0000001
 44
0.0000000001
 40
0.0
 40
0.0
 40
0.0
 40
0.0
 40
0.2616256545
 40
1.0
 40
1.0
 40
1.0
 40
1.0
 10
16.2147548549
 20
13.0190574001
 30
0.0
 10
16.2737880347
 20
12.9992056978
 30
0.0
 10
16.4976512851
 20
12.9183476178
 30
0.0
 10
16.7146071104
 20
12.8168516414
 30
0.0
 10
16.8658079069
 20
12.7272129993
 30
0.0
  0
SPLINE
  5
5D8
100
AcDbEntity
  8
IMPORT_IGES
100
AcDbSpline
 62
250
  6
CONTINUOUS
 70
0
 71
3
 72
9
 73
5
 74
0
 42
0.0000001
 43
0.0000001
 44
0.0000000001
 40
0.0
 40
0.0
 40
0.0
 40
0.0
 40
0.2570632112
 40
1.0
 40
1.0
 40
1.0
 40
1.0
 10
15.7187526928
 20
8.2217058663
 30
0.0
 10
15.8141755641
 20
8.2373486539
 30
0.0
 10
16.1839869946
 20
8.3062325367
 30
0.0
 10
16.5481087158
 20
8.406963545
 30
0.0
 10
16.8111315068
 20
8.5013990372
 30
0.0
  0
SPLINE
  5
5D9
100
AcDbEntity
  8
IMPORT_IGES
100
AcDbSpline
 62
250
  6
CONTINUOUS
 70
0
 71
3
 72
13
 73
9
 74
0
 42
0.0000001
 43
0.0000001
 44
0.0000000001
 40
0.0
 40
0.0
 40
0.0
 40
0.0
 40
0.2943999547
 40
0.5549112171
 40
0.6738891801
 40
0.7865376952
 40
0.8944925121
 40
1.0
 40
1.0
 40
1.0
 40
1.0
 10
17.2715395787
 20
8.6918827951
 30
0.0
 10
17.4995931092
 20
8.7999918019
 30
0.0
 10
17.9146803095
 20
9.0388137465
 30
0.0
 10
18.3453494193
 20
9.4336349125
 30
0.0
 10
18.5905927376
 20
9.7786645091
 30
0.0
 10
18.7210870398
 20
10.0404008608
 30
0.0
 10
18.800998265
 20
10.309846695
 30
0.0
 10
18.8186582171
 20
10.4934171767
 30
0.0
 10
18.8181371902
 20
10.5838642079
 30
0.0
  0
SPLINE
  5
5DA
100
AcDbEntity
  8
IMPORT_IGES
100
AcDbSpline
 62
7
  6
CONTINUOUS
 70
0
 71
3
 72
10
 73
6
 74
0
 42
0.0000001
 43
0.0000001
 44
0.0000000001
 40
0.0
 40
0.0
 40
0.0
 40
0.0
 40
0.2249540431
 40
0.4638082152
 40
1.0
 40
1.0
 40
1.0
 40
1.0
 10
-14.8462708216
 20
-11.7241811188
 30
0.0
 10
-14.8227224814
 20
-11.734612031
 30
0.0
 10
-14.7706590109
 20
-11.7487757539
 30
0.0
 10
-14.6552392893
 20
-11.7489500381
 30
0.0
 10
-14.5687321996
 20
-11.7169832136
 30
0.0
 10
-14.5155682878
 20
-11.6862877981
 30
0.0
  0
SPLINE
  5
5DB
100
AcDbEntity
  8
0
100
AcDbSpline
 62
7
  6
CONTINUOUS
 70
0
 71
3
 72
9
 73
5
 74
0
 42
0.0000001
 43
0.0000001
 44
0.0000000001
 40
0.0
 40
0.0
 40
0.0
 40
0.0
 40
0.5250467091
 40
1.0
 40
1.0
 40
1.0
 40
1.0
 10
23.6247059702
 20
20.6615268957
 30
0.0
 10
23.7221748185
 20
20.4653677969
 30
0.0
 10
23.8730601735
 20
20.0733675662
 30
0.0
 10
23.9370134482
 20
19.6558767004
 30
0.0
 10
23.9370134482
 20
19.4577346726
 30
0.0
  0
SPLINE
  5
5DC
100
AcDbEntity
  8
0
100
AcDbSpline
 62
7
  6
CONTINUOUS
 70
0
 71
3
 72
11
 73
7
 74
0
 42
0.0000001
 43
0.0000001
 44
0.0000000001
 40
0.0
 40
0.0
 40
0.0
 40
0.0
 40
0.2856379497
 40
0.5452930588
 40
0.7813409331
 40
1.0
 40
1.0
 40
1.0
 40
1.0
 10
23.9370134482
 20
-6.4957497129
 30
0.0
 10
23.9370134482
 20
-6.5838555756
 30
0.0
 10
23.925323595
 20
-6.7524591967
 30
0.0
 10
23.8668611483
 20
-6.9877746332
 30
0.0
 10
23.7690749611
 20
-7.187355858
 30
0.0
 10
23.675899294
 20
-7.2949856942
 30
0.0
 10
23.6247059702
 20
-7.3388970887
 30
0.0
  0
SPLINE
  5
5DD
100
AcDbEntity
  8
0
100
AcDbSpline
 62
7
  6
CONTINUOUS
 70
0
 71
3
 72
10
 73
6
 74
0
 42
0.0000001
 43
0.0000001
 44
0.0000000001
 40
0.0
 40
0.0
 40
0.0
 40
0.0
 40
0.5053587611
 40
0.7524380154
 40
1.0
 40
1.0
 40
1.0
 40
1.0
 10
-6.7349715848
 20
12.2250111599
 30
0.0
 10
-6.8026091476
 20
12.1873212952
 30
0.0
 10
-6.9165696818
 20
12.1482989196
 30
0.0
 10
-7.0712073284
 20
12.1585429838
 30
0.0
 10
-7.1433220476
 20
12.1862793928
 30
0.0
 10
-7.1761705547
 20
12.2052457092
 30
0.0
  0
SPLINE
  5
5DE
100
AcDbEntity
  8
0
100
AcDbSpline
 62
7
  6
CONTINUOUS
 70
0
 71
3
 72
15
 73
11
 74
0
 42
0.0000001
 43
0.0000001
 44
0.0000000001
 40
0.0
 40
0.0
 40
0.0
 40
0.0
 40
0.1245507158
 40
0.2615210969
 40
0.4047998614
 40
0.5474778906
 40
0.6825443547
 40
0.8044079189
 40
0.909950994
 40
1.0
 40
1.0
 40
1.0
 40
1.0
 10
6.7424588188
 20
3.2026462025
 30
0.0
 10
6.6707462442
 20
3.1592306775
 30
0.0
 10
6.5308770235
 20
3.0499606425
 30
0.0
 10
6.3492346933
 20
2.8453487945
 30
0.0
 10
6.1952309406
 20
2.6046382335
 30
0.0
 10
6.0788963284
 20
2.3450451644
 30
0.0
 10
6.0093824876
 20
2.0838373893
 30
0.0
 10
5.9913436336
 20
1.8388155771
 30
0.0
 10
6.0252517576
 20
1.6253895259
 30
0.0
 10
6.0897868683
 20
1.5059490986
 30
0.0
 10
6.1303477474
 20
1.4609129881
 30
0.0
  0
SPLINE
  5
5DF
100
AcDbEntity
  8
0
100
AcDbSpline
 62
7
  6
CONTINUOUS
 70
0
 71
3
 72
15
 73
11
 74
0
 42
0.0000001
 43
0.0000001
 44
0.0000000001
 40
0.0
 40
0.0
 40
0.0
 40
0.0
 40
0.1245507158
 40
0.2615210969
 40
0.4047998614
 40
0.5474778906
 40
0.6825443547
 40
0.8044079189
 40
0.909950994
 40
1.0
 40
1.0
 40
1.0
 40
1.0
 10
6.7424588188
 20
-0.8797051815
 30
0.0
 10
6.6707462442
 20
-0.9231207065
 30
0.0
 10
6.5308770235
 20
-1.0323907415
 30
0.0
 10
6.3492346933
 20
-1.2370025894
 30
0.0
 10
6.1952309406
 20
-1.4777131504
 30
0.0
 10
6.0788963284
 20
-1.7373062195
 30
0.0
 10
6.0093824876
 20
-1.9985139947
 30
0.0
 10
5.9913436336
 20
-2.2435358069
 30
0.0
 10
6.0252517576
 20
-2.4569618581
 30
0.0
 10
6.0897868683
 20
-2.5764022854
 30
0.0
 10
6.1303477474
 20
-2.6214383959
 30
0.0
  0
SPLINE
  5
5E0
100
AcDbEntity
  8
0
100
AcDbSpline
 62
7
  6
CONTINUOUS
 70
0
 71
3
 72
15
 73
11
 74
0
 42
0.0000001
 43
0.0000001
 44
0.0000000001
 40
0.0
 40
0.0
 40
0.0
 40
0.0
 40
0.1245507158
 40
0.2615210969
 40
0.4047998614
 40
0.5474778906
 40
0.6825443547
 40
0.8044079189
 40
0.909950994
 40
1.0
 40
1.0
 40
1.0
 40
1.0
 10
6.7424588188
 20
-4.9620565654
 30
0.0
 10
6.6707462442
 20
-5.0054720904
 30
0.0
 10
6.5308770235
 20
-5.1147421255
 30
0.0
 10
6.3492346933
 20
-5.3193539734
 30
0.0
 10
6.1952309406
 20
-5.5600645344
 30
0.0
 10
6.0788963284
 20
-5.8196576035
 30
0.0
 10
6.0093824876
 20
-6.0808653786
 30
0.0
 10
5.9913436336
 20
-6.3258871909
 30
0.0
 10
6.0252517576
 20
-6.5393132421
 30
0.0
 10
6.0897868683
 20
-6.6587536694
 30
0.0
 10
6.1303477474
 20
-6.7037897798
 30
0.0
  0
SPLINE
  5
5E1
100
AcDbEntity
  8
0
100
AcDbSpline
 62
7
  6
CONTINUOUS
 70
0
 71
3
 72
15
 73
11
 74
0
 42
0.0000001
 43
0.0000001
 44
0.0000000001
 40
0.0
 40
0.0
 40
0.0
 40
0.0
 40
0.1245507158
 40
0.2615210969
 40
0.4047998614
 40
0.5474778906
 40
0.6825443547
 40
0.8044079189
 40
0.909950994
 40
1.0
 40
1.0
 40
1.0
 40
1.0
 10
6.7424588188
 20
-9.0444079494
 30
0.0
 10
6.6707462442
 20
-9.0878234744
 30
0.0
 10
6.5308770235
 20
-9.1970935094
 30
0.0
 10
6.3492346933
 20
-9.4017053573
 30
0.0
 10
6.1952309406
 20
-9.6424159183
 30
0.0
 10
6.0788963284
 20
-9.9020089875
 30
0.0
 10
6.0093824876
 20
-10.1632167626
 30
0.0
 10
5.9913436336
 20
-10.4082385748
 30
0.0
 10
6.0252517576
 20
-10.621664626
 30
0.0
 10
6.0897868683
 20
-10.7411050533
 30
0.0
 10
6.1303477474
 20
-10.7861411638
 30
0.0
  0
SPLINE
  5
5E2
100
AcDbEntity
  8
0
100
AcDbSpline
 62
7
  6
CONTINUOUS
 70
0
 71
3
 72
15
 73
11
 74
0
 42
0.0000001
 43
0.0000001
 44
0.0000000001
 40
0.0
 40
0.0
 40
0.0
 40
0.0
 40
0.1245507158
 40
0.2615210969
 40
0.4047998614
 40
0.5474778906
 40
0.6825443547
 40
0.8044079189
 40
0.909950994
 40
1.0
 40
1.0
 40
1.0
 40
1.0
 10
6.7424588188
 20
-13.1267593334
 30
0.0
 10
6.6707462442
 20
-13.1701748584
 30
0.0
 10
6.5308770235
 20
-13.2794448934
 30
0.0
 10
6.3492346933
 20
-13.4840567413
 30
0.0
 10
6.1952309406
 20
-13.7247673023
 30
0.0
 10
6.0788963284
 20
-13.9843603714
 30
0.0
 10
6.0093824876
 20
-14.2455681466
 30
0.0
 10
5.9913436336
 20
-14.4905899588
 30
0.0
 10
6.0252517576
 20
-14.70401601
 30
0.0
 10
6.0897868683
 20
-14.8234564373
 30
0.0
 10
6.1303477474
 20
-14.8684925477
 30
0.0
  0
SPLINE
  5
5E3
100
AcDbEntity
  8
0
100
AcDbSpline
 62
7
  6
CONTINUOUS
 70
0
 71
3
 72
15
 73
11
 74
0
 42
0.0000001
 43
0.0000001
 44
0.0000000001
 40
0.0
 40
0.0
 40
0.0
 40
0.0
 40
0.1245507158
 40
0.2615210969
 40
0.4047998614
 40
0.5474778906
 40
0.6825443547
 40
0.8044079189
 40
0.909950994
 40
1.0
 40
1.0
 40
1.0
 40
1.0
 10
6.7424588188
 20
7.2849975865
 30
0.0
 10
6.6707462442
 20
7.2415820614
 30
0.0
 10
6.5308770235
 20
7.1323120264
 30
0.0
 10
6.3492346933
 20
6.9277001785
 30
0.0
 10
6.1952309406
 20
6.6869896175
 30
0.0
 10
6.0788963284
 20
6.4273965484
 30
0.0
 10
6.0093824876
 20
6.1661887733
 30
0.0
 10
5.9913436336
 20
5.921166961
 30
0.0
 10
6.0252517576
 20
5.7077409098
 30
0.0
 10
6.0897868683
 20
5.5883004825
 30
0.0
 10
6.1303477474
 20
5.5432643721
 30
0.0
  0
SPLINE
  5
5E4
100
AcDbEntity
  8
0
100
AcDbSpline
 62
7
  6
CONTINUOUS
 70
0
 71
3
 72
9
 73
5
 74
0
 42
0.0000001
 43
0.0000001
 44
0.0000000001
 40
0.0
 40
0.0
 40
0.0
 40
0.0
 40
0.2620437082
 40
1.0
 40
1.0
 40
1.0
 40
1.0
 10
11.5622782594
 20
1.9993670922
 30
0.0
 10
11.5846112359
 20
1.9782328887
 30
0.0
 10
11.6718965406
 20
1.8998331042
 30
0.0
 10
11.767556031
 20
1.830388999
 30
0.0
 10
11.8425440888
 20
1.7870918342
 30
0.0
  0
SPLINE
  5
5E5
100
AcDbEntity
  8
0
100
AcDbSpline
 62
7
  6
CONTINUOUS
 70
0
 71
3
 72
9
 73
5
 74
0
 42
0.0000001
 43
0.0000001
 44
0.0000000001
 40
0.0
 40
0.0
 40
0.0
 40
0.0
 40
0.2497696127
 40
1.0
 40
1.0
 40
1.0
 40
1.0
 10
-9.9717001192
 20
17.9737095279
 30
0.0
 10
-10.1816418222
 20
17.8576075884
 30
0.0
 10
-11.0222309773
 20
17.3928577944
 30
0.0
 10
-11.8629969961
 20
16.9284279184
 30
0.0
 10
-12.4938485656
 20
16.5801495467
 30
0.0
  0
SPLINE
  5
5E6
100
AcDbEntity
  8
0
100
AcDbSpline
 62
7
  6
CONTINUOUS
 70
0
 71
3
 72
9
 73
5
 74
0
 42
0.0000001
 43
0.0000001
 44
0.0000000001
 40
0.0
 40
0.0
 40
0.0
 40
0.0
 40
0.4761537701
 40
1.0
 40
1.0
 40
1.0
 40
1.0
 10
-4.2414544883
 20
14.9348088855
 30
0.0
 10
-4.1677891441
 20
14.892275439
 30
0.0
 10
-4.0247706602
 20
14.7823757021
 30
0.0
 10
-3.9060340635
 20
14.6475784383
 30
0.0
 10
-3.8501868782
 20
14.57248624
 30
0.0
  0
SPLINE
  5
5E7
100
AcDbEntity
  8
0
100
AcDbSpline
 62
7
  6
CONTINUOUS
 70
0
 71
3
 72
9
 73
5
 74
0
 42
0.0000001
 43
0.0000001
 44
0.0000000001
 40
0.0
 40
0.0
 40
0.0
 40
0.0
 40
0.4587769827
 40
1.0
 40
1.0
 40
1.0
 40
1.0
 10
-9.7999629908
 20
18.0078123992
 30
0.0
 10
-9.7387174
 20
18.0194384275
 30
0.0
 10
-9.5985498006
 20
18.0105109811
 30
0.0
 10
-9.4723837481
 20
17.9550818811
 30
0.0
 10
-9.4086953806
 20
17.9183090159
 30
0.0
  0
SPLINE
  5
5E8
100
AcDbEntity
  8
0
100
AcDbSpline
 62
7
  6
CONTINUOUS
 70
0
 71
3
 72
11
 73
7
 74
0
 42
0.0000001
 43
0.0000001
 44
0.0000000001
 40
0.0
 40
0.0
 40
0.0
 40
0.0
 40
0.2502112527
 40
0.5259707915
 40
0.7868461778
 40
1.0
 40
1.0
 40
1.0
 40
1.0
 10
-3.6784497497
 20
14.3400656375
 30
0.0
 10
-3.6784361478
 20
14.2683589489
 30
0.0
 10
-3.6457746112
 20
14.1176817031
 30
0.0
 10
-3.5385649013
 20
13.9166002301
 30
0.0
 10
-3.3906945012
 20
13.7577768951
 30
0.0
 10
-3.264858938
 20
13.6922829339
 30
0.0
 10
-3.2045331908
 20
13.6826716349
 30
0.0
  0
SPLINE
  5
5E9
100
AcDbEntity
  8
0
100
AcDbSpline
 62
7
  6
CONTINUOUS
 70
0
 71
3
 72
9
 73
5
 74
0
 42
0.0000001
 43
0.0000001
 44
0.0000000001
 40
0.0
 40
0.0
 40
0.0
 40
0.0
 40
0.2612132108
 40
1.0
 40
1.0
 40
1.0
 40
1.0
 10
-10.4456166782
 20
17.8635824885
 30
0.0
 10
-10.4367052798
 20
17.8547116227
 30
0.0
 10
-10.4016914213
 20
17.8216864759
 30
0.0
 10
-10.3630492716
 20
17.7923492875
 30
0.0
 10
-10.3325762499
 20
17.7740158528
 30
0.0
  0
SPLINE
  5
5EA
100
AcDbEntity
  8
0
100
AcDbSpline
 62
7
  6
CONTINUOUS
 70
0
 71
3
 72
9
 73
5
 74
0
 42
0.0000001
 43
0.0000001
 44
0.0000000001
 40
0.0
 40
0.0
 40
0.0
 40
0.0
 40
0.2312438682
 40
1.0
 40
1.0
 40
1.0
 40
1.0
 10
-6.8858468427
 20
13.252457309
 30
0.0
 10
-6.878816507
 20
13.2483980813
 30
0.0
 10
-6.8495580229
 20
13.2288771909
 30
0.0
 10
-6.8248666759
 20
13.2029852852
 30
0.0
 10
-6.8086391166
 20
13.1814209914
 30
0.0
  0
SPLINE
  5
5EB
100
AcDbEntity
  8
0
100
AcDbSpline
 62
7
  6
CONTINUOUS
 70
0
 71
3
 72
9
 73
5
 74
0
 42
0.0000001
 43
0.0000001
 44
0.0000000001
 40
0.0
 40
0.0
 40
0.0
 40
0.0
 40
0.2225686399
 40
1.0
 40
1.0
 40
1.0
 40
1.0
 10
-12.4983650019
 20
16.4665974086
 30
0.0
 10
-12.4924982213
 20
16.4676187778
 30
0.0
 10
-12.4655552051
 20
16.4690376375
 30
0.0
 10
-12.4391710712
 20
16.458877119
 30
0.0
 10
-12.4211572758
 20
16.4484761793
 30
0.0
  0
SPLINE
  5
5EC
100
AcDbEntity
  8
0
100
AcDbSpline
 62
7
  6
CONTINUOUS
 70
0
 71
3
 72
9
 73
5
 74
0
 42
0.0000001
 43
0.0000001
 44
0.0000000001
 40
0.0
 40
0.0
 40
0.0
 40
0.0
 40
0.2340532609
 40
1.0
 40
1.0
 40
1.0
 40
1.0
 10
20.1156934287
 20
9.8303147894
 30
0.0
 10
20.1392029222
 20
9.8167407025
 30
0.0
 10
20.2368110026
 20
9.7538632046
 30
0.0
 10
20.3232151325
 20
9.6744386064
 30
0.0
 10
20.3826459219
 20
9.6084057076
 30
0.0
  0
SPLINE
  5
5ED
100
AcDbEntity
  8
0
100
AcDbSpline
 62
250
  6
CONTINUOUS
 70
0
 71
3
 72
9
 73
5
 74
0
 42
0.0000001
 43
0.0000001
 44
0.0000000001
 40
0.0
 40
0.0
 40
0.0
 40
0.0
 40
0.2859742316
 40
1.0
 40
1.0
 40
1.0
 40
1.0
 10
-13.0045334647
 20
16.1177698023
 30
0.0
 10
-13.0108555249
 20
16.1217025916
 30
0.0
 10
-13.0337428122
 20
16.1338488819
 30
0.0
 10
-13.0609482041
 20
16.1401751486
 30
0.0
 10
-13.0793158909
 20
16.1373085649
 30
0.0
  0
SPLINE
  5
5EE
100
AcDbEntity
  8
0
100
AcDbSpline
 62
250
  6
CONTINUOUS
 70
0
 71
3
 72
11
 73
7
 74
0
 42
0.0000001
 43
0.0000001
 44
0.0000000001
 40
0.0
 40
0.0
 40
0.0
 40
0.0
 40
0.2255458045
 40
0.47146695
 40
0.7337185979
 40
1.0
 40
1.0
 40
1.0
 40
1.0
 10
-13.0793158909
 20
16.1373085649
 30
0.0
 10
-13.0983702713
 20
16.1263068045
 30
0.0
 10
-13.1327218364
 20
16.0931283254
 30
0.0
 10
-13.1611427955
 20
16.0257961184
 30
0.0
 10
-13.1662796803
 20
15.9491894746
 30
0.0
 10
-13.1536652355
 20
15.8981698339
 30
0.0
 10
-13.1434866779
 20
15.8742707736
 30
0.0
  0
SPLINE
  5
5EF
100
AcDbEntity
  8
0
100
AcDbSpline
 62
250
  6
CONTINUOUS
 70
0
 71
3
 72
10
 73
6
 74
0
 42
0.0000001
 43
0.0000001
 44
0.0000000001
 40
0.0
 40
0.0
 40
0.0
 40
0.0
 40
0.2375818187
 40
0.5008058728
 40
1.0
 40
1.0
 40
1.0
 40
1.0
 10
-13.1434866779
 20
15.8742707736
 30
0.0
 10
-13.1434866779
 20
15.8971746399
 30
0.0
 10
-13.1349563811
 20
15.945580846
 30
0.0
 10
-13.096334502
 20
16.0339760698
 30
0.0
 10
-13.0458444994
 20
16.0930847161
 30
0.0
 10
-13.0045334647
 20
16.1177698023
 30
0.0
  0
SPLINE
  5
5F0
100
AcDbEntity
  8
0
100
AcDbSpline
 62
250
  6
CONTINUOUS
 70
0
 71
3
 72
10
 73
6
 74
0
 42
0.0000001
 43
0.0000001
 44
0.0000000001
 40
0.0
 40
0.0
 40
0.0
 40
0.0
 40
0.4991433275
 40
0.7623785973
 40
1.0
 40
1.0
 40
1.0
 40
1.0
 10
-7.4387777897
 20
12.9041722309
 30
0.0
 10
-7.480084651
 20
12.8794896385
 30
0.0
 10
-7.5305734318
 20
12.8203860325
 30
0.0
 10
-7.5691979884
 20
12.7319919395
 30
0.0
 10
-7.5777310029
 20
12.6835809015
 30
0.0
 10
-7.5777310029
 20
12.6606732021
 30
0.0
  0
SPLINE
  5
5F1
100
AcDbEntity
  8
0
100
AcDbSpline
 62
250
  6
CONTINUOUS
 70
0
 71
3
 72
10
 73
6
 74
0
 42
0.0000001
 43
0.0000001
 44
0.0000000001
 40
0.0
 40
0.0
 40
0.0
 40
0.0
 40
0.2064955234
 40
0.4680534598
 40
1.0
 40
1.0
 40
1.0
 40
1.0
 10
-7.5777310029
 20
12.6606732021
 30
0.0
 10
-7.5653426373
 20
12.6754550758
 30
0.0
 10
-7.5341617032
 20
12.7063058317
 30
0.0
 10
-7.4628580143
 20
12.7665859316
 30
0.0
 10
-7.4020857824
 20
12.8096608923
 30
0.0
 10
-7.3590590774
 20
12.8345039725
 30
0.0
  0
SPLINE
  5
5F2
100
AcDbEntity
  8
0
100
AcDbSpline
 62
250
  6
CONTINUOUS
 70
0
 71
3
 72
9
 73
5
 74
0
 42
0.0000001
 43
0.0000001
 44
0.0000000001
 40
0.0
 40
0.0
 40
0.0
 40
0.0
 40
0.2659142495
 40
1.0
 40
1.0
 40
1.0
 40
1.0
 10
-7.3590590774
 20
12.8345039725
 30
0.0
 10
-7.3649123006
 20
12.8418806538
 30
0.0
 10
-7.3880729839
 20
12.8686370472
 30
0.0
 10
-7.4159685789
 20
12.8917008824
 30
0.0
 10
-7.4387777897
 20
12.9041722309
 30
0.0
  0
SPLINE
  5
5F3
100
AcDbEntity
  8
0
100
AcDbSpline
 62
250
  6
CONTINUOUS
 70
0
 71
3
 72
9
 73
5
 74
0
 42
0.0000001
 43
0.0000001
 44
0.0000000001
 40
0.0
 40
0.0
 40
0.0
 40
0.0
 40
0.2090720645
 40
1.0
 40
1.0
 40
1.0
 40
1.0
 10
-7.3907603594
 20
12.410170698
 30
0.0
 10
-7.3870758976
 20
12.4144072966
 30
0.0
 10
-7.3688176629
 20
12.4341162009
 30
0.0
 10
-7.3489041723
 20
12.4522236523
 30
0.0
 10
-7.3327897618
 20
12.4660612247
 30
0.0
  0
SPLINE
  5
5F4
100
AcDbEntity
  8
0
100
AcDbSpline
 62
250
  6
CONTINUOUS
 70
0
 71
3
 72
9
 73
5
 74
0
 42
0.0000001
 43
0.0000001
 44
0.0000000001
 40
0.0
 40
0.0
 40
0.0
 40
0.0
 40
0.2522911306
 40
1.0
 40
1.0
 40
1.0
 40
1.0
 10
-7.313934107
 20
12.4818594847
 30
0.0
 10
-7.3039998299
 20
12.4899894784
 30
0.0
 10
-7.2640600594
 20
12.5215122302
 30
0.0
 10
-7.2222904447
 20
12.550772886
 30
0.0
 10
-7.1899086478
 20
12.5707428924
 30
0.0
  0
SPLINE
  5
5F5
100
AcDbEntity
  8
0
100
AcDbSpline
 62
250
  6
CONTINUOUS
 70
0
 71
3
 72
9
 73
5
 74
0
 42
0.0000001
 43
0.0000001
 44
0.0000000001
 40
0.0
 40
0.0
 40
0.0
 40
0.0
 40
0.4759525584
 40
1.0
 40
1.0
 40
1.0
 40
1.0
 10
-7.107917647
 20
12.410170698
 30
0.0
 10
-7.107917647
 20
12.4395662021
 30
0.0
 10
-7.1215903383
 20
12.5012639823
 30
0.0
 10
-7.1514716106
 20
12.5561963415
 30
0.0
 10
-7.1707433214
 20
12.5821992921
 30
0.0
  0
SPLINE
  5
5F6
100
AcDbEntity
  8
0
100
AcDbSpline
 62
7
  6
CONTINUOUS
 70
0
 71
3
 72
9
 73
5
 74
0
 42
0.0000001
 43
0.0000001
 44
0.0000000001
 40
0.0
 40
0.0
 40
0.0
 40
0.0
 40
0.5240226753
 40
1.0
 40
1.0
 40
1.0
 40
1.0
 10
-6.6050578965
 20
12.9088189667
 30
0.0
 10
-6.5857870901
 20
12.8828172365
 30
0.0
 10
-6.5559051266
 20
12.8278853468
 30
0.0
 10
-6.542232222
 20
12.7661874161
 30
0.0
 10
-6.542232222
 20
12.7367903727
 30
0.0
  0
SPLINE
  5
5F7
100
AcDbEntity
  8
0
100
AcDbSpline
 62
250
  6
CONTINUOUS
 70
0
 71
3
 72
8
 73
4
 74
0
 42
0.0000001
 43
0.0000001
 44
0.0000000001
 40
0.0
 40
0.0
 40
0.0
 40
0.0
 40
1.0
 40
1.0
 40
1.0
 40
1.0
 10
-13.3304573214
 20
15.839677282
 30
0.0
 10
-13.3440753318
 20
15.8710617629
 30
0.0
 10
-13.3511544851
 20
15.9060627528
 30
0.0
 10
-13.3508161498
 20
15.940272713
 30
0.0
  0
SPLINE
  5
5F8
100
AcDbEntity
  8
0
100
AcDbSpline
 62
250
  6
CONTINUOUS
 70
0
 71
3
 72
9
 73
5
 74
0
 42
0.0000001
 43
0.0000001
 44
0.0000000001
 40
0.0
 40
0.0
 40
0.0
 40
0.0
 40
0.2648047832
 40
1.0
 40
1.0
 40
1.0
 40
1.0
 10
-13.3447825233
 20
15.9909537753
 30
0.0
 10
-13.3424170583
 20
16.0009994487
 30
0.0
 10
-13.3309058189
 20
16.0382113735
 30
0.0
 10
-13.3076527362
 20
16.0723237386
 30
0.0
 10
-13.2853381395
 20
16.0902978328
 30
0.0
  0
SPLINE
  5
5F9
100
AcDbEntity
  8
0
100
AcDbSpline
 62
250
  6
CONTINUOUS
 70
0
 71
3
 72
9
 73
5
 74
0
 42
0.0000001
 43
0.0000001
 44
0.0000000001
 40
0.0
 40
0.0
 40
0.0
 40
0.0
 40
0.547483402
 40
1.0
 40
1.0
 40
1.0
 40
1.0
 10
-13.3304573214
 20
15.839677282
 30
0.0
 10
-13.3454818338
 20
15.8483522471
 30
0.0
 10
-13.3713444126
 20
15.8678922875
 30
0.0
 10
-13.3863816109
 20
15.8978121304
 30
0.0
 10
-13.3883801143
 20
15.9120118913
 30
0.0
  0
SPLINE
  5
5FA
100
AcDbEntity
  8
0
100
AcDbSpline
 62
250
  6
CONTINUOUS
 70
0
 71
3
 72
9
 73
5
 74
0
 42
0.0000001
 43
0.0000001
 44
0.0000000001
 40
0.0
 40
0.0
 40
0.0
 40
0.0
 40
0.4920648148
 40
1.0
 40
1.0
 40
1.0
 40
1.0
 10
-7.107917647
 20
12.410170698
 30
0.0
 10
-7.1462034756
 20
12.3880649404
 30
0.0
 10
-7.2375856417
 20
12.3681784845
 30
0.0
 10
-7.3293431409
 20
12.3817616661
 30
0.0
 10
-7.3710786354
 20
12.4002203831
 30
0.0
  0
SPLINE
  5
5FB
100
AcDbEntity
  8
0
100
AcDbSpline
 62
250
  6
CONTINUOUS
 70
0
 71
3
 72
8
 73
4
 74
0
 42
0.0000001
 43
0.0000001
 44
0.0000000001
 40
0.0
 40
0.0
 40
0.0
 40
0.0
 40
1.0
 40
1.0
 40
1.0
 40
1.0
 10
-7.3710786354
 20
12.4002203831
 30
0.0
 10
-7.3778017626
 20
12.4031938785
 30
0.0
 10
-7.3843940198
 20
12.4064948533
 30
0.0
 10
-7.3907603594
 20
12.410170698
 30
0.0
  0
SPLINE
  5
5FC
100
AcDbEntity
  8
0
100
AcDbSpline
 62
250
  6
CONTINUOUS
 70
0
 71
3
 72
9
 73
5
 74
0
 42
0.0000001
 43
0.0000001
 44
0.0000000001
 40
0.0
 40
0.0
 40
0.0
 40
0.0
 40
0.4921339907
 40
1.0
 40
1.0
 40
1.0
 40
1.0
 10
-7.107917647
 20
12.400260624
 30
0.0
 10
-7.1462295244
 20
12.3781398262
 30
0.0
 10
-7.2376673559
 20
12.3582584693
 30
0.0
 10
-7.3294760343
 20
12.371876621
 30
0.0
 10
-7.3712159454
 20
12.3903708452
 30
0.0
  0
SPLINE
  5
5FD
100
AcDbEntity
  8
0
100
AcDbSpline
 62
250
  6
CONTINUOUS
 70
0
 71
3
 72
8
 73
4
 74
0
 42
0.0000001
 43
0.0000001
 44
0.0000000001
 40
0.0
 40
0.0
 40
0.0
 40
0.0
 40
1.0
 40
1.0
 40
1.0
 40
1.0
 10
-7.3712159454
 20
12.3903708452
 30
0.0
 10
-7.3778914041
 20
12.3933286242
 30
0.0
 10
-7.3844372775
 20
12.3966097557
 30
0.0
 10
-7.3907603594
 20
12.400260624
 30
0.0
  0
SPLINE
  5
5FE
100
AcDbEntity
  8
0
100
AcDbSpline
 62
250
  6
CONTINUOUS
 70
0
 71
3
 72
11
 73
7
 74
0
 42
0.0000001
 43
0.0000001
 44
0.0000000001
 40
0.0
 40
0.0
 40
0.0
 40
0.0
 40
0.2725808074
 40
0.5327550575
 40
0.7738100748
 40
1.0
 40
1.0
 40
1.0
 40
1.0
 10
-7.107917647
 20
12.400260624
 30
0.0
 10
-7.1209636369
 20
12.3779249502
 30
0.0
 10
-7.1535974968
 20
12.3379771298
 30
0.0
 10
-7.2172351581
 20
12.2984947472
 30
0.0
 10
-7.2870640935
 20
12.2858522062
 30
0.0
 10
-7.331619505
 20
12.2984881422
 30
0.0
 10
-7.3502078491
 20
12.3092208191
 30
0.0
  0
SPLINE
  5
5FF
100
AcDbEntity
  8
0
100
AcDbSpline
 62
250
  6
CONTINUOUS
 70
0
 71
3
 72
11
 73
7
 74
0
 42
0.0000001
 43
0.0000001
 44
0.0000000001
 40
0.0
 40
0.0
 40
0.0
 40
0.0
 40
0.2725786362
 40
0.5327506902
 40
0.7738042734
 40
1.0
 40
1.0
 40
1.0
 40
1.0
 10
-6.936904401
 20
12.2980619996
 30
0.0
 10
-6.9499502852
 20
12.2757265068
 30
0.0
 10
-6.9825837779
 20
12.2357789719
 30
0.0
 10
-7.0462207905
 20
12.1962966245
 30
0.0
 10
-7.116049747
 20
12.1836536131
 30
0.0
 10
-7.1606057849
 20
12.196289244
 30
0.0
 10
-7.1791946031
 20
12.2070221946
 30
0.0
  0
SPLINE
  5
600
100
AcDbEntity
  8
0
100
AcDbSpline
 62
250
  6
CONTINUOUS
 70
0
 71
3
 72
9
 73
5
 74
0
 42
0.0000001
 43
0.0000001
 44
0.0000000001
 40
0.0
 40
0.0
 40
0.0
 40
0.0
 40
0.5495176163
 40
1.0
 40
1.0
 40
1.0
 40
1.0
 10
-6.6909026438
 20
12.3180631593
 30
0.0
 10
-6.6911952324
 20
12.2985393057
 30
0.0
 10
-6.6965902496
 20
12.2622445781
 30
0.0
 10
-6.7209879761
 20
12.2328011146
 30
0.0
 10
-6.7349716165
 20
12.2250112169
 30
0.0
  0
SPLINE
  5
601
100
AcDbEntity
  8
0
100
AcDbSpline
 62
250
  6
CONTINUOUS
 70
0
 71
3
 72
9
 73
5
 74
0
 42
0.0000001
 43
0.0000001
 44
0.0000000001
 40
0.0
 40
0.0
 40
0.0
 40
0.0
 40
0.4495174578
 40
1.0
 40
1.0
 40
1.0
 40
1.0
 10
-13.289904811
 20
15.738727403
 30
0.0
 10
-13.3031617907
 20
15.74664986
 30
0.0
 10
-13.3258960834
 20
15.77572872
 30
0.0
 10
-13.3304573214
 20
15.8108545371
 30
0.0
 10
-13.3304573214
 20
15.829767208
 30
0.0
  0
SPLINE
  5
602
100
AcDbEntity
  8
0
100
AcDbSpline
 62
250
  6
CONTINUOUS
 70
0
 71
3
 72
9
 73
5
 74
0
 42
0.0000001
 43
0.0000001
 44
0.0000000001
 40
0.0
 40
0.0
 40
0.0
 40
0.0
 40
0.5504825441
 40
1.0
 40
1.0
 40
1.0
 40
1.0
 10
-7.3907603594
 20
12.400260624
 30
0.0
 10
-7.3907603594
 20
12.3813479531
 30
0.0
 10
-7.3861991215
 20
12.3462221359
 30
0.0
 10
-7.3634648286
 20
12.3171432761
 30
0.0
 10
-7.3502078491
 20
12.3092208191
 30
0.0
  0
SPLINE
  5
603
100
AcDbEntity
  8
0
100
AcDbSpline
 62
250
  6
CONTINUOUS
 70
0
 71
3
 72
8
 73
4
 74
0
 42
0.0000001
 43
0.0000001
 44
0.0000000001
 40
0.0
 40
0.0
 40
0.0
 40
0.0
 40
1.0
 40
1.0
 40
1.0
 40
1.0
 10
23.9370134482
 20
-6.4957497129
 30
0.0
 10
15.3684487512
 20
-11.6808427761
 30
0.0
 10
6.7996877352
 20
-16.8656114271
 30
0.0
 10
-1.769261449
 20
-22.0500690572
 30
0.0
  0
SPLINE
  5
604
100
AcDbEntity
  8
0
100
AcDbSpline
 62
250
  6
CONTINUOUS
 70
0
 71
3
 72
8
 73
4
 74
0
 42
0.0000001
 43
0.0000001
 44
0.0000000001
 40
0.0
 40
0.0
 40
0.0
 40
0.0
 40
1.0
 40
1.0
 40
1.0
 40
1.0
 10
22.334804226
 20
-8.1193505983
 30
0.0
 10
14.3002923886
 20
-12.9806007072
 30
0.0
 10
6.265601306
 20
-17.8415545768
 30
0.0
 10
-1.7692613217
 20
-22.702224864
 30
0.0
  0
LINE
  5
605
100
AcDbEntity
  8
0
100
AcDbLine
 62
250
  6
CONTINUOUS
 10
-12.4983650019
 20
16.4665974086
 11
-12.8770243807
 21
16.2519734285
  0
LINE
  5
606
100
AcDbEntity
  8
0
100
AcDbLine
 62
250
  6
CONTINUOUS
 10
-7.3590590848
 20
12.8345039822
 11
-6.8318506984
 21
13.1667905165
  0
LINE
  5
607
100
AcDbEntity
  8
0
100
AcDbLine
 62
250
  6
CONTINUOUS
 10
-7.4387778002
 20
12.9041722369
 11
-6.8858468427
 21
13.252457309
  0
SPLINE
  5
608
100
AcDbEntity
  8
0
100
AcDbSpline
 62
7
  6
CONTINUOUS
 70
0
 71
3
 72
13
 73
9
 74
0
 42
0.0000001
 43
0.0000001
 44
0.0000000001
 40
0.0
 40
0.0
 40
0.0
 40
0.0
 40
0.1157334461
 40
0.2465313688
 40
0.529232194
 40
0.6679144848
 40
0.7953568553
 40
1.0
 40
1.0
 40
1.0
 40
1.0
 10
-6.5023325336
 20
12.7696758083
 30
0.0
 10
-6.5079966406
 20
12.7325495579
 30
0.0
 10
-6.508040183
 20
12.6515379129
 30
0.0
 10
-6.4720991475
 20
12.4828695212
 30
0.0
 10
-6.3896229345
 20
12.3195534988
 30
0.0
 10
-6.2735412836
 20
12.1830913601
 30
0.0
 10
-6.1562017396
 20
12.0863296312
 30
0.0
 10
-6.0475757712
 20
12.0425919137
 30
0.0
 10
-5.9813109931
 20
12.0469400661
 30
0.0
  0
SPLINE
  5
609
100
AcDbEntity
  8
0
100
AcDbSpline
 62
250
  6
CONTINUOUS
 70
0
 71
3
 72
8
 73
4
 74
0
 42
0.0000001
 43
0.0000001
 44
0.0000000001
 40
0.0
 40
0.0
 40
0.0
 40
0.0
 40
1.0
 40
1.0
 40
1.0
 40
1.0
 10
-6.936904401
 20
12.2980619996
 30
0.0
 10
-6.9225141616
 20
12.2894622992
 30
0.0
 10
-6.906634238
 20
12.2830425888
 30
0.0
 10
-6.8903652276
 20
12.278998688
 30
0.0
  0
SPLINE
  5
60A
100
AcDbEntity
  8
0
100
AcDbSpline
 62
250
  6
CONTINUOUS
 70
0
 71
3
 72
9
 73
5
 74
0
 42
0.0000001
 43
0.0000001
 44
0.0000000001
 40
0.0
 40
0.0
 40
0.0
 40
0.0
 40
0.2269779097
 40
1.0
 40
1.0
 40
1.0
 40
1.0
 10
-6.8903652276
 20
12.278998688
 30
0.0
 10
-6.8777195346
 20
12.2758554158
 30
0.0
 10
-6.8204239324
 20
12.2680657343
 30
0.0
 10
-6.7620842839
 20
12.2840645317
 30
0.0
 10
-6.7217008128
 20
12.3024654757
 30
0.0
  0
SPLINE
  5
60B
100
AcDbEntity
  8
0
100
AcDbSpline
 62
250
  6
CONTINUOUS
 70
0
 71
3
 72
8
 73
4
 74
0
 42
0.0000001
 43
0.0000001
 44
0.0000000001
 40
0.0
 40
0.0
 40
0.0
 40
0.0
 40
1.0
 40
1.0
 40
1.0
 40
1.0
 10
-13.2887203439
 20
16.0947006473
 30
0.0
 10
-13.2822119043
 20
16.0984094784
 30
0.0
 10
-13.2749848519
 20
16.1010359573
 30
0.0
 10
-13.267631647
 20
16.1024661993
 30
0.0
  0
SPLINE
  5
60C
100
AcDbEntity
  8
0
100
AcDbSpline
 62
7
  6
CONTINUOUS
 70
0
 71
3
 72
8
 73
4
 74
0
 42
0.0000001
 43
0.0000001
 44
0.0000000001
 40
0.0
 40
0.0
 40
0.0
 40
0.0
 40
1.0
 40
1.0
 40
1.0
 40
1.0
 10
-12.7231516857
 20
16.4212537886
 30
0.0
 10
-12.7166122809
 20
16.4249975081
 30
0.0
 10
-12.7093428058
 20
16.4276471945
 30
0.0
 10
-12.701946222
 20
16.4290858739
 30
0.0
  0
SPLINE
  5
60D
100
AcDbEntity
  8
0
100
AcDbSpline
 62
250
  6
CONTINUOUS
 70
0
 71
3
 72
9
 73
5
 74
0
 42
0.0000001
 43
0.0000001
 44
0.0000000001
 40
0.0
 40
0.0
 40
0.0
 40
0.0
 40
0.4715914544
 40
1.0
 40
1.0
 40
1.0
 40
1.0
 10
-13.3890359657
 20
15.9114221266
 30
0.0
 10
-13.389035921
 20
15.9011985039
 30
0.0
 10
-13.3837209454
 20
15.8793373995
 30
0.0
 10
-13.3702618286
 20
15.861705704
 30
0.0
 10
-13.3621491115
 20
15.8536181159
 30
0.0
  0
SPLINE
  5
60E
100
AcDbEntity
  8
0
100
AcDbSpline
 62
250
  6
CONTINUOUS
 70
0
 71
3
 72
9
 73
5
 74
0
 42
0.0000001
 43
0.0000001
 44
0.0000000001
 40
0.0
 40
0.0
 40
0.0
 40
0.0
 40
0.237507101
 40
1.0
 40
1.0
 40
1.0
 40
1.0
 10
-13.3621491115
 20
15.8536181159
 30
0.0
 10
-13.3599216293
 20
15.8513975334
 30
0.0
 10
-13.3501878893
 20
15.8424057375
 30
0.0
 10
-13.3392019116
 20
15.8348162248
 30
0.0
 10
-13.3304573214
 20
15.829767208
 30
0.0
  0
SPLINE
  5
60F
100
AcDbEntity
  8
0
100
AcDbSpline
 62
7
  6
CONTINUOUS
 70
0
 71
3
 72
11
 73
7
 74
0
 42
0.0000001
 43
0.0000001
 44
0.0000000001
 40
0.0
 40
0.0
 40
0.0
 40
0.0
 40
0.2223977611
 40
0.4498728223
 40
0.705397512
 40
1.0
 40
1.0
 40
1.0
 40
1.0
 10
6.1303477474
 20
-14.8684925477
 30
0.0
 10
6.1632616131
 20
-14.9050379216
 30
0.0
 10
6.2457524565
 20
-14.9667501094
 30
0.0
 10
6.4027644001
 20
-14.9990963501
 30
0.0
 10
6.5751863823
 20
-14.9698226028
 30
0.0
 10
6.6863568914
 20
-14.9174598209
 30
0.0
 10
6.7424588188
 20
-14.8843375663
 30
0.0
  0
SPLINE
  5
610
100
AcDbEntity
  8
0
100
AcDbSpline
 62
7
  6
CONTINUOUS
 70
0
 71
3
 72
11
 73
7
 74
0
 42
0.0000001
 43
0.0000001
 44
0.0000000001
 40
0.0
 40
0.0
 40
0.0
 40
0.0
 40
0.2223977611
 40
0.4498728223
 40
0.705397512
 40
1.0
 40
1.0
 40
1.0
 40
1.0
 10
6.1303477474
 20
-10.7861411638
 30
0.0
 10
6.1632616131
 20
-10.8226865376
 30
0.0
 10
6.2457524565
 20
-10.8843987255
 30
0.0
 10
6.4027644001
 20
-10.9167449661
 30
0.0
 10
6.5751863823
 20
-10.8874712189
 30
0.0
 10
6.6863568914
 20
-10.8351084369
 30
0.0
 10
6.7424588188
 20
-10.8019861823
 30
0.0
  0
SPLINE
  5
611
100
AcDbEntity
  8
0
100
AcDbSpline
 62
7
  6
CONTINUOUS
 70
0
 71
3
 72
11
 73
7
 74
0
 42
0.0000001
 43
0.0000001
 44
0.0000000001
 40
0.0
 40
0.0
 40
0.0
 40
0.0
 40
0.2223977611
 40
0.4498728223
 40
0.705397512
 40
1.0
 40
1.0
 40
1.0
 40
1.0
 10
6.1303477474
 20
-6.7037897798
 30
0.0
 10
6.1632616131
 20
-6.7403351537
 30
0.0
 10
6.2457524565
 20
-6.8020473415
 30
0.0
 10
6.4027644001
 20
-6.8343935822
 30
0.0
 10
6.5751863823
 20
-6.8051198349
 30
0.0
 10
6.6863568914
 20
-6.752757053
 30
0.0
 10
6.7424588188
 20
-6.7196347983
 30
0.0
  0
SPLINE
  5
612
100
AcDbEntity
  8
0
100
AcDbSpline
 62
7
  6
CONTINUOUS
 70
0
 71
3
 72
8
 73
4
 74
0
 42
0.0000001
 43
0.0000001
 44
0.0000000001
 40
0.0
 40
0.0
 40
0.0
 40
0.0
 40
1.0
 40
1.0
 40
1.0
 40
1.0
 10
21.9930823075
 20
23.6664810976
 30
0.0
 10
15.520523384
 20
20.0075876825
 30
0.0
 10
9.0478439123
 20
16.3489075106
 30
0.0
 10
2.5750624406
 20
12.6904078097
 30
0.0
  0
SPLINE
  5
613
100
AcDbEntity
  8
0
100
AcDbSpline
 62
7
  6
CONTINUOUS
 70
0
 71
3
 72
11
 73
7
 74
0
 42
0.0000001
 43
0.0000001
 44
0.0000000001
 40
0.0
 40
0.0
 40
0.0
 40
0.0
 40
0.2223977611
 40
0.4498728223
 40
0.705397512
 40
1.0
 40
1.0
 40
1.0
 40
1.0
 10
6.1303477474
 20
-2.6214383959
 30
0.0
 10
6.1632616131
 20
-2.6579837697
 30
0.0
 10
6.2457524565
 20
-2.7196959575
 30
0.0
 10
6.4027644001
 20
-2.7520421982
 30
0.0
 10
6.5751863823
 20
-2.7227684509
 30
0.0
 10
6.6863568914
 20
-2.670405669
 30
0.0
 10
6.7424588188
 20
-2.6372834144
 30
0.0
  0
SPLINE
  5
614
100
AcDbEntity
  8
0
100
AcDbSpline
 62
7
  6
CONTINUOUS
 70
0
 71
3
 72
8
 73
4
 74
0
 42
0.0000001
 43
0.0000001
 44
0.0000000001
 40
0.0
 40
0.0
 40
0.0
 40
0.0
 40
1.0
 40
1.0
 40
1.0
 40
1.0
 10
10.9566587685
 20
29.9608568235
 30
0.0
 10
4.3762793732
 20
26.3463442711
 30
0.0
 10
-2.2039910006
 20
22.7316332332
 30
0.0
 10
-8.784151606
 20
19.1167223928
 30
0.0
  0
SPLINE
  5
615
100
AcDbEntity
  8
0
100
AcDbSpline
 62
7
  6
CONTINUOUS
 70
0
 71
3
 72
9
 73
5
 74
0
 42
0.0000001
 43
0.0000001
 44
0.0000000001
 40
0.0
 40
0.0
 40
0.0
 40
0.0
 40
0.2502052921
 40
1.0
 40
1.0
 40
1.0
 40
1.0
 10
-10.4456166782
 20
17.8635824885
 30
0.0
 10
-10.6425084105
 20
17.7559263435
 30
0.0
 10
-11.4293944095
 20
17.3255915618
 30
0.0
 10
-12.2161517396
 20
16.8950215191
 30
0.0
 10
-12.8059977989
 20
16.5720720508
 30
0.0
  0
SPLINE
  5
616
100
AcDbEntity
  8
0
100
AcDbSpline
 62
250
  6
CONTINUOUS
 70
0
 71
3
 72
8
 73
4
 74
0
 42
0.0000001
 43
0.0000001
 44
0.0000000001
 40
0.0
 40
0.0
 40
0.0
 40
0.0
 40
1.0
 40
1.0
 40
1.0
 40
1.0
 10
23.6247059681
 20
20.6615268997
 30
0.0
 10
15.1599221719
 20
15.6547715668
 30
0.0
 10
6.6952677497
 20
10.6477974989
 30
0.0
 10
-1.7692613217
 20
5.6406115347
 30
0.0
  0
SPLINE
  5
617
100
AcDbEntity
  8
0
100
AcDbSpline
 62
250
  6
CONTINUOUS
 70
0
 71
3
 72
8
 73
4
 74
0
 42
0.0000001
 43
0.0000001
 44
0.0000000001
 40
0.0
 40
0.0
 40
0.0
 40
0.0
 40
1.0
 40
1.0
 40
1.0
 40
1.0
 10
23.9370134482
 20
19.4577346726
 30
0.0
 10
15.3680637379
 20
14.3962725245
 30
0.0
 10
6.7993081184
 20
9.3344817718
 30
0.0
 10
-1.769261449
 20
4.272376105
 30
0.0
  0
LINE
  5
618
100
AcDbEntity
  8
0
100
AcDbLine
 62
250
  6
CONTINUOUS
 10
-7.0549854165
 20
13.3501158017
 11
-5.3802287039
 21
14.2934028357
  0
LINE
  5
619
100
AcDbEntity
  8
0
100
AcDbLine
 62
250
  6
CONTINUOUS
 10
-5.3802287039
 20
14.2934028357
 11
-4.2414544883
 21
14.9348088855
  0
SPLINE
  5
61A
100
AcDbEntity
  8
0
100
AcDbSpline
 62
7
  6
CONTINUOUS
 70
0
 71
3
 72
11
 73
7
 74
0
 42
0.0000001
 43
0.0000001
 44
0.0000000001
 40
0.0
 40
0.0
 40
0.0
 40
0.0
 40
0.2223977611
 40
0.4498728223
 40
0.705397512
 40
1.0
 40
1.0
 40
1.0
 40
1.0
 10
6.1303477474
 20
1.4609129881
 30
0.0
 10
6.1632616131
 20
1.4243676143
 30
0.0
 10
6.2457524565
 20
1.3626554264
 30
0.0
 10
6.4027644001
 20
1.3303091857
 30
0.0
 10
6.5751863823
 20
1.359582933
 30
0.0
 10
6.6863568914
 20
1.411945715
 30
0.0
 10
6.7424588188
 20
1.4450679696
 30
0.0
  0
LINE
  5
61B
100
AcDbEntity
  8
0
100
AcDbLine
 62
250
  6
CONTINUOUS
 10
-6.6641779697
 20
12.9884115933
 11
-4.7885720499
 21
14.0442406014
  0
LINE
  5
61C
100
AcDbEntity
  8
0
100
AcDbLine
 62
250
  6
CONTINUOUS
 10
-10.1160128833
 20
17.8335603913
 11
-12.4694217786
 21
16.5360147938
  0
SPLINE
  5
61D
100
AcDbEntity
  8
0
100
AcDbSpline
 62
7
  6
CONTINUOUS
 70
0
 71
3
 72
11
 73
7
 74
0
 42
0.0000001
 43
0.0000001
 44
0.0000000001
 40
0.0
 40
0.0
 40
0.0
 40
0.0
 40
0.2223977611
 40
0.4498728223
 40
0.705397512
 40
1.0
 40
1.0
 40
1.0
 40
1.0
 10
6.1303477474
 20
5.5432643721
 30
0.0
 10
6.1632616131
 20
5.5067189982
 30
0.0
 10
6.2457524565
 20
5.4450068104
 30
0.0
 10
6.4027644001
 20
5.4126605697
 30
0.0
 10
6.5751863823
 20
5.441934317
 30
0.0
 10
6.6863568914
 20
5.4942970989
 30
0.0
 10
6.7424588188
 20
5.5274193536
 30
0.0
  0
LINE
  5
61E
100
AcDbEntity
  8
0
100
AcDbLine
 62
250
  6
CONTINUOUS
 10
-9.4086953806
 20
17.9183090159
 11
-12.2520187019
 21
16.3508176866
  0
SPLINE
  5
61F
100
AcDbEntity
  8
0
100
AcDbSpline
 62
7
  6
CONTINUOUS
 70
0
 71
3
 72
9
 73
5
 74
0
 42
0.0000001
 43
0.0000001
 44
0.0000000001
 40
0.0
 40
0.0
 40
0.0
 40
0.0
 40
0.2597422206
 40
1.0
 40
1.0
 40
1.0
 40
1.0
 10
-13.2849949394
 20
16.2416625635
 30
0.0
 10
-13.2769502072
 20
16.2333092105
 30
0.0
 10
-13.2452318002
 20
16.2018893392
 30
0.0
 10
-13.2104712881
 20
16.173439189
 30
0.0
 10
-13.1830595974
 20
16.1549723944
 30
0.0
  0
SPLINE
  5
620
100
AcDbEntity
  8
0
100
AcDbSpline
 62
7
  6
CONTINUOUS
 70
0
 71
3
 72
10
 73
6
 74
0
 42
0.0000001
 43
0.0000001
 44
0.0000000001
 40
0.0
 40
0.0
 40
0.0
 40
0.0
 40
0.2323898872
 40
0.4901103485
 40
1.0
 40
1.0
 40
1.0
 40
1.0
 10
20.4013645683
 20
7.1342745407
 30
0.0
 10
20.4361262385
 20
7.1543454934
 30
0.0
 10
20.5028558063
 20
7.2083377829
 30
0.0
 10
20.6114736872
 20
7.3431506739
 30
0.0
 10
20.6648777351
 20
7.4702157994
 30
0.0
 10
20.6786471461
 20
7.5572043795
 30
0.0
  0
ELLIPSE
  5
621
100
AcDbEntity
  8
ASSI
100
AcDbEllipse
 62
7
  6
CONTINUOUS
 10
-2.1228686957
 20
-26.5648169055
 30
0.0
 11
-0.2498600223
 21
0.43379745
 31
0.0
 40
0.5768037941
 41
-3.1764860545
 42
-2.355482613
  0
ELLIPSE
  5
622
100
AcDbEntity
  8
ASSI
100
AcDbEllipse
 62
7
  6
CONTINUOUS
 10
-2.1228686957
 20
9.1954607383
 30
0.0
 11
-0.2496303025
 21
0.4334023309
 31
0.0
 40
0.5778584463
 41
-2.3545649475
 42
-0.7846820092
  0
ELLIPSE
  5
623
100
AcDbEntity
  8
ASSI
100
AcDbEllipse
 62
7
  6
CONTINUOUS
 10
-17.1841354228
 20
17.8916473845
 30
0.0
 11
-0.2498600223
 21
0.43379745
 31
0.0
 40
0.5768037941
 41
-0.7837728977
 42
0.0348934027
  0
ELLIPSE
  5
624
100
AcDbEntity
  8
CURVE
100
AcDbEllipse
 62
250
  6
CONTINUOUS
 10
342.4436512344
 20
192.8843077961
 30
0.0
 11
316.3793765692
 21
393.3169807442
 31
0.0
 40
0.4450708833
 41
-3.8232550997
 42
-3.8196526841
  0
ELLIPSE
  5
625
100
AcDbEntity
  8
CURVE
100
AcDbEllipse
 62
250
  6
CONTINUOUS
 10
335.4614780071
 20
196.9157271103
 30
0.0
 11
87.6862545943
 21
508.1854445458
 31
0.0
 40
0.7055578127
 41
-4.1452484233
 42
-4.1426752211
  0
ELLIPSE
  5
626
100
AcDbEntity
  8
CURVE
100
AcDbEllipse
 62
250
  6
CONTINUOUS
 10
343.0618661621
 20
192.5273582448
 30
0.0
 11
337.9627700953
 21
380.3744364606
 31
0.0
 40
0.3902181199
 41
-3.811039113
 42
-3.8084659108
  0
ELLIPSE
  5
627
100
AcDbEntity
  8
CURVE
100
AcDbEllipse
 62
250
  6
CONTINUOUS
 10
336.0796913164
 20
196.5587784935
 30
0.0
 11
145.6077166636
 21
485.9231992827
 31
0.0
 40
0.6811066893
 41
-4.0520250707
 42
-4.0484226551
  0
ELLIPSE
  5
628
100
AcDbEntity
  8
CURVE
100
AcDbEllipse
 62
250
  6
CONTINUOUS
 10
325.3215696721
 20
202.7703831
 30
0.0
 11
-353.544756186
 21
612.3773350468
 31
0.0
 40
0.5773596291
 41
-4.6760139054
 42
-4.6754992748
  0
ELLIPSE
  5
629
100
AcDbEntity
  8
0
100
AcDbEllipse
 62
7
  6
CONTINUOUS
 10
-2.1228686957
 20
-26.5648169055
 30
0.0
 11
-0.2498600223
 21
0.43379745
 31
0.0
 40
0.5768037941
 41
-3.1764860545
 42
-2.355482613
  0
ELLIPSE
  5
62A
100
AcDbEntity
  8
0
100
AcDbEllipse
 62
7
  6
CONTINUOUS
 10
-2.1228686957
 20
9.1954607383
 30
0.0
 11
-0.2496303025
 21
0.4334023309
 31
0.0
 40
0.5778584463
 41
-2.3545649475
 42
-0.7846820092
  0
ELLIPSE
  5
62B
100
AcDbEntity
  8
0
100
AcDbEllipse
 62
7
  6
CONTINUOUS
 10
-17.1841354228
 20
17.8916473845
 30
0.0
 11
-0.2498600223
 21
0.43379745
 31
0.0
 40
0.5768037941
 41
-0.7837728977
 42
0.0348934027
  0
ELLIPSE
  5
62C
100
AcDbEntity
  8
0
100
AcDbEllipse
 62
7
  6
CONTINUOUS
 10
19.2820933992
 20
9.8213325016
 30
0.0
 11
1.0229917131
 21
1.834161488
 31
0.0
 40
0.5671693725
 41
0.7857458354
 42
1.7508170405
  0
ELLIPSE
  5
62D
100
AcDbEntity
  8
0
100
AcDbEllipse
 62
7
  6
CONTINUOUS
 10
19.2820933992
 20
13.9036838856
 30
0.0
 11
1.0229917131
 21
1.834161488
 31
0.0
 40
0.5671693725
 41
0.7857458354
 42
1.7508170405
  0
ELLIPSE
  5
62E
100
AcDbEntity
  8
0
100
AcDbEllipse
 62
7
  6
CONTINUOUS
 10
18.5321814659
 20
14.3366736373
 30
0.0
 11
1.0364148088
 21
1.8264749765
 31
0.0
 40
0.5722717666
 41
-2.9032600827
 42
-2.369160648
  0
ELLIPSE
  5
62F
100
AcDbEntity
  8
0
100
AcDbEllipse
 62
7
  6
CONTINUOUS
 10
18.5321814659
 20
10.2543222533
 30
0.0
 11
1.0364148088
 21
1.8264749765
 31
0.0
 40
0.5722717666
 41
-2.9032600827
 42
-2.369160648
  0
ELLIPSE
  5
630
100
AcDbEntity
  8
0
100
AcDbEllipse
 62
7
  6
CONTINUOUS
 10
16.1365177727
 20
11.637548445
 30
0.0
 11
5.6261368649
 21
-4.8446128819
 31
0.0
 40
0.2167200945
 41
-1.1995308321
 42
-1.0406806992
  0
ELLIPSE
  5
631
100
AcDbEntity
  8
0
100
AcDbEllipse
 62
7
  6
CONTINUOUS
 10
16.1365177727
 20
15.719899829
 30
0.0
 11
5.6261368649
 21
-4.8446128819
 31
0.0
 40
0.2167200945
 41
-1.1995308321
 42
-1.0406806992
  0
ELLIPSE
  5
632
100
AcDbEntity
  8
0
100
AcDbEllipse
 62
7
  6
CONTINUOUS
 10
9.7355318068
 20
23.2644221578
 30
0.0
 11
0.4340187671
 21
-0.0064490065
 31
0.0
 40
0.5672251703
 41
-2.5178696544
 42
-2.273299804
  0
ELLIPSE
  5
633
100
AcDbEntity
  8
0
100
AcDbEllipse
 62
7
  6
CONTINUOUS
 10
-6.6836535782
 20
12.482562105
 30
0.0
 11
-0.0999896007
 21
0.1732286732
 31
0.0
 40
0.5773316645
 41
-3.1503197815
 42
-2.3560905026
  0
ELLIPSE
  5
634
100
AcDbEntity
  8
0
100
AcDbEllipse
 62
7
  6
CONTINUOUS
 10
3.2468501119
 20
14.6285221852
 30
0.0
 11
1.3142304592
 21
-0.0195158908
 31
0.0
 40
0.5672252748
 41
2.3620692019
 42
5.5087473143
  0
ELLIPSE
  5
635
100
AcDbEntity
  8
0
100
AcDbEllipse
 62
7
  6
CONTINUOUS
 10
0.5598443434
 20
16.1799656399
 30
0.0
 11
1.3142304592
 21
-0.0195158908
 31
0.0
 40
0.5672252748
 41
2.3620692019
 42
5.5087473143
  0
ELLIPSE
  5
636
100
AcDbEntity
  8
0
100
AcDbEllipse
 62
7
  6
CONTINUOUS
 10
-2.1271614252
 20
17.7314090945
 30
0.0
 11
1.3142304592
 21
-0.0195158908
 31
0.0
 40
0.5672252748
 41
2.3620692019
 42
5.5087473143
  0
ELLIPSE
  5
637
100
AcDbEntity
  8
0
100
AcDbEllipse
 62
7
  6
CONTINUOUS
 10
19.2820933992
 20
13.9036838856
 30
0.0
 11
1.0229917131
 21
1.834161488
 31
0.0
 40
0.5671693725
 41
2.9448139913
 42
3.9098851964
  0
ELLIPSE
  5
638
100
AcDbEntity
  8
0
100
AcDbEllipse
 62
7
  6
CONTINUOUS
 10
19.2820933992
 20
9.8213325016
 30
0.0
 11
1.0229917131
 21
1.834161488
 31
0.0
 40
0.5671693725
 41
2.9448139913
 42
3.9098851964
  0
ENDSEC
  0
SECTION
  2
OBJECTS
  0
DICTIONARY
  5
C
100
AcDbDictionary
280
0
281
1
  3
ACAD_GROUP
350
D
  3
ACAD_MLINESTYLE
350
17
  3
ACAD_LAYOUT
350
1A
  3
ACAD_PLOTSETTINGS
350
19
  3
ACAD_PLOTSTYLENAME
350
E
  0
DICTIONARY
  5
D
102
{ACAD_REACTORS
330
C
102
}
100
AcDbDictionary
280
0
281
1
  0
ACDBDICTIONARYWDFLT
  5
E
102
{ACAD_REACTORS
330
C
102
}
100
AcDbDictionary
281
1
  3
Normal
350
F
100
AcDbDictionaryWithDefault
340
F
  0
DICTIONARY
  5
17
102
{ACAD_REACTORS
330
C
102
}
100
AcDbDictionary
280
0
281
1
  3
Standard
350
18
  0
DICTIONARY
  5
19
102
{ACAD_REACTORS
330
C
102
}
100
AcDbDictionary
281
1
  0
DICTIONARY
  5
1A
102
{ACAD_REACTORS
330
C
102
}
100
AcDbDictionary
281
1
  3
Model
350
639
  3
Layout1
350
63A
  0
ACDBPLACEHOLDER
  5
F
102
{ACAD_REACTORS
330
E
102
}
  0
MLINESTYLE
  5
18
102
{ACAD_REACTORS
330
17
102
}
100
AcDbMlineStyle
  2
STANDARD
 70
0
  3

 62
256
 51
90.0
 52
90.0
 71
2
 49
0.5
 62
256
  6
BYLAYER
 49
-0.5
 62
256
  6
BYLAYER
  0
LAYOUT
  5
639
102
{ACAD_REACTORS
330
1A
102
}
100
AcDbPlotSettings
  1

  2
none_device
  4

  6

 40
0.0
 41
0.0
 42
0.0
 43
0.0
 44
210.0
 45
297.0
 46
0.0
 47
0.0
 48
0.0
 49
0.0
140
0.0
141
0.0
142
1.0
143
1.0
 70
1024
 72
1
 73
0
 74
0
  7

 75
0
147
1.0
148
0.0
149
0.0
100
AcDbLayout
  1
Model
 70
0
 71
0
 10
0.0
 20
0.0
 11
210.0
 21
297.0
 12
0.0
 22
0.0
 32
0.0
 14
0.0
 24
0.0
 34
0.0
 15
0.0
 25
0.0
 35
0.0
146
0.0
 13
0.0
 23
0.0
 33
0.0
 16
1.0
 26
0.0
 36
0.0
 17
0.0
 27
1.0
 37
0.0
 76
0
330
392
345
0
346
0
  0
LAYOUT
  5
63A
102
{ACAD_REACTORS
330
1A
102
}
100
AcDbPlotSettings
  1

  2
none_device
  4

  6

 40
0.0
 41
0.0
 42
0.0
 43
0.0
 44
210.0
 45
297.0
 46
0.0
 47
0.0
 48
0.0
 49
0.0
140
0.0
141
0.0
142
1.0
143
1.0
 70
0
 72
1
 73
0
 74
0
  7

 75
0
147
1.0
148
0.0
149
0.0
100
AcDbLayout
  1
Layout1
 70
0
 71
1
 10
0.0
 20
0.0
 11
210.0
 21
297.0
 12
0.0
 22
0.0
 32
0.0
 14
0.0
 24
0.0
 34
0.0
 15
0.0
 25
0.0
 35
0.0
146
0.0
 13
0.0
 23
0.0
 33
0.0
 16
1.0
 26
0.0
 36
0.0
 17
0.0
 27
1.0
 37
0.0
 76
0
330
393
345
0
346
0
  0
ENDSEC
  0
EOF
