  0
SECTION
  2
HEADER
  9
$ACADVER
  1
AC1024
  9
$DWGCODEPAGE
  3
ANSI_1252
  9
$EXTMAX
 10
210.0
 20
297.0
 30
0.0
  9
$EXTMIN
 10
0.0
 20
0.0
 30
0.0
  9
$LIMMIN
 10
0.0
 20
0.0
  9
$LIMMAX
 10
210.0
 20
297.0
  9
$VIEWCTR
 10
105.0
 20
148.5
  9
$VIEWSIZE
 40
297.0
  9
$CLAYER
  8
0
  9
$LTSCALE
 40
19.36
  9
$CELTYPE
  6
BYLAYER
  9
$DIMSCALE
 40
1.0
  9
$DIMASZ
 40
3.0
  9
$DIMEXO
 40
0.5
  9
$DIMDLI
 40
13.376
  9
$DIMEXE
 40
1.5
  9
$DIMCEN
 40
3.168
  9
$DIMLFAC
 40
1.0
  9
$DIMBLK
  1
_FILLED
  9
$DIMALT
 70
0
  9
$DIMALTF
 40
0.0393700787
  9
$DIMTXT
 40
3.0
  9
$DIMTOL
 70
1
  9
$DIMLIM
 70
0
  9
$DIMTFAC
 40
1.0
  9
$DIMTP
 40
0.01
  9
$DIMTM
 40
0.01
  9
$DIMGAP
 40
0.625
  9
$DIMDSEP
 70
44
  9
$AUNITS
 70
0
  9
$PDMODE
 70
3
  9
$PDSIZE
 40
3.0
  9
$HANDSEED
  5
67E
  9
$TILEMODE
 70
1
  9
$MEASUREMENT
 70
1
  9
$INSUNITS
 70
4
  0
ENDSEC
  0
SECTION
  2
CLASSES
  0
CLASS
  1
ACDBDICTIONARYWDFLT
  2
AcDbDictionaryWithDefault
  3
AutoCAD 2000
 90
0
 91
1
280
0
281
0
  0
CLASS
  1
ACDBPLACEHOLDER
  2
AcDbPlaceHolder
  3
AutoCAD 2000
 90
0
 91
1
280
0
281
0
  0
CLASS
  1
LAYOUT
  2
AcDbLayout
  3
AutoCAD 2000
 90
0
 91
0
280
0
281
0
  0
ENDSEC
  0
SECTION
  2
TABLES
  0
TABLE
  2
VPORT
  5
8
100
AcDbSymbolTable
 70
2
  0
VPORT
  5
1F4
100
AcDbSymbolTableRecord
100
AcDbViewportTableRecord
  2
*ACTIVE
 70
0
 10
0.0
 20
0.0
 11
1.0
 21
1.0
 12
105.0
 22
148.5
 13
0.0
 23
0.0
 14
1.0
 24
1.0
 15
0.0
 25
0.0
 16
0.0
 26
0.0
 36
1.0
 17
0.0
 27
0.0
 37
0.0
 40
297.0
 41
0.7070707071
 42
50.0
 43
0.0
 44
0.0
 50
0.0
 51
0.0
 71
0
 72
100
 73
1
 74
1
 75
0
 76
0
 77
0
 78
0
  0
ENDTAB
  0
TABLE
  2
LTYPE
  5
5
100
AcDbSymbolTable
 70
6
  0
LTYPE
  5
14
100
AcDbSymbolTableRecord
100
AcDbLinetypeTableRecord
  2
BYBLOCK
 70
0
  3

 72
65
 73
0
 40
0.0
  0
LTYPE
  5
15
100
AcDbSymbolTableRecord
100
AcDbLinetypeTableRecord
  2
BYLAYER
 70
0
  3

 72
65
 73
0
 40
0.0
  0
LTYPE
  5
16
100
AcDbSymbolTableRecord
100
AcDbLinetypeTableRecord
  2
CONTINUOUS
 70
64
  3
Solid line
 72
65
 73
0
 40
0.0
  0
LTYPE
  5
1F5
100
AcDbSymbolTableRecord
100
AcDbLinetypeTableRecord
  2
CENTER
 70
64
  3
____ _ ____ _ ____ _ ____ _ ____ _ ____ _ ____
 72
65
 73
4
 40
0.6
 49
0.375
 74
0
 49
-0.075
 74
0
 49
0.075
 74
0
 49
-0.075
 74
0
  0
LTYPE
  5
1F6
100
AcDbSymbolTableRecord
100
AcDbLinetypeTableRecord
  2
HIDDEN
 70
64
  3
- - - - - - - - - - - - - - - - - - - -
 72
65
 73
2
 40
0.2
 49
0.1
 74
0
 49
-0.1
 74
0
  0
LTYPE
  5
1F7
100
AcDbSymbolTableRecord
100
AcDbLinetypeTableRecord
  2
PHANTOM
 70
64
  3
_____ _ _ _____ _ _ _____ _ _ _____
 72
65
 73
6
 40
0.8
 49
0.45
 74
0
 49
-0.05
 74
0
 49
0.1
 74
0
 49
-0.05
 74
0
 49
0.1
 74
0
 49
-0.05
 74
0
  0
LTYPE
  5
1F8
100
AcDbSymbolTableRecord
100
AcDbLinetypeTableRecord
  2
DOT
 70
64
  3
. . . . . . . . . . . . . . . . . . . .
 72
65
 73
2
 40
0.2
 49
0.1
 74
0
 49
-0.1
 74
0
  0
LTYPE
  5
1F9
100
AcDbSymbolTableRecord
100
AcDbLinetypeTableRecord
  2
DASHED
 70
64
  3
- - - - - - - - - - - - - - - - - - - -
 72
65
 73
2
 40
0.2
 49
0.1
 74
0
 49
-0.1
 74
0
  0
ENDTAB
  0
TABLE
  2
LAYER
  5
2
100
AcDbSymbolTable
 70
36
  0
LAYER
  5
10
100
AcDbSymbolTableRecord
100
AcDbLayerTableRecord
  2
0
 70
0
 62
7
  6
CONTINUOUS
370
-3
390
F
  0
LAYER
  5
1FA
100
AcDbSymbolTableRecord
100
AcDbLayerTableRecord
  2
DEFAULT_1
 70
0
 62
7
  6
CENTER
370
-3
390
F
  0
LAYER
  5
1FB
100
AcDbSymbolTableRecord
100
AcDbLayerTableRecord
  2
DEFAULT_2
 70
0
 62
7
  6
HIDDEN
370
-3
390
F
  0
LAYER
  5
1FC
100
AcDbSymbolTableRecord
100
AcDbLayerTableRecord
  2
DEFAULT_3
 70
0
 62
7
  6
PHANTOM
370
-3
390
F
  0
LAYER
  5
1FD
100
AcDbSymbolTableRecord
100
AcDbLayerTableRecord
  2
0603_C_REF_90000
 70
0
 62
7
  6
CONTINUOUS
370
-3
390
F
  0
LAYER
  5
1FE
100
AcDbSymbolTableRecord
100
AcDbLayerTableRecord
  2
0603_C_REF_90000_1
 70
0
 62
7
  6
CONTINUOUS
370
-3
390
F
  0
LAYER
  5
1FF
100
AcDbSymbolTableRecord
100
AcDbLayerTableRecord
  2
0603_C_REF_90000_1_1
 70
0
 62
7
  6
CONTINUOUS
370
-3
390
F
  0
LAYER
  5
200
100
AcDbSymbolTableRecord
100
AcDbLayerTableRecord
  2
0603_C_REF_90000_1_2
 70
0
 62
7
  6
CONTINUOUS
370
-3
390
F
  0
LAYER
  5
201
100
AcDbSymbolTableRecord
100
AcDbLayerTableRecord
  2
0603_C_REF_90000_2
 70
0
 62
7
  6
CONTINUOUS
370
-3
390
F
  0
LAYER
  5
202
100
AcDbSymbolTableRecord
100
AcDbLayerTableRecord
  2
0603_C_REF_90000_2_1
 70
0
 62
7
  6
CONTINUOUS
370
-3
390
F
  0
LAYER
  5
203
100
AcDbSymbolTableRecord
100
AcDbLayerTableRecord
  2
0603_C_REF_90000_3
 70
0
 62
7
  6
CONTINUOUS
370
-3
390
F
  0
LAYER
  5
204
100
AcDbSymbolTableRecord
100
AcDbLayerTableRecord
  2
0603_C_REF_90000_3_1
 70
0
 62
7
  6
CONTINUOUS
370
-3
390
F
  0
LAYER
  5
205
100
AcDbSymbolTableRecord
100
AcDbLayerTableRecord
  2
0603_C_REF_90000_4
 70
0
 62
7
  6
CONTINUOUS
370
-3
390
F
  0
LAYER
  5
206
100
AcDbSymbolTableRecord
100
AcDbLayerTableRecord
  2
0603_C_REF_90000_4_1
 70
0
 62
7
  6
CONTINUOUS
370
-3
390
F
  0
LAYER
  5
207
100
AcDbSymbolTableRecord
100
AcDbLayerTableRecord
  2
0603_C_REF_90000_5
 70
0
 62
7
  6
CONTINUOUS
370
-3
390
F
  0
LAYER
  5
208
100
AcDbSymbolTableRecord
100
AcDbLayerTableRecord
  2
0603_C_REF_90000_5_1
 70
0
 62
7
  6
CONTINUOUS
370
-3
390
F
  0
LAYER
  5
209
100
AcDbSymbolTableRecord
100
AcDbLayerTableRecord
  2
0603_R_REF_55000
 70
0
 62
7
  6
CONTINUOUS
370
-3
390
F
  0
LAYER
  5
20A
100
AcDbSymbolTableRecord
100
AcDbLayerTableRecord
  2
0603_R_REF_55000_1
 70
0
 62
7
  6
CONTINUOUS
370
-3
390
F
  0
LAYER
  5
20B
100
AcDbSymbolTableRecord
100
AcDbLayerTableRecord
  2
0603_R_REF_55000_1_1
 70
0
 62
7
  6
CONTINUOUS
370
-3
390
F
  0
LAYER
  5
20C
100
AcDbSymbolTableRecord
100
AcDbLayerTableRecord
  2
0603_R_REF_55000_1_2
 70
0
 62
7
  6
CONTINUOUS
370
-3
390
F
  0
LAYER
  5
20D
100
AcDbSymbolTableRecord
100
AcDbLayerTableRecord
  2
0603_R_REF_55000_2
 70
0
 62
7
  6
CONTINUOUS
370
-3
390
F
  0
LAYER
  5
20E
100
AcDbSymbolTableRecord
100
AcDbLayerTableRecord
  2
0603_R_REF_55000_2_1
 70
0
 62
7
  6
CONTINUOUS
370
-3
390
F
  0
LAYER
  5
20F
100
AcDbSymbolTableRecord
100
AcDbLayerTableRecord
  2
0603_R_REF_55000_3
 70
0
 62
7
  6
CONTINUOUS
370
-3
390
F
  0
LAYER
  5
210
100
AcDbSymbolTableRecord
100
AcDbLayerTableRecord
  2
0603_R_REF_55000_3_1
 70
0
 62
7
  6
CONTINUOUS
370
-3
390
F
  0
LAYER
  5
211
100
AcDbSymbolTableRecord
100
AcDbLayerTableRecord
  2
0603_R_REF_55000_4
 70
0
 62
7
  6
CONTINUOUS
370
-3
390
F
  0
LAYER
  5
212
100
AcDbSymbolTableRecord
100
AcDbLayerTableRecord
  2
0603_R_REF_55000_4_1
 70
0
 62
7
  6
CONTINUOUS
370
-3
390
F
  0
LAYER
  5
213
100
AcDbSymbolTableRecord
100
AcDbLayerTableRecord
  2
0603_R_REF_55000_5
 70
0
 62
7
  6
CONTINUOUS
370
-3
390
F
  0
LAYER
  5
214
100
AcDbSymbolTableRecord
100
AcDbLayerTableRecord
  2
0603_R_REF_55000_5_1
 70
0
 62
7
  6
CONTINUOUS
370
-3
390
F
  0
LAYER
  5
215
100
AcDbSymbolTableRecord
100
AcDbLayerTableRecord
  2
06___PRT_ALL_SURFS
 70
0
 62
7
  6
CONTINUOUS
370
-3
390
F
  0
LAYER
  5
216
100
AcDbSymbolTableRecord
100
AcDbLayerTableRecord
  2
06___PRT_ALL_SURFS_1
 70
0
 62
7
  6
CONTINUOUS
370
-3
390
F
  0
LAYER
  5
217
100
AcDbSymbolTableRecord
100
AcDbLayerTableRecord
  2
06___PRT_ALL_SURFS_10
 70
0
 62
7
  6
CONTINUOUS
370
-3
390
F
  0
LAYER
  5
218
100
AcDbSymbolTableRecord
100
AcDbLayerTableRecord
  2
06___PRT_ALL_SURFS_11
 70
0
 62
7
  6
CONTINUOUS
370
-3
390
F
  0
LAYER
  5
219
100
AcDbSymbolTableRecord
100
AcDbLayerTableRecord
  2
06___PRT_ALL_SURFS_12
 70
0
 62
7
  6
CONTINUOUS
370
-3
390
F
  0
LAYER
  5
21A
100
AcDbSymbolTableRecord
100
AcDbLayerTableRecord
  2
06___PRT_ALL_SURFS_13
 70
0
 62
7
  6
CONTINUOUS
370
-3
390
F
  0
LAYER
  5
21B
100
AcDbSymbolTableRecord
100
AcDbLayerTableRecord
  2
06___PRT_ALL_SURFS_14
 70
0
 62
7
  6
CONTINUOUS
370
-3
390
F
  0
LAYER
  5
21C
100
AcDbSymbolTableRecord
100
AcDbLayerTableRecord
  2
06___PRT_ALL_SURFS_15
 70
0
 62
7
  6
CONTINUOUS
370
-3
390
F
  0
LAYER
  5
21D
100
AcDbSymbolTableRecord
100
AcDbLayerTableRecord
  2
06___PRT_ALL_SURFS_16
 70
0
 62
7
  6
CONTINUOUS
370
-3
390
F
  0
LAYER
  5
21E
100
AcDbSymbolTableRecord
100
AcDbLayerTableRecord
  2
06___PRT_ALL_SURFS_17
 70
0
 62
7
  6
CONTINUOUS
370
-3
390
F
  0
LAYER
  5
21F
100
AcDbSymbolTableRecord
100
AcDbLayerTableRecord
  2
06___PRT_ALL_SURFS_19
 70
0
 62
7
  6
CONTINUOUS
370
-3
390
F
  0
LAYER
  5
220
100
AcDbSymbolTableRecord
100
AcDbLayerTableRecord
  2
06___PRT_ALL_SURFS_2
 70
0
 62
7
  6
CONTINUOUS
370
-3
390
F
  0
LAYER
  5
221
100
AcDbSymbolTableRecord
100
AcDbLayerTableRecord
  2
06___PRT_ALL_SURFS_20
 70
0
 62
7
  6
CONTINUOUS
370
-3
390
F
  0
LAYER
  5
222
100
AcDbSymbolTableRecord
100
AcDbLayerTableRecord
  2
06___PRT_ALL_SURFS_21
 70
0
 62
7
  6
CONTINUOUS
370
-3
390
F
  0
LAYER
  5
223
100
AcDbSymbolTableRecord
100
AcDbLayerTableRecord
  2
06___PRT_ALL_SURFS_22
 70
0
 62
7
  6
CONTINUOUS
370
-3
390
F
  0
LAYER
  5
224
100
AcDbSymbolTableRecord
100
AcDbLayerTableRecord
  2
06___PRT_ALL_SURFS_23
 70
0
 62
7
  6
CONTINUOUS
370
-3
390
F
  0
LAYER
  5
225
100
AcDbSymbolTableRecord
100
AcDbLayerTableRecord
  2
06___PRT_ALL_SURFS_24
 70
0
 62
7
  6
CONTINUOUS
370
-3
390
F
  0
LAYER
  5
226
100
AcDbSymbolTableRecord
100
AcDbLayerTableRecord
  2
06___PRT_ALL_SURFS_25
 70
0
 62
7
  6
CONTINUOUS
370
-3
390
F
  0
LAYER
  5
227
100
AcDbSymbolTableRecord
100
AcDbLayerTableRecord
  2
06___PRT_ALL_SURFS_26
 70
0
 62
7
  6
CONTINUOUS
370
-3
390
F
  0
LAYER
  5
228
100
AcDbSymbolTableRecord
100
AcDbLayerTableRecord
  2
06___PRT_ALL_SURFS_28
 70
0
 62
7
  6
CONTINUOUS
370
-3
390
F
  0
LAYER
  5
229
100
AcDbSymbolTableRecord
100
AcDbLayerTableRecord
  2
06___PRT_ALL_SURFS_3
 70
0
 62
7
  6
CONTINUOUS
370
-3
390
F
  0
LAYER
  5
22A
100
AcDbSymbolTableRecord
100
AcDbLayerTableRecord
  2
06___PRT_ALL_SURFS_4
 70
0
 62
7
  6
CONTINUOUS
370
-3
390
F
  0
LAYER
  5
22B
100
AcDbSymbolTableRecord
100
AcDbLayerTableRecord
  2
06___PRT_ALL_SURFS_5
 70
0
 62
7
  6
CONTINUOUS
370
-3
390
F
  0
LAYER
  5
22C
100
AcDbSymbolTableRecord
100
AcDbLayerTableRecord
  2
06___PRT_ALL_SURFS_6
 70
0
 62
7
  6
CONTINUOUS
370
-3
390
F
  0
LAYER
  5
22D
100
AcDbSymbolTableRecord
100
AcDbLayerTableRecord
  2
06___PRT_ALL_SURFS_7
 70
0
 62
7
  6
CONTINUOUS
370
-3
390
F
  0
LAYER
  5
22E
100
AcDbSymbolTableRecord
100
AcDbLayerTableRecord
  2
06___PRT_ALL_SURFS_8
 70
0
 62
7
  6
CONTINUOUS
370
-3
390
F
  0
LAYER
  5
22F
100
AcDbSymbolTableRecord
100
AcDbLayerTableRecord
  2
06___PRT_ALL_SURFS_9
 70
0
 62
7
  6
CONTINUOUS
370
-3
390
F
  0
LAYER
  5
230
100
AcDbSymbolTableRecord
100
AcDbLayerTableRecord
  2
0805_C_REF_145000
 70
0
 62
7
  6
CONTINUOUS
370
-3
390
F
  0
LAYER
  5
231
100
AcDbSymbolTableRecord
100
AcDbLayerTableRecord
  2
0805_C_REF_145000_1
 70
0
 62
7
  6
CONTINUOUS
370
-3
390
F
  0
LAYER
  5
232
100
AcDbSymbolTableRecord
100
AcDbLayerTableRecord
  2
0805_C_REF_145000_1_1
 70
0
 62
7
  6
CONTINUOUS
370
-3
390
F
  0
LAYER
  5
233
100
AcDbSymbolTableRecord
100
AcDbLayerTableRecord
  2
0805_C_REF_145000_1_2
 70
0
 62
7
  6
CONTINUOUS
370
-3
390
F
  0
LAYER
  5
234
100
AcDbSymbolTableRecord
100
AcDbLayerTableRecord
  2
0805_R_REF_60000
 70
0
 62
7
  6
CONTINUOUS
370
-3
390
F
  0
LAYER
  5
235
100
AcDbSymbolTableRecord
100
AcDbLayerTableRecord
  2
0805_R_REF_60000_1
 70
0
 62
7
  6
CONTINUOUS
370
-3
390
F
  0
LAYER
  5
236
100
AcDbSymbolTableRecord
100
AcDbLayerTableRecord
  2
0805_R_REF_60000_2
 70
0
 62
7
  6
CONTINUOUS
370
-3
390
F
  0
LAYER
  5
237
100
AcDbSymbolTableRecord
100
AcDbLayerTableRecord
  2
0805_R_REF_60000_3
 70
0
 62
7
  6
CONTINUOUS
370
-3
390
F
  0
LAYER
  5
238
100
AcDbSymbolTableRecord
100
AcDbLayerTableRecord
  2
1206_C_REF_180000
 70
0
 62
7
  6
CONTINUOUS
370
-3
390
F
  0
LAYER
  5
239
100
AcDbSymbolTableRecord
100
AcDbLayerTableRecord
  2
1206_C_REF_180000_1
 70
0
 62
7
  6
CONTINUOUS
370
-3
390
F
  0
LAYER
  5
23A
100
AcDbSymbolTableRecord
100
AcDbLayerTableRecord
  2
1206_C_REF_180000_1_2
 70
0
 62
7
  6
CONTINUOUS
370
-3
390
F
  0
LAYER
  5
23B
100
AcDbSymbolTableRecord
100
AcDbLayerTableRecord
  2
1206_C_REF_180000_1_3
 70
0
 62
7
  6
CONTINUOUS
370
-3
390
F
  0
LAYER
  5
23C
100
AcDbSymbolTableRecord
100
AcDbLayerTableRecord
  2
1206_R_REF_65000
 70
0
 62
7
  6
CONTINUOUS
370
-3
390
F
  0
LAYER
  5
23D
100
AcDbSymbolTableRecord
100
AcDbLayerTableRecord
  2
1206_R_REF_65000_1
 70
0
 62
7
  6
CONTINUOUS
370
-3
390
F
  0
LAYER
  5
23E
100
AcDbSymbolTableRecord
100
AcDbLayerTableRecord
  2
1206_R_REF_65000_1_2
 70
0
 62
7
  6
CONTINUOUS
370
-3
390
F
  0
LAYER
  5
23F
100
AcDbSymbolTableRecord
100
AcDbLayerTableRecord
  2
1206_R_REF_65000_1_3
 70
0
 62
7
  6
CONTINUOUS
370
-3
390
F
  0
LAYER
  5
240
100
AcDbSymbolTableRecord
100
AcDbLayerTableRecord
  2
1206_R_REF_65000_2
 70
0
 62
7
  6
CONTINUOUS
370
-3
390
F
  0
LAYER
  5
241
100
AcDbSymbolTableRecord
100
AcDbLayerTableRecord
  2
1206_R_REF_65000_2_3
 70
0
 62
7
  6
CONTINUOUS
370
-3
390
F
  0
LAYER
  5
242
100
AcDbSymbolTableRecord
100
AcDbLayerTableRecord
  2
3216-CF-RF-VIMAR_100000
 70
0
 62
7
  6
CONTINUOUS
370
-3
390
F
  0
LAYER
  5
243
100
AcDbSymbolTableRecord
100
AcDbLayerTableRecord
  2
3216-CF-RF-VIMAR_100000_1
 70
0
 62
7
  6
CONTINUOUS
370
-3
390
F
  0
LAYER
  5
244
100
AcDbSymbolTableRecord
100
AcDbLayerTableRecord
  2
3216-CF-RF-VIMAR_100000_1_1
 70
0
 62
7
  6
CONTINUOUS
370
-3
390
F
  0
LAYER
  5
245
100
AcDbSymbolTableRecord
100
AcDbLayerTableRecord
  2
3216-CF-RF-VIMAR_100000_1_2
 70
0
 62
7
  6
CONTINUOUS
370
-3
390
F
  0
LAYER
  5
246
100
AcDbSymbolTableRecord
100
AcDbLayerTableRecord
  2
3216-R1-RF-VIMAR_60000
 70
0
 62
7
  6
CONTINUOUS
370
-3
390
F
  0
LAYER
  5
247
100
AcDbSymbolTableRecord
100
AcDbLayerTableRecord
  2
43000913A0
 70
0
 62
7
  6
CONTINUOUS
370
-3
390
F
  0
LAYER
  5
248
100
AcDbSymbolTableRecord
100
AcDbLayerTableRecord
  2
43000943A0
 70
0
 62
7
  6
CONTINUOUS
370
-3
390
F
  0
LAYER
  5
249
100
AcDbSymbolTableRecord
100
AcDbLayerTableRecord
  2
43000943B0
 70
0
 62
7
  6
CONTINUOUS
370
-3
390
F
  0
LAYER
  5
24A
100
AcDbSymbolTableRecord
100
AcDbLayerTableRecord
  2
43000943D0
 70
0
 62
7
  6
CONTINUOUS
370
-3
390
F
  0
LAYER
  5
24B
100
AcDbSymbolTableRecord
100
AcDbLayerTableRecord
  2
43000953A0
 70
0
 62
7
  6
CONTINUOUS
370
-3
390
F
  0
LAYER
  5
24C
100
AcDbSymbolTableRecord
100
AcDbLayerTableRecord
  2
43000953B0
 70
0
 62
7
  6
CONTINUOUS
370
-3
390
F
  0
LAYER
  5
24D
100
AcDbSymbolTableRecord
100
AcDbLayerTableRecord
  2
43000953C0
 70
0
 62
7
  6
CONTINUOUS
370
-3
390
F
  0
LAYER
  5
24E
100
AcDbSymbolTableRecord
100
AcDbLayerTableRecord
  2
ASSI
 70
0
 62
7
  6
CONTINUOUS
370
-3
390
F
  0
LAYER
  5
24F
100
AcDbSymbolTableRecord
100
AcDbLayerTableRecord
  2
CAP-E-6_3-11-2_5_1120000
 70
0
 62
7
  6
CONTINUOUS
370
-3
390
F
  0
LAYER
  5
250
100
AcDbSymbolTableRecord
100
AcDbLayerTableRecord
  2
CAP-E-6_3-11-2_5_1120000_1
 70
0
 62
7
  6
CONTINUOUS
370
-3
390
F
  0
LAYER
  5
251
100
AcDbSymbolTableRecord
100
AcDbLayerTableRecord
  2
CN_STH_USB_TYPE-C_24P_90_SHORT
 70
0
 62
7
  6
CONTINUOUS
370
-3
390
F
  0
LAYER
  5
252
100
AcDbSymbolTableRecord
100
AcDbLayerTableRecord
  2
COLOR16
 70
0
 62
7
  6
CONTINUOUS
370
-3
390
F
  0
LAYER
  5
253
100
AcDbSymbolTableRecord
100
AcDbLayerTableRecord
  2
COLOR17
 70
0
 62
7
  6
CONTINUOUS
370
-3
390
F
  0
LAYER
  5
254
100
AcDbSymbolTableRecord
100
AcDbLayerTableRecord
  2
COLOR21
 70
0
 62
7
  6
CONTINUOUS
370
-3
390
F
  0
LAYER
  5
255
100
AcDbSymbolTableRecord
100
AcDbLayerTableRecord
  2
COLOR23
 70
0
 62
7
  6
CONTINUOUS
370
-3
390
F
  0
LAYER
  5
256
100
AcDbSymbolTableRecord
100
AcDbLayerTableRecord
  2
COLOR24
 70
0
 62
7
  6
CONTINUOUS
370
-3
390
F
  0
LAYER
  5
257
100
AcDbSymbolTableRecord
100
AcDbLayerTableRecord
  2
COLOR25
 70
0
 62
7
  6
CONTINUOUS
370
-3
390
F
  0
LAYER
  5
258
100
AcDbSymbolTableRecord
100
AcDbLayerTableRecord
  2
COLOR26
 70
0
 62
7
  6
CONTINUOUS
370
-3
390
F
  0
LAYER
  5
259
100
AcDbSymbolTableRecord
100
AcDbLayerTableRecord
  2
COLOR27
 70
0
 62
7
  6
CONTINUOUS
370
-3
390
F
  0
LAYER
  5
25A
100
AcDbSymbolTableRecord
100
AcDbLayerTableRecord
  2
COLOR28
 70
0
 62
7
  6
CONTINUOUS
370
-3
390
F
  0
LAYER
  5
25B
100
AcDbSymbolTableRecord
100
AcDbLayerTableRecord
  2
COLOR29
 70
0
 62
7
  6
CONTINUOUS
370
-3
390
F
  0
LAYER
  5
25C
100
AcDbSymbolTableRecord
100
AcDbLayerTableRecord
  2
COLOR30
 70
0
 62
7
  6
CONTINUOUS
370
-3
390
F
  0
LAYER
  5
25D
100
AcDbSymbolTableRecord
100
AcDbLayerTableRecord
  2
COLOR31
 70
0
 62
7
  6
CONTINUOUS
370
-3
390
F
  0
LAYER
  5
25E
100
AcDbSymbolTableRecord
100
AcDbLayerTableRecord
  2
COLOR32
 70
0
 62
7
  6
CONTINUOUS
370
-3
390
F
  0
LAYER
  5
25F
100
AcDbSymbolTableRecord
100
AcDbLayerTableRecord
  2
COLOR33
 70
0
 62
7
  6
CONTINUOUS
370
-3
390
F
  0
LAYER
  5
260
100
AcDbSymbolTableRecord
100
AcDbLayerTableRecord
  2
COLOR34
 70
0
 62
7
  6
CONTINUOUS
370
-3
390
F
  0
LAYER
  5
261
100
AcDbSymbolTableRecord
100
AcDbLayerTableRecord
  2
COLOR35
 70
0
 62
7
  6
CONTINUOUS
370
-3
390
F
  0
LAYER
  5
262
100
AcDbSymbolTableRecord
100
AcDbLayerTableRecord
  2
COLOR36
 70
0
 62
7
  6
CONTINUOUS
370
-3
390
F
  0
LAYER
  5
263
100
AcDbSymbolTableRecord
100
AcDbLayerTableRecord
  2
COLOR37
 70
0
 62
7
  6
CONTINUOUS
370
-3
390
F
  0
LAYER
  5
264
100
AcDbSymbolTableRecord
100
AcDbLayerTableRecord
  2
COLOR38
 70
0
 62
7
  6
CONTINUOUS
370
-3
390
F
  0
LAYER
  5
265
100
AcDbSymbolTableRecord
100
AcDbLayerTableRecord
  2
COLOR39
 70
0
 62
7
  6
CONTINUOUS
370
-3
390
F
  0
LAYER
  5
266
100
AcDbSymbolTableRecord
100
AcDbLayerTableRecord
  2
COLOR40
 70
0
 62
7
  6
CONTINUOUS
370
-3
390
F
  0
LAYER
  5
267
100
AcDbSymbolTableRecord
100
AcDbLayerTableRecord
  2
COLOR41
 70
0
 62
7
  6
CONTINUOUS
370
-3
390
F
  0
LAYER
  5
268
100
AcDbSymbolTableRecord
100
AcDbLayerTableRecord
  2
COLOR42
 70
0
 62
7
  6
CONTINUOUS
370
-3
390
F
  0
LAYER
  5
269
100
AcDbSymbolTableRecord
100
AcDbLayerTableRecord
  2
COLOR43
 70
0
 62
7
  6
CONTINUOUS
370
-3
390
F
  0
LAYER
  5
26A
100
AcDbSymbolTableRecord
100
AcDbLayerTableRecord
  2
COLOR44
 70
0
 62
7
  6
CONTINUOUS
370
-3
390
F
  0
LAYER
  5
26B
100
AcDbSymbolTableRecord
100
AcDbLayerTableRecord
  2
COLOR46
 70
0
 62
7
  6
CONTINUOUS
370
-3
390
F
  0
LAYER
  5
26C
100
AcDbSymbolTableRecord
100
AcDbLayerTableRecord
  2
COLOR47
 70
0
 62
7
  6
CONTINUOUS
370
-3
390
F
  0
LAYER
  5
26D
100
AcDbSymbolTableRecord
100
AcDbLayerTableRecord
  2
COLOR48
 70
0
 62
7
  6
CONTINUOUS
370
-3
390
F
  0
LAYER
  5
26E
100
AcDbSymbolTableRecord
100
AcDbLayerTableRecord
  2
COLOR49
 70
0
 62
7
  6
CONTINUOUS
370
-3
390
F
  0
LAYER
  5
26F
100
AcDbSymbolTableRecord
100
AcDbLayerTableRecord
  2
COLOR5
 70
0
 62
7
  6
CONTINUOUS
370
-3
390
F
  0
LAYER
  5
270
100
AcDbSymbolTableRecord
100
AcDbLayerTableRecord
  2
COLOR50
 70
0
 62
7
  6
CONTINUOUS
370
-3
390
F
  0
LAYER
  5
271
100
AcDbSymbolTableRecord
100
AcDbLayerTableRecord
  2
COLOR54
 70
0
 62
7
  6
CONTINUOUS
370
-3
390
F
  0
LAYER
  5
272
100
AcDbSymbolTableRecord
100
AcDbLayerTableRecord
  2
COLOR56
 70
0
 62
7
  6
CONTINUOUS
370
-3
390
F
  0
LAYER
  5
273
100
AcDbSymbolTableRecord
100
AcDbLayerTableRecord
  2
COLOR57
 70
0
 62
7
  6
CONTINUOUS
370
-3
390
F
  0
LAYER
  5
274
100
AcDbSymbolTableRecord
100
AcDbLayerTableRecord
  2
COLOR6
 70
0
 62
7
  6
CONTINUOUS
370
-3
390
F
  0
LAYER
  5
275
100
AcDbSymbolTableRecord
100
AcDbLayerTableRecord
  2
COORDINATE
 70
0
 62
7
  6
CONTINUOUS
370
-3
390
F
  0
LAYER
  5
276
100
AcDbSymbolTableRecord
100
AcDbLayerTableRecord
  2
COORD_ORIGINE
 70
0
 62
7
  6
CONTINUOUS
370
-3
390
F
  0
LAYER
  5
277
100
AcDbSymbolTableRecord
100
AcDbLayerTableRecord
  2
COPY_PUBLISH
 70
0
 62
7
  6
CONTINUOUS
370
-3
390
F
  0
LAYER
  5
278
100
AcDbSymbolTableRecord
100
AcDbLayerTableRecord
  2
COSMETICI
 70
0
 62
7
  6
CONTINUOUS
370
-3
390
F
  0
LAYER
  5
279
100
AcDbSymbolTableRecord
100
AcDbLayerTableRecord
  2
CR_MR2P5_MSB_SW_PTH_1000000
 70
0
 62
7
  6
CONTINUOUS
370
-3
390
F
  0
LAYER
  5
27A
100
AcDbSymbolTableRecord
100
AcDbLayerTableRecord
  2
CURVE
 70
0
 62
7
  6
CONTINUOUS
370
-3
390
F
  0
LAYER
  5
27B
100
AcDbSymbolTableRecord
100
AcDbLayerTableRecord
  2
DB-SMD-ABS_145000
 70
0
 62
7
  6
CONTINUOUS
370
-3
390
F
  0
LAYER
  5
27C
100
AcDbSymbolTableRecord
100
AcDbLayerTableRecord
  2
DRAFT
 70
0
 62
7
  6
CONTINUOUS
370
-3
390
F
  0
LAYER
  5
27D
100
AcDbSymbolTableRecord
100
AcDbLayerTableRecord
  2
E2_MARK_10000
 70
0
 62
7
  6
CONTINUOUS
370
-3
390
F
  0
LAYER
  5
27E
100
AcDbSymbolTableRecord
100
AcDbLayerTableRecord
  2
E2_MARK_10000_1
 70
0
 62
7
  6
CONTINUOUS
370
-3
390
F
  0
LAYER
  5
27F
100
AcDbSymbolTableRecord
100
AcDbLayerTableRecord
  2
E2_MARK_10000_2
 70
0
 62
7
  6
CONTINUOUS
370
-3
390
F
  0
LAYER
  5
280
100
AcDbSymbolTableRecord
100
AcDbLayerTableRecord
  2
FIDUCIAL_1_2_MM_RUOTATO_45_1000
 70
0
 62
7
  6
CONTINUOUS
370
-3
390
F
  0
LAYER
  5
281
100
AcDbSymbolTableRecord
100
AcDbLayerTableRecord
  2
FIDUCIAL_1_2_MM_RUOTATO_45_100_
 70
0
 62
7
  6
CONTINUOUS
370
-3
390
F
  0
LAYER
  5
282
100
AcDbSymbolTableRecord
100
AcDbLayerTableRecord
  2
FIDUCIAL_1_2_MM_RUOTATO_45_10_1
 70
0
 62
7
  6
CONTINUOUS
370
-3
390
F
  0
LAYER
  5
283
100
AcDbSymbolTableRecord
100
AcDbLayerTableRecord
  2
FIDUCIAL_1_2_MM_RUOTATO_45_10_2
 70
0
 62
7
  6
CONTINUOUS
370
-3
390
F
  0
LAYER
  5
284
100
AcDbSymbolTableRecord
100
AcDbLayerTableRecord
  2
FIDUCIAL_1_2_MM_RUOTATO_45_10_3
 70
0
 62
7
  6
CONTINUOUS
370
-3
390
F
  0
LAYER
  5
285
100
AcDbSymbolTableRecord
100
AcDbLayerTableRecord
  2
FIDUCIAL_1_2_MM_RUOTATO_45_10__
 70
0
 62
7
  6
CONTINUOUS
370
-3
390
F
  0
LAYER
  5
286
100
AcDbSymbolTableRecord
100
AcDbLayerTableRecord
  2
GEOMETRIA_SOLIDA
 70
0
 62
7
  6
CONTINUOUS
370
-3
390
F
  0
LAYER
  5
287
100
AcDbSymbolTableRecord
100
AcDbLayerTableRecord
  2
GEOMETRIA_SOLIDA_1
 70
0
 62
7
  6
CONTINUOUS
370
-3
390
F
  0
LAYER
  5
288
100
AcDbSymbolTableRecord
100
AcDbLayerTableRecord
  2
GEOMETRIA_SOLIDA_1_1
 70
0
 62
7
  6
CONTINUOUS
370
-3
390
F
  0
LAYER
  5
289
100
AcDbSymbolTableRecord
100
AcDbLayerTableRecord
  2
GEOMETRIA_SOLIDA_2
 70
0
 62
7
  6
CONTINUOUS
370
-3
390
F
  0
LAYER
  5
28A
100
AcDbSymbolTableRecord
100
AcDbLayerTableRecord
  2
GEOMETRIA_SOLIDA_2_1
 70
0
 62
7
  6
CONTINUOUS
370
-3
390
F
  0
LAYER
  5
28B
100
AcDbSymbolTableRecord
100
AcDbLayerTableRecord
  2
GEOMETRIA_SOLIDA_2_2
 70
0
 62
7
  6
CONTINUOUS
370
-3
390
F
  0
LAYER
  5
28C
100
AcDbSymbolTableRecord
100
AcDbLayerTableRecord
  2
GEOMETRIA_SOLIDA_3
 70
0
 62
7
  6
CONTINUOUS
370
-3
390
F
  0
LAYER
  5
28D
100
AcDbSymbolTableRecord
100
AcDbLayerTableRecord
  2
IMPORT
 70
0
 62
7
  6
CONTINUOUS
370
-3
390
F
  0
LAYER
  5
28E
100
AcDbSymbolTableRecord
100
AcDbLayerTableRecord
  2
IMPORT_IGES
 70
0
 62
7
  6
CONTINUOUS
370
-3
390
F
  0
LAYER
  5
28F
100
AcDbSymbolTableRecord
100
AcDbLayerTableRecord
  2
IND-RAD-7_8-9_5-5_0-0_7_950000
 70
0
 62
7
  6
CONTINUOUS
370
-3
390
F
  0
LAYER
  5
290
100
AcDbSymbolTableRecord
100
AcDbLayerTableRecord
  2
INTFCLR_10207
 70
0
 62
7
  6
CONTINUOUS
370
-3
390
F
  0
LAYER
  5
291
100
AcDbSymbolTableRecord
100
AcDbLayerTableRecord
  2
INTFCLR_10389
 70
0
 62
7
  6
CONTINUOUS
370
-3
390
F
  0
LAYER
  5
292
100
AcDbSymbolTableRecord
100
AcDbLayerTableRecord
  2
INTFCLR_10571
 70
0
 62
7
  6
CONTINUOUS
370
-3
390
F
  0
LAYER
  5
293
100
AcDbSymbolTableRecord
100
AcDbLayerTableRecord
  2
INTFCLR_10821
 70
0
 62
7
  6
CONTINUOUS
370
-3
390
F
  0
LAYER
  5
294
100
AcDbSymbolTableRecord
100
AcDbLayerTableRecord
  2
INTFCLR_11003
 70
0
 62
7
  6
CONTINUOUS
370
-3
390
F
  0
LAYER
  5
295
100
AcDbSymbolTableRecord
100
AcDbLayerTableRecord
  2
INTFCLR_11325
 70
0
 62
7
  6
CONTINUOUS
370
-3
390
F
  0
LAYER
  5
296
100
AcDbSymbolTableRecord
100
AcDbLayerTableRecord
  2
INTFCLR_11507
 70
0
 62
7
  6
CONTINUOUS
370
-3
390
F
  0
LAYER
  5
297
100
AcDbSymbolTableRecord
100
AcDbLayerTableRecord
  2
INTFCLR_11689
 70
0
 62
7
  6
CONTINUOUS
370
-3
390
F
  0
LAYER
  5
298
100
AcDbSymbolTableRecord
100
AcDbLayerTableRecord
  2
INTFCLR_11871
 70
0
 62
7
  6
CONTINUOUS
370
-3
390
F
  0
LAYER
  5
299
100
AcDbSymbolTableRecord
100
AcDbLayerTableRecord
  2
INTFCLR_12053
 70
0
 62
7
  6
CONTINUOUS
370
-3
390
F
  0
LAYER
  5
29A
100
AcDbSymbolTableRecord
100
AcDbLayerTableRecord
  2
INTFCLR_14087
 70
0
 62
7
  6
CONTINUOUS
370
-3
390
F
  0
LAYER
  5
29B
100
AcDbSymbolTableRecord
100
AcDbLayerTableRecord
  2
INTFCLR_14455
 70
0
 62
7
  6
CONTINUOUS
370
-3
390
F
  0
LAYER
  5
29C
100
AcDbSymbolTableRecord
100
AcDbLayerTableRecord
  2
INTFCLR_14637
 70
0
 62
7
  6
CONTINUOUS
370
-3
390
F
  0
LAYER
  5
29D
100
AcDbSymbolTableRecord
100
AcDbLayerTableRecord
  2
INTFCLR_15153
 70
0
 62
7
  6
CONTINUOUS
370
-3
390
F
  0
LAYER
  5
29E
100
AcDbSymbolTableRecord
100
AcDbLayerTableRecord
  2
INTFCLR_20891
 70
0
 62
7
  6
CONTINUOUS
370
-3
390
F
  0
LAYER
  5
29F
100
AcDbSymbolTableRecord
100
AcDbLayerTableRecord
  2
INTFCLR_21073
 70
0
 62
7
  6
CONTINUOUS
370
-3
390
F
  0
LAYER
  5
2A0
100
AcDbSymbolTableRecord
100
AcDbLayerTableRecord
  2
INTFCLR_21255
 70
0
 62
7
  6
CONTINUOUS
370
-3
390
F
  0
LAYER
  5
2A1
100
AcDbSymbolTableRecord
100
AcDbLayerTableRecord
  2
INTFCLR_21437
 70
0
 62
7
  6
CONTINUOUS
370
-3
390
F
  0
LAYER
  5
2A2
100
AcDbSymbolTableRecord
100
AcDbLayerTableRecord
  2
INTFCLR_21619
 70
0
 62
7
  6
CONTINUOUS
370
-3
390
F
  0
LAYER
  5
2A3
100
AcDbSymbolTableRecord
100
AcDbLayerTableRecord
  2
INTFCLR_3
 70
0
 62
7
  6
CONTINUOUS
370
-3
390
F
  0
LAYER
  5
2A4
100
AcDbSymbolTableRecord
100
AcDbLayerTableRecord
  2
INTFCLR_31
 70
0
 62
7
  6
CONTINUOUS
370
-3
390
F
  0
LAYER
  5
2A5
100
AcDbSymbolTableRecord
100
AcDbLayerTableRecord
  2
INTFCLR_33
 70
0
 62
7
  6
CONTINUOUS
370
-3
390
F
  0
LAYER
  5
2A6
100
AcDbSymbolTableRecord
100
AcDbLayerTableRecord
  2
INTFCLR_39199
 70
0
 62
7
  6
CONTINUOUS
370
-3
390
F
  0
LAYER
  5
2A7
100
AcDbSymbolTableRecord
100
AcDbLayerTableRecord
  2
INTFCLR_39297
 70
0
 62
7
  6
CONTINUOUS
370
-3
390
F
  0
LAYER
  5
2A8
100
AcDbSymbolTableRecord
100
AcDbLayerTableRecord
  2
INTFCLR_39665
 70
0
 62
7
  6
CONTINUOUS
370
-3
390
F
  0
LAYER
  5
2A9
100
AcDbSymbolTableRecord
100
AcDbLayerTableRecord
  2
INTFCLR_39847
 70
0
 62
7
  6
CONTINUOUS
370
-3
390
F
  0
LAYER
  5
2AA
100
AcDbSymbolTableRecord
100
AcDbLayerTableRecord
  2
INTFCLR_5113
 70
0
 62
7
  6
CONTINUOUS
370
-3
390
F
  0
LAYER
  5
2AB
100
AcDbSymbolTableRecord
100
AcDbLayerTableRecord
  2
INTFCLR_5481
 70
0
 62
7
  6
CONTINUOUS
370
-3
390
F
  0
LAYER
  5
2AC
100
AcDbSymbolTableRecord
100
AcDbLayerTableRecord
  2
INTFCLR_5663
 70
0
 62
7
  6
CONTINUOUS
370
-3
390
F
  0
LAYER
  5
2AD
100
AcDbSymbolTableRecord
100
AcDbLayerTableRecord
  2
INTFCLR_5845
 70
0
 62
7
  6
CONTINUOUS
370
-3
390
F
  0
LAYER
  5
2AE
100
AcDbSymbolTableRecord
100
AcDbLayerTableRecord
  2
INTFCLR_6731
 70
0
 62
7
  6
CONTINUOUS
370
-3
390
F
  0
LAYER
  5
2AF
100
AcDbSymbolTableRecord
100
AcDbLayerTableRecord
  2
INTFCLR_6913
 70
0
 62
7
  6
CONTINUOUS
370
-3
390
F
  0
LAYER
  5
2B0
100
AcDbSymbolTableRecord
100
AcDbLayerTableRecord
  2
INTFCLR_7095
 70
0
 62
7
  6
CONTINUOUS
370
-3
390
F
  0
LAYER
  5
2B1
100
AcDbSymbolTableRecord
100
AcDbLayerTableRecord
  2
INTFCLR_9533
 70
0
 62
7
  6
CONTINUOUS
370
-3
390
F
  0
LAYER
  5
2B2
100
AcDbSymbolTableRecord
100
AcDbLayerTableRecord
  2
INTF_1
 70
0
 62
7
  6
CONTINUOUS
370
-3
390
F
  0
LAYER
  5
2B3
100
AcDbSymbolTableRecord
100
AcDbLayerTableRecord
  2
INTF_11
 70
0
 62
7
  6
CONTINUOUS
370
-3
390
F
  0
LAYER
  5
2B4
100
AcDbSymbolTableRecord
100
AcDbLayerTableRecord
  2
INTF_13
 70
0
 62
7
  6
CONTINUOUS
370
-3
390
F
  0
LAYER
  5
2B5
100
AcDbSymbolTableRecord
100
AcDbLayerTableRecord
  2
INTF_2
 70
0
 62
7
  6
CONTINUOUS
370
-3
390
F
  0
LAYER
  5
2B6
100
AcDbSymbolTableRecord
100
AcDbLayerTableRecord
  2
INTF_8
 70
0
 62
7
  6
CONTINUOUS
370
-3
390
F
  0
LAYER
  5
2B7
100
AcDbSymbolTableRecord
100
AcDbLayerTableRecord
  2
INTF_BLANK
 70
0
 62
7
  6
CONTINUOUS
370
-3
390
F
  0
LAYER
  5
2B8
100
AcDbSymbolTableRecord
100
AcDbLayerTableRecord
  2
INTF_GREEN
 70
0
 62
7
  6
CONTINUOUS
370
-3
390
F
  0
LAYER
  5
2B9
100
AcDbSymbolTableRecord
100
AcDbLayerTableRecord
  2
LIVELLO_1
 70
0
 62
7
  6
CONTINUOUS
370
-3
390
F
  0
LAYER
  5
2BA
100
AcDbSymbolTableRecord
100
AcDbLayerTableRecord
  2
LOGO_RESIST-RESTYLING_10000
 70
0
 62
7
  6
CONTINUOUS
370
-3
390
F
  0
LAYER
  5
2BB
100
AcDbSymbolTableRecord
100
AcDbLayerTableRecord
  2
MINIMELF_R_REF_140000
 70
0
 62
7
  6
CONTINUOUS
370
-3
390
F
  0
LAYER
  5
2BC
100
AcDbSymbolTableRecord
100
AcDbLayerTableRecord
  2
MSBR-1
 70
0
 62
7
  6
CONTINUOUS
370
-3
390
F
  0
LAYER
  5
2BD
100
AcDbSymbolTableRecord
100
AcDbLayerTableRecord
  2
MSBR-10_1
 70
0
 62
7
  6
CONTINUOUS
370
-3
390
F
  0
LAYER
  5
2BE
100
AcDbSymbolTableRecord
100
AcDbLayerTableRecord
  2
MSBR-10_1_1
 70
0
 62
7
  6
CONTINUOUS
370
-3
390
F
  0
LAYER
  5
2BF
100
AcDbSymbolTableRecord
100
AcDbLayerTableRecord
  2
MSBR-11
 70
0
 62
7
  6
CONTINUOUS
370
-3
390
F
  0
LAYER
  5
2C0
100
AcDbSymbolTableRecord
100
AcDbLayerTableRecord
  2
MSBR-11_1_1
 70
0
 62
7
  6
CONTINUOUS
370
-3
390
F
  0
LAYER
  5
2C1
100
AcDbSymbolTableRecord
100
AcDbLayerTableRecord
  2
MSBR-12
 70
0
 62
7
  6
CONTINUOUS
370
-3
390
F
  0
LAYER
  5
2C2
100
AcDbSymbolTableRecord
100
AcDbLayerTableRecord
  2
MSBR-12_1_1
 70
0
 62
7
  6
CONTINUOUS
370
-3
390
F
  0
LAYER
  5
2C3
100
AcDbSymbolTableRecord
100
AcDbLayerTableRecord
  2
MSBR-13_1
 70
0
 62
7
  6
CONTINUOUS
370
-3
390
F
  0
LAYER
  5
2C4
100
AcDbSymbolTableRecord
100
AcDbLayerTableRecord
  2
MSBR-13_1_1
 70
0
 62
7
  6
CONTINUOUS
370
-3
390
F
  0
LAYER
  5
2C5
100
AcDbSymbolTableRecord
100
AcDbLayerTableRecord
  2
MSBR-14_1
 70
0
 62
7
  6
CONTINUOUS
370
-3
390
F
  0
LAYER
  5
2C6
100
AcDbSymbolTableRecord
100
AcDbLayerTableRecord
  2
MSBR-14_1_1
 70
0
 62
7
  6
CONTINUOUS
370
-3
390
F
  0
LAYER
  5
2C7
100
AcDbSymbolTableRecord
100
AcDbLayerTableRecord
  2
MSBR-15
 70
0
 62
7
  6
CONTINUOUS
370
-3
390
F
  0
LAYER
  5
2C8
100
AcDbSymbolTableRecord
100
AcDbLayerTableRecord
  2
MSBR-15_1_1
 70
0
 62
7
  6
CONTINUOUS
370
-3
390
F
  0
LAYER
  5
2C9
100
AcDbSymbolTableRecord
100
AcDbLayerTableRecord
  2
MSBR-16_1
 70
0
 62
7
  6
CONTINUOUS
370
-3
390
F
  0
LAYER
  5
2CA
100
AcDbSymbolTableRecord
100
AcDbLayerTableRecord
  2
MSBR-16_1_1
 70
0
 62
7
  6
CONTINUOUS
370
-3
390
F
  0
LAYER
  5
2CB
100
AcDbSymbolTableRecord
100
AcDbLayerTableRecord
  2
MSBR-17
 70
0
 62
7
  6
CONTINUOUS
370
-3
390
F
  0
LAYER
  5
2CC
100
AcDbSymbolTableRecord
100
AcDbLayerTableRecord
  2
MSBR-17_1_1
 70
0
 62
7
  6
CONTINUOUS
370
-3
390
F
  0
LAYER
  5
2CD
100
AcDbSymbolTableRecord
100
AcDbLayerTableRecord
  2
MSBR-18
 70
0
 62
7
  6
CONTINUOUS
370
-3
390
F
  0
LAYER
  5
2CE
100
AcDbSymbolTableRecord
100
AcDbLayerTableRecord
  2
MSBR-18_1_1
 70
0
 62
7
  6
CONTINUOUS
370
-3
390
F
  0
LAYER
  5
2CF
100
AcDbSymbolTableRecord
100
AcDbLayerTableRecord
  2
MSBR-19
 70
0
 62
7
  6
CONTINUOUS
370
-3
390
F
  0
LAYER
  5
2D0
100
AcDbSymbolTableRecord
100
AcDbLayerTableRecord
  2
MSBR-19_1_1
 70
0
 62
7
  6
CONTINUOUS
370
-3
390
F
  0
LAYER
  5
2D1
100
AcDbSymbolTableRecord
100
AcDbLayerTableRecord
  2
MSBR-1_1_1
 70
0
 62
7
  6
CONTINUOUS
370
-3
390
F
  0
LAYER
  5
2D2
100
AcDbSymbolTableRecord
100
AcDbLayerTableRecord
  2
MSBR-20
 70
0
 62
7
  6
CONTINUOUS
370
-3
390
F
  0
LAYER
  5
2D3
100
AcDbSymbolTableRecord
100
AcDbLayerTableRecord
  2
MSBR-20_1_1
 70
0
 62
7
  6
CONTINUOUS
370
-3
390
F
  0
LAYER
  5
2D4
100
AcDbSymbolTableRecord
100
AcDbLayerTableRecord
  2
MSBR-21
 70
0
 62
7
  6
CONTINUOUS
370
-3
390
F
  0
LAYER
  5
2D5
100
AcDbSymbolTableRecord
100
AcDbLayerTableRecord
  2
MSBR-21_1_1
 70
0
 62
7
  6
CONTINUOUS
370
-3
390
F
  0
LAYER
  5
2D6
100
AcDbSymbolTableRecord
100
AcDbLayerTableRecord
  2
MSBR-22_1
 70
0
 62
7
  6
CONTINUOUS
370
-3
390
F
  0
LAYER
  5
2D7
100
AcDbSymbolTableRecord
100
AcDbLayerTableRecord
  2
MSBR-22_1_1
 70
0
 62
7
  6
CONTINUOUS
370
-3
390
F
  0
LAYER
  5
2D8
100
AcDbSymbolTableRecord
100
AcDbLayerTableRecord
  2
MSBR-23_1
 70
0
 62
7
  6
CONTINUOUS
370
-3
390
F
  0
LAYER
  5
2D9
100
AcDbSymbolTableRecord
100
AcDbLayerTableRecord
  2
MSBR-23_1_1
 70
0
 62
7
  6
CONTINUOUS
370
-3
390
F
  0
LAYER
  5
2DA
100
AcDbSymbolTableRecord
100
AcDbLayerTableRecord
  2
MSBR-24
 70
0
 62
7
  6
CONTINUOUS
370
-3
390
F
  0
LAYER
  5
2DB
100
AcDbSymbolTableRecord
100
AcDbLayerTableRecord
  2
MSBR-24_1_1
 70
0
 62
7
  6
CONTINUOUS
370
-3
390
F
  0
LAYER
  5
2DC
100
AcDbSymbolTableRecord
100
AcDbLayerTableRecord
  2
MSBR-25_1
 70
0
 62
7
  6
CONTINUOUS
370
-3
390
F
  0
LAYER
  5
2DD
100
AcDbSymbolTableRecord
100
AcDbLayerTableRecord
  2
MSBR-25_1_1
 70
0
 62
7
  6
CONTINUOUS
370
-3
390
F
  0
LAYER
  5
2DE
100
AcDbSymbolTableRecord
100
AcDbLayerTableRecord
  2
MSBR-26_1
 70
0
 62
7
  6
CONTINUOUS
370
-3
390
F
  0
LAYER
  5
2DF
100
AcDbSymbolTableRecord
100
AcDbLayerTableRecord
  2
MSBR-26_2
 70
0
 62
7
  6
CONTINUOUS
370
-3
390
F
  0
LAYER
  5
2E0
100
AcDbSymbolTableRecord
100
AcDbLayerTableRecord
  2
MSBR-27
 70
0
 62
7
  6
CONTINUOUS
370
-3
390
F
  0
LAYER
  5
2E1
100
AcDbSymbolTableRecord
100
AcDbLayerTableRecord
  2
MSBR-27_2
 70
0
 62
7
  6
CONTINUOUS
370
-3
390
F
  0
LAYER
  5
2E2
100
AcDbSymbolTableRecord
100
AcDbLayerTableRecord
  2
MSBR-28_1
 70
0
 62
7
  6
CONTINUOUS
370
-3
390
F
  0
LAYER
  5
2E3
100
AcDbSymbolTableRecord
100
AcDbLayerTableRecord
  2
MSBR-28_2
 70
0
 62
7
  6
CONTINUOUS
370
-3
390
F
  0
LAYER
  5
2E4
100
AcDbSymbolTableRecord
100
AcDbLayerTableRecord
  2
MSBR-29
 70
0
 62
7
  6
CONTINUOUS
370
-3
390
F
  0
LAYER
  5
2E5
100
AcDbSymbolTableRecord
100
AcDbLayerTableRecord
  2
MSBR-29_1
 70
0
 62
7
  6
CONTINUOUS
370
-3
390
F
  0
LAYER
  5
2E6
100
AcDbSymbolTableRecord
100
AcDbLayerTableRecord
  2
MSBR-2_1
 70
0
 62
7
  6
CONTINUOUS
370
-3
390
F
  0
LAYER
  5
2E7
100
AcDbSymbolTableRecord
100
AcDbLayerTableRecord
  2
MSBR-2_1_1
 70
0
 62
7
  6
CONTINUOUS
370
-3
390
F
  0
LAYER
  5
2E8
100
AcDbSymbolTableRecord
100
AcDbLayerTableRecord
  2
MSBR-3
 70
0
 62
7
  6
CONTINUOUS
370
-3
390
F
  0
LAYER
  5
2E9
100
AcDbSymbolTableRecord
100
AcDbLayerTableRecord
  2
MSBR-30
 70
0
 62
7
  6
CONTINUOUS
370
-3
390
F
  0
LAYER
  5
2EA
100
AcDbSymbolTableRecord
100
AcDbLayerTableRecord
  2
MSBR-30_1
 70
0
 62
7
  6
CONTINUOUS
370
-3
390
F
  0
LAYER
  5
2EB
100
AcDbSymbolTableRecord
100
AcDbLayerTableRecord
  2
MSBR-31_1
 70
0
 62
7
  6
CONTINUOUS
370
-3
390
F
  0
LAYER
  5
2EC
100
AcDbSymbolTableRecord
100
AcDbLayerTableRecord
  2
MSBR-31_2
 70
0
 62
7
  6
CONTINUOUS
370
-3
390
F
  0
LAYER
  5
2ED
100
AcDbSymbolTableRecord
100
AcDbLayerTableRecord
  2
MSBR-32_1
 70
0
 62
7
  6
CONTINUOUS
370
-3
390
F
  0
LAYER
  5
2EE
100
AcDbSymbolTableRecord
100
AcDbLayerTableRecord
  2
MSBR-32_2
 70
0
 62
7
  6
CONTINUOUS
370
-3
390
F
  0
LAYER
  5
2EF
100
AcDbSymbolTableRecord
100
AcDbLayerTableRecord
  2
MSBR-33
 70
0
 62
7
  6
CONTINUOUS
370
-3
390
F
  0
LAYER
  5
2F0
100
AcDbSymbolTableRecord
100
AcDbLayerTableRecord
  2
MSBR-33_1
 70
0
 62
7
  6
CONTINUOUS
370
-3
390
F
  0
LAYER
  5
2F1
100
AcDbSymbolTableRecord
100
AcDbLayerTableRecord
  2
MSBR-34
 70
0
 62
7
  6
CONTINUOUS
370
-3
390
F
  0
LAYER
  5
2F2
100
AcDbSymbolTableRecord
100
AcDbLayerTableRecord
  2
MSBR-34_2
 70
0
 62
7
  6
CONTINUOUS
370
-3
390
F
  0
LAYER
  5
2F3
100
AcDbSymbolTableRecord
100
AcDbLayerTableRecord
  2
MSBR-35
 70
0
 62
7
  6
CONTINUOUS
370
-3
390
F
  0
LAYER
  5
2F4
100
AcDbSymbolTableRecord
100
AcDbLayerTableRecord
  2
MSBR-35_2
 70
0
 62
7
  6
CONTINUOUS
370
-3
390
F
  0
LAYER
  5
2F5
100
AcDbSymbolTableRecord
100
AcDbLayerTableRecord
  2
MSBR-36
 70
0
 62
7
  6
CONTINUOUS
370
-3
390
F
  0
LAYER
  5
2F6
100
AcDbSymbolTableRecord
100
AcDbLayerTableRecord
  2
MSBR-36_2
 70
0
 62
7
  6
CONTINUOUS
370
-3
390
F
  0
LAYER
  5
2F7
100
AcDbSymbolTableRecord
100
AcDbLayerTableRecord
  2
MSBR-37
 70
0
 62
7
  6
CONTINUOUS
370
-3
390
F
  0
LAYER
  5
2F8
100
AcDbSymbolTableRecord
100
AcDbLayerTableRecord
  2
MSBR-37_2
 70
0
 62
7
  6
CONTINUOUS
370
-3
390
F
  0
LAYER
  5
2F9
100
AcDbSymbolTableRecord
100
AcDbLayerTableRecord
  2
MSBR-38_1
 70
0
 62
7
  6
CONTINUOUS
370
-3
390
F
  0
LAYER
  5
2FA
100
AcDbSymbolTableRecord
100
AcDbLayerTableRecord
  2
MSBR-38_2
 70
0
 62
7
  6
CONTINUOUS
370
-3
390
F
  0
LAYER
  5
2FB
100
AcDbSymbolTableRecord
100
AcDbLayerTableRecord
  2
MSBR-39_1
 70
0
 62
7
  6
CONTINUOUS
370
-3
390
F
  0
LAYER
  5
2FC
100
AcDbSymbolTableRecord
100
AcDbLayerTableRecord
  2
MSBR-39_2
 70
0
 62
7
  6
CONTINUOUS
370
-3
390
F
  0
LAYER
  5
2FD
100
AcDbSymbolTableRecord
100
AcDbLayerTableRecord
  2
MSBR-3_1_1
 70
0
 62
7
  6
CONTINUOUS
370
-3
390
F
  0
LAYER
  5
2FE
100
AcDbSymbolTableRecord
100
AcDbLayerTableRecord
  2
MSBR-40
 70
0
 62
7
  6
CONTINUOUS
370
-3
390
F
  0
LAYER
  5
2FF
100
AcDbSymbolTableRecord
100
AcDbLayerTableRecord
  2
MSBR-40_1
 70
0
 62
7
  6
CONTINUOUS
370
-3
390
F
  0
LAYER
  5
300
100
AcDbSymbolTableRecord
100
AcDbLayerTableRecord
  2
MSBR-41
 70
0
 62
7
  6
CONTINUOUS
370
-3
390
F
  0
LAYER
  5
301
100
AcDbSymbolTableRecord
100
AcDbLayerTableRecord
  2
MSBR-41_1
 70
0
 62
7
  6
CONTINUOUS
370
-3
390
F
  0
LAYER
  5
302
100
AcDbSymbolTableRecord
100
AcDbLayerTableRecord
  2
MSBR-42_1
 70
0
 62
7
  6
CONTINUOUS
370
-3
390
F
  0
LAYER
  5
303
100
AcDbSymbolTableRecord
100
AcDbLayerTableRecord
  2
MSBR-42_2
 70
0
 62
7
  6
CONTINUOUS
370
-3
390
F
  0
LAYER
  5
304
100
AcDbSymbolTableRecord
100
AcDbLayerTableRecord
  2
MSBR-43_1
 70
0
 62
7
  6
CONTINUOUS
370
-3
390
F
  0
LAYER
  5
305
100
AcDbSymbolTableRecord
100
AcDbLayerTableRecord
  2
MSBR-43_2
 70
0
 62
7
  6
CONTINUOUS
370
-3
390
F
  0
LAYER
  5
306
100
AcDbSymbolTableRecord
100
AcDbLayerTableRecord
  2
MSBR-44_1
 70
0
 62
7
  6
CONTINUOUS
370
-3
390
F
  0
LAYER
  5
307
100
AcDbSymbolTableRecord
100
AcDbLayerTableRecord
  2
MSBR-44_2
 70
0
 62
7
  6
CONTINUOUS
370
-3
390
F
  0
LAYER
  5
308
100
AcDbSymbolTableRecord
100
AcDbLayerTableRecord
  2
MSBR-45
 70
0
 62
7
  6
CONTINUOUS
370
-3
390
F
  0
LAYER
  5
309
100
AcDbSymbolTableRecord
100
AcDbLayerTableRecord
  2
MSBR-45_1
 70
0
 62
7
  6
CONTINUOUS
370
-3
390
F
  0
LAYER
  5
30A
100
AcDbSymbolTableRecord
100
AcDbLayerTableRecord
  2
MSBR-46
 70
0
 62
7
  6
CONTINUOUS
370
-3
390
F
  0
LAYER
  5
30B
100
AcDbSymbolTableRecord
100
AcDbLayerTableRecord
  2
MSBR-46_2
 70
0
 62
7
  6
CONTINUOUS
370
-3
390
F
  0
LAYER
  5
30C
100
AcDbSymbolTableRecord
100
AcDbLayerTableRecord
  2
MSBR-47
 70
0
 62
7
  6
CONTINUOUS
370
-3
390
F
  0
LAYER
  5
30D
100
AcDbSymbolTableRecord
100
AcDbLayerTableRecord
  2
MSBR-47_2
 70
0
 62
7
  6
CONTINUOUS
370
-3
390
F
  0
LAYER
  5
30E
100
AcDbSymbolTableRecord
100
AcDbLayerTableRecord
  2
MSBR-48_1
 70
0
 62
7
  6
CONTINUOUS
370
-3
390
F
  0
LAYER
  5
30F
100
AcDbSymbolTableRecord
100
AcDbLayerTableRecord
  2
MSBR-48_2
 70
0
 62
7
  6
CONTINUOUS
370
-3
390
F
  0
LAYER
  5
310
100
AcDbSymbolTableRecord
100
AcDbLayerTableRecord
  2
MSBR-49_1
 70
0
 62
7
  6
CONTINUOUS
370
-3
390
F
  0
LAYER
  5
311
100
AcDbSymbolTableRecord
100
AcDbLayerTableRecord
  2
MSBR-49_2
 70
0
 62
7
  6
CONTINUOUS
370
-3
390
F
  0
LAYER
  5
312
100
AcDbSymbolTableRecord
100
AcDbLayerTableRecord
  2
MSBR-4_1
 70
0
 62
7
  6
CONTINUOUS
370
-3
390
F
  0
LAYER
  5
313
100
AcDbSymbolTableRecord
100
AcDbLayerTableRecord
  2
MSBR-4_1_1
 70
0
 62
7
  6
CONTINUOUS
370
-3
390
F
  0
LAYER
  5
314
100
AcDbSymbolTableRecord
100
AcDbLayerTableRecord
  2
MSBR-50_1
 70
0
 62
7
  6
CONTINUOUS
370
-3
390
F
  0
LAYER
  5
315
100
AcDbSymbolTableRecord
100
AcDbLayerTableRecord
  2
MSBR-50_2
 70
0
 62
7
  6
CONTINUOUS
370
-3
390
F
  0
LAYER
  5
316
100
AcDbSymbolTableRecord
100
AcDbLayerTableRecord
  2
MSBR-5_1
 70
0
 62
7
  6
CONTINUOUS
370
-3
390
F
  0
LAYER
  5
317
100
AcDbSymbolTableRecord
100
AcDbLayerTableRecord
  2
MSBR-5_1_1
 70
0
 62
7
  6
CONTINUOUS
370
-3
390
F
  0
LAYER
  5
318
100
AcDbSymbolTableRecord
100
AcDbLayerTableRecord
  2
MSBR-6
 70
0
 62
7
  6
CONTINUOUS
370
-3
390
F
  0
LAYER
  5
319
100
AcDbSymbolTableRecord
100
AcDbLayerTableRecord
  2
MSBR-6_1_1
 70
0
 62
7
  6
CONTINUOUS
370
-3
390
F
  0
LAYER
  5
31A
100
AcDbSymbolTableRecord
100
AcDbLayerTableRecord
  2
MSBR-7_1
 70
0
 62
7
  6
CONTINUOUS
370
-3
390
F
  0
LAYER
  5
31B
100
AcDbSymbolTableRecord
100
AcDbLayerTableRecord
  2
MSBR-7_1_1
 70
0
 62
7
  6
CONTINUOUS
370
-3
390
F
  0
LAYER
  5
31C
100
AcDbSymbolTableRecord
100
AcDbLayerTableRecord
  2
MSBR-8
 70
0
 62
7
  6
CONTINUOUS
370
-3
390
F
  0
LAYER
  5
31D
100
AcDbSymbolTableRecord
100
AcDbLayerTableRecord
  2
MSBR-8_1_1
 70
0
 62
7
  6
CONTINUOUS
370
-3
390
F
  0
LAYER
  5
31E
100
AcDbSymbolTableRecord
100
AcDbLayerTableRecord
  2
MSBR-9
 70
0
 62
7
  6
CONTINUOUS
370
-3
390
F
  0
LAYER
  5
31F
100
AcDbSymbolTableRecord
100
AcDbLayerTableRecord
  2
MSBR-9_1_1
 70
0
 62
7
  6
CONTINUOUS
370
-3
390
F
  0
LAYER
  5
320
100
AcDbSymbolTableRecord
100
AcDbLayerTableRecord
  2
NO-PB_MARK_10000
 70
0
 62
7
  6
CONTINUOUS
370
-3
390
F
  0
LAYER
  5
321
100
AcDbSymbolTableRecord
100
AcDbLayerTableRecord
  2
NONE
 70
0
 62
7
  6
CONTINUOUS
370
-3
390
F
  0
LAYER
  5
322
100
AcDbSymbolTableRecord
100
AcDbLayerTableRecord
  2
NOTE
 70
0
 62
7
  6
CONTINUOUS
370
-3
390
F
  0
LAYER
  5
323
100
AcDbSymbolTableRecord
100
AcDbLayerTableRecord
  2
PIANI
 70
0
 62
7
  6
CONTINUOUS
370
-3
390
F
  0
LAYER
  5
324
100
AcDbSymbolTableRecord
100
AcDbLayerTableRecord
  2
PIANI_ORIGINE
 70
0
 62
7
  6
CONTINUOUS
370
-3
390
F
  0
LAYER
  5
325
100
AcDbSymbolTableRecord
100
AcDbLayerTableRecord
  2
PTC_EPCOS_B57153S0100M051_13000
 70
0
 62
7
  6
CONTINUOUS
370
-3
390
F
  0
LAYER
  5
326
100
AcDbSymbolTableRecord
100
AcDbLayerTableRecord
  2
PUNTI
 70
0
 62
7
  6
CONTINUOUS
370
-3
390
F
  0
LAYER
  5
327
100
AcDbSymbolTableRecord
100
AcDbLayerTableRecord
  2
RACCORDO
 70
0
 62
7
  6
CONTINUOUS
370
-3
390
F
  0
LAYER
  5
328
100
AcDbSymbolTableRecord
100
AcDbLayerTableRecord
  2
RESC1608N_45000
 70
0
 62
7
  6
CONTINUOUS
370
-3
390
F
  0
LAYER
  5
329
100
AcDbSymbolTableRecord
100
AcDbLayerTableRecord
  2
RESC1608N_45000_1
 70
0
 62
7
  6
CONTINUOUS
370
-3
390
F
  0
LAYER
  5
32A
100
AcDbSymbolTableRecord
100
AcDbLayerTableRecord
  2
RESC1608N_45000_1_1
 70
0
 62
7
  6
CONTINUOUS
370
-3
390
F
  0
LAYER
  5
32B
100
AcDbSymbolTableRecord
100
AcDbLayerTableRecord
  2
RESC1608N_45000_1_2
 70
0
 62
7
  6
CONTINUOUS
370
-3
390
F
  0
LAYER
  5
32C
100
AcDbSymbolTableRecord
100
AcDbLayerTableRecord
  2
RESC1608N_45000_2
 70
0
 62
7
  6
CONTINUOUS
370
-3
390
F
  0
LAYER
  5
32D
100
AcDbSymbolTableRecord
100
AcDbLayerTableRecord
  2
RESC1608N_45000_2_1
 70
0
 62
7
  6
CONTINUOUS
370
-3
390
F
  0
LAYER
  5
32E
100
AcDbSymbolTableRecord
100
AcDbLayerTableRecord
  2
RESC1608N_45000_3
 70
0
 62
7
  6
CONTINUOUS
370
-3
390
F
  0
LAYER
  5
32F
100
AcDbSymbolTableRecord
100
AcDbLayerTableRecord
  2
RESC1608N_45000_3_1
 70
0
 62
7
  6
CONTINUOUS
370
-3
390
F
  0
LAYER
  5
330
100
AcDbSymbolTableRecord
100
AcDbLayerTableRecord
  2
RGB__255__255__255__
 70
0
 62
7
  6
CONTINUOUS
370
-3
390
F
  0
LAYER
  5
331
100
AcDbSymbolTableRecord
100
AcDbLayerTableRecord
  2
SIMBOLI
 70
0
 62
7
  6
CONTINUOUS
370
-3
390
F
  0
LAYER
  5
332
100
AcDbSymbolTableRecord
100
AcDbLayerTableRecord
  2
SMUSSO
 70
0
 62
7
  6
CONTINUOUS
370
-3
390
F
  0
LAYER
  5
333
100
AcDbSymbolTableRecord
100
AcDbLayerTableRecord
  2
SNAPLINE
 70
0
 62
7
  6
CONTINUOUS
370
-3
390
F
  0
LAYER
  5
334
100
AcDbSymbolTableRecord
100
AcDbLayerTableRecord
  2
SOD123_REF_140000
 70
0
 62
7
  6
CONTINUOUS
370
-3
390
F
  0
LAYER
  5
335
100
AcDbSymbolTableRecord
100
AcDbLayerTableRecord
  2
SOT323_H1_1_REF_110000
 70
0
 62
7
  6
CONTINUOUS
370
-3
390
F
  0
LAYER
  5
336
100
AcDbSymbolTableRecord
100
AcDbLayerTableRecord
  2
SUB_SMA_143000
 70
0
 62
7
  6
CONTINUOUS
370
-3
390
F
  0
LAYER
  5
337
100
AcDbSymbolTableRecord
100
AcDbLayerTableRecord
  2
SUB_SMA_143000_1
 70
0
 62
7
  6
CONTINUOUS
370
-3
390
F
  0
LAYER
  5
338
100
AcDbSymbolTableRecord
100
AcDbLayerTableRecord
  2
SUPERFICI
 70
0
 62
7
  6
CONTINUOUS
370
-3
390
F
  0
LAYER
  5
339
100
AcDbSymbolTableRecord
100
AcDbLayerTableRecord
  2
TRASH
 70
0
 62
7
  6
CONTINUOUS
370
-3
390
F
  0
LAYER
  5
33A
100
AcDbSymbolTableRecord
100
AcDbLayerTableRecord
  2
UMT-250_REF_300000
 70
0
 62
7
  6
CONTINUOUS
370
-3
390
F
  0
LAYER
  5
33B
100
AcDbSymbolTableRecord
100
AcDbLayerTableRecord
  2
VG_CAP-E-8_0-12_0-3_5-0_6_14000
 70
0
 62
7
  6
CONTINUOUS
370
-3
390
F
  0
LAYER
  5
33C
100
AcDbSymbolTableRecord
100
AcDbLayerTableRecord
  2
VG_CAP-E-8_0-12_0-3_5-0_6_1400_
 70
0
 62
7
  6
CONTINUOUS
370
-3
390
F
  0
LAYER
  5
33D
100
AcDbSymbolTableRecord
100
AcDbLayerTableRecord
  2
VG_CAP-E-8_0-12_0-3_5-0_6_140_1
 70
0
 62
7
  6
CONTINUOUS
370
-3
390
F
  0
LAYER
  5
33E
100
AcDbSymbolTableRecord
100
AcDbLayerTableRecord
  2
VG_CAP-E-8_0-12_0-3_5-0_6_140__
 70
0
 62
7
  6
CONTINUOUS
370
-3
390
F
  0
LAYER
  5
33F
100
AcDbSymbolTableRecord
100
AcDbLayerTableRecord
  2
VG_CAP-RND-10_0-7_0-5_0-10_0-0_
 70
0
 62
7
  6
CONTINUOUS
370
-3
390
F
  0
LAYER
  5
340
100
AcDbSymbolTableRecord
100
AcDbLayerTableRecord
  2
VG_CAP-RND-10_0-7_0-5_0-10_0-_1
 70
0
 62
7
  6
CONTINUOUS
370
-3
390
F
  0
LAYER
  5
341
100
AcDbSymbolTableRecord
100
AcDbLayerTableRecord
  2
VG_CN_STH_USB_TYPE-C_24P_RIGHT_
 70
0
 62
7
  6
CONTINUOUS
370
-3
390
F
  0
LAYER
  5
342
100
AcDbSymbolTableRecord
100
AcDbLayerTableRecord
  2
VG_CN_STH_USB_TYPE-C_24P_RIGH_1
 70
0
 62
7
  6
CONTINUOUS
370
-3
390
F
  0
LAYER
  5
343
100
AcDbSymbolTableRecord
100
AcDbLayerTableRecord
  2
VG_CN_THT_USB_TYPE-A_4P_VERTICA
 70
0
 62
7
  6
CONTINUOUS
370
-3
390
F
  0
LAYER
  5
344
100
AcDbSymbolTableRecord
100
AcDbLayerTableRecord
  2
VG_CN_THT_USB_TYPE-A_4P_VERTI_1
 70
0
 62
7
  6
CONTINUOUS
370
-3
390
F
  0
LAYER
  5
345
100
AcDbSymbolTableRecord
100
AcDbLayerTableRecord
  2
VG_FUSE-6_1X2_69H2_69-F_269000
 70
0
 62
7
  6
CONTINUOUS
370
-3
390
F
  0
LAYER
  5
346
100
AcDbSymbolTableRecord
100
AcDbLayerTableRecord
  2
VG_INSOP24D-9_4-13_43-1_6-0_75-
 70
0
 62
7
  6
CONTINUOUS
370
-3
390
F
  0
LAYER
  5
347
100
AcDbSymbolTableRecord
100
AcDbLayerTableRecord
  2
VG_PAD_SMD_REC_P1_0X1_4_1_14X1_
 70
0
 62
7
  6
CONTINUOUS
370
-3
390
F
  0
LAYER
  5
348
100
AcDbSymbolTableRecord
100
AcDbLayerTableRecord
  2
VG_PAD_SMD_REC_P1_0X1_4_1_14X_1
 70
0
 62
7
  6
CONTINUOUS
370
-3
390
F
  0
LAYER
  5
349
100
AcDbSymbolTableRecord
100
AcDbLayerTableRecord
  2
VG_PAD_SMD_REC_P1_0X1_4_1_14X_2
 70
0
 62
7
  6
CONTINUOUS
370
-3
390
F
  0
LAYER
  5
34A
100
AcDbSymbolTableRecord
100
AcDbLayerTableRecord
  2
VG_PAD_SMD_REC_P1_0X1_4_1_14X_3
 70
0
 62
7
  6
CONTINUOUS
370
-3
390
F
  0
LAYER
  5
34B
100
AcDbSymbolTableRecord
100
AcDbLayerTableRecord
  2
VG_PAD_SMD_REC_P1_0X1_4_1_14X_4
 70
0
 62
7
  6
CONTINUOUS
370
-3
390
F
  0
LAYER
  5
34C
100
AcDbSymbolTableRecord
100
AcDbLayerTableRecord
  2
VG_PAD_SMD_REC_P1_0X1_4_1_14X_5
 70
0
 62
7
  6
CONTINUOUS
370
-3
390
F
  0
LAYER
  5
34D
100
AcDbSymbolTableRecord
100
AcDbLayerTableRecord
  2
VG_PAD_SMD_REC_P1_0X1_4_1_14X_6
 70
0
 62
7
  6
CONTINUOUS
370
-3
390
F
  0
LAYER
  5
34E
100
AcDbSymbolTableRecord
100
AcDbLayerTableRecord
  2
VG_PAD_SMD_REC_P1_0X1_4_1_14X_7
 70
0
 62
7
  6
CONTINUOUS
370
-3
390
F
  0
LAYER
  5
34F
100
AcDbSymbolTableRecord
100
AcDbLayerTableRecord
  2
VG_PAD_SMD_REC_P1_0X1_4_1_14X_8
 70
0
 62
7
  6
CONTINUOUS
370
-3
390
F
  0
LAYER
  5
350
100
AcDbSymbolTableRecord
100
AcDbLayerTableRecord
  2
VG_PAD_SMD_REC_P1_0X1_4_1_14X_9
 70
0
 62
7
  6
CONTINUOUS
370
-3
390
F
  0
LAYER
  5
351
100
AcDbSymbolTableRecord
100
AcDbLayerTableRecord
  2
VG_PAD_SMD_REC_P1_0X1_4_1_14_10
 70
0
 62
7
  6
CONTINUOUS
370
-3
390
F
  0
LAYER
  5
352
100
AcDbSymbolTableRecord
100
AcDbLayerTableRecord
  2
VG_PAD_SMD_REC_P1_0X1_4_1_14_11
 70
0
 62
7
  6
CONTINUOUS
370
-3
390
F
  0
LAYER
  5
353
100
AcDbSymbolTableRecord
100
AcDbLayerTableRecord
  2
VG_POWER56_110000
 70
0
 62
7
  6
CONTINUOUS
370
-3
390
F
  0
LAYER
  5
354
100
AcDbSymbolTableRecord
100
AcDbLayerTableRecord
  2
VG_TRA_RM6S_1250000
 70
0
 62
7
  6
CONTINUOUS
370
-3
390
F
  0
LAYER
  5
355
100
AcDbSymbolTableRecord
100
AcDbLayerTableRecord
  2
VG_TRA_RM6S_7P_1250000
 70
0
 62
7
  6
CONTINUOUS
370
-3
390
F
  0
LAYER
  5
356
100
AcDbSymbolTableRecord
100
AcDbLayerTableRecord
  2
_43900953F0_ASM
 70
0
 62
7
  6
CONTINUOUS
370
-3
390
F
  0
LAYER
  5
357
100
AcDbSymbolTableRecord
100
AcDbLayerTableRecord
  2
_43900953F0_ASM_1
 70
0
 62
7
  6
CONTINUOUS
370
-3
390
F
  0
LAYER
  5
358
100
AcDbSymbolTableRecord
100
AcDbLayerTableRecord
  2
___SHELL
 70
0
 62
7
  6
CONTINUOUS
370
-3
390
F
  0
LAYER
  5
359
100
AcDbSymbolTableRecord
100
AcDbLayerTableRecord
  2
___SHELL_1
 70
0
 62
7
  6
CONTINUOUS
370
-3
390
F
  0
LAYER
  5
35A
100
AcDbSymbolTableRecord
100
AcDbLayerTableRecord
  2
___SHELL_10
 70
0
 62
7
  6
CONTINUOUS
370
-3
390
F
  0
LAYER
  5
35B
100
AcDbSymbolTableRecord
100
AcDbLayerTableRecord
  2
___SHELL_10_1
 70
0
 62
7
  6
CONTINUOUS
370
-3
390
F
  0
LAYER
  5
35C
100
AcDbSymbolTableRecord
100
AcDbLayerTableRecord
  2
___SHELL_11
 70
0
 62
7
  6
CONTINUOUS
370
-3
390
F
  0
LAYER
  5
35D
100
AcDbSymbolTableRecord
100
AcDbLayerTableRecord
  2
___SHELL_11_1
 70
0
 62
7
  6
CONTINUOUS
370
-3
390
F
  0
LAYER
  5
35E
100
AcDbSymbolTableRecord
100
AcDbLayerTableRecord
  2
___SHELL_12
 70
0
 62
7
  6
CONTINUOUS
370
-3
390
F
  0
LAYER
  5
35F
100
AcDbSymbolTableRecord
100
AcDbLayerTableRecord
  2
___SHELL_12_1
 70
0
 62
7
  6
CONTINUOUS
370
-3
390
F
  0
LAYER
  5
360
100
AcDbSymbolTableRecord
100
AcDbLayerTableRecord
  2
___SHELL_13
 70
0
 62
7
  6
CONTINUOUS
370
-3
390
F
  0
LAYER
  5
361
100
AcDbSymbolTableRecord
100
AcDbLayerTableRecord
  2
___SHELL_13_1
 70
0
 62
7
  6
CONTINUOUS
370
-3
390
F
  0
LAYER
  5
362
100
AcDbSymbolTableRecord
100
AcDbLayerTableRecord
  2
___SHELL_14
 70
0
 62
7
  6
CONTINUOUS
370
-3
390
F
  0
LAYER
  5
363
100
AcDbSymbolTableRecord
100
AcDbLayerTableRecord
  2
___SHELL_14_1
 70
0
 62
7
  6
CONTINUOUS
370
-3
390
F
  0
LAYER
  5
364
100
AcDbSymbolTableRecord
100
AcDbLayerTableRecord
  2
___SHELL_15
 70
0
 62
7
  6
CONTINUOUS
370
-3
390
F
  0
LAYER
  5
365
100
AcDbSymbolTableRecord
100
AcDbLayerTableRecord
  2
___SHELL_15_1
 70
0
 62
7
  6
CONTINUOUS
370
-3
390
F
  0
LAYER
  5
366
100
AcDbSymbolTableRecord
100
AcDbLayerTableRecord
  2
___SHELL_16
 70
0
 62
7
  6
CONTINUOUS
370
-3
390
F
  0
LAYER
  5
367
100
AcDbSymbolTableRecord
100
AcDbLayerTableRecord
  2
___SHELL_16_1
 70
0
 62
7
  6
CONTINUOUS
370
-3
390
F
  0
LAYER
  5
368
100
AcDbSymbolTableRecord
100
AcDbLayerTableRecord
  2
___SHELL_17
 70
0
 62
7
  6
CONTINUOUS
370
-3
390
F
  0
LAYER
  5
369
100
AcDbSymbolTableRecord
100
AcDbLayerTableRecord
  2
___SHELL_17_1
 70
0
 62
7
  6
CONTINUOUS
370
-3
390
F
  0
LAYER
  5
36A
100
AcDbSymbolTableRecord
100
AcDbLayerTableRecord
  2
___SHELL_18
 70
0
 62
7
  6
CONTINUOUS
370
-3
390
F
  0
LAYER
  5
36B
100
AcDbSymbolTableRecord
100
AcDbLayerTableRecord
  2
___SHELL_18_1
 70
0
 62
7
  6
CONTINUOUS
370
-3
390
F
  0
LAYER
  5
36C
100
AcDbSymbolTableRecord
100
AcDbLayerTableRecord
  2
___SHELL_19
 70
0
 62
7
  6
CONTINUOUS
370
-3
390
F
  0
LAYER
  5
36D
100
AcDbSymbolTableRecord
100
AcDbLayerTableRecord
  2
___SHELL_19_1
 70
0
 62
7
  6
CONTINUOUS
370
-3
390
F
  0
LAYER
  5
36E
100
AcDbSymbolTableRecord
100
AcDbLayerTableRecord
  2
___SHELL_1_1
 70
0
 62
7
  6
CONTINUOUS
370
-3
390
F
  0
LAYER
  5
36F
100
AcDbSymbolTableRecord
100
AcDbLayerTableRecord
  2
___SHELL_2
 70
0
 62
7
  6
CONTINUOUS
370
-3
390
F
  0
LAYER
  5
370
100
AcDbSymbolTableRecord
100
AcDbLayerTableRecord
  2
___SHELL_20
 70
0
 62
7
  6
CONTINUOUS
370
-3
390
F
  0
LAYER
  5
371
100
AcDbSymbolTableRecord
100
AcDbLayerTableRecord
  2
___SHELL_20_1
 70
0
 62
7
  6
CONTINUOUS
370
-3
390
F
  0
LAYER
  5
372
100
AcDbSymbolTableRecord
100
AcDbLayerTableRecord
  2
___SHELL_21
 70
0
 62
7
  6
CONTINUOUS
370
-3
390
F
  0
LAYER
  5
373
100
AcDbSymbolTableRecord
100
AcDbLayerTableRecord
  2
___SHELL_21_1
 70
0
 62
7
  6
CONTINUOUS
370
-3
390
F
  0
LAYER
  5
374
100
AcDbSymbolTableRecord
100
AcDbLayerTableRecord
  2
___SHELL_22
 70
0
 62
7
  6
CONTINUOUS
370
-3
390
F
  0
LAYER
  5
375
100
AcDbSymbolTableRecord
100
AcDbLayerTableRecord
  2
___SHELL_22_1
 70
0
 62
7
  6
CONTINUOUS
370
-3
390
F
  0
LAYER
  5
376
100
AcDbSymbolTableRecord
100
AcDbLayerTableRecord
  2
___SHELL_23
 70
0
 62
7
  6
CONTINUOUS
370
-3
390
F
  0
LAYER
  5
377
100
AcDbSymbolTableRecord
100
AcDbLayerTableRecord
  2
___SHELL_23_1
 70
0
 62
7
  6
CONTINUOUS
370
-3
390
F
  0
LAYER
  5
378
100
AcDbSymbolTableRecord
100
AcDbLayerTableRecord
  2
___SHELL_24
 70
0
 62
7
  6
CONTINUOUS
370
-3
390
F
  0
LAYER
  5
379
100
AcDbSymbolTableRecord
100
AcDbLayerTableRecord
  2
___SHELL_24_1
 70
0
 62
7
  6
CONTINUOUS
370
-3
390
F
  0
LAYER
  5
37A
100
AcDbSymbolTableRecord
100
AcDbLayerTableRecord
  2
___SHELL_25
 70
0
 62
7
  6
CONTINUOUS
370
-3
390
F
  0
LAYER
  5
37B
100
AcDbSymbolTableRecord
100
AcDbLayerTableRecord
  2
___SHELL_25_1
 70
0
 62
7
  6
CONTINUOUS
370
-3
390
F
  0
LAYER
  5
37C
100
AcDbSymbolTableRecord
100
AcDbLayerTableRecord
  2
___SHELL_26
 70
0
 62
7
  6
CONTINUOUS
370
-3
390
F
  0
LAYER
  5
37D
100
AcDbSymbolTableRecord
100
AcDbLayerTableRecord
  2
___SHELL_26_1
 70
0
 62
7
  6
CONTINUOUS
370
-3
390
F
  0
LAYER
  5
37E
100
AcDbSymbolTableRecord
100
AcDbLayerTableRecord
  2
___SHELL_27
 70
0
 62
7
  6
CONTINUOUS
370
-3
390
F
  0
LAYER
  5
37F
100
AcDbSymbolTableRecord
100
AcDbLayerTableRecord
  2
___SHELL_27_1
 70
0
 62
7
  6
CONTINUOUS
370
-3
390
F
  0
LAYER
  5
380
100
AcDbSymbolTableRecord
100
AcDbLayerTableRecord
  2
___SHELL_28
 70
0
 62
7
  6
CONTINUOUS
370
-3
390
F
  0
LAYER
  5
381
100
AcDbSymbolTableRecord
100
AcDbLayerTableRecord
  2
___SHELL_28_1
 70
0
 62
7
  6
CONTINUOUS
370
-3
390
F
  0
LAYER
  5
382
100
AcDbSymbolTableRecord
100
AcDbLayerTableRecord
  2
___SHELL_29
 70
0
 62
7
  6
CONTINUOUS
370
-3
390
F
  0
LAYER
  5
383
100
AcDbSymbolTableRecord
100
AcDbLayerTableRecord
  2
___SHELL_29_1
 70
0
 62
7
  6
CONTINUOUS
370
-3
390
F
  0
LAYER
  5
384
100
AcDbSymbolTableRecord
100
AcDbLayerTableRecord
  2
___SHELL_2_1
 70
0
 62
7
  6
CONTINUOUS
370
-3
390
F
  0
LAYER
  5
385
100
AcDbSymbolTableRecord
100
AcDbLayerTableRecord
  2
___SHELL_3
 70
0
 62
7
  6
CONTINUOUS
370
-3
390
F
  0
LAYER
  5
386
100
AcDbSymbolTableRecord
100
AcDbLayerTableRecord
  2
___SHELL_30
 70
0
 62
7
  6
CONTINUOUS
370
-3
390
F
  0
LAYER
  5
387
100
AcDbSymbolTableRecord
100
AcDbLayerTableRecord
  2
___SHELL_30_1
 70
0
 62
7
  6
CONTINUOUS
370
-3
390
F
  0
LAYER
  5
388
100
AcDbSymbolTableRecord
100
AcDbLayerTableRecord
  2
___SHELL_31
 70
0
 62
7
  6
CONTINUOUS
370
-3
390
F
  0
LAYER
  5
389
100
AcDbSymbolTableRecord
100
AcDbLayerTableRecord
  2
___SHELL_31_1
 70
0
 62
7
  6
CONTINUOUS
370
-3
390
F
  0
LAYER
  5
38A
100
AcDbSymbolTableRecord
100
AcDbLayerTableRecord
  2
___SHELL_32
 70
0
 62
7
  6
CONTINUOUS
370
-3
390
F
  0
LAYER
  5
38B
100
AcDbSymbolTableRecord
100
AcDbLayerTableRecord
  2
___SHELL_32_1
 70
0
 62
7
  6
CONTINUOUS
370
-3
390
F
  0
LAYER
  5
38C
100
AcDbSymbolTableRecord
100
AcDbLayerTableRecord
  2
___SHELL_33
 70
0
 62
7
  6
CONTINUOUS
370
-3
390
F
  0
LAYER
  5
38D
100
AcDbSymbolTableRecord
100
AcDbLayerTableRecord
  2
___SHELL_33_1
 70
0
 62
7
  6
CONTINUOUS
370
-3
390
F
  0
LAYER
  5
38E
100
AcDbSymbolTableRecord
100
AcDbLayerTableRecord
  2
___SHELL_34
 70
0
 62
7
  6
CONTINUOUS
370
-3
390
F
  0
LAYER
  5
38F
100
AcDbSymbolTableRecord
100
AcDbLayerTableRecord
  2
___SHELL_34_1
 70
0
 62
7
  6
CONTINUOUS
370
-3
390
F
  0
LAYER
  5
390
100
AcDbSymbolTableRecord
100
AcDbLayerTableRecord
  2
___SHELL_35
 70
0
 62
7
  6
CONTINUOUS
370
-3
390
F
  0
LAYER
  5
391
100
AcDbSymbolTableRecord
100
AcDbLayerTableRecord
  2
___SHELL_35_1
 70
0
 62
7
  6
CONTINUOUS
370
-3
390
F
  0
LAYER
  5
392
100
AcDbSymbolTableRecord
100
AcDbLayerTableRecord
  2
___SHELL_36
 70
0
 62
7
  6
CONTINUOUS
370
-3
390
F
  0
LAYER
  5
393
100
AcDbSymbolTableRecord
100
AcDbLayerTableRecord
  2
___SHELL_36_1
 70
0
 62
7
  6
CONTINUOUS
370
-3
390
F
  0
LAYER
  5
394
100
AcDbSymbolTableRecord
100
AcDbLayerTableRecord
  2
___SHELL_37
 70
0
 62
7
  6
CONTINUOUS
370
-3
390
F
  0
LAYER
  5
395
100
AcDbSymbolTableRecord
100
AcDbLayerTableRecord
  2
___SHELL_37_1
 70
0
 62
7
  6
CONTINUOUS
370
-3
390
F
  0
LAYER
  5
396
100
AcDbSymbolTableRecord
100
AcDbLayerTableRecord
  2
___SHELL_38
 70
0
 62
7
  6
CONTINUOUS
370
-3
390
F
  0
LAYER
  5
397
100
AcDbSymbolTableRecord
100
AcDbLayerTableRecord
  2
___SHELL_38_1
 70
0
 62
7
  6
CONTINUOUS
370
-3
390
F
  0
LAYER
  5
398
100
AcDbSymbolTableRecord
100
AcDbLayerTableRecord
  2
___SHELL_39
 70
0
 62
7
  6
CONTINUOUS
370
-3
390
F
  0
LAYER
  5
399
100
AcDbSymbolTableRecord
100
AcDbLayerTableRecord
  2
___SHELL_39_1
 70
0
 62
7
  6
CONTINUOUS
370
-3
390
F
  0
LAYER
  5
39A
100
AcDbSymbolTableRecord
100
AcDbLayerTableRecord
  2
___SHELL_3_1
 70
0
 62
7
  6
CONTINUOUS
370
-3
390
F
  0
LAYER
  5
39B
100
AcDbSymbolTableRecord
100
AcDbLayerTableRecord
  2
___SHELL_4
 70
0
 62
7
  6
CONTINUOUS
370
-3
390
F
  0
LAYER
  5
39C
100
AcDbSymbolTableRecord
100
AcDbLayerTableRecord
  2
___SHELL_40
 70
0
 62
7
  6
CONTINUOUS
370
-3
390
F
  0
LAYER
  5
39D
100
AcDbSymbolTableRecord
100
AcDbLayerTableRecord
  2
___SHELL_40_1
 70
0
 62
7
  6
CONTINUOUS
370
-3
390
F
  0
LAYER
  5
39E
100
AcDbSymbolTableRecord
100
AcDbLayerTableRecord
  2
___SHELL_41
 70
0
 62
7
  6
CONTINUOUS
370
-3
390
F
  0
LAYER
  5
39F
100
AcDbSymbolTableRecord
100
AcDbLayerTableRecord
  2
___SHELL_41_1
 70
0
 62
7
  6
CONTINUOUS
370
-3
390
F
  0
LAYER
  5
3A0
100
AcDbSymbolTableRecord
100
AcDbLayerTableRecord
  2
___SHELL_42
 70
0
 62
7
  6
CONTINUOUS
370
-3
390
F
  0
LAYER
  5
3A1
100
AcDbSymbolTableRecord
100
AcDbLayerTableRecord
  2
___SHELL_42_1
 70
0
 62
7
  6
CONTINUOUS
370
-3
390
F
  0
LAYER
  5
3A2
100
AcDbSymbolTableRecord
100
AcDbLayerTableRecord
  2
___SHELL_43
 70
0
 62
7
  6
CONTINUOUS
370
-3
390
F
  0
LAYER
  5
3A3
100
AcDbSymbolTableRecord
100
AcDbLayerTableRecord
  2
___SHELL_43_1
 70
0
 62
7
  6
CONTINUOUS
370
-3
390
F
  0
LAYER
  5
3A4
100
AcDbSymbolTableRecord
100
AcDbLayerTableRecord
  2
___SHELL_44
 70
0
 62
7
  6
CONTINUOUS
370
-3
390
F
  0
LAYER
  5
3A5
100
AcDbSymbolTableRecord
100
AcDbLayerTableRecord
  2
___SHELL_44_1
 70
0
 62
7
  6
CONTINUOUS
370
-3
390
F
  0
LAYER
  5
3A6
100
AcDbSymbolTableRecord
100
AcDbLayerTableRecord
  2
___SHELL_45
 70
0
 62
7
  6
CONTINUOUS
370
-3
390
F
  0
LAYER
  5
3A7
100
AcDbSymbolTableRecord
100
AcDbLayerTableRecord
  2
___SHELL_45_1
 70
0
 62
7
  6
CONTINUOUS
370
-3
390
F
  0
LAYER
  5
3A8
100
AcDbSymbolTableRecord
100
AcDbLayerTableRecord
  2
___SHELL_46
 70
0
 62
7
  6
CONTINUOUS
370
-3
390
F
  0
LAYER
  5
3A9
100
AcDbSymbolTableRecord
100
AcDbLayerTableRecord
  2
___SHELL_46_1
 70
0
 62
7
  6
CONTINUOUS
370
-3
390
F
  0
LAYER
  5
3AA
100
AcDbSymbolTableRecord
100
AcDbLayerTableRecord
  2
___SHELL_47
 70
0
 62
7
  6
CONTINUOUS
370
-3
390
F
  0
LAYER
  5
3AB
100
AcDbSymbolTableRecord
100
AcDbLayerTableRecord
  2
___SHELL_47_1
 70
0
 62
7
  6
CONTINUOUS
370
-3
390
F
  0
LAYER
  5
3AC
100
AcDbSymbolTableRecord
100
AcDbLayerTableRecord
  2
___SHELL_48
 70
0
 62
7
  6
CONTINUOUS
370
-3
390
F
  0
LAYER
  5
3AD
100
AcDbSymbolTableRecord
100
AcDbLayerTableRecord
  2
___SHELL_48_1
 70
0
 62
7
  6
CONTINUOUS
370
-3
390
F
  0
LAYER
  5
3AE
100
AcDbSymbolTableRecord
100
AcDbLayerTableRecord
  2
___SHELL_49
 70
0
 62
7
  6
CONTINUOUS
370
-3
390
F
  0
LAYER
  5
3AF
100
AcDbSymbolTableRecord
100
AcDbLayerTableRecord
  2
___SHELL_49_1
 70
0
 62
7
  6
CONTINUOUS
370
-3
390
F
  0
LAYER
  5
3B0
100
AcDbSymbolTableRecord
100
AcDbLayerTableRecord
  2
___SHELL_4_1
 70
0
 62
7
  6
CONTINUOUS
370
-3
390
F
  0
LAYER
  5
3B1
100
AcDbSymbolTableRecord
100
AcDbLayerTableRecord
  2
___SHELL_5
 70
0
 62
7
  6
CONTINUOUS
370
-3
390
F
  0
LAYER
  5
3B2
100
AcDbSymbolTableRecord
100
AcDbLayerTableRecord
  2
___SHELL_50
 70
0
 62
7
  6
CONTINUOUS
370
-3
390
F
  0
LAYER
  5
3B3
100
AcDbSymbolTableRecord
100
AcDbLayerTableRecord
  2
___SHELL_50_1
 70
0
 62
7
  6
CONTINUOUS
370
-3
390
F
  0
LAYER
  5
3B4
100
AcDbSymbolTableRecord
100
AcDbLayerTableRecord
  2
___SHELL_51
 70
0
 62
7
  6
CONTINUOUS
370
-3
390
F
  0
LAYER
  5
3B5
100
AcDbSymbolTableRecord
100
AcDbLayerTableRecord
  2
___SHELL_52
 70
0
 62
7
  6
CONTINUOUS
370
-3
390
F
  0
LAYER
  5
3B6
100
AcDbSymbolTableRecord
100
AcDbLayerTableRecord
  2
___SHELL_53
 70
0
 62
7
  6
CONTINUOUS
370
-3
390
F
  0
LAYER
  5
3B7
100
AcDbSymbolTableRecord
100
AcDbLayerTableRecord
  2
___SHELL_54
 70
0
 62
7
  6
CONTINUOUS
370
-3
390
F
  0
LAYER
  5
3B8
100
AcDbSymbolTableRecord
100
AcDbLayerTableRecord
  2
___SHELL_5_1
 70
0
 62
7
  6
CONTINUOUS
370
-3
390
F
  0
LAYER
  5
3B9
100
AcDbSymbolTableRecord
100
AcDbLayerTableRecord
  2
___SHELL_6
 70
0
 62
7
  6
CONTINUOUS
370
-3
390
F
  0
LAYER
  5
3BA
100
AcDbSymbolTableRecord
100
AcDbLayerTableRecord
  2
___SHELL_6_1
 70
0
 62
7
  6
CONTINUOUS
370
-3
390
F
  0
LAYER
  5
3BB
100
AcDbSymbolTableRecord
100
AcDbLayerTableRecord
  2
___SHELL_7
 70
0
 62
7
  6
CONTINUOUS
370
-3
390
F
  0
LAYER
  5
3BC
100
AcDbSymbolTableRecord
100
AcDbLayerTableRecord
  2
___SHELL_7_1
 70
0
 62
7
  6
CONTINUOUS
370
-3
390
F
  0
LAYER
  5
3BD
100
AcDbSymbolTableRecord
100
AcDbLayerTableRecord
  2
___SHELL_8
 70
0
 62
7
  6
CONTINUOUS
370
-3
390
F
  0
LAYER
  5
3BE
100
AcDbSymbolTableRecord
100
AcDbLayerTableRecord
  2
___SHELL_8_1
 70
0
 62
7
  6
CONTINUOUS
370
-3
390
F
  0
LAYER
  5
3BF
100
AcDbSymbolTableRecord
100
AcDbLayerTableRecord
  2
___SHELL_9
 70
0
 62
7
  6
CONTINUOUS
370
-3
390
F
  0
LAYER
  5
3C0
100
AcDbSymbolTableRecord
100
AcDbLayerTableRecord
  2
___SHELL_9_1
 70
0
 62
7
  6
CONTINUOUS
370
-3
390
F
  0
ENDTAB
  0
TABLE
  2
STYLE
  5
3
100
AcDbSymbolTable
 70
1
  0
STYLE
  5
11
100
AcDbSymbolTableRecord
100
AcDbTextStyleTableRecord
  2
STANDARD
 70
0
 40
0.0
 41
0.8
 50
0.0
 71
0
 42
0.2
  3
txt
  4

  0
STYLE
  5
3C1
100
AcDbSymbolTableRecord
100
AcDbTextStyleTableRecord
  2
TEXTSTYLE_1
 70
0
 40
0.0
 41
0.8
 50
0.0
 71
0
 42
0.2
  3
gdt
  4

  0
ENDTAB
  0
TABLE
  2
VIEW
  5
6
100
AcDbSymbolTable
 70
0
  0
ENDTAB
  0
TABLE
  2
UCS
  5
7
100
AcDbSymbolTable
 70
0
  0
ENDTAB
  0
TABLE
  2
APPID
  5
9
100
AcDbSymbolTable
 70
1
  0
APPID
  5
3C2
100
AcDbSymbolTableRecord
100
AcDbRegAppTableRecord
  2
ACAD
 70
0
  0
ENDTAB
  0
TABLE
  2
BLOCK_RECORD
  5
1
100
AcDbSymbolTable
 70
0
  0
BLOCK_RECORD
  5
3C3
100
AcDbSymbolTableRecord
100
AcDbBlockTableRecord
  2
*Model_Space
  0
BLOCK_RECORD
  5
3C4
100
AcDbSymbolTableRecord
100
AcDbBlockTableRecord
  2
*Paper_Space
  0
BLOCK_RECORD
  5
3C5
100
AcDbSymbolTableRecord
100
AcDbBlockTableRecord
  2
_FILLED
  0
ENDTAB
  0
TABLE
  2
DIMSTYLE
  5
A
100
AcDbSymbolTable
 70
1
100
AcDbDimStyleTable
 71
0
  0
DIMSTYLE
105
3C6
100
AcDbSymbolTableRecord
100
AcDbDimStyleTableRecord
  2
STANDARD
 70
0
  3

  4

 40
1.0
 41
3.0
 42
0.5
 43
0.38
 44
1.5
 45
0.0
 46
0.0
 47
0.01
 48
0.01
140
3.0
141
0.09
142
0.0
143
25.4
144
1.0
145
0.0
146
1.0
147
0.625
 71
1
 72
0
 73
0
 74
0
 75
0
 76
0
 77
1
 78
8
 79
2
170
0
171
1
172
0
173
0
174
0
175
0
176
0
177
0
178
0
270
2
179
2
271
2
272
2
273
2
274
2
275
0
280
0
281
0
282
0
283
1
284
8
285
0
286
0
287
3
288
0
340
11
278
44
341
3C5
342
3C5
343
3C5
344
3C5
  0
ENDTAB
  0
ENDSEC
  0
SECTION
  2
BLOCKS
  0
BLOCK
  5
20
100
AcDbEntity
  8
0
100
AcDbBlockBegin
  2
*Model_Space
 70
0
 10
0.0
 20
0.0
 30
0.0
  3
*Model_Space
  1

  0
ENDBLK
  5
21
100
AcDbEntity
  8
0
100
AcDbBlockEnd
  0
BLOCK
  5
1C
100
AcDbEntity
  8
0
100
AcDbBlockBegin
  2
*Paper_Space
 70
0
 10
0.0
 20
0.0
 30
0.0
  3
*Paper_Space
  1

  0
ENDBLK
  5
1D
100
AcDbEntity
  8
0
100
AcDbBlockEnd
  0
BLOCK
  5
3C7
100
AcDbEntity
  8
0
100
AcDbBlockBegin
  2
_FILLED
 70
64
 10
0.0
 20
0.0
  3
_FILLED
  1

  0
SOLID
  5
3C8
100
AcDbEntity
  8
0
  6
BYBLOCK
 62
0
100
AcDbTrace
 10
0.0
 20
0.0
 11
-1.0
 21
0.3166666667
 12
-1.0
 22
-0.3166666667
 13
-1.0
 23
-0.3166666667
  0
ENDBLK
  5
3C9
100
AcDbEntity
  8
0
  6
BYBLOCK
 62
0
100
AcDbBlockEnd
  0
ENDSEC
  0
SECTION
  2
ENTITIES
  0
LWPOLYLINE
  5
3CA
100
AcDbEntity
  8
ASSI
100
AcDbPolyline
 62
7
  6
CONTINUOUS
 90
13
 70
0
 10
-8.3989140912
 20
-29.9219147802
 10
-8.3467066698
 20
-29.9462599591
 10
-8.2927268241
 20
-29.9660377593
 10
-8.2367757606
 20
-29.9813020241
 10
-8.179200601
 20
-29.9918905754
 10
-8.1203989179
 20
-29.9976827559
 10
-8.0601395796
 20
-29.9985908455
 10
-7.9986844849
 20
-29.9944208148
 10
-7.9364605756
 20
-29.9850271232
 10
-7.8733575334
 20
-29.9702022098
 10
-7.809491483
 20
-29.9496963253
 10
-7.7453035893
 20
-29.9233452115
 10
-7.7169767624
 20
-29.9098287105
  0
LWPOLYLINE
  5
3CB
100
AcDbEntity
  8
0
100
AcDbPolyline
 62
7
  6
CONTINUOUS
 90
11
 70
0
 10
-8.4259730369
 20
-29.9070625875
 10
-8.36577191
 20
-29.9379952671
 10
-8.2976319003
 20
-29.9644523885
 10
-8.2270234866
 20
-29.9834503758
 10
-8.1535112733
 20
-29.9950296055
 10
-8.0776912495
 20
-29.99884163
 10
-8.000433212
 20
-29.9946098143
 10
-7.9214114341
 20
-29.981977155
 10
-7.8408453282
 20
-29.9604622009
 10
-7.7597052137
 20
-29.9297686233
 10
-7.7171666546
 20
-29.9099228177
  0
LINE
  5
3CC
100
AcDbEntity
  8
ASSI
100
AcDbLine
 62
7
  6
CONTINUOUS
 10
-8.4254417444
 20
-29.9073704629
 11
-8.3989140912
 21
-29.9219147802
  0
LINE
  5
3CD
100
AcDbEntity
  8
ASSI
100
AcDbLine
 62
7
  6
CONTINUOUS
 10
-8.425241027
 20
-29.9074974114
 11
-23.2788445168
 21
-21.3312129158
  0
LINE
  5
3CE
100
AcDbEntity
  8
0
100
AcDbLine
 62
7
  6
CONTINUOUS
 10
-8.425241027
 20
-29.9074974114
 11
-23.2788445168
 21
-21.3312129158
  0
LINE
  5
3CF
100
AcDbEntity
  8
ASSI
100
AcDbLine
 62
250
  6
CONTINUOUS
 10
-8.6335005779
 20
-29.4826808913
 11
-23.4834996755
 21
-20.9084775266
  0
LINE
  5
3D0
100
AcDbEntity
  8
0
100
AcDbLine
 62
250
  6
CONTINUOUS
 10
-8.6335005779
 20
-29.4826808913
 11
-23.4834996755
 21
-20.9084775266
  0
LINE
  5
3D1
100
AcDbEntity
  8
CURVE
100
AcDbLine
 62
250
  6
CONTINUOUS
 10
-10.5594642409
 20
-26.9458163994
 11
-12.7783653197
 21
-25.6646507258
  0
LINE
  5
3D2
100
AcDbEntity
  8
CURVE
100
AcDbLine
 62
250
  6
CONTINUOUS
 10
-14.9400917457
 20
-24.4164969802
 11
-15.5764877729
 21
-24.0490498901
  0
LINE
  5
3D3
100
AcDbEntity
  8
CURVE
100
AcDbLine
 62
250
  6
CONTINUOUS
 10
-12.3655735236
 20
-25.4159995064
 11
-11.0015694075
 21
-26.2035583881
  0
LINE
  5
3D4
100
AcDbEntity
  8
CURVE
100
AcDbLine
 62
250
  6
CONTINUOUS
 10
-11.0246450202
 20
-25.4825623352
 11
-12.3886491364
 21
-24.6950034536
  0
LINE
  5
3D5
100
AcDbEntity
  8
CURVE
100
AcDbLine
 62
250
  6
CONTINUOUS
 10
-15.1685346959
 20
-22.8687808001
 11
-15.4412758287
 21
-22.7113034882
  0
LWPOLYLINE
  5
3D6
100
AcDbEntity
  8
0
100
AcDbPolyline
 62
7
  6
CONTINUOUS
 90
11
 70
0
 10
-23.6299215897
 20
-20.7056242939
 10
-23.6231160602
 20
-20.7888300256
 10
-23.6086933609
 20
-20.8700568877
 10
-23.587257477
 20
-20.9464252602
 10
-23.5594864671
 20
-21.0172869986
 10
-23.5258946842
 20
-21.0827431895
 10
-23.4866012747
 20
-21.1432780088
 10
-23.4422088975
 20
-21.198346197
 10
-23.3932631795
 20
-21.2476501235
 10
-23.3395204627
 20
-21.2915824152
 10
-23.2780154868
 20
-21.3316801533
  0
LWPOLYLINE
  5
3D7
100
AcDbEntity
  8
ASSI
100
AcDbPolyline
 62
7
  6
CONTINUOUS
 90
12
 70
0
 10
-23.6299216986
 20
-20.7056213117
 10
-23.623203812
 20
-20.7881461633
 10
-23.6090214263
 20
-20.8686153164
 10
-23.5879581201
 20
-20.9443270503
 10
-23.5606677567
 20
-21.0146565755
 10
-23.5276481432
 20
-21.0796978526
 10
-23.4890240073
 20
-21.1399141017
 10
-23.4453817148
 20
-21.1947773097
 10
-23.3972502581
 20
-21.2439996682
 10
-23.3444058545
 20
-21.2879623522
 10
-23.2870747586
 20
-21.3263696334
 10
-23.2779938204
 20
-21.3316925888
  0
LINE
  5
3D8
100
AcDbEntity
  8
0
100
AcDbLine
 62
7
  6
CONTINUOUS
 10
-23.7497297599
 20
-17.018561096
 11
-23.629924503
 21
-20.7056402602
  0
LWPOLYLINE
  5
3D9
100
AcDbEntity
  8
0
100
AcDbPolyline
 62
7
  6
CONTINUOUS
 90
8
 70
0
 10
-23.7499020058
 20
9.781840896
 10
-23.8415401222
 20
5.900508647
 10
-23.9026564672
 20
2.0349202982
 10
-23.9332038473
 20
-1.8129069086
 10
-23.9331802033
 20
-5.6426543607
 10
-23.9025847498
 20
-9.4540285403
 10
-23.8414179087
 20
-13.2467129026
 10
-23.7497297599
 20
-17.018561096
  0
LWPOLYLINE
  5
3DA
100
AcDbEntity
  8
ASSI
100
AcDbPolyline
 62
7
  6
CONTINUOUS
 90
10
 70
0
 10
-23.6299519191
 20
13.6174913174
 10
-23.7499540837
 20
9.7801755997
 10
-23.8415852611
 20
5.8982192744
 10
-23.9026718026
 20
2.0336296992
 10
-23.9332050432
 20
-1.8132077437
 10
-23.9331829262
 20
-5.641974691
 10
-23.9026046669
 20
-9.4523778238
 10
-23.8414706853
 20
-13.2441008474
 10
-23.7497880131
 20
-17.0167683178
 10
-23.6299245031
 20
-20.7056402586
  0
LINE
  5
3DB
100
AcDbEntity
  8
0
100
AcDbLine
 62
7
  6
CONTINUOUS
 10
-23.6299519191
 20
13.6174913187
 11
-23.7499020058
 21
9.781840896
  0
LWPOLYLINE
  5
3DC
100
AcDbEntity
  8
ASSI
100
AcDbPolyline
 62
7
  6
CONTINUOUS
 90
16
 70
0
 10
-23.0764610932
 20
14.6046378249
 10
-23.1149354851
 20
14.5780004087
 10
-23.1797272724
 20
14.5270138736
 10
-23.2406408998
 20
14.4713652348
 10
-23.297886666
 20
14.4113076648
 10
-23.3514133234
 20
14.3471600757
 10
-23.4008583215
 20
14.2796389323
 10
-23.4461492617
 20
14.2090243878
 10
-23.4871801418
 20
14.135532393
 10
-23.5235296138
 20
14.0599531073
 10
-23.555050694
 20
13.9824837897
 10
-23.5815599433
 20
13.9033278402
 10
-23.6026576202
 20
13.8231830405
 10
-23.6180771282
 20
13.7422798245
 10
-23.627534007
 20
13.6605598401
 10
-23.6299573628
 20
13.617235512
  0
LWPOLYLINE
  5
3DD
100
AcDbEntity
  8
0
100
AcDbPolyline
 62
7
  6
CONTINUOUS
 90
16
 70
0
 10
-23.0764519766
 20
14.6046438187
 10
-23.1131382356
 20
14.5793028609
 10
-23.1782779697
 20
14.5282433616
 10
-23.2395168921
 20
14.4724654856
 10
-23.2970685971
 20
14.4122246171
 10
-23.3508789213
 20
14.347843451
 10
-23.4005759949
 20
14.2800505016
 10
-23.4460866438
 20
14.2091289226
 10
-23.4873020445
 20
14.1352974865
 10
-23.5237909957
 20
14.059363569
 10
-23.5554048435
 20
13.9815275887
 10
-23.581957877
 20
13.9019953696
 10
-23.6030432878
 20
13.8214796474
 10
-23.6183926972
 20
13.7402148974
 10
-23.627717583
 20
13.6581406561
 10
-23.6299577609
 20
13.6172235625
  0
LINE
  5
3DE
100
AcDbEntity
  8
ASSI
100
AcDbLine
 62
7
  6
CONTINUOUS
 10
-23.0766373209
 20
14.6045401687
 11
-17.4425724699
 21
18.3201529514
  0
LINE
  5
3DF
100
AcDbEntity
  8
0
100
AcDbLine
 62
7
  6
CONTINUOUS
 10
-23.0766373209
 20
14.6045401687
 11
-17.4425724699
 21
18.3201529514
  0
LINE
  5
3E0
100
AcDbEntity
  8
ASSI
100
AcDbLine
 62
250
  6
CONTINUOUS
 10
-22.8198678982
 20
14.5841296852
 11
-17.1844584035
 21
18.3006292478
  0
LINE
  5
3E1
100
AcDbEntity
  8
0
100
AcDbLine
 62
250
  6
CONTINUOUS
 10
-22.8198678982
 20
14.5841296852
 11
-17.1844584035
 21
18.3006292478
  0
LINE
  5
3E2
100
AcDbEntity
  8
CURVE
100
AcDbLine
 62
250
  6
CONTINUOUS
 10
-12.904746519
 20
-21.3159508006
 11
-10.6858454403
 21
-22.5971164741
  0
LINE
  5
3E3
100
AcDbEntity
  8
CURVE
100
AcDbLine
 62
250
  6
CONTINUOUS
 10
-11.4458862809
 20
-21.7494723142
 11
-12.164402785
 21
-21.3346098899
  0
LINE
  5
3E4
100
AcDbEntity
  8
0
100
AcDbLine
 62
7
  6
CONTINUOUS
 10
-13.2890407972
 20
16.0945344915
 11
-12.7233553722
 21
16.4211541662
  0
LINE
  5
3E5
100
AcDbEntity
  8
0
100
AcDbLine
 62
250
  6
CONTINUOUS
 10
-13.267631647
 20
16.1024661993
 11
-12.7019422002
 21
16.4290866562
  0
LINE
  5
3E6
100
AcDbEntity
  8
0
100
AcDbLine
 62
250
  6
CONTINUOUS
 10
-13.2890407972
 20
16.0945344915
 11
-13.2887280023
 21
16.094713969
  0
LINE
  5
3E7
100
AcDbEntity
  8
0
100
AcDbLine
 62
250
  6
CONTINUOUS
 10
-12.8770243807
 20
16.2519734285
 11
-13.0793158986
 21
16.1373085636
  0
LINE
  5
3E8
100
AcDbEntity
  8
0
100
AcDbLine
 62
250
  6
CONTINUOUS
 10
-12.4211572758
 20
16.4484761793
 11
-13.0045334757
 21
16.1177698087
  0
LINE
  5
3E9
100
AcDbEntity
  8
0
100
AcDbLine
 62
7
  6
CONTINUOUS
 10
-12.4938485656
 20
16.5801495467
 11
-12.8046715848
 21
16.4085673896
  0
LINE
  5
3EA
100
AcDbEntity
  8
0
100
AcDbLine
 62
250
  6
CONTINUOUS
 10
-12.4694217786
 20
16.5360147938
 11
-12.6428261488
 21
16.4404081219
  0
LINE
  5
3EB
100
AcDbEntity
  8
0
100
AcDbLine
 62
250
  6
CONTINUOUS
 10
-9.7999629908
 20
18.0078123992
 11
-10.1160128833
 21
17.8335603913
  0
LINE
  5
3EC
100
AcDbEntity
  8
0
100
AcDbLine
 62
7
  6
CONTINUOUS
 10
-8.7583786959
 20
19.0698062556
 11
-11.7280966653
 21
17.436626779
  0
LINE
  5
3ED
100
AcDbEntity
  8
0
100
AcDbLine
 62
7
  6
CONTINUOUS
 10
11.0258153819
 20
29.9988435683
 11
10.9566587685
 21
29.9608568235
  0
LINE
  5
3EE
100
AcDbEntity
  8
0
100
AcDbLine
 62
7
  6
CONTINUOUS
 10
-8.7841506124
 20
19.1167218111
 11
-8.8125153
 21
19.1011403617
  0
LINE
  5
3EF
100
AcDbEntity
  8
0
100
AcDbLine
 62
7
  6
CONTINUOUS
 10
-8.8134930343
 20
19.1029205579
 11
-13.815714108
 21
16.3555585119
  0
LINE
  5
3F0
100
AcDbEntity
  8
0
100
AcDbLine
 62
7
  6
CONTINUOUS
 10
-12.8059977989
 20
16.5720720508
 11
-13.3256931254
 21
16.2874942626
  0
LINE
  5
3F1
100
AcDbEntity
  8
ASSI
100
AcDbLine
 62
250
  6
CONTINUOUS
 10
-12.447274108
 20
-16.1564105369
 11
-17.1848895419
 21
-13.4209707616
  0
LINE
  5
3F2
100
AcDbEntity
  8
0
100
AcDbLine
 62
250
  6
CONTINUOUS
 10
-12.447274108
 20
-16.1564105369
 11
-17.1848895419
 21
-13.4209707616
  0
LINE
  5
3F3
100
AcDbEntity
  8
ASSI
100
AcDbLine
 62
7
  6
CONTINUOUS
 10
-18.5825225431
 20
-4.1847068022
 11
-18.5825225431
 21
-0.3566666925
  0
LINE
  5
3F4
100
AcDbEntity
  8
0
100
AcDbLine
 62
7
  6
CONTINUOUS
 10
-18.5825225431
 20
-4.1847068022
 11
-18.5825225431
 21
-0.3566666925
  0
LINE
  5
3F5
100
AcDbEntity
  8
ASSI
100
AcDbLine
 62
7
  6
CONTINUOUS
 10
-17.660193998
 20
-0.889207635
 11
-17.660193998
 21
-3.6521640311
  0
LINE
  5
3F6
100
AcDbEntity
  8
0
100
AcDbLine
 62
7
  6
CONTINUOUS
 10
-17.660193998
 20
-0.889207635
 11
-17.660193998
 21
-3.6521640311
  0
LINE
  5
3F7
100
AcDbEntity
  8
0
100
AcDbLine
 62
7
  6
CONTINUOUS
 10
-9.2292379905
 20
17.814692568
 11
-10.688242782
 21
16.9722785946
  0
LINE
  5
3F8
100
AcDbEntity
  8
ASSI
100
AcDbLine
 62
7
  6
CONTINUOUS
 10
-9.3710066965
 20
16.6266723452
 11
-9.7316679188
 21
16.4266383206
  0
LINE
  5
3F9
100
AcDbEntity
  8
0
100
AcDbLine
 62
7
  6
CONTINUOUS
 10
-9.3710066965
 20
16.6266723452
 11
-9.7316679188
 21
16.4266383206
  0
LINE
  5
3FA
100
AcDbEntity
  8
ASSI
100
AcDbLine
 62
7
  6
CONTINUOUS
 10
-9.9327695943
 20
16.9510507288
 11
-10.3079412794
 21
16.7526972733
  0
LINE
  5
3FB
100
AcDbEntity
  8
0
100
AcDbLine
 62
7
  6
CONTINUOUS
 10
-9.9327695943
 20
16.9510507288
 11
-10.3079412794
 21
16.7526972733
  0
LINE
  5
3FC
100
AcDbEntity
  8
0
100
AcDbLine
 62
7
  6
CONTINUOUS
 10
-9.2292379905
 20
16.9162078433
 11
-9.5731090458
 21
16.7433721729
  0
LINE
  5
3FD
100
AcDbEntity
  8
0
100
AcDbLine
 62
7
  6
CONTINUOUS
 10
-7.4243296266
 20
17.5233246955
 11
-7.8857351063
 21
17.3410443463
  0
LINE
  5
3FE
100
AcDbEntity
  8
0
100
AcDbLine
 62
7
  6
CONTINUOUS
 10
-13.3256931254
 20
16.2874942626
 11
-13.3430976184
 21
16.282488618
  0
LINE
  5
3FF
100
AcDbEntity
  8
ASSI
100
AcDbLine
 62
250
  6
CONTINUOUS
 10
-12.2388650812
 20
-15.7877445697
 11
-16.9764805151
 21
-13.0523047944
  0
LINE
  5
400
100
AcDbEntity
  8
0
100
AcDbLine
 62
250
  6
CONTINUOUS
 10
-12.2388650812
 20
-15.7877445697
 11
-16.9764805151
 21
-13.0523047944
  0
LINE
  5
401
100
AcDbEntity
  8
ASSI
100
AcDbLine
 62
7
  6
CONTINUOUS
 10
-11.2497642096
 20
-14.7335805645
 11
-15.5931990212
 21
-12.2257357403
  0
LINE
  5
402
100
AcDbEntity
  8
0
100
AcDbLine
 62
7
  6
CONTINUOUS
 10
-11.2497642096
 20
-14.7335805645
 11
-15.5931990212
 21
-12.2257357403
  0
LINE
  5
403
100
AcDbEntity
  8
CURVE
100
AcDbLine
 62
250
  6
CONTINUOUS
 10
-15.9867582082
 20
-22.3963487988
 11
-15.9401427056
 21
-23.8390800767
  0
LINE
  5
404
100
AcDbEntity
  8
CURVE
100
AcDbLine
 62
250
  6
CONTINUOUS
 10
-14.9738570189
 20
-23.3862451021
 11
-14.980328977
 21
-23.180032442
  0
LINE
  5
405
100
AcDbEntity
  8
ASSI
100
AcDbLine
 62
7
  6
CONTINUOUS
 10
-16.6624990093
 20
-10.3736538342
 11
-16.6624990093
 21
-10.1055464084
  0
LINE
  5
406
100
AcDbEntity
  8
0
100
AcDbLine
 62
7
  6
CONTINUOUS
 10
-16.6624990093
 20
-10.3736538342
 11
-16.6624990093
 21
-10.1055464084
  0
LINE
  5
407
100
AcDbEntity
  8
0
100
AcDbLine
 62
7
  6
CONTINUOUS
 10
14.7562005845
 20
26.2147103051
 11
5.5453266708
 21
20.9214908898
  0
LINE
  5
408
100
AcDbEntity
  8
0
100
AcDbLine
 62
7
  6
CONTINUOUS
 10
14.3778718627
 20
28.0634081674
 11
-3.0541245182
 21
18.2693071378
  0
LINE
  5
409
100
AcDbEntity
  8
ASSI
100
AcDbLine
 62
7
  6
CONTINUOUS
 10
-6.3879016532
 20
14.9042648803
 11
-6.7469090749
 21
14.7032759719
  0
LINE
  5
40A
100
AcDbEntity
  8
0
100
AcDbLine
 62
7
  6
CONTINUOUS
 10
-6.3879016532
 20
14.9042648803
 11
-6.7469090749
 21
14.7032759719
  0
LINE
  5
40B
100
AcDbEntity
  8
0
100
AcDbLine
 62
7
  6
CONTINUOUS
 10
-1.1954722204
 20
17.1961445954
 11
16.3782841269
 21
26.9083951971
  0
LINE
  5
40C
100
AcDbEntity
  8
0
100
AcDbLine
 62
7
  6
CONTINUOUS
 10
-4.4209118785
 20
15.0384253334
 11
-5.931755568
 21
14.22594249
  0
LINE
  5
40D
100
AcDbEntity
  8
0
100
AcDbLine
 62
7
  6
CONTINUOUS
 10
-2.327385981
 20
15.3565899252
 11
-3.1859745768
 21
15.0761516089
  0
LINE
  5
40E
100
AcDbEntity
  8
ASSI
100
AcDbLine
 62
7
  6
CONTINUOUS
 10
-17.201923517
 20
-9.795357654
 11
-17.1533944869
 21
-9.8221094842
  0
LINE
  5
40F
100
AcDbEntity
  8
0
100
AcDbLine
 62
7
  6
CONTINUOUS
 10
-17.2015008044
 20
-9.7955906761
 11
-17.153398619
 21
-9.8221070945
  0
LINE
  5
410
100
AcDbEntity
  8
ASSI
100
AcDbLine
 62
7
  6
CONTINUOUS
 10
-17.1533344829
 20
-9.8221441575
 11
-12.4157190499
 21
-12.5575839323
  0
LINE
  5
411
100
AcDbEntity
  8
0
100
AcDbLine
 62
7
  6
CONTINUOUS
 10
-17.1533344829
 20
-9.8221441575
 11
-12.4157190499
 21
-12.5575839323
  0
LINE
  5
412
100
AcDbEntity
  8
ASSI
100
AcDbLine
 62
250
  6
CONTINUOUS
 10
-17.2154568165
 20
-9.6859995406
 11
-12.4778413826
 21
-12.4214393159
  0
LINE
  5
413
100
AcDbEntity
  8
0
100
AcDbLine
 62
250
  6
CONTINUOUS
 10
-17.2154568165
 20
-9.6859995406
 11
-12.4778413826
 21
-12.4214393159
  0
LINE
  5
414
100
AcDbEntity
  8
0
100
AcDbLine
 62
7
  6
CONTINUOUS
 10
-12.4156264795
 20
-12.5576373153
 11
-12.3985237666
 21
-12.5676967663
  0
LWPOLYLINE
  5
415
100
AcDbEntity
  8
ASSI
100
AcDbPolyline
 62
7
  6
CONTINUOUS
 90
24
 70
0
 10
-12.4156316101
 20
-12.5576343601
 10
-12.3957019127
 20
-12.5693565103
 10
-12.3211129763
 20
-12.6169428578
 10
-12.2451456165
 20
-12.6713916298
 10
-12.168254722
 20
-12.7327073603
 10
-12.0911628774
 20
-12.8006400284
 10
-12.014775817
 20
-12.874604682
 10
-11.93963825
 20
-12.954222372
 10
-11.8662177911
 20
-13.0391527127
 10
-11.795207176
 20
-13.1286973924
 10
-11.7271147588
 20
-13.2222540497
 10
-11.6623098773
 20
-13.3193603553
 10
-11.6012008536
 20
-13.4194418484
 10
-11.5441457213
 20
-13.521901703
 10
-11.4914810653
 20
-13.6261249271
 10
-11.4435215381
 20
-13.7314691445
 10
-11.4004788485
 20
-13.8373989516
 10
-11.3626204933
 20
-13.9431640222
 10
-11.3302317383
 20
-14.0477693664
 10
-11.3033756003
 20
-14.1506480558
 10
-11.2821057959
 20
-14.251145727
 10
-11.2664902163
 20
-14.348145883
 10
-11.2563878225
 20
-14.4408776867
 10
-11.2515597751
 20
-14.5289579946
  0
LWPOLYLINE
  5
416
100
AcDbEntity
  8
0
100
AcDbPolyline
 62
7
  6
CONTINUOUS
 90
23
 70
0
 10
-12.3985237666
 20
-12.5676967663
 10
-12.3243780396
 20
-12.614737883
 10
-12.2481521133
 20
-12.6691217638
 10
-12.1709618402
 20
-12.7304407851
 10
-12.0935410957
 20
-12.7984452443
 10
-12.0168122519
 20
-12.8725437478
 10
-11.941327659
 20
-12.9523535953
 10
-11.8675606969
 20
-13.0375319041
 10
-11.7962150111
 20
-13.127371677
 10
-11.7278062102
 20
-13.221262599
 10
-11.6627076394
 20
-13.3187376128
 10
-11.601332514
 20
-13.4192161916
 10
-11.5440434782
 20
-13.5220943216
 10
-11.4911812981
 20
-13.6267494866
 10
-11.4430639699
 20
-13.7325321817
 10
-11.399905265
 20
-13.8389014686
 10
-11.361976387
 20
-13.9450964626
 10
-11.3295658524
 20
-14.0501073768
 10
-11.3027358222
 20
-14.1533615063
 10
-11.2815397018
 20
-14.2541958498
 10
-11.266043714
 20
-14.3514749414
 10
-11.2561010422
 20
-14.4444173505
 10
-11.2515117025
 20
-14.5317827394
  0
LINE
  5
417
100
AcDbEntity
  8
CURVE
100
AcDbLine
 62
250
  6
CONTINUOUS
 10
-12.3886491364
 20
-24.6950034536
 11
-12.3655735241
 21
-25.4159994925
  0
LINE
  5
418
100
AcDbEntity
  8
CURVE
100
AcDbLine
 62
250
  6
CONTINUOUS
 10
-12.164402785
 20
-21.3346098899
 11
-12.1560147164
 21
-21.6886323872
  0
LINE
  5
419
100
AcDbEntity
  8
0
100
AcDbLine
 62
7
  6
CONTINUOUS
 10
-13.3890359652
 20
15.9114221266
 11
-13.3890359652
 21
15.9213322006
  0
LINE
  5
41A
100
AcDbEntity
  8
0
100
AcDbLine
 62
250
  6
CONTINUOUS
 10
-13.3304573214
 20
15.829767208
 11
-13.3304573214
 21
15.839677282
  0
LINE
  5
41B
100
AcDbEntity
  8
0
100
AcDbLine
 62
7
  6
CONTINUOUS
 10
-3.1859745768
 20
15.0761516089
 11
-3.5016730629
 21
14.8097418677
  0
LINE
  5
41C
100
AcDbEntity
  8
0
100
AcDbLine
 62
7
  6
CONTINUOUS
 10
-2.0235157078
 20
15.1811807739
 11
-3.5016730629
 21
13.9704691242
  0
LINE
  5
41D
100
AcDbEntity
  8
0
100
AcDbLine
 62
250
  6
CONTINUOUS
 10
-6.8318508019
 20
13.1667905838
 11
-6.8086391166
 21
13.1814209914
  0
LINE
  5
41E
100
AcDbEntity
  8
0
100
AcDbLine
 62
250
  6
CONTINUOUS
 10
-6.6050619183
 20
12.9088243933
 11
-7.1707433214
 21
12.5821992921
  0
LINE
  5
41F
100
AcDbEntity
  8
0
100
AcDbLine
 62
250
  6
CONTINUOUS
 10
-6.542232222
 20
12.7367903727
 11
-7.107917647
 21
12.410170698
  0
LINE
  5
420
100
AcDbEntity
  8
0
100
AcDbLine
 62
7
  6
CONTINUOUS
 10
17.443206353
 20
24.6632668504
 11
8.2323324393
 21
19.3700474352
  0
LINE
  5
421
100
AcDbEntity
  8
0
100
AcDbLine
 62
250
  6
CONTINUOUS
 10
-4.7885720499
 20
14.0442406014
 11
-3.8501868782
 21
14.57248624
  0
LINE
  5
422
100
AcDbEntity
  8
0
100
AcDbLine
 62
7
  6
CONTINUOUS
 10
17.0648776312
 20
26.5119647128
 11
-0.3671187497
 21
16.7178636832
  0
LINE
  5
423
100
AcDbEntity
  8
0
100
AcDbLine
 62
250
  6
CONTINUOUS
 10
-6.6909026438
 20
12.3180631593
 11
-6.542232222
 21
12.4009071864
  0
LINE
  5
424
100
AcDbEntity
  8
0
100
AcDbLine
 62
7
  6
CONTINUOUS
 10
-6.7349715848
 20
12.2250111599
 11
-6.5845405781
 21
12.3088362424
  0
LINE
  5
425
100
AcDbEntity
  8
0
100
AcDbLine
 62
7
  6
CONTINUOUS
 10
1.4915335481
 20
15.6447011408
 11
19.0652898954
 21
25.3569517425
  0
LINE
  5
426
100
AcDbEntity
  8
ASSI
100
AcDbLine
 62
250
  6
CONTINUOUS
 10
-10.2741912316
 20
-10.6887702031
 11
-19.4249643668
 21
-5.4052284809
  0
LINE
  5
427
100
AcDbEntity
  8
0
100
AcDbLine
 62
250
  6
CONTINUOUS
 10
-10.2741912316
 20
-10.6887702031
 11
-19.4249643668
 21
-5.4052284809
  0
LINE
  5
428
100
AcDbEntity
  8
ASSI
100
AcDbLine
 62
250
  6
CONTINUOUS
 10
-10.0657621072
 20
-10.3241492507
 11
-19.2165353599
 21
-5.0406074607
  0
LINE
  5
429
100
AcDbEntity
  8
0
100
AcDbLine
 62
250
  6
CONTINUOUS
 10
-10.0657621072
 20
-10.3241492507
 11
-19.2165353599
 21
-5.0406074607
  0
LINE
  5
42A
100
AcDbEntity
  8
ASSI
100
AcDbLine
 62
7
  6
CONTINUOUS
 10
-9.9328033702
 20
-9.4238500235
 11
-18.3704228175
 21
-4.5520743028
  0
LINE
  5
42B
100
AcDbEntity
  8
0
100
AcDbLine
 62
7
  6
CONTINUOUS
 10
-9.9328033702
 20
-9.4238500235
 11
-18.3704228175
 21
-4.5520743028
  0
LINE
  5
42C
100
AcDbEntity
  8
CURVE
100
AcDbLine
 62
250
  6
CONTINUOUS
 10
-11.0015694075
 20
-26.2035583881
 11
-11.0246450198
 21
-25.4825623492
  0
LINE
  5
42D
100
AcDbEntity
  8
CURVE
100
AcDbLine
 62
250
  6
CONTINUOUS
 10
-11.4374982122
 20
-22.103494817
 11
-11.4458862808
 21
-21.7494723196
  0
LINE
  5
42E
100
AcDbEntity
  8
0
100
AcDbLine
 62
7
  6
CONTINUOUS
 10
-11.2515117025
 20
-14.5317827394
 11
-11.2510834695
 21
-14.5569419611
  0
LINE
  5
42F
100
AcDbEntity
  8
ASSI
100
AcDbLine
 62
7
  6
CONTINUOUS
 10
-11.2515597751
 20
-14.5289579946
 11
-11.251083432
 21
-14.5569479387
  0
LINE
  5
430
100
AcDbEntity
  8
ASSI
100
AcDbLine
 62
7
  6
CONTINUOUS
 10
-11.2510827592
 20
-14.5570471509
 11
-11.2451975292
 21
-15.2888180687
  0
LINE
  5
431
100
AcDbEntity
  8
0
100
AcDbLine
 62
7
  6
CONTINUOUS
 10
-11.2510827592
 20
-14.5570471509
 11
-11.2451975292
 21
-15.2888180687
  0
LINE
  5
432
100
AcDbEntity
  8
ASSI
100
AcDbLine
 62
7
  6
CONTINUOUS
 10
-9.9348250461
 20
-9.8535784053
 11
-9.936541395
 21
-10.32026222
  0
LINE
  5
433
100
AcDbEntity
  8
0
100
AcDbLine
 62
7
  6
CONTINUOUS
 10
-9.9348313967
 20
-9.8553051844
 11
-9.936541395
 21
-10.32026222
  0
LINE
  5
434
100
AcDbEntity
  8
ASSI
100
AcDbLine
 62
7
  6
CONTINUOUS
 10
-11.2451968196
 20
-15.2888952494
 11
-11.2457627751
 21
-15.3422093233
  0
LINE
  5
435
100
AcDbEntity
  8
0
100
AcDbLine
 62
7
  6
CONTINUOUS
 10
-11.2451967684
 20
-15.2889005842
 11
-11.2457627751
 21
-15.3422093233
  0
LWPOLYLINE
  5
436
100
AcDbEntity
  8
0
100
AcDbPolyline
 62
7
  6
CONTINUOUS
 90
11
 70
0
 10
-11.2457627751
 20
-15.3422093233
 10
-11.2495550708
 20
-15.4094539302
 10
-11.2569609983
 20
-15.4747139422
 10
-11.2680269141
 20
-15.5371301753
 10
-11.2827327347
 20
-15.5959481067
 10
-11.300820489
 20
-15.6501794348
 10
-11.3219615998
 20
-15.6992543888
 10
-11.3459052653
 20
-15.7429969243
 10
-11.3723196161
 20
-15.7812024693
 10
-11.4008958956
 20
-15.8138791169
 10
-11.4314465994
 20
-15.8411909315
  0
LWPOLYLINE
  5
437
100
AcDbEntity
  8
ASSI
100
AcDbPolyline
 62
7
  6
CONTINUOUS
 90
11
 70
0
 10
-11.2457684024
 20
-15.3427394277
 10
-11.2496202119
 20
-15.4102250213
 10
-11.2570511057
 20
-15.4753369356
 10
-11.2681292211
 20
-15.5376113161
 10
-11.2828341811
 20
-15.5962971635
 10
-11.3009086515
 20
-15.6504111148
 10
-11.3220257108
 20
-15.6993861616
 10
-11.3459359945
 20
-15.7430468237
 10
-11.37230908
 20
-15.7811889154
 10
-11.4008376242
 20
-15.8138200875
 10
-11.4313350053
 20
-15.8411033714
  0
LINE
  5
438
100
AcDbEntity
  8
0
100
AcDbLine
 62
7
  6
CONTINUOUS
 10
20.1302121215
 20
23.1118233958
 11
10.9193382078
 21
17.8186039805
  0
LINE
  5
439
100
AcDbEntity
  8
0
100
AcDbLine
 62
7
  6
CONTINUOUS
 10
1.0095117086
 20
13.4299487564
 11
-1.9220532036
 21
11.7747401828
  0
LINE
  5
43A
100
AcDbEntity
  8
0
100
AcDbLine
 62
7
  6
CONTINUOUS
 10
19.7518833997
 20
24.9605212581
 11
2.3198870188
 21
15.1664202285
  0
LINE
  5
43B
100
AcDbEntity
  8
0
100
AcDbLine
 62
7
  6
CONTINUOUS
 10
4.1785393166
 20
14.0932576861
 11
21.7522956639
 21
23.8055082878
  0
LINE
  5
43C
100
AcDbEntity
  8
ASSI
100
AcDbLine
 62
7
  6
CONTINUOUS
 10
-17.4480942723
 20
-4.0195315318
 11
-9.9262839574
 21
-8.3625305372
  0
LINE
  5
43D
100
AcDbEntity
  8
0
100
AcDbLine
 62
7
  6
CONTINUOUS
 10
-17.4480942723
 20
-4.0195315318
 11
-9.9262839574
 21
-8.3625305372
  0
LINE
  5
43E
100
AcDbEntity
  8
0
100
AcDbLine
 62
7
  6
CONTINUOUS
 10
-9.2292379905
 20
17.814692568
 11
-9.2292379905
 21
16.5448168711
  0
LINE
  5
43F
100
AcDbEntity
  8
0
100
AcDbLine
 62
7
  6
CONTINUOUS
 10
-7.8857351063
 20
17.3410443463
 11
-7.8857351063
 21
16.5017716028
  0
LINE
  5
440
100
AcDbEntity
  8
0
100
AcDbLine
 62
250
  6
CONTINUOUS
 10
-7.3907603594
 20
12.410170698
 11
-7.3907603594
 21
12.400260624
  0
LINE
  5
441
100
AcDbEntity
  8
0
100
AcDbLine
 62
7
  6
CONTINUOUS
 10
-9.9256494424
 20
-8.2703359333
 11
-9.9348313967
 21
-9.8553051844
  0
LINE
  5
442
100
AcDbEntity
  8
ASSI
100
AcDbLine
 62
7
  6
CONTINUOUS
 10
-9.9256472032
 20
-8.2700344485
 11
-9.9348250461
 21
-9.8535784053
  0
LINE
  5
443
100
AcDbEntity
  8
ASSI
100
AcDbLine
 62
250
  6
CONTINUOUS
 10
-8.2362142774
 20
-9.3207759753
 11
-8.22272758
 21
-7.6751516776
  0
LINE
  5
444
100
AcDbEntity
  8
0
100
AcDbLine
 62
250
  6
CONTINUOUS
 10
-8.2362142774
 20
-9.3207759753
 11
-8.22272758
 21
-7.6751516776
  0
LINE
  5
445
100
AcDbEntity
  8
ASSI
100
AcDbLine
 62
250
  6
CONTINUOUS
 10
-8.2397013158
 20
-9.322689458
 11
-8.2307448476
 21
-8.20631452
  0
LINE
  5
446
100
AcDbEntity
  8
0
100
AcDbLine
 62
250
  6
CONTINUOUS
 10
-8.2397013158
 20
-9.322689458
 11
-8.2307448476
 21
-8.20631452
  0
LINE
  5
447
100
AcDbEntity
  8
ASSI
100
AcDbLine
 62
250
  6
CONTINUOUS
 10
-8.2307448476
 20
-8.20631452
 11
-8.2255676683
 21
-7.6766971994
  0
LINE
  5
448
100
AcDbEntity
  8
0
100
AcDbLine
 62
250
  6
CONTINUOUS
 10
-8.2307448476
 20
-8.20631452
 11
-8.2255676683
 21
-7.6766971994
  0
LINE
  5
449
100
AcDbEntity
  8
ASSI
100
AcDbLine
 62
7
  6
CONTINUOUS
 10
-9.9112786935
 20
-6.6834458826
 11
-9.9256472032
 21
-8.2700344485
  0
LINE
  5
44A
100
AcDbEntity
  8
0
100
AcDbLine
 62
7
  6
CONTINUOUS
 10
-9.9112502661
 20
-6.6807852601
 11
-9.9256494424
 21
-8.2703359333
  0
LINE
  5
44B
100
AcDbEntity
  8
ASSI
100
AcDbLine
 62
7
  6
CONTINUOUS
 10
-9.8996633658
 20
-5.6903528663
 11
-9.9112786935
 21
-6.6834458826
  0
LINE
  5
44C
100
AcDbEntity
  8
0
100
AcDbLine
 62
7
  6
CONTINUOUS
 10
-9.8996633658
 20
-5.6903528663
 11
-9.9112502661
 21
-6.6807852601
  0
LINE
  5
44D
100
AcDbEntity
  8
ASSI
100
AcDbLine
 62
7
  6
CONTINUOUS
 10
-9.9365415454
 20
-10.3203134269
 11
-9.9368296066
 21
-10.3315447281
  0
LINE
  5
44E
100
AcDbEntity
  8
0
100
AcDbLine
 62
7
  6
CONTINUOUS
 10
-9.9365416252
 20
-10.3203450821
 11
-9.9370948414
 21
-10.3360120288
  0
LINE
  5
44F
100
AcDbEntity
  8
ASSI
100
AcDbLine
 62
7
  6
CONTINUOUS
 10
-9.9368296066
 20
-10.3315447281
 11
-9.9377752521
 21
-10.3435852227
  0
LINE
  5
450
100
AcDbEntity
  8
0
100
AcDbLine
 62
7
  6
CONTINUOUS
 10
-9.9370948414
 20
-10.3360120288
 11
-9.9387026776
 21
-10.3505730541
  0
LINE
  5
451
100
AcDbEntity
  8
ASSI
100
AcDbLine
 62
7
  6
CONTINUOUS
 10
-9.9377752521
 20
-10.3435852227
 11
-9.93892666
 21
-10.3516921939
  0
LINE
  5
452
100
AcDbEntity
  8
0
100
AcDbLine
 62
7
  6
CONTINUOUS
 10
-9.9387026776
 20
-10.3505730541
 11
-9.9406515337
 21
-10.3603106142
  0
LINE
  5
453
100
AcDbEntity
  8
ASSI
100
AcDbLine
 62
7
  6
CONTINUOUS
 10
-9.939136075
 20
-10.3531666678
 11
-9.9406325857
 21
-10.3602435261
  0
LINE
  5
454
100
AcDbEntity
  8
ASSI
100
AcDbLine
 62
250
  6
CONTINUOUS
 10
-7.9581830773
 20
6.0031791302
 11
-2.1225457149
 21
9.6040696316
  0
LINE
  5
455
100
AcDbEntity
  8
0
100
AcDbLine
 62
250
  6
CONTINUOUS
 10
-7.9581830773
 20
6.0031791302
 11
-2.1225457149
 21
9.6040696316
  0
LINE
  5
456
100
AcDbEntity
  8
ASSI
100
AcDbLine
 62
250
  6
CONTINUOUS
 10
-7.5923503373
 20
5.3985182919
 11
-1.769261449
 21
8.9916657348
  0
LINE
  5
457
100
AcDbEntity
  8
0
100
AcDbLine
 62
250
  6
CONTINUOUS
 10
-7.5923503373
 20
5.3985182919
 11
-1.769261449
 21
8.9916657348
  0
LINE
  5
458
100
AcDbEntity
  8
0
100
AcDbLine
 62
7
  6
CONTINUOUS
 10
2.5750573825
 20
12.6904106904
 11
2.4312568816
 21
12.6091272216
  0
LINE
  5
459
100
AcDbEntity
  8
ASSI
100
AcDbLine
 62
250
  6
CONTINUOUS
 10
-19.2499346798
 20
0.0286887105
 11
-19.3891059424
 21
-0.0461530907
  0
LINE
  5
45A
100
AcDbEntity
  8
0
100
AcDbLine
 62
250
  6
CONTINUOUS
 10
-19.2499346798
 20
0.0286887105
 11
-19.3891059424
 21
-0.0461530907
  0
LINE
  5
45B
100
AcDbEntity
  8
0
100
AcDbLine
 62
7
  6
CONTINUOUS
 10
-19.3418813964
 20
0.0796504234
 11
-19.3283160586
 21
0.0735136566
  0
LINE
  5
45C
100
AcDbEntity
  8
ASSI
100
AcDbLine
 62
7
  6
CONTINUOUS
 10
-19.335390077
 20
0.0768897262
 11
-19.324417341
 21
0.0715033172
  0
LINE
  5
45D
100
AcDbEntity
  8
0
100
AcDbLine
 62
7
  6
CONTINUOUS
 10
-19.3283160586
 20
0.0735136566
 11
-19.3166765219
 21
0.0672247212
  0
LINE
  5
45E
100
AcDbEntity
  8
ASSI
100
AcDbLine
 62
7
  6
CONTINUOUS
 10
-19.324417341
 20
0.0715033172
 11
-19.3166300532
 21
0.0671978228
  0
LINE
  5
45F
100
AcDbEntity
  8
ASSI
100
AcDbLine
 62
7
  6
CONTINUOUS
 10
-19.3165583724
 20
0.0671563957
 11
-10.1673731143
 21
-5.2154685062
  0
LINE
  5
460
100
AcDbEntity
  8
0
100
AcDbLine
 62
7
  6
CONTINUOUS
 10
-19.3165583724
 20
0.0671563957
 11
-10.1673731143
 21
-5.2154685062
  0
LINE
  5
461
100
AcDbEntity
  8
ASSI
100
AcDbLine
 62
250
  6
CONTINUOUS
 10
-19.3786550325
 20
0.2084734707
 11
-10.2294700127
 21
-5.0741512935
  0
LINE
  5
462
100
AcDbEntity
  8
0
100
AcDbLine
 62
250
  6
CONTINUOUS
 10
-19.3786550325
 20
0.2084734707
 11
-10.2294700127
 21
-5.0741512935
  0
LINE
  5
463
100
AcDbEntity
  8
ASSI
100
AcDbLine
 62
7
  6
CONTINUOUS
 10
-10.1673699104
 20
-5.215470356
 11
-10.1648854726
 21
-5.2169235374
  0
LWPOLYLINE
  5
464
100
AcDbEntity
  8
0
100
AcDbPolyline
 62
7
  6
CONTINUOUS
 90
20
 70
0
 10
-10.1673791742
 20
-5.215465007
 10
-10.1508613113
 20
-5.2257874301
 10
-10.1320888768
 20
-5.2393101028
 10
-10.1117441129
 20
-5.2560080866
 10
-10.0902647365
 20
-5.27591503
 10
-10.0680719303
 20
-5.2990139611
 10
-10.0458349574
 20
-5.3249253883
 10
-10.023958644
 20
-5.3534230297
 10
-10.0028628145
 20
-5.3841863283
 10
-9.9831265466
 20
-5.416514935
 10
-9.9650523455
 20
-5.4499473318
 10
-9.9489020722
 20
-5.4839955911
 10
-9.9350141403
 20
-5.5178142375
 10
-9.9234764699
 20
-5.5508769972
 10
-9.9143108424
 20
-5.5826986039
 10
-9.907542509
 20
-5.6124790305
 10
-9.903000743
 20
-5.6398225923
 10
-9.9004652043
 20
-5.6643424261
 10
-9.8996452904
 20
-5.6853638308
 10
-9.8996632251
 20
-5.6903418413
  0
LWPOLYLINE
  5
465
100
AcDbEntity
  8
ASSI
100
AcDbPolyline
 62
7
  6
CONTINUOUS
 90
20
 70
0
 10
-10.1648854726
 20
-5.2169235374
 10
-10.1483231262
 20
-5.2275073222
 10
-10.1296229618
 20
-5.2412220763
 10
-10.1094585876
 20
-5.2580147771
 10
-10.0882445999
 20
-5.2779092545
 10
-10.0663866823
 20
-5.3008776032
 10
-10.0445235958
 20
-5.3265458689
 10
-10.0230407239
 20
-5.3546903781
 10
-10.0023346199
 20
-5.3850034244
 10
-9.9829522696
 20
-5.4168182032
 10
-9.9651803292
 20
-5.4496950812
 10
-9.9492676664
 20
-5.4831699892
 10
-9.935536782
 20
-5.5164414702
 10
-9.9240738298
 20
-5.5490103111
 10
-9.9149044769
 20
-5.5804114197
 10
-9.908060516
 20
-5.6098785259
 10
-9.9033860327
 20
-5.6370278186
 10
-9.9006781793
 20
-5.6614891018
 10
-9.8996724635
 20
-5.6826166347
 10
-9.8996631321
 20
-5.6903346093
  0
LINE
  5
466
100
AcDbEntity
  8
0
100
AcDbLine
 62
250
  6
CONTINUOUS
 10
-7.107917647
 20
12.410170698
 11
-7.107917647
 21
12.400260624
  0
LINE
  5
467
100
AcDbEntity
  8
0
100
AcDbLine
 62
7
  6
CONTINUOUS
 10
-6.542232222
 20
12.4009071864
 11
-6.542232222
 21
12.7367903727
  0
LINE
  5
468
100
AcDbEntity
  8
ASSI
100
AcDbLine
 62
7
  6
CONTINUOUS
 10
-9.9406325857
 20
-10.3602435261
 11
-9.9416897421
 21
-10.3639865385
  0
LINE
  5
469
100
AcDbEntity
  8
0
100
AcDbLine
 62
7
  6
CONTINUOUS
 10
-9.9406515337
 20
-10.3603106142
 11
-9.9422990044
 21
-10.3657727922
  0
LINE
  5
46A
100
AcDbEntity
  8
0
100
AcDbLine
 62
250
  6
CONTINUOUS
 10
-0.0702934085
 20
6.645626912
 11
-1.769261449
 21
5.6406101622
  0
LINE
  5
46B
100
AcDbEntity
  8
ASSI
100
AcDbLine
 62
250
  6
CONTINUOUS
 10
-19.427270758
 20
-4.672452217
 11
-17.660193998
 21
-3.6521640311
  0
LINE
  5
46C
100
AcDbEntity
  8
0
100
AcDbLine
 62
250
  6
CONTINUOUS
 10
-19.427270758
 20
-4.672452217
 11
-17.660193998
 21
-3.6521640311
  0
LINE
  5
46D
100
AcDbEntity
  8
ASSI
100
AcDbLine
 62
250
  6
CONTINUOUS
 10
-19.2165353599
 20
-5.0406074607
 11
-17.4480942723
 21
-4.0195315318
  0
LINE
  5
46E
100
AcDbEntity
  8
0
100
AcDbLine
 62
250
  6
CONTINUOUS
 10
-19.2165353599
 20
-5.0406074607
 11
-17.4480942723
 21
-4.0195315318
  0
LINE
  5
46F
100
AcDbEntity
  8
0
100
AcDbLine
 62
7
  6
CONTINUOUS
 10
-19.3515219906
 20
0.0830139517
 11
-19.3430091318
 21
0.0800438815
  0
LINE
  5
470
100
AcDbEntity
  8
ASSI
100
AcDbLine
 62
7
  6
CONTINUOUS
 10
-19.344462137
 20
0.0806454002
 11
-19.335390077
 21
0.0768897262
  0
LINE
  5
471
100
AcDbEntity
  8
0
100
AcDbLine
 62
250
  6
CONTINUOUS
 10
6.7424588188
 20
-14.8843375663
 11
6.0175821557
 21
-14.2482744065
  0
LINE
  5
472
100
AcDbEntity
  8
0
100
AcDbLine
 62
7
  6
CONTINUOUS
 10
-3.5016730629
 20
14.8097418677
 11
-3.5016730629
 21
13.9704691242
  0
LINE
  5
473
100
AcDbEntity
  8
ASSI
100
AcDbLine
 62
7
  6
CONTINUOUS
 10
23.9370134482
 20
18.4492628384
 11
19.2693613421
 21
15.6105936553
  0
LINE
  5
474
100
AcDbEntity
  8
0
100
AcDbLine
 62
7
  6
CONTINUOUS
 10
18.0754575063
 20
14.1461107306
 11
6.7424588188
 21
7.2849975865
  0
LINE
  5
475
100
AcDbEntity
  8
IMPORT_IGES
100
AcDbLine
 62
7
  6
CONTINUOUS
 10
-15.9676042704
 20
-4.874347904
 11
-13.3628887673
 21
-3.3704178173
  0
LINE
  5
476
100
AcDbEntity
  8
0
100
AcDbLine
 62
7
  6
CONTINUOUS
 10
17.1992595822
 20
12.8260735443
 11
6.0802869767
 21
6.4061071915
  0
LINE
  5
477
100
AcDbEntity
  8
ASSI
100
AcDbLine
 62
7
  6
CONTINUOUS
 10
-19.3564000431
 20
0.0842280528
 11
-19.3519158378
 21
0.0831119766
  0
LINE
  5
478
100
AcDbEntity
  8
0
100
AcDbLine
 62
7
  6
CONTINUOUS
 10
-19.3564000431
 20
0.0842280528
 11
-19.3519158378
 21
0.0831119766
  0
LWPOLYLINE
  5
479
100
AcDbEntity
  8
ASSI
100
AcDbPolyline
 62
7
  6
CONTINUOUS
 90
3
 70
0
 10
-19.3519158378
 20
0.0831119766
 10
-19.3514441982
 20
0.0829913495
 10
-19.344462137
 20
0.0806454002
  0
LINE
  5
47A
100
AcDbEntity
  8
0
100
AcDbLine
 62
250
  6
CONTINUOUS
 10
6.7424588188
 20
-10.8019861823
 11
6.0175821557
 21
-10.1659230225
  0
LINE
  5
47B
100
AcDbEntity
  8
ASSI
100
AcDbLine
 62
7
  6
CONTINUOUS
 10
-1.769261449
 20
8.9916657348
 11
-1.769261449
 21
-26.7693586869
  0
LINE
  5
47C
100
AcDbEntity
  8
0
100
AcDbLine
 62
7
  6
CONTINUOUS
 10
-1.769261449
 20
8.9916657348
 11
-1.769261449
 21
-26.7693586869
  0
LINE
  5
47D
100
AcDbEntity
  8
ASSI
100
AcDbLine
 62
7
  6
CONTINUOUS
 10
23.9370134482
 20
14.3669114545
 11
19.2693613421
 21
11.5282422714
  0
LINE
  5
47E
100
AcDbEntity
  8
0
100
AcDbLine
 62
7
  6
CONTINUOUS
 10
18.0754575063
 20
12.2183564704
 11
6.7424588188
 21
5.5274193536
  0
LINE
  5
47F
100
AcDbEntity
  8
ASSI
100
AcDbLine
 62
7
  6
CONTINUOUS
 10
23.9370134482
 20
14.9244790411
 11
19.2693613421
 21
12.1815490653
  0
LINE
  5
480
100
AcDbEntity
  8
0
100
AcDbLine
 62
7
  6
CONTINUOUS
 10
18.5193363066
 20
12.6146041207
 11
23.2284523563
 21
15.3335933352
  0
LINE
  5
481
100
AcDbEntity
  8
ASSI
100
AcDbLine
 62
250
  6
CONTINUOUS
 10
-18.0921615069
 20
-10.4359769335
 11
-17.0737153981
 21
-9.8681152193
  0
LINE
  5
482
100
AcDbEntity
  8
0
100
AcDbLine
 62
250
  6
CONTINUOUS
 10
-18.0921615069
 20
-10.4359769335
 11
-17.0737153981
 21
-9.8681152193
  0
LINE
  5
483
100
AcDbEntity
  8
0
100
AcDbLine
 62
7
  6
CONTINUOUS
 10
-17.7691420836
 20
-9.7262940739
 11
-17.7690137467
 21
-9.7262235636
  0
LINE
  5
484
100
AcDbEntity
  8
ASSI
100
AcDbLine
 62
7
  6
CONTINUOUS
 10
-17.769131037
 20
-9.7262880028
 11
-17.7690137467
 21
-9.7262235636
  0
LWPOLYLINE
  5
485
100
AcDbEntity
  8
ASSI
100
AcDbPolyline
 62
7
  6
CONTINUOUS
 90
3
 70
0
 10
-19.3567497237
 20
0.0844178968
 10
-19.3577683485
 20
0.0844695304
 10
-19.3564000431
 20
0.0842280528
  0
LINE
  5
486
100
AcDbEntity
  8
ASSI
100
AcDbLine
 62
250
  6
CONTINUOUS
 10
-23.4834996755
 20
13.4131801491
 11
-8.6335005779
 21
4.8389767843
  0
LINE
  5
487
100
AcDbEntity
  8
0
100
AcDbLine
 62
250
  6
CONTINUOUS
 10
-23.4834996755
 20
13.4131801491
 11
-8.6335005779
 21
4.8389767843
  0
LINE
  5
488
100
AcDbEntity
  8
0
100
AcDbLine
 62
250
  6
CONTINUOUS
 10
6.7424588188
 20
-6.7196347983
 11
6.0175821557
 21
-6.0835716385
  0
LINE
  5
489
100
AcDbEntity
  8
0
100
AcDbLine
 62
7
  6
CONTINUOUS
 10
18.0754575063
 20
10.0637593466
 11
6.7424588188
 21
3.2026462025
  0
LINE
  5
48A
100
AcDbEntity
  8
ASSI
100
AcDbLine
 62
250
  6
CONTINUOUS
 10
-16.9764805151
 20
-13.0523047944
 11
-15.5931990212
 21
-12.2257357403
  0
LINE
  5
48B
100
AcDbEntity
  8
0
100
AcDbLine
 62
250
  6
CONTINUOUS
 10
-16.9764805151
 20
-13.0523047944
 11
-15.5931990212
 21
-12.2257357403
  0
LINE
  5
48C
100
AcDbEntity
  8
0
100
AcDbLine
 62
7
  6
CONTINUOUS
 10
18.0754575063
 20
8.1360050865
 11
6.7424588188
 21
1.4450679696
  0
LINE
  5
48D
100
AcDbEntity
  8
ASSI
100
AcDbLine
 62
7
  6
CONTINUOUS
 10
19.2693613421
 20
8.0991976813
 11
23.9370134482
 21
10.8421276571
  0
LINE
  5
48E
100
AcDbEntity
  8
0
100
AcDbLine
 62
7
  6
CONTINUOUS
 10
17.1992595822
 20
8.7437221603
 11
6.0802869767
 21
2.3237558075
  0
LINE
  5
48F
100
AcDbEntity
  8
0
100
AcDbLine
 62
7
  6
CONTINUOUS
 10
18.5193363066
 20
8.5322527368
 11
23.2284523563
 21
11.2512419512
  0
LINE
  5
490
100
AcDbEntity
  8
ASSI
100
AcDbLine
 62
250
  6
CONTINUOUS
 10
-18.0860710392
 20
-11.1674042803
 11
-16.6624990093
 21
-10.3736538342
  0
LINE
  5
491
100
AcDbEntity
  8
0
100
AcDbLine
 62
250
  6
CONTINUOUS
 10
-18.0860710392
 20
-11.1674042803
 11
-16.6624990093
 21
-10.3736538342
  0
LWPOLYLINE
  5
492
100
AcDbEntity
  8
0
100
AcDbPolyline
 62
7
  6
CONTINUOUS
 90
12
 70
0
 10
-17.7691668433
 20
-9.7263195704
 10
-17.7353857719
 20
-9.7102951773
 10
-17.6954945718
 20
-9.6970660689
 10
-17.6518876373
 20
-9.6882948134
 10
-17.604546144
 20
-9.6842038517
 10
-17.5536661187
 20
-9.6850378409
 10
-17.4996361409
 20
-9.6909789109
 10
-17.4427547631
 20
-9.7021326972
 10
-17.3836586647
 20
-9.718482879
 10
-17.3233026809
 20
-9.7397649576
 10
-17.2623460749
 20
-9.7656219653
 10
-17.2015008044
 20
-9.7955906761
  0
LWPOLYLINE
  5
493
100
AcDbEntity
  8
ASSI
100
AcDbPolyline
 62
7
  6
CONTINUOUS
 90
12
 70
0
 10
-17.7691557725
 20
-9.726313487
 10
-17.7352463253
 20
-9.7102389098
 10
-17.6954034917
 20
-9.6970420006
 10
-17.6518562011
 20
-9.6882903421
 10
-17.6045859499
 20
-9.684205205
 10
-17.5537883852
 20
-9.6850300148
 10
-17.4998511955
 20
-9.6909458915
 10
-17.443071843
 20
-9.7020576411
 10
-17.38408401
 20
-9.7183488894
 10
-17.3238383037
 20
-9.7395567755
 10
-17.2629911551
 20
-9.7653262478
 10
-17.201923517
 20
-9.795357654
  0
LINE
  5
494
100
AcDbEntity
  8
ASSI
100
AcDbLine
 62
250
  6
CONTINUOUS
 10
-22.8198678982
 20
14.5841296852
 11
-7.9581830773
 21
6.0031791302
  0
LINE
  5
495
100
AcDbEntity
  8
0
100
AcDbLine
 62
250
  6
CONTINUOUS
 10
-22.8198678982
 20
14.5841296852
 11
-7.9581830773
 21
6.0031791302
  0
LINE
  5
496
100
AcDbEntity
  8
0
100
AcDbLine
 62
250
  6
CONTINUOUS
 10
6.7424588188
 20
-2.6372834144
 11
6.0175821557
 21
-2.0012202546
  0
LINE
  5
497
100
AcDbEntity
  8
0
100
AcDbLine
 62
250
  6
CONTINUOUS
 10
-7.1707433214
 20
12.5821992921
 11
-7.2015278096
 21
12.6236881777
  0
LINE
  5
498
100
AcDbEntity
  8
0
100
AcDbLine
 62
7
  6
CONTINUOUS
 10
-3.0541245182
 20
18.2693071378
 11
-2.8140213686
 21
17.1027683702
  0
LINE
  5
499
100
AcDbEntity
  8
ASSI
100
AcDbLine
 62
250
  6
CONTINUOUS
 10
-10.0657621072
 20
-10.3241492507
 11
-9.9362614134
 21
-10.2440640791
  0
LINE
  5
49A
100
AcDbEntity
  8
0
100
AcDbLine
 62
250
  6
CONTINUOUS
 10
-10.0657621072
 20
-10.3241492507
 11
-9.9362614134
 21
-10.2440640791
  0
LINE
  5
49B
100
AcDbEntity
  8
0
100
AcDbLine
 62
7
  6
CONTINUOUS
 10
23.9370134482
 20
9.5300537912
 11
6.7424588188
 21
-0.8797051815
  0
LINE
  5
49C
100
AcDbEntity
  8
0
100
AcDbLine
 62
7
  6
CONTINUOUS
 10
6.0802869767
 20
-1.7585955765
 11
23.2284523563
 21
8.142557044
  0
LINE
  5
49D
100
AcDbEntity
  8
0
100
AcDbLine
 62
7
  6
CONTINUOUS
 10
11.5637620101
 20
-2.0431903756
 11
12.1107611536
 21
-2.3590208256
  0
LINE
  5
49E
100
AcDbEntity
  8
0
100
AcDbLine
 62
7
  6
CONTINUOUS
 10
15.0151987642
 20
-4.0360067008
 11
15.6459503842
 21
-4.400194781
  0
LINE
  5
49F
100
AcDbEntity
  8
0
100
AcDbLine
 62
7
  6
CONTINUOUS
 10
18.4666355182
 20
-6.0288230259
 11
19.1811396148
 21
-6.4413687364
  0
LINE
  5
4A0
100
AcDbEntity
  8
0
100
AcDbLine
 62
7
  6
CONTINUOUS
 10
-0.3671187497
 20
16.7178636832
 11
-0.1270156001
 21
15.5513249156
  0
LINE
  5
4A1
100
AcDbEntity
  8
0
100
AcDbLine
 62
7
  6
CONTINUOUS
 10
2.3198870188
 20
15.1664202285
 11
2.5599901684
 21
13.9998814609
  0
LINE
  5
4A2
100
AcDbEntity
  8
ASSI
100
AcDbLine
 62
7
  6
CONTINUOUS
 10
-11.4313350053
 20
-15.8411033714
 11
-11.4615744258
 21
-15.8620134845
  0
LINE
  5
4A3
100
AcDbEntity
  8
0
100
AcDbLine
 62
7
  6
CONTINUOUS
 10
-11.4314465994
 20
-15.8411909315
 11
-11.4615857591
 21
-15.8620203444
  0
LINE
  5
4A4
100
AcDbEntity
  8
ASSI
100
AcDbLine
 62
7
  6
CONTINUOUS
 10
-11.4613968604
 20
-15.8619154946
 11
-11.4616341055
 21
-15.8620592344
  0
LINE
  5
4A5
100
AcDbEntity
  8
0
100
AcDbLine
 62
7
  6
CONTINUOUS
 10
-11.4613968604
 20
-15.8619154946
 11
-11.4616454275
 21
-15.8620660896
  0
LINE
  5
4A6
100
AcDbEntity
  8
0
100
AcDbLine
 62
7
  6
CONTINUOUS
 10
23.9370134482
 20
5.4477024073
 11
6.7424588188
 21
-4.9620565654
  0
LINE
  5
4A7
100
AcDbEntity
  8
ASSI
100
AcDbLine
 62
250
  6
CONTINUOUS
 10
-12.2388650812
 20
-15.7877445697
 11
-11.2460176466
 21
-15.1944763387
  0
LINE
  5
4A8
100
AcDbEntity
  8
0
100
AcDbLine
 62
250
  6
CONTINUOUS
 10
-12.2388650812
 20
-15.7877445697
 11
-11.2460176466
 21
-15.1944763387
  0
LINE
  5
4A9
100
AcDbEntity
  8
0
100
AcDbLine
 62
7
  6
CONTINUOUS
 10
23.9370134482
 20
7.5142825525
 11
6.7424588188
 21
-2.6372834144
  0
LINE
  5
4AA
100
AcDbEntity
  8
IMPORT_IGES
100
AcDbLine
 62
7
  6
CONTINUOUS
 10
6.4135095904
 20
2.9130209088
 11
6.757183378
 21
2.7145879711
  0
LINE
  5
4AB
100
AcDbEntity
  8
0
100
AcDbLine
 62
7
  6
CONTINUOUS
 10
18.3257625372
 20
-2.852902197
 11
17.6315232536
 21
-2.4520571356
  0
LINE
  5
4AC
100
AcDbEntity
  8
0
100
AcDbLine
 62
7
  6
CONTINUOUS
 10
14.7905733066
 20
-0.8117282416
 11
14.1800864995
 21
-0.4592408104
  0
LINE
  5
4AD
100
AcDbEntity
  8
0
100
AcDbLine
 62
7
  6
CONTINUOUS
 10
-13.289904811
 20
15.738727403
 11
-7.3502078491
 21
12.3092208191
  0
LINE
  5
4AE
100
AcDbEntity
  8
0
100
AcDbLine
 62
250
  6
CONTINUOUS
 10
-13.3304573214
 20
15.829767208
 11
-7.3907603594
 21
12.400260624
  0
LINE
  5
4AF
100
AcDbEntity
  8
0
100
AcDbLine
 62
250
  6
CONTINUOUS
 10
-13.1434475925
 20
15.8742482062
 11
-7.5777347704
 21
12.6606753774
  0
LINE
  5
4B0
100
AcDbEntity
  8
ASSI
100
AcDbLine
 62
7
  6
CONTINUOUS
 10
-17.1844584035
 20
18.3006292478
 11
-13.3218148431
 21
16.0703872664
  0
LINE
  5
4B1
100
AcDbEntity
  8
0
100
AcDbLine
 62
7
  6
CONTINUOUS
 10
-17.1844584035
 20
18.3006292478
 11
-13.3218148431
 21
16.0703872664
  0
LINE
  5
4B2
100
AcDbEntity
  8
ASSI
100
AcDbLine
 62
7
  6
CONTINUOUS
 10
-6.6977649836
 20
12.2457438963
 11
-2.1225457149
 21
9.6040696316
  0
LINE
  5
4B3
100
AcDbEntity
  8
0
100
AcDbLine
 62
7
  6
CONTINUOUS
 10
-6.6977649836
 20
12.2457438963
 11
-2.1225457149
 21
9.6040696316
  0
LINE
  5
4B4
100
AcDbEntity
  8
0
100
AcDbLine
 62
250
  6
CONTINUOUS
 10
-13.0045334757
 20
16.1177698087
 11
-7.4387778002
 21
12.9041722369
  0
LINE
  5
4B5
100
AcDbEntity
  8
0
100
AcDbLine
 62
7
  6
CONTINUOUS
 10
19.1022464767
 20
-2.4045693391
 11
18.3896114444
 21
-1.9931028028
  0
LINE
  5
4B6
100
AcDbEntity
  8
0
100
AcDbLine
 62
7
  6
CONTINUOUS
 10
15.5670572462
 20
-0.3633953837
 11
14.9381746904
 21
-0.0002864777
  0
LINE
  5
4B7
100
AcDbEntity
  8
0
100
AcDbLine
 62
7
  6
CONTINUOUS
 10
12.0318680156
 20
1.6777785717
 11
11.9653643807
 21
1.716176937
  0
LINE
  5
4B8
100
AcDbEntity
  8
0
100
AcDbLine
 62
7
  6
CONTINUOUS
 10
12.3769163589
 20
2.051533528
 11
12.528052199
 21
1.9642695881
  0
LINE
  5
4B9
100
AcDbEntity
  8
0
100
AcDbLine
 62
7
  6
CONTINUOUS
 10
15.422603731
 20
0.2929918107
 11
16.0632414296
 21
-0.0769043673
  0
LINE
  5
4BA
100
AcDbEntity
  8
0
100
AcDbLine
 62
7
  6
CONTINUOUS
 10
18.8740404851
 20
-1.6998245144
 11
19.5984306602
 21
-2.1180783228
  0
LINE
  5
4BB
100
AcDbEntity
  8
0
100
AcDbLine
 62
250
  6
CONTINUOUS
 10
-13.2916323396
 20
15.7397422386
 11
-13.289904811
 21
15.738727403
  0
LINE
  5
4BC
100
AcDbEntity
  8
0
100
AcDbLine
 62
250
  6
CONTINUOUS
 10
-7.1791946031
 20
12.2070221946
 11
-7.1761705547
 21
12.2052457092
  0
LINE
  5
4BD
100
AcDbEntity
  8
0
100
AcDbLine
 62
250
  6
CONTINUOUS
 10
-7.3502078491
 20
12.3092208191
 11
-7.1791946031
 21
12.2070221946
  0
LINE
  5
4BE
100
AcDbEntity
  8
0
100
AcDbLine
 62
250
  6
CONTINUOUS
 10
-7.107917647
 20
12.400260624
 11
-6.936904401
 21
12.2980619996
  0
LINE
  5
4BF
100
AcDbEntity
  8
0
100
AcDbLine
 62
250
  6
CONTINUOUS
 10
6.7424588188
 20
1.4450679696
 11
6.0175821557
 21
2.0811311294
  0
LINE
  5
4C0
100
AcDbEntity
  8
0
100
AcDbLine
 62
7
  6
CONTINUOUS
 10
9.7169811046
 20
4.4235409913
 11
9.7169811046
 21
5.0034523718
  0
LINE
  5
4C1
100
AcDbEntity
  8
0
100
AcDbLine
 62
7
  6
CONTINUOUS
 10
9.7169811046
 20
8.5058923753
 11
9.7169811046
 21
9.0858037557
  0
LINE
  5
4C2
100
AcDbEntity
  8
0
100
AcDbLine
 62
7
  6
CONTINUOUS
 10
9.8584024608
 20
4.5051960489
 11
9.8584024608
 21
5.0890703051
  0
LINE
  5
4C3
100
AcDbEntity
  8
0
100
AcDbLine
 62
7
  6
CONTINUOUS
 10
9.8584024608
 20
8.5875474329
 11
9.8584024608
 21
9.1714216891
  0
LINE
  5
4C4
100
AcDbEntity
  8
0
100
AcDbLine
 62
250
  6
CONTINUOUS
 10
10.0370372846
 20
23.403863938
 11
10.0370372846
 21
23.5027453996
  0
LINE
  5
4C5
100
AcDbEntity
  8
0
100
AcDbLine
 62
7
  6
CONTINUOUS
 10
23.9370134482
 20
3.4319311685
 11
6.7424588188
 21
-6.7196347983
  0
LINE
  5
4C6
100
AcDbEntity
  8
0
100
AcDbLine
 62
7
  6
CONTINUOUS
 10
6.0802869767
 20
-5.8409469604
 11
23.2284523563
 21
4.06020566
  0
LINE
  5
4C7
100
AcDbEntity
  8
0
100
AcDbLine
 62
7
  6
CONTINUOUS
 10
-6.8858468427
 20
13.252457309
 11
-12.4211572758
 21
16.4484761793
  0
LINE
  5
4C8
100
AcDbEntity
  8
0
100
AcDbLine
 62
7
  6
CONTINUOUS
 10
-10.688242782
 20
16.9722785946
 11
-5.931755568
 21
14.22594249
  0
LINE
  5
4C9
100
AcDbEntity
  8
ASSI
100
AcDbLine
 62
7
  6
CONTINUOUS
 10
-9.7316679188
 20
16.4266383206
 11
-6.7469090749
 21
14.7032759719
  0
LINE
  5
4CA
100
AcDbEntity
  8
0
100
AcDbLine
 62
7
  6
CONTINUOUS
 10
-9.7316679188
 20
16.4266383206
 11
-6.7469090749
 21
14.7032759719
  0
LINE
  5
4CB
100
AcDbEntity
  8
0
100
AcDbLine
 62
7
  6
CONTINUOUS
 10
18.3257625372
 20
1.2294491869
 11
17.6315232536
 21
1.6302942484
  0
LINE
  5
4CC
100
AcDbEntity
  8
0
100
AcDbLine
 62
7
  6
CONTINUOUS
 10
14.7905733066
 20
3.2706231423
 11
14.1884014091
 21
3.618309649
  0
LINE
  5
4CD
100
AcDbEntity
  8
0
100
AcDbLine
 62
7
  6
CONTINUOUS
 10
-7.8857351063
 20
16.5017716028
 11
-4.9026379048
 21
14.7793686657
  0
LINE
  5
4CE
100
AcDbEntity
  8
0
100
AcDbLine
 62
7
  6
CONTINUOUS
 10
-3.5912900849
 20
14.0222128695
 11
-3.5016730629
 21
13.9704691242
  0
LINE
  5
4CF
100
AcDbEntity
  8
ASSI
100
AcDbLine
 62
7
  6
CONTINUOUS
 10
-9.9327695943
 20
16.9510507288
 11
-5.559637671
 21
14.4260554528
  0
LINE
  5
4D0
100
AcDbEntity
  8
0
100
AcDbLine
 62
7
  6
CONTINUOUS
 10
-9.9327695943
 20
16.9510507288
 11
-5.559637671
 21
14.4260554528
  0
LINE
  5
4D1
100
AcDbEntity
  8
0
100
AcDbLine
 62
250
  6
CONTINUOUS
 10
6.7424588188
 20
5.5274193536
 11
6.0175821557
 21
6.1634825134
  0
LINE
  5
4D2
100
AcDbEntity
  8
IMPORT_IGES
100
AcDbLine
 62
7
  6
CONTINUOUS
 10
11.5554587357
 20
1.4027053562
 11
11.5554587357
 21
1.4513869027
  0
LINE
  5
4D3
100
AcDbEntity
  8
0
100
AcDbLine
 62
7
  6
CONTINUOUS
 10
11.6968800919
 20
21.2847522005
 11
11.6968800919
 21
21.3610214808
  0
LINE
  5
4D4
100
AcDbEntity
  8
0
100
AcDbLine
 62
7
  6
CONTINUOUS
 10
11.7718334107
 20
21.4040949574
 11
11.7718334107
 21
21.3261756391
  0
LINE
  5
4D5
100
AcDbEntity
  8
0
100
AcDbLine
 62
7
  6
CONTINUOUS
 10
12.4435848528
 20
21.790130833
 11
12.4435848528
 21
21.6974234371
  0
LINE
  5
4D6
100
AcDbEntity
  8
0
100
AcDbLine
 62
7
  6
CONTINUOUS
 10
12.514295531
 20
21.8307661883
 11
12.514295531
 21
21.7365021527
  0
LINE
  5
4D7
100
AcDbEntity
  8
0
100
AcDbLine
 62
7
  6
CONTINUOUS
 10
12.7264275653
 20
21.9526722543
 11
12.7264275653
 21
21.8537382995
  0
LINE
  5
4D8
100
AcDbEntity
  8
0
100
AcDbLine
 62
7
  6
CONTINUOUS
 10
12.7264275653
 20
18.8570852975
 11
12.7264275653
 21
18.8316569432
  0
LINE
  5
4D9
100
AcDbEntity
  8
0
100
AcDbLine
 62
7
  6
CONTINUOUS
 10
23.9370134482
 20
1.3653510233
 11
6.7424588188
 21
-9.0444079494
  0
LINE
  5
4DA
100
AcDbEntity
  8
0
100
AcDbLine
 62
7
  6
CONTINUOUS
 10
23.9370134482
 20
-0.6504202155
 11
6.7424588188
 21
-10.8019861823
  0
LINE
  5
4DB
100
AcDbEntity
  8
0
100
AcDbLine
 62
7
  6
CONTINUOUS
 10
6.0802869767
 20
-9.9232983444
 11
23.2284523563
 21
-0.022145724
  0
LINE
  5
4DC
100
AcDbEntity
  8
CURVE
100
AcDbLine
 62
250
  6
CONTINUOUS
 10
-16.3375629107
 20
-22.5988584114
 11
-15.9867582082
 21
-22.3963487988
  0
LINE
  5
4DD
100
AcDbEntity
  8
0
100
AcDbLine
 62
7
  6
CONTINUOUS
 10
-9.4086953806
 20
17.9183090159
 11
-9.2292379905
 21
17.814692568
  0
LINE
  5
4DE
100
AcDbEntity
  8
0
100
AcDbLine
 62
7
  6
CONTINUOUS
 10
-4.4209118785
 20
15.0384253334
 11
-4.2414544883
 21
14.9348088855
  0
LINE
  5
4DF
100
AcDbEntity
  8
0
100
AcDbLine
 62
7
  6
CONTINUOUS
 10
19.1022464767
 20
1.6777820449
 11
18.3896114444
 21
2.0892485811
  0
LINE
  5
4E0
100
AcDbEntity
  8
0
100
AcDbLine
 62
7
  6
CONTINUOUS
 10
-7.8857351063
 20
17.3410443463
 11
-3.5016730629
 21
14.8097418677
  0
LINE
  5
4E1
100
AcDbEntity
  8
0
100
AcDbLine
 62
7
  6
CONTINUOUS
 10
-7.4243296266
 20
17.5233246955
 11
-3.1859745768
 21
15.0761516089
  0
LINE
  5
4E2
100
AcDbEntity
  8
0
100
AcDbLine
 62
7
  6
CONTINUOUS
 10
18.8740404851
 20
2.3825268696
 11
19.5984306602
 21
1.9642730612
  0
LINE
  5
4E3
100
AcDbEntity
  8
IMPORT_IGES
100
AcDbLine
 62
7
  6
CONTINUOUS
 10
8.8220507756
 20
8.544003795
 11
9.2535793598
 21
8.2948445988
  0
LINE
  5
4E4
100
AcDbEntity
  8
IMPORT_IGES
100
AcDbLine
 62
250
  6
CONTINUOUS
 10
9.2535793598
 20
8.2948445988
 11
9.2531309078
 21
8.2951036387
  0
LINE
  5
4E5
100
AcDbEntity
  8
0
100
AcDbLine
 62
7
  6
CONTINUOUS
 10
2.4312568816
 20
12.6091272216
 11
-8.8125153
 21
19.1011403617
  0
LINE
  5
4E6
100
AcDbEntity
  8
0
100
AcDbLine
 62
7
  6
CONTINUOUS
 10
23.9370134482
 20
-4.7327715994
 11
23.2284523563
 21
-4.1044971079
  0
LINE
  5
4E7
100
AcDbEntity
  8
0
100
AcDbLine
 62
7
  6
CONTINUOUS
 10
13.3274683293
 20
25.3936597312
 11
13.3274683293
 21
25.222342029
  0
LINE
  5
4E8
100
AcDbEntity
  8
0
100
AcDbLine
 62
7
  6
CONTINUOUS
 10
15.4841440119
 20
20.3413735604
 11
15.4841440119
 21
20.4418641549
  0
LINE
  5
4E9
100
AcDbEntity
  8
0
100
AcDbLine
 62
250
  6
CONTINUOUS
 10
15.5859673884
 20
7.812225882
 11
15.5859673884
 21
8.5565966052
  0
LINE
  5
4EA
100
AcDbEntity
  8
0
100
AcDbLine
 62
250
  6
CONTINUOUS
 10
15.5859673884
 20
11.8945772659
 11
15.5859673884
 21
12.6389479892
  0
LINE
  5
4EB
100
AcDbEntity
  8
0
100
AcDbLine
 62
7
  6
CONTINUOUS
 10
23.9370134482
 20
-2.7170003607
 11
6.7424588188
 21
-13.1267593334
  0
LINE
  5
4EC
100
AcDbEntity
  8
0
100
AcDbLine
 62
7
  6
CONTINUOUS
 10
19.0176073431
 20
-6.3469472523
 11
9.72899681
 21
-11.898926815
  0
LINE
  5
4ED
100
AcDbEntity
  8
0
100
AcDbLine
 62
7
  6
CONTINUOUS
 10
6.0802869767
 20
-14.0056497284
 11
23.2284523563
 21
-4.1044971079
  0
LINE
  5
4EE
100
AcDbEntity
  8
0
100
AcDbLine
 62
7
  6
CONTINUOUS
 10
19.1022464767
 20
5.7601334288
 11
18.713839054
 21
5.9843950068
  0
LINE
  5
4EF
100
AcDbEntity
  8
0
100
AcDbLine
 62
7
  6
CONTINUOUS
 10
18.8740404851
 20
6.4648782535
 11
19.5984306602
 21
6.0466244452
  0
LINE
  5
4F0
100
AcDbEntity
  8
0
100
AcDbLine
 62
7
  6
CONTINUOUS
 10
23.9370134482
 20
-0.6504202155
 11
23.2284523563
 21
-0.022145724
  0
LINE
  5
4F1
100
AcDbEntity
  8
0
100
AcDbLine
 62
7
  6
CONTINUOUS
 10
15.703124676
 20
7.8798711466
 11
15.703124676
 21
8.6275248236
  0
LINE
  5
4F2
100
AcDbEntity
  8
0
100
AcDbLine
 62
7
  6
CONTINUOUS
 10
15.703124676
 20
11.9622225305
 11
15.703124676
 21
12.7098762076
  0
LINE
  5
4F3
100
AcDbEntity
  8
0
100
AcDbLine
 62
7
  6
CONTINUOUS
 10
15.7316313854
 20
20.5840878985
 11
15.7316313854
 21
20.478149065
  0
LINE
  5
4F4
100
AcDbEntity
  8
0
100
AcDbLine
 62
7
  6
CONTINUOUS
 10
23.9370134482
 20
-4.7327715994
 11
6.7424588188
 21
-14.8843375663
  0
LINE
  5
4F5
100
AcDbEntity
  8
0
100
AcDbLine
 62
7
  6
CONTINUOUS
 10
-6.1694693711
 20
17.5749607221
 11
-7.4243296266
 21
17.5233246955
  0
LINE
  5
4F6
100
AcDbEntity
  8
0
100
AcDbLine
 62
250
  6
CONTINUOUS
 10
19.2693613421
 20
8.0991976813
 11
18.5193363066
 21
8.5322527368
  0
LINE
  5
4F7
100
AcDbEntity
  8
0
100
AcDbLine
 62
7
  6
CONTINUOUS
 10
19.1689273995
 20
8.9073191307
 11
18.7650381456
 21
9.140519724
  0
LINE
  5
4F8
100
AcDbEntity
  8
0
100
AcDbLine
 62
7
  6
CONTINUOUS
 10
19.9454113391
 20
9.3556519886
 11
18.2766295564
 21
10.3191856752
  0
LINE
  5
4F9
100
AcDbEntity
  8
IMPORT_IGES
100
AcDbLine
 62
7
  6
CONTINUOUS
 10
18.7753072167
 20
8.9345918956
 11
18.7753072167
 21
8.6800473836
  0
LINE
  5
4FA
100
AcDbEntity
  8
0
100
AcDbLine
 62
7
  6
CONTINUOUS
 10
22.3999923232
 20
-8.2270897401
 11
-1.769261449
 21
-22.8797091868
  0
LINE
  5
4FB
100
AcDbEntity
  8
0
100
AcDbLine
 62
250
  6
CONTINUOUS
 10
23.6247059681
 20
-7.3388970903
 11
22.3348031248
 21
-8.1193471181
  0
LINE
  5
4FC
100
AcDbEntity
  8
0
100
AcDbLine
 62
7
  6
CONTINUOUS
 10
-13.3256931254
 20
16.2874942626
 11
-13.3432859605
 21
16.2828964053
  0
LINE
  5
4FD
100
AcDbEntity
  8
0
100
AcDbLine
 62
7
  6
CONTINUOUS
 10
-12.7133814876
 20
16.4268550075
 11
-12.701946222
 21
16.4290858739
  0
LINE
  5
4FE
100
AcDbEntity
  8
0
100
AcDbLine
 62
7
  6
CONTINUOUS
 10
15.703124676
 20
12.3780766848
 11
16.0632414296
 21
12.1701497845
  0
LINE
  5
4FF
100
AcDbEntity
  8
0
100
AcDbLine
 62
7
  6
CONTINUOUS
 10
18.4804988429
 20
10.7744556494
 11
20.1156934287
 21
9.8303147894
  0
LINE
  5
500
100
AcDbEntity
  8
0
100
AcDbLine
 62
250
  6
CONTINUOUS
 10
19.2693613421
 20
12.1815490653
 11
18.5193363066
 21
12.6146041207
  0
LINE
  5
501
100
AcDbEntity
  8
0
100
AcDbLine
 62
7
  6
CONTINUOUS
 10
23.9370134482
 20
3.4319311685
 11
23.2284523563
 21
4.06020566
  0
LINE
  5
502
100
AcDbEntity
  8
0
100
AcDbLine
 62
7
  6
CONTINUOUS
 10
14.3778718627
 20
28.0634081674
 11
14.7562005845
 21
26.2147103051
  0
LINE
  5
503
100
AcDbEntity
  8
0
100
AcDbLine
 62
7
  6
CONTINUOUS
 10
22.1770484256
 20
-4.7115655933
 11
22.1770484256
 21
-3.7825011591
  0
LINE
  5
504
100
AcDbEntity
  8
0
100
AcDbLine
 62
7
  6
CONTINUOUS
 10
22.1770484256
 20
-0.6292142093
 11
22.1770484256
 21
0.2998502249
  0
LINE
  5
505
100
AcDbEntity
  8
0
100
AcDbLine
 62
7
  6
CONTINUOUS
 10
22.1770484256
 20
3.4531371747
 11
22.1770484256
 21
4.3822016089
  0
LINE
  5
506
100
AcDbEntity
  8
0
100
AcDbLine
 62
7
  6
CONTINUOUS
 10
22.1770484256
 20
7.5354885586
 11
22.1770484256
 21
8.4645529928
  0
LINE
  5
507
100
AcDbEntity
  8
0
100
AcDbLine
 62
7
  6
CONTINUOUS
 10
22.1770484256
 20
10.6441734659
 11
22.1770484256
 21
13.2965749428
  0
LINE
  5
508
100
AcDbEntity
  8
0
100
AcDbLine
 62
7
  6
CONTINUOUS
 10
22.1770484256
 20
14.7265248498
 11
22.1770484256
 21
17.3789263268
  0
LINE
  5
509
100
AcDbEntity
  8
0
100
AcDbLine
 62
7
  6
CONTINUOUS
 10
23.2284523563
 20
18.0183458613
 11
23.2284523563
 21
15.3335933352
  0
LINE
  5
50A
100
AcDbEntity
  8
0
100
AcDbLine
 62
7
  6
CONTINUOUS
 10
23.2284523563
 20
13.9359944773
 11
23.2284523563
 21
11.2512419512
  0
LINE
  5
50B
100
AcDbEntity
  8
0
100
AcDbLine
 62
7
  6
CONTINUOUS
 10
23.2284523563
 20
-4.1044971079
 11
23.2284523563
 21
-3.1459704819
  0
LINE
  5
50C
100
AcDbEntity
  8
0
100
AcDbLine
 62
7
  6
CONTINUOUS
 10
23.2284523563
 20
-0.022145724
 11
23.2284523563
 21
0.9363809021
  0
LINE
  5
50D
100
AcDbEntity
  8
0
100
AcDbLine
 62
7
  6
CONTINUOUS
 10
23.2284523563
 20
4.06020566
 11
23.2284523563
 21
5.018732286
  0
LINE
  5
50E
100
AcDbEntity
  8
0
100
AcDbLine
 62
7
  6
CONTINUOUS
 10
23.2284523563
 20
8.142557044
 11
23.2284523563
 21
9.10108367
  0
LINE
  5
50F
100
AcDbEntity
  8
ASSI
100
AcDbLine
 62
250
  6
CONTINUOUS
 10
-1.769261449
 20
-26.7693586869
 11
-7.5923503373
 21
-29.6698474011
  0
LINE
  5
510
100
AcDbEntity
  8
0
100
AcDbLine
 62
250
  6
CONTINUOUS
 10
-1.769261449
 20
-26.7693586869
 11
-7.5923503373
 21
-29.6698474011
  0
LINE
  5
511
100
AcDbEntity
  8
ASSI
100
AcDbLine
 62
7
  6
CONTINUOUS
 10
-1.8818898845
 20
-27.0033781221
 11
-7.7167527296
 21
-29.9097314606
  0
LINE
  5
512
100
AcDbEntity
  8
0
100
AcDbLine
 62
7
  6
CONTINUOUS
 10
-1.8818898845
 20
-27.0033781221
 11
-7.7167527296
 21
-29.9097314606
  0
LINE
  5
513
100
AcDbEntity
  8
0
100
AcDbLine
 62
7
  6
CONTINUOUS
 10
23.9370134482
 20
10.8421276571
 11
23.2284523563
 21
11.2512419512
  0
LINE
  5
514
100
AcDbEntity
  8
0
100
AcDbLine
 62
7
  6
CONTINUOUS
 10
7.1885890654
 20
21.8658256503
 11
7.2206012038
 21
21.8473422428
  0
LINE
  5
515
100
AcDbEntity
  8
0
100
AcDbLine
 62
7
  6
CONTINUOUS
 10
9.8755948339
 20
20.3143821957
 11
9.9076069723
 21
20.2958987882
  0
LINE
  5
516
100
AcDbEntity
  8
0
100
AcDbLine
 62
7
  6
CONTINUOUS
 10
12.5626006024
 20
18.762938741
 11
12.5946127408
 21
18.7444553335
  0
LINE
  5
517
100
AcDbEntity
  8
0
100
AcDbLine
 62
7
  6
CONTINUOUS
 10
7.3303439187
 20
21.947288012
 11
7.3651175613
 21
21.9272101465
  0
LINE
  5
518
100
AcDbEntity
  8
0
100
AcDbLine
 62
7
  6
CONTINUOUS
 10
10.0173496872
 20
20.3958445573
 11
10.0521233298
 21
20.3757666919
  0
LINE
  5
519
100
AcDbEntity
  8
0
100
AcDbLine
 62
7
  6
CONTINUOUS
 10
12.7043554557
 20
18.8444011027
 11
12.7391290983
 21
18.8243232372
  0
LINE
  5
51A
100
AcDbEntity
  8
0
100
AcDbLine
 62
7
  6
CONTINUOUS
 10
13.4261299543
 20
19.2039987229
 11
13.3782286922
 21
19.2316563113
  0
LINE
  5
51B
100
AcDbEntity
  8
0
100
AcDbLine
 62
7
  6
CONTINUOUS
 10
23.9370134482
 20
7.5142825525
 11
23.2284523563
 21
8.142557044
  0
LINE
  5
51C
100
AcDbEntity
  8
0
100
AcDbLine
 62
7
  6
CONTINUOUS
 10
17.0648776312
 20
26.5119647128
 11
17.443206353
 21
24.6632668504
  0
LINE
  5
51D
100
AcDbEntity
  8
0
100
AcDbLine
 62
7
  6
CONTINUOUS
 10
23.9370134482
 20
-6.4957497129
 11
23.9370134482
 21
-4.7327715994
  0
LINE
  5
51E
100
AcDbEntity
  8
0
100
AcDbLine
 62
7
  6
CONTINUOUS
 10
23.9370134482
 20
-2.7170003607
 11
23.9370134482
 21
-0.6504202155
  0
LINE
  5
51F
100
AcDbEntity
  8
0
100
AcDbLine
 62
7
  6
CONTINUOUS
 10
23.9370134482
 20
1.3653510233
 11
23.9370134482
 21
3.4319311685
  0
LINE
  5
520
100
AcDbEntity
  8
0
100
AcDbLine
 62
7
  6
CONTINUOUS
 10
23.9370134482
 20
5.4477024073
 11
23.9370134482
 21
7.5142825525
  0
LINE
  5
521
100
AcDbEntity
  8
0
100
AcDbLine
 62
7
  6
CONTINUOUS
 10
23.9370134482
 20
9.5300537912
 11
23.9370134482
 21
10.8421276571
  0
LINE
  5
522
100
AcDbEntity
  8
ASSI
100
AcDbLine
 62
7
  6
CONTINUOUS
 10
23.9370134482
 20
14.3669114545
 11
23.9370134482
 21
14.9244790411
  0
LINE
  5
523
100
AcDbEntity
  8
ASSI
100
AcDbLine
 62
7
  6
CONTINUOUS
 10
23.9370134482
 20
18.4492628384
 11
23.9370134482
 21
19.4577346726
  0
LINE
  5
524
100
AcDbEntity
  8
0
100
AcDbLine
 62
7
  6
CONTINUOUS
 10
14.5830285044
 20
19.92401947
 11
14.6544002837
 21
19.8828102991
  0
LINE
  5
525
100
AcDbEntity
  8
0
100
AcDbLine
 62
7
  6
CONTINUOUS
 10
14.653905931
 20
19.9647506508
 11
14.7266584624
 21
19.922744251
  0
LINE
  5
526
100
AcDbEntity
  8
0
100
AcDbLine
 62
7
  6
CONTINUOUS
 10
14.8665793078
 20
20.0869678104
 11
14.9434748961
 21
20.0425692614
  0
LINE
  5
527
100
AcDbEntity
  8
0
100
AcDbLine
 62
7
  6
CONTINUOUS
 10
23.9370134482
 20
14.9244790411
 11
23.2284523563
 21
15.3335933352
  0
LINE
  5
528
100
AcDbEntity
  8
0
100
AcDbLine
 62
7
  6
CONTINUOUS
 10
19.7518833997
 20
24.9605212581
 11
20.1302121215
 21
23.1118233958
  0
LINE
  5
529
100
AcDbEntity
  8
0
100
AcDbLine
 62
7
  6
CONTINUOUS
 10
14.3516839781
 20
22.7519468134
 11
14.234751783
 21
22.8194619974
  0
LINE
  5
52A
100
AcDbEntity
  8
0
100
AcDbLine
 62
7
  6
CONTINUOUS
 10
14.9657842283
 20
23.0913333058
 11
14.8371174418
 21
23.1656238958
  0
LINE
  5
52B
100
AcDbEntity
  8
0
100
AcDbLine
 62
7
  6
CONTINUOUS
 10
19.235232938
 20
22.4144372219
 11
19.076327894
 21
22.5061870027
  0
LINE
  5
52C
100
AcDbEntity
  8
0
100
AcDbLine
 62
7
  6
CONTINUOUS
 10
16.5482271695
 20
23.9658806765
 11
16.3893221255
 21
24.0576304573
  0
LINE
  5
52D
100
AcDbEntity
  8
0
100
AcDbLine
 62
7
  6
CONTINUOUS
 10
13.8612214009
 20
25.5173241312
 11
13.702316357
 21
25.609073912
  0
LINE
  5
52E
100
AcDbEntity
  8
0
100
AcDbLine
 62
7
  6
CONTINUOUS
 10
20.3096477197
 20
23.0082195302
 11
20.1302121215
 21
23.1118233958
  0
LINE
  5
52F
100
AcDbEntity
  8
0
100
AcDbLine
 62
7
  6
CONTINUOUS
 10
17.6226419512
 20
24.5596629849
 11
17.443206353
 21
24.6632668504
  0
LINE
  5
530
100
AcDbEntity
  8
0
100
AcDbLine
 62
7
  6
CONTINUOUS
 10
14.9356361827
 20
26.1111064395
 11
14.7562005845
 21
26.2147103051
  0
LINE
  5
531
100
AcDbEntity
  8
0
100
AcDbLine
 62
7
  6
CONTINUOUS
 10
11.0258153819
 20
29.9988435683
 11
14.3778718627
 21
28.0634081674
  0
LINE
  5
532
100
AcDbEntity
  8
0
100
AcDbLine
 62
7
  6
CONTINUOUS
 10
16.3782841269
 20
26.9083951971
 11
17.0648776312
 21
26.5119647128
  0
LINE
  5
533
100
AcDbEntity
  8
0
100
AcDbLine
 62
7
  6
CONTINUOUS
 10
19.0652898954
 20
25.3569517425
 11
19.7518833997
 21
24.9605212581
  0
LINE
  5
534
100
AcDbEntity
  8
0
100
AcDbLine
 62
7
  6
CONTINUOUS
 10
21.7522956639
 20
23.8055082878
 11
21.9930823075
 21
23.6664810976
  0
ARC
  5
535
100
AcDbEntity
  8
0
100
AcDbCircle
 62
7
  6
CONTINUOUS
 10
-42.1998576494
 20
-13.9143375877
 40
47.7726935358
100
AcDbArc
 50
32.5296236057
 51
35.2870603591
  0
ARC
  5
536
100
AcDbEntity
  8
0
100
AcDbCircle
 62
7
  6
CONTINUOUS
 10
-44.6751724213
 20
-15.2953137635
 40
47.3794655596
100
AcDbArc
 50
34.7193194164
 51
35.2461842875
  0
ARC
  5
537
100
AcDbEntity
  8
0
100
AcDbCircle
 62
7
  6
CONTINUOUS
 10
-18.7224900546
 20
-0.3866189556
 40
47.2896336943
100
AcDbArc
 50
26.4291008581
 51
30.5728621343
  0
ARC
  5
538
100
AcDbEntity
  8
0
100
AcDbCircle
 62
7
  6
CONTINUOUS
 10
-44.1453663575
 20
-14.913594377
 40
46.7264533601
100
AcDbArc
 50
36.3313394488
 51
36.5434158578
  0
ARC
  5
539
100
AcDbEntity
  8
0
100
AcDbCircle
 62
7
  6
CONTINUOUS
 10
-41.2405116187
 20
-13.2351324618
 40
46.5972106683
100
AcDbArc
 50
36.2832730419
 51
36.6386100102
  0
ARC
  5
53A
100
AcDbEntity
  8
0
100
AcDbCircle
 62
250
  6
CONTINUOUS
 10
-44.566354791
 20
-15.1327656188
 40
46.5462245806
100
AcDbArc
 50
36.6068032558
 51
36.9307533658
  0
ARC
  5
53B
100
AcDbEntity
  8
0
100
AcDbCircle
 62
7
  6
CONTINUOUS
 10
-43.9807063244
 20
-14.7912080109
 40
46.521291403
100
AcDbArc
 50
36.6651784599
 51
36.9620990578
  0
ARC
  5
53C
100
AcDbEntity
  8
0
100
AcDbCircle
 62
7
  6
CONTINUOUS
 10
-43.8718196281
 20
-14.7105559721
 40
46.3857887932
100
AcDbArc
 50
36.5431229988
 51
36.6655814266
  0
ARC
  5
53D
100
AcDbEntity
  8
0
100
AcDbCircle
 62
250
  6
CONTINUOUS
 10
-44.5334723164
 20
-15.1177808486
 40
46.2316900824
100
AcDbArc
 50
36.5436255894
 51
36.9310238763
  0
ARC
  5
53E
100
AcDbEntity
  8
0
100
AcDbCircle
 62
7
  6
CONTINUOUS
 10
17.5968363638
 20
-0.3156303504
 40
9.2553491382
100
AcDbArc
 50
301.2622009115
 51
310.6385518434
  0
ARC
  5
53F
100
AcDbEntity
  8
IMPORT_IGES
100
AcDbCircle
 62
250
  6
CONTINUOUS
 10
10.0369585533
 20
4.3914066087
 40
3.189145242
100
AcDbArc
 50
297.7395956117
 51
300.6241982743
  0
ARC
  5
540
100
AcDbEntity
  8
ASSI
100
AcDbCircle
 62
250
  6
CONTINUOUS
 10
-13.3980356008
 20
-14.0134222985
 40
1.8387950446
100
AcDbArc
 50
55.9301278046
 51
59.9713309033
  0
ARC
  5
541
100
AcDbEntity
  8
0
100
AcDbCircle
 62
250
  6
CONTINUOUS
 10
-13.3980356008
 20
-14.0134222985
 40
1.8387950446
100
AcDbArc
 50
55.9301278046
 51
59.9713309033
  0
ARC
  5
542
100
AcDbEntity
  8
0
100
AcDbCircle
 62
250
  6
CONTINUOUS
 10
-10.7110656784
 20
-5.8088048203
 40
0.8820349033
100
AcDbArc
 50
41.0404002986
 51
44.4165651386
  0
ARC
  5
543
100
AcDbEntity
  8
ASSI
100
AcDbCircle
 62
250
  6
CONTINUOUS
 10
-23.4477874928
 20
-20.6989938981
 40
0.182236245
100
AcDbArc
 50
182.0898523032
 51
186.2295222256
  0
ARC
  5
544
100
AcDbEntity
  8
0
100
AcDbCircle
 62
250
  6
CONTINUOUS
 10
-23.4477874928
 20
-20.6989938981
 40
0.1822362451
100
AcDbArc
 50
182.0898528198
 51
186.2295222255
  0
ARC
  5
545
100
AcDbEntity
  8
ASSI
100
AcDbCircle
 62
250
  6
CONTINUOUS
 10
-9.9708613055
 20
-10.2112771895
 40
0.1425049201
100
AcDbArc
 50
260.9384133997
 51
267.5289190759
  0
ARC
  5
546
100
AcDbEntity
  8
0
100
AcDbCircle
 62
250
  6
CONTINUOUS
 10
-9.9708613055
 20
-10.2112771895
 40
0.1425049201
100
AcDbArc
 50
260.9384133997
 51
267.5289190759
  0
ARC
  5
547
100
AcDbEntity
  8
0
100
AcDbCircle
 62
7
  6
CONTINUOUS
 10
-362.0580038419
 20
619.6887634275
 40
704.2863030672
100
AcDbArc
 50
300.3702033161
 51
300.6323837543
  0
ARC
  5
548
100
AcDbEntity
  8
0
100
AcDbCircle
 62
250
  6
CONTINUOUS
 10
-11.2910414593
 20
5.3134703761
 40
10.7220071283
100
AcDbArc
 50
99.948721837
 51
100.4518758433
  0
ARC
  5
549
100
AcDbEntity
  8
0
100
AcDbCircle
 62
250
  6
CONTINUOUS
 10
-11.2589260915
 20
5.7709205151
 40
10.5250092742
100
AcDbArc
 50
99.95987721
 51
100.3027723444
  0
ARC
  5
54A
100
AcDbEntity
  8
0
100
AcDbCircle
 62
7
  6
CONTINUOUS
 10
-10.6963921783
 20
6.1153222966
 40
10.5069501998
100
AcDbArc
 50
99.8752145205
 51
100.6758272945
  0
ARC
  5
54B
100
AcDbEntity
  8
0
100
AcDbCircle
 62
250
  6
CONTINUOUS
 10
-11.2706772477
 20
5.8351933801
 40
10.4596710281
100
AcDbArc
 50
100.3024081015
 51
101.0064457617
  0
ARC
  5
54C
100
AcDbEntity
  8
0
100
AcDbCircle
 62
7
  6
CONTINUOUS
 10
-10.7114388467
 20
6.1954949487
 40
10.425377827
100
AcDbArc
 50
100.6761895844
 51
101.0069843235
  0
ARC
  5
54D
100
AcDbEntity
  8
0
100
AcDbCircle
 62
7
  6
CONTINUOUS
 10
-10.72049997
 20
6.2415751039
 40
10.3784152672
100
AcDbArc
 50
101.0707950979
 51
101.5847919782
  0
ARC
  5
54E
100
AcDbEntity
  8
0
100
AcDbCircle
 62
7
  6
CONTINUOUS
 10
-7.8672425365
 20
7.8254385534
 40
10.3641760642
100
AcDbArc
 50
100.7474819533
 51
101.7154373433
  0
ARC
  5
54F
100
AcDbEntity
  8
0
100
AcDbCircle
 62
250
  6
CONTINUOUS
 10
-11.3976090204
 20
5.9084227512
 40
10.1175945318
100
AcDbArc
 50
100.4696050665
 51
101.013385788
  0
ARC
  5
550
100
AcDbEntity
  8
0
100
AcDbCircle
 62
7
  6
CONTINUOUS
 10
-10.8182996297
 20
6.6563823958
 40
9.9521519253
100
AcDbArc
 50
104.6973139873
 51
106.0838392319
  0
ARC
  5
551
100
AcDbEntity
  8
0
100
AcDbCircle
 62
7
  6
CONTINUOUS
 10
-8.0135700159
 20
8.4186350857
 40
9.7530447763
100
AcDbArc
 50
104.439809844
 51
112.3868489487
  0
ARC
  5
552
100
AcDbEntity
  8
IMPORT_IGES
100
AcDbCircle
 62
7
  6
CONTINUOUS
 10
14.5267720181
 20
10.13706956
 40
6.5286072314
100
AcDbArc
 50
266.8946827963
 51
278.6277091597
  0
ARC
  5
553
100
AcDbEntity
  8
IMPORT_IGES
100
AcDbCircle
 62
250
  6
CONTINUOUS
 10
14.7227652746
 20
12.4056721595
 40
4.5113121223
100
AcDbArc
 50
282.5879817836
 51
287.9300970581
  0
ARC
  5
554
100
AcDbEntity
  8
IMPORT_IGES
100
AcDbCircle
 62
250
  6
CONTINUOUS
 10
15.8378145716
 20
10.3236376084
 40
2.1301797152
100
AcDbArc
 50
311.0568759332
 51
313.5539550287
  0
ARC
  5
555
100
AcDbEntity
  8
IMPORT_IGES
100
AcDbCircle
 62
7
  6
CONTINUOUS
 10
10.0989787163
 20
9.7583842344
 40
1.690112323
100
AcDbArc
 50
239.9670082682
 51
241.945840318
  0
ARC
  5
556
100
AcDbEntity
  8
0
100
AcDbCircle
 62
250
  6
CONTINUOUS
 10
-6.6562361139
 20
11.677727466
 40
1.0388430842
100
AcDbArc
 50
129.279665653
 51
130.6364281956
  0
ARC
  5
557
100
AcDbEntity
  8
0
100
AcDbCircle
 62
250
  6
CONTINUOUS
 10
-6.7850832684
 20
11.9152724684
 40
0.7704057791
100
AcDbArc
 50
120.0392672092
 51
121.6999110726
  0
ARC
  5
558
100
AcDbEntity
  8
0
100
AcDbCircle
 62
7
  6
CONTINUOUS
 10
-12.7333543064
 20
16.7725007619
 40
0.7655694488
100
AcDbArc
 50
219.3105864485
 51
223.8990592924
  0
ARC
  5
559
100
AcDbEntity
  8
0
100
AcDbCircle
 62
7
  6
CONTINUOUS
 10
-13.3522840535
 20
16.3373146598
 40
0.5522285463
100
AcDbArc
 50
3.9416074335
 51
7.4134052784
  0
ARC
  5
55A
100
AcDbEntity
  8
0
100
AcDbCircle
 62
250
  6
CONTINUOUS
 10
-6.8992391188
 20
12.6912259088
 40
0.4273810061
100
AcDbArc
 50
294.545133221
 51
299.1745893546
  0
ARC
  5
55B
100
AcDbEntity
  8
0
100
AcDbCircle
 62
250
  6
CONTINUOUS
 10
-13.1129667974
 20
15.9379969369
 40
0.2378602396
100
AcDbArc
 50
173.258282374
 51
179.451802641
  0
ARC
  5
55C
100
AcDbEntity
  8
0
100
AcDbCircle
 62
250
  6
CONTINUOUS
 10
-13.1258820531
 20
15.939577086
 40
0.2248487937
100
AcDbArc
 50
166.7915532723
 51
173.2718009364
  0
ARC
  5
55D
100
AcDbEntity
  8
0
100
AcDbCircle
 62
7
  6
CONTINUOUS
 10
-13.1890359652
 20
15.9213322006
 40
0.2
100
AcDbArc
 50
119.8982859922
 51
179.9999999204
  0
ARC
  5
55E
100
AcDbEntity
  8
0
100
AcDbCircle
 62
7
  6
CONTINUOUS
 10
-13.1890359652
 20
15.9114221266
 40
0.2
100
AcDbArc
 50
179.8599417628
 51
239.1373443264
  0
ARC
  5
55F
100
AcDbEntity
  8
0
100
AcDbCircle
 62
250
  6
CONTINUOUS
 10
-13.1977388804
 20
15.9817967349
 40
0.13944934
100
AcDbArc
 50
120.0797827481
 51
128.9159590961
  0
ARC
  5
560
100
AcDbEntity
  8
0
100
AcDbCircle
 62
250
  6
CONTINUOUS
 10
-13.322077485
 20
15.9213607004
 40
0.0669584862
100
AcDbArc
 50
180.0243869723
 51
188.0259142773
  0
ARC
  5
561
100
AcDbEntity
  8
0
100
AcDbCircle
 62
7
  6
CONTINUOUS
 10
341.3277930243
 20
-609.3760271493
 40
712.7770141877
100
AcDbArc
 50
118.9490122537
 51
119.2087461805
  0
ARC
  5
562
100
AcDbEntity
  8
ASSI
100
AcDbCircle
 62
250
  6
CONTINUOUS
 10
477.4831500172
 20
-12.0094454125
 40
487.3343417114
100
AcDbArc
 50
179.2714596697
 51
179.8158072882
  0
ARC
  5
563
100
AcDbEntity
  8
0
100
AcDbCircle
 62
250
  6
CONTINUOUS
 10
477.4831500172
 20
-12.0094454125
 40
487.3343417114
100
AcDbArc
 50
179.2714596697
 51
179.8158072882
  0
ARC
  5
564
100
AcDbEntity
  8
ASSI
100
AcDbCircle
 62
250
  6
CONTINUOUS
 10
471.3234990122
 20
-12.6572507758
 40
479.5749297744
100
AcDbArc
 50
177.9117219798
 51
179.4049525699
  0
ARC
  5
565
100
AcDbEntity
  8
0
100
AcDbCircle
 62
250
  6
CONTINUOUS
 10
471.3234990122
 20
-12.6572507758
 40
479.5749297744
100
AcDbArc
 50
177.9117219798
 51
179.4049525699
  0
ARC
  5
566
100
AcDbEntity
  8
ASSI
100
AcDbCircle
 62
250
  6
CONTINUOUS
 10
470.1947594053
 20
-12.6310938789
 40
479.1468521523
100
AcDbArc
 50
177.9104877286
 51
179.5173144975
  0
ARC
  5
567
100
AcDbEntity
  8
0
100
AcDbCircle
 62
250
  6
CONTINUOUS
 10
470.1947594053
 20
-12.6310938789
 40
479.1468521523
100
AcDbArc
 50
177.9104877286
 51
179.5173144975
  0
ARC
  5
568
100
AcDbEntity
  8
ASSI
100
AcDbCircle
 62
250
  6
CONTINUOUS
 10
449.232729119
 20
-6.2243713313
 40
469.0831051923
100
AcDbArc
 50
179.2446339087
 51
179.8100702856
  0
ARC
  5
569
100
AcDbEntity
  8
0
100
AcDbCircle
 62
250
  6
CONTINUOUS
 10
449.232729119
 20
-6.2243713313
 40
469.0831051923
100
AcDbArc
 50
179.2446339087
 51
179.8100702856
  0
ARC
  5
56A
100
AcDbEntity
  8
ASSI
100
AcDbCircle
 62
250
  6
CONTINUOUS
 10
449.3669234815
 20
-6.2264792505
 40
468.7967699896
100
AcDbArc
 50
179.2446260601
 51
179.8100683302
  0
ARC
  5
56B
100
AcDbEntity
  8
0
100
AcDbCircle
 62
250
  6
CONTINUOUS
 10
449.3669234815
 20
-6.2264792505
 40
468.7967699896
100
AcDbArc
 50
179.2446260601
 51
179.8100683302
  0
SPLINE
  5
56C
100
AcDbEntity
  8
IMPORT_IGES
100
AcDbSpline
 62
7
  6
CONTINUOUS
 70
0
 71
3
 72
13
 73
9
 74
0
 42
0.0000001
 43
0.0000001
 44
0.0000000001
 40
0.0
 40
0.0
 40
0.0
 40
0.0
 40
0.0874137725
 40
0.183317858
 40
0.2927399166
 40
0.4173268958
 40
0.7000566177
 40
1.0
 40
1.0
 40
1.0
 40
1.0
 10
-10.1755748279
 20
-7.1440367581
 30
0.0
 10
-10.1754877986
 20
-7.1530938017
 30
0.0
 10
-10.1711459496
 20
-7.1721818847
 30
0.0
 10
-10.1540585025
 20
-7.19783451
 30
0.0
 10
-10.1276338655
 20
-7.2200963545
 30
0.0
 10
-10.0798453712
 20
-7.2448814569
 30
0.0
 10
-10.0073136371
 20
-7.2618077168
 30
0.0
 10
-9.9461819977
 20
-7.2588396861
 30
0.0
 10
-9.9156114559
 20
-7.2532413566
 30
0.0
  0
SPLINE
  5
56D
100
AcDbEntity
  8
IMPORT_IGES
100
AcDbSpline
 62
7
  6
CONTINUOUS
 70
0
 71
3
 72
9
 73
5
 74
0
 42
0.0000001
 43
0.0000001
 44
0.0000000001
 40
0.0
 40
0.0
 40
0.0
 40
0.0
 40
0.4549702238
 40
1.0
 40
1.0
 40
1.0
 40
1.0
 10
-9.9634427936
 20
-6.6949347054
 30
0.0
 10
-9.9633068321
 20
-6.7090840701
 30
0.0
 10
-9.9520054939
 20
-6.7402013073
 30
0.0
 10
-9.9278950046
 20
-6.7612864793
 30
0.0
 10
-9.9137031607
 20
-6.7705561361
 30
0.0
  0
SPLINE
  5
56E
100
AcDbEntity
  8
IMPORT_IGES
100
AcDbSpline
 62
7
  6
CONTINUOUS
 70
0
 71
3
 72
15
 73
11
 74
0
 42
0.0000001
 43
0.0000001
 44
0.0000000001
 40
0.0
 40
0.0
 40
0.0
 40
0.0
 40
0.0865214176
 40
0.1854111128
 40
0.3025268936
 40
0.4363190908
 40
0.5808648607
 40
0.7292896552
 40
0.8723470229
 40
1.0
 40
1.0
 40
1.0
 40
1.0
 10
-10.7412602529
 20
-6.8174170834
 30
0.0
 10
-10.7411501404
 20
-6.8288763662
 30
0.0
 10
-10.7339781392
 20
-6.8535442788
 30
0.0
 10
-10.7070739458
 20
-6.8843812136
 30
0.0
 10
-10.6669515245
 20
-6.9085780232
 30
0.0
 10
-10.6170267015
 20
-6.9254169875
 30
0.0
 10
-10.560779233
 20
-6.9335914075
 30
0.0
 10
-10.5027642407
 20
-6.9314296916
 30
0.0
 10
-10.4481518443
 20
-6.9204232192
 30
0.0
 10
-10.4144968352
 20
-6.9070167415
 30
0.0
 10
-10.3998532668
 20
-6.8985647251
 30
0.0
  0
SPLINE
  5
56F
100
AcDbEntity
  8
IMPORT_IGES
100
AcDbSpline
 62
7
  6
CONTINUOUS
 70
0
 71
3
 72
15
 73
11
 74
0
 42
0.0000001
 43
0.0000001
 44
0.0000000001
 40
0.0
 40
0.0
 40
0.0
 40
0.0
 40
0.0865214176
 40
0.1854111128
 40
0.3025268936
 40
0.4363190908
 40
0.5808648607
 40
0.7292896552
 40
0.8723470229
 40
1.0
 40
1.0
 40
1.0
 40
1.0
 10
-11.3069456778
 20
-6.4907974088
 30
0.0
 10
-11.3068355654
 20
-6.5022566915
 30
0.0
 10
-11.2996635641
 20
-6.5269246042
 30
0.0
 10
-11.2727593707
 20
-6.557761539
 30
0.0
 10
-11.2326369494
 20
-6.5819583485
 30
0.0
 10
-11.1827121264
 20
-6.5987973128
 30
0.0
 10
-11.126464658
 20
-6.6069717328
 30
0.0
 10
-11.0684496656
 20
-6.604810017
 30
0.0
 10
-11.0138372693
 20
-6.5938035445
 30
0.0
 10
-10.9801822602
 20
-6.5803970668
 30
0.0
 10
-10.9655386917
 20
-6.5719450504
 30
0.0
  0
SPLINE
  5
570
100
AcDbEntity
  8
IMPORT_IGES
100
AcDbSpline
 62
7
  6
CONTINUOUS
 70
0
 71
3
 72
9
 73
5
 74
0
 42
0.0000001
 43
0.0000001
 44
0.0000000001
 40
0.0
 40
0.0
 40
0.0
 40
0.0
 40
0.5404438914
 40
1.0
 40
1.0
 40
1.0
 40
1.0
 10
-10.9655386917
 20
-6.5719450504
 30
0.0
 10
-10.9501723794
 20
-6.5630695888
 30
0.0
 10
-10.9239167228
 20
-6.5418995613
 30
0.0
 10
-10.9095412999
 20
-6.5102699209
 30
0.0
 10
-10.9080812019
 20
-6.4952513122
 30
0.0
  0
SPLINE
  5
571
100
AcDbEntity
  8
IMPORT_IGES
100
AcDbSpline
 62
7
  6
CONTINUOUS
 70
0
 71
3
 72
10
 73
6
 74
0
 42
0.0000001
 43
0.0000001
 44
0.0000000001
 40
0.0
 40
0.0
 40
0.0
 40
0.0
 40
0.5468224579
 40
0.7816506712
 40
1.0
 40
1.0
 40
1.0
 40
1.0
 10
-10.3998532668
 20
-6.8985647251
 30
0.0
 10
-10.3833079886
 20
-6.889008302
 30
0.0
 10
-10.3610137995
 20
-6.8714004934
 30
0.0
 10
-10.343731365
 20
-6.8404898611
 30
0.0
 10
-10.3410787809
 20
-6.8244755079
 30
0.0
 10
-10.3411841329
 20
-6.8168467638
 30
0.0
  0
SPLINE
  5
572
100
AcDbEntity
  8
IMPORT_IGES
100
AcDbSpline
 62
7
  6
CONTINUOUS
 70
0
 71
3
 72
14
 73
10
 74
0
 42
0.0000001
 43
0.0000001
 44
0.0000000001
 40
0.0
 40
0.0
 40
0.0
 40
0.0
 40
0.0871251337
 40
0.1872114371
 40
0.3052692958
 40
0.4392816421
 40
0.7303697502
 40
0.8720518658
 40
1.0
 40
1.0
 40
1.0
 40
1.0
 10
-10.3411841329
 20
-6.8168467638
 30
0.0
 10
-10.341343366
 20
-6.8053163973
 30
0.0
 10
-10.3486414383
 20
-6.7804047309
 30
0.0
 10
-10.376288383
 20
-6.7497660536
 30
0.0
 10
-10.4165325766
 20
-6.7253352602
 30
0.0
 10
-10.4849944392
 20
-6.7022078127
 30
0.0
 10
-10.5618011021
 20
-6.6979730815
 30
0.0
 10
-10.6347187934
 20
-6.7130219477
 30
0.0
 10
-10.6680291196
 20
-6.7267894281
 30
0.0
 10
-10.6826959793
 20
-6.7352548878
 30
0.0
  0
SPLINE
  5
573
100
AcDbEntity
  8
IMPORT_IGES
100
AcDbSpline
 62
7
  6
CONTINUOUS
 70
0
 71
3
 72
9
 73
5
 74
0
 42
0.0000001
 43
0.0000001
 44
0.0000000001
 40
0.0
 40
0.0
 40
0.0
 40
0.0
 40
0.5226182543
 40
1.0
 40
1.0
 40
1.0
 40
1.0
 10
-9.9143776942
 20
-7.033883478
 30
0.0
 10
-9.9498959891
 20
-7.0271230067
 30
0.0
 10
-10.0202079101
 20
-7.0252340063
 30
0.0
 10
-10.0884067885
 20
-7.0453649597
 30
0.0
 10
-10.1170105543
 20
-7.0618745624
 30
0.0
  0
SPLINE
  5
574
100
AcDbEntity
  8
IMPORT_IGES
100
AcDbSpline
 62
7
  6
CONTINUOUS
 70
0
 71
3
 72
9
 73
5
 74
0
 42
0.0000001
 43
0.0000001
 44
0.0000000001
 40
0.0
 40
0.0
 40
0.0
 40
0.0
 40
0.5479025663
 40
1.0
 40
1.0
 40
1.0
 40
1.0
 10
-11.2483814042
 20
-6.4086352131
 30
0.0
 10
-11.2648904103
 20
-6.4181706857
 30
0.0
 10
-11.293051753
 20
-6.4402689042
 30
0.0
 10
-11.3070968331
 20
-6.4750668391
 30
0.0
 10
-11.3069456778
 20
-6.4907974088
 30
0.0
  0
SPLINE
  5
575
100
AcDbEntity
  8
IMPORT_IGES
100
AcDbSpline
 62
7
  6
CONTINUOUS
 70
0
 71
3
 72
9
 73
5
 74
0
 42
0.0000001
 43
0.0000001
 44
0.0000000001
 40
0.0
 40
0.0
 40
0.0
 40
0.0
 40
0.5479025663
 40
1.0
 40
1.0
 40
1.0
 40
1.0
 10
-10.6826959793
 20
-6.7352548878
 30
0.0
 10
-10.6992049853
 20
-6.7447903604
 30
0.0
 10
-10.7273663281
 20
-6.7668885789
 30
0.0
 10
-10.7414114082
 20
-6.8016865138
 30
0.0
 10
-10.7412602529
 20
-6.8174170834
 30
0.0
  0
SPLINE
  5
576
100
AcDbEntity
  8
IMPORT_IGES
100
AcDbSpline
 62
7
  6
CONTINUOUS
 70
0
 71
3
 72
15
 73
11
 74
0
 42
0.0000001
 43
0.0000001
 44
0.0000000001
 40
0.0
 40
0.0
 40
0.0
 40
0.0
 40
0.0864198712
 40
0.185038443
 40
0.3022909384
 40
0.4357943247
 40
0.5806683355
 40
0.729917518
 40
0.8732043102
 40
1.0
 40
1.0
 40
1.0
 40
1.0
 10
-10.9080812019
 20
-6.4952513122
 30
0.0
 10
-10.9069610601
 20
-6.4837295026
 30
0.0
 10
-10.9115817853
 20
-6.4579262824
 30
0.0
 10
-10.9384734008
 20
-6.4261057915
 30
0.0
 10
-10.978175111
 20
-6.4006083305
 30
0.0
 10
-11.0283974164
 20
-6.3824077215
 30
0.0
 10
-11.0854276169
 20
-6.3741112397
 30
0.0
 10
-11.1442688509
 20
-6.3761445826
 30
0.0
 10
-11.1995991461
 20
-6.3868423326
 30
0.0
 10
-11.2336712769
 20
-6.4001447801
 30
0.0
 10
-11.2483814042
 20
-6.4086352131
 30
0.0
  0
SPLINE
  5
577
100
AcDbEntity
  8
IMPORT_IGES
100
AcDbSpline
 62
7
  6
CONTINUOUS
 70
0
 71
3
 72
9
 73
5
 74
0
 42
0.0000001
 43
0.0000001
 44
0.0000000001
 40
0.0
 40
0.0
 40
0.0
 40
0.0
 40
0.5445326996
 40
1.0
 40
1.0
 40
1.0
 40
1.0
 10
-9.9112825428
 20
-6.6166602622
 30
0.0
 10
-9.9261380473
 20
-6.6261360261
 30
0.0
 10
-9.951419044
 20
-6.6477417774
 30
0.0
 10
-9.9635844076
 20
-6.6801970877
 30
0.0
 10
-9.9634427936
 20
-6.6949347054
 30
0.0
  0
SPLINE
  5
578
100
AcDbEntity
  8
IMPORT_IGES
100
AcDbSpline
 62
7
  6
CONTINUOUS
 70
0
 71
3
 72
9
 73
5
 74
0
 42
0.0000001
 43
0.0000001
 44
0.0000000001
 40
0.0
 40
0.0
 40
0.0
 40
0.0
 40
0.5479025663
 40
1.0
 40
1.0
 40
1.0
 40
1.0
 10
-10.1170105543
 20
-7.0618745624
 30
0.0
 10
-10.1335195604
 20
-7.0714100351
 30
0.0
 10
-10.1616809031
 20
-7.0935082535
 30
0.0
 10
-10.1757259832
 20
-7.1283061885
 30
0.0
 10
-10.1755748279
 20
-7.1440367581
 30
0.0
  0
SPLINE
  5
579
100
AcDbEntity
  8
ASSI
100
AcDbSpline
 62
7
  6
CONTINUOUS
 70
0
 71
3
 72
13
 73
9
 74
0
 42
0.0000001
 43
0.0000001
 44
0.0000000001
 40
0.0
 40
0.0
 40
0.0
 40
0.0
 40
0.1142258101
 40
0.2375599144
 40
0.5000060653
 40
0.7624488966
 40
0.885779122
 40
1.0
 40
1.0
 40
1.0
 40
1.0
 10
-15.5931990212
 20
-12.2257357403
 30
0.0
 10
-15.6663797872
 20
-12.1834820832
 30
0.0
 10
-15.8109777788
 20
-12.0820945156
 30
0.0
 10
-16.0817108533
 20
-11.8287450538
 30
0.0
 10
-16.3676546415
 20
-11.4381331001
 30
0.0
 10
-16.562962287
 20
-10.9951951751
 30
0.0
 10
-16.6469977103
 20
-10.6340666515
 30
0.0
 10
-16.6624990093
 20
-10.4581534166
 30
0.0
 10
-16.6624990093
 20
-10.3736538342
 30
0.0
  0
SPLINE
  5
57A
100
AcDbEntity
  8
ASSI
100
AcDbSpline
 62
250
  6
CONTINUOUS
 70
0
 71
3
 72
11
 73
7
 74
0
 42
0.0000001
 43
0.0000001
 44
0.0000000001
 40
0.0
 40
0.0
 40
0.0
 40
0.0
 40
0.2162150171
 40
0.4484381585
 40
0.7081758444
 40
1.0
 40
1.0
 40
1.0
 40
1.0
 10
-11.4616318642
 20
-15.8620491031
 30
0.0
 10
-11.5119864465
 20
-15.8925291751
 30
0.0
 10
-11.6288111582
 20
-15.9369728754
 30
0.0
 10
-11.824289836
 20
-15.9428619959
 30
0.0
 10
-12.0336185141
 20
-15.8924870945
 30
0.0
 10
-12.1700643303
 20
-15.8274669101
 30
0.0
 10
-12.2388650789
 20
-15.7877445683
 30
0.0
  0
SPLINE
  5
57B
100
AcDbEntity
  8
ASSI
100
AcDbSpline
 62
250
  6
CONTINUOUS
 70
0
 71
3
 72
8
 73
4
 74
0
 42
0.0000001
 43
0.0000001
 44
0.0000000001
 40
0.0
 40
0.0
 40
0.0
 40
0.0
 40
1.0
 40
1.0
 40
1.0
 40
1.0
 10
-18.5065893183
 20
-11.1678032255
 30
0.0
 10
-18.5088161568
 20
-10.9238494547
 30
0.0
 10
-18.5108473374
 20
-10.6798938199
 30
0.0
 10
-18.5126833798
 20
-10.435936795
 30
0.0
  0
SPLINE
  5
57C
100
AcDbEntity
  8
ASSI
100
AcDbSpline
 62
250
  6
CONTINUOUS
 70
0
 71
3
 72
15
 73
11
 74
0
 42
0.0000001
 43
0.0000001
 44
0.0000000001
 40
0.0
 40
0.0
 40
0.0
 40
0.0
 40
0.143057667
 40
0.2723321572
 40
0.3899604746
 40
0.5008385072
 40
0.6115690375
 40
0.728800497
 40
0.8575300311
 40
1.0
 40
1.0
 40
1.0
 40
1.0
 10
-7.5923503373
 20
-29.6698474011
 30
0.0
 10
-7.6133652853
 20
-29.6803207729
 30
0.0
 10
-7.6550951501
 20
-29.6971293439
 30
0.0
 10
-7.7185812081
 20
-29.7086932577
 30
0.0
 10
-7.7779037957
 20
-29.7044753549
 30
0.0
 10
-7.8306742832
 20
-29.683985847
 30
0.0
 10
-7.8741429711
 20
-29.6478173822
 30
0.0
 10
-7.9064287078
 20
-29.5980730439
 30
0.0
 10
-7.9267902317
 20
-29.5370950619
 30
0.0
 10
-7.9320497781
 20
-29.4925992447
 30
0.0
 10
-7.9329305184
 20
-29.4692321015
 30
0.0
  0
SPLINE
  5
57D
100
AcDbEntity
  8
ASSI
100
AcDbSpline
 62
250
  6
CONTINUOUS
 70
0
 71
3
 72
13
 73
9
 74
0
 42
0.0000001
 43
0.0000001
 44
0.0000000001
 40
0.0
 40
0.0
 40
0.0
 40
0.0
 40
0.1144104319
 40
0.237960323
 40
0.5008375041
 40
0.763172088
 40
0.8861633543
 40
1.0
 40
1.0
 40
1.0
 40
1.0
 10
-17.1848895419
 20
-13.4209707616
 30
0.0
 10
-17.2743521824
 20
-13.3693075819
 30
0.0
 10
-17.4512763702
 20
-13.2455936659
 30
0.0
 10
-17.7832381393
 20
-12.9369314172
 30
0.0
 10
-18.1353666638
 20
-12.4620481811
 30
0.0
 10
-18.3783017165
 20
-11.9235380415
 30
0.0
 10
-18.4848035747
 20
-11.4844675656
 30
0.0
 10
-18.5056455966
 20
-11.2705892947
 30
0.0
 10
-18.5065893183
 20
-11.1678032255
 30
0.0
  0
SPLINE
  5
57E
100
AcDbEntity
  8
ASSI
100
AcDbSpline
 62
250
  6
CONTINUOUS
 70
0
 71
3
 72
9
 73
5
 74
0
 42
0.0000001
 43
0.0000001
 44
0.0000000001
 40
0.0
 40
0.0
 40
0.0
 40
0.0
 40
0.2475895888
 40
1.0
 40
1.0
 40
1.0
 40
1.0
 10
-8.6335005779
 20
-29.4826808913
 30
0.0
 10
-8.6987237237
 20
-27.7597574292
 30
0.0
 10
-8.9207713356
 20
-20.7994511277
 30
0.0
 10
-8.9789406924
 20
-13.83402374
 30
0.0
 10
-8.9350899911
 20
-8.5945923179
 30
0.0
  0
SPLINE
  5
57F
100
AcDbEntity
  8
ASSI
100
AcDbSpline
 62
250
  6
CONTINUOUS
 70
0
 71
3
 72
9
 73
5
 74
0
 42
0.0000001
 43
0.0000001
 44
0.0000000001
 40
0.0
 40
0.0
 40
0.0
 40
0.0
 40
0.2476696759
 40
1.0
 40
1.0
 40
1.0
 40
1.0
 10
-7.9329305184
 20
-29.4692321015
 30
0.0
 10
-7.9958600523
 20
-27.8069225348
 30
0.0
 10
-8.211395801
 20
-21.0937060696
 30
0.0
 10
-8.2742229081
 20
-14.3756799127
 30
0.0
 10
-8.2397013158
 20
-9.322689458
 30
0.0
  0
SPLINE
  5
580
100
AcDbEntity
  8
ASSI
100
AcDbSpline
 62
250
  6
CONTINUOUS
 70
0
 71
3
 72
11
 73
7
 74
0
 42
0.0000001
 43
0.0000001
 44
0.0000000001
 40
0.0
 40
0.0
 40
0.0
 40
0.0
 40
0.2354292219
 40
0.4963044424
 40
0.7591925313
 40
1.0
 40
1.0
 40
1.0
 40
1.0
 10
-8.6335005703
 20
-29.4826808866
 30
0.0
 10
-8.5840294374
 20
-29.5112047838
 30
0.0
 10
-8.468610037
 20
-29.5522492601
 30
0.0
 10
-8.2837730497
 20
-29.5692434969
 30
0.0
 10
-8.0984541061
 20
-29.544815355
 30
0.0
 10
-7.9828983923
 20
-29.4994795931
 30
0.0
 10
-7.9329305184
 20
-29.4692321015
 30
0.0
  0
SPLINE
  5
581
100
AcDbEntity
  8
ASSI
100
AcDbSpline
 62
250
  6
CONTINUOUS
 70
0
 71
3
 72
11
 73
7
 74
0
 42
0.0000001
 43
0.0000001
 44
0.0000000001
 40
0.0
 40
0.0
 40
0.0
 40
0.0
 40
0.2379940153
 40
0.4988661959
 40
0.7603483924
 40
1.0
 40
1.0
 40
1.0
 40
1.0
 10
-8.6335005779
 20
4.8389767843
 30
0.0
 10
-8.6295419847
 20
4.9491258878
 30
0.0
 10
-8.5839136038
 20
5.178918323
 30
0.0
 10
-8.4385129373
 20
5.5022593156
 30
0.0
 10
-8.2294889091
 20
5.7895644624
 30
0.0
 10
-8.0522056621
 20
5.9442040238
 30
0.0
 10
-7.9581830773
 20
6.0031791302
 30
0.0
  0
SPLINE
  5
582
100
AcDbEntity
  8
ASSI
100
AcDbSpline
 62
250
  6
CONTINUOUS
 70
0
 71
3
 72
11
 73
7
 74
0
 42
0.0000001
 43
0.0000001
 44
0.0000000001
 40
0.0
 40
0.0
 40
0.0
 40
0.0
 40
0.2377325506
 40
0.4983582977
 40
0.7598661986
 40
1.0
 40
1.0
 40
1.0
 40
1.0
 10
-7.9329305184
 20
4.8181039165
 30
0.0
 10
-7.930939534
 20
4.8731475371
 30
0.0
 10
-7.9079116318
 20
4.9879785369
 30
0.0
 10
-7.8345403583
 20
5.1493532476
 30
0.0
 10
-7.7290554273
 20
5.2925154186
 30
0.0
 10
-7.6397037294
 20
5.3693118563
 30
0.0
 10
-7.5923503373
 20
5.3985182919
 30
0.0
  0
SPLINE
  5
583
100
AcDbEntity
  8
ASSI
100
AcDbSpline
 62
250
  6
CONTINUOUS
 70
0
 71
3
 72
11
 73
7
 74
0
 42
0.0000001
 43
0.0000001
 44
0.0000000001
 40
0.0
 40
0.0
 40
0.0
 40
0.0
 40
0.2380660563
 40
0.5015435169
 40
0.7641864361
 40
1.0
 40
1.0
 40
1.0
 40
1.0
 10
-8.6334846676
 20
4.8389852006
 30
0.0
 10
-8.5837609683
 20
4.8102314227
 30
0.0
 10
-8.4687679746
 20
4.7672264167
 30
0.0
 10
-8.2847956876
 20
4.7427499043
 30
0.0
 10
-8.1002331066
 20
4.7561165443
 30
0.0
 10
-7.9836193287
 20
4.7922633711
 30
0.0
 10
-7.9329305185
 20
4.8181039166
 30
0.0
  0
SPLINE
  5
584
100
AcDbEntity
  8
ASSI
100
AcDbSpline
 62
250
  6
CONTINUOUS
 70
0
 71
3
 72
11
 73
7
 74
0
 42
0.0000001
 43
0.0000001
 44
0.0000000001
 40
0.0
 40
0.0
 40
0.0
 40
0.0
 40
0.237884453
 40
0.5022304351
 40
0.7653705117
 40
1.0
 40
1.0
 40
1.0
 40
1.0
 10
-7.9581830773
 20
6.0031791302
 30
0.0
 10
-7.9085882126
 20
5.9734759179
 30
0.0
 10
-7.8143569773
 20
5.8932037726
 30
0.0
 10
-7.7019217516
 20
5.7435785982
 30
0.0
 10
-7.6218183365
 20
5.57530978
 30
0.0
 10
-7.5950491778
 20
5.4554728204
 30
0.0
 10
-7.5923503373
 20
5.3985182919
 30
0.0
  0
SPLINE
  5
585
100
AcDbEntity
  8
ASSI
100
AcDbSpline
 62
250
  6
CONTINUOUS
 70
0
 71
3
 72
15
 73
11
 74
0
 42
0.0000001
 43
0.0000001
 44
0.0000000001
 40
0.0
 40
0.0
 40
0.0
 40
0.0
 40
0.1450845631
 40
0.2745448203
 40
0.3906096352
 40
0.4988860412
 40
0.6073533459
 40
0.7239327683
 40
0.8540958564
 40
1.0
 40
1.0
 40
1.0
 40
1.0
 10
-11.1573299564
 20
-15.4111734732
 30
0.0
 10
-11.1565160244
 20
-15.5041763592
 30
0.0
 10
-11.1689202572
 20
-15.680899676
 30
0.0
 10
-11.2380865368
 20
-15.923848587
 30
0.0
 10
-11.3567710943
 20
-16.1210244002
 30
0.0
 10
-11.5229365014
 20
-16.261612086
 30
0.0
 10
-11.728018377
 20
-16.3354353122
 30
0.0
 10
-11.9589547023
 20
-16.340323724
 30
0.0
 10
-12.2055303849
 20
-16.2799126441
 30
0.0
 10
-12.3662719998
 20
-16.2031744489
 30
0.0
 10
-12.447274108
 20
-16.1564105369
 30
0.0
  0
SPLINE
  5
586
100
AcDbEntity
  8
ASSI
100
AcDbSpline
 62
250
  6
CONTINUOUS
 70
0
 71
3
 72
8
 73
4
 74
0
 42
0.0000001
 43
0.0000001
 44
0.0000000001
 40
0.0
 40
0.0
 40
0.0
 40
0.0
 40
1.0
 40
1.0
 40
1.0
 40
1.0
 10
-11.1632150464
 20
-14.6794277002
 30
0.0
 10
-11.1614419927
 20
-14.9233444021
 30
0.0
 10
-11.1594804695
 20
-15.1672598072
 30
0.0
 10
-11.1573299564
 20
-15.4111734732
 30
0.0
  0
SPLINE
  5
587
100
AcDbEntity
  8
ASSI
100
AcDbSpline
 62
250
  6
CONTINUOUS
 70
0
 71
3
 72
12
 73
8
 74
0
 42
0.0000001
 43
0.0000001
 44
0.0000000001
 40
0.0
 40
0.0
 40
0.0
 40
0.0
 40
0.2424662254
 40
0.5054001574
 40
0.7652500658
 40
0.8869992449
 40
1.0
 40
1.0
 40
1.0
 40
1.0
 10
-12.3679361836
 20
-12.4902471914
 30
0.0
 10
-12.1950990066
 20
-12.6068469622
 30
0.0
 10
-11.8716409296
 20
-12.9055525528
 30
0.0
 10
-11.4949808883
 20
-13.4498728641
 30
0.0
 10
-11.2765845362
 20
-13.9647659177
 30
0.0
 10
-11.1821396185
 20
-14.3803444465
 30
0.0
 10
-11.1639261188
 20
-14.5822639488
 30
0.0
 10
-11.1632150464
 20
-14.6794277002
 30
0.0
  0
SPLINE
  5
588
100
AcDbEntity
  8
ASSI
100
AcDbSpline
 62
250
  6
CONTINUOUS
 70
0
 71
3
 72
15
 73
11
 74
0
 42
0.0000001
 43
0.0000001
 44
0.0000000001
 40
0.0
 40
0.0
 40
0.0
 40
0.0
 40
0.1447937732
 40
0.2742193736
 40
0.3904995031
 40
0.4991371186
 40
0.6079199881
 40
0.7245933835
 40
0.8545589738
 40
1.0
 40
1.0
 40
1.0
 40
1.0
 10
-18.5126833798
 20
-10.435936795
 30
0.0
 10
-18.5133779228
 20
-10.3427494712
 30
0.0
 10
-18.5005902218
 20
-10.1655413421
 30
0.0
 10
-18.4304372005
 20
-9.921888397
 30
0.0
 10
-18.3105196924
 20
-9.7239957917
 30
0.0
 10
-18.1431391579
 20
-9.5826930876
 30
0.0
 10
-17.936942328
 20
-9.5080724256
 30
0.0
 10
-17.7049670613
 20
-9.5024702053
 30
0.0
 10
-17.4576018442
 20
-9.5624628912
 30
0.0
 10
-17.2965233968
 20
-9.6391980026
 30
0.0
 10
-17.2154568165
 20
-9.6859995406
 30
0.0
  0
SPLINE
  5
589
100
AcDbEntity
  8
ASSI
100
AcDbSpline
 62
250
  6
CONTINUOUS
 70
0
 71
3
 72
9
 73
5
 74
0
 42
0.0000001
 43
0.0000001
 44
0.0000000001
 40
0.0
 40
0.0
 40
0.0
 40
0.0
 40
0.2459939215
 40
1.0
 40
1.0
 40
1.0
 40
1.0
 10
-23.4834996755
 20
-20.9084775266
 30
0.0
 10
-23.5864072042
 20
-18.0957114316
 30
0.0
 10
-23.897278446
 20
-6.6576556865
 30
0.0
 10
-23.785721524
 20
4.7911822273
 30
0.0
 10
-23.4834996755
 20
13.4131801491
 30
0.0
  0
SPLINE
  5
58A
100
AcDbEntity
  8
ASSI
100
AcDbSpline
 62
250
  6
CONTINUOUS
 70
0
 71
3
 72
15
 73
11
 74
0
 42
0.0000001
 43
0.0000001
 44
0.0000000001
 40
0.0
 40
0.0
 40
0.0
 40
0.0
 40
0.1446434042
 40
0.2747784163
 40
0.3920501817
 40
0.5016783778
 40
0.610998799
 40
0.7274598936
 40
0.8565047955
 40
1.0
 40
1.0
 40
1.0
 40
1.0
 10
-19.8096114709
 20
-0.0403345565
 30
0.0
 10
-19.8092027476
 20
-0.0096781731
 30
0.0
 10
-19.8037327001
 20
0.0486913617
 30
0.0
 10
-19.7791104415
 20
0.1288024979
 30
0.0
 10
-19.7384851943
 20
0.193908984
 30
0.0
 10
-19.6827625179
 20
0.2404547236
 30
0.0
 10
-19.6147605313
 20
0.265445406
 30
0.0
 10
-19.5384938224
 20
0.2678130295
 30
0.0
 10
-19.4575661745
 20
0.2485632646
 30
0.0
 10
-19.4049973841
 20
0.2236786421
 30
0.0
 10
-19.3786550325
 20
0.2084734707
 30
0.0
  0
SPLINE
  5
58B
100
AcDbEntity
  8
ASSI
100
AcDbSpline
 62
250
  6
CONTINUOUS
 70
0
 71
3
 72
11
 73
7
 74
0
 42
0.0000001
 43
0.0000001
 44
0.0000000001
 40
0.0
 40
0.0
 40
0.0
 40
0.0
 40
0.2385247852
 40
0.4998956045
 40
0.7613224476
 40
1.0
 40
1.0
 40
1.0
 40
1.0
 10
-23.4834996755
 20
13.4131801491
 30
0.0
 10
-23.479611669
 20
13.5234650732
 30
0.0
 10
-23.4347704717
 20
13.7535335251
 30
0.0
 10
-23.2920676007
 20
14.0780720411
 30
0.0
 10
-23.0869052328
 20
14.3672946181
 30
0.0
 10
-22.9125147278
 20
14.5240459927
 30
0.0
 10
-22.8198678982
 20
14.5841296852
 30
0.0
  0
SPLINE
  5
58C
100
AcDbEntity
  8
ASSI
100
AcDbSpline
 62
250
  6
CONTINUOUS
 70
0
 71
3
 72
11
 73
7
 74
0
 42
0.0000001
 43
0.0000001
 44
0.0000000001
 40
0.0
 40
0.0
 40
0.0
 40
0.0
 40
0.2132209415
 40
0.4443021539
 40
0.7054016721
 40
1.0
 40
1.0
 40
1.0
 40
1.0
 10
-23.6299362569
 20
13.617234783
 30
0.0
 10
-23.6305537879
 20
13.5985583571
 30
0.0
 10
-23.6244112294
 20
13.5591054784
 30
0.0
 10
-23.5944731494
 20
13.5039634988
 30
0.0
 10
-23.5462919848
 20
13.4537823916
 30
0.0
 10
-23.5058633498
 20
13.4260773505
 30
0.0
 10
-23.4834956665
 20
13.4131822704
 30
0.0
  0
SPLINE
  5
58D
100
AcDbEntity
  8
ASSI
100
AcDbSpline
 62
250
  6
CONTINUOUS
 70
0
 71
3
 72
11
 73
7
 74
0
 42
0.0000001
 43
0.0000001
 44
0.0000000001
 40
0.0
 40
0.0
 40
0.0
 40
0.0
 40
0.2371973755
 40
0.4998896315
 40
0.7625658209
 40
1.0
 40
1.0
 40
1.0
 40
1.0
 10
-19.4249643668
 20
-5.4052284809
 30
0.0
 10
-19.4852067641
 20
-5.3704352487
 30
0.0
 10
-19.5991745633
 20
-5.2744136349
 30
0.0
 10
-19.731942577
 20
-5.0923579875
 30
0.0
 10
-19.8224166875
 20
-4.885915635
 30
0.0
 10
-19.8480216533
 20
-4.7390482861
 30
0.0
 10
-19.847798803
 20
-4.6694111267
 30
0.0
  0
SPLINE
  5
58E
100
AcDbEntity
  8
ASSI
100
AcDbSpline
 62
250
  6
CONTINUOUS
 70
0
 71
3
 72
8
 73
4
 74
0
 42
0.0000001
 43
0.0000001
 44
0.0000000001
 40
0.0
 40
0.0
 40
0.0
 40
0.0
 40
1.0
 40
1.0
 40
1.0
 40
1.0
 10
-18.0860710392
 20
-11.1674042803
 30
0.0
 10
-18.0882965644
 20
-10.9235968698
 30
0.0
 10
-18.0903265473
 20
-10.6797875963
 30
0.0
 10
-18.0921615069
 20
-10.4359769335
 30
0.0
  0
SPLINE
  5
58F
100
AcDbEntity
  8
ASSI
100
AcDbSpline
 62
250
  6
CONTINUOUS
 70
0
 71
3
 72
11
 73
7
 74
0
 42
0.0000001
 43
0.0000001
 44
0.0000000001
 40
0.0
 40
0.0
 40
0.0
 40
0.0
 40
0.29056174
 40
0.5497193063
 40
0.7823010207
 40
1.0
 40
1.0
 40
1.0
 40
1.0
 10
-18.0921614771
 20
-10.4359769169
 30
0.0
 10
-18.0928696013
 20
-10.3569005916
 30
0.0
 10
-18.0820750188
 20
-10.2066452834
 30
0.0
 10
-18.0217403258
 20
-10.0003686744
 30
0.0
 10
-17.9184788282
 20
-9.8338722691
 30
0.0
 10
-17.821054755
 20
-9.7548305817
 30
0.0
 10
-17.7691285542
 20
-9.7262976688
 30
0.0
  0
SPLINE
  5
590
100
AcDbEntity
  8
ASSI
100
AcDbSpline
 62
250
  6
CONTINUOUS
 70
0
 71
3
 72
11
 73
7
 74
0
 42
0.0000001
 43
0.0000001
 44
0.0000000001
 40
0.0
 40
0.0
 40
0.0
 40
0.0
 40
0.2130245493
 40
0.4440586154
 40
0.7052794106
 40
1.0
 40
1.0
 40
1.0
 40
1.0
 10
-23.0764576802
 20
14.6046326625
 30
0.0
 10
-23.0604566176
 20
14.6151474766
 30
0.0
 10
-23.0226187437
 20
14.630793408
 30
0.0
 10
-22.9583343369
 20
14.6337597299
 30
0.0
 10
-22.8887359796
 20
14.6179538325
 30
0.0
 10
-22.8430136985
 20
14.5970125116
 30
0.0
 10
-22.8198678982
 20
14.5841296852
 30
0.0
  0
SPLINE
  5
591
100
AcDbEntity
  8
ASSI
100
AcDbSpline
 62
250
  6
CONTINUOUS
 70
0
 71
3
 72
15
 73
11
 74
0
 42
0.0000001
 43
0.0000001
 44
0.0000000001
 40
0.0
 40
0.0
 40
0.0
 40
0.0
 40
0.1449007462
 40
0.2747563895
 40
0.3915067209
 40
0.5005336503
 40
0.6094431691
 40
0.7258981129
 40
0.8554035764
 40
1.0
 40
1.0
 40
1.0
 40
1.0
 10
-9.8486734591
 20
-10.4427806404
 30
0.0
 10
-9.8487733401
 20
-10.4732565175
 30
0.0
 10
-9.8535758209
 20
-10.5312258364
 30
0.0
 10
-9.8772281664
 20
-10.6108442127
 30
0.0
 10
-9.9169078186
 20
-10.6755038179
 30
0.0
 10
-9.9718073799
 20
-10.7217214648
 30
0.0
 10
-10.039190737
 20
-10.7462394078
 30
0.0
 10
-10.1148763691
 20
-10.7482914446
 30
0.0
 10
-10.1954381948
 20
-10.728886633
 30
0.0
 10
-10.2478524195
 20
-10.7039741112
 30
0.0
 10
-10.2741912316
 20
-10.6887702031
 30
0.0
  0
SPLINE
  5
592
100
AcDbEntity
  8
ASSI
100
AcDbSpline
 62
250
  6
CONTINUOUS
 70
0
 71
3
 72
11
 73
7
 74
0
 42
0.0000001
 43
0.0000001
 44
0.0000000001
 40
0.0
 40
0.0
 40
0.0
 40
0.0
 40
0.22185764
 40
0.4579965639
 40
0.716528317
 40
1.0
 40
1.0
 40
1.0
 40
1.0
 10
-23.6289476664
 20
-20.7187686424
 30
0.0
 10
-23.6269619059
 20
-20.7369619149
 30
0.0
 10
-23.6170064563
 20
-20.7740689289
 30
0.0
 10
-23.5861904232
 20
-20.8252397679
 30
0.0
 10
-23.5408186067
 20
-20.8713179642
 30
0.0
 10
-23.5037433148
 20
-20.8967726732
 30
0.0
 10
-23.4834996627
 20
-20.9084775186
 30
0.0
  0
SPLINE
  5
593
100
AcDbEntity
  8
ASSI
100
AcDbSpline
 62
250
  6
CONTINUOUS
 70
0
 71
3
 72
9
 73
5
 74
0
 42
0.0000001
 43
0.0000001
 44
0.0000000001
 40
0.0
 40
0.0
 40
0.0
 40
0.0
 40
0.2362657894
 40
1.0
 40
1.0
 40
1.0
 40
1.0
 10
-10.2294700127
 20
-5.0741512935
 30
0.0
 10
-10.2165439354
 20
-5.0816161203
 30
0.0
 10
-10.1631227114
 20
-5.1154295832
 30
0.0
 10
-10.1148358582
 20
-5.1570428731
 30
0.0
 10
-10.0810542854
 20
-5.1914951611
 30
0.0
  0
SPLINE
  5
594
100
AcDbEntity
  8
ASSI
100
AcDbSpline
 62
250
  6
CONTINUOUS
 70
0
 71
3
 72
9
 73
5
 74
0
 42
0.0000001
 43
0.0000001
 44
0.0000000001
 40
0.0
 40
0.0
 40
0.0
 40
0.0
 40
0.4970555754
 40
1.0
 40
1.0
 40
1.0
 40
1.0
 10
-10.0810542854
 20
-5.1914951611
 30
0.0
 10
-10.0281690579
 20
-5.2454303968
 30
0.0
 10
-9.9357212255
 20
-5.3680119366
 30
0.0
 10
-9.872097606
 20
-5.5076187613
 30
0.0
 10
-9.8490918697
 20
-5.5805063037
 30
0.0
  0
SPLINE
  5
595
100
AcDbEntity
  8
ASSI
100
AcDbSpline
 62
250
  6
CONTINUOUS
 70
0
 71
3
 72
9
 73
5
 74
0
 42
0.0000001
 43
0.0000001
 44
0.0000000001
 40
0.0
 40
0.0
 40
0.0
 40
0.0
 40
0.2643742045
 40
1.0
 40
1.0
 40
1.0
 40
1.0
 10
-9.8490918697
 20
-5.5805063037
 30
0.0
 10
-9.842833447
 20
-5.6003344477
 30
0.0
 10
-9.821736454
 20
-5.6760726465
 30
0.0
 10
-9.8110648095
 20
-5.7550973574
 30
0.0
 10
-9.811795606
 20
-5.8129479042
 30
0.0
  0
SPLINE
  5
596
100
AcDbEntity
  8
ASSI
100
AcDbSpline
 62
250
  6
CONTINUOUS
 70
0
 71
3
 72
11
 73
7
 74
0
 42
0.0000001
 43
0.0000001
 44
0.0000000001
 40
0.0
 40
0.0
 40
0.0
 40
0.0
 40
0.2209959513
 40
0.4554439067
 40
0.7136114861
 40
1.0
 40
1.0
 40
1.0
 40
1.0
 10
-8.4254427437
 20
-29.9073807816
 30
0.0
 10
-8.4568476229
 20
-29.8892210459
 30
0.0
 10
-8.5157422082
 20
-29.8407971885
 30
0.0
 10
-8.5804258357
 20
-29.7413660063
 30
0.0
 10
-8.6212364116
 20
-29.6190181548
 30
0.0
 10
-8.6317404423
 20
-29.529659659
 30
0.0
 10
-8.6335005779
 20
-29.4826808913
 30
0.0
  0
SPLINE
  5
597
100
AcDbEntity
  8
ASSI
100
AcDbSpline
 62
250
  6
CONTINUOUS
 70
0
 71
3
 72
11
 73
7
 74
0
 42
0.0000001
 43
0.0000001
 44
0.0000000001
 40
0.0
 40
0.0
 40
0.0
 40
0.0
 40
0.2183326969
 40
0.4518587011
 40
0.7113466574
 40
1.0
 40
1.0
 40
1.0
 40
1.0
 10
-7.716762205
 20
-29.9097124434
 30
0.0
 10
-7.698358033
 20
-29.9005372305
 30
0.0
 10
-7.6633982558
 20
-29.8745965015
 30
0.0
 10
-7.6247949661
 20
-29.8186715222
 30
0.0
 10
-7.6001721119
 20
-29.7485718519
 30
0.0
 10
-7.5935727555
 20
-29.6970078062
 30
0.0
 10
-7.5923503373
 20
-29.6698474011
 30
0.0
  0
SPLINE
  5
598
100
AcDbEntity
  8
ASSI
100
AcDbSpline
 62
250
  6
CONTINUOUS
 70
0
 71
3
 72
13
 73
9
 74
0
 42
0.0000001
 43
0.0000001
 44
0.0000000001
 40
0.0
 40
0.0
 40
0.0
 40
0.0
 40
0.1144342049
 40
0.2380164714
 40
0.500951977
 40
0.7632868517
 40
0.8862380561
 40
1.0
 40
1.0
 40
1.0
 40
1.0
 10
-16.9764805145
 20
-13.052304794
 30
0.0
 10
-17.0513954781
 20
-13.0090463966
 30
0.0
 10
-17.1995766337
 20
-12.9054966743
 30
0.0
 10
-17.4777717014
 20
-12.6472682203
 30
0.0
 10
-17.7731895632
 20
-12.2501059274
 30
0.0
 10
-17.9774619439
 20
-11.7996617692
 30
0.0
 10
-18.0673423367
 20
-11.4323377061
 30
0.0
 10
-18.0851308649
 20
-11.2533984154
 30
0.0
 10
-18.0860710667
 20
-11.1674042956
 30
0.0
  0
SPLINE
  5
599
100
AcDbEntity
  8
ASSI
100
AcDbSpline
 62
250
  6
CONTINUOUS
 70
0
 71
3
 72
11
 73
7
 74
0
 42
0.0000001
 43
0.0000001
 44
0.0000000001
 40
0.0
 40
0.0
 40
0.0
 40
0.0
 40
0.219245227
 40
0.4530873662
 40
0.711894026
 40
1.0
 40
1.0
 40
1.0
 40
1.0
 10
-23.2788442306
 20
-21.331212987
 30
0.0
 10
-23.3097956919
 20
-21.3133441354
 30
0.0
 10
-23.3678792795
 20
-21.2653210493
 30
0.0
 10
-23.4314192336
 20
-21.1664664631
 30
0.0
 10
-23.4714821554
 20
-21.0445343976
 30
0.0
 10
-23.4817736224
 20
-20.9554099696
 30
0.0
 10
-23.4834996755
 20
-20.9084775266
 30
0.0
  0
SPLINE
  5
59A
100
AcDbEntity
  8
ASSI
100
AcDbSpline
 62
250
  6
CONTINUOUS
 70
0
 71
3
 72
9
 73
5
 74
0
 42
0.0000001
 43
0.0000001
 44
0.0000000001
 40
0.0
 40
0.0
 40
0.0
 40
0.0
 40
0.2433572718
 40
1.0
 40
1.0
 40
1.0
 40
1.0
 10
-9.9384036025
 20
-10.3490184394
 30
0.0
 10
-9.9414302929
 20
-10.3499348176
 30
0.0
 10
-9.9540348029
 20
-10.3531413619
 30
0.0
 10
-9.9671816169
 20
-10.3540606452
 30
0.0
 10
-9.9770054236
 20
-10.3536495958
 30
0.0
  0
SPLINE
  5
59B
100
AcDbEntity
  8
ASSI
100
AcDbSpline
 62
250
  6
CONTINUOUS
 70
0
 71
3
 72
9
 73
5
 74
0
 42
0.0000001
 43
0.0000001
 44
0.0000000001
 40
0.0
 40
0.0
 40
0.0
 40
0.0
 40
0.2321539992
 40
1.0
 40
1.0
 40
1.0
 40
1.0
 10
-9.9933052647
 20
-10.3520035941
 30
0.0
 10
-9.9992596197
 20
-10.3510613743
 30
0.0
 10
-10.0246665487
 20
-10.3454710033
 30
0.0
 10
-10.0486488074
 20
-10.3343819061
 30
0.0
 10
-10.0657616875
 20
-10.3241489912
 30
0.0
  0
SPLINE
  5
59C
100
AcDbEntity
  8
ASSI
100
AcDbSpline
 62
250
  6
CONTINUOUS
 70
0
 71
3
 72
11
 73
7
 74
0
 42
0.0000001
 43
0.0000001
 44
0.0000000001
 40
0.0
 40
0.0
 40
0.0
 40
0.0
 40
0.236822617
 40
0.4991432261
 40
0.7619290854
 40
1.0
 40
1.0
 40
1.0
 40
1.0
 10
-19.847798803
 20
-4.6694111267
 30
0.0
 10
-19.8180337966
 20
-4.6865993332
 30
0.0
 10
-19.7489069421
 20
-4.711853752
 30
0.0
 10
-19.6382465805
 20
-4.7245007677
 30
0.0
 10
-19.5272361804
 20
-4.7134134947
 30
0.0
 10
-19.4575039179
 20
-4.6891804323
 30
0.0
 10
-19.427270758
 20
-4.672452217
 30
0.0
  0
SPLINE
  5
59D
100
AcDbEntity
  8
ASSI
100
AcDbSpline
 62
250
  6
CONTINUOUS
 70
0
 71
3
 72
11
 73
7
 74
0
 42
0.0000001
 43
0.0000001
 44
0.0000000001
 40
0.0
 40
0.0
 40
0.0
 40
0.0
 40
0.2368567183
 40
0.4990639356
 40
0.7617794306
 40
1.0
 40
1.0
 40
1.0
 40
1.0
 10
-19.4249644844
 20
-5.4052284131
 30
0.0
 10
-19.4248884402
 20
-5.3708932486
 30
0.0
 10
-19.4120525087
 20
-5.298525155
 30
0.0
 10
-19.3674590616
 20
-5.1966252984
 30
0.0
 10
-19.3021427921
 20
-5.1063471462
 30
0.0
 10
-19.2461792198
 20
-5.0583209183
 30
0.0
 10
-19.2165353599
 20
-5.0406074607
 30
0.0
  0
SPLINE
  5
59E
100
AcDbEntity
  8
ASSI
100
AcDbSpline
 62
250
  6
CONTINUOUS
 70
0
 71
3
 72
11
 73
7
 74
0
 42
0.0000001
 43
0.0000001
 44
0.0000000001
 40
0.0
 40
0.0
 40
0.0
 40
0.0
 40
0.2368566464
 40
0.4990638253
 40
0.7617793704
 40
1.0
 40
1.0
 40
1.0
 40
1.0
 10
-10.2741912316
 20
-10.6887702031
 30
0.0
 10
-10.2741151874
 20
-10.654435049
 30
0.0
 10
-10.2612792642
 20
-10.582066971
 30
0.0
 10
-10.2166858303
 20
-10.4801671174
 30
0.0
 10
-10.1513695579
 20
-10.3898889538
 30
0.0
 10
-10.0954059749
 20
-10.3418627123
 30
0.0
 10
-10.0657621072
 20
-10.3241492507
 30
0.0
  0
SPLINE
  5
59F
100
AcDbEntity
  8
ASSI
100
AcDbSpline
 62
250
  6
CONTINUOUS
 70
0
 71
3
 72
9
 73
5
 74
0
 42
0.0000001
 43
0.0000001
 44
0.0000000001
 40
0.0
 40
0.0
 40
0.0
 40
0.0
 40
0.5448865864
 40
1.0
 40
1.0
 40
1.0
 40
1.0
 10
-9.848673476
 20
-10.4427807774
 30
0.0
 10
-9.8695469679
 20
-10.430730272
 30
0.0
 10
-9.9056427735
 20
-10.4038205292
 30
0.0
 10
-9.928941985
 20
-10.3639163682
 30
0.0
 10
-9.9336750436
 20
-10.3443494246
 30
0.0
  0
SPLINE
  5
5A0
100
AcDbEntity
  8
ASSI
100
AcDbSpline
 62
250
  6
CONTINUOUS
 70
0
 71
3
 72
8
 73
4
 74
0
 42
0.0000001
 43
0.0000001
 44
0.0000000001
 40
0.0
 40
0.0
 40
0.0
 40
0.0
 40
1.0
 40
1.0
 40
1.0
 40
1.0
 10
-9.9336750436
 20
-10.3443494246
 30
0.0
 10
-9.9355720923
 20
-10.3365068334
 30
0.0
 10
-9.9365641582
 20
-10.328382164
 30
0.0
 10
-9.9365414176
 20
-10.3203134273
 30
0.0
  0
SPLINE
  5
5A1
100
AcDbEntity
  8
ASSI
100
AcDbSpline
 62
250
  6
CONTINUOUS
 70
0
 71
3
 72
11
 73
7
 74
0
 42
0.0000001
 43
0.0000001
 44
0.0000000001
 40
0.0
 40
0.0
 40
0.0
 40
0.0
 40
0.2909555893
 40
0.5513613373
 40
0.7839019504
 40
1.0
 40
1.0
 40
1.0
 40
1.0
 10
-9.811795606
 20
-5.8129479042
 30
0.0
 10
-9.8250382861
 20
-5.805305823
 30
0.0
 10
-9.8490403565
 20
-5.7887507081
 30
0.0
 10
-9.8777793492
 20
-5.7587234276
 30
0.0
 10
-9.8957739368
 20
-5.7254947322
 30
0.0
 10
-9.8998097528
 20
-5.7017077431
 30
0.0
 10
-9.8996630654
 20
-5.6903528702
 30
0.0
  0
SPLINE
  5
5A2
100
AcDbEntity
  8
ASSI
100
AcDbSpline
 62
250
  6
CONTINUOUS
 70
0
 71
3
 72
11
 73
7
 74
0
 42
0.0000001
 43
0.0000001
 44
0.0000000001
 40
0.0
 40
0.0
 40
0.0
 40
0.0
 40
0.2901003425
 40
0.5503320507
 40
0.7832285879
 40
1.0
 40
1.0
 40
1.0
 40
1.0
 10
-10.2294698942
 20
-5.0741513619
 30
0.0
 10
-10.2296876982
 20
-5.089752868
 30
0.0
 10
-10.2276802273
 20
-5.1194760705
 30
0.0
 10
-10.2162508454
 20
-5.1604189327
 30
0.0
 10
-10.1963420653
 20
-5.1936321353
 30
0.0
 10
-10.1774710838
 20
-5.2096406328
 30
0.0
 10
-10.1673729459
 20
-5.2154682146
 30
0.0
  0
SPLINE
  5
5A3
100
AcDbEntity
  8
ASSI
100
AcDbSpline
 62
250
  6
CONTINUOUS
 70
0
 71
3
 72
11
 73
7
 74
0
 42
0.0000001
 43
0.0000001
 44
0.0000000001
 40
0.0
 40
0.0
 40
0.0
 40
0.0
 40
0.2900835988
 40
0.5503194138
 40
0.7832295741
 40
1.0
 40
1.0
 40
1.0
 40
1.0
 10
-19.3786551541
 20
0.2084735409
 30
0.0
 10
-19.3788728353
 20
0.1928808439
 30
0.0
 10
-19.3768677232
 20
0.1631735457
 30
0.0
 10
-19.3654521378
 20
0.1222497912
 30
0.0
 10
-19.3455676999
 20
0.0890450166
 30
0.0
 10
-19.3267180098
 20
0.0730311066
 30
0.0
 10
-19.3166298931
 20
0.0671980989
 30
0.0
  0
SPLINE
  5
5A4
100
AcDbEntity
  8
ASSI
100
AcDbSpline
 62
250
  6
CONTINUOUS
 70
0
 71
3
 72
11
 73
7
 74
0
 42
0.0000001
 43
0.0000001
 44
0.0000000001
 40
0.0
 40
0.0
 40
0.0
 40
0.0
 40
0.2371789415
 40
0.4998494245
 40
0.7626016014
 40
1.0
 40
1.0
 40
1.0
 40
1.0
 10
-19.809611437
 20
-0.0403343453
 30
0.0
 10
-19.779826302
 20
-0.0575410745
 30
0.0
 10
-19.7107350438
 20
-0.0829545472
 30
0.0
 10
-19.6001484239
 20
-0.0962059044
 30
0.0
 10
-19.4892060021
 20
-0.0860124258
 30
0.0
 10
-19.419394648
 20
-0.0625239059
 30
0.0
 10
-19.3891058508
 20
-0.0461530413
 30
0.0
  0
SPLINE
  5
5A5
100
AcDbEntity
  8
ASSI
100
AcDbSpline
 62
250
  6
CONTINUOUS
 70
0
 71
3
 72
9
 73
5
 74
0
 42
0.0000001
 43
0.0000001
 44
0.0000000001
 40
0.0
 40
0.0
 40
0.0
 40
0.0
 40
0.5424063645
 40
1.0
 40
1.0
 40
1.0
 40
1.0
 10
-19.3891058508
 20
-0.0461530415
 30
0.0
 10
-19.3888277953
 20
-0.021298063
 30
0.0
 10
-19.3825748865
 20
0.0250261547
 30
0.0
 10
-19.3574653256
 20
0.0658703773
 30
0.0
 10
-19.3418178848
 20
0.0798307891
 30
0.0
  0
SPLINE
  5
5A6
100
AcDbEntity
  8
ASSI
100
AcDbSpline
 62
250
  6
CONTINUOUS
 70
0
 71
3
 72
11
 73
7
 74
0
 42
0.0000001
 43
0.0000001
 44
0.0000000001
 40
0.0
 40
0.0
 40
0.0
 40
0.0
 40
0.2375819435
 40
0.49967055
 40
0.7618620459
 40
1.0
 40
1.0
 40
1.0
 40
1.0
 10
-19.2165348534
 20
-5.0406071682
 30
0.0
 10
-19.2470401715
 20
-5.0236005093
 30
0.0
 10
-19.3047680046
 20
-4.9761460789
 30
0.0
 10
-19.3715563949
 20
-4.885107962
 30
0.0
 10
-19.4163074204
 20
-4.781351676
 30
0.0
 10
-19.4280226537
 20
-4.7074512075
 30
0.0
 10
-19.4272702272
 20
-4.6724519105
 30
0.0
  0
SPLINE
  5
5A7
100
AcDbEntity
  8
ASSI
100
AcDbSpline
 62
7
  6
CONTINUOUS
 70
0
 71
3
 72
11
 73
7
 74
0
 42
0.0000001
 43
0.0000001
 44
0.0000000001
 40
0.0
 40
0.0
 40
0.0
 40
0.0
 40
0.2372344099
 40
0.4999938937
 40
0.7627566992
 40
1.0
 40
1.0
 40
1.0
 40
1.0
 10
-18.5825225431
 20
-4.1847068022
 30
0.0
 10
-18.5825225431
 20
-4.2194765479
 30
0.0
 10
-18.5694893195
 20
-4.2928067186
 30
0.0
 10
-18.5240172782
 20
-4.3958377385
 30
0.0
 10
-18.4575249022
 20
-4.4867341435
 30
0.0
 10
-18.4005349441
 20
-4.5346879383
 30
0.0
 10
-18.3704228175
 20
-4.5520743028
 30
0.0
  0
SPLINE
  5
5A8
100
AcDbEntity
  8
ASSI
100
AcDbSpline
 62
250
  6
CONTINUOUS
 70
0
 71
3
 72
11
 73
7
 74
0
 42
0.0000001
 43
0.0000001
 44
0.0000000001
 40
0.0
 40
0.0
 40
0.0
 40
0.0
 40
0.235827857
 40
0.4980104629
 40
0.7612755277
 40
1.0
 40
1.0
 40
1.0
 40
1.0
 10
-17.1848895419
 20
-13.4209707616
 30
0.0
 10
-17.1853108435
 20
-13.3864727413
 30
0.0
 10
-17.1730665911
 20
-13.3134208916
 30
0.0
 10
-17.1286712949
 20
-13.2103842529
 30
0.0
 10
-17.0629865781
 20
-13.1189034667
 30
0.0
 10
-17.0064603608
 20
-13.0702190184
 30
0.0
 10
-16.9764805151
 20
-13.0523047944
 30
0.0
  0
SPLINE
  5
5A9
100
AcDbEntity
  8
ASSI
100
AcDbSpline
 62
250
  6
CONTINUOUS
 70
0
 71
3
 72
11
 73
7
 74
0
 42
0.0000001
 43
0.0000001
 44
0.0000000001
 40
0.0
 40
0.0
 40
0.0
 40
0.0
 40
0.2358277641
 40
0.4980103233
 40
0.7612754534
 40
1.0
 40
1.0
 40
1.0
 40
1.0
 10
-12.447274108
 20
-16.1564105369
 30
0.0
 10
-12.4476954095
 20
-16.1219125301
 30
0.0
 10
-12.435451168
 20
-16.0488607003
 30
0.0
 10
-12.3910558845
 20
-15.9458240675
 30
0.0
 10
-12.3253711683
 20
-15.8543432636
 30
0.0
 10
-12.2688449369
 20
-15.8056587983
 30
0.0
 10
-12.2388650812
 20
-15.7877445697
 30
0.0
  0
SPLINE
  5
5AA
100
AcDbEntity
  8
ASSI
100
AcDbSpline
 62
250
  6
CONTINUOUS
 70
0
 71
3
 72
11
 73
7
 74
0
 42
0.0000001
 43
0.0000001
 44
0.0000000001
 40
0.0
 40
0.0
 40
0.0
 40
0.0
 40
0.2879708588
 40
0.5474890605
 40
0.7812763876
 40
1.0
 40
1.0
 40
1.0
 40
1.0
 10
-11.1573299564
 20
-15.4111734729
 30
0.0
 10
-11.1703896431
 20
-15.4036302886
 30
0.0
 10
-11.194120645
 20
-15.3872102006
 30
0.0
 10
-11.2226170359
 20
-15.3573440321
 30
0.0
 10
-11.2407010798
 20
-15.3241582536
 30
0.0
 10
-11.2450876771
 20
-15.3003497248
 30
0.0
 10
-11.2451968069
 20
-15.2888952493
 30
0.0
  0
SPLINE
  5
5AB
100
AcDbEntity
  8
ASSI
100
AcDbSpline
 62
250
  6
CONTINUOUS
 70
0
 71
3
 72
11
 73
7
 74
0
 42
0.0000001
 43
0.0000001
 44
0.0000000001
 40
0.0
 40
0.0
 40
0.0
 40
0.0
 40
0.2881919123
 40
0.547767387
 40
0.7814566894
 40
1.0
 40
1.0
 40
1.0
 40
1.0
 10
-11.1632150464
 20
-14.6794277002
 30
0.0
 10
-11.1762946079
 20
-14.6718735024
 30
0.0
 10
-11.2000562292
 20
-14.6554343603
 30
0.0
 10
-11.2285784505
 20
-14.6255362348
 30
0.0
 10
-11.2466516758
 20
-14.5923231457
 30
0.0
 10
-11.2510002101
 20
-14.568500855
 30
0.0
 10
-11.2510827336
 20
-14.5570471507
 30
0.0
  0
SPLINE
  5
5AC
100
AcDbEntity
  8
ASSI
100
AcDbSpline
 62
250
  6
CONTINUOUS
 70
0
 71
3
 72
11
 73
7
 74
0
 42
0.0000001
 43
0.0000001
 44
0.0000000001
 40
0.0
 40
0.0
 40
0.0
 40
0.0
 40
0.2889060683
 40
0.5486699646
 40
0.78206159
 40
1.0
 40
1.0
 40
1.0
 40
1.0
 10
-12.4778413826
 20
-12.4214393159
 30
0.0
 10
-12.4777785803
 20
-12.4364828423
 30
0.0
 10
-12.4753321989
 20
-12.4651312491
 30
0.0
 10
-12.4636415576
 20
-12.504517696
 30
0.0
 10
-12.4439423713
 20
-12.5364661167
 30
0.0
 10
-12.4255472751
 20
-12.5519103311
 30
0.0
 10
-12.4157190257
 20
-12.5575838903
 30
0.0
  0
SPLINE
  5
5AD
100
AcDbEntity
  8
ASSI
100
AcDbSpline
 62
250
  6
CONTINUOUS
 70
0
 71
3
 72
11
 73
7
 74
0
 42
0.0000001
 43
0.0000001
 44
0.0000000001
 40
0.0
 40
0.0
 40
0.0
 40
0.0
 40
0.2888924286
 40
0.5486598279
 40
0.7820626212
 40
1.0
 40
1.0
 40
1.0
 40
1.0
 10
-17.2154568165
 20
-9.6859995406
 30
0.0
 10
-17.2153940447
 20
-9.7010357595
 30
0.0
 10
-17.2129498617
 20
-9.7296709683
 30
0.0
 10
-17.2012709068
 20
-9.7690416185
 30
0.0
 10
-17.1815919716
 20
-9.8009830866
 30
0.0
 10
-17.1632143962
 20
-9.8164315453
 30
0.0
 10
-17.1533944656
 20
-9.8221094472
 30
0.0
  0
SPLINE
  5
5AE
100
AcDbEntity
  8
ASSI
100
AcDbSpline
 62
250
  6
CONTINUOUS
 70
0
 71
3
 72
11
 73
7
 74
0
 42
0.0000001
 43
0.0000001
 44
0.0000000001
 40
0.0
 40
0.0
 40
0.0
 40
0.0
 40
0.236438039
 40
0.4983786106
 40
0.7612004871
 40
1.0
 40
1.0
 40
1.0
 40
1.0
 10
-18.5126833798
 20
-10.4359367953
 30
0.0
 10
-18.4829406772
 20
-10.4531048045
 30
0.0
 10
-18.4137772138
 20
-10.4781877827
 30
0.0
 10
-18.3030426256
 20
-10.4901807368
 30
0.0
 10
-18.1919685194
 20
-10.4781258025
 30
0.0
 10
-18.122330823
 20
-10.45308994
 30
0.0
 10
-18.0921614771
 20
-10.4359769188
 30
0.0
  0
SPLINE
  5
5AF
100
AcDbEntity
  8
ASSI
100
AcDbSpline
 62
250
  6
CONTINUOUS
 70
0
 71
3
 72
11
 73
7
 74
0
 42
0.0000001
 43
0.0000001
 44
0.0000000001
 40
0.0
 40
0.0
 40
0.0
 40
0.0
 40
0.2363816938
 40
0.4982664208
 40
0.7610936112
 40
1.0
 40
1.0
 40
1.0
 40
1.0
 10
-18.5065893183
 20
-11.1678032255
 30
0.0
 10
-18.4768499469
 20
-11.1849682524
 30
0.0
 10
-18.4076813293
 20
-11.2100261787
 30
0.0
 10
-18.29693639
 20
-11.2219233464
 30
0.0
 10
-18.1858538169
 20
-11.2097266711
 30
0.0
 10
-18.1162307344
 20
-11.184573495
 30
0.0
 10
-18.0860710392
 20
-11.1674042803
 30
0.0
  0
SPLINE
  5
5B0
100
AcDbEntity
  8
CURVE
100
AcDbSpline
 62
250
  6
CONTINUOUS
 70
0
 71
3
 72
23
 73
19
 74
0
 42
0.0000001
 43
0.0000001
 44
0.0000000001
 40
0.0
 40
0.0
 40
0.0
 40
0.0
 40
0.25
 40
0.375
 40
0.4375
 40
0.5
 40
0.5625
 40
0.625
 40
0.640625
 40
0.65625
 40
0.6640625
 40
0.671875
 40
0.6875
 40
0.71875
 40
0.75
 40
0.8125
 40
0.875
 40
1.0
 40
1.0
 40
1.0
 40
1.0
 10
-10.6858454403
 20
-22.5971164741
 30
0.0
 10
-10.6768012666
 20
-22.9479935724
 30
0.0
 10
-10.6633400043
 20
-23.4743720361
 30
0.0
 10
-10.6472677044
 20
-24.0882603869
 30
0.0
 10
-10.6369938273
 20
-24.4383775723
 30
0.0
 10
-10.6294331412
 20
-24.7010762733
 30
0.0
 10
-10.6218384212
 20
-24.9636698052
 30
0.0
 10
-10.6161359416
 20
-25.1608473524
 30
0.0
 10
-10.6123556568
 20
-25.2919445854
 30
0.0
 10
-10.6107467132
 20
-25.3470946526
 30
0.0
 10
-10.6095386012
 20
-25.3899872246
 30
0.0
 10
-10.6080413775
 20
-25.4373687476
 30
0.0
 10
-10.6052869056
 20
-25.5223720836
 30
0.0
 10
-10.6014220326
 20
-25.6427172207
 30
0.0
 10
-10.5951990672
 20
-25.8358775896
 30
0.0
 10
-10.5874337776
 20
-26.0771197302
 30
0.0
 10
-10.5750017818
 20
-26.4632241071
 30
0.0
 10
-10.5656794798
 20
-26.7527760756
 30
0.0
 10
-10.5594642351
 20
-26.9458165688
 30
0.0
  0
SPLINE
  5
5B1
100
AcDbEntity
  8
CURVE
100
AcDbSpline
 62
250
  6
CONTINUOUS
 70
0
 71
3
 72
23
 73
19
 74
0
 42
0.0000001
 43
0.0000001
 44
0.0000000001
 40
0.0
 40
0.0
 40
0.0
 40
0.0
 40
0.25
 40
0.375
 40
0.4375
 40
0.5
 40
0.5625
 40
0.625
 40
0.640625
 40
0.65625
 40
0.6640625
 40
0.671875
 40
0.6875
 40
0.71875
 40
0.75
 40
0.8125
 40
0.875
 40
1.0
 40
1.0
 40
1.0
 40
1.0
 10
-12.7783653196
 20
-25.6646507259
 30
0.0
 10
-12.7896748885
 20
-25.3151679662
 30
0.0
 10
-12.8067441367
 20
-24.7910101985
 30
0.0
 10
-12.8262911275
 20
-24.1792605013
 30
0.0
 10
-12.8363708196
 20
-23.8290237962
 30
0.0
 10
-12.8440765515
 20
-23.5664143701
 30
0.0
 10
-12.8517434404
 20
-23.3038652577
 30
0.0
 10
-12.8575006642
 20
-23.1067214053
 30
0.0
 10
-12.8613391899
 20
-22.9756600192
 30
0.0
 10
-12.8629359879
 20
-22.9205024764
 30
0.0
 10
-12.8642195991
 20
-22.8776563739
 30
0.0
 10
-12.865480589
 20
-22.8301294502
 30
0.0
 10
-12.8676768086
 20
-22.7447825129
 30
0.0
 10
-12.8708197501
 20
-22.6239930308
 30
0.0
 10
-12.8758453913
 20
-22.4300957153
 30
0.0
 10
-12.8821284927
 20
-22.1879412958
 30
0.0
 10
-12.8921808656
 20
-21.8003722737
 30
0.0
 10
-12.8997202778
 20
-21.5097229461
 30
0.0
 10
-12.9047465232
 20
-21.3159506302
 30
0.0
  0
SPLINE
  5
5B2
100
AcDbEntity
  8
0
100
AcDbSpline
 62
7
  6
CONTINUOUS
 70
0
 71
3
 72
13
 73
9
 74
0
 42
0.0000001
 43
0.0000001
 44
0.0000000001
 40
0.0
 40
0.0
 40
0.0
 40
0.0
 40
0.1142258101
 40
0.2375599144
 40
0.5000060653
 40
0.7624488966
 40
0.885779122
 40
1.0
 40
1.0
 40
1.0
 40
1.0
 10
-15.5931990212
 20
-12.2257357403
 30
0.0
 10
-15.6663797872
 20
-12.1834820832
 30
0.0
 10
-15.8109777788
 20
-12.0820945156
 30
0.0
 10
-16.0817108533
 20
-11.8287450538
 30
0.0
 10
-16.3676546415
 20
-11.4381331001
 30
0.0
 10
-16.562962287
 20
-10.9951951751
 30
0.0
 10
-16.6469977103
 20
-10.6340666515
 30
0.0
 10
-16.6624990093
 20
-10.4581534166
 30
0.0
 10
-16.6624990093
 20
-10.3736538342
 30
0.0
  0
SPLINE
  5
5B3
100
AcDbEntity
  8
0
100
AcDbSpline
 62
250
  6
CONTINUOUS
 70
0
 71
3
 72
11
 73
7
 74
0
 42
0.0000001
 43
0.0000001
 44
0.0000000001
 40
0.0
 40
0.0
 40
0.0
 40
0.0
 40
0.2371973755
 40
0.4998896315
 40
0.7625658209
 40
1.0
 40
1.0
 40
1.0
 40
1.0
 10
-19.4249643668
 20
-5.4052284809
 30
0.0
 10
-19.4852067641
 20
-5.3704352487
 30
0.0
 10
-19.5991745633
 20
-5.2744136349
 30
0.0
 10
-19.731942577
 20
-5.0923579875
 30
0.0
 10
-19.8224166875
 20
-4.885915635
 30
0.0
 10
-19.8480216533
 20
-4.7390482861
 30
0.0
 10
-19.847798803
 20
-4.6694111267
 30
0.0
  0
SPLINE
  5
5B4
100
AcDbEntity
  8
0
100
AcDbSpline
 62
250
  6
CONTINUOUS
 70
0
 71
3
 72
11
 73
7
 74
0
 42
0.0000001
 43
0.0000001
 44
0.0000000001
 40
0.0
 40
0.0
 40
0.0
 40
0.0
 40
0.2162149557
 40
0.4484385218
 40
0.7081763615
 40
1.0
 40
1.0
 40
1.0
 40
1.0
 10
-11.4616431869
 20
-15.8620559567
 30
0.0
 10
-11.5119977549
 20
-15.8925342001
 30
0.0
 10
-11.6288215958
 20
-15.9369744464
 30
0.0
 10
-11.8242971941
 20
-15.9428608243
 30
0.0
 10
-12.0336221351
 20
-15.8924854682
 30
0.0
 10
-12.1700655538
 20
-15.8274662037
 30
0.0
 10
-12.2388650789
 20
-15.7877445683
 30
0.0
  0
SPLINE
  5
5B5
100
AcDbEntity
  8
0
100
AcDbSpline
 62
250
  6
CONTINUOUS
 70
0
 71
3
 72
15
 73
11
 74
0
 42
0.0000001
 43
0.0000001
 44
0.0000000001
 40
0.0
 40
0.0
 40
0.0
 40
0.0
 40
0.1449007462
 40
0.2747563895
 40
0.3915067209
 40
0.5005336503
 40
0.6094431691
 40
0.7258981129
 40
0.8554035764
 40
1.0
 40
1.0
 40
1.0
 40
1.0
 10
-9.8486734591
 20
-10.4427806404
 30
0.0
 10
-9.8487733401
 20
-10.4732565175
 30
0.0
 10
-9.8535758209
 20
-10.5312258364
 30
0.0
 10
-9.8772281664
 20
-10.6108442127
 30
0.0
 10
-9.9169078186
 20
-10.6755038179
 30
0.0
 10
-9.9718073799
 20
-10.7217214648
 30
0.0
 10
-10.039190737
 20
-10.7462394078
 30
0.0
 10
-10.1148763691
 20
-10.7482914446
 30
0.0
 10
-10.1954381948
 20
-10.728886633
 30
0.0
 10
-10.2478524195
 20
-10.7039741112
 30
0.0
 10
-10.2741912316
 20
-10.6887702031
 30
0.0
  0
SPLINE
  5
5B6
100
AcDbEntity
  8
0
100
AcDbSpline
 62
250
  6
CONTINUOUS
 70
0
 71
3
 72
9
 73
5
 74
0
 42
0.0000001
 43
0.0000001
 44
0.0000000001
 40
0.0
 40
0.0
 40
0.0
 40
0.0
 40
0.2362657894
 40
1.0
 40
1.0
 40
1.0
 40
1.0
 10
-10.2294700127
 20
-5.0741512935
 30
0.0
 10
-10.2165439354
 20
-5.0816161203
 30
0.0
 10
-10.1631227114
 20
-5.1154295832
 30
0.0
 10
-10.1148358582
 20
-5.1570428731
 30
0.0
 10
-10.0810542854
 20
-5.1914951611
 30
0.0
  0
SPLINE
  5
5B7
100
AcDbEntity
  8
0
100
AcDbSpline
 62
250
  6
CONTINUOUS
 70
0
 71
3
 72
9
 73
5
 74
0
 42
0.0000001
 43
0.0000001
 44
0.0000000001
 40
0.0
 40
0.0
 40
0.0
 40
0.0
 40
0.2481872596
 40
1.0
 40
1.0
 40
1.0
 40
1.0
 10
-10.0457936809
 20
-5.2296686187
 30
0.0
 10
-10.02385321
 20
-5.2548549952
 30
0.0
 10
-9.9411151858
 20
-5.3611151736
 30
0.0
 10
-9.8795478038
 20
-5.4840147956
 30
0.0
 10
-9.8490918697
 20
-5.5805063037
 30
0.0
  0
SPLINE
  5
5B8
100
AcDbEntity
  8
0
100
AcDbSpline
 62
250
  6
CONTINUOUS
 70
0
 71
3
 72
9
 73
5
 74
0
 42
0.0000001
 43
0.0000001
 44
0.0000000001
 40
0.0
 40
0.0
 40
0.0
 40
0.0
 40
0.2643742045
 40
1.0
 40
1.0
 40
1.0
 40
1.0
 10
-9.8490918697
 20
-5.5805063037
 30
0.0
 10
-9.842833447
 20
-5.6003344477
 30
0.0
 10
-9.821736454
 20
-5.6760726465
 30
0.0
 10
-9.8110648095
 20
-5.7550973574
 30
0.0
 10
-9.811795606
 20
-5.8129479042
 30
0.0
  0
SPLINE
  5
5B9
100
AcDbEntity
  8
0
100
AcDbSpline
 62
250
  6
CONTINUOUS
 70
0
 71
3
 72
15
 73
11
 74
0
 42
0.0000001
 43
0.0000001
 44
0.0000000001
 40
0.0
 40
0.0
 40
0.0
 40
0.0
 40
0.143057667
 40
0.2723321572
 40
0.3899604746
 40
0.5008385072
 40
0.6115690375
 40
0.728800497
 40
0.8575300311
 40
1.0
 40
1.0
 40
1.0
 40
1.0
 10
-7.5923503373
 20
-29.6698474011
 30
0.0
 10
-7.6133652853
 20
-29.6803207729
 30
0.0
 10
-7.6550951501
 20
-29.6971293439
 30
0.0
 10
-7.7185812081
 20
-29.7086932577
 30
0.0
 10
-7.7779037957
 20
-29.7044753549
 30
0.0
 10
-7.8306742832
 20
-29.683985847
 30
0.0
 10
-7.8741429711
 20
-29.6478173822
 30
0.0
 10
-7.9064287078
 20
-29.5980730439
 30
0.0
 10
-7.9267902317
 20
-29.5370950619
 30
0.0
 10
-7.9320497781
 20
-29.4925992447
 30
0.0
 10
-7.9329305184
 20
-29.4692321015
 30
0.0
  0
SPLINE
  5
5BA
100
AcDbEntity
  8
0
100
AcDbSpline
 62
250
  6
CONTINUOUS
 70
0
 71
3
 72
9
 73
5
 74
0
 42
0.0000001
 43
0.0000001
 44
0.0000000001
 40
0.0
 40
0.0
 40
0.0
 40
0.0
 40
0.2475895888
 40
1.0
 40
1.0
 40
1.0
 40
1.0
 10
-8.6335005779
 20
-29.4826808913
 30
0.0
 10
-8.6987237237
 20
-27.7597574292
 30
0.0
 10
-8.9207713356
 20
-20.7994511277
 30
0.0
 10
-8.9789406924
 20
-13.83402374
 30
0.0
 10
-8.9350899911
 20
-8.5945923179
 30
0.0
  0
SPLINE
  5
5BB
100
AcDbEntity
  8
0
100
AcDbSpline
 62
250
  6
CONTINUOUS
 70
0
 71
3
 72
9
 73
5
 74
0
 42
0.0000001
 43
0.0000001
 44
0.0000000001
 40
0.0
 40
0.0
 40
0.0
 40
0.0
 40
0.2476696759
 40
1.0
 40
1.0
 40
1.0
 40
1.0
 10
-7.9329305184
 20
-29.4692321015
 30
0.0
 10
-7.9958600523
 20
-27.8069225348
 30
0.0
 10
-8.211395801
 20
-21.0937060696
 30
0.0
 10
-8.2742229081
 20
-14.3756799127
 30
0.0
 10
-8.2397013158
 20
-9.322689458
 30
0.0
  0
SPLINE
  5
5BC
100
AcDbEntity
  8
0
100
AcDbSpline
 62
250
  6
CONTINUOUS
 70
0
 71
3
 72
11
 73
7
 74
0
 42
0.0000001
 43
0.0000001
 44
0.0000000001
 40
0.0
 40
0.0
 40
0.0
 40
0.0
 40
0.2354292219
 40
0.4963044424
 40
0.7591925313
 40
1.0
 40
1.0
 40
1.0
 40
1.0
 10
-8.6335005703
 20
-29.4826808866
 30
0.0
 10
-8.5840294374
 20
-29.5112047838
 30
0.0
 10
-8.468610037
 20
-29.5522492601
 30
0.0
 10
-8.2837730497
 20
-29.5692434969
 30
0.0
 10
-8.0984541061
 20
-29.544815355
 30
0.0
 10
-7.9828983923
 20
-29.4994795931
 30
0.0
 10
-7.9329305184
 20
-29.4692321015
 30
0.0
  0
SPLINE
  5
5BD
100
AcDbEntity
  8
0
100
AcDbSpline
 62
250
  6
CONTINUOUS
 70
0
 71
3
 72
11
 73
7
 74
0
 42
0.0000001
 43
0.0000001
 44
0.0000000001
 40
0.0
 40
0.0
 40
0.0
 40
0.0
 40
0.2379940153
 40
0.4988661959
 40
0.7603483924
 40
1.0
 40
1.0
 40
1.0
 40
1.0
 10
-8.6335005779
 20
4.8389767843
 30
0.0
 10
-8.6295419847
 20
4.9491258878
 30
0.0
 10
-8.5839136038
 20
5.178918323
 30
0.0
 10
-8.4385129373
 20
5.5022593156
 30
0.0
 10
-8.2294889091
 20
5.7895644624
 30
0.0
 10
-8.0522056621
 20
5.9442040238
 30
0.0
 10
-7.9581830773
 20
6.0031791302
 30
0.0
  0
SPLINE
  5
5BE
100
AcDbEntity
  8
0
100
AcDbSpline
 62
250
  6
CONTINUOUS
 70
0
 71
3
 72
11
 73
7
 74
0
 42
0.0000001
 43
0.0000001
 44
0.0000000001
 40
0.0
 40
0.0
 40
0.0
 40
0.0
 40
0.2377325506
 40
0.4983582977
 40
0.7598661986
 40
1.0
 40
1.0
 40
1.0
 40
1.0
 10
-7.9329305184
 20
4.8181039165
 30
0.0
 10
-7.930939534
 20
4.8731475371
 30
0.0
 10
-7.9079116318
 20
4.9879785369
 30
0.0
 10
-7.8345403583
 20
5.1493532476
 30
0.0
 10
-7.7290554273
 20
5.2925154186
 30
0.0
 10
-7.6397037294
 20
5.3693118563
 30
0.0
 10
-7.5923503373
 20
5.3985182919
 30
0.0
  0
SPLINE
  5
5BF
100
AcDbEntity
  8
0
100
AcDbSpline
 62
250
  6
CONTINUOUS
 70
0
 71
3
 72
11
 73
7
 74
0
 42
0.0000001
 43
0.0000001
 44
0.0000000001
 40
0.0
 40
0.0
 40
0.0
 40
0.0
 40
0.2380660563
 40
0.5015435169
 40
0.7641864361
 40
1.0
 40
1.0
 40
1.0
 40
1.0
 10
-8.6334846676
 20
4.8389852006
 30
0.0
 10
-8.5837609683
 20
4.8102314227
 30
0.0
 10
-8.4687679746
 20
4.7672264167
 30
0.0
 10
-8.2847956876
 20
4.7427499043
 30
0.0
 10
-8.1002331066
 20
4.7561165443
 30
0.0
 10
-7.9836193287
 20
4.7922633711
 30
0.0
 10
-7.9329305185
 20
4.8181039166
 30
0.0
  0
SPLINE
  5
5C0
100
AcDbEntity
  8
0
100
AcDbSpline
 62
250
  6
CONTINUOUS
 70
0
 71
3
 72
11
 73
7
 74
0
 42
0.0000001
 43
0.0000001
 44
0.0000000001
 40
0.0
 40
0.0
 40
0.0
 40
0.0
 40
0.237884453
 40
0.5022304351
 40
0.7653705117
 40
1.0
 40
1.0
 40
1.0
 40
1.0
 10
-7.9581830773
 20
6.0031791302
 30
0.0
 10
-7.9085882126
 20
5.9734759179
 30
0.0
 10
-7.8143569773
 20
5.8932037726
 30
0.0
 10
-7.7019217516
 20
5.7435785982
 30
0.0
 10
-7.6218183365
 20
5.57530978
 30
0.0
 10
-7.5950491778
 20
5.4554728204
 30
0.0
 10
-7.5923503373
 20
5.3985182919
 30
0.0
  0
SPLINE
  5
5C1
100
AcDbEntity
  8
0
100
AcDbSpline
 62
250
  6
CONTINUOUS
 70
0
 71
3
 72
11
 73
7
 74
0
 42
0.0000001
 43
0.0000001
 44
0.0000000001
 40
0.0
 40
0.0
 40
0.0
 40
0.0
 40
0.2132208643
 40
0.4443034377
 40
0.7054033721
 40
1.0
 40
1.0
 40
1.0
 40
1.0
 10
-23.6299366515
 20
13.6172228339
 30
0.0
 10
-23.630552698
 20
13.5985472051
 30
0.0
 10
-23.624407705
 20
13.5590965458
 30
0.0
 10
-23.5944688257
 20
13.5039582257
 30
0.0
 10
-23.5462890147
 20
13.453780262
 30
0.0
 10
-23.5058622165
 20
13.4260766971
 30
0.0
 10
-23.4834956665
 20
13.4131822704
 30
0.0
  0
SPLINE
  5
5C2
100
AcDbEntity
  8
0
100
AcDbSpline
 62
250
  6
CONTINUOUS
 70
0
 71
3
 72
11
 73
7
 74
0
 42
0.0000001
 43
0.0000001
 44
0.0000000001
 40
0.0
 40
0.0
 40
0.0
 40
0.0
 40
0.2130244871
 40
0.444059779
 40
0.7052809417
 40
1.0
 40
1.0
 40
1.0
 40
1.0
 10
-23.0764485621
 20
14.6046386538
 30
0.0
 10
-23.0604474059
 20
14.6151519228
 30
0.0
 10
-23.0226100985
 20
14.6307948808
 30
0.0
 10
-22.9583281728
 20
14.6337588322
 30
0.0
 10
-22.8887329139
 20
14.6179525072
 30
0.0
 10
-22.8430126538
 20
14.5970119302
 30
0.0
 10
-22.8198678982
 20
14.5841296852
 30
0.0
  0
SPLINE
  5
5C3
100
AcDbEntity
  8
0
100
AcDbSpline
 62
250
  6
CONTINUOUS
 70
0
 71
3
 72
9
 73
5
 74
0
 42
0.0000001
 43
0.0000001
 44
0.0000000001
 40
0.0
 40
0.0
 40
0.0
 40
0.0
 40
0.2459939215
 40
1.0
 40
1.0
 40
1.0
 40
1.0
 10
-23.4834996755
 20
-20.9084775266
 30
0.0
 10
-23.5864072042
 20
-18.0957114316
 30
0.0
 10
-23.897278446
 20
-6.6576556865
 30
0.0
 10
-23.785721524
 20
4.7911822273
 30
0.0
 10
-23.4834996755
 20
13.4131801491
 30
0.0
  0
SPLINE
  5
5C4
100
AcDbEntity
  8
0
100
AcDbSpline
 62
250
  6
CONTINUOUS
 70
0
 71
3
 72
11
 73
7
 74
0
 42
0.0000001
 43
0.0000001
 44
0.0000000001
 40
0.0
 40
0.0
 40
0.0
 40
0.0
 40
0.22185764
 40
0.4579965639
 40
0.716528317
 40
1.0
 40
1.0
 40
1.0
 40
1.0
 10
-23.6289476664
 20
-20.7187686424
 30
0.0
 10
-23.6269619059
 20
-20.7369619149
 30
0.0
 10
-23.6170064563
 20
-20.7740689289
 30
0.0
 10
-23.5861904232
 20
-20.8252397679
 30
0.0
 10
-23.5408186067
 20
-20.8713179642
 30
0.0
 10
-23.5037433148
 20
-20.8967726732
 30
0.0
 10
-23.4834996627
 20
-20.9084775186
 30
0.0
  0
SPLINE
  5
5C5
100
AcDbEntity
  8
0
100
AcDbSpline
 62
250
  6
CONTINUOUS
 70
0
 71
3
 72
11
 73
7
 74
0
 42
0.0000001
 43
0.0000001
 44
0.0000000001
 40
0.0
 40
0.0
 40
0.0
 40
0.0
 40
0.2385247852
 40
0.4998956045
 40
0.7613224476
 40
1.0
 40
1.0
 40
1.0
 40
1.0
 10
-23.4834996755
 20
13.4131801491
 30
0.0
 10
-23.479611669
 20
13.5234650732
 30
0.0
 10
-23.4347704717
 20
13.7535335251
 30
0.0
 10
-23.2920676007
 20
14.0780720411
 30
0.0
 10
-23.0869052328
 20
14.3672946181
 30
0.0
 10
-22.9125147278
 20
14.5240459927
 30
0.0
 10
-22.8198678982
 20
14.5841296852
 30
0.0
  0
SPLINE
  5
5C6
100
AcDbEntity
  8
0
100
AcDbSpline
 62
250
  6
CONTINUOUS
 70
0
 71
3
 72
11
 73
7
 74
0
 42
0.0000001
 43
0.0000001
 44
0.0000000001
 40
0.0
 40
0.0
 40
0.0
 40
0.0
 40
0.2209905491
 40
0.4554646449
 40
0.7136431691
 40
1.0
 40
1.0
 40
1.0
 40
1.0
 10
-8.4259726477
 20
-29.9070737248
 30
0.0
 10
-8.4573051324
 20
-29.8888798733
 30
0.0
 10
-8.5160493323
 20
-29.8404238619
 30
0.0
 10
-8.5805570632
 20
-29.7410536464
 30
0.0
 10
-8.6212613879
 20
-29.6188410955
 30
0.0
 10
-8.631742803
 20
-29.5295966492
 30
0.0
 10
-8.6335005779
 20
-29.4826808913
 30
0.0
  0
SPLINE
  5
5C7
100
AcDbEntity
  8
0
100
AcDbSpline
 62
250
  6
CONTINUOUS
 70
0
 71
3
 72
11
 73
7
 74
0
 42
0.0000001
 43
0.0000001
 44
0.0000000001
 40
0.0
 40
0.0
 40
0.0
 40
0.0
 40
0.2183326969
 40
0.4518587011
 40
0.7113466574
 40
1.0
 40
1.0
 40
1.0
 40
1.0
 10
-7.716762205
 20
-29.9097124434
 30
0.0
 10
-7.698358033
 20
-29.9005372305
 30
0.0
 10
-7.6633982558
 20
-29.8745965015
 30
0.0
 10
-7.6247949661
 20
-29.8186715222
 30
0.0
 10
-7.6001721119
 20
-29.7485718519
 30
0.0
 10
-7.5935727555
 20
-29.6970078062
 30
0.0
 10
-7.5923503373
 20
-29.6698474011
 30
0.0
  0
SPLINE
  5
5C8
100
AcDbEntity
  8
0
100
AcDbSpline
 62
250
  6
CONTINUOUS
 70
0
 71
3
 72
11
 73
7
 74
0
 42
0.0000001
 43
0.0000001
 44
0.0000000001
 40
0.0
 40
0.0
 40
0.0
 40
0.0
 40
0.219245227
 40
0.4530873662
 40
0.711894026
 40
1.0
 40
1.0
 40
1.0
 40
1.0
 10
-23.2788442306
 20
-21.331212987
 30
0.0
 10
-23.3097956919
 20
-21.3133441354
 30
0.0
 10
-23.3678792795
 20
-21.2653210493
 30
0.0
 10
-23.4314192336
 20
-21.1664664631
 30
0.0
 10
-23.4714821554
 20
-21.0445343976
 30
0.0
 10
-23.4817736224
 20
-20.9554099696
 30
0.0
 10
-23.4834996755
 20
-20.9084775266
 30
0.0
  0
SPLINE
  5
5C9
100
AcDbEntity
  8
0
100
AcDbSpline
 62
250
  6
CONTINUOUS
 70
0
 71
3
 72
8
 73
4
 74
0
 42
0.0000001
 43
0.0000001
 44
0.0000000001
 40
0.0
 40
0.0
 40
0.0
 40
0.0
 40
1.0
 40
1.0
 40
1.0
 40
1.0
 10
-18.0860710392
 20
-11.1674042803
 30
0.0
 10
-18.0882965644
 20
-10.9235968698
 30
0.0
 10
-18.0903265473
 20
-10.6797875963
 30
0.0
 10
-18.0921615069
 20
-10.4359769335
 30
0.0
  0
SPLINE
  5
5CA
100
AcDbEntity
  8
0
100
AcDbSpline
 62
250
  6
CONTINUOUS
 70
0
 71
3
 72
11
 73
7
 74
0
 42
0.0000001
 43
0.0000001
 44
0.0000000001
 40
0.0
 40
0.0
 40
0.0
 40
0.0
 40
0.2905612918
 40
0.5497190191
 40
0.7823011183
 40
1.0
 40
1.0
 40
1.0
 40
1.0
 10
-18.0921614771
 20
-10.4359769169
 30
0.0
 10
-18.0928695894
 20
-10.3569019196
 30
0.0
 10
-18.0820753732
 20
-10.2066490073
 30
0.0
 10
-18.0217428343
 20
-10.000375254
 30
0.0
 10
-17.918485089
 20
-9.8338800843
 30
0.0
 10
-17.8210642808
 20
-9.7548374877
 30
0.0
 10
-17.7691396007
 20
-9.7263037389
 30
0.0
  0
SPLINE
  5
5CB
100
AcDbEntity
  8
0
100
AcDbSpline
 62
250
  6
CONTINUOUS
 70
0
 71
3
 72
13
 73
9
 74
0
 42
0.0000001
 43
0.0000001
 44
0.0000000001
 40
0.0
 40
0.0
 40
0.0
 40
0.0
 40
0.1144342049
 40
0.2380164714
 40
0.500951977
 40
0.7632868517
 40
0.8862380561
 40
1.0
 40
1.0
 40
1.0
 40
1.0
 10
-16.9764805145
 20
-13.052304794
 30
0.0
 10
-17.0513954781
 20
-13.0090463966
 30
0.0
 10
-17.1995766337
 20
-12.9054966743
 30
0.0
 10
-17.4777717014
 20
-12.6472682203
 30
0.0
 10
-17.7731895632
 20
-12.2501059274
 30
0.0
 10
-17.9774619439
 20
-11.7996617692
 30
0.0
 10
-18.0673423367
 20
-11.4323377061
 30
0.0
 10
-18.0851308649
 20
-11.2533984154
 30
0.0
 10
-18.0860710667
 20
-11.1674042956
 30
0.0
  0
SPLINE
  5
5CC
100
AcDbEntity
  8
0
100
AcDbSpline
 62
250
  6
CONTINUOUS
 70
0
 71
3
 72
9
 73
5
 74
0
 42
0.0000001
 43
0.0000001
 44
0.0000000001
 40
0.0
 40
0.0
 40
0.0
 40
0.0
 40
0.2433572718
 40
1.0
 40
1.0
 40
1.0
 40
1.0
 10
-9.9384036025
 20
-10.3490184394
 30
0.0
 10
-9.9414302929
 20
-10.3499348176
 30
0.0
 10
-9.9540348029
 20
-10.3531413619
 30
0.0
 10
-9.9671816169
 20
-10.3540606452
 30
0.0
 10
-9.9770054236
 20
-10.3536495958
 30
0.0
  0
SPLINE
  5
5CD
100
AcDbEntity
  8
0
100
AcDbSpline
 62
250
  6
CONTINUOUS
 70
0
 71
3
 72
9
 73
5
 74
0
 42
0.0000001
 43
0.0000001
 44
0.0000000001
 40
0.0
 40
0.0
 40
0.0
 40
0.0
 40
0.2321539992
 40
1.0
 40
1.0
 40
1.0
 40
1.0
 10
-9.9933052647
 20
-10.3520035941
 30
0.0
 10
-9.9992596197
 20
-10.3510613743
 30
0.0
 10
-10.0246665487
 20
-10.3454710033
 30
0.0
 10
-10.0486488074
 20
-10.3343819061
 30
0.0
 10
-10.0657616875
 20
-10.3241489912
 30
0.0
  0
SPLINE
  5
5CE
100
AcDbEntity
  8
0
100
AcDbSpline
 62
250
  6
CONTINUOUS
 70
0
 71
3
 72
8
 73
4
 74
0
 42
0.0000001
 43
0.0000001
 44
0.0000000001
 40
0.0
 40
0.0
 40
0.0
 40
0.0
 40
1.0
 40
1.0
 40
1.0
 40
1.0
 10
-18.5065893183
 20
-11.1678032255
 30
0.0
 10
-18.5088161568
 20
-10.9238494547
 30
0.0
 10
-18.5108473374
 20
-10.6798938199
 30
0.0
 10
-18.5126833798
 20
-10.435936795
 30
0.0
  0
SPLINE
  5
5CF
100
AcDbEntity
  8
0
100
AcDbSpline
 62
250
  6
CONTINUOUS
 70
0
 71
3
 72
13
 73
9
 74
0
 42
0.0000001
 43
0.0000001
 44
0.0000000001
 40
0.0
 40
0.0
 40
0.0
 40
0.0
 40
0.1144104319
 40
0.237960323
 40
0.5008375041
 40
0.763172088
 40
0.8861633543
 40
1.0
 40
1.0
 40
1.0
 40
1.0
 10
-17.1848895419
 20
-13.4209707616
 30
0.0
 10
-17.2743521824
 20
-13.3693075819
 30
0.0
 10
-17.4512763702
 20
-13.2455936659
 30
0.0
 10
-17.7832381393
 20
-12.9369314172
 30
0.0
 10
-18.1353666638
 20
-12.4620481811
 30
0.0
 10
-18.3783017165
 20
-11.9235380415
 30
0.0
 10
-18.4848035747
 20
-11.4844675656
 30
0.0
 10
-18.5056455966
 20
-11.2705892947
 30
0.0
 10
-18.5065893183
 20
-11.1678032255
 30
0.0
  0
SPLINE
  5
5D0
100
AcDbEntity
  8
0
100
AcDbSpline
 62
250
  6
CONTINUOUS
 70
0
 71
3
 72
11
 73
7
 74
0
 42
0.0000001
 43
0.0000001
 44
0.0000000001
 40
0.0
 40
0.0
 40
0.0
 40
0.0
 40
0.236822617
 40
0.4991432261
 40
0.7619290854
 40
1.0
 40
1.0
 40
1.0
 40
1.0
 10
-19.847798803
 20
-4.6694111267
 30
0.0
 10
-19.8180337966
 20
-4.6865993332
 30
0.0
 10
-19.7489069421
 20
-4.711853752
 30
0.0
 10
-19.6382465805
 20
-4.7245007677
 30
0.0
 10
-19.5272361804
 20
-4.7134134947
 30
0.0
 10
-19.4575039179
 20
-4.6891804323
 30
0.0
 10
-19.427270758
 20
-4.672452217
 30
0.0
  0
SPLINE
  5
5D1
100
AcDbEntity
  8
0
100
AcDbSpline
 62
250
  6
CONTINUOUS
 70
0
 71
3
 72
11
 73
7
 74
0
 42
0.0000001
 43
0.0000001
 44
0.0000000001
 40
0.0
 40
0.0
 40
0.0
 40
0.0
 40
0.2368567183
 40
0.4990639356
 40
0.7617794306
 40
1.0
 40
1.0
 40
1.0
 40
1.0
 10
-19.4249644844
 20
-5.4052284131
 30
0.0
 10
-19.4248884402
 20
-5.3708932486
 30
0.0
 10
-19.4120525087
 20
-5.298525155
 30
0.0
 10
-19.3674590616
 20
-5.1966252984
 30
0.0
 10
-19.3021427921
 20
-5.1063471462
 30
0.0
 10
-19.2461792198
 20
-5.0583209183
 30
0.0
 10
-19.2165353599
 20
-5.0406074607
 30
0.0
  0
SPLINE
  5
5D2
100
AcDbEntity
  8
0
100
AcDbSpline
 62
250
  6
CONTINUOUS
 70
0
 71
3
 72
11
 73
7
 74
0
 42
0.0000001
 43
0.0000001
 44
0.0000000001
 40
0.0
 40
0.0
 40
0.0
 40
0.0
 40
0.2368566464
 40
0.4990638253
 40
0.7617793704
 40
1.0
 40
1.0
 40
1.0
 40
1.0
 10
-10.2741912316
 20
-10.6887702031
 30
0.0
 10
-10.2741151874
 20
-10.654435049
 30
0.0
 10
-10.2612792642
 20
-10.582066971
 30
0.0
 10
-10.2166858303
 20
-10.4801671174
 30
0.0
 10
-10.1513695579
 20
-10.3898889538
 30
0.0
 10
-10.0954059749
 20
-10.3418627123
 30
0.0
 10
-10.0657621072
 20
-10.3241492507
 30
0.0
  0
SPLINE
  5
5D3
100
AcDbEntity
  8
0
100
AcDbSpline
 62
250
  6
CONTINUOUS
 70
0
 71
3
 72
9
 73
5
 74
0
 42
0.0000001
 43
0.0000001
 44
0.0000000001
 40
0.0
 40
0.0
 40
0.0
 40
0.0
 40
0.5448865864
 40
1.0
 40
1.0
 40
1.0
 40
1.0
 10
-9.848673476
 20
-10.4427807774
 30
0.0
 10
-9.8695469679
 20
-10.430730272
 30
0.0
 10
-9.9056427735
 20
-10.4038205292
 30
0.0
 10
-9.928941985
 20
-10.3639163682
 30
0.0
 10
-9.9336750436
 20
-10.3443494246
 30
0.0
  0
SPLINE
  5
5D4
100
AcDbEntity
  8
0
100
AcDbSpline
 62
250
  6
CONTINUOUS
 70
0
 71
3
 72
8
 73
4
 74
0
 42
0.0000001
 43
0.0000001
 44
0.0000000001
 40
0.0
 40
0.0
 40
0.0
 40
0.0
 40
1.0
 40
1.0
 40
1.0
 40
1.0
 10
-9.9336750436
 20
-10.3443494246
 30
0.0
 10
-9.9355696297
 20
-10.3365170139
 30
0.0
 10
-9.9365616244
 20
-10.3284033521
 30
0.0
 10
-9.9365415017
 20
-10.3203450825
 30
0.0
  0
SPLINE
  5
5D5
100
AcDbEntity
  8
0
100
AcDbSpline
 62
250
  6
CONTINUOUS
 70
0
 71
3
 72
11
 73
7
 74
0
 42
0.0000001
 43
0.0000001
 44
0.0000000001
 40
0.0
 40
0.0
 40
0.0
 40
0.0
 40
0.2909555893
 40
0.5513613373
 40
0.7839019504
 40
1.0
 40
1.0
 40
1.0
 40
1.0
 10
-9.811795606
 20
-5.8129479042
 30
0.0
 10
-9.8250382861
 20
-5.805305823
 30
0.0
 10
-9.8490403565
 20
-5.7887507081
 30
0.0
 10
-9.8777793492
 20
-5.7587234276
 30
0.0
 10
-9.8957739368
 20
-5.7254947322
 30
0.0
 10
-9.8998097528
 20
-5.7017077431
 30
0.0
 10
-9.8996630654
 20
-5.6903528701
 30
0.0
  0
SPLINE
  5
5D6
100
AcDbEntity
  8
0
100
AcDbSpline
 62
250
  6
CONTINUOUS
 70
0
 71
3
 72
11
 73
7
 74
0
 42
0.0000001
 43
0.0000001
 44
0.0000000001
 40
0.0
 40
0.0
 40
0.0
 40
0.0
 40
0.2900989268
 40
0.5503309882
 40
0.7832286768
 40
1.0
 40
1.0
 40
1.0
 40
1.0
 10
-10.2294698942
 20
-5.0741513619
 30
0.0
 10
-10.2296876878
 20
-5.0897521234
 30
0.0
 10
-10.2276804158
 20
-5.1194739819
 30
0.0
 10
-10.2162522007
 20
-5.1604152296
 30
0.0
 10
-10.1963454786
 20
-5.1936277207
 30
0.0
 10
-10.177476297
 20
-5.2096366761
 30
0.0
 10
-10.1673790063
 20
-5.2154647169
 30
0.0
  0
SPLINE
  5
5D7
100
AcDbEntity
  8
0
100
AcDbSpline
 62
250
  6
CONTINUOUS
 70
0
 71
3
 72
11
 73
7
 74
0
 42
0.0000001
 43
0.0000001
 44
0.0000000001
 40
0.0
 40
0.0
 40
0.0
 40
0.0
 40
0.2900727144
 40
0.5503112175
 40
0.7832302137
 40
1.0
 40
1.0
 40
1.0
 40
1.0
 10
-19.3786551541
 20
0.2084735409
 30
0.0
 10
-19.3788727555
 20
0.1928865579
 30
0.0
 10
-19.3768691685
 20
0.1631895745
 30
0.0
 10
-19.3654625291
 20
0.1222782138
 30
0.0
 10
-19.3455938705
 20
0.0890789109
 30
0.0
 10
-19.3267579833
 20
0.0730615082
 30
0.0
 10
-19.3166763675
 20
0.0672249874
 30
0.0
  0
SPLINE
  5
5D8
100
AcDbEntity
  8
0
100
AcDbSpline
 62
250
  6
CONTINUOUS
 70
0
 71
3
 72
11
 73
7
 74
0
 42
0.0000001
 43
0.0000001
 44
0.0000000001
 40
0.0
 40
0.0
 40
0.0
 40
0.0
 40
0.2371789415
 40
0.4998494245
 40
0.7626016014
 40
1.0
 40
1.0
 40
1.0
 40
1.0
 10
-19.809611437
 20
-0.0403343453
 30
0.0
 10
-19.779826302
 20
-0.0575410745
 30
0.0
 10
-19.7107350438
 20
-0.0829545472
 30
0.0
 10
-19.6001484239
 20
-0.0962059044
 30
0.0
 10
-19.4892060021
 20
-0.0860124258
 30
0.0
 10
-19.419394648
 20
-0.0625239059
 30
0.0
 10
-19.3891058508
 20
-0.0461530413
 30
0.0
  0
SPLINE
  5
5D9
100
AcDbEntity
  8
0
100
AcDbSpline
 62
250
  6
CONTINUOUS
 70
0
 71
3
 72
9
 73
5
 74
0
 42
0.0000001
 43
0.0000001
 44
0.0000000001
 40
0.0
 40
0.0
 40
0.0
 40
0.0
 40
0.5424063645
 40
1.0
 40
1.0
 40
1.0
 40
1.0
 10
-19.3891058508
 20
-0.0461530415
 30
0.0
 10
-19.3888277953
 20
-0.021298063
 30
0.0
 10
-19.3825748865
 20
0.0250261547
 30
0.0
 10
-19.3574653256
 20
0.0658703773
 30
0.0
 10
-19.3418178848
 20
0.0798307891
 30
0.0
  0
SPLINE
  5
5DA
100
AcDbEntity
  8
0
100
AcDbSpline
 62
250
  6
CONTINUOUS
 70
0
 71
3
 72
11
 73
7
 74
0
 42
0.0000001
 43
0.0000001
 44
0.0000000001
 40
0.0
 40
0.0
 40
0.0
 40
0.0
 40
0.2375819435
 40
0.49967055
 40
0.7618620459
 40
1.0
 40
1.0
 40
1.0
 40
1.0
 10
-19.2165348534
 20
-5.0406071682
 30
0.0
 10
-19.2470401715
 20
-5.0236005093
 30
0.0
 10
-19.3047680046
 20
-4.9761460789
 30
0.0
 10
-19.3715563949
 20
-4.885107962
 30
0.0
 10
-19.4163074204
 20
-4.781351676
 30
0.0
 10
-19.4280226537
 20
-4.7074512075
 30
0.0
 10
-19.4272702272
 20
-4.6724519105
 30
0.0
  0
SPLINE
  5
5DB
100
AcDbEntity
  8
0
100
AcDbSpline
 62
7
  6
CONTINUOUS
 70
0
 71
3
 72
11
 73
7
 74
0
 42
0.0000001
 43
0.0000001
 44
0.0000000001
 40
0.0
 40
0.0
 40
0.0
 40
0.0
 40
0.2372344099
 40
0.4999938937
 40
0.7627566992
 40
1.0
 40
1.0
 40
1.0
 40
1.0
 10
-18.5825225431
 20
-4.1847068022
 30
0.0
 10
-18.5825225431
 20
-4.2194765479
 30
0.0
 10
-18.5694893195
 20
-4.2928067186
 30
0.0
 10
-18.5240172782
 20
-4.3958377385
 30
0.0
 10
-18.4575249022
 20
-4.4867341435
 30
0.0
 10
-18.4005349441
 20
-4.5346879383
 30
0.0
 10
-18.3704228175
 20
-4.5520743028
 30
0.0
  0
SPLINE
  5
5DC
100
AcDbEntity
  8
0
100
AcDbSpline
 62
250
  6
CONTINUOUS
 70
0
 71
3
 72
11
 73
7
 74
0
 42
0.0000001
 43
0.0000001
 44
0.0000000001
 40
0.0
 40
0.0
 40
0.0
 40
0.0
 40
0.235827857
 40
0.4980104629
 40
0.7612755277
 40
1.0
 40
1.0
 40
1.0
 40
1.0
 10
-17.1848895419
 20
-13.4209707616
 30
0.0
 10
-17.1853108435
 20
-13.3864727413
 30
0.0
 10
-17.1730665911
 20
-13.3134208916
 30
0.0
 10
-17.1286712949
 20
-13.2103842529
 30
0.0
 10
-17.0629865781
 20
-13.1189034667
 30
0.0
 10
-17.0064603608
 20
-13.0702190184
 30
0.0
 10
-16.9764805151
 20
-13.0523047944
 30
0.0
  0
SPLINE
  5
5DD
100
AcDbEntity
  8
0
100
AcDbSpline
 62
250
  6
CONTINUOUS
 70
0
 71
3
 72
11
 73
7
 74
0
 42
0.0000001
 43
0.0000001
 44
0.0000000001
 40
0.0
 40
0.0
 40
0.0
 40
0.0
 40
0.2358277641
 40
0.4980103233
 40
0.7612754534
 40
1.0
 40
1.0
 40
1.0
 40
1.0
 10
-12.447274108
 20
-16.1564105369
 30
0.0
 10
-12.4476954095
 20
-16.1219125301
 30
0.0
 10
-12.435451168
 20
-16.0488607003
 30
0.0
 10
-12.3910558845
 20
-15.9458240675
 30
0.0
 10
-12.3253711683
 20
-15.8543432636
 30
0.0
 10
-12.2688449369
 20
-15.8056587983
 30
0.0
 10
-12.2388650812
 20
-15.7877445697
 30
0.0
  0
SPLINE
  5
5DE
100
AcDbEntity
  8
0
100
AcDbSpline
 62
250
  6
CONTINUOUS
 70
0
 71
3
 72
11
 73
7
 74
0
 42
0.0000001
 43
0.0000001
 44
0.0000000001
 40
0.0
 40
0.0
 40
0.0
 40
0.0
 40
0.2879698482
 40
0.5474883177
 40
0.7812764738
 40
1.0
 40
1.0
 40
1.0
 40
1.0
 10
-11.1573299564
 20
-15.4111734729
 30
0.0
 10
-11.1703891588
 20
-15.4036305683
 30
0.0
 10
-11.1941193661
 20
-15.3872111299
 30
0.0
 10
-11.2226151488
 20
-15.357346344
 30
0.0
 10
-11.2406994957
 20
-15.3241621828
 30
0.0
 10
-11.2450870265
 20
-15.3003546647
 30
0.0
 10
-11.245196756
 20
-15.2889005841
 30
0.0
  0
SPLINE
  5
5DF
100
AcDbEntity
  8
0
100
AcDbSpline
 62
250
  6
CONTINUOUS
 70
0
 71
3
 72
11
 73
7
 74
0
 42
0.0000001
 43
0.0000001
 44
0.0000000001
 40
0.0
 40
0.0
 40
0.0
 40
0.0
 40
0.2881919123
 40
0.547767387
 40
0.7814566894
 40
1.0
 40
1.0
 40
1.0
 40
1.0
 10
-11.1632150464
 20
-14.6794277002
 30
0.0
 10
-11.1762946079
 20
-14.6718735024
 30
0.0
 10
-11.2000562292
 20
-14.6554343603
 30
0.0
 10
-11.2285784505
 20
-14.6255362348
 30
0.0
 10
-11.2466516758
 20
-14.5923231457
 30
0.0
 10
-11.2510002101
 20
-14.568500855
 30
0.0
 10
-11.2510827336
 20
-14.5570471507
 30
0.0
  0
SPLINE
  5
5E0
100
AcDbEntity
  8
0
100
AcDbSpline
 62
250
  6
CONTINUOUS
 70
0
 71
3
 72
11
 73
7
 74
0
 42
0.0000001
 43
0.0000001
 44
0.0000000001
 40
0.0
 40
0.0
 40
0.0
 40
0.0
 40
0.2889060683
 40
0.5486699646
 40
0.78206159
 40
1.0
 40
1.0
 40
1.0
 40
1.0
 10
-12.4778413826
 20
-12.4214393159
 30
0.0
 10
-12.4777785803
 20
-12.4364828423
 30
0.0
 10
-12.4753321989
 20
-12.4651312491
 30
0.0
 10
-12.4636415576
 20
-12.504517696
 30
0.0
 10
-12.4439423713
 20
-12.5364661167
 30
0.0
 10
-12.4255472751
 20
-12.5519103311
 30
0.0
 10
-12.4157190257
 20
-12.5575838903
 30
0.0
  0
SPLINE
  5
5E1
100
AcDbEntity
  8
0
100
AcDbSpline
 62
250
  6
CONTINUOUS
 70
0
 71
3
 72
11
 73
7
 74
0
 42
0.0000001
 43
0.0000001
 44
0.0000000001
 40
0.0
 40
0.0
 40
0.0
 40
0.0
 40
0.2888914866
 40
0.5486591313
 40
0.7820626944
 40
1.0
 40
1.0
 40
1.0
 40
1.0
 10
-17.2154568165
 20
-9.6859995406
 30
0.0
 10
-17.2153940468
 20
-9.7010352561
 30
0.0
 10
-17.2129500147
 20
-9.7296695558
 30
0.0
 10
-17.2012718648
 20
-9.769039118
 30
0.0
 10
-17.1815943242
 20
-9.8009801072
 30
0.0
 10
-17.1632179553
 20
-9.8164288571
 30
0.0
 10
-17.1533985978
 20
-9.8221070578
 30
0.0
  0
SPLINE
  5
5E2
100
AcDbEntity
  8
0
100
AcDbSpline
 62
250
  6
CONTINUOUS
 70
0
 71
3
 72
11
 73
7
 74
0
 42
0.0000001
 43
0.0000001
 44
0.0000000001
 40
0.0
 40
0.0
 40
0.0
 40
0.0
 40
0.236438039
 40
0.4983786106
 40
0.7612004871
 40
1.0
 40
1.0
 40
1.0
 40
1.0
 10
-18.5126833798
 20
-10.4359367953
 30
0.0
 10
-18.4829406772
 20
-10.4531048045
 30
0.0
 10
-18.4137772138
 20
-10.4781877827
 30
0.0
 10
-18.3030426256
 20
-10.4901807368
 30
0.0
 10
-18.1919685194
 20
-10.4781258025
 30
0.0
 10
-18.122330823
 20
-10.45308994
 30
0.0
 10
-18.0921614771
 20
-10.4359769188
 30
0.0
  0
SPLINE
  5
5E3
100
AcDbEntity
  8
0
100
AcDbSpline
 62
250
  6
CONTINUOUS
 70
0
 71
3
 72
11
 73
7
 74
0
 42
0.0000001
 43
0.0000001
 44
0.0000000001
 40
0.0
 40
0.0
 40
0.0
 40
0.0
 40
0.2363816938
 40
0.4982664208
 40
0.7610936112
 40
1.0
 40
1.0
 40
1.0
 40
1.0
 10
-18.5065893183
 20
-11.1678032255
 30
0.0
 10
-18.4768499469
 20
-11.1849682524
 30
0.0
 10
-18.4076813293
 20
-11.2100261787
 30
0.0
 10
-18.29693639
 20
-11.2219233464
 30
0.0
 10
-18.1858538169
 20
-11.2097266711
 30
0.0
 10
-18.1162307344
 20
-11.184573495
 30
0.0
 10
-18.0860710392
 20
-11.1674042803
 30
0.0
  0
SPLINE
  5
5E4
100
AcDbEntity
  8
0
100
AcDbSpline
 62
250
  6
CONTINUOUS
 70
0
 71
3
 72
15
 73
11
 74
0
 42
0.0000001
 43
0.0000001
 44
0.0000000001
 40
0.0
 40
0.0
 40
0.0
 40
0.0
 40
0.1450845631
 40
0.2745448203
 40
0.3906096352
 40
0.4988860412
 40
0.6073533459
 40
0.7239327683
 40
0.8540958564
 40
1.0
 40
1.0
 40
1.0
 40
1.0
 10
-11.1573299564
 20
-15.4111734732
 30
0.0
 10
-11.1565160244
 20
-15.5041763592
 30
0.0
 10
-11.1689202572
 20
-15.680899676
 30
0.0
 10
-11.2380865368
 20
-15.923848587
 30
0.0
 10
-11.3567710943
 20
-16.1210244002
 30
0.0
 10
-11.5229365014
 20
-16.261612086
 30
0.0
 10
-11.728018377
 20
-16.3354353122
 30
0.0
 10
-11.9589547023
 20
-16.340323724
 30
0.0
 10
-12.2055303849
 20
-16.2799126441
 30
0.0
 10
-12.3662719998
 20
-16.2031744489
 30
0.0
 10
-12.447274108
 20
-16.1564105369
 30
0.0
  0
SPLINE
  5
5E5
100
AcDbEntity
  8
0
100
AcDbSpline
 62
250
  6
CONTINUOUS
 70
0
 71
3
 72
8
 73
4
 74
0
 42
0.0000001
 43
0.0000001
 44
0.0000000001
 40
0.0
 40
0.0
 40
0.0
 40
0.0
 40
1.0
 40
1.0
 40
1.0
 40
1.0
 10
-11.1632150464
 20
-14.6794277002
 30
0.0
 10
-11.1614419927
 20
-14.9233444021
 30
0.0
 10
-11.1594804695
 20
-15.1672598072
 30
0.0
 10
-11.1573299564
 20
-15.4111734732
 30
0.0
  0
SPLINE
  5
5E6
100
AcDbEntity
  8
0
100
AcDbSpline
 62
250
  6
CONTINUOUS
 70
0
 71
3
 72
11
 73
7
 74
0
 42
0.0000001
 43
0.0000001
 44
0.0000000001
 40
0.0
 40
0.0
 40
0.0
 40
0.0
 40
0.2382939845
 40
0.4967239028
 40
0.756899473
 40
1.0
 40
1.0
 40
1.0
 40
1.0
 10
-12.3679361836
 20
-12.4902471914
 30
0.0
 10
-12.2137598927
 20
-12.5942579169
 30
0.0
 10
-11.9217969962
 20
-12.8555609786
 30
0.0
 10
-11.5678463685
 20
-13.3325884688
 30
0.0
 10
-11.3058936434
 20
-13.8698416404
 30
0.0
 10
-11.204705519
 20
-14.253297849
 30
0.0
 10
-11.1801252919
 20
-14.4414302265
 30
0.0
  0
SPLINE
  5
5E7
100
AcDbEntity
  8
0
100
AcDbSpline
 62
250
  6
CONTINUOUS
 70
0
 71
3
 72
9
 73
5
 74
0
 42
0.0000001
 43
0.0000001
 44
0.0000000001
 40
0.0
 40
0.0
 40
0.0
 40
0.0
 40
0.2569192042
 40
1.0
 40
1.0
 40
1.0
 40
1.0
 10
-11.1801252919
 20
-14.4414302265
 30
0.0
 10
-11.1774771736
 20
-14.4616984196
 30
0.0
 10
-11.1682882315
 20
-14.5407264481
 30
0.0
 10
-11.1636476877
 20
-14.6203098832
 30
0.0
 10
-11.1632150464
 20
-14.6794277002
 30
0.0
  0
SPLINE
  5
5E8
100
AcDbEntity
  8
0
100
AcDbSpline
 62
250
  6
CONTINUOUS
 70
0
 71
3
 72
15
 73
11
 74
0
 42
0.0000001
 43
0.0000001
 44
0.0000000001
 40
0.0
 40
0.0
 40
0.0
 40
0.0
 40
0.1447937732
 40
0.2742193736
 40
0.3904995031
 40
0.4991371186
 40
0.6079199881
 40
0.7245933835
 40
0.8545589738
 40
1.0
 40
1.0
 40
1.0
 40
1.0
 10
-18.5126833798
 20
-10.435936795
 30
0.0
 10
-18.5133779228
 20
-10.3427494712
 30
0.0
 10
-18.5005902218
 20
-10.1655413421
 30
0.0
 10
-18.4304372005
 20
-9.921888397
 30
0.0
 10
-18.3105196924
 20
-9.7239957917
 30
0.0
 10
-18.1431391579
 20
-9.5826930876
 30
0.0
 10
-17.936942328
 20
-9.5080724256
 30
0.0
 10
-17.7049670613
 20
-9.5024702053
 30
0.0
 10
-17.4576018442
 20
-9.5624628912
 30
0.0
 10
-17.2965233968
 20
-9.6391980026
 30
0.0
 10
-17.2154568165
 20
-9.6859995406
 30
0.0
  0
SPLINE
  5
5E9
100
AcDbEntity
  8
0
100
AcDbSpline
 62
250
  6
CONTINUOUS
 70
0
 71
3
 72
15
 73
11
 74
0
 42
0.0000001
 43
0.0000001
 44
0.0000000001
 40
0.0
 40
0.0
 40
0.0
 40
0.0
 40
0.1446434042
 40
0.2747784163
 40
0.3920501817
 40
0.5016783778
 40
0.610998799
 40
0.7274598936
 40
0.8565047955
 40
1.0
 40
1.0
 40
1.0
 40
1.0
 10
-19.8096114709
 20
-0.0403345565
 30
0.0
 10
-19.8092027476
 20
-0.0096781731
 30
0.0
 10
-19.8037327001
 20
0.0486913617
 30
0.0
 10
-19.7791104415
 20
0.1288024979
 30
0.0
 10
-19.7384851943
 20
0.193908984
 30
0.0
 10
-19.6827625179
 20
0.2404547236
 30
0.0
 10
-19.6147605313
 20
0.265445406
 30
0.0
 10
-19.5384938224
 20
0.2678130295
 30
0.0
 10
-19.4575661745
 20
0.2485632646
 30
0.0
 10
-19.4049973841
 20
0.2236786421
 30
0.0
 10
-19.3786550325
 20
0.2084734707
 30
0.0
  0
SPLINE
  5
5EA
100
AcDbEntity
  8
IMPORT_IGES
100
AcDbSpline
 62
7
  6
CONTINUOUS
 70
0
 71
3
 72
9
 73
5
 74
0
 42
0.0000001
 43
0.0000001
 44
0.0000000001
 40
0.0
 40
0.0
 40
0.0
 40
0.0
 40
0.4991356924
 40
1.0
 40
1.0
 40
1.0
 40
1.0
 10
18.7737002435
 20
6.4035248447
 30
0.0
 10
18.7668540937
 20
6.2280074398
 30
0.0
 10
18.7078704684
 20
5.876760692
 30
0.0
 10
18.5657901198
 20
5.5509650061
 30
0.0
 10
18.4781432302
 20
5.3980423954
 30
0.0
  0
SPLINE
  5
5EB
100
AcDbEntity
  8
IMPORT_IGES
100
AcDbSpline
 62
7
  6
CONTINUOUS
 70
0
 71
3
 72
11
 73
7
 74
0
 42
0.0000001
 43
0.0000001
 44
0.0000000001
 40
0.0
 40
0.0
 40
0.0
 40
0.0
 40
0.2522578215
 40
0.5022155644
 40
0.7512300897
 40
1.0
 40
1.0
 40
1.0
 40
1.0
 10
18.2302109292
 20
10.378696289
 30
0.0
 10
18.3143764523
 20
10.2767326086
 30
0.0
 10
18.4675066499
 20
10.0611521538
 30
0.0
 10
18.6415351206
 20
9.7059190155
 30
0.0
 10
18.750486259
 20
9.3273043708
 30
0.0
 10
18.7751967315
 20
9.0657618872
 30
0.0
 10
18.7752796654
 20
8.935376433
 30
0.0
  0
SPLINE
  5
5EC
100
AcDbEntity
  8
IMPORT_IGES
100
AcDbSpline
 62
7
  6
CONTINUOUS
 70
0
 71
3
 72
13
 73
9
 74
0
 42
0.0000001
 43
0.0000001
 44
0.0000000001
 40
0.0
 40
0.0
 40
0.0
 40
0.0
 40
0.3005097304
 40
0.5720680438
 40
0.6938603566
 40
0.8051393842
 40
0.906370991
 40
1.0
 40
1.0
 40
1.0
 40
1.0
 10
7.7560999447
 20
-0.2599323579
 30
0.0
 10
7.730519559
 20
-0.3109929256
 30
0.0
 10
7.6907171348
 20
-0.4130465945
 30
0.0
 10
7.6702313541
 20
-0.5447178148
 30
0.0
 10
7.6748662144
 20
-0.6408202415
 30
0.0
 10
7.6880980197
 20
-0.7032995805
 30
0.0
 10
7.7113657132
 20
-0.7571598869
 30
0.0
 10
7.7346915966
 20
-0.7866262809
 30
0.0
 10
7.7476052545
 20
-0.798867546
 30
0.0
  0
SPLINE
  5
5ED
100
AcDbEntity
  8
IMPORT_IGES
100
AcDbSpline
 62
7
  6
CONTINUOUS
 70
0
 71
3
 72
14
 73
10
 74
0
 42
0.0000001
 43
0.0000001
 44
0.0000000001
 40
0.0
 40
0.0
 40
0.0
 40
0.0
 40
0.2995869121
 40
0.4411710675
 40
0.5742005895
 40
0.697012771
 40
0.8084661242
 40
0.9086314137
 40
1.0
 40
1.0
 40
1.0
 40
1.0
 10
9.5967868459
 20
0.8567020752
 30
0.0
 10
9.5619110845
 20
0.8006048185
 30
0.0
 10
9.5179334908
 20
0.7126857216
 30
0.0
 10
9.482765163
 20
0.5907870698
 30
0.0
 10
9.4692033099
 20
0.5039533035
 30
0.0
 10
9.4679718661
 20
0.4226713548
 30
0.0
 10
9.4791777053
 20
0.349372602
 30
0.0
 10
9.5030333522
 20
0.286277255
 30
0.0
 10
9.5290348653
 20
0.2520104463
 30
0.0
 10
9.543655303
 20
0.2381510356
 30
0.0
  0
SPLINE
  5
5EE
100
AcDbEntity
  8
IMPORT_IGES
100
AcDbSpline
 62
7
  6
CONTINUOUS
 70
0
 71
3
 72
11
 73
7
 74
0
 42
0.0000001
 43
0.0000001
 44
0.0000000001
 40
0.0
 40
0.0
 40
0.0
 40
0.0
 40
0.2230281727
 40
0.4747812444
 40
0.7393395499
 40
1.0
 40
1.0
 40
1.0
 40
1.0
 10
-12.6275931825
 20
-13.1109222912
 30
0.0
 10
-12.6749673559
 20
-13.1382762232
 30
0.0
 10
-12.7673445251
 20
-13.211077082
 30
0.0
 10
-12.8886886196
 20
-13.3465939953
 30
0.0
 10
-12.9943694002
 20
-13.5059466832
 30
0.0
 10
-13.0491312732
 20
-13.6233407499
 30
0.0
 10
-13.0705284545
 20
-13.6835885447
 30
0.0
  0
SPLINE
  5
5EF
100
AcDbEntity
  8
IMPORT_IGES
100
AcDbSpline
 62
7
  6
CONTINUOUS
 70
0
 71
3
 72
15
 73
11
 74
0
 42
0.0000001
 43
0.0000001
 44
0.0000000001
 40
0.0
 40
0.0
 40
0.0
 40
0.0
 40
0.1277541914
 40
0.2706123466
 40
0.4187369806
 40
0.5632105803
 40
0.6968737905
 40
0.813781749
 40
0.9130580954
 40
1.0
 40
1.0
 40
1.0
 40
1.0
 10
-14.5367814989
 20
-3.1092679302
 30
0.0
 10
-14.5477764872
 20
-3.1156163657
 30
0.0
 10
-14.5691231521
 20
-3.1324234707
 30
0.0
 10
-14.5967653927
 20
-3.1637349105
 30
0.0
 10
-14.6198192272
 20
-3.2006297469
 30
0.0
 10
-14.6356099138
 20
-3.2401714434
 30
0.0
 10
-14.6435689601
 20
-3.2788698528
 30
0.0
 10
-14.6427138041
 20
-3.3140275986
 30
0.0
 10
-14.6327602355
 20
-3.3431136459
 30
0.0
 10
-14.6193341717
 20
-3.3571076901
 30
0.0
 10
-14.6118507581
 20
-3.361426536
 30
0.0
  0
SPLINE
  5
5F0
100
AcDbEntity
  8
IMPORT_IGES
100
AcDbSpline
 62
7
  6
CONTINUOUS
 70
0
 71
3
 72
15
 73
11
 74
0
 42
0.0000001
 43
0.0000001
 44
0.0000000001
 40
0.0
 40
0.0
 40
0.0
 40
0.0
 40
0.1277541914
 40
0.2706123466
 40
0.4187369806
 40
0.5632105803
 40
0.6968737905
 40
0.813781749
 40
0.9130580954
 40
1.0
 40
1.0
 40
1.0
 40
1.0
 10
-16.3045484366
 20
-4.1299544047
 30
0.0
 10
-16.3155434249
 20
-4.1363028402
 30
0.0
 10
-16.3368900898
 20
-4.1531099452
 30
0.0
 10
-16.3645323304
 20
-4.184421385
 30
0.0
 10
-16.3875861649
 20
-4.2213162214
 30
0.0
 10
-16.4033768515
 20
-4.2608579179
 30
0.0
 10
-16.4113358978
 20
-4.2995563273
 30
0.0
 10
-16.4104807418
 20
-4.3347140731
 30
0.0
 10
-16.4005271732
 20
-4.3638001204
 30
0.0
 10
-16.3871011094
 20
-4.3777941646
 30
0.0
 10
-16.3796176958
 20
-4.3821130105
 30
0.0
  0
SPLINE
  5
5F1
100
AcDbEntity
  8
IMPORT_IGES
100
AcDbSpline
 62
7
  6
CONTINUOUS
 70
0
 71
3
 72
15
 73
11
 74
0
 42
0.0000001
 43
0.0000001
 44
0.0000000001
 40
0.0
 40
0.0
 40
0.0
 40
0.0
 40
0.1276148904
 40
0.2703960331
 40
0.4187485458
 40
0.5636780584
 40
0.6974327915
 40
0.8138852892
 40
0.9128305248
 40
1.0
 40
1.0
 40
1.0
 40
1.0
 10
6.3228685491
 20
2.7296584591
 30
0.0
 10
6.3119215648
 20
2.7233377408
 30
0.0
 10
6.2907106858
 20
2.7065195331
 30
0.0
 10
6.2633398807
 20
2.6751479335
 30
0.0
 10
6.2405369692
 20
2.6382066665
 30
0.0
 10
6.2246911238
 20
2.5987754873
 30
0.0
 10
6.2165204784
 20
2.5602413454
 30
0.0
 10
6.2173477196
 20
2.5252441727
 30
0.0
 10
6.2274568977
 20
2.496355636
 30
0.0
 10
6.2409147501
 20
2.4825267381
 30
0.0
 10
6.2483930494
 20
2.4782106165
 30
0.0
  0
SPLINE
  5
5F2
100
AcDbEntity
  8
IMPORT_IGES
100
AcDbSpline
 62
7
  6
CONTINUOUS
 70
0
 71
3
 72
9
 73
5
 74
0
 42
0.0000001
 43
0.0000001
 44
0.0000000001
 40
0.0
 40
0.0
 40
0.0
 40
0.0
 40
0.5402258651
 40
1.0
 40
1.0
 40
1.0
 40
1.0
 10
6.642009215
 20
2.7799820551
 30
0.0
 10
6.6430815076
 20
2.7680670171
 30
0.0
 10
6.6483242999
 20
2.7458973249
 30
0.0
 10
6.6638388501
 20
2.7282648765
 30
0.0
 10
6.6726571317
 20
2.7231753803
 30
0.0
  0
SPLINE
  5
5F3
100
AcDbEntity
  8
IMPORT_IGES
100
AcDbSpline
 62
7
  6
CONTINUOUS
 70
0
 71
3
 72
15
 73
11
 74
0
 42
0.0000001
 43
0.0000001
 44
0.0000000001
 40
0.0
 40
0.0
 40
0.0
 40
0.0
 40
0.1277541914
 40
0.2706123466
 40
0.4187369806
 40
0.5632105803
 40
0.6968737905
 40
0.813781749
 40
0.9130580954
 40
1.0
 40
1.0
 40
1.0
 40
1.0
 10
-15.7035076713
 20
-3.7829209996
 30
0.0
 10
-15.7145026597
 20
-3.7892694352
 30
0.0
 10
-15.7358493245
 20
-3.8060765401
 30
0.0
 10
-15.7634915651
 20
-3.83738798
 30
0.0
 10
-15.7865453996
 20
-3.8742828164
 30
0.0
 10
-15.8023360862
 20
-3.9138245128
 30
0.0
 10
-15.8102951325
 20
-3.9525229222
 30
0.0
 10
-15.8094399765
 20
-3.987680668
 30
0.0
 10
-15.7994864079
 20
-4.0167667153
 30
0.0
 10
-15.7860603441
 20
-4.0307607595
 30
0.0
 10
-15.7785769305
 20
-4.0350796054
 30
0.0
  0
SPLINE
  5
5F4
100
AcDbEntity
  8
IMPORT_IGES
100
AcDbSpline
 62
7
  6
CONTINUOUS
 70
0
 71
3
 72
15
 73
11
 74
0
 42
0.0000001
 43
0.0000001
 44
0.0000000001
 40
0.0
 40
0.0
 40
0.0
 40
0.0
 40
0.1277541914
 40
0.2706123466
 40
0.4187369806
 40
0.5632105803
 40
0.6968737905
 40
0.813781749
 40
0.9130580954
 40
1.0
 40
1.0
 40
1.0
 40
1.0
 10
-15.1378222462
 20
-3.4563013249
 30
0.0
 10
-15.1488172346
 20
-3.4626497604
 30
0.0
 10
-15.1701638994
 20
-3.4794568654
 30
0.0
 10
-15.19780614
 20
-3.5107683052
 30
0.0
 10
-15.2208599745
 20
-3.5476631416
 30
0.0
 10
-15.2366506611
 20
-3.5872048381
 30
0.0
 10
-15.2446097074
 20
-3.6259032475
 30
0.0
 10
-15.2437545514
 20
-3.6610609933
 30
0.0
 10
-15.2338009828
 20
-3.6901470406
 30
0.0
 10
-15.220374919
 20
-3.7041410848
 30
0.0
 10
-15.2128915054
 20
-3.7084599307
 30
0.0
  0
SPLINE
  5
5F5
100
AcDbEntity
  8
IMPORT_IGES
100
AcDbSpline
 62
7
  6
CONTINUOUS
 70
0
 71
3
 72
13
 73
9
 74
0
 42
0.0000001
 43
0.0000001
 44
0.0000000001
 40
0.0
 40
0.0
 40
0.0
 40
0.0
 40
0.2962190988
 40
0.5802781527
 40
0.7058396311
 40
0.8161628658
 40
0.9126155126
 40
1.0
 40
1.0
 40
1.0
 40
1.0
 10
-12.6689268573
 20
-12.4100619357
 30
0.0
 10
-12.6853902757
 20
-12.4277064355
 30
0.0
 10
-12.7127404488
 20
-12.467118585
 30
0.0
 10
-12.7315384331
 20
-12.5224717687
 30
0.0
 10
-12.7346335894
 20
-12.564968498
 30
0.0
 10
-12.7304152109
 20
-12.5920080707
 30
0.0
 10
-12.720119126
 20
-12.6140872919
 30
0.0
 10
-12.7088283235
 20
-12.6246991763
 30
0.0
 10
-12.7026624417
 20
-12.6282576451
 30
0.0
  0
SPLINE
  5
5F6
100
AcDbEntity
  8
IMPORT_IGES
100
AcDbSpline
 62
7
  6
CONTINUOUS
 70
0
 71
3
 72
15
 73
11
 74
0
 42
0.0000001
 43
0.0000001
 44
0.0000000001
 40
0.0
 40
0.0
 40
0.0
 40
0.0
 40
0.1277541914
 40
0.2706123466
 40
0.4187369806
 40
0.5632105803
 40
0.6968737905
 40
0.813781749
 40
0.9130580954
 40
1.0
 40
1.0
 40
1.0
 40
1.0
 10
-13.0518572468
 20
-12.6210637928
 30
0.0
 10
-13.0628522352
 20
-12.6274122283
 30
0.0
 10
-13.0841989
 20
-12.6442193333
 30
0.0
 10
-13.1118411406
 20
-12.6755307731
 30
0.0
 10
-13.1348949751
 20
-12.7124256095
 30
0.0
 10
-13.1506856617
 20
-12.7519673059
 30
0.0
 10
-13.158644708
 20
-12.7906657154
 30
0.0
 10
-13.157789552
 20
-12.8258234612
 30
0.0
 10
-13.1478359834
 20
-12.8549095084
 30
0.0
 10
-13.1344099196
 20
-12.8689035526
 30
0.0
 10
-13.126926506
 20
-12.8732223986
 30
0.0
  0
SPLINE
  5
5F7
100
AcDbEntity
  8
IMPORT_IGES
100
AcDbSpline
 62
7
  6
CONTINUOUS
 70
0
 71
3
 72
9
 73
5
 74
0
 42
0.0000001
 43
0.0000001
 44
0.0000000001
 40
0.0
 40
0.0
 40
0.0
 40
0.0
 40
0.4792749737
 40
1.0
 40
1.0
 40
1.0
 40
1.0
 10
11.5787188928
 20
1.4639494508
 30
0.0
 10
11.906706778
 20
1.6533289519
 30
0.0
 10
12.5371001924
 20
2.1436564859
 30
0.0
 10
13.0529854965
 20
2.7486763635
 30
0.0
 10
13.2915050873
 20
3.0839864294
 30
0.0
  0
SPLINE
  5
5F8
100
AcDbEntity
  8
IMPORT_IGES
100
AcDbSpline
 62
7
  6
CONTINUOUS
 70
0
 71
3
 72
11
 73
7
 74
0
 42
0.0000001
 43
0.0000001
 44
0.0000000001
 40
0.0
 40
0.0
 40
0.0
 40
0.0
 40
0.2326813656
 40
0.4752046538
 40
0.7305442126
 40
1.0
 40
1.0
 40
1.0
 40
1.0
 10
9.9350427075
 20
1.0518890591
 30
0.0
 10
10.0676969511
 20
1.0367793327
 30
0.0
 10
10.3424165443
 20
1.0344240096
 30
0.0
 10
10.7571450104
 20
1.1071684059
 30
0.0
 10
11.174966616
 20
1.2508287817
 30
0.0
 10
11.4447672285
 20
1.3866088295
 30
0.0
 10
11.5786645161
 20
1.4639180544
 30
0.0
  0
SPLINE
  5
5F9
100
AcDbEntity
  8
IMPORT_IGES
100
AcDbSpline
 62
7
  6
CONTINUOUS
 70
0
 71
3
 72
9
 73
5
 74
0
 42
0.0000001
 43
0.0000001
 44
0.0000000001
 40
0.0
 40
0.0
 40
0.0
 40
0.0
 40
0.4533487368
 40
1.0
 40
1.0
 40
1.0
 40
1.0
 10
-12.9767128057
 20
-12.613708269
 30
0.0
 10
-12.9869324412
 20
-12.6078227924
 30
0.0
 10
-13.0146774301
 20
-12.6041121991
 30
0.0
 10
-13.0395422377
 20
-12.613953336
 30
0.0
 10
-13.0518572468
 20
-12.6210637928
 30
0.0
  0
SPLINE
  5
5FA
100
AcDbEntity
  8
IMPORT_IGES
100
AcDbSpline
 62
7
  6
CONTINUOUS
 70
0
 71
3
 72
9
 73
5
 74
0
 42
0.0000001
 43
0.0000001
 44
0.0000000001
 40
0.0
 40
0.0
 40
0.0
 40
0.0
 40
0.4533487368
 40
1.0
 40
1.0
 40
1.0
 40
1.0
 10
-15.0626778051
 20
-3.4489458011
 30
0.0
 10
-15.0728974406
 20
-3.4430603245
 30
0.0
 10
-15.1006424295
 20
-3.4393497312
 30
0.0
 10
-15.1255072372
 20
-3.4491908681
 30
0.0
 10
-15.1378222462
 20
-3.4563013249
 30
0.0
  0
SPLINE
  5
5FB
100
AcDbEntity
  8
IMPORT_IGES
100
AcDbSpline
 62
7
  6
CONTINUOUS
 70
0
 71
3
 72
9
 73
5
 74
0
 42
0.0000001
 43
0.0000001
 44
0.0000000001
 40
0.0
 40
0.0
 40
0.0
 40
0.0
 40
0.4533487368
 40
1.0
 40
1.0
 40
1.0
 40
1.0
 10
-15.6283632302
 20
-3.7755654759
 30
0.0
 10
-15.6385828657
 20
-3.7696799993
 30
0.0
 10
-15.6663278546
 20
-3.7659694059
 30
0.0
 10
-15.6911926622
 20
-3.7758105428
 30
0.0
 10
-15.7035076713
 20
-3.7829209996
 30
0.0
  0
SPLINE
  5
5FC
100
AcDbEntity
  8
IMPORT_IGES
100
AcDbSpline
 62
7
  6
CONTINUOUS
 70
0
 71
3
 72
9
 73
5
 74
0
 42
0.0000001
 43
0.0000001
 44
0.0000000001
 40
0.0
 40
0.0
 40
0.0
 40
0.0
 40
0.4566898095
 40
1.0
 40
1.0
 40
1.0
 40
1.0
 10
6.3968011349
 20
2.7349966051
 30
0.0
 10
6.386746078
 20
2.7409592038
 30
0.0
 10
6.359776919
 20
2.7459718829
 30
0.0
 10
6.3349124413
 20
2.7366123781
 30
0.0
 10
6.3228685491
 20
2.7296584591
 30
0.0
  0
SPLINE
  5
5FD
100
AcDbEntity
  8
IMPORT_IGES
100
AcDbSpline
 62
7
  6
CONTINUOUS
 70
0
 71
3
 72
9
 73
5
 74
0
 42
0.0000001
 43
0.0000001
 44
0.0000000001
 40
0.0
 40
0.0
 40
0.0
 40
0.0
 40
0.4533487368
 40
1.0
 40
1.0
 40
1.0
 40
1.0
 10
-16.2294039954
 20
-4.1225988809
 30
0.0
 10
-16.239623631
 20
-4.1167134044
 30
0.0
 10
-16.2673686199
 20
-4.113002811
 30
0.0
 10
-16.2922334275
 20
-4.1228439479
 30
0.0
 10
-16.3045484366
 20
-4.1299544047
 30
0.0
  0
SPLINE
  5
5FE
100
AcDbEntity
  8
IMPORT_IGES
100
AcDbSpline
 62
7
  6
CONTINUOUS
 70
0
 71
3
 72
9
 73
5
 74
0
 42
0.0000001
 43
0.0000001
 44
0.0000000001
 40
0.0
 40
0.0
 40
0.0
 40
0.0
 40
0.4533487368
 40
1.0
 40
1.0
 40
1.0
 40
1.0
 10
-14.4616370578
 20
-3.1019124064
 30
0.0
 10
-14.4718566933
 20
-3.0960269299
 30
0.0
 10
-14.4996016822
 20
-3.0923163365
 30
0.0
 10
-14.5244664898
 20
-3.1021574734
 30
0.0
 10
-14.5367814989
 20
-3.1092679302
 30
0.0
  0
SPLINE
  5
5FF
100
AcDbEntity
  8
IMPORT_IGES
100
AcDbSpline
 62
7
  6
CONTINUOUS
 70
0
 71
3
 72
10
 73
6
 74
0
 42
0.0000001
 43
0.0000001
 44
0.0000000001
 40
0.0
 40
0.0
 40
0.0
 40
0.0
 40
0.2249540431
 40
0.4638082152
 40
1.0
 40
1.0
 40
1.0
 40
1.0
 10
-12.2968906486
 20
-13.0730289705
 30
0.0
 10
-12.3204389888
 20
-13.0625980583
 30
0.0
 10
-12.3725024593
 20
-13.0484343355
 30
0.0
 10
-12.487922181
 20
-13.0482600513
 30
0.0
 10
-12.5744292706
 20
-13.0802268757
 30
0.0
 10
-12.6275931825
 20
-13.1109222912
 30
0.0
  0
SPLINE
  5
600
100
AcDbEntity
  8
IMPORT_IGES
100
AcDbSpline
 62
250
  6
CONTINUOUS
 70
0
 71
3
 72
9
 73
5
 74
0
 42
0.0000001
 43
0.0000001
 44
0.0000000001
 40
0.0
 40
0.0
 40
0.0
 40
0.0
 40
0.2441462297
 40
1.0
 40
1.0
 40
1.0
 40
1.0
 10
8.3972157044
 20
3.665067177
 30
0.0
 10
8.4023480424
 20
3.7145394427
 30
0.0
 10
8.4265472562
 20
3.9168371201
 30
0.0
 10
8.4629551192
 20
4.1176235363
 30
0.0
 10
8.4963645173
 20
4.2679389374
 30
0.0
  0
SPLINE
  5
601
100
AcDbEntity
  8
IMPORT_IGES
100
AcDbSpline
 62
250
  6
CONTINUOUS
 70
0
 71
3
 72
10
 73
6
 74
0
 42
0.0000001
 43
0.0000001
 44
0.0000000001
 40
0.0
 40
0.0
 40
0.0
 40
0.0
 40
0.5242187429
 40
0.7701566929
 40
1.0
 40
1.0
 40
1.0
 40
1.0
 10
13.1080989617
 20
2.9641990236
 30
0.0
 10
12.8988638896
 20
2.6914576569
 30
0.0
 10
12.5587110076
 20
2.3133893296
 30
0.0
 10
12.0540614996
 20
1.8934355737
 30
0.0
 10
11.7928736391
 20
1.7209777075
 30
0.0
 10
11.6615247529
 20
1.6470611425
 30
0.0
  0
SPLINE
  5
602
100
AcDbEntity
  8
IMPORT_IGES
100
AcDbSpline
 62
250
  6
CONTINUOUS
 70
0
 71
3
 72
9
 73
5
 74
0
 42
0.0000001
 43
0.0000001
 44
0.0000000001
 40
0.0
 40
0.0
 40
0.0
 40
0.0
 40
0.5324859531
 40
1.0
 40
1.0
 40
1.0
 40
1.0
 10
11.5213583473
 20
1.5687828955
 30
0.0
 10
11.3261893894
 20
1.4662360732
 30
0.0
 10
10.9376135372
 20
1.3111793938
 30
0.0
 10
10.5181639695
 20
1.2666821968
 30
0.0
 10
10.325155755
 20
1.2814005848
 30
0.0
  0
SPLINE
  5
603
100
AcDbEntity
  8
IMPORT_IGES
100
AcDbSpline
 62
250
  6
CONTINUOUS
 70
0
 71
3
 72
9
 73
5
 74
0
 42
0.0000001
 43
0.0000001
 44
0.0000000001
 40
0.0
 40
0.0
 40
0.0
 40
0.0
 40
0.244423614
 40
1.0
 40
1.0
 40
1.0
 40
1.0
 10
9.0193587707
 20
4.0202364285
 30
0.0
 10
9.029864608
 20
4.0756259127
 30
0.0
 10
9.0766980246
 20
4.3014981121
 30
0.0
 10
9.1386518658
 20
4.5241776132
 30
0.0
 10
9.1928434191
 20
4.6898138314
 30
0.0
  0
SPLINE
  5
604
100
AcDbEntity
  8
IMPORT_IGES
100
AcDbSpline
 62
250
  6
CONTINUOUS
 70
0
 71
3
 72
9
 73
5
 74
0
 42
0.0000001
 43
0.0000001
 44
0.0000000001
 40
0.0
 40
0.0
 40
0.0
 40
0.0
 40
0.2479263244
 40
1.0
 40
1.0
 40
1.0
 40
1.0
 10
9.2531212716
 20
8.2950868705
 30
0.0
 10
9.2206290986
 20
8.3135827263
 30
0.0
 10
9.0927423643
 20
8.3936928891
 30
0.0
 10
8.9787149715
 20
8.4953551006
 30
0.0
 10
8.9029443052
 20
8.5797441505
 30
0.0
  0
SPLINE
  5
605
100
AcDbEntity
  8
IMPORT_IGES
100
AcDbSpline
 62
7
  6
CONTINUOUS
 70
0
 71
3
 72
13
 73
9
 74
0
 42
0.0000001
 43
0.0000001
 44
0.0000000001
 40
0.0
 40
0.0
 40
0.0
 40
0.0
 40
0.3042576105
 40
0.576277766
 40
0.6970253329
 40
0.8066697907
 40
0.9063995268
 40
1.0
 40
1.0
 40
1.0
 40
1.0
 10
8.3757595112
 20
-0.4384718494
 30
0.0
 10
8.4010892562
 20
-0.3856387983
 30
0.0
 10
8.4393470892
 20
-0.2805048022
 30
0.0
 10
8.4559477572
 20
-0.1456751921
 30
0.0
 10
8.4463851209
 20
-0.0490162841
 30
0.0
 10
8.4288881041
 20
0.0125524901
 30
0.0
 10
8.4002198595
 20
0.0641096
 30
0.0
 10
8.3731951348
 20
0.090598857
 30
0.0
 10
8.3586604455
 20
0.1012587767
 30
0.0
  0
SPLINE
  5
606
100
AcDbEntity
  8
IMPORT_IGES
100
AcDbSpline
 62
7
  6
CONTINUOUS
 70
0
 71
3
 72
10
 73
6
 74
0
 42
0.0000001
 43
0.0000001
 44
0.0000000001
 40
0.0
 40
0.0
 40
0.0
 40
0.0
 40
0.5503030657
 40
0.7902688996
 40
1.0
 40
1.0
 40
1.0
 40
1.0
 10
10.171811998
 20
0.5985482511
 30
0.0
 10
10.2083615628
 20
0.6747843394
 30
0.0
 10
10.2460668937
 20
0.7934852069
 30
0.0
 10
10.2499754832
 20
0.9477792405
 30
0.0
 10
10.2356524245
 20
1.0165082029
 30
0.0
 10
10.2236853889
 20
1.0464251425
 30
0.0
  0
SPLINE
  5
607
100
AcDbEntity
  8
IMPORT_IGES
100
AcDbSpline
 62
7
  6
CONTINUOUS
 70
0
 71
3
 72
15
 73
11
 74
0
 42
0.0000001
 43
0.0000001
 44
0.0000000001
 40
0.0
 40
0.0
 40
0.0
 40
0.0
 40
0.1500005667
 40
0.3020252932
 40
0.448947912
 40
0.5858208669
 40
0.7094530766
 40
0.8177696432
 40
0.9120307511
 40
1.0
 40
1.0
 40
1.0
 40
1.0
 10
-12.4154730542
 20
-14.0709042596
 30
0.0
 10
-12.378461207
 20
-14.028277063
 30
0.0
 10
-12.3098593258
 20
-13.937171017
 30
0.0
 10
-12.225791522
 20
-13.7900685748
 30
0.0
 10
-12.1654004464
 20
-13.6368414247
 30
0.0
 10
-12.133279013
 20
-13.4861254238
 30
0.0
 10
-12.1291119164
 20
-13.3465327599
 30
0.0
 10
-12.1528789745
 20
-13.2246125128
 30
0.0
 10
-12.2085678878
 20
-13.127330654
 30
0.0
 10
-12.2666199821
 20
-13.0864375871
 30
0.0
 10
-12.2968906486
 20
-13.0730289705
 30
0.0
  0
SPLINE
  5
608
100
AcDbEntity
  8
IMPORT_IGES
100
AcDbSpline
 62
7
  6
CONTINUOUS
 70
0
 71
3
 72
15
 73
11
 74
0
 42
0.0000001
 43
0.0000001
 44
0.0000000001
 40
0.0
 40
0.0
 40
0.0
 40
0.0
 40
0.1275988675
 40
0.2700690083
 40
0.4178838036
 40
0.5624712348
 40
0.6964607986
 40
0.8136522203
 40
0.9130707129
 40
1.0
 40
1.0
 40
1.0
 40
1.0
 10
-15.7035076713
 20
-4.0278620905
 30
0.0
 10
-15.6925211296
 20
-4.0215185321
 30
0.0
 10
-15.6711765984
 20
-4.004786469
 30
0.0
 10
-15.6435116592
 20
-3.9735738587
 30
0.0
 10
-15.6205283723
 20
-3.9366757905
 30
0.0
 10
-15.6047600402
 20
-3.8970959453
 30
0.0
 10
-15.5967411643
 20
-3.8583207686
 30
0.0
 10
-15.5975399067
 20
-3.823072441
 30
0.0
 10
-15.607442166
 20
-3.7939108355
 30
0.0
 10
-15.6208735854
 20
-3.7798787539
 30
0.0
 10
-15.6283632302
 20
-3.7755654759
 30
0.0
  0
SPLINE
  5
609
100
AcDbEntity
  8
IMPORT_IGES
100
AcDbSpline
 62
7
  6
CONTINUOUS
 70
0
 71
3
 72
9
 73
5
 74
0
 42
0.0000001
 43
0.0000001
 44
0.0000000001
 40
0.0
 40
0.0
 40
0.0
 40
0.0
 40
0.4535161717
 40
1.0
 40
1.0
 40
1.0
 40
1.0
 10
-13.126926506
 20
-12.8732223986
 30
0.0
 10
-13.116718971
 20
-12.8791133961
 30
0.0
 10
-13.089023311
 20
-12.8829115085
 30
0.0
 10
-13.0641558765
 20
-12.8731058833
 30
0.0
 10
-13.0518572468
 20
-12.8660048837
 30
0.0
  0
SPLINE
  5
60A
100
AcDbEntity
  8
IMPORT_IGES
100
AcDbSpline
 62
7
  6
CONTINUOUS
 70
0
 71
3
 72
15
 73
11
 74
0
 42
0.0000001
 43
0.0000001
 44
0.0000000001
 40
0.0
 40
0.0
 40
0.0
 40
0.0
 40
0.1275988675
 40
0.2700690083
 40
0.4178838036
 40
0.5624712348
 40
0.6964607986
 40
0.8136522203
 40
0.9130707129
 40
1.0
 40
1.0
 40
1.0
 40
1.0
 10
-15.1378222462
 20
-3.7012424158
 30
0.0
 10
-15.1268357045
 20
-3.6948988573
 30
0.0
 10
-15.1054911734
 20
-3.6781667942
 30
0.0
 10
-15.0778262341
 20
-3.6469541839
 30
0.0
 10
-15.0548429472
 20
-3.6100561158
 30
0.0
 10
-15.0390746151
 20
-3.5704762705
 30
0.0
 10
-15.0310557392
 20
-3.5317010938
 30
0.0
 10
-15.0318544816
 20
-3.4964527662
 30
0.0
 10
-15.0417567409
 20
-3.4672911607
 30
0.0
 10
-15.0551881603
 20
-3.4532590791
 30
0.0
 10
-15.0626778051
 20
-3.4489458011
 30
0.0
  0
SPLINE
  5
60B
100
AcDbEntity
  8
IMPORT_IGES
100
AcDbSpline
 62
7
  6
CONTINUOUS
 70
0
 71
3
 72
9
 73
5
 74
0
 42
0.0000001
 43
0.0000001
 44
0.0000000001
 40
0.0
 40
0.0
 40
0.0
 40
0.0
 40
0.4535161717
 40
1.0
 40
1.0
 40
1.0
 40
1.0
 10
-12.7026624417
 20
-12.6282576451
 30
0.0
 10
-12.6924549067
 20
-12.6341486426
 30
0.0
 10
-12.6647592467
 20
-12.637946755
 30
0.0
 10
-12.6398918122
 20
-12.6281411299
 30
0.0
 10
-12.6275931825
 20
-12.6210401302
 30
0.0
  0
SPLINE
  5
60C
100
AcDbEntity
  8
IMPORT_IGES
100
AcDbSpline
 62
7
  6
CONTINUOUS
 70
0
 71
3
 72
10
 73
6
 74
0
 42
0.0000001
 43
0.0000001
 44
0.0000000001
 40
0.0
 40
0.0
 40
0.0
 40
0.0
 40
0.2271691863
 40
0.4807371012
 40
1.0
 40
1.0
 40
1.0
 40
1.0
 10
-12.6275931825
 20
-12.6210401302
 30
0.0
 10
-12.6167129079
 20
-12.6147579297
 30
0.0
 10
-12.5955563388
 20
-12.598204436
 30
0.0
 10
-12.5586645774
 20
-12.5568443581
 30
0.0
 10
-12.5384781973
 20
-12.5178481347
 30
0.0
 10
-12.5301461064
 20
-12.4903653445
 30
0.0
  0
SPLINE
  5
60D
100
AcDbEntity
  8
IMPORT_IGES
100
AcDbSpline
 62
7
  6
CONTINUOUS
 70
0
 71
3
 72
15
 73
11
 74
0
 42
0.0000001
 43
0.0000001
 44
0.0000000001
 40
0.0
 40
0.0
 40
0.0
 40
0.0
 40
0.1275988675
 40
0.2700690083
 40
0.4178838036
 40
0.5624712348
 40
0.6964607986
 40
0.8136522203
 40
0.9130707129
 40
1.0
 40
1.0
 40
1.0
 40
1.0
 10
-13.0518572468
 20
-12.8660048837
 30
0.0
 10
-13.0408707051
 20
-12.8596613252
 30
0.0
 10
-13.0195261739
 20
-12.8429292621
 30
0.0
 10
-12.9918612347
 20
-12.8117166518
 30
0.0
 10
-12.9688779478
 20
-12.7748185837
 30
0.0
 10
-12.9531096157
 20
-12.7352387384
 30
0.0
 10
-12.9450907398
 20
-12.6964635617
 30
0.0
 10
-12.9458894822
 20
-12.6612152341
 30
0.0
 10
-12.9557917415
 20
-12.6320536286
 30
0.0
 10
-12.9692231609
 20
-12.618021547
 30
0.0
 10
-12.9767128057
 20
-12.613708269
 30
0.0
  0
SPLINE
  5
60E
100
AcDbEntity
  8
IMPORT_IGES
100
AcDbSpline
 62
7
  6
CONTINUOUS
 70
0
 71
3
 72
9
 73
5
 74
0
 42
0.0000001
 43
0.0000001
 44
0.0000000001
 40
0.0
 40
0.0
 40
0.0
 40
0.0
 40
0.4535161717
 40
1.0
 40
1.0
 40
1.0
 40
1.0
 10
-15.2128915054
 20
-3.7084599307
 30
0.0
 10
-15.2026839704
 20
-3.7143509282
 30
0.0
 10
-15.1749883104
 20
-3.7181490406
 30
0.0
 10
-15.1501208759
 20
-3.7083434155
 30
0.0
 10
-15.1378222462
 20
-3.7012424158
 30
0.0
  0
SPLINE
  5
60F
100
AcDbEntity
  8
IMPORT_IGES
100
AcDbSpline
 62
7
  6
CONTINUOUS
 70
0
 71
3
 72
9
 73
5
 74
0
 42
0.0000001
 43
0.0000001
 44
0.0000000001
 40
0.0
 40
0.0
 40
0.0
 40
0.0
 40
0.4535161717
 40
1.0
 40
1.0
 40
1.0
 40
1.0
 10
-15.7785769305
 20
-4.0350796054
 30
0.0
 10
-15.7683693955
 20
-4.0409706029
 30
0.0
 10
-15.7406737355
 20
-4.0447687153
 30
0.0
 10
-15.715806301
 20
-4.0349630902
 30
0.0
 10
-15.7035076713
 20
-4.0278620905
 30
0.0
  0
SPLINE
  5
610
100
AcDbEntity
  8
IMPORT_IGES
100
AcDbSpline
 62
7
  6
CONTINUOUS
 70
0
 71
3
 72
15
 73
11
 74
0
 42
0.0000001
 43
0.0000001
 44
0.0000000001
 40
0.0
 40
0.0
 40
0.0
 40
0.0
 40
0.1275988675
 40
0.2700690083
 40
0.4178838036
 40
0.5624712348
 40
0.6964607986
 40
0.8136522203
 40
0.9130707129
 40
1.0
 40
1.0
 40
1.0
 40
1.0
 10
-14.5367814989
 20
-3.3542090211
 30
0.0
 10
-14.5257949572
 20
-3.3478654626
 30
0.0
 10
-14.504450426
 20
-3.3311333995
 30
0.0
 10
-14.4767854868
 20
-3.2999207892
 30
0.0
 10
-14.4538021999
 20
-3.2630227211
 30
0.0
 10
-14.4380338678
 20
-3.2234428758
 30
0.0
 10
-14.4300149919
 20
-3.1846676991
 30
0.0
 10
-14.4308137343
 20
-3.1494193716
 30
0.0
 10
-14.4407159936
 20
-3.120257766
 30
0.0
 10
-14.454147413
 20
-3.1062256844
 30
0.0
 10
-14.4616370578
 20
-3.1019124064
 30
0.0
  0
SPLINE
  5
611
100
AcDbEntity
  8
IMPORT_IGES
100
AcDbSpline
 62
7
  6
CONTINUOUS
 70
0
 71
3
 72
15
 73
11
 74
0
 42
0.0000001
 43
0.0000001
 44
0.0000000001
 40
0.0
 40
0.0
 40
0.0
 40
0.0
 40
0.1275988675
 40
0.2700690083
 40
0.4178838036
 40
0.5624712348
 40
0.6964607986
 40
0.8136522203
 40
0.9130707129
 40
1.0
 40
1.0
 40
1.0
 40
1.0
 10
-16.3045484366
 20
-4.3748954956
 30
0.0
 10
-16.2935618949
 20
-4.3685519371
 30
0.0
 10
-16.2722173637
 20
-4.3518198741
 30
0.0
 10
-16.2445524245
 20
-4.3206072637
 30
0.0
 10
-16.2215691376
 20
-4.2837091956
 30
0.0
 10
-16.2058008055
 20
-4.2441293503
 30
0.0
 10
-16.1977819296
 20
-4.2053541736
 30
0.0
 10
-16.1985806719
 20
-4.1701058461
 30
0.0
 10
-16.2084829313
 20
-4.1409442405
 30
0.0
 10
-16.2219143507
 20
-4.1269121589
 30
0.0
 10
-16.2294039954
 20
-4.1225988809
 30
0.0
  0
SPLINE
  5
612
100
AcDbEntity
  8
IMPORT_IGES
100
AcDbSpline
 62
7
  6
CONTINUOUS
 70
0
 71
3
 72
14
 73
10
 74
0
 42
0.0000001
 43
0.0000001
 44
0.0000000001
 40
0.0
 40
0.0
 40
0.0
 40
0.0
 40
0.1273113179
 40
0.2696590131
 40
0.5633713284
 40
0.6972582565
 40
0.8128944258
 40
0.9118272357
 40
1.0
 40
1.0
 40
1.0
 40
1.0
 10
6.3228685491
 20
2.4847173683
 30
0.0
 10
6.3337482679
 20
2.4909992478
 30
0.0
 10
6.3548329215
 20
2.5077164573
 30
0.0
 10
6.391364834
 20
2.549808548
 30
0.0
 10
6.4177826335
 20
2.6008375993
 30
0.0
 10
6.4296470498
 20
2.6534409489
 30
0.0
 10
6.4285209381
 20
2.6883092211
 30
0.0
 10
6.4178151041
 20
2.7168848551
 30
0.0
 10
6.4042850974
 20
2.7305586525
 30
0.0
 10
6.3968011349
 20
2.7349966051
 30
0.0
  0
SPLINE
  5
613
100
AcDbEntity
  8
IMPORT_IGES
100
AcDbSpline
 62
7
  6
CONTINUOUS
 70
0
 71
3
 72
9
 73
5
 74
0
 42
0.0000001
 43
0.0000001
 44
0.0000000001
 40
0.0
 40
0.0
 40
0.0
 40
0.0
 40
0.4622892213
 40
1.0
 40
1.0
 40
1.0
 40
1.0
 10
6.6726571317
 20
2.7231753803
 30
0.0
 10
6.6814780836
 20
2.7180843429
 30
0.0
 10
6.704319235
 20
2.7134110436
 30
0.0
 10
6.7261221055
 20
2.7195517934
 30
0.0
 10
6.7369173386
 20
2.7244300851
 30
0.0
  0
SPLINE
  5
614
100
AcDbEntity
  8
IMPORT_IGES
100
AcDbSpline
 62
7
  6
CONTINUOUS
 70
0
 71
3
 72
9
 73
5
 74
0
 42
0.0000001
 43
0.0000001
 44
0.0000000001
 40
0.0
 40
0.0
 40
0.0
 40
0.0
 40
0.4549625744
 40
1.0
 40
1.0
 40
1.0
 40
1.0
 10
6.2483930494
 20
2.4782106165
 30
0.0
 10
6.2585487316
 20
2.4723492357
 30
0.0
 10
6.2858776837
 20
2.4681346643
 30
0.0
 10
6.3107034184
 20
2.4776934484
 30
0.0
 10
6.3228685491
 20
2.4847173683
 30
0.0
  0
SPLINE
  5
615
100
AcDbEntity
  8
IMPORT_IGES
100
AcDbSpline
 62
7
  6
CONTINUOUS
 70
0
 71
3
 72
9
 73
5
 74
0
 42
0.0000001
 43
0.0000001
 44
0.0000000001
 40
0.0
 40
0.0
 40
0.0
 40
0.0
 40
0.4535161717
 40
1.0
 40
1.0
 40
1.0
 40
1.0
 10
-16.3796176958
 20
-4.3821130105
 30
0.0
 10
-16.3694101608
 20
-4.388004008
 30
0.0
 10
-16.3417145008
 20
-4.3918021204
 30
0.0
 10
-16.3168470663
 20
-4.3819964953
 30
0.0
 10
-16.3045484366
 20
-4.3748954956
 30
0.0
  0
SPLINE
  5
616
100
AcDbEntity
  8
IMPORT_IGES
100
AcDbSpline
 62
7
  6
CONTINUOUS
 70
0
 71
3
 72
9
 73
5
 74
0
 42
0.0000001
 43
0.0000001
 44
0.0000000001
 40
0.0
 40
0.0
 40
0.0
 40
0.0
 40
0.4535161717
 40
1.0
 40
1.0
 40
1.0
 40
1.0
 10
-14.6118507581
 20
-3.361426536
 30
0.0
 10
-14.6016432231
 20
-3.3673175335
 30
0.0
 10
-14.5739475631
 20
-3.3711156459
 30
0.0
 10
-14.5490801286
 20
-3.3613100208
 30
0.0
 10
-14.5367814989
 20
-3.3542090211
 30
0.0
  0
SPLINE
  5
617
100
AcDbEntity
  8
IMPORT_IGES
100
AcDbSpline
 62
250
  6
CONTINUOUS
 70
0
 71
3
 72
11
 73
7
 74
0
 42
0.0000001
 43
0.0000001
 44
0.0000000001
 40
0.0
 40
0.0
 40
0.0
 40
0.0
 40
0.2323287514
 40
0.4708319682
 40
0.7245071854
 40
1.0
 40
1.0
 40
1.0
 40
1.0
 10
17.7675078809
 20
9.8709793955
 30
0.0
 10
17.7781441951
 20
9.7765826413
 30
0.0
 10
17.7742468151
 20
9.5814106148
 30
0.0
 10
17.6900769777
 20
9.2942391712
 30
0.0
 10
17.5324040605
 20
9.0198975068
 30
0.0
 10
17.3872128944
 20
8.8574673661
 30
0.0
 10
17.3055879582
 20
8.7798413444
 30
0.0
  0
SPLINE
  5
618
100
AcDbEntity
  8
IMPORT_IGES
100
AcDbSpline
 62
250
  6
CONTINUOUS
 70
0
 71
3
 72
9
 73
5
 74
0
 42
0.0000001
 43
0.0000001
 44
0.0000000001
 40
0.0
 40
0.0
 40
0.0
 40
0.0
 40
0.2515831559
 40
1.0
 40
1.0
 40
1.0
 40
1.0
 10
18.7447963347
 20
8.6358158433
 30
0.0
 10
18.7500308547
 20
8.6604766174
 30
0.0
 10
18.7682498076
 20
8.7590270633
 30
0.0
 10
18.7756754783
 20
8.8595990251
 30
0.0
 10
18.7747976824
 20
8.9345899072
 30
0.0
  0
SPLINE
  5
619
100
AcDbEntity
  8
IMPORT_IGES
100
AcDbSpline
 62
250
  6
CONTINUOUS
 70
0
 71
3
 72
9
 73
5
 74
0
 42
0.0000001
 43
0.0000001
 44
0.0000000001
 40
0.0
 40
0.0
 40
0.0
 40
0.0
 40
0.5125054575
 40
1.0
 40
1.0
 40
1.0
 40
1.0
 10
14.9047861855
 20
4.0408346326
 30
0.0
 10
15.230556375
 20
4.0579054071
 30
0.0
 10
15.8646140249
 20
4.1351139881
 30
0.0
 10
16.4821811354
 20
4.3001661247
 30
0.0
 10
16.7742875214
 20
4.4048480119
 30
0.0
  0
SPLINE
  5
61A
100
AcDbEntity
  8
IMPORT_IGES
100
AcDbSpline
 62
250
  6
CONTINUOUS
 70
0
 71
3
 72
11
 73
7
 74
0
 42
0.0000001
 43
0.0000001
 44
0.0000000001
 40
0.0
 40
0.0
 40
0.0
 40
0.0
 40
0.2736836635
 40
0.528870425
 40
0.769085373
 40
1.0
 40
1.0
 40
1.0
 40
1.0
 10
18.144999525
 20
5.2004655998
 30
0.0
 10
18.236410812
 20
5.2865518214
 30
0.0
 10
18.4021017237
 20
5.4652751852
 30
0.0
 10
18.5979273245
 20
5.76093321
 30
0.0
 10
18.7274510226
 20
6.0703108808
 30
0.0
 10
18.7663130946
 20
6.2852121559
 30
0.0
 10
18.7725673821
 20
6.3909710994
 30
0.0
  0
SPLINE
  5
61B
100
AcDbEntity
  8
IMPORT_IGES
100
AcDbSpline
 62
250
  6
CONTINUOUS
 70
0
 71
3
 72
9
 73
5
 74
0
 42
0.0000001
 43
0.0000001
 44
0.0000000001
 40
0.0
 40
0.0
 40
0.0
 40
0.0
 40
0.4929184246
 40
1.0
 40
1.0
 40
1.0
 40
1.0
 10
9.7044361389
 20
8.4981345306
 30
0.0
 10
9.6324499207
 20
8.5424714899
 30
0.0
 10
9.495163902
 20
8.6473657007
 30
0.0
 10
9.3804552982
 20
8.7763124234
 30
0.0
 10
9.3284347927
 20
8.8460139861
 30
0.0
  0
SPLINE
  5
61C
100
AcDbEntity
  8
0
100
AcDbSpline
 62
7
  6
CONTINUOUS
 70
0
 71
3
 72
9
 73
5
 74
0
 42
0.0000001
 43
0.0000001
 44
0.0000000001
 40
0.0
 40
0.0
 40
0.0
 40
0.0
 40
0.5250467091
 40
1.0
 40
1.0
 40
1.0
 40
1.0
 10
23.6247059702
 20
20.6615268957
 30
0.0
 10
23.7221748185
 20
20.4653677969
 30
0.0
 10
23.8730601735
 20
20.0733675662
 30
0.0
 10
23.9370134482
 20
19.6558767004
 30
0.0
 10
23.9370134482
 20
19.4577346726
 30
0.0
  0
SPLINE
  5
61D
100
AcDbEntity
  8
0
100
AcDbSpline
 62
7
  6
CONTINUOUS
 70
0
 71
3
 72
11
 73
7
 74
0
 42
0.0000001
 43
0.0000001
 44
0.0000000001
 40
0.0
 40
0.0
 40
0.0
 40
0.0
 40
0.2856379497
 40
0.5452930588
 40
0.7813409331
 40
1.0
 40
1.0
 40
1.0
 40
1.0
 10
23.9370134482
 20
-6.4957497129
 30
0.0
 10
23.9370134482
 20
-6.5838555756
 30
0.0
 10
23.925323595
 20
-6.7524591967
 30
0.0
 10
23.8668611483
 20
-6.9877746332
 30
0.0
 10
23.7690749611
 20
-7.187355858
 30
0.0
 10
23.675899294
 20
-7.2949856942
 30
0.0
 10
23.6247059702
 20
-7.3388970887
 30
0.0
  0
SPLINE
  5
61E
100
AcDbEntity
  8
0
100
AcDbSpline
 62
7
  6
CONTINUOUS
 70
0
 71
3
 72
10
 73
6
 74
0
 42
0.0000001
 43
0.0000001
 44
0.0000000001
 40
0.0
 40
0.0
 40
0.0
 40
0.0
 40
0.5053587611
 40
0.7524380154
 40
1.0
 40
1.0
 40
1.0
 40
1.0
 10
-6.7349715848
 20
12.2250111599
 30
0.0
 10
-6.8026091476
 20
12.1873212952
 30
0.0
 10
-6.9165696818
 20
12.1482989196
 30
0.0
 10
-7.0712073284
 20
12.1585429838
 30
0.0
 10
-7.1433220476
 20
12.1862793928
 30
0.0
 10
-7.1761705547
 20
12.2052457092
 30
0.0
  0
SPLINE
  5
61F
100
AcDbEntity
  8
0
100
AcDbSpline
 62
7
  6
CONTINUOUS
 70
0
 71
3
 72
15
 73
11
 74
0
 42
0.0000001
 43
0.0000001
 44
0.0000000001
 40
0.0
 40
0.0
 40
0.0
 40
0.0
 40
0.1245507158
 40
0.2615210969
 40
0.4047998614
 40
0.5474778906
 40
0.6825443547
 40
0.8044079189
 40
0.909950994
 40
1.0
 40
1.0
 40
1.0
 40
1.0
 10
6.7424588188
 20
3.2026462025
 30
0.0
 10
6.6707462442
 20
3.1592306775
 30
0.0
 10
6.5308770235
 20
3.0499606425
 30
0.0
 10
6.3492346933
 20
2.8453487945
 30
0.0
 10
6.1952309406
 20
2.6046382335
 30
0.0
 10
6.0788963284
 20
2.3450451644
 30
0.0
 10
6.0093824876
 20
2.0838373893
 30
0.0
 10
5.9913436336
 20
1.8388155771
 30
0.0
 10
6.0252517576
 20
1.6253895259
 30
0.0
 10
6.0897868683
 20
1.5059490986
 30
0.0
 10
6.1303477474
 20
1.4609129881
 30
0.0
  0
SPLINE
  5
620
100
AcDbEntity
  8
0
100
AcDbSpline
 62
7
  6
CONTINUOUS
 70
0
 71
3
 72
15
 73
11
 74
0
 42
0.0000001
 43
0.0000001
 44
0.0000000001
 40
0.0
 40
0.0
 40
0.0
 40
0.0
 40
0.1245507158
 40
0.2615210969
 40
0.4047998614
 40
0.5474778906
 40
0.6825443547
 40
0.8044079189
 40
0.909950994
 40
1.0
 40
1.0
 40
1.0
 40
1.0
 10
6.7424588188
 20
-0.8797051815
 30
0.0
 10
6.6707462442
 20
-0.9231207065
 30
0.0
 10
6.5308770235
 20
-1.0323907415
 30
0.0
 10
6.3492346933
 20
-1.2370025894
 30
0.0
 10
6.1952309406
 20
-1.4777131504
 30
0.0
 10
6.0788963284
 20
-1.7373062195
 30
0.0
 10
6.0093824876
 20
-1.9985139947
 30
0.0
 10
5.9913436336
 20
-2.2435358069
 30
0.0
 10
6.0252517576
 20
-2.4569618581
 30
0.0
 10
6.0897868683
 20
-2.5764022854
 30
0.0
 10
6.1303477474
 20
-2.6214383959
 30
0.0
  0
SPLINE
  5
621
100
AcDbEntity
  8
0
100
AcDbSpline
 62
7
  6
CONTINUOUS
 70
0
 71
3
 72
15
 73
11
 74
0
 42
0.0000001
 43
0.0000001
 44
0.0000000001
 40
0.0
 40
0.0
 40
0.0
 40
0.0
 40
0.1245507158
 40
0.2615210969
 40
0.4047998614
 40
0.5474778906
 40
0.6825443547
 40
0.8044079189
 40
0.909950994
 40
1.0
 40
1.0
 40
1.0
 40
1.0
 10
6.7424588188
 20
-4.9620565654
 30
0.0
 10
6.6707462442
 20
-5.0054720904
 30
0.0
 10
6.5308770235
 20
-5.1147421255
 30
0.0
 10
6.3492346933
 20
-5.3193539734
 30
0.0
 10
6.1952309406
 20
-5.5600645344
 30
0.0
 10
6.0788963284
 20
-5.8196576035
 30
0.0
 10
6.0093824876
 20
-6.0808653786
 30
0.0
 10
5.9913436336
 20
-6.3258871909
 30
0.0
 10
6.0252517576
 20
-6.5393132421
 30
0.0
 10
6.0897868683
 20
-6.6587536694
 30
0.0
 10
6.1303477474
 20
-6.7037897798
 30
0.0
  0
SPLINE
  5
622
100
AcDbEntity
  8
0
100
AcDbSpline
 62
7
  6
CONTINUOUS
 70
0
 71
3
 72
15
 73
11
 74
0
 42
0.0000001
 43
0.0000001
 44
0.0000000001
 40
0.0
 40
0.0
 40
0.0
 40
0.0
 40
0.1245507158
 40
0.2615210969
 40
0.4047998614
 40
0.5474778906
 40
0.6825443547
 40
0.8044079189
 40
0.909950994
 40
1.0
 40
1.0
 40
1.0
 40
1.0
 10
6.7424588188
 20
-9.0444079494
 30
0.0
 10
6.6707462442
 20
-9.0878234744
 30
0.0
 10
6.5308770235
 20
-9.1970935094
 30
0.0
 10
6.3492346933
 20
-9.4017053573
 30
0.0
 10
6.1952309406
 20
-9.6424159183
 30
0.0
 10
6.0788963284
 20
-9.9020089875
 30
0.0
 10
6.0093824876
 20
-10.1632167626
 30
0.0
 10
5.9913436336
 20
-10.4082385748
 30
0.0
 10
6.0252517576
 20
-10.621664626
 30
0.0
 10
6.0897868683
 20
-10.7411050533
 30
0.0
 10
6.1303477474
 20
-10.7861411638
 30
0.0
  0
SPLINE
  5
623
100
AcDbEntity
  8
0
100
AcDbSpline
 62
7
  6
CONTINUOUS
 70
0
 71
3
 72
15
 73
11
 74
0
 42
0.0000001
 43
0.0000001
 44
0.0000000001
 40
0.0
 40
0.0
 40
0.0
 40
0.0
 40
0.1245507158
 40
0.2615210969
 40
0.4047998614
 40
0.5474778906
 40
0.6825443547
 40
0.8044079189
 40
0.909950994
 40
1.0
 40
1.0
 40
1.0
 40
1.0
 10
6.7424588188
 20
-13.1267593334
 30
0.0
 10
6.6707462442
 20
-13.1701748584
 30
0.0
 10
6.5308770235
 20
-13.2794448934
 30
0.0
 10
6.3492346933
 20
-13.4840567413
 30
0.0
 10
6.1952309406
 20
-13.7247673023
 30
0.0
 10
6.0788963284
 20
-13.9843603714
 30
0.0
 10
6.0093824876
 20
-14.2455681466
 30
0.0
 10
5.9913436336
 20
-14.4905899588
 30
0.0
 10
6.0252517576
 20
-14.70401601
 30
0.0
 10
6.0897868683
 20
-14.8234564373
 30
0.0
 10
6.1303477474
 20
-14.8684925477
 30
0.0
  0
SPLINE
  5
624
100
AcDbEntity
  8
0
100
AcDbSpline
 62
7
  6
CONTINUOUS
 70
0
 71
3
 72
15
 73
11
 74
0
 42
0.0000001
 43
0.0000001
 44
0.0000000001
 40
0.0
 40
0.0
 40
0.0
 40
0.0
 40
0.1245507158
 40
0.2615210969
 40
0.4047998614
 40
0.5474778906
 40
0.6825443547
 40
0.8044079189
 40
0.909950994
 40
1.0
 40
1.0
 40
1.0
 40
1.0
 10
6.7424588188
 20
7.2849975865
 30
0.0
 10
6.6707462442
 20
7.2415820614
 30
0.0
 10
6.5308770235
 20
7.1323120264
 30
0.0
 10
6.3492346933
 20
6.9277001785
 30
0.0
 10
6.1952309406
 20
6.6869896175
 30
0.0
 10
6.0788963284
 20
6.4273965484
 30
0.0
 10
6.0093824876
 20
6.1661887733
 30
0.0
 10
5.9913436336
 20
5.921166961
 30
0.0
 10
6.0252517576
 20
5.7077409098
 30
0.0
 10
6.0897868683
 20
5.5883004825
 30
0.0
 10
6.1303477474
 20
5.5432643721
 30
0.0
  0
SPLINE
  5
625
100
AcDbEntity
  8
0
100
AcDbSpline
 62
7
  6
CONTINUOUS
 70
0
 71
3
 72
9
 73
5
 74
0
 42
0.0000001
 43
0.0000001
 44
0.0000000001
 40
0.0
 40
0.0
 40
0.0
 40
0.0
 40
0.2497696127
 40
1.0
 40
1.0
 40
1.0
 40
1.0
 10
-9.9717001192
 20
17.9737095279
 30
0.0
 10
-10.1816418222
 20
17.8576075884
 30
0.0
 10
-11.0222309773
 20
17.3928577944
 30
0.0
 10
-11.8629969961
 20
16.9284279184
 30
0.0
 10
-12.4938485656
 20
16.5801495467
 30
0.0
  0
SPLINE
  5
626
100
AcDbEntity
  8
0
100
AcDbSpline
 62
7
  6
CONTINUOUS
 70
0
 71
3
 72
9
 73
5
 74
0
 42
0.0000001
 43
0.0000001
 44
0.0000000001
 40
0.0
 40
0.0
 40
0.0
 40
0.0
 40
0.4761537701
 40
1.0
 40
1.0
 40
1.0
 40
1.0
 10
-4.2414544883
 20
14.9348088855
 30
0.0
 10
-4.1677891441
 20
14.892275439
 30
0.0
 10
-4.0247706602
 20
14.7823757021
 30
0.0
 10
-3.9060340635
 20
14.6475784383
 30
0.0
 10
-3.8501868782
 20
14.57248624
 30
0.0
  0
SPLINE
  5
627
100
AcDbEntity
  8
0
100
AcDbSpline
 62
7
  6
CONTINUOUS
 70
0
 71
3
 72
9
 73
5
 74
0
 42
0.0000001
 43
0.0000001
 44
0.0000000001
 40
0.0
 40
0.0
 40
0.0
 40
0.0
 40
0.4587769827
 40
1.0
 40
1.0
 40
1.0
 40
1.0
 10
-9.7999629908
 20
18.0078123992
 30
0.0
 10
-9.7387174
 20
18.0194384275
 30
0.0
 10
-9.5985498006
 20
18.0105109811
 30
0.0
 10
-9.4723837481
 20
17.9550818811
 30
0.0
 10
-9.4086953806
 20
17.9183090159
 30
0.0
  0
SPLINE
  5
628
100
AcDbEntity
  8
0
100
AcDbSpline
 62
7
  6
CONTINUOUS
 70
0
 71
3
 72
11
 73
7
 74
0
 42
0.0000001
 43
0.0000001
 44
0.0000000001
 40
0.0
 40
0.0
 40
0.0
 40
0.0
 40
0.2502112527
 40
0.5259707915
 40
0.7868461778
 40
1.0
 40
1.0
 40
1.0
 40
1.0
 10
-3.6784497497
 20
14.3400656375
 30
0.0
 10
-3.6784361478
 20
14.2683589489
 30
0.0
 10
-3.6457746112
 20
14.1176817031
 30
0.0
 10
-3.5385649013
 20
13.9166002301
 30
0.0
 10
-3.3906945012
 20
13.7577768951
 30
0.0
 10
-3.264858938
 20
13.6922829339
 30
0.0
 10
-3.2045331908
 20
13.6826716349
 30
0.0
  0
SPLINE
  5
629
100
AcDbEntity
  8
0
100
AcDbSpline
 62
7
  6
CONTINUOUS
 70
0
 71
3
 72
9
 73
5
 74
0
 42
0.0000001
 43
0.0000001
 44
0.0000000001
 40
0.0
 40
0.0
 40
0.0
 40
0.0
 40
0.2612132108
 40
1.0
 40
1.0
 40
1.0
 40
1.0
 10
-10.4456166782
 20
17.8635824885
 30
0.0
 10
-10.4367052798
 20
17.8547116227
 30
0.0
 10
-10.4016914213
 20
17.8216864759
 30
0.0
 10
-10.3630492716
 20
17.7923492875
 30
0.0
 10
-10.3325762499
 20
17.7740158528
 30
0.0
  0
SPLINE
  5
62A
100
AcDbEntity
  8
0
100
AcDbSpline
 62
7
  6
CONTINUOUS
 70
0
 71
3
 72
9
 73
5
 74
0
 42
0.0000001
 43
0.0000001
 44
0.0000000001
 40
0.0
 40
0.0
 40
0.0
 40
0.0
 40
0.2312438682
 40
1.0
 40
1.0
 40
1.0
 40
1.0
 10
-6.8858468427
 20
13.252457309
 30
0.0
 10
-6.878816507
 20
13.2483980813
 30
0.0
 10
-6.8495580229
 20
13.2288771909
 30
0.0
 10
-6.8248666759
 20
13.2029852852
 30
0.0
 10
-6.8086391166
 20
13.1814209914
 30
0.0
  0
SPLINE
  5
62B
100
AcDbEntity
  8
0
100
AcDbSpline
 62
7
  6
CONTINUOUS
 70
0
 71
3
 72
9
 73
5
 74
0
 42
0.0000001
 43
0.0000001
 44
0.0000000001
 40
0.0
 40
0.0
 40
0.0
 40
0.0
 40
0.2225686399
 40
1.0
 40
1.0
 40
1.0
 40
1.0
 10
-12.4983650019
 20
16.4665974086
 30
0.0
 10
-12.4924982213
 20
16.4676187778
 30
0.0
 10
-12.4655552051
 20
16.4690376375
 30
0.0
 10
-12.4391710712
 20
16.458877119
 30
0.0
 10
-12.4211572758
 20
16.4484761793
 30
0.0
  0
SPLINE
  5
62C
100
AcDbEntity
  8
0
100
AcDbSpline
 62
7
  6
CONTINUOUS
 70
0
 71
3
 72
9
 73
5
 74
0
 42
0.0000001
 43
0.0000001
 44
0.0000000001
 40
0.0
 40
0.0
 40
0.0
 40
0.0
 40
0.2340532609
 40
1.0
 40
1.0
 40
1.0
 40
1.0
 10
20.1156934287
 20
9.8303147894
 30
0.0
 10
20.1392029222
 20
9.8167407025
 30
0.0
 10
20.2368110026
 20
9.7538632046
 30
0.0
 10
20.3232151325
 20
9.6744386064
 30
0.0
 10
20.3826459219
 20
9.6084057076
 30
0.0
  0
SPLINE
  5
62D
100
AcDbEntity
  8
0
100
AcDbSpline
 62
250
  6
CONTINUOUS
 70
0
 71
3
 72
9
 73
5
 74
0
 42
0.0000001
 43
0.0000001
 44
0.0000000001
 40
0.0
 40
0.0
 40
0.0
 40
0.0
 40
0.2859742316
 40
1.0
 40
1.0
 40
1.0
 40
1.0
 10
-13.0045334647
 20
16.1177698023
 30
0.0
 10
-13.0108555249
 20
16.1217025916
 30
0.0
 10
-13.0337428122
 20
16.1338488819
 30
0.0
 10
-13.0609482041
 20
16.1401751486
 30
0.0
 10
-13.0793158909
 20
16.1373085649
 30
0.0
  0
SPLINE
  5
62E
100
AcDbEntity
  8
0
100
AcDbSpline
 62
250
  6
CONTINUOUS
 70
0
 71
3
 72
11
 73
7
 74
0
 42
0.0000001
 43
0.0000001
 44
0.0000000001
 40
0.0
 40
0.0
 40
0.0
 40
0.0
 40
0.2255458045
 40
0.47146695
 40
0.7337185979
 40
1.0
 40
1.0
 40
1.0
 40
1.0
 10
-13.0793158909
 20
16.1373085649
 30
0.0
 10
-13.0983702713
 20
16.1263068045
 30
0.0
 10
-13.1327218364
 20
16.0931283254
 30
0.0
 10
-13.1611427955
 20
16.0257961184
 30
0.0
 10
-13.1662796803
 20
15.9491894746
 30
0.0
 10
-13.1536652355
 20
15.8981698339
 30
0.0
 10
-13.1434866779
 20
15.8742707736
 30
0.0
  0
SPLINE
  5
62F
100
AcDbEntity
  8
0
100
AcDbSpline
 62
250
  6
CONTINUOUS
 70
0
 71
3
 72
10
 73
6
 74
0
 42
0.0000001
 43
0.0000001
 44
0.0000000001
 40
0.0
 40
0.0
 40
0.0
 40
0.0
 40
0.2375818187
 40
0.5008058728
 40
1.0
 40
1.0
 40
1.0
 40
1.0
 10
-13.1434866779
 20
15.8742707736
 30
0.0
 10
-13.1434866779
 20
15.8971746399
 30
0.0
 10
-13.1349563811
 20
15.945580846
 30
0.0
 10
-13.096334502
 20
16.0339760698
 30
0.0
 10
-13.0458444994
 20
16.0930847161
 30
0.0
 10
-13.0045334647
 20
16.1177698023
 30
0.0
  0
SPLINE
  5
630
100
AcDbEntity
  8
0
100
AcDbSpline
 62
250
  6
CONTINUOUS
 70
0
 71
3
 72
10
 73
6
 74
0
 42
0.0000001
 43
0.0000001
 44
0.0000000001
 40
0.0
 40
0.0
 40
0.0
 40
0.0
 40
0.4991433275
 40
0.7623785973
 40
1.0
 40
1.0
 40
1.0
 40
1.0
 10
-7.4387777897
 20
12.9041722309
 30
0.0
 10
-7.480084651
 20
12.8794896385
 30
0.0
 10
-7.5305734318
 20
12.8203860325
 30
0.0
 10
-7.5691979884
 20
12.7319919395
 30
0.0
 10
-7.5777310029
 20
12.6835809015
 30
0.0
 10
-7.5777310029
 20
12.6606732021
 30
0.0
  0
SPLINE
  5
631
100
AcDbEntity
  8
0
100
AcDbSpline
 62
250
  6
CONTINUOUS
 70
0
 71
3
 72
10
 73
6
 74
0
 42
0.0000001
 43
0.0000001
 44
0.0000000001
 40
0.0
 40
0.0
 40
0.0
 40
0.0
 40
0.2064955234
 40
0.4680534598
 40
1.0
 40
1.0
 40
1.0
 40
1.0
 10
-7.5777310029
 20
12.6606732021
 30
0.0
 10
-7.5653426373
 20
12.6754550758
 30
0.0
 10
-7.5341617032
 20
12.7063058317
 30
0.0
 10
-7.4628580143
 20
12.7665859316
 30
0.0
 10
-7.4020857824
 20
12.8096608923
 30
0.0
 10
-7.3590590774
 20
12.8345039725
 30
0.0
  0
SPLINE
  5
632
100
AcDbEntity
  8
0
100
AcDbSpline
 62
250
  6
CONTINUOUS
 70
0
 71
3
 72
9
 73
5
 74
0
 42
0.0000001
 43
0.0000001
 44
0.0000000001
 40
0.0
 40
0.0
 40
0.0
 40
0.0
 40
0.2659142495
 40
1.0
 40
1.0
 40
1.0
 40
1.0
 10
-7.3590590774
 20
12.8345039725
 30
0.0
 10
-7.3649123006
 20
12.8418806538
 30
0.0
 10
-7.3880729839
 20
12.8686370472
 30
0.0
 10
-7.4159685789
 20
12.8917008824
 30
0.0
 10
-7.4387777897
 20
12.9041722309
 30
0.0
  0
SPLINE
  5
633
100
AcDbEntity
  8
0
100
AcDbSpline
 62
250
  6
CONTINUOUS
 70
0
 71
3
 72
9
 73
5
 74
0
 42
0.0000001
 43
0.0000001
 44
0.0000000001
 40
0.0
 40
0.0
 40
0.0
 40
0.0
 40
0.2090720645
 40
1.0
 40
1.0
 40
1.0
 40
1.0
 10
-7.3907603594
 20
12.410170698
 30
0.0
 10
-7.3870758976
 20
12.4144072966
 30
0.0
 10
-7.3688176629
 20
12.4341162009
 30
0.0
 10
-7.3489041723
 20
12.4522236523
 30
0.0
 10
-7.3327897618
 20
12.4660612247
 30
0.0
  0
SPLINE
  5
634
100
AcDbEntity
  8
0
100
AcDbSpline
 62
250
  6
CONTINUOUS
 70
0
 71
3
 72
9
 73
5
 74
0
 42
0.0000001
 43
0.0000001
 44
0.0000000001
 40
0.0
 40
0.0
 40
0.0
 40
0.0
 40
0.2522911306
 40
1.0
 40
1.0
 40
1.0
 40
1.0
 10
-7.313934107
 20
12.4818594847
 30
0.0
 10
-7.3039998299
 20
12.4899894784
 30
0.0
 10
-7.2640600594
 20
12.5215122302
 30
0.0
 10
-7.2222904447
 20
12.550772886
 30
0.0
 10
-7.1899086478
 20
12.5707428924
 30
0.0
  0
SPLINE
  5
635
100
AcDbEntity
  8
0
100
AcDbSpline
 62
250
  6
CONTINUOUS
 70
0
 71
3
 72
9
 73
5
 74
0
 42
0.0000001
 43
0.0000001
 44
0.0000000001
 40
0.0
 40
0.0
 40
0.0
 40
0.0
 40
0.4759525584
 40
1.0
 40
1.0
 40
1.0
 40
1.0
 10
-7.107917647
 20
12.410170698
 30
0.0
 10
-7.107917647
 20
12.4395662021
 30
0.0
 10
-7.1215903383
 20
12.5012639823
 30
0.0
 10
-7.1514716106
 20
12.5561963415
 30
0.0
 10
-7.1707433214
 20
12.5821992921
 30
0.0
  0
SPLINE
  5
636
100
AcDbEntity
  8
0
100
AcDbSpline
 62
7
  6
CONTINUOUS
 70
0
 71
3
 72
9
 73
5
 74
0
 42
0.0000001
 43
0.0000001
 44
0.0000000001
 40
0.0
 40
0.0
 40
0.0
 40
0.0
 40
0.5240226753
 40
1.0
 40
1.0
 40
1.0
 40
1.0
 10
-6.6050578965
 20
12.9088189667
 30
0.0
 10
-6.5857870901
 20
12.8828172365
 30
0.0
 10
-6.5559051266
 20
12.8278853468
 30
0.0
 10
-6.542232222
 20
12.7661874161
 30
0.0
 10
-6.542232222
 20
12.7367903727
 30
0.0
  0
SPLINE
  5
637
100
AcDbEntity
  8
0
100
AcDbSpline
 62
250
  6
CONTINUOUS
 70
0
 71
3
 72
8
 73
4
 74
0
 42
0.0000001
 43
0.0000001
 44
0.0000000001
 40
0.0
 40
0.0
 40
0.0
 40
0.0
 40
1.0
 40
1.0
 40
1.0
 40
1.0
 10
-13.3304573214
 20
15.839677282
 30
0.0
 10
-13.3440753318
 20
15.8710617629
 30
0.0
 10
-13.3511544851
 20
15.9060627528
 30
0.0
 10
-13.3508161498
 20
15.940272713
 30
0.0
  0
SPLINE
  5
638
100
AcDbEntity
  8
0
100
AcDbSpline
 62
250
  6
CONTINUOUS
 70
0
 71
3
 72
9
 73
5
 74
0
 42
0.0000001
 43
0.0000001
 44
0.0000000001
 40
0.0
 40
0.0
 40
0.0
 40
0.0
 40
0.2648047832
 40
1.0
 40
1.0
 40
1.0
 40
1.0
 10
-13.3447825233
 20
15.9909537753
 30
0.0
 10
-13.3424170583
 20
16.0009994487
 30
0.0
 10
-13.3309058189
 20
16.0382113735
 30
0.0
 10
-13.3076527362
 20
16.0723237386
 30
0.0
 10
-13.2853381395
 20
16.0902978328
 30
0.0
  0
SPLINE
  5
639
100
AcDbEntity
  8
0
100
AcDbSpline
 62
250
  6
CONTINUOUS
 70
0
 71
3
 72
9
 73
5
 74
0
 42
0.0000001
 43
0.0000001
 44
0.0000000001
 40
0.0
 40
0.0
 40
0.0
 40
0.0
 40
0.547483402
 40
1.0
 40
1.0
 40
1.0
 40
1.0
 10
-13.3304573214
 20
15.839677282
 30
0.0
 10
-13.3454818338
 20
15.8483522471
 30
0.0
 10
-13.3713444126
 20
15.8678922875
 30
0.0
 10
-13.3863816109
 20
15.8978121304
 30
0.0
 10
-13.3883801143
 20
15.9120118913
 30
0.0
  0
SPLINE
  5
63A
100
AcDbEntity
  8
0
100
AcDbSpline
 62
250
  6
CONTINUOUS
 70
0
 71
3
 72
9
 73
5
 74
0
 42
0.0000001
 43
0.0000001
 44
0.0000000001
 40
0.0
 40
0.0
 40
0.0
 40
0.0
 40
0.4920648148
 40
1.0
 40
1.0
 40
1.0
 40
1.0
 10
-7.107917647
 20
12.410170698
 30
0.0
 10
-7.1462034756
 20
12.3880649404
 30
0.0
 10
-7.2375856417
 20
12.3681784845
 30
0.0
 10
-7.3293431409
 20
12.3817616661
 30
0.0
 10
-7.3710786354
 20
12.4002203831
 30
0.0
  0
SPLINE
  5
63B
100
AcDbEntity
  8
0
100
AcDbSpline
 62
250
  6
CONTINUOUS
 70
0
 71
3
 72
8
 73
4
 74
0
 42
0.0000001
 43
0.0000001
 44
0.0000000001
 40
0.0
 40
0.0
 40
0.0
 40
0.0
 40
1.0
 40
1.0
 40
1.0
 40
1.0
 10
-7.3710786354
 20
12.4002203831
 30
0.0
 10
-7.3778017626
 20
12.4031938785
 30
0.0
 10
-7.3843940198
 20
12.4064948533
 30
0.0
 10
-7.3907603594
 20
12.410170698
 30
0.0
  0
SPLINE
  5
63C
100
AcDbEntity
  8
0
100
AcDbSpline
 62
250
  6
CONTINUOUS
 70
0
 71
3
 72
9
 73
5
 74
0
 42
0.0000001
 43
0.0000001
 44
0.0000000001
 40
0.0
 40
0.0
 40
0.0
 40
0.0
 40
0.4921339907
 40
1.0
 40
1.0
 40
1.0
 40
1.0
 10
-7.107917647
 20
12.400260624
 30
0.0
 10
-7.1462295244
 20
12.3781398262
 30
0.0
 10
-7.2376673559
 20
12.3582584693
 30
0.0
 10
-7.3294760343
 20
12.371876621
 30
0.0
 10
-7.3712159454
 20
12.3903708452
 30
0.0
  0
SPLINE
  5
63D
100
AcDbEntity
  8
0
100
AcDbSpline
 62
250
  6
CONTINUOUS
 70
0
 71
3
 72
8
 73
4
 74
0
 42
0.0000001
 43
0.0000001
 44
0.0000000001
 40
0.0
 40
0.0
 40
0.0
 40
0.0
 40
1.0
 40
1.0
 40
1.0
 40
1.0
 10
-7.3712159454
 20
12.3903708452
 30
0.0
 10
-7.3778914041
 20
12.3933286242
 30
0.0
 10
-7.3844372775
 20
12.3966097557
 30
0.0
 10
-7.3907603594
 20
12.400260624
 30
0.0
  0
SPLINE
  5
63E
100
AcDbEntity
  8
0
100
AcDbSpline
 62
250
  6
CONTINUOUS
 70
0
 71
3
 72
11
 73
7
 74
0
 42
0.0000001
 43
0.0000001
 44
0.0000000001
 40
0.0
 40
0.0
 40
0.0
 40
0.0
 40
0.2725808074
 40
0.5327550575
 40
0.7738100748
 40
1.0
 40
1.0
 40
1.0
 40
1.0
 10
-7.107917647
 20
12.400260624
 30
0.0
 10
-7.1209636369
 20
12.3779249502
 30
0.0
 10
-7.1535974968
 20
12.3379771298
 30
0.0
 10
-7.2172351581
 20
12.2984947472
 30
0.0
 10
-7.2870640935
 20
12.2858522062
 30
0.0
 10
-7.331619505
 20
12.2984881422
 30
0.0
 10
-7.3502078491
 20
12.3092208191
 30
0.0
  0
SPLINE
  5
63F
100
AcDbEntity
  8
0
100
AcDbSpline
 62
250
  6
CONTINUOUS
 70
0
 71
3
 72
11
 73
7
 74
0
 42
0.0000001
 43
0.0000001
 44
0.0000000001
 40
0.0
 40
0.0
 40
0.0
 40
0.0
 40
0.2725786362
 40
0.5327506902
 40
0.7738042734
 40
1.0
 40
1.0
 40
1.0
 40
1.0
 10
-6.936904401
 20
12.2980619996
 30
0.0
 10
-6.9499502852
 20
12.2757265068
 30
0.0
 10
-6.9825837779
 20
12.2357789719
 30
0.0
 10
-7.0462207905
 20
12.1962966245
 30
0.0
 10
-7.116049747
 20
12.1836536131
 30
0.0
 10
-7.1606057849
 20
12.196289244
 30
0.0
 10
-7.1791946031
 20
12.2070221946
 30
0.0
  0
SPLINE
  5
640
100
AcDbEntity
  8
0
100
AcDbSpline
 62
250
  6
CONTINUOUS
 70
0
 71
3
 72
9
 73
5
 74
0
 42
0.0000001
 43
0.0000001
 44
0.0000000001
 40
0.0
 40
0.0
 40
0.0
 40
0.0
 40
0.5495176163
 40
1.0
 40
1.0
 40
1.0
 40
1.0
 10
-6.6909026438
 20
12.3180631593
 30
0.0
 10
-6.6911952324
 20
12.2985393057
 30
0.0
 10
-6.6965902496
 20
12.2622445781
 30
0.0
 10
-6.7209879761
 20
12.2328011146
 30
0.0
 10
-6.7349716165
 20
12.2250112169
 30
0.0
  0
SPLINE
  5
641
100
AcDbEntity
  8
0
100
AcDbSpline
 62
250
  6
CONTINUOUS
 70
0
 71
3
 72
9
 73
5
 74
0
 42
0.0000001
 43
0.0000001
 44
0.0000000001
 40
0.0
 40
0.0
 40
0.0
 40
0.0
 40
0.4495174578
 40
1.0
 40
1.0
 40
1.0
 40
1.0
 10
-13.289904811
 20
15.738727403
 30
0.0
 10
-13.3031617907
 20
15.74664986
 30
0.0
 10
-13.3258960834
 20
15.77572872
 30
0.0
 10
-13.3304573214
 20
15.8108545371
 30
0.0
 10
-13.3304573214
 20
15.829767208
 30
0.0
  0
SPLINE
  5
642
100
AcDbEntity
  8
0
100
AcDbSpline
 62
250
  6
CONTINUOUS
 70
0
 71
3
 72
9
 73
5
 74
0
 42
0.0000001
 43
0.0000001
 44
0.0000000001
 40
0.0
 40
0.0
 40
0.0
 40
0.0
 40
0.5504825441
 40
1.0
 40
1.0
 40
1.0
 40
1.0
 10
-7.3907603594
 20
12.400260624
 30
0.0
 10
-7.3907603594
 20
12.3813479531
 30
0.0
 10
-7.3861991215
 20
12.3462221359
 30
0.0
 10
-7.3634648286
 20
12.3171432761
 30
0.0
 10
-7.3502078491
 20
12.3092208191
 30
0.0
  0
SPLINE
  5
643
100
AcDbEntity
  8
0
100
AcDbSpline
 62
250
  6
CONTINUOUS
 70
0
 71
3
 72
8
 73
4
 74
0
 42
0.0000001
 43
0.0000001
 44
0.0000000001
 40
0.0
 40
0.0
 40
0.0
 40
0.0
 40
1.0
 40
1.0
 40
1.0
 40
1.0
 10
23.9370134482
 20
-6.4957497129
 30
0.0
 10
15.3684487512
 20
-11.6808427761
 30
0.0
 10
6.7996877352
 20
-16.8656114271
 30
0.0
 10
-1.769261449
 20
-22.0500690572
 30
0.0
  0
SPLINE
  5
644
100
AcDbEntity
  8
0
100
AcDbSpline
 62
250
  6
CONTINUOUS
 70
0
 71
3
 72
8
 73
4
 74
0
 42
0.0000001
 43
0.0000001
 44
0.0000000001
 40
0.0
 40
0.0
 40
0.0
 40
0.0
 40
1.0
 40
1.0
 40
1.0
 40
1.0
 10
22.334804226
 20
-8.1193505983
 30
0.0
 10
14.3002923886
 20
-12.9806007072
 30
0.0
 10
6.265601306
 20
-17.8415545768
 30
0.0
 10
-1.7692613217
 20
-22.702224864
 30
0.0
  0
LINE
  5
645
100
AcDbEntity
  8
0
100
AcDbLine
 62
250
  6
CONTINUOUS
 10
-12.4983650019
 20
16.4665974086
 11
-12.8770243807
 21
16.2519734285
  0
LINE
  5
646
100
AcDbEntity
  8
0
100
AcDbLine
 62
250
  6
CONTINUOUS
 10
-7.3590590848
 20
12.8345039822
 11
-6.8318506984
 21
13.1667905165
  0
LINE
  5
647
100
AcDbEntity
  8
0
100
AcDbLine
 62
250
  6
CONTINUOUS
 10
-7.4387778002
 20
12.9041722369
 11
-6.8858468427
 21
13.252457309
  0
SPLINE
  5
648
100
AcDbEntity
  8
0
100
AcDbSpline
 62
7
  6
CONTINUOUS
 70
0
 71
3
 72
13
 73
9
 74
0
 42
0.0000001
 43
0.0000001
 44
0.0000000001
 40
0.0
 40
0.0
 40
0.0
 40
0.0
 40
0.1157334461
 40
0.2465313688
 40
0.529232194
 40
0.6679144848
 40
0.7953568553
 40
1.0
 40
1.0
 40
1.0
 40
1.0
 10
-6.5023325336
 20
12.7696758083
 30
0.0
 10
-6.5079966406
 20
12.7325495579
 30
0.0
 10
-6.508040183
 20
12.6515379129
 30
0.0
 10
-6.4720991475
 20
12.4828695212
 30
0.0
 10
-6.3896229345
 20
12.3195534988
 30
0.0
 10
-6.2735412836
 20
12.1830913601
 30
0.0
 10
-6.1562017396
 20
12.0863296312
 30
0.0
 10
-6.0475757712
 20
12.0425919137
 30
0.0
 10
-5.9813109931
 20
12.0469400661
 30
0.0
  0
SPLINE
  5
649
100
AcDbEntity
  8
0
100
AcDbSpline
 62
250
  6
CONTINUOUS
 70
0
 71
3
 72
8
 73
4
 74
0
 42
0.0000001
 43
0.0000001
 44
0.0000000001
 40
0.0
 40
0.0
 40
0.0
 40
0.0
 40
1.0
 40
1.0
 40
1.0
 40
1.0
 10
-6.936904401
 20
12.2980619996
 30
0.0
 10
-6.9225141616
 20
12.2894622992
 30
0.0
 10
-6.906634238
 20
12.2830425888
 30
0.0
 10
-6.8903652276
 20
12.278998688
 30
0.0
  0
SPLINE
  5
64A
100
AcDbEntity
  8
0
100
AcDbSpline
 62
250
  6
CONTINUOUS
 70
0
 71
3
 72
9
 73
5
 74
0
 42
0.0000001
 43
0.0000001
 44
0.0000000001
 40
0.0
 40
0.0
 40
0.0
 40
0.0
 40
0.2269779097
 40
1.0
 40
1.0
 40
1.0
 40
1.0
 10
-6.8903652276
 20
12.278998688
 30
0.0
 10
-6.8777195346
 20
12.2758554158
 30
0.0
 10
-6.8204239324
 20
12.2680657343
 30
0.0
 10
-6.7620842839
 20
12.2840645317
 30
0.0
 10
-6.7217008128
 20
12.3024654757
 30
0.0
  0
SPLINE
  5
64B
100
AcDbEntity
  8
0
100
AcDbSpline
 62
250
  6
CONTINUOUS
 70
0
 71
3
 72
8
 73
4
 74
0
 42
0.0000001
 43
0.0000001
 44
0.0000000001
 40
0.0
 40
0.0
 40
0.0
 40
0.0
 40
1.0
 40
1.0
 40
1.0
 40
1.0
 10
-13.2887203439
 20
16.0947006473
 30
0.0
 10
-13.2822119043
 20
16.0984094784
 30
0.0
 10
-13.2749848519
 20
16.1010359573
 30
0.0
 10
-13.267631647
 20
16.1024661993
 30
0.0
  0
SPLINE
  5
64C
100
AcDbEntity
  8
0
100
AcDbSpline
 62
7
  6
CONTINUOUS
 70
0
 71
3
 72
8
 73
4
 74
0
 42
0.0000001
 43
0.0000001
 44
0.0000000001
 40
0.0
 40
0.0
 40
0.0
 40
0.0
 40
1.0
 40
1.0
 40
1.0
 40
1.0
 10
-12.7231516857
 20
16.4212537886
 30
0.0
 10
-12.7166122809
 20
16.4249975081
 30
0.0
 10
-12.7093428058
 20
16.4276471945
 30
0.0
 10
-12.701946222
 20
16.4290858739
 30
0.0
  0
SPLINE
  5
64D
100
AcDbEntity
  8
0
100
AcDbSpline
 62
250
  6
CONTINUOUS
 70
0
 71
3
 72
9
 73
5
 74
0
 42
0.0000001
 43
0.0000001
 44
0.0000000001
 40
0.0
 40
0.0
 40
0.0
 40
0.0
 40
0.4715914544
 40
1.0
 40
1.0
 40
1.0
 40
1.0
 10
-13.3890359657
 20
15.9114221266
 30
0.0
 10
-13.389035921
 20
15.9011985039
 30
0.0
 10
-13.3837209454
 20
15.8793373995
 30
0.0
 10
-13.3702618286
 20
15.861705704
 30
0.0
 10
-13.3621491115
 20
15.8536181159
 30
0.0
  0
SPLINE
  5
64E
100
AcDbEntity
  8
0
100
AcDbSpline
 62
250
  6
CONTINUOUS
 70
0
 71
3
 72
9
 73
5
 74
0
 42
0.0000001
 43
0.0000001
 44
0.0000000001
 40
0.0
 40
0.0
 40
0.0
 40
0.0
 40
0.237507101
 40
1.0
 40
1.0
 40
1.0
 40
1.0
 10
-13.3621491115
 20
15.8536181159
 30
0.0
 10
-13.3599216293
 20
15.8513975334
 30
0.0
 10
-13.3501878893
 20
15.8424057375
 30
0.0
 10
-13.3392019116
 20
15.8348162248
 30
0.0
 10
-13.3304573214
 20
15.829767208
 30
0.0
  0
SPLINE
  5
64F
100
AcDbEntity
  8
0
100
AcDbSpline
 62
7
  6
CONTINUOUS
 70
0
 71
3
 72
11
 73
7
 74
0
 42
0.0000001
 43
0.0000001
 44
0.0000000001
 40
0.0
 40
0.0
 40
0.0
 40
0.0
 40
0.2223977611
 40
0.4498728223
 40
0.705397512
 40
1.0
 40
1.0
 40
1.0
 40
1.0
 10
6.1303477474
 20
-14.8684925477
 30
0.0
 10
6.1632616131
 20
-14.9050379216
 30
0.0
 10
6.2457524565
 20
-14.9667501094
 30
0.0
 10
6.4027644001
 20
-14.9990963501
 30
0.0
 10
6.5751863823
 20
-14.9698226028
 30
0.0
 10
6.6863568914
 20
-14.9174598209
 30
0.0
 10
6.7424588188
 20
-14.8843375663
 30
0.0
  0
SPLINE
  5
650
100
AcDbEntity
  8
0
100
AcDbSpline
 62
7
  6
CONTINUOUS
 70
0
 71
3
 72
11
 73
7
 74
0
 42
0.0000001
 43
0.0000001
 44
0.0000000001
 40
0.0
 40
0.0
 40
0.0
 40
0.0
 40
0.2223977611
 40
0.4498728223
 40
0.705397512
 40
1.0
 40
1.0
 40
1.0
 40
1.0
 10
6.1303477474
 20
-10.7861411638
 30
0.0
 10
6.1632616131
 20
-10.8226865376
 30
0.0
 10
6.2457524565
 20
-10.8843987255
 30
0.0
 10
6.4027644001
 20
-10.9167449661
 30
0.0
 10
6.5751863823
 20
-10.8874712189
 30
0.0
 10
6.6863568914
 20
-10.8351084369
 30
0.0
 10
6.7424588188
 20
-10.8019861823
 30
0.0
  0
SPLINE
  5
651
100
AcDbEntity
  8
0
100
AcDbSpline
 62
7
  6
CONTINUOUS
 70
0
 71
3
 72
11
 73
7
 74
0
 42
0.0000001
 43
0.0000001
 44
0.0000000001
 40
0.0
 40
0.0
 40
0.0
 40
0.0
 40
0.2223977611
 40
0.4498728223
 40
0.705397512
 40
1.0
 40
1.0
 40
1.0
 40
1.0
 10
6.1303477474
 20
-6.7037897798
 30
0.0
 10
6.1632616131
 20
-6.7403351537
 30
0.0
 10
6.2457524565
 20
-6.8020473415
 30
0.0
 10
6.4027644001
 20
-6.8343935822
 30
0.0
 10
6.5751863823
 20
-6.8051198349
 30
0.0
 10
6.6863568914
 20
-6.752757053
 30
0.0
 10
6.7424588188
 20
-6.7196347983
 30
0.0
  0
SPLINE
  5
652
100
AcDbEntity
  8
0
100
AcDbSpline
 62
7
  6
CONTINUOUS
 70
0
 71
3
 72
8
 73
4
 74
0
 42
0.0000001
 43
0.0000001
 44
0.0000000001
 40
0.0
 40
0.0
 40
0.0
 40
0.0
 40
1.0
 40
1.0
 40
1.0
 40
1.0
 10
21.9930823075
 20
23.6664810976
 30
0.0
 10
15.520523384
 20
20.0075876825
 30
0.0
 10
9.0478439123
 20
16.3489075106
 30
0.0
 10
2.5750624406
 20
12.6904078097
 30
0.0
  0
SPLINE
  5
653
100
AcDbEntity
  8
0
100
AcDbSpline
 62
7
  6
CONTINUOUS
 70
0
 71
3
 72
11
 73
7
 74
0
 42
0.0000001
 43
0.0000001
 44
0.0000000001
 40
0.0
 40
0.0
 40
0.0
 40
0.0
 40
0.2223977611
 40
0.4498728223
 40
0.705397512
 40
1.0
 40
1.0
 40
1.0
 40
1.0
 10
6.1303477474
 20
-2.6214383959
 30
0.0
 10
6.1632616131
 20
-2.6579837697
 30
0.0
 10
6.2457524565
 20
-2.7196959575
 30
0.0
 10
6.4027644001
 20
-2.7520421982
 30
0.0
 10
6.5751863823
 20
-2.7227684509
 30
0.0
 10
6.6863568914
 20
-2.670405669
 30
0.0
 10
6.7424588188
 20
-2.6372834144
 30
0.0
  0
SPLINE
  5
654
100
AcDbEntity
  8
0
100
AcDbSpline
 62
7
  6
CONTINUOUS
 70
0
 71
3
 72
8
 73
4
 74
0
 42
0.0000001
 43
0.0000001
 44
0.0000000001
 40
0.0
 40
0.0
 40
0.0
 40
0.0
 40
1.0
 40
1.0
 40
1.0
 40
1.0
 10
10.9566587685
 20
29.9608568235
 30
0.0
 10
4.3762793732
 20
26.3463442711
 30
0.0
 10
-2.2039910006
 20
22.7316332332
 30
0.0
 10
-8.784151606
 20
19.1167223928
 30
0.0
  0
SPLINE
  5
655
100
AcDbEntity
  8
0
100
AcDbSpline
 62
7
  6
CONTINUOUS
 70
0
 71
3
 72
9
 73
5
 74
0
 42
0.0000001
 43
0.0000001
 44
0.0000000001
 40
0.0
 40
0.0
 40
0.0
 40
0.0
 40
0.2502052921
 40
1.0
 40
1.0
 40
1.0
 40
1.0
 10
-10.4456166782
 20
17.8635824885
 30
0.0
 10
-10.6425084105
 20
17.7559263435
 30
0.0
 10
-11.4293944095
 20
17.3255915618
 30
0.0
 10
-12.2161517396
 20
16.8950215191
 30
0.0
 10
-12.8059977989
 20
16.5720720508
 30
0.0
  0
SPLINE
  5
656
100
AcDbEntity
  8
0
100
AcDbSpline
 62
250
  6
CONTINUOUS
 70
0
 71
3
 72
8
 73
4
 74
0
 42
0.0000001
 43
0.0000001
 44
0.0000000001
 40
0.0
 40
0.0
 40
0.0
 40
0.0
 40
1.0
 40
1.0
 40
1.0
 40
1.0
 10
23.6247059681
 20
20.6615268997
 30
0.0
 10
15.7262612311
 20
15.989750129
 30
0.0
 10
7.8279291375
 20
11.3177829103
 30
0.0
 10
-0.0702935862
 20
6.6456308081
 30
0.0
  0
SPLINE
  5
657
100
AcDbEntity
  8
0
100
AcDbSpline
 62
250
  6
CONTINUOUS
 70
0
 71
3
 72
8
 73
4
 74
0
 42
0.0000001
 43
0.0000001
 44
0.0000000001
 40
0.0
 40
0.0
 40
0.0
 40
0.0
 40
1.0
 40
1.0
 40
1.0
 40
1.0
 10
23.9370134482
 20
19.4577346726
 30
0.0
 10
15.3680637379
 20
14.3962725245
 30
0.0
 10
6.7993081184
 20
9.3344817718
 30
0.0
 10
-1.769261449
 20
4.272376105
 30
0.0
  0
LINE
  5
658
100
AcDbEntity
  8
0
100
AcDbLine
 62
250
  6
CONTINUOUS
 10
-7.0549854165
 20
13.3501158017
 11
-5.3802287039
 21
14.2934028357
  0
LINE
  5
659
100
AcDbEntity
  8
0
100
AcDbLine
 62
250
  6
CONTINUOUS
 10
-5.3802287039
 20
14.2934028357
 11
-4.2414544883
 21
14.9348088855
  0
SPLINE
  5
65A
100
AcDbEntity
  8
0
100
AcDbSpline
 62
7
  6
CONTINUOUS
 70
0
 71
3
 72
11
 73
7
 74
0
 42
0.0000001
 43
0.0000001
 44
0.0000000001
 40
0.0
 40
0.0
 40
0.0
 40
0.0
 40
0.2223977611
 40
0.4498728223
 40
0.705397512
 40
1.0
 40
1.0
 40
1.0
 40
1.0
 10
6.1303477474
 20
1.4609129881
 30
0.0
 10
6.1632616131
 20
1.4243676143
 30
0.0
 10
6.2457524565
 20
1.3626554264
 30
0.0
 10
6.4027644001
 20
1.3303091857
 30
0.0
 10
6.5751863823
 20
1.359582933
 30
0.0
 10
6.6863568914
 20
1.411945715
 30
0.0
 10
6.7424588188
 20
1.4450679696
 30
0.0
  0
LINE
  5
65B
100
AcDbEntity
  8
0
100
AcDbLine
 62
250
  6
CONTINUOUS
 10
-6.6641779697
 20
12.9884115933
 11
-4.7885720499
 21
14.0442406014
  0
LINE
  5
65C
100
AcDbEntity
  8
0
100
AcDbLine
 62
250
  6
CONTINUOUS
 10
-10.1160128833
 20
17.8335603913
 11
-12.4694217786
 21
16.5360147938
  0
SPLINE
  5
65D
100
AcDbEntity
  8
0
100
AcDbSpline
 62
7
  6
CONTINUOUS
 70
0
 71
3
 72
11
 73
7
 74
0
 42
0.0000001
 43
0.0000001
 44
0.0000000001
 40
0.0
 40
0.0
 40
0.0
 40
0.0
 40
0.2223977611
 40
0.4498728223
 40
0.705397512
 40
1.0
 40
1.0
 40
1.0
 40
1.0
 10
6.1303477474
 20
5.5432643721
 30
0.0
 10
6.1632616131
 20
5.5067189982
 30
0.0
 10
6.2457524565
 20
5.4450068104
 30
0.0
 10
6.4027644001
 20
5.4126605697
 30
0.0
 10
6.5751863823
 20
5.441934317
 30
0.0
 10
6.6863568914
 20
5.4942970989
 30
0.0
 10
6.7424588188
 20
5.5274193536
 30
0.0
  0
LINE
  5
65E
100
AcDbEntity
  8
0
100
AcDbLine
 62
250
  6
CONTINUOUS
 10
-9.4086953806
 20
17.9183090159
 11
-12.2520187019
 21
16.3508176866
  0
SPLINE
  5
65F
100
AcDbEntity
  8
0
100
AcDbSpline
 62
7
  6
CONTINUOUS
 70
0
 71
3
 72
9
 73
5
 74
0
 42
0.0000001
 43
0.0000001
 44
0.0000000001
 40
0.0
 40
0.0
 40
0.0
 40
0.0
 40
0.2597422206
 40
1.0
 40
1.0
 40
1.0
 40
1.0
 10
-13.2849949394
 20
16.2416625635
 30
0.0
 10
-13.2769502072
 20
16.2333092105
 30
0.0
 10
-13.2452318002
 20
16.2018893392
 30
0.0
 10
-13.2104712881
 20
16.173439189
 30
0.0
 10
-13.1830595974
 20
16.1549723944
 30
0.0
  0
ELLIPSE
  5
660
100
AcDbEntity
  8
ASSI
100
AcDbEllipse
 62
7
  6
CONTINUOUS
 10
-2.1228686957
 20
-26.5648169055
 30
0.0
 11
-0.2498600223
 21
0.43379745
 31
0.0
 40
0.5768037941
 41
-3.1764860545
 42
-2.355482613
  0
ELLIPSE
  5
661
100
AcDbEntity
  8
ASSI
100
AcDbEllipse
 62
7
  6
CONTINUOUS
 10
-2.1228686957
 20
9.1954607383
 30
0.0
 11
-0.2496303025
 21
0.4334023309
 31
0.0
 40
0.5778584463
 41
-2.3545649475
 42
-0.7846820092
  0
ELLIPSE
  5
662
100
AcDbEntity
  8
ASSI
100
AcDbEllipse
 62
7
  6
CONTINUOUS
 10
-17.1841354228
 20
17.8916473845
 30
0.0
 11
-0.2498600223
 21
0.43379745
 31
0.0
 40
0.5768037941
 41
-0.7837728977
 42
0.0348934027
  0
ELLIPSE
  5
663
100
AcDbEntity
  8
ASSI
100
AcDbEllipse
 62
7
  6
CONTINUOUS
 10
-17.4480296499
 20
-3.7745904495
 30
0.0
 11
-0.1500072547
 21
0.2598034325
 31
0.0
 40
0.5775075436
 41
0.7855021057
 42
2.355993846
  0
ELLIPSE
  5
664
100
AcDbEntity
  8
CURVE
100
AcDbEllipse
 62
250
  6
CONTINUOUS
 10
342.4436513018
 20
192.8843077571
 30
0.0
 11
316.3793765692
 21
393.3169807442
 31
0.0
 40
0.4450708833
 41
-3.8232550997
 42
-3.8196526841
  0
ELLIPSE
  5
665
100
AcDbEntity
  8
CURVE
100
AcDbEllipse
 62
250
  6
CONTINUOUS
 10
335.4614780746
 20
196.9157270714
 30
0.0
 11
87.6862545943
 21
508.1854445458
 31
0.0
 40
0.7055578127
 41
-4.1452484233
 42
-4.1426752211
  0
ELLIPSE
  5
666
100
AcDbEntity
  8
CURVE
100
AcDbEllipse
 62
250
  6
CONTINUOUS
 10
343.0618662295
 20
192.5273582059
 30
0.0
 11
337.9627700953
 21
380.3744364606
 31
0.0
 40
0.3902181199
 41
-3.811039113
 42
-3.8084659108
  0
ELLIPSE
  5
667
100
AcDbEntity
  8
CURVE
100
AcDbEllipse
 62
250
  6
CONTINUOUS
 10
336.0796913839
 20
196.5587784546
 30
0.0
 11
145.6077166636
 21
485.9231992827
 31
0.0
 40
0.6811066893
 41
-4.0520250707
 42
-4.0484226551
  0
ELLIPSE
  5
668
100
AcDbEntity
  8
CURVE
100
AcDbEllipse
 62
250
  6
CONTINUOUS
 10
346.1004037812
 20
190.7729447054
 30
0.0
 11
421.2725424901
 21
332.8551883719
 31
0.0
 40
0.1668672853
 41
2.4573083157
 42
2.4580802224
  0
ELLIPSE
  5
669
100
AcDbEntity
  8
CURVE
100
AcDbEllipse
 62
250
  6
CONTINUOUS
 10
325.8670494005
 20
202.4554299413
 30
0.0
 11
-353.5448483845
 21
612.3773669863
 31
0.0
 40
0.5773595689
 41
-4.6775577918
 42
-4.6770431898
  0
ELLIPSE
  5
66A
100
AcDbEntity
  8
CURVE
100
AcDbEllipse
 62
250
  6
CONTINUOUS
 10
347.2196525927
 20
190.1267044691
 30
0.0
 11
428.805305958
 21
328.6835321064
 31
0.0
 40
0.1483011596
 41
2.4535145497
 42
2.4560877519
  0
ELLIPSE
  5
66B
100
AcDbEntity
  8
0
100
AcDbEllipse
 62
7
  6
CONTINUOUS
 10
-2.1228686957
 20
-26.5648169055
 30
0.0
 11
-0.2498600223
 21
0.43379745
 31
0.0
 40
0.5768037941
 41
-3.1764860545
 42
-2.355482613
  0
ELLIPSE
  5
66C
100
AcDbEntity
  8
0
100
AcDbEllipse
 62
7
  6
CONTINUOUS
 10
-2.1228686957
 20
9.1954607383
 30
0.0
 11
-0.2496303025
 21
0.4334023309
 31
0.0
 40
0.5778584463
 41
-2.3545649475
 42
-0.7846820092
  0
ELLIPSE
  5
66D
100
AcDbEntity
  8
0
100
AcDbEllipse
 62
7
  6
CONTINUOUS
 10
-17.1841354228
 20
17.8916473845
 30
0.0
 11
-0.2498600223
 21
0.43379745
 31
0.0
 40
0.5768037941
 41
-0.7837728977
 42
0.0348934027
  0
ELLIPSE
  5
66E
100
AcDbEntity
  8
0
100
AcDbEllipse
 62
7
  6
CONTINUOUS
 10
-17.4480296499
 20
-3.7745904495
 30
0.0
 11
-0.1500072547
 21
0.2598034325
 31
0.0
 40
0.5775075436
 41
0.7855021057
 42
2.355993846
  0
ELLIPSE
  5
66F
100
AcDbEntity
  8
0
100
AcDbEllipse
 62
7
  6
CONTINUOUS
 10
19.2820933992
 20
9.8213325016
 30
0.0
 11
1.0229917131
 21
1.834161488
 31
0.0
 40
0.5671693725
 41
0.7857458354
 42
1.7508170405
  0
ELLIPSE
  5
670
100
AcDbEntity
  8
0
100
AcDbEllipse
 62
7
  6
CONTINUOUS
 10
19.2820933992
 20
13.9036838856
 30
0.0
 11
1.0229917131
 21
1.834161488
 31
0.0
 40
0.5671693725
 41
0.7857458354
 42
1.7508170405
  0
ELLIPSE
  5
671
100
AcDbEntity
  8
0
100
AcDbEllipse
 62
7
  6
CONTINUOUS
 10
18.5321814659
 20
14.3366736373
 30
0.0
 11
1.0364148088
 21
1.8264749765
 31
0.0
 40
0.5722717666
 41
-2.9032600827
 42
-2.369160648
  0
ELLIPSE
  5
672
100
AcDbEntity
  8
0
100
AcDbEllipse
 62
7
  6
CONTINUOUS
 10
18.5321814659
 20
10.2543222533
 30
0.0
 11
1.0364148088
 21
1.8264749765
 31
0.0
 40
0.5722717666
 41
-2.9032600827
 42
-2.369160648
  0
ELLIPSE
  5
673
100
AcDbEntity
  8
0
100
AcDbEllipse
 62
7
  6
CONTINUOUS
 10
16.1365177727
 20
11.637548445
 30
0.0
 11
5.6261368649
 21
-4.8446128819
 31
0.0
 40
0.2167200945
 41
-1.1995308321
 42
-1.0406806992
  0
ELLIPSE
  5
674
100
AcDbEntity
  8
0
100
AcDbEllipse
 62
7
  6
CONTINUOUS
 10
16.1365177727
 20
15.719899829
 30
0.0
 11
5.6261368649
 21
-4.8446128819
 31
0.0
 40
0.2167200945
 41
-1.1995308321
 42
-1.0406806992
  0
ELLIPSE
  5
675
100
AcDbEntity
  8
0
100
AcDbEllipse
 62
7
  6
CONTINUOUS
 10
9.7355318068
 20
23.2644221578
 30
0.0
 11
0.4340187671
 21
-0.0064490065
 31
0.0
 40
0.5672251703
 41
-2.5178696544
 42
-2.273299804
  0
ELLIPSE
  5
676
100
AcDbEntity
  8
0
100
AcDbEllipse
 62
7
  6
CONTINUOUS
 10
-6.6836535782
 20
12.482562105
 30
0.0
 11
-0.0999896007
 21
0.1732286732
 31
0.0
 40
0.5773316645
 41
-3.1503197815
 42
-2.3560905026
  0
ELLIPSE
  5
677
100
AcDbEntity
  8
0
100
AcDbEllipse
 62
7
  6
CONTINUOUS
 10
3.2468501119
 20
14.6285221852
 30
0.0
 11
1.3142304592
 21
-0.0195158908
 31
0.0
 40
0.5672252748
 41
2.3620692019
 42
5.5087473143
  0
ELLIPSE
  5
678
100
AcDbEntity
  8
0
100
AcDbEllipse
 62
7
  6
CONTINUOUS
 10
0.5598443434
 20
16.1799656399
 30
0.0
 11
1.3142304592
 21
-0.0195158908
 31
0.0
 40
0.5672252748
 41
2.3620692019
 42
5.5087473143
  0
ELLIPSE
  5
679
100
AcDbEntity
  8
0
100
AcDbEllipse
 62
7
  6
CONTINUOUS
 10
-2.1271614252
 20
17.7314090945
 30
0.0
 11
1.3142304592
 21
-0.0195158908
 31
0.0
 40
0.5672252748
 41
2.3620692019
 42
5.5087473143
  0
ELLIPSE
  5
67A
100
AcDbEntity
  8
0
100
AcDbEllipse
 62
7
  6
CONTINUOUS
 10
19.2820933992
 20
13.9036838856
 30
0.0
 11
1.0229917131
 21
1.834161488
 31
0.0
 40
0.5671693725
 41
2.9448139913
 42
3.9098851964
  0
ELLIPSE
  5
67B
100
AcDbEntity
  8
0
100
AcDbEllipse
 62
7
  6
CONTINUOUS
 10
19.2820933992
 20
9.8213325016
 30
0.0
 11
1.0229917131
 21
1.834161488
 31
0.0
 40
0.5671693725
 41
2.9448139913
 42
3.9098851964
  0
ENDSEC
  0
SECTION
  2
OBJECTS
  0
DICTIONARY
  5
C
100
AcDbDictionary
280
0
281
1
  3
ACAD_GROUP
350
D
  3
ACAD_MLINESTYLE
350
17
  3
ACAD_LAYOUT
350
1A
  3
ACAD_PLOTSETTINGS
350
19
  3
ACAD_PLOTSTYLENAME
350
E
  0
DICTIONARY
  5
D
102
{ACAD_REACTORS
330
C
102
}
100
AcDbDictionary
280
0
281
1
  0
ACDBDICTIONARYWDFLT
  5
E
102
{ACAD_REACTORS
330
C
102
}
100
AcDbDictionary
281
1
  3
Normal
350
F
100
AcDbDictionaryWithDefault
340
F
  0
DICTIONARY
  5
17
102
{ACAD_REACTORS
330
C
102
}
100
AcDbDictionary
280
0
281
1
  3
Standard
350
18
  0
DICTIONARY
  5
19
102
{ACAD_REACTORS
330
C
102
}
100
AcDbDictionary
281
1
  0
DICTIONARY
  5
1A
102
{ACAD_REACTORS
330
C
102
}
100
AcDbDictionary
281
1
  3
Model
350
67C
  3
Layout1
350
67D
  0
ACDBPLACEHOLDER
  5
F
102
{ACAD_REACTORS
330
E
102
}
  0
MLINESTYLE
  5
18
102
{ACAD_REACTORS
330
17
102
}
100
AcDbMlineStyle
  2
STANDARD
 70
0
  3

 62
256
 51
90.0
 52
90.0
 71
2
 49
0.5
 62
256
  6
BYLAYER
 49
-0.5
 62
256
  6
BYLAYER
  0
LAYOUT
  5
67C
102
{ACAD_REACTORS
330
1A
102
}
100
AcDbPlotSettings
  1

  2
none_device
  4

  6

 40
0.0
 41
0.0
 42
0.0
 43
0.0
 44
210.0
 45
297.0
 46
0.0
 47
0.0
 48
0.0
 49
0.0
140
0.0
141
0.0
142
1.0
143
1.0
 70
1024
 72
1
 73
0
 74
0
  7

 75
0
147
1.0
148
0.0
149
0.0
100
AcDbLayout
  1
Model
 70
0
 71
0
 10
0.0
 20
0.0
 11
210.0
 21
297.0
 12
0.0
 22
0.0
 32
0.0
 14
0.0
 24
0.0
 34
0.0
 15
0.0
 25
0.0
 35
0.0
146
0.0
 13
0.0
 23
0.0
 33
0.0
 16
1.0
 26
0.0
 36
0.0
 17
0.0
 27
1.0
 37
0.0
 76
0
330
3C3
345
0
346
0
  0
LAYOUT
  5
67D
102
{ACAD_REACTORS
330
1A
102
}
100
AcDbPlotSettings
  1

  2
none_device
  4

  6

 40
0.0
 41
0.0
 42
0.0
 43
0.0
 44
210.0
 45
297.0
 46
0.0
 47
0.0
 48
0.0
 49
0.0
140
0.0
141
0.0
142
1.0
143
1.0
 70
0
 72
1
 73
0
 74
0
  7

 75
0
147
1.0
148
0.0
149
0.0
100
AcDbLayout
  1
Layout1
 70
0
 71
1
 10
0.0
 20
0.0
 11
210.0
 21
297.0
 12
0.0
 22
0.0
 32
0.0
 14
0.0
 24
0.0
 34
0.0
 15
0.0
 25
0.0
 35
0.0
146
0.0
 13
0.0
 23
0.0
 33
0.0
 16
1.0
 26
0.0
 36
0.0
 17
0.0
 27
1.0
 37
0.0
 76
0
330
3C4
345
0
346
0
  0
ENDSEC
  0
EOF
