  0
SECTION
  2
HEADER
  9
$ACADVER
  1
AC1024
  9
$DWGCODEPAGE
  3
ANSI_1252
  9
$EXTMAX
 10
558.8
 20
431.8
 30
0.0
  9
$EXTMIN
 10
0.0
 20
0.0
 30
0.0
  9
$LIMMIN
 10
0.0
 20
0.0
  9
$LIMMAX
 10
558.8
 20
431.8
  9
$VIEWCTR
 10
279.4
 20
215.9
  9
$VIEWSIZE
 40
431.8
  9
$CLAYER
  8
0
  9
$LTSCALE
 40
30.734
  9
$CELTYPE
  6
BYLAYER
  9
$DIMSCALE
 40
1.0
  9
$DIMASZ
 40
3.0
  9
$DIMEXO
 40
0.5
  9
$DIMDLI
 40
21.2344
  9
$DIMEXE
 40
1.5
  9
$DIMCEN
 40
5.0292
  9
$DIMLFAC
 40
1.0
  9
$DIMBLK
  1
_FILLED
  9
$DIMALT
 70
0
  9
$DIMALTF
 40
0.0393700787
  9
$DIMTXT
 40
3.0
  9
$DIMTOL
 70
1
  9
$DIMLIM
 70
0
  9
$DIMTFAC
 40
1.0
  9
$DIMTP
 40
0.01
  9
$DIMTM
 40
0.01
  9
$DIMGAP
 40
0.625
  9
$DIMDSEP
 70
44
  9
$AUNITS
 70
0
  9
$PDMODE
 70
3
  9
$PDSIZE
 40
3.0
  9
$HANDSEED
  5
4F8
  9
$TILEMODE
 70
1
  9
$MEASUREMENT
 70
1
  9
$INSUNITS
 70
4
  0
ENDSEC
  0
SECTION
  2
CLASSES
  0
CLASS
  1
ACDBDICTIONARYWDFLT
  2
AcDbDictionaryWithDefault
  3
AutoCAD 2000
 90
0
 91
1
280
0
281
0
  0
CLASS
  1
ACDBPLACEHOLDER
  2
AcDbPlaceHolder
  3
AutoCAD 2000
 90
0
 91
1
280
0
281
0
  0
CLASS
  1
LAYOUT
  2
AcDbLayout
  3
AutoCAD 2000
 90
0
 91
0
280
0
281
0
  0
ENDSEC
  0
SECTION
  2
TABLES
  0
TABLE
  2
VPORT
  5
8
100
AcDbSymbolTable
 70
2
  0
VPORT
  5
1F4
100
AcDbSymbolTableRecord
100
AcDbViewportTableRecord
  2
*ACTIVE
 70
0
 10
0.0
 20
0.0
 11
1.0
 21
1.0
 12
279.4
 22
215.9
 13
0.0
 23
0.0
 14
1.0
 24
1.0
 15
0.0
 25
0.0
 16
0.0
 26
0.0
 36
1.0
 17
0.0
 27
0.0
 37
0.0
 40
431.8
 41
1.2941176471
 42
50.0
 43
0.0
 44
0.0
 50
0.0
 51
0.0
 71
0
 72
100
 73
1
 74
1
 75
0
 76
0
 77
0
 78
0
  0
ENDTAB
  0
TABLE
  2
LTYPE
  5
5
100
AcDbSymbolTable
 70
6
  0
LTYPE
  5
14
100
AcDbSymbolTableRecord
100
AcDbLinetypeTableRecord
  2
BYBLOCK
 70
0
  3

 72
65
 73
0
 40
0.0
  0
LTYPE
  5
15
100
AcDbSymbolTableRecord
100
AcDbLinetypeTableRecord
  2
BYLAYER
 70
0
  3

 72
65
 73
0
 40
0.0
  0
LTYPE
  5
16
100
AcDbSymbolTableRecord
100
AcDbLinetypeTableRecord
  2
CONTINUOUS
 70
64
  3
Solid line
 72
65
 73
0
 40
0.0
  0
LTYPE
  5
1F5
100
AcDbSymbolTableRecord
100
AcDbLinetypeTableRecord
  2
CENTER
 70
64
  3
____ _ ____ _ ____ _ ____ _ ____ _ ____ _ ____
 72
65
 73
4
 40
0.6
 49
0.375
 74
0
 49
-0.075
 74
0
 49
0.075
 74
0
 49
-0.075
 74
0
  0
LTYPE
  5
1F6
100
AcDbSymbolTableRecord
100
AcDbLinetypeTableRecord
  2
HIDDEN
 70
64
  3
- - - - - - - - - - - - - - - - - - - -
 72
65
 73
2
 40
0.2
 49
0.1
 74
0
 49
-0.1
 74
0
  0
LTYPE
  5
1F7
100
AcDbSymbolTableRecord
100
AcDbLinetypeTableRecord
  2
PHANTOM
 70
64
  3
_____ _ _ _____ _ _ _____ _ _ _____
 72
65
 73
6
 40
0.8
 49
0.45
 74
0
 49
-0.05
 74
0
 49
0.1
 74
0
 49
-0.05
 74
0
 49
0.1
 74
0
 49
-0.05
 74
0
  0
LTYPE
  5
1F8
100
AcDbSymbolTableRecord
100
AcDbLinetypeTableRecord
  2
DOT
 70
64
  3
. . . . . . . . . . . . . . . . . . . .
 72
65
 73
2
 40
0.2
 49
0.1
 74
0
 49
-0.1
 74
0
  0
LTYPE
  5
1F9
100
AcDbSymbolTableRecord
100
AcDbLinetypeTableRecord
  2
DASHED
 70
64
  3
- - - - - - - - - - - - - - - - - - - -
 72
65
 73
2
 40
0.2
 49
0.1
 74
0
 49
-0.1
 74
0
  0
ENDTAB
  0
TABLE
  2
LAYER
  5
2
100
AcDbSymbolTable
 70
36
  0
LAYER
  5
10
100
AcDbSymbolTableRecord
100
AcDbLayerTableRecord
  2
0
 70
0
 62
7
  6
CONTINUOUS
370
-3
390
F
  0
LAYER
  5
1FA
100
AcDbSymbolTableRecord
100
AcDbLayerTableRecord
  2
DEFAULT_1
 70
0
 62
7
  6
CENTER
370
-3
390
F
  0
LAYER
  5
1FB
100
AcDbSymbolTableRecord
100
AcDbLayerTableRecord
  2
DEFAULT_2
 70
0
 62
7
  6
HIDDEN
370
-3
390
F
  0
LAYER
  5
1FC
100
AcDbSymbolTableRecord
100
AcDbLayerTableRecord
  2
DEFAULT_3
 70
0
 62
7
  6
PHANTOM
370
-3
390
F
  0
LAYER
  5
1FD
100
AcDbSymbolTableRecord
100
AcDbLayerTableRecord
  2
0402_C_REF_70000
 70
0
 62
7
  6
CONTINUOUS
370
-3
390
F
  0
LAYER
  5
1FE
100
AcDbSymbolTableRecord
100
AcDbLayerTableRecord
  2
0402_C_REF_70000_1
 70
0
 62
7
  6
CONTINUOUS
370
-3
390
F
  0
LAYER
  5
1FF
100
AcDbSymbolTableRecord
100
AcDbLayerTableRecord
  2
0402_C_REF_70000_2
 70
0
 62
7
  6
CONTINUOUS
370
-3
390
F
  0
LAYER
  5
200
100
AcDbSymbolTableRecord
100
AcDbLayerTableRecord
  2
0402_C_REF_70000_3
 70
0
 62
7
  6
CONTINUOUS
370
-3
390
F
  0
LAYER
  5
201
100
AcDbSymbolTableRecord
100
AcDbLayerTableRecord
  2
0402_C_REF_70000_4
 70
0
 62
7
  6
CONTINUOUS
370
-3
390
F
  0
LAYER
  5
202
100
AcDbSymbolTableRecord
100
AcDbLayerTableRecord
  2
0402_C_REF_70000_5
 70
0
 62
7
  6
CONTINUOUS
370
-3
390
F
  0
LAYER
  5
203
100
AcDbSymbolTableRecord
100
AcDbLayerTableRecord
  2
0402_C_REF_70000_6
 70
0
 62
7
  6
CONTINUOUS
370
-3
390
F
  0
LAYER
  5
204
100
AcDbSymbolTableRecord
100
AcDbLayerTableRecord
  2
0402_C_REF_70000_7
 70
0
 62
7
  6
CONTINUOUS
370
-3
390
F
  0
LAYER
  5
205
100
AcDbSymbolTableRecord
100
AcDbLayerTableRecord
  2
0402_C_REF_70000_8
 70
0
 62
7
  6
CONTINUOUS
370
-3
390
F
  0
LAYER
  5
206
100
AcDbSymbolTableRecord
100
AcDbLayerTableRecord
  2
0402_R_REF_30000
 70
0
 62
7
  6
CONTINUOUS
370
-3
390
F
  0
LAYER
  5
207
100
AcDbSymbolTableRecord
100
AcDbLayerTableRecord
  2
0402_R_REF_30000_1
 70
0
 62
7
  6
CONTINUOUS
370
-3
390
F
  0
LAYER
  5
208
100
AcDbSymbolTableRecord
100
AcDbLayerTableRecord
  2
0402_R_REF_30000_10
 70
0
 62
7
  6
CONTINUOUS
370
-3
390
F
  0
LAYER
  5
209
100
AcDbSymbolTableRecord
100
AcDbLayerTableRecord
  2
0402_R_REF_30000_2
 70
0
 62
7
  6
CONTINUOUS
370
-3
390
F
  0
LAYER
  5
20A
100
AcDbSymbolTableRecord
100
AcDbLayerTableRecord
  2
0402_R_REF_30000_3
 70
0
 62
7
  6
CONTINUOUS
370
-3
390
F
  0
LAYER
  5
20B
100
AcDbSymbolTableRecord
100
AcDbLayerTableRecord
  2
0402_R_REF_30000_4
 70
0
 62
7
  6
CONTINUOUS
370
-3
390
F
  0
LAYER
  5
20C
100
AcDbSymbolTableRecord
100
AcDbLayerTableRecord
  2
0402_R_REF_30000_5
 70
0
 62
7
  6
CONTINUOUS
370
-3
390
F
  0
LAYER
  5
20D
100
AcDbSymbolTableRecord
100
AcDbLayerTableRecord
  2
0402_R_REF_30000_6
 70
0
 62
7
  6
CONTINUOUS
370
-3
390
F
  0
LAYER
  5
20E
100
AcDbSymbolTableRecord
100
AcDbLayerTableRecord
  2
0402_R_REF_30000_7
 70
0
 62
7
  6
CONTINUOUS
370
-3
390
F
  0
LAYER
  5
20F
100
AcDbSymbolTableRecord
100
AcDbLayerTableRecord
  2
0402_R_REF_30000_8
 70
0
 62
7
  6
CONTINUOUS
370
-3
390
F
  0
LAYER
  5
210
100
AcDbSymbolTableRecord
100
AcDbLayerTableRecord
  2
0402_R_REF_30000_9
 70
0
 62
7
  6
CONTINUOUS
370
-3
390
F
  0
LAYER
  5
211
100
AcDbSymbolTableRecord
100
AcDbLayerTableRecord
  2
0603_C_REF_90000
 70
0
 62
7
  6
CONTINUOUS
370
-3
390
F
  0
LAYER
  5
212
100
AcDbSymbolTableRecord
100
AcDbLayerTableRecord
  2
0603_C_REF_90000_1
 70
0
 62
7
  6
CONTINUOUS
370
-3
390
F
  0
LAYER
  5
213
100
AcDbSymbolTableRecord
100
AcDbLayerTableRecord
  2
0603_C_REF_90000_2
 70
0
 62
7
  6
CONTINUOUS
370
-3
390
F
  0
LAYER
  5
214
100
AcDbSymbolTableRecord
100
AcDbLayerTableRecord
  2
0603_C_REF_90000_3
 70
0
 62
7
  6
CONTINUOUS
370
-3
390
F
  0
LAYER
  5
215
100
AcDbSymbolTableRecord
100
AcDbLayerTableRecord
  2
06___PRT_ALL_SURFS
 70
0
 62
7
  6
CONTINUOUS
370
-3
390
F
  0
LAYER
  5
216
100
AcDbSymbolTableRecord
100
AcDbLayerTableRecord
  2
06___PRT_ALL_SURFS_1
 70
0
 62
7
  6
CONTINUOUS
370
-3
390
F
  0
LAYER
  5
217
100
AcDbSymbolTableRecord
100
AcDbLayerTableRecord
  2
06___PRT_ALL_SURFS_11
 70
0
 62
7
  6
CONTINUOUS
370
-3
390
F
  0
LAYER
  5
218
100
AcDbSymbolTableRecord
100
AcDbLayerTableRecord
  2
06___PRT_ALL_SURFS_12
 70
0
 62
7
  6
CONTINUOUS
370
-3
390
F
  0
LAYER
  5
219
100
AcDbSymbolTableRecord
100
AcDbLayerTableRecord
  2
06___PRT_ALL_SURFS_13
 70
0
 62
7
  6
CONTINUOUS
370
-3
390
F
  0
LAYER
  5
21A
100
AcDbSymbolTableRecord
100
AcDbLayerTableRecord
  2
06___PRT_ALL_SURFS_15
 70
0
 62
7
  6
CONTINUOUS
370
-3
390
F
  0
LAYER
  5
21B
100
AcDbSymbolTableRecord
100
AcDbLayerTableRecord
  2
06___PRT_ALL_SURFS_19
 70
0
 62
7
  6
CONTINUOUS
370
-3
390
F
  0
LAYER
  5
21C
100
AcDbSymbolTableRecord
100
AcDbLayerTableRecord
  2
06___PRT_ALL_SURFS_2
 70
0
 62
7
  6
CONTINUOUS
370
-3
390
F
  0
LAYER
  5
21D
100
AcDbSymbolTableRecord
100
AcDbLayerTableRecord
  2
06___PRT_ALL_SURFS_3
 70
0
 62
7
  6
CONTINUOUS
370
-3
390
F
  0
LAYER
  5
21E
100
AcDbSymbolTableRecord
100
AcDbLayerTableRecord
  2
06___PRT_ALL_SURFS_4
 70
0
 62
7
  6
CONTINUOUS
370
-3
390
F
  0
LAYER
  5
21F
100
AcDbSymbolTableRecord
100
AcDbLayerTableRecord
  2
06___PRT_ALL_SURFS_6
 70
0
 62
7
  6
CONTINUOUS
370
-3
390
F
  0
LAYER
  5
220
100
AcDbSymbolTableRecord
100
AcDbLayerTableRecord
  2
06___PRT_ALL_SURFS_7
 70
0
 62
7
  6
CONTINUOUS
370
-3
390
F
  0
LAYER
  5
221
100
AcDbSymbolTableRecord
100
AcDbLayerTableRecord
  2
06___PRT_ALL_SURFS_8
 70
0
 62
7
  6
CONTINUOUS
370
-3
390
F
  0
LAYER
  5
222
100
AcDbSymbolTableRecord
100
AcDbLayerTableRecord
  2
06___PRT_ALL_SURFS_9
 70
0
 62
7
  6
CONTINUOUS
370
-3
390
F
  0
LAYER
  5
223
100
AcDbSymbolTableRecord
100
AcDbLayerTableRecord
  2
0805_C_REF_145000
 70
0
 62
7
  6
CONTINUOUS
370
-3
390
F
  0
LAYER
  5
224
100
AcDbSymbolTableRecord
100
AcDbLayerTableRecord
  2
0805_C_REF_145000_1
 70
0
 62
7
  6
CONTINUOUS
370
-3
390
F
  0
LAYER
  5
225
100
AcDbSymbolTableRecord
100
AcDbLayerTableRecord
  2
0805_C_REF_145000_2
 70
0
 62
7
  6
CONTINUOUS
370
-3
390
F
  0
LAYER
  5
226
100
AcDbSymbolTableRecord
100
AcDbLayerTableRecord
  2
0805_C_REF_145000_3
 70
0
 62
7
  6
CONTINUOUS
370
-3
390
F
  0
LAYER
  5
227
100
AcDbSymbolTableRecord
100
AcDbLayerTableRecord
  2
0805_C_REF_145000_4
 70
0
 62
7
  6
CONTINUOUS
370
-3
390
F
  0
LAYER
  5
228
100
AcDbSymbolTableRecord
100
AcDbLayerTableRecord
  2
0805_R_REF_60000
 70
0
 62
7
  6
CONTINUOUS
370
-3
390
F
  0
LAYER
  5
229
100
AcDbSymbolTableRecord
100
AcDbLayerTableRecord
  2
0805_R_REF_60000_1
 70
0
 62
7
  6
CONTINUOUS
370
-3
390
F
  0
LAYER
  5
22A
100
AcDbSymbolTableRecord
100
AcDbLayerTableRecord
  2
0805_R_REF_60000_2
 70
0
 62
7
  6
CONTINUOUS
370
-3
390
F
  0
LAYER
  5
22B
100
AcDbSymbolTableRecord
100
AcDbLayerTableRecord
  2
0805_R_REF_60000_3
 70
0
 62
7
  6
CONTINUOUS
370
-3
390
F
  0
LAYER
  5
22C
100
AcDbSymbolTableRecord
100
AcDbLayerTableRecord
  2
0805_R_REF_60000_4
 70
0
 62
7
  6
CONTINUOUS
370
-3
390
F
  0
LAYER
  5
22D
100
AcDbSymbolTableRecord
100
AcDbLayerTableRecord
  2
0805_R_REF_60000_5
 70
0
 62
7
  6
CONTINUOUS
370
-3
390
F
  0
LAYER
  5
22E
100
AcDbSymbolTableRecord
100
AcDbLayerTableRecord
  2
1206_C_REF_180000
 70
0
 62
7
  6
CONTINUOUS
370
-3
390
F
  0
LAYER
  5
22F
100
AcDbSymbolTableRecord
100
AcDbLayerTableRecord
  2
1206_C_REF_180000_1
 70
0
 62
7
  6
CONTINUOUS
370
-3
390
F
  0
LAYER
  5
230
100
AcDbSymbolTableRecord
100
AcDbLayerTableRecord
  2
1206_R_REF_65000
 70
0
 62
7
  6
CONTINUOUS
370
-3
390
F
  0
LAYER
  5
231
100
AcDbSymbolTableRecord
100
AcDbLayerTableRecord
  2
1206_R_REF_65000_1
 70
0
 62
7
  6
CONTINUOUS
370
-3
390
F
  0
LAYER
  5
232
100
AcDbSymbolTableRecord
100
AcDbLayerTableRecord
  2
43001070A0
 70
0
 62
7
  6
CONTINUOUS
370
-3
390
F
  0
LAYER
  5
233
100
AcDbSymbolTableRecord
100
AcDbLayerTableRecord
  2
43001071A0
 70
0
 62
7
  6
CONTINUOUS
370
-3
390
F
  0
LAYER
  5
234
100
AcDbSymbolTableRecord
100
AcDbLayerTableRecord
  2
43901070A0
 70
0
 62
7
  6
CONTINUOUS
370
-3
390
F
  0
LAYER
  5
235
100
AcDbSymbolTableRecord
100
AcDbLayerTableRecord
  2
43901071A0
 70
0
 62
7
  6
CONTINUOUS
370
-3
390
F
  0
LAYER
  5
236
100
AcDbSymbolTableRecord
100
AcDbLayerTableRecord
  2
ASSI
 70
0
 62
7
  6
CONTINUOUS
370
-3
390
F
  0
LAYER
  5
237
100
AcDbSymbolTableRecord
100
AcDbLayerTableRecord
  2
CAP-E-5_0-11_0-2_0_1250000
 70
0
 62
7
  6
CONTINUOUS
370
-3
390
F
  0
LAYER
  5
238
100
AcDbSymbolTableRecord
100
AcDbLayerTableRecord
  2
CAP-E-8_0-11_5-3_5_1200000
 70
0
 62
7
  6
CONTINUOUS
370
-3
390
F
  0
LAYER
  5
239
100
AcDbSymbolTableRecord
100
AcDbLayerTableRecord
  2
COLOR17
 70
0
 62
7
  6
CONTINUOUS
370
-3
390
F
  0
LAYER
  5
23A
100
AcDbSymbolTableRecord
100
AcDbLayerTableRecord
  2
COLOR2
 70
0
 62
7
  6
CONTINUOUS
370
-3
390
F
  0
LAYER
  5
23B
100
AcDbSymbolTableRecord
100
AcDbLayerTableRecord
  2
COLOR28
 70
0
 62
7
  6
CONTINUOUS
370
-3
390
F
  0
LAYER
  5
23C
100
AcDbSymbolTableRecord
100
AcDbLayerTableRecord
  2
COLOR40
 70
0
 62
7
  6
CONTINUOUS
370
-3
390
F
  0
LAYER
  5
23D
100
AcDbSymbolTableRecord
100
AcDbLayerTableRecord
  2
COLOR5
 70
0
 62
7
  6
CONTINUOUS
370
-3
390
F
  0
LAYER
  5
23E
100
AcDbSymbolTableRecord
100
AcDbLayerTableRecord
  2
COLOR6
 70
0
 62
7
  6
CONTINUOUS
370
-3
390
F
  0
LAYER
  5
23F
100
AcDbSymbolTableRecord
100
AcDbLayerTableRecord
  2
COLOR67
 70
0
 62
7
  6
CONTINUOUS
370
-3
390
F
  0
LAYER
  5
240
100
AcDbSymbolTableRecord
100
AcDbLayerTableRecord
  2
COLOR71
 70
0
 62
7
  6
CONTINUOUS
370
-3
390
F
  0
LAYER
  5
241
100
AcDbSymbolTableRecord
100
AcDbLayerTableRecord
  2
COORDINATE
 70
0
 62
7
  6
CONTINUOUS
370
-3
390
F
  0
LAYER
  5
242
100
AcDbSymbolTableRecord
100
AcDbLayerTableRecord
  2
COORD_ORIGINE
 70
0
 62
7
  6
CONTINUOUS
370
-3
390
F
  0
LAYER
  5
243
100
AcDbSymbolTableRecord
100
AcDbLayerTableRecord
  2
COPY_PUBLISH
 70
0
 62
7
  6
CONTINUOUS
370
-3
390
F
  0
LAYER
  5
244
100
AcDbSymbolTableRecord
100
AcDbLayerTableRecord
  2
COSMETICI
 70
0
 62
7
  6
CONTINUOUS
370
-3
390
F
  0
LAYER
  5
245
100
AcDbSymbolTableRecord
100
AcDbLayerTableRecord
  2
CR_MR2P5_MSB_SW_PTH_1000000
 70
0
 62
7
  6
CONTINUOUS
370
-3
390
F
  0
LAYER
  5
246
100
AcDbSymbolTableRecord
100
AcDbLayerTableRecord
  2
CURVE
 70
0
 62
7
  6
CONTINUOUS
370
-3
390
F
  0
LAYER
  5
247
100
AcDbSymbolTableRecord
100
AcDbLayerTableRecord
  2
DRAFT
 70
0
 62
7
  6
CONTINUOUS
370
-3
390
F
  0
LAYER
  5
248
100
AcDbSymbolTableRecord
100
AcDbLayerTableRecord
  2
GEOMETRIA_SOLIDA
 70
0
 62
7
  6
CONTINUOUS
370
-3
390
F
  0
LAYER
  5
249
100
AcDbSymbolTableRecord
100
AcDbLayerTableRecord
  2
GEOMETRIA_SOLIDA_1
 70
0
 62
7
  6
CONTINUOUS
370
-3
390
F
  0
LAYER
  5
24A
100
AcDbSymbolTableRecord
100
AcDbLayerTableRecord
  2
GEOMETRIA_SOLIDA_2
 70
0
 62
7
  6
CONTINUOUS
370
-3
390
F
  0
LAYER
  5
24B
100
AcDbSymbolTableRecord
100
AcDbLayerTableRecord
  2
GEOMETRIA_SOLIDA_3
 70
0
 62
7
  6
CONTINUOUS
370
-3
390
F
  0
LAYER
  5
24C
100
AcDbSymbolTableRecord
100
AcDbLayerTableRecord
  2
IMPORT
 70
0
 62
7
  6
CONTINUOUS
370
-3
390
F
  0
LAYER
  5
24D
100
AcDbSymbolTableRecord
100
AcDbLayerTableRecord
  2
IMPORT_IGES
 70
0
 62
7
  6
CONTINUOUS
370
-3
390
F
  0
LAYER
  5
24E
100
AcDbSymbolTableRecord
100
AcDbLayerTableRecord
  2
IMPORT_IGES_1
 70
0
 62
7
  6
CONTINUOUS
370
-3
390
F
  0
LAYER
  5
24F
100
AcDbSymbolTableRecord
100
AcDbLayerTableRecord
  2
IMPORT_IGES_5
 70
0
 62
7
  6
CONTINUOUS
370
-3
390
F
  0
LAYER
  5
250
100
AcDbSymbolTableRecord
100
AcDbLayerTableRecord
  2
IND-CHIP-0805_H1_1_REF_110000
 70
0
 62
7
  6
CONTINUOUS
370
-3
390
F
  0
LAYER
  5
251
100
AcDbSymbolTableRecord
100
AcDbLayerTableRecord
  2
INTFCLR_1509
 70
0
 62
7
  6
CONTINUOUS
370
-3
390
F
  0
LAYER
  5
252
100
AcDbSymbolTableRecord
100
AcDbLayerTableRecord
  2
INTFCLR_1649
 70
0
 62
7
  6
CONTINUOUS
370
-3
390
F
  0
LAYER
  5
253
100
AcDbSymbolTableRecord
100
AcDbLayerTableRecord
  2
INTFCLR_3
 70
0
 62
7
  6
CONTINUOUS
370
-3
390
F
  0
LAYER
  5
254
100
AcDbSymbolTableRecord
100
AcDbLayerTableRecord
  2
INTF_1
 70
0
 62
7
  6
CONTINUOUS
370
-3
390
F
  0
LAYER
  5
255
100
AcDbSymbolTableRecord
100
AcDbLayerTableRecord
  2
INTF_11
 70
0
 62
7
  6
CONTINUOUS
370
-3
390
F
  0
LAYER
  5
256
100
AcDbSymbolTableRecord
100
AcDbLayerTableRecord
  2
INTF_15
 70
0
 62
7
  6
CONTINUOUS
370
-3
390
F
  0
LAYER
  5
257
100
AcDbSymbolTableRecord
100
AcDbLayerTableRecord
  2
INTF_2
 70
0
 62
7
  6
CONTINUOUS
370
-3
390
F
  0
LAYER
  5
258
100
AcDbSymbolTableRecord
100
AcDbLayerTableRecord
  2
INTF_3
 70
0
 62
7
  6
CONTINUOUS
370
-3
390
F
  0
LAYER
  5
259
100
AcDbSymbolTableRecord
100
AcDbLayerTableRecord
  2
INTF_7
 70
0
 62
7
  6
CONTINUOUS
370
-3
390
F
  0
LAYER
  5
25A
100
AcDbSymbolTableRecord
100
AcDbLayerTableRecord
  2
INTF_8
 70
0
 62
7
  6
CONTINUOUS
370
-3
390
F
  0
LAYER
  5
25B
100
AcDbSymbolTableRecord
100
AcDbLayerTableRecord
  2
LIVELLO_1
 70
0
 62
7
  6
CONTINUOUS
370
-3
390
F
  0
LAYER
  5
25C
100
AcDbSymbolTableRecord
100
AcDbLayerTableRecord
  2
MINIMELF_R_REF_140000
 70
0
 62
7
  6
CONTINUOUS
370
-3
390
F
  0
LAYER
  5
25D
100
AcDbSymbolTableRecord
100
AcDbLayerTableRecord
  2
NOTE
 70
0
 62
7
  6
CONTINUOUS
370
-3
390
F
  0
LAYER
  5
25E
100
AcDbSymbolTableRecord
100
AcDbLayerTableRecord
  2
PIANI
 70
0
 62
7
  6
CONTINUOUS
370
-3
390
F
  0
LAYER
  5
25F
100
AcDbSymbolTableRecord
100
AcDbLayerTableRecord
  2
PIANI_ORIGINE
 70
0
 62
7
  6
CONTINUOUS
370
-3
390
F
  0
LAYER
  5
260
100
AcDbSymbolTableRecord
100
AcDbLayerTableRecord
  2
POWERDI-123_100000
 70
0
 62
7
  6
CONTINUOUS
370
-3
390
F
  0
LAYER
  5
261
100
AcDbSymbolTableRecord
100
AcDbLayerTableRecord
  2
PUNTI
 70
0
 62
7
  6
CONTINUOUS
370
-3
390
F
  0
LAYER
  5
262
100
AcDbSymbolTableRecord
100
AcDbLayerTableRecord
  2
QFN24-4_0-4_0-4_0-4_0_0_9-0_5-0
 70
0
 62
7
  6
CONTINUOUS
370
-3
390
F
  0
LAYER
  5
263
100
AcDbSymbolTableRecord
100
AcDbLayerTableRecord
  2
RACCORDO
 70
0
 62
7
  6
CONTINUOUS
370
-3
390
F
  0
LAYER
  5
264
100
AcDbSymbolTableRecord
100
AcDbLayerTableRecord
  2
SIMBOLI
 70
0
 62
7
  6
CONTINUOUS
370
-3
390
F
  0
LAYER
  5
265
100
AcDbSymbolTableRecord
100
AcDbLayerTableRecord
  2
SMUSSO
 70
0
 62
7
  6
CONTINUOUS
370
-3
390
F
  0
LAYER
  5
266
100
AcDbSymbolTableRecord
100
AcDbLayerTableRecord
  2
SNAPLINE
 70
0
 62
7
  6
CONTINUOUS
370
-3
390
F
  0
LAYER
  5
267
100
AcDbSymbolTableRecord
100
AcDbLayerTableRecord
  2
SUB_SMA_143000
 70
0
 62
7
  6
CONTINUOUS
370
-3
390
F
  0
LAYER
  5
268
100
AcDbSymbolTableRecord
100
AcDbLayerTableRecord
  2
SUB_SMA_143000_1
 70
0
 62
7
  6
CONTINUOUS
370
-3
390
F
  0
LAYER
  5
269
100
AcDbSymbolTableRecord
100
AcDbLayerTableRecord
  2
SUPERFICI
 70
0
 62
7
  6
CONTINUOUS
370
-3
390
F
  0
LAYER
  5
26A
100
AcDbSymbolTableRecord
100
AcDbLayerTableRecord
  2
TP10_SMD_0
 70
0
 62
7
  6
CONTINUOUS
370
-3
390
F
  0
LAYER
  5
26B
100
AcDbSymbolTableRecord
100
AcDbLayerTableRecord
  2
TP10_SMD_0_1
 70
0
 62
7
  6
CONTINUOUS
370
-3
390
F
  0
LAYER
  5
26C
100
AcDbSymbolTableRecord
100
AcDbLayerTableRecord
  2
TP10_SMD_0_2
 70
0
 62
7
  6
CONTINUOUS
370
-3
390
F
  0
LAYER
  5
26D
100
AcDbSymbolTableRecord
100
AcDbLayerTableRecord
  2
TP10_SMD_0_3
 70
0
 62
7
  6
CONTINUOUS
370
-3
390
F
  0
LAYER
  5
26E
100
AcDbSymbolTableRecord
100
AcDbLayerTableRecord
  2
TRASH
 70
0
 62
7
  6
CONTINUOUS
370
-3
390
F
  0
LAYER
  5
26F
100
AcDbSymbolTableRecord
100
AcDbLayerTableRecord
  2
VG_CAP-E-8_0-13_0-3_5-0_6_14000
 70
0
 62
7
  6
CONTINUOUS
370
-3
390
F
  0
LAYER
  5
270
100
AcDbSymbolTableRecord
100
AcDbLayerTableRecord
  2
VG_CAP-E-8_0-13_0-3_5-0_6_140_1
 70
0
 62
7
  6
CONTINUOUS
370
-3
390
F
  0
LAYER
  5
271
100
AcDbSymbolTableRecord
100
AcDbLayerTableRecord
  2
VG_CAP-RND-9_0-12_0-4_0-10_0-0_
 70
0
 62
7
  6
CONTINUOUS
370
-3
390
F
  0
LAYER
  5
272
100
AcDbSymbolTableRecord
100
AcDbLayerTableRecord
  2
VG_CAP-RND-9_0-12_0-4_0-10_0-_1
 70
0
 62
7
  6
CONTINUOUS
370
-3
390
F
  0
LAYER
  5
273
100
AcDbSymbolTableRecord
100
AcDbLayerTableRecord
  2
VG_CN-SMT-USB-TYPE_C-24P-H9_3-T
 70
0
 62
7
  6
CONTINUOUS
370
-3
390
F
  0
LAYER
  5
274
100
AcDbSymbolTableRecord
100
AcDbLayerTableRecord
  2
VG_DB_SOPA-4_150000
 70
0
 62
7
  6
CONTINUOUS
370
-3
390
F
  0
LAYER
  5
275
100
AcDbSymbolTableRecord
100
AcDbLayerTableRecord
  2
VG_FUSE-RAD-8_5-4_3-7_85-5_08-0
 70
0
 62
7
  6
CONTINUOUS
370
-3
390
F
  0
LAYER
  5
276
100
AcDbSymbolTableRecord
100
AcDbLayerTableRecord
  2
VG_IND-RAD-7_0-12_0-2_5-0_6_120
 70
0
 62
7
  6
CONTINUOUS
370
-3
390
F
  0
LAYER
  5
277
100
AcDbSymbolTableRecord
100
AcDbLayerTableRecord
  2
VG_INSOP24D-9_4-13_43-1_6-0_75-
 70
0
 62
7
  6
CONTINUOUS
370
-3
390
F
  0
LAYER
  5
278
100
AcDbSymbolTableRecord
100
AcDbLayerTableRecord
  2
VG_PAD_SMD_REC_P1_0X2_5_1_14X2_
 70
0
 62
7
  6
CONTINUOUS
370
-3
390
F
  0
LAYER
  5
279
100
AcDbSymbolTableRecord
100
AcDbLayerTableRecord
  2
VG_PAD_SMD_REC_P2_0X2_5_2_14X2_
 70
0
 62
7
  6
CONTINUOUS
370
-3
390
F
  0
LAYER
  5
27A
100
AcDbSymbolTableRecord
100
AcDbLayerTableRecord
  2
VG_PAD_SMD_REC_P2_0X2_5_2_14X_1
 70
0
 62
7
  6
CONTINUOUS
370
-3
390
F
  0
LAYER
  5
27B
100
AcDbSymbolTableRecord
100
AcDbLayerTableRecord
  2
VG_PAD_SMD_REC_P2_0X2_5_2_14X_2
 70
0
 62
7
  6
CONTINUOUS
370
-3
390
F
  0
LAYER
  5
27C
100
AcDbSymbolTableRecord
100
AcDbLayerTableRecord
  2
VG_PAD_SMD_REC_P2_0X2_5_2_14X_3
 70
0
 62
7
  6
CONTINUOUS
370
-3
390
F
  0
LAYER
  5
27D
100
AcDbSymbolTableRecord
100
AcDbLayerTableRecord
  2
VG_POWER56_110000
 70
0
 62
7
  6
CONTINUOUS
370
-3
390
F
  0
LAYER
  5
27E
100
AcDbSymbolTableRecord
100
AcDbLayerTableRecord
  2
VG_TRA_RM7_30W_4_1350000
 70
0
 62
7
  6
CONTINUOUS
370
-3
390
F
  0
LAYER
  5
27F
100
AcDbSymbolTableRecord
100
AcDbLayerTableRecord
  2
VG_WDFN8-5-0_8_80000
 70
0
 62
7
  6
CONTINUOUS
370
-3
390
F
  0
LAYER
  5
280
100
AcDbSymbolTableRecord
100
AcDbLayerTableRecord
  2
WHITE
 70
0
 62
7
  6
CONTINUOUS
370
-3
390
F
  0
LAYER
  5
281
100
AcDbSymbolTableRecord
100
AcDbLayerTableRecord
  2
___SHELL
 70
0
 62
7
  6
CONTINUOUS
370
-3
390
F
  0
ENDTAB
  0
TABLE
  2
STYLE
  5
3
100
AcDbSymbolTable
 70
1
  0
STYLE
  5
11
100
AcDbSymbolTableRecord
100
AcDbTextStyleTableRecord
  2
STANDARD
 70
0
 40
0.0
 41
0.8
 50
0.0
 71
0
 42
0.2
  3
txt
  4

  0
STYLE
  5
282
100
AcDbSymbolTableRecord
100
AcDbTextStyleTableRecord
  2
TEXTSTYLE_1
 70
0
 40
0.0
 41
0.8
 50
0.0
 71
0
 42
0.2
  3
gdt
  4

  0
ENDTAB
  0
TABLE
  2
VIEW
  5
6
100
AcDbSymbolTable
 70
0
  0
ENDTAB
  0
TABLE
  2
UCS
  5
7
100
AcDbSymbolTable
 70
0
  0
ENDTAB
  0
TABLE
  2
APPID
  5
9
100
AcDbSymbolTable
 70
1
  0
APPID
  5
283
100
AcDbSymbolTableRecord
100
AcDbRegAppTableRecord
  2
ACAD
 70
0
  0
ENDTAB
  0
TABLE
  2
BLOCK_RECORD
  5
1
100
AcDbSymbolTable
 70
0
  0
BLOCK_RECORD
  5
284
100
AcDbSymbolTableRecord
100
AcDbBlockTableRecord
  2
*Model_Space
  0
BLOCK_RECORD
  5
285
100
AcDbSymbolTableRecord
100
AcDbBlockTableRecord
  2
*Paper_Space
  0
BLOCK_RECORD
  5
286
100
AcDbSymbolTableRecord
100
AcDbBlockTableRecord
  2
_FILLED
  0
ENDTAB
  0
TABLE
  2
DIMSTYLE
  5
A
100
AcDbSymbolTable
 70
1
100
AcDbDimStyleTable
 71
0
  0
DIMSTYLE
105
287
100
AcDbSymbolTableRecord
100
AcDbDimStyleTableRecord
  2
STANDARD
 70
0
  3

  4

 40
1.0
 41
3.0
 42
0.5
 43
0.38
 44
1.5
 45
0.0
 46
0.0
 47
0.01
 48
0.01
140
3.0
141
0.09
142
0.0
143
25.4
144
1.0
145
0.0
146
1.0
147
0.625
 71
1
 72
0
 73
0
 74
0
 75
0
 76
0
 77
1
 78
8
 79
2
170
0
171
1
172
0
173
0
174
0
175
0
176
0
177
0
178
0
270
2
179
2
271
2
272
2
273
2
274
2
275
0
280
0
281
0
282
0
283
1
284
8
285
0
286
0
287
3
288
0
340
11
278
44
341
286
342
286
343
286
344
286
  0
ENDTAB
  0
ENDSEC
  0
SECTION
  2
BLOCKS
  0
BLOCK
  5
20
100
AcDbEntity
  8
0
100
AcDbBlockBegin
  2
*Model_Space
 70
0
 10
0.0
 20
0.0
 30
0.0
  3
*Model_Space
  1

  0
ENDBLK
  5
21
100
AcDbEntity
  8
0
100
AcDbBlockEnd
  0
BLOCK
  5
1C
100
AcDbEntity
  8
0
100
AcDbBlockBegin
  2
*Paper_Space
 70
0
 10
0.0
 20
0.0
 30
0.0
  3
*Paper_Space
  1

  0
ENDBLK
  5
1D
100
AcDbEntity
  8
0
100
AcDbBlockEnd
  0
BLOCK
  5
288
100
AcDbEntity
  8
0
100
AcDbBlockBegin
  2
_FILLED
 70
64
 10
0.0
 20
0.0
  3
_FILLED
  1

  0
SOLID
  5
289
100
AcDbEntity
  8
0
  6
BYBLOCK
 62
0
100
AcDbTrace
 10
0.0
 20
0.0
 11
-1.0
 21
0.3166666667
 12
-1.0
 22
-0.3166666667
 13
-1.0
 23
-0.3166666667
  0
ENDBLK
  5
28A
100
AcDbEntity
  8
0
  6
BYBLOCK
 62
0
100
AcDbBlockEnd
  0
ENDSEC
  0
SECTION
  2
ENTITIES
  0
LWPOLYLINE
  5
28B
100
AcDbEntity
  8
ASSI
100
AcDbPolyline
 62
7
  6
CONTINUOUS
 90
13
 70
0
 10
-83.9361750215
 20
-47.597216379
 10
-83.8839675999
 20
-47.621561558
 10
-83.8299877538
 20
-47.6413393584
 10
-83.77403669
 20
-47.6566036233
 10
-83.7164615301
 20
-47.6671921746
 10
-83.657659847
 20
-47.6729843552
 10
-83.597400509
 20
-47.6738924448
 10
-83.5359454152
 20
-47.6697224142
 10
-83.4737215071
 20
-47.6603287229
 10
-83.4106184655
 20
-47.6455038099
 10
-83.3467524148
 20
-47.6249979255
 10
-83.2825645201
 20
-47.5986468114
 10
-83.2542376918
 20
-47.5851303098
  0
LWPOLYLINE
  5
28C
100
AcDbEntity
  8
0
100
AcDbPolyline
 62
7
  6
CONTINUOUS
 90
11
 70
0
 10
-83.9632339652
 20
-47.5823641874
 10
-83.9030329943
 20
-47.6132967963
 10
-83.8348929663
 20
-47.6397539431
 10
-83.7642845318
 20
-47.6587519504
 10
-83.690772296
 20
-47.6703311951
 10
-83.6149522499
 20
-47.6741432294
 10
-83.53769419
 20
-47.6699114188
 10
-83.4586723869
 20
-47.6572787593
 10
-83.3781062525
 20
-47.6357637986
 10
-83.2969661081
 20
-47.6050702074
 10
-83.2544275849
 20
-47.5852244175
  0
LWPOLYLINE
  5
28D
100
AcDbEntity
  8
ASSI
100
AcDbPolyline
 62
250
  6
CONTINUOUS
 90
10
 70
0
 10
-98.8161049929
 20
-39.0065147768
 10
-98.8573611036
 20
-38.97831213
 10
-98.8924525159
 20
-38.9459586074
 10
-98.923711935
 20
-38.9081666905
 10
-98.9509321537
 20
-38.8651734773
 10
-98.9739146961
 20
-38.8172756282
 10
-98.9924967151
 20
-38.7648148896
 10
-99.0065541566
 20
-38.7081553393
 10
-99.0159959419
 20
-38.6476738112
 10
-99.0207606048
 20
-38.5837791259
  0
LWPOLYLINE
  5
28E
100
AcDbEntity
  8
0
100
AcDbPolyline
 62
250
  6
CONTINUOUS
 90
10
 70
0
 10
-98.8161049929
 20
-39.0065147768
 10
-98.8573611036
 20
-38.97831213
 10
-98.8924525159
 20
-38.9459586074
 10
-98.923711935
 20
-38.9081666905
 10
-98.9509321537
 20
-38.8651734773
 10
-98.9739146961
 20
-38.8172756282
 10
-98.9924967151
 20
-38.7648148896
 10
-99.0065541566
 20
-38.7081553393
 10
-99.0159959419
 20
-38.6476738112
 10
-99.0207606048
 20
-38.5837791259
  0
LWPOLYLINE
  5
28F
100
AcDbEntity
  8
ASSI
100
AcDbPolyline
 62
250
  6
CONTINUOUS
 90
16
 70
0
 10
-84.1707614997
 20
-47.1579824859
 10
-84.1323226292
 20
-47.1778697385
 10
-84.0905108066
 20
-47.195174739
 10
-84.0457740254
 20
-47.2097120724
 10
-83.9985916188
 20
-47.2213259783
 10
-83.9494691235
 20
-47.2298920192
 10
-83.8989328635
 20
-47.2353184143
 10
-83.8475243105
 20
-47.2375470226
 10
-83.7957942825
 20
-47.2365539654
 10
-83.7442970418
 20
-47.2323498828
 10
-83.6935843566
 20
-47.2249798197
 10
-83.6441995889
 20
-47.2145227428
 10
-83.5966718728
 20
-47.2010906944
 10
-83.551510445
 20
-47.1848275927
 10
-83.5091991884
 20
-47.165907689
 10
-83.4701914477
 20
-47.1445337008
  0
LWPOLYLINE
  5
290
100
AcDbEntity
  8
0
100
AcDbPolyline
 62
250
  6
CONTINUOUS
 90
16
 70
0
 10
-84.1707614997
 20
-47.1579824859
 10
-84.1323226292
 20
-47.1778697385
 10
-84.0905108066
 20
-47.195174739
 10
-84.0457740254
 20
-47.2097120724
 10
-83.9985916188
 20
-47.2213259783
 10
-83.9494691235
 20
-47.2298920192
 10
-83.8989328635
 20
-47.2353184143
 10
-83.8475243105
 20
-47.2375470226
 10
-83.7957942825
 20
-47.2365539654
 10
-83.7442970418
 20
-47.2323498828
 10
-83.6935843566
 20
-47.2249798197
 10
-83.6441995889
 20
-47.2145227428
 10
-83.5966718728
 20
-47.2010906944
 10
-83.551510445
 20
-47.1848275927
 10
-83.5091991884
 20
-47.165907689
 10
-83.4701914477
 20
-47.1445337008
  0
LINE
  5
291
100
AcDbEntity
  8
ASSI
100
AcDbLine
 62
7
  6
CONTINUOUS
 10
-83.9627026737
 20
-47.5826720622
 11
-83.9361750215
 21
-47.597216379
  0
LINE
  5
292
100
AcDbEntity
  8
ASSI
100
AcDbLine
 62
7
  6
CONTINUOUS
 10
-83.9625019564
 20
-47.5827990107
 11
-98.8161054461
 21
-39.0065145151
  0
LINE
  5
293
100
AcDbEntity
  8
0
100
AcDbLine
 62
7
  6
CONTINUOUS
 10
-83.9625019564
 20
-47.5827990107
 11
-98.8161054461
 21
-39.0065145151
  0
LINE
  5
294
100
AcDbEntity
  8
ASSI
100
AcDbLine
 62
250
  6
CONTINUOUS
 10
-84.1707615072
 20
-47.1579824906
 11
-99.0207606048
 21
-38.5837791259
  0
LINE
  5
295
100
AcDbEntity
  8
0
100
AcDbLine
 62
250
  6
CONTINUOUS
 10
-84.1707615072
 20
-47.1579824906
 11
-99.0207606048
 21
-38.5837791259
  0
LINE
  5
296
100
AcDbEntity
  8
CURVE
100
AcDbLine
 62
250
  6
CONTINUOUS
 10
-91.9875306329
 20
-41.2198407536
 11
-91.3511345298
 21
-41.5872878876
  0
LINE
  5
297
100
AcDbEntity
  8
CURVE
100
AcDbLine
 62
250
  6
CONTINUOUS
 10
-88.28027091
 20
-43.3603660548
 11
-86.0613698311
 21
-44.6415317284
  0
LINE
  5
298
100
AcDbEntity
  8
CURVE
100
AcDbLine
 62
250
  6
CONTINUOUS
 10
-90.6238247411
 20
-42.0072274443
 11
-90.9874796354
 21
-41.797257666
  0
LINE
  5
299
100
AcDbEntity
  8
CURVE
100
AcDbLine
 62
250
  6
CONTINUOUS
 10
-86.5034749978
 20
-43.899273717
 11
-87.8674791139
 21
-43.1117148354
  0
LINE
  5
29A
100
AcDbEntity
  8
CURVE
100
AcDbLine
 62
250
  6
CONTINUOUS
 10
-91.0146792589
 20
-40.9731643511
 11
-90.6510243646
 21
-41.1831341295
  0
LWPOLYLINE
  5
29B
100
AcDbEntity
  8
ASSI
100
AcDbPolyline
 62
250
  6
CONTINUOUS
 90
10
 70
0
 10
-83.9627038928
 20
-47.5826823227
 10
-84.0044674619
 20
-47.5541899714
 10
-84.0401946277
 20
-47.5214658729
 10
-84.0720106786
 20
-47.4833468782
 10
-84.0997037412
 20
-47.440083306
 10
-84.1230858724
 20
-47.3919661296
 10
-84.1419929771
 20
-47.3393281565
 10
-84.1562977985
 20
-47.2825276086
 10
-84.1659083681
 20
-47.2219431568
 10
-84.1707615072
 20
-47.1579824906
  0
LWPOLYLINE
  5
29C
100
AcDbEntity
  8
0
100
AcDbPolyline
 62
250
  6
CONTINUOUS
 90
10
 70
0
 10
-83.9632337437
 20
-47.5823752691
 10
-84.0044674619
 20
-47.5541899714
 10
-84.0401946277
 20
-47.5214658729
 10
-84.0720106786
 20
-47.4833468782
 10
-84.0997037412
 20
-47.440083306
 10
-84.1230858724
 20
-47.3919661296
 10
-84.1419929771
 20
-47.3393281565
 10
-84.1562977985
 20
-47.2825276086
 10
-84.1659083681
 20
-47.2219431568
 10
-84.1707615072
 20
-47.1579824906
  0
LINE
  5
29D
100
AcDbEntity
  8
CURVE
100
AcDbLine
 62
250
  6
CONTINUOUS
 10
-87.8905547266
 20
-42.3907187825
 11
-86.5265506105
 21
-43.1782776642
  0
LINE
  5
29E
100
AcDbEntity
  8
CURVE
100
AcDbLine
 62
250
  6
CONTINUOUS
 10
-91.8523186697
 20
-39.8820943627
 11
-91.57957748
 21
-40.0395717074
  0
LINE
  5
29F
100
AcDbEntity
  8
CURVE
100
AcDbLine
 62
250
  6
CONTINUOUS
 10
-90.488612721
 20
-40.6694810863
 11
-91.0340951384
 21
-40.3545263749
  0
LWPOLYLINE
  5
2A0
100
AcDbEntity
  8
ASSI
100
AcDbPolyline
 62
250
  6
CONTINUOUS
 90
8
 70
0
 10
-99.166378237
 20
-38.3926327512
 10
-99.1605584882
 20
-38.4234470466
 10
-99.1494560661
 20
-38.4536100534
 10
-99.1331899277
 20
-38.4827985896
 10
-99.111934357
 20
-38.5106999138
 10
-99.0859170971
 20
-38.5370150768
 10
-99.0554169105
 20
-38.5614621242
 10
-99.020760592
 20
-38.5837791178
  0
LWPOLYLINE
  5
2A1
100
AcDbEntity
  8
0
100
AcDbPolyline
 62
250
  6
CONTINUOUS
 90
8
 70
0
 10
-99.166378237
 20
-38.3926327512
 10
-99.1605584882
 20
-38.4234470466
 10
-99.1494560661
 20
-38.4536100534
 10
-99.1331899277
 20
-38.4827985896
 10
-99.111934357
 20
-38.5106999138
 10
-99.0859170971
 20
-38.5370150768
 10
-99.0554169105
 20
-38.5614621242
 10
-99.020760592
 20
-38.5837791178
  0
LWPOLYLINE
  5
2A2
100
AcDbEntity
  8
0
100
AcDbPolyline
 62
7
  6
CONTINUOUS
 90
11
 70
0
 10
-99.1671825191
 20
-38.3809258933
 10
-99.1603769862
 20
-38.4641316504
 10
-99.1459542788
 20
-38.5453585369
 10
-99.1245183834
 20
-38.6217269279
 10
-99.0967473605
 20
-38.6925886774
 10
-99.0631555642
 20
-38.7580448738
 10
-99.023862139
 20
-38.8185796979
 10
-98.9794697423
 20
-38.8736478907
 10
-98.9305240021
 20
-38.9229518197
 10
-98.8767812608
 20
-38.9668841108
 10
-98.8152764168
 20
-39.0069817522
  0
LWPOLYLINE
  5
2A3
100
AcDbEntity
  8
ASSI
100
AcDbPolyline
 62
7
  6
CONTINUOUS
 90
12
 70
0
 10
-99.167182628
 20
-38.380922911
 10
-99.1604647405
 20
-38.4634477696
 10
-99.1462823532
 20
-38.5439169268
 10
-99.1252190454
 20
-38.6196286617
 10
-99.097928682
 20
-38.6899581839
 10
-99.0649090705
 20
-38.7549994555
 10
-99.0262849366
 20
-38.815215701
 10
-98.9826426446
 20
-38.8700789084
 10
-98.9345111875
 20
-38.9193012674
 10
-98.8816667835
 20
-38.9632639518
 10
-98.8243356875
 20
-39.0016712329
 10
-98.8152547497
 20
-39.0069941881
  0
LINE
  5
2A4
100
AcDbEntity
  8
ASSI
100
AcDbLine
 62
250
  6
CONTINUOUS
 10
-99.1671854324
 20
-38.3809418579
 11
-99.166378237
 21
-38.3926327512
  0
LINE
  5
2A5
100
AcDbEntity
  8
0
100
AcDbLine
 62
250
  6
CONTINUOUS
 10
-99.1671854323
 20
-38.3809418595
 11
-99.166378237
 21
-38.3926327512
  0
LWPOLYLINE
  5
2A6
100
AcDbEntity
  8
ASSI
100
AcDbPolyline
 62
250
  6
CONTINUOUS
 90
9
 70
0
 10
-99.1672215962
 20
-4.0580659757
 10
-99.1663746825
 20
-4.0800005639
 10
-99.1605546955
 20
-4.1085513952
 10
-99.1494520935
 20
-4.1367462156
 10
-99.1331858349
 20
-4.1642829336
 10
-99.1119302033
 20
-4.1908665088
 10
-99.0859129408
 20
-4.2162121134
 10
-99.0554128077
 20
-4.2400481834
 10
-99.0207565959
 20
-4.2621193289
  0
LWPOLYLINE
  5
2A7
100
AcDbEntity
  8
0
100
AcDbPolyline
 62
250
  6
CONTINUOUS
 90
9
 70
0
 10
-99.1672219945
 20
-4.0580779256
 10
-99.1663746825
 20
-4.0800005639
 10
-99.1605546955
 20
-4.1085513952
 10
-99.1494520935
 20
-4.1367462156
 10
-99.1331858349
 20
-4.1642829336
 10
-99.1119302033
 20
-4.1908665088
 10
-99.0859129408
 20
-4.2162121134
 10
-99.0554128077
 20
-4.2400481834
 10
-99.0207565959
 20
-4.2621193289
  0
LINE
  5
2A8
100
AcDbEntity
  8
0
100
AcDbLine
 62
7
  6
CONTINUOUS
 10
-99.2869906877
 20
-34.6938627432
 11
-99.1671854323
 21
-38.3809418595
  0
LWPOLYLINE
  5
2A9
100
AcDbEntity
  8
ASSI
100
AcDbPolyline
 62
250
  6
CONTINUOUS
 90
10
 70
0
 10
-99.0207606048
 20
-38.5837791259
 10
-99.1420599849
 20
-34.8443384297
 10
-99.2330439505
 20
-31.0856069919
 10
-99.2937044182
 20
-27.3079130844
 10
-99.3240359986
 20
-23.5115866475
 10
-99.3240359987
 20
-19.6969591418
 10
-99.2937044184
 20
-15.8643635172
 10
-99.2330439507
 20
-12.014134344
 10
-99.142059985
 20
-8.1466077861
 10
-99.0207606048
 20
-4.2621214502
  0
LWPOLYLINE
  5
2AA
100
AcDbEntity
  8
0
100
AcDbPolyline
 62
250
  6
CONTINUOUS
 90
10
 70
0
 10
-99.0207606048
 20
-38.5837791259
 10
-99.1420599849
 20
-34.8443384297
 10
-99.2330439505
 20
-31.0856069919
 10
-99.2937044182
 20
-27.3079130844
 10
-99.3240359986
 20
-23.5115866475
 10
-99.3240359987
 20
-19.6969591418
 10
-99.2937044184
 20
-15.8643635172
 10
-99.2330439507
 20
-12.014134344
 10
-99.142059985
 20
-8.1466077861
 10
-99.0207606048
 20
-4.2621214502
  0
LWPOLYLINE
  5
2AB
100
AcDbEntity
  8
0
100
AcDbPolyline
 62
7
  6
CONTINUOUS
 90
8
 70
0
 10
-99.2871629338
 20
-7.8934606588
 10
-99.3788010503
 20
-11.7747928911
 10
-99.4399173961
 20
-15.6403812665
 10
-99.4704647766
 20
-19.4882084998
 10
-99.4704411325
 20
-23.3179559782
 10
-99.4398456786
 20
-27.1293301837
 10
-99.3786788367
 20
-30.9220145717
 10
-99.2869906877
 20
-34.6938627432
  0
LWPOLYLINE
  5
2AC
100
AcDbEntity
  8
ASSI
100
AcDbPolyline
 62
7
  6
CONTINUOUS
 90
10
 70
0
 10
-99.1672128485
 20
-4.0578102819
 10
-99.287215013
 20
-7.8951259996
 10
-99.3788461904
 20
-11.7770823249
 10
-99.4399327319
 20
-15.6416719001
 10
-99.4704659726
 20
-19.4885093429
 10
-99.4704438556
 20
-23.3172762902
 10
-99.4398655963
 20
-27.127679423
 10
-99.3787316146
 20
-30.9194024466
 10
-99.2870489425
 20
-34.6920699171
 10
-99.1671854324
 20
-38.3809418579
  0
LINE
  5
2AD
100
AcDbEntity
  8
0
100
AcDbLine
 62
7
  6
CONTINUOUS
 10
-99.1672128484
 20
-4.0578102806
 11
-99.2871629338
 21
-7.8934606588
  0
LWPOLYLINE
  5
2AE
100
AcDbEntity
  8
ASSI
100
AcDbPolyline
 62
250
  6
CONTINUOUS
 90
19
 70
0
 10
-99.0207606048
 20
-4.2621214502
 10
-99.015995942
 20
-4.1926246836
 10
-99.0065541566
 20
-4.1210484
 10
-98.9924967152
 20
-4.0478723998
 10
-98.9739146962
 20
-3.9735754053
 10
-98.9509321537
 20
-3.8986680357
 10
-98.923711935
 20
-3.8236899492
 10
-98.8924525158
 20
-3.749165667
 10
-98.8573611036
 20
-3.6755728991
 10
-98.8186554708
 20
-3.6033774478
 10
-98.776589636
 20
-3.533051707
 10
-98.7314530714
 20
-3.4650805915
 10
-98.6835470401
 20
-3.3999309294
 10
-98.6331962106
 20
-3.3380391702
 10
-98.5807416595
 20
-3.2798210768
 10
-98.5265355577
 20
-3.2256778752
 10
-98.4709448077
 20
-3.1759747025
 10
-98.4143478878
 20
-3.1310395393
 10
-98.3571288275
 20
-3.0911719141
  0
LWPOLYLINE
  5
2AF
100
AcDbEntity
  8
0
100
AcDbPolyline
 62
250
  6
CONTINUOUS
 90
19
 70
0
 10
-99.0207606048
 20
-4.2621214502
 10
-99.015995942
 20
-4.1926246836
 10
-99.0065541566
 20
-4.1210484
 10
-98.9924967152
 20
-4.0478723998
 10
-98.9739146962
 20
-3.9735754053
 10
-98.9509321537
 20
-3.8986680357
 10
-98.923711935
 20
-3.8236899492
 10
-98.8924525158
 20
-3.749165667
 10
-98.8573611036
 20
-3.6755728991
 10
-98.8186554708
 20
-3.6033774478
 10
-98.776589636
 20
-3.533051707
 10
-98.7314530714
 20
-3.4650805915
 10
-98.6835470401
 20
-3.3999309294
 10
-98.6331962106
 20
-3.3380391702
 10
-98.5807416595
 20
-3.2798210768
 10
-98.5265355577
 20
-3.2256778752
 10
-98.4709448077
 20
-3.1759747025
 10
-98.4143478878
 20
-3.1310395393
 10
-98.3571288275
 20
-3.0911719141
  0
LWPOLYLINE
  5
2B0
100
AcDbEntity
  8
ASSI
100
AcDbPolyline
 62
7
  6
CONTINUOUS
 90
16
 70
0
 10
-98.6137220225
 20
-3.0706637744
 10
-98.6521964144
 20
-3.0973011905
 10
-98.7169882017
 20
-3.1482877257
 10
-98.7779018291
 20
-3.2039363644
 10
-98.8351475953
 20
-3.2639939344
 10
-98.8886742527
 20
-3.3281415235
 10
-98.9381192508
 20
-3.395662667
 10
-98.9834101911
 20
-3.4662772114
 10
-99.0244410712
 20
-3.5397692062
 10
-99.0607905432
 20
-3.615348492
 10
-99.0923116233
 20
-3.6928178096
 10
-99.1188208726
 20
-3.7719737592
 10
-99.1399185495
 20
-3.8521185588
 10
-99.1553380576
 20
-3.9330217748
 10
-99.1647949363
 20
-4.0147417592
 10
-99.1672182921
 20
-4.0580660872
  0
LWPOLYLINE
  5
2B1
100
AcDbEntity
  8
0
100
AcDbPolyline
 62
7
  6
CONTINUOUS
 90
16
 70
0
 10
-98.6137129057
 20
-3.0706577804
 10
-98.6503991168
 20
-3.0959987035
 10
-98.7155388602
 20
-3.1470582048
 10
-98.7767777913
 20
-3.2028360842
 10
-98.8343295045
 20
-3.2630769576
 10
-98.8881398363
 20
-3.32745813
 10
-98.9378369167
 20
-3.3952510866
 10
-98.9833475714
 20
-3.4661726739
 10
-99.0245629771
 20
-3.5400041191
 10
-99.0610519321
 20
-3.6159380461
 10
-99.0926657823
 20
-3.6937740362
 10
-99.119218817
 20
-3.7733062655
 10
-99.1403042274
 20
-3.8538219975
 10
-99.155653635
 20
-3.9350867572
 10
-99.1649785172
 20
-4.017161008
 10
-99.1672186902
 20
-4.0580780371
  0
LINE
  5
2B2
100
AcDbEntity
  8
ASSI
100
AcDbLine
 62
7
  6
CONTINUOUS
 10
-98.6138982502
 20
-3.0707614306
 11
-92.9798333992
 21
0.6448513522
  0
LINE
  5
2B3
100
AcDbEntity
  8
0
100
AcDbLine
 62
7
  6
CONTINUOUS
 10
-98.6138982502
 20
-3.0707614306
 11
-92.9798333992
 21
0.6448513522
  0
LINE
  5
2B4
100
AcDbEntity
  8
ASSI
100
AcDbLine
 62
250
  6
CONTINUOUS
 10
-98.3571288275
 20
-3.0911719141
 11
-92.7217193329
 21
0.6253276486
  0
LINE
  5
2B5
100
AcDbEntity
  8
0
100
AcDbLine
 62
250
  6
CONTINUOUS
 10
-98.3571288275
 20
-3.0911719141
 11
-92.7217193329
 21
0.6253276486
  0
LWPOLYLINE
  5
2B6
100
AcDbEntity
  8
ASSI
100
AcDbPolyline
 62
250
  6
CONTINUOUS
 90
9
 70
0
 10
-98.6137304678
 20
-3.0706509359
 10
-98.5929223538
 20
-3.059144341
 10
-98.564891434
 20
-3.0493011379
 10
-98.5343843744
 20
-3.0442606216
 10
-98.5017350284
 20
-3.0440779528
 10
-98.4673006933
 20
-3.0487551304
 10
-98.4314582007
 20
-3.0582409698
 10
-98.3945997923
 20
-3.0724316629
 10
-98.3571288275
 20
-3.0911719141
  0
LWPOLYLINE
  5
2B7
100
AcDbEntity
  8
0
100
AcDbPolyline
 62
250
  6
CONTINUOUS
 90
9
 70
0
 10
-98.6137213512
 20
-3.070644941
 10
-98.5929223538
 20
-3.059144341
 10
-98.564891434
 20
-3.0493011379
 10
-98.5343843744
 20
-3.0442606216
 10
-98.5017350284
 20
-3.0440779528
 10
-98.4673006933
 20
-3.0487551304
 10
-98.4314582007
 20
-3.0582409698
 10
-98.3945997923
 20
-3.0724316629
 10
-98.3571288275
 20
-3.0911719141
  0
LINE
  5
2B8
100
AcDbEntity
  8
CURVE
100
AcDbLine
 62
250
  6
CONTINUOUS
 10
-86.1877510306
 20
-40.2928318031
 11
-88.4066521092
 21
-39.0116661296
  0
LINE
  5
2B9
100
AcDbEntity
  8
CURVE
100
AcDbLine
 62
250
  6
CONTINUOUS
 10
-87.6663083753
 20
-39.0303252188
 11
-86.9477918712
 21
-39.4451876432
  0
LINE
  5
2BA
100
AcDbEntity
  8
0
100
AcDbLine
 62
250
  6
CONTINUOUS
 10
-88.8222395305
 20
-1.5849155496
 11
-88.8048925763
 21
-1.5728354
  0
LWPOLYLINE
  5
2BB
100
AcDbEntity
  8
0
100
AcDbPolyline
 62
250
  6
CONTINUOUS
 90
13
 70
0
 10
-88.6165768203
 20
-1.5379930344
 10
-88.6343751221
 20
-1.5502028956
 10
-88.6505471113
 20
-1.5653073539
 10
-88.6648160808
 20
-1.583047968
 10
-88.6769378846
 20
-1.6031211908
 10
-88.6867051151
 20
-1.6251835641
 10
-88.6939506524
 20
-1.6488575945
 10
-88.6985505233
 20
-1.6737382127
 10
-88.7004260228
 20
-1.6993997046
 10
-88.6995450605
 20
-1.7254029948
 10
-88.69592271
 20
-1.7513031599
 10
-88.6896209506
 20
-1.7766570408
 10
-88.6807476072
 20
-1.8010308257
  0
LINE
  5
2BC
100
AcDbEntity
  8
0
100
AcDbLine
 62
7
  6
CONTINUOUS
 10
-88.8263017265
 20
-1.5807671077
 11
-88.2606163016
 21
-1.2541474331
  0
LINE
  5
2BD
100
AcDbEntity
  8
0
100
AcDbLine
 62
250
  6
CONTINUOUS
 10
-88.8048925763
 20
-1.5728354
 11
-88.2392031295
 21
-1.2462149431
  0
LINE
  5
2BE
100
AcDbEntity
  8
0
100
AcDbLine
 62
250
  6
CONTINUOUS
 10
-88.8263017265
 20
-1.5807671077
 11
-88.8259889316
 21
-1.5805876302
  0
LINE
  5
2BF
100
AcDbEntity
  8
0
100
AcDbLine
 62
250
  6
CONTINUOUS
 10
-88.0356259312
 20
-1.2087041907
 11
-88.616576828
 21
-1.5379930357
  0
LINE
  5
2C0
100
AcDbEntity
  8
0
100
AcDbLine
 62
250
  6
CONTINUOUS
 10
-87.9584182051
 20
-1.2268254199
 11
-88.541794405
 21
-1.5575317906
  0
LINE
  5
2C1
100
AcDbEntity
  8
0
100
AcDbLine
 62
7
  6
CONTINUOUS
 10
-85.5089610486
 20
0.2984079286
 11
-88.3419325142
 21
-1.2667342096
  0
LINE
  5
2C2
100
AcDbEntity
  8
0
100
AcDbLine
 62
250
  6
CONTINUOUS
 10
-85.3372239201
 20
0.3325107999
 11
-88.1800870781
 21
-1.2348934774
  0
LINE
  5
2C3
100
AcDbEntity
  8
0
100
AcDbLine
 62
250
  6
CONTINUOUS
 10
-84.94595631
 20
0.2430074167
 11
-87.7892796313
 21
-1.3244839127
  0
LINE
  5
2C4
100
AcDbEntity
  8
0
100
AcDbLine
 62
7
  6
CONTINUOUS
 10
-84.2956396253
 20
1.3945046563
 11
-87.2653575947
 21
-0.2386748203
  0
LINE
  5
2C5
100
AcDbEntity
  8
0
100
AcDbLine
 62
7
  6
CONTINUOUS
 10
-64.5114455475
 20
12.323541969
 11
-84.3497762293
 21
1.4258387624
  0
LINE
  5
2C6
100
AcDbEntity
  8
0
100
AcDbLine
 62
7
  6
CONTINUOUS
 10
-84.3507539637
 20
1.4276189586
 11
-89.3529750373
 21
-1.3197430874
  0
LINE
  5
2C7
100
AcDbEntity
  8
0
100
AcDbLine
 62
7
  6
CONTINUOUS
 10
-85.9828776076
 20
0.1882808892
 11
-88.8629540548
 21
-1.3878073366
  0
LWPOLYLINE
  5
2C8
100
AcDbEntity
  8
0
100
AcDbPolyline
 62
250
  6
CONTINUOUS
 90
3
 70
0
 10
-88.8259889316
 20
-1.5805876302
 10
-88.8172744219
 20
-1.5764210004
 10
-88.8048925763
 20
-1.5728354
  0
LWPOLYLINE
  5
2C9
100
AcDbEntity
  8
0
100
AcDbPolyline
 62
7
  6
CONTINUOUS
 90
3
 70
0
 10
-88.2604201943
 20
-1.2540346465
 10
-88.2517346166
 20
-1.2499329227
 10
-88.2392071513
 20
-1.2462157253
  0
LWPOLYLINE
  5
2CA
100
AcDbEntity
  8
ASSI
100
AcDbPolyline
 62
250
  6
CONTINUOUS
 90
22
 70
0
 10
-93.5245412613
 20
-27.6849271901
 10
-93.5198080098
 20
-27.8031815875
 10
-93.5077142255
 20
-27.9235800672
 10
-93.4882614262
 20
-28.046123509
 10
-93.4612611806
 20
-28.1714956667
 10
-93.4269046069
 20
-28.2990143448
 10
-93.3857636993
 20
-28.426632177
 10
-93.3376886574
 20
-28.5544534154
 10
-93.2828342759
 20
-28.6823767267
 10
-93.2222315919
 20
-28.8080476301
 10
-93.1552096055
 20
-28.9320205778
 10
-93.0824455818
 20
-29.0537447921
 10
-93.0069949089
 20
-29.1692090993
 10
-92.9298854923
 20
-29.2767658895
 10
-92.8500965609
 20
-29.3780669671
 10
-92.7676107216
 20
-29.4740504195
 10
-92.6827479593
 20
-29.5649918632
 10
-92.595192227
 20
-29.6506179997
 10
-92.5039713935
 20
-29.7310431383
 10
-92.4087622194
 20
-29.8063058559
 10
-92.3098902433
 20
-29.8763689301
 10
-92.2073560817
 20
-29.9412327244
  0
LWPOLYLINE
  5
2CB
100
AcDbEntity
  8
0
100
AcDbPolyline
 62
250
  6
CONTINUOUS
 90
22
 70
0
 10
-93.5245412613
 20
-27.6849271901
 10
-93.5198080098
 20
-27.8031815875
 10
-93.5077142255
 20
-27.9235800672
 10
-93.4882614262
 20
-28.046123509
 10
-93.4612611806
 20
-28.1714956667
 10
-93.4269046069
 20
-28.2990143448
 10
-93.3857636993
 20
-28.426632177
 10
-93.3376886574
 20
-28.5544534154
 10
-93.2828342759
 20
-28.6823767267
 10
-93.2222315919
 20
-28.8080476301
 10
-93.1552096055
 20
-28.9320205778
 10
-93.0824455818
 20
-29.0537447921
 10
-93.0069949089
 20
-29.1692090993
 10
-92.9298854923
 20
-29.2767658895
 10
-92.8500965609
 20
-29.3780669671
 10
-92.7676107216
 20
-29.4740504195
 10
-92.6827479593
 20
-29.5649918632
 10
-92.595192227
 20
-29.6506179997
 10
-92.5039713935
 20
-29.7310431383
 10
-92.4087622194
 20
-29.8063058559
 10
-92.3098902433
 20
-29.8763689301
 10
-92.2073560817
 20
-29.9412327244
  0
LWPOLYLINE
  5
2CC
100
AcDbEntity
  8
ASSI
100
AcDbPolyline
 62
250
  6
CONTINUOUS
 90
22
 70
0
 10
-93.1040165061
 20
-27.6854068226
 10
-93.1001180581
 20
-27.783318827
 10
-93.0898482821
 20
-27.884241403
 10
-93.0732806266
 20
-27.9875758954
 10
-93.0505293508
 20
-28.0926638975
 10
-93.0217400523
 20
-28.1989353379
 10
-92.9870632563
 20
-28.3059163813
 10
-92.9466525986
 20
-28.4130747746
 10
-92.9007605435
 20
-28.5196952491
 10
-92.8497333132
 20
-28.62503446
 10
-92.7935240243
 20
-28.7291081416
 10
-92.732764498
 20
-28.8306624842
 10
-92.6691383898
 20
-28.9272332626
 10
-92.6041617679
 20
-29.0172641107
 10
-92.5375680222
 20
-29.1018052846
 10
-92.4684014625
 20
-29.1823401543
 10
-92.3971063252
 20
-29.2583755146
 10
-92.3239552021
 20
-29.3296558958
 10
-92.2474320344
 20
-29.3974481208
 10
-92.1671920198
 20
-29.4614936802
 10
-92.0842163859
 20
-29.5204271353
 10
-91.9989377318
 20
-29.5734435035
  0
LWPOLYLINE
  5
2CD
100
AcDbEntity
  8
0
100
AcDbPolyline
 62
250
  6
CONTINUOUS
 90
22
 70
0
 10
-93.1040165061
 20
-27.6854068226
 10
-93.1001180581
 20
-27.783318827
 10
-93.0898482821
 20
-27.884241403
 10
-93.0732806266
 20
-27.9875758954
 10
-93.0505293508
 20
-28.0926638975
 10
-93.0217400523
 20
-28.1989353379
 10
-92.9870632563
 20
-28.3059163813
 10
-92.9466525986
 20
-28.4130747746
 10
-92.9007605435
 20
-28.5196952491
 10
-92.8497333132
 20
-28.62503446
 10
-92.7935240243
 20
-28.7291081416
 10
-92.732764498
 20
-28.8306624842
 10
-92.6691383898
 20
-28.9272332626
 10
-92.6041617679
 20
-29.0172641107
 10
-92.5375680222
 20
-29.1018052846
 10
-92.4684014625
 20
-29.1823401543
 10
-92.3971063252
 20
-29.2583755146
 10
-92.3239552021
 20
-29.3296558958
 10
-92.2474320344
 20
-29.3974481208
 10
-92.1671920198
 20
-29.4614936802
 10
-92.0842163859
 20
-29.5204271353
 10
-91.9989377318
 20
-29.5734435035
  0
LINE
  5
2CE
100
AcDbEntity
  8
ASSI
100
AcDbLine
 62
250
  6
CONTINUOUS
 10
-93.5317268084
 20
-25.8643866453
 11
-93.5245412613
 21
-27.6849271901
  0
LINE
  5
2CF
100
AcDbEntity
  8
0
100
AcDbLine
 62
250
  6
CONTINUOUS
 10
-93.5317268084
 20
-25.8643866453
 11
-93.5245412613
 21
-27.6849271901
  0
LINE
  5
2D0
100
AcDbEntity
  8
ASSI
100
AcDbLine
 62
250
  6
CONTINUOUS
 10
-93.1111977926
 20
-25.8659585465
 11
-93.1040164829
 21
-27.6854068097
  0
LINE
  5
2D1
100
AcDbEntity
  8
0
100
AcDbLine
 62
250
  6
CONTINUOUS
 10
-93.1111977926
 20
-25.8659585465
 11
-93.1040164829
 21
-27.6854068097
  0
LINE
  5
2D2
100
AcDbEntity
  8
ASSI
100
AcDbLine
 62
250
  6
CONTINUOUS
 10
-93.1119957033
 20
-24.6507665349
 11
-93.1111977926
 21
-25.8659585465
  0
LINE
  5
2D3
100
AcDbEntity
  8
0
100
AcDbLine
 62
250
  6
CONTINUOUS
 10
-93.1119957033
 20
-24.6507665349
 11
-93.1111977926
 21
-25.8659585465
  0
LINE
  5
2D4
100
AcDbEntity
  8
ASSI
100
AcDbLine
 62
250
  6
CONTINUOUS
 10
-93.5317267921
 20
-24.0398375715
 11
-93.5317268084
 21
-25.8643866453
  0
LINE
  5
2D5
100
AcDbEntity
  8
0
100
AcDbLine
 62
250
  6
CONTINUOUS
 10
-93.5317267921
 20
-24.0398375715
 11
-93.5317268084
 21
-25.8643866453
  0
LINE
  5
2D6
100
AcDbEntity
  8
ASSI
100
AcDbLine
 62
250
  6
CONTINUOUS
 10
-93.5245412613
 20
-22.2112921546
 11
-93.5317267921
 21
-24.0398375715
  0
LINE
  5
2D7
100
AcDbEntity
  8
0
100
AcDbLine
 62
250
  6
CONTINUOUS
 10
-93.5245412613
 20
-22.2112921546
 11
-93.5317267921
 21
-24.0398375715
  0
LINE
  5
2D8
100
AcDbEntity
  8
0
100
AcDbLine
 62
7
  6
CONTINUOUS
 10
-84.7664989199
 20
0.1393909687
 11
-86.2255037113
 21
-0.7030230047
  0
LINE
  5
2D9
100
AcDbEntity
  8
ASSI
100
AcDbLine
 62
7
  6
CONTINUOUS
 10
-84.9082676258
 20
-1.0486292541
 11
-85.2689288482
 21
-1.2486632787
  0
LINE
  5
2DA
100
AcDbEntity
  8
0
100
AcDbLine
 62
7
  6
CONTINUOUS
 10
-84.9082676258
 20
-1.0486292541
 11
-85.2689288482
 21
-1.2486632787
  0
LINE
  5
2DB
100
AcDbEntity
  8
ASSI
100
AcDbLine
 62
7
  6
CONTINUOUS
 10
-85.4700305236
 20
-0.7242508705
 11
-85.8452022087
 21
-0.922604326
  0
LINE
  5
2DC
100
AcDbEntity
  8
0
100
AcDbLine
 62
7
  6
CONTINUOUS
 10
-85.4700305236
 20
-0.7242508705
 11
-85.8452022087
 21
-0.922604326
  0
LINE
  5
2DD
100
AcDbEntity
  8
0
100
AcDbLine
 62
7
  6
CONTINUOUS
 10
-84.7664989199
 20
-0.759093756
 11
-85.1103699752
 21
-0.9319294263
  0
LINE
  5
2DE
100
AcDbEntity
  8
0
100
AcDbLine
 62
7
  6
CONTINUOUS
 10
-82.9615905559
 20
-0.1519769037
 11
-83.4229960356
 21
-0.334257253
  0
LINE
  5
2DF
100
AcDbEntity
  8
0
100
AcDbLine
 62
7
  6
CONTINUOUS
 10
-88.8629540548
 20
-1.3878073366
 11
-89.1113577921
 21
-1.4592498566
  0
LWPOLYLINE
  5
2E0
100
AcDbEntity
  8
ASSI
100
AcDbPolyline
 62
250
  6
CONTINUOUS
 90
22
 70
0
 10
-91.5709599787
 20
-30.3086798584
 10
-91.4704139386
 20
-30.3621367792
 10
-91.3717379945
 20
-30.4061248967
 10
-91.2749314384
 20
-30.4406437935
 10
-91.1794954433
 20
-30.4657704801
 10
-91.0859260134
 20
-30.481426283
 10
-90.9957141576
 20
-30.4873769472
 10
-90.9088446685
 20
-30.4834542112
 10
-90.8253276634
 20
-30.4698233405
 10
-90.7466921693
 20
-30.4467503895
 10
-90.6727977059
 20
-30.4135421953
 10
-90.6037783183
 20
-30.370888139
 10
-90.5415766985
 20
-30.3211291974
 10
-90.4871069288
 20
-30.2648945781
 10
-90.4394518206
 20
-30.2015532558
 10
-90.3978088979
 20
-30.1315568819
 10
-90.3617744978
 20
-30.0555045979
 10
-90.3317485273
 20
-29.9727950684
 10
-90.3081330402
 20
-29.8820787465
 10
-90.2910597626
 20
-29.7829044448
 10
-90.2803908957
 20
-29.6757198065
 10
-90.2761233058
 20
-29.5605230054
  0
LWPOLYLINE
  5
2E1
100
AcDbEntity
  8
0
100
AcDbPolyline
 62
250
  6
CONTINUOUS
 90
22
 70
0
 10
-91.5709599787
 20
-30.3086798584
 10
-91.4704139386
 20
-30.3621367792
 10
-91.3717379945
 20
-30.4061248967
 10
-91.2749314384
 20
-30.4406437935
 10
-91.1794954433
 20
-30.4657704801
 10
-91.0859260134
 20
-30.481426283
 10
-90.9957141576
 20
-30.4873769472
 10
-90.9088446685
 20
-30.4834542112
 10
-90.8253276634
 20
-30.4698233405
 10
-90.7466921693
 20
-30.4467503895
 10
-90.6727977059
 20
-30.4135421953
 10
-90.6037783183
 20
-30.370888139
 10
-90.5415766985
 20
-30.3211291974
 10
-90.4871069288
 20
-30.2648945781
 10
-90.4394518206
 20
-30.2015532558
 10
-90.3978088979
 20
-30.1315568819
 10
-90.3617744978
 20
-30.0555045979
 10
-90.3317485273
 20
-29.9727950684
 10
-90.3081330402
 20
-29.8820787465
 10
-90.2910597626
 20
-29.7829044448
 10
-90.2803908957
 20
-29.6757198065
 10
-90.2761233058
 20
-29.5605230054
  0
LWPOLYLINE
  5
2E2
100
AcDbEntity
  8
ASSI
100
AcDbPolyline
 62
250
  6
CONTINUOUS
 90
12
 70
0
 10
-91.3625416297
 20
-29.9408906381
 10
-91.2791214648
 20
-29.9854252155
 10
-91.1963317377
 20
-30.0223513092
 10
-91.1146530051
 20
-30.0514740961
 10
-91.0345955024
 20
-30.07264019
 10
-90.9565814019
 20
-30.0857600332
 10
-90.8809513547
 20
-30.0907735063
 10
-90.8080903182
 20
-30.0876373222
 10
-90.7384911992
 20
-30.0763517292
 10
-90.6726292694
 20
-30.0569924764
 10
-90.610518887
 20
-30.0295043273
 10
-90.5836397245
 20
-30.0143275545
  0
LWPOLYLINE
  5
2E3
100
AcDbEntity
  8
0
100
AcDbPolyline
 62
250
  6
CONTINUOUS
 90
12
 70
0
 10
-91.3625416297
 20
-29.9408906381
 10
-91.2791214648
 20
-29.9854252155
 10
-91.1963317377
 20
-30.0223513092
 10
-91.1146530051
 20
-30.0514740961
 10
-91.0345955024
 20
-30.07264019
 10
-90.9565814019
 20
-30.0857600332
 10
-90.8809513547
 20
-30.0907735063
 10
-90.8080903182
 20
-30.0876373222
 10
-90.7384911992
 20
-30.0763517292
 10
-90.6726292694
 20
-30.0569924764
 10
-90.610518887
 20
-30.0295043273
 10
-90.583652057
 20
-30.0143350244
  0
LINE
  5
2E4
100
AcDbEntity
  8
ASSI
100
AcDbLine
 62
250
  6
CONTINUOUS
 10
-92.2073560817
 20
-29.9412327244
 11
-91.5709599787
 21
-30.3086798584
  0
LINE
  5
2E5
100
AcDbEntity
  8
0
100
AcDbLine
 62
250
  6
CONTINUOUS
 10
-92.2073560817
 20
-29.9412327244
 11
-91.5709599787
 21
-30.3086798584
  0
LINE
  5
2E6
100
AcDbEntity
  8
ASSI
100
AcDbLine
 62
250
  6
CONTINUOUS
 10
-91.9989377335
 20
-29.5734435045
 11
-91.3625416304
 21
-29.9408906385
  0
LINE
  5
2E7
100
AcDbEntity
  8
0
100
AcDbLine
 62
250
  6
CONTINUOUS
 10
-91.9989377335
 20
-29.5734435045
 11
-91.3625416304
 21
-29.9408906385
  0
LWPOLYLINE
  5
2E8
100
AcDbEntity
  8
IMPORT_IGES
100
AcDbPolyline
 62
7
  6
CONTINUOUS
 90
19
 70
0
 10
-90.8518598691
 20
-28.6731976058
 10
-90.9294894114
 20
-28.6080660252
 10
-91.0046256328
 20
-28.5380116439
 10
-91.0772685333
 20
-28.4630344617
 10
-91.1478043449
 20
-28.3826346682
 10
-91.2158468357
 20
-28.2973120739
 10
-91.2802373095
 20
-28.2085661106
 10
-91.3409132702
 20
-28.116347232
 10
-91.3979372139
 20
-28.0207049844
 10
-91.450337933
 20
-27.923287438
 10
-91.498041824
 20
-27.8240662872
 10
-91.5411224903
 20
-27.7230698376
 10
-91.5788295349
 20
-27.6220310764
 10
-91.6110787173
 20
-27.5209431255
 10
-91.6379542779
 20
-27.4198128629
 10
-91.6589585411
 20
-27.3203939095
 10
-91.6739256151
 20
-27.2232708054
 10
-91.6830213917
 20
-27.1278590104
 10
-91.6862458709
 20
-27.0341585245
  0
LINE
  5
2E9
100
AcDbEntity
  8
IMPORT_IGES
100
AcDbLine
 62
7
  6
CONTINUOUS
 10
-91.4768726084
 20
-22.035070032
 11
-91.4741138366
 21
-22.1044782891
  0
LWPOLYLINE
  5
2EA
100
AcDbEntity
  8
IMPORT_IGES
100
AcDbPolyline
 62
7
  6
CONTINUOUS
 90
19
 70
0
 10
-91.4741138366
 20
-27.1566409025
 10
-91.4712105235
 20
-27.2353082542
 10
-91.4630866782
 20
-27.3153931743
 10
-91.4497423007
 20
-27.3968956627
 10
-91.4310094954
 20
-27.480373462
 10
-91.4070561579
 20
-27.5652688297
 10
-91.3783859749
 20
-27.6499085384
 10
-91.3449149724
 20
-27.7342815725
 10
-91.3067271244
 20
-27.8183989477
 10
-91.2645780397
 20
-27.9006204833
 10
-91.2183959113
 20
-27.9809118602
 10
-91.1682525462
 20
-28.0593073975
 10
-91.1151189734
 20
-28.1342698726
 10
-91.0589363282
 20
-28.205742025
 10
-90.9997634753
 20
-28.2737811151
 10
-90.9387480389
 20
-28.3370217013
 10
-90.8762725602
 20
-28.3950086364
 10
-90.8119544979
 20
-28.4481970676
 10
-90.745793852
 20
-28.496586995
  0
LINE
  5
2EB
100
AcDbEntity
  8
CURVE
100
AcDbLine
 62
250
  6
CONTINUOUS
 10
-90.4625374936
 20
-41.4942235694
 11
-90.4489376878
 21
-41.9062702118
  0
LINE
  5
2EC
100
AcDbEntity
  8
CURVE
100
AcDbLine
 62
250
  6
CONTINUOUS
 10
-91.3913717611
 20
-40.3508233497
 11
-91.384899803
 21
-40.5570360098
  0
LINE
  5
2ED
100
AcDbEntity
  8
CURVE
100
AcDbLine
 62
250
  6
CONTINUOUS
 10
-91.0340951384
 20
-40.3545263749
 11
-91.0146792592
 21
-40.9731643441
  0
LINE
  5
2EE
100
AcDbEntity
  8
IMPORT_IGES
100
AcDbLine
 62
7
  6
CONTINUOUS
 10
-91.6862458709
 20
-21.9819954177
 11
-91.6862458709
 21
-27.0341585245
  0
LINE
  5
2EF
100
AcDbEntity
  8
IMPORT_IGES
100
AcDbLine
 62
7
  6
CONTINUOUS
 10
-91.4741138366
 20
-22.1044782891
 11
-91.4741138366
 21
-27.1566409025
  0
LINE
  5
2F0
100
AcDbEntity
  8
IMPORT_IGES
100
AcDbLine
 62
7
  6
CONTINUOUS
 10
-90.8161443879
 20
-27.4746622788
 11
-90.8161443879
 21
-22.6367044604
  0
LWPOLYLINE
  5
2F1
100
AcDbEntity
  8
ASSI
100
AcDbPolyline
 62
250
  6
CONTINUOUS
 90
3
 70
0
 10
-93.1040164829
 20
-22.2150559551
 10
-93.107208167
 20
-22.8246491378
 10
-93.1119957033
 20
-24.6507665349
  0
LWPOLYLINE
  5
2F2
100
AcDbEntity
  8
0
100
AcDbPolyline
 62
250
  6
CONTINUOUS
 90
3
 70
0
 10
-93.1040164829
 20
-22.2150559551
 10
-93.107208167
 20
-22.8246491378
 10
-93.1119957033
 20
-24.6507665349
  0
LINE
  5
2F3
100
AcDbEntity
  8
IMPORT_IGES
100
AcDbLine
 62
7
  6
CONTINUOUS
 10
-91.4753574313
 20
-21.9779116078
 11
-91.4768726084
 21
-22.035070032
  0
LWPOLYLINE
  5
2F4
100
AcDbEntity
  8
IMPORT_IGES
100
AcDbPolyline
 62
7
  6
CONTINUOUS
 90
3
 70
0
 10
-91.6862458709
 20
-21.9819959111
 10
-91.682660294
 20
-21.887679461
 10
-91.6794164105
 20
-21.8590688363
  0
LINE
  5
2F5
100
AcDbEntity
  8
0
100
AcDbLine
 62
250
  6
CONTINUOUS
 10
-88.8864742899
 20
-1.7093849925
 11
-88.8820434526
 21
-1.684347824
  0
LWPOLYLINE
  5
2F6
100
AcDbEntity
  8
0
100
AcDbPolyline
 62
250
  6
CONTINUOUS
 90
6
 70
0
 10
-88.8820434526
 20
-1.684347824
 10
-88.8748392887
 20
-1.6604754534
 10
-88.8653399178
 20
-1.638336986
 10
-88.8531790975
 20
-1.6180871249
 10
-88.8385399056
 20
-1.6001049631
 10
-88.8222395305
 20
-1.5849155496
  0
LINE
  5
2F7
100
AcDbEntity
  8
0
100
AcDbLine
 62
7
  6
CONTINUOUS
 10
-60.7810603449
 20
8.5394087058
 11
-69.9919342585
 21
3.2461892906
  0
LINE
  5
2F8
100
AcDbEntity
  8
0
100
AcDbLine
 62
250
  6
CONTINUOUS
 10
-82.5922463459
 20
-4.3251857975
 11
-79.7787154177
 21
-2.7404927138
  0
LINE
  5
2F9
100
AcDbEntity
  8
0
100
AcDbLine
 62
7
  6
CONTINUOUS
 10
-61.1593890667
 20
10.3881065681
 11
-78.5913854475
 21
0.5940055385
  0
LINE
  5
2FA
100
AcDbEntity
  8
ASSI
100
AcDbLine
 62
7
  6
CONTINUOUS
 10
-81.9251625825
 20
-2.771036719
 11
-82.2841700042
 21
-2.9720256274
  0
LINE
  5
2FB
100
AcDbEntity
  8
0
100
AcDbLine
 62
7
  6
CONTINUOUS
 10
-81.9251625825
 20
-2.771036719
 11
-82.2841700042
 21
-2.9720256274
  0
LINE
  5
2FC
100
AcDbEntity
  8
0
100
AcDbLine
 62
7
  6
CONTINUOUS
 10
-76.7327331497
 20
-0.4791570038
 11
-59.1589768024
 21
9.2330935978
  0
LINE
  5
2FD
100
AcDbEntity
  8
0
100
AcDbLine
 62
7
  6
CONTINUOUS
 10
-79.9581728078
 20
-2.6368762659
 11
-81.4690164973
 21
-3.4493591093
  0
LINE
  5
2FE
100
AcDbEntity
  8
0
100
AcDbLine
 62
7
  6
CONTINUOUS
 10
-77.8646469103
 20
-2.3187116741
 11
-78.7232355061
 21
-2.5991499904
  0
LINE
  5
2FF
100
AcDbEntity
  8
IMPORT_IGES
100
AcDbLine
 62
7
  6
CONTINUOUS
 10
-90.3922404614
 20
-28.7007242916
 11
-90.367514082
 21
-28.7111930117
  0
LINE
  5
300
100
AcDbEntity
  8
IMPORT_IGES
100
AcDbLine
 62
7
  6
CONTINUOUS
 10
-90.3922404614
 20
-28.7007242916
 11
-90.745793852
 21
-28.496586995
  0
LINE
  5
301
100
AcDbEntity
  8
IMPORT_IGES
100
AcDbLine
 62
7
  6
CONTINUOUS
 10
-90.816121879
 20
-27.4746752751
 11
-90.3706497218
 21
-27.7318853156
  0
LINE
  5
302
100
AcDbEntity
  8
IMPORT_IGES
100
AcDbLine
 62
7
  6
CONTINUOUS
 10
-90.3664526036
 20
-28.9596477524
 11
-90.8518598691
 21
-28.6731976058
  0
LWPOLYLINE
  5
303
100
AcDbEntity
  8
0
100
AcDbPolyline
 62
250
  6
CONTINUOUS
 90
7
 70
0
 10
-90.36399066
 20
-29.4381945382
 10
-90.3611331739
 20
-29.4615493691
 10
-90.3533131104
 20
-29.4836158732
 10
-90.3406519917
 20
-29.50489235
 10
-90.3233616726
 20
-29.5250227865
 10
-90.3017314668
 20
-29.5436703463
 10
-90.2761233058
 20
-29.5605230054
  0
LWPOLYLINE
  5
304
100
AcDbEntity
  8
ASSI
100
AcDbPolyline
 62
250
  6
CONTINUOUS
 90
7
 70
0
 10
-90.3639906918
 20
-29.4381896121
 10
-90.3611331739
 20
-29.4615493691
 10
-90.3533131104
 20
-29.4836158732
 10
-90.3406519917
 20
-29.50489235
 10
-90.3233616726
 20
-29.5250227865
 10
-90.3017314668
 20
-29.5436703463
 10
-90.2761233058
 20
-29.5605230054
  0
LWPOLYLINE
  5
305
100
AcDbEntity
  8
ASSI
100
AcDbPolyline
 62
250
  6
CONTINUOUS
 90
7
 70
0
 10
-90.36399119
 20
-23.9643448346
 10
-90.3611337534
 20
-23.9886107037
 10
-90.3533141649
 20
-24.0104374946
 10
-90.3406533312
 20
-24.0315217234
 10
-90.323362986
 20
-24.0515105734
 10
-90.3017323567
 20
-24.0700695213
 10
-90.2761233058
 20
-24.0868879701
  0
LWPOLYLINE
  5
306
100
AcDbEntity
  8
0
100
AcDbPolyline
 62
250
  6
CONTINUOUS
 90
7
 70
0
 10
-90.36399119
 20
-23.9643448345
 10
-90.3611337534
 20
-23.9886107037
 10
-90.3533141649
 20
-24.0104374946
 10
-90.3406533312
 20
-24.0315217234
 10
-90.323362986
 20
-24.0515105734
 10
-90.3017323567
 20
-24.0700695213
 10
-90.2761233058
 20
-24.0868879701
  0
LINE
  5
307
100
AcDbEntity
  8
CURVE
100
AcDbLine
 62
250
  6
CONTINUOUS
 10
-87.8674791139
 20
-43.1117148354
 11
-87.8905547262
 21
-42.3907187964
  0
LWPOLYLINE
  5
308
100
AcDbEntity
  8
ASSI
100
AcDbPolyline
 62
250
  6
CONTINUOUS
 90
20
 70
0
 10
-90.2761233058
 20
-24.0868879699
 10
-90.2794771284
 20
-23.9678371076
 10
-90.29016037
 20
-23.8466241982
 10
-90.3081745483
 20
-23.7232501146
 10
-90.3337032549
 20
-23.5970283088
 10
-90.3665655853
 20
-23.4686468733
 10
-90.4062174653
 20
-23.3401692953
 10
-90.4528135669
 20
-23.2114941352
 10
-90.5062042125
 20
-23.0827256813
 10
-90.5653909546
 20
-22.9562372306
 10
-90.6310486721
 20
-22.8314765712
 10
-90.7025087512
 20
-22.7089994756
 10
-90.7767594602
 20
-22.5928423243
 10
-90.8527982899
 20
-22.4846673907
 10
-90.9316348839
 20
-22.3828164454
 10
-91.0132759731
 20
-22.2863452448
 10
-91.0973977554
 20
-22.1949759686
 10
-91.1843279707
 20
-22.1089886664
 10
-91.2750499726
 20
-22.0282755087
 10
-91.36989235
 20
-21.9528010073
  0
LWPOLYLINE
  5
309
100
AcDbEntity
  8
0
100
AcDbPolyline
 62
250
  6
CONTINUOUS
 90
20
 70
0
 10
-90.2761233058
 20
-24.0868879699
 10
-90.2794771284
 20
-23.9678371076
 10
-90.29016037
 20
-23.8466241982
 10
-90.3081745483
 20
-23.7232501146
 10
-90.3337032549
 20
-23.5970283088
 10
-90.3665655853
 20
-23.4686468733
 10
-90.4062174653
 20
-23.3401692953
 10
-90.4528135669
 20
-23.2114941352
 10
-90.5062042125
 20
-23.0827256813
 10
-90.5653909546
 20
-22.9562372306
 10
-90.6310486721
 20
-22.8314765712
 10
-90.7025087512
 20
-22.7089994756
 10
-90.7767594602
 20
-22.5928423243
 10
-90.8527982899
 20
-22.4846673907
 10
-90.9316348839
 20
-22.3828164454
 10
-91.0132759731
 20
-22.2863452448
 10
-91.0973977554
 20
-22.1949759686
 10
-91.1843279707
 20
-22.1089886664
 10
-91.2750499726
 20
-22.0282755087
 10
-91.36989235
 20
-21.9528010073
  0
LWPOLYLINE
  5
30A
100
AcDbEntity
  8
CURVE
100
AcDbPolyline
 62
250
  6
CONTINUOUS
 90
4
 70
0
 10
-88.4066521093
 20
-39.0116661295
 10
-88.3704754145
 20
-40.4151745227
 10
-88.3299928613
 20
-41.8160422782
 10
-88.2802709041
 20
-43.3603662242
  0
LINE
  5
30B
100
AcDbEntity
  8
CURVE
100
AcDbLine
 62
250
  6
CONTINUOUS
 10
-87.6579203066
 20
-39.3843477215
 11
-87.6663083752
 21
-39.0303252242
  0
LINE
  5
30C
100
AcDbEntity
  8
ASSI
100
AcDbLine
 62
250
  6
CONTINUOUS
 10
-90.2761233058
 20
-29.5605230054
 11
-90.2815204072
 21
-28.3473935788
  0
LINE
  5
30D
100
AcDbEntity
  8
0
100
AcDbLine
 62
250
  6
CONTINUOUS
 10
-90.2761233058
 20
-29.5605230054
 11
-90.2815204072
 21
-28.3473935788
  0
LINE
  5
30E
100
AcDbEntity
  8
0
100
AcDbLine
 62
7
  6
CONTINUOUS
 10
-90.3708813859
 20
-27.6430611497
 11
-90.3639911234
 21
-29.4381185664
  0
LINE
  5
30F
100
AcDbEntity
  8
ASSI
100
AcDbLine
 62
7
  6
CONTINUOUS
 10
-90.3708846326
 20
-27.6414005209
 11
-90.3639911234
 21
-29.4381185664
  0
LINE
  5
310
100
AcDbEntity
  8
0
100
AcDbLine
 62
7
  6
CONTINUOUS
 10
-90.3640373528
 20
-23.9443824487
 11
-90.3639905529
 21
-23.9642421731
  0
LINE
  5
311
100
AcDbEntity
  8
ASSI
100
AcDbLine
 62
7
  6
CONTINUOUS
 10
-90.3640451082
 20
-23.9410878147
 11
-90.3639905906
 21
-23.9642478005
  0
LINE
  5
312
100
AcDbEntity
  8
ASSI
100
AcDbLine
 62
250
  6
CONTINUOUS
 10
-90.2815204072
 20
-28.3473935788
 11
-90.2838334535
 21
-27.1324111875
  0
LINE
  5
313
100
AcDbEntity
  8
0
100
AcDbLine
 62
250
  6
CONTINUOUS
 10
-90.2815204072
 20
-28.3473935788
 11
-90.2838334535
 21
-27.1324111875
  0
LINE
  5
314
100
AcDbEntity
  8
0
100
AcDbLine
 62
7
  6
CONTINUOUS
 10
-88.9262968945
 20
-1.7638794726
 11
-88.9262968945
 21
-1.7539693986
  0
LINE
  5
315
100
AcDbEntity
  8
0
100
AcDbLine
 62
250
  6
CONTINUOUS
 10
-88.8677182507
 20
-1.8455343913
 11
-88.8677182507
 21
-1.8356243173
  0
LINE
  5
316
100
AcDbEntity
  8
ASSI
100
AcDbLine
 62
250
  6
CONTINUOUS
 10
-90.2838334535
 20
-27.1324111875
 11
-90.2830624534
 21
-25.9155839364
  0
LINE
  5
317
100
AcDbEntity
  8
0
100
AcDbLine
 62
250
  6
CONTINUOUS
 10
-90.2838334535
 20
-27.1324111875
 11
-90.2830624534
 21
-25.9155839364
  0
LINE
  5
318
100
AcDbEntity
  8
ASSI
100
AcDbLine
 62
7
  6
CONTINUOUS
 10
-90.3708952283
 20
-25.7747420822
 11
-90.3708846326
 21
-27.6414005209
  0
LINE
  5
319
100
AcDbEntity
  8
0
100
AcDbLine
 62
7
  6
CONTINUOUS
 10
-90.3708927407
 20
-25.7734590664
 11
-90.3708813859
 21
-27.6430611497
  0
LWPOLYLINE
  5
31A
100
AcDbEntity
  8
ASSI
100
AcDbPolyline
 62
250
  6
CONTINUOUS
 90
3
 70
0
 10
-90.2830624534
 20
-25.9155839364
 10
-90.279207379
 20
-24.6969118135
 10
-90.2761233058
 20
-24.0868879699
  0
LWPOLYLINE
  5
31B
100
AcDbEntity
  8
0
100
AcDbPolyline
 62
250
  6
CONTINUOUS
 90
3
 70
0
 10
-90.2830624534
 20
-25.9155839364
 10
-90.279207379
 20
-24.6969118135
 10
-90.2761233058
 20
-24.0868879699
  0
LINE
  5
31C
100
AcDbEntity
  8
ASSI
100
AcDbLine
 62
7
  6
CONTINUOUS
 10
-90.36399119
 20
-23.964344835
 11
-90.3708952283
 21
-25.7747420822
  0
LINE
  5
31D
100
AcDbEntity
  8
0
100
AcDbLine
 62
7
  6
CONTINUOUS
 10
-90.36399119
 20
-23.9643448349
 11
-90.3708927407
 21
-25.7734590664
  0
LINE
  5
31E
100
AcDbEntity
  8
ASSI
100
AcDbLine
 62
7
  6
CONTINUOUS
 10
-90.3639906918
 20
-29.4381896121
 11
-90.3647638199
 21
-29.4928777302
  0
LINE
  5
31F
100
AcDbEntity
  8
0
100
AcDbLine
 62
7
  6
CONTINUOUS
 10
-90.36399066
 20
-29.4381945382
 11
-90.3647638199
 21
-29.4928777302
  0
LWPOLYLINE
  5
320
100
AcDbEntity
  8
0
100
AcDbPolyline
 62
250
  6
CONTINUOUS
 90
13
 70
0
 10
-88.6807476072
 20
-1.8010308257
 10
-88.6796081653
 20
-1.7796859307
 10
-88.6761839059
 20
-1.7572472827
 10
-88.6704945113
 20
-1.7340675815
 10
-88.6625875579
 20
-1.7104926205
 10
-88.6525670467
 20
-1.6869431616
 10
-88.6406175179
 20
-1.6639043658
 10
-88.6269369027
 20
-1.6417760227
 10
-88.6117460613
 20
-1.6209312926
 10
-88.5953428303
 20
-1.6017811622
 10
-88.5780252479
 20
-1.584658895
 10
-88.5600743205
 20
-1.569828467
 10
-88.541794394
 20
-1.557531797
  0
LINE
  5
321
100
AcDbEntity
  8
0
100
AcDbLine
 62
250
  6
CONTINUOUS
 10
-88.8879066715
 20
-1.7349949809
 11
-88.8864742899
 21
-1.7093849925
  0
LWPOLYLINE
  5
322
100
AcDbEntity
  8
0
100
AcDbPolyline
 62
7
  6
CONTINUOUS
 90
11
 70
0
 10
-90.3647638199
 20
-29.4928777302
 10
-90.3688364182
 20
-29.5602362504
 10
-90.3765215439
 20
-29.6255965717
 10
-90.3878649071
 20
-29.6881201088
 10
-90.402844811
 20
-29.7470540106
 10
-90.4212074095
 20
-29.8014271634
 10
-90.4426356483
 20
-29.850678076
 10
-90.4668856354
 20
-29.8946254559
 10
-90.4936197514
 20
-29.9330614426
 10
-90.5225397719
 20
-29.965971146
 10
-90.5534730105
 20
-29.9934985915
  0
LWPOLYLINE
  5
323
100
AcDbEntity
  8
ASSI
100
AcDbPolyline
 62
7
  6
CONTINUOUS
 90
11
 70
0
 10
-90.3647705907
 20
-29.493356668
 10
-90.3688981868
 20
-29.560933981
 10
-90.3766044102
 20
-29.6261537815
 10
-90.3879566094
 20
-29.6885431807
 10
-90.4029328738
 20
-29.7473527822
 10
-90.4212801064
 20
-29.8016161292
 10
-90.4426829218
 20
-29.850774385
 10
-90.4668987637
 20
-29.8946466271
 10
-90.4935912675
 20
-29.9330249893
 10
-90.5224633682
 20
-29.9658941013
 10
-90.5533431275
 20
-29.9933970742
  0
LWPOLYLINE
  5
324
100
AcDbEntity
  8
0
100
AcDbPolyline
 62
250
  6
CONTINUOUS
 90
13
 70
0
 10
-82.4741653303
 20
-5.3772395997
 10
-82.488541236
 20
-5.3990822152
 10
-82.5050909245
 20
-5.4191539593
 10
-82.5235312262
 20
-5.4371113987
 10
-82.5435466223
 20
-5.4526472768
 10
-82.5647946439
 20
-5.4654957702
 10
-82.5869117315
 20
-5.4754370379
 10
-82.6095194554
 20
-5.4823009818
 10
-82.6322309914
 20
-5.4859701581
 10
-82.6546577387
 20
-5.4863817861
 10
-82.6764159695
 20
-5.4835288227
 10
-82.6971333943
 20
-5.477460083
 10
-82.7164555324
 20
-5.4682794047
  0
LWPOLYLINE
  5
325
100
AcDbEntity
  8
0
100
AcDbPolyline
 62
250
  6
CONTINUOUS
 90
13
 70
0
 10
-82.6451785763
 20
-5.2750409753
 10
-82.659566713
 20
-5.2969001664
 10
-82.6761309607
 20
-5.3169844471
 10
-82.694587175
 20
-5.3349499573
 10
-82.714617794
 20
-5.3504884845
 10
-82.7358803868
 20
-5.3633352265
 10
-82.7580140922
 20
-5.3732718722
 10
-82.7806498037
 20
-5.3801295315
 10
-82.8033899454
 20
-5.3837846396
 10
-82.8258189664
 20
-5.3841749115
 10
-82.8475462598
 20
-5.381305562
 10
-82.8682122753
 20
-5.3752364413
 10
-82.8874687784
 20
-5.3660807802
  0
LWPOLYLINE
  5
326
100
AcDbEntity
  8
0
100
AcDbPolyline
 62
250
  6
CONTINUOUS
 90
13
 70
0
 10
-83.1149919323
 20
-5.0146283971
 10
-83.1035918017
 20
-5.0020948797
 10
-83.0900863831
 20
-4.9881365695
 10
-83.0746296989
 20
-4.9731064653
 10
-83.0573452975
 20
-4.9574663241
 10
-83.0385470088
 20
-4.9415126655
 10
-83.018722912
 20
-4.9253566206
 10
-82.9981545208
 20
-4.909322482
 10
-82.9771283599
 20
-4.893798217
 10
-82.9561358845
 20
-4.8789349049
 10
-82.9355197429
 20
-4.8649511787
 10
-82.9154894984
 20
-4.8521598074
 10
-82.8963200068
 20
-4.8407976268
  0
LWPOLYLINE
  5
327
100
AcDbEntity
  8
0
100
AcDbPolyline
 62
250
  6
CONTINUOUS
 90
5
 70
0
 10
-82.9280212888
 20
-5.2651309012
 10
-82.9166461294
 20
-5.2527335074
 10
-82.9030449904
 20
-5.2391360895
 10
-82.8874338335
 20
-5.2245616406
 10
-82.8700519123
 20
-5.2092407512
  0
LINE
  5
328
100
AcDbEntity
  8
0
100
AcDbLine
 62
7
  6
CONTINUOUS
 10
-78.7232355061
 20
-2.5991499904
 11
-79.0389339922
 21
-2.8655597316
  0
LINE
  5
329
100
AcDbEntity
  8
0
100
AcDbLine
 62
250
  6
CONTINUOUS
 10
-82.8700519123
 20
-5.2092407512
 11
-82.8511970085
 21
-5.1934424193
  0
LINE
  5
32A
100
AcDbEntity
  8
0
100
AcDbLine
 62
7
  6
CONTINUOUS
 10
-77.5607766371
 20
-2.4941208254
 11
-79.0389339922
 21
-3.7048324751
  0
LWPOLYLINE
  5
32B
100
AcDbEntity
  8
0
100
AcDbPolyline
 62
250
  6
CONTINUOUS
 90
7
 70
0
 10
-82.8511970085
 20
-5.1934424193
 10
-82.8312305688
 20
-5.1774721329
 10
-82.8105105642
 20
-5.1616155431
 10
-82.7893791494
 20
-5.1461338449
 10
-82.7682023875
 20
-5.1312951522
 10
-82.7473448963
 20
-5.1173546763
 10
-82.7271634942
 20
-5.1045506202
  0
LWPOLYLINE
  5
32C
100
AcDbEntity
  8
0
100
AcDbPolyline
 62
250
  6
CONTINUOUS
 90
13
 70
0
 10
-82.976038719
 20
-4.7711293684
 10
-82.9942072562
 20
-4.7833427
 10
-83.0120447548
 20
-4.7980530373
 10
-83.0292534308
 20
-4.8150204041
 10
-83.0455418622
 20
-4.8339624232
 10
-83.0606397533
 20
-4.8545700086
 10
-83.0742999434
 20
-4.8765153805
 10
-83.0862975721
 20
-4.8994560053
 10
-83.0964113369
 20
-4.9229901115
 10
-83.1044489415
 20
-4.9466737455
 10
-83.11027696
 20
-4.9700924751
 10
-83.1138091757
 20
-4.9928705841
 10
-83.1149919323
 20
-5.0146283971
  0
LINE
  5
32D
100
AcDbEntity
  8
0
100
AcDbLine
 62
250
  6
CONTINUOUS
 10
-82.8963200141
 20
-4.8407976171
 11
-82.3459000459
 21
-4.4938806079
  0
LINE
  5
32E
100
AcDbEntity
  8
0
100
AcDbLine
 62
250
  6
CONTINUOUS
 10
-82.9760387295
 20
-4.7711293624
 11
-82.423107772
 21
-4.4228442903
  0
LINE
  5
32F
100
AcDbEntity
  8
0
100
AcDbLine
 62
250
  6
CONTINUOUS
 10
-82.7271634942
 20
-5.1045506202
 11
-82.7080042509
 21
-5.0931023073
  0
LINE
  5
330
100
AcDbEntity
  8
0
100
AcDbLine
 62
7
  6
CONTINUOUS
 10
-78.7417941201
 20
-3.9926299644
 11
-80.1065915214
 21
-4.7987039797
  0
LINE
  5
331
100
AcDbEntity
  8
0
100
AcDbLine
 62
7
  6
CONTINUOUS
 10
-80.1065915214
 20
-4.7987039797
 11
-81.5185719224
 21
-5.6283615331
  0
LINE
  5
332
100
AcDbEntity
  8
0
100
AcDbLine
 62
250
  6
CONTINUOUS
 10
-82.1423228476
 20
-4.766477206
 11
-82.7080042507
 21
-5.0931023072
  0
LINE
  5
333
100
AcDbEntity
  8
0
100
AcDbLine
 62
250
  6
CONTINUOUS
 10
-82.0794931513
 20
-4.9385112266
 11
-82.6451785763
 21
-5.2651309012
  0
LINE
  5
334
100
AcDbEntity
  8
0
100
AcDbLine
 62
7
  6
CONTINUOUS
 10
-58.0940545763
 20
6.9879652511
 11
-67.30492849
 21
1.6947458359
  0
LINE
  5
335
100
AcDbEntity
  8
0
100
AcDbLine
 62
250
  6
CONTINUOUS
 10
-82.201438899
 20
-4.686890006
 11
-79.3874478076
 21
-3.1028153593
  0
LINE
  5
336
100
AcDbEntity
  8
0
100
AcDbLine
 62
7
  6
CONTINUOUS
 10
-58.4723832982
 20
8.8366631135
 11
-75.904379679
 21
-0.9574379161
  0
LINE
  5
337
100
AcDbEntity
  8
0
100
AcDbLine
 62
250
  6
CONTINUOUS
 10
-82.2281635731
 20
-5.3572384399
 11
-82.0794931513
 21
-5.2743944129
  0
LINE
  5
338
100
AcDbEntity
  8
0
100
AcDbLine
 62
7
  6
CONTINUOUS
 10
-82.2722325141
 20
-5.4502904394
 11
-82.1218015075
 21
-5.3664653569
  0
LINE
  5
339
100
AcDbEntity
  8
0
100
AcDbLine
 62
7
  6
CONTINUOUS
 10
-79.2157106791
 20
-3.3352359618
 11
-82.039593463
 21
-4.905625791
  0
LINE
  5
33A
100
AcDbEntity
  8
0
100
AcDbLine
 62
7
  6
CONTINUOUS
 10
-74.0457273812
 20
-2.0306004585
 11
-56.4719710339
 21
7.6816501432
  0
LWPOLYLINE
  5
33B
100
AcDbEntity
  8
0
100
AcDbPolyline
 62
250
  6
CONTINUOUS
 90
12
 70
0
 10
-82.6451785763
 20
-5.2651309012
 10
-82.6648474757
 20
-5.2750903619
 10
-82.6865995545
 20
-5.2834822994
 10
-82.7100626339
 20
-5.2901631288
 10
-82.7348352151
 20
-5.2950185353
 10
-82.760493481
 20
-5.2979654578
 10
-82.7865985601
 20
-5.298953476
 10
-82.8127038724
 20
-5.2979656487
 10
-82.8383626665
 20
-5.2950188421
 10
-82.8631358113
 20
-5.2901634684
 10
-82.8865993916
 20
-5.2834826058
 10
-82.908351954
 20
-5.2750905548
  0
LWPOLYLINE
  5
33C
100
AcDbEntity
  8
0
100
AcDbPolyline
 62
250
  6
CONTINUOUS
 90
12
 70
0
 10
-82.6451785763
 20
-5.2750409753
 10
-82.6648442773
 20
-5.2849990189
 10
-82.6866247264
 20
-5.2934007632
 10
-82.7101543741
 20
-5.3000951284
 10
-82.7350664323
 20
-5.3049642961
 10
-82.7609064839
 20
-5.3079066749
 10
-82.7871312867
 20
-5.3088631425
 10
-82.8132452734
 20
-5.3078341362
 10
-82.8388441719
 20
-5.3048540523
 10
-82.8635214083
 20
-5.2999810511
 10
-82.8868694366
 20
-5.2933024974
 10
-82.9084889833
 20
-5.2849398646
  0
LINE
  5
33D
100
AcDbEntity
  8
0
100
AcDbLine
 62
250
  6
CONTINUOUS
 10
-82.2589578744
 20
-5.37279153
 11
-82.2281635731
 21
-5.3572384399
  0
LWPOLYLINE
  5
33E
100
AcDbEntity
  8
0
100
AcDbPolyline
 62
7
  6
CONTINUOUS
 90
10
 70
0
 10
-82.2722325141
 20
-5.4502904394
 10
-82.3273170214
 20
-5.4775754324
 10
-82.3816608699
 20
-5.4979258752
 10
-82.4348869145
 20
-5.5115887311
 10
-82.4865312886
 20
-5.5188353966
 10
-82.536411846
 20
-5.5200117552
 10
-82.5844592905
 20
-5.5154030514
 10
-82.6303023069
 20
-5.5052767431
 10
-82.6734209096
 20
-5.4900117159
 10
-82.713431484
 20
-5.4700558901
  0
LWPOLYLINE
  5
33F
100
AcDbEntity
  8
ASSI
100
AcDbPolyline
 62
250
  6
CONTINUOUS
 90
3
 70
0
 10
-91.36989235
 20
-21.9528010073
 10
-91.4685288131
 20
-21.8826019508
 10
-91.5709599786
 20
-21.817678688
  0
LWPOLYLINE
  5
340
100
AcDbEntity
  8
0
100
AcDbPolyline
 62
250
  6
CONTINUOUS
 90
3
 70
0
 10
-91.36989235
 20
-21.9528010073
 10
-91.4685288131
 20
-21.8826019508
 10
-91.5709599786
 20
-21.817678688
  0
LINE
  5
341
100
AcDbEntity
  8
0
100
AcDbLine
 62
7
  6
CONTINUOUS
 10
-88.339414909
 20
-1.2996447614
 11
-88.3419325142
 21
-1.2667342096
  0
LWPOLYLINE
  5
342
100
AcDbEntity
  8
CURVE
100
AcDbPolyline
 62
250
  6
CONTINUOUS
 90
4
 70
0
 10
-86.0613698311
 20
-44.6415317284
 10
-86.1066081067
 20
-43.2436006896
 10
-86.1475410718
 20
-41.8430101602
 10
-86.1877510347
 20
-40.2928316327
  0
LINE
  5
343
100
AcDbEntity
  8
CURVE
100
AcDbLine
 62
250
  6
CONTINUOUS
 10
-86.5265506105
 20
-43.1782776642
 11
-86.5034749982
 21
-43.8992737031
  0
LINE
  5
344
100
AcDbEntity
  8
CURVE
100
AcDbLine
 62
250
  6
CONTINUOUS
 10
-86.9477918712
 20
-39.4451876432
 11
-86.9394038026
 21
-39.7992101405
  0
LINE
  5
345
100
AcDbEntity
  8
0
100
AcDbLine
 62
7
  6
CONTINUOUS
 10
-55.4070488078
 20
5.4365217965
 11
-64.6179227215
 21
0.1433023813
  0
LINE
  5
346
100
AcDbEntity
  8
0
100
AcDbLine
 62
7
  6
CONTINUOUS
 10
-74.5277492208
 20
-4.2453528428
 11
-77.459314133
 21
-5.9005614165
  0
LINE
  5
347
100
AcDbEntity
  8
0
100
AcDbLine
 62
7
  6
CONTINUOUS
 10
-55.7853775297
 20
7.2852196589
 11
-73.2173739105
 21
-2.5088813708
  0
LINE
  5
348
100
AcDbEntity
  8
0
100
AcDbLine
 62
7
  6
CONTINUOUS
 10
-71.3587216127
 20
-3.5820439131
 11
-53.7849652654
 21
6.1302066885
  0
LWPOLYLINE
  5
349
100
AcDbEntity
  8
ASSI
100
AcDbPolyline
 62
250
  6
CONTINUOUS
 90
22
 70
0
 10
-92.2073560817
 20
-21.450231554
 10
-92.3079857593
 20
-21.3968229244
 10
-92.4068974674
 20
-21.352970934
 10
-92.5040904978
 20
-21.3186751826
 10
-92.6000651
 20
-21.293859481
 10
-92.6943182019
 20
-21.2785984218
 10
-92.7853435835
 20
-21.2731174772
 10
-92.8731548152
 20
-21.2775839635
 10
-92.9577332365
 20
-21.2918276827
 10
-93.037524311
 20
-21.3155678513
 10
-93.1126752806
 20
-21.3495015364
 10
-93.1830324683
 20
-21.3929280217
 10
-93.2465918357
 20
-21.4434709098
 10
-93.3024180949
 20
-21.5004887492
 10
-93.3514434276
 20
-21.5646212219
 10
-93.3944667379
 20
-21.6354146144
 10
-93.4318826631
 20
-21.7122645736
 10
-93.46329281
 20
-21.7957733092
 10
-93.4883057127
 20
-21.8872964813
 10
-93.5067885905
 20
-21.9872846685
 10
-93.5188681513
 20
-22.0952838238
 10
-93.5245412613
 20
-22.2112921546
  0
LWPOLYLINE
  5
34A
100
AcDbEntity
  8
0
100
AcDbPolyline
 62
250
  6
CONTINUOUS
 90
22
 70
0
 10
-92.2073560817
 20
-21.450231554
 10
-92.3079857593
 20
-21.3968229244
 10
-92.4068974674
 20
-21.352970934
 10
-92.5040904978
 20
-21.3186751826
 10
-92.6000651
 20
-21.293859481
 10
-92.6943182019
 20
-21.2785984218
 10
-92.7853435835
 20
-21.2731174772
 10
-92.8731548152
 20
-21.2775839635
 10
-92.9577332365
 20
-21.2918276827
 10
-93.037524311
 20
-21.3155678513
 10
-93.1126752806
 20
-21.3495015364
 10
-93.1830324683
 20
-21.3929280217
 10
-93.2465918357
 20
-21.4434709098
 10
-93.3024180949
 20
-21.5004887492
 10
-93.3514434276
 20
-21.5646212219
 10
-93.3944667379
 20
-21.6354146144
 10
-93.4318826631
 20
-21.7122645736
 10
-93.46329281
 20
-21.7957733092
 10
-93.4883057127
 20
-21.8872964813
 10
-93.5067885905
 20
-21.9872846685
 10
-93.5188681513
 20
-22.0952838238
 10
-93.5245412613
 20
-22.2112921546
  0
LINE
  5
34B
100
AcDbEntity
  8
ASSI
100
AcDbLine
 62
7
  6
CONTINUOUS
 10
-91.5087646017
 20
-21.9576010002
 11
-92.1452427665
 21
-21.5901065366
  0
LINE
  5
34C
100
AcDbEntity
  8
0
100
AcDbLine
 62
7
  6
CONTINUOUS
 10
-91.508759658
 20
-21.9576038481
 11
-92.1452427665
 21
-21.5901065366
  0
LINE
  5
34D
100
AcDbEntity
  8
ASSI
100
AcDbLine
 62
250
  6
CONTINUOUS
 10
-91.5709599786
 20
-21.817678688
 11
-92.2073560817
 21
-21.450231554
  0
LINE
  5
34E
100
AcDbEntity
  8
0
100
AcDbLine
 62
250
  6
CONTINUOUS
 10
-91.5709599786
 20
-21.817678688
 11
-92.2073560817
 21
-21.450231554
  0
LINE
  5
34F
100
AcDbEntity
  8
0
100
AcDbLine
 62
7
  6
CONTINUOUS
 10
-91.508759658
 20
-21.9576038481
 11
-91.4869697399
 21
-21.9704750316
  0
LWPOLYLINE
  5
350
100
AcDbEntity
  8
ASSI
100
AcDbPolyline
 62
7
  6
CONTINUOUS
 90
24
 70
0
 10
-91.5087646017
 20
-21.9576010002
 10
-91.4845283669
 20
-21.971917129
 10
-91.4101499977
 20
-22.0197928468
 10
-91.3344908778
 20
-22.0745640183
 10
-91.2580115084
 20
-22.136236157
 10
-91.1814415981
 20
-22.2045528827
 10
-91.1056879844
 20
-22.2789209281
 10
-91.0312855566
 20
-22.358969654
 10
-90.9586962072
 20
-22.4443582977
 10
-90.888621089
 20
-22.5343599111
 10
-90.8215674167
 20
-22.6283714101
 10
-90.7578932087
 20
-22.7259389096
 10
-90.6979910551
 20
-22.8264736923
 10
-90.6422174861
 20
-22.9293758921
 10
-90.5909049866
 20
-23.0340352376
 10
-90.5443433457
 20
-23.139813352
 10
-90.5027410171
 20
-23.246160434
 10
-90.4663598775
 20
-23.3523300491
 10
-90.4354556693
 20
-23.4573651028
 10
-90.4100847586
 20
-23.5606888446
 10
-90.3902974375
 20
-23.6616374594
 10
-90.3761416149
 20
-23.7591290095
 10
-90.3674687858
 20
-23.8524100877
 10
-90.3640451082
 20
-23.9410878147
  0
LWPOLYLINE
  5
351
100
AcDbEntity
  8
ASSI
100
AcDbPolyline
 62
250
  6
CONTINUOUS
 90
8
 70
0
 10
-91.508846664
 20
-21.9575536702
 10
-91.5109137868
 20
-21.9563267791
 10
-91.5288425912
 20
-21.9424133774
 10
-91.5438886218
 20
-21.9243511796
 10
-91.5557967405
 20
-21.9024464696
 10
-91.564365019
 20
-21.8770706895
 10
-91.5694481636
 20
-21.8486541408
 10
-91.5709599787
 20
-21.817678688
  0
LWPOLYLINE
  5
352
100
AcDbEntity
  8
0
100
AcDbPolyline
 62
250
  6
CONTINUOUS
 90
8
 70
0
 10
-91.508846664
 20
-21.9575536702
 10
-91.5109137868
 20
-21.9563267791
 10
-91.5288425912
 20
-21.9424133774
 10
-91.5438886218
 20
-21.9243511796
 10
-91.5557967405
 20
-21.9024464696
 10
-91.564365019
 20
-21.8770706895
 10
-91.5694481636
 20
-21.8486541408
 10
-91.5709599787
 20
-21.817678688
  0
LWPOLYLINE
  5
353
100
AcDbEntity
  8
0
100
AcDbPolyline
 62
250
  6
CONTINUOUS
 90
8
 70
0
 10
-92.1453655727
 20
-21.5900355136
 10
-92.1473078336
 20
-21.5888808992
 10
-92.1652369187
 20
-21.574967965
 10
-92.1802833472
 20
-21.556906088
 10
-92.1921919334
 20
-21.5350014365
 10
-92.2007606638
 20
-21.5096253604
 10
-92.205844143
 20
-21.4812081199
 10
-92.2073560817
 20
-21.450231554
  0
LWPOLYLINE
  5
354
100
AcDbEntity
  8
ASSI
100
AcDbPolyline
 62
250
  6
CONTINUOUS
 90
8
 70
0
 10
-92.1453599181
 20
-21.5900387889
 10
-92.1473078336
 20
-21.5888808992
 10
-92.1652369187
 20
-21.574967965
 10
-92.1802833472
 20
-21.556906088
 10
-92.1921919334
 20
-21.5350014365
 10
-92.2007606638
 20
-21.5096253604
 10
-92.205844143
 20
-21.4812081199
 10
-92.2073560817
 20
-21.450231554
  0
LWPOLYLINE
  5
355
100
AcDbEntity
  8
0
100
AcDbPolyline
 62
7
  6
CONTINUOUS
 90
23
 70
0
 10
-91.4869697399
 20
-21.9704750316
 10
-91.4130953175
 20
-22.0177845532
 10
-91.3371711957
 20
-22.0725185572
 10
-91.2603877192
 20
-22.1342226457
 10
-91.1834865798
 20
-22.2026404471
 10
-91.10739202
 20
-22.2771709406
 10
-91.0326465232
 20
-22.3574396319
 10
-90.9597176095
 20
-22.4431035152
 10
-90.8893179052
 20
-22.5334253391
 10
-90.8219619553
 20
-22.6277934229
 10
-90.7580114502
 20
-22.7257493743
 10
-90.6978635338
 20
-22.8266979844
 10
-90.6418791162
 20
-22.9300319514
 10
-90.5903946076
 20
-23.0351333666
 10
-90.5437025958
 20
-23.1413564822
 10
-90.5020134577
 20
-23.2481458928
 10
-90.4655924652
 20
-23.3547444694
 10
-90.4346976731
 20
-23.4601802741
 10
-90.4093844651
 20
-23.5638704004
 10
-90.3897023961
 20
-23.6651424156
 10
-90.3756966163
 20
-23.7628956498
 10
-90.3672123024
 20
-23.8563668492
 10
-90.3640373528
 20
-23.9443824487
  0
LINE
  5
356
100
AcDbEntity
  8
0
100
AcDbLine
 62
250
  6
CONTINUOUS
 10
-88.9245682128
 20
-1.779029534
 11
-88.9262968945
 21
-1.7539693986
  0
LWPOLYLINE
  5
357
100
AcDbEntity
  8
ASSI
100
AcDbPolyline
 62
250
  6
CONTINUOUS
 90
3
 70
0
 10
-84.1707615072
 20
-47.1579824906
 10
-84.296366625
 20
-43.4160557169
 10
-84.3905798941
 20
-39.6554597208
  0
LWPOLYLINE
  5
358
100
AcDbEntity
  8
0
100
AcDbPolyline
 62
250
  6
CONTINUOUS
 90
3
 70
0
 10
-84.1707615072
 20
-47.1579824906
 10
-84.296366625
 20
-43.4160557169
 10
-84.3905798941
 20
-39.6554597208
  0
LWPOLYLINE
  5
359
100
AcDbEntity
  8
ASSI
100
AcDbPolyline
 62
250
  6
CONTINUOUS
 90
7
 70
0
 10
-83.4701914477
 20
-47.1445337008
 10
-83.5956820072
 20
-43.4058097103
 10
-83.6897999221
 20
-39.6490880968
 10
-83.7525451926
 20
-35.8743688603
 10
-83.7839178124
 20
-32.081315174
 10
-83.7839177877
 20
-28.2702638647
 10
-83.752545137
 20
-24.4422254128
  0
LWPOLYLINE
  5
35A
100
AcDbEntity
  8
0
100
AcDbPolyline
 62
250
  6
CONTINUOUS
 90
7
 70
0
 10
-83.4701914477
 20
-47.1445337008
 10
-83.5956820072
 20
-43.4058097103
 10
-83.6897999221
 20
-39.6490880968
 10
-83.7525451926
 20
-35.8743688603
 10
-83.7839178124
 20
-32.081315174
 10
-83.7839177877
 20
-28.2702638647
 10
-83.752545137
 20
-24.4422254128
  0
LWPOLYLINE
  5
35B
100
AcDbEntity
  8
ASSI
100
AcDbPolyline
 62
250
  6
CONTINUOUS
 90
4
 70
0
 10
-84.3905798941
 20
-39.6554597208
 10
-84.4533932306
 20
-35.8765227743
 10
-84.4848012454
 20
-32.0795748178
 10
-84.4848012454
 20
-28.2649473118
  0
LWPOLYLINE
  5
35C
100
AcDbEntity
  8
0
100
AcDbPolyline
 62
250
  6
CONTINUOUS
 90
4
 70
0
 10
-84.3905798941
 20
-39.6554597208
 10
-84.4533932306
 20
-35.8765227743
 10
-84.4848012454
 20
-32.0795748178
 10
-84.4848012454
 20
-28.2649473118
  0
LINE
  5
35D
100
AcDbEntity
  8
0
100
AcDbLine
 62
7
  6
CONTINUOUS
 10
-84.7664989199
 20
0.1393909687
 11
-84.7664989199
 21
-1.1304847281
  0
LINE
  5
35E
100
AcDbEntity
  8
0
100
AcDbLine
 62
7
  6
CONTINUOUS
 10
-83.4229960356
 20
-0.334257253
 11
-83.4229960356
 21
-1.1735299965
  0
LINE
  5
35F
100
AcDbEntity
  8
0
100
AcDbLine
 62
250
  6
CONTINUOUS
 10
-82.9280212888
 20
-5.2651309012
 11
-82.9280212888
 21
-5.2750409753
  0
LINE
  5
360
100
AcDbEntity
  8
ASSI
100
AcDbLine
 62
250
  6
CONTINUOUS
 10
-84.4848012454
 20
-28.2649473118
 11
-84.4533932306
 21
-24.4329732064
  0
LINE
  5
361
100
AcDbEntity
  8
0
100
AcDbLine
 62
250
  6
CONTINUOUS
 10
-84.4848012454
 20
-28.2649473118
 11
-84.4533932306
 21
-24.4329732064
  0
LINE
  5
362
100
AcDbEntity
  8
ASSI
100
AcDbLine
 62
250
  6
CONTINUOUS
 10
-84.4533932306
 20
-24.4329732064
 11
-84.3905798941
 21
-20.5839870721
  0
LINE
  5
363
100
AcDbEntity
  8
0
100
AcDbLine
 62
250
  6
CONTINUOUS
 10
-84.4533932306
 20
-24.4329732064
 11
-84.3905798941
 21
-20.5839870721
  0
LINE
  5
364
100
AcDbEntity
  8
ASSI
100
AcDbLine
 62
250
  6
CONTINUOUS
 10
-83.752545137
 20
-24.4422254128
 11
-83.6897998665
 21
-20.5975366453
  0
LINE
  5
365
100
AcDbEntity
  8
0
100
AcDbLine
 62
250
  6
CONTINUOUS
 10
-83.752545137
 20
-24.4422254128
 11
-83.6897998665
 21
-20.5975366453
  0
LINE
  5
366
100
AcDbEntity
  8
ASSI
100
AcDbLine
 62
250
  6
CONTINUOUS
 10
-84.3905798941
 20
-20.5839870721
 11
-84.2963666251
 21
-16.7183250727
  0
LINE
  5
367
100
AcDbEntity
  8
0
100
AcDbLine
 62
250
  6
CONTINUOUS
 10
-84.3905798941
 20
-20.5839870721
 11
-84.2963666251
 21
-16.7183250727
  0
LWPOLYLINE
  5
368
100
AcDbEntity
  8
ASSI
100
AcDbPolyline
 62
250
  6
CONTINUOUS
 90
3
 70
0
 10
-83.6897998665
 20
-20.5975366453
 10
-83.5956819701
 20
-16.7358607353
 10
-83.4701914477
 20
-12.8571976828
  0
LWPOLYLINE
  5
369
100
AcDbEntity
  8
0
100
AcDbPolyline
 62
250
  6
CONTINUOUS
 90
3
 70
0
 10
-83.6897998665
 20
-20.5975366453
 10
-83.5956819701
 20
-16.7358607353
 10
-83.4701914477
 20
-12.8571976828
  0
LINE
  5
36A
100
AcDbEntity
  8
ASSI
100
AcDbLine
 62
250
  6
CONTINUOUS
 10
-84.2963666251
 20
-16.7183250727
 11
-84.1707615072
 21
-12.8363248149
  0
LINE
  5
36B
100
AcDbEntity
  8
0
100
AcDbLine
 62
250
  6
CONTINUOUS
 10
-84.2963666251
 20
-16.7183250727
 11
-84.1707615072
 21
-12.8363248149
  0
LWPOLYLINE
  5
36C
100
AcDbEntity
  8
ASSI
100
AcDbPolyline
 62
250
  6
CONTINUOUS
 90
19
 70
0
 10
-84.1707615072
 20
-12.8363248149
 10
-84.1659083681
 20
-12.7668599932
 10
-84.1562977984
 20
-12.6953691727
 10
-84.1419929771
 20
-12.6223330001
 10
-84.1230858724
 20
-12.5482395544
 10
-84.0997037412
 20
-12.4735908052
 10
-84.0720106786
 20
-12.3988994371
 10
-84.0401946277
 20
-12.3246749664
 10
-84.0044674619
 20
-12.2514108668
 10
-83.9650713482
 20
-12.1795913984
 10
-83.9222698447
 20
-12.1097029807
 10
-83.8763477538
 20
-12.0422139523
 10
-83.8276105673
 20
-11.9775637987
 10
-83.7763744456
 20
-11.9161823362
 10
-83.7229868144
 20
-11.8584943086
 10
-83.6678250675
 20
-11.804897926
 10
-83.6112649504
 20
-11.7557563342
 10
-83.5536765765
 20
-11.7113982024
 10
-83.4954440066
 20
-11.672122469
  0
LWPOLYLINE
  5
36D
100
AcDbEntity
  8
0
100
AcDbPolyline
 62
250
  6
CONTINUOUS
 90
19
 70
0
 10
-84.1707615072
 20
-12.8363248149
 10
-84.1659083681
 20
-12.7668599932
 10
-84.1562977984
 20
-12.6953691727
 10
-84.1419929771
 20
-12.6223330001
 10
-84.1230858724
 20
-12.5482395544
 10
-84.0997037412
 20
-12.4735908052
 10
-84.0720106786
 20
-12.3988994371
 10
-84.0401946277
 20
-12.3246749664
 10
-84.0044674619
 20
-12.2514108668
 10
-83.9650713482
 20
-12.1795913984
 10
-83.9222698447
 20
-12.1097029807
 10
-83.8763477538
 20
-12.0422139523
 10
-83.8276105673
 20
-11.9775637987
 10
-83.7763744456
 20
-11.9161823362
 10
-83.7229868144
 20
-11.8584943086
 10
-83.6678250675
 20
-11.804897926
 10
-83.6112649504
 20
-11.7557563342
 10
-83.5536765765
 20
-11.7113982024
 10
-83.4954440066
 20
-11.672122469
  0
LWPOLYLINE
  5
36E
100
AcDbEntity
  8
ASSI
100
AcDbPolyline
 62
250
  6
CONTINUOUS
 90
19
 70
0
 10
-83.4701914477
 20
-12.8571976828
 10
-83.4676878042
 20
-12.8221822306
 10
-83.4628688603
 20
-12.7866178756
 10
-83.4557346162
 20
-12.7505046177
 10
-83.446204639
 20
-12.7135798223
 10
-83.4343593615
 20
-12.676106124
 10
-83.4204400823
 20
-12.6388714267
 10
-83.4044071699
 20
-12.6018947362
 10
-83.3863002557
 20
-12.5651570466
 10
-83.3664795328
 20
-12.5293892445
 10
-83.344911408
 20
-12.4946117376
 10
-83.3216294745
 20
-12.4608041181
 10
-83.2970947045
 20
-12.4286360486
 10
-83.2712713921
 20
-12.398131276
 10
-83.2441952433
 20
-12.3692660533
 10
-83.2164343474
 20
-12.3426388029
 10
-83.1881780675
 20
-12.3184489988
 10
-83.1592370406
 20
-12.296497167
 10
-83.1296112666
 20
-12.2767833074
  0
LWPOLYLINE
  5
36F
100
AcDbEntity
  8
0
100
AcDbPolyline
 62
250
  6
CONTINUOUS
 90
19
 70
0
 10
-83.4701914477
 20
-12.8571976828
 10
-83.4676878042
 20
-12.8221822306
 10
-83.4628688603
 20
-12.7866178756
 10
-83.4557346162
 20
-12.7505046177
 10
-83.446204639
 20
-12.7135798223
 10
-83.4343593615
 20
-12.676106124
 10
-83.4204400823
 20
-12.6388714267
 10
-83.4044071699
 20
-12.6018947362
 10
-83.3863002557
 20
-12.5651570466
 10
-83.3664795328
 20
-12.5293892445
 10
-83.344911408
 20
-12.4946117376
 10
-83.3216294745
 20
-12.4608041181
 10
-83.2970947045
 20
-12.4286360486
 10
-83.2712713921
 20
-12.398131276
 10
-83.2441952433
 20
-12.3692660533
 10
-83.2164343474
 20
-12.3426388029
 10
-83.1881780675
 20
-12.3184489988
 10
-83.1592370406
 20
-12.296497167
 10
-83.1296112666
 20
-12.2767833074
  0
LWPOLYLINE
  5
370
100
AcDbEntity
  8
0
100
AcDbPolyline
 62
250
  6
CONTINUOUS
 90
7
 70
0
 10
-82.2281635731
 20
-5.3572384399
 10
-82.2296956098
 20
-5.3780367854
 10
-82.2336211914
 20
-5.3970821271
 10
-82.2398731503
 20
-5.4140485939
 10
-82.2483445137
 20
-5.428645885
 10
-82.2588903343
 20
-5.4406242366
 10
-82.2722325141
 20
-5.4502904394
  0
LWPOLYLINE
  5
371
100
AcDbEntity
  8
0
100
AcDbPolyline
 62
7
  6
CONTINUOUS
 90
19
 70
0
 10
-82.039593463
 20
-4.905625791
 10
-82.0437389034
 20
-4.9550286236
 10
-82.0425971195
 20
-5.0061655757
 10
-82.0361681111
 20
-5.0590366472
 10
-82.0241917356
 20
-5.114503796
 10
-82.0069281356
 20
-5.1717050643
 10
-81.9851577395
 20
-5.2280545783
 10
-81.9586736933
 20
-5.2835132443
 10
-81.927682851
 20
-5.338120156
 10
-81.8935862025
 20
-5.389406722
 10
-81.8562411968
 20
-5.4372205444
 10
-81.8157903849
 20
-5.4817140209
 10
-81.7740624095
 20
-5.5208757539
 10
-81.7309986511
 20
-5.5544610258
 10
-81.6866577294
 20
-5.5827145541
 10
-81.6430441455
 20
-5.6043590936
 10
-81.6008260665
 20
-5.6189688957
 10
-81.5593353255
 20
-5.6269697089
 10
-81.5185719224
 20
-5.6283615331
  0
LINE
  5
372
100
AcDbEntity
  8
ASSI
100
AcDbLine
 62
250
  6
CONTINUOUS
 10
-83.4954440066
 20
-11.672122469
 11
-77.6598066443
 21
-8.0712319677
  0
LINE
  5
373
100
AcDbEntity
  8
0
100
AcDbLine
 62
250
  6
CONTINUOUS
 10
-83.4954440066
 20
-11.672122469
 11
-77.6598066443
 21
-8.0712319677
  0
LINE
  5
374
100
AcDbEntity
  8
ASSI
100
AcDbLine
 62
250
  6
CONTINUOUS
 10
-83.1296112666
 20
-12.2767833074
 11
-77.3065223783
 21
-8.6836358645
  0
LINE
  5
375
100
AcDbEntity
  8
0
100
AcDbLine
 62
250
  6
CONTINUOUS
 10
-83.1296112666
 20
-12.2767833074
 11
-77.3065223783
 21
-8.6836358645
  0
LINE
  5
376
100
AcDbEntity
  8
0
100
AcDbLine
 62
7
  6
CONTINUOUS
 10
-53.5441786219
 20
5.9911794983
 11
-73.1060040478
 21
-5.0661743777
  0
LINE
  5
377
100
AcDbEntity
  8
IMPORT_IGES
100
AcDbLine
 62
7
  6
CONTINUOUS
 10
-69.2387553517
 20
-31.2442043102
 11
-68.9696294143
 21
-31.3995642203
  0
LINE
  5
378
100
AcDbEntity
  8
IMPORT_IGES
100
AcDbLine
 62
7
  6
CONTINUOUS
 10
-69.1335128011
 20
-31.1028885109
 11
-68.7946263587
 21
-31.2985194773
  0
LWPOLYLINE
  5
379
100
AcDbEntity
  8
0
100
AcDbPolyline
 62
250
  6
CONTINUOUS
 90
4
 70
0
 10
-88.9245682128
 20
-1.779029534
 10
-88.9194383687
 20
-1.7938612359
 10
-88.9110058075
 20
-1.8081640655
 10
-88.8994299862
 20
-1.8216901533
  0
LWPOLYLINE
  5
37A
100
AcDbEntity
  8
0
100
AcDbPolyline
 62
250
  6
CONTINUOUS
 90
10
 70
0
 10
-82.6451785763
 20
-5.2651309012
 10
-82.6459963572
 20
-5.2471232466
 10
-82.6484549478
 20
-5.2282934135
 10
-82.652547574
 20
-5.2088526218
 10
-82.65825706
 20
-5.1889950049
 10
-82.6655313704
 20
-5.1689830941
 10
-82.6742616396
 20
-5.1491444011
 10
-82.6843274643
 20
-5.129745457
 10
-82.6956200765
 20
-5.1109897564
 10
-82.7080042507
 20
-5.0931023072
  0
LWPOLYLINE
  5
37B
100
AcDbEntity
  8
0
100
AcDbPolyline
 62
250
  6
CONTINUOUS
 90
10
 70
0
 10
-82.9280212888
 20
-5.2750409753
 10
-82.9274950222
 20
-5.2888114008
 10
-82.9259201396
 20
-5.3018716182
 10
-82.9233083626
 20
-5.3141244268
 10
-82.9196791297
 20
-5.3254786352
 10
-82.915059452
 20
-5.3358497396
 10
-82.9094837125
 20
-5.3451605528
 10
-82.9029934094
 20
-5.3533417793
 10
-82.8956368475
 20
-5.3603325311
 10
-82.8874687784
 20
-5.3660807802
  0
LINE
  5
37C
100
AcDbEntity
  8
0
100
AcDbLine
 62
250
  6
CONTINUOUS
 10
-82.6451785763
 20
-5.2651309012
 11
-82.6451785763
 21
-5.2750409753
  0
LINE
  5
37D
100
AcDbEntity
  8
0
100
AcDbLine
 62
7
  6
CONTINUOUS
 10
-82.0794931513
 20
-5.2743944129
 11
-82.0794931513
 21
-4.9385112266
  0
LWPOLYLINE
  5
37E
100
AcDbEntity
  8
0
100
AcDbPolyline
 62
250
  6
CONTINUOUS
 90
12
 70
0
 10
-92.7667353222
 20
-21.4974991233
 10
-92.8170406322
 20
-21.5289745322
 10
-92.8701818331
 20
-21.571830735
 10
-92.9169221597
 20
-21.6200315044
 10
-92.9580546925
 20
-21.6734262207
 10
-92.994377019
 20
-21.7326474419
 10
-93.0256836758
 20
-21.7972947424
 10
-93.051887727
 20
-21.8671091059
 10
-93.0733179701
 20
-21.9436576676
 10
-93.0895744716
 20
-22.0275711014
 10
-93.0999677841
 20
-22.1181113625
 10
-93.1040165029
 20
-22.2150559663
  0
LWPOLYLINE
  5
37F
100
AcDbEntity
  8
ASSI
100
AcDbPolyline
 62
250
  6
CONTINUOUS
 90
12
 70
0
 10
-92.766702668
 20
-21.4974811643
 10
-92.8170406322
 20
-21.5289745322
 10
-92.8701818331
 20
-21.571830735
 10
-92.9169221597
 20
-21.6200315044
 10
-92.9580546925
 20
-21.6734262207
 10
-92.994377019
 20
-21.7326474419
 10
-93.0256836758
 20
-21.7972947424
 10
-93.051887727
 20
-21.8671091059
 10
-93.0733179701
 20
-21.9436576676
 10
-93.0895744716
 20
-22.0275711014
 10
-93.0999677841
 20
-22.1181113625
 10
-93.1040165029
 20
-22.2150559663
  0
LINE
  5
380
100
AcDbEntity
  8
0
100
AcDbLine
 62
250
  6
CONTINUOUS
 10
-51.9125549612
 20
2.9862253005
 11
-77.3065223783
 21
-12.0346914371
  0
LINE
  5
381
100
AcDbEntity
  8
0
100
AcDbLine
 62
7
  6
CONTINUOUS
 10
-92.7664547482
 20
-21.4973449131
 11
-92.7667353222
 21
-21.4974991233
  0
LINE
  5
382
100
AcDbEntity
  8
ASSI
100
AcDbLine
 62
7
  6
CONTINUOUS
 10
-92.7664547482
 20
-21.4973449131
 11
-92.766702668
 21
-21.4974811643
  0
LINE
  5
383
100
AcDbEntity
  8
0
100
AcDbLine
 62
250
  6
CONTINUOUS
 10
-68.7948021106
 20
-32.5596391655
 11
-69.5196787736
 21
-31.9235760057
  0
LWPOLYLINE
  5
384
100
AcDbEntity
  8
0
100
AcDbPolyline
 62
7
  6
CONTINUOUS
 90
12
 70
0
 10
-69.4067793557
 20
-32.543605906
 10
-69.4014091097
 20
-32.5494803784
 10
-69.3580517676
 20
-32.5892172583
 10
-69.3096911677
 20
-32.6205993377
 10
-69.256342063
 20
-32.643895856
 10
-69.1992382232
 20
-32.6584462364
 10
-69.1382513187
 20
-32.6640717419
 10
-69.0735096791
 20
-32.6609511095
 10
-69.0066320627
 20
-32.6489599722
 10
-68.9381580555
 20
-32.6280568747
 10
-68.8675480714
 20
-32.5982832725
 10
-68.7948021106
 20
-32.5596391655
  0
LWPOLYLINE
  5
385
100
AcDbEntity
  8
0
100
AcDbPolyline
 62
250
  6
CONTINUOUS
 90
5
 70
0
 10
-88.8677182507
 20
-1.8356243173
 10
-88.877124489
 20
-1.8120464545
 10
-88.8835151624
 20
-1.7869598284
 10
-88.8869433512
 20
-1.7610086541
 10
-88.8879066715
 20
-1.7349949809
  0
LWPOLYLINE
  5
386
100
AcDbEntity
  8
0
100
AcDbPolyline
 62
7
  6
CONTINUOUS
 90
19
 70
0
 10
-79.2157106791
 20
-3.3352359618
 10
-79.213512189
 20
-3.3807142028
 10
-79.207532189
 20
-3.4269336086
 10
-79.1977706789
 20
-3.4738941792
 10
-79.1840289854
 20
-3.5221480183
 10
-79.1665057818
 20
-3.5711430223
 10
-79.1457970888
 20
-3.6192228799
 10
-79.1218010256
 20
-3.6663435781
 10
-79.0946194729
 20
-3.71254913
 10
-79.0651540926
 20
-3.7563152638
 10
-79.0333290056
 20
-3.7975643079
 10
-78.999220091
 20
-3.8363739338
 10
-78.9639566485
 20
-3.871452884
 10
-78.9274927183
 20
-3.9026807361
 10
-78.8898742603
 20
-3.9301779125
 10
-78.8523684535
 20
-3.9530144226
 10
-78.8153976911
 20
-3.9708802695
 10
-78.77853958
 20
-3.9840854501
 10
-78.7417941201
 20
-3.9926299644
  0
LINE
  5
387
100
AcDbEntity
  8
0
100
AcDbLine
 62
7
  6
CONTINUOUS
 10
-79.0389339922
 20
-2.8655597316
 11
-79.0389339922
 21
-3.7048324751
  0
LWPOLYLINE
  5
388
100
AcDbEntity
  8
0
100
AcDbPolyline
 62
7
  6
CONTINUOUS
 90
24
 70
0
 10
-68.7948021106
 20
-10.3903040128
 10
-68.867548072
 20
-10.4386498497
 10
-68.9381580572
 20
-10.4933119816
 10
-69.0066320659
 20
-10.5542904085
 10
-69.0735096848
 20
-10.6222718261
 10
-69.1382513274
 20
-10.6965695388
 10
-69.1992382339
 20
-10.7751234598
 10
-69.256342074
 20
-10.8579588676
 10
-69.3096911781
 20
-10.9450504838
 10
-69.3580517777
 20
-11.0342623862
 10
-69.4014091208
 20
-11.1258461751
 10
-69.4397779593
 20
-11.2195502503
 10
-69.4719687813
 20
-11.3124838894
 10
-69.4976855533
 20
-11.4042101191
 10
-69.5172243087
 20
-11.4951659128
 10
-69.5302836355
 20
-11.583771468
 10
-69.5367630629
 20
-11.6705160679
 10
-69.5367630617
 20
-11.7549104292
 10
-69.5302836317
 20
-11.8339068995
 10
-69.5172243018
 20
-11.9068960526
 10
-69.4976855432
 20
-11.9744873147
 10
-69.4719687691
 20
-12.0354613117
 10
-69.4397779471
 20
-12.0899010177
 10
-69.4067793557
 20
-12.1318489861
  0
LINE
  5
389
100
AcDbEntity
  8
ASSI
100
AcDbLine
 62
7
  6
CONTINUOUS
 10
-51.6002474812
 20
0.7739612392
 11
-56.2678995872
 21
-2.0647079439
  0
LINE
  5
38A
100
AcDbEntity
  8
0
100
AcDbLine
 62
7
  6
CONTINUOUS
 10
-57.4618034231
 20
-3.5291908687
 11
-68.7948021106
 21
-10.3903040128
  0
LINE
  5
38B
100
AcDbEntity
  8
0
100
AcDbLine
 62
250
  6
CONTINUOUS
 10
-51.6002474812
 20
1.7824330733
 11
-77.3065223783
 21
-13.4029254943
  0
LINE
  5
38C
100
AcDbEntity
  8
IMPORT_IGES
100
AcDbLine
 62
7
  6
CONTINUOUS
 10
-91.4741138366
 20
-22.1044782891
 11
-91.3734567552
 21
-22.0463601518
  0
LINE
  5
38D
100
AcDbEntity
  8
0
100
AcDbLine
 62
7
  6
CONTINUOUS
 10
-58.3380013471
 20
-4.849228055
 11
-69.4569739526
 21
-11.2691944078
  0
LINE
  5
38E
100
AcDbEntity
  8
ASSI
100
AcDbLine
 62
250
  6
CONTINUOUS
 10
-93.1040164829
 20
-22.2150559551
 11
-92.0656282335
 21
-21.6360749701
  0
LINE
  5
38F
100
AcDbEntity
  8
0
100
AcDbLine
 62
250
  6
CONTINUOUS
 10
-93.1040164829
 20
-22.2150559551
 11
-92.0656282335
 21
-21.6360749701
  0
LWPOLYLINE
  5
390
100
AcDbEntity
  8
ASSI
100
AcDbPolyline
 62
250
  6
CONTINUOUS
 90
13
 70
0
 10
-93.1040164829
 20
-22.2150559551
 10
-93.1336159798
 20
-22.2293333341
 10
-93.1662072499
 20
-22.2412868976
 10
-93.2012449532
 20
-22.2507166301
 10
-93.2381428145
 20
-22.2574647468
 10
-93.2762834331
 20
-22.2614183335
 10
-93.3150286133
 20
-22.262511236
 10
-93.353730044
 20
-22.2607251672
 10
-93.3917401457
 20
-22.2560900127
 10
-93.4284229068
 20
-22.2486833313
 10
-93.4631645258
 20
-22.2386290567
 10
-93.4953836818
 20
-22.2260954239
 10
-93.5245412613
 20
-22.2112921546
  0
LWPOLYLINE
  5
391
100
AcDbEntity
  8
0
100
AcDbPolyline
 62
250
  6
CONTINUOUS
 90
13
 70
0
 10
-93.1040164829
 20
-22.2150559551
 10
-93.1336159798
 20
-22.2293333341
 10
-93.1662072499
 20
-22.2412868976
 10
-93.2012449532
 20
-22.2507166301
 10
-93.2381428145
 20
-22.2574647468
 10
-93.2762834331
 20
-22.2614183335
 10
-93.3150286133
 20
-22.262511236
 10
-93.353730044
 20
-22.2607251672
 10
-93.3917401457
 20
-22.2560900127
 10
-93.4284229068
 20
-22.2486833313
 10
-93.4631645258
 20
-22.2386290567
 10
-93.4953836818
 20
-22.2260954239
 10
-93.5245412613
 20
-22.2112921546
  0
LINE
  5
392
100
AcDbEntity
  8
ASSI
100
AcDbLine
 62
7
  6
CONTINUOUS
 10
-92.7666553396
 20
-21.4974656805
 11
-92.7308495915
 21
-21.4804764853
  0
LWPOLYLINE
  5
393
100
AcDbEntity
  8
0
100
AcDbPolyline
 62
7
  6
CONTINUOUS
 90
10
 70
0
 10
-92.7666882235
 20
-21.4974837698
 10
-92.7183533606
 20
-21.4757199899
 10
-92.6610600564
 20
-21.4603739366
 10
-92.5975063018
 20
-21.45344293
 10
-92.5278316222
 20
-21.455441345
 10
-92.4530266639
 20
-21.4667143301
 10
-92.3747067076
 20
-21.4871552213
 10
-92.2941822472
 20
-21.5163610566
 10
-92.2125440324
 20
-21.5537252074
 10
-92.1453655727
 20
-21.5900355136
  0
LINE
  5
394
100
AcDbEntity
  8
IMPORT_IGES
100
AcDbLine
 62
250
  6
CONTINUOUS
 10
-69.2309189794
 20
-18.9857826375
 11
-69.20576263
 21
-18.981112446
  0
LINE
  5
395
100
AcDbEntity
  8
IMPORT_IGES
100
AcDbLine
 62
7
  6
CONTINUOUS
 10
-66.7391424214
 20
-25.4751921794
 11
-66.2681362383
 21
-25.7470926843
  0
LINE
  5
396
100
AcDbEntity
  8
0
100
AcDbLine
 62
250
  6
CONTINUOUS
 10
-68.7948021106
 20
-28.4772877816
 11
-69.5196787736
 21
-27.8412246218
  0
LWPOLYLINE
  5
397
100
AcDbEntity
  8
0
100
AcDbPolyline
 62
7
  6
CONTINUOUS
 90
12
 70
0
 10
-69.4067793557
 20
-28.461254522
 10
-69.4014091097
 20
-28.4671289944
 10
-69.3580517676
 20
-28.5068658744
 10
-69.3096911677
 20
-28.5382479537
 10
-69.256342063
 20
-28.5615444721
 10
-69.1992382232
 20
-28.5760948524
 10
-69.1382513187
 20
-28.581720358
 10
-69.0735096791
 20
-28.5785997255
 10
-69.0066320627
 20
-28.5666085883
 10
-68.9381580555
 20
-28.5457054908
 10
-68.8675480714
 20
-28.5159318885
 10
-68.7948021106
 20
-28.4772877816
  0
LINE
  5
398
100
AcDbEntity
  8
ASSI
100
AcDbLine
 62
7
  6
CONTINUOUS
 10
-77.3065223783
 20
-8.6836358645
 11
-77.3065223783
 21
-44.4446602862
  0
LINE
  5
399
100
AcDbEntity
  8
0
100
AcDbLine
 62
7
  6
CONTINUOUS
 10
-77.3065223783
 20
-8.6836358645
 11
-77.3065223783
 21
-44.4446602862
  0
LINE
  5
39A
100
AcDbEntity
  8
ASSI
100
AcDbLine
 62
7
  6
CONTINUOUS
 10
-51.6002474812
 20
-3.3083901448
 11
-56.2678995872
 21
-6.1470593279
  0
LINE
  5
39B
100
AcDbEntity
  8
0
100
AcDbLine
 62
7
  6
CONTINUOUS
 10
-57.4618034231
 20
-5.4569451288
 11
-68.7948021106
 21
-12.1478822457
  0
LINE
  5
39C
100
AcDbEntity
  8
ASSI
100
AcDbLine
 62
7
  6
CONTINUOUS
 10
-51.6002474812
 20
-2.7508225582
 11
-56.2678995872
 21
-5.493752534
  0
LINE
  5
39D
100
AcDbEntity
  8
0
100
AcDbLine
 62
7
  6
CONTINUOUS
 10
-52.3088085731
 20
-2.3417082641
 11
-57.0179246227
 21
-5.0606974785
  0
LINE
  5
39E
100
AcDbEntity
  8
IMPORT_IGES
100
AcDbLine
 62
250
  6
CONTINUOUS
 10
-91.4741138366
 20
-27.1566409025
 11
-90.8161443879
 21
-26.7767375891
  0
LINE
  5
39F
100
AcDbEntity
  8
ASSI
100
AcDbLine
 62
250
  6
CONTINUOUS
 10
-93.1040164829
 20
-27.6854068097
 11
-91.6862458709
 21
-26.8948910984
  0
LINE
  5
3A0
100
AcDbEntity
  8
0
100
AcDbLine
 62
250
  6
CONTINUOUS
 10
-93.1040164829
 20
-27.6854068097
 11
-91.6862458709
 21
-26.8948910984
  0
LWPOLYLINE
  5
3A1
100
AcDbEntity
  8
ASSI
100
AcDbPolyline
 62
7
  6
CONTINUOUS
 90
12
 70
0
 10
-92.7308495915
 20
-21.4804764853
 10
-92.688891891
 20
-21.4665991373
 10
-92.643311749
 20
-21.4574821882
 10
-92.594121241
 20
-21.4533247511
 10
-92.5415030052
 20
-21.4543527296
 10
-92.4858106911
 20
-21.4607133092
 10
-92.4273504738
 20
-21.4724973726
 10
-92.3667836762
 20
-21.489674474
 10
-92.3050666389
 20
-21.5119579585
 10
-92.2428609854
 20
-21.5389713968
 10
-92.1805563355
 20
-21.5703988611
 10
-92.1453599181
 20
-21.5900387889
  0
LWPOLYLINE
  5
3A2
100
AcDbEntity
  8
ASSI
100
AcDbPolyline
 62
250
  6
CONTINUOUS
 90
16
 70
0
 10
-84.1707455969
 20
-12.8363163986
 10
-84.1323074296
 20
-12.8564491497
 10
-84.0904964818
 20
-12.8743648678
 10
-84.0457607237
 20
-12.8898716005
 10
-83.9985794626
 20
-12.9028032058
 10
-83.9494582074
 20
-12.9130211319
 10
-83.8989232524
 20
-12.9204159019
 10
-83.8475160386
 20
-12.9249082867
 10
-83.7957873524
 20
-12.9264501541
 10
-83.7442914248
 20
-12.9250249843
 10
-83.6935799926
 20
-12.9206480467
 10
-83.6441963876
 20
-12.9133662366
 10
-83.596669715
 20
-12.9032575728
 10
-83.5515091845
 20
-12.8904303613
 10
-83.5091986545
 20
-12.8750220354
 10
-83.4701914478
 20
-12.8571976827
  0
LWPOLYLINE
  5
3A3
100
AcDbEntity
  8
0
100
AcDbPolyline
 62
250
  6
CONTINUOUS
 90
16
 70
0
 10
-84.1707455969
 20
-12.8363163986
 10
-84.1323074296
 20
-12.8564491497
 10
-84.0904964818
 20
-12.8743648678
 10
-84.0457607237
 20
-12.8898716005
 10
-83.9985794626
 20
-12.9028032058
 10
-83.9494582074
 20
-12.9130211319
 10
-83.8989232524
 20
-12.9204159019
 10
-83.8475160386
 20
-12.9249082867
 10
-83.7957873524
 20
-12.9264501541
 10
-83.7442914248
 20
-12.9250249843
 10
-83.6935799926
 20
-12.9206480467
 10
-83.6441963876
 20
-12.9133662366
 10
-83.596669715
 20
-12.9032575728
 10
-83.5515091845
 20
-12.8904303613
 10
-83.5091986545
 20
-12.8750220354
 10
-83.4701914478
 20
-12.8571976827
  0
LINE
  5
3A4
100
AcDbEntity
  8
IMPORT_IGES
100
AcDbLine
 62
7
  6
CONTINUOUS
 10
-65.9908183575
 20
-25.2691536432
 11
-66.1996687851
 21
-25.1485893306
  0
LINE
  5
3A5
100
AcDbEntity
  8
IMPORT_IGES
100
AcDbLine
 62
7
  6
CONTINUOUS
 10
-65.1207215126
 20
-24.495383633
 11
-64.6828713376
 21
-24.7481439744
  0
LINE
  5
3A6
100
AcDbEntity
  8
IMPORT_IGES
100
AcDbLine
 62
7
  6
CONTINUOUS
 10
-64.5875003524
 20
-24.566626388
 11
-64.5804292846
 21
-24.570709134
  0
LINE
  5
3A7
100
AcDbEntity
  8
ASSI
100
AcDbLine
 62
250
  6
CONTINUOUS
 10
-99.0207606048
 20
-4.2621214502
 11
-84.1707615072
 21
-12.8363248149
  0
LINE
  5
3A8
100
AcDbEntity
  8
0
100
AcDbLine
 62
250
  6
CONTINUOUS
 10
-99.0207606048
 20
-4.2621214502
 11
-84.1707615072
 21
-12.8363248149
  0
LINE
  5
3A9
100
AcDbEntity
  8
0
100
AcDbLine
 62
250
  6
CONTINUOUS
 10
-68.7948021106
 20
-24.3949363976
 11
-69.5196787736
 21
-23.7588732378
  0
LWPOLYLINE
  5
3AA
100
AcDbEntity
  8
0
100
AcDbPolyline
 62
7
  6
CONTINUOUS
 90
12
 70
0
 10
-69.4067793557
 20
-24.378903138
 10
-69.4014091097
 20
-24.3847776105
 10
-69.3580517676
 20
-24.4245144904
 10
-69.3096911677
 20
-24.4558965697
 10
-69.256342063
 20
-24.4791930881
 10
-69.1992382232
 20
-24.4937434685
 10
-69.1382513187
 20
-24.499368974
 10
-69.0735096791
 20
-24.4962483415
 10
-69.0066320627
 20
-24.4842572043
 10
-68.9381580555
 20
-24.4633541068
 10
-68.8675480714
 20
-24.4335805046
 10
-68.7948021106
 20
-24.3949363976
  0
LWPOLYLINE
  5
3AB
100
AcDbEntity
  8
IMPORT_IGES
100
AcDbPolyline
 62
7
  6
CONTINUOUS
 90
7
 70
0
 10
-59.6312412312
 20
-5.3683677353
 10
-59.6272936479
 20
-5.3648451655
 10
-59.6168335651
 20
-5.3525148871
 10
-59.6085950741
 20
-5.3377883833
 10
-59.6027551743
 20
-5.3208660749
 10
-59.5991368664
 20
-5.3015475409
 10
-59.5977401503
 20
-5.2798327815
  0
LWPOLYLINE
  5
3AC
100
AcDbEntity
  8
IMPORT_IGES
100
AcDbPolyline
 62
7
  6
CONTINUOUS
 90
11
 70
0
 10
-59.6312111684
 20
-5.3684136114
 10
-59.5507823594
 20
-5.2995338364
 10
-59.4628799168
 20
-5.2165125038
 10
-59.3777961328
 20
-5.1278536785
 10
-59.295886591
 20
-5.0340198098
 10
-59.2175076638
 20
-4.935497515
 10
-59.1430257513
 20
-4.8328176053
 10
-59.0728016315
 20
-4.7265464393
 10
-59.0071153968
 20
-4.6171654262
 10
-58.946209876
 20
-4.5051019345
 10
-58.8925853342
 20
-4.3954008496
  0
LINE
  5
3AD
100
AcDbEntity
  8
ASSI
100
AcDbLine
 62
7
  6
CONTINUOUS
 10
-90.5533431275
 20
-29.9933970742
 11
-90.5836505392
 21
-30.0143218497
  0
LINE
  5
3AE
100
AcDbEntity
  8
0
100
AcDbLine
 62
7
  6
CONTINUOUS
 10
-90.5534730105
 20
-29.9934985915
 11
-90.5836628991
 21
-30.0143293365
  0
LWPOLYLINE
  5
3AF
100
AcDbEntity
  8
ASSI
100
AcDbPolyline
 62
250
  6
CONTINUOUS
 90
13
 70
0
 10
-91.9989377335
 20
-29.5734435045
 10
-92.0264673055
 20
-29.5919706562
 10
-92.0534672747
 20
-29.6143002684
 10
-92.0794797977
 20
-29.6400536938
 10
-92.1040637756
 20
-29.6687942273
 10
-92.1268023336
 20
-29.7000345103
 10
-92.1473098899
 20
-29.733244796
 10
-92.1652386943
 20
-29.7678619317
 10
-92.1802847249
 20
-29.8032989085
 10
-92.1921928435
 20
-29.8389548153
 10
-92.2007611221
 20
-29.8742250287
 10
-92.2058442667
 20
-29.9085114655
 10
-92.2073560817
 20
-29.9412327244
  0
LWPOLYLINE
  5
3B0
100
AcDbEntity
  8
0
100
AcDbPolyline
 62
250
  6
CONTINUOUS
 90
13
 70
0
 10
-91.9989377335
 20
-29.5734435045
 10
-92.0264673055
 20
-29.5919706562
 10
-92.0534672747
 20
-29.6143002684
 10
-92.0794797977
 20
-29.6400536938
 10
-92.1040637756
 20
-29.6687942273
 10
-92.1268023336
 20
-29.7000345103
 10
-92.1473098899
 20
-29.733244796
 10
-92.1652386943
 20
-29.7678619317
 10
-92.1802847249
 20
-29.8032989085
 10
-92.1921928435
 20
-29.8389548153
 10
-92.2007611221
 20
-29.8742250287
 10
-92.2058442667
 20
-29.9085114655
 10
-92.2073560817
 20
-29.9412327244
  0
LWPOLYLINE
  5
3B1
100
AcDbEntity
  8
ASSI
100
AcDbPolyline
 62
250
  6
CONTINUOUS
 90
13
 70
0
 10
-91.3625416304
 20
-29.9408906385
 10
-91.3900704743
 20
-29.959417244
 10
-91.4170698501
 20
-29.9817462025
 10
-91.4430819375
 20
-30.0074989337
 10
-91.4676656287
 20
-30.0362387691
 10
-91.4904040737
 20
-30.0674784285
 10
-91.5109117317
 20
-30.1006883021
 10
-91.5288408165
 20
-30.1353052941
 10
-91.5438872449
 20
-30.1707424096
 10
-91.555795831
 20
-30.2063987979
 10
-91.5643645612
 20
-30.2416698289
 10
-91.5694480402
 20
-30.2759573436
 10
-91.5709599787
 20
-30.3086798584
  0
LWPOLYLINE
  5
3B2
100
AcDbEntity
  8
0
100
AcDbPolyline
 62
250
  6
CONTINUOUS
 90
13
 70
0
 10
-91.3625416304
 20
-29.9408906385
 10
-91.3900704743
 20
-29.959417244
 10
-91.4170698501
 20
-29.9817462025
 10
-91.4430819375
 20
-30.0074989337
 10
-91.4676656287
 20
-30.0362387691
 10
-91.4904040737
 20
-30.0674784285
 10
-91.5109117317
 20
-30.1006883021
 10
-91.5288408165
 20
-30.1353052941
 10
-91.5438872449
 20
-30.1707424096
 10
-91.555795831
 20
-30.2063987979
 10
-91.5643645612
 20
-30.2416698289
 10
-91.5694480402
 20
-30.2759573436
 10
-91.5709599787
 20
-30.3086798584
  0
LWPOLYLINE
  5
3B3
100
AcDbEntity
  8
0
100
AcDbPolyline
 62
7
  6
CONTINUOUS
 90
24
 70
0
 10
-68.7948021106
 20
-14.4726553968
 10
-68.867548072
 20
-14.5210012336
 10
-68.9381580572
 20
-14.5756633655
 10
-69.0066320659
 20
-14.6366417925
 10
-69.0735096848
 20
-14.7046232101
 10
-69.1382513274
 20
-14.7789209228
 10
-69.1992382339
 20
-14.8574748438
 10
-69.256342074
 20
-14.9403102516
 10
-69.3096911781
 20
-15.0274018677
 10
-69.3580517777
 20
-15.1166137702
 10
-69.4014091208
 20
-15.2081975591
 10
-69.4397779593
 20
-15.3019016342
 10
-69.4719687813
 20
-15.3948352733
 10
-69.4976855533
 20
-15.4865615031
 10
-69.5172243087
 20
-15.5775172968
 10
-69.5302836355
 20
-15.6661228519
 10
-69.5367630629
 20
-15.7528674518
 10
-69.5367630617
 20
-15.8372618132
 10
-69.5302836317
 20
-15.9162582835
 10
-69.5172243018
 20
-15.9892474366
 10
-69.4976855432
 20
-16.0568386987
 10
-69.4719687691
 20
-16.1178126957
 10
-69.4397779471
 20
-16.1722524017
 10
-69.4067793557
 20
-16.2142003701
  0
LINE
  5
3B4
100
AcDbEntity
  8
IMPORT_IGES
100
AcDbLine
 62
250
  6
CONTINUOUS
 10
-58.4429608871
 20
-8.9827266991
 11
-58.3111958011
 21
-8.8970110883
  0
LINE
  5
3B5
100
AcDbEntity
  8
ASSI
100
AcDbLine
 62
7
  6
CONTINUOUS
 10
-90.5836397245
 20
-30.0143275545
 11
-90.5834742953
 21
-30.0142273064
  0
LINE
  5
3B6
100
AcDbEntity
  8
0
100
AcDbLine
 62
7
  6
CONTINUOUS
 10
-90.583652057
 20
-30.0143350244
 11
-90.5834742953
 21
-30.0142273064
  0
LINE
  5
3B7
100
AcDbEntity
  8
0
100
AcDbLine
 62
7
  6
CONTINUOUS
 10
-57.4618034231
 20
-7.6115422527
 11
-68.7948021106
 21
-14.4726553968
  0
LINE
  5
3B8
100
AcDbEntity
  8
ASSI
100
AcDbLine
 62
250
  6
CONTINUOUS
 10
-91.9989377335
 20
-29.5734435045
 11
-90.6709853071
 21
-28.7799359027
  0
LINE
  5
3B9
100
AcDbEntity
  8
0
100
AcDbLine
 62
250
  6
CONTINUOUS
 10
-91.9989377335
 20
-29.5734435045
 11
-90.6709853071
 21
-28.7799359027
  0
LINE
  5
3BA
100
AcDbEntity
  8
ASSI
100
AcDbLine
 62
250
  6
CONTINUOUS
 10
-91.3625416304
 20
-29.9408906385
 11
-90.3644727294
 21
-29.344502361
  0
LINE
  5
3BB
100
AcDbEntity
  8
0
100
AcDbLine
 62
250
  6
CONTINUOUS
 10
-91.3625416304
 20
-29.9408906385
 11
-90.3644727294
 21
-29.344502361
  0
LINE
  5
3BC
100
AcDbEntity
  8
0
100
AcDbLine
 62
7
  6
CONTINUOUS
 10
-57.4618034231
 20
-9.5392965128
 11
-68.7948021106
 21
-16.2302336297
  0
LINE
  5
3BD
100
AcDbEntity
  8
ASSI
100
AcDbLine
 62
7
  6
CONTINUOUS
 10
-56.2678995872
 20
-9.5761039179
 11
-51.6002474812
 21
-6.8331739421
  0
LINE
  5
3BE
100
AcDbEntity
  8
0
100
AcDbLine
 62
7
  6
CONTINUOUS
 10
-58.3380013471
 20
-8.931579439
 11
-69.4569739526
 21
-15.3515457918
  0
LINE
  5
3BF
100
AcDbEntity
  8
IMPORT_IGES
100
AcDbLine
 62
7
  6
CONTINUOUS
 10
-90.3692043234
 20
-28.279148921
 11
-90.745793852
 21
-28.496586995
  0
LINE
  5
3C0
100
AcDbEntity
  8
0
100
AcDbLine
 62
7
  6
CONTINUOUS
 10
-52.3088085731
 20
-6.424059648
 11
-57.0179246227
 21
-9.1430488625
  0
LINE
  5
3C1
100
AcDbEntity
  8
IMPORT_IGES
100
AcDbLine
 62
7
  6
CONTINUOUS
 10
-90.3922404614
 20
-28.7007242916
 11
-90.3676106728
 21
-28.6865033604
  0
LWPOLYLINE
  5
3C2
100
AcDbEntity
  8
IMPORT_IGES
100
AcDbPolyline
 62
250
  6
CONTINUOUS
 90
13
 70
0
 10
-58.3111958011
 20
-8.8970110883
 10
-58.1813709589
 20
-8.82266536
 10
-58.0503444085
 20
-8.7578121937
 10
-57.9162418065
 20
-8.7021842425
 10
-57.7822894079
 20
-8.6577969385
 10
-57.652887974
 20
-8.626011193
 10
-57.5307462831
 20
-8.6066203405
 10
-57.4139295721
 20
-8.5984464263
 10
-57.2998615702
 20
-8.6011433526
 10
-57.1881401633
 20
-8.6151321623
 10
-57.0804451691
 20
-8.6406344338
 10
-56.9775665967
 20
-8.6777151482
 10
-56.8791883586
 20
-8.7269121561
  0
LWPOLYLINE
  5
3C3
100
AcDbEntity
  8
IMPORT_IGES
100
AcDbPolyline
 62
250
  6
CONTINUOUS
 90
8
 70
0
 10
-57.8394878014
 20
-9.2840225372
 10
-57.8001157608
 20
-9.2643886814
 10
-57.6857557496
 20
-9.2167592874
 10
-57.5722332217
 20
-9.178830783
 10
-57.4611401528
 20
-9.1511457037
 10
-57.3524884349
 20
-9.1338421779
 10
-57.2462661759
 20
-9.1267820771
 10
-57.1440296756
 20
-9.1300935509
  0
LWPOLYLINE
  5
3C4
100
AcDbEntity
  8
ASSI
100
AcDbPolyline
 62
250
  6
CONTINUOUS
 90
13
 70
0
 10
-93.1040165061
 20
-27.6854068208
 10
-93.1336151479
 20
-27.7001078246
 10
-93.16620554
 20
-27.7124780941
 10
-93.2012424136
 20
-27.7223106239
 10
-93.2381395242
 20
-27.7294408616
 10
-93.2762795499
 20
-27.7337494812
 10
-93.3150244277
 20
-27.7351643574
 10
-93.3537258765
 20
-27.733661761
 10
-93.3917362997
 20
-27.7292667796
 10
-93.4284197127
 20
-27.722052887
 10
-93.4631622662
 20
-27.7121407234
 10
-93.4953825255
 20
-27.6996960952
 10
-93.5245412613
 20
-27.6849271899
  0
LWPOLYLINE
  5
3C5
100
AcDbEntity
  8
0
100
AcDbPolyline
 62
250
  6
CONTINUOUS
 90
13
 70
0
 10
-93.1040165061
 20
-27.6854068208
 10
-93.1336151479
 20
-27.7001078246
 10
-93.16620554
 20
-27.7124780941
 10
-93.2012424136
 20
-27.7223106239
 10
-93.2381395242
 20
-27.7294408616
 10
-93.2762795499
 20
-27.7337494812
 10
-93.3150244277
 20
-27.7351643574
 10
-93.3537258765
 20
-27.733661761
 10
-93.3917362997
 20
-27.7292667796
 10
-93.4284197127
 20
-27.722052887
 10
-93.4631622662
 20
-27.7121407234
 10
-93.4953825255
 20
-27.6996960952
 10
-93.5245412613
 20
-27.6849271899
  0
LWPOLYLINE
  5
3C6
100
AcDbEntity
  8
IMPORT_IGES
100
AcDbPolyline
 62
7
  6
CONTINUOUS
 90
9
 70
0
 10
-66.4796008746
 20
-17.1533603084
 10
-66.4411752077
 20
-17.1405331764
 10
-66.2463446357
 20
-17.060797164
 10
-66.0509092595
 20
-16.9662314313
 10
-65.8564297731
 20
-16.8576895067
 10
-65.6637551589
 20
-16.7358554535
 10
-65.4732138743
 20
-16.6011224567
 10
-65.2856564825
 20
-16.4542544303
 10
-65.192769876
 20
-16.3742996801
  0
LINE
  5
3C7
100
AcDbEntity
  8
ASSI
100
AcDbLine
 62
250
  6
CONTINUOUS
 10
-98.3571288275
 20
-3.0911719141
 11
-83.4954440066
 21
-11.672122469
  0
LINE
  5
3C8
100
AcDbEntity
  8
0
100
AcDbLine
 62
250
  6
CONTINUOUS
 10
-98.3571288275
 20
-3.0911719141
 11
-83.4954440066
 21
-11.672122469
  0
LWPOLYLINE
  5
3C9
100
AcDbEntity
  8
ASSI
100
AcDbPolyline
 62
250
  6
CONTINUOUS
 90
16
 70
0
 10
-83.4954440066
 20
-11.672122469
 10
-83.4590562278
 20
-11.6960273307
 10
-83.4228641645
 20
-11.7240150643
 10
-83.387263884
 20
-11.7557793867
 10
-83.3526449772
 20
-11.7909726855
 10
-83.3193862956
 20
-11.8292098234
 10
-83.2878518053
 20
-11.8700723531
 10
-83.2583866034
 20
-11.9131130962
 10
-83.2313131419
 20
-11.9578610372
 10
-83.2069276986
 20
-12.0038264775
 10
-83.1854971353
 20
-12.0505063953
 10
-83.167255977
 20
-12.0973899496
 10
-83.1524038455
 20
-12.1439640712
 10
-83.1411032749
 20
-12.1897190768
 10
-83.1334779326
 20
-12.2341542474
 10
-83.1296112666
 20
-12.2767833074
  0
LWPOLYLINE
  5
3CA
100
AcDbEntity
  8
0
100
AcDbPolyline
 62
250
  6
CONTINUOUS
 90
16
 70
0
 10
-83.4954440066
 20
-11.672122469
 10
-83.4590562278
 20
-11.6960273307
 10
-83.4228641645
 20
-11.7240150643
 10
-83.387263884
 20
-11.7557793867
 10
-83.3526449772
 20
-11.7909726855
 10
-83.3193862956
 20
-11.8292098234
 10
-83.2878518053
 20
-11.8700723531
 10
-83.2583866034
 20
-11.9131130962
 10
-83.2313131419
 20
-11.9578610372
 10
-83.2069276986
 20
-12.0038264775
 10
-83.1854971353
 20
-12.0505063953
 10
-83.167255977
 20
-12.0973899496
 10
-83.1524038455
 20
-12.1439640712
 10
-83.1411032749
 20
-12.1897190768
 10
-83.1334779326
 20
-12.2341542474
 10
-83.1296112666
 20
-12.2767833074
  0
LINE
  5
3CB
100
AcDbEntity
  8
0
100
AcDbLine
 62
250
  6
CONTINUOUS
 10
-68.7948021106
 20
-20.3125850136
 11
-69.5196787736
 21
-19.6765218538
  0
LWPOLYLINE
  5
3CC
100
AcDbEntity
  8
0
100
AcDbPolyline
 62
7
  6
CONTINUOUS
 90
4
 70
0
 10
-88.8221906516
 20
-1.4334880685
 10
-88.7806999106
 20
-1.4733997231
 10
-88.7384818317
 20
-1.5075423003
 10
-88.7202610878
 20
-1.519540572
  0
LWPOLYLINE
  5
3CD
100
AcDbEntity
  8
0
100
AcDbPolyline
 62
7
  6
CONTINUOUS
 90
12
 70
0
 10
-69.4067793557
 20
-20.2965517541
 10
-69.4014091097
 20
-20.3024262265
 10
-69.3580517676
 20
-20.3421631064
 10
-69.3096911677
 20
-20.3735451858
 10
-69.256342063
 20
-20.3968417042
 10
-69.1992382232
 20
-20.4113920845
 10
-69.1382513187
 20
-20.41701759
 10
-69.0735096791
 20
-20.4138969576
 10
-69.0066320627
 20
-20.4019058203
 10
-68.9381580555
 20
-20.3810027228
 10
-68.8675480714
 20
-20.3512291206
 10
-68.7948021106
 20
-20.3125850136
  0
LINE
  5
3CE
100
AcDbEntity
  8
0
100
AcDbLine
 62
7
  6
CONTINUOUS
 10
-88.8629540548
 20
-1.3878073366
 11
-88.8221906516
 21
-1.4334880685
  0
LWPOLYLINE
  5
3CF
100
AcDbEntity
  8
0
100
AcDbPolyline
 62
250
  6
CONTINUOUS
 90
10
 70
0
 10
-82.8963200068
 20
-4.8407976268
 10
-82.9043692008
 20
-4.8310442885
 10
-82.9127038231
 20
-4.8217113676
 10
-82.9212894966
 20
-4.8128373589
 10
-82.9300908088
 20
-4.804458864
 10
-82.9390714579
 20
-4.796610441
 10
-82.9481944021
 20
-4.7893244614
 10
-82.957422013
 20
-4.7826309771
 10
-82.9667162303
 20
-4.776557596
 10
-88.5506085038
 20
-1.5524311132
  0
LINE
  5
3D0
100
AcDbEntity
  8
0
100
AcDbLine
 62
250
  6
CONTINUOUS
 10
-82.9893880743
 20
-5.1825190458
 11
-83.1149956997
 21
-5.0146262218
  0
LINE
  5
3D1
100
AcDbEntity
  8
0
100
AcDbLine
 62
250
  6
CONTINUOUS
 10
-82.7698129557
 20
-5.0098984014
 11
-82.8963200141
 21
-4.8407976171
  0
LINE
  5
3D2
100
AcDbEntity
  8
0
100
AcDbLine
 62
7
  6
CONTINUOUS
 10
-82.201438899
 20
-4.686890006
 11
-82.3459000459
 21
-4.4938806079
  0
LINE
  5
3D3
100
AcDbEntity
  8
0
100
AcDbLine
 62
250
  6
CONTINUOUS
 10
-82.9280212888
 20
-5.2651309012
 11
-82.9893880743
 21
-5.1825190458
  0
LINE
  5
3D4
100
AcDbEntity
  8
0
100
AcDbLine
 62
250
  6
CONTINUOUS
 10
-82.7080042507
 20
-5.0931023072
 11
-82.7698129557
 21
-5.0098984014
  0
LWPOLYLINE
  5
3D5
100
AcDbEntity
  8
0
100
AcDbPolyline
 62
7
  6
CONTINUOUS
 90
3
 70
0
 10
-82.201438899
 20
-4.686890006
 10
-82.0509860228
 20
-4.8901411582
 10
-82.039593463
 20
-4.905625791
  0
LINE
  5
3D6
100
AcDbEntity
  8
0
100
AcDbLine
 62
7
  6
CONTINUOUS
 10
-81.270168185
 20
-5.9866544626
 11
-81.5185719224
 21
-5.6283615331
  0
LWPOLYLINE
  5
3D7
100
AcDbEntity
  8
0
100
AcDbPolyline
 62
7
  6
CONTINUOUS
 90
10
 70
0
 10
-82.1423188258
 20
-4.7664826325
 10
-82.1297913605
 20
-4.7846662328
 10
-82.1185866256
 20
-4.8032576897
 10
-82.1087046211
 20
-4.8222570033
 10
-82.1000600427
 20
-4.8418977532
 10
-82.0927381946
 20
-4.8619463598
 10
-82.0869949901
 20
-4.8817020843
 10
-82.0829157336
 20
-4.9009313471
 10
-82.0804151207
 20
-4.9198677279
 10
-82.0794931513
 20
-4.9385112266
  0
LINE
  5
3D8
100
AcDbEntity
  8
0
100
AcDbLine
 62
7
  6
CONTINUOUS
 10
-78.5913854475
 20
0.5940055385
 11
-78.3512822979
 21
-0.5725332291
  0
LWPOLYLINE
  5
3D9
100
AcDbEntity
  8
IMPORT_IGES
100
AcDbPolyline
 62
7
  6
CONTINUOUS
 90
6
 70
0
 10
-64.8689710859
 20
-8.6201345462
 10
-64.8329255416
 20
-8.5563752949
 10
-64.7134555281
 20
-8.3255587429
 10
-64.6030362993
 20
-8.0912958853
 10
-64.5020477779
 20
-7.8543024534
 10
-64.4708530829
 20
-7.7725411129
  0
LWPOLYLINE
  5
3DA
100
AcDbEntity
  8
0
100
AcDbPolyline
 62
7
  6
CONTINUOUS
 90
24
 70
0
 10
-68.7948021106
 20
-18.5550067807
 10
-68.867548072
 20
-18.6033526176
 10
-68.9381580572
 20
-18.6580147495
 10
-69.0066320659
 20
-18.7189931765
 10
-69.0735096848
 20
-18.7869745941
 10
-69.1382513274
 20
-18.8612723067
 10
-69.1992382339
 20
-18.9398262278
 10
-69.256342074
 20
-19.0226616356
 10
-69.3096911781
 20
-19.1097532517
 10
-69.3580517777
 20
-19.1989651542
 10
-69.4014091208
 20
-19.290548943
 10
-69.4397779593
 20
-19.3842530182
 10
-69.4719687813
 20
-19.4771866573
 10
-69.4976855533
 20
-19.5689128871
 10
-69.5172243087
 20
-19.6598686808
 10
-69.5302836355
 20
-19.7484742359
 10
-69.5367630629
 20
-19.8352188358
 10
-69.5367630617
 20
-19.9196131971
 10
-69.5302836317
 20
-19.9986096674
 10
-69.5172243018
 20
-20.0715988206
 10
-69.4976855432
 20
-20.1391900826
 10
-69.4719687691
 20
-20.2001640797
 10
-69.4397779471
 20
-20.2546037856
 10
-69.4067793557
 20
-20.2965517541
  0
LINE
  5
3DB
100
AcDbEntity
  8
0
100
AcDbLine
 62
7
  6
CONTINUOUS
 10
-51.6002474812
 20
-8.1452478081
 11
-68.7948021106
 21
-18.5550067807
  0
LINE
  5
3DC
100
AcDbEntity
  8
IMPORT_IGES
100
AcDbLine
 62
7
  6
CONTINUOUS
 10
-64.9275575135
 20
-16.2681186439
 11
-60.7077906566
 21
-13.8316781469
  0
LINE
  5
3DD
100
AcDbEntity
  8
IMPORT_IGES
100
AcDbLine
 62
7
  6
CONTINUOUS
 10
-60.6663693004
 20
-13.9710639213
 11
-64.8275575135
 21
-16.3736818436
  0
LINE
  5
3DE
100
AcDbEntity
  8
0
100
AcDbLine
 62
7
  6
CONTINUOUS
 10
-52.3088085731
 20
-9.5327445553
 11
-69.4569739526
 21
-19.4338971757
  0
LINE
  5
3DF
100
AcDbEntity
  8
IMPORT_IGES
100
AcDbLine
 62
7
  6
CONTINUOUS
 10
-64.9982681916
 20
-16.6693614112
 11
-65.1396895479
 21
-16.635542105
  0
LINE
  5
3E0
100
AcDbEntity
  8
0
100
AcDbLine
 62
7
  6
CONTINUOUS
 10
-60.5220621652
 20
-21.7113083
 11
-59.8913105451
 21
-22.0754963803
  0
LINE
  5
3E1
100
AcDbEntity
  8
0
100
AcDbLine
 62
7
  6
CONTINUOUS
 10
-57.0706254111
 20
-23.7041246252
 11
-56.3561213145
 21
-24.1166703357
  0
LINE
  5
3E2
100
AcDbEntity
  8
IMPORT_IGES
100
AcDbLine
 62
7
  6
CONTINUOUS
 10
-63.1618802357
 20
-19.881534159
 11
-63.4452885561
 21
-19.7179293738
  0
LWPOLYLINE
  5
3E3
100
AcDbEntity
  8
0
100
AcDbPolyline
 62
250
  6
CONTINUOUS
 90
10
 70
0
 10
-88.8271657404
 20
-1.9365741963
 10
-88.8353338182
 20
-1.9308259399
 10
-88.8426903851
 20
-1.9238351804
 10
-88.8491806897
 20
-1.9156539468
 10
-88.8547564282
 20
-1.9063431283
 10
-88.859376103
 20
-1.8959720214
 10
-88.8630053322
 20
-1.8846178139
 10
-88.8656171056
 20
-1.8723650103
 10
-88.8671919853
 20
-1.8593048024
 10
-88.8677182507
 20
-1.8455343913
  0
LWPOLYLINE
  5
3E4
100
AcDbEntity
  8
0
100
AcDbPolyline
 62
250
  6
CONTINUOUS
 90
3
 70
0
 10
-88.8994299862
 20
-1.8216901533
 10
-88.8849154405
 20
-1.8342169192
 10
-88.8677182507
 20
-1.8455343913
  0
LWPOLYLINE
  5
3E5
100
AcDbEntity
  8
0
100
AcDbPolyline
 62
7
  6
CONTINUOUS
 90
10
 70
0
 10
-77.459314133
 20
-5.9005614165
 10
-77.5976454314
 20
-5.6849581606
 10
-77.7370273779
 20
-5.4702441909
 10
-77.8774599725
 20
-5.2564195076
 10
-78.0189552535
 20
-5.0434662014
 10
-78.1615011826
 20
-4.8314021815
 10
-78.3050616452
 20
-4.6202811751
 10
-78.4496246033
 20
-4.4101210914
 10
-78.5952020949
 20
-4.2009040211
 10
-78.7417941201
 20
-3.9926299644
  0
LINE
  5
3E6
100
AcDbEntity
  8
IMPORT_IGES
100
AcDbLine
 62
7
  6
CONTINUOUS
 10
-69.3846088529
 20
-19.2550617089
 11
-69.3414074417
 21
-19.3671704072
  0
LINE
  5
3E7
100
AcDbEntity
  8
IMPORT_IGES
100
AcDbLine
 62
7
  6
CONTINUOUS
 10
-69.2289784548
 20
-19.3022552088
 11
-69.3056818442
 21
-19.1032080739
  0
LINE
  5
3E8
100
AcDbEntity
  8
IMPORT_IGES
100
AcDbLine
 62
7
  6
CONTINUOUS
 10
-69.1087581515
 20
-19.2328413942
 11
-69.20576263
 21
-18.981112446
  0
LINE
  5
3E9
100
AcDbEntity
  8
0
100
AcDbLine
 62
7
  6
CONTINUOUS
 10
-75.904379679
 20
-0.9574379161
 11
-75.6642765294
 21
-2.1239766837
  0
LINE
  5
3EA
100
AcDbEntity
  8
0
100
AcDbLine
 62
7
  6
CONTINUOUS
 10
-73.2173739105
 20
-2.5088813708
 11
-72.9772707609
 21
-3.6754201384
  0
LWPOLYLINE
  5
3EB
100
AcDbEntity
  8
IMPORT_IGES
100
AcDbPolyline
 62
250
  6
CONTINUOUS
 90
4
 70
0
 10
-69.1069028226
 20
-15.1494187648
 10
-69.1071695839
 20
-15.0334746317
 10
-69.0964344815
 20
-14.8151544908
 10
-69.087094748
 20
-14.7202134713
  0
LWPOLYLINE
  5
3EC
100
AcDbEntity
  8
IMPORT_IGES
100
AcDbPolyline
 62
250
  6
CONTINUOUS
 90
5
 70
0
 10
-68.529045838
 20
-14.8157708164
 10
-68.5272493583
 20
-14.7873873003
 10
-68.5044523211
 20
-14.5834051092
 10
-68.4715654448
 20
-14.3757908941
 10
-68.4486062222
 20
-14.2630648704
  0
LINE
  5
3ED
100
AcDbEntity
  8
IMPORT_IGES
100
AcDbLine
 62
7
  6
CONTINUOUS
 10
-68.6204470537
 20
-31.1979503585
 11
-68.5764700831
 21
-30.6698804935
  0
LWPOLYLINE
  5
3EE
100
AcDbEntity
  8
IMPORT_IGES
100
AcDbPolyline
 62
250
  6
CONTINUOUS
 90
6
 70
0
 10
-64.5790808545
 20
-7.8380633112
 10
-64.6461669116
 20
-8.002073845
 10
-64.7426853353
 20
-8.2155666257
 10
-64.847590358
 20
-8.4267301597
 10
-64.9607082095
 20
-8.6354988756
 10
-64.9942000799
 20
-8.6924403209
  0
LWPOLYLINE
  5
3EF
100
AcDbEntity
  8
IMPORT_IGES
100
AcDbPolyline
 62
7
  6
CONTINUOUS
 90
3
 70
0
 10
-69.3728040649
 20
-19.2856954168
 10
-69.4210614925
 20
-19.3521975687
 10
-69.4351845066
 20
-19.3730349241
  0
LWPOLYLINE
  5
3F0
100
AcDbEntity
  8
0
100
AcDbPolyline
 62
7
  6
CONTINUOUS
 90
24
 70
0
 10
-68.7948021106
 20
-22.6373581647
 10
-68.867548072
 20
-22.6857040015
 10
-68.9381580572
 20
-22.7403661335
 10
-69.0066320659
 20
-22.8013445604
 10
-69.0735096848
 20
-22.869325978
 10
-69.1382513274
 20
-22.9436236907
 10
-69.1992382339
 20
-23.0221776117
 10
-69.256342074
 20
-23.1050130195
 10
-69.3096911781
 20
-23.1921046357
 10
-69.3580517777
 20
-23.2813165381
 10
-69.4014091208
 20
-23.372900327
 10
-69.4397779593
 20
-23.4666044022
 10
-69.4719687813
 20
-23.5595380413
 10
-69.4976855533
 20
-23.651264271
 10
-69.5172243087
 20
-23.7422200647
 10
-69.5302836355
 20
-23.8308256199
 10
-69.5367630629
 20
-23.9175702198
 10
-69.5367630617
 20
-24.0019645811
 10
-69.5302836317
 20
-24.0809610514
 10
-69.5172243018
 20
-24.1539502045
 10
-69.4976855432
 20
-24.2215414666
 10
-69.4719687691
 20
-24.2825154636
 10
-69.4397779471
 20
-24.3369551696
 10
-69.4067793557
 20
-24.378903138
  0
LINE
  5
3F1
100
AcDbEntity
  8
0
100
AcDbLine
 62
7
  6
CONTINUOUS
 10
-51.6002474812
 20
-12.227599192
 11
-68.7948021106
 21
-22.6373581647
  0
LINE
  5
3F2
100
AcDbEntity
  8
0
100
AcDbLine
 62
7
  6
CONTINUOUS
 10
-51.6002474812
 20
-10.1610190468
 11
-68.7948021106
 21
-20.3125850136
  0
LWPOLYLINE
  5
3F3
100
AcDbEntity
  8
IMPORT_IGES
100
AcDbPolyline
 62
250
  6
CONTINUOUS
 90
7
 70
0
 10
-60.0927148971
 20
-5.5656249968
 10
-60.1757045045
 20
-5.5880681336
 10
-60.2558950219
 20
-5.6023134055
 10
-60.3332864493
 20
-5.6083608124
 10
-60.4082662298
 20
-5.6061387469
 10
-60.4804469203
 20
-5.5957188165
 10
-60.482226797
 20
-5.5952386733
  0
LWPOLYLINE
  5
3F4
100
AcDbEntity
  8
0
100
AcDbPolyline
 62
250
  6
CONTINUOUS
 90
3
 70
0
 10
-82.4741653303
 20
-5.3772395997
 10
-82.4515647726
 20
-5.3884526
 10
-82.4276219475
 20
-5.3962936859
  0
LINE
  5
3F5
100
AcDbEntity
  8
0
100
AcDbLine
 62
250
  6
CONTINUOUS
 10
-82.908351954
 20
-5.2750905548
 11
-82.9280212888
 21
-5.2651309012
  0
LINE
  5
3F6
100
AcDbEntity
  8
0
100
AcDbLine
 62
250
  6
CONTINUOUS
 10
-82.9084889833
 20
-5.2849398646
 11
-82.9280212888
 21
-5.2750409753
  0
LINE
  5
3F7
100
AcDbEntity
  8
IMPORT_IGES
100
AcDbLine
 62
7
  6
CONTINUOUS
 10
-65.1396895479
 20
-16.635542105
 11
-65.3569627631
 21
-16.5100912736
  0
LINE
  5
3F8
100
AcDbEntity
  8
IMPORT_IGES
100
AcDbLine
 62
7
  6
CONTINUOUS
 10
-64.9275575135
 20
-16.2681186439
 11
-64.9735343002
 21
-16.2415722235
  0
LINE
  5
3F9
100
AcDbEntity
  8
0
100
AcDbLine
 62
7
  6
CONTINUOUS
 10
-57.2114983922
 20
-20.5282037963
 11
-57.9057376757
 21
-20.1273587348
  0
LINE
  5
3FA
100
AcDbEntity
  8
0
100
AcDbLine
 62
7
  6
CONTINUOUS
 10
-88.8271657404
 20
-1.9365741963
 11
-82.8874687784
 21
-5.3660807802
  0
LINE
  5
3FB
100
AcDbEntity
  8
0
100
AcDbLine
 62
250
  6
CONTINUOUS
 10
-88.8677182507
 20
-1.8455343913
 11
-82.9280212888
 21
-5.2750409753
  0
LINE
  5
3FC
100
AcDbEntity
  8
0
100
AcDbLine
 62
250
  6
CONTINUOUS
 10
-88.6807085219
 20
-1.8010533931
 11
-83.1149956997
 21
-5.0146262218
  0
LINE
  5
3FD
100
AcDbEntity
  8
ASSI
100
AcDbLine
 62
7
  6
CONTINUOUS
 10
-92.7217193329
 20
0.6253276486
 11
-88.8590757725
 21
-1.6049143329
  0
LINE
  5
3FE
100
AcDbEntity
  8
0
100
AcDbLine
 62
7
  6
CONTINUOUS
 10
-92.7217193329
 20
0.6253276486
 11
-88.8590757725
 21
-1.6049143329
  0
LINE
  5
3FF
100
AcDbEntity
  8
ASSI
100
AcDbLine
 62
7
  6
CONTINUOUS
 10
-82.235025913
 20
-5.429557703
 11
-77.6598066443
 21
-8.0712319677
  0
LINE
  5
400
100
AcDbEntity
  8
0
100
AcDbLine
 62
7
  6
CONTINUOUS
 10
-82.235025913
 20
-5.429557703
 11
-77.6598066443
 21
-8.0712319677
  0
LINE
  5
401
100
AcDbEntity
  8
0
100
AcDbLine
 62
7
  6
CONTINUOUS
 10
-56.4350144526
 20
-20.0798709384
 11
-57.1476494849
 21
-19.6684044021
  0
LINE
  5
402
100
AcDbEntity
  8
IMPORT_IGES
100
AcDbLine
 62
7
  6
CONTINUOUS
 10
-60.3969520344
 20
-17.7288461603
 11
-60.5454548344
 21
-17.6431190769
  0
LINE
  5
403
100
AcDbEntity
  8
0
100
AcDbLine
 62
7
  6
CONTINUOUS
 10
-56.6632204443
 20
-19.3751261137
 11
-55.9388302692
 21
-19.793379922
  0
LINE
  5
404
100
AcDbEntity
  8
0
100
AcDbLine
 62
250
  6
CONTINUOUS
 10
-88.8288932689
 20
-1.9355593607
 11
-88.8271657404
 21
-1.9365741963
  0
LINE
  5
405
100
AcDbEntity
  8
0
100
AcDbLine
 62
250
  6
CONTINUOUS
 10
-82.7164555324
 20
-5.4682794047
 11
-82.713431484
 21
-5.4700558901
  0
LINE
  5
406
100
AcDbEntity
  8
0
100
AcDbLine
 62
250
  6
CONTINUOUS
 10
-82.8874687784
 20
-5.3660807802
 11
-82.7164555324
 21
-5.4682794047
  0
LINE
  5
407
100
AcDbEntity
  8
0
100
AcDbLine
 62
250
  6
CONTINUOUS
 10
-82.6451785763
 20
-5.2750409753
 11
-82.4741653303
 21
-5.3772395997
  0
LWPOLYLINE
  5
408
100
AcDbEntity
  8
0
100
AcDbPolyline
 62
7
  6
CONTINUOUS
 90
7
 70
0
 10
-82.423107772
 20
-4.4228442903
 10
-82.4096554519
 20
-4.43130872
 10
-82.3964368781
 20
-4.4411231324
 10
-82.3834520506
 20
-4.4522875273
 10
-82.3707009694
 20
-4.4648019049
 10
-82.3581836345
 20
-4.4786662651
 10
-82.3459000459
 20
-4.4938806079
  0
LWPOLYLINE
  5
409
100
AcDbEntity
  8
0
100
AcDbPolyline
 62
250
  6
CONTINUOUS
 90
6
 70
0
 10
-88.8677182507
 20
-1.8356243173
 10
-88.8849679736
 20
-1.8242673332
 10
-88.8995025925
 20
-1.811707528
 10
-88.9110734431
 20
-1.7981598271
 10
-88.9194825686
 20
-1.7838560767
 10
-88.9245861459
 20
-1.769041012
  0
LINE
  5
40A
100
AcDbEntity
  8
0
100
AcDbLine
 62
250
  6
CONTINUOUS
 10
-68.7948021106
 20
-16.2302336297
 11
-69.5196787736
 21
-15.5941704699
  0
LWPOLYLINE
  5
40B
100
AcDbEntity
  8
0
100
AcDbPolyline
 62
7
  6
CONTINUOUS
 90
5
 70
0
 10
-85.9828776076
 20
0.1882808892
 10
-85.9461321477
 20
0.1543926674
 10
-85.9092740365
 20
0.1250350251
 10
-85.8723032741
 20
0.1002079623
 10
-85.8698344963
 20
0.0988602673
  0
LWPOLYLINE
  5
40C
100
AcDbEntity
  8
0
100
AcDbPolyline
 62
7
  6
CONTINUOUS
 90
12
 70
0
 10
-69.4067793557
 20
-16.2142003701
 10
-69.4014091097
 20
-16.2200748425
 10
-69.3580517676
 20
-16.2598117225
 10
-69.3096911677
 20
-16.2911938018
 10
-69.256342063
 20
-16.3144903202
 10
-69.1992382232
 20
-16.3290407005
 10
-69.1382513187
 20
-16.3346662061
 10
-69.0735096791
 20
-16.3315455736
 10
-69.0066320627
 20
-16.3195544364
 10
-68.9381580555
 20
-16.2986513389
 10
-68.8675480714
 20
-16.2688777366
 10
-68.7948021106
 20
-16.2302336297
  0
LWPOLYLINE
  5
40D
100
AcDbEntity
  8
0
100
AcDbPolyline
 62
7
  6
CONTINUOUS
 90
3
 70
0
 10
-79.2157106791
 20
-3.3352359618
 10
-79.2442497033
 20
-3.2964032141
 10
-79.3874478076
 20
-3.1028153593
  0
LINE
  5
40E
100
AcDbEntity
  8
IMPORT_IGES
100
AcDbLine
 62
7
  6
CONTINUOUS
 10
-69.20576263
 20
-18.981112446
 11
-69.2123480102
 21
-18.9588434018
  0
LINE
  5
40F
100
AcDbEntity
  8
IMPORT_IGES
100
AcDbLine
 62
7
  6
CONTINUOUS
 10
-64.6174548148
 20
-24.1907008345
 11
-64.5875003524
 21
-24.566626388
  0
LINE
  5
410
100
AcDbEntity
  8
IMPORT_IGES
100
AcDbLine
 62
7
  6
CONTINUOUS
 10
-64.5804292846
 20
-24.570709134
 11
-64.6110195086
 21
-24.1868048344
  0
LINE
  5
411
100
AcDbEntity
  8
IMPORT_IGES
100
AcDbLine
 62
7
  6
CONTINUOUS
 10
-65.9978761331
 20
-25.2691764934
 11
-65.9968026784
 21
-25.6007370166
  0
LINE
  5
412
100
AcDbEntity
  8
IMPORT_IGES
100
AcDbLine
 62
7
  6
CONTINUOUS
 10
-65.9908183575
 20
-25.2691536432
 11
-65.9897579977
 21
-25.5966694993
  0
LINE
  5
413
100
AcDbEntity
  8
IMPORT_IGES
100
AcDbLine
 62
7
  6
CONTINUOUS
 10
-66.713002136
 20
-17.2946638157
 11
-66.713002136
 21
-17.849559543
  0
LINE
  5
414
100
AcDbEntity
  8
0
100
AcDbLine
 62
250
  6
CONTINUOUS
 10
-65.5002236447
 20
5.7285623387
 11
-65.5002236447
 21
5.8274438003
  0
LINE
  5
415
100
AcDbEntity
  8
IMPORT_IGES
100
AcDbLine
 62
7
  6
CONTINUOUS
 10
-65.1396895479
 20
-16.635542105
 11
-65.1396895479
 21
-16.9411470272
  0
LINE
  5
416
100
AcDbEntity
  8
IMPORT_IGES
100
AcDbLine
 62
7
  6
CONTINUOUS
 10
-64.9982681916
 20
-16.6693614112
 11
-64.9982681916
 21
-16.8594919696
  0
LWPOLYLINE
  5
417
100
AcDbEntity
  8
IMPORT_IGES
100
AcDbPolyline
 62
250
  6
CONTINUOUS
 90
11
 70
0
 10
-58.9508965054
 20
-4.4307030282
 10
-58.9620458062
 20
-4.4545334829
 10
-59.0173451085
 20
-4.5602911208
 10
-59.0775769418
 20
-4.6643373257
 10
-59.1417709549
 20
-4.7649757556
 10
-59.2099911029
 20
-4.862160133
 10
-59.2821734306
 20
-4.9559367353
 10
-59.357155721
 20
-5.0447480524
 10
-59.4345505682
 20
-5.128074914
 10
-59.5147453779
 20
-5.2064364904
 10
-59.5977401503
 20
-5.2798327815
  0
LWPOLYLINE
  5
418
100
AcDbEntity
  8
IMPORT_IGES
100
AcDbPolyline
 62
7
  6
CONTINUOUS
 90
11
 70
0
 10
-58.2208968252
 20
-4.9335183243
 10
-58.1892148228
 20
-4.8730270569
 10
-58.1308483933
 20
-4.748516907
 10
-58.0779951898
 20
-4.621656908
 10
-58.0317540204
 20
-4.4948361327
 10
-57.9922938751
 20
-4.3680864613
 10
-57.9594457639
 20
-4.2413760136
 10
-57.9338015245
 20
-4.1169982219
 10
-57.9155584363
 20
-3.9957175635
 10
-57.9045192199
 20
-3.876769561
 10
-57.9018496246
 20
-3.7955993331
  0
LINE
  5
419
100
AcDbEntity
  8
IMPORT_IGES
100
AcDbLine
 62
250
  6
CONTINUOUS
 10
-58.2038610128
 20
-4.2567071668
 11
-58.649939302
 21
-5.0293374271
  0
LINE
  5
41A
100
AcDbEntity
  8
IMPORT_IGES
100
AcDbLine
 62
250
  6
CONTINUOUS
 10
-58.1617373392
 20
-4.5167859252
 11
-58.3615094425
 21
-4.8628013577
  0
LINE
  5
41B
100
AcDbEntity
  8
IMPORT_IGES
100
AcDbLine
 62
7
  6
CONTINUOUS
 10
-65.1396895479
 20
-16.635542105
 11
-64.9275575135
 21
-16.2681186439
  0
LINE
  5
41C
100
AcDbEntity
  8
IMPORT_IGES
100
AcDbLine
 62
7
  6
CONTINUOUS
 10
-64.8275575135
 20
-16.3736818436
 11
-64.9982681916
 21
-16.6693614112
  0
LINE
  5
41D
100
AcDbEntity
  8
IMPORT_IGES
100
AcDbLine
 62
7
  6
CONTINUOUS
 10
-66.7701281369
 20
-21.9648948201
 11
-66.2790265741
 21
-21.1142819625
  0
LINE
  5
41E
100
AcDbEntity
  8
IMPORT_IGES
100
AcDbLine
 62
7
  6
CONTINUOUS
 10
-66.0315933803
 20
-20.96448338
 11
-66.5286997413
 21
-21.8254968531
  0
LINE
  5
41F
100
AcDbEntity
  8
0
100
AcDbLine
 62
7
  6
CONTINUOUS
 10
-51.6002474812
 20
-14.2433704308
 11
-68.7948021106
 21
-24.3949363976
  0
LINE
  5
420
100
AcDbEntity
  8
0
100
AcDbLine
 62
7
  6
CONTINUOUS
 10
-52.3088085731
 20
-13.6150959393
 11
-69.4569739526
 21
-23.5162485597
  0
LWPOLYLINE
  5
421
100
AcDbEntity
  8
IMPORT_IGES
100
AcDbPolyline
 62
250
  6
CONTINUOUS
 90
10
 70
0
 10
-58.9723371338
 20
-13.3801889792
 10
-58.9912048053
 20
-13.3753365224
 10
-59.0799980807
 20
-13.3411416625
 10
-59.1631653604
 20
-13.2969594226
 10
-59.240896108
 20
-13.2428166897
 10
-59.3123079406
 20
-13.1792052072
 10
-59.3774735294
 20
-13.1058712291
 10
-59.4363202033
 20
-13.0230685014
 10
-59.4877475663
 20
-12.9320500048
 10
-59.4917957641
 20
-12.9228717313
  0
LWPOLYLINE
  5
422
100
AcDbEntity
  8
0
100
AcDbPolyline
 62
250
  6
CONTINUOUS
 90
9
 70
0
 10
-88.5506085038
 20
-1.5524311132
 10
-88.5593921564
 20
-1.5480804876
 10
-88.5680984429
 20
-1.5444623022
 10
-88.576701299
 20
-1.5415371536
 10
-88.5851344409
 20
-1.5393219196
 10
-88.5933373618
 20
-1.537868009
 10
-88.6013104879
 20
-1.537174904
 10
-88.609061764
 20
-1.5372145704
 10
-88.6165768203
 20
-1.5379930344
  0
LWPOLYLINE
  5
423
100
AcDbEntity
  8
IMPORT_IGES
100
AcDbPolyline
 62
250
  6
CONTINUOUS
 90
5
 70
0
 10
-68.8384702729
 20
-10.9120775271
 10
-68.8681776093
 20
-10.8960037849
 10
-68.9819237534
 20
-10.8179869039
 10
-69.0874569702
 20
-10.7279267938
 10
-69.128197272
 20
-10.6850314732
  0
LWPOLYLINE
  5
424
100
AcDbEntity
  8
IMPORT_IGES
100
AcDbPolyline
 62
7
  6
CONTINUOUS
 90
3
 70
0
 10
-69.3246949861
 20
-11.0949478977
 10
-69.3025253236
 20
-11.1075346257
 10
-69.2350594445
 20
-11.141063534
  0
LINE
  5
425
100
AcDbEntity
  8
0
100
AcDbLine
 62
7
  6
CONTINUOUS
 10
-82.423107772
 20
-4.4228442903
 11
-87.9584182051
 21
-1.2268254199
  0
LINE
  5
426
100
AcDbEntity
  8
IMPORT_IGES
100
AcDbLine
 62
7
  6
CONTINUOUS
 10
-69.3734534944
 20
-11.0667954583
 11
-69.3242407287
 21
-11.0952102924
  0
LINE
  5
427
100
AcDbEntity
  8
0
100
AcDbLine
 62
7
  6
CONTINUOUS
 10
-86.2255037113
 20
-0.7030230047
 11
-81.4690164973
 21
-3.4493591093
  0
LINE
  5
428
100
AcDbEntity
  8
ASSI
100
AcDbLine
 62
7
  6
CONTINUOUS
 10
-85.2689288482
 20
-1.2486632787
 11
-82.2841700042
 21
-2.9720256274
  0
LINE
  5
429
100
AcDbEntity
  8
0
100
AcDbLine
 62
7
  6
CONTINUOUS
 10
-85.2689288482
 20
-1.2486632787
 11
-82.2841700042
 21
-2.9720256274
  0
LINE
  5
42A
100
AcDbEntity
  8
0
100
AcDbLine
 62
7
  6
CONTINUOUS
 10
-57.2114983922
 20
-16.4458524123
 11
-57.9057376757
 21
-16.0450073509
  0
LINE
  5
42B
100
AcDbEntity
  8
0
100
AcDbLine
 62
7
  6
CONTINUOUS
 10
-83.4229960356
 20
-1.1735299965
 11
-80.4398988342
 21
-2.8959329336
  0
LINE
  5
42C
100
AcDbEntity
  8
0
100
AcDbLine
 62
7
  6
CONTINUOUS
 10
-79.1285510142
 20
-3.6530887298
 11
-79.0389339922
 21
-3.7048324751
  0
LINE
  5
42D
100
AcDbEntity
  8
IMPORT_IGES
100
AcDbLine
 62
250
  6
CONTINUOUS
 10
-69.3242407287
 20
-11.0952102924
 11
-69.3246949861
 21
-11.0949478977
  0
LINE
  5
42E
100
AcDbEntity
  8
ASSI
100
AcDbLine
 62
7
  6
CONTINUOUS
 10
-85.4700305236
 20
-0.7242508705
 11
-81.0968986003
 21
-3.2492461465
  0
LINE
  5
42F
100
AcDbEntity
  8
0
100
AcDbLine
 62
7
  6
CONTINUOUS
 10
-85.4700305236
 20
-0.7242508705
 11
-81.0968986003
 21
-3.2492461465
  0
LWPOLYLINE
  5
430
100
AcDbEntity
  8
IMPORT_IGES
100
AcDbPolyline
 62
250
  6
CONTINUOUS
 90
3
 70
0
 10
-69.3246949861
 20
-11.0949478977
 10
-69.3397510054
 20
-11.086123151
 10
-69.3723033267
 20
-11.0643659572
  0
LWPOLYLINE
  5
431
100
AcDbEntity
  8
0
100
AcDbPolyline
 62
7
  6
CONTINUOUS
 90
10
 70
0
 10
-79.7787154177
 20
-2.7404927138
 10
-79.7323565606
 20
-2.7690532407
 10
-79.6865791859
 20
-2.8006675072
 10
-79.6413832937
 20
-2.8353355133
 10
-79.5965826344
 20
-2.8732297304
 10
-79.5523634575
 20
-2.914177687
 10
-79.5092845115
 20
-2.9576619696
 10
-79.467532046
 20
-3.0035101069
 10
-79.4269198113
 20
-3.0518945701
 10
-79.3874478076
 20
-3.1028153593
  0
LINE
  5
432
100
AcDbEntity
  8
0
100
AcDbLine
 62
250
  6
CONTINUOUS
 10
-68.7948021106
 20
-12.1478822457
 11
-69.5196787736
 21
-11.5118190859
  0
LINE
  5
433
100
AcDbEntity
  8
IMPORT_IGES
100
AcDbLine
 62
7
  6
CONTINUOUS
 10
-64.9275575135
 20
-16.2681186439
 11
-64.8275575135
 21
-16.3736818436
  0
LWPOLYLINE
  5
434
100
AcDbEntity
  8
0
100
AcDbPolyline
 62
7
  6
CONTINUOUS
 90
12
 70
0
 10
-69.4067793557
 20
-12.1318489861
 10
-69.4014091097
 20
-12.1377234586
 10
-69.3580517676
 20
-12.1774603385
 10
-69.3096911677
 20
-12.2088424178
 10
-69.256342063
 20
-12.2321389362
 10
-69.1992382232
 20
-12.2466893166
 10
-69.1382513187
 20
-12.2523148221
 10
-69.0735096791
 20
-12.2491941896
 10
-69.0066320627
 20
-12.2372030524
 10
-68.9381580555
 20
-12.2162999549
 10
-68.8675480714
 20
-12.1865263527
 10
-68.7948021106
 20
-12.1478822457
  0
LWPOLYLINE
  5
435
100
AcDbEntity
  8
IMPORT_IGES
100
AcDbPolyline
 62
7
  6
CONTINUOUS
 90
5
 70
0
 10
-62.9874426101
 20
-11.6161131209
 10
-62.9983926565
 20
-11.456088595
 10
-63.025285476
 20
-11.2494538549
 10
-63.064397046
 20
-11.0508454402
 10
-63.0754046575
 20
-11.0100737691
  0
LINE
  5
436
100
AcDbEntity
  8
IMPORT_IGES
100
AcDbLine
 62
7
  6
CONTINUOUS
 10
-64.2381284018
 20
-28.6676501868
 11
-64.2381284018
 21
-28.0434041342
  0
LINE
  5
437
100
AcDbEntity
  8
IMPORT_IGES
100
AcDbLine
 62
7
  6
CONTINUOUS
 10
-63.8050254984
 20
0.5925553121
 11
-63.8050254984
 21
0.6104506024
  0
LINE
  5
438
100
AcDbEntity
  8
IMPORT_IGES
100
AcDbLine
 62
7
  6
CONTINUOUS
 10
-60.5217516873
 20
-13.7222389188
 11
-60.6156500056
 21
-13.8848755766
  0
LINE
  5
439
100
AcDbEntity
  8
IMPORT_IGES
100
AcDbLine
 62
7
  6
CONTINUOUS
 10
-60.5431607425
 20
-14.2871643871
 11
-60.4370799785
 21
-14.1034271144
  0
LINE
  5
43A
100
AcDbEntity
  8
IMPORT_IGES
100
AcDbLine
 62
7
  6
CONTINUOUS
 10
-60.5053029957
 20
-14.2653057614
 11
-60.2742643139
 21
-13.8651350265
  0
LINE
  5
43B
100
AcDbEntity
  8
IMPORT_IGES
100
AcDbLine
 62
7
  6
CONTINUOUS
 10
-63.4452885561
 20
-19.7179293738
 11
-63.7215716687
 21
-20.1964657615
  0
LINE
  5
43C
100
AcDbEntity
  8
IMPORT_IGES
100
AcDbLine
 62
7
  6
CONTINUOUS
 10
-64.5875003524
 20
-24.566626388
 11
-64.6899424054
 21
-24.7440612285
  0
LINE
  5
43D
100
AcDbEntity
  8
IMPORT_IGES
100
AcDbLine
 62
7
  6
CONTINUOUS
 10
-64.6828713376
 20
-24.7481439744
 11
-64.5804292846
 21
-24.570709134
  0
LINE
  5
43E
100
AcDbEntity
  8
IMPORT_IGES
100
AcDbLine
 62
7
  6
CONTINUOUS
 10
-68.1911971579
 20
-30.9501064267
 11
-67.735440371
 21
-30.1607125168
  0
LWPOLYLINE
  5
43F
100
AcDbEntity
  8
IMPORT_IGES
100
AcDbPolyline
 62
7
  6
CONTINUOUS
 90
9
 70
0
 10
-56.8278978575
 20
-12.1420145104
 10
-56.7686429631
 20
-12.0476706305
 10
-56.6742073305
 20
-11.8819959805
 10
-56.5871018764
 20
-11.7127584732
 10
-56.507712967
 20
-11.5406754864
 10
-56.4364406401
 20
-11.3665388772
 10
-56.3736077892
 20
-11.1909947334
 10
-56.3195584921
 20
-11.0147551914
 10
-56.3158230944
 20
-11.0001054423
  0
LWPOLYLINE
  5
440
100
AcDbEntity
  8
0
100
AcDbPolyline
 62
7
  6
CONTINUOUS
 90
24
 70
0
 10
-68.7948021106
 20
-26.7197095487
 10
-68.867548072
 20
-26.7680553855
 10
-68.9381580572
 20
-26.8227175174
 10
-69.0066320659
 20
-26.8836959444
 10
-69.0735096848
 20
-26.951677362
 10
-69.1382513274
 20
-27.0259750747
 10
-69.1992382339
 20
-27.1045289957
 10
-69.256342074
 20
-27.1873644035
 10
-69.3096911781
 20
-27.2744560196
 10
-69.3580517777
 20
-27.3636679221
 10
-69.4014091208
 20
-27.455251711
 10
-69.4397779593
 20
-27.5489557861
 10
-69.4719687813
 20
-27.6418894252
 10
-69.4976855533
 20
-27.733615655
 10
-69.5172243087
 20
-27.8245714487
 10
-69.5302836355
 20
-27.9131770038
 10
-69.5367630629
 20
-27.9999216037
 10
-69.5367630617
 20
-28.0843159651
 10
-69.5302836317
 20
-28.1633124354
 10
-69.5172243018
 20
-28.2363015885
 10
-69.4976855432
 20
-28.3038928506
 10
-69.4719687691
 20
-28.3648668476
 10
-69.4397779471
 20
-28.4193065535
 10
-69.4067793557
 20
-28.461254522
  0
LINE
  5
441
100
AcDbEntity
  8
0
100
AcDbLine
 62
7
  6
CONTINUOUS
 10
-51.6002474812
 20
-16.309950576
 11
-68.7948021106
 21
-26.7197095487
  0
LINE
  5
442
100
AcDbEntity
  8
0
100
AcDbLine
 62
7
  6
CONTINUOUS
 10
-51.6002474812
 20
-18.3257218147
 11
-68.7948021106
 21
-28.4772877816
  0
LINE
  5
443
100
AcDbEntity
  8
0
100
AcDbLine
 62
7
  6
CONTINUOUS
 10
-52.3088085731
 20
-17.6974473232
 11
-69.4569739526
 21
-27.5985999437
  0
LWPOLYLINE
  5
444
100
AcDbEntity
  8
IMPORT_IGES
100
AcDbPolyline
 62
7
  6
CONTINUOUS
 90
13
 70
0
 10
-58.6681941987
 20
-4.2595521646
 10
-58.6479865685
 20
-4.2572672825
 10
-58.6133580106
 20
-4.254059683
 10
-58.577629009
 20
-4.2514627506
 10
-58.5408052429
 20
-4.2494743102
 10
-58.5028810331
 20
-4.2480965368
 10
-58.4637874043
 20
-4.247357317
 10
-58.4235261376
 20
-4.2472541031
 10
-58.3820954519
 20
-4.2477894429
 10
-58.3394210285
 20
-4.2489988661
 10
-58.2954780943
 20
-4.2508942161
 10
-58.2502914225
 20
-4.2534636497
 10
-58.2038610128
 20
-4.2567071668
  0
LWPOLYLINE
  5
445
100
AcDbEntity
  8
IMPORT_IGES
100
AcDbPolyline
 62
7
  6
CONTINUOUS
 90
5
 70
0
 10
-60.4432216134
 20
-5.7247511274
 10
-60.4175934415
 20
-5.7238743214
 10
-60.3276989343
 20
-5.7124829684
 10
-60.2353308292
 20
-5.6924717842
 10
-60.1471003226
 20
-5.6658281904
  0
LWPOLYLINE
  5
446
100
AcDbEntity
  8
IMPORT_IGES
100
AcDbPolyline
 62
250
  6
CONTINUOUS
 90
3
 70
0
 10
-57.1440296756
 20
-9.1300935509
 10
-57.0458141094
 20
-9.1439563432
 10
-57.028166105
 20
-9.1484951216
  0
LWPOLYLINE
  5
447
100
AcDbEntity
  8
0
100
AcDbPolyline
 62
250
  6
CONTINUOUS
 90
7
 70
0
 10
-82.4276219475
 20
-5.3962936859
 10
-82.4023368548
 20
-5.4007628574
 10
-82.3754974616
 20
-5.4018426791
 10
-82.3473158009
 20
-5.3995505864
 10
-82.3184279718
 20
-5.3939388855
 10
-82.2890460073
 20
-5.3850250118
 10
-82.2589578744
 20
-5.37279153
  0
LWPOLYLINE
  5
448
100
AcDbEntity
  8
IMPORT_IGES
100
AcDbPolyline
 62
7
  6
CONTINUOUS
 90
4
 70
0
 10
-59.6292853503
 20
-13.489995877
 10
-59.5223737739
 20
-13.5446938365
 10
-59.4085489884
 20
-13.5890142766
 10
-59.3581686144
 20
-13.6029636196
  0
LINE
  5
449
100
AcDbEntity
  8
IMPORT_IGES
100
AcDbLine
 62
7
  6
CONTINUOUS
 10
-60.4370799785
 20
-14.1034271144
 11
-60.6663693004
 21
-13.9710639213
  0
LINE
  5
44A
100
AcDbEntity
  8
IMPORT_IGES
100
AcDbLine
 62
7
  6
CONTINUOUS
 10
-60.4577906566
 20
-13.9759971148
 11
-60.8537418132
 21
-13.7474077783
  0
LINE
  5
44B
100
AcDbEntity
  8
0
100
AcDbLine
 62
7
  6
CONTINUOUS
 10
-84.94595631
 20
0.2430074167
 11
-84.7664989199
 21
0.1393909687
  0
LINE
  5
44C
100
AcDbEntity
  8
0
100
AcDbLine
 62
7
  6
CONTINUOUS
 10
-79.9581728078
 20
-2.6368762659
 11
-79.7787154177
 21
-2.7404927138
  0
LINE
  5
44D
100
AcDbEntity
  8
IMPORT_IGES
100
AcDbLine
 62
250
  6
CONTINUOUS
 10
-60.0432260253
 20
-13.9985078559
 11
-60.2742643139
 21
-13.8651350265
  0
LINE
  5
44E
100
AcDbEntity
  8
IMPORT_IGES
100
AcDbLine
 62
7
  6
CONTINUOUS
 10
-60.6704004006
 20
-13.6364110148
 11
-60.5217516873
 21
-13.7222389188
  0
LINE
  5
44F
100
AcDbEntity
  8
0
100
AcDbLine
 62
7
  6
CONTINUOUS
 10
-56.4350144526
 20
-15.9975195544
 11
-57.1476494849
 21
-15.5860530182
  0
LINE
  5
450
100
AcDbEntity
  8
0
100
AcDbLine
 62
7
  6
CONTINUOUS
 10
-83.4229960356
 20
-0.334257253
 11
-79.0389339922
 21
-2.8655597316
  0
LINE
  5
451
100
AcDbEntity
  8
IMPORT_IGES
100
AcDbLine
 62
7
  6
CONTINUOUS
 10
-60.3287073804
 20
-13.4295465708
 11
-59.6932024041
 21
-13.79640826
  0
LINE
  5
452
100
AcDbEntity
  8
0
100
AcDbLine
 62
7
  6
CONTINUOUS
 10
-82.9615905559
 20
-0.1519769037
 11
-78.7232355061
 21
-2.5991499904
  0
LINE
  5
453
100
AcDbEntity
  8
0
100
AcDbLine
 62
7
  6
CONTINUOUS
 10
-60.1146571983
 20
-13.2999584046
 11
-59.4740194997
 21
-13.6698545827
  0
LINE
  5
454
100
AcDbEntity
  8
0
100
AcDbLine
 62
7
  6
CONTINUOUS
 10
-56.6632204443
 20
-15.2927747297
 11
-55.9388302692
 21
-15.7110285381
  0
LINE
  5
455
100
AcDbEntity
  8
IMPORT_IGES
100
AcDbLine
 62
7
  6
CONTINUOUS
 10
-62.9920786949
 20
-11.5483611458
 11
-62.931089549
 21
-11.5835755143
  0
LINE
  5
456
100
AcDbEntity
  8
IMPORT_IGES
100
AcDbLine
 62
7
  6
CONTINUOUS
 10
-60.0383887454
 20
-13.2537847043
 11
-59.6293037064
 21
-13.4899852787
  0
LINE
  5
457
100
AcDbEntity
  8
IMPORT_IGES
100
AcDbLine
 62
7
  6
CONTINUOUS
 10
-62.4420497315
 20
-11.3012095723
 11
-63.0123715669
 21
-10.9719128924
  0
LINE
  5
458
100
AcDbEntity
  8
IMPORT_IGES
100
AcDbLine
 62
7
  6
CONTINUOUS
 10
-62.3507049512
 20
-10.5713331659
 11
-61.7643271305
 21
-10.9099003705
  0
LINE
  5
459
100
AcDbEntity
  8
0
100
AcDbLine
 62
7
  6
CONTINUOUS
 10
-73.1060040478
 20
-5.0661743777
 11
-84.3497762293
 21
1.4258387624
  0
LWPOLYLINE
  5
45A
100
AcDbEntity
  8
IMPORT_IGES
100
AcDbPolyline
 62
250
  6
CONTINUOUS
 90
5
 70
0
 10
-59.6293037064
 20
-13.4899852787
 10
-59.7192555967
 20
-13.4307587794
 10
-59.8048029577
 20
-13.3586761485
 10
-59.8845083977
 20
-13.273622072
 10
-59.9423660846
 20
-13.1956516048
  0
LWPOLYLINE
  5
45B
100
AcDbEntity
  8
IMPORT_IGES
100
AcDbPolyline
 62
7
  6
CONTINUOUS
 90
16
 70
0
 10
-60.3300817427
 20
-13.4303786238
 10
-60.3213736399
 20
-13.436254707
 10
-60.2986737711
 20
-13.4559986643
 10
-60.2786520188
 20
-13.4783619353
 10
-60.2611635528
 20
-13.5036415548
 10
-60.2463532033
 20
-13.5315404882
 10
-60.2346554615
 20
-13.5611676313
 10
-60.2261593053
 20
-13.5925703003
 10
-60.2207757568
 20
-13.6257011791
 10
-60.2186723723
 20
-13.6595272153
 10
-60.2199422748
 20
-13.6940700067
 10
-60.2244923413
 20
-13.7293079555
 10
-60.2322107597
 20
-13.7641432164
 10
-60.2430602592
 20
-13.798209841
 10
-60.2570781106
 20
-13.8318737777
 10
-60.2742643139
 20
-13.8651350265
  0
LINE
  5
45C
100
AcDbEntity
  8
0
100
AcDbLine
 62
7
  6
CONTINUOUS
 10
-51.6002474812
 20
-22.4080731987
 11
-52.3088085731
 21
-21.7797987072
  0
LWPOLYLINE
  5
45D
100
AcDbEntity
  8
IMPORT_IGES
100
AcDbPolyline
 62
7
  6
CONTINUOUS
 90
9
 70
0
 10
-60.5133441454
 20
-5.376624786
 10
-60.5131408924
 20
-5.3825439944
 10
-60.5021960412
 20
-5.4883227499
 10
-60.4841444123
 20
-5.5881064761
 10
-60.4587951429
 20
-5.6823881525
 10
-60.4263390958
 20
-5.7706747997
 10
-60.3873488587
 20
-5.8514874796
 10
-60.3416775476
 20
-5.9246971642
 10
-60.2973390261
 20
-5.9805269995
  0
LINE
  5
45E
100
AcDbEntity
  8
IMPORT_IGES
100
AcDbLine
 62
7
  6
CONTINUOUS
 10
-60.4005285387
 20
-17.5553792174
 11
-60.3969520344
 21
-17.7288461603
  0
LINE
  5
45F
100
AcDbEntity
  8
0
100
AcDbLine
 62
7
  6
CONTINUOUS
 10
-62.2097926
 20
7.718358132
 11
-62.2097926
 21
7.5470404297
  0
LINE
  5
460
100
AcDbEntity
  8
IMPORT_IGES
100
AcDbLine
 62
250
  6
CONTINUOUS
 10
-61.1095033065
 20
-5.7375456304
 11
-61.1095033065
 21
-6.4494612741
  0
LINE
  5
461
100
AcDbEntity
  8
IMPORT_IGES
100
AcDbLine
 62
250
  6
CONTINUOUS
 10
-60.8680819503
 20
-5.5913866759
 11
-60.8680819503
 21
-6.3100673716
  0
LINE
  5
462
100
AcDbEntity
  8
IMPORT_IGES
100
AcDbLine
 62
7
  6
CONTINUOUS
 10
-60.0927148971
 20
-5.1219715434
 11
-60.0927148971
 21
-5.5656249968
  0
LWPOLYLINE
  5
463
100
AcDbEntity
  8
IMPORT_IGES
100
AcDbPolyline
 62
7
  6
CONTINUOUS
 90
8
 70
0
 10
-60.0927148971
 20
-5.5656249968
 10
-60.0940679134
 20
-5.5872427698
 10
-60.0976607311
 20
-5.6065035467
 10
-60.1034933503
 20
-5.6234073275
 10
-60.1117447289
 20
-5.6381752561
 10
-60.122235909
 20
-5.6505861887
 10
-60.1344300163
 20
-5.6599766932
 10
-60.147147036
 20
-5.6657327541
  0
LWPOLYLINE
  5
464
100
AcDbEntity
  8
IMPORT_IGES
100
AcDbPolyline
 62
7
  6
CONTINUOUS
 90
5
 70
0
 10
-58.1617373392
 20
-4.5167859252
 10
-58.1926686426
 20
-4.6329596376
 10
-58.2303765711
 20
-4.7452210279
 10
-58.2748611245
 20
-4.8535700962
 10
-58.2897890858
 20
-4.8839835153
  0
LINE
  5
465
100
AcDbEntity
  8
IMPORT_IGES
100
AcDbLine
 62
7
  6
CONTINUOUS
 10
-60.2410618631
 20
-17.4588364635
 11
-60.3969520344
 21
-17.7288461603
  0
LINE
  5
466
100
AcDbEntity
  8
IMPORT_IGES
100
AcDbLine
 62
7
  6
CONTINUOUS
 10
-67.4880071773
 20
-30.0109139343
 11
-67.9497687622
 21
-30.8107084597
  0
LINE
  5
467
100
AcDbEntity
  8
IMPORT_IGES
100
AcDbLine
 62
7
  6
CONTINUOUS
 10
-61.3535960746
 20
-22.2147274209
 11
-61.9642297635
 21
-23.2723759937
  0
LWPOLYLINE
  5
468
100
AcDbEntity
  8
0
100
AcDbPolyline
 62
7
  6
CONTINUOUS
 90
24
 70
0
 10
-68.7948021106
 20
-30.8020609326
 10
-68.867548072
 20
-30.8504067695
 10
-68.9381580572
 20
-30.9050689014
 10
-69.0066320659
 20
-30.9660473284
 10
-69.0735096848
 20
-31.034028746
 10
-69.1382513274
 20
-31.1083264586
 10
-69.1992382339
 20
-31.1868803797
 10
-69.256342074
 20
-31.2697157875
 10
-69.3096911781
 20
-31.3568074036
 10
-69.3580517777
 20
-31.4460193061
 10
-69.4014091208
 20
-31.5376030949
 10
-69.4397779593
 20
-31.6313071701
 10
-69.4719687813
 20
-31.7242408092
 10
-69.4976855533
 20
-31.8159670389
 10
-69.5172243087
 20
-31.9069228326
 10
-69.5302836355
 20
-31.9955283878
 10
-69.5367630629
 20
-32.0822729877
 10
-69.5367630617
 20
-32.166667349
 10
-69.5302836317
 20
-32.2456638193
 10
-69.5172243018
 20
-32.3186529724
 10
-69.4976855432
 20
-32.3862442345
 10
-69.4719687691
 20
-32.4472182316
 10
-69.4397779471
 20
-32.5016579375
 10
-69.4067793557
 20
-32.543605906
  0
LINE
  5
469
100
AcDbEntity
  8
0
100
AcDbLine
 62
7
  6
CONTINUOUS
 10
-51.6002474812
 20
-20.3923019599
 11
-68.7948021106
 21
-30.8020609326
  0
LINE
  5
46A
100
AcDbEntity
  8
0
100
AcDbLine
 62
7
  6
CONTINUOUS
 10
-56.5196535862
 20
-24.0222488516
 11
-64.2381284018
 21
-28.6357283681
  0
LINE
  5
46B
100
AcDbEntity
  8
0
100
AcDbLine
 62
7
  6
CONTINUOUS
 10
-52.3088085731
 20
-21.7797987072
 11
-69.4569739526
 21
-31.6809513276
  0
LINE
  5
46C
100
AcDbEntity
  8
CURVE
100
AcDbLine
 62
250
  6
CONTINUOUS
 10
-90.4489376879
 20
-41.9062702085
 11
-90.6238247411
 21
-42.0072274443
  0
LWPOLYLINE
  5
46D
100
AcDbEntity
  8
IMPORT_IGES
100
AcDbPolyline
 62
7
  6
CONTINUOUS
 90
34
 70
0
 10
-58.2038610128
 20
-4.2567071668
 10
-58.1993438464
 20
-4.2573292441
 10
-58.1949667688
 20
-4.2584532624
 10
-58.1907366176
 20
-4.2600752738
 10
-58.186665569
 20
-4.2621914783
 10
-58.1827554476
 20
-4.2647975923
 10
-58.1789967117
 20
-4.2678894341
 10
-58.1753923485
 20
-4.2714556754
 10
-58.1719517784
 20
-4.2755004806
 10
-58.1686734412
 20
-4.2800438701
 10
-58.16555532
 20
-4.2850878536
 10
-58.1626106564
 20
-4.2906239402
 10
-58.1598605111
 20
-4.2966565532
 10
-58.1573092975
 20
-4.3032061104
 10
-58.1549655944
 20
-4.3102446925
 10
-58.1528585459
 20
-4.3177031583
 10
-58.1510061093
 20
-4.3255626477
 10
-58.1494059328
 20
-4.3338330115
 10
-58.1480576299
 20
-4.3424876356
 10
-58.1469677254
 20
-4.3515147665
 10
-58.1461432655
 20
-4.3609183231
 10
-58.1455841841
 20
-4.3706954667
 10
-58.14529425
 20
-4.3808422538
 10
-58.1452812827
 20
-4.3913559378
 10
-58.1455508303
 20
-4.4022357428
 10
-58.1461057612
 20
-4.4134746127
 10
-58.14695301
 20
-4.4250739442
 10
-58.1481038122
 20
-4.4370458781
 10
-58.1495599817
 20
-4.4493862815
 10
-58.1513278469
 20
-4.4620945868
 10
-58.1534249644
 20
-4.4751885425
 10
-58.1558592702
 20
-4.488672862
 10
-58.1586291451
 20
-4.5025391853
 10
-58.1617373392
 20
-4.5167859252
  0
LINE
  5
46E
100
AcDbEntity
  8
IMPORT_IGES
100
AcDbLine
 62
7
  6
CONTINUOUS
 10
-63.0220950799
 20
-6.8954482224
 11
-62.2992553073
 21
-7.1364103372
  0
LINE
  5
46F
100
AcDbEntity
  8
0
100
AcDbLine
 62
7
  6
CONTINUOUS
 10
-56.4350144526
 20
-11.9151681704
 11
-56.6325713552
 21
-11.8011012909
  0
LINE
  5
470
100
AcDbEntity
  8
0
100
AcDbLine
 62
7
  6
CONTINUOUS
 10
-56.4289727939
 20
-11.3456750033
 11
-55.9388302692
 21
-11.6286771541
  0
LINE
  5
471
100
AcDbEntity
  8
0
100
AcDbLine
 62
7
  6
CONTINUOUS
 10
-51.6002474812
 20
-18.3257218147
 11
-52.3088085731
 21
-17.6974473232
  0
LINE
  5
472
100
AcDbEntity
  8
IMPORT_IGES
100
AcDbLine
 62
7
  6
CONTINUOUS
 10
-60.3969520344
 20
-17.7288461603
 11
-60.4654961981
 21
-17.594711302
  0
LWPOLYLINE
  5
473
100
AcDbEntity
  8
IMPORT_IGES
100
AcDbPolyline
 62
250
  6
CONTINUOUS
 90
5
 70
0
 10
-63.2287460527
 20
-11.1029082158
 10
-63.1911930944
 20
-11.225080852
 10
-63.1526504654
 20
-11.3915283689
 10
-63.1242857052
 20
-11.5655115087
 10
-63.1121143015
 20
-11.6880971155
  0
LINE
  5
474
100
AcDbEntity
  8
IMPORT_IGES
100
AcDbLine
 62
7
  6
CONTINUOUS
 10
-60.7077906566
 20
-13.8316781469
 11
-60.6663693004
 21
-13.9710639213
  0
LINE
  5
475
100
AcDbEntity
  8
IMPORT_IGES
100
AcDbLine
 62
7
  6
CONTINUOUS
 10
-60.4577906566
 20
-13.9759971148
 11
-60.4370799785
 21
-14.1034271144
  0
LINE
  5
476
100
AcDbEntity
  8
IMPORT_IGES
100
AcDbLine
 62
7
  6
CONTINUOUS
 10
-59.5977401503
 20
-5.2798327815
 11
-59.5977401503
 21
-4.8223087767
  0
LINE
  5
477
100
AcDbEntity
  8
IMPORT_IGES
100
AcDbLine
 62
7
  6
CONTINUOUS
 10
-58.6077906566
 20
-17.252055438
 11
-58.6077906566
 21
-16.4700373953
  0
LINE
  5
478
100
AcDbEntity
  8
IMPORT_IGES
100
AcDbLine
 62
250
  6
CONTINUOUS
 10
-57.5684008288
 20
-3.5937260268
 11
-57.5684008288
 21
-5.2530555211
  0
LINE
  5
479
100
AcDbEntity
  8
IMPORT_IGES
100
AcDbLine
 62
7
  6
CONTINUOUS
 10
-57.509822185
 20
-5.2445095563
 11
-57.509822185
 21
-3.5582619176
  0
LWPOLYLINE
  5
47A
100
AcDbEntity
  8
IMPORT_IGES
100
AcDbPolyline
 62
250
  6
CONTINUOUS
 90
10
 70
0
 10
-56.4207833289
 20
-11.0636494402
 10
-56.4535260184
 20
-11.1762132914
 10
-56.5044180197
 20
-11.3258019037
 10
-56.5626698539
 20
-11.4758034639
 10
-56.6272609472
 20
-11.623795717
 10
-56.6981115402
 20
-11.769457272
 10
-56.7753013923
 20
-11.91310952
 10
-56.8580492073
 20
-12.0532943793
 10
-56.9465803448
 20
-12.1902615687
 10
-56.9706794376
 20
-12.2244549456
  0
LINE
  5
47B
100
AcDbEntity
  8
0
100
AcDbLine
 62
250
  6
CONTINUOUS
 10
-51.6002474812
 20
-24.1710513122
 11
-77.3065223783
 21
-39.7253706564
  0
LINE
  5
47C
100
AcDbEntity
  8
0
100
AcDbLine
 62
7
  6
CONTINUOUS
 10
-51.6002474812
 20
-22.4080731987
 11
-68.7948021106
 21
-32.5596391655
  0
LINE
  5
47D
100
AcDbEntity
  8
0
100
AcDbLine
 62
250
  6
CONTINUOUS
 10
-88.8046385961
 20
-1.8235573905
 11
-88.8677182507
 21
-1.8356243173
  0
LWPOLYLINE
  5
47E
100
AcDbEntity
  8
0
100
AcDbPolyline
 62
250
  6
CONTINUOUS
 90
4
 70
0
 10
-88.6785830529
 20
-1.5490730056
 10
-88.709874766
 20
-1.5548103081
 10
-88.7413575835
 20
-1.5606818037
 10
-88.8048925763
 20
-1.5728354
  0
LINE
  5
47F
100
AcDbEntity
  8
0
100
AcDbLine
 62
250
  6
CONTINUOUS
 10
-88.7423020198
 20
-1.8120337491
 11
-88.8046385961
 21
-1.8235573905
  0
LINE
  5
480
100
AcDbEntity
  8
0
100
AcDbLine
 62
250
  6
CONTINUOUS
 10
-88.616576828
 20
-1.5379930357
 11
-88.6785830529
 21
-1.5490730056
  0
LINE
  5
481
100
AcDbEntity
  8
0
100
AcDbLine
 62
250
  6
CONTINUOUS
 10
-88.6807085219
 20
-1.8010533931
 11
-88.7423020198
 21
-1.8120337491
  0
LWPOLYLINE
  5
482
100
AcDbEntity
  8
0
100
AcDbPolyline
 62
7
  6
CONTINUOUS
 90
7
 70
0
 10
-88.0356259312
 20
-1.2087041907
 10
-88.0235985962
 20
-1.2076135832
 10
-88.0112350134
 20
-1.2081673007
 10
-87.9985351829
 20
-1.2103653431
 10
-87.9854991047
 20
-1.2142077104
 10
-87.9721267788
 20
-1.2196944027
 10
-87.9584182051
 20
-1.2268254199
  0
LINE
  5
483
100
AcDbEntity
  8
0
100
AcDbLine
 62
7
  6
CONTINUOUS
 10
-81.7067303005
 20
-0.1003408772
 11
-82.9615905559
 21
-0.1519769037
  0
LWPOLYLINE
  5
484
100
AcDbEntity
  8
IMPORT_IGES
100
AcDbPolyline
 62
7
  6
CONTINUOUS
 90
8
 70
0
 10
-59.7391615065
 20
-5.3650601897
 10
-59.7204341999
 20
-5.3743415176
 10
-59.7025500038
 20
-5.3805181654
 10
-59.6855089182
 20
-5.3835901332
 10
-59.6690284487
 20
-5.3835216901
 10
-59.6533910897
 20
-5.380348567
 10
-59.6394443244
 20
-5.3741779555
 10
-59.6312412312
 20
-5.3683677353
  0
LINE
  5
485
100
AcDbEntity
  8
0
100
AcDbLine
 62
250
  6
CONTINUOUS
 10
-56.2678995872
 20
-9.5761039179
 11
-57.0179246227
 21
-9.1430488625
  0
LINE
  5
486
100
AcDbEntity
  8
IMPORT_IGES
100
AcDbLine
 62
7
  6
CONTINUOUS
 10
-58.1203905003
 20
-8.0102575951
 11
-56.8791708257
 21
-8.7269222791
  0
LINE
  5
487
100
AcDbEntity
  8
0
100
AcDbLine
 62
7
  6
CONTINUOUS
 10
-56.3683335298
 20
-8.7679824686
 11
-57.9057376757
 21
-7.8803045829
  0
LINE
  5
488
100
AcDbEntity
  8
IMPORT_IGES
100
AcDbLine
 62
250
  6
CONTINUOUS
 10
-60.2590321931
 20
-5.9584090766
 11
-60.3553241829
 21
-5.9028220342
  0
LINE
  5
489
100
AcDbEntity
  8
IMPORT_IGES
100
AcDbLine
 62
7
  6
CONTINUOUS
 10
-60.1840233789
 20
-5.9150998537
 11
-60.4233016812
 21
-5.7769702631
  0
LINE
  5
48A
100
AcDbEntity
  8
0
100
AcDbLine
 62
7
  6
CONTINUOUS
 10
-55.5918495903
 20
-8.3196496106
 11
-57.3212775579
 21
-7.321099577
  0
LWPOLYLINE
  5
48B
100
AcDbEntity
  8
0
100
AcDbPolyline
 62
7
  6
CONTINUOUS
 90
8
 70
0
 10
-51.9125549591
 20
-25.014198688
 10
-52.0826948595
 20
-25.1566860344
 10
-52.2556489757
 20
-25.294702843
 10
-52.4314173079
 20
-25.4282491136
 10
-52.6100349379
 20
-25.5573489447
 10
-52.7914667839
 20
-25.681978238
 10
-52.9756075998
 20
-25.8020646979
 10
-53.1373118743
 20
-25.9024175706
  0
LINE
  5
48C
100
AcDbEntity
  8
0
100
AcDbLine
 62
7
  6
CONTINUOUS
 10
-53.1372686061
 20
-25.9023913394
 11
-77.3065223783
 21
-40.5550107861
  0
LINE
  5
48D
100
AcDbEntity
  8
0
100
AcDbLine
 62
250
  6
CONTINUOUS
 10
-51.9125549612
 20
-25.0141986896
 11
-77.3065223783
 21
-40.3775249649
  0
LWPOLYLINE
  5
48E
100
AcDbEntity
  8
0
100
AcDbPolyline
 62
7
  6
CONTINUOUS
 90
10
 70
0
 10
-85.9828776076
 20
0.1882808892
 10
-86.1294696327
 20
0.1492876287
 10
-86.2750471244
 20
0.1081797967
 10
-86.4196100824
 20
0.0649573933
 10
-86.5631705451
 20
0.0196164107
 10
-86.7057164742
 20
-0.0278391433
 10
-86.8472117551
 20
-0.0773972457
 10
-86.9876443498
 20
-0.1290538888
 10
-87.1270262963
 20
-0.1828130804
 10
-87.2653575947
 20
-0.2386748203
  0
LINE
  5
48F
100
AcDbEntity
  8
0
100
AcDbLine
 62
7
  6
CONTINUOUS
 10
-85.4518494678
 20
0.3100840098
 11
-85.5089610486
 21
0.2984079286
  0
LINE
  5
490
100
AcDbEntity
  8
0
100
AcDbLine
 62
7
  6
CONTINUOUS
 10
-88.3419325142
 20
-1.2667342096
 11
-88.2963301905
 21
-1.2574924808
  0
LINE
  5
491
100
AcDbEntity
  8
0
100
AcDbLine
 62
7
  6
CONTINUOUS
 10
-85.3946037583
 20
0.3214516336
 11
-85.4518494678
 21
0.3100840098
  0
LINE
  5
492
100
AcDbEntity
  8
0
100
AcDbLine
 62
7
  6
CONTINUOUS
 10
-88.2963301905
 20
-1.2574924808
 11
-88.2506424169
 21
-1.2484465918
  0
LINE
  5
493
100
AcDbEntity
  8
0
100
AcDbLine
 62
7
  6
CONTINUOUS
 10
-88.1800870781
 20
-1.2348934774
 11
-88.2506424169
 21
-1.2484465918
  0
LINE
  5
494
100
AcDbEntity
  8
0
100
AcDbLine
 62
7
  6
CONTINUOUS
 10
-85.3372239201
 20
0.3325107999
 11
-85.3946037583
 21
0.3214516336
  0
LINE
  5
495
100
AcDbEntity
  8
0
100
AcDbLine
 62
7
  6
CONTINUOUS
 10
-88.1320253114
 20
-1.2259487189
 11
-88.1800870781
 21
-1.2348934774
  0
LINE
  5
496
100
AcDbEntity
  8
0
100
AcDbLine
 62
7
  6
CONTINUOUS
 10
-88.0838715957
 20
-1.2172189567
 11
-88.1320253114
 21
-1.2259487189
  0
LINE
  5
497
100
AcDbEntity
  8
0
100
AcDbLine
 62
7
  6
CONTINUOUS
 10
-88.0356259312
 20
-1.2087041907
 11
-88.0838715957
 21
-1.2172189567
  0
LWPOLYLINE
  5
498
100
AcDbEntity
  8
0
100
AcDbPolyline
 62
7
  6
CONTINUOUS
 90
10
 70
0
 10
-85.3372239201
 20
0.3325107999
 10
-85.2977519163
 20
0.3378503085
 10
-85.2571396817
 20
0.3393367811
 10
-85.2153872161
 20
0.3369702177
 10
-85.1723082701
 20
0.3307080133
 10
-85.1280890933
 20
0.3205927729
 10
-85.083288434
 20
0.3067523116
 10
-85.0380925417
 20
0.2892292342
 10
-84.9923151671
 20
0.2679809359
 10
-84.94595631
 20
0.2430074167
  0
LINE
  5
499
100
AcDbEntity
  8
IMPORT_IGES
100
AcDbLine
 62
7
  6
CONTINUOUS
 10
-59.7391615065
 20
-5.3650601897
 11
-60.0927148971
 21
-5.160922893
  0
LINE
  5
49A
100
AcDbEntity
  8
0
100
AcDbLine
 62
7
  6
CONTINUOUS
 10
-57.0567620864
 20
-6.9008459498
 11
-55.4215675006
 21
-7.8449868099
  0
LINE
  5
49B
100
AcDbEntity
  8
0
100
AcDbLine
 62
250
  6
CONTINUOUS
 10
-56.2678995872
 20
-5.493752534
 11
-57.0179246227
 21
-5.0606974785
  0
LWPOLYLINE
  5
49C
100
AcDbEntity
  8
0
100
AcDbPolyline
 62
7
  6
CONTINUOUS
 90
6
 70
0
 10
-55.4215675006
 20
-7.8449868099
 10
-55.353876219
 20
-7.8884581799
 10
-55.2883238711
 20
-7.938295533
 10
-55.224910457
 20
-7.9944988691
 10
-55.1629928351
 20
-8.0578178962
 10
-55.1548379752
 20
-8.0673241518
  0
LINE
  5
49D
100
AcDbEntity
  8
0
100
AcDbLine
 62
7
  6
CONTINUOUS
 10
-51.6002474812
 20
-14.2433704308
 11
-52.3088085731
 21
-13.6150959393
  0
LWPOLYLINE
  5
49E
100
AcDbEntity
  8
IMPORT_IGES
100
AcDbPolyline
 62
7
  6
CONTINUOUS
 90
4
 70
0
 10
-56.6310356862
 20
-8.9196636593
 10
-56.6835336465
 20
-8.8681591826
 10
-56.7773186701
 20
-8.7929084108
 10
-56.8791891817
 20
-8.7269116808
  0
LWPOLYLINE
  5
49F
100
AcDbEntity
  8
IMPORT_IGES
100
AcDbPolyline
 62
7
  6
CONTINUOUS
 90
13
 70
0
 10
-59.0783402802
 20
-5.2766912037
 10
-59.0847946639
 20
-5.2650641369
 10
-59.1023514795
 20
-5.2321331255
 10
-59.1188662183
 20
-5.1998364559
 10
-59.1343430438
 20
-5.1681710223
 10
-59.1487777924
 20
-5.1371399305
 10
-59.1622161975
 20
-5.106708517
 10
-59.1746622947
 20
-5.0768714981
 10
-59.1861120484
 20
-5.0476341575
 10
-59.1965990848
 20
-5.0189776818
 10
-59.2061243778
 20
-4.9909034964
 10
-59.2146869534
 20
-4.9634101759
 10
-59.2212586246
 20
-4.940212472
  0
LINE
  5
4A0
100
AcDbEntity
  8
0
100
AcDbLine
 62
7
  6
CONTINUOUS
 10
-61.1593890667
 20
10.3881065681
 11
-60.7810603449
 21
8.5394087058
  0
LINE
  5
4A1
100
AcDbEntity
  8
0
100
AcDbLine
 62
7
  6
CONTINUOUS
 10
-53.3602125038
 20
-22.3868671926
 11
-53.3602125038
 21
-21.4578027583
  0
LINE
  5
4A2
100
AcDbEntity
  8
0
100
AcDbLine
 62
7
  6
CONTINUOUS
 10
-53.3602125038
 20
-18.3045158086
 11
-53.3602125038
 21
-17.3754513744
  0
LINE
  5
4A3
100
AcDbEntity
  8
0
100
AcDbLine
 62
7
  6
CONTINUOUS
 10
-53.3602125038
 20
-14.2221644246
 11
-53.3602125038
 21
-13.2930999904
  0
LINE
  5
4A4
100
AcDbEntity
  8
0
100
AcDbLine
 62
7
  6
CONTINUOUS
 10
-53.3602125038
 20
-10.1398130407
 11
-53.3602125038
 21
-9.2107486064
  0
LINE
  5
4A5
100
AcDbEntity
  8
0
100
AcDbLine
 62
7
  6
CONTINUOUS
 10
-53.3602125038
 20
-7.0311281334
 11
-53.3602125038
 21
-4.3787266565
  0
LINE
  5
4A6
100
AcDbEntity
  8
0
100
AcDbLine
 62
7
  6
CONTINUOUS
 10
-53.3602125038
 20
-2.9487767494
 11
-53.3602125038
 21
-0.2963752725
  0
LINE
  5
4A7
100
AcDbEntity
  8
0
100
AcDbLine
 62
7
  6
CONTINUOUS
 10
-52.3088085731
 20
0.343044262
 11
-52.3088085731
 21
-2.3417082641
  0
LINE
  5
4A8
100
AcDbEntity
  8
0
100
AcDbLine
 62
7
  6
CONTINUOUS
 10
-52.3088085731
 20
-3.7393071219
 11
-52.3088085731
 21
-6.424059648
  0
LINE
  5
4A9
100
AcDbEntity
  8
0
100
AcDbLine
 62
7
  6
CONTINUOUS
 10
-52.3088085731
 20
-21.7797987072
 11
-52.3088085731
 21
-20.8212720812
  0
LINE
  5
4AA
100
AcDbEntity
  8
0
100
AcDbLine
 62
7
  6
CONTINUOUS
 10
-52.3088085731
 20
-17.6974473232
 11
-52.3088085731
 21
-16.7389206972
  0
LINE
  5
4AB
100
AcDbEntity
  8
0
100
AcDbLine
 62
7
  6
CONTINUOUS
 10
-52.3088085731
 20
-13.6150959393
 11
-52.3088085731
 21
-12.6565693133
  0
LINE
  5
4AC
100
AcDbEntity
  8
0
100
AcDbLine
 62
7
  6
CONTINUOUS
 10
-52.3088085731
 20
-9.5327445553
 11
-52.3088085731
 21
-8.5742179293
  0
LWPOLYLINE
  5
4AD
100
AcDbEntity
  8
ASSI
100
AcDbPolyline
 62
250
  6
CONTINUOUS
 90
9
 70
0
 10
-83.254013659
 20
-47.5850330599
 10
-83.2313110932
 20
-47.5715437417
 10
-83.2069259057
 20
-47.5512010733
 10
-83.1854956738
 20
-47.526330957
 10
-83.1672548854
 20
-47.4972055949
 10
-83.1524031271
 20
-47.4641437597
 10
-83.1411028918
 20
-47.4275072944
 10
-83.1334778031
 20
-47.3876971495
 10
-83.1296112666
 20
-47.3451490003
  0
LWPOLYLINE
  5
4AE
100
AcDbEntity
  8
0
100
AcDbPolyline
 62
250
  6
CONTINUOUS
 90
9
 70
0
 10
-83.254013659
 20
-47.5850330599
 10
-83.2313110932
 20
-47.5715437417
 10
-83.2069259057
 20
-47.5512010733
 10
-83.1854956738
 20
-47.526330957
 10
-83.1672548854
 20
-47.4972055949
 10
-83.1524031271
 20
-47.4641437597
 10
-83.1411028918
 20
-47.4275072944
 10
-83.1334778031
 20
-47.3876971495
 10
-83.1296112666
 20
-47.3451490003
  0
LINE
  5
4AF
100
AcDbEntity
  8
ASSI
100
AcDbLine
 62
250
  6
CONTINUOUS
 10
-77.3065223783
 20
-44.4446602862
 11
-83.1296112666
 21
-47.3451490003
  0
LINE
  5
4B0
100
AcDbEntity
  8
0
100
AcDbLine
 62
250
  6
CONTINUOUS
 10
-77.3065223783
 20
-44.4446602862
 11
-83.1296112666
 21
-47.3451490003
  0
LINE
  5
4B1
100
AcDbEntity
  8
ASSI
100
AcDbLine
 62
7
  6
CONTINUOUS
 10
-77.4191508138
 20
-44.6786797214
 11
-83.254013659
 21
-47.5850330599
  0
LINE
  5
4B2
100
AcDbEntity
  8
0
100
AcDbLine
 62
7
  6
CONTINUOUS
 10
-77.4191508138
 20
-44.6786797214
 11
-83.254013659
 21
-47.5850330599
  0
LINE
  5
4B3
100
AcDbEntity
  8
IMPORT_IGES
100
AcDbLine
 62
7
  6
CONTINUOUS
 10
-62.7466949237
 20
1.1774485789
 11
-62.7920610521
 21
1.192571596
  0
LINE
  5
4B4
100
AcDbEntity
  8
0
100
AcDbLine
 62
7
  6
CONTINUOUS
 10
-51.6002474812
 20
-6.8331739421
 11
-52.3088085731
 21
-6.424059648
  0
LINE
  5
4B5
100
AcDbEntity
  8
IMPORT_IGES
100
AcDbLine
 62
7
  6
CONTINUOUS
 10
-67.5690475686
 20
4.6385512953
 11
-67.5218476909
 21
4.6112986774
  0
LINE
  5
4B6
100
AcDbEntity
  8
IMPORT_IGES
100
AcDbLine
 62
7
  6
CONTINUOUS
 10
-64.8820418001
 20
3.0871078407
 11
-64.8348419224
 21
3.0598552228
  0
LINE
  5
4B7
100
AcDbEntity
  8
0
100
AcDbLine
 62
7
  6
CONTINUOUS
 10
-51.6002474812
 20
-10.1610190468
 11
-52.3088085731
 21
-9.5327445553
  0
LINE
  5
4B8
100
AcDbEntity
  8
0
100
AcDbLine
 62
7
  6
CONTINUOUS
 10
-58.4723832982
 20
8.8366631135
 11
-58.0940545763
 21
6.9879652511
  0
LINE
  5
4B9
100
AcDbEntity
  8
0
100
AcDbLine
 62
7
  6
CONTINUOUS
 10
-51.6002474812
 20
-24.1710513122
 11
-51.6002474812
 21
-22.4080731987
  0
LINE
  5
4BA
100
AcDbEntity
  8
0
100
AcDbLine
 62
7
  6
CONTINUOUS
 10
-51.6002474812
 20
-20.3923019599
 11
-51.6002474812
 21
-18.3257218147
  0
LINE
  5
4BB
100
AcDbEntity
  8
0
100
AcDbLine
 62
7
  6
CONTINUOUS
 10
-51.6002474812
 20
-16.309950576
 11
-51.6002474812
 21
-14.2433704308
  0
LINE
  5
4BC
100
AcDbEntity
  8
0
100
AcDbLine
 62
7
  6
CONTINUOUS
 10
-51.6002474812
 20
-12.227599192
 11
-51.6002474812
 21
-10.1610190468
  0
LINE
  5
4BD
100
AcDbEntity
  8
0
100
AcDbLine
 62
7
  6
CONTINUOUS
 10
-51.6002474812
 20
-8.1452478081
 11
-51.6002474812
 21
-6.8331739421
  0
LINE
  5
4BE
100
AcDbEntity
  8
ASSI
100
AcDbLine
 62
7
  6
CONTINUOUS
 10
-51.6002474812
 20
-3.3083901448
 11
-51.6002474812
 21
-2.7508225582
  0
LINE
  5
4BF
100
AcDbEntity
  8
ASSI
100
AcDbLine
 62
7
  6
CONTINUOUS
 10
-51.6002474812
 20
0.7739612392
 11
-51.6002474812
 21
1.7824330733
  0
LWPOLYLINE
  5
4C0
100
AcDbEntity
  8
0
100
AcDbPolyline
 62
7
  6
CONTINUOUS
 90
22
 70
0
 10
-51.6002474812
 20
-24.1710513122
 10
-51.6009879605
 20
-24.2233557604
 10
-51.6031923825
 20
-24.2746579515
 10
-51.6068607471
 20
-24.3249578854
 10
-51.6119997115
 20
-24.3743075189
 10
-51.6186026186
 20
-24.4226548953
 10
-51.626649497
 20
-24.469844144
 10
-51.6361451726
 20
-24.5158708091
 10
-51.6470848196
 20
-24.5607393466
 10
-51.6594339885
 20
-24.604307254
 10
-51.673196955
 20
-24.646569491
 10
-51.6883694434
 20
-24.6875310979
 10
-51.7049041775
 20
-24.727064693
 10
-51.7228054217
 20
-24.7651659053
 10
-51.7420689116
 20
-24.8018391058
 10
-51.7626345772
 20
-24.8369700256
 10
-51.7845082902
 20
-24.8705554056
 10
-51.807684179
 20
-24.9025985048
 10
-51.8320845587
 20
-24.9329948319
 10
-51.8576835345
 20
-24.9617095561
 10
-51.8845070013
 20
-24.9887775082
 10
-51.9125549591
 20
-25.014198688
  0
LWPOLYLINE
  5
4C1
100
AcDbEntity
  8
ASSI
100
AcDbPolyline
 62
250
  6
CONTINUOUS
 90
19
 70
0
 10
-83.1296112666
 20
-47.3451490003
 10
-83.1592370406
 20
-47.358472417
 10
-83.1881780675
 20
-47.3687942636
 10
-83.2164343473
 20
-47.3761145402
 10
-83.2441952433
 20
-47.3804449415
 10
-83.2712713922
 20
-47.3817737728
 10
-83.2970947045
 20
-47.3800659494
 10
-83.3216294746
 20
-47.375257907
 10
-83.3449114081
 20
-47.36741321
 10
-83.3664795328
 20
-47.3566874662
 10
-83.3863002557
 20
-47.3430228064
 10
-83.4044071698
 20
-47.3264770998
 10
-83.4204400822
 20
-47.3073795627
 10
-83.4343593615
 20
-47.2856669941
 10
-83.4462046391
 20
-47.261402595
 10
-83.4557346164
 20
-47.2351051842
 10
-83.4628688605
 20
-47.2069477013
 10
-83.4676878043
 20
-47.1767572069
 10
-83.4701914477
 20
-47.1445337008
  0
LWPOLYLINE
  5
4C2
100
AcDbEntity
  8
0
100
AcDbPolyline
 62
250
  6
CONTINUOUS
 90
19
 70
0
 10
-83.1296112666
 20
-47.3451490003
 10
-83.1592370406
 20
-47.358472417
 10
-83.1881780675
 20
-47.3687942636
 10
-83.2164343473
 20
-47.3761145402
 10
-83.2441952433
 20
-47.3804449415
 10
-83.2712713922
 20
-47.3817737728
 10
-83.2970947045
 20
-47.3800659494
 10
-83.3216294746
 20
-47.375257907
 10
-83.3449114081
 20
-47.36741321
 10
-83.3664795328
 20
-47.3566874662
 10
-83.3863002557
 20
-47.3430228064
 10
-83.4044071698
 20
-47.3264770998
 10
-83.4204400822
 20
-47.3073795627
 10
-83.4343593615
 20
-47.2856669941
 10
-83.4462046391
 20
-47.261402595
 10
-83.4557346164
 20
-47.2351051842
 10
-83.4628688605
 20
-47.2069477013
 10
-83.4676878043
 20
-47.1767572069
 10
-83.4701914477
 20
-47.1445337008
  0
LINE
  5
4C3
100
AcDbEntity
  8
0
100
AcDbLine
 62
7
  6
CONTINUOUS
 10
-51.6002474812
 20
-2.7508225582
 11
-52.3088085731
 21
-2.3417082641
  0
LINE
  5
4C4
100
AcDbEntity
  8
0
100
AcDbLine
 62
7
  6
CONTINUOUS
 10
-55.7853775297
 20
7.2852196589
 11
-55.4070488078
 21
5.4365217965
  0
LINE
  5
4C5
100
AcDbEntity
  8
IMPORT_IGES
100
AcDbLine
 62
250
  6
CONTINUOUS
 10
-61.4746690209
 20
4.916876604
 11
-61.5860770734
 21
4.9812022172
  0
LINE
  5
4C6
100
AcDbEntity
  8
IMPORT_IGES
100
AcDbLine
 62
7
  6
CONTINUOUS
 10
-61.4297704764
 20
4.9416900762
 11
-61.5420364769
 21
5.0065110579
  0
LINE
  5
4C7
100
AcDbEntity
  8
IMPORT_IGES
100
AcDbLine
 62
250
  6
CONTINUOUS
 10
-61.4356079159
 20
5.0676724342
 11
-61.3212685972
 21
5.0016543446
  0
LINE
  5
4C8
100
AcDbEntity
  8
IMPORT_IGES
100
AcDbLine
 62
250
  6
CONTINUOUS
 10
-61.2679203981
 20
5.1640375385
 11
-61.150314385
 21
5.0961333004
  0
LINE
  5
4C9
100
AcDbEntity
  8
IMPORT_IGES
100
AcDbLine
 62
250
  6
CONTINUOUS
 10
-61.1997115103
 20
5.2032351882
 11
-61.0807767304
 21
5.1345637369
  0
LINE
  5
4CA
100
AcDbEntity
  8
IMPORT_IGES
100
AcDbLine
 62
250
  6
CONTINUOUS
 10
-60.9481802335
 20
5.3477828446
 11
-60.8243454121
 21
5.2762821707
  0
LINE
  5
4CB
100
AcDbEntity
  8
0
100
AcDbLine
 62
7
  6
CONTINUOUS
 10
-60.571476701
 20
5.4160317065
 11
-60.7001434876
 21
5.4903222965
  0
LINE
  5
4CC
100
AcDbEntity
  8
IMPORT_IGES
100
AcDbLine
 62
7
  6
CONTINUOUS
 10
-58.7137992035
 20
3.5362292119
 11
-58.6111069134
 21
3.4630081569
  0
LINE
  5
4CD
100
AcDbEntity
  8
0
100
AcDbLine
 62
7
  6
CONTINUOUS
 10
-56.3020279914
 20
4.7391356226
 11
-56.4609330353
 21
4.8308854034
  0
LINE
  5
4CE
100
AcDbEntity
  8
0
100
AcDbLine
 62
7
  6
CONTINUOUS
 10
-58.9890337599
 20
6.2905790773
 11
-59.1479388038
 21
6.3823288581
  0
LINE
  5
4CF
100
AcDbEntity
  8
0
100
AcDbLine
 62
7
  6
CONTINUOUS
 10
-61.6760395284
 20
7.8420225319
 11
-61.8349445723
 21
7.9337723127
  0
LINE
  5
4D0
100
AcDbEntity
  8
0
100
AcDbLine
 62
7
  6
CONTINUOUS
 10
-55.2276132096
 20
5.332917931
 11
-55.4070488078
 21
5.4365217965
  0
LINE
  5
4D1
100
AcDbEntity
  8
0
100
AcDbLine
 62
7
  6
CONTINUOUS
 10
-57.9146189782
 20
6.8843613856
 11
-58.0940545763
 21
6.9879652511
  0
LINE
  5
4D2
100
AcDbEntity
  8
0
100
AcDbLine
 62
7
  6
CONTINUOUS
 10
-60.6016247467
 20
8.4358048402
 11
-60.7810603449
 21
8.5394087058
  0
LWPOLYLINE
  5
4D3
100
AcDbEntity
  8
0
100
AcDbPolyline
 62
7
  6
CONTINUOUS
 90
10
 70
0
 10
-53.5441786219
 20
5.9911794983
 10
-53.3519459778
 20
5.662760198
 10
-53.1624223038
 20
5.332926315
 10
-52.9756075998
 20
5.0016778494
 10
-52.7914667839
 20
4.6689501909
 10
-52.6100349379
 20
4.3348079497
 10
-52.4314173079
 20
3.9994449566
 10
-52.2556489757
 20
3.6629258218
 10
-52.0826948595
 20
3.3251859351
 10
-51.9125549591
 20
2.9862252964
  0
LWPOLYLINE
  5
4D4
100
AcDbEntity
  8
0
100
AcDbPolyline
 62
7
  6
CONTINUOUS
 90
22
 70
0
 10
-51.9125549591
 20
2.9862252964
 10
-51.8844877213
 20
2.9283721058
 10
-51.8576497717
 20
2.8702952416
 10
-51.8320411106
 20
2.8119947038
 10
-51.8076372974
 20
2.7534086271
 10
-51.7844627726
 20
2.6945988768
 10
-51.7625908573
 20
2.6357510494
 10
-51.7420259909
 20
2.5768657824
 10
-51.722763734
 20
2.5179424383
 10
-51.7048640892
 20
2.4591647009
 10
-51.6883313924
 20
2.4005335685
 10
-51.6731613077
 20
2.3420480427
 10
-51.6594008306
 20
2.2838888128
 10
-51.6470536765
 20
2.2260503767
 10
-51.6361161299
 20
2.1685382364
 10
-51.6266240404
 20
2.1115495879
 10
-51.618583814
 20
2.0550972867
 10
-51.6119890446
 20
1.9991684772
 10
-51.6068563634
 20
1.9439217883
 10
-51.6031913144
 20
1.8894100961
 10
-51.6009883536
 20
1.8355805245
 10
-51.6002474812
 20
1.7824330733
  0
LINE
  5
4D5
100
AcDbEntity
  8
0
100
AcDbLine
 62
7
  6
CONTINUOUS
 10
-64.5114455475
 20
12.323541969
 11
-61.1593890667
 21
10.3881065681
  0
LINE
  5
4D6
100
AcDbEntity
  8
0
100
AcDbLine
 62
7
  6
CONTINUOUS
 10
-59.1589768024
 20
9.2330935978
 11
-58.4723832982
 21
8.8366631135
  0
LINE
  5
4D7
100
AcDbEntity
  8
0
100
AcDbLine
 62
7
  6
CONTINUOUS
 10
-56.4719710339
 20
7.6816501432
 11
-55.7853775297
 21
7.2852196589
  0
LINE
  5
4D8
100
AcDbEntity
  8
0
100
AcDbLine
 62
7
  6
CONTINUOUS
 10
-53.7849652654
 20
6.1302066885
 11
-53.5441786219
 21
5.9911794983
  0
ARC
  5
4D9
100
AcDbEntity
  8
0
100
AcDbCircle
 62
7
  6
CONTINUOUS
 10
-88.7262968945
 20
-1.7539693986
 40
0.2
100
AcDbArc
 50
119.8982859922
 51
179.9999999204
  0
ARC
  5
4DA
100
AcDbEntity
  8
0
100
AcDbCircle
 62
7
  6
CONTINUOUS
 10
-88.7262968945
 20
-1.7638794726
 40
0.2
100
AcDbArc
 50
179.8599417628
 51
239.1373443264
  0
ELLIPSE
  5
4DB
100
AcDbEntity
  8
ASSI
100
AcDbEllipse
 62
7
  6
CONTINUOUS
 10
-77.660129625
 20
-44.2401185047
 30
0.0
 11
-0.2498600223
 21
0.43379745
 31
0.0
 40
0.5768037941
 41
-3.1764860545
 42
-2.355482613
  0
ELLIPSE
  5
4DC
100
AcDbEntity
  8
ASSI
100
AcDbEllipse
 62
7
  6
CONTINUOUS
 10
-77.660129625
 20
-8.4798408609
 30
0.0
 11
-0.2496303025
 21
0.4334023309
 31
0.0
 40
0.5778584463
 41
-2.3545649475
 42
-0.7846820092
  0
ELLIPSE
  5
4DD
100
AcDbEntity
  8
ASSI
100
AcDbEllipse
 62
7
  6
CONTINUOUS
 10
-92.7213963521
 20
0.2163457853
 30
0.0
 11
-0.2498600223
 21
0.43379745
 31
0.0
 40
0.5768037941
 41
-0.7837728977
 42
0.0348934027
  0
ELLIPSE
  5
4DE
100
AcDbEntity
  8
CURVE
100
AcDbEllipse
 62
250
  6
CONTINUOUS
 10
269.6893617958
 20
173.6021533369
 30
0.0
 11
421.2725581534
 21
332.8551796939
 31
0.0
 40
0.1668672462
 41
2.4573083062
 42
2.4580802128
  0
ELLIPSE
  5
4DF
100
AcDbEntity
  8
CURVE
100
AcDbEllipse
 62
250
  6
CONTINUOUS
 10
249.4560066164
 20
185.2846390339
 30
0.0
 11
-353.5448483845
 21
612.3773669863
 31
0.0
 40
0.5773595689
 41
-4.6775577918
 42
-4.6770431898
  0
ELLIPSE
  5
4E0
100
AcDbEntity
  8
CURVE
100
AcDbEllipse
 62
250
  6
CONTINUOUS
 10
270.8086108656
 20
172.9559129514
 30
0.0
 11
428.8053248814
 21
328.6835216289
 31
0.0
 40
0.1483011136
 41
2.4535145371
 42
2.4560877393
  0
ELLIPSE
  5
4E1
100
AcDbEntity
  8
CURVE
100
AcDbEllipse
 62
250
  6
CONTINUOUS
 10
249.8196588302
 20
185.0746708033
 30
0.0
 11
-353.5449405829
 21
612.3773989258
 31
0.0
 40
0.5773595087
 41
-4.6760140097
 42
-4.6754993791
  0
ELLIPSE
  5
4E2
100
AcDbEntity
  8
CURVE
100
AcDbEllipse
 62
250
  6
CONTINUOUS
 10
266.9417489146
 20
175.1885905788
 30
0.0
 11
316.379439223
 21
393.3169429125
 31
0.0
 40
0.445070731
 41
-3.823255058
 42
-3.8196526424
  0
ELLIPSE
  5
4E3
100
AcDbEntity
  8
CURVE
100
AcDbEllipse
 62
250
  6
CONTINUOUS
 10
259.9595747163
 20
179.2200104537
 30
0.0
 11
87.6863758274
 21
508.1854030325
 31
0.0
 40
0.7055577776
 41
-4.145248227
 42
-4.1426750248
  0
ELLIPSE
  5
4E4
100
AcDbEntity
  8
CURVE
100
AcDbEllipse
 62
250
  6
CONTINUOUS
 10
267.5599607572
 20
174.8316428089
 30
0.0
 11
337.9627700953
 21
380.3744364606
 31
0.0
 40
0.3902181199
 41
-3.811039113
 42
-3.8084659108
  0
ELLIPSE
  5
4E5
100
AcDbEntity
  8
CURVE
100
AcDbEllipse
 62
250
  6
CONTINUOUS
 10
260.5777859115
 20
178.8630630576
 30
0.0
 11
145.6077166636
 21
485.9231992827
 31
0.0
 40
0.6811066893
 41
-4.0520250707
 42
-4.0484226551
  0
ELLIPSE
  5
4E6
100
AcDbEntity
  8
0
100
AcDbEllipse
 62
7
  6
CONTINUOUS
 10
-77.660129625
 20
-44.2401185047
 30
0.0
 11
-0.2498600223
 21
0.43379745
 31
0.0
 40
0.5768037941
 41
-3.1764860545
 42
-2.355482613
  0
ELLIPSE
  5
4E7
100
AcDbEntity
  8
0
100
AcDbEllipse
 62
7
  6
CONTINUOUS
 10
-77.660129625
 20
-8.4798408609
 30
0.0
 11
-0.2496303025
 21
0.4334023309
 31
0.0
 40
0.5778584463
 41
-2.3545649475
 42
-0.7846820092
  0
ELLIPSE
  5
4E8
100
AcDbEntity
  8
0
100
AcDbEllipse
 62
7
  6
CONTINUOUS
 10
-92.7213963521
 20
0.2163457853
 30
0.0
 11
-0.2498600223
 21
0.43379745
 31
0.0
 40
0.5768037941
 41
-0.7837728977
 42
0.0348934027
  0
ELLIPSE
  5
4E9
100
AcDbEntity
  8
0
100
AcDbEllipse
 62
7
  6
CONTINUOUS
 10
-56.2551675301
 20
-7.8539690977
 30
0.0
 11
1.0229917131
 21
1.834161488
 31
0.0
 40
0.5671693725
 41
0.7857458354
 42
1.7508170405
  0
ELLIPSE
  5
4EA
100
AcDbEntity
  8
0
100
AcDbEllipse
 62
7
  6
CONTINUOUS
 10
-56.2551675301
 20
-3.7716177137
 30
0.0
 11
1.0229917131
 21
1.834161488
 31
0.0
 40
0.5671693725
 41
0.7857458354
 42
1.7508170405
  0
ELLIPSE
  5
4EB
100
AcDbEntity
  8
0
100
AcDbEllipse
 62
7
  6
CONTINUOUS
 10
-57.0050794635
 20
-3.338627962
 30
0.0
 11
1.0364148088
 21
1.8264749765
 31
0.0
 40
0.5722717666
 41
-2.9032600827
 42
-2.369160648
  0
ELLIPSE
  5
4EC
100
AcDbEntity
  8
0
100
AcDbEllipse
 62
7
  6
CONTINUOUS
 10
-57.0050794635
 20
-7.4209793459
 30
0.0
 11
1.0364148088
 21
1.8264749765
 31
0.0
 40
0.5722717666
 41
-2.9032600827
 42
-2.369160648
  0
ELLIPSE
  5
4ED
100
AcDbEntity
  8
0
100
AcDbEllipse
 62
7
  6
CONTINUOUS
 10
-59.4007431566
 20
-6.0377531543
 30
0.0
 11
5.6261368649
 21
-4.8446128819
 31
0.0
 40
0.2167200945
 41
-1.1995308321
 42
-1.0406806992
  0
ELLIPSE
  5
4EE
100
AcDbEntity
  8
0
100
AcDbEllipse
 62
7
  6
CONTINUOUS
 10
-59.4007431566
 20
-1.9554017703
 30
0.0
 11
5.6261368649
 21
-4.8446128819
 31
0.0
 40
0.2167200945
 41
-1.1995308321
 42
-1.0406806992
  0
ELLIPSE
  5
4EF
100
AcDbEntity
  8
0
100
AcDbEllipse
 62
7
  6
CONTINUOUS
 10
-65.8017291226
 20
5.5891205586
 30
0.0
 11
0.4340187671
 21
-0.0064490065
 31
0.0
 40
0.5672251703
 41
-2.5178696544
 42
-2.273299804
  0
ELLIPSE
  5
4F0
100
AcDbEntity
  8
0
100
AcDbEllipse
 62
7
  6
CONTINUOUS
 10
-82.2209145076
 20
-5.1927394943
 30
0.0
 11
-0.0999896007
 21
0.1732286732
 31
0.0
 40
0.5773316645
 41
-3.1503197815
 42
-2.3560905026
  0
ELLIPSE
  5
4F1
100
AcDbEntity
  8
0
100
AcDbEllipse
 62
7
  6
CONTINUOUS
 10
-72.2904108175
 20
-3.046779414
 30
0.0
 11
1.3142304592
 21
-0.0195158908
 31
0.0
 40
0.5672252748
 41
2.3620692019
 42
5.5087473143
  0
ELLIPSE
  5
4F2
100
AcDbEntity
  8
0
100
AcDbEllipse
 62
7
  6
CONTINUOUS
 10
-74.977416586
 20
-1.4953359594
 30
0.0
 11
1.3142304592
 21
-0.0195158908
 31
0.0
 40
0.5672252748
 41
2.3620692019
 42
5.5087473143
  0
ELLIPSE
  5
4F3
100
AcDbEntity
  8
0
100
AcDbEllipse
 62
7
  6
CONTINUOUS
 10
-77.6644223545
 20
0.0561074952
 30
0.0
 11
1.3142304592
 21
-0.0195158908
 31
0.0
 40
0.5672252748
 41
2.3620692019
 42
5.5087473143
  0
ELLIPSE
  5
4F4
100
AcDbEntity
  8
0
100
AcDbEllipse
 62
7
  6
CONTINUOUS
 10
-56.2551675301
 20
-3.7716177137
 30
0.0
 11
1.0229917131
 21
1.834161488
 31
0.0
 40
0.5671693725
 41
2.9448139913
 42
3.9098851964
  0
ELLIPSE
  5
4F5
100
AcDbEntity
  8
0
100
AcDbEllipse
 62
7
  6
CONTINUOUS
 10
-56.2551675301
 20
-7.8539690977
 30
0.0
 11
1.0229917131
 21
1.834161488
 31
0.0
 40
0.5671693725
 41
2.9448139913
 42
3.9098851964
  0
ENDSEC
  0
SECTION
  2
OBJECTS
  0
DICTIONARY
  5
C
100
AcDbDictionary
280
0
281
1
  3
ACAD_GROUP
350
D
  3
ACAD_MLINESTYLE
350
17
  3
ACAD_LAYOUT
350
1A
  3
ACAD_PLOTSETTINGS
350
19
  3
ACAD_PLOTSTYLENAME
350
E
  0
DICTIONARY
  5
D
102
{ACAD_REACTORS
330
C
102
}
100
AcDbDictionary
280
0
281
1
  0
ACDBDICTIONARYWDFLT
  5
E
102
{ACAD_REACTORS
330
C
102
}
100
AcDbDictionary
281
1
  3
Normal
350
F
100
AcDbDictionaryWithDefault
340
F
  0
DICTIONARY
  5
17
102
{ACAD_REACTORS
330
C
102
}
100
AcDbDictionary
280
0
281
1
  3
Standard
350
18
  0
DICTIONARY
  5
19
102
{ACAD_REACTORS
330
C
102
}
100
AcDbDictionary
281
1
  0
DICTIONARY
  5
1A
102
{ACAD_REACTORS
330
C
102
}
100
AcDbDictionary
281
1
  3
Model
350
4F6
  3
Layout1
350
4F7
  0
ACDBPLACEHOLDER
  5
F
102
{ACAD_REACTORS
330
E
102
}
  0
MLINESTYLE
  5
18
102
{ACAD_REACTORS
330
17
102
}
100
AcDbMlineStyle
  2
STANDARD
 70
0
  3

 62
256
 51
90.0
 52
90.0
 71
2
 49
0.5
 62
256
  6
BYLAYER
 49
-0.5
 62
256
  6
BYLAYER
  0
LAYOUT
  5
4F6
102
{ACAD_REACTORS
330
1A
102
}
100
AcDbPlotSettings
  1

  2
none_device
  4
ANSI_C_(22.00_x_17.00_Inches)
  6

 40
0.0
 41
0.0
 42
0.0
 43
0.0
 44
558.8
 45
431.8
 46
0.0
 47
0.0
 48
0.0
 49
0.0
140
0.0
141
0.0
142
1.0
143
1.0
 70
1024
 72
1
 73
0
 74
0
  7

 75
0
147
1.0
148
0.0
149
0.0
100
AcDbLayout
  1
Model
 70
0
 71
0
 10
0.0
 20
0.0
 11
558.8
 21
431.8
 12
0.0
 22
0.0
 32
0.0
 14
0.0
 24
0.0
 34
0.0
 15
0.0
 25
0.0
 35
0.0
146
0.0
 13
0.0
 23
0.0
 33
0.0
 16
1.0
 26
0.0
 36
0.0
 17
0.0
 27
1.0
 37
0.0
 76
0
330
284
345
0
346
0
  0
LAYOUT
  5
4F7
102
{ACAD_REACTORS
330
1A
102
}
100
AcDbPlotSettings
  1

  2
none_device
  4
ANSI_C_(22.00_x_17.00_Inches)
  6

 40
0.0
 41
0.0
 42
0.0
 43
0.0
 44
558.8
 45
431.8
 46
0.0
 47
0.0
 48
0.0
 49
0.0
140
0.0
141
0.0
142
1.0
143
1.0
 70
0
 72
1
 73
0
 74
0
  7

 75
0
147
1.0
148
0.0
149
0.0
100
AcDbLayout
  1
Layout1
 70
0
 71
1
 10
0.0
 20
0.0
 11
558.8
 21
431.8
 12
0.0
 22
0.0
 32
0.0
 14
0.0
 24
0.0
 34
0.0
 15
0.0
 25
0.0
 35
0.0
146
0.0
 13
0.0
 23
0.0
 33
0.0
 16
1.0
 26
0.0
 36
0.0
 17
0.0
 27
1.0
 37
0.0
 76
0
330
285
345
0
346
0
  0
ENDSEC
  0
EOF
