0
SECTION
2
HEADER
9
$ACADVER
1
AC1015
9
$DWGCODEPAGE
3
ANSI_1252
9
$EXTMAX
10
297.0000000000
20
210.0000000000
30
0.0000000000
9
$EXTMIN
10
0.0000000000
20
0.0000000000
30
0.0000000000
9
$LIMMIN
10
0.0000000000
20
0.0000000000
9
$LIMMAX
10
297.0000000000
20
210.0000000000
9
$VIEWCTR
10
148.5000000000
20
105.0000000000
9
$VIEWSIZE
40
210.0000000000
9
$CLAYER
8
0
9
$LTSCALE
40
16.3350000000
9
$CELTYPE
6
BYLAYER
9
$DIMSCALE
40
1
9
$DIMASZ
40
3.0000000000
9
$DIMEXO
40
1.8562500000
9
$DIMDLI
40
11.2860000000
9
$DIMEXE
40
5.3460000000
9
$DIMCEN
40
2.6730000000
9
$DIMLFAC
40
1.0000000000
9
$DIMBLK
1
_FILLED
9
$DIMTXT
40
3.0000000000
9
$DIMTOL
70
1
9
$DIMLIM
70
0
9
$DIMTFAC
40
1.0000000000
9
$DIMTP
40
0.0100000000
9
$DIMTM
40
0.0100000000
9
$PDMODE
70
3
9
$PDSIZE
40
3.0000000000
9
$HANDSEED
5
3F7
9
$MEASUREMENT
70
1
9
$INSUNITS
70
4
0
ENDSEC
0
SECTION
2
CLASSES
0
CLASS
1
ACDBDICTIONARYWDFLT
2
AcDbDictionaryWithDefault
3
AutoCAD 2000
90
0
280
0
281
0
0
CLASS
1
ACDBPLACEHOLDER
2
AcDbPlaceHolder
3
AutoCAD 2000
90
0
280
0
281
0
0
CLASS
1
LAYOUT
2
AcDbLayout
3
AutoCAD 2000
90
0
280
0
281
0
0
ENDSEC
0
SECTION
2
TABLES
0
TABLE
2
VPORT
5
8
100
AcDbSymbolTable
70
2
0
VPORT
5
1F4
100
AcDbSymbolTableRecord
100
AcDbViewportTableRecord
2
*ACTIVE
70
0
10
0.0
20
0.0
11
1.0
21
1.0
12
148.5000000000
22
105.0000000000
13
0.0
23
0.0
14
1.0
24
1.0
15
0.0
25
0.0
16
0.0
26
0.0
36
1.0
17
0.0
27
0.0
37
0.0
40
210.0000000000
41
1.4142857143
42
50.0
43
0.0
44
0.0
50
0.0
51
0.0
71
0
72
100
73
1
74
1
75
0
76
0
77
0
78
0
0
ENDTAB
0
TABLE
2
LTYPE
5
5
100
AcDbSymbolTable
70
6
0
LTYPE
5
14
100
AcDbSymbolTableRecord
100
AcDbLinetypeTableRecord
2
BYBLOCK
70
0
3

72
65
73
0
40
0.0
0
LTYPE
5
15
100
AcDbSymbolTableRecord
100
AcDbLinetypeTableRecord
2
BYLAYER
70
0
3

72
65
73
0
40
0.0
0
LTYPE
5
16
100
AcDbSymbolTableRecord
100
AcDbLinetypeTableRecord
2
CONTINUOUS
70
64
3
Solid line
72
65
73
0
40
0
0
LTYPE
5
1F5
100
AcDbSymbolTableRecord
100
AcDbLinetypeTableRecord
2
CENTER
70
64
3
____ _ ____ _ ____ _ ____ _ ____ _ ____ _ ____
72
65
73
4
40
0.6
49
0.375
74
0
49
-0.075
74
0
49
0.075
74
0
49
-0.075
74
0
0
LTYPE
5
1F6
100
AcDbSymbolTableRecord
100
AcDbLinetypeTableRecord
2
HIDDEN
70
64
3
- - - - - - - - - - - - - - - - - - - -
72
65
73
2
40
0.2
49
0.1
74
0
49
-0.1
74
0
0
LTYPE
5
1F7
100
AcDbSymbolTableRecord
100
AcDbLinetypeTableRecord
2
PHANTOM
70
64
3
_____ _ _ _____ _ _ _____ _ _ _____
72
65
73
6
40
0.8
49
0.45
74
0
49
-0.05
74
0
49
0.1
74
0
49
-0.05
74
0
49
0.1
74
0
49
-0.05
74
0
0
LTYPE
5
1F8
100
AcDbSymbolTableRecord
100
AcDbLinetypeTableRecord
2
DOT
70
64
3
. . . . . . . . . . . . . . . . . . . .
72
65
73
2
40
0.2
49
0.1
74
0
49
-0.1
74
0
0
LTYPE
5
1F9
100
AcDbSymbolTableRecord
100
AcDbLinetypeTableRecord
2
DASHED
70
64
3
- - - - - - - - - - - - - - - - - - - -
72
65
73
2
40
0.2
49
0.1
74
0
49
-0.1
74
0
0
ENDTAB
0
TABLE
2
LAYER
5
2
100
AcDbSymbolTable
70
36
0
LAYER
5
10
100
AcDbSymbolTableRecord
100
AcDbLayerTableRecord
2
0
70
0
62
7
6
CONTINUOUS
370
-3
390
F
0
LAYER
5
1FA
100
AcDbSymbolTableRecord
100
AcDbLayerTableRecord
2
DEFAULT_1
70
0
62
7
6
CENTER
370
-3
390
F
0
LAYER
5
1FB
100
AcDbSymbolTableRecord
100
AcDbLayerTableRecord
2
DEFAULT_2
70
0
62
8
6
HIDDEN
370
-3
390
F
0
LAYER
5
1FC
100
AcDbSymbolTableRecord
100
AcDbLayerTableRecord
2
DEFAULT_3
70
0
62
7
6
PHANTOM
370
-3
390
F
0
LAYER
5
1FD
100
AcDbSymbolTableRecord
100
AcDbLayerTableRecord
2
_BLACK_HOLE
70
0
62
7
6
CONTINUOUS
370
-3
390
F
0
LAYER
5
1FE
100
AcDbSymbolTableRecord
100
AcDbLayerTableRecord
2
217CINESE7
70
0
62
7
6
CONTINUOUS
370
-3
390
F
0
LAYER
5
1FF
100
AcDbSymbolTableRecord
100
AcDbLayerTableRecord
2
ASSI
70
0
62
7
6
CONTINUOUS
370
-3
390
F
0
LAYER
5
200
100
AcDbSymbolTableRecord
100
AcDbLayerTableRecord
2
COORDINATE
70
0
62
7
6
CONTINUOUS
370
-3
390
F
0
LAYER
5
201
100
AcDbSymbolTableRecord
100
AcDbLayerTableRecord
2
COORD_ORIGINE
70
0
62
7
6
CONTINUOUS
370
-3
390
F
0
LAYER
5
202
100
AcDbSymbolTableRecord
100
AcDbLayerTableRecord
2
COSMETICHE
70
0
62
7
6
CONTINUOUS
370
-3
390
F
0
LAYER
5
203
100
AcDbSymbolTableRecord
100
AcDbLayerTableRecord
2
COSMETICI
70
0
62
7
6
CONTINUOUS
370
-3
390
F
0
LAYER
5
204
100
AcDbSymbolTableRecord
100
AcDbLayerTableRecord
2
CURVE
70
0
62
7
6
CONTINUOUS
370
-3
390
F
0
LAYER
5
205
100
AcDbSymbolTableRecord
100
AcDbLayerTableRecord
2
DRAFT
70
0
62
7
6
CONTINUOUS
370
-3
390
F
0
LAYER
5
206
100
AcDbSymbolTableRecord
100
AcDbLayerTableRecord
2
IMPORT_FEATURES
70
0
62
7
6
CONTINUOUS
370
-3
390
F
0
LAYER
5
207
100
AcDbSymbolTableRecord
100
AcDbLayerTableRecord
2
INTF_1
70
0
62
7
6
CONTINUOUS
370
-3
390
F
0
LAYER
5
208
100
AcDbSymbolTableRecord
100
AcDbLayerTableRecord
2
INTF_7
70
0
62
7
6
CONTINUOUS
370
-3
390
F
0
LAYER
5
209
100
AcDbSymbolTableRecord
100
AcDbLayerTableRecord
2
INTF_CYAN
70
0
62
7
6
CONTINUOUS
370
-3
390
F
0
LAYER
5
20A
100
AcDbSymbolTableRecord
100
AcDbLayerTableRecord
2
NOTE
70
0
62
7
6
CONTINUOUS
370
-3
390
F
0
LAYER
5
20B
100
AcDbSymbolTableRecord
100
AcDbLayerTableRecord
2
PIANI
70
0
62
7
6
CONTINUOUS
370
-3
390
F
0
LAYER
5
20C
100
AcDbSymbolTableRecord
100
AcDbLayerTableRecord
2
PIANI_ORIGINE
70
0
62
7
6
CONTINUOUS
370
-3
390
F
0
LAYER
5
20D
100
AcDbSymbolTableRecord
100
AcDbLayerTableRecord
2
PUNTI
70
0
62
7
6
CONTINUOUS
370
-3
390
F
0
LAYER
5
20E
100
AcDbSymbolTableRecord
100
AcDbLayerTableRecord
2
RACCORDO
70
0
62
7
6
CONTINUOUS
370
-3
390
F
0
LAYER
5
20F
100
AcDbSymbolTableRecord
100
AcDbLayerTableRecord
2
RGB__255__255__255__
70
0
62
7
6
CONTINUOUS
370
-3
390
F
0
LAYER
5
210
100
AcDbSymbolTableRecord
100
AcDbLayerTableRecord
2
RGB____0____0____0__
70
0
62
7
6
CONTINUOUS
370
-3
390
F
0
LAYER
5
211
100
AcDbSymbolTableRecord
100
AcDbLayerTableRecord
2
SMUSSO
70
0
62
7
6
CONTINUOUS
370
-3
390
F
0
LAYER
5
212
100
AcDbSymbolTableRecord
100
AcDbLayerTableRecord
2
SUPERFICI
70
0
62
7
6
CONTINUOUS
370
-3
390
F
0
LAYER
5
213
100
AcDbSymbolTableRecord
100
AcDbLayerTableRecord
2
TRASH
70
0
62
7
6
CONTINUOUS
370
-3
390
F
0
LAYER
5
214
100
AcDbSymbolTableRecord
100
AcDbLayerTableRecord
2
XSEC_DATUMS
70
0
62
7
6
CONTINUOUS
370
-3
390
F
0
ENDTAB
0
TABLE
2
STYLE
5
3
100
AcDbSymbolTable
70
1
0
STYLE
5
11
100
AcDbSymbolTableRecord
100
AcDbTextStyleTableRecord
2
STANDARD
70
0
40
0.0
41
0.8000000000
50
0.0
71
0
42
0.2
3
txt
4

0
ENDTAB
0
TABLE
2
VIEW
5
6
100
AcDbSymbolTable
70
0
0
ENDTAB
0
TABLE
2
UCS
5
7
100
AcDbSymbolTable
70
0
0
ENDTAB
0
TABLE
2
APPID
5
9
100
AcDbSymbolTable
70
1
0
APPID
5
215
100
AcDbSymbolTableRecord
100
AcDbRegAppTableRecord
2
ACAD
70
0
0
ENDTAB
0
TABLE
2
BLOCK_RECORD
5
1
100
AcDbSymbolTable
70
0
0
BLOCK_RECORD
5
1F
100
AcDbSymbolTableRecord
100
AcDbBlockTableRecord
2
*MODEL_SPACE
0
BLOCK_RECORD
5
1B
100
AcDbSymbolTableRecord
100
AcDbBlockTableRecord
2
*PAPER_SPACE
0
ENDTAB
0
TABLE
2
DIMSTYLE
5
A
100
AcDbSymbolTable
70
1
100
AcDbDimStyleTable
71
0
0
DIMSTYLE
105
216
100
AcDbSymbolTableRecord
100
AcDbDimStyleTableRecord
2
STANDARD
70
0
3

4

40
1.0
41
3.0000000000
42
0.0625
43
0.38
44
0.18
45
0.0
46
0.0
47
0.0100000000
48
0.0100000000
140
3.0000000000
141
0.09
142
0.0
143
25.4
144
1.0000000000
145
0.0
146
1.0000000000
147
0.09
71
1
72
0
73
0
74
0
75
0
76
0
77
1
78
8
170
0
171
2
172
0
173
0
174
0
175
0
176
0
177
0
178
0
270
2
271
2
272
2
273
2
274
2
275
0
280
0
281
0
282
0
283
1
284
8
285
0
286
0
287
3
288
0
340
11
0
ENDTAB
0
ENDSEC
0
SECTION
2
BLOCKS
0
BLOCK
5
20
100
AcDbEntity
8
0
100
AcDbBlockBegin
2
*MODEL_SPACE
70
0
10
0.0
20
0.0
30
0.0
3
*MODEL_SPACE
1

0
ENDBLK
5
21
100
AcDbEntity
8
0
100
AcDbBlockEnd
0
BLOCK
5
1C
100
AcDbEntity
8
0
100
AcDbBlockBegin
2
*PAPER_SPACE
70
0
10
0.0
20
0.0
30
0.0
3
*PAPER_SPACE
1

0
ENDBLK
5
1D
100
AcDbEntity
8
0
100
AcDbBlockEnd
0
ENDSEC
0
SECTION
2
ENTITIES
0
LWPOLYLINE
5
217
100
AcDbEntity
8
0
100
AcDbPolyline
62
7
6
CONTINUOUS
90
15
70
0
10
-8.3473514657
20
10.5620391761
10
-8.3834444715
20
10.5387696282
10
-8.4173057066
20
10.5125401517
10
-8.4493601917
20
10.4832652314
10
-8.4794935269
20
10.4511417343
10
-8.5073879060
20
10.4166203010
10
-8.5330192501
20
10.3798412520
10
-8.5562857495
20
10.3409363029
10
-8.5768322788
20
10.3005409127
10
-8.5945880241
20
10.2588013815
10
-8.6094486887
20
10.2158575852
10
-8.6211390920
20
10.1723826449
10
-8.6295438932
20
10.1286579982
10
-8.6345919378
20
10.0846097496
10
-8.6358120765
20
10.0619861060
0
LINE
5
218
100
AcDbEntity
8
0
100
AcDbLine
62
7
6
CONTINUOUS
10
-8.3474299969
20
10.5620035305
11
-5.5300367007
21
12.2048018757
0
LINE
5
219
100
AcDbEntity
8
0
100
AcDbLine
62
9
6
CONTINUOUS
10
-8.2307529727
20
10.5576198342
11
-5.4130482254
21
12.2005997839
0
LWPOLYLINE
5
21A
100
AcDbEntity
8
0
100
AcDbPolyline
62
7
6
CONTINUOUS
90
3
70
0
10
3.9185502550
20
14.6846999959
10
3.8909549244
20
14.6767473826
10
3.8669877032
20
14.6668984254
0
LINE
5
21B
100
AcDbEntity
8
0
100
AcDbLine
62
7
6
CONTINUOUS
10
-2.7721857679
20
10.9234698253
11
-2.8142962422
21
10.9012237923
0
LINE
5
21C
100
AcDbEntity
8
0
100
AcDbLine
62
7
6
CONTINUOUS
10
-1.4354380189
20
12.0720891558
11
-2.1649404146
21
11.7102505895
0
LINE
5
21D
100
AcDbEntity
8
0
100
AcDbLine
62
7
6
CONTINUOUS
10
-2.3972687545
20
11.8780691181
11
-3.4893322040
21
11.3618507219
0
LINE
5
21E
100
AcDbEntity
8
0
100
AcDbLine
62
7
6
CONTINUOUS
10
-1.3158786062
20
12.3736295287
11
-2.0437419759
21
12.0298807587
0
LINE
5
21F
100
AcDbEntity
8
0
100
AcDbLine
62
7
6
CONTINUOUS
10
3.8672987350
20
14.6670456800
11
-1.0523536294
21
12.3486971537
0
LINE
5
220
100
AcDbEntity
8
0
100
AcDbLine
62
7
6
CONTINUOUS
10
-2.0317403165
20
11.6436505405
11
-1.9013633180
21
11.7044397995
0
LINE
5
221
100
AcDbEntity
8
0
100
AcDbLine
62
9
6
CONTINUOUS
10
-2.0071784035
20
11.6313695840
11
-1.8591052227
21
11.7004098215
0
LINE
5
222
100
AcDbEntity
8
0
100
AcDbLine
62
9
6
CONTINUOUS
10
-1.9013629372
20
11.7044399770
11
-1.9013288415
21
11.7044558515
0
LINE
5
223
100
AcDbEntity
8
0
100
AcDbLine
62
7
6
CONTINUOUS
10
-1.4354380189
20
11.5955803234
11
-1.5246749335
21
11.5583955354
0
LINE
5
224
100
AcDbEntity
8
0
100
AcDbLine
62
7
6
CONTINUOUS
10
-1.8925479267
20
11.7080494455
11
-1.9013288415
21
11.7044558515
0
LWPOLYLINE
5
225
100
AcDbEntity
8
0
100
AcDbPolyline
62
7
6
CONTINUOUS
90
7
70
0
10
-1.3158786061
20
12.3736295287
10
-1.2900371186
20
12.3841130898
10
-1.2629073051
20
12.3917160355
10
-1.2349000973
20
12.3962383452
10
-1.2065578369
20
12.3975581183
10
-1.1782269967
20
12.3956552742
10
-1.1500547122
20
12.3904939353
0
LINE
5
226
100
AcDbEntity
8
0
100
AcDbLine
62
7
6
CONTINUOUS
10
-0.5329838369
20
11.8481400280
11
-0.7636865767
21
11.7692154065
0
LWPOLYLINE
5
227
100
AcDbEntity
8
0
100
AcDbPolyline
62
7
6
CONTINUOUS
90
11
70
0
10
-1.0071725761
20
-12.1930910694
10
-0.9882239787
20
-12.2018909542
10
-0.9577376268
20
-12.2132880267
10
-0.9262003250
20
-12.2218293515
10
-0.8937881168
20
-12.2274545456
10
-0.8604664257
20
-12.2301089437
10
-0.8264530412
20
-12.2296761833
10
-0.7920353809
20
-12.2260836436
10
-0.7572135521
20
-12.2192368966
10
-0.7221124003
20
-12.2090128320
10
-0.6941283980
20
-12.1983976788
0
LINE
5
228
100
AcDbEntity
8
0
100
AcDbLine
62
7
6
CONTINUOUS
10
-1.0067895889
20
-12.1932838509
11
-8.4340805817
21
-8.4796383544
0
LINE
5
229
100
AcDbEntity
8
0
100
AcDbLine
62
9
6
CONTINUOUS
10
-1.1375693125
20
-11.9403202630
11
-8.5625688613
21
-8.2278204886
0
LWPOLYLINE
5
22A
100
AcDbEntity
8
0
100
AcDbPolyline
62
7
6
CONTINUOUS
90
9
70
0
10
-8.6047329516
20
-8.2908967222
10
-8.5898674959
20
-8.3234692823
10
-8.5726258585
20
-8.3536067979
10
-8.5531699700
20
-8.3813288654
10
-8.5315233923
20
-8.4067533311
10
-8.5079681195
20
-8.4296683522
10
-8.4827075877
20
-8.4500013471
10
-8.4555594065
20
-8.4679140446
10
-8.4338370504
20
-8.4797595731
0
LWPOLYLINE
5
22B
100
AcDbEntity
8
0
100
AcDbPolyline
62
7
6
CONTINUOUS
90
5
70
0
10
-8.6357954842
20
-8.1391006093
10
-8.6325524882
20
-8.1810802074
10
-8.6262384043
20
-8.2195274117
10
-8.6169230551
20
-8.2561746585
10
-8.6047329516
20
-8.2908967222
0
LINE
5
22C
100
AcDbEntity
8
0
100
AcDbLine
62
7
6
CONTINUOUS
10
-8.6358010247
20
-8.1389924772
11
-8.6357972230
21
-8.1391006709
0
LWPOLYLINE
5
22D
100
AcDbEntity
8
0
100
AcDbPolyline
62
7
6
CONTINUOUS
90
10
70
0
10
-8.6358109719
20
10.0620714705
10
-8.6957393430
20
8.0367175397
10
-8.7415835498
20
5.9827026266
10
-8.7721454646
20
3.9361315167
10
-8.7874208434
20
1.8972083347
10
-8.7874087510
20
-0.1338978768
10
-8.7721088953
20
-2.1570311854
10
-8.7415215941
20
-4.1720234964
10
-8.6956504761
20
-6.1786750504
10
-8.6358010247
20
-8.1389924772
0
LINE
5
22E
100
AcDbEntity
8
0
100
AcDbLine
62
7
6
CONTINUOUS
10
-0.4415752117
20
9.7581645473
11
-0.4808438643
21
9.7344976033
0
LINE
5
22F
100
AcDbEntity
8
0
100
AcDbLine
62
9
6
CONTINUOUS
10
0.2731534254
20
10.6342804974
11
0.1350729505
21
10.5602439070
0
LINE
5
230
100
AcDbEntity
8
0
100
AcDbLine
62
7
6
CONTINUOUS
10
0.9687250372
20
10.8700076278
11
0.2133031924
21
10.5211287860
0
LINE
5
231
100
AcDbEntity
8
0
100
AcDbLine
62
7
6
CONTINUOUS
10
7.2139782782
20
12.6819723056
11
7.3043279601
21
12.7198948173
0
LWPOLYLINE
5
232
100
AcDbEntity
8
0
100
AcDbPolyline
62
7
6
CONTINUOUS
90
28
70
0
10
7.3045074861
20
12.7199701288
10
7.3530262313
20
12.7378850605
10
7.4137185612
20
12.7539563418
10
7.4770385414
20
12.7639613441
10
7.5428493775
20
12.7676881523
10
7.6106568455
20
12.7649276896
10
7.6800695423
20
12.7555568156
10
7.7509661926
20
12.7394382140
10
7.8228752327
20
12.7165195584
10
7.8949061185
20
12.6870208806
10
7.9667290418
20
12.6510862942
10
8.0380852772
20
12.6088395159
10
8.1081901020
20
12.5607868868
10
8.1766400570
20
12.5073171214
10
8.2432761172
20
12.4486523585
10
8.3076786340
20
12.3852505393
10
8.3695289066
20
12.3175327468
10
8.4286230203
20
12.2458190450
10
8.4847095897
20
12.1704920332
10
8.5375329963
20
12.0919656932
10
8.5868754541
20
12.0106252412
10
8.6325412943
20
11.9268350834
10
8.6743171851
20
11.8410101588
10
8.7120038571
20
11.7535703361
10
8.7454332474
20
11.6648910978
10
8.7744333385
20
11.5753786922
10
8.7988340690
20
11.4854762579
10
8.8231438964
20
11.3744052125
0
LINE
5
233
100
AcDbEntity
8
0
100
AcDbLine
62
7
6
CONTINUOUS
10
-6.7916681568
20
-3.4704763557
11
-6.7932783772
21
-2.9709063283
0
LINE
5
234
100
AcDbEntity
8
0
100
AcDbLine
62
7
6
CONTINUOUS
10
1.5861936880
20
10.7885512656
11
1.4283444449
21
10.6731998957
0
LINE
5
235
100
AcDbEntity
8
0
100
AcDbLine
62
7
6
CONTINUOUS
10
2.1094012438
20
10.7078697746
11
1.4769240380
21
10.2623162455
0
LINE
5
236
100
AcDbEntity
8
0
100
AcDbLine
62
9
6
CONTINUOUS
10
-0.7999105623
20
6.8421986290
11
2.1179081189
21
8.4351216117
0
LINE
5
237
100
AcDbEntity
8
0
100
AcDbLine
62
7
6
CONTINUOUS
10
5.2540745307
20
11.3422716604
11
7.3600398508
21
12.4504339975
0
LINE
5
238
100
AcDbEntity
8
0
100
AcDbLine
62
9
6
CONTINUOUS
10
6.9430215053
20
12.9294533863
11
7.1872152443
21
13.0537800181
0
LINE
5
239
100
AcDbEntity
8
0
100
AcDbLine
62
9
6
CONTINUOUS
10
7.0219689542
20
12.7779769676
11
7.2484431612
21
12.8932820341
0
LINE
5
23A
100
AcDbEntity
8
0
100
AcDbLine
62
9
6
CONTINUOUS
10
5.9468152246
20
11.2008471259
11
5.9148208445
21
11.1848499358
0
LINE
5
23B
100
AcDbEntity
8
0
100
AcDbLine
62
9
6
CONTINUOUS
10
5.9642676386
20
11.1992910532
11
5.9290040585
21
11.1816592631
0
LINE
5
23C
100
AcDbEntity
8
0
100
AcDbLine
62
7
6
CONTINUOUS
10
5.3209697170
20
10.8010220484
11
5.5684570905
21
10.9247657351
0
LINE
5
23D
100
AcDbEntity
8
0
100
AcDbLine
62
7
6
CONTINUOUS
10
6.6999096489
20
10.6594108299
11
6.1387380336
21
10.3788250223
0
LINE
5
23E
100
AcDbEntity
8
0
100
AcDbLine
62
7
6
CONTINUOUS
10
5.7243609466
20
10.1716364788
11
5.1634748740
21
9.8911934425
0
LINE
5
23F
100
AcDbEntity
8
0
100
AcDbLine
62
7
6
CONTINUOUS
10
6.6207981986
20
10.4216318001
11
5.9619613383
21
10.0922133699
0
LINE
5
240
100
AcDbEntity
8
0
100
AcDbLine
62
7
6
CONTINUOUS
10
5.5475842514
20
9.8850248264
11
5.2455982500
21
9.7340318258
0
LINE
5
241
100
AcDbEntity
8
0
100
AcDbLine
62
7
6
CONTINUOUS
10
6.3633520958
20
10.2145048634
11
6.1861428438
21
10.1259002373
0
LINE
5
242
100
AcDbEntity
8
0
100
AcDbLine
62
7
6
CONTINUOUS
10
5.4152586112
20
9.7404581211
11
5.2991410507
21
9.6823993408
0
LINE
5
243
100
AcDbEntity
8
0
100
AcDbLine
62
7
6
CONTINUOUS
10
5.1371102783
20
11.1526351385
11
7.1870441140
21
12.1699524901
0
LINE
5
244
100
AcDbEntity
8
0
100
AcDbLine
62
7
6
CONTINUOUS
10
5.1919423170
20
11.6416569669
11
7.2468054232
21
12.6415787561
0
LINE
5
245
100
AcDbEntity
8
0
100
AcDbLine
62
9
6
CONTINUOUS
10
2.8096811930
20
10.4176797425
11
4.7962857325
21
11.3776479618
0
LINE
5
246
100
AcDbEntity
8
0
100
AcDbLine
62
9
6
CONTINUOUS
10
2.9662041075
20
10.3774208972
11
4.6797117082
21
11.2054230524
0
LINE
5
247
100
AcDbEntity
8
0
100
AcDbLine
62
7
6
CONTINUOUS
10
5.3490478005
20
11.1047016627
11
4.8623366524
21
10.8761283566
0
LINE
5
248
100
AcDbEntity
8
0
100
AcDbLine
62
7
6
CONTINUOUS
10
6.8483154811
20
9.3798399928
11
6.5699507926
21
9.2933685225
0
LINE
5
249
100
AcDbEntity
8
0
100
AcDbLine
62
7
6
CONTINUOUS
10
-6.6242985011
20
-3.4016768488
11
-6.7924374994
21
-3.2317882251
0
LINE
5
24A
100
AcDbEntity
8
0
100
AcDbLine
62
7
6
CONTINUOUS
10
-6.4125546798
20
-4.0324854530
11
-6.6865256376
21
-3.7460885804
0
LWPOLYLINE
5
24B
100
AcDbEntity
8
0
100
AcDbPolyline
62
7
6
CONTINUOUS
90
10
70
0
10
-7.6788043379
20
-0.6903883698
10
-7.5639057181
20
-0.9885484778
10
-7.4011794159
20
-1.4096659399
10
-7.2380206771
20
-1.8305532126
10
-7.0744298609
20
-2.2512093960
10
-6.9104073047
20
-2.6716336474
10
-6.7459533044
20
-3.0918252314
10
-6.5810681506
20
-3.5117834263
10
-6.4157521333
20
-3.9315075128
10
-6.2994847079
20
-4.2259082030
0
LINE
5
24C
100
AcDbEntity
8
0
100
AcDbLine
62
7
6
CONTINUOUS
10
-6.5652079933
20
-4.0641009894
11
-7.8268619553
21
-0.7569017921
0
LINE
5
24D
100
AcDbEntity
8
0
100
AcDbLine
62
7
6
CONTINUOUS
10
-4.8560670729
20
1.2915075177
11
-4.8560670729
21
4.2088449916
0
LINE
5
24E
100
AcDbEntity
8
0
100
AcDbLine
62
9
6
CONTINUOUS
10
-0.6169941923
20
6.5406974061
11
2.2945502519
21
8.1301950985
0
LINE
5
24F
100
AcDbEntity
8
0
100
AcDbLine
62
7
6
CONTINUOUS
10
6.0456053739
20
9.8772305281
11
6.0270438180
21
9.8679497502
0
LINE
5
250
100
AcDbEntity
8
0
100
AcDbLine
62
7
6
CONTINUOUS
10
7.0061273236
20
10.2898270985
11
6.4449242515
21
10.0092255624
0
LINE
5
251
100
AcDbEntity
8
0
100
AcDbLine
62
7
6
CONTINUOUS
10
6.0305471645
20
9.8020370189
11
5.4875683119
21
9.5305475926
0
LINE
5
252
100
AcDbEntity
8
0
100
AcDbLine
62
7
6
CONTINUOUS
10
6.6008281076
20
9.2560963061
11
6.8483154811
21
9.3798399928
0
LINE
5
253
100
AcDbEntity
8
0
100
AcDbLine
62
7
6
CONTINUOUS
10
7.2382861888
20
9.2555767560
11
9.2928926149
21
10.2626039214
0
LINE
5
254
100
AcDbEntity
8
0
100
AcDbLine
62
9
6
CONTINUOUS
10
5.1161186428
20
9.2158754893
11
5.1460560157
21
9.2304278717
0
LINE
5
255
100
AcDbEntity
8
0
100
AcDbLine
62
9
6
CONTINUOUS
10
5.2452427553
20
9.0826614623
11
5.2751829847
21
9.0972086736
0
LINE
5
256
100
AcDbEntity
8
0
100
AcDbLine
62
7
6
CONTINUOUS
10
9.1084545769
20
10.3399107254
11
6.9378422438
21
9.3097842359
0
LINE
5
257
100
AcDbEntity
8
0
100
AcDbLine
62
7
6
CONTINUOUS
10
9.8500607216
20
10.1851986727
11
9.5966453062
21
10.0674532386
0
LINE
5
258
100
AcDbEntity
8
0
100
AcDbLine
62
9
6
CONTINUOUS
10
9.9287818654
20
10.1524404817
11
9.6753664499
21
10.0346950476
0
LINE
5
259
100
AcDbEntity
8
0
100
AcDbLine
62
7
6
CONTINUOUS
10
9.8682766866
20
10.1929988846
11
9.8499333789
21
10.1851391572
0
LWPOLYLINE
5
25A
100
AcDbEntity
8
0
100
AcDbPolyline
62
7
6
CONTINUOUS
90
16
70
0
10
9.5966140600
20
10.0674388115
10
9.5916103966
20
10.0655403802
10
9.5852716060
20
10.0639984514
10
9.5775531420
20
10.0630078444
10
9.5686823220
20
10.0627765591
10
9.5588926988
20
10.0634386470
10
9.5483982516
20
10.0650755782
10
9.5373400930
20
10.0677491200
10
9.5259070409
20
10.0714934952
10
9.5143695374
20
10.0762821863
10
9.5029326577
20
10.0820736113
10
9.4918046665
20
10.0887950188
10
9.4812184011
20
10.0963209928
10
9.4713892692
20
10.1044882805
10
9.4624786690
20
10.1131284105
10
9.4555907280
20
10.1208700755
0
LINE
5
25B
100
AcDbEntity
8
0
100
AcDbLine
62
7
6
CONTINUOUS
10
-2.5468141435
20
-5.9101411854
11
-2.4603689462
21
-5.9201153724
0
LINE
5
25C
100
AcDbEntity
8
0
100
AcDbLine
62
7
6
CONTINUOUS
10
-2.4933427122
20
-5.9746869126
11
-3.0356132965
21
-5.3201084131
0
LINE
5
25D
100
AcDbEntity
8
0
100
AcDbLine
62
7
6
CONTINUOUS
10
-2.9984413171
20
-5.3649789614
11
-3.0269961219
21
-5.3061372126
0
LINE
5
25E
100
AcDbEntity
8
0
100
AcDbLine
62
7
6
CONTINUOUS
10
-2.8743367708
20
10.9312440566
11
-2.8743367708
21
10.9745453268
0
LINE
5
25F
100
AcDbEntity
8
0
100
AcDbLine
62
7
6
CONTINUOUS
10
-2.8552721243
20
-5.5377994650
11
-2.8552721243
21
-5.1141442424
0
LINE
5
260
100
AcDbEntity
8
0
100
AcDbLine
62
7
6
CONTINUOUS
10
4.8954511789
20
10.5325040842
11
5.0689154799
21
10.7459443419
0
LINE
5
261
100
AcDbEntity
8
0
100
AcDbLine
62
7
6
CONTINUOUS
10
5.7417604311
20
10.1906455396
11
5.7243609466
21
10.1716364788
0
LINE
5
262
100
AcDbEntity
8
0
100
AcDbLine
62
7
6
CONTINUOUS
10
5.5475842514
20
9.8850248264
11
5.4152586112
21
9.7404581211
0
LINE
5
263
100
AcDbEntity
8
0
100
AcDbLine
62
7
6
CONTINUOUS
10
5.4058847100
20
9.6460834002
11
5.3770646947
21
9.6145973279
0
LINE
5
264
100
AcDbEntity
8
0
100
AcDbLine
62
7
6
CONTINUOUS
10
6.4275247670
20
9.9902165016
11
6.4449242515
21
10.0092255624
0
LINE
5
265
100
AcDbEntity
8
0
100
AcDbLine
62
7
6
CONTINUOUS
10
6.3633520958
20
10.2145048634
11
6.0456053739
21
9.8772305281
0
LINE
5
266
100
AcDbEntity
8
0
100
AcDbLine
62
9
6
CONTINUOUS
10
6.0152586072
20
6.8203884602
11
10.7200679765
21
9.1972736512
0
LINE
5
267
100
AcDbEntity
8
0
100
AcDbLine
62
9
6
CONTINUOUS
10
10.8084428621
20
8.9656147655
11
5.9450935573
21
6.5086346769
0
LINE
5
268
100
AcDbEntity
8
0
100
AcDbLine
62
7
6
CONTINUOUS
10
-4.8560670729
20
1.2915075177
11
-5.1996272315
21
1.1190594370
0
LINE
5
269
100
AcDbEntity
8
0
100
AcDbLine
62
7
6
CONTINUOUS
10
-4.8520511847
20
1.2894995736
11
-4.2774817642
21
1.5756474491
0
LINE
5
26A
100
AcDbEntity
8
0
100
AcDbLine
62
7
6
CONTINUOUS
10
-6.3786464377
20
-4.0254628262
11
-6.5652079933
21
-4.0641009894
0
LINE
5
26B
100
AcDbEntity
8
0
100
AcDbLine
62
7
6
CONTINUOUS
10
-2.2827468154
20
-3.3902512965
11
-1.4865346978
21
-4.3470494827
0
LINE
5
26C
100
AcDbEntity
8
0
100
AcDbLine
62
7
6
CONTINUOUS
10
-1.4354380189
20
12.0720891558
11
-1.4354380189
21
11.5137770781
0
LINE
5
26D
100
AcDbEntity
8
0
100
AcDbLine
62
7
6
CONTINUOUS
10
-0.7636865767
20
11.7692154065
11
-0.7636865767
21
11.3241094809
0
LINE
5
26E
100
AcDbEntity
8
0
100
AcDbLine
62
7
6
CONTINUOUS
10
-0.4208033357
20
9.7477786092
11
-0.4208033357
21
9.7044773390
0
LINE
5
26F
100
AcDbEntity
8
0
100
AcDbLine
62
7
6
CONTINUOUS
10
-2.7673113698
20
-5.6439774882
11
-2.3655583141
21
-4.5908540302
0
LINE
5
270
100
AcDbEntity
8
0
100
AcDbLine
62
7
6
CONTINUOUS
10
7.3118432621
20
12.8677451956
11
7.3158705881
21
12.8744441721
0
LINE
5
271
100
AcDbEntity
8
0
100
AcDbLine
62
9
6
CONTINUOUS
10
5.1371102783
20
11.1526351385
11
5.2540745307
21
11.3422716604
0
LINE
5
272
100
AcDbEntity
8
0
100
AcDbLine
62
9
6
CONTINUOUS
10
5.4851405081
20
11.3253515382
11
5.3490478005
21
11.1047016627
0
LINE
5
273
100
AcDbEntity
8
0
100
AcDbLine
62
7
6
CONTINUOUS
10
5.8745836214
20
10.5552383237
11
5.7016604570
21
10.2748744794
0
LINE
5
274
100
AcDbEntity
8
0
100
AcDbLine
62
9
6
CONTINUOUS
10
7.2893296639
20
12.8471696671
11
7.1936943890
21
12.6921142502
0
LINE
5
275
100
AcDbEntity
8
0
100
AcDbLine
62
7
6
CONTINUOUS
10
7.3119804048
20
12.8679653288
11
7.2012031301
21
12.6883598796
0
LINE
5
276
100
AcDbEntity
8
0
100
AcDbLine
62
7
6
CONTINUOUS
10
5.4152586112
20
9.7404581211
11
5.3507387908
21
9.6358508237
0
LINE
5
277
100
AcDbEntity
8
0
100
AcDbLine
62
7
6
CONTINUOUS
10
5.7243609466
20
10.1716364788
11
5.5475842514
21
9.8850248264
0
LINE
5
278
100
AcDbEntity
8
0
100
AcDbLine
62
7
6
CONTINUOUS
10
5.7417604311
20
10.1906455396
11
5.4058847100
21
9.6460834002
0
LINE
5
279
100
AcDbEntity
8
0
100
AcDbLine
62
7
6
CONTINUOUS
10
7.3600398508
20
12.4504339975
11
7.1870441140
21
12.1699524901
0
LINE
5
27A
100
AcDbEntity
8
0
100
AcDbLine
62
7
6
CONTINUOUS
10
6.1092604311
20
10.3743955396
11
5.7733847100
21
9.8298334002
0
LINE
5
27B
100
AcDbEntity
8
0
100
AcDbLine
62
7
6
CONTINUOUS
10
6.1387380336
20
10.3788250223
11
5.9619613383
21
10.0922133699
0
LINE
5
27C
100
AcDbEntity
8
0
100
AcDbLine
62
7
6
CONTINUOUS
10
6.0270438180
20
9.8679497502
11
6.1861428438
21
10.1259002373
0
LINE
5
27D
100
AcDbEntity
8
0
100
AcDbLine
62
7
6
CONTINUOUS
10
-3.0356132965
20
-5.3201084131
11
-2.0315946756
21
-3.6922725978
0
LINE
5
27E
100
AcDbEntity
8
0
100
AcDbLine
62
7
6
CONTINUOUS
10
6.4275247670
20
9.9902165016
11
6.2323066805
21
9.6737054464
0
LINE
5
27F
100
AcDbEntity
8
0
100
AcDbLine
62
7
6
CONTINUOUS
10
-4.3252252833
20
1.0260866229
11
-4.8560670729
21
1.2915075177
0
LINE
5
280
100
AcDbEntity
8
0
100
AcDbLine
62
7
6
CONTINUOUS
10
1.4283444449
20
10.6731998957
11
1.4283444449
21
10.3099685860
0
LINE
5
281
100
AcDbEntity
8
0
100
AcDbLine
62
7
6
CONTINUOUS
10
2.2945502519
20
8.1301950985
11
2.2945502519
21
-10.8355630527
0
LWPOLYLINE
5
282
100
AcDbEntity
8
0
100
AcDbPolyline
62
7
6
CONTINUOUS
90
3
70
0
10
7.3158705881
20
12.8744441721
10
7.3250970557
20
12.8915873513
10
7.3324797480
20
12.9083336374
0
LWPOLYLINE
5
283
100
AcDbEntity
8
0
100
AcDbPolyline
62
7
6
CONTINUOUS
90
7
70
0
10
-1.7438305812
20
-4.7392309261
10
-1.9018073400
20
-4.9986880214
10
-2.0593461043
20
-5.2579187863
10
-2.2164465720
20
-5.5169227269
10
-2.3731085182
20
-5.7756994764
10
-2.5293316393
20
-6.0342485405
10
-2.7787590494
20
-6.4480902152
0
LINE
5
284
100
AcDbEntity
8
0
100
AcDbLine
62
7
6
CONTINUOUS
10
-1.4968784241
20
-4.3346322360
11
-1.7438305812
21
-4.7392309261
0
LINE
5
285
100
AcDbEntity
8
0
100
AcDbLine
62
7
6
CONTINUOUS
10
6.3928171068
20
9.5071877958
11
6.5421889501
21
9.7493674042
0
LINE
5
286
100
AcDbEntity
8
0
100
AcDbLine
62
7
6
CONTINUOUS
10
-1.7929860148
20
-3.9790242763
11
-3.0116276946
21
-5.2812200688
0
LINE
5
287
100
AcDbEntity
8
0
100
AcDbLine
62
7
6
CONTINUOUS
10
-6.5652079933
20
-4.0641009894
11
-6.9902529094
21
-4.2814561067
0
LINE
5
288
100
AcDbEntity
8
0
100
AcDbLine
62
7
6
CONTINUOUS
10
-8.3591979018
20
-0.8666438982
11
-7.6659663588
21
-0.7237027233
0
LWPOLYLINE
5
289
100
AcDbEntity
8
0
100
AcDbPolyline
62
7
6
CONTINUOUS
90
12
70
0
10
7.3324797480
20
12.9083336374
10
7.3380570568
20
12.9249466321
10
7.3417767003
20
12.9416758196
10
7.3434853737
20
12.9587812242
10
7.3429176460
20
12.9761461477
10
7.3399130915
20
12.9932043297
10
7.3344519101
20
13.0095895945
10
7.3265375625
20
13.0250506149
10
7.3163913644
20
13.0390594730
10
7.3043033907
20
13.0512648073
10
7.2905301744
20
13.0614646093
10
7.2809324012
20
13.0668712326
0
LWPOLYLINE
5
28A
100
AcDbEntity
8
0
100
AcDbPolyline
62
7
6
CONTINUOUS
90
19
70
0
10
7.1263130192
20
9.4769801008
10
7.1428355323
20
9.5168515144
10
7.1570427789
20
9.5579197080
10
7.1688848191
20
9.6000975890
10
7.1783173437
20
9.6432933671
10
7.1853029203
20
9.6874159253
10
7.1898102129
20
9.7323773546
10
7.1918124941
20
9.7780932353
10
7.1912871931
20
9.8244575019
10
7.1882206030
20
9.8713501825
10
7.1826039084
20
9.9186865910
10
7.1744357418
20
9.9663550310
10
7.1637345591
20
10.0141944348
10
7.1505180682
20
10.0621041532
10
7.1348079169
20
10.1099856877
10
7.1166539801
20
10.1576814145
10
7.0961045265
20
10.2050734733
10
7.0731960204
20
10.2520835122
10
7.0497962524
20
10.2954086163
0
LINE
5
28B
100
AcDbEntity
8
0
100
AcDbLine
62
9
6
CONTINUOUS
10
7.1263130192
20
9.4769801008
11
7.1262937902
21
9.4769373785
0
LINE
5
28C
100
AcDbEntity
8
0
100
AcDbLine
62
7
6
CONTINUOUS
10
7.0818175801
20
9.3781118712
11
7.1263130192
21
9.4769801008
0
LINE
5
28D
100
AcDbEntity
8
0
100
AcDbLine
62
7
6
CONTINUOUS
10
-3.0356132965
20
-5.3201084131
11
-3.4718024899
21
-5.5347507363
0
LWPOLYLINE
5
28E
100
AcDbEntity
8
0
100
AcDbPolyline
62
7
6
CONTINUOUS
90
10
70
0
10
6.0152541298
20
7.5765546751
10
6.0149665912
20
7.6011976600
10
6.0105895409
20
7.6770646463
10
6.0010912938
20
7.7534165754
10
5.9866743732
20
7.8298911676
10
5.9675354545
20
7.9061145678
10
5.9438950503
20
7.9816120213
10
5.9159766811
20
8.0559629989
10
5.8839632361
20
8.1288375865
10
5.8747621322
20
8.1479763107
0
LINE
5
28F
100
AcDbEntity
8
0
100
AcDbLine
62
9
6
CONTINUOUS
10
5.9450935573
20
7.4898092168
11
5.9450935573
21
6.5086346769
0
LINE
5
290
100
AcDbEntity
8
0
100
AcDbLine
62
7
6
CONTINUOUS
10
6.0152586072
20
7.5766415126
11
6.0152586072
21
6.7438658861
0
LINE
5
291
100
AcDbEntity
8
0
100
AcDbLine
62
7
6
CONTINUOUS
10
5.5480780922
20
10.5268779886
11
5.5684570905
21
10.9247657351
0
LINE
5
292
100
AcDbEntity
8
0
100
AcDbLine
62
9
6
CONTINUOUS
10
10.8786079121
20
-1.7985238965
11
11.3016003172
21
-1.5636335670
0
LINE
5
293
100
AcDbEntity
8
0
100
AcDbLine
62
9
6
CONTINUOUS
10
-8.5625688613
20
9.9745735801
11
-1.1375693125
21
6.2620738057
0
LINE
5
294
100
AcDbEntity
8
0
100
AcDbLine
62
9
6
CONTINUOUS
10
-8.2307529727
20
10.5576198342
11
-0.7999105623
21
6.8421986290
0
LWPOLYLINE
5
295
100
AcDbEntity
8
0
100
AcDbPolyline
62
7
6
CONTINUOUS
90
10
70
0
10
4.7508060496
20
-7.6706901733
10
4.9109912721
20
-7.5680577029
10
4.9484016795
20
-7.5444089161
10
4.9849877752
20
-7.5215337727
10
5.0207145540
20
-7.4994695796
10
5.0553464574
20
-7.4783774322
10
5.0886355582
20
-7.4584131177
10
5.1205267191
20
-7.4396194985
10
5.1507548774
20
-7.4221430748
10
5.1790866960
20
-7.4061101154
0
LINE
5
296
100
AcDbEntity
8
0
100
AcDbLine
62
9
6
CONTINUOUS
10
10.9862825225
20
-3.1758325016
11
10.9849741744
21
-3.1766014035
0
LINE
5
297
100
AcDbEntity
8
0
100
AcDbLine
62
7
6
CONTINUOUS
10
10.8786079121
20
-3.2389084054
11
10.9850144163
21
-3.1765778333
0
LINE
5
298
100
AcDbEntity
8
0
100
AcDbLine
62
9
6
CONTINUOUS
10
10.8786079121
20
-2.7078505704
11
11.3016003172
21
-2.4729602410
0
LWPOLYLINE
5
299
100
AcDbEntity
8
0
100
AcDbPolyline
62
7
6
CONTINUOUS
90
9
70
0
10
3.6643202350
20
-8.3149525511
10
3.7590461661
20
-8.2626071861
10
3.8999504260
20
-8.1833898115
10
4.0411392178
20
-8.1023900562
10
4.1825969210
20
-8.0196088054
10
4.3243082502
20
-7.9350467354
10
4.4662576976
20
-7.8487050142
10
4.6084292413
20
-7.7605853954
10
4.7508060496
20
-7.6706901733
0
LWPOLYLINE
5
29A
100
AcDbEntity
8
0
100
AcDbPolyline
62
7
6
CONTINUOUS
90
3
70
0
10
5.1790866960
20
-7.4061101154
10
5.2054618210
20
-7.3915539107
10
5.2298633126
20
-7.3784366121
0
LINE
5
29B
100
AcDbEntity
8
0
100
AcDbLine
62
9
6
CONTINUOUS
10
3.6607988929
20
-8.3168482709
11
3.6632368669
21
-8.3155134489
0
LINE
5
29C
100
AcDbEntity
8
0
100
AcDbLine
62
9
6
CONTINUOUS
10
2.3350529177
20
-9.0169633522
11
2.3373996626
21
-9.0156812024
0
LINE
5
29D
100
AcDbEntity
8
0
100
AcDbLine
62
7
6
CONTINUOUS
10
3.6607988925
20
-8.3168482711
11
3.6642357241
21
-8.3149988347
0
LINE
5
29E
100
AcDbEntity
8
0
100
AcDbLine
62
7
6
CONTINUOUS
10
5.2299645882
20
-7.3783899789
11
10.1720491731
21
-4.7630505182
0
LINE
5
29F
100
AcDbEntity
8
0
100
AcDbLine
62
7
6
CONTINUOUS
10
2.3350541795
20
-9.0169656068
11
3.6607988926
21
-8.3168482710
0
LINE
5
2A0
100
AcDbEntity
8
0
100
AcDbLine
62
9
6
CONTINUOUS
10
4.8448560271
20
-7.6104027281
11
4.8394806551
21
-7.6127935070
0
LINE
5
2A1
100
AcDbEntity
8
0
100
AcDbLine
62
7
6
CONTINUOUS
10
6.0305471645
20
9.8020370189
11
6.0600247670
21
9.8064665016
0
LINE
5
2A2
100
AcDbEntity
8
0
100
AcDbLine
62
7
6
CONTINUOUS
10
6.0270438180
20
9.8679497502
11
5.7733847100
21
9.8298334002
0
LINE
5
2A3
100
AcDbEntity
8
0
100
AcDbLine
62
7
6
CONTINUOUS
10
-5.4130482254
20
12.2005997839
11
-2.8142962422
21
10.9012237923
0
LINE
5
2A4
100
AcDbEntity
8
0
100
AcDbLine
62
7
6
CONTINUOUS
10
-0.4808438643
20
9.7344976033
11
2.1179081189
21
8.4351216117
0
LINE
5
2A5
100
AcDbEntity
8
0
100
AcDbLine
62
7
6
CONTINUOUS
10
-0.4208033357
20
9.7477786092
11
-2.8743367708
21
10.9745453268
0
LINE
5
2A6
100
AcDbEntity
8
0
100
AcDbLine
62
7
6
CONTINUOUS
10
-0.3483116698
20
10.1445454782
11
-2.9468284366
21
11.4438038616
0
LINE
5
2A7
100
AcDbEntity
8
0
100
AcDbLine
62
7
6
CONTINUOUS
10
0.3322658603
20
10.6283360009
11
0.3760139676
21
10.5962740141
0
LWPOLYLINE
5
2A8
100
AcDbEntity
8
0
100
AcDbPolyline
62
7
6
CONTINUOUS
90
16
70
0
10
10.8786079121
20
-0.3130045728
10
10.8967109692
20
-0.3340840694
10
10.9532838923
20
-0.4069151715
10
11.0067998736
20
-0.4830463722
10
11.0570222122
20
-0.5620807445
10
11.1037437363
20
-0.6436409811
10
11.1467831791
20
-0.7273784952
10
11.1859430906
20
-0.8128967118
10
11.2210358840
20
-0.8997874271
10
11.2519029266
20
-0.9876838688
10
11.2783853144
20
-1.0761965514
10
11.3003253138
20
-1.1648960933
10
11.3175861505
20
-1.2533722408
10
11.3300458720
20
-1.3412266213
10
11.3375930627
20
-1.4280549049
10
11.3401285934
20
-1.5134487716
0
LWPOLYLINE
5
2A9
100
AcDbEntity
8
0
100
AcDbPolyline
62
7
6
CONTINUOUS
90
10
70
0
10
5.8747669763
20
8.1479778724
10
5.8201581115
20
8.2587288120
10
5.7649422763
20
8.3691819076
10
5.7091237948
20
8.4793285068
10
5.6527070632
20
8.5891599285
10
5.5956964634
20
8.6986676308
10
5.5380963596
20
8.8078432105
10
5.4799112179
20
8.9166781727
10
5.4211456094
20
9.0251639331
10
5.3618041186
20
9.1332919909
0
LINE
5
2AA
100
AcDbEntity
8
0
100
AcDbLine
62
9
6
CONTINUOUS
10
5.2540745307
20
11.3422716604
11
5.1919423170
21
11.6416569669
0
LINE
5
2AB
100
AcDbEntity
8
0
100
AcDbLine
62
9
6
CONTINUOUS
10
10.8084428621
20
8.9656147655
11
10.8084428621
21
-3.8598508517
0
LINE
5
2AC
100
AcDbEntity
8
0
100
AcDbLine
62
7
6
CONTINUOUS
10
10.8786079121
20
9.0524470618
11
10.8786079121
21
-3.7730185494
0
LINE
5
2AD
100
AcDbEntity
8
0
100
AcDbLine
62
7
6
CONTINUOUS
10
10.8775334203
20
-3.8198738717
11
10.8786019118
21
-3.7730131135
0
LINE
5
2AE
100
AcDbEntity
8
0
100
AcDbLine
62
7
6
CONTINUOUS
10
10.8730266843
20
-3.8787500625
11
10.8775334203
21
-3.8198738717
0
LWPOLYLINE
5
2AF
100
AcDbEntity
8
0
100
AcDbPolyline
62
7
6
CONTINUOUS
90
10
70
0
10
10.6921577787
20
-4.2943606055
10
10.7192665586
20
-4.2642920570
10
10.7483834684
20
-4.2266089836
10
10.7752114712
20
-4.1854337469
10
10.7994142108
20
-4.1409351881
10
10.8206252168
20
-4.0935652883
10
10.8387167525
20
-4.0434474448
10
10.8535753368
20
-3.9906674044
10
10.8650316429
20
-3.9356854453
10
10.8730266843
20
-3.8787500625
0
LINE
5
2B0
100
AcDbEntity
8
0
100
AcDbLine
62
7
6
CONTINUOUS
10
10.6921623919
20
-4.2943650406
11
10.6920012263
21
-4.2945315678
0
LINE
5
2B1
100
AcDbEntity
8
0
100
AcDbLine
62
7
6
CONTINUOUS
10
10.6920012263
20
-4.2945315678
11
10.6408468045
21
-4.3466542989
0
LWPOLYLINE
5
2B2
100
AcDbEntity
8
0
100
AcDbPolyline
62
7
6
CONTINUOUS
90
9
70
0
10
10.6408468045
20
-4.3466542989
10
10.5891857181
20
-4.3979975308
10
10.5370220152
20
-4.4485583026
10
10.4843601667
20
-4.4983333490
10
10.4312039185
20
-4.5473201904
10
10.3775562648
20
-4.5955170667
10
10.3234209919
20
-4.6429215162
10
10.2688027039
20
-4.6895304423
10
10.2137056560
20
-4.7353411569
0
LINE
5
2B3
100
AcDbEntity
8
0
100
AcDbLine
62
9
6
CONTINUOUS
10
10.2137056560
20
-4.7353411569
11
10.2136631647
21
-4.7353760147
0
LINE
5
2B4
100
AcDbEntity
8
0
100
AcDbLine
62
7
6
CONTINUOUS
10
10.1915895269
20
-4.7515459010
11
10.2136631647
21
-4.7353760147
0
LINE
5
2B5
100
AcDbEntity
8
0
100
AcDbLine
62
7
6
CONTINUOUS
10
10.1719803405
20
-4.7630869087
11
10.1915895269
21
-4.7515459010
0
LINE
5
2B6
100
AcDbEntity
8
0
100
AcDbLine
62
9
6
CONTINUOUS
10
3.6642353700
20
-8.3149990288
11
3.6632368669
21
-8.3155134489
0
LINE
5
2B7
100
AcDbEntity
8
0
100
AcDbLine
62
9
6
CONTINUOUS
10
2.2945502519
20
-10.8355630527
11
-0.6169941923
21
-12.0577111475
0
LINE
5
2B8
100
AcDbEntity
8
0
100
AcDbLine
62
7
6
CONTINUOUS
10
-0.6941256322
20
-12.1984042885
11
2.2238815228
21
-10.9735437468
0
LINE
5
2B9
100
AcDbEntity
8
0
100
AcDbLine
62
7
6
CONTINUOUS
10
2.0154879859
20
10.8667379478
11
1.5861936880
21
10.7885512656
0
LINE
5
2BA
100
AcDbEntity
8
0
100
AcDbLine
62
7
6
CONTINUOUS
10
6.1861428438
20
10.1259002373
11
5.9619613383
21
10.0922133699
0
LINE
5
2BB
100
AcDbEntity
8
0
100
AcDbLine
62
7
6
CONTINUOUS
10
6.1387380336
20
10.3788250223
11
6.1092604311
21
10.3743955396
0
LINE
5
2BC
100
AcDbEntity
8
0
100
AcDbLine
62
9
6
CONTINUOUS
10
6.9378422438
20
9.3097842359
11
7.2382861888
21
9.2555767560
0
LWPOLYLINE
5
2BD
100
AcDbEntity
8
0
100
AcDbPolyline
62
7
6
CONTINUOUS
90
6
70
0
10
-1.8143713265
20
11.7032437290
10
-1.8261790205
20
11.7082299766
10
-1.8390380704
20
11.7117724311
10
-1.8524002485
20
11.7135822445
10
-1.8659010341
20
11.7135760011
10
-1.8793154840
20
11.7117437147
0
LINE
5
2BE
100
AcDbEntity
8
0
100
AcDbLine
62
9
6
CONTINUOUS
10
2.2214231043
20
9.3459537748
11
2.1563053720
21
9.3785126409
0
LINE
5
2BF
100
AcDbEntity
8
0
100
AcDbLine
62
7
6
CONTINUOUS
10
-2.1649404146
20
11.7102505895
11
0.2133031924
21
10.5211287860
0
LINE
5
2C0
100
AcDbEntity
8
0
100
AcDbLine
62
9
6
CONTINUOUS
10
-1.8591052227
20
11.7004098215
11
0.2731534254
21
10.6342804974
0
LINE
5
2C1
100
AcDbEntity
8
0
100
AcDbLine
62
7
6
CONTINUOUS
10
-1.8143838631
20
11.7032500002
11
0.3178747850
21
10.6371206761
0
LINE
5
2C2
100
AcDbEntity
8
0
100
AcDbLine
62
7
6
CONTINUOUS
10
-0.7636865767
20
11.3241094809
11
0.5402682320
21
10.6721320766
0
LINE
5
2C3
100
AcDbEntity
8
0
100
AcDbLine
62
7
6
CONTINUOUS
10
-1.5251667139
20
12.1169535033
11
-1.4354380189
21
12.0720891558
0
LINE
5
2C4
100
AcDbEntity
8
0
100
AcDbLine
62
7
6
CONTINUOUS
10
0.9687250372
20
10.8700076278
11
1.0584537322
21
10.8251432802
0
LINE
5
2C5
100
AcDbEntity
8
0
100
AcDbLine
62
7
6
CONTINUOUS
10
-0.7636865767
20
11.7692154065
11
1.4283444449
21
10.6731998957
0
LINE
5
2C6
100
AcDbEntity
8
0
100
AcDbLine
62
7
6
CONTINUOUS
10
-0.5329838369
20
11.8481400280
11
1.5861936880
21
10.7885512656
0
LINE
5
2C7
100
AcDbEntity
8
0
100
AcDbLine
62
9
6
CONTINUOUS
10
3.5471390039
20
9.9890008946
11
2.1094012438
21
10.7078697746
0
LINE
5
2C8
100
AcDbEntity
8
0
100
AcDbLine
62
9
6
CONTINUOUS
10
-0.1453370505
20
11.8352389217
11
-1.2060336384
21
12.3655872157
0
LINE
5
2C9
100
AcDbEntity
8
0
100
AcDbLine
62
9
6
CONTINUOUS
10
5.1161186428
20
9.2158754893
11
4.1156504782
21
9.7161095715
0
LINE
5
2CA
100
AcDbEntity
8
0
100
AcDbLine
62
9
6
CONTINUOUS
10
3.6666662119
20
9.9701227736
11
5.1460560157
21
9.2304278717
0
LINE
5
2CB
100
AcDbEntity
8
0
100
AcDbLine
62
7
6
CONTINUOUS
10
3.6558572264
20
9.9945917258
11
2.1978935155
21
10.7235735812
0
LINE
5
2CC
100
AcDbEntity
8
0
100
AcDbLine
62
7
6
CONTINUOUS
10
-0.0168874109
20
11.8309640444
11
-1.0973154131
21
12.3711780456
0
LINE
5
2CD
100
AcDbEntity
8
0
100
AcDbLine
62
7
6
CONTINUOUS
10
3.0126869281
20
10.3570623580
11
5.2547742358
21
9.2360187041
0
LINE
5
2CE
100
AcDbEntity
8
0
100
AcDbLine
62
7
6
CONTINUOUS
10
0.0944462908
20
11.8272587953
11
2.0154879859
21
10.8667379478
0
LINE
5
2CF
100
AcDbEntity
8
0
100
AcDbLine
62
7
6
CONTINUOUS
10
4.8791164149
20
9.2504469963
11
4.8796823419
21
9.2501637203
0
LWPOLYLINE
5
2D0
100
AcDbEntity
8
0
100
AcDbPolyline
62
7
6
CONTINUOUS
90
5
70
0
10
4.8796816683
20
9.2501640474
10
4.8756235434
20
9.2522185989
10
4.8616022196
20
9.2597041801
10
4.8470986360
20
9.2680579959
10
4.8404385364
20
9.2720958032
0
LWPOLYLINE
5
2D1
100
AcDbEntity
8
0
100
AcDbPolyline
62
7
6
CONTINUOUS
90
10
70
0
10
0.3178747850
20
10.6371206761
10
0.3195582689
20
10.6362589398
10
0.3212263385
20
10.6353648718
10
0.3228782285
20
10.6344388005
10
0.3245133586
20
10.6334809714
10
0.3261307944
20
10.6324918614
10
0.3277292895
20
10.6314721995
10
0.3293079885
20
10.6304225342
10
0.3308663855
20
10.6293432143
10
0.3322660165
20
10.6283358865
0
LWPOLYLINE
5
2D2
100
AcDbEntity
8
0
100
AcDbPolyline
62
7
6
CONTINUOUS
90
4
70
0
10
3.6558511906
20
9.9945947434
10
3.6604980715
20
9.9922104646
10
3.6687136156
20
9.9876873443
10
3.6739113944
20
9.9846131386
0
LINE
5
2D3
100
AcDbEntity
8
0
100
AcDbLine
62
7
6
CONTINUOUS
10
3.9023227923
20
9.8459907831
11
3.6736114918
21
9.9847951580
0
LINE
5
2D4
100
AcDbEntity
8
0
100
AcDbLine
62
7
6
CONTINUOUS
10
4.1816465871
20
9.6758787116
11
3.9023227923
21
9.8459907831
0
LINE
5
2D5
100
AcDbEntity
8
0
100
AcDbLine
62
7
6
CONTINUOUS
10
4.4620646416
20
9.5044475121
11
4.1816465871
21
9.6758787116
0
LINE
5
2D6
100
AcDbEntity
8
0
100
AcDbLine
62
7
6
CONTINUOUS
10
4.8404368471
20
9.2720968736
11
4.4620646416
21
9.5044475121
0
LINE
5
2D7
100
AcDbEntity
8
0
100
AcDbLine
62
7
6
CONTINUOUS
10
2.0154879859
20
10.8667379478
11
2.1986233551
21
10.7245133586
0
LINE
5
2D8
100
AcDbEntity
8
0
100
AcDbLine
62
7
6
CONTINUOUS
10
6.0456053739
20
9.8772305281
11
6.1305361524
21
9.7747100094
0
LINE
5
2D9
100
AcDbEntity
8
0
100
AcDbLine
62
7
6
CONTINUOUS
10
6.1750049478
20
9.7210314250
11
6.1822650535
21
9.7122677021
0
LINE
5
2DA
100
AcDbEntity
8
0
100
AcDbLine
62
7
6
CONTINUOUS
10
6.6008281076
20
9.2560963061
11
6.2947015767
21
9.6256237175
0
LINE
5
2DB
100
AcDbEntity
8
0
100
AcDbLine
62
7
6
CONTINUOUS
10
5.6270962480
20
10.4314946370
11
5.3209697170
21
10.8010220484
0
LINE
5
2DC
100
AcDbEntity
8
0
100
AcDbLine
62
7
6
CONTINUOUS
10
6.8483154811
20
9.3798399928
11
6.5421889501
21
9.7493674042
0
LINE
5
2DD
100
AcDbEntity
8
0
100
AcDbLine
62
7
6
CONTINUOUS
10
5.8745836214
20
10.5552383237
11
5.5684570905
21
10.9247657351
0
LWPOLYLINE
5
2DE
100
AcDbEntity
8
0
100
AcDbPolyline
62
7
6
CONTINUOUS
90
7
70
0
10
5.3618041186
20
9.1332919909
10
5.3473538346
20
9.1563826960
10
5.3304834935
20
9.1777570069
10
5.3113926125
20
9.1971660823
10
5.2903071733
20
9.2143822110
10
5.2674738345
20
9.2292044417
10
5.2547632819
20
9.2360241802
0
LINE
5
2DF
100
AcDbEntity
8
0
100
AcDbLine
62
7
6
CONTINUOUS
10
5.6270962480
20
10.4314946370
11
5.7417604311
21
10.1906455396
0
LINE
5
2E0
100
AcDbEntity
8
0
100
AcDbLine
62
7
6
CONTINUOUS
10
6.5421889501
20
9.7493674042
11
6.4275247670
21
9.9902165016
0
LINE
5
2E1
100
AcDbEntity
8
0
100
AcDbLine
62
7
6
CONTINUOUS
10
7.3343440622
20
12.5806966929
11
7.3600398508
21
12.4504339975
0
LWPOLYLINE
5
2E2
100
AcDbEntity
8
0
100
AcDbPolyline
62
7
6
CONTINUOUS
90
8
70
0
10
10.8786079121
20
9.0524470618
10
10.8773451592
20
9.0775413292
10
10.8735334517
20
9.1025613473
10
10.8671706396
20
9.1271988177
10
10.8583048920
20
9.1511349283
10
10.8470226353
20
9.1740817870
10
10.8334245716
20
9.1958002480
10
10.8211140852
20
9.2119505681
0
LINE
5
2E3
100
AcDbEntity
8
0
100
AcDbLine
62
9
6
CONTINUOUS
10
11.3016003172
20
-1.5636335670
11
11.3016003172
21
-2.4729602410
0
LINE
5
2E4
100
AcDbEntity
8
0
100
AcDbLine
62
7
6
CONTINUOUS
10
11.3401285934
20
-1.5134487716
11
11.3401285934
21
-2.4227754455
0
LINE
5
2E5
100
AcDbEntity
8
0
100
AcDbLine
62
7
6
CONTINUOUS
10
11.3401285934
20
-2.4227754455
11
11.3374098199
21
-2.5088117267
0
LWPOLYLINE
5
2E6
100
AcDbEntity
8
0
100
AcDbPolyline
62
7
6
CONTINUOUS
90
12
70
0
10
11.3374098199
20
-2.5088117267
10
11.3293068429
20
-2.5916793379
10
11.3159045971
20
-2.6710649645
10
11.2972531655
20
-2.7468157435
10
11.2734773531
20
-2.8184750349
10
11.2448841389
20
-2.8853582734
10
11.2117769757
20
-2.9471302307
10
11.1743346228
20
-3.0037609998
10
11.1328073335
20
-3.0550841124
10
11.0876118997
20
-3.1008075829
10
11.0389792651
20
-3.1409062000
10
10.9849740520
20
-3.1766014752
0
LINE
5
2E7
100
AcDbEntity
8
0
100
AcDbLine
62
7
6
CONTINUOUS
10
-1.8793154840
20
11.7117437147
11
-1.8925479267
21
11.7080494455
0
LINE
5
2E8
100
AcDbEntity
8
0
100
AcDbLine
62
7
6
CONTINUOUS
10
0.0944462908
20
11.8272587953
11
-0.5329838369
21
11.8481400280
0
LINE
5
2E9
100
AcDbEntity
8
0
100
AcDbLine
62
7
6
CONTINUOUS
10
9.0436314460
20
11.0948122887
11
9.0433915726
21
11.0948508621
0
LINE
5
2EA
100
AcDbEntity
8
0
100
AcDbLine
62
7
6
CONTINUOUS
10
9.1084545769
20
10.3399107254
11
9.2668322689
21
10.3126807586
0
LWPOLYLINE
5
2EB
100
AcDbEntity
8
0
100
AcDbPolyline
62
7
6
CONTINUOUS
90
6
70
0
10
9.0433915883
20
11.0948509628
10
9.0417254901
20
11.0951492268
10
9.0320055801
20
11.0976239657
10
9.0202442638
20
11.1019839025
10
9.0068824526
20
11.1084298520
10
8.9921742915
20
11.1171454467
0
LWPOLYLINE
5
2EC
100
AcDbEntity
8
0
100
AcDbPolyline
62
7
6
CONTINUOUS
90
16
70
0
10
9.0436314460
20
11.0948122887
10
9.1184785517
20
11.0789916895
10
9.1940271835
20
11.0557287832
10
9.2699193460
20
11.0251031917
10
9.3460460493
20
10.9870797824
10
9.4218117334
20
10.9418588223
10
9.4961291406
20
10.8901144827
10
9.5684653199
20
10.8323620029
10
9.6386837293
20
10.7688366579
10
9.7062987797
20
10.7000819963
10
9.7709345845
20
10.6266063252
10
9.8323477564
20
10.5487994631
10
9.8902481027
20
10.4671170845
10
9.9443376726
20
10.3820573061
10
9.9943605919
20
10.2940884594
10
10.0400907190
20
10.2036483875
0
LWPOLYLINE
5
2ED
100
AcDbEntity
8
0
100
AcDbPolyline
62
7
6
CONTINUOUS
90
3
70
0
10
-1.1500547122
20
12.3904939353
10
-1.1224116750
20
12.3820530649
10
-1.0969757898
20
12.3710073724
0
LWPOLYLINE
5
2EE
100
AcDbEntity
8
0
100
AcDbPolyline
62
7
6
CONTINUOUS
90
9
70
0
10
9.9970983967
20
10.1933383521
10
9.9818195037
20
10.2001554199
10
9.9659958306
20
10.2047181597
10
9.9498567776
20
10.2071518054
10
9.9335549696
20
10.2076030664
10
9.9173529914
20
10.2062523398
10
9.9012862087
20
10.2033191959
10
9.8850448944
20
10.1989096400
10
9.8682766866
20
10.1929988846
0
LINE
5
2EF
100
AcDbEntity
8
0
100
AcDbLine
62
7
6
CONTINUOUS
10
5.7733847100
20
9.8298334002
11
5.6011027966
21
9.9625944553
0
LINE
5
2F0
100
AcDbEntity
8
0
100
AcDbLine
62
7
6
CONTINUOUS
10
6.0600247670
20
9.8064665016
11
6.2947015767
21
9.6256237175
0
LINE
5
2F1
100
AcDbEntity
8
0
100
AcDbLine
62
7
6
CONTINUOUS
10
6.1092604311
20
10.3743955396
11
5.8745836214
21
10.5552383237
0
LINE
5
2F2
100
AcDbEntity
8
0
100
AcDbLine
62
3
6
CONTINUOUS
10
6.0320384922
20
11.1914198309
11
6.1056285647
21
11.1304747848
0
LWPOLYLINE
5
2F3
100
AcDbEntity
8
0
100
AcDbPolyline
62
7
6
CONTINUOUS
90
34
70
0
10
6.7418922053
20
10.6671081661
10
6.6984298826
20
10.7034590153
10
6.6493667850
20
10.7414533875
10
6.5987450903
20
10.7775883419
10
6.5466904566
20
10.8117762025
10
6.4933366785
20
10.8439297124
10
6.4388260797
20
10.8739632434
10
6.3832950594
20
10.9018010972
10
6.3268829107
20
10.9273716489
10
6.2697398513
20
10.9506044884
10
6.2120005525
20
10.9714414623
10
6.1538161150
20
10.9898234318
10
6.0953628160
20
11.0056915223
10
6.0367901562
20
11.0190031349
10
5.9782386980
20
11.0297230571
10
5.9198698036
20
11.0378180295
10
5.8618177527
20
11.0432648943
10
5.8042352754
20
11.0460434686
10
5.7473067124
20
11.0461412777
10
5.6911588488
20
11.0435552996
10
5.6359421122
20
11.0382883479
10
5.5818668880
20
11.0303617611
10
5.5290609634
20
11.0198001599
10
5.4776523884
20
11.0066340845
10
5.4278375339
20
10.9909245400
10
5.3797569158
20
10.9727352497
10
5.3334930895
20
10.9521168101
10
5.2891462313
20
10.9291300218
10
5.2468147257
20
10.9038409913
10
5.2066046854
20
10.8763289265
10
5.1686233145
20
10.8466865921
10
5.1329632905
20
10.8150100153
10
5.0997023538
20
10.7813944956
10
5.0689154799
20
10.7459443419
0
LINE
5
2F4
100
AcDbEntity
8
0
100
AcDbLine
62
7
6
CONTINUOUS
10
6.5074938575
20
10.0405103654
11
6.3633520958
21
10.2145048634
0
LINE
5
2F5
100
AcDbEntity
8
0
100
AcDbLine
62
7
6
CONTINUOUS
10
8.8174930236
20
10.2018265549
11
7.1870441140
21
12.1699524901
0
LINE
5
2F6
100
AcDbEntity
8
0
100
AcDbLine
62
7
6
CONTINUOUS
10
10.0400907190
20
10.2036483875
11
10.0812844577
21
10.1112325948
0
LWPOLYLINE
5
2F7
100
AcDbEntity
8
0
100
AcDbPolyline
62
7
6
CONTINUOUS
90
5
70
0
10
4.0325712955
20
14.6839055535
10
4.0044000886
20
14.6890246078
10
3.9756830161
20
14.6908897080
10
3.9469084375
20
14.6894387090
10
3.9185502550
20
14.6846999959
0
LWPOLYLINE
5
2F8
100
AcDbEntity
8
0
100
AcDbPolyline
62
7
6
CONTINUOUS
90
3
70
0
10
4.0856688957
20
14.6645031349
10
4.0597930890
20
14.6756647680
10
4.0325712955
20
14.6839055535
0
LINE
5
2F9
100
AcDbEntity
8
0
100
AcDbLine
62
9
6
CONTINUOUS
10
7.2468054232
20
12.6415787561
11
6.9687430638
21
12.7806099358
0
LINE
5
2FA
100
AcDbEntity
8
0
100
AcDbLine
62
7
6
CONTINUOUS
10
7.2941018599
20
12.6419105147
11
7.0122303491
21
12.7828462702
0
LINE
5
2FB
100
AcDbEntity
8
0
100
AcDbLine
62
9
6
CONTINUOUS
10
3.9769506756
20
14.6589123025
11
7.1872152443
21
13.0537800181
0
LINE
5
2FC
100
AcDbEntity
8
0
100
AcDbLine
62
7
6
CONTINUOUS
10
4.0856688957
20
14.6645031349
11
7.2809344744
21
13.0668701674
0
LWPOLYLINE
5
2FD
100
AcDbEntity
8
0
100
AcDbPolyline
62
7
6
CONTINUOUS
90
6
70
0
10
7.0122371001
20
12.7828485122
10
7.0073989188
20
12.7853678707
10
6.9995555365
20
12.7899748965
10
6.9937538619
20
12.7939820643
10
6.9898354434
20
12.7971716949
10
6.9878388386
20
12.7990859039
0
LWPOLYLINE
5
2FE
100
AcDbEntity
8
0
100
AcDbPolyline
62
7
6
CONTINUOUS
90
4
70
0
10
8.9921742915
20
11.1171454467
10
8.9763633020
20
11.1282819036
10
8.9598559896
20
11.1418205882
10
8.9429290317
20
11.1577722352
0
LWPOLYLINE
5
2FF
100
AcDbEntity
8
0
100
AcDbPolyline
62
7
6
CONTINUOUS
90
10
70
0
10
8.9429290317
20
11.1577722352
10
8.9258250786
20
11.1761518986
10
8.9089479381
20
11.1967531389
10
8.8927251637
20
11.2192215010
10
8.8774399673
20
11.2432805230
10
8.8633396829
20
11.2686337388
10
8.8507093662
20
11.2948101328
10
8.8397148445
20
11.3214445461
10
8.8304849994
20
11.3481556655
10
8.8231438964
20
11.3744052125
0
LWPOLYLINE
5
300
100
AcDbEntity
8
0
100
AcDbPolyline
62
7
6
CONTINUOUS
90
4
70
0
10
10.0310230780
20
10.1656703194
10
10.0239834623
20
10.1734045802
10
10.0112745049
20
10.1843669003
10
9.9970983967
20
10.1933383521
0
LINE
5
301
100
AcDbEntity
8
0
100
AcDbLine
62
9
6
CONTINUOUS
10
9.4151701217
20
10.1150019137
11
9.2928926149
21
10.2626039214
0
LINE
5
302
100
AcDbEntity
8
0
100
AcDbLine
62
7
6
CONTINUOUS
10
9.4555937112
20
10.1208664752
11
9.3197455945
21
10.2848496581
0
LINE
5
303
100
AcDbEntity
8
0
100
AcDbLine
62
9
6
CONTINUOUS
10
9.9287818654
20
10.1524404817
11
10.7200679765
21
9.1972736512
0
LINE
5
304
100
AcDbEntity
8
0
100
AcDbLine
62
7
6
CONTINUOUS
10
10.0310371200
20
10.1656578468
11
10.8211269502
21
9.2119350550
0
SPLINE
5
305
100
AcDbEntity
8
0
100
AcDbSpline
62
7
6
CONTINUOUS
70
0
71
3
72
18
73
14
74
12
42
0.0000001000
43
0.0000001000
44
0.0000000001
12
2.2699259058
22
-0.4226164017
32
0.0000000000
13
0.6248930448
23
-2.2232995975
33
0.0000000000
40
0.0000000000
40
0.0000000000
40
0.0000000000
40
0.0000000000
40
0.0165874041
40
0.1166352144
40
0.2186487683
40
0.3218304987
40
0.4253239744
40
0.5282573350
40
0.6297865248
40
0.7291388844
40
0.8256575517
40
0.9188467481
40
1.0000000000
40
1.0000000000
40
1.0000000000
40
1.0000000000
10
5.8199212645
20
11.2051065656
30
0.0000000000
10
5.8324719906
20
11.2027698626
30
0.0000000000
10
5.9205676081
20
11.1855072786
30
0.0000000000
10
6.0834720847
20
11.1423892391
30
0.0000000000
10
6.3032683186
20
11.0586168582
30
0.0000000000
10
6.5157276404
20
10.9516756610
30
0.0000000000
10
6.7169510278
20
10.8235355761
30
0.0000000000
10
6.9032414097
20
10.6765496357
30
0.0000000000
10
7.0711724987
20
10.5134100166
30
0.0000000000
10
7.2176505988
20
10.3370963212
30
0.0000000000
10
7.3399674156
20
10.1508182328
30
0.0000000000
10
7.4329521511
20
9.9637681700
30
0.0000000000
10
7.4775586442
20
9.8369226679
30
0.0000000000
10
7.4944626784
20
9.7767800038
30
0.0000000000
11
5.8199212645
21
11.2051065656
31
0.0000000000
11
5.8575050206
21
11.1977437718
31
0.0000000000
11
6.0807699908
21
11.1389505070
31
0.0000000000
11
6.3008140851
21
11.0552862752
31
0.0000000000
11
6.5135382982
21
10.9483095828
31
0.0000000000
11
6.7149799806
21
10.8200132032
31
0.0000000000
11
6.9013866548
21
10.6727870551
31
0.0000000000
11
7.0692859173
21
10.5093736832
31
0.0000000000
11
7.2155501224
21
10.3328171694
31
0.0000000000
11
7.3374546448
21
10.1464064274
31
0.0000000000
11
7.4327286338
21
9.9536139367
31
0.0000000000
11
7.4944626784
21
9.7767800038
31
0.0000000000
0
SPLINE
5
306
100
AcDbEntity
8
0
100
AcDbSpline
62
7
6
CONTINUOUS
70
0
71
3
72
10
73
6
74
4
42
0.0000001000
43
0.0000001000
44
0.0000000001
12
0.1186898382
22
0.2213694852
32
0.0000000000
13
0.1186715361
23
0.2213792971
33
0.0000000000
40
0.0000000000
40
0.0000000000
40
0.0000000000
40
0.0000000000
40
0.3348700594
40
0.6682037234
40
1.0000000000
40
1.0000000000
40
1.0000000000
40
1.0000000000
10
6.6207981986
20
10.4216318001
30
0.0000000000
10
6.6340467563
20
10.4463418043
30
0.0000000000
10
6.6604824350
20
10.4956487920
30
0.0000000000
10
6.7000427319
20
10.5694402194
30
0.0000000000
10
6.7263541002
20
10.6185218413
30
0.0000000000
10
6.7394790249
20
10.6430061168
30
0.0000000000
11
6.6207981986
21
10.4216318001
31
0.0000000000
11
6.6605428815
21
10.4957623437
31
0.0000000000
11
6.7001032074
21
10.5695538498
31
0.0000000000
11
6.7394790249
21
10.6430061168
31
0.0000000000
0
SPLINE
5
307
100
AcDbEntity
8
0
100
AcDbSpline
62
7
6
CONTINUOUS
70
0
71
3
72
10
73
6
74
4
42
0.0000001000
43
0.0000001000
44
0.0000000001
12
0.0121268539
22
0.0226223952
32
0.0000000000
13
-0.0196442882
23
0.0177725074
33
0.0000000000
40
0.0000000000
40
0.0000000000
40
0.0000000000
40
0.0000000000
40
0.4933091440
40
0.8385720965
40
1.0000000000
40
1.0000000000
40
1.0000000000
40
1.0000000000
10
6.7394790249
20
10.6430061168
30
0.0000000000
10
6.7414731208
20
10.6467260616
30
0.0000000000
10
6.7443656021
20
10.6531600928
30
0.0000000000
10
6.7455657547
20
10.6623825304
30
0.0000000000
10
6.7428502151
20
10.6660430382
30
0.0000000000
10
6.7417931696
20
10.6669993644
30
0.0000000000
11
6.7394790249
21
10.6430061168
31
0.0000000000
11
6.7442235554
21
10.6547457549
31
0.0000000000
11
6.7442431622
21
10.6636078561
31
0.0000000000
11
6.7417931696
21
10.6669993644
31
0.0000000000
0
SPLINE
5
308
100
AcDbEntity
8
0
100
AcDbSpline
62
7
6
CONTINUOUS
70
0
71
3
72
11
73
7
74
5
42
0.0000001000
43
0.0000001000
44
0.0000000001
12
0.0421440410
22
0.0210720205
32
0.0000000000
13
0.0257869947
23
-0.0402245927
33
0.0000000000
40
0.0000000000
40
0.0000000000
40
0.0000000000
40
0.0000000000
40
0.3845427319
40
0.6829836366
40
0.8839826666
40
1.0000000000
40
1.0000000000
40
1.0000000000
40
1.0000000000
10
7.0058123418
20
10.2896696076
30
0.0000000000
10
7.0112144033
20
10.2923706383
30
0.0000000000
10
7.0210973340
20
10.2967810010
30
0.0000000000
10
7.0344115242
20
10.3002789523
30
0.0000000000
10
7.0446461702
20
10.3004895104
30
0.0000000000
10
7.0487216647
20
10.2969146769
30
0.0000000000
10
7.0497189108
20
10.2953590936
30
0.0000000000
11
7.0058123418
21
10.2896696076
31
0.0000000000
11
7.0224712842
21
10.2967956277
31
0.0000000000
11
7.0361587352
21
10.3000198713
31
0.0000000000
11
7.0455784576
21
10.2990379065
31
0.0000000000
11
7.0497189108
21
10.2953590936
31
0.0000000000
0
SPLINE
5
309
100
AcDbEntity
8
0
100
AcDbSpline
62
7
6
CONTINUOUS
70
0
71
3
72
9
73
5
74
3
42
0.0000001000
43
0.0000001000
44
0.0000000001
12
0.0473574189
22
0.0772314764
32
0.0000000000
13
0.0571428850
23
0.0703035368
33
0.0000000000
40
0.0000000000
40
0.0000000000
40
0.0000000000
40
0.0000000000
40
0.2885479130
40
1.0000000000
40
1.0000000000
40
1.0000000000
40
1.0000000000
10
4.8431023031
20
10.4586226029
30
0.0000000000
10
4.8476572646
20
10.4660509300
30
0.0000000000
10
4.8639359812
20
10.4914916299
30
0.0000000000
10
4.8818942247
20
10.5158095924
30
0.0000000000
10
4.8954456996
20
10.5324821251
30
0.0000000000
11
4.8431023031
21
10.4586226029
31
0.0000000000
11
4.8571914813
21
10.4806391727
31
0.0000000000
11
4.8954456996
21
10.5324821251
31
0.0000000000
0
SPLINE
5
30A
100
AcDbEntity
8
0
100
AcDbSpline
62
7
6
CONTINUOUS
70
0
71
3
72
9
73
5
74
3
42
0.0000001000
43
0.0000001000
44
0.0000000001
12
-0.0416574873
22
0.0559166246
32
0.0000000000
13
-0.0471289152
23
0.0513894981
33
0.0000000000
40
0.0000000000
40
0.0000000000
40
0.0000000000
40
0.0000000000
40
0.4970449821
40
1.0000000000
40
1.0000000000
40
1.0000000000
40
1.0000000000
10
6.1750049478
20
9.7210314250
30
0.0000000000
10
6.1681030661
20
9.7302957842
30
0.0000000000
10
6.1537254812
20
9.7485728501
30
0.0000000000
10
6.1384373939
20
9.7660944741
30
0.0000000000
10
6.1305361524
20
9.7747100094
30
0.0000000000
11
6.1750049478
21
9.7210314250
31
0.0000000000
11
6.1535855102
21
9.7482781972
31
0.0000000000
11
6.1305361524
21
9.7747100094
31
0.0000000000
0
SPLINE
5
30B
100
AcDbEntity
8
0
100
AcDbSpline
62
9
6
CONTINUOUS
70
0
71
3
72
9
73
5
74
3
42
0.0000001000
43
0.0000001000
44
0.0000000001
12
-0.0502589162
22
-0.1117031156
32
0.0000000000
13
-0.0698700656
23
-0.1006219844
33
0.0000000000
40
0.0000000000
40
0.0000000000
40
0.0000000000
40
0.0000000000
40
0.2937089610
40
1.0000000000
40
1.0000000000
40
1.0000000000
40
1.0000000000
10
7.1262899680
20
9.4769390982
30
0.0000000000
10
7.1213694699
20
9.4660030295
30
0.0000000000
10
7.1036197771
20
9.4292183122
30
0.0000000000
10
7.0825032697
20
9.3941668021
30
0.0000000000
10
7.0660537360
20
9.3704773335
30
0.0000000000
11
7.1262899680
21
9.4769390982
31
0.0000000000
11
7.1106525442
21
9.4445445424
31
0.0000000000
11
7.0660537360
21
9.3704773335
31
0.0000000000
0
SPLINE
5
30C
100
AcDbEntity
8
0
100
AcDbSpline
62
7
6
CONTINUOUS
70
0
71
3
72
10
73
6
74
4
42
0.0000001000
43
0.0000001000
44
0.0000000001
12
-0.0370782808
22
0.0592495616
32
0.0000000000
13
-0.0515297112
23
0.0472228580
33
0.0000000000
40
0.0000000000
40
0.0000000000
40
0.0000000000
40
0.0000000000
40
0.3378882036
40
0.6695396111
40
1.0000000000
40
1.0000000000
40
1.0000000000
40
1.0000000000
10
6.1750049478
20
9.7210314250
30
0.0000000000
10
6.1708288432
20
9.7277046676
30
0.0000000000
10
6.1619817133
20
9.7405815780
30
0.0000000000
10
6.1471094108
20
9.7585526447
30
0.0000000000
10
6.1362123286
20
9.7695082481
30
0.0000000000
10
6.1305361524
20
9.7747100094
30
0.0000000000
11
6.1750049478
21
9.7210314250
31
0.0000000000
11
6.1616164893
21
9.7404864328
31
0.0000000000
11
6.1468282636
21
9.7583373864
31
0.0000000000
11
6.1305361524
21
9.7747100094
31
0.0000000000
0
SPLINE
5
30D
100
AcDbEntity
8
0
100
AcDbSpline
62
9
6
CONTINUOUS
70
0
71
3
72
25
73
21
74
19
42
0.0000001000
43
0.0000001000
44
0.0000000001
12
-1.2384065834
22
2.2600904646
32
0.0000000000
13
1.9649038925
23
-1.6675768251
33
0.0000000000
40
0.0000000000
40
0.0000000000
40
0.0000000000
40
0.0000000000
40
0.0585396456
40
0.1145094875
40
0.1679435570
40
0.2191379807
40
0.2686398401
40
0.3172165743
40
0.3657547451
40
0.4151534515
40
0.4662126434
40
0.5195113716
40
0.5752895114
40
0.6335097961
40
0.6942084682
40
0.7574628645
40
0.8223103996
40
0.8862214170
40
0.9463639055
40
1.0000000000
40
1.0000000000
40
1.0000000000
40
1.0000000000
10
5.1634748740
20
9.8911934425
30
0.0000000000
10
5.1393095798
20
9.9352950741
30
0.0000000000
10
5.0976496917
20
10.0248236095
30
0.0000000000
10
5.0563793141
20
10.1636346011
30
0.0000000000
10
5.0386547269
20
10.3011168287
30
0.0000000000
10
5.0450832568
20
10.4341148255
30
0.0000000000
10
5.0757223383
20
10.5594938509
30
0.0000000000
10
5.1299989214
20
10.6741343592
30
0.0000000000
10
5.2066091199
20
10.7751155856
30
0.0000000000
10
5.3035721984
20
10.8599480135
30
0.0000000000
10
5.4184229802
20
10.9266994868
30
0.0000000000
10
5.5483223685
20
10.9739479076
30
0.0000000000
10
5.6900947561
20
11.0007661878
30
0.0000000000
10
5.8405426607
20
11.0067591431
30
0.0000000000
10
5.9967686264
20
10.9918647069
30
0.0000000000
10
6.1554160692
20
10.9562466822
30
0.0000000000
10
6.3112599376
20
10.9010847434
30
0.0000000000
10
6.4574872755
20
10.8299332493
30
0.0000000000
10
6.5869758274
20
10.7486544132
30
0.0000000000
10
6.6647797253
20
10.6892249327
30
0.0000000000
10
6.6999096489
20
10.6594108299
30
0.0000000000
11
5.1634748740
21
9.8911934425
31
0.0000000000
11
5.1002482744
21
10.0281702116
31
0.0000000000
11
5.0596324030
21
10.1665760226
31
0.0000000000
11
5.0425574926
21
10.3032204992
31
0.0000000000
11
5.0494105629
21
10.4349776839
31
0.0000000000
11
5.0800331070
21
10.5588211710
31
0.0000000000
11
5.1337233667
21
10.6719126148
31
0.0000000000
11
5.2092356136
21
10.7716389687
31
0.0000000000
11
5.3048281222
21
10.8557178855
31
0.0000000000
11
5.4183543673
21
10.9222526251
31
0.0000000000
11
5.5472551238
21
10.9697070178
31
0.0000000000
11
5.6884008643
21
10.9969360036
31
0.0000000000
11
5.8383049565
21
11.0033658821
31
0.0000000000
11
5.9940633969
21
10.9888963749
31
0.0000000000
11
6.1531822408
21
10.9534666945
31
0.0000000000
11
6.3107940972
21
10.8978966565
31
0.0000000000
11
6.4589109271
21
10.8258546637
31
0.0000000000
11
6.5902893409
21
10.7436148583
31
0.0000000000
11
6.6999096489
21
10.6594108299
31
0.0000000000
0
SPLINE
5
30E
100
AcDbEntity
8
0
100
AcDbSpline
62
7
6
CONTINUOUS
70
0
71
3
72
9
73
5
74
3
42
0.0000001000
43
0.0000001000
44
0.0000000001
12
-0.0398949259
22
-0.0199474630
32
0.0000000000
13
-0.0360399894
23
-0.0262937249
33
0.0000000000
40
0.0000000000
40
0.0000000000
40
0.0000000000
40
0.0000000000
40
0.4840421779
40
1.0000000000
40
1.0000000000
40
1.0000000000
40
1.0000000000
10
5.1634728563
20
9.8911924336
30
0.0000000000
10
5.1570359140
20
9.8879739625
30
0.0000000000
10
5.1441086756
20
9.8805777272
30
0.0000000000
10
5.1318052945
20
9.8722104325
30
0.0000000000
10
5.1256069231
20
9.8676882814
30
0.0000000000
11
5.1634728563
21
9.8911924336
31
0.0000000000
11
5.1446674245
21
9.8805862667
31
0.0000000000
11
5.1256069231
21
9.8676882814
31
0.0000000000
0
SPLINE
5
30F
100
AcDbEntity
8
0
100
AcDbSpline
62
9
6
CONTINUOUS
70
0
71
3
72
12
73
8
74
6
42
0.0000001000
43
0.0000001000
44
0.0000000001
12
-0.0696566910
22
0.5769237427
32
0.0000000000
13
0.3666707408
23
0.4513069514
33
0.0000000000
40
0.0000000000
40
0.0000000000
40
0.0000000000
40
0.0000000000
40
0.1018979642
40
0.3541281112
40
0.5977199822
40
0.8365080306
40
1.0000000000
40
1.0000000000
40
1.0000000000
40
1.0000000000
10
4.9227487688
20
10.1996307209
30
0.0000000000
10
4.9203828104
20
10.2192265059
30
0.0000000000
10
4.9144329631
20
10.2876001389
30
0.0000000000
10
4.9185620100
20
10.4038375058
30
0.0000000000
10
4.9510557489
20
10.5431784196
30
0.0000000000
10
5.0040412269
20
10.6573526271
30
0.0000000000
10
5.0489380764
20
10.7213451204
30
0.0000000000
10
5.0689206503
20
10.7459401411
30
0.0000000000
11
4.9227487688
21
10.1996307209
31
0.0000000000
11
4.9176539240
21
10.2586154175
31
0.0000000000
11
4.9234108923
21
10.4049030368
31
0.0000000000
11
4.9559185225
21
10.5425022061
31
0.0000000000
11
5.0144094289
21
10.6681541771
31
0.0000000000
11
5.0689206503
21
10.7459401411
31
0.0000000000
0
SPLINE
5
310
100
AcDbEntity
8
0
100
AcDbSpline
62
7
6
CONTINUOUS
70
0
71
3
72
11
73
7
74
5
42
0.0000001000
43
0.0000001000
44
0.0000000001
12
-0.0340541688
22
0.0308093610
32
0.0000000000
13
-0.0397985058
23
-0.0198992529
33
0.0000000000
40
0.0000000000
40
0.0000000000
40
0.0000000000
40
0.0000000000
40
0.0639195876
40
0.2767645471
40
0.5927941433
40
1.0000000000
40
1.0000000000
40
1.0000000000
40
1.0000000000
10
6.7417931696
20
10.6669993644
30
0.0000000000
10
6.7410675935
20
10.6676558050
30
0.0000000000
10
6.7375344432
20
10.6700699297
30
0.0000000000
10
6.7282253063
20
10.6698784122
30
0.0000000000
10
6.7149111162
20
10.6663804609
30
0.0000000000
10
6.7050281855
20
10.6619700982
30
0.0000000000
10
6.6996261239
20
10.6592690674
30
0.0000000000
11
6.7417931696
21
10.6669993644
31
0.0000000000
11
6.7393922397
21
10.6686373664
31
0.0000000000
11
6.7299725174
21
10.6696193312
31
0.0000000000
11
6.7162850664
21
10.6663950876
31
0.0000000000
11
6.6996261239
21
10.6592690674
31
0.0000000000
0
SPLINE
5
311
100
AcDbEntity
8
0
100
AcDbSpline
62
9
6
CONTINUOUS
70
0
71
3
72
15
73
11
74
9
42
0.0000001000
43
0.0000001000
44
0.0000000001
12
0.4915548593
22
-0.8970870030
32
0.0000000000
13
-0.7871743208
23
-0.6561346709
33
0.0000000000
40
0.0000000000
40
0.0000000000
40
0.0000000000
40
0.0000000000
40
0.1288561054
40
0.2676173021
40
0.4088349887
40
0.5471517357
40
0.6799347474
40
0.8091237399
40
0.9385588202
40
1.0000000000
40
1.0000000000
40
1.0000000000
40
1.0000000000
10
7.0061273236
20
10.2898270985
30
0.0000000000
10
7.0272406052
20
10.2512953860
30
0.0000000000
10
7.0660500276
20
10.1684265959
30
0.0000000000
10
7.1089581550
20
10.0353039055
30
0.0000000000
10
7.1303686998
20
9.8935446312
30
0.0000000000
10
7.1255439680
20
9.7521428039
30
0.0000000000
10
7.0931240110
20
9.6185174394
30
0.0000000000
10
7.0342319386
20
9.4975793881
30
0.0000000000
10
6.9657563752
20
9.4114957258
30
0.0000000000
10
6.9176809968
20
9.3673470804
30
0.0000000000
10
6.9015593572
20
9.3539091843
30
0.0000000000
11
7.0061273236
21
10.2898270985
31
0.0000000000
11
7.0621277648
21
10.1705034951
31
0.0000000000
11
7.1050026848
21
10.0351903046
31
0.0000000000
11
7.1260307471
21
9.8922728092
31
0.0000000000
11
7.1205894216
21
9.7508887573
31
0.0000000000
11
7.0881573634
21
9.6189894415
31
0.0000000000
11
7.0301724054
21
9.5002384361
31
0.0000000000
11
6.9478809354
21
9.3965139581
31
0.0000000000
11
6.9015593572
21
9.3539091843
31
0.0000000000
0
SPLINE
5
312
100
AcDbEntity
8
0
100
AcDbSpline
62
9
6
CONTINUOUS
70
0
71
3
72
10
73
6
74
4
42
0.0000001000
43
0.0000001000
44
0.0000000001
12
-0.2004981138
22
-0.1671215136
32
0.0000000000
13
-0.2463424433
23
-0.0858305668
33
0.0000000000
40
0.0000000000
40
0.0000000000
40
0.0000000000
40
0.0000000000
40
0.2790114440
40
0.8188313456
40
1.0000000000
40
1.0000000000
40
1.0000000000
40
1.0000000000
10
6.9015593572
20
9.3539091843
30
0.0000000000
10
6.8829122678
20
9.3383662461
30
0.0000000000
10
6.8256486516
20
9.2957869025
30
0.0000000000
10
6.7482984423
20
9.2551260250
30
0.0000000000
10
6.6896898904
20
9.2327941050
30
0.0000000000
10
6.6748133808
20
9.2276108355
30
0.0000000000
11
6.9015593572
21
9.3539091843
31
0.0000000000
11
6.8431827288
21
9.3104270171
31
0.0000000000
11
6.7189646692
21
9.2444581325
31
0.0000000000
11
6.6748133808
21
9.2276108355
31
0.0000000000
0
SPLINE
5
313
100
AcDbEntity
8
0
100
AcDbSpline
62
7
6
CONTINUOUS
70
0
71
3
72
12
73
8
74
6
42
0.0000001000
43
0.0000001000
44
0.0000000001
12
0.0000000000
22
-0.1638905768
32
0.0000000000
13
-0.1517226196
23
-0.0638234254
33
0.0000000000
40
0.0000000000
40
0.0000000000
40
0.0000000000
40
0.0000000000
40
0.2482335565
40
0.4739136343
40
0.6784619886
40
0.8674698727
40
1.0000000000
40
1.0000000000
40
1.0000000000
40
1.0000000000
10
2.2945502519
20
-10.8355630527
30
0.0000000000
10
2.2945502519
20
-10.8491240996
30
0.0000000000
10
2.2925845583
20
-10.8750882576
30
0.0000000000
10
2.2828366823
20
-10.9111161113
30
0.0000000000
10
2.2665754716
20
-10.9412034207
30
0.0000000000
10
2.2460851526
20
-10.9619922013
30
0.0000000000
10
2.2306014265
20
-10.9707089170
30
0.0000000000
10
2.2238988205
20
-10.9735284259
30
0.0000000000
11
2.2945502519
21
-10.8355630527
31
0.0000000000
11
2.2911621948
21
-10.8761048708
31
0.0000000000
11
2.2811252070
21
-10.9117038184
31
0.0000000000
11
2.2648184307
21
-10.9409940437
31
0.0000000000
11
2.2428625376
21
-10.9628455699
31
0.0000000000
11
2.2238988205
21
-10.9735284259
31
0.0000000000
0
SPLINE
5
314
100
AcDbEntity
8
0
100
AcDbSpline
62
7
6
CONTINUOUS
70
0
71
3
72
15
73
11
74
9
42
0.0000001000
43
0.0000001000
44
0.0000000001
12
0.3290469242
22
-0.1645234621
32
0.0000000000
13
0.0000000000
23
-0.3678856451
33
0.0000000000
40
0.0000000000
40
0.0000000000
40
0.0000000000
40
0.0000000000
40
0.1103275056
40
0.2299080401
40
0.3568161247
40
0.4884005161
40
0.6215968297
40
0.7532243285
40
0.8802350539
40
1.0000000000
40
1.0000000000
40
1.0000000000
40
1.0000000000
10
2.1179081189
20
8.4351216117
30
0.0000000000
10
2.1300090944
20
8.4290711240
30
0.0000000000
10
2.1539942313
20
8.4139248389
30
0.0000000000
10
2.1869270373
20
8.3848965626
30
0.0000000000
10
2.2172433715
20
8.3496387155
30
0.0000000000
10
2.2438071368
20
8.3094781009
30
0.0000000000
10
2.2656383765
20
8.2659167785
30
0.0000000000
10
2.2819236577
20
8.2205811299
30
0.0000000000
10
2.2920593059
20
8.1751741013
30
0.0000000000
10
2.2945502519
20
8.1448816999
30
0.0000000000
10
2.2945502519
20
8.1301950985
30
0.0000000000
11
2.1179081189
21
8.4351216117
31
0.0000000000
11
2.1523920714
21
8.4137151851
31
0.0000000000
11
2.1855482054
21
8.3848021517
31
0.0000000000
11
2.2160977989
21
8.3494969088
31
0.0000000000
11
2.2428643412
21
8.3091622151
31
0.0000000000
11
2.2648196374
21
8.2653550909
31
0.0000000000
11
2.2811256946
21
8.2197592203
31
0.0000000000
11
2.2911622732
21
8.1741244505
31
0.0000000000
11
2.2945502519
21
8.1301950985
31
0.0000000000
0
SPLINE
5
315
100
AcDbEntity
8
0
100
AcDbSpline
62
7
6
CONTINUOUS
70
0
71
3
72
11
73
7
74
5
42
0.0000001000
43
0.0000001000
44
0.0000000001
12
0.1056563264
22
0.0615164389
32
0.0000000000
13
0.1088739198
23
-0.0544369599
33
0.0000000000
40
0.0000000000
40
0.0000000000
40
0.0000000000
40
0.0000000000
40
0.1684303695
40
0.4224200194
40
0.6970212950
40
1.0000000000
40
1.0000000000
40
1.0000000000
40
1.0000000000
10
-5.5300094475
20
12.2048077901
30
0.0000000000
10
-5.5240775361
20
12.2082615356
30
0.0000000000
10
-5.5082549533
20
12.2153156018
30
0.0000000000
10
-5.4798254129
20
12.2194670022
30
0.0000000000
10
-5.4460513139
20
12.2147181970
30
0.0000000000
10
-5.4240437184
20
12.2060975304
30
0.0000000000
10
-5.4130482254
20
12.2005997839
30
0.0000000000
11
-5.5300094475
21
12.2048077901
31
0.0000000000
11
-5.5112360977
21
12.2131653389
31
0.0000000000
11
-5.4806871327
21
12.2179204198
31
0.0000000000
11
-5.4475317827
21
12.2136772085
31
0.0000000000
11
-5.4130482254
21
12.2005997839
31
0.0000000000
0
SPLINE
5
316
100
AcDbEntity
8
0
100
AcDbSpline
62
7
6
CONTINUOUS
70
0
71
3
72
34
73
30
74
28
42
0.0000001000
43
0.0000001000
44
0.0000000001
12
0.4052572243
22
3.2145410849
32
0.0000000000
13
-0.3697646621
23
3.2188168477
33
0.0000000000
40
0.0000000000
40
0.0000000000
40
0.0000000000
40
0.0000000000
40
0.0618802638
40
0.1183118377
40
0.1698207637
40
0.2168943439
40
0.2596500912
40
0.2978967438
40
0.3317606117
40
0.3623250998
40
0.3908798928
40
0.4187653364
40
0.4469086949
40
0.4750825793
40
0.5030854772
40
0.5309291575
40
0.5587295179
40
0.5866044422
40
0.6143993577
40
0.6417873609
40
0.6694341802
40
0.6985887402
40
0.7304410085
40
0.7660287950
40
0.8055096482
40
0.8485697486
40
0.8951365853
40
0.9455072093
40
1.0000000000
40
1.0000000000
40
1.0000000000
40
1.0000000000
10
-4.3628322326
20
0.7006619375
30
0.0000000000
10
-4.3544730912
20
0.7669674876
30
0.0000000000
10
-4.3392842407
20
0.8938418495
30
0.0000000000
10
-4.3197016001
20
1.0762029952
30
0.0000000000
10
-4.3037065332
20
1.2428549784
30
0.0000000000
10
-4.2907139460
20
1.3949482513
30
0.0000000000
10
-4.2802745354
20
1.5328771915
30
0.0000000000
10
-4.2720059471
20
1.6566578111
30
0.0000000000
10
-4.2654967291
20
1.7673561671
30
0.0000000000
10
-4.2603236282
20
1.8676449823
30
0.0000000000
10
-4.2561092876
20
1.9615157726
30
0.0000000000
10
-4.2525991305
20
2.0527988084
30
0.0000000000
10
-4.2496904662
20
2.1436914247
30
0.0000000000
10
-4.2473731535
20
2.2347279451
30
0.0000000000
10
-4.2456618676
20
2.3254541677
30
0.0000000000
10
-4.2445558245
20
2.4157863554
30
0.0000000000
10
-4.2440520849
20
2.5059857068
30
0.0000000000
10
-4.2441554032
20
2.5961337576
30
0.0000000000
10
-4.2448681928
20
2.6858337002
30
0.0000000000
10
-4.2461883184
20
2.7752803703
30
0.0000000000
10
-4.2481541711
20
2.8661839754
30
0.0000000000
10
-4.2509096940
20
2.9618907037
30
0.0000000000
10
-4.2547231979
20
3.0661438623
30
0.0000000000
10
-4.2599492849
20
3.1815012626
30
0.0000000000
10
-4.2669763857
20
3.3088883861
30
0.0000000000
10
-4.2761863502
20
3.4480227830
30
0.0000000000
10
-4.2880057114
20
3.5987609907
30
0.0000000000
10
-4.3029750186
20
3.7616234938
30
0.0000000000
10
-4.3150120415
20
3.8742395447
30
0.0000000000
10
-4.3217285443
20
3.9327069823
30
0.0000000000
11
-4.3628322326
21
0.7006619375
31
0.0000000000
11
-4.3390076277
21
0.8997325259
31
0.0000000000
11
-4.3194917880
21
1.0815254909
31
0.0000000000
11
-4.3035518927
21
1.2476507053
31
0.0000000000
11
-4.2905739697
21
1.3996152786
31
0.0000000000
11
-4.2801219613
21
1.5377484241
31
0.0000000000
11
-4.2718646707
21
1.6613916168
31
0.0000000000
11
-4.2654257077
21
1.7709209646
31
0.0000000000
11
-4.2603255405
21
1.8698180496
31
0.0000000000
11
-4.2561771085
21
1.9622421188
31
0.0000000000
11
-4.2527063682
21
2.0525238705
31
0.0000000000
11
-4.2497908310
21
2.1436613286
31
0.0000000000
11
-4.2474689856
21
2.2349147797
31
0.0000000000
11
-4.2457589466
21
2.3256276539
31
0.0000000000
11
-4.2446554460
21
2.4158340325
31
0.0000000000
11
-4.2441534429
21
2.5059054058
31
0.0000000000
11
-4.2442580069
21
2.5962197032
31
0.0000000000
11
-4.2449746681
21
2.6862719825
31
0.0000000000
11
-4.2462852234
21
2.7749990449
31
0.0000000000
11
-4.2482230040
21
2.8645533835
31
0.0000000000
11
-4.2509428449
21
2.9589745782
31
0.0000000000
11
-4.2547171139
21
3.0621064346
31
0.0000000000
11
-4.2599379804
21
3.1772920977
31
0.0000000000
11
-4.2669872229
21
3.3050151189
31
0.0000000000
11
-4.2762069973
21
3.4442242542
31
0.0000000000
11
-4.2880073114
21
3.5946379713
31
0.0000000000
11
-4.3029530781
21
3.7571522731
31
0.0000000000
11
-4.3217285443
21
3.9327069823
31
0.0000000000
0
SPLINE
5
317
100
AcDbEntity
8
0
100
AcDbSpline
62
7
6
CONTINUOUS
70
0
71
3
72
10
73
6
74
4
42
0.0000001000
43
0.0000001000
44
0.0000000001
12
-0.4241679811
22
0.2120839905
32
0.0000000000
13
-0.4316784997
23
0.1963460418
33
0.0000000000
40
0.0000000000
40
0.0000000000
40
0.0000000000
40
0.0000000000
40
0.3319102542
40
0.6653717829
40
1.0000000000
40
1.0000000000
40
1.0000000000
40
1.0000000000
10
-4.7297730467
20
4.1466135791
30
0.0000000000
10
-4.7767016142
20
4.1700778629
30
0.0000000000
10
-4.8710785957
20
4.2165177281
30
0.0000000000
10
-5.0137728254
20
4.2845483054
30
0.0000000000
10
-5.1096492122
20
4.3288416421
30
0.0000000000
10
-5.1577998144
20
4.3507426174
30
0.0000000000
11
-4.7297730467
21
4.1466135791
31
0.0000000000
11
-4.8709998335
21
4.2161172639
31
0.0000000000
11
-5.0137418300
21
4.2841806459
31
0.0000000000
11
-5.1577998144
21
4.3507426174
31
0.0000000000
0
SPLINE
5
318
100
AcDbEntity
8
0
100
AcDbSpline
62
7
6
CONTINUOUS
70
0
71
3
72
10
73
6
74
4
42
0.0000001000
43
0.0000001000
44
0.0000000001
12
-0.4037589222
22
0.2219435467
32
0.0000000000
13
-0.4120972751
23
0.2060486376
33
0.0000000000
40
0.0000000000
40
0.0000000000
40
0.0000000000
40
0.0000000000
40
0.3284830246
40
0.6618624627
40
1.0000000000
40
1.0000000000
40
1.0000000000
40
1.0000000000
10
-4.3217285443
20
3.9327069823
30
0.0000000000
10
-4.3659378616
20
3.9570085449
30
0.0000000000
10
-4.4553442518
20
4.0053784395
30
0.0000000000
10
-4.5913705167
20
4.0766857848
30
0.0000000000
10
-4.6833245275
20
4.1233893195
30
0.0000000000
10
-4.7297730467
20
4.1466135791
30
0.0000000000
11
-4.3217285443
21
3.9327069823
31
0.0000000000
11
-4.4548366009
21
4.0047313698
31
0.0000000000
11
-4.5908736528
21
4.0760555255
31
0.0000000000
11
-4.7297730467
21
4.1466135791
31
0.0000000000
0
SPLINE
5
319
100
AcDbEntity
8
0
100
AcDbSpline
62
7
6
CONTINUOUS
70
0
71
3
72
10
73
6
74
4
42
0.0000001000
43
0.0000001000
44
0.0000000001
12
0.0468160903
22
-0.0598533635
32
0.0000000000
13
0.0732101610
23
-0.0126701674
33
0.0000000000
40
0.0000000000
40
0.0000000000
40
0.0000000000
40
0.0000000000
40
0.2629708453
40
0.6031248284
40
1.0000000000
40
1.0000000000
40
1.0000000000
40
1.0000000000
10
-1.4865396260
20
-4.3470582366
30
0.0000000000
10
-1.4824358704
20
-4.3523047998
30
0.0000000000
10
-1.4696421313
20
-4.3605920759
30
0.0000000000
10
-1.4464963614
20
-4.3695345012
30
0.0000000000
10
-1.4285931285
20
-4.3734600637
30
0.0000000000
10
-1.4189080301
20
-4.3751362220
30
0.0000000000
11
-1.4865396260
21
-4.3470582366
31
0.0000000000
11
-1.4710576972
21
-4.3589813862
31
0.0000000000
11
-1.4476294173
21
-4.3684595718
31
0.0000000000
11
-1.4189080301
21
-4.3751362220
31
0.0000000000
0
SPLINE
5
31A
100
AcDbEntity
8
0
100
AcDbSpline
62
7
6
CONTINUOUS
70
0
71
3
72
10
73
6
74
4
42
0.0000001000
43
0.0000001000
44
0.0000000001
12
-0.0794803873
22
0.0956970786
32
0.0000000000
13
-0.0243838331
23
0.1216428219
33
0.0000000000
40
0.0000000000
40
0.0000000000
40
0.0000000000
40
0.0000000000
40
0.3175215966
40
0.6557995518
40
1.0000000000
40
1.0000000000
40
1.0000000000
40
1.0000000000
10
-2.2827472510
20
-3.3902506112
30
0.0000000000
10
-2.2911594975
20
-3.3801219814
30
0.0000000000
10
-2.3059022193
20
-3.3571440827
30
0.0000000000
10
-2.3219512651
20
-3.3188621437
30
0.0000000000
10
-2.3291783707
20
-3.2914866040
30
0.0000000000
10
-2.3319760128
20
-3.2775300994
30
0.0000000000
11
-2.2827472510
21
-3.3902506112
31
0.0000000000
11
-2.3044468550
21
-3.3573726324
31
0.0000000000
11
-2.3209408063
21
-3.3187820280
31
0.0000000000
11
-2.3319760128
21
-3.2775300994
31
0.0000000000
0
SPLINE
5
31B
100
AcDbEntity
8
0
100
AcDbSpline
62
9
6
CONTINUOUS
70
0
71
3
72
13
73
9
74
7
42
0.0000001000
43
0.0000001000
44
0.0000000001
12
-0.2365730508
22
-0.0993729756
32
0.0000000000
13
-0.0090773393
23
0.2564359541
33
0.0000000000
40
0.0000000000
40
0.0000000000
40
0.0000000000
40
0.0000000000
40
0.1752281213
40
0.3326532818
40
0.4818127304
40
0.6364061806
40
0.8076693469
40
1.0000000000
40
1.0000000000
40
1.0000000000
40
1.0000000000
10
-0.6169941923
20
-12.0577111475
30
0.0000000000
10
-0.6308122760
20
-12.0635154607
30
0.0000000000
10
-0.6585638674
20
-12.0715342448
30
0.0000000000
10
-0.7006207797
20
-12.0698737387
30
0.0000000000
10
-0.7374170328
20
-12.0528337089
30
0.0000000000
10
-0.7652318910
20
-12.0219045188
30
0.0000000000
10
-0.7825237312
20
-11.9804073723
30
0.0000000000
10
-0.7867023326
20
-11.9492664873
30
0.0000000000
10
-0.7872842828
20
-11.9328263224
30
0.0000000000
11
-0.6169941923
21
-12.0577111475
31
0.0000000000
11
-0.6604057326
21
-12.0694202714
31
0.0000000000
11
-0.7007359112
21
-12.0671370831
31
0.0000000000
11
-0.7354283253
21
-12.0509716781
31
0.0000000000
11
-0.7624086000
21
-12.0218920159
31
0.0000000000
11
-0.7800558671
21
-11.9816454701
31
0.0000000000
11
-0.7872842828
21
-11.9328263224
31
0.0000000000
0
SPLINE
5
31C
100
AcDbEntity
8
0
100
AcDbSpline
62
9
6
CONTINUOUS
70
0
71
3
72
9
73
5
74
3
42
0.0000001000
43
0.0000001000
44
0.0000000001
12
0.0401314550
22
0.0180762086
32
0.0000000000
13
0.0382414875
23
-0.0205044873
33
0.0000000000
40
0.0000000000
40
0.0000000000
40
0.0000000000
40
0.0000000000
40
0.3741238995
40
1.0000000000
40
1.0000000000
40
1.0000000000
40
1.0000000000
10
-1.9012886424
20
11.7043666045
30
0.0000000000
10
-1.8962839303
20
11.7066208517
30
0.0000000000
10
-1.8814180645
20
11.7097416271
30
0.0000000000
10
-1.8670833670
20
11.7046875777
30
0.0000000000
10
-1.8591052227
20
11.7004098215
30
0.0000000000
11
-1.9012886424
21
11.7043666045
31
0.0000000000
11
-1.8852349259
21
11.7078117455
31
0.0000000000
11
-1.8591052227
21
11.7004098215
31
0.0000000000
0
SPLINE
5
31D
100
AcDbEntity
8
0
100
AcDbSpline
62
9
6
CONTINUOUS
70
0
71
3
72
10
73
6
74
4
42
0.0000001000
43
0.0000001000
44
0.0000000001
12
-0.5515051552
22
15.5125704876
32
0.0000000000
13
0.3800998069
23
15.5180921685
33
0.0000000000
40
0.0000000000
40
0.0000000000
40
0.0000000000
40
0.0000000000
40
0.3865452255
40
0.7775327975
40
1.0000000000
40
1.0000000000
40
1.0000000000
40
1.0000000000
10
-1.1375693125
20
-11.9403202630
30
0.0000000000
10
-1.2086298741
20
-9.9415502442
30
0.0000000000
10
-1.3028370796
20
-5.9191450439
30
0.0000000000
10
-1.3021594757
20
-0.7446010273
30
0.0000000000
10
-1.2447300159
20
2.4291392847
30
0.0000000000
10
-1.2165434356
20
3.5798948022
30
0.0000000000
11
-1.1375693125
21
-11.9403202630
31
0.0000000000
11
-1.2788851742
21
-5.9418862548
31
0.0000000000
11
-1.2788851743
21
0.1271678903
31
0.0000000000
11
-1.2165434356
21
3.5798948022
31
0.0000000000
0
SPLINE
5
31E
100
AcDbEntity
8
0
100
AcDbSpline
62
9
6
CONTINUOUS
70
0
71
3
72
8
73
4
74
2
42
0.0000001000
43
0.0000001000
44
0.0000000001
12
0.0657069369
22
2.6825751670
32
0.0000000000
13
0.0921765468
23
2.6817311561
33
0.0000000000
40
0.0000000000
40
0.0000000000
40
0.0000000000
40
0.0000000000
40
1.0000000000
40
1.0000000000
40
1.0000000000
40
1.0000000000
10
-1.2165434356
20
3.5798948022
30
0.0000000000
10
-1.1946411233
20
4.4740865245
30
0.0000000000
10
-1.1682948282
20
5.3681634204
30
0.0000000000
10
-1.1375693125
20
6.2620738057
30
0.0000000000
11
-1.2165434356
21
3.5798948022
31
0.0000000000
11
-1.1375693125
21
6.2620738057
31
0.0000000000
0
SPLINE
5
31F
100
AcDbEntity
8
0
100
AcDbSpline
62
9
6
CONTINUOUS
70
0
71
3
72
10
73
6
74
4
42
0.0000001000
43
0.0000001000
44
0.0000000001
12
-0.6462059160
22
18.1759966929
32
0.0000000000
13
0.6247819480
23
18.1767457314
33
0.0000000000
40
0.0000000000
40
0.0000000000
40
0.0000000000
40
0.0000000000
40
0.3295723691
40
0.6629338273
40
1.0000000000
40
1.0000000000
40
1.0000000000
40
1.0000000000
10
-0.7872842828
20
-11.9328263224
30
0.0000000000
10
-0.8582748210
20
-9.9360575590
30
0.0000000000
10
-0.9523896940
20
-5.9176706259
30
0.0000000000
10
-0.9515957170
20
0.1453153425
30
0.0000000000
10
-0.8574819028
20
4.2091099803
30
0.0000000000
10
-0.7872842828
20
6.2513653522
30
0.0000000000
11
-0.7872842828
21
-11.9328263224
31
0.0000000000
11
-0.9284611552
21
-5.9403981460
31
0.0000000000
11
-0.9284611274
21
0.1226067922
31
0.0000000000
11
-0.7872842828
21
6.2513653522
31
0.0000000000
0
SPLINE
5
320
100
AcDbEntity
8
0
100
AcDbSpline
62
9
6
CONTINUOUS
70
0
71
3
72
12
73
8
74
6
42
0.0000001000
43
0.0000001000
44
0.0000000001
12
0.3230354713
22
-0.1612376551
32
0.0000000000
13
0.3185414658
23
0.1699436133
33
0.0000000000
40
0.0000000000
40
0.0000000000
40
0.0000000000
40
0.0000000000
40
0.1837925908
40
0.3893587145
40
0.6035613429
40
0.8116491845
40
1.0000000000
40
1.0000000000
40
1.0000000000
40
1.0000000000
10
-1.1375693088
20
-11.9403202609
30
0.0000000000
10
-1.1177788001
20
-11.9501983564
30
0.0000000000
10
-1.0729656891
20
-11.9654046002
30
0.0000000000
10
-1.0007431301
20
-11.9755861585
30
0.0000000000
10
-0.9248550464
20
-11.9739272724
30
0.0000000000
10
-0.8522904702
20
-11.9605737003
30
0.0000000000
10
-0.8072834644
20
-11.9434959951
30
0.0000000000
10
-0.7872842828
20
-11.9328263224
30
0.0000000000
11
-1.1375693088
21
-11.9403202609
31
0.0000000000
11
-1.0750755716
21
-11.9626294937
31
0.0000000000
11
-1.0016549907
21
-11.9734762998
31
0.0000000000
11
-0.9243370798
21
-11.9718221733
31
0.0000000000
11
-0.8505244954
21
-11.9578254854
31
0.0000000000
11
-0.7872842828
21
-11.9328263224
31
0.0000000000
0
SPLINE
5
321
100
AcDbEntity
8
0
100
AcDbSpline
62
9
6
CONTINUOUS
70
0
71
3
72
13
73
9
74
7
42
0.0000001000
43
0.0000001000
44
0.0000000001
12
0.0236863181
22
0.6964644260
32
0.0000000000
13
0.6093586484
23
0.3380913721
33
0.0000000000
40
0.0000000000
40
0.0000000000
40
0.0000000000
40
0.0000000000
40
0.1618980529
40
0.3338862850
40
0.5099147335
40
0.6835090643
40
0.8485628156
40
1.0000000000
40
1.0000000000
40
1.0000000000
40
1.0000000000
10
-1.1375693125
20
6.2620738057
30
0.0000000000
10
-1.1362910563
20
6.2996592172
30
0.0000000000
10
-1.1258061010
20
6.3770102875
30
0.0000000000
10
-1.0907101364
20
6.4906065116
30
0.0000000000
10
-1.0376607096
20
6.6000541170
30
0.0000000000
10
-0.9697013909
20
6.6990031880
30
0.0000000000
10
-0.8907809504
20
6.7817327311
30
0.0000000000
10
-0.8306704149
20
6.8251320938
30
0.0000000000
10
-0.7999105623
20
6.8421986290
30
0.0000000000
11
-1.1375693125
21
6.2620738057
31
0.0000000000
11
-1.1231850475
21
6.3739745063
31
0.0000000000
11
-1.0881938983
21
6.4886058560
31
0.0000000000
11
-1.0347242330
21
6.5990075732
31
0.0000000000
11
-0.9659938426
21
6.6985585689
31
0.0000000000
11
-0.8861010927
21
6.7813043855
31
0.0000000000
11
-0.7999105623
21
6.8421986290
31
0.0000000000
0
SPLINE
5
322
100
AcDbEntity
8
0
100
AcDbSpline
62
9
6
CONTINUOUS
70
0
71
3
72
10
73
6
74
4
42
0.0000001000
43
0.0000001000
44
0.0000000001
12
-0.0030333678
22
-0.1213178636
32
0.0000000000
13
0.1066158769
23
-0.0532088836
33
0.0000000000
40
0.0000000000
40
0.0000000000
40
0.0000000000
40
0.0000000000
40
0.1780456454
40
0.5384589432
40
1.0000000000
40
1.0000000000
40
1.0000000000
40
1.0000000000
10
-8.6355601761
20
10.0619798076
30
0.0000000000
10
-8.6357402021
20
10.0547797685
30
0.0000000000
10
-8.6325483932
20
10.0328113192
30
0.0000000000
10
-8.6068575235
20
10.0002699623
30
0.0000000000
10
-8.5789693917
20
9.9827605079
30
0.0000000000
10
-8.5625668569
20
9.9745744798
30
0.0000000000
11
-8.6355601761
21
10.0619798076
31
0.0000000000
11
-8.6324659067
21
10.0407378210
31
0.0000000000
11
-8.6081536606
21
10.0053369760
31
0.0000000000
11
-8.5625668569
21
9.9745744798
31
0.0000000000
0
SPLINE
5
323
100
AcDbEntity
8
0
100
AcDbSpline
62
9
6
CONTINUOUS
70
0
71
3
72
10
73
6
74
4
42
0.0000001000
43
0.0000001000
44
0.0000000001
12
0.1050176854
22
0.0618998300
32
0.0000000000
13
0.1086769537
23
-0.0523597263
33
0.0000000000
40
0.0000000000
40
0.0000000000
40
0.0000000000
40
0.0000000000
40
0.1160963686
40
0.5235165125
40
1.0000000000
40
1.0000000000
40
1.0000000000
40
1.0000000000
10
-8.3473116277
20
10.5619716896
30
0.0000000000
10
-8.3432475704
20
10.5643671381
30
0.0000000000
10
-8.3241265430
20
10.5737341660
30
0.0000000000
10
-8.2824505075
20
10.5774211855
30
0.0000000000
10
-8.2480138973
20
10.5659360159
30
0.0000000000
10
-8.2307529727
20
10.5576198342
30
0.0000000000
11
-8.3473116277
21
10.5619716896
31
0.0000000000
11
-8.3346342759
21
10.5681559182
31
0.0000000000
11
-8.2858389056
21
10.5740340223
31
0.0000000000
11
-8.2307529727
21
10.5576198342
31
0.0000000000
0
SPLINE
5
324
100
AcDbEntity
8
0
100
AcDbSpline
62
9
6
CONTINUOUS
70
0
71
3
72
13
73
9
74
7
42
0.0000001000
43
0.0000001000
44
0.0000000001
12
0.0119297417
22
0.3485374593
32
0.0000000000
13
0.3061352108
23
0.1670386543
33
0.0000000000
40
0.0000000000
40
0.0000000000
40
0.0000000000
40
0.0000000000
40
0.1613395104
40
0.3332283475
40
0.5092375563
40
0.6829593467
40
0.8483396085
40
1.0000000000
40
1.0000000000
40
1.0000000000
40
1.0000000000
10
-0.7872842828
20
6.2513653522
30
0.0000000000
10
-0.7866427032
20
6.2701096399
30
0.0000000000
10
-0.7813655146
20
6.3087416892
30
0.0000000000
10
-0.7636742594
20
6.3654726770
30
0.0000000000
10
-0.7368999441
20
6.4201408757
30
0.0000000000
10
-0.7025847264
20
6.4695144249
30
0.0000000000
10
-0.6627608221
20
6.5107141284
30
0.0000000000
10
-0.6324703876
20
6.5322530236
30
0.0000000000
10
-0.6169941923
20
6.5406974061
30
0.0000000000
11
-0.7872842828
21
6.2513653522
31
0.0000000000
11
-0.7800558670
21
6.3071648998
31
0.0000000000
11
-0.7624086001
21
6.3644532133
31
0.0000000000
11
-0.7354283253
21
6.4195874239
31
0.0000000000
11
-0.7007359112
21
6.4692549038
31
0.0000000000
11
-0.6604057326
21
6.5104844929
31
0.0000000000
11
-0.6169941923
21
6.5406974061
31
0.0000000000
0
SPLINE
5
325
100
AcDbEntity
8
0
100
AcDbSpline
62
9
6
CONTINUOUS
70
0
71
3
72
12
73
8
74
6
42
0.0000001000
43
0.0000001000
44
0.0000000001
12
0.3211522877
22
-0.1608748363
32
0.0000000000
13
0.3297203210
23
0.1424921568
33
0.0000000000
40
0.0000000000
40
0.0000000000
40
0.0000000000
40
0.0000000000
40
0.1856577104
40
0.3934663153
40
0.6088159782
40
0.8158163849
40
1.0000000000
40
1.0000000000
40
1.0000000000
40
1.0000000000
10
-1.1375613574
20
6.2620773749
30
0.0000000000
10
-1.1176865579
20
6.2521214903
30
0.0000000000
10
-1.0729508369
20
6.2361988279
30
0.0000000000
10
-1.0009479963
20
6.2234084817
30
0.0000000000
10
-0.9252498405
20
6.2210833519
30
0.0000000000
10
-0.8528723747
20
6.2294364816
30
0.0000000000
10
-0.8075273098
20
6.2426171120
30
0.0000000000
10
-0.7872842829
20
6.2513653522
30
0.0000000000
11
-1.1375613574
21
6.2620773749
31
0.0000000000
11
-1.0750689208
21
6.2387998966
31
0.0000000000
11
-1.0016501852
21
6.2253343383
31
0.0000000000
11
-0.9243342713
21
6.2229698958
31
0.0000000000
11
-0.8505234165
21
6.2319329416
31
0.0000000000
11
-0.7872842829
21
6.2513653522
31
0.0000000000
0
SPLINE
5
326
100
AcDbEntity
8
0
100
AcDbSpline
62
9
6
CONTINUOUS
70
0
71
3
72
10
73
6
74
4
42
0.0000001000
43
0.0000001000
44
0.0000000001
12
0.0041492519
22
-0.1215606042
32
0.0000000000
13
0.1070490687
23
-0.0536173442
33
0.0000000000
40
0.0000000000
40
0.0000000000
40
0.0000000000
40
0.0000000000
40
0.1591530734
40
0.5360824917
40
1.0000000000
40
1.0000000000
40
1.0000000000
40
1.0000000000
10
-8.6356097864
20
-8.1390942731
30
0.0000000000
10
-8.6353896643
20
-8.1455431877
30
0.0000000000
10
-8.6318671578
20
-8.1671494252
30
0.0000000000
10
-8.6077231565
20
-8.2010556722
30
0.0000000000
10
-8.5791228340
20
-8.2195291435
30
0.0000000000
10
-8.5625688549
20
-8.2278204850
30
0.0000000000
11
-8.6356097864
21
-8.1390942731
31
0.0000000000
11
-8.6324678030
21
-8.1580698914
31
0.0000000000
11
-8.6081557374
21
-8.1960894079
31
0.0000000000
11
-8.5625688549
21
-8.2278204850
31
0.0000000000
0
SPLINE
5
327
100
AcDbEntity
8
0
100
AcDbSpline
62
9
6
CONTINUOUS
70
0
71
3
72
11
73
7
74
5
42
0.0000001000
43
0.0000001000
44
0.0000000001
12
-0.2675669024
22
0.1342545386
32
0.0000000000
13
-0.0104530646
23
0.2970852762
33
0.0000000000
40
0.0000000000
40
0.0000000000
40
0.0000000000
40
0.0000000000
40
0.1080741970
40
0.3730899261
40
0.6675809079
40
1.0000000000
40
1.0000000000
40
1.0000000000
40
1.0000000000
10
-1.0071714457
20
-12.1930237209
30
0.0000000000
10
-1.0168104718
20
-12.1881872371
30
0.0000000000
10
-1.0486931708
20
-12.1687471803
30
0.0000000000
10
-1.0938562773
20
-12.1182670879
30
0.0000000000
10
-1.1281317073
20
-12.0354445778
30
0.0000000000
10
-1.1364110465
20
-11.9732392022
30
0.0000000000
10
-1.1375693125
20
-11.9403202630
30
0.0000000000
11
-1.0071714457
21
-12.1930237209
31
0.0000000000
11
-1.0347242330
21
-12.1761886687
31
0.0000000000
11
-1.0881938982
21
-12.1183316072
31
0.0000000000
11
-1.1231850475
21
-12.0380856771
31
0.0000000000
11
-1.1375693125
21
-11.9403202630
31
0.0000000000
0
SPLINE
5
328
100
AcDbEntity
8
0
100
AcDbSpline
62
9
6
CONTINUOUS
70
0
71
3
72
10
73
6
74
4
42
0.0000001000
43
0.0000001000
44
0.0000000001
12
0.1556973459
22
0.0657544746
32
0.0000000000
13
0.0071563867
23
0.1678784926
33
0.0000000000
40
0.0000000000
40
0.0000000000
40
0.0000000000
40
0.0000000000
40
0.2819767268
40
0.6144075147
40
1.0000000000
40
1.0000000000
40
1.0000000000
40
1.0000000000
10
-0.6938992004
20
-12.1983056485
30
0.0000000000
10
-0.6792648577
20
-12.1921252380
30
0.0000000000
10
-0.6507140289
20
-12.1705092298
30
0.0000000000
10
-0.6242816707
20
-12.1195853255
30
0.0000000000
10
-0.6179140086
20
-12.0792887092
30
0.0000000000
10
-0.6169941923
20
-12.0577111475
30
0.0000000000
11
-0.6938992004
21
-12.1983056485
31
0.0000000000
11
-0.6556515118
21
-12.1702471120
31
0.0000000000
11
-0.6283901225
21
-12.1214925544
31
0.0000000000
11
-0.6169941923
21
-12.0577111475
31
0.0000000000
0
SPLINE
5
329
100
AcDbEntity
8
0
100
AcDbSpline
62
9
6
CONTINUOUS
70
0
71
3
72
8
73
4
74
2
42
0.0000001000
43
0.0000001000
44
0.0000000001
12
-0.0080559672
22
0.0040191683
32
0.0000000000
13
-0.0078528059
23
0.0043968783
33
0.0000000000
40
0.0000000000
40
0.0000000000
40
0.0000000000
40
0.0000000000
40
1.0000000000
40
1.0000000000
40
1.0000000000
40
1.0000000000
10
-8.4340390433
20
-8.4795842888
30
0.0000000000
10
-8.4367243657
20
-8.4782445661
30
0.0000000000
10
-8.4393775916
20
-8.4768411680
30
0.0000000000
10
-8.4419951936
20
-8.4753755419
30
0.0000000000
11
-8.4340390433
21
-8.4795842888
31
0.0000000000
11
-8.4419951936
21
-8.4753755419
31
0.0000000000
0
SPLINE
5
32A
100
AcDbEntity
8
0
100
AcDbSpline
62
9
6
CONTINUOUS
70
0
71
3
72
11
73
7
74
5
42
0.0000001000
43
0.0000001000
44
0.0000000001
12
-0.2518049430
22
0.1409885477
32
0.0000000000
13
-0.0098914534
23
0.2864101254
33
0.0000000000
40
0.0000000000
40
0.0000000000
40
0.0000000000
40
0.0000000000
40
0.0806016257
40
0.3520503681
40
0.6557824144
40
1.0000000000
40
1.0000000000
40
1.0000000000
40
1.0000000000
10
-8.4419951936
20
-8.4753755419
30
0.0000000000
10
-8.4487604895
20
-8.4715875732
30
0.0000000000
10
-8.4772704618
20
-8.4532269781
30
0.0000000000
10
-8.5197568963
20
-8.4051420205
30
0.0000000000
10
-8.5533363354
20
-8.3226643137
30
0.0000000000
10
-8.5614339239
20
-8.2606829559
30
0.0000000000
10
-8.5625688613
20
-8.2278204886
30
0.0000000000
11
-8.4419951936
21
-8.4753755419
31
0.0000000000
11
-8.4615162943
21
-8.4627896014
31
0.0000000000
11
-8.5140445264
21
-8.4054103097
31
0.0000000000
11
-8.5484369165
21
-8.3254491559
31
0.0000000000
11
-8.5625688613
21
-8.2278204886
31
0.0000000000
0
SPLINE
5
32B
100
AcDbEntity
8
0
100
AcDbSpline
62
9
6
CONTINUOUS
70
0
71
3
72
12
73
8
74
6
42
0.0000001000
43
0.0000001000
44
0.0000000001
12
0.3247632253
22
-0.1685042944
32
0.0000000000
13
0.0162503138
23
-0.3655144006
33
0.0000000000
40
0.0000000000
40
0.0000000000
40
0.0000000000
40
0.0000000000
40
0.1809469183
40
0.3838261688
40
0.5970348289
40
0.8067865692
40
1.0000000000
40
1.0000000000
40
1.0000000000
40
1.0000000000
10
-0.7999105623
20
6.8421986290
30
0.0000000000
10
-0.7803222607
20
6.8320351847
30
0.0000000000
10
-0.7420738942
20
6.8040243275
30
0.0000000000
10
-0.6935048840
20
6.7492550472
30
0.0000000000
10
-0.6537861589
20
6.6835768988
30
0.0000000000
10
-0.6266381683
20
6.6131126398
30
0.0000000000
10
-0.6180407852
20
6.5642381699
30
0.0000000000
10
-0.6169941923
20
6.5406974061
30
0.0000000000
11
-0.7999105623
21
6.8421986290
31
0.0000000000
11
-0.7458205009
21
6.8040248200
31
0.0000000000
11
-0.6961144616
21
6.7488960111
31
0.0000000000
11
-0.6556524082
21
6.6822023714
31
0.0000000000
11
-0.6283904817
21
6.6104648114
31
0.0000000000
11
-0.6169941923
21
6.5406974061
31
0.0000000000
0
SPLINE
5
32C
100
AcDbEntity
8
0
100
AcDbSpline
62
9
6
CONTINUOUS
70
0
71
3
72
10
73
6
74
4
42
0.0000001000
43
0.0000001000
44
0.0000000001
12
-0.0417173726
22
0.0207703283
32
0.0000000000
13
-0.0413540994
23
-0.0206770497
33
0.0000000000
40
0.0000000000
40
0.0000000000
40
0.0000000000
40
0.0000000000
40
0.2114462854
40
0.5810921934
40
1.0000000000
40
1.0000000000
40
1.0000000000
40
1.0000000000
10
-1.8143776709
20
11.7032309863
30
0.0000000000
10
-1.8173179987
20
11.7046949226
30
0.0000000000
10
-1.8259471692
20
11.7076998355
30
0.0000000000
10
-1.8417151946
20
11.7074935450
30
0.0000000000
10
-1.8533307043
20
11.7032970807
30
0.0000000000
10
-1.8591052227
20
11.7004098215
30
0.0000000000
11
-1.8143776709
21
11.7032309863
31
0.0000000000
11
-1.8236685578
21
11.7064680193
31
0.0000000000
11
-1.8407585909
21
11.7066173213
31
0.0000000000
11
-1.8591052227
21
11.7004098215
31
0.0000000000
0
SPLINE
5
32D
100
AcDbEntity
8
0
100
AcDbSpline
62
9
6
CONTINUOUS
70
0
71
3
72
8
73
4
74
2
42
0.0000001000
43
0.0000001000
44
0.0000000001
12
0.0079751575
22
-0.0058779467
32
0.0000000000
13
0.0070355656
23
-0.0070224186
33
0.0000000000
40
0.0000000000
40
0.0000000000
40
0.0000000000
40
0.0000000000
40
1.0000000000
40
1.0000000000
40
1.0000000000
40
1.0000000000
10
0.3322498453
20
10.6283139455
30
0.0000000000
10
0.3349082311
20
10.6263546300
30
0.0000000000
10
0.3374267993
20
10.6241883253
30
0.0000000000
10
0.3397719878
20
10.6218475190
30
0.0000000000
11
0.3322498453
21
10.6283139455
31
0.0000000000
11
0.3397719878
21
10.6218475190
31
0.0000000000
0
SPLINE
5
32E
100
AcDbEntity
8
0
100
AcDbSpline
62
9
6
CONTINUOUS
70
0
71
3
72
9
73
5
74
3
42
0.0000001000
43
0.0000001000
44
0.0000000001
12
0.0277227896
22
-0.0276709857
32
0.0000000000
13
0.0092462803
23
-0.0378740940
33
0.0000000000
40
0.0000000000
40
0.0000000000
40
0.0000000000
40
0.0000000000
40
0.2661671331
40
1.0000000000
40
1.0000000000
40
1.0000000000
40
1.0000000000
10
0.3397719878
20
10.6218475190
30
0.0000000000
10
0.3422316196
20
10.6193924834
30
0.0000000000
10
0.3507560296
20
10.6094476651
30
0.0000000000
10
0.3560419172
20
10.5973224716
30
0.0000000000
10
0.3583036586
20
10.5880580533
30
0.0000000000
11
0.3397719878
21
10.6218475190
31
0.0000000000
11
0.3465400222
21
10.6139440473
31
0.0000000000
11
0.3583036586
21
10.5880580533
31
0.0000000000
0
SPLINE
5
32F
100
AcDbEntity
8
0
100
AcDbSpline
62
9
6
CONTINUOUS
70
0
71
3
72
8
73
4
74
2
42
0.0000001000
43
0.0000001000
44
0.0000000001
12
-0.0088843666
22
0.0044186356
32
0.0000000000
13
-0.0097028442
23
0.0020336136
33
0.0000000000
40
0.0000000000
40
0.0000000000
40
0.0000000000
40
0.0000000000
40
1.0000000000
40
1.0000000000
40
1.0000000000
40
1.0000000000
10
0.3178683138
20
10.6371076648
30
0.0000000000
10
0.3149068582
20
10.6385805433
30
0.0000000000
10
0.3117430459
20
10.6396777554
30
0.0000000000
10
0.3085087645
20
10.6403556266
30
0.0000000000
11
0.3178683138
21
10.6371076648
31
0.0000000000
11
0.3085087645
21
10.6403556266
31
0.0000000000
0
SPLINE
5
330
100
AcDbEntity
8
0
100
AcDbSpline
62
9
6
CONTINUOUS
70
0
71
3
72
8
73
4
74
2
42
0.0000001000
43
0.0000001000
44
0.0000000001
12
-0.0168103272
22
0.0035232669
32
0.0000000000
13
-0.0169069905
23
-0.0028966528
33
0.0000000000
40
0.0000000000
40
0.0000000000
40
0.0000000000
40
0.0000000000
40
1.0000000000
40
1.0000000000
40
1.0000000000
40
1.0000000000
10
0.3085087645
20
10.6403556266
30
0.0000000000
10
0.3029053221
20
10.6415300489
30
0.0000000000
10
0.2970903591
20
10.6414457735
30
0.0000000000
10
0.2914546956
20
10.6404802225
30
0.0000000000
11
0.3085087645
21
10.6403556266
31
0.0000000000
11
0.2914546956
21
10.6404802225
31
0.0000000000
0
SPLINE
5
331
100
AcDbEntity
8
0
100
AcDbSpline
62
9
6
CONTINUOUS
70
0
71
3
72
8
73
4
74
2
42
0.0000001000
43
0.0000001000
44
0.0000000001
12
-0.0191557080
22
-0.0032819227
32
0.0000000000
13
-0.0172828952
23
-0.0086414476
33
0.0000000000
40
0.0000000000
40
0.0000000000
40
0.0000000000
40
0.0000000000
40
1.0000000000
40
1.0000000000
40
1.0000000000
40
1.0000000000
10
0.2914546956
20
10.6404802225
30
0.0000000000
10
0.2850694596
20
10.6393862483
30
0.0000000000
10
0.2789143905
20
10.6371609800
30
0.0000000000
10
0.2731534254
20
10.6342804974
30
0.0000000000
11
0.2914546956
21
10.6404802225
31
0.0000000000
11
0.2731534254
21
10.6342804974
31
0.0000000000
0
SPLINE
5
332
100
AcDbEntity
8
0
100
AcDbSpline
62
7
6
CONTINUOUS
70
0
71
3
72
12
73
8
74
6
42
0.0000001000
43
0.0000001000
44
0.0000000001
12
-0.1119808656
22
-0.1855691835
32
0.0000000000
13
0.0452732190
23
-0.2113211186
33
0.0000000000
40
0.0000000000
40
0.0000000000
40
0.0000000000
40
0.0000000000
40
0.1377040697
40
0.3563566703
40
0.5776732657
40
0.7949778525
40
1.0000000000
40
1.0000000000
40
1.0000000000
40
1.0000000000
10
-2.7788086736
20
-6.4480687100
30
0.0000000000
10
-2.7839487472
20
-6.4565865873
30
0.0000000000
10
-2.7950206372
20
-6.4798951144
30
0.0000000000
10
-2.8062513512
20
-6.5202063541
30
0.0000000000
10
-2.8114930723
20
-6.5674309735
30
0.0000000000
10
-2.8103953529
20
-6.6139057157
30
0.0000000000
10
-2.8059098500
20
-6.6440882538
30
0.0000000000
10
-2.8028158458
20
-6.6585300903
30
0.0000000000
11
-2.7788086736
21
-6.4480687100
31
0.0000000000
11
-2.7918868229
21
-6.4748332045
31
0.0000000000
11
-2.8049535767
21
-6.5202450816
31
0.0000000000
11
-2.8104440507
21
-6.5677590441
31
0.0000000000
11
-2.8093775490
21
-6.6147100083
31
0.0000000000
11
-2.8028158458
21
-6.6585300903
31
0.0000000000
0
SPLINE
5
333
100
AcDbEntity
8
0
100
AcDbSpline
62
7
6
CONTINUOUS
70
0
71
3
72
34
73
30
74
28
42
0.0000001000
43
0.0000001000
44
0.0000000001
12
0.3758041932
22
-3.2180384180
32
0.0000000000
13
-0.4127188717
23
-3.2135125928
33
0.0000000000
40
0.0000000000
40
0.0000000000
40
0.0000000000
40
0.0000000000
40
0.0548491011
40
0.1055222959
40
0.1523422062
40
0.1956196542
40
0.2353111889
40
0.2710978911
40
0.3030702816
40
0.3322599134
40
0.3598852721
40
0.3872309441
40
0.4150332028
40
0.4429563773
40
0.4707935799
40
0.4985954857
40
0.5264872563
40
0.5545476018
40
0.5825953230
40
0.6103966146
40
0.6388641136
40
0.6693226304
40
0.7030492950
40
0.7411331816
40
0.7837291030
40
0.8306524675
40
0.8820082798
40
0.9382812344
40
1.0000000000
40
1.0000000000
40
1.0000000000
40
1.0000000000
10
-5.1577998144
20
4.3507426174
30
0.0000000000
10
-5.1509289737
20
4.2919071126
30
0.0000000000
10
-5.1386219492
20
4.1786069512
30
0.0000000000
10
-5.1233316371
20
4.0147888122
30
0.0000000000
10
-5.1112750982
20
3.8632354014
30
0.0000000000
10
-5.1018925171
20
3.7233785422
30
0.0000000000
10
-5.0947435850
20
3.5953230362
30
0.0000000000
10
-5.0894392149
20
3.4793992422
30
0.0000000000
10
-5.0855832705
20
3.3747674305
30
0.0000000000
10
-5.0828114295
20
3.2789189697
30
0.0000000000
10
-5.0808454745
20
3.1880485677
30
0.0000000000
10
-5.0795348938
20
3.0986648702
30
0.0000000000
10
-5.0788404934
20
3.0089526054
30
0.0000000000
10
-5.0787666798
20
2.9187068510
30
0.0000000000
10
-5.0793116248
20
2.8284631121
30
0.0000000000
10
-5.0804673728
20
2.7382590626
30
0.0000000000
10
-5.0822333780
20
2.6478238705
30
0.0000000000
10
-5.0846103224
20
2.5571371114
30
0.0000000000
10
-5.0875855443
20
2.4665657891
30
0.0000000000
10
-5.0911703313
20
2.3755765126
30
0.0000000000
10
-5.0954684804
20
2.2820116965
30
0.0000000000
10
-5.1007370991
20
2.1820876549
30
0.0000000000
10
-5.1073579518
20
2.0718377699
30
0.0000000000
10
-5.1157613209
20
1.9485669101
30
0.0000000000
10
-5.1263674651
20
1.8111661230
30
0.0000000000
10
-5.1395669392
20
1.6595963763
30
0.0000000000
10
-5.1558160923
20
1.4934742062
30
0.0000000000
10
-5.1757086878
20
1.3116650663
30
0.0000000000
10
-5.1911363984
20
1.1851707805
30
0.0000000000
10
-5.1996272315
20
1.1190594370
30
0.0000000000
11
-5.1577998144
21
4.3507426174
31
0.0000000000
11
-5.1385985254
21
4.1740770117
31
0.0000000000
11
-5.1233326235
21
4.0106118409
31
0.0000000000
11
-5.1112966459
21
3.8593979161
31
0.0000000000
11
-5.1019062617
21
3.7194977883
31
0.0000000000
11
-5.0947346310
21
3.5911010212
31
0.0000000000
11
-5.0894322253
21
3.4752767272
31
0.0000000000
11
-5.0856155622
21
3.3717594781
31
0.0000000000
11
-5.0828804581
21
3.2772273328
31
0.0000000000
11
-5.0809434267
21
3.1877446914
31
0.0000000000
11
-5.0796434715
21
3.0991567833
31
0.0000000000
11
-5.0789452004
21
3.0090827458
31
0.0000000000
11
-5.0788701454
21
2.9186142768
31
0.0000000000
11
-5.0794137307
21
2.8284259558
31
0.0000000000
11
-5.0805667410
21
2.7383577350
31
0.0000000000
11
-5.0823300898
21
2.6480081867
31
0.0000000000
11
-5.0847111661
21
2.5571264515
31
0.0000000000
11
-5.0876937030
21
2.4663033903
31
0.0000000000
11
-5.0912387571
21
2.3762995685
31
0.0000000000
11
-5.0954702688
21
2.2841646270
31
0.0000000000
11
-5.1006650877
21
2.1856186795
31
0.0000000000
11
-5.1072138715
21
2.0765438244
31
0.0000000000
11
-5.1156036751
21
1.9534411212
31
0.0000000000
11
-5.1262221771
21
1.8158433894
31
0.0000000000
11
-5.1394079486
21
1.6643889326
31
0.0000000000
11
-5.1556012397
21
1.4987907155
31
0.0000000000
11
-5.1754255675
21
1.3175525486
31
0.0000000000
11
-5.1996272315
21
1.1190594370
31
0.0000000000
0
SPLINE
5
334
100
AcDbEntity
8
0
100
AcDbSpline
62
9
6
CONTINUOUS
70
0
71
3
72
9
73
5
74
3
42
0.0000001000
43
0.0000001000
44
0.0000000001
12
-1.3995945106
22
-2.2823434530
32
0.0000000000
13
-1.3818962414
23
-2.2931025292
33
0.0000000000
40
0.0000000000
40
0.0000000000
40
0.0000000000
40
0.0000000000
40
0.5015413896
40
1.0000000000
40
1.0000000000
40
1.0000000000
40
1.0000000000
10
-2.3319963880
20
-3.2775152281
30
0.0000000000
10
-2.5659812466
20
-3.6590784638
30
0.0000000000
10
-3.0310335840
20
-4.4207675965
30
0.0000000000
10
-3.4931732767
20
-5.1842274601
30
0.0000000000
10
-3.7227793034
20
-5.5652330268
30
0.0000000000
11
-2.3319963880
21
-3.2775152281
31
0.0000000000
11
-3.0317345801
21
-4.4235611323
31
0.0000000000
11
-3.7227793034
21
-5.5652330268
31
0.0000000000
0
SPLINE
5
335
100
AcDbEntity
8
0
100
AcDbSpline
62
7
6
CONTINUOUS
70
0
71
3
72
13
73
9
74
7
42
0.0000001000
43
0.0000001000
44
0.0000000001
12
-0.2260093043
22
-0.1142573254
32
0.0000000000
13
-0.2494621272
23
0.0436301402
33
0.0000000000
40
0.0000000000
40
0.0000000000
40
0.0000000000
40
0.0000000000
40
0.1764866136
40
0.3612593172
40
0.5419709818
40
0.7119325106
40
0.8662452608
40
1.0000000000
40
1.0000000000
40
1.0000000000
40
1.0000000000
10
-3.4744368480
20
-5.5360648927
30
0.0000000000
10
-3.4877327203
20
-5.5427865221
30
0.0000000000
10
-3.5166013695
20
-5.5532242514
30
0.0000000000
10
-3.5612685323
20
-5.5633405876
30
0.0000000000
10
-3.6061566920
20
-5.5691639321
30
0.0000000000
10
-3.6487790441
20
-5.5712233977
30
0.0000000000
10
-3.6874648070
20
-5.5700213053
30
0.0000000000
10
-3.7116595188
20
-5.5671754524
30
0.0000000000
10
-3.7227817661
20
-5.5652302064
30
0.0000000000
11
-3.4744368480
21
-5.5360648927
31
0.0000000000
11
-3.5161551975
21
-5.5521030973
31
0.0000000000
11
-3.5617356010
21
-5.5626886912
31
0.0000000000
11
-3.6071109751
21
-5.5686478316
31
0.0000000000
11
-3.6501050452
21
-5.5706901246
31
0.0000000000
11
-3.6891621775
21
-5.5693676641
31
0.0000000000
11
-3.7227817661
21
-5.5652302064
31
0.0000000000
0
SPLINE
5
336
100
AcDbEntity
8
0
100
AcDbSpline
62
9
6
CONTINUOUS
70
0
71
3
72
9
73
5
74
3
42
0.0000001000
43
0.0000001000
44
0.0000000001
12
-1.2645012314
22
-2.0624795073
32
0.0000000000
13
-1.2500470347
23
-2.0712717482
33
0.0000000000
40
0.0000000000
40
0.0000000000
40
0.0000000000
40
0.0000000000
40
0.4898034491
40
1.0000000000
40
1.0000000000
40
1.0000000000
40
1.0000000000
10
-2.2171166736
20
-3.4692043123
30
0.0000000000
10
-2.4235690285
20
-3.8059408378
30
0.0000000000
10
-2.8439120945
20
-4.4941442647
30
0.0000000000
10
-3.2618469715
20
-5.1838130015
30
0.0000000000
10
-3.4744368667
20
-5.5360649021
30
0.0000000000
11
-2.2171166736
21
-3.4692043123
31
0.0000000000
11
-2.8347622532
21
-4.4804612009
31
0.0000000000
11
-3.4744368667
21
-5.5360649021
31
0.0000000000
0
SPLINE
5
337
100
AcDbEntity
8
0
100
AcDbSpline
62
9
6
CONTINUOUS
70
0
71
3
72
8
73
4
74
2
42
0.0000001000
43
0.0000001000
44
0.0000000001
12
-0.0415051497
22
0.0498336375
32
0.0000000000
13
-0.0415024362
23
0.0498358976
33
0.0000000000
40
0.0000000000
40
0.0000000000
40
0.0000000000
40
0.0000000000
40
1.0000000000
40
1.0000000000
40
1.0000000000
40
1.0000000000
10
-1.4189098108
20
-4.3751331248
30
0.0000000000
10
-1.4327448607
20
-4.3585219123
30
0.0000000000
10
-1.4465794573
20
-4.3419103222
30
0.0000000000
10
-1.4604136027
20
-4.3252983563
30
0.0000000000
11
-1.4189098108
21
-4.3751331248
31
0.0000000000
11
-1.4604136027
21
-4.3252983563
31
0.0000000000
0
SPLINE
5
338
100
AcDbEntity
8
0
100
AcDbSpline
62
9
6
CONTINUOUS
70
0
71
3
72
8
73
4
74
2
42
0.0000001000
43
0.0000001000
44
0.0000000001
12
-0.0136752660
22
0.0164211843
32
0.0000000000
13
-0.0136749723
23
0.0164214289
33
0.0000000000
40
0.0000000000
40
0.0000000000
40
0.0000000000
40
0.0000000000
40
1.0000000000
40
1.0000000000
40
1.0000000000
40
1.0000000000
10
-1.4604136027
20
-4.3252983563
30
0.0000000000
10
-1.4649720247
20
-4.3198246282
30
0.0000000000
10
-1.4695303977
20
-4.3143508593
30
0.0000000000
10
-1.4740887218
20
-4.3088770497
30
0.0000000000
11
-1.4604136027
21
-4.3252983563
31
0.0000000000
11
-1.4740887218
21
-4.3088770497
31
0.0000000000
0
SPLINE
5
339
100
AcDbEntity
8
0
100
AcDbSpline
62
9
6
CONTINUOUS
70
0
71
3
72
9
73
5
74
3
42
0.0000001000
43
0.0000001000
44
0.0000000001
12
-0.7828485237
22
0.9400743983
32
0.0000000000
13
-0.7819003669
23
0.9408631708
33
0.0000000000
40
0.0000000000
40
0.0000000000
40
0.0000000000
40
0.0000000000
40
0.5152312769
40
1.0000000000
40
1.0000000000
40
1.0000000000
40
1.0000000000
10
-1.4740887218
20
-4.3088770497
30
0.0000000000
10
-1.6085380700
20
-4.1474251388
30
0.0000000000
10
-1.8694049993
20
-3.8339982308
30
0.0000000000
10
-2.1301191752
20
-3.5204442485
30
0.0000000000
10
-2.2564661227
20
-3.3684105692
30
0.0000000000
11
-1.4740887218
21
-4.3088770497
31
0.0000000000
11
-1.8773111217
21
-3.8244167132
31
0.0000000000
11
-2.2564661227
21
-3.3684105692
31
0.0000000000
0
SPLINE
5
33A
100
AcDbEntity
8
0
100
AcDbSpline
62
9
6
CONTINUOUS
70
0
71
3
72
8
73
4
74
2
42
0.0000001000
43
0.0000001000
44
0.0000000001
12
-0.0755349528
22
0.0908914463
32
0.0000000000
13
-0.0755255522
23
0.0908992569
33
0.0000000000
40
0.0000000000
40
0.0000000000
40
0.0000000000
40
0.0000000000
40
1.0000000000
40
1.0000000000
40
1.0000000000
40
1.0000000000
10
-2.2564661227
20
-3.3684105692
30
0.0000000000
10
-2.2816444403
20
-3.3381134204
30
0.0000000000
10
-2.3068212040
20
-3.3078149804
30
0.0000000000
10
-2.3319963880
20
-3.2775152281
30
0.0000000000
11
-2.2564661227
21
-3.3684105692
31
0.0000000000
11
-2.3319963880
21
-3.2775152281
31
0.0000000000
0
SPLINE
5
33B
100
AcDbEntity
8
0
100
AcDbSpline
62
9
6
CONTINUOUS
70
0
71
3
72
8
73
4
74
2
42
0.0000001000
43
0.0000001000
44
0.0000000001
12
0.0992635976
22
0.1651811127
32
0.0000000000
13
0.0993542151
23
0.1651266761
33
0.0000000000
40
0.0000000000
40
0.0000000000
40
0.0000000000
40
0.0000000000
40
1.0000000000
40
1.0000000000
40
1.0000000000
40
1.0000000000
10
-2.8028133951
20
-6.6585323727
30
0.0000000000
10
-2.7697255292
20
-6.6034720018
30
0.0000000000
10
-2.7366225399
20
-6.5484207099
30
0.0000000000
10
-2.7035044682
20
-6.4933784845
30
0.0000000000
11
-2.8028133951
21
-6.6585323727
31
0.0000000000
11
-2.7035044682
21
-6.4933784845
31
0.0000000000
0
SPLINE
5
33C
100
AcDbEntity
8
0
100
AcDbSpline
62
9
6
CONTINUOUS
70
0
71
3
72
9
73
5
74
3
42
0.0000001000
43
0.0000001000
44
0.0000000001
12
1.2772047885
22
2.1227139811
32
0.0000000000
13
1.2918978787
23
2.1138031389
33
0.0000000000
40
0.0000000000
40
0.0000000000
40
0.0000000000
40
0.0000000000
40
0.4594456046
40
1.0000000000
40
1.0000000000
40
1.0000000000
40
1.0000000000
10
-2.7035044682
20
-6.4933784845
30
0.0000000000
10
-2.5079024261
20
-6.1682879484
30
0.0000000000
10
-2.0810223782
20
-5.4614050003
30
0.0000000000
10
-1.6516901697
20
-4.7560083173
30
0.0000000000
10
-1.4189098108
20
-4.3751331248
30
0.0000000000
11
-2.7035044682
21
-6.4933784845
31
0.0000000000
11
-2.1151284755
21
-5.5190531576
31
0.0000000000
11
-1.4189098108
21
-4.3751331248
31
0.0000000000
0
SPLINE
5
33D
100
AcDbEntity
8
0
100
AcDbSpline
62
9
6
CONTINUOUS
70
0
71
3
72
9
73
5
74
3
42
0.0000001000
43
0.0000001000
44
0.0000000001
12
0.7242260787
22
-0.8612188394
32
0.0000000000
13
0.7250376755
23
-0.8605356897
33
0.0000000000
40
0.0000000000
40
0.0000000000
40
0.0000000000
40
0.0000000000
40
0.5065601035
40
1.0000000000
40
1.0000000000
40
1.0000000000
40
1.0000000000
10
-3.4718024834
20
-5.5347507331
30
0.0000000000
10
-3.3495144710
20
-5.6801704346
30
0.0000000000
10
-3.1080372101
20
-5.9671857271
30
0.0000000000
10
-2.8664246940
20
-6.2540871688
30
0.0000000000
10
-2.7471705221
20
-6.3956280493
30
0.0000000000
11
-3.4718024834
21
-5.5347507331
31
0.0000000000
11
-3.1048342716
21
-5.9709222126
31
0.0000000000
11
-2.7471705221
21
-6.3956280493
31
0.0000000000
0
SPLINE
5
33E
100
AcDbEntity
8
0
100
AcDbSpline
62
7
6
CONTINUOUS
70
0
71
3
72
9
73
5
74
3
42
0.0000001000
43
0.0000001000
44
0.0000000001
12
0.0026272222
22
0.0013281727
32
0.0000000000
13
0.0026589846
23
0.0012641182
33
0.0000000000
40
0.0000000000
40
0.0000000000
40
0.0000000000
40
0.0000000000
40
0.6685706803
40
1.0000000000
40
1.0000000000
40
1.0000000000
40
1.0000000000
10
-3.4744368667
20
-5.5360649021
30
0.0000000000
10
-3.4738513721
20
-5.5357689096
30
0.0000000000
10
-3.4729756504
20
-5.5353260626
30
0.0000000000
10
-3.4720928406
20
-5.5348975525
30
0.0000000000
10
-3.4717990855
20
-5.5347578972
30
0.0000000000
11
-3.4744368667
21
-5.5360649021
31
0.0000000000
11
-3.4726772401
21
-5.5351831690
31
0.0000000000
11
-3.4717990855
21
-5.5347578972
31
0.0000000000
0
SPLINE
5
33F
100
AcDbEntity
8
0
100
AcDbSpline
62
9
6
CONTINUOUS
70
0
71
3
72
9
73
5
74
3
42
0.0000001000
43
0.0000001000
44
0.0000000001
12
0.9193108643
22
-1.0938502870
32
0.0000000000
13
0.9206199662
23
-1.0927487330
33
0.0000000000
40
0.0000000000
40
0.0000000000
40
0.0000000000
40
0.0000000000
40
0.4999647936
40
1.0000000000
40
1.0000000000
40
1.0000000000
40
1.0000000000
10
-3.7227793034
20
-5.5652330268
30
0.0000000000
10
-3.5695716146
20
-5.7475285711
30
0.0000000000
10
-3.2630256562
20
-6.1120537371
30
0.0000000000
10
-2.9562608600
20
-6.4763947600
30
0.0000000000
10
-2.8028133951
20
-6.6585323727
30
0.0000000000
11
-3.7227793034
21
-5.5652330268
31
0.0000000000
11
-3.2629925392
21
-6.1119820405
31
0.0000000000
11
-2.8028133951
21
-6.6585323727
31
0.0000000000
0
SPLINE
5
340
100
AcDbEntity
8
0
100
AcDbSpline
62
9
6
CONTINUOUS
70
0
71
3
72
9
73
5
74
3
42
0.0000001000
43
0.0000001000
44
0.0000000001
12
1.4348584317
22
-3.7086580186
32
0.0000000000
13
1.4705205318
23
-3.6946626887
33
0.0000000000
40
0.0000000000
40
0.0000000000
40
0.0000000000
40
0.0000000000
40
0.5001241166
40
1.0000000000
40
1.0000000000
40
1.0000000000
40
1.0000000000
10
-8.5849719897
20
-0.7921028093
30
0.0000000000
10
-8.3457695545
20
-1.4103659144
30
0.0000000000
10
-7.8645149575
20
-2.6454388505
30
0.0000000000
10
-7.3773113942
20
-3.8781772328
30
0.0000000000
10
-7.1322854775
20
-4.4938014914
30
0.0000000000
11
-8.5849719897
21
-0.7921028093
31
0.0000000000
11
-7.8629075141
21
-2.6451615083
31
0.0000000000
11
-7.1322854775
21
-4.4938014914
31
0.0000000000
0
SPLINE
5
341
100
AcDbEntity
8
0
100
AcDbSpline
62
7
6
CONTINUOUS
70
0
71
3
72
13
73
9
74
7
42
0.0000001000
43
0.0000001000
44
0.0000000001
12
-0.2328055570
22
-0.1190497221
32
0.0000000000
13
-0.0582666046
23
-0.2549044261
33
0.0000000000
40
0.0000000000
40
0.0000000000
40
0.0000000000
40
0.0000000000
40
0.1687791258
40
0.3489108988
40
0.5278147334
40
0.6992372067
40
0.8583685379
40
1.0000000000
40
1.0000000000
40
1.0000000000
40
1.0000000000
10
-6.9902529039
20
-4.2814561060
30
0.0000000000
10
-7.0033504767
20
-4.2881538087
30
0.0000000000
10
-7.0276763398
20
-4.3071480194
30
0.0000000000
10
-7.0586261008
20
-4.3412733261
30
0.0000000000
10
-7.0849861131
20
-4.3794192685
30
0.0000000000
10
-7.1061913914
20
-4.4185159095
30
0.0000000000
10
-7.1220470868
20
-4.4565694972
30
0.0000000000
10
-7.1295347437
20
-4.4817610874
30
0.0000000000
10
-7.1322855385
20
-4.4937952496
30
0.0000000000
11
-6.9902529039
21
-4.2814561060
31
0.0000000000
11
-7.0259800748
21
-4.3073640192
31
0.0000000000
11
-7.0578897433
21
-4.3420085945
31
0.0000000000
11
-7.0846206200
21
-4.3803985762
31
0.0000000000
11
-7.1059879045
21
-4.4198012939
31
0.0000000000
11
-7.1219035843
21
-4.4582466010
31
0.0000000000
11
-7.1322855385
21
-4.4937952496
31
0.0000000000
0
SPLINE
5
342
100
AcDbEntity
8
0
100
AcDbSpline
62
9
6
CONTINUOUS
70
0
71
3
72
9
73
5
74
3
42
0.0000001000
43
0.0000001000
44
0.0000000001
12
1.3276348632
22
-3.4261356803
32
0.0000000000
13
1.3580889012
23
-3.4141784443
33
0.0000000000
40
0.0000000000
40
0.0000000000
40
0.0000000000
40
0.0000000000
40
0.4996834885
40
1.0000000000
40
1.0000000000
40
1.0000000000
40
1.0000000000
10
-8.3331177205
20
-0.8612708533
30
0.0000000000
10
-8.1119853139
20
-1.4319319962
30
0.0000000000
10
-7.6669027637
20
-2.5729955254
30
0.0000000000
10
-7.2167443432
20
-3.7120661570
30
0.0000000000
10
-6.9902529094
20
-4.2814561067
30
0.0000000000
11
-8.3331177205
21
-0.8612708533
31
0.0000000000
11
-7.6659171497
21
-2.5717756120
31
0.0000000000
11
-6.9902529094
21
-4.2814561067
31
0.0000000000
0
SPLINE
5
343
100
AcDbEntity
8
0
100
AcDbSpline
62
9
6
CONTINUOUS
70
0
71
3
72
9
73
5
74
3
42
0.0000001000
43
0.0000001000
44
0.0000000001
12
-0.9071811785
22
-0.1876697908
32
0.0000000000
13
-0.9072682897
23
-0.1872482082
33
0.0000000000
40
0.0000000000
40
0.0000000000
40
0.0000000000
40
0.0000000000
40
0.4983982242
40
1.0000000000
40
1.0000000000
40
1.0000000000
40
1.0000000000
10
-7.6777458019
20
-0.6046507455
30
0.0000000000
10
-7.8284582981
20
-0.6358288423
30
0.0000000000
10
-8.1308626117
20
-0.6983342535
30
0.0000000000
10
-8.4332761946
20
-0.7607947981
30
0.0000000000
10
-8.5849719897
20
-0.7921028093
30
0.0000000000
11
-7.6777458019
21
-0.6046507455
31
0.0000000000
11
-8.1298961463
21
-0.6981228693
31
0.0000000000
11
-8.5849719897
21
-0.7921028093
31
0.0000000000
0
SPLINE
5
344
100
AcDbEntity
8
0
100
AcDbSpline
62
9
6
CONTINUOUS
70
0
71
3
72
10
73
6
74
4
42
0.0000001000
43
0.0000001000
44
0.0000000001
12
-0.6250696373
22
18.1947302906
32
0.0000000000
13
0.6036215165
23
18.1954544726
33
0.0000000000
40
0.0000000000
40
0.0000000000
40
0.0000000000
40
0.0000000000
40
0.3294376285
40
0.6628020578
40
1.0000000000
40
1.0000000000
40
1.0000000000
40
1.0000000000
10
-8.5625688613
20
-8.2278204886
30
0.0000000000
10
-8.6312093477
20
-6.2298108894
30
0.0000000000
10
-8.7221851285
20
-2.2082061903
30
0.0000000000
10
-8.7213904568
20
3.8607415662
30
0.0000000000
10
-8.6304155058
20
7.9294169784
30
0.0000000000
10
-8.5625688613
20
9.9745735801
30
0.0000000000
11
-8.5625688613
21
-8.2278204886
31
0.0000000000
11
-8.6990407680
21
-2.2318084563
31
0.0000000000
11
-8.6990407681
21
3.8372456883
31
0.0000000000
11
-8.5625688613
21
9.9745735801
31
0.0000000000
0
SPLINE
5
345
100
AcDbEntity
8
0
100
AcDbSpline
62
9
6
CONTINUOUS
70
0
71
3
72
24
73
20
74
18
42
0.0000001000
43
0.0000001000
44
0.0000000001
12
5.2981966667
22
-2.6491134846
32
0.0000000000
13
-1.9002741766
23
-5.6205436150
33
0.0000000000
40
0.0000000000
40
0.0000000000
40
0.0000000000
40
0.0000000000
40
0.0273991514
40
0.0567273504
40
0.0889844154
40
0.1251860037
40
0.1664249644
40
0.2138575004
40
0.2686708060
40
0.3320236211
40
0.4048257894
40
0.4866072351
40
0.5755024717
40
0.6682625323
40
0.7592849275
40
0.8443158809
40
0.9237396844
40
0.9983930455
40
1.0000000000
40
1.0000000000
40
1.0000000000
40
1.0000000000
10
-4.9292559800
20
5.3700531065
30
0.0000000000
10
-4.8808672826
20
5.3458586194
30
0.0000000000
10
-4.7821214646
20
5.2928407501
30
0.0000000000
10
-4.6321096104
20
5.2012038086
30
0.0000000000
10
-4.4731177498
20
5.0914671954
30
0.0000000000
10
-4.3020821190
20
4.9583687372
30
0.0000000000
10
-4.1167459947
20
4.7955184272
30
0.0000000000
10
-3.9159524618
20
4.5953664454
30
0.0000000000
10
-3.7001627129
20
4.3493578791
30
0.0000000000
10
-3.4722831323
20
4.0484974283
30
0.0000000000
10
-3.2396076588
20
3.6859457415
30
0.0000000000
10
-3.0146706113
20
3.2603535102
30
0.0000000000
10
-2.8144876594
20
2.7793837462
30
0.0000000000
10
-2.6581565958
20
2.2631205375
30
0.0000000000
10
-2.5606709351
20
1.7401736994
30
0.0000000000
10
-2.5280707357
20
1.2354558966
30
0.0000000000
10
-2.5607740978
20
0.7628628233
30
0.0000000000
10
-2.6296191277
20
0.4617446697
30
0.0000000000
10
-2.6776221190
20
0.3187720372
30
0.0000000000
10
-2.6786400037
20
0.3157613846
30
0.0000000000
11
-4.9292559800
21
5.3700531065
31
0.0000000000
11
-4.7862057410
21
5.2933838014
31
0.0000000000
11
-4.6378840331
21
5.2029295516
31
0.0000000000
11
-4.4805456582
21
5.0945088063
31
0.0000000000
11
-4.3112047331
21
4.9629439585
31
0.0000000000
11
-4.1275646748
21
4.8018539957
31
0.0000000000
11
-3.9284005540
21
4.6036677612
31
0.0000000000
11
-3.7140823304
21
4.3597587311
31
0.0000000000
11
-3.4872629608
21
4.0607868093
31
0.0000000000
11
-3.2541240666
21
3.6979896521
31
0.0000000000
11
-3.0276675195
21
3.2697399813
31
0.0000000000
11
-2.8255407453
21
2.7835010099
31
0.0000000000
11
-2.6670234545
21
2.2573922700
31
0.0000000000
11
-2.5695594304
21
1.7270968393
31
0.0000000000
11
-2.5389786036
21
1.2243391713
31
0.0000000000
11
-2.5739316097
21
0.7551668394
31
0.0000000000
11
-2.6756054252
21
0.3247994752
31
0.0000000000
11
-2.6786400037
21
0.3157613846
31
0.0000000000
0
SPLINE
5
346
100
AcDbEntity
8
0
100
AcDbSpline
62
9
6
CONTINUOUS
70
0
71
3
72
19
73
15
74
13
42
0.0000001000
43
0.0000001000
44
0.0000000001
12
-0.9195388353
22
-2.7197697012
32
0.0000000000
13
-2.5637900922
23
1.2818938076
33
0.0000000000
40
0.0000000000
40
0.0000000000
40
0.0000000000
40
0.0000000000
40
0.1371818106
40
0.2608116630
40
0.3691581916
40
0.4650593408
40
0.5509374192
40
0.6290010951
40
0.7007743812
40
0.7672831170
40
0.8294257735
40
0.8881744407
40
0.9445000651
40
1.0000000000
40
1.0000000000
40
1.0000000000
40
1.0000000000
10
-2.6786400037
20
0.3157613846
30
0.0000000000
10
-2.7206880045
20
0.1913937406
30
0.0000000000
10
-2.8212883392
20
-0.0383679231
30
0.0000000000
10
-3.0289374230
20
-0.3271320612
30
0.0000000000
10
-3.2667675880
20
-0.5352377743
30
0.0000000000
10
-3.5125213938
20
-0.6679980364
30
0.0000000000
10
-3.7514228447
20
-0.7405761035
30
0.0000000000
10
-3.9757482513
20
-0.7688696978
30
0.0000000000
10
-4.1829863281
20
-0.7658763768
30
0.0000000000
10
-4.3732247522
20
-0.7411030141
30
0.0000000000
10
-4.5479904003
20
-0.7011269272
30
0.0000000000
10
-4.7096362356
20
-0.6501923044
30
0.0000000000
10
-4.8614235622
20
-0.5905444297
30
0.0000000000
10
-4.9583493370
20
-0.5454172729
30
0.0000000000
10
-5.0057793980
20
-0.5217022653
30
0.0000000000
11
-2.6786400037
21
0.3157613846
31
0.0000000000
11
-2.8392706679
21
-0.0431829851
31
0.0000000000
11
-3.0482652421
21
-0.3293674647
31
0.0000000000
11
-3.2827894281
21
-0.5329576695
31
0.0000000000
11
-3.5246719264
21
-0.6635645406
31
0.0000000000
11
-3.7600592993
21
-0.7355933570
31
0.0000000000
11
-3.9819877428
21
-0.7641802445
31
0.0000000000
11
-4.1877041920
21
-0.7617143427
31
0.0000000000
11
-4.3767983098
21
-0.7374786780
31
0.0000000000
11
-4.5505024734
21
-0.6980360762
31
0.0000000000
11
-4.7111783041
21
-0.6476280917
31
0.0000000000
11
-4.8615028850
21
-0.5887276207
31
0.0000000000
11
-5.0057793980
21
-0.5217022653
31
0.0000000000
0
SPLINE
5
347
100
AcDbEntity
8
0
100
AcDbSpline
62
9
6
CONTINUOUS
70
0
71
3
72
8
73
4
74
2
42
0.0000001000
43
0.0000001000
44
0.0000000001
12
-0.0378508663
22
0.0957201300
32
0.0000000000
13
-0.0378273042
23
0.0957294597
33
0.0000000000
40
0.0000000000
40
0.0000000000
40
0.0000000000
40
0.0000000000
40
1.0000000000
40
1.0000000000
40
1.0000000000
40
1.0000000000
10
-6.2327696441
20
-4.3102408954
30
0.0000000000
10
-6.2453865995
20
-4.2783341854
30
0.0000000000
10
-6.2579996281
20
-4.2464259199
30
0.0000000000
10
-6.2706087295
20
-4.2145161000
30
0.0000000000
11
-6.2327696441
21
-4.3102408954
31
0.0000000000
11
-6.2706087295
21
-4.2145161000
31
0.0000000000
0
SPLINE
5
348
100
AcDbEntity
8
0
100
AcDbSpline
62
9
6
CONTINUOUS
70
0
71
3
72
9
73
5
74
3
42
0.0000001000
43
0.0000001000
44
0.0000000001
12
-1.3793179165
22
3.4906362340
32
0.0000000000
13
-1.3479606904
23
3.5028648138
33
0.0000000000
40
0.0000000000
40
0.0000000000
40
0.0000000000
40
0.0000000000
40
0.5022786068
40
1.0000000000
40
1.0000000000
40
1.0000000000
40
1.0000000000
10
-6.2706087295
20
-4.2145161000
30
0.0000000000
10
-6.5015426900
20
-3.6300921319
30
0.0000000000
10
-6.9586926430
20
-2.4655086574
30
0.0000000000
10
-7.4106114957
20
-1.2988853706
30
0.0000000000
10
-7.6342477867
20
-0.7177351188
30
0.0000000000
11
-6.2706087295
21
-4.2145161000
31
0.0000000000
11
-6.9594562511
21
-2.4596867902
31
0.0000000000
11
-7.6342477867
21
-0.7177351188
31
0.0000000000
0
SPLINE
5
349
100
AcDbEntity
8
0
100
AcDbSpline
62
9
6
CONTINUOUS
70
0
71
3
72
8
73
4
74
2
42
0.0000001000
43
0.0000001000
44
0.0000000001
12
-0.0149189358
22
0.0387689460
32
0.0000000000
13
-0.0149150985
23
0.0387704199
33
0.0000000000
40
0.0000000000
40
0.0000000000
40
0.0000000000
40
0.0000000000
40
1.0000000000
40
1.0000000000
40
1.0000000000
40
1.0000000000
10
-7.6342477867
20
-0.7177351188
30
0.0000000000
10
-7.6392207653
20
-0.7048121368
30
0.0000000000
10
-7.6441931043
20
-0.6918889091
30
0.0000000000
10
-7.6491648039
20
-0.6789654358
30
0.0000000000
11
-7.6342477867
21
-0.7177351188
31
0.0000000000
11
-7.6491648039
21
-0.6789654358
31
0.0000000000
0
SPLINE
5
34A
100
AcDbEntity
8
0
100
AcDbSpline
62
9
6
CONTINUOUS
70
0
71
3
72
8
73
4
74
2
42
0.0000001000
43
0.0000001000
44
0.0000000001
12
-0.0285880464
22
0.0743119840
32
0.0000000000
13
-0.0285739500
23
0.0743173959
33
0.0000000000
40
0.0000000000
40
0.0000000000
40
0.0000000000
40
0.0000000000
40
1.0000000000
40
1.0000000000
40
1.0000000000
40
1.0000000000
10
-7.6491648039
20
-0.6789654358
30
0.0000000000
10
-7.6586941527
20
-0.6541947744
30
0.0000000000
10
-7.6682211520
20
-0.6294232108
30
0.0000000000
10
-7.6777458019
20
-0.6046507455
30
0.0000000000
11
-7.6491648039
21
-0.6789654358
31
0.0000000000
11
-7.6777458019
21
-0.6046507455
31
0.0000000000
0
SPLINE
5
34B
100
AcDbEntity
8
0
100
AcDbSpline
62
7
6
CONTINUOUS
70
0
71
3
72
10
73
6
74
4
42
0.0000001000
43
0.0000001000
44
0.0000000001
12
0.4125098429
22
-0.2062549215
32
0.0000000000
13
0.4039260357
23
-0.2225965426
33
0.0000000000
40
0.0000000000
40
0.0000000000
40
0.0000000000
40
0.0000000000
40
0.3383456314
40
0.6717668012
40
1.0000000000
40
1.0000000000
40
1.0000000000
40
1.0000000000
10
-4.7711708701
20
0.9149976292
30
0.0000000000
10
-4.7246472356
20
0.8917358120
30
0.0000000000
10
-4.6325751226
20
0.8449515569
30
0.0000000000
10
-4.4964509620
20
0.7734993675
30
0.0000000000
10
-4.4070262108
20
0.7250164626
30
0.0000000000
10
-4.3628322326
20
0.7006619375
30
0.0000000000
11
-4.7711708701
21
0.9149976292
31
0.0000000000
11
-4.6320595947
21
0.8443003918
31
0.0000000000
11
-4.4959078808
21
0.7728223651
31
0.0000000000
11
-4.3628322326
21
0.7006619375
31
0.0000000000
0
SPLINE
5
34C
100
AcDbEntity
8
0
100
AcDbSpline
62
7
6
CONTINUOUS
70
0
71
3
72
10
73
6
74
4
42
0.0000001000
43
0.0000001000
44
0.0000000001
12
0.4322075263
22
-0.1960524292
32
0.0000000000
13
0.4244901891
23
-0.2122450946
33
0.0000000000
40
0.0000000000
40
0.0000000000
40
0.0000000000
40
0.0000000000
40
0.3348396340
40
0.6682444483
40
1.0000000000
40
1.0000000000
40
1.0000000000
40
1.0000000000
10
-5.1996272315
20
1.1190594370
30
0.0000000000
10
-5.1513871615
20
1.0971773957
30
0.0000000000
10
-5.0553777117
20
1.0529221057
30
0.0000000000
10
-4.9125400216
20
0.9849129869
30
0.0000000000
10
-4.8181131957
20
0.9384687920
30
0.0000000000
10
-4.7711708701
20
0.9149976292
30
0.0000000000
11
-5.1996272315
21
1.1190594370
31
0.0000000000
11
-5.0553119051
21
1.0525279461
31
0.0000000000
11
-4.9124509547
21
0.9844975174
31
0.0000000000
11
-4.7711708701
21
0.9149976292
31
0.0000000000
0
SPLINE
5
34D
100
AcDbEntity
8
0
100
AcDbSpline
62
9
6
CONTINUOUS
70
0
71
3
72
9
73
5
74
3
42
0.0000001000
43
0.0000001000
44
0.0000000001
12
0.8995630255
22
0.1833292156
32
0.0000000000
13
0.8994686644
23
0.1837916210
33
0.0000000000
40
0.0000000000
40
0.0000000000
40
0.0000000000
40
0.0000000000
40
0.4997679578
40
1.0000000000
40
1.0000000000
40
1.0000000000
40
1.0000000000
10
-7.1322854775
20
-4.4938014914
30
0.0000000000
10
-6.9824278855
20
-4.4632608021
30
0.0000000000
10
-6.6825838697
20
-4.4021004012
30
0.0000000000
10
-6.3827506597
20
-4.3408870480
30
0.0000000000
10
-6.2327696441
20
-4.3102408954
30
0.0000000000
11
-7.1322854775
21
-4.4938014914
31
0.0000000000
11
-6.6827257216
21
-4.4021155590
31
0.0000000000
11
-6.2327696441
21
-4.3102408954
31
0.0000000000
0
SPLINE
5
34E
100
AcDbEntity
8
0
100
AcDbSpline
62
9
6
CONTINUOUS
70
0
71
3
72
9
73
5
74
3
42
0.0000001000
43
0.0000001000
44
0.0000000001
12
0.6587939866
22
0.1340150508
32
0.0000000000
13
0.6587434260
23
0.1342633607
33
0.0000000000
40
0.0000000000
40
0.0000000000
40
0.0000000000
40
0.0000000000
40
0.5446593050
40
1.0000000000
40
1.0000000000
40
1.0000000000
40
1.0000000000
10
-6.9894531465
20
-4.2810471321
30
0.0000000000
10
-6.8698470548
20
-4.2567162839
30
0.0000000000
10
-6.6502536467
20
-4.2120220464
30
0.0000000000
10
-6.4306686747
20
-4.1672863819
30
0.0000000000
10
-6.3306844449
20
-4.1469078579
30
0.0000000000
11
-6.9894531465
21
-4.2810471321
31
0.0000000000
11
-6.6306423713
21
-4.2080177298
31
0.0000000000
11
-6.3306844449
21
-4.1469078579
31
0.0000000000
0
SPLINE
5
34F
100
AcDbEntity
8
0
100
AcDbSpline
62
9
6
CONTINUOUS
70
0
71
3
72
9
73
5
74
3
42
0.0000001000
43
0.0000001000
44
0.0000000001
12
-0.0172552178
22
0.0335487035
32
0.0000000000
13
-0.0249787188
23
0.0283269142
33
0.0000000000
40
0.0000000000
40
0.0000000000
40
0.0000000000
40
0.0000000000
40
0.2948484632
40
1.0000000000
40
1.0000000000
40
1.0000000000
40
1.0000000000
10
0.3302667752
20
10.5751498454
30
0.0000000000
10
0.3285708837
20
10.5784471067
30
0.0000000000
10
0.3224242567
20
10.5894258584
30
0.0000000000
10
0.3150138703
20
10.5996426202
30
0.0000000000
10
0.3091426097
20
10.6063008759
30
0.0000000000
11
0.3302667752
21
10.5751498454
31
0.0000000000
11
0.3248363709
21
10.5848549987
31
0.0000000000
11
0.3091426097
21
10.6063008759
31
0.0000000000
0
SPLINE
5
350
100
AcDbEntity
8
0
100
AcDbSpline
62
9
6
CONTINUOUS
70
0
71
3
72
9
73
5
74
3
42
0.0000001000
43
0.0000001000
44
0.0000000001
12
-0.0155898680
22
0.0176795639
32
0.0000000000
13
-0.0186211210
23
0.0145893297
33
0.0000000000
40
0.0000000000
40
0.0000000000
40
0.0000000000
40
0.0000000000
40
0.4936066863
40
1.0000000000
40
1.0000000000
40
1.0000000000
40
1.0000000000
10
0.3091426097
20
10.6063008759
30
0.0000000000
10
0.3065775220
20
10.6092097929
30
0.0000000000
10
0.3011311703
20
10.6148918068
30
0.0000000000
10
0.2951729276
20
10.6200887708
30
0.0000000000
10
0.2920297238
20
10.6225514172
30
0.0000000000
11
0.3091426097
21
10.6063008759
31
0.0000000000
11
0.3010760897
21
10.6147009718
31
0.0000000000
11
0.2920297238
21
10.6225514172
31
0.0000000000
0
SPLINE
5
351
100
AcDbEntity
8
0
100
AcDbSpline
62
9
6
CONTINUOUS
70
0
71
3
72
8
73
4
74
2
42
0.0000001000
43
0.0000001000
44
0.0000000001
12
-0.0090195986
22
0.0070667012
32
0.0000000000
13
-0.0096973720
23
0.0060213271
33
0.0000000000
40
0.0000000000
40
0.0000000000
40
0.0000000000
40
0.0000000000
40
1.0000000000
40
1.0000000000
40
1.0000000000
40
1.0000000000
10
0.2920297238
20
10.6225514172
30
0.0000000000
10
0.2890231910
20
10.6249069842
30
0.0000000000
10
0.2859013869
20
10.6271078722
30
0.0000000000
10
0.2826689295
20
10.6291149813
30
0.0000000000
11
0.2920297238
21
10.6225514172
31
0.0000000000
11
0.2826689295
21
10.6291149813
31
0.0000000000
0
SPLINE
5
352
100
AcDbEntity
8
0
100
AcDbSpline
62
9
6
CONTINUOUS
70
0
71
3
72
8
73
4
74
2
42
0.0000001000
43
0.0000001000
44
0.0000000001
12
-0.0092194283
22
0.0057245606
32
0.0000000000
13
-0.0098076115
23
0.0045728728
33
0.0000000000
40
0.0000000000
40
0.0000000000
40
0.0000000000
40
0.0000000000
40
1.0000000000
40
1.0000000000
40
1.0000000000
40
1.0000000000
10
0.2826689295
20
10.6291149813
30
0.0000000000
10
0.2795957868
20
10.6310231681
30
0.0000000000
10
0.2764226293
20
10.6327562065
30
0.0000000000
10
0.2731534254
20
10.6342804974
30
0.0000000000
11
0.2826689295
21
10.6291149813
31
0.0000000000
11
0.2731534254
21
10.6342804974
31
0.0000000000
0
SPLINE
5
353
100
AcDbEntity
8
0
100
AcDbSpline
62
9
6
CONTINUOUS
70
0
71
3
72
35
73
31
74
29
42
0.0000001000
43
0.0000001000
44
0.0000000001
12
-7.8924496567
22
3.9462471256
32
0.0000000000
13
7.8924600000
23
-3.9462264391
33
0.0000000000
40
0.0000000000
40
0.0000000000
40
0.0000000000
40
0.0000000000
40
0.0184426184
40
0.0382071322
40
0.0599668220
40
0.0844060012
40
0.1122601232
40
0.1443050556
40
0.1813335568
40
0.2241129733
40
0.2732296401
40
0.3283143000
40
0.3880837549
40
0.4503136377
40
0.5112612490
40
0.5682052348
40
0.6215113564
40
0.6717556877
40
0.7176529011
40
0.7581874539
40
0.7938226976
40
0.8253902034
40
0.8536247488
40
0.8792285811
40
0.9027039274
40
0.9244010248
40
0.9446299672
40
0.9637217574
40
0.9820033094
40
1.0000000000
40
1.0000000000
40
1.0000000000
40
1.0000000000
10
-5.0057793980
20
-0.5217022653
30
0.0000000000
10
-5.0542985437
20
-0.4974425554
30
0.0000000000
10
-5.1533977263
20
-0.4443040864
30
0.0000000000
10
-5.3041431464
20
-0.3525677098
30
0.0000000000
10
-5.4642207749
20
-0.2427600066
30
0.0000000000
10
-5.6367598838
20
-0.1096256317
30
0.0000000000
10
-5.8240961549
20
0.0532120719
30
0.0000000000
10
-6.0274694197
20
0.2532848880
30
0.0000000000
10
-6.2464852242
20
0.4991288483
30
0.0000000000
10
-6.4782412445
20
0.7997147838
30
0.0000000000
10
-6.7152855898
20
1.1618184273
30
0.0000000000
10
-6.9447446982
20
1.5867512855
30
0.0000000000
10
-7.1490257911
20
2.0667870258
30
0.0000000000
10
-7.3083646602
20
2.5818667883
30
0.0000000000
10
-7.4072828820
20
3.1036154025
30
0.0000000000
10
-7.4395547719
20
3.6075382404
30
0.0000000000
10
-7.4046864011
20
4.0800155345
30
0.0000000000
10
-7.3025302443
20
4.5098398337
30
0.0000000000
10
-7.1369302554
20
4.8792008447
30
0.0000000000
10
-6.9221617825
20
5.1706229971
30
0.0000000000
10
-6.6797984284
20
5.3789267975
30
0.0000000000
10
-6.4304203724
20
5.5122225405
30
0.0000000000
10
-6.1887154844
20
5.5855554725
30
0.0000000000
10
-5.9622964517
20
5.6146315334
30
0.0000000000
10
-5.7535847708
20
5.6123411366
30
0.0000000000
10
-5.5623918927
20
5.5881594768
30
0.0000000000
10
-5.3870828432
20
5.5486640881
30
0.0000000000
10
-5.2252065964
20
5.4981068470
30
0.0000000000
10
-5.0734292332
20
5.4387418863
30
0.0000000000
10
-4.9766020337
20
5.3937261119
30
0.0000000000
10
-4.9292559800
20
5.3700531065
30
0.0000000000
11
-5.0057793980
21
-0.5217022653
31
0.0000000000
11
-5.1492575973
21
-0.4449052892
31
0.0000000000
11
-5.2983087407
21
-0.3543509226
31
0.0000000000
11
-5.4567259530
21
-0.2458558681
31
0.0000000000
11
-5.6275618369
21
-0.1142466708
31
0.0000000000
11
-5.8131934811
21
0.0468481861
31
0.0000000000
11
-6.0149296975
21
0.2449868273
31
0.0000000000
11
-6.2324677739
21
0.4887834160
31
0.0000000000
11
-6.4631680942
21
0.7875708183
31
0.0000000000
11
-6.7007208207
21
1.1500767840
31
0.0000000000
11
-6.9316948853
21
1.5777613943
31
0.0000000000
11
-7.1379116117
21
2.0631825838
31
0.0000000000
11
-7.2993650195
21
2.5880294543
31
0.0000000000
11
-7.3981173764
21
3.1166891615
31
0.0000000000
11
-7.4283064627
21
3.6182572856
31
0.0000000000
11
-7.3912253467
21
4.0871685846
31
0.0000000000
11
-7.2856927465
21
4.5177833085
31
0.0000000000
11
-7.1170813209
21
4.8860144042
31
0.0000000000
11
-6.9029689026
21
5.1725274120
31
0.0000000000
11
-6.6637803769
21
5.3766488978
31
0.0000000000
11
-6.4180942217
21
5.5079119779
31
0.0000000000
11
-6.1798118480
21
5.5806689804
31
0.0000000000
11
-5.9557916274
21
5.6099764322
31
0.0000000000
11
-5.7486522011
21
5.6081676286
31
0.0000000000
11
-5.5586646854
21
5.5845003653
31
0.0000000000
11
-5.3844696794
21
5.5455300717
31
0.0000000000
11
-5.2236034927
21
5.4954992194
31
0.0000000000
11
-5.0733128937
21
5.4368823328
31
0.0000000000
11
-4.9292559800
21
5.3700531065
31
0.0000000000
0
SPLINE
5
354
100
AcDbEntity
8
0
100
AcDbSpline
62
9
6
CONTINUOUS
70
0
71
3
72
13
73
9
74
7
42
0.0000001000
43
0.0000001000
44
0.0000000001
12
0.0231976191
22
0.6952942420
32
0.0000000000
13
0.6034890424
23
0.3460826320
33
0.0000000000
40
0.0000000000
40
0.0000000000
40
0.0000000000
40
0.0000000000
40
0.1622833922
40
0.3347675040
40
0.5110694984
40
0.6847397854
40
0.8494140126
40
1.0000000000
40
1.0000000000
40
1.0000000000
40
1.0000000000
10
-8.5625688613
20
9.9745735801
30
0.0000000000
10
-8.5613139986
20
10.0121851495
30
0.0000000000
10
-8.5510053543
20
10.0896145293
30
0.0000000000
10
-8.5165414458
20
10.2034552127
30
0.0000000000
10
-8.4644389076
20
10.3133269698
30
0.0000000000
10
-8.3977004670
20
10.4128329317
30
0.0000000000
10
-8.3201912321
20
10.4962383025
30
0.0000000000
10
-8.2610453038
20
10.5402481026
30
0.0000000000
10
-8.2307529727
20
10.5576198342
30
0.0000000000
11
-8.5625688613
21
9.9745735801
31
0.0000000000
11
-8.5484369165
21
10.0865830959
31
0.0000000000
11
-8.5140445264
21
10.2015426928
31
0.0000000000
11
-8.4615162943
21
10.3123749961
31
0.0000000000
11
-8.3939620790
21
10.4125433159
31
0.0000000000
11
-8.3154563378
21
10.4959760073
31
0.0000000000
11
-8.2307529727
21
10.5576198342
31
0.0000000000
0
SPLINE
5
355
100
AcDbEntity
8
0
100
AcDbSpline
62
7
6
CONTINUOUS
70
0
71
3
72
13
73
9
74
7
42
0.0000001000
43
0.0000001000
44
0.0000000001
12
-0.2410249857
22
-0.0503167097
32
0.0000000000
13
-0.1883066688
23
0.1554852960
33
0.0000000000
40
0.0000000000
40
0.0000000000
40
0.0000000000
40
0.0000000000
40
0.0706984071
40
0.2587498165
40
0.4518425054
40
0.6437272275
40
0.8286512601
40
1.0000000000
40
1.0000000000
40
1.0000000000
40
1.0000000000
10
-8.3592058815
20
-0.8665859573
30
0.0000000000
10
-8.3648859090
20
-0.8677717277
30
0.0000000000
10
-8.3860180572
20
-0.8707021636
30
0.0000000000
10
-8.4229405154
20
-0.8683500501
30
0.0000000000
10
-8.4684391289
20
-0.8571909708
30
0.0000000000
10
-8.5115793525
20
-0.8397742702
30
0.0000000000
10
-8.5506616334
20
-0.8180324032
30
0.0000000000
10
-8.5742227384
20
-0.8009819192
30
0.0000000000
10
-8.5849781085
20
-0.7921011827
30
0.0000000000
11
-8.3592058815
21
-0.8665859573
31
0.0000000000
11
-8.3764346863
21
-0.8690537697
31
0.0000000000
11
-8.4223137650
21
-0.8670524556
31
0.0000000000
11
-8.4681764547
21
-0.8560936746
31
0.0000000000
11
-8.5116763013
21
-0.8386720836
31
0.0000000000
11
-8.5511337231
21
-0.8167074175
31
0.0000000000
11
-8.5849781085
21
-0.7921011827
31
0.0000000000
0
SPLINE
5
356
100
AcDbEntity
8
0
100
AcDbSpline
62
7
6
CONTINUOUS
70
0
71
3
72
10
73
6
74
4
42
0.0000001000
43
0.0000001000
44
0.0000000001
12
0.0400024450
22
-0.1011831513
32
0.0000000000
13
0.0837914478
23
-0.0688752970
33
0.0000000000
40
0.0000000000
40
0.0000000000
40
0.0000000000
40
0.0000000000
40
0.2829242705
40
0.6344031511
40
1.0000000000
40
1.0000000000
40
1.0000000000
40
1.0000000000
10
-6.2994777974
20
-4.2259220868
30
0.0000000000
10
-6.2957052432
20
-4.2354644765
30
0.0000000000
10
-6.2847386610
20
-4.2557812352
30
0.0000000000
10
-6.2620383705
20
-4.2841332076
30
0.0000000000
10
-6.2429832603
20
-4.3018415369
30
0.0000000000
10
-6.2327719638
20
-4.3102350674
30
0.0000000000
11
-6.2994777974
21
-4.2259220868
31
0.0000000000
11
-6.2852406339
21
-4.2531223283
31
0.0000000000
11
-6.2616916025
21
-4.2831029488
31
0.0000000000
11
-6.2327719638
21
-4.3102350674
31
0.0000000000
0
SPLINE
5
357
100
AcDbEntity
8
0
100
AcDbSpline
62
7
6
CONTINUOUS
70
0
71
3
72
10
73
6
74
4
42
0.0000001000
43
0.0000001000
44
0.0000000001
12
-0.0318991632
22
0.0816443348
32
0.0000000000
13
0.0204458612
23
0.0843823527
33
0.0000000000
40
0.0000000000
40
0.0000000000
40
0.0000000000
40
0.0000000000
40
0.2682255077
40
0.6158142157
40
1.0000000000
40
1.0000000000
40
1.0000000000
40
1.0000000000
10
-7.6788051757
20
-0.6904183223
30
0.0000000000
10
-7.6816572321
20
-0.6831186246
30
0.0000000000
10
-7.6849960314
20
-0.6654441976
30
0.0000000000
10
-7.6842216488
20
-0.6363421860
30
0.0000000000
10
-7.6803709149
20
-0.6154479749
30
0.0000000000
10
-7.6777525785
20
-0.6046418081
30
0.0000000000
11
-7.6788051757
21
-0.6904183223
31
0.0000000000
11
-7.6838418537
21
-0.6676751330
31
0.0000000000
11
-7.6835090406
21
-0.6374979107
31
0.0000000000
11
-7.6777525785
21
-0.6046418081
31
0.0000000000
0
SPLINE
5
358
100
AcDbEntity
8
0
100
AcDbSpline
62
9
6
CONTINUOUS
70
0
71
3
72
35
73
31
74
29
42
0.0000001000
43
0.0000001000
44
0.0000000001
12
-7.5808559657
22
3.7904494391
32
0.0000000000
13
7.5808655952
23
-3.7904301801
33
0.0000000000
40
0.0000000000
40
0.0000000000
40
0.0000000000
40
0.0000000000
40
0.0184621504
40
0.0382457874
40
0.0600249686
40
0.0844840205
40
0.1123581681
40
0.1444226869
40
0.1814692330
40
0.2242633913
40
0.2733883582
40
0.3284698099
40
0.3882193954
40
0.4504107670
40
0.5113087129
40
0.5681986093
40
0.6214476628
40
0.6716384913
40
0.7174960136
40
0.7580081813
40
0.7936379790
40
0.8252143253
40
0.8534669503
40
0.8790937731
40
0.9025939453
40
0.9243157000
40
0.9445681372
40
0.9636819521
40
0.9819840067
40
1.0000000000
40
1.0000000000
40
1.0000000000
40
1.0000000000
10
-4.9921587042
20
-0.3969331701
30
0.0000000000
10
-5.0388116718
20
-0.3736065543
30
0.0000000000
10
-5.1340974282
20
-0.3225199142
30
0.0000000000
10
-5.2790455867
20
-0.2343430129
30
0.0000000000
10
-5.4329662095
20
-0.1288162295
30
0.0000000000
10
-5.5988698102
20
-0.0008922703
30
0.0000000000
10
-5.7790026551
20
0.1555507694
30
0.0000000000
10
-5.9745573084
20
0.3477425298
30
0.0000000000
10
-6.1851547342
20
0.5838749024
30
0.0000000000
10
-6.4080031149
20
0.8725533215
30
0.0000000000
10
-6.6359335071
20
1.2202678627
30
0.0000000000
10
-6.8565629266
20
1.6282532382
30
0.0000000000
10
-7.0529756939
20
2.0890649518
30
0.0000000000
10
-7.2061808499
20
2.5834424796
30
0.0000000000
10
-7.3013068463
20
3.0841640905
30
0.0000000000
10
-7.3323672612
20
3.5677360339
30
0.0000000000
10
-7.2988807284
20
4.0210985242
30
0.0000000000
10
-7.2006921628
20
4.4335085308
30
0.0000000000
10
-7.0414754537
20
4.7878700067
30
0.0000000000
10
-6.8349510587
20
5.0673866804
30
0.0000000000
10
-6.6018886666
20
5.2670785582
30
0.0000000000
10
-6.3620981674
20
5.3947566222
30
0.0000000000
10
-6.1296994595
20
5.4648928890
30
0.0000000000
10
-5.9120025083
20
5.4925753954
30
0.0000000000
10
-5.7113298528
20
5.4901771472
30
0.0000000000
10
-5.5274989111
20
5.4667894830
30
0.0000000000
10
-5.3589382079
20
5.4287219209
30
0.0000000000
10
-5.2032918538
20
5.3800521254
30
0.0000000000
10
-5.0573550731
20
5.3229398321
30
0.0000000000
10
-4.9642512629
20
5.2796487152
30
0.0000000000
10
-4.9187256550
20
5.2568859270
30
0.0000000000
11
-4.9921587042
21
-0.3969331701
31
0.0000000000
11
-5.1301223339
21
-0.3230974716
31
0.0000000000
11
-5.2734410098
21
-0.2360563317
31
0.0000000000
11
-5.4257663108
21
-0.1317894228
31
0.0000000000
11
-5.5900337300
21
-0.0053288058
31
0.0000000000
11
-5.7685294273
21
0.1494428121
31
0.0000000000
11
-5.9625123473
21
0.3397807335
31
0.0000000000
11
-6.1716916058
21
0.5739523018
31
0.0000000000
11
-6.3935287652
21
0.8609122867
31
0.0000000000
11
-6.6219530603
21
1.2090266224
31
0.0000000000
11
-6.8440424738
21
1.6196687776
31
0.0000000000
11
-7.0423145791
21
2.0856588847
31
0.0000000000
11
-7.1975429957
21
2.5893973553
31
0.0000000000
11
-7.2925018808
21
3.0967376670
31
0.0000000000
11
-7.3215546471
21
3.5780412735
31
0.0000000000
11
-7.2859393306
21
4.0279549124
31
0.0000000000
11
-7.1845124830
21
4.4410871839
31
0.0000000000
11
-7.0224138271
21
4.7943444504
31
0.0000000000
11
-6.8165380049
21
5.0691469381
31
0.0000000000
11
-6.5865383611
21
5.2648401409
31
0.0000000000
11
-6.3502903404
21
5.3905897426
31
0.0000000000
11
-6.1211682736
21
5.4601889993
31
0.0000000000
11
-5.9057648548
21
5.4881012652
31
0.0000000000
11
-5.7065946675
21
5.4861681023
31
0.0000000000
11
-5.5239172580
21
5.4632750095
31
0.0000000000
11
-5.3564248391
21
5.4257118227
31
0.0000000000
11
-5.2017479876
21
5.3775474208
31
0.0000000000
11
-5.0572397770
21
5.3211538622
31
0.0000000000
11
-4.9187256550
21
5.2568859270
31
0.0000000000
0
SPLINE
5
359
100
AcDbEntity
8
0
100
AcDbSpline
62
9
6
CONTINUOUS
70
0
71
3
72
24
73
20
74
18
42
0.0000001000
43
0.0000001000
44
0.0000000001
12
5.1390617795
22
-2.5695429592
32
0.0000000000
13
-1.9924509725
23
-5.4003042322
33
0.0000000000
40
0.0000000000
40
0.0000000000
40
0.0000000000
40
0.0000000000
40
0.0271611312
40
0.0562319433
40
0.0882036405
40
0.1240820132
40
0.1649489200
40
0.2119484249
40
0.2662545289
40
0.3290121003
40
0.4011175545
40
0.4820980098
40
0.5700985737
40
0.6618987665
40
0.7519614697
40
0.8360846637
40
0.9146510673
40
0.9884984801
40
1.0000000000
40
1.0000000000
40
1.0000000000
40
1.0000000000
10
-4.9187256550
20
5.2568859270
30
0.0000000000
10
-4.8721980779
20
5.2336220292
30
0.0000000000
10
-4.7772519177
20
5.1826513029
30
0.0000000000
10
-4.6330084162
20
5.0945703022
30
0.0000000000
10
-4.4801306325
20
4.9891121432
30
0.0000000000
10
-4.3156707847
20
4.8612232248
30
0.0000000000
10
-4.1374584366
20
4.7047686790
30
0.0000000000
10
-3.9443804981
20
4.5125015967
30
0.0000000000
10
-3.7368799881
20
4.2762118477
30
0.0000000000
10
-3.5177523754
20
3.9872703595
30
0.0000000000
10
-3.2940146888
20
3.6391256399
30
0.0000000000
10
-3.0777240702
20
3.2305063944
30
0.0000000000
10
-2.8852424261
20
2.7687966022
30
0.0000000000
10
-2.7349218457
20
2.2732818926
30
0.0000000000
10
-2.6411686992
20
1.7714096543
30
0.0000000000
10
-2.6097915443
20
1.2870746212
30
0.0000000000
10
-2.6411985809
20
0.8336011669
30
0.0000000000
10
-2.7116266489
20
0.5261058087
30
0.0000000000
10
-2.7658710024
20
0.3715784479
30
0.0000000000
10
-2.7735097406
20
0.3508745457
30
0.0000000000
11
-4.9187256550
21
5.2568859270
31
0.0000000000
11
-4.7811733612
21
5.1831730664
31
0.0000000000
11
-4.6385553599
21
5.0962283980
31
0.0000000000
11
-4.4872662241
21
4.9920332307
31
0.0000000000
11
-4.3244343904
21
4.8656156876
31
0.0000000000
11
-4.1478509873
21
4.7108493340
31
0.0000000000
11
-3.9563375176
21
4.5204663448
31
0.0000000000
11
-3.7502493431
21
4.2861874598
31
0.0000000000
11
-3.5321375485
21
3.9990508631
31
0.0000000000
11
-3.3079494916
21
3.6506570817
31
0.0000000000
11
-3.0901947137
21
3.2394717195
31
0.0000000000
11
-2.8958457577
21
2.7726948845
31
0.0000000000
11
-2.7434326186
21
2.2677436757
31
0.0000000000
11
-2.6497078798
21
1.7588333616
31
0.0000000000
11
-2.6202773019
21
1.2763876774
31
0.0000000000
11
-2.6538487562
21
0.8262226060
31
0.0000000000
11
-2.7515703228
21
0.4133276630
31
0.0000000000
11
-2.7735097406
21
0.3508745457
31
0.0000000000
0
SPLINE
5
35A
100
AcDbEntity
8
0
100
AcDbSpline
62
9
6
CONTINUOUS
70
0
71
3
72
19
73
15
74
13
42
0.0000001000
43
0.0000001000
44
0.0000000001
12
-0.9353592165
22
-2.5351812442
32
0.0000000000
13
-2.4125432689
23
1.2062705465
33
0.0000000000
40
0.0000000000
40
0.0000000000
40
0.0000000000
40
0.0000000000
40
0.1187906186
40
0.2449129806
40
0.3554889732
40
0.4534073260
40
0.5411243734
40
0.6208804657
40
0.6942213015
40
0.7621876103
40
0.8256933937
40
0.8857299681
40
0.9432883326
40
1.0000000000
40
1.0000000000
40
1.0000000000
40
1.0000000000
10
-2.7735097406
20
0.3508745457
30
0.0000000000
10
-2.8105470406
20
0.2504892963
30
0.0000000000
10
-2.9028458745
20
0.0493402834
30
0.0000000000
10
-3.0913388764
20
-0.2121019499
30
0.0000000000
10
-3.3200520553
20
-0.4116041789
30
0.0000000000
10
-3.5563657588
20
-0.5387673764
30
0.0000000000
10
-3.7860750168
20
-0.6081783125
30
0.0000000000
10
-4.0017637984
20
-0.6351093889
30
0.0000000000
10
-4.2010234514
20
-0.6320362060
30
0.0000000000
10
-4.3839396318
20
-0.6080803210
30
0.0000000000
10
-4.5519799623
20
-0.5695510962
30
0.0000000000
10
-4.7074061489
20
-0.5205187052
30
0.0000000000
10
-4.8533533466
20
-0.4631346437
30
0.0000000000
10
-4.9465522538
20
-0.4197363748
30
0.0000000000
10
-4.9921587042
20
-0.3969331701
30
0.0000000000
11
-2.7735097406
21
0.3508745457
31
0.0000000000
11
-2.9089196820
21
0.0603091559
31
0.0000000000
11
-3.1098824698
21
-0.2141785658
31
0.0000000000
11
-3.3354055133
21
-0.4093623088
31
0.0000000000
11
-3.5680040806
21
-0.5344821873
31
0.0000000000
11
-3.7943492811
21
-0.6033823372
31
0.0000000000
11
-4.0077467153
21
-0.6306026432
31
0.0000000000
11
-4.2055526898
21
-0.6280383857
31
0.0000000000
11
-4.3873739759
21
-0.6045993212
31
0.0000000000
11
-4.5543964520
21
-0.5665824232
31
0.0000000000
11
-4.7088915305
21
-0.5180556780
31
0.0000000000
11
-4.8534331742
21
-0.4613896478
31
0.0000000000
11
-4.9921587042
21
-0.3969331701
31
0.0000000000
0
SPLINE
5
35B
100
AcDbEntity
8
0
100
AcDbSpline
62
7
6
CONTINUOUS
70
0
71
3
72
10
73
6
74
4
42
0.0000001000
43
0.0000001000
44
0.0000000001
12
-0.5408507345
22
0.8261993855
32
0.0000000000
13
-0.5777915758
23
0.8008007471
33
0.0000000000
40
0.0000000000
40
0.0000000000
40
0.0000000000
40
0.0000000000
40
0.3344110924
40
0.6677815624
40
1.0000000000
40
1.0000000000
40
1.0000000000
40
1.0000000000
10
2.1362443551
20
9.4056558931
30
0.0000000000
10
2.0759555268
20
9.4977526395
30
0.0000000000
10
1.9541871382
20
9.6807617636
30
0.0000000000
10
1.7677302659
20
9.9520337431
30
0.0000000000
10
1.6408987192
20
10.1306869441
30
0.0000000000
10
1.5769143810
20
10.2193672018
30
0.0000000000
11
2.1362443551
21
9.4056558931
31
0.0000000000
11
1.9533092252
21
9.6805808280
31
0.0000000000
11
1.7668311185
21
9.9518690045
31
0.0000000000
11
1.5769143810
21
10.2193672018
31
0.0000000000
0
SPLINE
5
35C
100
AcDbEntity
8
0
100
AcDbSpline
62
7
6
CONTINUOUS
70
0
71
3
72
9
73
5
74
3
42
0.0000001000
43
0.0000001000
44
0.0000000001
12
-0.0854838774
22
0.1138992572
32
0.0000000000
13
-0.0862532510
23
0.1133177425
33
0.0000000000
40
0.0000000000
40
0.0000000000
40
0.0000000000
40
0.0000000000
40
0.5002413471
40
1.0000000000
40
1.0000000000
40
1.0000000000
40
1.0000000000
10
1.3399561015
20
10.5413726483
30
0.0000000000
10
1.3257019115
20
10.5603650210
30
0.0000000000
10
1.2971431400
20
10.5982833399
30
0.0000000000
10
1.2684561401
20
10.6361047416
30
0.0000000000
10
1.2540875373
20
10.6549819157
30
0.0000000000
11
1.3399561015
21
10.5413726483
31
0.0000000000
11
1.2970972668
21
10.5982773901
31
0.0000000000
11
1.2540875373
21
10.6549819157
31
0.0000000000
0
SPLINE
5
35D
100
AcDbEntity
8
0
100
AcDbSpline
62
7
6
CONTINUOUS
70
0
71
3
72
9
73
5
74
3
42
0.0000001000
43
0.0000001000
44
0.0000000001
12
-0.0861000296
22
-0.0270164138
32
0.0000000000
13
-0.0856321466
23
-0.0284646655
33
0.0000000000
40
0.0000000000
40
0.0000000000
40
0.0000000000
40
0.0000000000
40
0.5001975325
40
1.0000000000
40
1.0000000000
40
1.0000000000
40
1.0000000000
10
-1.7208005190
20
12.1424259438
30
0.0000000000
10
-1.7351561931
20
12.1379214293
30
0.0000000000
10
-1.7638184358
20
12.1287951486
30
0.0000000000
10
-1.7924026972
20
12.1194274774
30
0.0000000000
10
-1.8066690832
20
12.1146852407
30
0.0000000000
11
-1.7208005190
21
12.1424259438
31
0.0000000000
11
-1.7638102485
21
12.1287311478
31
0.0000000000
11
-1.8066690832
21
12.1146852407
31
0.0000000000
0
SPLINE
5
35E
100
AcDbEntity
8
0
100
AcDbSpline
62
7
6
CONTINUOUS
70
0
71
3
72
9
73
5
74
3
42
0.0000001000
43
0.0000001000
44
0.0000000001
12
-0.3590048423
22
-0.1385644508
32
0.0000000000
13
-0.3479302524
23
-0.1644666949
33
0.0000000000
40
0.0000000000
40
0.0000000000
40
0.0000000000
40
0.0000000000
40
0.5331143229
40
1.0000000000
40
1.0000000000
40
1.0000000000
40
1.0000000000
10
-2.0436273627
20
12.0296380736
30
0.0000000000
10
-2.1074242372
20
12.0050145092
30
0.0000000000
10
-2.2262087822
20
11.9564957821
30
0.0000000000
10
-2.3431228092
20
11.9036639244
30
0.0000000000
10
-2.3972706930
20
11.8780682097
30
0.0000000000
11
-2.0436273627
21
12.0296380736
31
0.0000000000
11
-2.2335441002
21
11.9520566139
31
0.0000000000
11
-2.3972706930
21
11.8780682097
31
0.0000000000
0
SPLINE
5
35F
100
AcDbEntity
8
0
100
AcDbSpline
62
7
6
CONTINUOUS
70
0
71
3
72
8
73
4
74
2
42
0.0000001000
43
0.0000001000
44
0.0000000001
12
-0.2263886153
22
-0.1073427097
32
0.0000000000
13
-0.2263951262
23
-0.1073289774
33
0.0000000000
40
0.0000000000
40
0.0000000000
40
0.0000000000
40
0.0000000000
40
1.0000000000
40
1.0000000000
40
1.0000000000
40
1.0000000000
10
-1.8066690832
20
12.1146852407
30
0.0000000000
10
-1.8821319550
20
12.0789043375
30
0.0000000000
10
-1.9575959361
20
12.0431257738
30
0.0000000000
10
-2.0330609782
20
12.0073494480
30
0.0000000000
11
-1.8066690832
21
12.1146852407
31
0.0000000000
11
-2.0330609782
21
12.0073494480
31
0.0000000000
0
SPLINE
5
360
100
AcDbEntity
8
0
100
AcDbSpline
62
7
6
CONTINUOUS
70
0
71
3
72
9
73
5
74
3
42
0.0000001000
43
0.0000001000
44
0.0000000001
12
-0.3474182189
22
-0.1647033785
32
0.0000000000
13
-0.3474326966
23
-0.1646728362
33
0.0000000000
40
0.0000000000
40
0.0000000000
40
0.0000000000
40
0.0000000000
40
0.6936578237
40
1.0000000000
40
1.0000000000
40
1.0000000000
40
1.0000000000
10
-2.0330609782
20
12.0073494480
30
0.0000000000
10
-2.1133907667
20
11.9692668523
30
0.0000000000
10
-2.2291985727
20
11.9143693817
30
0.0000000000
10
-2.3450087560
20
11.8594769265
30
0.0000000000
10
-2.3804865188
20
11.8426615148
30
0.0000000000
11
-2.0330609782
21
12.0073494480
31
0.0000000000
11
-2.2740538919
21
11.8931091455
31
0.0000000000
11
-2.3804865188
21
11.8426615148
31
0.0000000000
0
SPLINE
5
361
100
AcDbEntity
8
0
100
AcDbSpline
62
7
6
CONTINUOUS
70
0
71
3
72
8
73
4
74
2
42
0.0000001000
43
0.0000001000
44
0.0000000001
12
-0.0504310372
22
-0.0239028221
32
0.0000000000
13
-0.0504313313
23
-0.0239022016
33
0.0000000000
40
0.0000000000
40
0.0000000000
40
0.0000000000
40
0.0000000000
40
1.0000000000
40
1.0000000000
40
1.0000000000
40
1.0000000000
10
-2.3804865188
20
11.8426615148
30
0.0000000000
10
-2.3972968645
20
11.8346939074
30
0.0000000000
10
-2.4141072595
20
11.8267264039
30
0.0000000000
10
-2.4309177032
20
11.8187590034
30
0.0000000000
11
-2.3804865188
21
11.8426615148
31
0.0000000000
11
-2.4309177032
21
11.8187590034
31
0.0000000000
0
SPLINE
5
362
100
AcDbEntity
8
0
100
AcDbSpline
62
7
6
CONTINUOUS
70
0
71
3
72
9
73
5
74
3
42
0.0000001000
43
0.0000001000
44
0.0000000001
12
-0.7160652767
22
-0.3393830018
32
0.0000000000
13
-0.7161210224
23
-0.3392653583
33
0.0000000000
40
0.0000000000
40
0.0000000000
40
0.0000000000
40
0.0000000000
40
0.4403420512
40
1.0000000000
40
1.0000000000
40
1.0000000000
40
1.0000000000
10
-2.4309177032
20
11.8187590034
30
0.0000000000
10
-2.5360222541
20
11.7689441344
30
0.0000000000
10
-2.7747150127
20
11.6558256093
30
0.0000000000
10
-3.0134170930
20
11.5427267558
30
0.0000000000
10
-3.1470113671
20
11.4794359043
30
0.0000000000
11
-2.4309177032
21
11.8187590034
31
0.0000000000
11
-2.7462369794
21
11.6693262620
31
0.0000000000
11
-3.1470113671
21
11.4794359043
31
0.0000000000
0
SPLINE
5
363
100
AcDbEntity
8
0
100
AcDbSpline
62
7
6
CONTINUOUS
70
0
71
3
72
8
73
4
74
2
42
0.0000001000
43
0.0000001000
44
0.0000000001
12
-0.0761431514
22
-0.0360731395
32
0.0000000000
13
-0.0761437453
23
-0.0360718859
33
0.0000000000
40
0.0000000000
40
0.0000000000
40
0.0000000000
40
0.0000000000
40
1.0000000000
40
1.0000000000
40
1.0000000000
40
1.0000000000
10
-3.1470113671
20
11.4794359043
30
0.0000000000
10
-3.1723924176
20
11.4674115245
30
0.0000000000
10
-3.1977735676
20
11.4553873547
30
0.0000000000
10
-3.2231548160
20
11.4433633928
30
0.0000000000
11
-3.1470113671
21
11.4794359043
31
0.0000000000
11
-3.2231548160
21
11.4433633928
31
0.0000000000
0
SPLINE
5
364
100
AcDbEntity
8
0
100
AcDbSpline
62
7
6
CONTINUOUS
70
0
71
3
72
10
73
6
74
4
42
0.0000001000
43
0.0000001000
44
0.0000000001
12
0.2336514982
22
-0.1168257491
32
0.0000000000
13
0.1582192625
23
-0.2078652044
33
0.0000000000
40
0.0000000000
40
0.0000000000
40
0.0000000000
40
0.0000000000
40
0.3092911778
40
0.6443914200
40
1.0000000000
40
1.0000000000
40
1.0000000000
40
1.0000000000
10
1.0584537322
20
10.8251432802
30
0.0000000000
10
1.0825425146
20
10.8130988891
30
0.0000000000
10
1.1302939841
20
10.7829803253
30
0.0000000000
10
1.1958984312
20
10.7253097983
30
0.0000000000
10
1.2353328282
20
10.6796214658
30
0.0000000000
10
1.2540875373
20
10.6549819157
30
0.0000000000
11
1.0584537322
21
10.8251432802
31
0.0000000000
11
1.1271197942
21
10.7825639064
31
0.0000000000
11
1.1931691853
21
10.7251144563
31
0.0000000000
11
1.2540875373
21
10.6549819157
31
0.0000000000
0
SPLINE
5
365
100
AcDbEntity
8
0
100
AcDbSpline
62
7
6
CONTINUOUS
70
0
71
3
72
10
73
6
74
4
42
0.0000001000
43
0.0000001000
44
0.0000000001
12
0.1924221771
22
0.0603781113
32
0.0000000000
13
0.1803813972
23
-0.0901906986
33
0.0000000000
40
0.0000000000
40
0.0000000000
40
0.0000000000
40
0.0000000000
40
0.3055014741
40
0.6357740870
40
1.0000000000
40
1.0000000000
40
1.0000000000
40
1.0000000000
10
-1.7208005190
20
12.1424259438
30
0.0000000000
10
-1.7012054327
20
12.1485744778
30
0.0000000000
10
-1.6581228190
20
12.1547066846
30
0.0000000000
10
-1.5909089005
20
12.1450900736
30
0.0000000000
10
-1.5470665736
20
12.1279034332
30
0.0000000000
10
-1.5251667139
20
12.1169535033
30
0.0000000000
11
-1.7208005190
21
12.1424259438
31
0.0000000000
11
-1.6598821670
21
12.1516401324
31
0.0000000000
11
-1.5938327759
21
12.1430401914
31
0.0000000000
11
-1.5251667139
21
12.1169535033
31
0.0000000000
0
SPLINE
5
366
100
AcDbEntity
8
0
100
AcDbSpline
62
7
6
CONTINUOUS
70
0
71
3
72
13
73
9
74
7
42
0.0000001000
43
0.0000001000
44
0.0000000001
12
0.0000769076
22
-0.4300409794
32
0.0000000000
13
0.4293547325
23
-0.0242850489
33
0.0000000000
40
0.0000000000
40
0.0000000000
40
0.0000000000
40
0.0000000000
40
0.1699397592
40
0.3526540078
40
0.5368336733
40
0.7112590956
40
0.8669143938
40
1.0000000000
40
1.0000000000
40
1.0000000000
40
1.0000000000
10
1.3399561015
20
10.5413726483
30
0.0000000000
10
1.3399604581
20
10.5170122948
30
0.0000000000
10
1.3468139312
20
10.4663775512
30
0.0000000000
10
1.3727202879
20
10.3934437578
30
0.0000000000
10
1.4123078040
20
10.3261374964
30
0.0000000000
10
1.4619486901
20
10.2708582024
30
0.0000000000
10
1.5170722386
20
10.2326464211
30
0.0000000000
10
1.5578674027
20
10.2204445319
30
0.0000000000
10
1.5769143810
20
10.2193672018
30
0.0000000000
11
1.3399561015
21
10.5413726483
31
0.0000000000
11
1.3489261016
21
10.4688441666
31
0.0000000000
11
1.3749128967
21
10.3946912387
31
0.0000000000
11
1.4152343947
21
10.3265180920
31
0.0000000000
11
1.4658331168
21
10.2711440771
31
0.0000000000
11
1.5216272143
21
10.2341611665
31
0.0000000000
11
1.5769143810
21
10.2193672018
31
0.0000000000
0
SPLINE
5
367
100
AcDbEntity
8
0
100
AcDbSpline
62
7
6
CONTINUOUS
70
0
71
3
72
13
73
9
74
7
42
0.0000001000
43
0.0000001000
44
0.0000000001
12
-1.3913668814
22
-0.6603131565
32
0.0000000000
13
-1.2574751151
23
0.8921715208
33
0.0000000000
40
0.0000000000
40
0.0000000000
40
0.0000000000
40
0.0000000000
40
0.1622512667
40
0.3358078651
40
0.5200310426
40
0.7124755763
40
0.9094832888
40
1.0000000000
40
1.0000000000
40
1.0000000000
40
1.0000000000
10
6.9378422438
20
9.3097842359
30
0.0000000000
10
6.8625918975
20
9.2740720206
30
0.0000000000
10
6.6964291452
20
9.2209817648
30
0.0000000000
10
6.4285194193
20
9.1989241885
30
0.0000000000
10
6.1462645076
20
9.2317297468
30
0.0000000000
10
5.8630295286
20
9.3175295191
30
0.0000000000
10
5.6413311922
20
9.4275716812
30
0.0000000000
10
5.5175810753
20
9.5085277267
30
0.0000000000
10
5.4796402380
20
9.5354465373
30
0.0000000000
11
6.9378422438
21
9.3097842359
31
0.0000000000
11
6.7004266654
21
9.2318378721
31
0.0000000000
11
6.4341997430
21
9.2079673212
31
0.0000000000
11
6.1522174054
21
9.2393432093
31
0.0000000000
11
5.8683082363
21
9.3244268440
31
0.0000000000
11
5.5963953124
21
9.4590456726
31
0.0000000000
11
5.4796402380
21
9.5354465373
31
0.0000000000
0
SPLINE
5
368
100
AcDbEntity
8
0
100
AcDbSpline
62
7
6
CONTINUOUS
70
0
71
3
72
15
73
11
74
9
42
0.0000001000
43
0.0000001000
44
0.0000000001
12
-1.4414613206
22
1.0227086987
32
0.0000000000
13
0.9305072089
23
1.5071258848
33
0.0000000000
40
0.0000000000
40
0.0000000000
40
0.0000000000
40
0.0000000000
40
0.0931491365
40
0.2617489387
40
0.4235452081
40
0.5762365357
40
0.7190319238
40
0.8530925314
40
0.9816552456
40
1.0000000000
40
1.0000000000
40
1.0000000000
40
1.0000000000
10
5.4796402380
20
9.5354465373
30
0.0000000000
10
5.4348832789
20
9.5672013480
30
0.0000000000
10
5.3130947790
20
9.6620347084
30
0.0000000000
10
5.1366257867
20
9.8397573469
30
0.0000000000
10
4.9738893916
20
10.0748296028
30
0.0000000000
10
4.8657454711
20
10.3233568816
30
0.0000000000
10
4.8180268069
20
10.5740358167
30
0.0000000000
10
4.8344065043
20
10.8150285249
30
0.0000000000
10
4.8929846274
20
10.9723218541
30
0.0000000000
10
4.9369437780
20
11.0471110940
30
0.0000000000
10
4.9426337534
20
11.0563270454
30
0.0000000000
11
5.4796402380
21
9.5354465373
31
0.0000000000
11
5.3498134073
21
9.6365979066
31
0.0000000000
11
5.1406550462
21
9.8483762776
31
0.0000000000
11
4.9791774810
21
10.0839950466
31
0.0000000000
11
4.8732996690
21
10.3318993272
31
0.0000000000
11
4.8282139218
21
10.5799317441
31
0.0000000000
11
4.8461312716
21
10.8159286383
31
0.0000000000
11
4.9261730407
21
11.0283165798
31
0.0000000000
11
4.9426337534
21
11.0563270454
31
0.0000000000
0
SPLINE
5
369
100
AcDbEntity
8
0
100
AcDbSpline
62
7
6
CONTINUOUS
70
0
71
3
72
9
73
5
74
3
42
0.0000001000
43
0.0000001000
44
0.0000000001
12
-0.0287633433
22
0.0233573977
32
0.0000000000
13
-0.0270975522
23
0.0252800232
33
0.0000000000
40
0.0000000000
40
0.0000000000
40
0.0000000000
40
0.0000000000
40
0.1833060144
40
1.0000000000
40
1.0000000000
40
1.0000000000
40
1.0000000000
10
2.2207012619
20
9.3156122449
30
0.0000000000
10
2.2189437640
20
9.3170394287
30
0.0000000000
10
2.2093987207
20
9.3248780593
30
0.0000000000
10
2.2001004055
20
9.3330172169
30
0.0000000000
10
2.1927236029
20
9.3398992312
30
0.0000000000
11
2.2207012619
21
9.3156122449
31
0.0000000000
11
2.2154527266
21
9.3199232630
31
0.0000000000
11
2.1927236029
21
9.3398992312
31
0.0000000000
0
SPLINE
5
36A
100
AcDbEntity
8
0
100
AcDbSpline
62
7
6
CONTINUOUS
70
0
71
3
72
9
73
5
74
3
42
0.0000001000
43
0.0000001000
44
0.0000000001
12
-0.0319844091
22
0.0298391012
32
0.0000000000
13
-0.0286629072
23
0.0330485488
33
0.0000000000
40
0.0000000000
40
0.0000000000
40
0.0000000000
40
0.0000000000
40
0.3380971725
40
1.0000000000
40
1.0000000000
40
1.0000000000
40
1.0000000000
10
2.1927236029
20
9.3398992312
30
0.0000000000
10
2.1891189901
20
9.3432620697
30
0.0000000000
10
2.1786108232
20
9.3533742664
30
0.0000000000
10
2.1686096807
20
9.3640120180
30
0.0000000000
10
2.1622856609
20
9.3713036606
30
0.0000000000
11
2.1927236029
21
9.3398992312
31
0.0000000000
11
2.1820713849
21
9.3501599560
31
0.0000000000
11
2.1622856609
21
9.3713036606
31
0.0000000000
0
SPLINE
5
36B
100
AcDbEntity
8
0
100
AcDbSpline
62
7
6
CONTINUOUS
70
0
71
3
72
8
73
4
74
2
42
0.0000001000
43
0.0000001000
44
0.0000000001
12
-0.0093128173
22
0.0107377488
32
0.0000000000
13
-0.0088590979
23
0.0111070585
33
0.0000000000
40
0.0000000000
40
0.0000000000
40
0.0000000000
40
0.0000000000
40
1.0000000000
40
1.0000000000
40
1.0000000000
40
1.0000000000
10
2.1622856609
20
9.3713036606
30
0.0000000000
10
2.1591813885
20
9.3748829102
30
0.0000000000
10
2.1561483816
20
9.3785225150
30
0.0000000000
10
2.1531953489
20
9.3822248679
30
0.0000000000
11
2.1622856609
21
9.3713036606
31
0.0000000000
11
2.1531953489
21
9.3822248679
31
0.0000000000
0
SPLINE
5
36C
100
AcDbEntity
8
0
100
AcDbSpline
62
7
6
CONTINUOUS
70
0
71
3
72
10
73
6
74
4
42
0.0000001000
43
0.0000001000
44
0.0000000001
12
-0.0319246448
22
0.0411897979
32
0.0000000000
13
-0.0485562907
23
0.0083483107
33
0.0000000000
40
0.0000000000
40
0.0000000000
40
0.0000000000
40
0.0000000000
40
0.0528635081
40
0.4330505440
40
1.0000000000
40
1.0000000000
40
1.0000000000
40
1.0000000000
10
9.3118759173
20
10.2941786090
30
0.0000000000
10
9.3113133677
20
10.2949044214
30
0.0000000000
10
9.3063522804
20
10.3005860356
30
0.0000000000
10
9.2911261691
20
10.3072684584
30
0.0000000000
10
9.2760085897
20
10.3111030685
30
0.0000000000
10
9.2668322689
20
10.3126807586
30
0.0000000000
11
9.3118759173
21
10.2941786090
31
0.0000000000
11
9.3100778160
21
10.2962500150
31
0.0000000000
11
9.2938576296
21
10.3056184915
31
0.0000000000
11
9.2668322689
21
10.3126807586
31
0.0000000000
0
SPLINE
5
36D
100
AcDbEntity
8
0
100
AcDbSpline
62
7
6
CONTINUOUS
70
0
71
3
72
10
73
6
74
4
42
0.0000001000
43
0.0000001000
44
0.0000000001
12
-0.0146280536
22
0.0741557193
32
0.0000000000
13
-0.0679684810
23
0.0339582699
33
0.0000000000
40
0.0000000000
40
0.0000000000
40
0.0000000000
40
0.0000000000
40
0.3870528165
40
0.7413381005
40
1.0000000000
40
1.0000000000
40
1.0000000000
40
1.0000000000
10
7.3343440622
20
12.5806966929
30
0.0000000000
10
7.3324567857
20
12.5902640862
30
0.0000000000
10
7.3267279403
20
12.6082873876
30
0.0000000000
10
7.3124518667
20
12.6295616284
30
0.0000000000
10
7.2998368664
20
12.6390474350
30
0.0000000000
10
7.2939765810
20
12.6419753385
30
0.0000000000
11
7.3343440622
21
12.5806966929
31
0.0000000000
11
7.3251514264
21
12.6084701856
31
0.0000000000
11
7.3097956523
21
12.6304085367
31
0.0000000000
11
7.2939765810
21
12.6419753385
31
0.0000000000
0
SPLINE
5
36E
100
AcDbEntity
8
0
100
AcDbSpline
62
7
6
CONTINUOUS
70
0
71
3
72
8
73
4
74
2
42
0.0000001000
43
0.0000001000
44
0.0000000001
12
0.0428802246
22
0.0233649485
32
0.0000000000
13
0.0428193287
23
0.0234763236
33
0.0000000000
40
0.0000000000
40
0.0000000000
40
0.0000000000
40
0.0000000000
40
1.0000000000
40
1.0000000000
40
1.0000000000
40
1.0000000000
10
2.2945505286
20
-9.0391028473
30
0.0000000000
10
2.3088439368
20
-9.0313145311
30
0.0000000000
10
2.3231279113
20
-9.0235088938
30
0.0000000000
10
2.3374010208
20
-9.0156834526
30
0.0000000000
11
2.2945505286
21
-9.0391028473
31
0.0000000000
11
2.3374010208
21
-9.0156834526
31
0.0000000000
0
SPLINE
5
36F
100
AcDbEntity
8
0
100
AcDbSpline
62
7
6
CONTINUOUS
70
0
71
3
72
9
73
5
74
3
42
0.0000001000
43
0.0000001000
44
0.0000000001
12
-0.0180378678
22
0.0226150740
32
0.0000000000
13
-0.0158438145
23
0.0242028880
33
0.0000000000
40
0.0000000000
40
0.0000000000
40
0.0000000000
40
0.0000000000
40
0.4941800738
40
1.0000000000
40
1.0000000000
40
1.0000000000
40
1.0000000000
10
2.1531953489
20
9.3822248679
30
0.0000000000
10
2.1502240307
20
9.3859501742
30
0.0000000000
10
2.1443878438
20
9.3936308212
30
0.0000000000
10
2.1389157275
20
9.4015751255
30
0.0000000000
10
2.1362443551
20
9.4056558931
30
0.0000000000
11
2.1531953489
21
9.3822248679
31
0.0000000000
11
2.1445446873
21
9.3936058084
31
0.0000000000
11
2.1362443551
21
9.4056558931
31
0.0000000000
0
SPLINE
5
370
100
AcDbEntity
8
0
100
AcDbSpline
62
7
6
CONTINUOUS
70
0
71
3
72
18
73
14
74
12
42
0.0000001000
43
0.0000001000
44
0.0000000001
12
0.6656223872
22
3.0360926564
32
0.0000000000
13
-2.8040243515
23
-1.3168490571
33
0.0000000000
40
0.0000000000
40
0.0000000000
40
0.0000000000
40
0.0000000000
40
0.0780472984
40
0.1606741194
40
0.2491621664
40
0.3430167978
40
0.4408608475
40
0.5407422602
40
0.6404364857
40
0.7377450789
40
0.8307877018
40
0.9183127695
40
1.0000000000
40
1.0000000000
40
1.0000000000
40
1.0000000000
10
7.4757280923
20
9.5649913408
30
0.0000000000
10
7.4930447687
20
9.6439776173
30
0.0000000000
10
7.5041399250
20
9.8116206537
30
0.0000000000
10
7.4548788145
20
10.0666267667
30
0.0000000000
10
7.3444571067
20
10.3190932448
30
0.0000000000
10
7.1786907796
20
10.5582017167
30
0.0000000000
10
6.9656735717
20
10.7730127773
30
0.0000000000
10
6.7155567285
20
10.9535499325
30
0.0000000000
10
6.4401721856
20
11.0913207190
30
0.0000000000
10
6.1525109727
20
11.1797728327
30
0.0000000000
10
5.8659648296
20
11.2145077251
30
0.0000000000
10
5.5940884892
20
11.1935580941
30
0.0000000000
10
5.4253987950
20
11.1405582469
30
0.0000000000
10
5.3490478005
20
11.1047016627
30
0.0000000000
11
7.4757280923
21
9.5649913408
31
0.0000000000
11
7.4937104159
21
9.8060873615
31
0.0000000000
11
7.4472988309
21
10.0578096124
31
0.0000000000
11
7.3391832518
21
10.3097104549
31
0.0000000000
11
7.1746669369
21
10.5494358434
31
0.0000000000
11
6.9618169248
21
10.7652319073
31
0.0000000000
11
6.7110690739
21
10.9465175446
31
0.0000000000
11
6.4347205008
21
11.0844012693
31
0.0000000000
11
6.1463191030
21
11.1721218150
31
0.0000000000
11
5.8600120692
21
11.2053747045
31
0.0000000000
11
5.5898372182
21
11.1825282469
31
0.0000000000
11
5.3490478005
21
11.1047016627
31
0.0000000000
0
SPLINE
5
371
100
AcDbEntity
8
0
100
AcDbSpline
62
7
6
CONTINUOUS
70
0
71
3
72
8
73
4
74
2
42
0.0000001000
43
0.0000001000
44
0.0000000001
12
0.0560565203
22
0.0673560098
32
0.0000000000
13
0.0640064531
23
0.0598735668
33
0.0000000000
40
0.0000000000
40
0.0000000000
40
0.0000000000
40
0.0000000000
40
1.0000000000
40
1.0000000000
40
1.0000000000
40
1.0000000000
10
4.8928120906
20
10.9623065112
30
0.0000000000
10
4.9114975974
20
10.9847585145
30
0.0000000000
10
4.9315916438
20
11.0060473134
30
0.0000000000
10
4.9529271281
20
11.0260051690
30
0.0000000000
11
4.8928120906
21
10.9623065112
31
0.0000000000
11
4.9529271281
21
11.0260051690
31
0.0000000000
0
SPLINE
5
372
100
AcDbEntity
8
0
100
AcDbSpline
62
7
6
CONTINUOUS
70
0
71
3
72
8
73
4
74
2
42
0.0000001000
43
0.0000001000
44
0.0000000001
12
0.0532542097
22
0.0498155941
32
0.0000000000
13
0.0579784966
23
0.0442324237
33
0.0000000000
40
0.0000000000
40
0.0000000000
40
0.0000000000
40
0.0000000000
40
1.0000000000
40
1.0000000000
40
1.0000000000
40
1.0000000000
10
4.9529271281
20
11.0260051690
30
0.0000000000
10
4.9706785314
20
11.0426103670
30
0.0000000000
10
4.9892893149
20
11.0582942251
30
0.0000000000
10
5.0086154804
20
11.0730383663
30
0.0000000000
11
4.9529271281
21
11.0260051690
31
0.0000000000
11
5.0086154804
21
11.0730383663
31
0.0000000000
0
SPLINE
5
373
100
AcDbEntity
8
0
100
AcDbSpline
62
7
6
CONTINUOUS
70
0
71
3
72
8
73
4
74
2
42
0.0000001000
43
0.0000001000
44
0.0000000001
12
0.1205152776
22
0.0919424120
32
0.0000000000
13
0.1351810668
23
0.0670860895
33
0.0000000000
40
0.0000000000
40
0.0000000000
40
0.0000000000
40
0.0000000000
40
1.0000000000
40
1.0000000000
40
1.0000000000
40
1.0000000000
10
5.0086154804
20
11.0730383663
30
0.0000000000
10
5.0487872397
20
11.1036858370
30
0.0000000000
10
5.0920499227
20
11.1302731087
30
0.0000000000
10
5.1371102783
20
11.1526351385
30
0.0000000000
11
5.0086154804
21
11.0730383663
31
0.0000000000
11
5.1371102783
21
11.1526351385
31
0.0000000000
0
SPLINE
5
374
100
AcDbEntity
8
0
100
AcDbSpline
62
7
6
CONTINUOUS
70
0
71
3
72
11
73
7
74
5
42
0.0000001000
43
0.0000001000
44
0.0000000001
12
0.1743670931
22
0.0861412069
32
0.0000000000
13
-0.0236989738
23
0.1911301836
33
0.0000000000
40
0.0000000000
40
0.0000000000
40
0.0000000000
40
0.0000000000
40
0.0682108964
40
0.3337241956
40
0.6418152044
40
1.0000000000
40
1.0000000000
40
1.0000000000
40
1.0000000000
10
-3.2858196411
20
11.2725052405
30
0.0000000000
10
-3.2818550625
20
11.2744638302
30
0.0000000000
10
-3.2631571389
20
11.2853713939
30
0.0000000000
10
-3.2359469109
20
11.3185490238
30
0.0000000000
10
-3.2195840478
20
11.3772550698
30
0.0000000000
10
-3.2203252787
20
11.4205434175
30
0.0000000000
10
-3.2231548160
20
11.4433633928
30
0.0000000000
11
-3.2858196411
21
11.2725052405
31
0.0000000000
11
-3.2744016721
21
11.2791877111
31
0.0000000000
11
-3.2408043091
21
11.3177380792
31
0.0000000000
11
-3.2231239802
21
11.3743792133
31
0.0000000000
11
-3.2231548160
21
11.4433633928
31
0.0000000000
0
SPLINE
5
375
100
AcDbEntity
8
0
100
AcDbSpline
62
9
6
CONTINUOUS
70
0
71
3
72
10
73
6
74
4
42
0.0000001000
43
0.0000001000
44
0.0000000001
12
0.0383383371
22
0.0187906724
32
0.0000000000
13
0.0222621183
23
-0.0350358437
33
0.0000000000
40
0.0000000000
40
0.0000000000
40
0.0000000000
40
0.0000000000
40
0.5937336208
40
0.9419980233
40
1.0000000000
40
1.0000000000
40
1.0000000000
40
1.0000000000
10
9.4151701217
20
10.1150019137
30
0.0000000000
10
9.4227577083
20
10.1187207984
30
0.0000000000
10
9.4340358123
20
10.1236425176
30
0.0000000000
10
9.4513745655
20
10.1255799533
30
0.0000000000
10
9.4548724646
20
10.1213645568
30
0.0000000000
10
9.4553028802
20
10.1206871740
30
0.0000000000
11
9.4151701217
21
10.1150019137
31
0.0000000000
11
9.4389828765
21
10.1236948342
31
0.0000000000
11
9.4538014035
21
10.1224662419
31
0.0000000000
11
9.4553028802
21
10.1206871740
31
0.0000000000
0
SPLINE
5
376
100
AcDbEntity
8
0
100
AcDbSpline
62
7
6
CONTINUOUS
70
0
71
3
72
10
73
6
74
4
42
0.0000001000
43
0.0000001000
44
0.0000000001
12
0.0382094781
22
0.0187276658
32
0.0000000000
13
-0.0275725370
23
0.0355746237
33
0.0000000000
40
0.0000000000
40
0.0000000000
40
0.0000000000
40
0.0000000000
40
0.4737385821
40
0.7800040045
40
1.0000000000
40
1.0000000000
40
1.0000000000
40
1.0000000000
10
9.2928926149
20
10.2626039214
30
0.0000000000
10
9.2989263829
20
10.2655612606
30
0.0000000000
10
9.3085583687
20
10.2707464916
30
0.0000000000
10
9.3174038894
20
10.2843328774
30
0.0000000000
10
9.3138978665
20
10.2915698507
30
0.0000000000
10
9.3118759173
20
10.2941786090
30
0.0000000000
11
9.2928926149
21
10.2626039214
31
0.0000000000
11
9.3096184928
21
10.2738562507
31
0.0000000000
11
9.3154029720
21
10.2855344266
31
0.0000000000
11
9.3118759173
21
10.2941786090
31
0.0000000000
0
SPLINE
5
377
100
AcDbEntity
8
0
100
AcDbSpline
62
9
6
CONTINUOUS
70
0
71
3
72
8
73
4
74
2
42
0.0000001000
43
0.0000001000
44
0.0000000001
12
-0.0144696651
22
-0.0067233740
32
0.0000000000
13
-0.0151716301
23
-0.0050252616
33
0.0000000000
40
0.0000000000
40
0.0000000000
40
0.0000000000
40
0.0000000000
40
1.0000000000
40
1.0000000000
40
1.0000000000
40
1.0000000000
10
9.6753664499
20
10.0346950476
30
0.0000000000
10
9.6705432282
20
10.0324539230
30
0.0000000000
10
9.6655794359
20
10.0305020161
30
0.0000000000
10
9.6605222259
20
10.0288269289
30
0.0000000000
11
9.6753664499
21
10.0346950476
31
0.0000000000
11
9.6605222259
21
10.0288269289
31
0.0000000000
0
SPLINE
5
378
100
AcDbEntity
8
0
100
AcDbSpline
62
9
6
CONTINUOUS
70
0
71
3
72
13
73
9
74
7
42
0.0000001000
43
0.0000001000
44
0.0000000001
12
-0.1246457049
22
-0.0412860888
32
0.0000000000
13
-0.1237175465
23
0.0435604048
33
0.0000000000
40
0.0000000000
40
0.0000000000
40
0.0000000000
40
0.0000000000
40
0.0626138213
40
0.2600984590
40
0.4699780618
40
0.6908975134
40
0.9213990325
40
1.0000000000
40
1.0000000000
40
1.0000000000
40
1.0000000000
10
9.6605222259
20
10.0288269289
30
0.0000000000
10
9.6579207112
20
10.0279652356
30
0.0000000000
10
9.6470113028
20
10.0246900482
30
0.0000000000
10
9.6267281845
20
10.0210034458
30
0.0000000000
10
9.5991897812
20
10.0201983440
30
0.0000000000
10
9.5703821404
20
10.0233607013
30
0.0000000000
10
9.5478174784
20
10.0288372404
30
0.0000000000
10
9.5349804095
20
10.0330700268
30
0.0000000000
10
9.5317389699
20
10.0342113234
30
0.0000000000
11
9.6605222259
21
10.0288269289
31
0.0000000000
11
9.6526499388
21
10.0264599215
31
0.0000000000
11
9.6271986346
21
10.0217289800
31
0.0000000000
11
9.5997011823
21
10.0208324828
31
0.0000000000
11
9.5709064841
21
10.0239149871
31
0.0000000000
11
9.5415298729
21
10.0309845154
31
0.0000000000
11
9.5317389699
21
10.0342113234
31
0.0000000000
0
SPLINE
5
379
100
AcDbEntity
8
0
100
AcDbSpline
62
9
6
CONTINUOUS
70
0
71
3
72
9
73
5
74
3
42
0.0000001000
43
0.0000001000
44
0.0000000001
12
-0.0396517736
22
0.0139612154
32
0.0000000000
13
-0.0369640793
23
0.0200189355
33
0.0000000000
40
0.0000000000
40
0.0000000000
40
0.0000000000
40
0.0000000000
40
0.4973526185
40
1.0000000000
40
1.0000000000
40
1.0000000000
40
1.0000000000
10
9.5317389699
20
10.0342113234
30
0.0000000000
10
9.5251653321
20
10.0365258724
30
0.0000000000
10
9.5121371893
20
10.0417167138
30
0.0000000000
10
9.4995575384
20
10.0479123281
30
0.0000000000
10
9.4933642392
20
10.0512664833
30
0.0000000000
11
9.5317389699
21
10.0342113234
31
0.0000000000
11
9.5123171090
21
10.0419377698
31
0.0000000000
11
9.4933642392
21
10.0512664833
31
0.0000000000
0
SPLINE
5
37A
100
AcDbEntity
8
0
100
AcDbSpline
62
9
6
CONTINUOUS
70
0
71
3
72
11
73
7
74
5
42
0.0000001000
43
0.0000001000
44
0.0000000001
12
-0.0808873102
22
0.0438067951
32
0.0000000000
13
-0.0613677228
23
0.0685142167
33
0.0000000000
40
0.0000000000
40
0.0000000000
40
0.0000000000
40
0.0000000000
40
0.1147864484
40
0.4568654240
40
0.7886132829
40
1.0000000000
40
1.0000000000
40
1.0000000000
40
1.0000000000
10
9.4933642392
20
10.0512664833
30
0.0000000000
10
9.4902693168
20
10.0529426254
30
0.0000000000
10
9.4780801522
20
10.0598523833
30
0.0000000000
10
9.4579828590
20
10.0733705807
30
0.0000000000
10
9.4372933322
20
10.0910021866
30
0.0000000000
10
9.4256948573
20
10.1029779977
30
0.0000000000
10
9.4213707502
20
10.1078056629
30
0.0000000000
11
9.4933642392
21
10.0512664833
31
0.0000000000
11
9.4841787966
21
10.0564729320
31
0.0000000000
11
9.4580863492
21
10.0740297906
31
0.0000000000
11
9.4348890516
21
10.0938314450
31
0.0000000000
11
9.4213707502
21
10.1078056629
31
0.0000000000
0
SPLINE
5
37B
100
AcDbEntity
8
0
100
AcDbSpline
62
9
6
CONTINUOUS
70
0
71
3
72
8
73
4
74
2
42
0.0000001000
43
0.0000001000
44
0.0000000001
12
-0.0063395548
22
0.0070778189
32
0.0000000000
13
-0.0060589013
23
0.0073136725
33
0.0000000000
40
0.0000000000
40
0.0000000000
40
0.0000000000
40
0.0000000000
40
1.0000000000
40
1.0000000000
40
1.0000000000
40
1.0000000000
10
9.4213707502
20
10.1078056629
30
0.0000000000
10
9.4192575652
20
10.1101649358
30
0.0000000000
10
9.4171897555
20
10.1125640229
30
0.0000000000
10
9.4151701217
20
10.1150019137
30
0.0000000000
11
9.4213707502
21
10.1078056629
31
0.0000000000
11
9.4151701217
21
10.1150019137
31
0.0000000000
0
SPLINE
5
37C
100
AcDbEntity
8
0
100
AcDbSpline
62
9
6
CONTINUOUS
70
0
71
3
72
11
73
7
74
5
42
0.0000001000
43
0.0000001000
44
0.0000000001
12
-0.0569555185
22
0.0707215064
32
0.0000000000
13
-0.0830244631
23
-0.0388265072
33
0.0000000000
40
0.0000000000
40
0.0000000000
40
0.0000000000
40
0.0000000000
40
0.3883387079
40
0.7160046822
40
0.9914620523
40
1.0000000000
40
1.0000000000
40
1.0000000000
40
1.0000000000
10
9.6753664499
20
10.0346950476
30
0.0000000000
10
9.6679937725
20
10.0438496804
30
0.0000000000
10
9.6522316430
20
10.0591762444
30
0.0000000000
10
9.6244178688
20
10.0724900766
30
0.0000000000
10
9.6047793285
20
10.0711508057
30
0.0000000000
10
9.5968821360
20
10.0675625749
30
0.0000000000
10
9.5966458499
20
10.0674520753
30
0.0000000000
11
9.6753664499
21
10.0346950476
31
0.0000000000
11
9.6496239810
21
10.0587948064
31
0.0000000000
11
9.6222316448
21
10.0704109127
31
0.0000000000
11
9.5973580772
21
10.0677756447
31
0.0000000000
11
9.5966458499
21
10.0674520753
31
0.0000000000
0
SPLINE
5
37D
100
AcDbEntity
8
0
100
AcDbSpline
62
9
6
CONTINUOUS
70
0
71
3
72
11
73
7
74
5
42
0.0000001000
43
0.0000001000
44
0.0000000001
12
-0.0569555186
22
0.0707215064
32
0.0000000000
13
-0.0830244617
23
-0.0388265181
33
0.0000000000
40
0.0000000000
40
0.0000000000
40
0.0000000000
40
0.0000000000
40
0.3883380893
40
0.7160040520
40
0.9914616712
40
1.0000000000
40
1.0000000000
40
1.0000000000
40
1.0000000000
10
9.9287818654
20
10.1524404817
30
0.0000000000
10
9.9214091996
20
10.1615950999
30
0.0000000000
10
9.9056470873
20
10.1769216521
30
0.0000000000
10
9.8778333365
20
10.1902354986
30
0.0000000000
10
9.8581947739
20
10.1888962499
30
0.0000000000
10
9.8502975624
20
10.1853080139
30
0.0000000000
10
9.8500612656
20
10.1851975094
30
0.0000000000
11
9.9287818654
21
10.1524404817
31
0.0000000000
11
9.9030394437
21
10.1765402087
31
0.0000000000
11
9.8756471178
21
10.1881563369
31
0.0000000000
11
9.8507735248
21
10.1855210929
31
0.0000000000
11
9.8500612656
21
10.1851975094
31
0.0000000000
0
SPLINE
5
37E
100
AcDbEntity
8
0
100
AcDbSpline
62
9
6
CONTINUOUS
70
0
71
3
72
8
73
4
74
2
42
0.0000001000
43
0.0000001000
44
0.0000000001
12
-0.0182207828
22
0.0091103790
32
0.0000000000
13
-0.0174293957
23
0.0106082377
33
0.0000000000
40
0.0000000000
40
0.0000000000
40
0.0000000000
40
0.0000000000
40
1.0000000000
40
1.0000000000
40
1.0000000000
40
1.0000000000
10
6.9687430638
20
12.7806099358
30
0.0000000000
10
6.9626694696
20
12.7836467288
30
0.0000000000
10
6.9566962864
20
12.7869068823
30
0.0000000000
10
6.9508864879
20
12.7904429615
30
0.0000000000
11
6.9687430638
21
12.7806099358
31
0.0000000000
11
6.9508864879
21
12.7904429615
31
0.0000000000
0
SPLINE
5
37F
100
AcDbEntity
8
0
100
AcDbSpline
62
9
6
CONTINUOUS
70
0
71
3
72
12
73
8
74
6
42
0.0000001000
43
0.0000001000
44
0.0000000001
12
-0.1556389705
22
0.0947281949
32
0.0000000000
13
0.1621262167
23
0.0825017945
33
0.0000000000
40
0.0000000000
40
0.0000000000
40
0.0000000000
40
0.0000000000
40
0.1936903069
40
0.4256794883
40
0.6067647554
40
0.7869515799
40
1.0000000000
40
1.0000000000
40
1.0000000000
40
1.0000000000
10
6.9508864879
20
12.7904429615
30
0.0000000000
10
6.9408379012
20
12.7965589392
30
0.0000000000
10
6.9198279673
20
12.8118142958
30
0.0000000000
10
6.8954886013
20
12.8411146704
30
0.0000000000
10
6.8913258059
20
12.8794644568
30
0.0000000000
10
6.9112253890
20
12.9103562407
30
0.0000000000
10
6.9315079272
20
12.9235944274
30
0.0000000000
10
6.9430215053
20
12.9294533863
30
0.0000000000
11
6.9508864879
21
12.7904429615
31
0.0000000000
11
6.9225328477
21
12.8115391590
31
0.0000000000
11
6.8977587850
21
12.8457033837
31
0.0000000000
11
6.8951014071
21
12.8785373479
31
0.0000000000
11
6.9114845652
21
12.9069271717
31
0.0000000000
11
6.9430215053
21
12.9294533863
31
0.0000000000
0
SPLINE
5
380
100
AcDbEntity
8
0
100
AcDbSpline
62
9
6
CONTINUOUS
70
0
71
3
72
9
73
5
74
3
42
0.0000001000
43
0.0000001000
44
0.0000000001
12
0.0401678091
22
0.0192252058
32
0.0000000000
13
0.0405405445
23
-0.0197499935
33
0.0000000000
40
0.0000000000
40
0.0000000000
40
0.0000000000
40
0.0000000000
40
0.6156264049
40
1.0000000000
40
1.0000000000
40
1.0000000000
40
1.0000000000
10
6.9687430638
20
12.7806099358
30
0.0000000000
10
6.9769858518
20
12.7845551172
30
0.0000000000
10
6.9918971140
20
12.7889668284
30
0.0000000000
10
7.0070040397
20
12.7853112009
30
0.0000000000
10
7.0121982779
20
12.7827807422
30
0.0000000000
11
6.9687430638
21
12.7806099358
31
0.0000000000
11
6.9954195409
21
12.7869295610
31
0.0000000000
11
7.0121982779
21
12.7827807422
31
0.0000000000
0
SPLINE
5
381
100
AcDbEntity
8
0
100
AcDbSpline
62
9
6
CONTINUOUS
70
0
71
3
72
12
73
8
74
6
42
0.0000001000
43
0.0000001000
44
0.0000000001
12
0.1553811787
22
-0.0732296665
32
0.0000000000
13
-0.0516211555
23
-0.1657653395
33
0.0000000000
40
0.0000000000
40
0.0000000000
40
0.0000000000
40
0.0000000000
40
0.2124890985
40
0.4499770144
40
0.6900401689
40
0.9091922601
40
1.0000000000
40
1.0000000000
40
1.0000000000
40
1.0000000000
10
6.9430215053
20
12.9294533863
30
0.0000000000
10
6.9540271075
20
12.9242665511
30
0.0000000000
10
6.9749533026
20
12.9081877763
30
0.0000000000
10
6.9983338166
20
12.8758433413
30
0.0000000000
10
7.0129044959
20
12.8381817471
30
0.0000000000
10
7.0159531105
20
12.8064169684
30
0.0000000000
10
7.0124967720
20
12.7885820494
30
0.0000000000
10
7.0109342385
20
12.7835644575
30
0.0000000000
11
6.9430215053
21
12.9294533863
31
0.0000000000
11
6.9725241943
21
12.9079631514
31
0.0000000000
11
6.9967148655
21
12.8751156409
31
0.0000000000
11
7.0114127979
21
12.8365876655
31
0.0000000000
11
7.0140778419
21
12.7990377520
31
0.0000000000
11
7.0109342385
21
12.7835644575
31
0.0000000000
0
SPLINE
5
382
100
AcDbEntity
8
0
100
AcDbSpline
62
9
6
CONTINUOUS
70
0
71
3
72
12
73
8
74
6
42
0.0000001000
43
0.0000001000
44
0.0000000001
12
0.0871542868
22
0.0432883507
32
0.0000000000
13
0.0876702750
23
-0.0433260030
33
0.0000000000
40
0.0000000000
40
0.0000000000
40
0.0000000000
40
0.0000000000
40
0.2306893198
40
0.4509504650
40
0.6637489994
40
0.8650928752
40
1.0000000000
40
1.0000000000
40
1.0000000000
40
1.0000000000
10
7.1872152443
20
13.0537800181
30
0.0000000000
10
7.1939170987
20
13.0571087382
30
0.0000000000
10
7.2072966625
20
13.0630823623
30
0.0000000000
10
7.2278298426
20
13.0697272241
30
0.0000000000
10
7.2482186205
20
13.0731823573
30
0.0000000000
10
7.2662012592
20
13.0724138403
30
0.0000000000
10
7.2767401971
20
13.0689450792
30
0.0000000000
10
7.2806826454
20
13.0669967503
30
0.0000000000
11
7.1872152443
21
13.0537800181
31
0.0000000000
11
7.2077554028
21
13.0628386579
31
0.0000000000
11
7.2281955079
21
13.0692905419
31
0.0000000000
11
7.2486538711
21
13.0724961870
31
0.0000000000
11
7.2682072426
21
13.0712458776
31
0.0000000000
11
7.2806826454
21
13.0669967503
31
0.0000000000
0
SPLINE
5
383
100
AcDbEntity
8
0
100
AcDbSpline
62
9
6
CONTINUOUS
70
0
71
3
72
16
73
12
74
10
42
0.0000001000
43
0.0000001000
44
0.0000000001
12
0.0950833779
22
0.0484109341
32
0.0000000000
13
-0.0520531936
23
-0.0933409267
33
0.0000000000
40
0.0000000000
40
0.0000000000
40
0.0000000000
40
0.0000000000
40
0.1240642558
40
0.2391457775
40
0.3450832896
40
0.4372120557
40
0.5145746835
40
0.5909630187
40
0.6958826791
40
0.8550378177
40
1.0000000000
40
1.0000000000
40
1.0000000000
40
1.0000000000
10
7.2484431612
20
12.8932820341
30
0.0000000000
10
7.2523753107
20
12.8952840563
30
0.0000000000
10
7.2600742198
20
12.8989195165
30
0.0000000000
10
7.2715714270
20
12.9032548898
30
0.0000000000
10
7.2824324597
20
12.9059374760
30
0.0000000000
10
7.2922625715
20
12.9065017810
30
0.0000000000
10
7.3010714776
20
12.9038309710
30
0.0000000000
10
7.3064973616
20
12.8955387429
30
0.0000000000
10
7.3059671971
20
12.8829835559
30
0.0000000000
10
7.3012950967
20
12.8691721197
30
0.0000000000
10
7.2964343865
20
12.8594778574
30
0.0000000000
10
7.2939191383
20
12.8549675559
30
0.0000000000
11
7.2484431612
21
12.8932820341
31
0.0000000000
11
7.2604357360
21
12.8988862453
31
0.0000000000
11
7.2719579450
21
12.9031302779
31
0.0000000000
11
7.2829684404
21
12.9056864657
31
0.0000000000
11
7.2927963824
21
12.9058854791
31
0.0000000000
11
7.3005283235
21
12.9029953489
31
0.0000000000
11
7.3051736832
21
12.8962982582
31
0.0000000000
11
7.3056404223
21
12.8851132723
31
0.0000000000
11
7.3007531054
21
12.8688502232
31
0.0000000000
11
7.2939191383
21
12.8549675559
31
0.0000000000
0
SPLINE
5
384
100
AcDbEntity
8
0
100
AcDbSpline
62
9
6
CONTINUOUS
70
0
71
3
72
8
73
4
74
2
42
0.0000001000
43
0.0000001000
44
0.0000000001
12
-0.0044096123
22
-0.0079072440
32
0.0000000000
13
-0.0047460210
23
-0.0076925072
33
0.0000000000
40
0.0000000000
40
0.0000000000
40
0.0000000000
40
0.0000000000
40
1.0000000000
40
1.0000000000
40
1.0000000000
40
1.0000000000
10
7.2939191383
20
12.8549675559
30
0.0000000000
10
7.2924492676
20
12.8523318079
30
0.0000000000
10
7.2909116709
20
12.8497338362
30
0.0000000000
10
7.2893296639
20
12.8471696671
30
0.0000000000
11
7.2939191383
21
12.8549675559
31
0.0000000000
11
7.2893296639
21
12.8471696671
31
0.0000000000
0
SPLINE
5
385
100
AcDbEntity
8
0
100
AcDbSpline
62
9
6
CONTINUOUS
70
0
71
3
72
12
73
8
74
6
42
0.0000001000
43
0.0000001000
44
0.0000000001
12
0.1698986620
22
-0.0800714923
32
0.0000000000
13
-0.1013708590
23
-0.1581168813
33
0.0000000000
40
0.0000000000
40
0.0000000000
40
0.0000000000
40
0.0000000000
40
0.1943324836
40
0.4115276674
40
0.6310780213
40
0.8315040611
40
1.0000000000
40
1.0000000000
40
1.0000000000
40
1.0000000000
10
7.1872152443
20
13.0537800181
30
0.0000000000
10
7.1982208540
20
13.0485931875
30
0.0000000000
10
7.2191470638
20
13.0325144158
30
0.0000000000
10
7.2425275801
20
13.0001699687
30
0.0000000000
10
7.2570982501
20
12.9625083677
30
0.0000000000
10
7.2606647180
20
12.9253477878
30
0.0000000000
10
7.2541366872
20
12.9021627183
30
0.0000000000
10
7.2484431612
20
12.8932820341
30
0.0000000000
11
7.1872152443
21
13.0537800181
31
0.0000000000
11
7.2167179534
21
13.0322897864
31
0.0000000000
11
7.2409086282
21
12.9994422672
31
0.0000000000
11
7.2556065530
21
12.9609142832
31
0.0000000000
11
7.2582715876
21
12.9233643734
31
0.0000000000
11
7.2484431612
21
12.8932820341
31
0.0000000000
0
SPLINE
5
386
100
AcDbEntity
8
0
100
AcDbSpline
62
7
6
CONTINUOUS
70
0
71
3
72
8
73
4
74
2
42
0.0000001000
43
0.0000001000
44
0.0000000001
12
-0.1241622215
22
0.1760969828
32
0.0000000000
13
-0.1259062003
23
0.1748350800
33
0.0000000000
40
0.0000000000
40
0.0000000000
40
0.0000000000
40
0.0000000000
40
1.0000000000
40
1.0000000000
40
1.0000000000
40
1.0000000000
10
0.3135599565
20
9.3382990510
30
0.0000000000
10
0.2721725493
20
9.3969980453
30
0.0000000000
10
0.2304942133
20
9.4554890613
30
0.0000000000
10
0.1885254799
20
9.5137674213
30
0.0000000000
11
0.3135599565
21
9.3382990510
31
0.0000000000
11
0.1885254799
21
9.5137674213
31
0.0000000000
0
SPLINE
5
387
100
AcDbEntity
8
0
100
AcDbSpline
62
7
6
CONTINUOUS
70
0
71
3
72
9
73
5
74
3
42
0.0000001000
43
0.0000001000
44
0.0000000001
12
-0.5558182316
22
-0.2635375523
32
0.0000000000
13
-0.5553039092
23
-0.2646197158
33
0.0000000000
40
0.0000000000
40
0.0000000000
40
0.0000000000
40
0.0000000000
40
0.8402840492
40
1.0000000000
40
1.0000000000
40
1.0000000000
40
1.0000000000
10
1.3399561015
20
10.5413726483
30
0.0000000000
10
1.1842743701
20
10.4675571812
30
0.0000000000
10
0.9990780370
20
10.3795500934
30
0.0000000000
10
0.8139638266
20
10.2913706019
30
0.0000000000
10
0.7844001960
20
10.2772826054
30
0.0000000000
11
1.3399561015
21
10.5413726483
31
0.0000000000
11
0.8730973058
21
10.3195335467
31
0.0000000000
11
0.7844001960
21
10.2772826054
31
0.0000000000
0
SPLINE
5
388
100
AcDbEntity
8
0
100
AcDbSpline
62
7
6
CONTINUOUS
70
0
71
3
72
9
73
5
74
3
42
0.0000001000
43
0.0000001000
44
0.0000000001
12
-0.8569338683
22
-0.4083558444
32
0.0000000000
13
-0.8558633248
23
-0.4105946116
33
0.0000000000
40
0.0000000000
40
0.0000000000
40
0.0000000000
40
0.0000000000
40
0.4458482861
40
1.0000000000
40
1.0000000000
40
1.0000000000
40
1.0000000000
10
0.7844001960
20
10.2772826054
30
0.0000000000
10
0.6570460305
20
10.2165943543
30
0.0000000000
10
0.3714872117
20
10.0802957162
30
0.0000000000
10
0.0861074190
20
9.9436225325
30
0.0000000000
10
-0.0719852904
20
9.8677786300
30
0.0000000000
11
0.7844001960
21
10.2772826054
31
0.0000000000
11
0.4024497976
21
10.0949828735
31
0.0000000000
11
-0.0719852904
21
9.8677786300
31
0.0000000000
0
SPLINE
5
389
100
AcDbEntity
8
0
100
AcDbSpline
62
7
6
CONTINUOUS
70
0
71
3
72
10
73
6
74
4
42
0.0000001000
43
0.0000001000
44
0.0000000001
12
-1.3866748281
22
-0.7089651217
32
0.0000000000
13
-1.3899452332
23
-0.7025317583
33
0.0000000000
40
0.0000000000
40
0.0000000000
40
0.0000000000
40
0.0000000000
40
0.3302231205
40
0.6635656892
40
1.0000000000
40
1.0000000000
40
1.0000000000
40
1.0000000000
10
1.5769143810
20
10.2193672018
30
0.0000000000
10
1.4242770180
20
10.1413283101
30
0.0000000000
10
1.1174216034
20
9.9847846852
30
0.0000000000
10
0.6546113932
20
9.7496108280
30
0.0000000000
10
0.3444005687
20
9.5925526839
30
0.0000000000
10
0.1885254799
20
9.5137674213
30
0.0000000000
11
1.5769143810
21
10.2193672018
31
0.0000000000
11
1.1188023375
21
9.9856420336
31
0.0000000000
11
0.6559850040
21
9.7504508422
31
0.0000000000
11
0.1885254799
21
9.5137674213
31
0.0000000000
0
SPLINE
5
38A
100
AcDbEntity
8
0
100
AcDbSpline
62
9
6
CONTINUOUS
70
0
71
3
72
10
73
6
74
4
42
0.0000001000
43
0.0000001000
44
0.0000000001
12
0.0152829576
22
-0.0575794139
32
0.0000000000
13
-0.0543993595
23
-0.0291796312
33
0.0000000000
40
0.0000000000
40
0.0000000000
40
0.0000000000
40
0.0000000000
40
0.0443202375
40
0.4114906369
40
1.0000000000
40
1.0000000000
40
1.0000000000
40
1.0000000000
10
8.8183235392
20
11.3955501573
30
0.0000000000
10
8.8185493206
20
11.3946995129
30
0.0000000000
10
8.8199712885
20
11.3867353550
30
0.0000000000
10
8.8062330036
20
11.3668267217
30
0.0000000000
10
8.7899071092
20
11.3572403560
30
0.0000000000
10
8.7792355984
20
11.3515161940
30
0.0000000000
11
8.8183235392
21
11.3955501573
31
0.0000000000
11
8.8187735545
21
11.3929812833
31
0.0000000000
11
8.8088019926
21
11.3726266866
31
0.0000000000
11
8.7792355984
21
11.3515161940
31
0.0000000000
0
SPLINE
5
38B
100
AcDbEntity
8
0
100
AcDbSpline
62
9
6
CONTINUOUS
70
0
71
3
72
9
73
5
74
3
42
0.0000001000
43
0.0000001000
44
0.0000000001
12
-0.0467869991
22
0.0076136695
32
0.0000000000
13
-0.0432071945
23
-0.0183732532
33
0.0000000000
40
0.0000000000
40
0.0000000000
40
0.0000000000
40
0.0000000000
40
0.1062481940
40
1.0000000000
40
1.0000000000
40
1.0000000000
40
1.0000000000
10
9.0433897328
20
11.0948395567
30
0.0000000000
10
9.0417327214
20
11.0951092029
30
0.0000000000
10
9.0260558229
20
11.0971340067
30
0.0000000000
10
9.0098627814
20
11.0941363433
30
0.0000000000
10
8.9969906120
20
11.0886626339
30
0.0000000000
11
9.0433897328
21
11.0948395567
31
0.0000000000
11
9.0383956106
21
11.0954827694
31
0.0000000000
11
8.9969906120
21
11.0886626339
31
0.0000000000
0
SPLINE
5
38C
100
AcDbEntity
8
0
100
AcDbSpline
62
7
6
CONTINUOUS
70
0
71
3
72
8
73
4
74
2
42
0.0000001000
43
0.0000001000
44
0.0000000001
12
-0.3169947744
22
-0.1495927501
32
0.0000000000
13
-0.3169863755
23
-0.1496105469
33
0.0000000000
40
0.0000000000
40
0.0000000000
40
0.0000000000
40
0.0000000000
40
1.0000000000
40
1.0000000000
40
1.0000000000
40
1.0000000000
10
-2.0436273627
20
12.0296380736
30
0.0000000000
10
-2.1492922875
20
11.9797738236
30
0.0000000000
10
-2.2549557548
20
11.9299064849
30
0.0000000000
10
-2.3606178800
20
11.8800363026
30
0.0000000000
11
-2.0436273627
21
12.0296380736
31
0.0000000000
11
-2.3606178800
21
11.8800363026
31
0.0000000000
0
SPLINE
5
38D
100
AcDbEntity
8
0
100
AcDbSpline
62
7
6
CONTINUOUS
70
0
71
3
72
8
73
4
74
2
42
0.0000001000
43
0.0000001000
44
0.0000000001
12
-0.0307331932
22
-0.0145053863
32
0.0000000000
13
-0.0307331178
23
-0.0145055461
33
0.0000000000
40
0.0000000000
40
0.0000000000
40
0.0000000000
40
0.0000000000
40
1.0000000000
40
1.0000000000
40
1.0000000000
40
1.0000000000
10
-2.3606178800
20
11.8800363026
30
0.0000000000
10
-2.3708622777
20
11.8752011738
30
0.0000000000
10
-2.3811066628
20
11.8703660183
30
0.0000000000
10
-2.3913510354
20
11.8655308363
30
0.0000000000
11
-2.3606178800
21
11.8800363026
31
0.0000000000
11
-2.3913510354
21
11.8655308363
31
0.0000000000
0
SPLINE
5
38E
100
AcDbEntity
8
0
100
AcDbSpline
62
7
6
CONTINUOUS
70
0
71
3
72
10
73
6
74
4
42
0.0000001000
43
0.0000001000
44
0.0000000001
12
-0.7693093043
22
-0.3631018373
32
0.0000000000
13
-0.7692664041
23
-0.3631927164
33
0.0000000000
40
0.0000000000
40
0.0000000000
40
0.0000000000
40
0.0000000000
40
0.1669140553
40
0.7908849303
40
1.0000000000
40
1.0000000000
40
1.0000000000
40
1.0000000000
10
-2.3913510354
20
11.8655308363
30
0.0000000000
10
-2.4341538807
20
11.8453285696
30
0.0000000000
10
-2.6369645577
20
11.7496024532
30
0.0000000000
10
-2.8933937017
20
11.6285530613
30
0.0000000000
10
-3.1070165204
20
11.5276985652
30
0.0000000000
10
-3.1606382530
20
11.5023822085
30
0.0000000000
11
-2.3913510354
21
11.8655308363
31
0.0000000000
11
-2.5197589237
21
11.8049226642
31
0.0000000000
11
-2.9997721858
21
11.5783294371
31
0.0000000000
11
-3.1606382530
21
11.5023822085
31
0.0000000000
0
SPLINE
5
38F
100
AcDbEntity
8
0
100
AcDbSpline
62
7
6
CONTINUOUS
70
0
71
3
72
8
73
4
74
2
42
0.0000001000
43
0.0000001000
44
0.0000000001
12
-0.0739069902
22
-0.0348936082
32
0.0000000000
13
-0.0739066297
23
-0.0348943718
33
0.0000000000
40
0.0000000000
40
0.0000000000
40
0.0000000000
40
0.0000000000
40
1.0000000000
40
1.0000000000
40
1.0000000000
40
1.0000000000
10
-3.1606382530
20
11.5023822085
30
0.0000000000
10
-3.1852739164
20
11.4907510058
30
0.0000000000
10
-3.2099095192
20
11.4791196748
30
0.0000000000
10
-3.2345450625
20
11.4674882176
30
0.0000000000
11
-3.1606382530
21
11.5023822085
31
0.0000000000
11
-3.2345450625
21
11.4674882176
31
0.0000000000
0
SPLINE
5
390
100
AcDbEntity
8
0
100
AcDbSpline
62
7
6
CONTINUOUS
70
0
71
3
72
8
73
4
74
2
42
0.0000001000
43
0.0000001000
44
0.0000000001
12
-0.2491225225
22
-0.1176210301
32
0.0000000000
13
-0.2491185593
23
-0.1176294238
33
0.0000000000
40
0.0000000000
40
0.0000000000
40
0.0000000000
40
0.0000000000
40
1.0000000000
40
1.0000000000
40
1.0000000000
40
1.0000000000
10
-3.2345450625
20
11.4674882176
30
0.0000000000
10
-3.3175859033
20
11.4282812075
30
0.0000000000
10
-3.4006260665
20
11.3890727623
30
0.0000000000
10
-3.4836655863
20
11.3498629544
30
0.0000000000
11
-3.2345450625
21
11.4674882176
31
0.0000000000
11
-3.4836655863
21
11.3498629544
31
0.0000000000
0
SPLINE
5
391
100
AcDbEntity
8
0
100
AcDbSpline
62
9
6
CONTINUOUS
70
0
71
3
72
9
73
5
74
3
42
0.0000001000
43
0.0000001000
44
0.0000000001
12
-3.6505655605
22
-1.8624324032
32
0.0000000000
13
-3.6505211386
23
-1.8625194724
33
0.0000000000
40
0.0000000000
40
0.0000000000
40
0.0000000000
40
0.0000000000
40
0.5004196436
40
1.0000000000
40
1.0000000000
40
1.0000000000
40
1.0000000000
10
5.9450935573
20
7.4898092168
30
0.0000000000
10
5.3361553184
20
7.1791432970
30
0.0000000000
10
4.1193038585
20
6.5583251906
30
0.0000000000
10
2.9024598024
20
5.9374925725
30
0.0000000000
10
2.2945502519
20
5.6273331919
30
0.0000000000
11
5.9450935573
21
7.4898092168
31
0.0000000000
11
4.1182844247
21
6.5578005119
31
0.0000000000
11
2.2945502519
21
5.6273331919
31
0.0000000000
0
SPLINE
5
392
100
AcDbEntity
8
0
100
AcDbSpline
62
9
6
CONTINUOUS
70
0
71
3
72
22
73
18
74
16
42
0.0000001000
43
0.0000001000
44
0.0000000001
12
2.0638917169
22
0.8653208630
32
0.0000000000
13
0.4216298353
23
-2.1948239571
33
0.0000000000
40
0.0000000000
40
0.0000000000
40
0.0000000000
40
0.0000000000
40
0.0208019050
40
0.0672214249
40
0.1230409411
40
0.1915505912
40
0.2737868704
40
0.3667965179
40
0.4650379887
40
0.5609605596
40
0.6480938681
40
0.7249048378
40
0.7923580434
40
0.8518333480
40
0.9050343742
40
0.9537957546
40
1.0000000000
40
1.0000000000
40
1.0000000000
40
1.0000000000
10
7.3045091153
20
12.7199663040
30
0.0000000000
10
7.3188200751
20
12.7259664115
30
0.0000000000
10
7.3659678073
20
12.7432169301
30
0.0000000000
10
7.4563424164
20
12.7617837304
30
0.0000000000
10
7.5844655784
20
12.7615079909
30
0.0000000000
10
7.7360180717
20
12.7291178346
30
0.0000000000
10
7.9037188956
20
12.6567048669
30
0.0000000000
10
8.0747159216
20
12.5442989559
30
0.0000000000
10
8.2347163490
20
12.4012768247
30
0.0000000000
10
8.3727874734
20
12.2430290317
30
0.0000000000
10
8.4845347080
20
12.0845906051
30
0.0000000000
10
8.5714562276
20
11.9355112509
30
0.0000000000
10
8.6380327000
20
11.7989739748
30
0.0000000000
10
8.6888553306
20
11.6746839871
30
0.0000000000
10
8.7276905667
20
11.5607878244
30
0.0000000000
10
8.7574316202
20
11.4544339329
30
0.0000000000
10
8.7727418984
20
11.3853195871
30
0.0000000000
10
8.7792355945
20
11.3515161922
30
0.0000000000
11
7.3045091153
21
12.7199663040
31
0.0000000000
11
7.3482133943
21
12.7359623159
31
0.0000000000
11
7.4497721466
21
12.7571509135
31
0.0000000000
11
7.5745252982
21
12.7576392992
31
0.0000000000
11
7.7245245534
21
12.7269028598
31
0.0000000000
11
7.8938857457
21
12.6555084457
31
0.0000000000
11
8.0683648127
21
12.5425129555
31
0.0000000000
11
8.2327118092
21
12.3969142894
31
0.0000000000
11
8.3740445231
21
12.2357157274
31
0.0000000000
11
8.4864551694
21
12.0766964379
31
0.0000000000
11
8.5729729485
21
11.9284232418
31
0.0000000000
11
8.6390399165
21
11.7929160845
31
0.0000000000
11
8.6893200451
21
11.6698678582
31
0.0000000000
11
8.7276528863
21
11.5573145146
31
0.0000000000
11
8.7569557401
21
11.4523484610
31
0.0000000000
11
8.7792355945
21
11.3515161922
31
0.0000000000
0
SPLINE
5
393
100
AcDbEntity
8
0
100
AcDbSpline
62
9
6
CONTINUOUS
70
0
71
3
72
9
73
5
74
3
42
0.0000001000
43
0.0000001000
44
0.0000000001
12
-3.4972012605
22
-1.7868545766
32
0.0000000000
13
-3.4971718503
23
-1.7869121365
33
0.0000000000
40
0.0000000000
40
0.0000000000
40
0.0000000000
40
0.0000000000
40
0.5222089558
40
1.0000000000
40
1.0000000000
40
1.0000000000
40
1.0000000000
10
5.7917366921
20
8.1049967001
30
0.0000000000
10
5.1829800860
20
7.7939595459
30
0.0000000000
10
4.0172489040
20
7.1983363208
30
0.0000000000
10
2.8515226228
20
6.6027035042
30
0.0000000000
10
2.2945501594
20
6.3181132990
30
0.0000000000
11
5.7917366921
21
8.1049967001
31
0.0000000000
11
3.9654708960
21
7.1718773655
31
0.0000000000
11
2.2945501594
21
6.3181132990
31
0.0000000000
0
SPLINE
5
394
100
AcDbEntity
8
0
100
AcDbSpline
62
9
6
CONTINUOUS
70
0
71
3
72
10
73
6
74
4
42
0.0000001000
43
0.0000001000
44
0.0000000001
12
1.4067674915
22
0.6805935805
32
0.0000000000
13
1.4067634338
23
0.6806019675
33
0.0000000000
40
0.0000000000
40
0.0000000000
40
0.0000000000
40
0.0000000000
40
0.3331951431
40
0.6665284769
40
1.0000000000
40
1.0000000000
40
1.0000000000
40
1.0000000000
10
-0.3483117319
20
10.1445455092
30
0.0000000000
10
-0.1920690333
20
10.2201356677
30
0.0000000000
10
0.1204810146
20
10.3713476450
30
0.0000000000
10
0.5894028364
20
10.5982135676
30
0.0000000000
10
0.9020818839
20
10.7494894887
30
0.0000000000
10
1.0584537322
20
10.8251432802
30
0.0000000000
11
-0.3483117319
21
10.1445455092
31
0.0000000000
11
0.1204161388
21
10.3713164494
31
0.0000000000
11
0.5893379612
21
10.5981823726
31
0.0000000000
11
1.0584537322
21
10.8251432802
31
0.0000000000
0
SPLINE
5
395
100
AcDbEntity
8
0
100
AcDbSpline
62
9
6
CONTINUOUS
70
0
71
3
72
10
73
6
74
4
42
0.0000001000
43
0.0000001000
44
0.0000000001
12
1.4069972278
22
0.6802921742
32
0.0000000000
13
1.4069938615
23
0.6802991364
33
0.0000000000
40
0.0000000000
40
0.0000000000
40
0.0000000000
40
0.0000000000
40
0.3331951343
40
0.6665284681
40
1.0000000000
40
1.0000000000
40
1.0000000000
40
1.0000000000
10
-0.1529080084
20
9.9746862625
30
0.0000000000
10
0.0033602016
20
10.0502429433
30
0.0000000000
10
0.3159613129
20
10.2013879008
30
0.0000000000
10
0.7849598285
20
10.4281531177
30
0.0000000000
10
1.0976900711
20
10.5793617840
30
0.0000000000
10
1.2540875373
20
10.6549819157
30
0.0000000000
11
-0.1529080084
21
9.9746862625
31
0.0000000000
11
0.3158964352
21
10.2013566908
31
0.0000000000
11
0.7848949514
21
10.4281219082
31
0.0000000000
11
1.2540875373
21
10.6549819157
31
0.0000000000
0
SPLINE
5
396
100
AcDbEntity
8
0
100
AcDbSpline
62
9
6
CONTINUOUS
70
0
71
3
72
8
73
4
74
2
42
0.0000001000
43
0.0000001000
44
0.0000000001
12
-0.0808713909
22
-0.0382940012
32
0.0000000000
13
-0.0808713778
23
-0.0382940288
33
0.0000000000
40
0.0000000000
40
0.0000000000
40
0.0000000000
40
0.0000000000
40
1.0000000000
40
1.0000000000
40
1.0000000000
40
1.0000000000
10
-1.7208005190
20
12.1424259438
30
0.0000000000
10
-1.7477576493
20
12.1296612768
30
0.0000000000
10
-1.7747147774
20
12.1168966051
30
0.0000000000
10
-1.8016719034
20
12.1041319288
30
0.0000000000
11
-1.7208005190
21
12.1424259438
31
0.0000000000
11
-1.8016719034
21
12.1041319288
31
0.0000000000
0
SPLINE
5
397
100
AcDbEntity
8
0
100
AcDbSpline
62
9
6
CONTINUOUS
70
0
71
3
72
9
73
5
74
3
42
0.0000001000
43
0.0000001000
44
0.0000000001
12
-0.5739507698
22
-0.2717758485
32
0.0000000000
13
-0.5739501113
23
-0.2717772391
33
0.0000000000
40
0.0000000000
40
0.0000000000
40
0.0000000000
40
0.0000000000
40
0.6849673368
40
1.0000000000
40
1.0000000000
40
1.0000000000
40
1.0000000000
10
-1.8016719034
20
12.1041319288
30
0.0000000000
10
-1.9327177468
20
12.0420794024
30
0.0000000000
10
-2.1240345948
20
11.9514872940
30
0.0000000000
10
-2.3153513331
20
11.8608949540
30
0.0000000000
10
-2.3756223438
20
11.8323553848
30
0.0000000000
11
-1.8016719034
21
12.1041319288
31
0.0000000000
11
-2.1948092791
21
11.9179740233
31
0.0000000000
11
-2.3756223438
21
11.8323553848
31
0.0000000000
0
SPLINE
5
398
100
AcDbEntity
8
0
100
AcDbSpline
62
9
6
CONTINUOUS
70
0
71
3
72
9
73
5
74
3
42
0.0000001000
43
0.0000001000
44
0.0000000001
12
-0.7666103405
22
-0.3630058392
32
0.0000000000
13
-0.7666091683
23
-0.3630083148
33
0.0000000000
40
0.0000000000
40
0.0000000000
40
0.0000000000
40
0.0000000000
40
0.3821987923
40
1.0000000000
40
1.0000000000
40
1.0000000000
40
1.0000000000
10
-2.3756223438
20
11.8323553848
30
0.0000000000
10
-2.4732881926
20
11.7861085870
30
0.0000000000
10
-2.7288248980
20
11.6651064828
30
0.0000000000
10
-2.9843614080
20
11.5441039658
30
0.0000000000
10
-3.1422320980
20
11.4693483073
30
0.0000000000
11
-2.3756223438
21
11.8323553848
31
0.0000000000
11
-2.6686198045
21
11.6936148105
31
0.0000000000
11
-3.1422320980
21
11.4693483073
31
0.0000000000
0
SPLINE
5
399
100
AcDbEntity
8
0
100
AcDbSpline
62
9
6
CONTINUOUS
70
0
71
3
72
10
73
6
74
4
42
0.0000001000
43
0.0000001000
44
0.0000000001
12
-1.4216636427
22
-0.6731454868
32
0.0000000000
13
-1.4216596814
23
-0.6731538528
33
0.0000000000
40
0.0000000000
40
0.0000000000
40
0.0000000000
40
0.0000000000
40
0.3334725468
40
0.6668058797
40
1.0000000000
40
1.0000000000
40
1.0000000000
40
1.0000000000
10
-1.5251667139
20
12.1169535033
30
0.0000000000
10
-1.6831953125
20
12.0421283234
30
0.0000000000
10
-1.9991863906
20
11.8925088898
30
0.0000000000
10
-2.4730736103
20
11.6681256645
30
0.0000000000
10
-2.7889321589
20
11.5185674658
30
0.0000000000
10
-2.9468283746
20
11.4438038306
30
0.0000000000
11
-1.5251667139
21
12.1169535033
31
0.0000000000
11
-1.9992522889
21
11.8924774975
31
0.0000000000
11
-2.4731395081
21
11.6680942728
31
0.0000000000
11
-2.9468283746
21
11.4438038306
31
0.0000000000
0
SPLINE
5
39A
100
AcDbEntity
8
0
100
AcDbSpline
62
7
6
CONTINUOUS
70
0
71
3
72
8
73
4
74
2
42
0.0000001000
43
0.0000001000
44
0.0000000001
12
-0.1254317017
22
-0.0487444830
32
0.0000000000
13
-0.1242070027
23
-0.0519648777
33
0.0000000000
40
0.0000000000
40
0.0000000000
40
0.0000000000
40
0.0000000000
40
1.0000000000
40
1.0000000000
40
1.0000000000
40
1.0000000000
10
-3.4836655863
20
11.3498629544
30
0.0000000000
10
-3.5254761535
20
11.3336147934
30
0.0000000000
10
-3.5670907326
20
11.3168263686
30
0.0000000000
10
-3.6084930668
20
11.2995047427
30
0.0000000000
11
-3.4836655863
21
11.3498629544
31
0.0000000000
11
-3.6084930668
21
11.2995047427
31
0.0000000000
0
SPLINE
5
39B
100
AcDbEntity
8
0
100
AcDbSpline
62
9
6
CONTINUOUS
70
0
71
3
72
11
73
7
74
5
42
0.0000001000
43
0.0000001000
44
0.0000000001
12
0.2817141010
22
-0.5736084078
32
0.0000000000
13
-0.0007485420
23
-0.6390531119
33
0.0000000000
40
0.0000000000
40
0.0000000000
40
0.0000000000
40
0.0000000000
40
0.2614917377
40
0.5179380681
40
0.7652812829
40
1.0000000000
40
1.0000000000
40
1.0000000000
40
1.0000000000
10
5.7917316712
20
8.1049943246
30
0.0000000000
10
5.8162869745
20
8.0549963715
30
0.0000000000
10
5.8598903126
20
7.9533959175
30
0.0000000000
10
5.9082388944
20
7.7973926756
30
0.0000000000
10
5.9380309187
20
7.6425923553
30
0.0000000000
10
5.9451473911
20
7.5398107430
30
0.0000000000
10
5.9450888255
20
7.4898115009
30
0.0000000000
11
5.7917316712
21
8.1049943246
31
0.0000000000
11
5.8575414875
21
7.9513912901
31
0.0000000000
11
5.9058329002
21
7.7947849148
31
0.0000000000
11
5.9352940563
21
7.6394891924
31
0.0000000000
11
5.9450888255
21
7.4898115009
31
0.0000000000
0
SPLINE
5
39C
100
AcDbEntity
8
0
100
AcDbSpline
62
9
6
CONTINUOUS
70
0
71
3
72
10
73
6
74
4
42
0.0000001000
43
0.0000001000
44
0.0000000001
12
0.5409245720
22
-0.9792539419
32
0.0000000000
13
0.4919946331
23
-1.0047282998
33
0.0000000000
40
0.0000000000
40
0.0000000000
40
0.0000000000
40
0.0000000000
40
0.3331089694
40
0.6664526012
40
1.0000000000
40
1.0000000000
40
1.0000000000
40
1.0000000000
10
5.2751829847
20
9.0972086736
30
0.0000000000
10
5.3352452603
20
8.9884759165
30
0.0000000000
10
5.4536224619
20
8.7699394851
30
0.0000000000
10
5.6258294286
20
8.4391589583
30
0.0000000000
10
5.7370355154
20
8.2167048704
30
0.0000000000
10
5.7917366921
20
8.1049967001
30
0.0000000000
11
5.2751829847
21
9.0972086736
31
0.0000000000
11
5.4526790607
21
8.7695384922
31
0.0000000000
11
5.6248855954
21
8.4387617641
31
0.0000000000
11
5.7917366921
21
8.1049967001
31
0.0000000000
0
SPLINE
5
39D
100
AcDbEntity
8
0
100
AcDbSpline
62
7
6
CONTINUOUS
70
0
71
3
72
9
73
5
74
3
42
0.0000001000
43
0.0000001000
44
0.0000000001
12
0.1361977451
22
-0.0115853094
32
0.0000000000
13
0.1281130638
23
-0.0471779657
33
0.0000000000
40
0.0000000000
40
0.0000000000
40
0.0000000000
40
0.0000000000
40
0.3757271986
40
1.0000000000
40
1.0000000000
40
1.0000000000
40
1.0000000000
10
2.8329881809
20
10.4062997785
30
0.0000000000
10
2.8500459133
20
10.4048488066
30
0.0000000000
10
2.8952905992
20
10.3989033573
30
0.0000000000
10
2.9395449404
20
10.3872382041
30
0.0000000000
10
2.9662041075
20
10.3774208972
30
0.0000000000
11
2.8329881809
21
10.4062997785
31
0.0000000000
11
2.8839054236
21
10.3995736167
31
0.0000000000
11
2.9662041075
21
10.3774208972
31
0.0000000000
0
SPLINE
5
39E
100
AcDbEntity
8
0
100
AcDbSpline
62
7
6
CONTINUOUS
70
0
71
3
72
8
73
4
74
2
42
0.0000001000
43
0.0000001000
44
0.0000000001
12
0.0469231407
22
-0.0172795674
32
0.0000000000
13
0.0447609377
23
-0.0224620746
33
0.0000000000
40
0.0000000000
40
0.0000000000
40
0.0000000000
40
0.0000000000
40
1.0000000000
40
1.0000000000
40
1.0000000000
40
1.0000000000
10
2.9662041075
20
10.3774208972
30
0.0000000000
10
2.9818451544
20
10.3716610414
30
0.0000000000
10
2.9971151871
20
10.3648877440
30
0.0000000000
10
3.0120354997
20
10.3574003858
30
0.0000000000
11
2.9662041075
21
10.3774208972
31
0.0000000000
11
3.0120354997
21
10.3574003858
31
0.0000000000
0
SPLINE
5
39F
100
AcDbEntity
8
0
100
AcDbSpline
62
9
6
CONTINUOUS
70
0
71
3
72
10
73
6
74
4
42
0.0000001000
43
0.0000001000
44
0.0000000001
12
-0.0899291040
22
0.1651005979
32
0.0000000000
13
-0.1686491785
23
0.0830837273
33
0.0000000000
40
0.0000000000
40
0.0000000000
40
0.0000000000
40
0.0000000000
40
0.3570677830
40
0.6943409958
40
1.0000000000
40
1.0000000000
40
1.0000000000
40
1.0000000000
10
5.2751829847
20
9.0972086736
30
0.0000000000
10
5.2644793894
20
9.1168593751
30
0.0000000000
10
5.2404017095
20
9.1534233190
30
0.0000000000
10
5.1969117904
20
9.1989985276
30
0.0000000000
10
5.1632390623
20
9.2219627753
30
0.0000000000
10
5.1460560157
20
9.2304278717
30
0.0000000000
11
5.2751829847
21
9.0972086736
31
0.0000000000
11
5.2380970372
21
9.1531647786
31
0.0000000000
11
5.1939650974
21
9.1986953263
31
0.0000000000
11
5.1460560157
21
9.2304278717
31
0.0000000000
0
SPLINE
5
3A0
100
AcDbEntity
8
0
100
AcDbSpline
62
9
6
CONTINUOUS
70
0
71
3
72
9
73
5
74
3
42
0.0000001000
43
0.0000001000
44
0.0000000001
12
-0.0265540341
22
-0.0127093449
32
0.0000000000
13
-0.0297967486
23
0.0022890203
33
0.0000000000
40
0.0000000000
40
0.0000000000
40
0.0000000000
40
0.0000000000
40
0.8294267663
40
1.0000000000
40
1.0000000000
40
1.0000000000
40
1.0000000000
10
2.2214231043
20
9.3459537748
30
0.0000000000
10
2.2140815621
20
9.3424399512
30
0.0000000000
10
2.2044109515
20
9.3394349172
30
0.0000000000
10
2.1944380164
20
9.3396316438
30
0.0000000000
10
2.1927438405
20
9.3397617923
30
0.0000000000
11
2.2214231043
21
9.3459537748
31
0.0000000000
11
2.1978314518
21
9.3396576872
31
0.0000000000
11
2.1927438405
21
9.3397617923
31
0.0000000000
0
SPLINE
5
3A1
100
AcDbEntity
8
0
100
AcDbSpline
62
9
6
CONTINUOUS
70
0
71
3
72
12
73
8
74
6
42
0.0000001000
43
0.0000001000
44
0.0000000001
12
-0.0836129572
22
0.1302622163
32
0.0000000000
13
-0.1357318951
23
0.0745312995
33
0.0000000000
40
0.0000000000
40
0.0000000000
40
0.0000000000
40
0.0000000000
40
0.2714530558
40
0.5091795059
40
0.7157386547
40
0.8943400126
40
1.0000000000
40
1.0000000000
40
1.0000000000
40
1.0000000000
10
2.3373996444
20
9.2348440958
30
0.0000000000
10
2.3298339802
20
9.2466307880
30
0.0000000000
10
2.3144763328
20
9.2680220943
30
0.0000000000
10
2.2898316256
20
9.2956110401
30
0.0000000000
10
2.2659913720
20
9.3172538321
30
0.0000000000
10
2.2455204300
20
9.3322381247
30
0.0000000000
10
2.2329242366
20
9.3397949047
30
0.0000000000
10
2.2281437598
20
9.3424198968
30
0.0000000000
11
2.3373996444
21
9.2348440958
31
0.0000000000
11
2.3128410021
21
9.2689375202
31
0.0000000000
11
2.2882698420
21
9.2963290296
31
0.0000000000
11
2.2645409382
21
9.3177581223
31
0.0000000000
11
2.2421859651
21
9.3340222508
31
0.0000000000
11
2.2281437598
21
9.3424198968
31
0.0000000000
0
SPLINE
5
3A2
100
AcDbEntity
8
0
100
AcDbSpline
62
9
6
CONTINUOUS
70
0
71
3
72
8
73
4
74
2
42
0.0000001000
43
0.0000001000
44
0.0000000001
12
-0.0066573806
22
0.0036556126
32
0.0000000000
13
-0.0067835493
23
0.0034092105
33
0.0000000000
40
0.0000000000
40
0.0000000000
40
0.0000000000
40
0.0000000000
40
1.0000000000
40
1.0000000000
40
1.0000000000
40
1.0000000000
10
2.2281437598
20
9.3424198968
30
0.0000000000
10
2.2259246329
20
9.3436384343
30
0.0000000000
10
2.2236842871
20
9.3448173514
30
0.0000000000
10
2.2214231040
20
9.3459537549
30
0.0000000000
11
2.2281437598
21
9.3424198968
31
0.0000000000
11
2.2214231040
21
9.3459537549
31
0.0000000000
0
SPLINE
5
3A3
100
AcDbEntity
8
0
100
AcDbSpline
62
7
6
CONTINUOUS
70
0
71
3
72
10
73
6
74
4
42
0.0000001000
43
0.0000001000
44
0.0000000001
12
-0.1197574470
22
0.0762930868
32
0.0000000000
13
-0.1102467251
23
0.0895263315
33
0.0000000000
40
0.0000000000
40
0.0000000000
40
0.0000000000
40
0.0000000000
40
0.3669293863
40
0.7156131873
40
1.0000000000
40
1.0000000000
40
1.0000000000
40
1.0000000000
10
2.3374010214
20
9.2348451660
30
0.0000000000
10
2.3227535126
20
9.2441765578
30
0.0000000000
10
2.2941739601
20
9.2623572933
30
0.0000000000
10
2.2550334868
20
9.2889956855
30
0.0000000000
10
2.2311521668
20
9.3071255422
30
0.0000000000
10
2.2207012619
20
9.3156122449
30
0.0000000000
11
2.3374010214
21
9.2348451660
31
0.0000000000
11
2.2935951724
21
9.2630527375
31
0.0000000000
11
2.2527890970
21
9.2910924701
31
0.0000000000
11
2.2207012619
21
9.3156122449
31
0.0000000000
0
SPLINE
5
3A4
100
AcDbEntity
8
0
100
AcDbSpline
62
9
6
CONTINUOUS
70
0
71
3
72
9
73
5
74
3
42
0.0000001000
43
0.0000001000
44
0.0000000001
12
-0.0007489817
22
-0.0652046973
32
0.0000000000
13
-0.0571919352
23
-0.0317590395
33
0.0000000000
40
0.0000000000
40
0.0000000000
40
0.0000000000
40
0.0000000000
40
0.4193495800
40
1.0000000000
40
1.0000000000
40
1.0000000000
40
1.0000000000
10
11.3401116718
20
-2.4227752511
30
0.0000000000
10
11.3400069768
20
-2.4318897720
30
0.0000000000
10
11.3310903516
20
-2.4538675687
30
0.0000000000
10
11.3126698243
20
-2.4668132745
30
0.0000000000
10
11.3016003172
20
-2.4729602410
30
0.0000000000
11
11.3401116718
21
-2.4227752511
31
0.0000000000
11
11.3308573108
21
-2.4487342017
31
0.0000000000
11
11.3016003172
21
-2.4729602410
31
0.0000000000
0
SPLINE
5
3A5
100
AcDbEntity
8
0
100
AcDbSpline
62
7
6
CONTINUOUS
70
0
71
3
72
10
73
6
74
4
42
0.0000001000
43
0.0000001000
44
0.0000000001
12
-0.1580947095
22
0.2074836297
32
0.0000000000
13
-0.2333124837
23
0.1166562418
33
0.0000000000
40
0.0000000000
40
0.0000000000
40
0.0000000000
40
0.0000000000
40
0.3543142172
40
0.6915688824
40
1.0000000000
40
1.0000000000
40
1.0000000000
40
1.0000000000
10
-0.1529080894
20
9.9746863691
30
0.0000000000
10
-0.1715798238
20
9.9991911691
30
0.0000000000
10
-0.2110144223
20
10.0448588142
30
0.0000000000
10
-0.2765370813
20
10.1024378529
30
0.0000000000
10
-0.3243247265
20
10.1325520065
30
0.0000000000
10
-0.3483116698
20
10.1445454782
30
0.0000000000
11
-0.1529080894
21
9.9746863691
31
0.0000000000
11
-0.2135303030
21
10.0444503799
31
0.0000000000
11
-0.2799208836
21
10.1021703477
31
0.0000000000
11
-0.3483116698
21
10.1445454782
31
0.0000000000
0
SPLINE
5
3A6
100
AcDbEntity
8
0
100
AcDbSpline
62
9
6
CONTINUOUS
70
0
71
3
72
9
73
5
74
3
42
0.0000001000
43
0.0000001000
44
0.0000000001
12
-0.0007489686
22
-0.0652046958
32
0.0000000000
13
-0.0571919370
23
-0.0317590405
33
0.0000000000
40
0.0000000000
40
0.0000000000
40
0.0000000000
40
0.0000000000
40
0.4193500245
40
1.0000000000
40
1.0000000000
40
1.0000000000
40
1.0000000000
10
11.3401116725
20
-1.5134485772
30
0.0000000000
10
11.3400069791
20
-1.5225631075
30
0.0000000000
10
11.3310903414
20
-1.5445409009
30
0.0000000000
10
11.3126698161
20
-1.5574866050
30
0.0000000000
10
11.3016003172
20
-1.5636335670
30
0.0000000000
11
11.3401116725
21
-1.5134485772
31
0.0000000000
11
11.3308572938
21
-1.5394075508
31
0.0000000000
11
11.3016003172
21
-1.5636335670
31
0.0000000000
0
SPLINE
5
3A7
100
AcDbEntity
8
0
100
AcDbSpline
62
9
6
CONTINUOUS
70
0
71
3
72
10
73
6
74
4
42
0.0000001000
43
0.0000001000
44
0.0000000001
12
-0.1005949805
22
0.0508896004
32
0.0000000000
13
-0.1009766225
23
-0.0483296329
33
0.0000000000
40
0.0000000000
40
0.0000000000
40
0.0000000000
40
0.0000000000
40
0.0613814478
40
0.4990633853
40
1.0000000000
40
1.0000000000
40
1.0000000000
40
1.0000000000
10
5.2547519446
20
9.2360017694
30
0.0000000000
10
5.2526937228
20
9.2370429952
30
0.0000000000
10
5.2356563451
20
9.2448731966
30
0.0000000000
10
5.1970909193
20
9.2494685851
30
0.0000000000
10
5.1629169782
20
9.2384978993
30
0.0000000000
10
5.1460560157
20
9.2304278717
30
0.0000000000
11
5.2547519446
21
9.2360017694
31
0.0000000000
11
5.2484693369
21
9.2388853624
31
0.0000000000
11
5.1999705225
21
9.2458545553
31
0.0000000000
11
5.1460560157
21
9.2304278717
31
0.0000000000
0
SPLINE
5
3A8
100
AcDbEntity
8
0
100
AcDbSpline
62
9
6
CONTINUOUS
70
0
71
3
72
10
73
6
74
4
42
0.0000001000
43
0.0000001000
44
0.0000000001
12
-0.0433648141
22
0.0184422481
32
0.0000000000
13
-0.0838036672
23
-0.0417451496
33
0.0000000000
40
0.0000000000
40
0.0000000000
40
0.0000000000
40
0.0000000000
40
0.0986327042
40
0.4432543235
40
1.0000000000
40
1.0000000000
40
1.0000000000
40
1.0000000000
10
5.3616356412
20
9.1328958356
30
0.0000000000
10
5.3602099115
20
9.1335021718
30
0.0000000000
10
5.3408099400
20
9.1303545213
30
0.0000000000
10
5.3186627755
20
9.1167825944
30
0.0000000000
10
5.2907354278
20
9.1049558175
30
0.0000000000
10
5.2751829847
20
9.0972086736
30
0.0000000000
11
5.3616356412
21
9.1328958356
31
0.0000000000
11
5.3520506784
21
9.1319593281
31
0.0000000000
11
5.3221964715
21
9.1197209499
31
0.0000000000
11
5.2751829847
21
9.0972086736
31
0.0000000000
0
SPLINE
5
3A9
100
AcDbEntity
8
0
100
AcDbSpline
62
9
6
CONTINUOUS
70
0
71
3
72
9
73
5
74
3
42
0.0000001000
43
0.0000001000
44
0.0000000001
12
0.0102520561
22
-0.0046138843
32
0.0000000000
13
-0.0794189017
23
-0.0397395434
33
0.0000000000
40
0.0000000000
40
0.0000000000
40
0.0000000000
40
0.0000000000
40
0.3000297132
40
1.0000000000
40
1.0000000000
40
1.0000000000
40
1.0000000000
10
5.8743539405
20
8.1470601065
30
0.0000000000
10
5.8753792477
20
8.1465986724
30
0.0000000000
10
5.8222745841
20
8.1212502068
30
0.0000000000
10
5.8102669823
20
8.1142688672
30
0.0000000000
10
5.7917366919
20
8.1049967006
30
0.0000000000
11
5.8743539405
21
8.1470601065
31
0.0000000000
11
5.8472127620
21
8.1330414555
31
0.0000000000
11
5.7917366919
21
8.1049967006
31
0.0000000000
0
SPLINE
5
3AA
100
AcDbEntity
8
0
100
AcDbSpline
62
9
6
CONTINUOUS
70
0
71
3
72
9
73
5
74
3
42
0.0000001000
43
0.0000001000
44
0.0000000001
12
-0.0006846904
22
-0.1149687886
32
0.0000000000
13
-0.1027107750
23
-0.0531800583
33
0.0000000000
40
0.0000000000
40
0.0000000000
40
0.0000000000
40
0.0000000000
40
0.4275638898
40
1.0000000000
40
1.0000000000
40
1.0000000000
40
1.0000000000
10
6.0152547087
20
7.5765546970
30
0.0000000000
10
6.0151571257
20
7.5601691962
30
0.0000000000
10
5.9978528279
20
7.5216817265
30
0.0000000000
10
5.9646920095
20
7.4999566120
30
0.0000000000
10
5.9450935573
20
7.4898092168
30
0.0000000000
11
6.0152547087
21
7.5765546970
31
0.0000000000
11
5.9974609955
21
7.5303218326
31
0.0000000000
11
5.9450935573
21
7.4898092168
31
0.0000000000
0
SPLINE
5
3AB
100
AcDbEntity
8
0
100
AcDbSpline
62
7
6
CONTINUOUS
70
0
71
3
72
10
73
6
74
4
42
0.0000001000
43
0.0000001000
44
0.0000000001
12
0.0002846501
22
-0.2490791257
32
0.0000000000
13
-0.1231362698
23
-0.2157297101
33
0.0000000000
40
0.0000000000
40
0.0000000000
40
0.0000000000
40
0.0000000000
40
0.2646879815
40
0.6151507800
40
1.0000000000
40
1.0000000000
40
1.0000000000
40
1.0000000000
10
6.0152633689
20
6.7445009243
30
0.0000000000
10
6.0152884834
20
6.7225248406
30
0.0000000000
10
6.0099657391
20
6.6716118550
30
0.0000000000
10
5.9870709261
20
6.5916091141
30
0.0000000000
10
5.9608898564
20
6.5363091471
30
0.0000000000
10
5.9450935573
20
6.5086346769
30
0.0000000000
11
6.0152633689
21
6.7445009243
31
0.0000000000
11
6.0090858933
21
6.6790256125
31
0.0000000000
11
5.9857350629
21
6.5951613336
31
0.0000000000
11
5.9450935573
21
6.5086346769
31
0.0000000000
0
SPLINE
5
3AC
100
AcDbEntity
8
0
100
AcDbSpline
62
9
6
CONTINUOUS
70
0
71
3
72
16
73
12
74
10
42
0.0000001000
43
0.0000001000
44
0.0000000001
12
0.7704012132
22
-1.0074039349
32
0.0000000000
13
0.0000000000
23
-1.2674747287
33
0.0000000000
40
0.0000000000
40
0.0000000000
40
0.0000000000
40
0.0000000000
40
0.0764929471
40
0.2521863709
40
0.4074803557
40
0.5413519256
40
0.6566986491
40
0.7567777078
40
0.8450937723
40
0.9250437634
40
1.0000000000
40
1.0000000000
40
1.0000000000
40
1.0000000000
10
10.8788414257
20
-0.3906315820
30
0.0000000000
10
10.8984848454
20
-0.4163180139
30
0.0000000000
10
10.9611808731
20
-0.5025832167
30
0.0000000000
10
11.0515559055
20
-0.6494753245
30
0.0000000000
10
11.1379835269
20
-0.8261320829
30
0.0000000000
10
11.1998889700
20
-0.9856229915
30
0.0000000000
10
11.2427507707
20
-1.1269704221
30
0.0000000000
10
11.2714017900
20
-1.2521569250
30
0.0000000000
10
11.2894574409
20
-1.3641617951
30
0.0000000000
10
11.2993991260
20
-1.4665023148
30
0.0000000000
10
11.3016003172
20
-1.5319651885
30
0.0000000000
10
11.3016003172
20
-1.5636335670
30
0.0000000000
11
10.8788414257
21
-0.3906315820
31
0.0000000000
11
10.9358963816
21
-0.4690771504
31
0.0000000000
11
11.0527352441
21
-0.6586508007
31
0.0000000000
11
11.1392238426
21
-0.8354621242
31
0.0000000000
11
11.2005429935
21
-0.9936735893
31
0.0000000000
11
11.2428713652
21
-1.1336109798
31
0.0000000000
11
11.2710737150
21
-1.2572837772
31
0.0000000000
11
11.2887961432
21
-1.3678103189
31
0.0000000000
11
11.2985029466
21
-1.4686789353
31
0.0000000000
11
11.3016003172
21
-1.5636335670
31
0.0000000000
0
SPLINE
5
3AD
100
AcDbEntity
8
0
100
AcDbSpline
62
9
6
CONTINUOUS
70
0
71
3
72
9
73
5
74
3
42
0.0000001000
43
0.0000001000
44
0.0000000001
12
0.6582534728
22
0.3089684447
32
0.0000000000
13
0.6583493995
23
0.3087639900
33
0.0000000000
40
0.0000000000
40
0.0000000000
40
0.0000000000
40
0.0000000000
40
0.4948253087
40
1.0000000000
40
1.0000000000
40
1.0000000000
40
1.0000000000
10
8.1209367608
20
11.0426444134
30
0.0000000000
10
8.2295102535
20
11.0936062154
30
0.0000000000
10
8.4489347723
20
11.1965814342
30
0.0000000000
10
8.6683751097
20
11.2995229411
30
0.0000000000
10
8.7792355945
20
11.3515161922
30
0.0000000000
11
8.1209367608
21
11.0426444134
31
0.0000000000
11
8.4466677372
21
11.1955074498
31
0.0000000000
11
8.7792355945
21
11.3515161922
31
0.0000000000
0
SPLINE
5
3AE
100
AcDbEntity
8
0
100
AcDbSpline
62
7
6
CONTINUOUS
70
0
71
3
72
9
73
5
74
3
42
0.0000001000
43
0.0000001000
44
0.0000000001
12
0.2247529464
22
0.3640283277
32
0.0000000000
13
0.3773656845
23
0.1985704299
33
0.0000000000
40
0.0000000000
40
0.0000000000
40
0.0000000000
40
0.0000000000
40
0.4532535827
40
1.0000000000
40
1.0000000000
40
1.0000000000
40
1.0000000000
10
4.9426337534
20
11.0563270454
30
0.0000000000
10
4.9765904461
20
11.1113260933
30
0.0000000000
10
5.0672759732
20
11.2229887892
30
0.0000000000
10
5.1853000854
20
11.3060824367
30
0.0000000000
10
5.2540745307
20
11.3422716604
30
0.0000000000
11
4.9426337534
21
11.0563270454
31
0.0000000000
11
5.0644139326
21
11.2066799359
31
0.0000000000
11
5.2540745307
21
11.3422716604
31
0.0000000000
0
SPLINE
5
3AF
100
AcDbEntity
8
0
100
AcDbSpline
62
9
6
CONTINUOUS
70
0
71
3
72
9
73
5
74
3
42
0.0000001000
43
0.0000001000
44
0.0000000001
12
0.6649004260
22
0.3010815512
32
0.0000000000
13
0.6652659712
23
0.3002729566
33
0.0000000000
40
0.0000000000
40
0.0000000000
40
0.0000000000
40
0.0000000000
40
0.4947937215
40
1.0000000000
40
1.0000000000
40
1.0000000000
40
1.0000000000
10
8.3319120687
20
10.7879748501
30
0.0000000000
10
8.4415749208
20
10.8376326039
30
0.0000000000
10
8.6632363070
20
10.9379314812
30
0.0000000000
10
8.8849584302
20
11.0380960396
30
0.0000000000
10
8.9969906121
20
11.0886626339
30
0.0000000000
11
8.3319120687
21
10.7879748501
31
0.0000000000
11
8.6609431149
21
10.9368542293
31
0.0000000000
11
8.9969906121
21
11.0886626339
31
0.0000000000
0
SPLINE
5
3B0
100
AcDbEntity
8
0
100
AcDbSpline
62
7
6
CONTINUOUS
70
0
71
3
72
11
73
7
74
5
42
0.0000001000
43
0.0000001000
44
0.0000000001
12
0.1465445877
22
-0.1732204075
32
0.0000000000
13
0.2054206205
23
0.1014823374
33
0.0000000000
40
0.0000000000
40
0.0000000000
40
0.0000000000
40
0.0000000000
40
0.3209114866
40
0.6022285347
40
0.8420063614
40
1.0000000000
40
1.0000000000
40
1.0000000000
40
1.0000000000
10
-3.4836655863
20
11.3498629544
30
0.0000000000
10
-3.4679896391
20
11.3313334816
30
0.0000000000
10
-3.4349230736
20
11.2993315110
30
0.0000000000
10
-3.3787557141
20
11.2675818813
30
0.0000000000
10
-3.3265528763
20
11.2587824864
30
0.0000000000
10
-3.2966380248
20
11.2671607193
30
0.0000000000
10
-3.2858196411
20
11.2725052405
30
0.0000000000
11
-3.4836655863
21
11.3498629544
31
0.0000000000
11
-3.4307312746
21
11.2998664666
31
0.0000000000
11
-3.3744409521
21
11.2697742861
31
0.0000000000
11
-3.3205067404
21
11.2626400494
31
0.0000000000
11
-3.2858196411
21
11.2725052405
31
0.0000000000
0
SPLINE
5
3B1
100
AcDbEntity
8
0
100
AcDbSpline
62
9
6
CONTINUOUS
70
0
71
3
72
17
73
13
74
11
42
0.0000001000
43
0.0000001000
44
0.0000000001
12
0.0761281793
22
-0.3496293082
32
0.0000000000
13
0.3519974243
23
-0.0642959264
33
0.0000000000
40
0.0000000000
40
0.0000000000
40
0.0000000000
40
0.0000000000
40
0.0948837176
40
0.2018648906
40
0.3173507187
40
0.4366273361
40
0.5548062645
40
0.6674110102
40
0.7704541361
40
0.8609485733
40
0.9374714852
40
1.0000000000
40
1.0000000000
40
1.0000000000
40
1.0000000000
10
8.7792357790
20
11.3515161675
30
0.0000000000
10
8.7816435538
20
11.3404581247
30
0.0000000000
10
8.7878854973
20
11.3171645295
30
0.0000000000
10
8.8009892920
20
11.2815979239
30
0.0000000000
10
8.8186344902
20
11.2447837401
30
0.0000000000
10
8.8404700470
20
11.2087110988
30
0.0000000000
10
8.8656719395
20
11.1753238014
30
0.0000000000
10
8.8930506929
20
11.1462937545
30
0.0000000000
10
8.9211658942
20
11.1228442402
30
0.0000000000
10
8.9484853319
20
11.1055824687
30
0.0000000000
10
8.9735782529
20
11.0943891987
30
0.0000000000
10
8.9896539703
20
11.0900028741
30
0.0000000000
10
8.9969905956
20
11.0886627645
30
0.0000000000
11
8.7792357790
21
11.3515161675
31
0.0000000000
11
8.7879739079
21
11.3187084805
31
0.0000000000
11
8.8011701577
21
11.2827748042
31
0.0000000000
11
8.8190201895
21
11.2455056276
31
0.0000000000
11
8.8411446251
21
11.2090081159
31
0.0000000000
11
8.8666797301
21
11.1753013732
31
0.0000000000
11
8.8944124202
21
11.1460716899
31
0.0000000000
11
8.9228298309
21
11.1225786267
31
0.0000000000
11
8.9502985587
21
11.1054325431
31
0.0000000000
11
8.9753731269
21
11.0944318838
31
0.0000000000
11
8.9969905956
21
11.0886627645
31
0.0000000000
0
SPLINE
5
3B2
100
AcDbEntity
8
0
100
AcDbSpline
62
9
6
CONTINUOUS
70
0
71
3
72
8
73
4
74
2
42
0.0000001000
43
0.0000001000
44
0.0000000001
12
0.0751975949
22
-0.0122117967
32
0.0000000000
13
0.0736349392
23
-0.0196910725
33
0.0000000000
40
0.0000000000
40
0.0000000000
40
0.0000000000
40
0.0000000000
40
1.0000000000
40
1.0000000000
40
1.0000000000
40
1.0000000000
10
8.9969906121
20
11.0886626339
30
0.0000000000
10
9.0220564770
20
11.0845920350
30
0.0000000000
10
9.0469200345
20
11.0791835791
30
0.0000000000
10
9.0714650142
20
11.0726198882
30
0.0000000000
11
8.9969906121
21
11.0886626339
31
0.0000000000
11
9.0714650142
21
11.0726198882
31
0.0000000000
0
SPLINE
5
3B3
100
AcDbEntity
8
0
100
AcDbSpline
62
9
6
CONTINUOUS
70
0
71
3
72
8
73
4
74
2
42
0.0000001000
43
0.0000001000
44
0.0000000001
12
0.0255446031
22
-0.0068310049
32
0.0000000000
13
0.0253086472
23
-0.0076454195
33
0.0000000000
40
0.0000000000
40
0.0000000000
40
0.0000000000
40
0.0000000000
40
1.0000000000
40
1.0000000000
40
1.0000000000
40
1.0000000000
10
9.0714650142
20
11.0726198882
30
0.0000000000
10
9.0799798819
20
11.0703428866
30
0.0000000000
10
9.0884564102
20
11.0679268574
30
0.0000000000
10
9.0968926259
20
11.0653783843
30
0.0000000000
11
9.0714650142
21
11.0726198882
31
0.0000000000
11
9.0968926259
21
11.0653783843
31
0.0000000000
0
SPLINE
5
3B4
100
AcDbEntity
8
0
100
AcDbSpline
62
9
6
CONTINUOUS
70
0
71
3
72
16
73
12
74
10
42
0.0000001000
43
0.0000001000
44
0.0000000001
12
1.1820517047
22
-0.3570827445
32
0.0000000000
13
0.5612126834
23
-1.1001479503
33
0.0000000000
40
0.0000000000
40
0.0000000000
40
0.0000000000
40
0.0000000000
40
0.0446269808
40
0.1183047683
40
0.2032218170
40
0.3034271987
40
0.4233557969
40
0.5678541228
40
0.7396715321
40
0.9331442221
40
1.0000000000
40
1.0000000000
40
1.0000000000
40
1.0000000000
10
9.0968926259
20
11.0653783843
30
0.0000000000
10
9.1144764254
20
11.0600665427
30
0.0000000000
10
9.1606262686
20
11.0444596703
30
0.0000000000
10
9.2375717524
20
11.0114240426
30
0.0000000000
10
9.3312260895
20
10.9604318818
30
0.0000000000
10
9.4354782225
20
10.8901983768
30
0.0000000000
10
9.5513977742
20
10.7945748715
30
0.0000000000
10
9.6778877590
20
10.6667766505
30
0.0000000000
10
9.8091587287
20
10.5026496637
30
0.0000000000
10
9.9045263509
20
10.3521373356
30
0.0000000000
10
9.9550440367
20
10.2575974544
30
0.0000000000
10
9.9675508069
20
10.2330803721
30
0.0000000000
11
9.0968926259
21
11.0653783843
31
0.0000000000
11
9.1491007564
21
11.0477763033
31
0.0000000000
11
9.2327429586
21
11.0120711262
31
0.0000000000
11
9.3249096224
21
10.9621508856
31
0.0000000000
11
9.4276500930
21
10.8932792121
31
0.0000000000
11
9.5420662648
21
10.7993480892
31
0.0000000000
11
9.6678244475
21
10.6728655243
31
0.0000000000
11
9.8006070769
21
10.5074929686
31
0.0000000000
11
9.9286395969
21
10.3059003930
31
0.0000000000
11
9.9675508069
21
10.2330803721
31
0.0000000000
0
SPLINE
5
3B5
100
AcDbEntity
8
0
100
AcDbSpline
62
9
6
CONTINUOUS
70
0
71
3
72
8
73
4
74
2
42
0.0000001000
43
0.0000001000
44
0.0000000001
12
0.0171343363
22
-0.0335885226
32
0.0000000000
13
0.0165474492
23
-0.0338813966
33
0.0000000000
40
0.0000000000
40
0.0000000000
40
0.0000000000
40
0.0000000000
40
1.0000000000
40
1.0000000000
40
1.0000000000
40
1.0000000000
10
9.9675508069
20
10.2330803721
30
0.0000000000
10
9.9732622523
20
10.2218841979
30
0.0000000000
10
9.9788763409
20
10.2106383905
30
0.0000000000
10
9.9843921573
20
10.1993445917
30
0.0000000000
11
9.9675508069
21
10.2330803721
31
0.0000000000
11
9.9843921573
21
10.1993445917
31
0.0000000000
0
SPLINE
5
3B6
100
AcDbEntity
8
0
100
AcDbSpline
62
7
6
CONTINUOUS
70
0
71
3
72
9
73
5
74
3
42
0.0000001000
43
0.0000001000
44
0.0000000001
12
-0.0811265174
22
-0.0253439922
32
0.0000000000
13
-0.0807149632
23
-0.0266256358
33
0.0000000000
40
0.0000000000
40
0.0000000000
40
0.0000000000
40
0.0000000000
40
0.5003115408
40
1.0000000000
40
1.0000000000
40
1.0000000000
40
1.0000000000
10
-3.1422320171
20
11.4693483330
30
0.0000000000
10
-3.1557615280
20
11.4651217024
30
0.0000000000
10
-3.1827704129
20
11.4565667776
30
0.0000000000
10
-3.2097107042
20
11.4477982337
30
0.0000000000
10
-3.2231548160
20
11.4433633928
30
0.0000000000
11
-3.1422320171
21
11.4693483330
31
0.0000000000
11
-3.1827700719
21
11.4565079758
31
0.0000000000
11
-3.2231548160
21
11.4433633928
31
0.0000000000
0
SPLINE
5
3B7
100
AcDbEntity
8
0
100
AcDbSpline
62
7
6
CONTINUOUS
70
0
71
3
72
10
73
6
74
4
42
0.0000001000
43
0.0000001000
44
0.0000000001
12
-0.1801678833
22
0.0900839416
32
0.0000000000
13
-0.1922699725
23
-0.0600653011
33
0.0000000000
40
0.0000000000
40
0.0000000000
40
0.0000000000
40
0.0000000000
40
0.3632548518
40
0.6956438162
40
1.0000000000
40
1.0000000000
40
1.0000000000
40
1.0000000000
10
-2.9468284366
20
11.4438038616
30
0.0000000000
10
-2.9686440559
20
11.4547116712
30
0.0000000000
10
-3.0124952507
20
11.4719196935
30
0.0000000000
10
-3.0796351060
20
11.4815594879
30
0.0000000000
10
-3.1227258320
20
11.4754420816
30
0.0000000000
10
-3.1422320171
20
11.4693483330
30
0.0000000000
11
-2.9468284366
21
11.4438038616
31
0.0000000000
11
-3.0152192229
21
11.4698195173
31
0.0000000000
11
-3.0816098034
21
11.4784901301
31
0.0000000000
11
-3.1422320171
21
11.4693483330
31
0.0000000000
0
SPLINE
5
3B8
100
AcDbEntity
8
0
100
AcDbSpline
62
9
6
CONTINUOUS
70
0
71
3
72
10
73
6
74
4
42
0.0000001000
43
0.0000001000
44
0.0000000001
12
0.0951529333
22
0.0455422871
32
0.0000000000
13
0.0983801456
23
-0.0407100203
33
0.0000000000
40
0.0000000000
40
0.0000000000
40
0.0000000000
40
0.0000000000
40
0.4443144709
40
0.8382802288
40
1.0000000000
40
1.0000000000
40
1.0000000000
40
1.0000000000
10
-1.2060336333
20
12.3655872132
30
0.0000000000
10
-1.1919410249
20
12.3723322456
30
0.0000000000
10
-1.1636092741
20
12.3820359662
30
0.0000000000
10
-1.1276625287
20
12.3820650313
30
0.0000000000
10
-1.1087538024
20
12.3761269446
30
0.0000000000
10
-1.1034504642
20
12.3739324062
30
0.0000000000
11
-1.2060336333
21
12.3655872132
31
0.0000000000
11
-1.1614014597
21
12.3798995415
31
0.0000000000
11
-1.1198500386
21
12.3790789315
31
0.0000000000
11
-1.1034504642
21
12.3739324062
31
0.0000000000
0
SPLINE
5
3B9
100
AcDbEntity
8
0
100
AcDbSpline
62
9
6
CONTINUOUS
70
0
71
3
72
8
73
4
74
2
42
0.0000001000
43
0.0000001000
44
0.0000000001
12
0.0062180491
22
-0.0025730487
32
0.0000000000
13
0.0060155270
23
-0.0029936929
33
0.0000000000
40
0.0000000000
40
0.0000000000
40
0.0000000000
40
0.0000000000
40
1.0000000000
40
1.0000000000
40
1.0000000000
40
1.0000000000
10
-1.1034504642
20
12.3739324062
30
0.0000000000
10
-1.1013777811
20
12.3730747233
30
0.0000000000
10
-1.0993355892
20
12.3721458014
30
0.0000000000
10
-1.0973304136
20
12.3711479037
30
0.0000000000
11
-1.1034504642
21
12.3739324062
31
0.0000000000
11
-1.0973304136
21
12.3711479037
31
0.0000000000
0
SPLINE
5
3BA
100
AcDbEntity
8
0
100
AcDbSpline
62
9
6
CONTINUOUS
70
0
71
3
72
10
73
6
74
4
42
0.0000001000
43
0.0000001000
44
0.0000000001
12
-0.1013150050
22
0.0513096680
32
0.0000000000
13
-0.1031525477
23
-0.0484451028
33
0.0000000000
40
0.0000000000
40
0.0000000000
40
0.0000000000
40
0.0000000000
40
0.3892344621
40
0.7368669179
40
1.0000000000
40
1.0000000000
40
1.0000000000
40
1.0000000000
10
-1.2060336333
20
12.3655872132
30
0.0000000000
10
-1.2191787304
20
12.3722443768
30
0.0000000000
10
-1.2456508930
20
12.3821807542
30
0.0000000000
10
-1.2841175996
20
12.3844668471
30
0.0000000000
10
-1.3068269214
20
12.3778700350
30
0.0000000000
10
-1.3158745373
20
12.3736208652
30
0.0000000000
11
-1.2060336333
21
12.3655872132
31
0.0000000000
11
-1.2476679839
21
12.3804392676
31
0.0000000000
11
-1.2871137628
21
12.3820705815
31
0.0000000000
11
-1.3158745373
21
12.3736208652
31
0.0000000000
0
SPLINE
5
3BB
100
AcDbEntity
8
0
100
AcDbSpline
62
9
6
CONTINUOUS
70
0
71
3
72
8
73
4
74
2
42
0.0000001000
43
0.0000001000
44
0.0000000001
12
-0.0867078572
22
-0.0409492322
32
0.0000000000
13
-0.0867078383
23
-0.0409492721
33
0.0000000000
40
0.0000000000
40
0.0000000000
40
0.0000000000
40
0.0000000000
40
1.0000000000
40
1.0000000000
40
1.0000000000
40
1.0000000000
10
-1.2060336384
20
12.3655872157
30
0.0000000000
10
-1.2349362575
20
12.3519374717
30
0.0000000000
10
-1.2638388734
20
12.3382877210
30
0.0000000000
10
-1.2927414862
20
12.3246379636
30
0.0000000000
11
-1.2060336384
21
12.3655872157
31
0.0000000000
11
-1.2927414862
21
12.3246379636
31
0.0000000000
0
SPLINE
5
3BC
100
AcDbEntity
8
0
100
AcDbSpline
62
9
6
CONTINUOUS
70
0
71
3
72
8
73
4
74
2
42
0.0000001000
43
0.0000001000
44
0.0000000001
12
-0.2702355692
22
-0.1276234083
32
0.0000000000
13
-0.2702353867
23
-0.1276237947
33
0.0000000000
40
0.0000000000
40
0.0000000000
40
0.0000000000
40
0.0000000000
40
1.0000000000
40
1.0000000000
40
1.0000000000
40
1.0000000000
10
-1.2927414862
20
12.3246379636
30
0.0000000000
10
-1.3828200093
20
12.2820968275
30
0.0000000000
10
-1.4728985019
20
12.2395556268
30
0.0000000000
10
-1.5629769641
20
12.1970143619
30
0.0000000000
11
-1.2927414862
21
12.3246379636
31
0.0000000000
11
-1.5629769641
21
12.1970143619
31
0.0000000000
0
SPLINE
5
3BD
100
AcDbEntity
8
0
100
AcDbSpline
62
9
6
CONTINUOUS
70
0
71
3
72
8
73
4
74
2
42
0.0000001000
43
0.0000001000
44
0.0000000001
12
-0.0909520741
22
-0.0429538447
32
0.0000000000
13
-0.0909520535
23
-0.0429538883
33
0.0000000000
40
0.0000000000
40
0.0000000000
40
0.0000000000
40
0.0000000000
40
1.0000000000
40
1.0000000000
40
1.0000000000
40
1.0000000000
10
-1.5629769641
20
12.1970143619
30
0.0000000000
10
-1.5932943221
20
12.1826964137
30
0.0000000000
10
-1.6236116767
20
12.1683784582
30
0.0000000000
10
-1.6539290279
20
12.1540604954
30
0.0000000000
11
-1.5629769641
21
12.1970143619
31
0.0000000000
11
-1.6539290279
21
12.1540604954
31
0.0000000000
0
SPLINE
5
3BE
100
AcDbEntity
8
0
100
AcDbSpline
62
9
6
CONTINUOUS
70
0
71
3
72
8
73
4
74
2
42
0.0000001000
43
0.0000001000
44
0.0000000001
12
-0.0865914685
22
-0.0408038878
32
0.0000000000
13
-0.0865914457
23
-0.0408039363
33
0.0000000000
40
0.0000000000
40
0.0000000000
40
0.0000000000
40
0.0000000000
40
1.0000000000
40
1.0000000000
40
1.0000000000
40
1.0000000000
10
3.9769506756
20
14.6589123025
30
0.0000000000
10
3.9480868527
20
14.6453110066
30
0.0000000000
10
3.9192230337
20
14.6317097026
30
0.0000000000
10
3.8903592185
20
14.6181083905
30
0.0000000000
11
3.9769506756
21
14.6589123025
31
0.0000000000
11
3.8903592185
21
14.6181083905
31
0.0000000000
0
SPLINE
5
3BF
100
AcDbEntity
8
0
100
AcDbSpline
62
9
6
CONTINUOUS
70
0
71
3
72
10
73
6
74
4
42
0.0000001000
43
0.0000001000
44
0.0000000001
12
-4.8811713149
22
-2.3001233186
32
0.0000000000
13
-4.8810992195
23
-2.3002763085
33
0.0000000000
40
0.0000000000
40
0.0000000000
40
0.0000000000
40
0.0000000000
40
0.3254328645
40
0.6680955979
40
1.0000000000
40
1.0000000000
40
1.0000000000
40
1.0000000000
10
3.8903592185
20
14.6181083905
30
0.0000000000
10
3.3608613641
20
14.3685964838
30
0.0000000000
10
2.2738343077
20
13.8563568085
30
0.0000000000
10
0.6467891931
20
13.0896235910
30
0.0000000000
10
-0.4507565159
20
12.5723989886
30
0.0000000000
10
-0.9907759553
20
12.3179083776
30
0.0000000000
11
3.8903592185
21
14.6181083905
31
0.0000000000
11
2.3018694964
21
13.8695645192
31
0.0000000000
11
0.6292863100
21
13.0813718350
31
0.0000000000
11
-0.9907759553
21
12.3179083776
31
0.0000000000
0
SPLINE
5
3C0
100
AcDbEntity
8
0
100
AcDbSpline
62
9
6
CONTINUOUS
70
0
71
3
72
10
73
6
74
4
42
0.0000001000
43
0.0000001000
44
0.0000000001
12
0.1011609709
22
0.0484178661
32
0.0000000000
13
0.1011891388
23
-0.0503490281
33
0.0000000000
40
0.0000000000
40
0.0000000000
40
0.0000000000
40
0.0000000000
40
0.4179262498
40
0.7884940401
40
1.0000000000
40
1.0000000000
40
1.0000000000
40
1.0000000000
10
3.5471390063
20
9.9890008934
30
0.0000000000
10
3.5612316147
20
9.9957459258
30
0.0000000000
10
3.5895633655
20
10.0054496464
30
0.0000000000
10
3.6277798192
20
10.0054805466
30
0.0000000000
10
3.6487021514
20
9.9981142957
30
0.0000000000
10
3.6558361867
20
9.9945645892
30
0.0000000000
11
3.5471390063
21
9.9890008934
31
0.0000000000
11
3.5917711799
21
10.0033132217
31
0.0000000000
11
3.6333226010
21
10.0024926117
31
0.0000000000
11
3.6558361867
21
9.9945645892
31
0.0000000000
0
SPLINE
5
3C1
100
AcDbEntity
8
0
100
AcDbSpline
62
7
6
CONTINUOUS
70
0
71
3
72
10
73
6
74
4
42
0.0000001000
43
0.0000001000
44
0.0000000001
12
0.0764689596
22
0.0538691584
32
0.0000000000
13
0.0849570613
23
-0.0419101160
33
0.0000000000
40
0.0000000000
40
0.0000000000
40
0.0000000000
40
0.0000000000
40
0.4362390226
40
0.7994244441
40
1.0000000000
40
1.0000000000
40
1.0000000000
40
1.0000000000
10
2.1094012438
20
10.7078697746
30
0.0000000000
10
2.1205208252
20
10.7157030510
30
0.0000000000
10
2.1427134535
20
10.7279595407
30
0.0000000000
10
2.1747468582
20
10.7320147516
30
0.0000000000
10
2.1919385521
20
10.7264483701
30
0.0000000000
10
2.1976186554
20
10.7236463218
30
0.0000000000
11
2.1094012438
21
10.7078697746
31
0.0000000000
11
2.1457585884
21
10.7263951968
31
0.0000000000
11
2.1795957821
21
10.7294152199
31
0.0000000000
11
2.1976186554
21
10.7236463218
31
0.0000000000
0
SPLINE
5
3C2
100
AcDbEntity
8
0
100
AcDbSpline
62
9
6
CONTINUOUS
70
0
71
3
72
9
73
5
74
3
42
0.0000001000
43
0.0000001000
44
0.0000000001
12
1.3257182100
22
0.6430423566
32
0.0000000000
13
1.3257135879
23
0.6430518856
33
0.0000000000
40
0.0000000000
40
0.0000000000
40
0.0000000000
40
0.0000000000
40
0.4998531962
40
1.0000000000
40
1.0000000000
40
1.0000000000
40
1.0000000000
10
2.2214231043
20
9.3459537748
30
0.0000000000
10
2.4423112658
20
9.4530960339
30
0.0000000000
10
2.8842169520
20
9.6674442773
30
0.0000000000
10
3.3261218659
20
9.8817941128
30
0.0000000000
10
3.5471390039
20
9.9890008946
30
0.0000000000
11
2.2214231043
21
9.3459537748
31
0.0000000000
11
2.8840870121
21
9.6673817408
31
0.0000000000
11
3.5471390039
21
9.9890008946
31
0.0000000000
0
SPLINE
5
3C3
100
AcDbEntity
8
0
100
AcDbSpline
62
9
6
CONTINUOUS
70
0
71
3
72
10
73
6
74
4
42
0.0000001000
43
0.0000001000
44
0.0000000001
12
0.1457668972
22
-0.0719573293
32
0.0000000000
13
0.0867514595
23
-0.1374773794
33
0.0000000000
40
0.0000000000
40
0.0000000000
40
0.0000000000
40
0.0000000000
40
0.3070706499
40
0.6432131444
40
1.0000000000
40
1.0000000000
40
1.0000000000
40
1.0000000000
10
3.5471390063
20
9.9890008934
30
0.0000000000
10
3.5620592516
20
9.9816355654
30
0.0000000000
10
3.5914500047
20
9.9623166924
30
0.0000000000
10
3.6304801016
20
9.9243895242
30
0.0000000000
10
3.6529196068
20
9.8940543997
30
0.0000000000
10
3.6632368669
20
9.8777043591
30
0.0000000000
11
3.5471390063
21
9.9890008934
31
0.0000000000
11
3.5891447576
21
9.9620328968
31
0.0000000000
11
3.6285905365
21
9.9242184318
31
0.0000000000
11
3.6632368669
21
9.8777043591
31
0.0000000000
0
SPLINE
5
3C4
100
AcDbEntity
8
0
100
AcDbSpline
62
9
6
CONTINUOUS
70
0
71
3
72
9
73
5
74
3
42
0.0000001000
43
0.0000001000
44
0.0000000001
12
1.3258312322
22
0.6428515599
32
0.0000000000
13
1.3258269924
23
0.6428603040
33
0.0000000000
40
0.0000000000
40
0.0000000000
40
0.0000000000
40
0.0000000000
40
0.4998554904
40
1.0000000000
40
1.0000000000
40
1.0000000000
40
1.0000000000
10
2.3374010214
20
9.2348451660
30
0.0000000000
10
2.5583090283
20
9.3419561265
30
0.0000000000
10
3.0002524172
20
9.5562407124
30
0.0000000000
10
3.4421951102
20
9.7705267334
30
0.0000000000
10
3.6632301405
20
9.8777010839
30
0.0000000000
11
2.3374010214
21
9.2348451660
31
0.0000000000
11
3.0001245132
21
9.5561791386
31
0.0000000000
11
3.6632301405
21
9.8777010839
31
0.0000000000
0
SPLINE
5
3C5
100
AcDbEntity
8
0
100
AcDbSpline
62
9
6
CONTINUOUS
70
0
71
3
72
10
73
6
74
4
42
0.0000001000
43
0.0000001000
44
0.0000000001
12
0.1686438792
22
-0.0830811524
32
0.0000000000
13
0.0899287377
23
-0.1650940884
33
0.0000000000
40
0.0000000000
40
0.0000000000
40
0.0000000000
40
0.0000000000
40
0.3056592583
40
0.6429321858
40
1.0000000000
40
1.0000000000
40
1.0000000000
40
1.0000000000
10
5.1161186428
20
9.2158754893
30
0.0000000000
10
5.1333011638
20
9.2074106481
30
0.0000000000
10
5.1669729048
20
9.1844472661
30
0.0000000000
10
5.2104618437
20
9.1388738682
30
0.0000000000
10
5.2345392027
20
9.1023113907
30
0.0000000000
10
5.2452427553
20
9.0826614623
30
0.0000000000
11
5.1161186428
21
9.2158754893
31
0.0000000000
11
5.1640263666
21
9.1841440683
31
0.0000000000
11
5.2081572659
21
9.1386153541
31
0.0000000000
11
5.2452427553
21
9.0826614623
31
0.0000000000
0
SPLINE
5
3C6
100
AcDbEntity
8
0
100
AcDbSpline
62
9
6
CONTINUOUS
70
0
71
3
72
14
73
10
74
8
42
0.0000001000
43
0.0000001000
44
0.0000000001
12
0.3630200069
22
-0.2272169483
32
0.0000000000
13
0.3850014832
23
0.1875764509
33
0.0000000000
40
0.0000000000
40
0.0000000000
40
0.0000000000
40
0.0000000000
40
0.1087379377
40
0.2271433335
40
0.3566759758
40
0.4981487516
40
0.6519863310
40
0.8189761614
40
1.0000000000
40
1.0000000000
40
1.0000000000
40
1.0000000000
10
4.8394806590
20
9.1477636563
30
0.0000000000
10
4.8526386746
20
9.1395279556
30
0.0000000000
10
4.8806038932
20
9.1230739768
30
0.0000000000
10
4.9261004400
20
9.1001192437
30
0.0000000000
10
4.9776702512
20
9.0791549001
30
0.0000000000
10
5.0360737312
20
9.0622884441
30
0.0000000000
10
5.1017004012
20
9.0529367753
30
0.0000000000
10
5.1737838412
20
9.0563557685
30
0.0000000000
10
5.2220112732
20
9.0713428592
30
0.0000000000
10
5.2452427553
20
9.0826614623
30
0.0000000000
11
4.8394806590
21
9.1477636563
31
0.0000000000
11
4.8796447896
21
9.1241949505
31
0.0000000000
11
4.9249566435
21
9.1014303003
31
0.0000000000
11
4.9764010795
21
9.0806728854
31
0.0000000000
11
5.0346779759
21
9.0640990316
31
0.0000000000
11
5.0999571455
21
9.0551975439
31
0.0000000000
11
5.1713629436
21
9.0591649465
31
0.0000000000
11
5.2452427553
21
9.0826614623
31
0.0000000000
0
SPLINE
5
3C7
100
AcDbEntity
8
0
100
AcDbSpline
62
9
6
CONTINUOUS
70
0
71
3
72
10
73
6
74
4
42
0.0000001000
43
0.0000001000
44
0.0000000001
12
1.1790618564
22
-0.7253933722
32
0.0000000000
13
1.1734344253
23
-0.7344617451
33
0.0000000000
40
0.0000000000
40
0.0000000000
40
0.0000000000
40
0.0000000000
40
0.3354042271
40
0.6687306036
40
1.0000000000
40
1.0000000000
40
1.0000000000
40
1.0000000000
10
3.6632301405
20
9.8777010839
30
0.0000000000
10
3.7950509174
20
9.7966010828
30
0.0000000000
10
4.0576698398
20
9.6345683582
30
0.0000000000
10
4.4497460682
20
9.3912413376
30
0.0000000000
10
4.7099063544
20
9.2288652227
30
0.0000000000
10
4.8394806590
20
9.1477636563
30
0.0000000000
11
3.6632301405
21
9.8777010839
31
0.0000000000
11
4.0583787884
21
9.6338919522
31
0.0000000000
11
4.4504489433
21
9.3905742912
31
0.0000000000
11
4.8394806590
21
9.1477636563
31
0.0000000000
0
SPLINE
5
3C8
100
AcDbEntity
8
0
100
AcDbSpline
62
9
6
CONTINUOUS
70
0
71
3
72
9
73
5
74
3
42
0.0000001000
43
0.0000001000
44
0.0000000001
12
-0.0162686319
22
-0.0261898674
32
0.0000000000
13
-0.0270242707
23
-0.0142202147
33
0.0000000000
40
0.0000000000
40
0.0000000000
40
0.0000000000
40
0.0000000000
40
0.0479610995
40
1.0000000000
40
1.0000000000
40
1.0000000000
40
1.0000000000
10
7.3118426051
20
12.8677456037
30
0.0000000000
10
7.3115825179
20
12.8673269054
30
0.0000000000
10
7.3060358035
20
12.8586729024
30
0.0000000000
10
7.2979057162
20
12.8516823996
30
0.0000000000
10
7.2893296639
20
12.8471696671
30
0.0000000000
11
7.3118426051
21
12.8677456037
31
0.0000000000
11
7.3110445225
21
12.8665006209
31
0.0000000000
11
7.2893296639
21
12.8471696671
31
0.0000000000
0
SPLINE
5
3C9
100
AcDbEntity
8
0
100
AcDbSpline
62
7
6
CONTINUOUS
70
0
71
3
72
10
73
6
74
4
42
0.0000001000
43
0.0000001000
44
0.0000000001
12
-0.0436803658
22
0.0218234927
32
0.0000000000
13
-0.0436781744
23
-0.0212543396
33
0.0000000000
40
0.0000000000
40
0.0000000000
40
0.0000000000
40
0.0000000000
40
0.0771738216
40
0.5332742608
40
1.0000000000
40
1.0000000000
40
1.0000000000
40
1.0000000000
10
7.2939765810
20
12.6419753385
30
0.0000000000
10
7.2928529207
20
12.6425367393
30
0.0000000000
10
7.2849520122
20
12.6461429217
30
0.0000000000
10
7.2684646808
20
12.6490871624
30
0.0000000000
10
7.2536006660
20
12.6448854052
30
0.0000000000
10
7.2468054232
20
12.6415787561
30
0.0000000000
11
7.2939765810
21
12.6419753385
31
0.0000000000
11
7.2905474623
21
12.6435378487
31
0.0000000000
11
7.2687255866
21
12.6473657857
31
0.0000000000
11
7.2468054232
21
12.6415787561
31
0.0000000000
0
SPLINE
5
3CA
100
AcDbEntity
8
0
100
AcDbSpline
62
7
6
CONTINUOUS
70
0
71
3
72
9
73
5
74
3
42
0.0000001000
43
0.0000001000
44
0.0000000001
12
-0.0805826191
22
0.1071645982
32
0.0000000000
13
-0.0812629795
23
0.1066496027
33
0.0000000000
40
0.0000000000
40
0.0000000000
40
0.0000000000
40
0.0000000000
40
0.5001036745
40
1.0000000000
40
1.0000000000
40
1.0000000000
40
1.0000000000
10
-0.0719852904
20
9.8677786300
30
0.0000000000
10
-0.0854185117
20
9.8856430997
30
0.0000000000
10
-0.1123360932
20
9.9213220258
30
0.0000000000
10
-0.1393670678
20
9.9569151210
30
0.0000000000
10
-0.1529080894
20
9.9746863691
30
0.0000000000
11
-0.0719852904
21
9.8677786300
31
0.0000000000
11
-0.1123700346
21
9.9213079572
31
0.0000000000
11
-0.1529080894
21
9.9746863691
31
0.0000000000
0
SPLINE
5
3CB
100
AcDbEntity
8
0
100
AcDbSpline
62
9
6
CONTINUOUS
70
0
71
3
72
11
73
7
74
5
42
0.0000001000
43
0.0000001000
44
0.0000000001
12
-0.0660946574
22
0.0878234361
32
0.0000000000
13
-0.0975957630
23
-0.0463313176
33
0.0000000000
40
0.0000000000
40
0.0000000000
40
0.0000000000
40
0.0000000000
40
0.0575945266
40
0.2868510277
40
0.6140703090
40
1.0000000000
40
1.0000000000
40
1.0000000000
40
1.0000000000
10
10.0307061216
20
10.1654151864
30
0.0000000000
10
10.0294372247
20
10.1671012361
30
0.0000000000
10
10.0221860491
20
10.1745780893
30
0.0000000000
10
9.9976875101
20
10.1762741225
30
0.0000000000
10
9.9653458701
20
10.1683517898
30
0.0000000000
10
9.9413368996
20
10.1584006921
30
0.0000000000
10
9.9287818654
20
10.1524404817
30
0.0000000000
11
10.0307061216
21
10.1654151864
31
0.0000000000
11
10.0263563857
21
10.1698341929
31
0.0000000000
11
10.0021225239
21
10.1749487054
31
0.0000000000
11
9.9674586024
21
10.1680124739
31
0.0000000000
11
9.9287818654
21
10.1524404817
31
0.0000000000
0
SPLINE
5
3CC
100
AcDbEntity
8
0
100
AcDbSpline
62
9
6
CONTINUOUS
70
0
71
3
72
9
73
5
74
3
42
0.0000001000
43
0.0000001000
44
0.0000000001
12
-8.3589492450
22
-4.3904583523
32
0.0000000000
13
-8.3591894256
23
-4.3900010445
33
0.0000000000
40
0.0000000000
40
0.0000000000
40
0.0000000000
40
0.0000000000
40
0.5101064124
40
1.0000000000
40
1.0000000000
40
1.0000000000
40
1.0000000000
10
10.6536205183
20
-4.3232010216
30
0.0000000000
10
9.2323026481
20
-5.0697346745
30
0.0000000000
10
6.4459655083
20
-6.5331813345
30
0.0000000000
10
3.6595883542
20
-7.9965518065
30
0.0000000000
10
2.2945505885
20
-8.7134295936
30
0.0000000000
11
10.6536205183
21
-4.3232010216
31
0.0000000000
11
6.3896353519
21
-6.5627419006
31
0.0000000000
11
2.2945505885
21
-8.7134295936
31
0.0000000000
0
SPLINE
5
3CD
100
AcDbEntity
8
0
100
AcDbSpline
62
9
6
CONTINUOUS
70
0
71
3
72
9
73
5
74
3
42
0.0000001000
43
0.0000001000
44
0.0000000001
12
-8.5137681746
22
-4.4730871467
32
0.0000000000
13
-8.5140158916
23
-4.4726156274
33
0.0000000000
40
0.0000000000
40
0.0000000000
40
0.0000000000
40
0.0000000000
40
0.5009815213
40
1.0000000000
40
1.0000000000
40
1.0000000000
40
1.0000000000
10
10.8084428621
20
-3.8598508517
30
0.0000000000
10
9.3866960180
20
-4.6068288530
30
0.0000000000
10
6.5487523187
20
-6.0978179810
30
0.0000000000
10
3.7107673377
20
-7.5887285309
30
0.0000000000
10
2.2945502519
20
-8.3327011462
30
0.0000000000
11
10.8084428621
21
-3.8598508517
31
0.0000000000
11
6.5431709531
21
-6.1007251346
31
0.0000000000
11
2.2945502519
21
-8.3327011462
31
0.0000000000
0
SPLINE
5
3CE
100
AcDbEntity
8
0
100
AcDbSpline
62
9
6
CONTINUOUS
70
0
71
3
72
9
73
5
74
3
42
0.0000001000
43
0.0000001000
44
0.0000000001
12
-1.3258264708
22
-0.7001713227
32
0.0000000000
13
-1.3258316454
23
-0.7001615241
33
0.0000000000
40
0.0000000000
40
0.0000000000
40
0.0000000000
40
0.0000000000
40
0.5001458936
40
1.0000000000
40
1.0000000000
40
1.0000000000
40
1.0000000000
10
3.6632300811
20
-8.3155170332
30
0.0000000000
10
3.4421945261
20
-8.4322463038
30
0.0000000000
10
3.0002519365
20
-8.6656359254
30
0.0000000000
10
2.5583084850
20
-8.8990239149
30
0.0000000000
10
2.3374010208
20
-9.0156834526
30
0.0000000000
11
3.6632300811
21
-8.3155170332
31
0.0000000000
11
3.0001227677
21
-8.6657036172
31
0.0000000000
11
2.3374010208
21
-9.0156834526
31
0.0000000000
0
SPLINE
5
3CF
100
AcDbEntity
8
0
100
AcDbSpline
62
7
6
CONTINUOUS
70
0
71
3
72
10
73
6
74
4
42
0.0000001000
43
0.0000001000
44
0.0000000001
12
0.3484991704
22
0.3260144769
32
0.0000000000
13
0.4291100061
23
0.2088102335
33
0.0000000000
40
0.0000000000
40
0.0000000000
40
0.0000000000
40
0.0000000000
40
0.3166955931
40
0.6490969337
40
1.0000000000
40
1.0000000000
40
1.0000000000
40
1.0000000000
10
4.7962857325
20
11.3776479618
30
0.0000000000
10
4.8330751163
20
11.4120637445
30
0.0000000000
10
4.9129231480
20
11.4779525907
30
0.0000000000
10
5.0458110058
20
11.5658007222
30
0.0000000000
10
5.1417503114
20
11.6172329165
30
0.0000000000
10
5.1919423170
20
11.6416569669
30
0.0000000000
11
4.7962857325
21
11.3776479618
31
0.0000000000
11
4.9125167881
21
11.4742475759
31
0.0000000000
11
5.0445678649
21
11.5621414599
31
0.0000000000
11
5.1919423170
21
11.6416569669
31
0.0000000000
0
SPLINE
5
3D0
100
AcDbEntity
8
0
100
AcDbSpline
62
9
6
CONTINUOUS
70
0
71
3
72
8
73
4
74
2
42
0.0000001000
43
0.0000001000
44
0.0000000001
12
-0.0169305616
22
-0.0089604483
32
0.0000000000
13
-0.0169305626
23
-0.0089604463
33
0.0000000000
40
0.0000000000
40
0.0000000000
40
0.0000000000
40
0.0000000000
40
1.0000000000
40
1.0000000000
40
1.0000000000
40
1.0000000000
10
10.1877937874
20
-4.7525402978
30
0.0000000000
10
10.1821502669
20
-4.7555271139
30
0.0000000000
10
10.1765067462
20
-4.7585139297
30
0.0000000000
10
10.1708632253
20
-4.7615007451
30
0.0000000000
11
10.1877937874
21
-4.7525402978
31
0.0000000000
11
10.1708632253
21
-4.7615007451
31
0.0000000000
0
SPLINE
5
3D1
100
AcDbEntity
8
0
100
AcDbSpline
62
9
6
CONTINUOUS
70
0
71
3
72
10
73
6
74
4
42
0.0000001000
43
0.0000001000
44
0.0000000001
12
-4.9255760664
22
-2.6068454304
32
0.0000000000
13
-4.9256646255
23
-2.6066780932
33
0.0000000000
40
0.0000000000
40
0.0000000000
40
0.0000000000
40
0.0000000000
40
0.3315343491
40
0.6660134491
40
1.0000000000
40
1.0000000000
40
1.0000000000
40
1.0000000000
10
10.1708632253
20
-4.7615007451
30
0.0000000000
10
9.6265306737
20
-5.0495870127
30
0.0000000000
10
8.5330274188
20
-5.6283121749
30
0.0000000000
10
6.8911539374
20
-6.4972327009
30
0.0000000000
10
5.7936113351
20
-7.0780637984
30
0.0000000000
10
5.2452427553
20
-7.3682622736
30
0.0000000000
11
10.1708632253
21
-4.7615007451
31
0.0000000000
11
8.5378606713
21
-5.6257502915
31
0.0000000000
11
6.8903435875
21
-6.4976575754
31
0.0000000000
11
5.2452427553
21
-7.3682622736
31
0.0000000000
0
SPLINE
5
3D2
100
AcDbEntity
8
0
100
AcDbSpline
62
7
6
CONTINUOUS
70
0
71
3
72
19
73
15
74
13
42
0.0000001000
43
0.0000001000
44
0.0000000001
12
-3.4620965483
22
-1.6968822979
32
0.0000000000
13
1.2055029719
23
3.6622786114
33
0.0000000000
40
0.0000000000
40
0.0000000000
40
0.0000000000
40
0.0000000000
40
0.0746854111
40
0.1545954246
40
0.2395848339
40
0.3287540645
40
0.4205297667
40
0.5131814679
40
0.6046423985
40
0.6932767923
40
0.7774871166
40
0.8565892749
40
0.9304851177
40
1.0000000000
40
1.0000000000
40
1.0000000000
40
1.0000000000
10
7.2382861888
20
9.2555767560
30
0.0000000000
10
7.1520968209
20
9.2133326386
30
0.0000000000
10
6.9617109364
20
9.1491109233
30
0.0000000000
10
6.6534383795
20
9.1170076505
30
0.0000000000
10
6.3263680849
20
9.1461260723
30
0.0000000000
10
5.9947008115
20
9.2348270210
30
0.0000000000
10
5.6724441507
20
9.3790330566
30
0.0000000000
10
5.3735838706
20
9.5723950515
30
0.0000000000
10
5.1108822078
20
9.8066367764
30
0.0000000000
10
4.8958482635
20
10.0716383663
30
0.0000000000
10
4.7377814997
20
10.3563314394
30
0.0000000000
10
4.6440092775
20
10.6488091329
30
0.0000000000
10
4.6194592708
20
10.9363684579
30
0.0000000000
10
4.6517782424
20
11.1205620969
30
0.0000000000
10
4.6797117082
20
11.2054230524
30
0.0000000000
11
7.2382861888
21
9.2555767560
31
0.0000000000
11
6.9661540005
21
9.1614352378
31
0.0000000000
11
6.6599493989
21
9.1273152719
31
0.0000000000
11
6.3334142379
21
9.1547273650
31
0.0000000000
11
6.0009978112
21
9.2424618507
31
0.0000000000
11
5.6777957629
21
9.3865085458
31
0.0000000000
11
5.3778934685
21
9.5805942892
31
0.0000000000
11
5.1151079156
21
9.8157439407
31
0.0000000000
11
4.9007119667
21
10.0818618606
31
0.0000000000
11
4.7446535107
21
10.3665771656
31
0.0000000000
11
4.6536061625
21
10.6576548239
31
0.0000000000
11
4.6317578656
21
10.9417274485
31
0.0000000000
11
4.6797117082
21
11.2054230524
31
0.0000000000
0
SPLINE
5
3D3
100
AcDbEntity
8
0
100
AcDbSpline
62
9
6
CONTINUOUS
70
0
71
3
72
8
73
4
74
2
42
0.0000001000
43
0.0000001000
44
0.0000000001
12
-0.0496919806
22
-0.0263071638
32
0.0000000000
13
-0.0491327249
23
-0.0273437534
33
0.0000000000
40
0.0000000000
40
0.0000000000
40
0.0000000000
40
0.0000000000
40
1.0000000000
40
1.0000000000
40
1.0000000000
40
1.0000000000
10
5.2452427553
20
-7.3682622736
30
0.0000000000
10
5.2286787618
20
-7.3770313282
30
0.0000000000
10
5.2122189079
20
-7.3859974938
30
0.0000000000
10
5.1958413330
20
-7.3951120783
30
0.0000000000
11
5.2452427553
21
-7.3682622736
31
0.0000000000
11
5.1958413330
21
-7.3951120783
31
0.0000000000
0
SPLINE
5
3D4
100
AcDbEntity
8
0
100
AcDbSpline
62
9
6
CONTINUOUS
70
0
71
3
72
8
73
4
74
2
42
0.0000001000
43
0.0000001000
44
0.0000000001
12
-0.0243653040
22
-0.0135599820
32
0.0000000000
13
-0.0242518958
23
-0.0137611662
33
0.0000000000
40
0.0000000000
40
0.0000000000
40
0.0000000000
40
0.0000000000
40
1.0000000000
40
1.0000000000
40
1.0000000000
40
1.0000000000
10
5.1958413330
20
-7.3951120783
30
0.0000000000
10
5.1877195650
20
-7.3996320723
30
0.0000000000
10
5.1796180314
20
-7.4041885661
30
0.0000000000
10
5.1715340661
20
-7.4087756215
30
0.0000000000
11
5.1958413330
21
-7.3951120783
31
0.0000000000
11
5.1715340661
21
-7.4087756215
31
0.0000000000
0
SPLINE
5
3D5
100
AcDbEntity
8
0
100
AcDbSpline
62
9
6
CONTINUOUS
70
0
71
3
72
12
73
8
74
6
42
0.0000001000
43
0.0000001000
44
0.0000000001
12
-0.2671610793
22
-0.1515942521
32
0.0000000000
13
-0.2591576804
23
-0.1648790152
33
0.0000000000
40
0.0000000000
40
0.0000000000
40
0.0000000000
40
0.0000000000
40
0.2694283826
40
0.5179921626
40
0.7412890102
40
0.9392868271
40
1.0000000000
40
1.0000000000
40
1.0000000000
40
1.0000000000
10
5.1715340661
20
-7.4087756215
30
0.0000000000
10
5.1475404736
20
-7.4223902196
30
0.0000000000
10
5.1017089033
20
-7.4490827008
30
0.0000000000
10
5.0367247287
20
-7.4882994767
30
0.0000000000
10
4.9783940734
20
-7.5243760204
30
0.0000000000
10
4.9366264730
20
-7.5506638807
30
0.0000000000
10
4.9142649027
20
-7.5648627661
30
0.0000000000
10
4.9090201410
20
-7.5681995422
30
0.0000000000
11
5.1715340661
21
-7.4087756215
31
0.0000000000
11
5.0999771062
21
-7.4503502558
31
0.0000000000
11
5.0345862899
21
-7.4897610308
31
0.0000000000
11
4.9762414417
21
-7.5258191805
31
0.0000000000
11
4.9247634529
21
-7.5582034153
31
0.0000000000
11
4.9090201410
21
-7.5681995422
31
0.0000000000
0
SPLINE
5
3D6
100
AcDbEntity
8
0
100
AcDbSpline
62
9
6
CONTINUOUS
70
0
71
3
72
9
73
5
74
3
42
0.0000001000
43
0.0000001000
44
0.0000000001
12
-0.0647953953
22
-0.0412235553
32
0.0000000000
13
-0.0645276624
23
-0.0416412861
33
0.0000000000
40
0.0000000000
40
0.0000000000
40
0.0000000000
40
0.0000000000
40
0.4561820409
40
1.0000000000
40
1.0000000000
40
1.0000000000
40
1.0000000000
10
4.9090201410
20
-7.5681995422
30
0.0000000000
10
4.8991673092
20
-7.5744680241
30
0.0000000000
10
4.8775917019
20
-7.5882451303
30
0.0000000000
10
4.8560610122
20
-7.6020923260
30
0.0000000000
10
4.8443639117
20
-7.6096407524
30
0.0000000000
11
4.9090201410
21
-7.5681995422
31
0.0000000000
11
4.8794918475
21
-7.5870523467
31
0.0000000000
11
4.8443639117
21
-7.6096407524
31
0.0000000000
0
SPLINE
5
3D7
100
AcDbEntity
8
0
100
AcDbSpline
62
9
6
CONTINUOUS
70
0
71
3
72
8
73
4
74
2
42
0.0000001000
43
0.0000001000
44
0.0000000001
12
-0.0048839268
22
-0.0031517180
32
0.0000000000
13
-0.0048825829
23
-0.0031537969
33
0.0000000000
40
0.0000000000
40
0.0000000000
40
0.0000000000
40
0.0000000000
40
1.0000000000
40
1.0000000000
40
1.0000000000
40
1.0000000000
10
4.8443639117
20
-7.6096407524
30
0.0000000000
10
4.8427359361
20
-7.6106913250
30
0.0000000000
10
4.8411081866
20
-7.6117422478
30
0.0000000000
10
4.8394806590
20
-7.6127935134
30
0.0000000000
11
4.8443639117
21
-7.6096407524
31
0.0000000000
11
4.8394806590
21
-7.6127935134
31
0.0000000000
0
SPLINE
5
3D8
100
AcDbEntity
8
0
100
AcDbSpline
62
9
6
CONTINUOUS
70
0
71
3
72
10
73
6
74
4
42
0.0000001000
43
0.0000001000
44
0.0000000001
12
-0.9997892332
22
-0.6457881589
32
0.0000000000
13
-1.0376482152
23
-0.5830799269
33
0.0000000000
40
0.0000000000
40
0.0000000000
40
0.0000000000
40
0.0000000000
40
0.3862805041
40
0.7700434979
40
1.0000000000
40
1.0000000000
40
1.0000000000
40
1.0000000000
10
4.8394806590
20
-7.6127935134
30
0.0000000000
10
4.7107476293
20
-7.6959453053
30
0.0000000000
10
4.4522451128
20
-7.8588270813
30
0.0000000000
10
4.1117023416
20
-8.0624434543
30
0.0000000000
10
3.9003175198
20
-8.1833169807
30
0.0000000000
10
3.8207795352
20
-8.2280113209
30
0.0000000000
11
4.8394806590
21
-7.6127935134
31
0.0000000000
11
4.4504613230
21
-7.8578275456
31
0.0000000000
11
4.0583912823
21
-8.0921618227
31
0.0000000000
11
3.8207795352
21
-8.2280113209
31
0.0000000000
0
SPLINE
5
3D9
100
AcDbEntity
8
0
100
AcDbSpline
62
9
6
CONTINUOUS
70
0
71
3
72
8
73
4
74
2
42
0.0000001000
43
0.0000001000
44
0.0000000001
12
-0.0353331409
22
-0.0198545566
32
0.0000000000
13
-0.0353770054
23
-0.0197759140
33
0.0000000000
40
0.0000000000
40
0.0000000000
40
0.0000000000
40
0.0000000000
40
1.0000000000
40
1.0000000000
40
1.0000000000
40
1.0000000000
10
3.8207795352
20
-8.2280113209
30
0.0000000000
10
3.8090018215
20
-8.2346295064
30
0.0000000000
10
3.7972167945
20
-8.2412346205
30
0.0000000000
10
3.7854244594
20
-8.2478265918
30
0.0000000000
11
3.8207795352
21
-8.2280113209
31
0.0000000000
11
3.7854244594
21
-8.2478265918
31
0.0000000000
0
SPLINE
5
3DA
100
AcDbEntity
8
0
100
AcDbSpline
62
9
6
CONTINUOUS
70
0
71
3
72
8
73
4
74
2
42
0.0000001000
43
0.0000001000
44
0.0000000001
12
-0.1219341332
22
-0.0681617593
32
0.0000000000
13
-0.1224544110
23
-0.0672162046
33
0.0000000000
40
0.0000000000
40
0.0000000000
40
0.0000000000
40
0.0000000000
40
1.0000000000
40
1.0000000000
40
1.0000000000
40
1.0000000000
10
3.7854244594
20
-8.2478265918
30
0.0000000000
10
3.7447797483
20
-8.2705471783
30
0.0000000000
10
3.7040482181
20
-8.2931116317
30
0.0000000000
10
3.6632300811
20
-8.3155170332
30
0.0000000000
11
3.7854244594
21
-8.2478265918
31
0.0000000000
11
3.6632300811
21
-8.3155170332
31
0.0000000000
0
SPLINE
5
3DB
100
AcDbEntity
8
0
100
AcDbSpline
62
7
6
CONTINUOUS
70
0
71
3
72
11
73
7
74
5
42
0.0000001000
43
0.0000001000
44
0.0000000001
12
-0.1533935091
22
-0.1434967680
32
0.0000000000
13
-0.0656750391
23
-0.1995186214
33
0.0000000000
40
0.0000000000
40
0.0000000000
40
0.0000000000
40
0.0000000000
40
0.2674022176
40
0.5187502004
40
0.7606017219
40
1.0000000000
40
1.0000000000
40
1.0000000000
40
1.0000000000
10
4.7962857325
20
11.3776479618
30
0.0000000000
10
4.7826131444
20
11.3648575104
30
0.0000000000
10
4.7571832190
20
11.3388232099
30
0.0000000000
10
4.7243133855
20
11.2967677778
30
0.0000000000
10
4.6979888406
20
11.2525765360
30
0.0000000000
10
4.6849525386
20
11.2213445239
30
0.0000000000
10
4.6797117082
20
11.2054230524
30
0.0000000000
11
4.7962857325
21
11.3776479618
31
0.0000000000
11
4.7571965027
21
11.3373137341
31
0.0000000000
11
4.7248358232
21
11.2955985165
31
0.0000000000
11
4.6989756942
21
11.2518723243
31
0.0000000000
11
4.6797117082
21
11.2054230524
31
0.0000000000
0
SPLINE
5
3DC
100
AcDbEntity
8
0
100
AcDbSpline
62
9
6
CONTINUOUS
70
0
71
3
72
8
73
4
74
2
42
0.0000001000
43
0.0000001000
44
0.0000000001
12
-0.0241186962
22
-0.0197852930
32
0.0000000000
13
-0.0273704957
23
-0.0144431259
33
0.0000000000
40
0.0000000000
40
0.0000000000
40
0.0000000000
40
0.0000000000
40
1.0000000000
40
1.0000000000
40
1.0000000000
40
1.0000000000
10
10.2136390860
20
-4.7353466622
30
0.0000000000
10
10.2055995206
20
-4.7419417599
30
0.0000000000
10
10.1969172860
20
-4.7477259225
30
0.0000000000
10
10.1877937874
20
-4.7525402978
30
0.0000000000
11
10.2136390860
21
-4.7353466622
31
0.0000000000
11
10.1877937874
21
-4.7525402978
31
0.0000000000
0
SPLINE
5
3DD
100
AcDbEntity
8
0
100
AcDbSpline
62
9
6
CONTINUOUS
70
0
71
3
72
10
73
6
74
4
42
0.0000001000
43
0.0000001000
44
0.0000000001
12
-0.0735011767
22
0.0756017394
32
0.0000000000
13
-0.0953940444
23
-0.0467552423
33
0.0000000000
40
0.0000000000
40
0.0000000000
40
0.0000000000
40
0.0000000000
40
0.1642419291
40
0.5022506104
40
1.0000000000
40
1.0000000000
40
1.0000000000
40
1.0000000000
10
10.8208035543
20
9.2116486651
30
0.0000000000
10
10.8167795626
20
9.2157876570
30
0.0000000000
10
10.7987695402
20
9.2247183236
30
0.0000000000
10
10.7632175958
20
9.2156515788
30
0.0000000000
10
10.7358954189
20
9.2050311156
30
0.0000000000
10
10.7200679765
20
9.1972736512
30
0.0000000000
11
10.8208035543
21
9.2116486651
31
0.0000000000
11
10.8050170513
21
9.2201865424
31
0.0000000000
11
10.7692877186
21
9.2166021972
31
0.0000000000
11
10.7200679765
21
9.1972736512
31
0.0000000000
0
SPLINE
5
3DE
100
AcDbEntity
8
0
100
AcDbSpline
62
9
6
CONTINUOUS
70
0
71
3
72
9
73
5
74
3
42
0.0000001000
43
0.0000001000
44
0.0000000001
12
-0.0005044069
22
-0.1150537904
32
0.0000000000
13
-0.1027883034
23
-0.0532202108
33
0.0000000000
40
0.0000000000
40
0.0000000000
40
0.0000000000
40
0.0000000000
40
0.4279895704
40
1.0000000000
40
1.0000000000
40
1.0000000000
40
1.0000000000
10
10.8786044564
20
-3.7730185290
30
0.0000000000
10
10.8785324961
20
-3.7894324698
30
0.0000000000
10
10.8612274418
20
-3.8279617898
30
0.0000000000
10
10.8280415227
20
-3.8497033460
30
0.0000000000
10
10.8084428621
20
-3.8598508512
30
0.0000000000
11
10.8786044564
21
-3.7730185290
31
0.0000000000
11
10.8608107520
21
-3.8193376642
31
0.0000000000
11
10.8084428621
21
-3.8598508512
31
0.0000000000
0
SPLINE
5
3DF
100
AcDbEntity
8
0
100
AcDbSpline
62
9
6
CONTINUOUS
70
0
71
3
72
10
73
6
74
4
42
0.0000001000
43
0.0000001000
44
0.0000000001
12
0.0002348380
22
-0.1183715803
32
0.0000000000
13
-0.1033093909
23
-0.0534900030
33
0.0000000000
40
0.0000000000
40
0.0000000000
40
0.0000000000
40
0.0000000000
40
0.1568023828
40
0.5307770587
40
1.0000000000
40
1.0000000000
40
1.0000000000
40
1.0000000000
10
10.8783856978
20
9.0524466210
30
0.0000000000
10
10.8783979722
20
9.0462596390
30
0.0000000000
10
10.8756400155
20
9.0253343345
30
0.0000000000
10
10.8522570757
20
8.9921831483
30
0.0000000000
10
10.8246012409
20
8.9739810110
30
0.0000000000
10
10.8084428621
20
8.9656147655
30
0.0000000000
11
10.8783856978
21
9.0524466210
31
0.0000000000
11
10.8759259953
21
9.0341866832
31
0.0000000000
11
10.8529225045
21
8.9972588302
31
0.0000000000
11
10.8084428621
21
8.9656147655
31
0.0000000000
0
SPLINE
5
3E0
100
AcDbEntity
8
0
100
AcDbSpline
62
7
6
CONTINUOUS
70
0
71
3
72
19
73
15
74
13
42
0.0000001000
43
0.0000001000
44
0.0000000001
12
3.0198234716
22
0.8723971963
32
0.0000000000
13
-1.4598459619
23
-2.7980693773
33
0.0000000000
40
0.0000000000
40
0.0000000000
40
0.0000000000
40
0.0000000000
40
0.0812897370
40
0.1689908452
40
0.2617079646
40
0.3586218179
40
0.4564011804
40
0.5540429424
40
0.6478408496
40
0.7374025438
40
0.8202510554
40
0.8974544233
40
0.9692896084
40
1.0000000000
40
1.0000000000
40
1.0000000000
40
1.0000000000
10
5.6202128200
20
11.3923836561
30
0.0000000000
10
5.7020397052
20
11.4160226357
30
0.0000000000
10
5.8788280263
20
11.4434610425
30
0.0000000000
10
6.1542069507
20
11.4280069452
30
0.0000000000
10
6.4380268826
20
11.3591707700
30
0.0000000000
10
6.7162179752
20
11.2405527254
30
0.0000000000
10
6.9769201567
20
11.0774629959
30
0.0000000000
10
7.2069074919
20
10.8782003371
30
0.0000000000
10
7.3964392784
20
10.6511138763
30
0.0000000000
10
7.5357542341
20
10.4075809112
30
0.0000000000
10
7.6185438060
20
10.1573812089
30
0.0000000000
10
7.6396407441
20
9.9127055133
30
0.0000000000
10
7.6038098529
20
9.7250356996
30
0.0000000000
10
7.5604236023
20
9.6260145314
30
0.0000000000
10
7.5454794553
20
9.5973712627
30
0.0000000000
11
5.6202128200
21
11.3923836561
31
0.0000000000
11
5.8723591982
21
11.4337620135
31
0.0000000000
11
6.1476992698
21
11.4202390908
31
0.0000000000
11
6.4312173387
21
11.3527550083
31
0.0000000000
11
6.7117075821
21
11.2339065553
31
0.0000000000
11
6.9723172205
21
11.0709731837
31
0.0000000000
11
7.2039524264
21
10.8696174941
31
0.0000000000
11
7.3920437065
21
10.6425712617
31
0.0000000000
11
7.5303505650
21
10.3973674237
31
0.0000000000
11
7.6100940007
21
10.1494583743
31
0.0000000000
11
7.6285187246
21
9.9074845445
31
0.0000000000
11
7.5843523668
21
9.6860457156
31
0.0000000000
11
7.5454794553
21
9.5973712627
31
0.0000000000
0
SPLINE
5
3E1
100
AcDbEntity
8
0
100
AcDbSpline
62
9
6
CONTINUOUS
70
0
71
3
72
8
73
4
74
2
42
0.0000001000
43
0.0000001000
44
0.0000000001
12
-0.0336861471
22
-0.0346161853
32
0.0000000000
13
-0.0421583582
23
-0.0222324814
33
0.0000000000
40
0.0000000000
40
0.0000000000
40
0.0000000000
40
0.0000000000
40
1.0000000000
40
1.0000000000
40
1.0000000000
40
1.0000000000
10
10.6919374365
20
-4.2944694918
30
0.0000000000
10
10.6807087208
20
-4.3060082202
30
0.0000000000
10
10.6676733044
20
-4.3157901944
30
0.0000000000
10
10.6536205183
20
-4.3232010216
30
0.0000000000
11
10.6919374365
21
-4.2944694918
31
0.0000000000
11
10.6536205183
21
-4.3232010216
31
0.0000000000
0
SPLINE
5
3E2
100
AcDbEntity
8
0
100
AcDbSpline
62
9
6
CONTINUOUS
70
0
71
3
72
9
73
5
74
3
42
0.0000001000
43
0.0000001000
44
0.0000000001
12
-0.0074428932
22
0.0037666012
32
0.0000000000
13
-0.0077469208
23
0.0030574907
33
0.0000000000
40
0.0000000000
40
0.0000000000
40
0.0000000000
40
0.0000000000
40
0.8439720212
40
1.0000000000
40
1.0000000000
40
1.0000000000
40
1.0000000000
10
4.0856572874
20
14.6644801966
30
0.0000000000
10
4.0835634228
20
14.6655398319
30
0.0000000000
10
4.0810367997
20
14.6666995972
30
0.0000000000
10
4.0784617910
20
14.6677376421
30
0.0000000000
10
4.0780588789
20
14.6678966601
30
0.0000000000
11
4.0856572874
21
14.6644801966
31
0.0000000000
11
4.0792641599
21
14.6674107507
31
0.0000000000
11
4.0780588789
21
14.6678966601
31
0.0000000000
0
SPLINE
5
3E3
100
AcDbEntity
8
0
100
AcDbSpline
62
9
6
CONTINUOUS
70
0
71
3
72
9
73
5
74
3
42
0.0000001000
43
0.0000001000
44
0.0000000001
12
-0.0969670680
22
0.0382701610
32
0.0000000000
13
-0.0935182325
23
-0.0447598834
33
0.0000000000
40
0.0000000000
40
0.0000000000
40
0.0000000000
40
0.0000000000
40
0.4594027115
40
1.0000000000
40
1.0000000000
40
1.0000000000
40
1.0000000000
10
4.0780588789
20
14.6678966601
30
0.0000000000
10
4.0632099009
20
14.6737571320
30
0.0000000000
10
4.0275208899
20
14.6778039256
30
0.0000000000
10
3.9938025765
20
14.6669779931
30
0.0000000000
10
3.9769506756
20
14.6589123025
30
0.0000000000
11
4.0780588789
21
14.6678966601
31
0.0000000000
11
4.0308345614
21
14.6743364464
31
0.0000000000
11
3.9769506756
21
14.6589123025
31
0.0000000000
0
SPLINE
5
3E4
100
AcDbEntity
8
0
100
AcDbSpline
62
9
6
CONTINUOUS
70
0
71
3
72
10
73
6
74
4
42
0.0000001000
43
0.0000001000
44
0.0000000001
12
-0.0953637379
22
0.0483980874
32
0.0000000000
13
-0.1005052946
23
-0.0397073530
33
0.0000000000
40
0.0000000000
40
0.0000000000
40
0.0000000000
40
0.0000000000
40
0.4697790348
40
0.8843026911
40
1.0000000000
40
1.0000000000
40
1.0000000000
40
1.0000000000
10
3.9769506756
20
14.6589123025
30
0.0000000000
10
3.9620173807
20
14.6664911048
30
0.0000000000
10
3.9318131139
20
14.6773853432
30
0.0000000000
10
3.8952131268
20
14.6769300741
30
0.0000000000
10
3.8770115154
20
14.6710499352
30
0.0000000000
10
3.8731354513
20
14.6695185906
30
0.0000000000
11
3.9769506756
21
14.6589123025
31
0.0000000000
11
3.9293158791
21
14.6748778915
31
0.0000000000
11
3.8850122604
21
14.6733476144
31
0.0000000000
11
3.8731354513
21
14.6695185906
31
0.0000000000
0
SPLINE
5
3E5
100
AcDbEntity
8
0
100
AcDbSpline
62
9
6
CONTINUOUS
70
0
71
3
72
8
73
4
74
2
42
0.0000001000
43
0.0000001000
44
0.0000000001
12
-0.0061033170
22
-0.0024112816
32
0.0000000000
13
-0.0059286320
23
-0.0028128782
33
0.0000000000
40
0.0000000000
40
0.0000000000
40
0.0000000000
40
0.0000000000
40
1.0000000000
40
1.0000000000
40
1.0000000000
40
1.0000000000
10
3.8731354513
20
14.6695185906
30
0.0000000000
10
3.8711010123
20
14.6687148300
30
0.0000000000
10
3.8690929196
20
14.6678426750
30
0.0000000000
10
3.8671167089
20
14.6669050490
30
0.0000000000
11
3.8731354513
21
14.6695185906
31
0.0000000000
11
3.8671167089
21
14.6669050490
31
0.0000000000
0
SPLINE
5
3E6
100
AcDbEntity
8
0
100
AcDbSpline
62
7
6
CONTINUOUS
70
0
71
3
72
14
73
10
74
8
42
0.0000001000
43
0.0000001000
44
0.0000000001
12
-0.0685653035
22
-0.4844079673
32
0.0000000000
13
0.4813268651
23
0.0876169424
33
0.0000000000
40
0.0000000000
40
0.0000000000
40
0.0000000000
40
0.0000000000
40
0.1409407538
40
0.2970932919
40
0.4597690789
40
0.6187687756
40
0.7647273290
40
0.8916356794
40
1.0000000000
40
1.0000000000
40
1.0000000000
40
1.0000000000
10
-0.0719852904
20
9.8677786300
30
0.0000000000
10
-0.0752065056
20
9.8450210220
30
0.0000000000
10
-0.0744221528
20
9.7959128917
30
0.0000000000
10
-0.0563874272
20
9.7226517225
30
0.0000000000
10
-0.0232273689
20
9.6515903825
30
0.0000000000
10
0.0219230100
20
9.5895052099
30
0.0000000000
10
0.0750001702
20
9.5422207166
30
0.0000000000
10
0.1314216254
20
9.5139983697
30
0.0000000000
10
0.1711392603
20
9.5106025712
30
0.0000000000
10
0.1885254799
20
9.5137674213
30
0.0000000000
11
-0.0719852904
21
9.8677786300
31
0.0000000000
11
-0.0720161263
21
9.7988252863
31
0.0000000000
11
-0.0543357974
21
9.7245038234
31
0.0000000000
11
-0.0207384344
21
9.6523560923
31
0.0000000000
11
0.0253666339
21
9.5897033623
31
0.0000000000
11
0.0793008457
21
9.5429033872
31
0.0000000000
11
0.1355911682
21
9.5167052452
31
0.0000000000
11
0.1885254799
21
9.5137674213
31
0.0000000000
0
SPLINE
5
3E7
100
AcDbEntity
8
0
100
AcDbSpline
62
9
6
CONTINUOUS
70
0
71
3
72
10
73
6
74
4
42
0.0000001000
43
0.0000001000
44
0.0000000001
12
-0.3925349550
22
-0.4049644959
32
0.0000000000
13
-0.4313622462
23
-0.3633768778
33
0.0000000000
40
0.0000000000
40
0.0000000000
40
0.0000000000
40
0.0000000000
40
0.3772233976
40
0.7516868843
40
1.0000000000
40
1.0000000000
40
1.0000000000
40
1.0000000000
10
10.6536205183
20
-4.3232010216
30
0.0000000000
10
10.6042627285
20
-4.3741217159
30
0.0000000000
10
10.5040197212
20
-4.4737813526
30
0.0000000000
10
10.3657686586
20
-4.6012338644
30
0.0000000000
10
10.2771870337
20
-4.6778221786
30
0.0000000000
10
10.2414827326
20
-4.7078992602
30
0.0000000000
11
10.6536205183
21
-4.3232010216
31
0.0000000000
11
10.5027252754
21
-4.4731763609
31
0.0000000000
11
10.3474308622
21
-4.6163047539
31
0.0000000000
11
10.2414827326
21
-4.7078992602
31
0.0000000000
0
SPLINE
5
3E8
100
AcDbEntity
8
0
100
AcDbSpline
62
9
6
CONTINUOUS
70
0
71
3
72
8
73
4
74
2
42
0.0000001000
43
0.0000001000
44
0.0000000001
12
-0.0534029603
22
-0.0449863221
32
0.0000000000
13
-0.0539737516
23
-0.0442936172
33
0.0000000000
40
0.0000000000
40
0.0000000000
40
0.0000000000
40
0.0000000000
40
1.0000000000
40
1.0000000000
40
1.0000000000
40
1.0000000000
10
10.2414827326
20
-4.7078992602
30
0.0000000000
10
10.2236817458
20
-4.7228947009
30
0.0000000000
10
10.2057850380
20
-4.7377757587
30
0.0000000000
10
10.1877937874
20
-4.7525402978
30
0.0000000000
11
10.2414827326
21
-4.7078992602
31
0.0000000000
11
10.1877937874
21
-4.7525402978
31
0.0000000000
0
SPLINE
5
3E9
100
AcDbEntity
8
0
100
AcDbSpline
62
9
6
CONTINUOUS
70
0
71
3
72
10
73
6
74
4
42
0.0000001000
43
0.0000001000
44
0.0000000001
12
0.0004674259
22
-0.3894649877
32
0.0000000000
13
-0.1974015048
23
-0.3370147490
33
0.0000000000
40
0.0000000000
40
0.0000000000
40
0.0000000000
40
0.0000000000
40
0.3610633812
40
0.6940790372
40
1.0000000000
40
1.0000000000
40
1.0000000000
40
1.0000000000
10
10.8084363968
20
-3.8598477294
30
0.0000000000
10
10.8084926536
20
-3.9067215779
30
0.0000000000
10
10.8026482266
20
-3.9970163935
30
0.0000000000
10
10.7736414912
20
-4.1242124759
30
0.0000000000
10
10.7401690727
20
-4.2007069676
30
0.0000000000
10
10.7200393199
20
-4.2350735931
30
0.0000000000
11
10.8084363968
21
-3.8598477294
31
0.0000000000
11
10.7985453854
21
-4.0001210889
31
0.0000000000
11
10.7687973583
21
-4.1263614720
31
0.0000000000
11
10.7200393199
21
-4.2350735931
31
0.0000000000
0
SPLINE
5
3EA
100
AcDbEntity
8
0
100
AcDbSpline
62
9
6
CONTINUOUS
70
0
71
3
72
8
73
4
74
2
42
0.0000001000
43
0.0000001000
44
0.0000000001
12
-0.0376718317
22
-0.0643154312
32
0.0000000000
13
-0.0471891789
23
-0.0576159618
33
0.0000000000
40
0.0000000000
40
0.0000000000
40
0.0000000000
40
0.0000000000
40
1.0000000000
40
1.0000000000
40
1.0000000000
40
1.0000000000
10
10.7200393199
20
-4.2350735931
30
0.0000000000
10
10.7074820427
20
-4.2565120701
30
0.0000000000
10
10.6933279935
20
-4.2770715758
30
0.0000000000
10
10.6775982672
20
-4.2962768964
30
0.0000000000
11
10.7200393199
21
-4.2350735931
31
0.0000000000
11
10.6775982672
21
-4.2962768964
31
0.0000000000
0
SPLINE
5
3EB
100
AcDbEntity
8
0
100
AcDbSpline
62
9
6
CONTINUOUS
70
0
71
3
72
8
73
4
74
2
42
0.0000001000
43
0.0000001000
44
0.0000000001
12
-0.0228733082
22
-0.0279273275
32
0.0000000000
13
-0.0250873214
23
-0.0258559863
33
0.0000000000
40
0.0000000000
40
0.0000000000
40
0.0000000000
40
0.0000000000
40
1.0000000000
40
1.0000000000
40
1.0000000000
40
1.0000000000
10
10.6775982672
20
-4.2962768964
30
0.0000000000
10
10.6699738312
20
-4.3055860056
30
0.0000000000
10
10.6619791917
20
-4.3145769507
30
0.0000000000
10
10.6536167513
20
-4.3231956128
30
0.0000000000
11
10.6775982672
21
-4.2962768964
31
0.0000000000
11
10.6536167513
21
-4.3231956128
31
0.0000000000
0
SPLINE
5
3EC
100
AcDbEntity
8
0
100
AcDbSpline
62
9
6
CONTINUOUS
70
0
71
3
72
8
73
4
74
2
42
0.0000001000
43
0.0000001000
44
0.0000000001
12
0.0052990745
22
0.0027769102
32
0.0000000000
13
0.0051039820
23
0.0030972253
33
0.0000000000
40
0.0000000000
40
0.0000000000
40
0.0000000000
40
0.0000000000
40
1.0000000000
40
1.0000000000
40
1.0000000000
40
1.0000000000
10
10.1718083518
20
-4.7631199165
30
0.0000000000
10
10.1735747099
20
-4.7621942798
30
0.0000000000
10
10.1753108457
20
-4.7612142630
30
0.0000000000
10
10.1770121730
20
-4.7601818545
30
0.0000000000
11
10.1718083518
21
-4.7631199165
31
0.0000000000
11
10.1770121730
21
-4.7601818545
31
0.0000000000
0
SPLINE
5
3ED
100
AcDbEntity
8
0
100
AcDbSpline
62
9
6
CONTINUOUS
70
0
71
3
72
8
73
4
74
2
42
0.0000001000
43
0.0000001000
44
0.0000000001
12
0.0113482563
22
0.0068864089
32
0.0000000000
13
0.0101645641
23
0.0083748486
33
0.0000000000
40
0.0000000000
40
0.0000000000
40
0.0000000000
40
0.0000000000
40
1.0000000000
40
1.0000000000
40
1.0000000000
40
1.0000000000
10
10.1770121730
20
-4.7601818545
30
0.0000000000
10
10.1807949252
20
-4.7578863849
30
0.0000000000
10
10.1844055994
20
-4.7553319140
30
0.0000000000
10
10.1877937874
20
-4.7525402978
30
0.0000000000
11
10.1770121730
21
-4.7601818545
31
0.0000000000
11
10.1877937874
21
-4.7525402978
31
0.0000000000
0
SPLINE
5
3EE
100
AcDbEntity
8
0
100
AcDbSpline
62
9
6
CONTINUOUS
70
0
71
3
72
8
73
4
74
2
42
0.0000001000
43
0.0000001000
44
0.0000000001
12
0.0163038895
22
0.0085955589
32
0.0000000000
13
0.0141597579
23
0.0115206712
33
0.0000000000
40
0.0000000000
40
0.0000000000
40
0.0000000000
40
0.0000000000
40
1.0000000000
40
1.0000000000
40
1.0000000000
40
1.0000000000
10
5.2299389045
20
-7.3783413243
30
0.0000000000
10
5.2353735343
20
-7.3754761380
30
0.0000000000
10
5.2405182686
20
-7.3720952211
30
0.0000000000
10
5.2452381879
20
-7.3682549974
30
0.0000000000
11
5.2299389045
21
-7.3783413243
31
0.0000000000
11
5.2452381879
21
-7.3682549974
31
0.0000000000
0
SPLINE
5
3EF
100
AcDbEntity
8
0
100
AcDbSpline
62
9
6
CONTINUOUS
70
0
71
3
72
10
73
6
74
4
42
0.0000001000
43
0.0000001000
44
0.0000000001
12
0.0020302511
22
0.2522481737
32
0.0000000000
13
-0.1624666736
23
0.1929710937
33
0.0000000000
40
0.0000000000
40
0.0000000000
40
0.0000000000
40
0.0000000000
40
0.3180697359
40
0.6594235344
40
1.0000000000
40
1.0000000000
40
1.0000000000
40
1.0000000000
10
10.8084428621
20
8.9656147655
30
0.0000000000
10
10.8086581160
20
8.9923589355
30
0.0000000000
10
10.8007569873
20
9.0479858931
30
0.0000000000
10
10.7702864690
20
9.1269432185
30
0.0000000000
10
10.7385120850
20
9.1753665135
30
0.0000000000
10
10.7200679765
20
9.1972736512
30
0.0000000000
11
10.8084428621
21
8.9656147655
31
0.0000000000
11
10.7981994572
21
9.0451933136
31
0.0000000000
11
10.7675076089
21
9.1256464800
31
0.0000000000
11
10.7200679765
21
9.1972736512
31
0.0000000000
0
SPLINE
5
3F0
100
AcDbEntity
8
0
100
AcDbSpline
62
9
6
CONTINUOUS
70
0
71
3
72
9
73
5
74
3
42
0.0000001000
43
0.0000001000
44
0.0000000001
12
0.0200018890
22
-0.0152154427
32
0.0000000000
13
0.0016497720
23
-0.0255973090
33
0.0000000000
40
0.0000000000
40
0.0000000000
40
0.0000000000
40
0.0000000000
40
0.6048095487
40
1.0000000000
40
1.0000000000
40
1.0000000000
40
1.0000000000
10
3.6736894346
20
9.9843213550
30
0.0000000000
10
3.6777218791
20
9.9812538734
30
0.0000000000
10
3.6822242294
20
9.9723979054
30
0.0000000000
10
3.6836763032
20
9.9637857645
30
0.0000000000
10
3.6838936279
20
9.9604138272
30
0.0000000000
11
3.6736894346
21
9.9843213550
31
0.0000000000
11
3.6820522334
21
9.9706307160
31
0.0000000000
11
3.6838936279
21
9.9604138272
31
0.0000000000
0
SPLINE
5
3F1
100
AcDbEntity
8
0
100
AcDbSpline
62
9
6
CONTINUOUS
70
0
71
3
72
9
73
5
74
3
42
0.0000001000
43
0.0000001000
44
0.0000000001
12
0.0055719177
22
-0.0864520083
32
0.0000000000
13
-0.0279989414
23
-0.0807601353
33
0.0000000000
40
0.0000000000
40
0.0000000000
40
0.0000000000
40
0.0000000000
40
0.3242692351
40
1.0000000000
40
1.0000000000
40
1.0000000000
40
1.0000000000
10
3.6838936279
20
9.9604138272
30
0.0000000000
10
3.6844958951
20
9.9510692516
30
0.0000000000
10
3.6779093705
20
9.9229979243
30
0.0000000000
10
3.6695434489
20
9.8958950618
30
0.0000000000
10
3.6632368669
20
9.8777043591
30
0.0000000000
11
3.6838936279
21
9.9604138272
31
0.0000000000
11
3.6800371760
21
9.9329657505
31
0.0000000000
11
3.6632368669
21
9.8777043591
31
0.0000000000
0
SPLINE
5
3F2
100
AcDbEntity
8
0
100
AcDbSpline
62
9
6
CONTINUOUS
70
0
71
3
72
15
73
11
74
9
42
0.0000001000
43
0.0000001000
44
0.0000000001
12
0.0000000000
22
-0.7525366774
32
0.0000000000
13
-0.6071229345
23
-0.4484353448
33
0.0000000000
40
0.0000000000
40
0.0000000000
40
0.0000000000
40
0.0000000000
40
0.1221427668
40
0.2424442074
40
0.3658505159
40
0.4952556637
40
0.6332220271
40
0.7817854559
40
0.9435783286
40
1.0000000000
40
1.0000000000
40
1.0000000000
40
1.0000000000
10
11.3016003172
20
-2.4729602410
30
0.0000000000
10
11.3016003172
20
-2.5035992116
30
0.0000000000
10
11.2996214559
20
-2.5644386729
30
0.0000000000
10
11.2900716866
20
-2.6557952831
30
0.0000000000
10
11.2728399264
20
-2.7479093732
30
0.0000000000
10
11.2456621564
20
-2.8422763561
30
0.0000000000
10
11.2051540070
20
-2.9387471745
30
0.0000000000
10
11.1465139295
20
-3.0353167704
30
0.0000000000
10
11.0842279963
20
-3.1039958791
30
0.0000000000
10
11.0414169299
20
-3.1384299704
30
0.0000000000
10
11.0299986330
20
-3.1468637943
30
0.0000000000
11
11.3016003172
21
-2.4729602410
31
0.0000000000
11
11.2985024361
21
-2.5648249340
31
0.0000000000
11
11.2889602441
21
-2.6548518919
31
0.0000000000
11
11.2717095439
21
-2.7461033942
31
0.0000000000
11
11.2445137597
21
-2.8396109694
31
0.0000000000
11
11.2039666892
21
-2.9351908496
31
0.0000000000
11
11.1454693798
21
-3.0304650704
31
0.0000000000
11
11.0631707564
21
-3.1201937384
31
0.0000000000
11
11.0299986330
21
-3.1468637943
31
0.0000000000
0
SPLINE
5
3F3
100
AcDbEntity
8
0
100
AcDbSpline
62
9
6
CONTINUOUS
70
0
71
3
72
8
73
4
74
2
42
0.0000001000
43
0.0000001000
44
0.0000000001
12
-0.0421999320
22
-0.0311698669
32
0.0000000000
13
-0.0451784675
23
-0.0266713781
33
0.0000000000
40
0.0000000000
40
0.0000000000
40
0.0000000000
40
0.0000000000
40
1.0000000000
40
1.0000000000
40
1.0000000000
40
1.0000000000
10
11.0299986330
20
-3.1468637943
30
0.0000000000
10
11.0159319890
20
-3.1572537500
30
0.0000000000
10
11.0013356098
20
-3.1669311981
30
0.0000000000
10
10.9862761206
20
-3.1758216575
30
0.0000000000
11
11.0299986330
21
-3.1468637943
31
0.0000000000
11
10.9862761206
21
-3.1758216575
31
0.0000000000
0
SPLINE
5
3F4
100
AcDbEntity
8
0
100
AcDbSpline
62
9
6
CONTINUOUS
70
0
71
3
72
9
73
5
74
3
42
0.0000001000
43
0.0000001000
44
0.0000000001
12
0.0403013077
22
-0.0275501289
32
0.0000000000
13
-0.0025270235
23
-0.0490284962
33
0.0000000000
40
0.0000000000
40
0.0000000000
40
0.0000000000
40
0.0000000000
40
0.4414424483
40
1.0000000000
40
1.0000000000
40
1.0000000000
40
1.0000000000
10
4.8403199293
20
9.2719223006
30
0.0000000000
10
4.8462501653
20
9.2678683685
30
0.0000000000
10
4.8562014516
20
9.2523154456
30
0.0000000000
10
4.8575658362
20
9.2359980443
30
0.0000000000
10
4.8570953402
20
9.2268696321
30
0.0000000000
11
4.8403199293
21
9.2719223006
31
0.0000000000
11
4.8533626638
21
9.2539879528
31
0.0000000000
11
4.8570953402
21
9.2268696321
31
0.0000000000
0
SPLINE
5
3F5
100
AcDbEntity
8
0
100
AcDbSpline
62
9
6
CONTINUOUS
70
0
71
3
72
9
73
5
74
3
42
0.0000001000
43
0.0000001000
44
0.0000000001
12
-0.0041994169
22
-0.0814757352
32
0.0000000000
13
-0.0265903629
23
-0.0764929357
33
0.0000000000
40
0.0000000000
40
0.0000000000
40
0.0000000000
40
0.0000000000
40
0.2089296746
40
1.0000000000
40
1.0000000000
40
1.0000000000
40
1.0000000000
10
4.8570953402
20
9.2268696321
30
0.0000000000
10
4.8568028792
20
9.2211953991
30
0.0000000000
10
4.8531235716
20
9.1940105513
30
0.0000000000
10
4.8464923298
20
9.1679341244
30
0.0000000000
10
4.8394807141
20
9.1477636939
30
0.0000000000
11
4.8570953402
21
9.2268696321
31
0.0000000000
11
4.8551365894
21
9.2098843406
31
0.0000000000
11
4.8394807141
21
9.1477636939
31
0.0000000000
0
SPLINE
5
3F6
100
AcDbEntity
8
0
100
AcDbSpline
62
9
6
CONTINUOUS
70
0
71
3
72
13
73
9
74
7
42
0.0000001000
43
0.0000001000
44
0.0000000001
12
0.2204080180
22
-0.1102011896
32
0.0000000000
13
0.2210487251
23
0.1088418372
33
0.0000000000
40
0.0000000000
40
0.0000000000
40
0.0000000000
40
0.0000000000
40
0.0895674040
40
0.2563563747
40
0.4340288214
40
0.6198563453
40
0.8098822778
40
1.0000000000
40
1.0000000000
40
1.0000000000
40
1.0000000000
10
4.8796821897
20
9.2501634159
30
0.0000000000
10
4.8862626477
20
9.2468732710
30
0.0000000000
10
4.9052466317
20
9.2377560419
30
0.0000000000
10
4.9381446820
20
9.2239479581
30
0.0000000000
10
4.9796492596
20
9.2105256082
30
0.0000000000
10
5.0244217280
20
9.2017575379
30
0.0000000000
10
5.0711999111
20
9.2008782422
30
0.0000000000
10
5.1021102161
20
9.2089779019
30
0.0000000000
10
5.1161186428
20
9.2158754893
30
0.0000000000
11
4.8796821897
21
9.2501634159
31
0.0000000000
11
4.8995827060
21
9.2406197810
31
0.0000000000
11
4.9375192992
21
9.2248193301
31
0.0000000000
11
4.9792383430
21
9.2115545157
31
0.0000000000
11
5.0242443174
21
9.2031366540
31
0.0000000000
11
5.0710651323
21
9.2030498989
31
0.0000000000
11
5.1161186428
21
9.2158754893
31
0.0000000000
0
ENDSEC
0
SECTION
2
OBJECTS
0
DICTIONARY
5
C
100
AcDbDictionary
280
0
281
1
3
ACAD_GROUP
350
D
3
ACAD_MLINESTYLE
350
17
3
ACAD_LAYOUT
350
1A
3
ACAD_PLOTSETTINGS
350
19
3
ACAD_PLOTSTYLENAME
350
E
0
DICTIONARY
5
D
102
{ACAD_REACTORS
330
C
102
}
100
AcDbDictionary
280
0
281
1
0
ACDBDICTIONARYWDFLT
5
E
102
{ACAD_REACTORS
330
C
102
}
100
AcDbDictionary
281
1
3
Normal
350
F
100
AcDbDictionaryWithDefault
340
F
0
DICTIONARY
5
17
102
{ACAD_REACTORS
330
C
102
}
100
AcDbDictionary
280
0
281
1
3
Standard
350
18
0
DICTIONARY
5
19
102
{ACAD_REACTORS
330
C
102
}
100
AcDbDictionary
281
1
0
DICTIONARY
5
1A
102
{ACAD_REACTORS
330
C
102
}
100
AcDbDictionary
281
1
3
Layout1
350
1E
3
Model
350
22
0
ACDBPLACEHOLDER
5
F
102
{ACAD_REACTORS
330
E
102
}
0
MLINESTYLE
5
18
102
{ACAD_REACTORS
330
17
102
}
100
AcDbMlineStyle
2
STANDARD
70
0
3

62
256
51
90.0
52
90.0
71
2
49
0.5
62
256
6
BYLAYER
49
-0.5
62
256
6
BYLAYER
0
LAYOUT
5
1E
102
{ACAD_REACTORS
330
1A
102
}
100
AcDbPlotSettings
1

2

4

6

40
0.0
41
0.0
42
0.0
43
0.0
44
0.0
45
0.0
46
0.0
47
0.0
48
0.0
49
0.0
140
0.0
141
0.0
142
1.0
143
1.0
70
0
72
0
73
0
74
0
7

75
0
147
1.0
148
0.0
149
0.0
100
AcDbLayout
1
Layout1
70
0
71
0
10
0.0
20
0.0
11
0.0
21
0.0
12
0.0
22
0.0
32
0.0
14
0.0
24
0.0
34
0.0
15
0.0
25
0.0
35
0.0
146
0.0
13
0.0
23
0.0
33
0.0
16
0.0
26
0.0
36
0.0
17
0.0
27
0.0
37
0.0
76
0
330
1B
331
0
345
0
346
0
0
LAYOUT
5
22
102
{ACAD_REACTORS
330
1A
102
}
100
AcDbPlotSettings
1

2

4

6

40
0.0
41
0.0
42
0.0
43
0.0
44
0.0
45
0.0
46
0.0
47
0.0
48
0.0
49
0.0
140
0.0
141
0.0
142
1.0
143
1.0
70
0
72
0
73
0
74
0
7

75
0
147
1.0
148
0.0
149
0.0
100
AcDbLayout
1
Model
70
0
71
0
10
0.0
20
0.0
11
0.0
21
0.0
12
0.0
22
0.0
32
0.0
14
0.0
24
0.0
34
0.0
15
0.0
25
0.0
35
0.0
146
0.0
13
0.0
23
0.0
33
0.0
16
0.0
26
0.0
36
0.0
17
0.0
27
0.0
37
0.0
76
0
330
1F
331
0
345
0
346
0
0
ENDSEC
0
EOF
